999
DXF file: 001-m35443-p-1.dxf
999
Pro/ENGINEER 2011490 by Parametric Technology Corporation
  0
SECTION
  2
HEADER
  9
$ACADVER
  1
AC1015
  9
$DWGCODEPAGE
  3
ANSI_1252
  9
$EXTMAX
 10
297.0
 20
210.0
 30
0.0
  9
$EXTMIN
 10
0.0
 20
0.0
 30
0.0
  9
$LIMMIN
 10
0.0
 20
0.0
  9
$LIMMAX
 10
297.0
 20
210.0
  9
$VIEWCTR
 10
148.5
 20
105.0
  9
$VIEWSIZE
 40
210.0
  9
$CLAYER
  8
0
  9
$LTSCALE
 40
16.335
  9
$CELTYPE
  6
BYLAYER
  9
$DIMSCALE
 40
1.0
  9
$DIMASZ
 40
3.5
  9
$DIMEXO
 40
1.85625
  9
$DIMDLI
 40
11.286
  9
$DIMEXE
 40
5.346
  9
$DIMCEN
 40
2.673
  9
$DIMLFAC
 40
1.0
  9
$DIMBLK
  1
_FILLED
  9
$DIMTXT
 40
3.5
  9
$DIMTOL
 70
1
  9
$DIMLIM
 70
0
  9
$DIMTFAC
 40
1.0
  9
$DIMTP
 40
0.005
  9
$DIMTM
 40
0.005
  9
$PDMODE
 70
3
  9
$PDSIZE
 40
0.3125
  9
$HANDSEED
  5
3B5
  9
$TILEMODE
 70
1
  9
$MEASUREMENT
 70
1
  9
$INSUNITS
 70
4
  0
ENDSEC
  0
SECTION
  2
CLASSES
  0
CLASS
  1
ACDBDICTIONARYWDFLT
  2
AcDbDictionaryWithDefault
  3
AutoCAD 2000
 90
0
280
0
281
0
  0
CLASS
  1
ACDBPLACEHOLDER
  2
AcDbPlaceHolder
  3
AutoCAD 2000
 90
0
280
0
281
0
  0
CLASS
  1
LAYOUT
  2
AcDbLayout
  3
AutoCAD 2000
 90
0
280
0
281
0
  0
ENDSEC
  0
SECTION
  2
TABLES
  0
TABLE
  2
VPORT
  5
8
100
AcDbSymbolTable
 70
2
  0
VPORT
  5
1F4
100
AcDbSymbolTableRecord
100
AcDbViewportTableRecord
  2
*ACTIVE
 70
0
 10
0.0
 20
0.0
 11
1.0
 21
1.0
 12
148.5
 22
105.0
 13
0.0
 23
0.0
 14
1.0
 24
1.0
 15
0.0
 25
0.0
 16
0.0
 26
0.0
 36
1.0
 17
0.0
 27
0.0
 37
0.0
 40
210.0
 41
1.4142857143
 42
50.0
 43
0.0
 44
0.0
 50
0.0
 51
0.0
 71
0
 72
100
 73
1
 74
1
 75
0
 76
0
 77
0
 78
0
  0
ENDTAB
  0
TABLE
  2
LTYPE
  5
5
100
AcDbSymbolTable
 70
6
  0
LTYPE
  5
14
100
AcDbSymbolTableRecord
100
AcDbLinetypeTableRecord
  2
BYBLOCK
 70
0
  3

 72
65
 73
0
 40
0.0
  0
LTYPE
  5
15
100
AcDbSymbolTableRecord
100
AcDbLinetypeTableRecord
  2
BYLAYER
 70
0
  3

 72
65
 73
0
 40
0.0
  0
LTYPE
  5
16
100
AcDbSymbolTableRecord
100
AcDbLinetypeTableRecord
  2
CONTINUOUS
 70
64
  3
Solid line
 72
65
 73
0
 40
0.0
  0
LTYPE
  5
1F5
100
AcDbSymbolTableRecord
100
AcDbLinetypeTableRecord
  2
CENTER
 70
64
  3
____ _ ____ _ ____ _ ____ _ ____ _ ____ _ ____
 72
65
 73
4
 40
0.6
 49
0.375
 74
0
 49
-0.075
 74
0
 49
0.075
 74
0
 49
-0.075
 74
0
  0
LTYPE
  5
1F6
100
AcDbSymbolTableRecord
100
AcDbLinetypeTableRecord
  2
HIDDEN
 70
64
  3
- - - - - - - - - - - - - - - - - - - -
 72
65
 73
2
 40
0.2
 49
0.1
 74
0
 49
-0.1
 74
0
  0
LTYPE
  5
1F7
100
AcDbSymbolTableRecord
100
AcDbLinetypeTableRecord
  2
PHANTOM
 70
64
  3
_____ _ _ _____ _ _ _____ _ _ _____
 72
65
 73
6
 40
0.8
 49
0.45
 74
0
 49
-0.05
 74
0
 49
0.1
 74
0
 49
-0.05
 74
0
 49
0.1
 74
0
 49
-0.05
 74
0
  0
LTYPE
  5
1F8
100
AcDbSymbolTableRecord
100
AcDbLinetypeTableRecord
  2
DOT
 70
64
  3
. . . . . . . . . . . . . . . . . . . .
 72
65
 73
2
 40
0.2
 49
0.1
 74
0
 49
-0.1
 74
0
  0
LTYPE
  5
1F9
100
AcDbSymbolTableRecord
100
AcDbLinetypeTableRecord
  2
DASHED
 70
64
  3
- - - - - - - - - - - - - - - - - - - -
 72
65
 73
2
 40
0.2
 49
0.1
 74
0
 49
-0.1
 74
0
  0
ENDTAB
  0
TABLE
  2
LAYER
  5
2
100
AcDbSymbolTable
 70
36
  0
LAYER
  5
10
100
AcDbSymbolTableRecord
100
AcDbLayerTableRecord
  2
0
 70
0
 62
7
  6
CONTINUOUS
370
-3
390
F
  0
LAYER
  5
1FA
100
AcDbSymbolTableRecord
100
AcDbLayerTableRecord
  2
DEFAULT_1
 70
0
 62
7
  6
CENTER
370
-3
390
F
  0
LAYER
  5
1FB
100
AcDbSymbolTableRecord
100
AcDbLayerTableRecord
  2
DEFAULT_2
 70
0
 62
8
  6
HIDDEN
370
-3
390
F
  0
LAYER
  5
1FC
100
AcDbSymbolTableRecord
100
AcDbLayerTableRecord
  2
DEFAULT_3
 70
0
 62
7
  6
PHANTOM
370
-3
390
F
  0
LAYER
  5
1FD
100
AcDbSymbolTableRecord
100
AcDbLayerTableRecord
  2
AUSFORMSCHRAEGEN
 70
0
 62
7
  6
CONTINUOUS
370
-3
390
F
  0
LAYER
  5
1FE
100
AcDbSymbolTableRecord
100
AcDbLayerTableRecord
  2
BEZUGSACHSEN
 70
0
 62
7
  6
CONTINUOUS
370
-3
390
F
  0
LAYER
  5
1FF
100
AcDbSymbolTableRecord
100
AcDbLayerTableRecord
  2
BEZUGSEBENEN
 70
0
 62
7
  6
CONTINUOUS
370
-3
390
F
  0
LAYER
  5
200
100
AcDbSymbolTableRecord
100
AcDbLayerTableRecord
  2
FLAECHEN
 70
0
 62
7
  6
CONTINUOUS
370
-3
390
F
  0
LAYER
  5
201
100
AcDbSymbolTableRecord
100
AcDbLayerTableRecord
  2
HILFEN
 70
0
 62
7
  6
CONTINUOUS
370
-3
390
F
  0
LAYER
  5
202
100
AcDbSymbolTableRecord
100
AcDbLayerTableRecord
  2
KURVEN
 70
0
 62
7
  6
CONTINUOUS
370
-3
390
F
  0
LAYER
  5
203
100
AcDbSymbolTableRecord
100
AcDbLayerTableRecord
  2
PLATZIERUNG
 70
0
 62
7
  6
CONTINUOUS
370
-3
390
F
  0
LAYER
  5
204
100
AcDbSymbolTableRecord
100
AcDbLayerTableRecord
  2
RUNDUNGEN
 70
0
 62
7
  6
CONTINUOUS
370
-3
390
F
  0
LAYER
  5
205
100
AcDbSymbolTableRecord
100
AcDbLayerTableRecord
  2
TEIL_STARTBEZUEGE
 70
0
 62
7
  6
CONTINUOUS
370
-3
390
F
  0
LAYER
  5
206
100
AcDbSymbolTableRecord
100
AcDbLayerTableRecord
  2
ZEICHNUNGSBEMASSUNGEN
 70
0
 62
7
  6
CONTINUOUS
370
-3
390
F
  0
ENDTAB
  0
TABLE
  2
STYLE
  5
3
100
AcDbSymbolTable
 70
1
  0
STYLE
  5
11
100
AcDbSymbolTableRecord
100
AcDbTextStyleTableRecord
  2
STANDARD
 70
0
 40
0.0
 41
0.7
 50
0.0
 71
0
 42
0.2
  3
txt
  4

  0
STYLE
  5
207
100
AcDbSymbolTableRecord
100
AcDbTextStyleTableRecord
  2
TEXTSTYLE_1
 70
0
 40
0.0
 41
0.8
 50
0.0
 71
0
 42
0.2
  3
gdt
  4

  0
ENDTAB
  0
TABLE
  2
VIEW
  5
6
100
AcDbSymbolTable
 70
0
  0
ENDTAB
  0
TABLE
  2
UCS
  5
7
100
AcDbSymbolTable
 70
0
  0
ENDTAB
  0
TABLE
  2
APPID
  5
9
100
AcDbSymbolTable
 70
1
  0
APPID
  5
208
100
AcDbSymbolTableRecord
100
AcDbRegAppTableRecord
  2
ACAD
 70
0
  0
ENDTAB
  0
TABLE
  2
BLOCK_RECORD
  5
1
100
AcDbSymbolTable
 70
0
  0
BLOCK_RECORD
  5
209
100
AcDbSymbolTableRecord
100
AcDbBlockTableRecord
  2
*Model_Space
  0
BLOCK_RECORD
  5
20A
100
AcDbSymbolTableRecord
100
AcDbBlockTableRecord
  2
*Paper_Space
  0
ENDTAB
  0
TABLE
  2
DIMSTYLE
  5
A
100
AcDbSymbolTable
 70
1
100
AcDbDimStyleTable
 71
0
  0
DIMSTYLE
105
20B
100
AcDbSymbolTableRecord
100
AcDbDimStyleTableRecord
  2
STANDARD
 70
0
  3

  4

 40
1.0
 41
3.5
 42
0.0625
 43
0.38
 44
0.18
 45
0.0
 46
0.0
 47
0.005
 48
0.005
140
3.5
141
0.09
142
0.0
143
25.4
144
1.0
145
0.0
146
1.0
147
0.09
 71
1.0
 72
0.0
 73
0
 74
0
 75
0
 76
0
 77
1
 78
8
170
0
171
2
172
0
173
0
174
0
175
0
176
0
177
0
178
5
270
2
271
3
272
3
273
2
274
2
275
0
280
0
281
0
282
0
283
1
284
8
285
0
286
0
287
3
288
0
340
11
  0
ENDTAB
  0
ENDSEC
  0
SECTION
  2
BLOCKS
  0
BLOCK
  5
20
100
AcDbEntity
  8
0
100
AcDbBlockBegin
  2
*Model_Space
 70
0
 10
0.0
 20
0.0
 30
0.0
  3
*Model_Space
  1

  0
ENDBLK
  5
21
100
AcDbEntity
  8
0
100
AcDbBlockEnd
  0
BLOCK
  5
1C
100
AcDbEntity
  8
0
100
AcDbBlockBegin
  2
*Paper_Space
 70
0
 10
0.0
 20
0.0
 30
0.0
  3
*Paper_Space
  1

  0
ENDBLK
  5
1D
100
AcDbEntity
  8
0
100
AcDbBlockEnd
  0
ENDSEC
  0
SECTION
  2
ENTITIES
  0
MTEXT
  5
20C
100
AcDbEntity
  8
0
100
AcDbMText
 62
5
  6
CONTINUOUS
  7
STANDARD
 71
1
 72
1
 10
86.6393107691
 20
131.6357994676
 30
0.0
 11
1.0
 21
0.0
 31
0.0
 44
0.9
  1
RUD ABA 0,8t
 40
3.5
 41
33.0833333333
  0
MTEXT
  5
20D
100
AcDbEntity
  8
0
100
AcDbMText
 62
5
  6
CONTINUOUS
  7
STANDARD
 71
1
 72
1
 10
216.7229867812
 20
133.8777221776
 30
0.0
 11
0.0
 21
1.0
 31
0.0
 44
0.9
  1
RUD ABA 0,8t
 40
3.5
 41
33.0833333333
  0
MTEXT
  5
20E
100
AcDbEntity
  8
0
100
AcDbMText
 62
5
  6
CONTINUOUS
  7
STANDARD
 71
1
 72
1
 10
85.6953203847
 20
41.4812251162
 30
0.0
 11
1.0
 21
0.0
 31
0.0
 44
0.9
  1
RUD ABA 0,8t
 40
3.5
 41
33.0833333333
  0
LINE
  5
20F
100
AcDbEntity
  8
0
100
AcDbLine
 62
7
  6
CONTINUOUS
 10
0.0
 20
0.0
 11
0.0
 21
210.0
  0
LINE
  5
210
100
AcDbEntity
  8
0
100
AcDbLine
 62
7
  6
CONTINUOUS
 10
0.0
 20
0.0
 11
297.0
 21
0.0
  0
LINE
  5
211
100
AcDbEntity
  8
0
100
AcDbLine
 62
7
  6
CONTINUOUS
 10
0.0
 20
210.0
 11
297.0
 21
210.0
  0
LINE
  5
212
100
AcDbEntity
  8
0
100
AcDbLine
 62
7
  6
CONTINUOUS
 10
297.0
 20
0.0
 11
297.0
 21
210.0
  0
LINE
  5
213
100
AcDbEntity
  8
RUNDUNGEN
100
AcDbLine
 62
7
  6
CONTINUOUS
 10
69.1404863615
 20
137.2609822998
 11
69.1404863615
 21
131.8149355535
  0
LINE
  5
214
100
AcDbEntity
  8
BEZUGSACHSEN
100
AcDbLine
 62
7
  6
CONTINUOUS
 10
69.1404863615
 20
126.2334061258
 11
69.1404863615
 21
131.8149355535
  0
LINE
  5
215
100
AcDbEntity
  8
RUNDUNGEN
100
AcDbLine
 62
7
  6
CONTINUOUS
 10
69.2867684114
 20
139.1947643626
 11
69.1404863615
 21
137.2609822998
  0
LINE
  5
216
100
AcDbEntity
  8
RUNDUNGEN
100
AcDbLine
 62
7
  6
CONTINUOUS
 10
70.527385599
 20
147.3480377972
 11
69.2867684114
 21
139.1947643626
  0
LINE
  5
217
100
AcDbEntity
  8
0
100
AcDbLine
 62
7
  6
CONTINUOUS
 10
73.9524273399
 20
142.1332653459
 11
73.8426832203
 21
142.4910916518
  0
LINE
  5
218
100
AcDbEntity
  8
0
100
AcDbLine
 62
7
  6
CONTINUOUS
 10
73.5188895518
 20
142.1250907094
 11
73.5592909232
 21
141.8641102046
  0
LINE
  5
219
100
AcDbEntity
  8
0
100
AcDbLine
 62
7
  6
CONTINUOUS
 10
75.8867401229
 20
145.2615681511
 11
75.9126707852
 21
144.918520177
  0
LINE
  5
21A
100
AcDbEntity
  8
0
100
AcDbLine
 62
7
  6
CONTINUOUS
 10
73.1709130373
 20
149.4636724901
 11
72.8236166819
 21
147.4940569841
  0
LINE
  5
21B
100
AcDbEntity
  8
0
100
AcDbLine
 62
7
  6
CONTINUOUS
 10
72.7078512578
 20
146.8375186386
 11
72.6210271689
 21
146.3451147621
  0
LINE
  5
21C
100
AcDbEntity
  8
0
100
AcDbLine
 62
7
  6
CONTINUOUS
 10
72.2737308136
 20
144.3754992561
 11
72.1869066834
 21
143.8830951448
  0
LINE
  5
21D
100
AcDbEntity
  8
0
100
AcDbLine
 62
7
  6
CONTINUOUS
 10
71.8685517048
 20
142.0776143425
 11
71.5212553494
 21
140.1079988365
  0
LINE
  5
21E
100
AcDbEntity
  8
0
100
AcDbLine
 62
7
  6
CONTINUOUS
 10
72.0271465173
 20
140.5265098802
 11
72.3020894514
 21
142.0857887442
  0
LINE
  5
21F
100
AcDbEntity
  8
0
100
AcDbLine
 62
7
  6
CONTINUOUS
 10
73.4133212656
 20
147.8977894613
 11
73.6737935321
 21
149.3750010908
  0
LINE
  5
220
100
AcDbEntity
  8
0
100
AcDbLine
 62
7
  6
CONTINUOUS
 10
73.5592909232
 20
141.8641102046
 11
73.284347989
 21
140.3048313406
  0
LINE
  5
221
100
AcDbEntity
  8
0
100
AcDbLine
 62
7
  6
CONTINUOUS
 10
73.3802040969
 20
142.3187825463
 11
73.5188895518
 21
142.1250907094
  0
LINE
  5
222
100
AcDbEntity
  8
0
100
AcDbLine
 62
7
  6
CONTINUOUS
 10
76.5813327507
 20
149.2007986936
 11
76.6072634958
 21
148.8577511891
  0
LINE
  5
223
100
AcDbEntity
  8
0
100
AcDbLine
 62
7
  6
CONTINUOUS
 10
76.4155513387
 20
144.8298487674
 11
76.4040912953
 21
145.2549637425
  0
LINE
  5
224
100
AcDbEntity
  8
0
100
AcDbLine
 62
7
  6
CONTINUOUS
 10
77.1101440493
 20
148.7690797794
 11
77.0986840887
 21
149.1941952241
  0
LINE
  5
225
100
AcDbEntity
  8
0
100
AcDbLine
 62
7
  6
CONTINUOUS
 10
73.7872284838
 20
140.2161599413
 11
74.0332300619
 21
141.6113042189
  0
LINE
  5
226
100
AcDbEntity
  8
0
100
AcDbLine
 62
7
  6
CONTINUOUS
 10
76.6072634958
 20
148.8577511891
 11
76.3467912293
 21
147.3805395596
  0
LINE
  5
227
100
AcDbEntity
  8
0
100
AcDbLine
 62
7
  6
CONTINUOUS
 10
75.9126707852
 20
144.918520177
 11
75.8547880317
 21
144.5902507695
  0
LINE
  5
228
100
AcDbEntity
  8
0
100
AcDbLine
 62
7
  6
CONTINUOUS
 10
75.4604863615
 20
139.4134061258
 11
75.5473104503
 21
139.9058100023
  0
LINE
  5
229
100
AcDbEntity
  8
0
100
AcDbLine
 62
7
  6
CONTINUOUS
 10
75.9090774733
 20
141.9574927428
 11
76.0103722712
 21
142.5319640886
  0
LINE
  5
22A
100
AcDbEntity
  8
0
100
AcDbLine
 62
7
  6
CONTINUOUS
 10
76.3576685852
 20
144.5015793599
 11
76.4155513387
 21
144.8298487674
  0
LINE
  5
22B
100
AcDbEntity
  8
0
100
AcDbLine
 62
7
  6
CONTINUOUS
 10
76.762847694
 20
146.7994642734
 11
77.1101440493
 21
148.7690797794
  0
LINE
  5
22C
100
AcDbEntity
  8
0
100
AcDbLine
 62
7
  6
CONTINUOUS
 10
73.3270799156
 20
149.8592308004
 11
73.1709130373
 21
149.4636724901
  0
LINE
  5
22D
100
AcDbEntity
  8
0
100
AcDbLine
 62
7
  6
CONTINUOUS
 10
72.0247185417
 20
142.473172418
 11
71.8685517048
 21
142.0776143425
  0
LINE
  5
22E
100
AcDbEntity
  8
0
100
AcDbLine
 62
7
  6
CONTINUOUS
 10
73.6737935321
 20
149.3750010908
 11
73.8154896185
 21
149.6884914622
  0
LINE
  5
22F
100
AcDbEntity
  8
0
100
AcDbLine
 62
7
  6
CONTINUOUS
 10
73.8426832203
 20
142.4910916518
 11
73.5508416016
 21
142.7964078562
  0
LINE
  5
230
100
AcDbEntity
  8
0
100
AcDbLine
 62
7
  6
CONTINUOUS
 10
76.2943471952
 20
145.612790287
 11
76.0169762561
 21
146.0001739659
  0
LINE
  5
231
100
AcDbEntity
  8
0
100
AcDbLine
 62
7
  6
CONTINUOUS
 10
75.762525277
 20
145.5373272328
 11
75.8867401229
 21
145.2615681511
  0
LINE
  5
232
100
AcDbEntity
  8
0
100
AcDbLine
 62
7
  6
CONTINUOUS
 10
76.4571179049
 20
149.4765577753
 11
76.5813327507
 21
149.2007986936
  0
LINE
  5
233
100
AcDbEntity
  8
0
100
AcDbLine
 62
7
  6
CONTINUOUS
 10
76.4040912953
 20
145.2549637425
 11
76.2943471952
 21
145.612790287
  0
LINE
  5
234
100
AcDbEntity
  8
0
100
AcDbLine
 62
7
  6
CONTINUOUS
 10
77.0986840887
 20
149.1941952241
 11
76.9889399058
 21
149.552021299
  0
LINE
  5
235
100
AcDbEntity
  8
0
100
AcDbLine
 62
7
  6
CONTINUOUS
 10
76.2015017823
 20
144.1060215205
 11
76.3576685852
 21
144.5015793599
  0
LINE
  5
236
100
AcDbEntity
  8
BEZUGSACHSEN
100
AcDbLine
 62
7
  6
CONTINUOUS
 10
78.955636919
 20
150.1468233496
 11
84.9791182691
 21
164.6887937175
  0
LINE
  5
237
100
AcDbEntity
  8
0
100
AcDbLine
 62
7
  6
CONTINUOUS
 10
75.8547880317
 20
144.5902507695
 11
75.7130919452
 21
144.2767603981
  0
LINE
  5
238
100
AcDbEntity
  8
0
100
AcDbLine
 62
7
  6
CONTINUOUS
 10
72.3020894514
 20
142.0857887442
 11
72.4293149116
 21
142.3172121159
  0
LINE
  5
239
100
AcDbEntity
  8
0
100
AcDbLine
 62
7
  6
CONTINUOUS
 10
73.5525894179
 20
150.1579426052
 11
73.3270799156
 21
149.8592308004
  0
LINE
  5
23A
100
AcDbEntity
  8
RUNDUNGEN
100
AcDbLine
 62
7
  6
CONTINUOUS
 10
139.1404863615
 20
126.2334061258
 11
137.6404863615
 21
126.2334061258
  0
LINE
  5
23B
100
AcDbEntity
  8
BEZUGSACHSEN
100
AcDbLine
 62
7
  6
CONTINUOUS
 10
69.1404863615
 20
126.2334061258
 11
137.6404863615
 21
126.2334061258
  0
LINE
  5
23C
100
AcDbEntity
  8
0
100
AcDbLine
 62
7
  6
CONTINUOUS
 10
75.5400263649
 20
145.7457974014
 11
75.762525277
 21
145.5373272328
  0
LINE
  5
23D
100
AcDbEntity
  8
0
100
AcDbLine
 62
7
  6
CONTINUOUS
 10
76.9889399058
 20
149.552021299
 11
76.711568884
 21
149.9394045083
  0
LINE
  5
23E
100
AcDbEntity
  8
BEZUGSACHSEN
100
AcDbLine
 62
7
  6
CONTINUOUS
 10
79.5352946161
 20
144.9205714281
 11
78.9556368934
 21
146.319988964
  0
LINE
  5
23F
100
AcDbEntity
  8
0
100
AcDbLine
 62
7
  6
CONTINUOUS
 10
73.8154896185
 20
149.6884914622
 11
74.0265284945
 21
149.9051362673
  0
LINE
  5
240
100
AcDbEntity
  8
RUNDUNGEN
100
AcDbLine
 62
7
  6
CONTINUOUS
 10
87.6850987698
 20
167.3947742182
 11
102.2270691997
 21
173.4182555939
  0
LINE
  5
241
100
AcDbEntity
  8
0
100
AcDbLine
 62
7
  6
CONTINUOUS
 10
73.1432345172
 20
142.4451854804
 11
73.3802040969
 21
142.3187825463
  0
LINE
  5
242
100
AcDbEntity
  8
0
100
AcDbLine
 62
7
  6
CONTINUOUS
 10
73.5508416016
 20
142.7964078562
 11
73.3138720219
 21
142.9228107904
  0
LINE
  5
243
100
AcDbEntity
  8
0
100
AcDbLine
 62
7
  6
CONTINUOUS
 10
76.0169762561
 20
146.0001739659
 11
75.7106638696
 21
146.2234227114
  0
LINE
  5
244
100
AcDbEntity
  8
0
100
AcDbLine
 62
7
  6
CONTINUOUS
 10
76.2346190756
 20
149.6850284135
 11
76.4571179049
 21
149.4765577753
  0
LINE
  5
245
100
AcDbEntity
  8
BEZUGSACHSEN
100
AcDbLine
 62
7
  6
CONTINUOUS
 10
77.7909787194
 20
136.8825860096
 11
79.5351709417
 21
141.0934385279
  0
LINE
  5
246
100
AcDbEntity
  8
0
100
AcDbLine
 62
7
  6
CONTINUOUS
 10
75.9759921752
 20
143.8073092499
 11
76.2015017823
 21
144.1060215205
  0
LINE
  5
247
100
AcDbEntity
  8
0
100
AcDbLine
 62
7
  6
CONTINUOUS
 10
134.943530368
 20
139.3121331525
 11
135.3625974469
 21
139.3860259853
  0
LINE
  5
248
100
AcDbEntity
  8
0
100
AcDbLine
 62
7
  6
CONTINUOUS
 10
131.9738837489
 20
139.0000519447
 11
132.3929508646
 21
139.0739447839
  0
LINE
  5
249
100
AcDbEntity
  8
0
100
AcDbLine
 62
7
  6
CONTINUOUS
 10
76.711568884
 20
149.9394045083
 11
76.4052565802
 21
150.1626537235
  0
LINE
  5
24A
100
AcDbEntity
  8
0
100
AcDbLine
 62
7
  6
CONTINUOUS
 10
75.7130919452
 20
144.2767603981
 11
75.5020530105
 21
144.0601156033
  0
LINE
  5
24B
100
AcDbEntity
  8
0
100
AcDbLine
 62
7
  6
CONTINUOUS
 10
72.3340415012
 20
142.7571058911
 11
72.0247185417
 21
142.473172418
  0
LINE
  5
24C
100
AcDbEntity
  8
0
100
AcDbLine
 62
7
  6
CONTINUOUS
 10
73.9457257518
 20
150.427097277
 11
73.5525894179
 21
150.1579426052
  0
LINE
  5
24D
100
AcDbEntity
  8
0
100
AcDbLine
 62
7
  6
CONTINUOUS
 10
132.8587564265
 20
140.1080413209
 11
134.7445584287
 21
140.4405590942
  0
LINE
  5
24E
100
AcDbEntity
  8
0
100
AcDbLine
 62
7
  6
CONTINUOUS
 10
135.1636255077
 20
140.5144519269
 11
136.0017599592
 21
140.6622376442
  0
LINE
  5
24F
100
AcDbEntity
  8
0
100
AcDbLine
 62
7
  6
CONTINUOUS
 10
135.911318131
 20
141.1751587402
 11
135.0731836795
 21
141.027373023
  0
LINE
  5
250
100
AcDbEntity
  8
0
100
AcDbLine
 62
7
  6
CONTINUOUS
 10
134.6541166005
 20
140.9534801902
 11
132.5587809855
 21
140.5840159876
  0
LINE
  5
251
100
AcDbEntity
  8
0
100
AcDbLine
 62
7
  6
CONTINUOUS
 10
134.9284770028
 20
141.8480453678
 11
134.5094099238
 21
141.7741525351
  0
LINE
  5
252
100
AcDbEntity
  8
0
100
AcDbLine
 62
7
  6
CONTINUOUS
 10
71.5212553494
 20
140.1079988365
 11
75.4604863615
 21
139.4134061258
  0
LINE
  5
253
100
AcDbEntity
  8
0
100
AcDbLine
 62
7
  6
CONTINUOUS
 10
75.5473104503
 20
139.9058100023
 11
73.7872284838
 21
140.2161599413
  0
LINE
  5
254
100
AcDbEntity
  8
0
100
AcDbLine
 62
7
  6
CONTINUOUS
 10
73.284347989
 20
140.3048313406
 11
72.0271465173
 21
140.5265098802
  0
LINE
  5
255
100
AcDbEntity
  8
0
100
AcDbLine
 62
7
  6
CONTINUOUS
 10
72.891794035
 20
142.4895212214
 11
73.1432345172
 21
142.4451854804
  0
LINE
  5
256
100
AcDbEntity
  8
0
100
AcDbLine
 62
7
  6
CONTINUOUS
 10
75.7106638696
 20
146.2234227114
 11
75.3060674997
 21
146.3793830134
  0
LINE
  5
257
100
AcDbEntity
  8
0
100
AcDbLine
 62
7
  6
CONTINUOUS
 10
75.2192434108
 20
145.8869791369
 11
75.5400263649
 21
145.7457974014
  0
LINE
  5
258
100
AcDbEntity
  8
0
100
AcDbLine
 62
7
  6
CONTINUOUS
 10
132.6884345774
 20
142.299254697
 11
133.0027348866
 21
142.3546743216
  0
LINE
  5
259
100
AcDbEntity
  8
0
100
AcDbLine
 62
7
  6
CONTINUOUS
 10
134.7656818362
 20
142.7713026363
 11
135.0799821454
 21
142.8267222608
  0
LINE
  5
25A
100
AcDbEntity
  8
0
100
AcDbLine
 62
7
  6
CONTINUOUS
 10
132.9122931619
 20
142.8675948306
 11
132.5979928527
 21
142.812175206
  0
LINE
  5
25B
100
AcDbEntity
  8
0
100
AcDbLine
 62
7
  6
CONTINUOUS
 10
134.9895403172
 20
143.3396433568
 11
134.7800067778
 21
143.3026969405
  0
LINE
  5
25C
100
AcDbEntity
  8
BEZUGSACHSEN
100
AcDbLine
 62
7
  6
CONTINUOUS
 10
70.4061873457
 20
133.2965238807
 11
73.9525531955
 21
133.8573477027
  0
LINE
  5
25D
100
AcDbEntity
  8
RUNDUNGEN
100
AcDbLine
 62
7
  6
CONTINUOUS
 10
137.8747853773
 20
133.2965238807
 11
134.3284195275
 21
133.8573477027
  0
LINE
  5
25E
100
AcDbEntity
  8
0
100
AcDbLine
 62
7
  6
CONTINUOUS
 10
73.3138720219
 20
142.9228107904
 11
72.9786181239
 21
142.981925098
  0
LINE
  5
25F
100
AcDbEntity
  8
0
100
AcDbLine
 62
7
  6
CONTINUOUS
 10
72.1869066834
 20
143.8830951448
 11
74.7851229253
 21
143.4249595196
  0
LINE
  5
260
100
AcDbEntity
  8
0
100
AcDbLine
 62
7
  6
CONTINUOUS
 10
74.8719470555
 20
143.9173636309
 11
72.2737308136
 21
144.3754992561
  0
LINE
  5
261
100
AcDbEntity
  8
0
100
AcDbLine
 62
7
  6
CONTINUOUS
 10
75.9138360387
 20
149.8262096794
 11
76.2346190756
 21
149.6850284135
  0
LINE
  5
262
100
AcDbEntity
  8
0
100
AcDbLine
 62
7
  6
CONTINUOUS
 10
72.4293149116
 20
142.3172121159
 11
72.62588312
 21
142.4517896866
  0
LINE
  5
263
100
AcDbEntity
  8
0
100
AcDbLine
 62
7
  6
CONTINUOUS
 10
75.5828558119
 20
143.5381545834
 11
75.9759921752
 21
143.8073092499
  0
LINE
  5
264
100
AcDbEntity
  8
0
100
AcDbLine
 62
7
  6
CONTINUOUS
 10
74.0265284945
 20
149.9051362673
 11
74.3069103949
 21
150.0249354649
  0
LINE
  5
265
100
AcDbEntity
  8
0
100
AcDbLine
 62
7
  6
CONTINUOUS
 10
134.3458863336
 20
145.764716323
 11
134.5554198731
 21
145.8016627394
  0
LINE
  5
266
100
AcDbEntity
  8
0
100
AcDbLine
 62
7
  6
CONTINUOUS
 10
132.1276956358
 20
145.4793632618
 11
132.4419959451
 21
145.5347828863
  0
LINE
  5
267
100
AcDbEntity
  8
0
100
AcDbLine
 62
7
  6
CONTINUOUS
 10
134.4649781484
 20
146.3145832484
 11
134.1506778391
 21
146.2591636238
  0
LINE
  5
268
100
AcDbEntity
  8
0
100
AcDbLine
 62
7
  6
CONTINUOUS
 10
132.3515542204
 20
146.0477033954
 11
132.0372539111
 21
145.9922837708
  0
LINE
  5
269
100
AcDbEntity
  8
0
100
AcDbLine
 62
7
  6
CONTINUOUS
 10
72.6210271689
 20
146.3451147621
 11
75.2192434108
 21
145.8869791369
  0
LINE
  5
26A
100
AcDbEntity
  8
0
100
AcDbLine
 62
7
  6
CONTINUOUS
 10
75.3060674997
 20
146.3793830134
 11
72.7078512578
 21
146.8375186386
  0
LINE
  5
26B
100
AcDbEntity
  8
0
100
AcDbLine
 62
7
  6
CONTINUOUS
 10
72.8236166819
 20
147.4940569841
 11
76.762847694
 21
146.7994642734
  0
LINE
  5
26C
100
AcDbEntity
  8
0
100
AcDbLine
 62
7
  6
CONTINUOUS
 10
76.3467912293
 20
147.3805395596
 11
73.4133212656
 21
147.8977894613
  0
LINE
  5
26D
100
AcDbEntity
  8
0
100
AcDbLine
 62
7
  6
CONTINUOUS
 10
76.4052565802
 20
150.1626537235
 11
76.0006601275
 21
150.3186135559
  0
LINE
  5
26E
100
AcDbEntity
  8
0
100
AcDbLine
 62
7
  6
CONTINUOUS
 10
72.7127072088
 20
142.9441935631
 11
72.3340415012
 21
142.7571058911
  0
LINE
  5
26F
100
AcDbEntity
  8
0
100
AcDbLine
 62
7
  6
CONTINUOUS
 10
74.3099208331
 20
150.5321179493
 11
73.9457257518
 21
150.427097277
  0
LINE
  5
270
100
AcDbEntity
  8
0
100
AcDbLine
 62
7
  6
CONTINUOUS
 10
132.2822359464
 20
148.8913680593
 11
133.2251368741
 21
149.057626933
  0
LINE
  5
271
100
AcDbEntity
  8
0
100
AcDbLine
 62
7
  6
CONTINUOUS
 10
133.0299283279
 20
149.5520745274
 11
132.2965609397
 21
149.4227620701
  0
LINE
  5
272
100
AcDbEntity
  8
0
100
AcDbLine
 62
7
  6
CONTINUOUS
 10
75.221671345
 20
143.9403163644
 11
74.8719470555
 21
143.9173636309
  0
LINE
  5
273
100
AcDbEntity
  8
0
100
AcDbLine
 62
7
  6
CONTINUOUS
 10
74.7851229253
 20
143.4249595196
 11
75.2186607133
 21
143.4331341561
  0
LINE
  5
274
100
AcDbEntity
  8
0
100
AcDbLine
 62
7
  6
CONTINUOUS
 10
74.6566346843
 20
150.0478881983
 11
75.9138360387
 21
149.8262096794
  0
LINE
  5
275
100
AcDbEntity
  8
0
100
AcDbLine
 62
7
  6
CONTINUOUS
 10
76.0006601275
 20
150.3186135559
 11
74.7434587732
 21
150.5402920749
  0
LINE
  5
276
100
AcDbEntity
  8
0
100
AcDbLine
 62
7
  6
CONTINUOUS
 10
75.5020530105
 20
144.0601156033
 11
75.221671345
 21
143.9403163644
  0
LINE
  5
277
100
AcDbEntity
  8
0
100
AcDbLine
 62
7
  6
CONTINUOUS
 10
76.0103722712
 20
142.5319640886
 11
73.9524273399
 21
142.1332653459
  0
LINE
  5
278
100
AcDbEntity
  8
0
100
AcDbLine
 62
7
  6
CONTINUOUS
 10
74.0332300619
 20
141.6113042189
 11
75.9090774733
 21
141.9574927428
  0
LINE
  5
279
100
AcDbEntity
  8
0
100
AcDbLine
 62
7
  6
CONTINUOUS
 10
131.8262638069
 20
152.0899496489
 11
132.5596311952
 21
152.2192621062
  0
LINE
  5
27A
100
AcDbEntity
  8
0
100
AcDbLine
 62
7
  6
CONTINUOUS
 10
132.5739562079
 20
152.7506560068
 11
131.6310552802
 21
152.5843971331
  0
LINE
  5
27B
100
AcDbEntity
  8
0
100
AcDbLine
 62
7
  6
CONTINUOUS
 10
72.62588312
 20
142.4517896866
 11
72.891794035
 21
142.4895212214
  0
LINE
  5
27C
100
AcDbEntity
  8
0
100
AcDbLine
 62
7
  6
CONTINUOUS
 10
72.9786181239
 20
142.981925098
 11
72.7127072088
 21
142.9441935631
  0
LINE
  5
27D
100
AcDbEntity
  8
0
100
AcDbLine
 62
7
  6
CONTINUOUS
 10
132.1284238826
 20
142.4120573163
 11
132.6884345774
 21
142.299254697
  0
LINE
  5
27E
100
AcDbEntity
  8
0
100
AcDbLine
 62
7
  6
CONTINUOUS
 10
75.2186607133
 20
143.4331341561
 11
75.5828558119
 21
143.5381545834
  0
LINE
  5
27F
100
AcDbEntity
  8
0
100
AcDbLine
 62
7
  6
CONTINUOUS
 10
74.7434587732
 20
150.5402920749
 11
74.3099208331
 21
150.5321179493
  0
LINE
  5
280
100
AcDbEntity
  8
0
100
AcDbLine
 62
7
  6
CONTINUOUS
 10
132.2965609397
 20
149.4227620701
 11
131.6498718399
 21
149.4145068382
  0
LINE
  5
281
100
AcDbEntity
  8
0
100
AcDbLine
 62
7
  6
CONTINUOUS
 10
131.7403136163
 20
148.9015860356
 11
132.2822359464
 21
148.8913680593
  0
LINE
  5
282
100
AcDbEntity
  8
0
100
AcDbLine
 62
7
  6
CONTINUOUS
 10
134.3104379845
 20
142.9025784767
 11
134.7656818362
 21
142.7713026363
  0
LINE
  5
283
100
AcDbEntity
  8
0
100
AcDbLine
 62
7
  6
CONTINUOUS
 10
74.3069103949
 20
150.0249354649
 11
74.6566346843
 21
150.0478881983
  0
LINE
  5
284
100
AcDbEntity
  8
0
100
AcDbLine
 62
7
  6
CONTINUOUS
 10
132.5596311952
 20
152.2192621062
 11
133.2063201676
 21
152.2275172021
  0
LINE
  5
285
100
AcDbEntity
  8
0
100
AcDbLine
 62
7
  6
CONTINUOUS
 10
133.115878409
 20
152.7404379038
 11
132.5739562079
 21
152.7506560068
  0
LINE
  5
286
100
AcDbEntity
  8
0
100
AcDbLine
 62
7
  6
CONTINUOUS
 10
131.4079249208
 20
148.9487507477
 11
131.7403136163
 21
148.9015860356
  0
LINE
  5
287
100
AcDbEntity
  8
0
100
AcDbLine
 62
7
  6
CONTINUOUS
 10
132.911564885
 20
145.934901376
 11
132.3515542204
 21
146.0477033954
  0
LINE
  5
288
100
AcDbEntity
  8
0
100
AcDbLine
 62
7
  6
CONTINUOUS
 10
135.0249889598
 20
146.2017812549
 11
134.4649781484
 21
146.3145832484
  0
LINE
  5
289
100
AcDbEntity
  8
0
100
AcDbLine
 62
7
  6
CONTINUOUS
 10
133.4482673641
 20
152.6932734361
 11
133.115878409
 21
152.7404379038
  0
LINE
  5
28A
100
AcDbEntity
  8
0
100
AcDbLine
 62
7
  6
CONTINUOUS
 10
130.9526810992
 20
149.0800259882
 11
131.4079249208
 21
148.9487507477
  0
LINE
  5
28B
100
AcDbEntity
  8
0
100
AcDbLine
 62
7
  6
CONTINUOUS
 10
129.8982149443
 20
147.0959437621
 11
131.1591796693
 21
146.6836442324
  0
LINE
  5
28C
100
AcDbEntity
  8
0
100
AcDbLine
 62
7
  6
CONTINUOUS
 10
131.0687378411
 20
147.1965653284
 11
129.8077731679
 21
147.6088645646
  0
LINE
  5
28D
100
AcDbEntity
  8
0
100
AcDbLine
 62
7
  6
CONTINUOUS
 10
134.7800067778
 20
143.3026969405
 11
134.4295297993
 21
143.4524454021
  0
LINE
  5
28E
100
AcDbEntity
  8
0
100
AcDbLine
 62
7
  6
CONTINUOUS
 10
132.5979928527
 20
142.812175206
 11
132.1246606448
 21
143.0460347832
  0
LINE
  5
28F
100
AcDbEntity
  8
0
100
AcDbLine
 62
7
  6
CONTINUOUS
 10
131.6310552802
 20
152.5843971331
 11
131.1253096371
 21
152.3894469223
  0
LINE
  5
290
100
AcDbEntity
  8
0
100
AcDbLine
 62
7
  6
CONTINUOUS
 10
131.2157513957
 20
151.8765262207
 11
131.8262638069
 21
152.0899496489
  0
LINE
  5
291
100
AcDbEntity
  8
0
100
AcDbLine
 62
7
  6
CONTINUOUS
 10
134.5554198731
 20
145.8016627394
 11
134.905897145
 21
145.6519143295
  0
LINE
  5
292
100
AcDbEntity
  8
0
100
AcDbLine
 62
7
  6
CONTINUOUS
 10
132.4419959451
 20
145.5347828863
 11
132.9153282263
 21
145.3009233222
  0
LINE
  5
293
100
AcDbEntity
  8
0
100
AcDbLine
 62
7
  6
CONTINUOUS
 10
131.7598585846
 20
142.6643895211
 11
132.1284238826
 21
142.4120573163
  0
LINE
  5
294
100
AcDbEntity
  8
0
100
AcDbLine
 62
7
  6
CONTINUOUS
 10
131.1253096371
 20
152.3894469223
 11
130.8290976802
 21
152.2314431538
  0
LINE
  5
295
100
AcDbEntity
  8
0
100
AcDbLine
 62
7
  6
CONTINUOUS
 10
133.6404406118
 20
149.7654978196
 11
133.0299283279
 21
149.5520745274
  0
LINE
  5
296
100
AcDbEntity
  8
0
100
AcDbLine
 62
7
  6
CONTINUOUS
 10
133.9035111478
 20
152.5619979809
 11
133.4482673641
 21
152.6932734361
  0
LINE
  5
297
100
AcDbEntity
  8
0
100
AcDbLine
 62
7
  6
CONTINUOUS
 10
131.6498718399
 20
149.4145068382
 11
130.9489177579
 21
149.714004042
  0
LINE
  5
298
100
AcDbEntity
  8
0
100
AcDbLine
 62
7
  6
CONTINUOUS
 10
133.9418726198
 20
143.154911275
 11
134.3104379845
 21
142.9025784767
  0
LINE
  5
299
100
AcDbEntity
  8
0
100
AcDbLine
 62
7
  6
CONTINUOUS
 10
133.2251368741
 20
149.057626933
 11
133.7308823883
 21
149.2525770171
  0
LINE
  5
29A
100
AcDbEntity
  8
0
100
AcDbLine
 62
7
  6
CONTINUOUS
 10
133.2063201676
 20
152.2275172021
 11
133.9072744827
 21
151.9280199637
  0
LINE
  5
29B
100
AcDbEntity
  8
0
100
AcDbLine
 62
7
  6
CONTINUOUS
 10
135.3935543245
 20
145.9494484566
 11
135.0249889598
 21
146.2017812549
  0
LINE
  5
29C
100
AcDbEntity
  8
0
100
AcDbLine
 62
7
  6
CONTINUOUS
 10
130.5841156978
 20
149.33235878
 11
130.9526810992
 21
149.0800259882
  0
LINE
  5
29D
100
AcDbEntity
  8
0
100
AcDbLine
 62
7
  6
CONTINUOUS
 10
130.8290976802
 20
152.2314431538
 11
130.4462072326
 21
151.9523820201
  0
LINE
  5
29E
100
AcDbEntity
  8
0
100
AcDbLine
 62
7
  6
CONTINUOUS
 10
133.7308823883
 20
149.2525770171
 11
134.0270946047
 21
149.41058103
  0
LINE
  5
29F
100
AcDbEntity
  8
0
100
AcDbLine
 62
7
  6
CONTINUOUS
 10
134.4295297993
 20
143.4524454021
 11
134.0428760482
 21
143.807362537
  0
LINE
  5
2A0
100
AcDbEntity
  8
0
100
AcDbLine
 62
7
  6
CONTINUOUS
 10
133.2982186361
 20
145.5799842411
 11
132.911564885
 21
145.934901376
  0
LINE
  5
2A1
100
AcDbEntity
  8
0
100
AcDbLine
 62
7
  6
CONTINUOUS
 10
134.905897145
 20
145.6519143295
 11
135.2925508961
 21
145.2969971946
  0
LINE
  5
2A2
100
AcDbEntity
  8
0
100
AcDbLine
 62
7
  6
CONTINUOUS
 10
131.3551164197
 20
143.1218909877
 11
131.7598585846
 21
142.6643895211
  0
LINE
  5
2A3
100
AcDbEntity
  8
0
100
AcDbLine
 62
7
  6
CONTINUOUS
 10
132.1246606448
 20
143.0460347832
 11
131.8427736634
 21
143.4194251262
  0
LINE
  5
2A4
100
AcDbEntity
  8
0
100
AcDbLine
 62
7
  6
CONTINUOUS
 10
130.6595041069
 20
151.3553504193
 11
131.2157513957
 21
151.8765262207
  0
LINE
  5
2A5
100
AcDbEntity
  8
0
100
AcDbLine
 62
7
  6
CONTINUOUS
 10
134.0270946047
 20
149.41058103
 11
134.4099850145
 21
149.689641949
  0
LINE
  5
2A6
100
AcDbEntity
  8
0
100
AcDbLine
 62
7
  6
CONTINUOUS
 10
132.0372539111
 20
145.9922837708
 11
131.5495966582
 21
145.6947496307
  0
LINE
  5
2A7
100
AcDbEntity
  8
0
100
AcDbLine
 62
7
  6
CONTINUOUS
 10
134.2720765061
 20
152.3096652193
 11
133.9035111478
 21
152.5619979809
  0
LINE
  5
2A8
100
AcDbEntity
  8
0
100
AcDbLine
 62
7
  6
CONTINUOUS
 10
130.9489177579
 20
149.714004042
 11
130.685119137
 21
149.9848101952
  0
LINE
  5
2A9
100
AcDbEntity
  8
0
100
AcDbLine
 62
7
  6
CONTINUOUS
 10
130.1793735846
 20
149.7898599531
 11
130.5841156978
 21
149.33235878
  0
LINE
  5
2AA
100
AcDbEntity
  8
0
100
AcDbLine
 62
7
  6
CONTINUOUS
 10
135.7982963585
 20
145.4919475722
 11
135.3935543245
 21
145.9494484566
  0
LINE
  5
2AB
100
AcDbEntity
  8
0
100
AcDbLine
 62
7
  6
CONTINUOUS
 10
133.8009291809
 20
143.341606153
 11
133.9418726198
 21
143.154911275
  0
LINE
  5
2AC
100
AcDbEntity
  8
0
100
AcDbLine
 62
7
  6
CONTINUOUS
 10
132.9153282263
 20
145.3009233222
 11
133.1972152077
 21
144.9275329791
  0
LINE
  5
2AD
100
AcDbEntity
  8
0
100
AcDbLine
 62
7
  6
CONTINUOUS
 10
133.439162075
 20
145.3932893631
 11
133.2982186361
 21
145.5799842411
  0
LINE
  5
2AE
100
AcDbEntity
  8
RUNDUNGEN
100
AcDbLine
 62
7
  6
CONTINUOUS
 10
130.4899940035
 20
136.8825860096
 11
128.7458017813
 21
141.0934385279
  0
LINE
  5
2AF
100
AcDbEntity
  8
0
100
AcDbLine
 62
7
  6
CONTINUOUS
 10
130.4462072326
 20
151.9523820201
 11
130.1861719357
 21
151.5892100029
  0
LINE
  5
2B0
100
AcDbEntity
  8
0
100
AcDbLine
 62
7
  6
CONTINUOUS
 10
134.1966881337
 20
150.2866735864
 11
133.6404406118
 21
149.7654978196
  0
LINE
  5
2B1
100
AcDbEntity
  8
0
100
AcDbLine
 62
7
  6
CONTINUOUS
 10
134.1506778391
 20
146.2591636238
 11
133.7677874293
 21
145.9801027049
  0
LINE
  5
2B2
100
AcDbEntity
  8
0
100
AcDbLine
 62
7
  6
CONTINUOUS
 10
133.0027348866
 20
142.3546743216
 11
133.4903921094
 21
142.6522090616
  0
LINE
  5
2B3
100
AcDbEntity
  8
0
100
AcDbLine
 62
7
  6
CONTINUOUS
 10
135.0799821454
 20
142.8267222608
 11
135.567639515
 21
143.1242570267
  0
LINE
  5
2B4
100
AcDbEntity
  8
RUNDUNGEN
100
AcDbLine
 62
7
  6
CONTINUOUS
 10
120.5958739532
 20
167.3947742182
 11
106.0539035233
 21
173.4182555939
  0
LINE
  5
2B5
100
AcDbEntity
  8
0
100
AcDbLine
 62
7
  6
CONTINUOUS
 10
133.9072744827
 20
151.9280199637
 11
134.1710730906
 21
151.6572138839
  0
LINE
  5
2B6
100
AcDbEntity
  8
0
100
AcDbLine
 62
7
  6
CONTINUOUS
 10
134.6768185789
 20
151.8521641147
 11
134.2720765061
 21
152.3096652193
  0
LINE
  5
2B7
100
AcDbEntity
  8
0
100
AcDbLine
 62
7
  6
CONTINUOUS
 10
131.8427736634
 20
143.4194251262
 11
131.6656534518
 21
143.8112886774
  0
LINE
  5
2B8
100
AcDbEntity
  8
RUNDUNGEN
100
AcDbLine
 62
7
  6
CONTINUOUS
 10
129.3253358039
 20
150.1468233496
 11
123.3018544539
 21
164.6887937175
  0
LINE
  5
2B9
100
AcDbEntity
  8
0
100
AcDbLine
 62
7
  6
CONTINUOUS
 10
131.1599079161
 20
143.616338287
 11
131.3551164197
 21
143.1218909877
  0
LINE
  5
2BA
100
AcDbEntity
  8
0
100
AcDbLine
 62
7
  6
CONTINUOUS
 10
129.9623133625
 20
151.0208696444
 11
129.9660766946
 21
150.3868915889
  0
LINE
  5
2BB
100
AcDbEntity
  8
0
100
AcDbLine
 62
7
  6
CONTINUOUS
 10
130.1861719357
 20
151.5892100029
 11
129.9623133625
 21
151.0208696444
  0
LINE
  5
2BC
100
AcDbEntity
  8
RUNDUNGEN
100
AcDbLine
 62
7
  6
CONTINUOUS
 10
128.7458057241
 20
144.9208795234
 11
129.3253358296
 21
146.319988964
  0
LINE
  5
2BD
100
AcDbEntity
  8
0
100
AcDbLine
 62
7
  6
CONTINUOUS
 10
130.5042356359
 20
151.0106515068
 11
130.6595041069
 21
151.3553504193
  0
LINE
  5
2BE
100
AcDbEntity
  8
0
100
AcDbLine
 62
7
  6
CONTINUOUS
 10
131.5495966582
 20
145.6947496307
 11
131.2895613678
 21
145.3315775769
  0
LINE
  5
2BF
100
AcDbEntity
  8
0
100
AcDbLine
 62
7
  6
CONTINUOUS
 10
134.4099850145
 20
149.689641949
 11
134.6700202682
 21
150.0528139963
  0
LINE
  5
2C0
100
AcDbEntity
  8
0
100
AcDbLine
 62
7
  6
CONTINUOUS
 10
131.762893539
 20
145.0977179933
 11
132.1276956358
 21
145.4793632618
  0
LINE
  5
2C1
100
AcDbEntity
  8
0
100
AcDbLine
 62
7
  6
CONTINUOUS
 10
134.0677626935
 20
145.5041286122
 11
134.3458863336
 21
145.764716323
  0
LINE
  5
2C2
100
AcDbEntity
  8
0
100
AcDbLine
 62
7
  6
CONTINUOUS
 10
132.5587809855
 20
140.5840159876
 11
132.1758906425
 21
140.3049544752
  0
LINE
  5
2C3
100
AcDbEntity
  8
0
100
AcDbLine
 62
7
  6
CONTINUOUS
 10
132.5625443268
 20
139.9500379338
 11
132.8587564265
 21
140.1080413209
  0
LINE
  5
2C4
100
AcDbEntity
  8
0
100
AcDbLine
 62
7
  6
CONTINUOUS
 10
133.1972152077
 20
144.9275329791
 11
133.3743354193
 21
144.5356694279
  0
LINE
  5
2C5
100
AcDbEntity
  8
0
100
AcDbLine
 62
7
  6
CONTINUOUS
 10
134.0428760482
 20
143.807362537
 11
133.8657558366
 21
144.1992260882
  0
LINE
  5
2C6
100
AcDbEntity
  8
0
100
AcDbLine
 62
7
  6
CONTINUOUS
 10
135.2925508961
 20
145.2969971946
 11
135.4696711077
 21
144.9051336434
  0
LINE
  5
2C7
100
AcDbEntity
  8
0
100
AcDbLine
 62
7
  6
CONTINUOUS
 10
130.685119137
 20
149.9848101952
 11
130.4899106167
 21
150.4792576428
  0
LINE
  5
2C8
100
AcDbEntity
  8
0
100
AcDbLine
 62
7
  6
CONTINUOUS
 10
129.9660766946
 20
150.3868915889
 11
130.1793735846
 21
149.7898599531
  0
LINE
  5
2C9
100
AcDbEntity
  8
0
100
AcDbLine
 62
7
  6
CONTINUOUS
 10
129.8077731679
 20
147.6088645646
 11
129.8982149443
 21
147.0959437621
  0
LINE
  5
2CA
100
AcDbEntity
  8
0
100
AcDbLine
 62
7
  6
CONTINUOUS
 10
131.051377805
 20
144.2318431326
 11
131.1599079161
 21
143.616338287
  0
LINE
  5
2CB
100
AcDbEntity
  8
0
100
AcDbLine
 62
7
  6
CONTINUOUS
 10
131.6656534518
 20
143.8112886774
 11
131.5933001135
 21
144.2216248499
  0
LINE
  5
2CC
100
AcDbEntity
  8
0
100
AcDbLine
 62
7
  6
CONTINUOUS
 10
131.1591796693
 20
146.6836442324
 11
131.0687378411
 21
147.1965653284
  0
LINE
  5
2CD
100
AcDbEntity
  8
0
100
AcDbLine
 62
7
  6
CONTINUOUS
 10
131.9701204168
 20
139.6340300002
 11
131.9738837489
 21
139.0000519447
  0
LINE
  5
2CE
100
AcDbEntity
  8
0
100
AcDbLine
 62
7
  6
CONTINUOUS
 10
130.4899106167
 20
150.4792576428
 11
130.5042356359
 21
151.0106515068
  0
LINE
  5
2CF
100
AcDbEntity
  8
0
100
AcDbLine
 62
7
  6
CONTINUOUS
 10
131.0657028592
 20
144.7632368514
 11
131.051377805
 21
144.2318431326
  0
LINE
  5
2D0
100
AcDbEntity
  8
0
100
AcDbLine
 62
7
  6
CONTINUOUS
 10
132.3929508646
 20
139.0739447839
 11
132.4072758428
 21
139.6053390946
  0
LINE
  5
2D1
100
AcDbEntity
  8
0
100
AcDbLine
 62
7
  6
CONTINUOUS
 10
131.5933001135
 20
144.2216248499
 11
131.6257134414
 21
144.6504348175
  0
LINE
  5
2D2
100
AcDbEntity
  8
0
100
AcDbLine
 62
7
  6
CONTINUOUS
 10
131.6257134414
 20
144.6504348175
 11
131.762893539
 21
145.0977179933
  0
LINE
  5
2D3
100
AcDbEntity
  8
0
100
AcDbLine
 62
7
  6
CONTINUOUS
 10
131.2895613678
 20
145.3315775769
 11
131.0657028592
 21
144.7632368514
  0
LINE
  5
2D4
100
AcDbEntity
  8
0
100
AcDbLine
 62
7
  6
CONTINUOUS
 10
134.6700202682
 20
150.0528139963
 11
134.893878801
 21
150.6211544234
  0
LINE
  5
2D5
100
AcDbEntity
  8
0
100
AcDbLine
 62
7
  6
CONTINUOUS
 10
134.3519565918
 20
150.6313725724
 11
134.1966881337
 21
150.2866735864
  0
LINE
  5
2D6
100
AcDbEntity
  8
0
100
AcDbLine
 62
7
  6
CONTINUOUS
 10
133.7677874293
 20
145.9801027049
 11
133.5077521756
 21
145.6169306575
  0
LINE
  5
2D7
100
AcDbEntity
  8
0
100
AcDbLine
 62
7
  6
CONTINUOUS
 10
133.2770953321
 20
143.249240112
 11
132.9122931619
 21
142.8675948306
  0
LINE
  5
2D8
100
AcDbEntity
  8
0
100
AcDbLine
 62
7
  6
CONTINUOUS
 10
135.2676642508
 20
143.6002311194
 11
134.9895403172
 21
143.3396433568
  0
LINE
  5
2D9
100
AcDbEntity
  8
0
100
AcDbLine
 62
7
  6
CONTINUOUS
 10
135.9935049564
 20
144.9974996843
 11
135.7982963585
 21
145.4919475722
  0
LINE
  5
2DA
100
AcDbEntity
  8
0
100
AcDbLine
 62
7
  6
CONTINUOUS
 10
134.1710730906
 20
151.6572138839
 11
134.3662816109
 21
151.1627664363
  0
LINE
  5
2DB
100
AcDbEntity
  8
0
100
AcDbLine
 62
7
  6
CONTINUOUS
 10
134.8901154597
 20
151.2551324773
 11
134.6768185789
 21
151.8521641147
  0
LINE
  5
2DC
100
AcDbEntity
  8
0
100
AcDbLine
 62
7
  6
CONTINUOUS
 10
133.3743354193
 20
144.5356694279
 11
133.4466887576
 21
144.1253332555
  0
LINE
  5
2DD
100
AcDbEntity
  8
0
100
AcDbLine
 62
7
  6
CONTINUOUS
 10
133.8657558366
 20
144.1992260882
 11
133.7934024983
 21
144.6095622606
  0
LINE
  5
2DE
100
AcDbEntity
  8
0
100
AcDbLine
 62
7
  6
CONTINUOUS
 10
134.5094099238
 20
141.7741525351
 11
134.6541166005
 21
140.9534801902
  0
LINE
  5
2DF
100
AcDbEntity
  8
0
100
AcDbLine
 62
7
  6
CONTINUOUS
 10
134.7445584287
 20
140.4405590942
 11
134.943530368
 21
139.3121331525
  0
LINE
  5
2E0
100
AcDbEntity
  8
0
100
AcDbLine
 62
7
  6
CONTINUOUS
 10
135.3625974469
 20
139.3860259853
 11
135.1636255077
 21
140.5144519269
  0
LINE
  5
2E1
100
AcDbEntity
  8
0
100
AcDbLine
 62
7
  6
CONTINUOUS
 10
135.0731836795
 20
141.027373023
 11
134.9284770028
 21
141.8480453678
  0
LINE
  5
2E2
100
AcDbEntity
  8
0
100
AcDbLine
 62
7
  6
CONTINUOUS
 10
134.893878801
 20
150.6211544234
 11
134.8901154597
 21
151.2551324773
  0
LINE
  5
2E3
100
AcDbEntity
  8
0
100
AcDbLine
 62
7
  6
CONTINUOUS
 10
134.3662816109
 20
151.1627664363
 11
134.3519565918
 21
150.6313725724
  0
LINE
  5
2E4
100
AcDbEntity
  8
0
100
AcDbLine
 62
7
  6
CONTINUOUS
 10
133.4466887576
 20
144.1253332555
 11
133.4142754298
 21
143.6965232878
  0
LINE
  5
2E5
100
AcDbEntity
  8
0
100
AcDbLine
 62
7
  6
CONTINUOUS
 10
133.7934024983
 20
144.6095622606
 11
133.8258158261
 21
145.0383722282
  0
LINE
  5
2E6
100
AcDbEntity
  8
0
100
AcDbLine
 62
7
  6
CONTINUOUS
 10
135.5420244461
 20
144.494797471
 11
135.5096111182
 21
144.0659875034
  0
LINE
  5
2E7
100
AcDbEntity
  8
0
100
AcDbLine
 62
7
  6
CONTINUOUS
 10
132.0206221402
 20
139.9602556328
 11
131.9701204168
 21
139.6340300002
  0
LINE
  5
2E8
100
AcDbEntity
  8
0
100
AcDbLine
 62
7
  6
CONTINUOUS
 10
133.5077521756
 20
145.6169306575
 11
133.439162075
 21
145.3932893631
  0
LINE
  5
2E9
100
AcDbEntity
  8
0
100
AcDbLine
 62
7
  6
CONTINUOUS
 10
133.4142754298
 20
143.6965232878
 11
133.2770953321
 21
143.249240112
  0
LINE
  5
2EA
100
AcDbEntity
  8
0
100
AcDbLine
 62
7
  6
CONTINUOUS
 10
133.7323390803
 20
143.1179648586
 11
133.8009291809
 21
143.341606153
  0
LINE
  5
2EB
100
AcDbEntity
  8
0
100
AcDbLine
 62
7
  6
CONTINUOUS
 10
132.1758906425
 20
140.3049544752
 11
132.0206221402
 21
139.9602556328
  0
LINE
  5
2EC
100
AcDbEntity
  8
0
100
AcDbLine
 62
7
  6
CONTINUOUS
 10
132.4072758428
 20
139.6053390946
 11
132.5625443268
 21
139.9500379338
  0
LINE
  5
2ED
100
AcDbEntity
  8
0
100
AcDbLine
 62
7
  6
CONTINUOUS
 10
133.8258158261
 20
145.0383722282
 11
134.0677626935
 21
145.5041286122
  0
LINE
  5
2EE
100
AcDbEntity
  8
0
100
AcDbLine
 62
7
  6
CONTINUOUS
 10
133.4903921094
 20
142.6522090616
 11
133.7323390803
 21
143.1179648586
  0
LINE
  5
2EF
100
AcDbEntity
  8
0
100
AcDbLine
 62
7
  6
CONTINUOUS
 10
135.5096111182
 20
144.0659875034
 11
135.2676642508
 21
143.6002311194
  0
LINE
  5
2F0
100
AcDbEntity
  8
0
100
AcDbLine
 62
7
  6
CONTINUOUS
 10
135.567639515
 20
143.1242570267
 11
135.8276747687
 21
143.4874290741
  0
LINE
  5
2F1
100
AcDbEntity
  8
0
100
AcDbLine
 62
7
  6
CONTINUOUS
 10
136.0017599592
 20
140.6622376442
 11
135.911318131
 21
141.1751587402
  0
LINE
  5
2F2
100
AcDbEntity
  8
0
100
AcDbLine
 62
7
  6
CONTINUOUS
 10
135.4696711077
 20
144.9051336434
 11
135.5420244461
 21
144.494797471
  0
LINE
  5
2F3
100
AcDbEntity
  8
0
100
AcDbLine
 62
7
  6
CONTINUOUS
 10
136.0658582948
 20
144.5871635119
 11
135.9935049564
 21
144.9974996843
  0
LINE
  5
2F4
100
AcDbEntity
  8
RUNDUNGEN
100
AcDbLine
 62
7
  6
CONTINUOUS
 10
138.9942043115
 20
139.1947643626
 11
139.1404863615
 21
137.2609822998
  0
LINE
  5
2F5
100
AcDbEntity
  8
0
100
AcDbLine
 62
7
  6
CONTINUOUS
 10
136.0515333532
 20
144.0557692077
 11
136.0658582948
 21
144.5871635119
  0
LINE
  5
2F6
100
AcDbEntity
  8
0
100
AcDbLine
 62
7
  6
CONTINUOUS
 10
135.8276747687
 20
143.4874290741
 11
136.0515333532
 21
144.0557692077
  0
LINE
  5
2F7
100
AcDbEntity
  8
RUNDUNGEN
100
AcDbLine
 62
7
  6
CONTINUOUS
 10
138.9942043115
 20
139.1947643626
 11
137.7535871239
 21
147.3480377972
  0
LINE
  5
2F8
100
AcDbEntity
  8
RUNDUNGEN
100
AcDbLine
 62
7
  6
CONTINUOUS
 10
139.1404863615
 20
126.2334061258
 11
139.1404863615
 21
137.2609822998
  0
LINE
  5
2F9
100
AcDbEntity
  8
BEZUGSACHSEN
100
AcDbLine
 62
7
  6
CONTINUOUS
 10
207.2589045881
 20
126.2334061258
 11
229.2589045881
 21
126.2334061258
  0
LINE
  5
2FA
100
AcDbEntity
  8
BEZUGSACHSEN
100
AcDbLine
 62
7
  6
CONTINUOUS
 10
207.2589045881
 20
126.2334061258
 11
207.2589045881
 21
130.0754231287
  0
LINE
  5
2FB
100
AcDbEntity
  8
0
100
AcDbLine
 62
7
  6
CONTINUOUS
 10
221.2589045881
 20
139.4134061258
 11
221.7589045881
 21
139.4134061258
  0
LINE
  5
2FC
100
AcDbEntity
  8
0
100
AcDbLine
 62
7
  6
CONTINUOUS
 10
221.2589045881
 20
140.1079988365
 11
221.7589045881
 21
140.1079988365
  0
LINE
  5
2FD
100
AcDbEntity
  8
0
100
AcDbLine
 62
7
  6
CONTINUOUS
 10
221.2589045881
 20
142.0776143425
 11
221.7589045881
 21
142.0776143425
  0
LINE
  5
2FE
100
AcDbEntity
  8
0
100
AcDbLine
 62
7
  6
CONTINUOUS
 10
221.2589045881
 20
142.473172418
 11
221.7589045881
 21
142.473172418
  0
LINE
  5
2FF
100
AcDbEntity
  8
0
100
AcDbLine
 62
7
  6
CONTINUOUS
 10
221.2589045881
 20
142.7571058911
 11
221.7589045881
 21
142.7571058911
  0
LINE
  5
300
100
AcDbEntity
  8
0
100
AcDbLine
 62
7
  6
CONTINUOUS
 10
221.2589045881
 20
142.9441935631
 11
221.7589045881
 21
142.9441935631
  0
LINE
  5
301
100
AcDbEntity
  8
0
100
AcDbLine
 62
7
  6
CONTINUOUS
 10
221.2589045881
 20
142.981925098
 11
221.7589045881
 21
142.981925098
  0
LINE
  5
302
100
AcDbEntity
  8
0
100
AcDbLine
 62
7
  6
CONTINUOUS
 10
221.2589045881
 20
143.4249595196
 11
221.7589045881
 21
143.4249595196
  0
LINE
  5
303
100
AcDbEntity
  8
0
100
AcDbLine
 62
7
  6
CONTINUOUS
 10
221.2589045881
 20
143.8830951448
 11
221.7589045881
 21
143.8830951448
  0
LINE
  5
304
100
AcDbEntity
  8
BEZUGSACHSEN
100
AcDbLine
 62
7
  6
CONTINUOUS
 10
212.2589045881
 20
150.605144456
 11
212.2589045881
 21
172.2988579314
  0
LINE
  5
305
100
AcDbEntity
  8
0
100
AcDbLine
 62
7
  6
CONTINUOUS
 10
221.2589045881
 20
144.3754992561
 11
221.7589045881
 21
144.3754992561
  0
LINE
  5
306
100
AcDbEntity
  8
0
100
AcDbLine
 62
7
  6
CONTINUOUS
 10
221.2589045881
 20
144.5902507695
 11
221.7589045881
 21
144.5902507695
  0
LINE
  5
307
100
AcDbEntity
  8
0
100
AcDbLine
 62
7
  6
CONTINUOUS
 10
221.2589045881
 20
144.918520177
 11
221.7589045881
 21
144.918520177
  0
LINE
  5
308
100
AcDbEntity
  8
0
100
AcDbLine
 62
7
  6
CONTINUOUS
 10
221.2589045881
 20
145.2615681511
 11
221.7589045881
 21
145.2615681511
  0
LINE
  5
309
100
AcDbEntity
  8
0
100
AcDbLine
 62
7
  6
CONTINUOUS
 10
221.2589045881
 20
145.5373272328
 11
221.7589045881
 21
145.5373272328
  0
LINE
  5
30A
100
AcDbEntity
  8
0
100
AcDbLine
 62
7
  6
CONTINUOUS
 10
221.2589045881
 20
145.7457974014
 11
221.7589045881
 21
145.7457974014
  0
LINE
  5
30B
100
AcDbEntity
  8
0
100
AcDbLine
 62
7
  6
CONTINUOUS
 10
221.2589045881
 20
145.8869791369
 11
221.7589045881
 21
145.8869791369
  0
LINE
  5
30C
100
AcDbEntity
  8
0
100
AcDbLine
 62
7
  6
CONTINUOUS
 10
214.7589045881
 20
150.1988537716
 11
214.7589045881
 21
153.2086129225
  0
LINE
  5
30D
100
AcDbEntity
  8
0
100
AcDbLine
 62
7
  6
CONTINUOUS
 10
214.7589045881
 20
153.3476182109
 11
214.7589045881
 21
156.3573773618
  0
LINE
  5
30E
100
AcDbEntity
  8
BEZUGSACHSEN
100
AcDbLine
 62
7
  6
CONTINUOUS
 10
207.299792395
 20
130.3860014985
 11
211.8159403299
 21
147.240495046
  0
LINE
  5
30F
100
AcDbEntity
  8
0
100
AcDbLine
 62
7
  6
CONTINUOUS
 10
221.2589045881
 20
146.3451147621
 11
221.7589045881
 21
146.3451147621
  0
LINE
  5
310
100
AcDbEntity
  8
0
100
AcDbLine
 62
7
  6
CONTINUOUS
 10
221.2589045881
 20
146.8375186386
 11
221.7589045881
 21
146.8375186386
  0
LINE
  5
311
100
AcDbEntity
  8
0
100
AcDbLine
 62
7
  6
CONTINUOUS
 10
221.2589045881
 20
147.4940569841
 11
221.7589045881
 21
147.4940569841
  0
LINE
  5
312
100
AcDbEntity
  8
RUNDUNGEN
100
AcDbLine
 62
7
  6
CONTINUOUS
 10
215.2589045881
 20
133.3335760279
 11
215.2589045881
 21
174.7334061258
  0
LINE
  5
313
100
AcDbEntity
  8
0
100
AcDbLine
 62
7
  6
CONTINUOUS
 10
221.2589045881
 20
149.4636724901
 11
221.7589045881
 21
149.4636724901
  0
LINE
  5
314
100
AcDbEntity
  8
0
100
AcDbLine
 62
7
  6
CONTINUOUS
 10
221.2589045881
 20
149.8592308004
 11
221.7589045881
 21
149.8592308004
  0
LINE
  5
315
100
AcDbEntity
  8
0
100
AcDbLine
 62
7
  6
CONTINUOUS
 10
221.2589045881
 20
150.1579426052
 11
221.7589045881
 21
150.1579426052
  0
LINE
  5
316
100
AcDbEntity
  8
0
100
AcDbLine
 62
7
  6
CONTINUOUS
 10
215.2589045881
 20
150.1988537716
 11
214.7589045881
 21
150.1988537716
  0
LINE
  5
317
100
AcDbEntity
  8
0
100
AcDbLine
 62
7
  6
CONTINUOUS
 10
221.2589045881
 20
150.427097277
 11
221.7589045881
 21
150.427097277
  0
LINE
  5
318
100
AcDbEntity
  8
0
100
AcDbLine
 62
7
  6
CONTINUOUS
 10
215.2589045881
 20
150.4454514936
 11
214.7589045881
 21
150.4454514936
  0
LINE
  5
319
100
AcDbEntity
  8
0
100
AcDbLine
 62
7
  6
CONTINUOUS
 10
221.2589045881
 20
150.5321179493
 11
221.7589045881
 21
150.5321179493
  0
LINE
  5
31A
100
AcDbEntity
  8
0
100
AcDbLine
 62
7
  6
CONTINUOUS
 10
221.2589045881
 20
150.5402920749
 11
221.7589045881
 21
150.5402920749
  0
LINE
  5
31B
100
AcDbEntity
  8
0
100
AcDbLine
 62
7
  6
CONTINUOUS
 10
215.2589045881
 20
151.2476378244
 11
214.7589045881
 21
151.2476378244
  0
LINE
  5
31C
100
AcDbEntity
  8
0
100
AcDbLine
 62
7
  6
CONTINUOUS
 10
215.2589045881
 20
151.4942355463
 11
214.7589045881
 21
151.4942355463
  0
LINE
  5
31D
100
AcDbEntity
  8
0
100
AcDbLine
 62
7
  6
CONTINUOUS
 10
215.2589045881
 20
151.5659781183
 11
214.7589045881
 21
151.5659781183
  0
LINE
  5
31E
100
AcDbEntity
  8
0
100
AcDbLine
 62
7
  6
CONTINUOUS
 10
215.2589045881
 20
151.8125758403
 11
214.7589045881
 21
151.8125758403
  0
LINE
  5
31F
100
AcDbEntity
  8
0
100
AcDbLine
 62
7
  6
CONTINUOUS
 10
215.2589045881
 20
153.2088946322
 11
214.7589045881
 21
153.2088946322
  0
LINE
  5
320
100
AcDbEntity
  8
RUNDUNGEN
100
AcDbLine
 62
7
  6
CONTINUOUS
 10
221.2589045881
 20
174.7334061258
 11
221.2589045881
 21
133.3335760279
  0
LINE
  5
321
100
AcDbEntity
  8
0
100
AcDbLine
 62
7
  6
CONTINUOUS
 10
221.7589045881
 20
150.5402920749
 11
221.7589045881
 21
143.4249595196
  0
LINE
  5
322
100
AcDbEntity
  8
0
100
AcDbLine
 62
7
  6
CONTINUOUS
 10
221.7589045881
 20
142.981925098
 11
221.7589045881
 21
139.4134061258
  0
LINE
  5
323
100
AcDbEntity
  8
0
100
AcDbLine
 62
7
  6
CONTINUOUS
 10
215.2589045881
 20
153.3476182109
 11
214.7589045881
 21
153.3476182109
  0
LINE
  5
324
100
AcDbEntity
  8
0
100
AcDbLine
 62
7
  6
CONTINUOUS
 10
215.2589045881
 20
153.5942159329
 11
214.7589045881
 21
153.5942159329
  0
LINE
  5
325
100
AcDbEntity
  8
0
100
AcDbLine
 62
7
  6
CONTINUOUS
 10
215.2589045881
 20
154.7147425576
 11
214.7589045881
 21
154.7147425576
  0
LINE
  5
326
100
AcDbEntity
  8
0
100
AcDbLine
 62
7
  6
CONTINUOUS
 10
215.2589045881
 20
154.9613402796
 11
214.7589045881
 21
154.9613402796
  0
LINE
  5
327
100
AcDbEntity
  8
0
100
AcDbLine
 62
7
  6
CONTINUOUS
 10
215.2589045881
 20
156.3576590715
 11
214.7589045881
 21
156.3576590715
  0
LINE
  5
328
100
AcDbEntity
  8
RUNDUNGEN
100
AcDbLine
 62
7
  6
CONTINUOUS
 10
228.586991513
 20
132.7410198605
 11
228.5366065949
 21
132.9290589347
  0
LINE
  5
329
100
AcDbEntity
  8
RUNDUNGEN
100
AcDbLine
 62
7
  6
CONTINUOUS
 10
227.5388641344
 20
136.6526844903
 11
227.5270530829
 21
136.6967639344
  0
LINE
  5
32A
100
AcDbEntity
  8
BEZUGSACHSEN
100
AcDbLine
 62
7
  6
CONTINUOUS
 10
229.2180167813
 20
130.3860014985
 11
224.7018688464
 21
147.240495046
  0
LINE
  5
32B
100
AcDbEntity
  8
BEZUGSACHSEN
100
AcDbLine
 62
7
  6
CONTINUOUS
 10
224.2589045881
 20
150.605144456
 11
224.2589045881
 21
166.0089549195
  0
LINE
  5
32C
100
AcDbEntity
  8
RUNDUNGEN
100
AcDbLine
 62
7
  6
CONTINUOUS
 10
224.2589045881
 20
166.0089549195
 11
224.2589045881
 21
172.2988579314
  0
LINE
  5
32D
100
AcDbEntity
  8
BEZUGSACHSEN
100
AcDbLine
 62
7
  6
CONTINUOUS
 10
229.2589045881
 20
130.0754231287
 11
229.2589045881
 21
126.2334061258
  0
LINE
  5
32E
100
AcDbEntity
  8
BEZUGSACHSEN
100
AcDbLine
 62
7
  6
CONTINUOUS
 10
213.7589045881
 20
173.7988579314
 11
215.2589045881
 21
173.7988579314
  0
LINE
  5
32F
100
AcDbEntity
  8
RUNDUNGEN
100
AcDbLine
 62
7
  6
CONTINUOUS
 10
221.2589045881
 20
173.7988579314
 11
222.7589045881
 21
173.7988579314
  0
LINE
  5
330
100
AcDbEntity
  8
0
100
AcDbLine
 62
7
  6
CONTINUOUS
 10
216.7589045881
 20
176.2334061258
 11
219.7589045881
 21
176.2334061258
  0
LINE
  5
331
100
AcDbEntity
  8
BEZUGSACHSEN
100
AcDbLine
 62
7
  6
CONTINUOUS
 10
69.1404863615
 20
30.9987724112
 11
69.1404863615
 21
30.5220886076
  0
LINE
  5
332
100
AcDbEntity
  8
RUNDUNGEN
100
AcDbLine
 62
7
  6
CONTINUOUS
 10
69.1404863615
 20
30.9987724112
 11
69.1404863615
 21
49.045404804
  0
LINE
  5
333
100
AcDbEntity
  8
BEZUGSACHSEN
100
AcDbLine
 62
7
  6
CONTINUOUS
 10
69.1404863615
 20
41.5220886076
 11
69.1404863615
 21
49.5220886076
  0
LINE
  5
334
100
AcDbEntity
  8
0
100
AcDbLine
 62
7
  6
CONTINUOUS
 10
71.5212553494
 20
37.0220886076
 11
71.5212553494
 21
36.5220886076
  0
LINE
  5
335
100
AcDbEntity
  8
0
100
AcDbLine
 62
7
  6
CONTINUOUS
 10
71.8685517048
 20
37.0220886076
 11
71.8685517048
 21
36.5220886076
  0
LINE
  5
336
100
AcDbEntity
  8
0
100
AcDbLine
 62
7
  6
CONTINUOUS
 10
72.0247185417
 20
37.0220886076
 11
72.0247185417
 21
36.5220886076
  0
LINE
  5
337
100
AcDbEntity
  8
0
100
AcDbLine
 62
7
  6
CONTINUOUS
 10
72.1869066834
 20
37.0220886076
 11
72.1869066834
 21
36.5220886076
  0
LINE
  5
338
100
AcDbEntity
  8
0
100
AcDbLine
 62
7
  6
CONTINUOUS
 10
72.2737308136
 20
37.0220886076
 11
72.2737308136
 21
36.5220886076
  0
LINE
  5
339
100
AcDbEntity
  8
0
100
AcDbLine
 62
7
  6
CONTINUOUS
 10
72.6210271689
 20
37.0220886076
 11
72.6210271689
 21
36.5220886076
  0
LINE
  5
33A
100
AcDbEntity
  8
0
100
AcDbLine
 62
7
  6
CONTINUOUS
 10
72.7078512578
 20
37.0220886076
 11
72.7078512578
 21
36.5220886076
  0
LINE
  5
33B
100
AcDbEntity
  8
0
100
AcDbLine
 62
7
  6
CONTINUOUS
 10
72.8236166819
 20
37.0220886076
 11
72.8236166819
 21
36.5220886076
  0
LINE
  5
33C
100
AcDbEntity
  8
0
100
AcDbLine
 62
7
  6
CONTINUOUS
 10
73.1709130373
 20
37.0220886076
 11
73.1709130373
 21
36.5220886076
  0
LINE
  5
33D
100
AcDbEntity
  8
0
100
AcDbLine
 62
7
  6
CONTINUOUS
 10
73.3270799156
 20
37.0220886076
 11
73.3270799156
 21
36.5220886076
  0
LINE
  5
33E
100
AcDbEntity
  8
0
100
AcDbLine
 62
7
  6
CONTINUOUS
 10
73.5525894179
 20
37.0220886076
 11
73.5525894179
 21
36.5220886076
  0
LINE
  5
33F
100
AcDbEntity
  8
0
100
AcDbLine
 62
7
  6
CONTINUOUS
 10
73.9425783283
 20
43.0220886076
 11
73.9425783283
 21
43.5220886076
  0
LINE
  5
340
100
AcDbEntity
  8
0
100
AcDbLine
 62
7
  6
CONTINUOUS
 10
73.9457257518
 20
37.0220886076
 11
73.9457257518
 21
36.5220886076
  0
LINE
  5
341
100
AcDbEntity
  8
0
100
AcDbLine
 62
7
  6
CONTINUOUS
 10
74.3099208331
 20
37.0220886076
 11
74.3099208331
 21
36.5220886076
  0
LINE
  5
342
100
AcDbEntity
  8
0
100
AcDbLine
 62
7
  6
CONTINUOUS
 10
74.7434587732
 20
37.0220886076
 11
74.7434587732
 21
36.5220886076
  0
LINE
  5
343
100
AcDbEntity
  8
0
100
AcDbLine
 62
7
  6
CONTINUOUS
 10
75.3225783283
 20
43.0220886076
 11
75.3225783283
 21
43.5220886076
  0
LINE
  5
344
100
AcDbEntity
  8
0
100
AcDbLine
 62
7
  6
CONTINUOUS
 10
76.0006601275
 20
37.0220886076
 11
76.0006601275
 21
36.5220886076
  0
LINE
  5
345
100
AcDbEntity
  8
0
100
AcDbLine
 62
7
  6
CONTINUOUS
 10
76.4052565802
 20
37.0220886076
 11
76.4052565802
 21
36.5220886076
  0
LINE
  5
346
100
AcDbEntity
  8
0
100
AcDbLine
 62
7
  6
CONTINUOUS
 10
76.711568884
 20
37.0220886076
 11
76.711568884
 21
36.5220886076
  0
LINE
  5
347
100
AcDbEntity
  8
0
100
AcDbLine
 62
7
  6
CONTINUOUS
 10
76.9889399058
 20
37.0220886076
 11
76.9889399058
 21
36.5220886076
  0
LINE
  5
348
100
AcDbEntity
  8
0
100
AcDbLine
 62
7
  6
CONTINUOUS
 10
77.0986840887
 20
37.0220886076
 11
77.0986840887
 21
36.5220886076
  0
LINE
  5
349
100
AcDbEntity
  8
0
100
AcDbLine
 62
7
  6
CONTINUOUS
 10
77.1101440493
 20
37.0220886076
 11
77.1101440493
 21
36.5220886076
  0
LWPOLYLINE
  5
34A
100
AcDbEntity
  8
BEZUGSACHSEN
100
AcDbPolyline
 62
7
  6
CONTINUOUS
 90
11
 70
0
 10
78.5750344142
 20
35.3269860782
 10
78.5786519504
 20
35.2193611303
 10
78.6057233524
 20
35.0147593583
 10
78.6579878504
 20
34.8170900879
 10
78.7333586085
 20
34.6294849581
 10
78.8281539931
 20
34.456098588
 10
78.9382365064
 20
34.2989647864
 10
79.0595240831
 20
34.1585166305
 10
79.1874573374
 20
34.0347514175
 10
79.321757637
 20
33.9235927199
 10
79.4620396551
 20
33.8223513237
  0
LINE
  5
34B
100
AcDbEntity
  8
BEZUGSACHSEN
100
AcDbLine
 62
7
  6
CONTINUOUS
 10
78.5750345559
 20
35.3266432264
 11
78.5750345559
 21
37.0220886076
  0
LINE
  5
34C
100
AcDbEntity
  8
BEZUGSACHSEN
100
AcDbLine
 62
7
  6
CONTINUOUS
 10
78.5750345559
 20
43.5220886076
 11
78.5750345559
 21
44.7175339888
  0
LINE
  5
34D
100
AcDbEntity
  8
0
100
AcDbLine
 62
7
  6
CONTINUOUS
 10
79.2638856308
 20
43.0220886076
 11
79.2638856308
 21
43.5220886076
  0
LWPOLYLINE
  5
34E
100
AcDbEntity
  8
BEZUGSACHSEN
100
AcDbPolyline
 62
7
  6
CONTINUOUS
 90
5
 70
0
 10
80.1169485274
 20
46.6383906888
 10
80.1238360627
 20
46.6460187976
 10
80.1432964557
 20
46.6654166231
 10
80.1328113473
 20
46.6574377896
 10
80.1068805461
 20
46.6397326576
  0
LWPOLYLINE
  5
34F
100
AcDbEntity
  8
BEZUGSACHSEN
100
AcDbPolyline
 62
7
  6
CONTINUOUS
 90
11
 70
0
 10
79.4624235997
 20
46.2220860064
 10
79.3225852791
 20
46.1212218786
 10
79.1887722947
 20
46.0105970421
 10
79.0613250672
 20
45.8875546941
 10
78.940488074
 20
45.7480854034
 10
78.8306962032
 20
45.592144446
 10
78.7359248208
 20
45.4200836908
 10
78.6602728888
 20
45.2339089451
 10
78.6073866271
 20
45.0376992293
 10
78.5793343932
 20
44.8345070716
 10
78.5750344437
 20
44.717180034
  0
LINE
  5
350
100
AcDbEntity
  8
BEZUGSACHSEN
100
AcDbLine
 62
7
  6
CONTINUOUS
 10
79.5346817954
 20
46.2696010658
 11
79.4624235997
 21
46.2220860064
  0
LINE
  5
351
100
AcDbEntity
  8
BEZUGSACHSEN
100
AcDbLine
 62
7
  6
CONTINUOUS
 10
80.1063899199
 20
46.6394048523
 11
79.5337510781
 21
46.2690114825
  0
LINE
  5
352
100
AcDbEntity
  8
BEZUGSACHSEN
100
AcDbLine
 62
7
  6
CONTINUOUS
 10
79.5346817954
 20
46.2696010658
 11
79.5336101796
 21
46.2689168857
  0
LINE
  5
353
100
AcDbEntity
  8
BEZUGSACHSEN
100
AcDbLine
 62
7
  6
CONTINUOUS
 10
79.5336101796
 20
33.7752603295
 11
79.5440246325
 21
33.7685589172
  0
LINE
  5
354
100
AcDbEntity
  8
BEZUGSACHSEN
100
AcDbLine
 62
7
  6
CONTINUOUS
 10
79.5440246334
 20
33.7685589166
 11
80.1063899199
 21
33.4047723629
  0
LINE
  5
355
100
AcDbEntity
  8
BEZUGSACHSEN
100
AcDbLine
 62
7
  6
CONTINUOUS
 10
79.4620396551
 20
33.8223513237
 11
79.5347022061
 21
33.7745631334
  0
LWPOLYLINE
  5
356
100
AcDbEntity
  8
BEZUGSACHSEN
100
AcDbPolyline
 62
7
  6
CONTINUOUS
 90
3
 70
0
 10
80.1069516981
 20
33.4043985851
 10
80.1328624637
 20
33.386702751
 10
80.1432357771
 20
33.3787973168
  0
LINE
  5
357
100
AcDbEntity
  8
BEZUGSACHSEN
100
AcDbLine
 62
7
  6
CONTINUOUS
 10
137.6404863615
 20
29.0220886076
 11
70.6404863615
 21
29.0220886076
  0
LINE
  5
358
100
AcDbEntity
  8
BEZUGSACHSEN
100
AcDbLine
 62
7
  6
CONTINUOUS
 10
80.7690680377
 20
34.0220886076
 11
88.2591239183
 21
34.0220886076
  0
LINE
  5
359
100
AcDbEntity
  8
RUNDUNGEN
100
AcDbLine
 62
7
  6
CONTINUOUS
 10
88.2591239183
 20
34.0220886076
 11
127.5119046853
 21
34.0220886076
  0
LINE
  5
35A
100
AcDbEntity
  8
0
100
AcDbLine
 62
7
  6
CONTINUOUS
 10
136.0658582948
 20
36.5220886076
 11
134.893878801
 21
36.5220886076
  0
LINE
  5
35B
100
AcDbEntity
  8
0
100
AcDbLine
 62
7
  6
CONTINUOUS
 10
134.8901154597
 20
36.5220886076
 11
129.8077731679
 21
36.5220886076
  0
LINE
  5
35C
100
AcDbEntity
  8
0
100
AcDbLine
 62
7
  6
CONTINUOUS
 10
77.1101440493
 20
36.5220886076
 11
71.5212553494
 21
36.5220886076
  0
LINE
  5
35D
100
AcDbEntity
  8
RUNDUNGEN
100
AcDbLine
 62
7
  6
CONTINUOUS
 10
137.6404863615
 20
37.0220886076
 11
70.6404863615
 21
37.0220886076
  0
LINE
  5
35E
100
AcDbEntity
  8
RUNDUNGEN
100
AcDbLine
 62
7
  6
CONTINUOUS
 10
70.6404863615
 20
43.0220886076
 11
137.6404863615
 21
43.0220886076
  0
LINE
  5
35F
100
AcDbEntity
  8
0
100
AcDbLine
 62
7
  6
CONTINUOUS
 10
73.9425783283
 20
43.5220886076
 11
79.2638044863
 21
43.5220886076
  0
LINE
  5
360
100
AcDbEntity
  8
0
100
AcDbLine
 62
7
  6
CONTINUOUS
 10
129.9753107083
 20
43.5220886076
 11
136.8040528523
 21
43.5220886076
  0
LINE
  5
361
100
AcDbEntity
  8
BEZUGSACHSEN
100
AcDbLine
 62
7
  6
CONTINUOUS
 10
80.7690680377
 20
46.0220886076
 11
127.5119046853
 21
46.0220886076
  0
LINE
  5
362
100
AcDbEntity
  8
BEZUGSACHSEN
100
AcDbLine
 62
7
  6
CONTINUOUS
 10
137.6404863615
 20
51.0220886076
 11
70.6404863615
 21
51.0220886076
  0
LWPOLYLINE
  5
363
100
AcDbEntity
  8
RUNDUNGEN
100
AcDbPolyline
 62
7
  6
CONTINUOUS
 90
11
 70
0
 10
128.8185491233
 20
33.8220912088
 10
128.9583874439
 20
33.9229553366
 10
129.0922004283
 20
34.0335801731
 10
129.2196476557
 20
34.1566225211
 10
129.340484649
 20
34.2960918118
 10
129.4502765198
 20
34.4520327692
 10
129.5450479022
 20
34.6240935243
 10
129.6206998342
 20
34.8102682701
 10
129.6735860959
 20
35.0064779859
 10
129.7016383297
 20
35.2096701436
 10
129.7059382793
 20
35.3269971812
  0
LINE
  5
364
100
AcDbEntity
  8
RUNDUNGEN
100
AcDbLine
 62
7
  6
CONTINUOUS
 10
128.7462909276
 20
33.7745761494
 11
128.8185491233
 21
33.8220912088
  0
LINE
  5
365
100
AcDbEntity
  8
RUNDUNGEN
100
AcDbLine
 62
7
  6
CONTINUOUS
 10
128.1745828031
 20
33.4047723629
 11
128.7472216449
 21
33.7751657327
  0
LINE
  5
366
100
AcDbEntity
  8
RUNDUNGEN
100
AcDbLine
 62
7
  6
CONTINUOUS
 10
128.7462909276
 20
33.7745761494
 11
128.7473625433
 21
33.7752603295
  0
LINE
  5
367
100
AcDbEntity
  8
BEZUGSACHSEN
100
AcDbLine
 62
7
  6
CONTINUOUS
 10
128.7473625433
 20
46.2689168857
 11
128.7369480905
 21
46.2756182979
  0
LINE
  5
368
100
AcDbEntity
  8
BEZUGSACHSEN
100
AcDbLine
 62
7
  6
CONTINUOUS
 10
128.7369480896
 20
46.2756182986
 11
128.1745828031
 21
46.6394048523
  0
LINE
  5
369
100
AcDbEntity
  8
BEZUGSACHSEN
100
AcDbLine
 62
7
  6
CONTINUOUS
 10
128.8189330679
 20
46.2218258914
 11
128.7462705169
 21
46.2696140818
  0
LWPOLYLINE
  5
36A
100
AcDbEntity
  8
BEZUGSACHSEN
100
AcDbPolyline
 62
7
  6
CONTINUOUS
 90
3
 70
0
 10
128.1740210248
 20
46.6397786301
 10
128.1481102592
 20
46.6574744641
 10
128.1377369459
 20
46.6653798984
  0
LWPOLYLINE
  5
36B
100
AcDbEntity
  8
RUNDUNGEN
100
AcDbPolyline
 62
7
  6
CONTINUOUS
 90
5
 70
0
 10
128.1640241955
 20
33.4057865264
 10
128.1571366603
 20
33.3981584176
 10
128.1376762672
 20
33.3787605921
 10
128.1481613757
 20
33.3867394256
 10
128.1740921768
 20
33.4044445576
  0
LWPOLYLINE
  5
36C
100
AcDbEntity
  8
BEZUGSACHSEN
100
AcDbPolyline
 62
7
  6
CONTINUOUS
 90
11
 70
0
 10
129.7059383087
 20
44.717191137
 10
129.7023207725
 20
44.8248160849
 10
129.6752493705
 20
45.0294178569
 10
129.6229848726
 20
45.2270871273
 10
129.5476141145
 20
45.4146922571
 10
129.4528187299
 20
45.5880786272
 10
129.3427362166
 20
45.7452124288
 10
129.2214486399
 20
45.8856605847
 10
129.0935153856
 20
46.0094257977
 10
128.9592150859
 20
46.1205844953
 10
128.8189330679
 20
46.2218258914
  0
LINE
  5
36D
100
AcDbEntity
  8
BEZUGSACHSEN
100
AcDbLine
 62
7
  6
CONTINUOUS
 10
129.705938167
 20
44.7175339888
 11
129.705938167
 21
43.0220886076
  0
LINE
  5
36E
100
AcDbEntity
  8
RUNDUNGEN
100
AcDbLine
 62
7
  6
CONTINUOUS
 10
129.705938167
 20
37.0220886076
 11
129.705938167
 21
35.3266432264
  0
LINE
  5
36F
100
AcDbEntity
  8
0
100
AcDbLine
 62
7
  6
CONTINUOUS
 10
129.8077731679
 20
37.0220886076
 11
129.8077731679
 21
36.5220886076
  0
LINE
  5
370
100
AcDbEntity
  8
0
100
AcDbLine
 62
7
  6
CONTINUOUS
 10
129.9623133625
 20
37.0220886076
 11
129.9623133625
 21
36.5220886076
  0
LINE
  5
371
100
AcDbEntity
  8
0
100
AcDbLine
 62
7
  6
CONTINUOUS
 10
129.9753107083
 20
43.0220886076
 11
129.9753107083
 21
43.5220886076
  0
LINE
  5
372
100
AcDbEntity
  8
0
100
AcDbLine
 62
7
  6
CONTINUOUS
 10
130.1861719357
 20
37.0220886076
 11
130.1861719357
 21
36.5220886076
  0
LINE
  5
373
100
AcDbEntity
  8
0
100
AcDbLine
 62
7
  6
CONTINUOUS
 10
130.4462072326
 20
37.0220886076
 11
130.4462072326
 21
36.5220886076
  0
LINE
  5
374
100
AcDbEntity
  8
0
100
AcDbLine
 62
7
  6
CONTINUOUS
 10
130.8290976802
 20
37.0220886076
 11
130.8290976802
 21
36.5220886076
  0
LINE
  5
375
100
AcDbEntity
  8
0
100
AcDbLine
 62
7
  6
CONTINUOUS
 10
131.1253096371
 20
37.0220886076
 11
131.1253096371
 21
36.5220886076
  0
LINE
  5
376
100
AcDbEntity
  8
0
100
AcDbLine
 62
7
  6
CONTINUOUS
 10
131.6310552802
 20
37.0220886076
 11
131.6310552802
 21
36.5220886076
  0
LINE
  5
377
100
AcDbEntity
  8
0
100
AcDbLine
 62
7
  6
CONTINUOUS
 10
132.5739562079
 20
37.0220886076
 11
132.5739562079
 21
36.5220886076
  0
LINE
  5
378
100
AcDbEntity
  8
0
100
AcDbLine
 62
7
  6
CONTINUOUS
 10
133.115878409
 20
37.0220886076
 11
133.115878409
 21
36.5220886076
  0
LINE
  5
379
100
AcDbEntity
  8
0
100
AcDbLine
 62
7
  6
CONTINUOUS
 10
133.4482673641
 20
37.0220886076
 11
133.4482673641
 21
36.5220886076
  0
LINE
  5
37A
100
AcDbEntity
  8
0
100
AcDbLine
 62
7
  6
CONTINUOUS
 10
133.9035111478
 20
37.0220886076
 11
133.9035111478
 21
36.5220886076
  0
LINE
  5
37B
100
AcDbEntity
  8
0
100
AcDbLine
 62
7
  6
CONTINUOUS
 10
134.2720765061
 20
37.0220886076
 11
134.2720765061
 21
36.5220886076
  0
LINE
  5
37C
100
AcDbEntity
  8
0
100
AcDbLine
 62
7
  6
CONTINUOUS
 10
134.6768185789
 20
37.0220886076
 11
134.6768185789
 21
36.5220886076
  0
LINE
  5
37D
100
AcDbEntity
  8
0
100
AcDbLine
 62
7
  6
CONTINUOUS
 10
134.8901154597
 20
37.0220886076
 11
134.8901154597
 21
36.5220886076
  0
LINE
  5
37E
100
AcDbEntity
  8
0
100
AcDbLine
 62
7
  6
CONTINUOUS
 10
134.893878801
 20
37.0220886076
 11
134.893878801
 21
36.5220886076
  0
LINE
  5
37F
100
AcDbEntity
  8
0
100
AcDbLine
 62
7
  6
CONTINUOUS
 10
135.0249889598
 20
37.0220886076
 11
135.0249889598
 21
36.5220886076
  0
LINE
  5
380
100
AcDbEntity
  8
0
100
AcDbLine
 62
7
  6
CONTINUOUS
 10
135.1598216778
 20
43.0220886076
 11
135.1598216778
 21
43.5220886076
  0
LINE
  5
381
100
AcDbEntity
  8
0
100
AcDbLine
 62
7
  6
CONTINUOUS
 10
135.2900578731
 20
43.0220886076
 11
135.2900578731
 21
43.5220886076
  0
LINE
  5
382
100
AcDbEntity
  8
0
100
AcDbLine
 62
7
  6
CONTINUOUS
 10
135.3268171984
 20
43.0220886076
 11
135.3268171984
 21
43.5220886076
  0
LINE
  5
383
100
AcDbEntity
  8
0
100
AcDbLine
 62
7
  6
CONTINUOUS
 10
135.3935543245
 20
37.0220886076
 11
135.3935543245
 21
36.5220886076
  0
LINE
  5
384
100
AcDbEntity
  8
0
100
AcDbLine
 62
7
  6
CONTINUOUS
 10
135.7062356053
 20
43.0220886076
 11
135.7062356053
 21
43.5220886076
  0
LINE
  5
385
100
AcDbEntity
  8
0
100
AcDbLine
 62
7
  6
CONTINUOUS
 10
135.7982963585
 20
37.0220886076
 11
135.7982963585
 21
36.5220886076
  0
LINE
  5
386
100
AcDbEntity
  8
0
100
AcDbLine
 62
7
  6
CONTINUOUS
 10
135.8923999273
 20
43.0220886076
 11
135.8923999273
 21
43.5220886076
  0
LINE
  5
387
100
AcDbEntity
  8
0
100
AcDbLine
 62
7
  6
CONTINUOUS
 10
135.9935049564
 20
37.0220886076
 11
135.9935049564
 21
36.5220886076
  0
LINE
  5
388
100
AcDbEntity
  8
0
100
AcDbLine
 62
7
  6
CONTINUOUS
 10
136.0658582948
 20
37.0220886076
 11
136.0658582948
 21
36.5220886076
  0
LINE
  5
389
100
AcDbEntity
  8
0
100
AcDbLine
 62
7
  6
CONTINUOUS
 10
136.283108327
 20
43.0220886076
 11
136.283108327
 21
43.5220886076
  0
LINE
  5
38A
100
AcDbEntity
  8
0
100
AcDbLine
 62
7
  6
CONTINUOUS
 10
136.6738167268
 20
43.0220886076
 11
136.6738167268
 21
43.5220886076
  0
LINE
  5
38B
100
AcDbEntity
  8
0
100
AcDbLine
 62
7
  6
CONTINUOUS
 10
136.8040528523
 20
43.0220886076
 11
136.8040528523
 21
43.5220886076
  0
LINE
  5
38C
100
AcDbEntity
  8
BEZUGSACHSEN
100
AcDbLine
 62
7
  6
CONTINUOUS
 10
139.1404863615
 20
49.5220886076
 11
139.1404863615
 21
41.5220886076
  0
LINE
  5
38D
100
AcDbEntity
  8
RUNDUNGEN
100
AcDbLine
 62
7
  6
CONTINUOUS
 10
139.1404863615
 20
49.045404804
 11
139.1404863615
 21
30.5220886076
  0
ARC
  5
38E
100
AcDbEntity
  8
RUNDUNGEN
100
AcDbCircle
 62
7
  6
CONTINUOUS
 10
104.1404863615
 20
142.2334061258
 40
34.0
100
AcDbArc
 50
8.6518663965
 51
171.3481336035
  0
ARC
  5
38F
100
AcDbEntity
  8
RUNDUNGEN
100
AcDbCircle
 62
7
  6
CONTINUOUS
 10
104.1404863615
 20
148.2334061258
 40
16.0
100
AcDbArc
 50
354.6566087724
 51
7.1708368072
  0
ARC
  5
390
100
AcDbEntity
  8
BEZUGSACHSEN
100
AcDbCircle
 62
7
  6
CONTINUOUS
 10
104.1404863615
 20
148.2334061258
 40
16.0
100
AcDbArc
 50
7.1708368072
 51
354.6566087724
  0
ARC
  5
391
100
AcDbEntity
  8
RUNDUNGEN
100
AcDbCircle
 62
7
  6
CONTINUOUS
 10
81.9954863615
 20
137.2609822998
 40
12.855
100
AcDbArc
 50
171.3481336035
 51
180.0
  0
ARC
  5
392
100
AcDbEntity
  8
RUNDUNGEN
100
AcDbCircle
 62
7
  6
CONTINUOUS
 10
126.2854863615
 20
137.2609822998
 40
12.855
100
AcDbArc
 50
0.0
 51
8.6518663965
  0
ARC
  5
393
100
AcDbEntity
  8
RUNDUNGEN
100
AcDbCircle
 62
7
  6
CONTINUOUS
 10
135.1094022262
 20
138.7959776772
 40
5.0
100
AcDbArc
 50
202.4996837876
 51
261.0138017791
  0
ARC
  5
394
100
AcDbEntity
  8
RUNDUNGEN
100
AcDbCircle
 62
7
  6
CONTINUOUS
 10
133.3650757694
 20
143.0071542663
 40
5.0
100
AcDbArc
 50
157.4961786473
 51
202.5037033624
  0
ARC
  5
395
100
AcDbEntity
  8
RUNDUNGEN
100
AcDbCircle
 62
7
  6
CONTINUOUS
 10
124.705938167
 20
148.2334061258
 40
5.0
100
AcDbArc
 50
337.5
 51
22.5000007688
  0
ARC
  5
396
100
AcDbEntity
  8
RUNDUNGEN
100
AcDbCircle
 62
7
  6
CONTINUOUS
 10
118.6824567914
 20
162.7753765557
 40
5.0
100
AcDbArc
 50
22.5
 51
67.5
  0
ARC
  5
397
100
AcDbEntity
  8
BEZUGSACHSEN
100
AcDbCircle
 62
7
  6
CONTINUOUS
 10
73.1715704968
 20
138.7959776772
 40
5.0
100
AcDbArc
 50
278.9861982209
 51
337.5003162124
  0
ARC
  5
398
100
AcDbEntity
  8
BEZUGSACHSEN
100
AcDbCircle
 62
7
  6
CONTINUOUS
 10
74.9158969536
 20
143.0071542663
 40
5.0
100
AcDbArc
 50
337.4962966376
 51
22.5038213527
  0
ARC
  5
399
100
AcDbEntity
  8
BEZUGSACHSEN
100
AcDbCircle
 62
7
  6
CONTINUOUS
 10
83.5750345559
 20
148.2334061258
 40
5.0
100
AcDbArc
 50
157.4999992312
 51
202.5
  0
ARC
  5
39A
100
AcDbEntity
  8
BEZUGSACHSEN
100
AcDbCircle
 62
7
  6
CONTINUOUS
 10
89.5985159316
 20
162.7753765557
 40
5.0
100
AcDbArc
 50
112.5
 51
157.5
  0
ARC
  5
39B
100
AcDbEntity
  8
RUNDUNGEN
100
AcDbCircle
 62
7
  6
CONTINUOUS
 10
104.1404863615
 20
168.7988579314
 40
5.0
100
AcDbArc
 50
67.5
 51
112.5
  0
ARC
  5
39C
100
AcDbEntity
  8
RUNDUNGEN
100
AcDbCircle
 62
7
  6
CONTINUOUS
 10
137.6404863615
 20
131.8149355535
 40
1.5
100
AcDbArc
 50
0.0
 51
81.0136390855
  0
ARC
  5
39D
100
AcDbEntity
  8
BEZUGSACHSEN
100
AcDbCircle
 62
7
  6
CONTINUOUS
 10
70.6404863615
 20
131.8149355535
 40
1.5
100
AcDbArc
 50
98.9863609145
 51
180.0
  0
ARC
  5
39E
100
AcDbEntity
  8
BEZUGSACHSEN
100
AcDbCircle
 62
7
  6
CONTINUOUS
 10
237.2589045881
 20
150.6051426323
 40
13.0
100
AcDbArc
 50
179.9999919624
 51
195.0
  0
ARC
  5
39F
100
AcDbEntity
  8
BEZUGSACHSEN
100
AcDbCircle
 62
7
  6
CONTINUOUS
 10
199.2589045881
 20
150.6051426323
 40
13.0
100
AcDbArc
 50
345.0
 51
0.0000080376
  0
ARC
  5
3A0
100
AcDbEntity
  8
RUNDUNGEN
100
AcDbCircle
 62
7
  6
CONTINUOUS
 10
219.7589045881
 20
174.7334061258
 40
1.5
100
AcDbArc
 50
0.0
 51
90.0
  0
ARC
  5
3A1
100
AcDbEntity
  8
RUNDUNGEN
100
AcDbCircle
 62
7
  6
CONTINUOUS
 10
216.7589045881
 20
174.7334061258
 40
1.5
100
AcDbArc
 50
90.0
 51
180.0
  0
ARC
  5
3A2
100
AcDbEntity
  8
BEZUGSACHSEN
100
AcDbCircle
 62
7
  6
CONTINUOUS
 10
213.7589045881
 20
172.2988579314
 40
1.5
100
AcDbArc
 50
90.0
 51
180.0
  0
ARC
  5
3A3
100
AcDbEntity
  8
RUNDUNGEN
100
AcDbCircle
 62
7
  6
CONTINUOUS
 10
222.7589045881
 20
172.2988579314
 40
1.5
100
AcDbArc
 50
0.0
 51
90.0
  0
ARC
  5
3A4
100
AcDbEntity
  8
BEZUGSACHSEN
100
AcDbCircle
 62
7
  6
CONTINUOUS
 10
228.0589045881
 20
130.0754231287
 40
1.2
100
AcDbArc
 50
0.0002602074
 51
14.9997783366
  0
ARC
  5
3A5
100
AcDbEntity
  8
RUNDUNGEN
100
AcDbCircle
 62
7
  6
CONTINUOUS
 10
228.0589045881
 20
130.0754231287
 40
1.2
100
AcDbArc
 50
0.0002602074
 51
14.9997783366
  0
ARC
  5
3A6
100
AcDbEntity
  8
BEZUGSACHSEN
100
AcDbCircle
 62
7
  6
CONTINUOUS
 10
208.4589045881
 20
130.0754231287
 40
1.2
100
AcDbArc
 50
165.0002216634
 51
179.9997397926
  0
ARC
  5
3A7
100
AcDbEntity
  8
RUNDUNGEN
100
AcDbCircle
 62
7
  6
CONTINUOUS
 10
70.6404863615
 20
38.5220886076
 40
1.5
100
AcDbArc
 50
180.0
 51
270.0
  0
ARC
  5
3A8
100
AcDbEntity
  8
RUNDUNGEN
100
AcDbCircle
 62
7
  6
CONTINUOUS
 10
137.6404863615
 20
41.5220886076
 40
1.5
100
AcDbArc
 50
0.0
 51
90.0
  0
ARC
  5
3A9
100
AcDbEntity
  8
RUNDUNGEN
100
AcDbCircle
 62
7
  6
CONTINUOUS
 10
137.6404863615
 20
38.5220886076
 40
1.5
100
AcDbArc
 50
270.0
 51
360.0
  0
ARC
  5
3AA
100
AcDbEntity
  8
RUNDUNGEN
100
AcDbCircle
 62
7
  6
CONTINUOUS
 10
70.6404863615
 20
41.5220886076
 40
1.5
100
AcDbArc
 50
90.0
 51
180.0
  0
ARC
  5
3AB
100
AcDbEntity
  8
RUNDUNGEN
100
AcDbCircle
 62
7
  6
CONTINUOUS
 10
137.6404863615
 20
30.5220886076
 40
1.5
100
AcDbArc
 50
270.0
 51
360.0
  0
ARC
  5
3AC
100
AcDbEntity
  8
BEZUGSACHSEN
100
AcDbCircle
 62
7
  6
CONTINUOUS
 10
70.6404863615
 20
30.5220886076
 40
1.5
100
AcDbArc
 50
180.0
 51
270.0
  0
ARC
  5
3AD
100
AcDbEntity
  8
BEZUGSACHSEN
100
AcDbCircle
 62
7
  6
CONTINUOUS
 10
137.6404863615
 20
49.5220886076
 40
1.5
100
AcDbArc
 50
0.0
 51
90.0
  0
ARC
  5
3AE
100
AcDbEntity
  8
BEZUGSACHSEN
100
AcDbCircle
 62
7
  6
CONTINUOUS
 10
70.6404863615
 20
49.5220886076
 40
1.5
100
AcDbArc
 50
90.0
 51
180.0
  0
LINE
  5
3AF
100
AcDbEntity
  8
RUNDUNGEN
100
AcDbLine
 62
7
  6
CONTINUOUS
 10
221.2404929153
 20
133.2965238807
 11
219.7589045881
 21
131.8149355535
  0
LINE
  5
3B0
100
AcDbEntity
  8
RUNDUNGEN
100
AcDbLine
 62
7
  6
CONTINUOUS
 10
216.7589045881
 20
131.8149355535
 11
215.277316261
 21
133.2965238807
  0
ELLIPSE
  5
3B1
100
AcDbEntity
  8
RUNDUNGEN
100
AcDbEllipse
 62
7
  6
CONTINUOUS
 10
216.7589045881
 20
133.3335760279
 30
0.0
 11
1.5
 21
-0.0
 31
0.0
 40
0.1581404305
 41
3.1415926536
 42
3.2984342388
  0
ELLIPSE
  5
3B2
100
AcDbEntity
  8
RUNDUNGEN
100
AcDbEllipse
 62
7
  6
CONTINUOUS
 10
219.7589045881
 20
133.3335760279
 30
0.0
 11
1.5
 21
0.0
 31
0.0
 40
0.1581404305
 41
-0.1568415852
 42
-0.0
  0
ENDSEC
  0
SECTION
  2
OBJECTS
  0
DICTIONARY
  5
C
100
AcDbDictionary
280
0
281
1
  3
ACAD_GROUP
350
D
  3
ACAD_MLINESTYLE
350
17
  3
ACAD_LAYOUT
350
1A
  3
ACAD_PLOTSETTINGS
350
19
  3
ACAD_PLOTSTYLENAME
350
E
  0
DICTIONARY
  5
D
102
{ACAD_REACTORS
330
C
102
}
100
AcDbDictionary
280
0
281
1
  0
ACDBDICTIONARYWDFLT
  5
E
102
{ACAD_REACTORS
330
C
102
}
100
AcDbDictionary
281
1
  3
Normal
350
F
100
AcDbDictionaryWithDefault
340
F
  0
DICTIONARY
  5
17
102
{ACAD_REACTORS
330
C
102
}
100
AcDbDictionary
280
0
281
1
  3
Standard
350
18
  0
DICTIONARY
  5
19
102
{ACAD_REACTORS
330
C
102
}
100
AcDbDictionary
281
1
  0
DICTIONARY
  5
1A
102
{ACAD_REACTORS
330
C
102
}
100
AcDbDictionary
281
1
  3
Model
350
3B3
  3
Layout1
350
3B4
  0
ACDBPLACEHOLDER
  5
F
102
{ACAD_REACTORS
330
E
102
}
  0
MLINESTYLE
  5
18
102
{ACAD_REACTORS
330
17
102
}
100
AcDbMlineStyle
  2
STANDARD
 70
0
  3

 62
256
 51
90.0
 52
90.0
 71
2
 49
0.5
 62
256
  6
BYLAYER
 49
-0.5
 62
256
  6
BYLAYER
  0
LAYOUT
  5
3B3
102
{ACAD_REACTORS
330
1A
102
}
100
AcDbPlotSettings
  1

  2
none_device
  4
ISO_A4_(297.00_x_210.00_MM)
  6

 40
0.0
 41
0.0
 42
0.0
 43
0.0
 44
297.0
 45
210.0
 46
0.0
 47
0.0
 48
0.0
 49
0.0
140
0.0
141
0.0
142
1.0
143
1.0
 70
1024
 72
1
 73
0
 74
0
  7

 75
0
147
1.0
148
0.0
149
0.0
100
AcDbLayout
  1
Model
 70
0
 71
0
 10
0.0
 20
0.0
 11
297.0
 21
210.0
 12
0.0
 22
0.0
 32
0.0
 14
0.0
 24
0.0
 34
0.0
 15
0.0
 25
0.0
 35
0.0
146
0.0
 13
0.0
 23
0.0
 33
0.0
 16
1.0
 26
0.0
 36
0.0
 17
0.0
 27
1.0
 37
0.0
 76
0
330
209
345
0
346
0
  0
LAYOUT
  5
3B4
102
{ACAD_REACTORS
330
1A
102
}
100
AcDbPlotSettings
  1

  2
none_device
  4
ISO_A4_(297.00_x_210.00_MM)
  6

 40
0.0
 41
0.0
 42
0.0
 43
0.0
 44
297.0
 45
210.0
 46
0.0
 47
0.0
 48
0.0
 49
0.0
140
0.0
141
0.0
142
1.0
143
1.0
 70
0
 72
1
 73
0
 74
0
  7

 75
0
147
1.0
148
0.0
149
0.0
100
AcDbLayout
  1
Layout1
 70
0
 71
1
 10
0.0
 20
0.0
 11
297.0
 21
210.0
 12
0.0
 22
0.0
 32
0.0
 14
0.0
 24
0.0
 34
0.0
 15
0.0
 25
0.0
 35
0.0
146
0.0
 13
0.0
 23
0.0
 33
0.0
 16
1.0
 26
0.0
 36
0.0
 17
0.0
 27
1.0
 37
0.0
 76
0
330
20A
345
0
346
0
  0
ENDSEC
  0
EOF
