999
DXF file: 001-m31342-p-20.dxf
999
Pro/ENGINEER 2011490 by Parametric Technology Corporation
  0
SECTION
  2
HEADER
  9
$ACADVER
  1
AC1015
  9
$DWGCODEPAGE
  3
ANSI_1252
  9
$EXTMAX
 10
841.0
 20
594.0
 30
0.0
  9
$EXTMIN
 10
0.0
 20
0.0
 30
0.0
  9
$LIMMIN
 10
0.0
 20
0.0
  9
$LIMMAX
 10
841.0
 20
594.0
  9
$VIEWCTR
 10
420.5
 20
297.0
  9
$VIEWSIZE
 40
594.0
  9
$CLAYER
  8
0
  9
$LTSCALE
 40
46.255
  9
$CELTYPE
  6
BYLAYER
  9
$DIMSCALE
 40
1.0
  9
$DIMASZ
 40
3.5
  9
$DIMEXO
 40
5.25625
  9
$DIMDLI
 40
31.958
  9
$DIMEXE
 40
15.138
  9
$DIMCEN
 40
7.569
  9
$DIMLFAC
 40
1.0
  9
$DIMBLK
  1
_FILLED
  9
$DIMTXT
 40
3.5
  9
$DIMTOL
 70
1
  9
$DIMLIM
 70
0
  9
$DIMTFAC
 40
1.0
  9
$DIMTP
 40
0.005
  9
$DIMTM
 40
0.005
  9
$PDMODE
 70
3
  9
$PDSIZE
 40
0.3125
  9
$HANDSEED
  5
7CD
  9
$TILEMODE
 70
1
  9
$MEASUREMENT
 70
1
  9
$INSUNITS
 70
4
  0
ENDSEC
  0
SECTION
  2
CLASSES
  0
CLASS
  1
ACDBDICTIONARYWDFLT
  2
AcDbDictionaryWithDefault
  3
AutoCAD 2000
 90
0
280
0
281
0
  0
CLASS
  1
ACDBPLACEHOLDER
  2
AcDbPlaceHolder
  3
AutoCAD 2000
 90
0
280
0
281
0
  0
CLASS
  1
LAYOUT
  2
AcDbLayout
  3
AutoCAD 2000
 90
0
280
0
281
0
  0
ENDSEC
  0
SECTION
  2
TABLES
  0
TABLE
  2
VPORT
  5
8
100
AcDbSymbolTable
 70
2
  0
VPORT
  5
1F4
100
AcDbSymbolTableRecord
100
AcDbViewportTableRecord
  2
*ACTIVE
 70
0
 10
0.0
 20
0.0
 11
1.0
 21
1.0
 12
420.5
 22
297.0
 13
0.0
 23
0.0
 14
1.0
 24
1.0
 15
0.0
 25
0.0
 16
0.0
 26
0.0
 36
1.0
 17
0.0
 27
0.0
 37
0.0
 40
594.0
 41
1.4158249158
 42
50.0
 43
0.0
 44
0.0
 50
0.0
 51
0.0
 71
0
 72
100
 73
1
 74
1
 75
0
 76
0
 77
0
 78
0
  0
ENDTAB
  0
TABLE
  2
LTYPE
  5
5
100
AcDbSymbolTable
 70
6
  0
LTYPE
  5
14
100
AcDbSymbolTableRecord
100
AcDbLinetypeTableRecord
  2
BYBLOCK
 70
0
  3

 72
65
 73
0
 40
0.0
  0
LTYPE
  5
15
100
AcDbSymbolTableRecord
100
AcDbLinetypeTableRecord
  2
BYLAYER
 70
0
  3

 72
65
 73
0
 40
0.0
  0
LTYPE
  5
16
100
AcDbSymbolTableRecord
100
AcDbLinetypeTableRecord
  2
CONTINUOUS
 70
64
  3
Solid line
 72
65
 73
0
 40
0.0
  0
LTYPE
  5
1F5
100
AcDbSymbolTableRecord
100
AcDbLinetypeTableRecord
  2
CENTER
 70
64
  3
____ _ ____ _ ____ _ ____ _ ____ _ ____ _ ____
 72
65
 73
4
 40
0.6
 49
0.375
 74
0
 49
-0.075
 74
0
 49
0.075
 74
0
 49
-0.075
 74
0
  0
LTYPE
  5
1F6
100
AcDbSymbolTableRecord
100
AcDbLinetypeTableRecord
  2
HIDDEN
 70
64
  3
- - - - - - - - - - - - - - - - - - - -
 72
65
 73
2
 40
0.2
 49
0.1
 74
0
 49
-0.1
 74
0
  0
LTYPE
  5
1F7
100
AcDbSymbolTableRecord
100
AcDbLinetypeTableRecord
  2
PHANTOM
 70
64
  3
_____ _ _ _____ _ _ _____ _ _ _____
 72
65
 73
6
 40
0.8
 49
0.45
 74
0
 49
-0.05
 74
0
 49
0.1
 74
0
 49
-0.05
 74
0
 49
0.1
 74
0
 49
-0.05
 74
0
  0
LTYPE
  5
1F8
100
AcDbSymbolTableRecord
100
AcDbLinetypeTableRecord
  2
DOT
 70
64
  3
. . . . . . . . . . . . . . . . . . . .
 72
65
 73
2
 40
0.2
 49
0.1
 74
0
 49
-0.1
 74
0
  0
LTYPE
  5
1F9
100
AcDbSymbolTableRecord
100
AcDbLinetypeTableRecord
  2
DASHED
 70
64
  3
- - - - - - - - - - - - - - - - - - - -
 72
65
 73
2
 40
0.2
 49
0.1
 74
0
 49
-0.1
 74
0
  0
ENDTAB
  0
TABLE
  2
LAYER
  5
2
100
AcDbSymbolTable
 70
36
  0
LAYER
  5
10
100
AcDbSymbolTableRecord
100
AcDbLayerTableRecord
  2
0
 70
0
 62
7
  6
CONTINUOUS
370
-3
390
F
  0
LAYER
  5
1FA
100
AcDbSymbolTableRecord
100
AcDbLayerTableRecord
  2
DEFAULT_1
 70
0
 62
7
  6
CENTER
370
-3
390
F
  0
LAYER
  5
1FB
100
AcDbSymbolTableRecord
100
AcDbLayerTableRecord
  2
DEFAULT_2
 70
0
 62
8
  6
HIDDEN
370
-3
390
F
  0
LAYER
  5
1FC
100
AcDbSymbolTableRecord
100
AcDbLayerTableRecord
  2
DEFAULT_3
 70
0
 62
7
  6
PHANTOM
370
-3
390
F
  0
LAYER
  5
1FD
100
AcDbSymbolTableRecord
100
AcDbLayerTableRecord
  2
AUSFORMSCHRAEGEN
 70
0
 62
7
  6
CONTINUOUS
370
-3
390
F
  0
LAYER
  5
1FE
100
AcDbSymbolTableRecord
100
AcDbLayerTableRecord
  2
BEZUGSACHSEN
 70
0
 62
7
  6
CONTINUOUS
370
-3
390
F
  0
LAYER
  5
1FF
100
AcDbSymbolTableRecord
100
AcDbLayerTableRecord
  2
BEZUGSEBENEN
 70
0
 62
7
  6
CONTINUOUS
370
-3
390
F
  0
LAYER
  5
200
100
AcDbSymbolTableRecord
100
AcDbLayerTableRecord
  2
BG_STARTBEZUEGE
 70
0
 62
7
  6
CONTINUOUS
370
-3
390
F
  0
LAYER
  5
201
100
AcDbSymbolTableRecord
100
AcDbLayerTableRecord
  2
FASEN
 70
0
 62
7
  6
CONTINUOUS
370
-3
390
F
  0
LAYER
  5
202
100
AcDbSymbolTableRecord
100
AcDbLayerTableRecord
  2
HILFEN
 70
0
 62
7
  6
CONTINUOUS
370
-3
390
F
  0
LAYER
  5
203
100
AcDbSymbolTableRecord
100
AcDbLayerTableRecord
  2
KONSTRUKTIONSELEMENTE
 70
0
 62
7
  6
CONTINUOUS
370
-3
390
F
  0
LAYER
  5
204
100
AcDbSymbolTableRecord
100
AcDbLayerTableRecord
  2
NORM
 70
0
 62
7
  6
CONTINUOUS
370
-3
390
F
  0
LAYER
  5
205
100
AcDbSymbolTableRecord
100
AcDbLayerTableRecord
  2
PLATZIERUNG
 70
0
 62
7
  6
CONTINUOUS
370
-3
390
F
  0
LAYER
  5
206
100
AcDbSymbolTableRecord
100
AcDbLayerTableRecord
  2
RUNDUNGEN
 70
0
 62
7
  6
CONTINUOUS
370
-3
390
F
  0
LAYER
  5
207
100
AcDbSymbolTableRecord
100
AcDbLayerTableRecord
  2
TEIL_STARTBEZUEGE
 70
0
 62
7
  6
CONTINUOUS
370
-3
390
F
  0
LAYER
  5
208
100
AcDbSymbolTableRecord
100
AcDbLayerTableRecord
  2
T_STARTBEZUEGE
 70
0
 62
7
  6
CONTINUOUS
370
-3
390
F
  0
LAYER
  5
209
100
AcDbSymbolTableRecord
100
AcDbLayerTableRecord
  2
ZEICHNUNGSBEMASSUNGEN
 70
0
 62
7
  6
CONTINUOUS
370
-3
390
F
  0
ENDTAB
  0
TABLE
  2
STYLE
  5
3
100
AcDbSymbolTable
 70
1
  0
STYLE
  5
11
100
AcDbSymbolTableRecord
100
AcDbTextStyleTableRecord
  2
STANDARD
 70
0
 40
0.0
 41
0.7
 50
0.0
 71
0
 42
0.2
  3
txt
  4

  0
STYLE
  5
20A
100
AcDbSymbolTableRecord
100
AcDbTextStyleTableRecord
  2
TEXTSTYLE_1
 70
0
 40
0.0
 41
0.8
 50
0.0
 71
0
 42
0.2
  3
gdt
  4

  0
ENDTAB
  0
TABLE
  2
VIEW
  5
6
100
AcDbSymbolTable
 70
0
  0
ENDTAB
  0
TABLE
  2
UCS
  5
7
100
AcDbSymbolTable
 70
0
  0
ENDTAB
  0
TABLE
  2
APPID
  5
9
100
AcDbSymbolTable
 70
1
  0
APPID
  5
20B
100
AcDbSymbolTableRecord
100
AcDbRegAppTableRecord
  2
ACAD
 70
0
  0
ENDTAB
  0
TABLE
  2
BLOCK_RECORD
  5
1
100
AcDbSymbolTable
 70
0
  0
BLOCK_RECORD
  5
20C
100
AcDbSymbolTableRecord
100
AcDbBlockTableRecord
  2
*Model_Space
  0
BLOCK_RECORD
  5
20D
100
AcDbSymbolTableRecord
100
AcDbBlockTableRecord
  2
*Paper_Space
  0
ENDTAB
  0
TABLE
  2
DIMSTYLE
  5
A
100
AcDbSymbolTable
 70
1
100
AcDbDimStyleTable
 71
0
  0
DIMSTYLE
105
20E
100
AcDbSymbolTableRecord
100
AcDbDimStyleTableRecord
  2
STANDARD
 70
0
  3

  4

 40
1.0
 41
3.5
 42
0.0625
 43
0.38
 44
0.18
 45
0.0
 46
0.0
 47
0.005
 48
0.005
140
3.5
141
0.09
142
0.0
143
25.4
144
1.0
145
0.0
146
1.0
147
0.09
 71
1.0
 72
0.0
 73
0
 74
0
 75
0
 76
0
 77
1
 78
8
170
0
171
2
172
0
173
0
174
0
175
0
176
0
177
0
178
5
270
2
271
3
272
3
273
2
274
2
275
0
280
0
281
0
282
0
283
1
284
8
285
0
286
0
287
3
288
0
340
11
  0
ENDTAB
  0
ENDSEC
  0
SECTION
  2
BLOCKS
  0
BLOCK
  5
20
100
AcDbEntity
  8
0
100
AcDbBlockBegin
  2
*Model_Space
 70
0
 10
0.0
 20
0.0
 30
0.0
  3
*Model_Space
  1

  0
ENDBLK
  5
21
100
AcDbEntity
  8
0
100
AcDbBlockEnd
  0
BLOCK
  5
1C
100
AcDbEntity
  8
0
100
AcDbBlockBegin
  2
*Paper_Space
 70
0
 10
0.0
 20
0.0
 30
0.0
  3
*Paper_Space
  1

  0
ENDBLK
  5
1D
100
AcDbEntity
  8
0
100
AcDbBlockEnd
  0
ENDSEC
  0
SECTION
  2
ENTITIES
  0
MTEXT
  5
20F
100
AcDbEntity
  8
0
100
AcDbMText
 62
5
  6
CONTINUOUS
  7
STANDARD
 71
1
 72
1
 10
408.0974894304
 20
419.10100542
 30
0.0
 11
0.3826834324
 21
0.9238795325
 31
0.0
 44
0.9
  1
VIP 16
 40
8.0
 41
36.7619047619
  0
MTEXT
  5
210
100
AcDbEntity
  8
0
100
AcDbMText
 62
5
  6
CONTINUOUS
  7
STANDARD
 71
2
 72
1
 10
262.2202374445
 20
81.2347580982
 30
0.0
 11
0.0
 21
1.0
 31
0.0
 44
0.9
  1
RUD PP-VIP\P8t M36
 40
11.5
 41
92.0
  0
MTEXT
  5
211
100
AcDbEntity
  8
0
100
AcDbMText
 62
5
  6
CONTINUOUS
  7
STANDARD
 71
1
 72
1
 10
474.570273631
 20
440.3564333859
 30
0.0
 11
0.3826834324
 21
-0.9238795325
 31
0.0
 44
0.9
  1
CE
 40
8.0
 41
13.9047619048
  0
LINE
  5
212
100
AcDbEntity
  8
0
100
AcDbLine
 62
7
  6
CONTINUOUS
 10
0.0
 20
0.0
 11
0.0
 21
594.0
  0
LINE
  5
213
100
AcDbEntity
  8
0
100
AcDbLine
 62
7
  6
CONTINUOUS
 10
0.0
 20
0.0
 11
841.0
 21
0.0
  0
LINE
  5
214
100
AcDbEntity
  8
0
100
AcDbLine
 62
7
  6
CONTINUOUS
 10
0.0
 20
594.0
 11
841.0
 21
594.0
  0
LINE
  5
215
100
AcDbEntity
  8
0
100
AcDbLine
 62
7
  6
CONTINUOUS
 10
841.0
 20
0.0
 11
841.0
 21
594.0
  0
LINE
  5
216
100
AcDbEntity
  8
FASEN
100
AcDbLine
 62
7
  6
CONTINUOUS
 10
291.2236197586
 20
281.6575259147
 11
261.2236197586
 21
281.6575259147
  0
LINE
  5
217
100
AcDbEntity
  8
FASEN
100
AcDbLine
 62
7
  6
CONTINUOUS
 10
294.2236197586
 20
284.6575259147
 11
258.2236197586
 21
284.6575259147
  0
LINE
  5
218
100
AcDbEntity
  8
FASEN
100
AcDbLine
 62
7
  6
CONTINUOUS
 10
261.2236197587
 20
281.6575259147
 11
258.2236197587
 21
284.6575259147
  0
LINE
  5
219
100
AcDbEntity
  8
KONSTRUKTIONSELEMENTE
100
AcDbLine
 62
7
  6
CONTINUOUS
 10
226.2236197586
 20
335.6575259147
 11
226.2236197586
 21
355.6575259147
  0
LINE
  5
21A
100
AcDbEntity
  8
0
100
AcDbLine
 62
7
  6
CONTINUOUS
 10
236.9441430961
 20
342.1681642113
 11
237.2774765883
 21
341.8277386753
  0
LINE
  5
21B
100
AcDbEntity
  8
0
100
AcDbLine
 62
7
  6
CONTINUOUS
 10
237.2774765883
 20
342.6788025079
 11
237.1108100806
 21
342.8490152536
  0
LINE
  5
21C
100
AcDbEntity
  8
0
100
AcDbLine
 62
7
  6
CONTINUOUS
 10
238.1435019921
 20
341.8277386753
 11
237.8101684998
 21
342.1681642113
  0
LINE
  5
21D
100
AcDbEntity
  8
0
100
AcDbLine
 62
7
  6
CONTINUOUS
 10
240.6108096038
 20
342.338376957
 11
241.0274765883
 21
341.8277386753
  0
LINE
  5
21E
100
AcDbEntity
  8
0
100
AcDbLine
 62
7
  6
CONTINUOUS
 10
236.6941430961
 20
342.5085897623
 11
236.9441430961
 21
342.1681642113
  0
LINE
  5
21F
100
AcDbEntity
  8
0
100
AcDbLine
 62
7
  6
CONTINUOUS
 10
237.8101684998
 20
342.1681642113
 11
237.5601684998
 21
342.5085897623
  0
LINE
  5
220
100
AcDbEntity
  8
0
100
AcDbLine
 62
7
  6
CONTINUOUS
 10
237.1108100806
 20
342.8490152536
 11
236.9441430961
 21
343.1894408641
  0
LINE
  5
221
100
AcDbEntity
  8
0
100
AcDbLine
 62
7
  6
CONTINUOUS
 10
231.7236197586
 20
375.6894408045
 11
231.7236197586
 21
374.1575259147
  0
LINE
  5
222
100
AcDbEntity
  8
0
100
AcDbLine
 62
7
  6
CONTINUOUS
 10
231.7264288361
 20
365.774547237
 11
231.7264288361
 21
364.4979512869
  0
LINE
  5
223
100
AcDbEntity
  8
0
100
AcDbLine
 62
7
  6
CONTINUOUS
 10
231.7489078267
 20
369.3490156112
 11
231.7489078267
 21
368.327738422
  0
LINE
  5
224
100
AcDbEntity
  8
0
100
AcDbLine
 62
7
  6
CONTINUOUS
 10
231.7774765883
 20
349.6575259147
 11
231.7774765883
 21
341.6575259147
  0
LINE
  5
225
100
AcDbEntity
  8
0
100
AcDbLine
 62
7
  6
CONTINUOUS
 10
231.8248585469
 20
386.1575259147
 11
231.8248585469
 21
378.2426321684
  0
LINE
  5
226
100
AcDbEntity
  8
0
100
AcDbLine
 62
7
  6
CONTINUOUS
 10
231.9037597366
 20
365.774547237
 11
231.9037597366
 21
364.4979512869
  0
LINE
  5
227
100
AcDbEntity
  8
0
100
AcDbLine
 62
7
  6
CONTINUOUS
 10
231.9517325647
 20
386.1575259147
 11
231.9517325647
 21
378.2426321684
  0
LINE
  5
228
100
AcDbEntity
  8
0
100
AcDbLine
 62
7
  6
CONTINUOUS
 10
232.1299692923
 20
363.2213556944
 11
232.1299692923
 21
363.9873130499
  0
LINE
  5
229
100
AcDbEntity
  8
0
100
AcDbLine
 62
7
  6
CONTINUOUS
 10
232.1647104657
 20
369.0936957775
 11
232.1647104657
 21
368.327738422
  0
LINE
  5
22A
100
AcDbEntity
  8
0
100
AcDbLine
 62
7
  6
CONTINUOUS
 10
232.2008983525
 20
386.1575259147
 11
232.2008983525
 21
374.1575259147
  0
LINE
  5
22B
100
AcDbEntity
  8
0
100
AcDbLine
 62
7
  6
CONTINUOUS
 10
232.2236197586
 20
392.6575259147
 11
232.2236197586
 21
386.1575259147
  0
LINE
  5
22C
100
AcDbEntity
  8
0
100
AcDbLine
 62
7
  6
CONTINUOUS
 10
232.2236197586
 20
374.1575259147
 11
232.2236197586
 21
370.1197384355
  0
LINE
  5
22D
100
AcDbEntity
  8
0
100
AcDbLine
 62
7
  6
CONTINUOUS
 10
232.2236197586
 20
367.5069048669
 11
232.2236197586
 21
365.774547237
  0
LINE
  5
22E
100
AcDbEntity
  8
0
100
AcDbLine
 62
7
  6
CONTINUOUS
 10
232.2236197586
 20
361.7898878058
 11
232.2236197586
 21
355.6575259147
  0
LINE
  5
22F
100
AcDbEntity
  8
0
100
AcDbLine
 62
7
  6
CONTINUOUS
 10
232.2774765883
 20
341.6575259147
 11
232.2774765883
 21
347.9553984581
  0
LINE
  5
230
100
AcDbEntity
  8
0
100
AcDbLine
 62
7
  6
CONTINUOUS
 10
232.3181815989
 20
363.9873130499
 11
232.3181815989
 21
363.2213556944
  0
LINE
  5
231
100
AcDbEntity
  8
0
100
AcDbLine
 62
7
  6
CONTINUOUS
 10
232.3601951966
 20
369.0936957775
 11
232.3601951966
 21
368.5830575405
  0
LINE
  5
232
100
AcDbEntity
  8
0
100
AcDbLine
 62
7
  6
CONTINUOUS
 10
232.4486268974
 20
384.6256112037
 11
232.4486268974
 21
375.6894408045
  0
LINE
  5
233
100
AcDbEntity
  8
0
100
AcDbLine
 62
7
  6
CONTINUOUS
 10
232.6435019921
 20
347.9553984581
 11
232.6435019921
 21
348.9939593518
  0
LINE
  5
234
100
AcDbEntity
  8
0
100
AcDbLine
 62
7
  6
CONTINUOUS
 10
232.8250310719
 20
363.9873130499
 11
232.8250310719
 21
363.2213556944
  0
LINE
  5
235
100
AcDbEntity
  8
0
100
AcDbLine
 62
7
  6
CONTINUOUS
 10
232.8675358222
 20
369.0936957775
 11
232.8675358222
 21
368.5830575405
  0
LINE
  5
236
100
AcDbEntity
  8
0
100
AcDbLine
 62
7
  6
CONTINUOUS
 10
232.9570044531
 20
384.6256112037
 11
232.9570044531
 21
375.6894408045
  0
LINE
  5
237
100
AcDbEntity
  8
0
100
AcDbLine
 62
7
  6
CONTINUOUS
 10
233.8207893608
 20
369.0936957775
 11
233.8207893608
 21
368.5830575405
  0
LINE
  5
238
100
AcDbEntity
  8
0
100
AcDbLine
 62
7
  6
CONTINUOUS
 10
233.9011969337
 20
363.9873130499
 11
233.9011969337
 21
363.2213556944
  0
LINE
  5
239
100
AcDbEntity
  8
0
100
AcDbLine
 62
7
  6
CONTINUOUS
 10
234.2392476662
 20
369.0936957775
 11
234.2392476662
 21
368.327738422
  0
LINE
  5
23A
100
AcDbEntity
  8
0
100
AcDbLine
 62
7
  6
CONTINUOUS
 10
237.6941430961
 20
342.5085897623
 11
237.2774765883
 21
342.6788025079
  0
LINE
  5
23B
100
AcDbEntity
  8
0
100
AcDbLine
 62
7
  6
CONTINUOUS
 10
241.0274765883
 20
341.8277386753
 11
241.4441435729
 21
341.6575259147
  0
LINE
  5
23C
100
AcDbEntity
  8
0
100
AcDbLine
 62
7
  6
CONTINUOUS
 10
242.0854892902
 20
341.7493098839
 11
241.8935019921
 21
341.8277386753
  0
LINE
  5
23D
100
AcDbEntity
  8
0
100
AcDbLine
 62
7
  6
CONTINUOUS
 10
237.2774765883
 20
341.8277386753
 11
237.6108100806
 21
341.6575259147
  0
LINE
  5
23E
100
AcDbEntity
  8
0
100
AcDbLine
 62
7
  6
CONTINUOUS
 10
238.3771560364
 20
341.7084260325
 11
238.1435019921
 21
341.8277386753
  0
LINE
  5
23F
100
AcDbEntity
  8
0
100
AcDbLine
 62
7
  6
CONTINUOUS
 10
241.3608096038
 20
342.5085897623
 11
241.1108096038
 21
342.6788025079
  0
LINE
  5
240
100
AcDbEntity
  8
0
100
AcDbLine
 62
7
  6
CONTINUOUS
 10
241.9441435729
 20
345.9128450332
 11
242.1941435729
 21
345.7426322876
  0
LINE
  5
241
100
AcDbEntity
  8
0
100
AcDbLine
 62
7
  6
CONTINUOUS
 10
241.8608096038
 20
348.8064621864
 11
242.1108096038
 21
348.6362494407
  0
LINE
  5
242
100
AcDbEntity
  8
0
100
AcDbLine
 62
7
  6
CONTINUOUS
 10
239.1941430961
 20
345.4022067962
 11
238.7774765883
 21
345.7426322876
  0
LINE
  5
243
100
AcDbEntity
  8
0
100
AcDbLine
 62
7
  6
CONTINUOUS
 10
238.9441430961
 20
349.1468876777
 11
238.6108100806
 21
349.4873131691
  0
LINE
  5
244
100
AcDbEntity
  8
0
100
AcDbLine
 62
7
  6
CONTINUOUS
 10
241.8935019921
 20
341.8277386753
 11
241.4768350076
 21
342.338376957
  0
LINE
  5
245
100
AcDbEntity
  8
0
100
AcDbLine
 62
7
  6
CONTINUOUS
 10
242.6941435729
 20
346.0830577789
 11
242.2774765883
 21
346.5936960159
  0
LINE
  5
246
100
AcDbEntity
  8
0
100
AcDbLine
 62
7
  6
CONTINUOUS
 10
242.6108096038
 20
348.9766749321
 11
242.1941435729
 21
349.4873131691
  0
LINE
  5
247
100
AcDbEntity
  8
0
100
AcDbLine
 62
7
  6
CONTINUOUS
 10
238.6108100806
 20
345.2319940506
 11
238.8608100806
 21
344.8915685592
  0
LINE
  5
248
100
AcDbEntity
  8
0
100
AcDbLine
 62
7
  6
CONTINUOUS
 10
241.1108096038
 20
342.6788025079
 11
240.8608096038
 21
343.0192279993
  0
LINE
  5
249
100
AcDbEntity
  8
0
100
AcDbLine
 62
7
  6
CONTINUOUS
 10
238.5274765883
 20
348.6362494407
 11
238.7774765883
 21
348.2958239494
  0
LINE
  5
24A
100
AcDbEntity
  8
0
100
AcDbLine
 62
7
  6
CONTINUOUS
 10
242.1941435729
 20
345.7426322876
 11
242.4441435729
 21
345.4022067962
  0
LINE
  5
24B
100
AcDbEntity
  8
0
100
AcDbLine
 62
7
  6
CONTINUOUS
 10
242.1108096038
 20
348.6362494407
 11
242.3608096038
 21
348.2958239494
  0
LINE
  5
24C
100
AcDbEntity
  8
0
100
AcDbLine
 62
7
  6
CONTINUOUS
 10
239.2774765883
 20
348.4660366951
 11
238.9441430961
 21
349.1468876777
  0
LINE
  5
24D
100
AcDbEntity
  8
0
100
AcDbLine
 62
7
  6
CONTINUOUS
 10
242.4441435729
 20
345.4022067962
 11
242.6108096038
 21
345.0617813049
  0
LINE
  5
24E
100
AcDbEntity
  8
0
100
AcDbLine
 62
7
  6
CONTINUOUS
 10
242.9441435729
 20
345.5724195419
 11
242.6941435729
 21
346.0830577789
  0
LINE
  5
24F
100
AcDbEntity
  8
0
100
AcDbLine
 62
7
  6
CONTINUOUS
 10
240.3608096038
 20
343.0192279993
 11
240.6108096038
 21
342.338376957
  0
LINE
  5
250
100
AcDbEntity
  8
0
100
AcDbLine
 62
7
  6
CONTINUOUS
 10
241.4768350076
 20
342.338376957
 11
241.4143349911
 21
342.5085897623
  0
LINE
  5
251
100
AcDbEntity
  8
0
100
AcDbLine
 62
7
  6
CONTINUOUS
 10
236.5274765883
 20
343.0192279993
 11
236.6941430961
 21
342.5085897623
  0
LINE
  5
252
100
AcDbEntity
  8
0
100
AcDbLine
 62
7
  6
CONTINUOUS
 10
237.5601684998
 20
342.5085897623
 11
237.5395570371
 21
342.5717398284
  0
LINE
  5
253
100
AcDbEntity
  8
0
100
AcDbLine
 62
7
  6
CONTINUOUS
 10
239.3608100806
 20
344.8915685592
 11
239.1941430961
 21
345.4022067962
  0
LINE
  5
254
100
AcDbEntity
  8
0
100
AcDbLine
 62
7
  6
CONTINUOUS
 10
238.7774765883
 20
348.2958239494
 11
238.9441430961
 21
347.7851857124
  0
LINE
  5
255
100
AcDbEntity
  8
0
100
AcDbLine
 62
7
  6
CONTINUOUS
 10
240.8608096038
 20
343.0192279993
 11
240.6941435729
 21
343.5298663555
  0
LINE
  5
256
100
AcDbEntity
  8
0
100
AcDbLine
 62
7
  6
CONTINUOUS
 10
236.9441430961
 20
343.1894408641
 11
236.8608100806
 21
343.5298663555
  0
LINE
  5
257
100
AcDbEntity
  8
0
100
AcDbLine
 62
7
  6
CONTINUOUS
 10
238.8608100806
 20
344.8915685592
 11
239.0274765883
 21
344.2107173381
  0
LINE
  5
258
100
AcDbEntity
  8
0
100
AcDbLine
 62
7
  6
CONTINUOUS
 10
232.2774765883
 20
347.9553984581
 11
233.4441432153
 21
341.6575259147
  0
LINE
  5
259
100
AcDbEntity
  8
0
100
AcDbLine
 62
7
  6
CONTINUOUS
 10
234.2104892357
 20
342.1956128343
 11
234.1525109686
 21
342.5085897623
  0
LINE
  5
25A
100
AcDbEntity
  8
0
100
AcDbLine
 62
7
  6
CONTINUOUS
 10
233.7774765883
 20
342.5085897623
 11
232.5274765883
 21
349.6575259147
  0
LINE
  5
25B
100
AcDbEntity
  8
0
100
AcDbLine
 62
7
  6
CONTINUOUS
 10
236.4441430961
 20
343.5298663555
 11
236.5274765883
 21
343.0192279993
  0
LINE
  5
25C
100
AcDbEntity
  8
0
100
AcDbLine
 62
7
  6
CONTINUOUS
 10
240.1108096038
 20
345.0617813049
 11
240.1941435729
 21
343.8702918468
  0
LINE
  5
25D
100
AcDbEntity
  8
0
100
AcDbLine
 62
7
  6
CONTINUOUS
 10
234.3279155802
 20
382.0724193035
 11
234.3279155802
 21
378.2426321684
  0
LINE
  5
25E
100
AcDbEntity
  8
0
100
AcDbLine
 62
7
  6
CONTINUOUS
 10
234.3279155802
 20
363.2213556944
 11
234.3279155802
 21
363.9873130499
  0
LINE
  5
25F
100
AcDbEntity
  8
0
100
AcDbLine
 62
7
  6
CONTINUOUS
 10
234.7695789423
 20
369.0936957775
 11
234.7695789423
 21
368.327738422
  0
LINE
  5
260
100
AcDbEntity
  8
0
100
AcDbLine
 62
7
  6
CONTINUOUS
 10
234.8593836529
 20
363.2213556944
 11
234.8593836529
 21
363.9873130499
  0
LINE
  5
261
100
AcDbEntity
  8
0
100
AcDbLine
 62
7
  6
CONTINUOUS
 10
234.8956627383
 20
382.0724193035
 11
234.8956627383
 21
378.2426321684
  0
LINE
  5
262
100
AcDbEntity
  8
0
100
AcDbLine
 62
7
  6
CONTINUOUS
 10
235.0988097287
 20
368.327738422
 11
235.0988097287
 21
367.306461948
  0
LINE
  5
263
100
AcDbEntity
  8
0
100
AcDbLine
 62
7
  6
CONTINUOUS
 10
235.2774765883
 20
347.9553984581
 11
235.2774765883
 21
341.6575259147
  0
LINE
  5
264
100
AcDbEntity
  8
0
100
AcDbLine
 62
7
  6
CONTINUOUS
 10
235.4345276938
 20
382.0724193035
 11
235.4345276938
 21
378.2426321684
  0
LINE
  5
265
100
AcDbEntity
  8
0
100
AcDbLine
 62
7
  6
CONTINUOUS
 10
235.7774765883
 20
341.6575259147
 11
235.7774765883
 21
349.6575259147
  0
LINE
  5
266
100
AcDbEntity
  8
0
100
AcDbLine
 62
7
  6
CONTINUOUS
 10
235.9837146424
 20
370.3702920852
 11
235.9837146424
 21
368.327738422
  0
LINE
  5
267
100
AcDbEntity
  8
0
100
AcDbLine
 62
7
  6
CONTINUOUS
 10
235.9837146424
 20
367.306461948
 11
235.9837146424
 21
362.2000790415
  0
LINE
  5
268
100
AcDbEntity
  8
0
100
AcDbLine
 62
7
  6
CONTINUOUS
 10
236.598027793
 20
370.3702920852
 11
236.598027793
 21
368.327738422
  0
LINE
  5
269
100
AcDbEntity
  8
0
100
AcDbLine
 62
7
  6
CONTINUOUS
 10
236.598027793
 20
367.306461948
 11
236.598027793
 21
362.7107174574
  0
LINE
  5
26A
100
AcDbEntity
  8
0
100
AcDbLine
 62
7
  6
CONTINUOUS
 10
237.1603692715
 20
370.3702920852
 11
237.1603692715
 21
368.327738422
  0
LINE
  5
26B
100
AcDbEntity
  8
0
100
AcDbLine
 62
7
  6
CONTINUOUS
 10
237.1603692715
 20
367.306461948
 11
237.1603692715
 21
362.7107174574
  0
LINE
  5
26C
100
AcDbEntity
  8
0
100
AcDbLine
 62
7
  6
CONTINUOUS
 10
237.7774765883
 20
346.0830577789
 11
237.7774765883
 21
345.4022067962
  0
LINE
  5
26D
100
AcDbEntity
  8
0
100
AcDbLine
 62
7
  6
CONTINUOUS
 10
237.8309115588
 20
361.1788024781
 11
237.8309115588
 21
360.1575259147
  0
LINE
  5
26E
100
AcDbEntity
  8
0
100
AcDbLine
 62
7
  6
CONTINUOUS
 10
238.128344461
 20
368.327738422
 11
238.128344461
 21
367.306461948
  0
LINE
  5
26F
100
AcDbEntity
  8
0
100
AcDbLine
 62
7
  6
CONTINUOUS
 10
238.41158407
 20
361.1788024781
 11
238.41158407
 21
360.1575259147
  0
LINE
  5
270
100
AcDbEntity
  8
0
100
AcDbLine
 62
7
  6
CONTINUOUS
 10
238.6435019921
 20
345.4022067962
 11
238.6435019921
 21
346.0830577789
  0
LINE
  5
271
100
AcDbEntity
  8
0
100
AcDbLine
 62
7
  6
CONTINUOUS
 10
238.7136210916
 20
368.327738422
 11
238.7136210916
 21
367.306461948
  0
LINE
  5
272
100
AcDbEntity
  8
0
100
AcDbLine
 62
7
  6
CONTINUOUS
 10
238.9441430961
 20
347.7851857124
 11
238.9441430961
 21
347.4447597442
  0
LINE
  5
273
100
AcDbEntity
  8
0
100
AcDbLine
 62
7
  6
CONTINUOUS
 10
239.0274765883
 20
344.2107173381
 11
239.0274765883
 21
343.5298663555
  0
LINE
  5
274
100
AcDbEntity
  8
0
100
AcDbLine
 62
7
  6
CONTINUOUS
 10
239.3608100806
 20
347.4447597442
 11
239.3608100806
 21
347.7851857124
  0
LINE
  5
275
100
AcDbEntity
  8
0
100
AcDbLine
 62
7
  6
CONTINUOUS
 10
239.4441430961
 20
343.5298663555
 11
239.4441430961
 21
344.2107173381
  0
LINE
  5
276
100
AcDbEntity
  8
0
100
AcDbLine
 62
7
  6
CONTINUOUS
 10
240.1108096038
 20
346.2532705246
 11
240.1108096038
 21
345.0617813049
  0
LINE
  5
277
100
AcDbEntity
  8
0
100
AcDbLine
 62
7
  6
CONTINUOUS
 10
240.5274765883
 20
345.9128450332
 11
240.5274765883
 21
346.2532705246
  0
LINE
  5
278
100
AcDbEntity
  8
0
100
AcDbLine
 62
7
  6
CONTINUOUS
 10
240.6108096038
 20
344.0405045925
 11
240.6108096038
 21
344.5511428295
  0
LINE
  5
279
100
AcDbEntity
  8
0
100
AcDbLine
 62
7
  6
CONTINUOUS
 10
240.9768350076
 20
345.5601988166
 11
240.9768350076
 21
345.9128450332
  0
LINE
  5
27A
100
AcDbEntity
  8
0
100
AcDbLine
 62
7
  6
CONTINUOUS
 10
236.6108100806
 20
348.4660366951
 11
236.5274765883
 21
347.7851857124
  0
LINE
  5
27B
100
AcDbEntity
  8
0
100
AcDbLine
 62
7
  6
CONTINUOUS
 10
235.0274765883
 20
349.6575259147
 11
233.7774765883
 21
342.5085897623
  0
LINE
  5
27C
100
AcDbEntity
  8
0
100
AcDbLine
 62
7
  6
CONTINUOUS
 10
235.5958829792
 20
347.9553984581
 11
235.7774765883
 21
348.9939593518
  0
LINE
  5
27D
100
AcDbEntity
  8
0
100
AcDbLine
 62
7
  6
CONTINUOUS
 10
234.1108098422
 20
341.6575259147
 11
235.2774765883
 21
347.9553984581
  0
LINE
  5
27E
100
AcDbEntity
  8
KONSTRUKTIONSELEMENTE
100
AcDbLine
 62
7
  6
CONTINUOUS
 10
226.2236197586
 20
335.6575259147
 11
326.2236197586
 21
335.6575259147
  0
LINE
  5
27F
100
AcDbEntity
  8
0
100
AcDbLine
 62
7
  6
CONTINUOUS
 10
231.7774765883
 20
341.6575259147
 11
232.2774765883
 21
341.6575259147
  0
LINE
  5
280
100
AcDbEntity
  8
0
100
AcDbLine
 62
7
  6
CONTINUOUS
 10
233.4441432153
 20
341.6575259147
 11
234.1108098422
 21
341.6575259147
  0
LINE
  5
281
100
AcDbEntity
  8
0
100
AcDbLine
 62
7
  6
CONTINUOUS
 10
235.2774765883
 20
341.6575259147
 11
235.7774765883
 21
341.6575259147
  0
LINE
  5
282
100
AcDbEntity
  8
0
100
AcDbLine
 62
7
  6
CONTINUOUS
 10
237.6108100806
 20
341.6575259147
 11
238.2774765883
 21
341.6575259147
  0
LINE
  5
283
100
AcDbEntity
  8
0
100
AcDbLine
 62
7
  6
CONTINUOUS
 10
241.4441435729
 20
341.6575259147
 11
241.8608096038
 21
341.6575259147
  0
LINE
  5
284
100
AcDbEntity
  8
0
100
AcDbLine
 62
7
  6
CONTINUOUS
 10
237.2774765883
 20
341.8277386753
 11
238.1435019921
 21
341.8277386753
  0
LINE
  5
285
100
AcDbEntity
  8
0
100
AcDbLine
 62
7
  6
CONTINUOUS
 10
241.0274765883
 20
341.8277386753
 11
241.8935019921
 21
341.8277386753
  0
LINE
  5
286
100
AcDbEntity
  8
0
100
AcDbLine
 62
7
  6
CONTINUOUS
 10
238.6108100806
 20
349.4873131691
 11
238.0274765883
 21
349.6575259147
  0
LINE
  5
287
100
AcDbEntity
  8
0
100
AcDbLine
 62
7
  6
CONTINUOUS
 10
238.1108100806
 20
345.4022067962
 11
238.6108100806
 21
345.2319940506
  0
LINE
  5
288
100
AcDbEntity
  8
0
100
AcDbLine
 62
7
  6
CONTINUOUS
 10
239.2213066058
 20
345.3189825946
 11
238.9768354844
 21
345.4022067962
  0
LINE
  5
289
100
AcDbEntity
  8
0
100
AcDbLine
 62
7
  6
CONTINUOUS
 10
242.2774765883
 20
346.5936960159
 11
241.8608096038
 21
346.7639087616
  0
LINE
  5
28A
100
AcDbEntity
  8
0
100
AcDbLine
 62
7
  6
CONTINUOUS
 10
238.1108100806
 20
348.8064621864
 11
238.5274765883
 21
348.6362494407
  0
LINE
  5
28B
100
AcDbEntity
  8
0
100
AcDbLine
 62
7
  6
CONTINUOUS
 10
239.1443034676
 20
348.7380497158
 11
238.9768354844
 21
348.8064621864
  0
LINE
  5
28C
100
AcDbEntity
  8
0
100
AcDbLine
 62
7
  6
CONTINUOUS
 10
242.1941435729
 20
349.4873131691
 11
241.7774765883
 21
349.6575259147
  0
LINE
  5
28D
100
AcDbEntity
  8
0
100
AcDbLine
 62
7
  6
CONTINUOUS
 10
242.8608096038
 20
348.2958239494
 11
242.6108096038
 21
348.9766749321
  0
LINE
  5
28E
100
AcDbEntity
  8
0
100
AcDbLine
 62
7
  6
CONTINUOUS
 10
242.3608096038
 20
348.2958239494
 11
242.5274765883
 21
347.7851857124
  0
LINE
  5
28F
100
AcDbEntity
  8
0
100
AcDbLine
 62
7
  6
CONTINUOUS
 10
240.1941435729
 20
343.8702918468
 11
240.3608096038
 21
343.0192279993
  0
LINE
  5
290
100
AcDbEntity
  8
0
100
AcDbLine
 62
7
  6
CONTINUOUS
 10
243.1108096038
 20
344.7213558136
 11
242.9441435729
 21
345.5724195419
  0
LINE
  5
291
100
AcDbEntity
  8
0
100
AcDbLine
 62
7
  6
CONTINUOUS
 10
240.6941435729
 20
343.5298663555
 11
240.6108096038
 21
344.0405045925
  0
LINE
  5
292
100
AcDbEntity
  8
0
100
AcDbLine
 62
7
  6
CONTINUOUS
 10
242.6108096038
 20
345.0617813049
 11
242.6941435729
 21
344.5511428295
  0
LINE
  5
293
100
AcDbEntity
  8
0
100
AcDbLine
 62
7
  6
CONTINUOUS
 10
242.9441435729
 20
347.7851857124
 11
242.8608096038
 21
348.2958239494
  0
LINE
  5
294
100
AcDbEntity
  8
0
100
AcDbLine
 62
7
  6
CONTINUOUS
 10
239.4441430961
 20
344.2107173381
 11
239.3608100806
 21
344.8915685592
  0
LINE
  5
295
100
AcDbEntity
  8
0
100
AcDbLine
 62
7
  6
CONTINUOUS
 10
239.3608100806
 20
347.7851857124
 11
239.2774765883
 21
348.4660366951
  0
LINE
  5
296
100
AcDbEntity
  8
0
100
AcDbLine
 62
7
  6
CONTINUOUS
 10
242.6941435729
 20
344.5511428295
 11
242.6941435729
 21
344.0405045925
  0
LINE
  5
297
100
AcDbEntity
  8
0
100
AcDbLine
 62
7
  6
CONTINUOUS
 10
243.1108096038
 20
343.8702918468
 11
243.1108096038
 21
344.7213558136
  0
LINE
  5
298
100
AcDbEntity
  8
KONSTRUKTIONSELEMENTE
100
AcDbLine
 62
7
  6
CONTINUOUS
 10
248.281333418
 20
335.6575259147
 11
248.281333418
 21
355.6575259147
  0
LINE
  5
299
100
AcDbEntity
  8
0
100
AcDbLine
 62
7
  6
CONTINUOUS
 10
240.1941435729
 20
347.4447597442
 11
240.1108096038
 21
346.2532705246
  0
LINE
  5
29A
100
AcDbEntity
  8
0
100
AcDbLine
 62
7
  6
CONTINUOUS
 10
240.5274765883
 20
346.2532705246
 11
240.6108096038
 21
347.2745469986
  0
LINE
  5
29B
100
AcDbEntity
  8
0
100
AcDbLine
 62
7
  6
CONTINUOUS
 10
239.2774765883
 20
346.7639087616
 11
239.3608100806
 21
347.4447597442
  0
LINE
  5
29C
100
AcDbEntity
  8
0
100
AcDbLine
 62
7
  6
CONTINUOUS
 10
239.3608100806
 20
343.0192279993
 11
239.4441430961
 21
343.5298663555
  0
LINE
  5
29D
100
AcDbEntity
  8
0
100
AcDbLine
 62
7
  6
CONTINUOUS
 10
240.6108096038
 20
347.2745469986
 11
240.6941435729
 21
347.7851857124
  0
LINE
  5
29E
100
AcDbEntity
  8
0
100
AcDbLine
 62
7
  6
CONTINUOUS
 10
240.6108096038
 20
344.5511428295
 11
240.6941435729
 21
345.0617813049
  0
LINE
  5
29F
100
AcDbEntity
  8
0
100
AcDbLine
 62
7
  6
CONTINUOUS
 10
242.6941435729
 20
344.0405045925
 11
242.6108096038
 21
343.5298663555
  0
LINE
  5
2A0
100
AcDbEntity
  8
0
100
AcDbLine
 62
7
  6
CONTINUOUS
 10
240.3608096038
 20
348.2958239494
 11
240.1941435729
 21
347.4447597442
  0
LINE
  5
2A1
100
AcDbEntity
  8
0
100
AcDbLine
 62
7
  6
CONTINUOUS
 10
238.9441430961
 20
347.4447597442
 11
238.7774765883
 21
346.7639087616
  0
LINE
  5
2A2
100
AcDbEntity
  8
0
100
AcDbLine
 62
7
  6
CONTINUOUS
 10
239.0274765883
 20
343.5298663555
 11
238.9441430961
 21
343.1894408641
  0
LINE
  5
2A3
100
AcDbEntity
  8
0
100
AcDbLine
 62
7
  6
CONTINUOUS
 10
236.9441430961
 20
347.7851857124
 11
237.1108100806
 21
348.2958239494
  0
LINE
  5
2A4
100
AcDbEntity
  8
0
100
AcDbLine
 62
7
  6
CONTINUOUS
 10
236.9441430961
 20
342.1681642113
 11
237.8101684998
 21
342.1681642113
  0
LINE
  5
2A5
100
AcDbEntity
  8
0
100
AcDbLine
 62
7
  6
CONTINUOUS
 10
240.6108096038
 20
342.338376957
 11
241.4768350076
 21
342.338376957
  0
LINE
  5
2A6
100
AcDbEntity
  8
0
100
AcDbLine
 62
7
  6
CONTINUOUS
 10
233.7774765883
 20
342.5085897623
 11
234.2684675088
 21
342.5085897623
  0
LINE
  5
2A7
100
AcDbEntity
  8
0
100
AcDbLine
 62
7
  6
CONTINUOUS
 10
236.6941430961
 20
342.5085897623
 11
237.5601684998
 21
342.5085897623
  0
LINE
  5
2A8
100
AcDbEntity
  8
0
100
AcDbLine
 62
7
  6
CONTINUOUS
 10
237.6941430961
 20
342.5085897623
 11
239.0601684998
 21
342.5085897623
  0
LINE
  5
2A9
100
AcDbEntity
  8
0
100
AcDbLine
 62
7
  6
CONTINUOUS
 10
241.3608096038
 20
342.5085897623
 11
242.7566435893
 21
342.5085897623
  0
LINE
  5
2AA
100
AcDbEntity
  8
0
100
AcDbLine
 62
7
  6
CONTINUOUS
 10
238.6108100806
 20
342.6788025079
 11
239.2496987576
 21
342.6788025079
  0
LINE
  5
2AB
100
AcDbEntity
  8
0
100
AcDbLine
 62
7
  6
CONTINUOUS
 10
242.1941435729
 20
342.6788025079
 11
242.8191435838
 21
342.6788025079
  0
LINE
  5
2AC
100
AcDbEntity
  8
0
100
AcDbLine
 62
7
  6
CONTINUOUS
 10
238.7774765883
 20
342.8490152536
 11
239.3052544191
 21
342.8490152536
  0
LINE
  5
2AD
100
AcDbEntity
  8
0
100
AcDbLine
 62
7
  6
CONTINUOUS
 10
236.5274765883
 20
343.0192279993
 11
237.0274766175
 21
343.0192279993
  0
LINE
  5
2AE
100
AcDbEntity
  8
0
100
AcDbLine
 62
7
  6
CONTINUOUS
 10
240.3608096038
 20
343.0192279993
 11
240.8608096038
 21
343.0192279993
  0
LINE
  5
2AF
100
AcDbEntity
  8
0
100
AcDbLine
 62
7
  6
CONTINUOUS
 10
242.4441435729
 20
343.0192279993
 11
242.9441435729
 21
343.0192279993
  0
LINE
  5
2B0
100
AcDbEntity
  8
0
100
AcDbLine
 62
7
  6
CONTINUOUS
 10
238.9441430961
 20
343.1894408641
 11
239.3885877654
 21
343.1894408641
  0
LINE
  5
2B1
100
AcDbEntity
  8
0
100
AcDbLine
 62
7
  6
CONTINUOUS
 10
236.8608100806
 20
343.5298663555
 11
236.4441430961
 21
343.5298663555
  0
LINE
  5
2B2
100
AcDbEntity
  8
0
100
AcDbLine
 62
7
  6
CONTINUOUS
 10
239.0274765883
 20
343.5298663555
 11
239.4441430961
 21
343.5298663555
  0
LINE
  5
2B3
100
AcDbEntity
  8
0
100
AcDbLine
 62
7
  6
CONTINUOUS
 10
242.6108096038
 20
343.5298663555
 11
243.0441432008
 21
343.5298663555
  0
LINE
  5
2B4
100
AcDbEntity
  8
0
100
AcDbLine
 62
7
  6
CONTINUOUS
 10
240.1941435729
 20
343.8702918468
 11
240.6385875935
 21
343.8702918468
  0
LINE
  5
2B5
100
AcDbEntity
  8
0
100
AcDbLine
 62
7
  6
CONTINUOUS
 10
242.6941435729
 20
344.0405045925
 11
243.1108096038
 21
344.0405045925
  0
LINE
  5
2B6
100
AcDbEntity
  8
0
100
AcDbLine
 62
7
  6
CONTINUOUS
 10
239.0274765883
 20
344.2107173381
 11
239.4441430961
 21
344.2107173381
  0
LINE
  5
2B7
100
AcDbEntity
  8
0
100
AcDbLine
 62
7
  6
CONTINUOUS
 10
242.6941435729
 20
344.5511428295
 11
243.1108096038
 21
344.5511428295
  0
LINE
  5
2B8
100
AcDbEntity
  8
0
100
AcDbLine
 62
7
  6
CONTINUOUS
 10
238.8608100806
 20
344.8915685592
 11
239.3608100806
 21
344.8915685592
  0
LINE
  5
2B9
100
AcDbEntity
  8
0
100
AcDbLine
 62
7
  6
CONTINUOUS
 10
240.1108096038
 20
345.0617813049
 11
240.6941435729
 21
345.0617813049
  0
LINE
  5
2BA
100
AcDbEntity
  8
0
100
AcDbLine
 62
7
  6
CONTINUOUS
 10
242.6108096038
 20
345.0617813049
 11
243.0441431914
 21
345.0617813049
  0
LINE
  5
2BB
100
AcDbEntity
  8
0
100
AcDbLine
 62
7
  6
CONTINUOUS
 10
238.6108100806
 20
345.2319940506
 11
239.2496987576
 21
345.2319940506
  0
LINE
  5
2BC
100
AcDbEntity
  8
0
100
AcDbLine
 62
7
  6
CONTINUOUS
 10
237.7774765883
 20
345.4022067962
 11
238.9768354844
 21
345.4022067962
  0
LINE
  5
2BD
100
AcDbEntity
  8
0
100
AcDbLine
 62
7
  6
CONTINUOUS
 10
242.4441435729
 20
345.4022067962
 11
242.9774767791
 21
345.4022067962
  0
LINE
  5
2BE
100
AcDbEntity
  8
0
100
AcDbLine
 62
7
  6
CONTINUOUS
 10
242.1941435729
 20
345.7426322876
 11
242.8608102396
 21
345.7426322876
  0
LINE
  5
2BF
100
AcDbEntity
  8
0
100
AcDbLine
 62
7
  6
CONTINUOUS
 10
240.5274765883
 20
345.9128450332
 11
242.7774769062
 21
345.9128450332
  0
LINE
  5
2C0
100
AcDbEntity
  8
0
100
AcDbLine
 62
7
  6
CONTINUOUS
 10
237.7774765883
 20
346.0830577789
 11
238.9768354844
 21
346.0830577789
  0
LINE
  5
2C1
100
AcDbEntity
  8
0
100
AcDbLine
 62
7
  6
CONTINUOUS
 10
240.1108096038
 20
346.2532705246
 11
240.5274765883
 21
346.2532705246
  0
LINE
  5
2C2
100
AcDbEntity
  8
0
100
AcDbLine
 62
7
  6
CONTINUOUS
 10
238.6108100806
 20
346.4234832702
 11
239.1663655832
 21
346.4234832702
  0
LINE
  5
2C3
100
AcDbEntity
  8
0
100
AcDbLine
 62
7
  6
CONTINUOUS
 10
241.0274765883
 20
346.5936960159
 11
241.8935019921
 21
346.5936960159
  0
LINE
  5
2C4
100
AcDbEntity
  8
0
100
AcDbLine
 62
7
  6
CONTINUOUS
 10
241.8608096038
 20
346.7639087616
 11
241.4441435729
 21
346.7639087616
  0
LINE
  5
2C5
100
AcDbEntity
  8
0
100
AcDbLine
 62
7
  6
CONTINUOUS
 10
238.7774765883
 20
346.7639087616
 11
239.2774765883
 21
346.7639087616
  0
LINE
  5
2C6
100
AcDbEntity
  8
0
100
AcDbLine
 62
7
  6
CONTINUOUS
 10
238.9441430961
 20
347.4447597442
 11
239.3608100806
 21
347.4447597442
  0
LINE
  5
2C7
100
AcDbEntity
  8
0
100
AcDbLine
 62
7
  6
CONTINUOUS
 10
240.1941435729
 20
347.4447597442
 11
240.6385875675
 21
347.4447597442
  0
LINE
  5
2C8
100
AcDbEntity
  8
0
100
AcDbLine
 62
7
  6
CONTINUOUS
 10
236.5274765883
 20
347.7851857124
 11
236.9441430961
 21
347.7851857124
  0
LINE
  5
2C9
100
AcDbEntity
  8
0
100
AcDbLine
 62
7
  6
CONTINUOUS
 10
238.9441430961
 20
347.7851857124
 11
239.3608100806
 21
347.7851857124
  0
LINE
  5
2CA
100
AcDbEntity
  8
0
100
AcDbLine
 62
7
  6
CONTINUOUS
 10
242.5274765883
 20
347.7851857124
 11
242.9441435729
 21
347.7851857124
  0
LINE
  5
2CB
100
AcDbEntity
  8
0
100
AcDbLine
 62
7
  6
CONTINUOUS
 10
232.2774765883
 20
347.9553984581
 11
232.8250956012
 21
347.9553984581
  0
LINE
  5
2CC
100
AcDbEntity
  8
0
100
AcDbLine
 62
7
  6
CONTINUOUS
 10
235.2774765883
 20
347.9553984581
 11
235.7774765883
 21
347.9553984581
  0
LINE
  5
2CD
100
AcDbEntity
  8
0
100
AcDbLine
 62
7
  6
CONTINUOUS
 10
238.7774765883
 20
348.2958239494
 11
239.2983099614
 21
348.2958239494
  0
LINE
  5
2CE
100
AcDbEntity
  8
0
100
AcDbLine
 62
7
  6
CONTINUOUS
 10
240.3608096038
 20
348.2958239494
 11
240.8608096038
 21
348.2958239494
  0
LINE
  5
2CF
100
AcDbEntity
  8
0
100
AcDbLine
 62
7
  6
CONTINUOUS
 10
242.3608096038
 20
348.2958239494
 11
242.8608096038
 21
348.2958239494
  0
LINE
  5
2D0
100
AcDbEntity
  8
0
100
AcDbLine
 62
7
  6
CONTINUOUS
 10
236.6108100806
 20
348.4660366951
 11
237.2358100806
 21
348.4660366951
  0
LINE
  5
2D1
100
AcDbEntity
  8
0
100
AcDbLine
 62
7
  6
CONTINUOUS
 10
238.5274765883
 20
348.6362494407
 11
239.1941432153
 21
348.6362494407
  0
LINE
  5
2D2
100
AcDbEntity
  8
0
100
AcDbLine
 62
7
  6
CONTINUOUS
 10
242.1108096038
 20
348.6362494407
 11
242.7358096038
 21
348.6362494407
  0
LINE
  5
2D3
100
AcDbEntity
  8
0
100
AcDbLine
 62
7
  6
CONTINUOUS
 10
237.7774765883
 20
348.8064621864
 11
238.9768354844
 21
348.8064621864
  0
LINE
  5
2D4
100
AcDbEntity
  8
0
100
AcDbLine
 62
7
  6
CONTINUOUS
 10
241.3608096038
 20
348.8064621864
 11
242.6733096038
 21
348.8064621864
  0
LINE
  5
2D5
100
AcDbEntity
  8
0
100
AcDbLine
 62
7
  6
CONTINUOUS
 10
240.6108096038
 20
348.9766749321
 11
241.4768350076
 21
348.9766749321
  0
LINE
  5
2D6
100
AcDbEntity
  8
RUNDUNGEN
100
AcDbLine
 62
7
  6
CONTINUOUS
 10
252.7236197586
 20
448.1573526381
 11
252.7236197586
 21
401.6576166197
  0
LINE
  5
2D7
100
AcDbEntity
  8
KONSTRUKTIONSELEMENTE
100
AcDbLine
 62
7
  6
CONTINUOUS
 10
254.1659060992
 20
335.6575259147
 11
254.1659060992
 21
355.6575259147
  0
LINE
  5
2D8
100
AcDbEntity
  8
0
100
AcDbLine
 62
7
  6
CONTINUOUS
 10
242.9441435729
 20
343.0192279993
 11
243.1108096038
 21
343.8702918468
  0
LINE
  5
2D9
100
AcDbEntity
  8
0
100
AcDbLine
 62
7
  6
CONTINUOUS
 10
239.1108100806
 20
346.2532705246
 11
239.2774765883
 21
346.7639087616
  0
LINE
  5
2DA
100
AcDbEntity
  8
0
100
AcDbLine
 62
7
  6
CONTINUOUS
 10
240.6941435729
 20
347.7851857124
 11
240.8608096038
 21
348.2958239494
  0
LINE
  5
2DB
100
AcDbEntity
  8
0
100
AcDbLine
 62
7
  6
CONTINUOUS
 10
239.1941430961
 20
342.5085897623
 11
239.3608100806
 21
343.0192279993
  0
LINE
  5
2DC
100
AcDbEntity
  8
0
100
AcDbLine
 62
7
  6
CONTINUOUS
 10
242.6108096038
 20
343.5298663555
 11
242.4441435729
 21
343.0192279993
  0
LINE
  5
2DD
100
AcDbEntity
  8
0
100
AcDbLine
 62
7
  6
CONTINUOUS
 10
240.6108096038
 20
348.9766749321
 11
240.3608096038
 21
348.2958239494
  0
LINE
  5
2DE
100
AcDbEntity
  8
0
100
AcDbLine
 62
7
  6
CONTINUOUS
 10
241.4143350076
 20
348.8064621864
 11
241.4768350076
 21
348.9766749321
  0
LINE
  5
2DF
100
AcDbEntity
  8
0
100
AcDbLine
 62
7
  6
CONTINUOUS
 10
236.9441430961
 20
349.1468876777
 11
236.6108100806
 21
348.4660366951
  0
LINE
  5
2E0
100
AcDbEntity
  8
0
100
AcDbLine
 62
7
  6
CONTINUOUS
 10
237.610008367
 20
348.7380496185
 11
237.8101684998
 21
349.1468876777
  0
LINE
  5
2E1
100
AcDbEntity
  8
0
100
AcDbLine
 62
7
  6
CONTINUOUS
 10
236.9441430961
 20
349.1468876777
 11
237.8101684998
 21
349.1468876777
  0
LINE
  5
2E2
100
AcDbEntity
  8
0
100
AcDbLine
 62
7
  6
CONTINUOUS
 10
237.2774765883
 20
349.4873131691
 11
238.1435019921
 21
349.4873131691
  0
LINE
  5
2E3
100
AcDbEntity
  8
0
100
AcDbLine
 62
7
  6
CONTINUOUS
 10
241.0274765883
 20
349.4873131691
 11
241.8935019921
 21
349.4873131691
  0
LINE
  5
2E4
100
AcDbEntity
  8
0
100
AcDbLine
 62
7
  6
CONTINUOUS
 10
241.7774765883
 20
349.6575259147
 11
241.4441435729
 21
349.6575259147
  0
LINE
  5
2E5
100
AcDbEntity
  8
0
100
AcDbLine
 62
7
  6
CONTINUOUS
 10
238.0274765883
 20
349.6575259147
 11
237.8608100806
 21
349.6575259147
  0
LINE
  5
2E6
100
AcDbEntity
  8
0
100
AcDbLine
 62
7
  6
CONTINUOUS
 10
235.7774765883
 20
349.6575259147
 11
235.0274765883
 21
349.6575259147
  0
LINE
  5
2E7
100
AcDbEntity
  8
0
100
AcDbLine
 62
7
  6
CONTINUOUS
 10
232.5274765883
 20
349.6575259147
 11
231.7774765883
 21
349.6575259147
  0
LINE
  5
2E8
100
AcDbEntity
  8
KONSTRUKTIONSELEMENTE
100
AcDbLine
 62
7
  6
CONTINUOUS
 10
226.2236197586
 20
355.6575259147
 11
326.2236197586
 21
355.6575259147
  0
LINE
  5
2E9
100
AcDbEntity
  8
0
100
AcDbLine
 62
7
  6
CONTINUOUS
 10
258.2236197586
 20
335.6575259147
 11
258.2236197586
 21
284.6575259147
  0
LINE
  5
2EA
100
AcDbEntity
  8
FASEN
100
AcDbLine
 62
7
  6
CONTINUOUS
 10
258.2236197586
 20
335.6575259147
 11
258.2236197586
 21
284.6575259147
  0
LINE
  5
2EB
100
AcDbEntity
  8
0
100
AcDbLine
 62
7
  6
CONTINUOUS
 10
242.6941435729
 20
342.338376957
 11
242.9441435729
 21
343.0192279993
  0
LINE
  5
2EC
100
AcDbEntity
  8
0
100
AcDbLine
 62
7
  6
CONTINUOUS
 10
238.7774765883
 20
346.7639087616
 11
238.6108100806
 21
346.4234832702
  0
LINE
  5
2ED
100
AcDbEntity
  8
0
100
AcDbLine
 62
7
  6
CONTINUOUS
 10
238.9441430961
 20
343.1894408641
 11
238.7774765883
 21
342.8490152536
  0
LINE
  5
2EE
100
AcDbEntity
  8
0
100
AcDbLine
 62
7
  6
CONTINUOUS
 10
240.6941435729
 20
345.0617813049
 11
240.8608096038
 21
345.4022067962
  0
LINE
  5
2EF
100
AcDbEntity
  8
0
100
AcDbLine
 62
7
  6
CONTINUOUS
 10
238.7774765883
 20
345.7426322876
 11
239.1108100806
 21
346.2532705246
  0
LINE
  5
2F0
100
AcDbEntity
  8
0
100
AcDbLine
 62
7
  6
CONTINUOUS
 10
237.1108100806
 20
348.2958239494
 11
237.3608100806
 21
348.6362494407
  0
LINE
  5
2F1
100
AcDbEntity
  8
0
100
AcDbLine
 62
7
  6
CONTINUOUS
 10
238.41158407
 20
360.1575259147
 11
237.8309115588
 21
360.1575259147
  0
LINE
  5
2F2
100
AcDbEntity
  8
0
100
AcDbLine
 62
7
  6
CONTINUOUS
 10
233.686136036
 20
360.1575259147
 11
232.804873593
 21
360.1575259147
  0
LINE
  5
2F3
100
AcDbEntity
  8
0
100
AcDbLine
 62
7
  6
CONTINUOUS
 10
234.0365364274
 20
360.4128450556
 11
233.5153067505
 21
360.4128450556
  0
LINE
  5
2F4
100
AcDbEntity
  8
0
100
AcDbLine
 62
7
  6
CONTINUOUS
 10
238.41158407
 20
361.1788024781
 11
237.8309115588
 21
361.1788024781
  0
LINE
  5
2F5
100
AcDbEntity
  8
0
100
AcDbLine
 62
7
  6
CONTINUOUS
 10
234.4272386501
 20
361.1788024781
 11
233.9011969337
 21
361.1788024781
  0
LINE
  5
2F6
100
AcDbEntity
  8
0
100
AcDbLine
 62
7
  6
CONTINUOUS
 10
237.6952216675
 20
361.434121686
 11
237.1251868045
 21
361.434121686
  0
LINE
  5
2F7
100
AcDbEntity
  8
0
100
AcDbLine
 62
7
  6
CONTINUOUS
 10
233.1045984339
 20
361.434121686
 11
232.861770387
 21
361.434121686
  0
LINE
  5
2F8
100
AcDbEntity
  8
0
100
AcDbLine
 62
7
  6
CONTINUOUS
 10
233.1539086246
 20
361.6894408045
 11
232.6432340655
 21
361.6894408045
  0
LINE
  5
2F9
100
AcDbEntity
  8
0
100
AcDbLine
 62
7
  6
CONTINUOUS
 10
237.2909861347
 20
361.944759923
 11
236.7267849374
 21
361.944759923
  0
LINE
  5
2FA
100
AcDbEntity
  8
0
100
AcDbLine
 62
7
  6
CONTINUOUS
 10
234.6814728191
 20
361.944759923
 11
234.1522521514
 21
361.944759923
  0
LINE
  5
2FB
100
AcDbEntity
  8
0
100
AcDbLine
 62
7
  6
CONTINUOUS
 10
232.9570044531
 20
362.2000790415
 11
232.4486268974
 21
362.2000790415
  0
LINE
  5
2FC
100
AcDbEntity
  8
0
100
AcDbLine
 62
7
  6
CONTINUOUS
 10
237.1603692715
 20
362.7107174574
 11
236.598027793
 21
362.7107174574
  0
LINE
  5
2FD
100
AcDbEntity
  8
0
100
AcDbLine
 62
7
  6
CONTINUOUS
 10
234.8593836529
 20
363.2213556944
 11
234.3279155802
 21
363.2213556944
  0
LINE
  5
2FE
100
AcDbEntity
  8
0
100
AcDbLine
 62
7
  6
CONTINUOUS
 10
232.8250310719
 20
363.2213556944
 11
232.3181815989
 21
363.2213556944
  0
LINE
  5
2FF
100
AcDbEntity
  8
0
100
AcDbLine
 62
7
  6
CONTINUOUS
 10
240.8608096038
 20
348.2958239494
 11
241.1108096038
 21
348.6362494407
  0
LINE
  5
300
100
AcDbEntity
  8
0
100
AcDbLine
 62
7
  6
CONTINUOUS
 10
241.0274765883
 20
346.5936960159
 11
240.5274765883
 21
345.9128450332
  0
LINE
  5
301
100
AcDbEntity
  8
0
100
AcDbLine
 62
7
  6
CONTINUOUS
 10
240.8608096038
 20
345.4022067962
 11
241.1108096038
 21
345.7426322876
  0
LINE
  5
302
100
AcDbEntity
  8
0
100
AcDbLine
 62
7
  6
CONTINUOUS
 10
241.3935019921
 20
345.9128450332
 11
241.8935019921
 21
346.5936960159
  0
LINE
  5
303
100
AcDbEntity
  8
0
100
AcDbLine
 62
7
  6
CONTINUOUS
 10
238.9441430961
 20
342.1681642113
 11
239.1941430961
 21
342.5085897623
  0
LINE
  5
304
100
AcDbEntity
  8
0
100
AcDbLine
 62
7
  6
CONTINUOUS
 10
242.4441435729
 20
343.0192279993
 11
242.1941435729
 21
342.6788025079
  0
LINE
  5
305
100
AcDbEntity
  8
0
100
AcDbLine
 62
7
  6
CONTINUOUS
 10
241.0274765883
 20
349.4873131691
 11
240.6108096038
 21
348.9766749321
  0
LINE
  5
306
100
AcDbEntity
  8
0
100
AcDbLine
 62
7
  6
CONTINUOUS
 10
241.4768350076
 20
348.9766749321
 11
241.8935019921
 21
349.4873131691
  0
LINE
  5
307
100
AcDbEntity
  8
0
100
AcDbLine
 62
7
  6
CONTINUOUS
 10
237.2774765883
 20
349.4873131691
 11
236.9441430961
 21
349.1468876777
  0
LINE
  5
308
100
AcDbEntity
  8
0
100
AcDbLine
 62
7
  6
CONTINUOUS
 10
237.8101684998
 20
349.1468876777
 11
238.1435019921
 21
349.4873131691
  0
LINE
  5
309
100
AcDbEntity
  8
0
100
AcDbLine
 62
7
  6
CONTINUOUS
 10
234.8593836529
 20
363.9873130499
 11
234.3279155802
 21
363.9873130499
  0
LINE
  5
30A
100
AcDbEntity
  8
0
100
AcDbLine
 62
7
  6
CONTINUOUS
 10
232.8250310719
 20
363.9873130499
 11
232.3181815989
 21
363.9873130499
  0
LINE
  5
30B
100
AcDbEntity
  8
0
100
AcDbLine
 62
7
  6
CONTINUOUS
 10
232.1576898924
 20
364.4979512869
 11
231.7264288361
 21
364.4979512869
  0
LINE
  5
30C
100
AcDbEntity
  8
0
100
AcDbLine
 62
7
  6
CONTINUOUS
 10
232.9570044531
 20
365.0085898815
 11
232.4486268974
 21
365.0085898815
  0
LINE
  5
30D
100
AcDbEntity
  8
0
100
AcDbLine
 62
7
  6
CONTINUOUS
 10
234.6814728191
 20
365.263909
 11
234.1522521514
 21
365.263909
  0
LINE
  5
30E
100
AcDbEntity
  8
0
100
AcDbLine
 62
7
  6
CONTINUOUS
 10
233.1539086246
 20
365.5192281185
 11
232.6432340655
 21
365.5192281185
  0
LINE
  5
30F
100
AcDbEntity
  8
0
100
AcDbLine
 62
7
  6
CONTINUOUS
 10
233.1045984339
 20
365.774547237
 11
232.861770387
 21
365.774547237
  0
LINE
  5
310
100
AcDbEntity
  8
0
100
AcDbLine
 62
7
  6
CONTINUOUS
 10
232.3046640879
 20
365.774547237
 11
231.7264288361
 21
365.774547237
  0
LINE
  5
311
100
AcDbEntity
  8
0
100
AcDbLine
 62
7
  6
CONTINUOUS
 10
234.3458210372
 20
366.0298663555
 11
233.8207893608
 21
366.0298663555
  0
LINE
  5
312
100
AcDbEntity
  8
0
100
AcDbLine
 62
7
  6
CONTINUOUS
 10
234.1879209396
 20
366.285185474
 11
233.6648371726
 21
366.285185474
  0
LINE
  5
313
100
AcDbEntity
  8
0
100
AcDbLine
 62
7
  6
CONTINUOUS
 10
234.3458210372
 20
366.5405045925
 11
233.8207893608
 21
366.5405045925
  0
LINE
  5
314
100
AcDbEntity
  8
0
100
AcDbLine
 62
7
  6
CONTINUOUS
 10
232.2236197586
 20
366.5405045925
 11
231.7938999756
 21
366.5405045925
  0
LINE
  5
315
100
AcDbEntity
  8
0
100
AcDbLine
 62
7
  6
CONTINUOUS
 10
233.1045984339
 20
366.795823711
 11
232.861770387
 21
366.795823711
  0
LINE
  5
316
100
AcDbEntity
  8
0
100
AcDbLine
 62
7
  6
CONTINUOUS
 10
233.1539086246
 20
367.0511428295
 11
232.6432340655
 21
367.0511428295
  0
LINE
  5
317
100
AcDbEntity
  8
0
100
AcDbLine
 62
7
  6
CONTINUOUS
 10
238.7136210916
 20
367.306461948
 11
236.598027793
 21
367.306461948
  0
LINE
  5
318
100
AcDbEntity
  8
0
100
AcDbLine
 62
7
  6
CONTINUOUS
 10
235.9837146424
 20
367.306461948
 11
235.0988097287
 21
367.306461948
  0
LINE
  5
319
100
AcDbEntity
  8
0
100
AcDbLine
 62
7
  6
CONTINUOUS
 10
234.5950535189
 20
367.306461948
 11
234.0669177152
 21
367.306461948
  0
LINE
  5
31A
100
AcDbEntity
  8
0
100
AcDbLine
 62
7
  6
CONTINUOUS
 10
232.2236197586
 20
367.5617810665
 11
231.7580431853
 21
367.5617810665
  0
LINE
  5
31B
100
AcDbEntity
  8
0
100
AcDbLine
 62
7
  6
CONTINUOUS
 10
232.9570044531
 20
367.817100185
 11
232.4486268974
 21
367.817100185
  0
LINE
  5
31C
100
AcDbEntity
  8
0
100
AcDbLine
 62
7
  6
CONTINUOUS
 10
238.7136210916
 20
368.327738422
 11
236.598027793
 21
368.327738422
  0
LINE
  5
31D
100
AcDbEntity
  8
0
100
AcDbLine
 62
7
  6
CONTINUOUS
 10
235.9837146424
 20
368.327738422
 11
235.0988097287
 21
368.327738422
  0
LINE
  5
31E
100
AcDbEntity
  8
0
100
AcDbLine
 62
7
  6
CONTINUOUS
 10
234.7695789423
 20
368.327738422
 11
234.2392476662
 21
368.327738422
  0
LINE
  5
31F
100
AcDbEntity
  8
0
100
AcDbLine
 62
7
  6
CONTINUOUS
 10
232.1647104657
 20
368.327738422
 11
231.7489078267
 21
368.327738422
  0
LINE
  5
320
100
AcDbEntity
  8
0
100
AcDbLine
 62
7
  6
CONTINUOUS
 10
232.8675358222
 20
368.5830575405
 11
232.3601951966
 21
368.5830575405
  0
LINE
  5
321
100
AcDbEntity
  8
0
100
AcDbLine
 62
7
  6
CONTINUOUS
 10
234.7695789423
 20
369.0936957775
 11
234.2392476662
 21
369.0936957775
  0
LINE
  5
322
100
AcDbEntity
  8
0
100
AcDbLine
 62
7
  6
CONTINUOUS
 10
232.8675358222
 20
369.0936957775
 11
232.3601951966
 21
369.0936957775
  0
LINE
  5
323
100
AcDbEntity
  8
0
100
AcDbLine
 62
7
  6
CONTINUOUS
 10
232.1790409766
 20
369.3490156112
 11
231.7489078267
 21
369.3490156112
  0
LINE
  5
324
100
AcDbEntity
  8
0
100
AcDbLine
 62
7
  6
CONTINUOUS
 10
232.9570044531
 20
369.8596538482
 11
232.4486268974
 21
369.8596538482
  0
LINE
  5
325
100
AcDbEntity
  8
0
100
AcDbLine
 62
7
  6
CONTINUOUS
 10
232.2236197586
 20
370.1149729667
 11
231.7580431853
 21
370.1149729667
  0
LINE
  5
326
100
AcDbEntity
  8
0
100
AcDbLine
 62
7
  6
CONTINUOUS
 10
237.1603692715
 20
370.3702920852
 11
235.9837146424
 21
370.3702920852
  0
LINE
  5
327
100
AcDbEntity
  8
0
100
AcDbLine
 62
7
  6
CONTINUOUS
 10
234.5950535189
 20
370.3702920852
 11
234.0669177152
 21
370.3702920852
  0
LINE
  5
328
100
AcDbEntity
  8
0
100
AcDbLine
 62
7
  6
CONTINUOUS
 10
242.2774765883
 20
341.8277386753
 11
242.6941435729
 21
342.338376957
  0
LINE
  5
329
100
AcDbEntity
  8
0
100
AcDbLine
 62
7
  6
CONTINUOUS
 10
238.7774765883
 20
342.8490152536
 11
238.6108100806
 21
342.6788025079
  0
LINE
  5
32A
100
AcDbEntity
  8
0
100
AcDbLine
 62
7
  6
CONTINUOUS
 10
238.6108100806
 20
341.8277386753
 11
238.9441430961
 21
342.1681642113
  0
LINE
  5
32B
100
AcDbEntity
  8
0
100
AcDbLine
 62
7
  6
CONTINUOUS
 10
233.1539086246
 20
370.6256112037
 11
232.6432340655
 21
370.6256112037
  0
LINE
  5
32C
100
AcDbEntity
  8
0
100
AcDbLine
 62
7
  6
CONTINUOUS
 10
233.1045984339
 20
370.8809303222
 11
232.861770387
 21
370.8809303222
  0
LINE
  5
32D
100
AcDbEntity
  8
0
100
AcDbLine
 62
7
  6
CONTINUOUS
 10
234.3458210372
 20
371.1362494407
 11
233.8207893608
 21
371.1362494407
  0
LINE
  5
32E
100
AcDbEntity
  8
0
100
AcDbLine
 62
7
  6
CONTINUOUS
 10
232.2236197586
 20
371.1362494407
 11
231.7938999756
 21
371.1362494407
  0
LINE
  5
32F
100
AcDbEntity
  8
0
100
AcDbLine
 62
7
  6
CONTINUOUS
 10
233.9632662741
 20
371.9022067962
 11
233.442929294
 21
371.9022067962
  0
LINE
  5
330
100
AcDbEntity
  8
0
100
AcDbLine
 62
7
  6
CONTINUOUS
 10
232.2236197586
 20
371.9022067962
 11
231.8614737706
 21
371.9022067962
  0
LINE
  5
331
100
AcDbEntity
  8
0
100
AcDbLine
 62
7
  6
CONTINUOUS
 10
233.6208029504
 20
372.1575259147
 11
232.861770387
 21
372.1575259147
  0
LINE
  5
332
100
AcDbEntity
  8
0
100
AcDbLine
 62
7
  6
CONTINUOUS
 10
232.2236197586
 20
372.1575259147
 11
231.9778572497
 21
372.1575259147
  0
LINE
  5
333
100
AcDbEntity
  8
0
100
AcDbLine
 62
7
  6
CONTINUOUS
 10
234.0365364274
 20
374.1575259147
 11
231.7264288361
 21
374.1575259147
  0
LINE
  5
334
100
AcDbEntity
  8
0
100
AcDbLine
 62
7
  6
CONTINUOUS
 10
234.4272386501
 20
374.4128450556
 11
233.9011969337
 21
374.4128450556
  0
LINE
  5
335
100
AcDbEntity
  8
0
100
AcDbLine
 62
7
  6
CONTINUOUS
 10
232.2008983525
 20
374.4128450556
 11
231.7580431665
 21
374.4128450556
  0
LINE
  5
336
100
AcDbEntity
  8
0
100
AcDbLine
 62
7
  6
CONTINUOUS
 10
234.7695789423
 20
374.9234833596
 11
234.2392476662
 21
374.9234833596
  0
LINE
  5
337
100
AcDbEntity
  8
0
100
AcDbLine
 62
7
  6
CONTINUOUS
 10
232.2008983525
 20
374.9234833596
 11
231.8086729502
 21
374.9234833596
  0
LINE
  5
338
100
AcDbEntity
  8
0
100
AcDbLine
 62
7
  6
CONTINUOUS
 10
233.5153067505
 20
375.6894408045
 11
232.4486268974
 21
375.6894408045
  0
LINE
  5
339
100
AcDbEntity
  8
0
100
AcDbLine
 62
7
  6
CONTINUOUS
 10
231.7264288361
 20
375.6894408045
 11
231.7236197586
 21
375.6894408045
  0
LINE
  5
33A
100
AcDbEntity
  8
0
100
AcDbLine
 62
7
  6
CONTINUOUS
 10
235.1391028448
 20
375.944759923
 11
234.6040626966
 21
375.944759923
  0
LINE
  5
33B
100
AcDbEntity
  8
0
100
AcDbLine
 62
7
  6
CONTINUOUS
 10
232.2008983525
 20
375.944759923
 11
231.8819069317
 21
375.944759923
  0
LINE
  5
33C
100
AcDbEntity
  8
0
100
AcDbLine
 62
7
  6
CONTINUOUS
 10
235.334287409
 20
376.9660365759
 11
234.7967263197
 21
376.9660365759
  0
LINE
  5
33D
100
AcDbEntity
  8
0
100
AcDbLine
 62
7
  6
CONTINUOUS
 10
232.2008983525
 20
376.9660365759
 11
231.9270341114
 21
376.9660365759
  0
LINE
  5
33E
100
AcDbEntity
  8
0
100
AcDbLine
 62
7
  6
CONTINUOUS
 10
241.1108096038
 20
348.6362494407
 11
241.3608096038
 21
348.8064621864
  0
LINE
  5
33F
100
AcDbEntity
  8
0
100
AcDbLine
 62
7
  6
CONTINUOUS
 10
238.6108100806
 20
346.4234832702
 11
238.1108100806
 21
346.0830577789
  0
LINE
  5
340
100
AcDbEntity
  8
0
100
AcDbLine
 62
7
  6
CONTINUOUS
 10
238.9768354844
 20
346.0830577789
 11
239.0179896779
 21
346.111077652
  0
LINE
  5
341
100
AcDbEntity
  8
0
100
AcDbLine
 62
7
  6
CONTINUOUS
 10
241.1108096038
 20
345.7426322876
 11
241.3608096038
 21
345.9128450332
  0
LINE
  5
342
100
AcDbEntity
  8
0
100
AcDbLine
 62
7
  6
CONTINUOUS
 10
235.4345276938
 20
378.2426321684
 11
234.8956627383
 21
378.2426321684
  0
LINE
  5
343
100
AcDbEntity
  8
0
100
AcDbLine
 62
7
  6
CONTINUOUS
 10
232.2008983525
 20
378.2426321684
 11
231.9517325647
 21
378.2426321684
  0
LINE
  5
344
100
AcDbEntity
  8
0
100
AcDbLine
 62
7
  6
CONTINUOUS
 10
235.4345276938
 20
382.0724193035
 11
234.8956627383
 21
382.0724193035
  0
LINE
  5
345
100
AcDbEntity
  8
0
100
AcDbLine
 62
7
  6
CONTINUOUS
 10
235.334287409
 20
383.3490156112
 11
234.7967263197
 21
383.3490156112
  0
LINE
  5
346
100
AcDbEntity
  8
0
100
AcDbLine
 62
7
  6
CONTINUOUS
 10
235.1391028448
 20
384.3702920852
 11
234.6040626966
 21
384.3702920852
  0
LINE
  5
347
100
AcDbEntity
  8
0
100
AcDbLine
 62
7
  6
CONTINUOUS
 10
233.5153067505
 20
384.6256112037
 11
232.4486268974
 21
384.6256112037
  0
LINE
  5
348
100
AcDbEntity
  8
0
100
AcDbLine
 62
7
  6
CONTINUOUS
 10
242.1941435729
 20
342.6788025079
 11
241.9441435729
 21
342.5085897623
  0
LINE
  5
349
100
AcDbEntity
  8
0
100
AcDbLine
 62
7
  6
CONTINUOUS
 10
238.2774765883
 20
341.6575259147
 11
238.6108100806
 21
341.8277386753
  0
LINE
  5
34A
100
AcDbEntity
  8
0
100
AcDbLine
 62
7
  6
CONTINUOUS
 10
237.3608100806
 20
348.6362494407
 11
237.7774765883
 21
348.8064621864
  0
LINE
  5
34B
100
AcDbEntity
  8
0
100
AcDbLine
 62
7
  6
CONTINUOUS
 10
241.4441435729
 20
349.6575259147
 11
241.0274765883
 21
349.4873131691
  0
LINE
  5
34C
100
AcDbEntity
  8
0
100
AcDbLine
 62
7
  6
CONTINUOUS
 10
241.8935019921
 20
349.4873131691
 11
242.0438227825
 21
349.5487207569
  0
LINE
  5
34D
100
AcDbEntity
  8
0
100
AcDbLine
 62
7
  6
CONTINUOUS
 10
241.4441435729
 20
346.7639087616
 11
241.0274765883
 21
346.5936960159
  0
LINE
  5
34E
100
AcDbEntity
  8
0
100
AcDbLine
 62
7
  6
CONTINUOUS
 10
241.8935019921
 20
346.5936960159
 11
242.0854892902
 21
346.6721248004
  0
LINE
  5
34F
100
AcDbEntity
  8
0
100
AcDbLine
 62
7
  6
CONTINUOUS
 10
237.8608100806
 20
349.6575259147
 11
237.2774765883
 21
349.4873131691
  0
LINE
  5
350
100
AcDbEntity
  8
0
100
AcDbLine
 62
7
  6
CONTINUOUS
 10
234.7695789423
 20
385.3915685592
 11
234.2392476662
 21
385.3915685592
  0
LINE
  5
351
100
AcDbEntity
  8
0
100
AcDbLine
 62
7
  6
CONTINUOUS
 10
234.4272386501
 20
385.9022067962
 11
233.9011969337
 21
385.9022067962
  0
LINE
  5
352
100
AcDbEntity
  8
0
100
AcDbLine
 62
7
  6
CONTINUOUS
 10
234.0365364274
 20
386.1575259147
 11
231.8248585469
 21
386.1575259147
  0
LINE
  5
353
100
AcDbEntity
  8
0
100
AcDbLine
 62
7
  6
CONTINUOUS
 10
294.2236197586
 20
335.6575259147
 11
294.2236197586
 21
284.6575259147
  0
LINE
  5
354
100
AcDbEntity
  8
FASEN
100
AcDbLine
 62
7
  6
CONTINUOUS
 10
294.2236197586
 20
335.6575259147
 11
294.2236197586
 21
284.6575259147
  0
LINE
  5
355
100
AcDbEntity
  8
KONSTRUKTIONSELEMENTE
100
AcDbLine
 62
7
  6
CONTINUOUS
 10
298.281333418
 20
335.6575259147
 11
298.281333418
 21
355.6575259147
  0
LINE
  5
356
100
AcDbEntity
  8
0
100
AcDbLine
 62
7
  6
CONTINUOUS
 10
238.6108100806
 20
342.6788025079
 11
238.1941430961
 21
342.5085897623
  0
LINE
  5
357
100
AcDbEntity
  8
0
100
AcDbLine
 62
7
  6
CONTINUOUS
 10
239.0601684998
 20
342.5085897623
 11
239.2147545996
 21
342.5717397729
  0
LINE
  5
358
100
AcDbEntity
  8
0
100
AcDbLine
 62
7
  6
CONTINUOUS
 10
241.8608096038
 20
341.6575259147
 11
242.2774765883
 21
341.8277386753
  0
LINE
  5
359
100
AcDbEntity
  8
0
100
AcDbLine
 62
7
  6
CONTINUOUS
 10
238.1435019921
 20
349.4873131691
 11
238.3771560364
 21
349.55549183
  0
LINE
  5
35A
100
AcDbEntity
  8
RUNDUNGEN
100
AcDbLine
 62
7
  6
CONTINUOUS
 10
316.2236197586
 20
396.6575259147
 11
304.7235888386
 21
396.6575259147
  0
LINE
  5
35B
100
AcDbEntity
  8
RUNDUNGEN
100
AcDbLine
 62
7
  6
CONTINUOUS
 10
247.7236398774
 20
396.6575259147
 11
236.2236197586
 21
396.6575259147
  0
LINE
  5
35C
100
AcDbEntity
  8
RUNDUNGEN
100
AcDbLine
 62
7
  6
CONTINUOUS
 10
299.7236197586
 20
401.6575667103
 11
299.7236197586
 21
448.1573632874
  0
LINE
  5
35D
100
AcDbEntity
  8
0
100
AcDbLine
 62
7
  6
CONTINUOUS
 10
300.7236197586
 20
435.7643342893
 11
300.7236197586
 21
429.8075258551
  0
LINE
  5
35E
100
AcDbEntity
  8
0
100
AcDbLine
 62
7
  6
CONTINUOUS
 10
300.7236197586
 20
428.8075259147
 11
300.7236197586
 21
427.3075259147
  0
LINE
  5
35F
100
AcDbEntity
  8
0
100
AcDbLine
 62
7
  6
CONTINUOUS
 10
300.7236197586
 20
427.2643342893
 11
300.7236197586
 21
417.231035203
  0
LINE
  5
360
100
AcDbEntity
  8
KONSTRUKTIONSELEMENTE
100
AcDbLine
 62
7
  6
CONTINUOUS
 10
304.1659060992
 20
335.6575259147
 11
304.1659060992
 21
355.6575259147
  0
LINE
  5
361
100
AcDbEntity
  8
0
100
AcDbLine
 62
7
  6
CONTINUOUS
 10
299.7236197586
 20
417.231035203
 11
300.7236197586
 21
417.231035203
  0
LINE
  5
362
100
AcDbEntity
  8
0
100
AcDbLine
 62
7
  6
CONTINUOUS
 10
299.7236197586
 20
418.0875259147
 11
300.7236197586
 21
418.0875259147
  0
LINE
  5
363
100
AcDbEntity
  8
0
100
AcDbLine
 62
7
  6
CONTINUOUS
 10
320.2236197586
 20
392.6575259147
 11
320.2236197586
 21
355.6575259147
  0
LINE
  5
364
100
AcDbEntity
  8
KONSTRUKTIONSELEMENTE
100
AcDbLine
 62
7
  6
CONTINUOUS
 10
326.2236197586
 20
335.6575259147
 11
326.2236197586
 21
355.6575259147
  0
LINE
  5
365
100
AcDbEntity
  8
0
100
AcDbLine
 62
7
  6
CONTINUOUS
 10
299.7236197586
 20
423.6955795155
 11
300.7236197586
 21
423.6955795155
  0
LINE
  5
366
100
AcDbEntity
  8
0
100
AcDbLine
 62
7
  6
CONTINUOUS
 10
299.7236197586
 20
424.432046589
 11
300.7236197586
 21
424.432046589
  0
LINE
  5
367
100
AcDbEntity
  8
0
100
AcDbLine
 62
7
  6
CONTINUOUS
 10
299.7236197586
 20
425.302046589
 11
300.7236197586
 21
425.302046589
  0
LINE
  5
368
100
AcDbEntity
  8
0
100
AcDbLine
 62
7
  6
CONTINUOUS
 10
299.7236197586
 20
427.2643342893
 11
300.7236197586
 21
427.2643342893
  0
LINE
  5
369
100
AcDbEntity
  8
0
100
AcDbLine
 62
7
  6
CONTINUOUS
 10
299.7236197586
 20
427.3075259147
 11
300.7236197586
 21
427.3075259147
  0
LINE
  5
36A
100
AcDbEntity
  8
0
100
AcDbLine
 62
7
  6
CONTINUOUS
 10
299.7236197586
 20
428.0575259147
 11
300.7236197586
 21
428.0575259147
  0
LINE
  5
36B
100
AcDbEntity
  8
0
100
AcDbLine
 62
7
  6
CONTINUOUS
 10
299.7236197586
 20
428.8075259147
 11
300.7236197586
 21
428.8075259147
  0
LINE
  5
36C
100
AcDbEntity
  8
0
100
AcDbLine
 62
7
  6
CONTINUOUS
 10
299.7236197586
 20
429.8075258551
 11
300.7236197586
 21
429.8075258551
  0
LINE
  5
36D
100
AcDbEntity
  8
0
100
AcDbLine
 62
7
  6
CONTINUOUS
 10
299.7236197586
 20
429.9325259147
 11
300.7236197586
 21
429.9325259147
  0
LINE
  5
36E
100
AcDbEntity
  8
0
100
AcDbLine
 62
7
  6
CONTINUOUS
 10
299.7236197586
 20
430.1825258551
 11
300.7236197586
 21
430.1825258551
  0
LINE
  5
36F
100
AcDbEntity
  8
0
100
AcDbLine
 62
7
  6
CONTINUOUS
 10
299.7236197586
 20
430.5575260339
 11
300.7236197586
 21
430.5575260339
  0
LINE
  5
370
100
AcDbEntity
  8
0
100
AcDbLine
 62
7
  6
CONTINUOUS
 10
299.7236197586
 20
431.1825257955
 11
300.7236197586
 21
431.1825257955
  0
LINE
  5
371
100
AcDbEntity
  8
0
100
AcDbLine
 62
7
  6
CONTINUOUS
 10
299.7236197586
 20
431.8075259147
 11
300.7236197586
 21
431.8075259147
  0
LINE
  5
372
100
AcDbEntity
  8
0
100
AcDbLine
 62
7
  6
CONTINUOUS
 10
299.7236197586
 20
432.3075257955
 11
300.7236197586
 21
432.3075257955
  0
LINE
  5
373
100
AcDbEntity
  8
0
100
AcDbLine
 62
7
  6
CONTINUOUS
 10
299.7236197586
 20
432.9325259147
 11
300.7236197586
 21
432.9325259147
  0
LINE
  5
374
100
AcDbEntity
  8
0
100
AcDbLine
 62
7
  6
CONTINUOUS
 10
299.7236197586
 20
433.5575256763
 11
300.7236197586
 21
433.5575256763
  0
LINE
  5
375
100
AcDbEntity
  8
0
100
AcDbLine
 62
7
  6
CONTINUOUS
 10
299.7236197586
 20
433.9325256763
 11
300.7236197586
 21
433.9325256763
  0
LINE
  5
376
100
AcDbEntity
  8
0
100
AcDbLine
 62
7
  6
CONTINUOUS
 10
299.7236197586
 20
434.0575259147
 11
300.7236197586
 21
434.0575259147
  0
LINE
  5
377
100
AcDbEntity
  8
0
100
AcDbLine
 62
7
  6
CONTINUOUS
 10
299.7236197586
 20
434.3075256763
 11
300.7236197586
 21
434.3075256763
  0
LINE
  5
378
100
AcDbEntity
  8
0
100
AcDbLine
 62
7
  6
CONTINUOUS
 10
299.7236197586
 20
435.7643342893
 11
300.7236197586
 21
435.7643342893
  0
LINE
  5
379
100
AcDbEntity
  8
FASEN
100
AcDbLine
 62
7
  6
CONTINUOUS
 10
291.2236197585
 20
281.6575259146
 11
294.2236197585
 21
284.6575259146
  0
LINE
  5
37A
100
AcDbEntity
  8
FASEN
100
AcDbLine
 62
7
  6
CONTINUOUS
 10
459.9971706379
 20
281.6575259147
 11
429.9975222462
 21
281.6575259147
  0
LINE
  5
37B
100
AcDbEntity
  8
FASEN
100
AcDbLine
 62
7
  6
CONTINUOUS
 10
462.9973464421
 20
284.6575259147
 11
426.9973464421
 21
284.6575259147
  0
LINE
  5
37C
100
AcDbEntity
  8
RUNDUNGEN
100
AcDbLine
 62
7
  6
CONTINUOUS
 10
409.8030601807
 20
469.951908371
 11
405.7207382649
 21
464.1217484642
  0
LINE
  5
37D
100
AcDbEntity
  8
FASEN
100
AcDbLine
 62
7
  6
CONTINUOUS
 10
429.9973464421
 20
281.6575259147
 11
426.9973464421
 21
284.6575259147
  0
LINE
  5
37E
100
AcDbEntity
  8
RUNDUNGEN
100
AcDbLine
 62
7
  6
CONTINUOUS
 10
404.327473461
 20
430.4254751072
 11
401.6672194232
 21
425.8177799526
  0
LINE
  5
37F
100
AcDbEntity
  8
RUNDUNGEN
100
AcDbLine
 62
7
  6
CONTINUOUS
 10
435.5871042348
 20
436.0921544275
 11
435.1940147609
 21
435.8465248628
  0
LINE
  5
380
100
AcDbEntity
  8
KONSTRUKTIONSELEMENTE
100
AcDbLine
 62
7
  6
CONTINUOUS
 10
399.9973464421
 20
335.6575259147
 11
399.9973464421
 21
355.6575259147
  0
LINE
  5
381
100
AcDbEntity
  8
0
100
AcDbLine
 62
7
  6
CONTINUOUS
 10
400.9973464421
 20
423.3177799526
 11
400.9973464421
 21
355.6575259147
  0
LINE
  5
382
100
AcDbEntity
  8
KONSTRUKTIONSELEMENTE
100
AcDbLine
 62
7
  6
CONTINUOUS
 10
403.3948060636
 20
335.6575259147
 11
403.3948060636
 21
355.6575259147
  0
LINE
  5
383
100
AcDbEntity
  8
0
100
AcDbLine
 62
7
  6
CONTINUOUS
 10
412.2024694546
 20
341.3064620802
 11
412.8339462513
 21
341.1575259147
  0
LINE
  5
384
100
AcDbEntity
  8
0
100
AcDbLine
 62
7
  6
CONTINUOUS
 10
412.8339462513
 20
342.0511429338
 11
412.3287647959
 21
342.2000790862
  0
LINE
  5
385
100
AcDbEntity
  8
0
100
AcDbLine
 62
7
  6
CONTINUOUS
 10
413.3339462513
 20
342.0511429338
 11
412.8287647959
 21
342.2000790862
  0
LINE
  5
386
100
AcDbEntity
  8
0
100
AcDbLine
 62
7
  6
CONTINUOUS
 10
412.0761741133
 20
344.731993991
 11
412.5813555688
 21
344.434121686
  0
LINE
  5
387
100
AcDbEntity
  8
0
100
AcDbLine
 62
7
  6
CONTINUOUS
 10
414.9809675046
 20
344.731993991
 11
414.4757861395
 21
345.0298662959
  0
LINE
  5
388
100
AcDbEntity
  8
0
100
AcDbLine
 62
7
  6
CONTINUOUS
 10
415.4809675046
 20
344.731993991
 11
414.9757861395
 21
345.0298662959
  0
LINE
  5
389
100
AcDbEntity
  8
0
100
AcDbLine
 62
7
  6
CONTINUOUS
 10
411.5709926127
 20
341.7532705767
 11
412.2024694546
 21
341.3064620802
  0
LINE
  5
38A
100
AcDbEntity
  8
0
100
AcDbLine
 62
7
  6
CONTINUOUS
 10
412.7076510004
 20
345.3277386008
 11
412.3287647959
 21
345.6256109057
  0
LINE
  5
38B
100
AcDbEntity
  8
0
100
AcDbLine
 62
7
  6
CONTINUOUS
 10
414.3494908886
 20
344.1362493811
 11
414.7283770027
 21
343.8383770762
  0
LINE
  5
38C
100
AcDbEntity
  8
0
100
AcDbLine
 62
7
  6
CONTINUOUS
 10
413.2076510004
 20
345.3277386008
 11
412.8287647959
 21
345.6256109057
  0
LINE
  5
38D
100
AcDbEntity
  8
0
100
AcDbLine
 62
7
  6
CONTINUOUS
 10
414.8546722537
 20
347.5617813049
 11
414.3494908886
 21
348.0085897623
  0
LINE
  5
38E
100
AcDbEntity
  8
0
100
AcDbLine
 62
7
  6
CONTINUOUS
 10
415.3546722537
 20
347.5617813049
 11
414.8494908886
 21
348.0085897623
  0
LINE
  5
38F
100
AcDbEntity
  8
0
100
AcDbLine
 62
7
  6
CONTINUOUS
 10
412.3287647959
 20
342.2000790862
 11
411.9498786817
 21
342.6468876479
  0
LINE
  5
390
100
AcDbEntity
  8
0
100
AcDbLine
 62
7
  6
CONTINUOUS
 10
412.8287647959
 20
342.2000790862
 11
412.4498786817
 21
342.6468876479
  0
LINE
  5
391
100
AcDbEntity
  8
0
100
AcDbLine
 62
7
  6
CONTINUOUS
 10
411.5709926127
 20
345.3277386008
 11
412.0761741133
 21
344.731993991
  0
LINE
  5
392
100
AcDbEntity
  8
0
100
AcDbLine
 62
7
  6
CONTINUOUS
 10
415.4861492311
 20
344.1362493811
 11
414.9809675046
 21
344.731993991
  0
LINE
  5
393
100
AcDbEntity
  8
0
100
AcDbLine
 62
7
  6
CONTINUOUS
 10
415.9861492311
 20
344.1362493811
 11
415.4809675046
 21
344.731993991
  0
LINE
  5
394
100
AcDbEntity
  8
0
100
AcDbLine
 62
7
  6
CONTINUOUS
 10
414.2231952763
 20
347.1149728475
 11
414.4757861395
 21
346.8171005426
  0
LINE
  5
395
100
AcDbEntity
  8
0
100
AcDbLine
 62
7
  6
CONTINUOUS
 10
414.7283770027
 20
343.8383770762
 11
414.9809675046
 21
343.3915684102
  0
LINE
  5
396
100
AcDbEntity
  8
0
100
AcDbLine
 62
7
  6
CONTINUOUS
 10
411.1921064873
 20
342.4979514955
 11
411.5709926127
 21
341.7532705767
  0
LINE
  5
397
100
AcDbEntity
  8
RUNDUNGEN
100
AcDbLine
 62
7
  6
CONTINUOUS
 10
404.9973464421
 20
432.2749531312
 11
404.9973464421
 21
461.8274427188
  0
LINE
  5
398
100
AcDbEntity
  8
0
100
AcDbLine
 62
7
  6
CONTINUOUS
 10
407.3419018759
 20
350.6575259147
 11
407.3419018759
 21
338.6575259147
  0
LINE
  5
399
100
AcDbEntity
  8
0
100
AcDbLine
 62
7
  6
CONTINUOUS
 10
407.8419018759
 20
350.6575259147
 11
407.8419018759
 21
338.6575259147
  0
LINE
  5
39A
100
AcDbEntity
  8
0
100
AcDbLine
 62
7
  6
CONTINUOUS
 10
475.479213363
 20
341.6575259147
 11
476.2009017501
 21
341.8277386753
  0
LINE
  5
39B
100
AcDbEntity
  8
0
100
AcDbLine
 62
7
  6
CONTINUOUS
 10
475.7009017501
 20
341.8277386753
 11
474.979213363
 21
341.6575259147
  0
LINE
  5
39C
100
AcDbEntity
  8
0
100
AcDbLine
 62
7
  6
CONTINUOUS
 10
469.8500490643
 20
342.6788025079
 11
469.1283606772
 21
342.5085897623
  0
LINE
  5
39D
100
AcDbEntity
  8
0
100
AcDbLine
 62
7
  6
CONTINUOUS
 10
474.7575266277
 20
346.7639087616
 11
474.0358382407
 21
346.5936960159
  0
LINE
  5
39E
100
AcDbEntity
  8
KONSTRUKTIONSELEMENTE
100
AcDbLine
 62
7
  6
CONTINUOUS
 10
399.9973464421
 20
335.6575259147
 11
489.9973464421
 21
335.6575259147
  0
LINE
  5
39F
100
AcDbEntity
  8
0
100
AcDbLine
 62
7
  6
CONTINUOUS
 10
407.3419018759
 20
338.6575259147
 11
437.6527910083
 21
338.6575259147
  0
LINE
  5
3A0
100
AcDbEntity
  8
0
100
AcDbLine
 62
7
  6
CONTINUOUS
 10
432.1519561661
 20
341.1575259147
 11
431.6519561661
 21
341.1575259147
  0
LINE
  5
3A1
100
AcDbEntity
  8
0
100
AcDbLine
 62
7
  6
CONTINUOUS
 10
412.8339462513
 20
341.1575259147
 11
414.3443093428
 21
341.1575259147
  0
LINE
  5
3A2
100
AcDbEntity
  8
0
100
AcDbLine
 62
7
  6
CONTINUOUS
 10
417.7594655547
 20
341.1575259147
 11
419.2698290075
 21
341.1575259147
  0
LINE
  5
3A3
100
AcDbEntity
  8
0
100
AcDbLine
 62
7
  6
CONTINUOUS
 10
420.7905544679
 20
341.1575259147
 11
422.3009179208
 21
341.1575259147
  0
LINE
  5
3A4
100
AcDbEntity
  8
0
100
AcDbLine
 62
7
  6
CONTINUOUS
 10
425.8423695642
 20
341.1575259147
 11
426.847550568
 21
341.1575259147
  0
LINE
  5
3A5
100
AcDbEntity
  8
0
100
AcDbLine
 62
7
  6
CONTINUOUS
 10
432.9097283945
 20
341.3064620802
 11
432.4097283945
 21
341.3064620802
  0
LINE
  5
3A6
100
AcDbEntity
  8
0
100
AcDbLine
 62
7
  6
CONTINUOUS
 10
427.4790279067
 20
341.3064620802
 11
426.9790279067
 21
341.3064620802
  0
LINE
  5
3A7
100
AcDbEntity
  8
0
100
AcDbLine
 62
7
  6
CONTINUOUS
 10
414.9757861395
 20
341.3064620802
 11
414.4757861395
 21
341.3064620802
  0
LINE
  5
3A8
100
AcDbEntity
  8
0
100
AcDbLine
 62
7
  6
CONTINUOUS
 10
415.4809675046
 20
341.6043344243
 11
414.9809675046
 21
341.6043344243
  0
LINE
  5
3A9
100
AcDbEntity
  8
0
100
AcDbLine
 62
7
  6
CONTINUOUS
 10
458.0143682706
 20
341.6575259147
 11
458.8803936744
 21
341.6575259147
  0
LINE
  5
3AA
100
AcDbEntity
  8
0
100
AcDbLine
 62
7
  6
CONTINUOUS
 10
460.9011195478
 20
341.6575259147
 11
462.0558200173
 21
341.6575259147
  0
LINE
  5
3AB
100
AcDbEntity
  8
0
100
AcDbLine
 62
7
  6
CONTINUOUS
 10
464.0765460971
 20
341.6575259147
 11
464.9425715009
 21
341.6575259147
  0
LINE
  5
3AC
100
AcDbEntity
  8
0
100
AcDbLine
 62
7
  6
CONTINUOUS
 10
468.1179982568
 20
341.6575259147
 11
469.2726985198
 21
341.6575259147
  0
LINE
  5
3AD
100
AcDbEntity
  8
0
100
AcDbLine
 62
7
  6
CONTINUOUS
 10
474.7575266277
 20
341.6575259147
 11
475.479213363
 21
341.6575259147
  0
LINE
  5
3AE
100
AcDbEntity
  8
0
100
AcDbLine
 62
7
  6
CONTINUOUS
 10
433.5412057332
 20
341.7532705767
 11
433.0412057332
 21
341.7532705767
  0
LINE
  5
3AF
100
AcDbEntity
  8
0
100
AcDbLine
 62
7
  6
CONTINUOUS
 10
428.1105052454
 20
341.7532705767
 11
427.6105052454
 21
341.7532705767
  0
LINE
  5
3B0
100
AcDbEntity
  8
0
100
AcDbLine
 62
7
  6
CONTINUOUS
 10
476.2009017501
 20
341.8277386753
 11
475.7009017501
 21
341.8277386753
  0
LINE
  5
3B1
100
AcDbEntity
  8
0
100
AcDbLine
 62
7
  6
CONTINUOUS
 10
469.8500490643
 20
341.8277386753
 11
469.3500490643
 21
341.8277386753
  0
LINE
  5
3B2
100
AcDbEntity
  8
0
100
AcDbLine
 62
7
  6
CONTINUOUS
 10
426.4738469029
 20
341.9022067813
 11
425.7160746746
 21
341.9022067813
  0
LINE
  5
3B3
100
AcDbEntity
  8
0
100
AcDbLine
 62
7
  6
CONTINUOUS
 10
431.5204802728
 20
342.0511429338
 11
431.0204802728
 21
342.0511429338
  0
LINE
  5
3B4
100
AcDbEntity
  8
0
100
AcDbLine
 62
7
  6
CONTINUOUS
 10
425.8371885604
 20
342.0511429338
 11
425.3371885604
 21
342.0511429338
  0
LINE
  5
3B5
100
AcDbEntity
  8
0
100
AcDbLine
 62
7
  6
CONTINUOUS
 10
413.8443093428
 20
342.0511429338
 11
412.8339462513
 21
342.0511429338
  0
LINE
  5
3B6
100
AcDbEntity
  8
0
100
AcDbLine
 62
7
  6
CONTINUOUS
 10
470.4273987829
 20
342.1681642113
 11
469.9273987829
 21
342.1681642113
  0
LINE
  5
3B7
100
AcDbEntity
  8
0
100
AcDbLine
 62
7
  6
CONTINUOUS
 10
433.9200918473
 20
342.2000790862
 11
433.4200918473
 21
342.2000790862
  0
LINE
  5
3B8
100
AcDbEntity
  8
0
100
AcDbLine
 62
7
  6
CONTINUOUS
 10
415.9861492311
 20
342.2000790862
 11
415.4861492311
 21
342.2000790862
  0
LINE
  5
3B9
100
AcDbEntity
  8
0
100
AcDbLine
 62
7
  6
CONTINUOUS
 10
412.8287647959
 20
342.2000790862
 11
412.3287647959
 21
342.2000790862
  0
LINE
  5
3BA
100
AcDbEntity
  8
0
100
AcDbLine
 62
7
  6
CONTINUOUS
 10
476.9225901372
 20
342.338376957
 11
476.4225901372
 21
342.338376957
  0
LINE
  5
3BB
100
AcDbEntity
  8
0
100
AcDbLine
 62
7
  6
CONTINUOUS
 10
431.1415941586
 20
342.3490152387
 11
430.6415941586
 21
342.3490152387
  0
LINE
  5
3BC
100
AcDbEntity
  8
0
100
AcDbLine
 62
7
  6
CONTINUOUS
 10
428.4893913595
 20
342.3490152387
 11
427.9893913595
 21
342.3490152387
  0
LINE
  5
3BD
100
AcDbEntity
  8
0
100
AcDbLine
 62
7
  6
CONTINUOUS
 10
425.4583024463
 20
342.3490152387
 11
424.9583024463
 21
342.3490152387
  0
LINE
  5
3BE
100
AcDbEntity
  8
0
100
AcDbLine
 62
7
  6
CONTINUOUS
 10
475.6235520315
 20
342.5085897623
 11
474.1131879592
 21
342.5085897623
  0
LINE
  5
3BF
100
AcDbEntity
  8
0
100
AcDbLine
 62
7
  6
CONTINUOUS
 10
470.8604114848
 20
342.5085897623
 11
470.3604114848
 21
342.5085897623
  0
LINE
  5
3C0
100
AcDbEntity
  8
0
100
AcDbLine
 62
7
  6
CONTINUOUS
 10
469.1283606772
 20
342.5085897623
 11
467.7623352735
 21
342.5085897623
  0
LINE
  5
3C1
100
AcDbEntity
  8
0
100
AcDbLine
 62
7
  6
CONTINUOUS
 10
461.4784698858
 20
342.5085897623
 11
460.9784698858
 21
342.5085897623
  0
LINE
  5
3C2
100
AcDbEntity
  8
0
100
AcDbLine
 62
7
  6
CONTINUOUS
 10
430.8941839378
 20
341.3064620802
 11
431.6519561661
 21
341.1575259147
  0
LINE
  5
3C3
100
AcDbEntity
  8
0
100
AcDbLine
 62
7
  6
CONTINUOUS
 10
425.2108922255
 20
341.3064620802
 11
425.8423695642
 21
341.1575259147
  0
LINE
  5
3C4
100
AcDbEntity
  8
0
100
AcDbLine
 62
7
  6
CONTINUOUS
 10
414.4757861395
 20
345.0298662959
 11
413.8443093428
 21
345.1788024483
  0
LINE
  5
3C5
100
AcDbEntity
  8
0
100
AcDbLine
 62
7
  6
CONTINUOUS
 10
414.9757861395
 20
345.0298662959
 11
414.3443093428
 21
345.1788024483
  0
LINE
  5
3C6
100
AcDbEntity
  8
0
100
AcDbLine
 62
7
  6
CONTINUOUS
 10
431.6519561661
 20
341.9022067813
 11
431.0204802728
 21
342.0511429338
  0
LINE
  5
3C7
100
AcDbEntity
  8
0
100
AcDbLine
 62
7
  6
CONTINUOUS
 10
431.9019564522
 20
341.9611702285
 11
431.5204802728
 21
342.0511429338
  0
LINE
  5
3C8
100
AcDbEntity
  8
0
100
AcDbLine
 62
7
  6
CONTINUOUS
 10
425.0845973359
 20
343.8383770762
 11
425.7160746746
 21
343.6894407151
  0
LINE
  5
3C9
100
AcDbEntity
  8
0
100
AcDbLine
 62
7
  6
CONTINUOUS
 10
414.3494908886
 20
348.0085897623
 11
413.7180139112
 21
348.1575259147
  0
LINE
  5
3CA
100
AcDbEntity
  8
0
100
AcDbLine
 62
7
  6
CONTINUOUS
 10
414.8494908886
 20
348.0085897623
 11
414.2180139112
 21
348.1575259147
  0
LINE
  5
3CB
100
AcDbEntity
  8
0
100
AcDbLine
 62
7
  6
CONTINUOUS
 10
412.5813555688
 20
344.434121686
 11
413.0865371145
 21
344.2851855336
  0
LINE
  5
3CC
100
AcDbEntity
  8
0
100
AcDbLine
 62
7
  6
CONTINUOUS
 10
413.8443093428
 20
344.2851855336
 11
414.3494908886
 21
344.1362493811
  0
LINE
  5
3CD
100
AcDbEntity
  8
0
100
AcDbLine
 62
7
  6
CONTINUOUS
 10
413.0865371145
 20
345.1788024483
 11
412.7076510004
 21
345.3277386008
  0
LINE
  5
3CE
100
AcDbEntity
  8
0
100
AcDbLine
 62
7
  6
CONTINUOUS
 10
413.5865371145
 20
345.1788024483
 11
413.2076510004
 21
345.3277386008
  0
LINE
  5
3CF
100
AcDbEntity
  8
0
100
AcDbLine
 62
7
  6
CONTINUOUS
 10
425.7160746746
 20
341.9022067813
 11
425.3371885604
 21
342.0511429338
  0
LINE
  5
3D0
100
AcDbEntity
  8
0
100
AcDbLine
 62
7
  6
CONTINUOUS
 10
426.2160746746
 20
341.9022067813
 11
425.8371885604
 21
342.0511429338
  0
LINE
  5
3D1
100
AcDbEntity
  8
0
100
AcDbLine
 62
7
  6
CONTINUOUS
 10
413.8443093428
 20
347.263909
 11
414.2231952763
 21
347.1149728475
  0
LINE
  5
3D2
100
AcDbEntity
  8
0
100
AcDbLine
 62
7
  6
CONTINUOUS
 10
425.5897783397
 20
344.434121686
 11
425.2108922255
 21
344.5830578385
  0
LINE
  5
3D3
100
AcDbEntity
  8
0
100
AcDbLine
 62
7
  6
CONTINUOUS
 10
426.0897783397
 20
344.434121686
 11
425.7108922255
 21
344.5830578385
  0
LINE
  5
3D4
100
AcDbEntity
  8
0
100
AcDbLine
 62
7
  6
CONTINUOUS
 10
424.5794163321
 20
341.7532705767
 11
425.2108922255
 21
341.3064620802
  0
LINE
  5
3D5
100
AcDbEntity
  8
0
100
AcDbLine
 62
7
  6
CONTINUOUS
 10
424.4531199972
 20
344.2851855336
 11
425.0845973359
 21
343.8383770762
  0
LINE
  5
3D6
100
AcDbEntity
  8
0
100
AcDbLine
 62
7
  6
CONTINUOUS
 10
430.2627080445
 20
341.7532705767
 11
430.8941839378
 21
341.3064620802
  0
LINE
  5
3D7
100
AcDbEntity
  8
0
100
AcDbLine
 62
7
  6
CONTINUOUS
 10
425.3371885604
 20
342.0511429338
 11
424.9583024463
 21
342.3490152387
  0
LINE
  5
3D8
100
AcDbEntity
  8
0
100
AcDbLine
 62
7
  6
CONTINUOUS
 10
425.8371885604
 20
342.0511429338
 11
425.4583024463
 21
342.3490152387
  0
LINE
  5
3D9
100
AcDbEntity
  8
0
100
AcDbLine
 62
7
  6
CONTINUOUS
 10
425.2108922255
 20
344.5830578385
 11
424.8320061113
 21
344.8809301434
  0
LINE
  5
3DA
100
AcDbEntity
  8
0
100
AcDbLine
 62
7
  6
CONTINUOUS
 10
425.7108922255
 20
344.5830578385
 11
425.3320061113
 21
344.8809301434
  0
LINE
  5
3DB
100
AcDbEntity
  8
0
100
AcDbLine
 62
7
  6
CONTINUOUS
 10
431.0204802728
 20
342.0511429338
 11
430.6415941586
 21
342.3490152387
  0
LINE
  5
3DC
100
AcDbEntity
  8
0
100
AcDbLine
 62
7
  6
CONTINUOUS
 10
431.5204802728
 20
342.0511429338
 11
431.1415941586
 21
342.3490152387
  0
LINE
  5
3DD
100
AcDbEntity
  8
0
100
AcDbLine
 62
7
  6
CONTINUOUS
 10
426.8527330171
 20
347.263909
 11
427.2316191312
 21
346.9660366951
  0
LINE
  5
3DE
100
AcDbEntity
  8
0
100
AcDbLine
 62
7
  6
CONTINUOUS
 10
415.2335583678
 20
346.9660366951
 11
414.8546722537
 21
347.5617813049
  0
LINE
  5
3DF
100
AcDbEntity
  8
0
100
AcDbLine
 62
7
  6
CONTINUOUS
 10
415.7335583678
 20
346.9660366951
 11
415.3546722537
 21
347.5617813049
  0
LINE
  5
3E0
100
AcDbEntity
  8
0
100
AcDbLine
 62
7
  6
CONTINUOUS
 10
424.200530218
 20
342.3490152387
 11
424.5794163321
 21
341.7532705767
  0
LINE
  5
3E1
100
AcDbEntity
  8
0
100
AcDbLine
 62
7
  6
CONTINUOUS
 10
424.074233883
 20
344.8809301434
 11
424.4531199972
 21
344.2851855336
  0
LINE
  5
3E2
100
AcDbEntity
  8
0
100
AcDbLine
 62
7
  6
CONTINUOUS
 10
424.9583024463
 20
342.3490152387
 11
424.7057112217
 21
342.7958238004
  0
LINE
  5
3E3
100
AcDbEntity
  8
0
100
AcDbLine
 62
7
  6
CONTINUOUS
 10
415.7387397329
 20
343.5405045627
 11
415.4861492311
 21
344.1362493811
  0
LINE
  5
3E4
100
AcDbEntity
  8
0
100
AcDbLine
 62
7
  6
CONTINUOUS
 10
414.4757861395
 20
346.8171005426
 11
414.6020813905
 21
346.5192282377
  0
LINE
  5
3E5
100
AcDbEntity
  8
0
100
AcDbLine
 62
7
  6
CONTINUOUS
 10
416.2387397329
 20
343.5405045627
 11
415.9861492311
 21
344.1362493811
  0
LINE
  5
3E6
100
AcDbEntity
  8
0
100
AcDbLine
 62
7
  6
CONTINUOUS
 10
411.9498786817
 20
342.6468876479
 11
411.8235833404
 21
343.0936961053
  0
LINE
  5
3E7
100
AcDbEntity
  8
0
100
AcDbLine
 62
7
  6
CONTINUOUS
 10
412.4498786817
 20
342.6468876479
 11
412.3235833404
 21
343.0936961053
  0
LINE
  5
3E8
100
AcDbEntity
  8
0
100
AcDbLine
 62
7
  6
CONTINUOUS
 10
412.3287647959
 20
345.6256109057
 11
412.2024694546
 21
346.0724193631
  0
LINE
  5
3E9
100
AcDbEntity
  8
0
100
AcDbLine
 62
7
  6
CONTINUOUS
 10
412.8287647959
 20
345.6256109057
 11
412.7024694546
 21
346.0724193631
  0
LINE
  5
3EA
100
AcDbEntity
  8
0
100
AcDbLine
 62
7
  6
CONTINUOUS
 10
415.3598536188
 20
346.5192282377
 11
415.2335583678
 21
346.9660366951
  0
LINE
  5
3EB
100
AcDbEntity
  8
0
100
AcDbLine
 62
7
  6
CONTINUOUS
 10
415.8598536188
 20
346.5192282377
 11
415.7335583678
 21
346.9660366951
  0
LINE
  5
3EC
100
AcDbEntity
  8
0
100
AcDbLine
 62
7
  6
CONTINUOUS
 10
411.0658111121
 20
343.0936961053
 11
411.1921064873
 21
342.4979514955
  0
LINE
  5
3ED
100
AcDbEntity
  8
0
100
AcDbLine
 62
7
  6
CONTINUOUS
 10
411.4446972263
 20
345.9234832106
 11
411.5709926127
 21
345.3277386008
  0
LINE
  5
3EE
100
AcDbEntity
  8
0
100
AcDbLine
 62
7
  6
CONTINUOUS
 10
411.4446972263
 20
346.5192282377
 11
411.4446972263
 21
345.9234832106
  0
LINE
  5
3EF
100
AcDbEntity
  8
0
100
AcDbLine
 62
7
  6
CONTINUOUS
 10
412.2024694546
 20
346.0724193631
 11
412.2024694546
 21
346.370291668
  0
LINE
  5
3F0
100
AcDbEntity
  8
0
100
AcDbLine
 62
7
  6
CONTINUOUS
 10
412.7024694546
 20
346.0724193631
 11
412.7024694546
 21
346.370291668
  0
LINE
  5
3F1
100
AcDbEntity
  8
0
100
AcDbLine
 62
7
  6
CONTINUOUS
 10
414.9809675046
 20
343.3915684102
 11
414.9809675046
 21
342.9447599528
  0
LINE
  5
3F2
100
AcDbEntity
  8
0
100
AcDbLine
 62
7
  6
CONTINUOUS
 10
415.7387397329
 20
342.7958238004
 11
415.7387397329
 21
343.5405045627
  0
LINE
  5
3F3
100
AcDbEntity
  8
0
100
AcDbLine
 62
7
  6
CONTINUOUS
 10
416.2387397329
 20
342.7958238004
 11
416.2387397329
 21
343.5405045627
  0
LINE
  5
3F4
100
AcDbEntity
  8
0
100
AcDbLine
 62
7
  6
CONTINUOUS
 10
474.7575266277
 20
349.6575259147
 11
474.0358382407
 21
349.4873131691
  0
LINE
  5
3F5
100
AcDbEntity
  8
0
100
AcDbLine
 62
7
  6
CONTINUOUS
 10
467.6849855549
 20
348.6362494407
 11
468.4066731161
 21
348.8064621864
  0
LINE
  5
3F6
100
AcDbEntity
  8
0
100
AcDbLine
 62
7
  6
CONTINUOUS
 10
467.9066731161
 20
348.8064621864
 11
467.1849855549
 21
348.6362494407
  0
LINE
  5
3F7
100
AcDbEntity
  8
0
100
AcDbLine
 62
7
  6
CONTINUOUS
 10
432.2834335048
 20
342.0511429338
 11
431.6519561661
 21
341.9022067813
  0
LINE
  5
3F8
100
AcDbEntity
  8
0
100
AcDbLine
 62
7
  6
CONTINUOUS
 10
426.847550568
 20
341.1575259147
 11
427.4790279067
 21
341.3064620802
  0
LINE
  5
3F9
100
AcDbEntity
  8
0
100
AcDbLine
 62
7
  6
CONTINUOUS
 10
426.347550568
 20
341.1575259147
 11
426.9790279067
 21
341.3064620802
  0
LINE
  5
3FA
100
AcDbEntity
  8
0
100
AcDbLine
 62
7
  6
CONTINUOUS
 10
426.847550568
 20
343.6894407151
 11
427.4790279067
 21
343.8383770762
  0
LINE
  5
3FB
100
AcDbEntity
  8
0
100
AcDbLine
 62
7
  6
CONTINUOUS
 10
426.347550568
 20
343.6894407151
 11
426.9790279067
 21
343.8383770762
  0
LINE
  5
3FC
100
AcDbEntity
  8
0
100
AcDbLine
 62
7
  6
CONTINUOUS
 10
414.3443093428
 20
341.1575259147
 11
414.9757861395
 21
341.3064620802
  0
LINE
  5
3FD
100
AcDbEntity
  8
0
100
AcDbLine
 62
7
  6
CONTINUOUS
 10
413.8443093428
 20
341.1575259147
 11
414.4757861395
 21
341.3064620802
  0
LINE
  5
3FE
100
AcDbEntity
  8
0
100
AcDbLine
 62
7
  6
CONTINUOUS
 10
432.1519561661
 20
341.1575259147
 11
432.9097283945
 21
341.3064620802
  0
LINE
  5
3FF
100
AcDbEntity
  8
0
100
AcDbLine
 62
7
  6
CONTINUOUS
 10
431.6519561661
 20
341.1575259147
 11
432.4097283945
 21
341.3064620802
  0
LINE
  5
400
100
AcDbEntity
  8
0
100
AcDbLine
 62
7
  6
CONTINUOUS
 10
468.5510109587
 20
349.6575259147
 11
467.5406477123
 21
349.4873131691
  0
LINE
  5
401
100
AcDbEntity
  8
0
100
AcDbLine
 62
7
  6
CONTINUOUS
 10
412.4498786817
 20
342.6468876479
 11
411.9498786817
 21
342.6468876479
  0
LINE
  5
402
100
AcDbEntity
  8
0
100
AcDbLine
 62
7
  6
CONTINUOUS
 10
474.1801752574
 20
342.6788025079
 11
473.6801752574
 21
342.6788025079
  0
LINE
  5
403
100
AcDbEntity
  8
0
100
AcDbLine
 62
7
  6
CONTINUOUS
 10
467.5406477123
 20
342.6788025079
 11
467.0406477123
 21
342.6788025079
  0
LINE
  5
404
100
AcDbEntity
  8
0
100
AcDbLine
 62
7
  6
CONTINUOUS
 10
434.1726830719
 20
342.7958238004
 11
433.6726830719
 21
342.7958238004
  0
LINE
  5
405
100
AcDbEntity
  8
0
100
AcDbLine
 62
7
  6
CONTINUOUS
 10
425.2057112217
 20
342.7958238004
 11
424.074233883
 21
342.7958238004
  0
LINE
  5
406
100
AcDbEntity
  8
0
100
AcDbLine
 62
7
  6
CONTINUOUS
 10
416.2387397329
 20
342.7958238004
 11
415.7387397329
 21
342.7958238004
  0
LINE
  5
407
100
AcDbEntity
  8
0
100
AcDbLine
 62
7
  6
CONTINUOUS
 10
467.251972853
 20
342.8490152536
 11
466.751972853
 21
342.8490152536
  0
LINE
  5
408
100
AcDbEntity
  8
0
100
AcDbLine
 62
7
  6
CONTINUOUS
 10
477.3556028391
 20
343.0192279993
 11
476.8556028391
 21
343.0192279993
  0
LINE
  5
409
100
AcDbEntity
  8
0
100
AcDbLine
 62
7
  6
CONTINUOUS
 10
473.7471625555
 20
343.0192279993
 11
473.2471625555
 21
343.0192279993
  0
LINE
  5
40A
100
AcDbEntity
  8
0
100
AcDbLine
 62
7
  6
CONTINUOUS
 10
471.14908717
 20
343.0192279993
 11
470.64908717
 21
343.0192279993
  0
LINE
  5
40B
100
AcDbEntity
  8
0
100
AcDbLine
 62
7
  6
CONTINUOUS
 10
428.7419811387
 20
343.0936961053
 11
428.2419811387
 21
343.0936961053
  0
LINE
  5
40C
100
AcDbEntity
  8
0
100
AcDbLine
 62
7
  6
CONTINUOUS
 10
412.3235833404
 20
343.0936961053
 11
411.0658111121
 21
343.0936961053
  0
LINE
  5
40D
100
AcDbEntity
  8
0
100
AcDbLine
 62
7
  6
CONTINUOUS
 10
466.9632971678
 20
343.1894408641
 11
466.4632971678
 21
343.1894408641
  0
LINE
  5
40E
100
AcDbEntity
  8
0
100
AcDbLine
 62
7
  6
CONTINUOUS
 10
434.2989779615
 20
343.2426322578
 11
433.7989779615
 21
343.2426322578
  0
LINE
  5
40F
100
AcDbEntity
  8
0
100
AcDbLine
 62
7
  6
CONTINUOUS
 10
430.6364117095
 20
343.2426322578
 11
430.1364117095
 21
343.2426322578
  0
LINE
  5
410
100
AcDbEntity
  8
0
100
AcDbLine
 62
7
  6
CONTINUOUS
 10
473.4584885221
 20
343.5298663555
 11
472.9584885221
 21
343.5298663555
  0
LINE
  5
411
100
AcDbEntity
  8
0
100
AcDbLine
 62
7
  6
CONTINUOUS
 10
471.2934241867
 20
343.5298663555
 11
470.7934241867
 21
343.5298663555
  0
LINE
  5
412
100
AcDbEntity
  8
0
100
AcDbLine
 62
7
  6
CONTINUOUS
 10
466.8189601511
 20
343.5298663555
 11
466.097271764
 21
343.5298663555
  0
LINE
  5
413
100
AcDbEntity
  8
0
100
AcDbLine
 62
7
  6
CONTINUOUS
 10
416.2387397329
 20
343.5405045627
 11
415.7387397329
 21
343.5405045627
  0
LINE
  5
414
100
AcDbEntity
  8
0
100
AcDbLine
 62
7
  6
CONTINUOUS
 10
425.7160746746
 20
343.6894407151
 11
426.847550568
 21
343.6894407151
  0
LINE
  5
415
100
AcDbEntity
  8
0
100
AcDbLine
 62
7
  6
CONTINUOUS
 10
427.4790279067
 20
343.8383770762
 11
426.9790279067
 21
343.8383770762
  0
LINE
  5
416
100
AcDbEntity
  8
0
100
AcDbLine
 62
7
  6
CONTINUOUS
 10
477.6442768725
 20
343.8702918468
 11
477.1442768725
 21
343.8702918468
  0
LINE
  5
417
100
AcDbEntity
  8
0
100
AcDbLine
 62
7
  6
CONTINUOUS
 10
434.4252728511
 20
343.9873132287
 11
433.9252728511
 21
343.9873132287
  0
LINE
  5
418
100
AcDbEntity
  8
0
100
AcDbLine
 62
7
  6
CONTINUOUS
 10
473.3141498536
 20
344.0405045925
 11
472.8141498536
 21
344.0405045925
  0
LINE
  5
419
100
AcDbEntity
  8
0
100
AcDbLine
 62
7
  6
CONTINUOUS
 10
430.5101168199
 20
344.1362493811
 11
430.0101168199
 21
344.1362493811
  0
LINE
  5
41A
100
AcDbEntity
  8
0
100
AcDbLine
 62
7
  6
CONTINUOUS
 10
428.8682774737
 20
344.1362493811
 11
428.3682774737
 21
344.1362493811
  0
LINE
  5
41B
100
AcDbEntity
  8
0
100
AcDbLine
 62
7
  6
CONTINUOUS
 10
415.9861492311
 20
344.1362493811
 11
415.4861492311
 21
344.1362493811
  0
LINE
  5
41C
100
AcDbEntity
  8
0
100
AcDbLine
 62
7
  6
CONTINUOUS
 10
471.2934241867
 20
344.2107173381
 11
470.7934241867
 21
344.2107173381
  0
LINE
  5
41D
100
AcDbEntity
  8
0
100
AcDbLine
 62
7
  6
CONTINUOUS
 10
413.0865371145
 20
344.2851855336
 11
413.8443093428
 21
344.2851855336
  0
LINE
  5
41E
100
AcDbEntity
  8
0
100
AcDbLine
 62
7
  6
CONTINUOUS
 10
426.4738469029
 20
344.434121686
 11
425.5897783397
 21
344.434121686
  0
LINE
  5
41F
100
AcDbEntity
  8
0
100
AcDbLine
 62
7
  6
CONTINUOUS
 10
473.3141498536
 20
344.5511428295
 11
472.8141498536
 21
344.5511428295
  0
LINE
  5
420
100
AcDbEntity
  8
0
100
AcDbLine
 62
7
  6
CONTINUOUS
 10
425.7108922255
 20
344.5830578385
 11
425.2108922255
 21
344.5830578385
  0
LINE
  5
421
100
AcDbEntity
  8
0
100
AcDbLine
 62
7
  6
CONTINUOUS
 10
477.6442768725
 20
344.7213558136
 11
477.1442768725
 21
344.7213558136
  0
LINE
  5
422
100
AcDbEntity
  8
0
100
AcDbLine
 62
7
  6
CONTINUOUS
 10
415.4809675046
 20
344.731993991
 11
414.9809675046
 21
344.731993991
  0
LINE
  5
423
100
AcDbEntity
  8
0
100
AcDbLine
 62
7
  6
CONTINUOUS
 10
425.3320061113
 20
344.8809301434
 11
424.8320061113
 21
344.8809301434
  0
LINE
  5
424
100
AcDbEntity
  8
0
100
AcDbLine
 62
7
  6
CONTINUOUS
 10
471.14908717
 20
344.8915685592
 11
470.64908717
 21
344.8915685592
  0
LINE
  5
425
100
AcDbEntity
  8
0
100
AcDbLine
 62
7
  6
CONTINUOUS
 10
414.9757861395
 20
345.0298662959
 11
414.4757861395
 21
345.0298662959
  0
LINE
  5
426
100
AcDbEntity
  8
0
100
AcDbLine
 62
7
  6
CONTINUOUS
 10
473.4584885221
 20
345.0617813049
 11
472.9584885221
 21
345.0617813049
  0
LINE
  5
427
100
AcDbEntity
  8
0
100
AcDbLine
 62
7
  6
CONTINUOUS
 10
430.5101168199
 20
345.1788024483
 11
430.0101168199
 21
345.1788024483
  0
LINE
  5
428
100
AcDbEntity
  8
0
100
AcDbLine
 62
7
  6
CONTINUOUS
 10
428.8682774737
 20
345.1788024483
 11
428.3682774737
 21
345.1788024483
  0
LINE
  5
429
100
AcDbEntity
  8
0
100
AcDbLine
 62
7
  6
CONTINUOUS
 10
414.3443093428
 20
345.1788024483
 11
413.0865371145
 21
345.1788024483
  0
LINE
  5
42A
100
AcDbEntity
  8
0
100
AcDbLine
 62
7
  6
CONTINUOUS
 10
434.4252728511
 20
345.3277386008
 11
433.9252728511
 21
345.3277386008
  0
LINE
  5
42B
100
AcDbEntity
  8
0
100
AcDbLine
 62
7
  6
CONTINUOUS
 10
425.0794163321
 20
345.3277386008
 11
424.5794163321
 21
345.3277386008
  0
LINE
  5
42C
100
AcDbEntity
  8
0
100
AcDbLine
 62
7
  6
CONTINUOUS
 10
413.2076510004
 20
345.3277386008
 11
412.7076510004
 21
345.3277386008
  0
LINE
  5
42D
100
AcDbEntity
  8
0
100
AcDbLine
 62
7
  6
CONTINUOUS
 10
473.7471625555
 20
345.4022067962
 11
473.2471625555
 21
345.4022067962
  0
LINE
  5
42E
100
AcDbEntity
  8
0
100
AcDbLine
 62
7
  6
CONTINUOUS
 10
470.8604114848
 20
345.4022067962
 11
470.3604114848
 21
345.4022067962
  0
LINE
  5
42F
100
AcDbEntity
  8
0
100
AcDbLine
 62
7
  6
CONTINUOUS
 10
468.4066731161
 20
345.4022067962
 11
468.9840236606
 21
345.4022067962
  0
LINE
  5
430
100
AcDbEntity
  8
0
100
AcDbLine
 62
7
  6
CONTINUOUS
 10
477.3556028391
 20
345.5724195419
 11
476.8556028391
 21
345.5724195419
  0
LINE
  5
431
100
AcDbEntity
  8
0
100
AcDbLine
 62
7
  6
CONTINUOUS
 10
412.8287647959
 20
345.6256109057
 11
412.3287647959
 21
345.6256109057
  0
LINE
  5
432
100
AcDbEntity
  8
0
100
AcDbLine
 62
7
  6
CONTINUOUS
 10
474.1801752574
 20
345.7426322876
 11
473.6801752574
 21
345.7426322876
  0
LINE
  5
433
100
AcDbEntity
  8
0
100
AcDbLine
 62
7
  6
CONTINUOUS
 10
470.1387239236
 20
345.7426322876
 11
469.6387239236
 21
345.7426322876
  0
LINE
  5
434
100
AcDbEntity
  8
0
100
AcDbLine
 62
7
  6
CONTINUOUS
 10
424.9531199972
 20
345.7745470582
 11
424.4531199972
 21
345.7745470582
  0
LINE
  5
435
100
AcDbEntity
  8
0
100
AcDbLine
 62
7
  6
CONTINUOUS
 10
473.1698128369
 20
345.9128450332
 11
472.6698128369
 21
345.9128450332
  0
LINE
  5
436
100
AcDbEntity
  8
0
100
AcDbLine
 62
7
  6
CONTINUOUS
 10
474.1131879592
 20
345.9128450332
 11
475.6235520315
 21
345.9128450332
  0
LINE
  5
437
100
AcDbEntity
  8
0
100
AcDbLine
 62
7
  6
CONTINUOUS
 10
434.2989779615
 20
346.0724193631
 11
433.7989779615
 21
346.0724193631
  0
LINE
  5
438
100
AcDbEntity
  8
0
100
AcDbLine
 62
7
  6
CONTINUOUS
 10
430.6364117095
 20
346.0724193631
 11
430.1364117095
 21
346.0724193631
  0
LINE
  5
439
100
AcDbEntity
  8
0
100
AcDbLine
 62
7
  6
CONTINUOUS
 10
424.9531199972
 20
346.0724193631
 11
424.4531199972
 21
346.0724193631
  0
LINE
  5
43A
100
AcDbEntity
  8
0
100
AcDbLine
 62
7
  6
CONTINUOUS
 10
412.7024694546
 20
346.0724193631
 11
412.2024694546
 21
346.0724193631
  0
LINE
  5
43B
100
AcDbEntity
  8
0
100
AcDbLine
 62
7
  6
CONTINUOUS
 10
476.9225901372
 20
346.0830577789
 11
476.4225901372
 21
346.0830577789
  0
LINE
  5
43C
100
AcDbEntity
  8
0
100
AcDbLine
 62
7
  6
CONTINUOUS
 10
468.9840236606
 20
346.0830577789
 11
468.4066731161
 21
346.0830577789
  0
LINE
  5
43D
100
AcDbEntity
  8
0
100
AcDbLine
 62
7
  6
CONTINUOUS
 10
428.7419811387
 20
346.2213555155
 11
428.2419811387
 21
346.2213555155
  0
LINE
  5
43E
100
AcDbEntity
  8
0
100
AcDbLine
 62
7
  6
CONTINUOUS
 10
473.1698128369
 20
346.2532705246
 11
472.6698128369
 21
346.2532705246
  0
LINE
  5
43F
100
AcDbEntity
  8
0
100
AcDbLine
 62
7
  6
CONTINUOUS
 10
470.7160744681
 20
346.2532705246
 11
470.2160744681
 21
346.2532705246
  0
LINE
  5
440
100
AcDbEntity
  8
0
100
AcDbLine
 62
7
  6
CONTINUOUS
 10
412.7024694546
 20
346.370291668
 11
412.2024694546
 21
346.370291668
  0
LINE
  5
441
100
AcDbEntity
  8
0
100
AcDbLine
 62
7
  6
CONTINUOUS
 10
434.1726830719
 20
346.5192282377
 11
433.6726830719
 21
346.5192282377
  0
LINE
  5
442
100
AcDbEntity
  8
0
100
AcDbLine
 62
7
  6
CONTINUOUS
 10
425.0794163321
 20
346.5192282377
 11
424.5794163321
 21
346.5192282377
  0
LINE
  5
443
100
AcDbEntity
  8
0
100
AcDbLine
 62
7
  6
CONTINUOUS
 10
414.6020813905
 20
346.5192282377
 11
415.8598536188
 21
346.5192282377
  0
LINE
  5
444
100
AcDbEntity
  8
0
100
AcDbLine
 62
7
  6
CONTINUOUS
 10
476.2009017501
 20
346.5936960159
 11
475.7009017501
 21
346.5936960159
  0
LINE
  5
445
100
AcDbEntity
  8
0
100
AcDbLine
 62
7
  6
CONTINUOUS
 10
475.479213363
 20
346.7639087616
 11
474.7575266277
 21
346.7639087616
  0
LINE
  5
446
100
AcDbEntity
  8
0
100
AcDbLine
 62
7
  6
CONTINUOUS
 10
471.0047493274
 20
346.7639087616
 11
470.5047493274
 21
346.7639087616
  0
LINE
  5
447
100
AcDbEntity
  8
0
100
AcDbLine
 62
7
  6
CONTINUOUS
 10
412.8287647959
 20
346.8171005426
 11
412.3287647959
 21
346.8171005426
  0
LINE
  5
448
100
AcDbEntity
  8
0
100
AcDbLine
 62
7
  6
CONTINUOUS
 10
431.1415941586
 20
346.9660366951
 11
430.6415941586
 21
346.9660366951
  0
LINE
  5
449
100
AcDbEntity
  8
0
100
AcDbLine
 62
7
  6
CONTINUOUS
 10
428.4893913595
 20
346.9660366951
 11
427.9893913595
 21
346.9660366951
  0
LINE
  5
44A
100
AcDbEntity
  8
0
100
AcDbLine
 62
7
  6
CONTINUOUS
 10
425.3320061113
 20
346.9660366951
 11
424.8320061113
 21
346.9660366951
  0
LINE
  5
44B
100
AcDbEntity
  8
0
100
AcDbLine
 62
7
  6
CONTINUOUS
 10
415.7335583678
 20
346.9660366951
 11
415.2335583678
 21
346.9660366951
  0
LINE
  5
44C
100
AcDbEntity
  8
0
100
AcDbLine
 62
7
  6
CONTINUOUS
 10
433.9200918473
 20
347.1149728475
 11
433.4200918473
 21
347.1149728475
  0
LINE
  5
44D
100
AcDbEntity
  8
0
100
AcDbLine
 62
7
  6
CONTINUOUS
 10
413.2076510004
 20
347.1149728475
 11
412.7076510004
 21
347.1149728475
  0
LINE
  5
44E
100
AcDbEntity
  8
0
100
AcDbLine
 62
7
  6
CONTINUOUS
 10
431.5204802728
 20
347.263909
 11
431.0204802728
 21
347.263909
  0
LINE
  5
44F
100
AcDbEntity
  8
0
100
AcDbLine
 62
7
  6
CONTINUOUS
 10
425.7108922255
 20
347.263909
 11
425.2108922255
 21
347.263909
  0
LINE
  5
450
100
AcDbEntity
  8
0
100
AcDbLine
 62
7
  6
CONTINUOUS
 10
413.0865371145
 20
347.263909
 11
413.8443093428
 21
347.263909
  0
LINE
  5
451
100
AcDbEntity
  8
0
100
AcDbLine
 62
7
  6
CONTINUOUS
 10
473.3141498536
 20
347.2745469986
 11
472.8141498536
 21
347.2745469986
  0
LINE
  5
452
100
AcDbEntity
  8
0
100
AcDbLine
 62
7
  6
CONTINUOUS
 10
425.5897783397
 20
347.4128451524
 11
426.4738469029
 21
347.4128451524
  0
LINE
  5
453
100
AcDbEntity
  8
0
100
AcDbLine
 62
7
  6
CONTINUOUS
 10
471.14908717
 20
347.4447597442
 11
470.64908717
 21
347.4447597442
  0
LINE
  5
454
100
AcDbEntity
  8
0
100
AcDbLine
 62
7
  6
CONTINUOUS
 10
433.5412057332
 20
347.5617813049
 11
433.0412057332
 21
347.5617813049
  0
LINE
  5
455
100
AcDbEntity
  8
0
100
AcDbLine
 62
7
  6
CONTINUOUS
 10
428.1105052454
 20
347.5617813049
 11
427.6105052454
 21
347.5617813049
  0
LINE
  5
456
100
AcDbEntity
  8
0
100
AcDbLine
 62
7
  6
CONTINUOUS
 10
415.3546722537
 20
347.5617813049
 11
414.8546722537
 21
347.5617813049
  0
LINE
  5
457
100
AcDbEntity
  8
0
100
AcDbLine
 62
7
  6
CONTINUOUS
 10
473.4584885221
 20
347.7851857124
 11
472.9584885221
 21
347.7851857124
  0
LINE
  5
458
100
AcDbEntity
  8
0
100
AcDbLine
 62
7
  6
CONTINUOUS
 10
471.14908717
 20
347.7851857124
 11
470.64908717
 21
347.7851857124
  0
LINE
  5
459
100
AcDbEntity
  8
0
100
AcDbLine
 62
7
  6
CONTINUOUS
 10
466.2416096066
 20
347.7851857124
 11
466.9632971678
 21
347.7851857124
  0
LINE
  5
45A
100
AcDbEntity
  8
0
100
AcDbLine
 62
7
  6
CONTINUOUS
 10
476.633914452
 20
347.7851857124
 11
477.3556028391
 21
347.7851857124
  0
LINE
  5
45B
100
AcDbEntity
  8
0
100
AcDbLine
 62
7
  6
CONTINUOUS
 10
464.0765460971
 20
347.9553984581
 11
463.5765460971
 21
347.9553984581
  0
LINE
  5
45C
100
AcDbEntity
  8
0
100
AcDbLine
 62
7
  6
CONTINUOUS
 10
458.8803936744
 20
347.9553984581
 11
458.3803936744
 21
347.9553984581
  0
LINE
  5
45D
100
AcDbEntity
  8
0
100
AcDbLine
 62
7
  6
CONTINUOUS
 10
432.9097283945
 20
348.0085897623
 11
432.4097283945
 21
348.0085897623
  0
LINE
  5
45E
100
AcDbEntity
  8
0
100
AcDbLine
 62
7
  6
CONTINUOUS
 10
427.4790279067
 20
348.0085897623
 11
426.9790279067
 21
348.0085897623
  0
LINE
  5
45F
100
AcDbEntity
  8
0
100
AcDbLine
 62
7
  6
CONTINUOUS
 10
414.8494908886
 20
348.0085897623
 11
414.3494908886
 21
348.0085897623
  0
LINE
  5
460
100
AcDbEntity
  8
0
100
AcDbLine
 62
7
  6
CONTINUOUS
 10
432.1519561661
 20
348.1575259147
 11
431.6519561661
 21
348.1575259147
  0
LINE
  5
461
100
AcDbEntity
  8
0
100
AcDbLine
 62
7
  6
CONTINUOUS
 10
426.847550568
 20
348.1575259147
 11
425.7160746746
 21
348.1575259147
  0
LINE
  5
462
100
AcDbEntity
  8
0
100
AcDbLine
 62
7
  6
CONTINUOUS
 10
423.311280651
 20
348.1575259147
 11
422.0535084226
 21
348.1575259147
  0
LINE
  5
463
100
AcDbEntity
  8
0
100
AcDbLine
 62
7
  6
CONTINUOUS
 10
420.7853734641
 20
348.1575259147
 11
419.2750100113
 21
348.1575259147
  0
LINE
  5
464
100
AcDbEntity
  8
0
100
AcDbLine
 62
7
  6
CONTINUOUS
 10
418.0068750528
 20
348.1575259147
 11
416.7491028245
 21
348.1575259147
  0
LINE
  5
465
100
AcDbEntity
  8
0
100
AcDbLine
 62
7
  6
CONTINUOUS
 10
414.2180139112
 20
348.1575259147
 11
413.0865371145
 21
348.1575259147
  0
LINE
  5
466
100
AcDbEntity
  8
0
100
AcDbLine
 62
7
  6
CONTINUOUS
 10
477.2112641706
 20
348.2958239494
 11
476.7112641706
 21
348.2958239494
  0
LINE
  5
467
100
AcDbEntity
  8
0
100
AcDbLine
 62
7
  6
CONTINUOUS
 10
473.7471625555
 20
348.2958239494
 11
473.2471625555
 21
348.2958239494
  0
LINE
  5
468
100
AcDbEntity
  8
0
100
AcDbLine
 62
7
  6
CONTINUOUS
 10
467.251972853
 20
348.2958239494
 11
466.751972853
 21
348.2958239494
  0
LINE
  5
469
100
AcDbEntity
  8
0
100
AcDbLine
 62
7
  6
CONTINUOUS
 10
471.0047493274
 20
348.4660366951
 11
470.5047493274
 21
348.4660366951
  0
LINE
  5
46A
100
AcDbEntity
  8
0
100
AcDbLine
 62
7
  6
CONTINUOUS
 10
474.1801752574
 20
348.6362494407
 11
473.6801752574
 21
348.6362494407
  0
LINE
  5
46B
100
AcDbEntity
  8
0
100
AcDbLine
 62
7
  6
CONTINUOUS
 10
467.6849855549
 20
348.6362494407
 11
467.1849855549
 21
348.6362494407
  0
LINE
  5
46C
100
AcDbEntity
  8
0
100
AcDbLine
 62
7
  6
CONTINUOUS
 10
467.9066731161
 20
348.8064621864
 11
468.9840236606
 21
348.8064621864
  0
LINE
  5
46D
100
AcDbEntity
  8
0
100
AcDbLine
 62
7
  6
CONTINUOUS
 10
474.1131879592
 20
348.8064621864
 11
475.479213363
 21
348.8064621864
  0
LINE
  5
46E
100
AcDbEntity
  8
0
100
AcDbLine
 62
7
  6
CONTINUOUS
 10
476.7782514687
 20
348.9766749321
 11
476.2782514687
 21
348.9766749321
  0
LINE
  5
46F
100
AcDbEntity
  8
0
100
AcDbLine
 62
7
  6
CONTINUOUS
 10
470.4273987829
 20
349.1468876777
 11
469.9273987829
 21
349.1468876777
  0
LINE
  5
470
100
AcDbEntity
  8
0
100
AcDbLine
 62
7
  6
CONTINUOUS
 10
476.0565647334
 20
349.4873131691
 11
475.5565647334
 21
349.4873131691
  0
LINE
  5
471
100
AcDbEntity
  8
0
100
AcDbLine
 62
7
  6
CONTINUOUS
 10
469.8500490643
 20
349.4873131691
 11
469.3500490643
 21
349.4873131691
  0
LINE
  5
472
100
AcDbEntity
  8
0
100
AcDbLine
 62
7
  6
CONTINUOUS
 10
432.4097283945
 20
348.0085897623
 11
431.6519561661
 21
348.1575259147
  0
LINE
  5
473
100
AcDbEntity
  8
0
100
AcDbLine
 62
7
  6
CONTINUOUS
 10
432.9097283945
 20
348.0085897623
 11
432.1519561661
 21
348.1575259147
  0
LINE
  5
474
100
AcDbEntity
  8
0
100
AcDbLine
 62
7
  6
CONTINUOUS
 10
426.9790279067
 20
348.0085897623
 11
426.347550568
 21
348.1575259147
  0
LINE
  5
475
100
AcDbEntity
  8
0
100
AcDbLine
 62
7
  6
CONTINUOUS
 10
427.4790279067
 20
348.0085897623
 11
426.847550568
 21
348.1575259147
  0
LINE
  5
476
100
AcDbEntity
  8
0
100
AcDbLine
 62
7
  6
CONTINUOUS
 10
431.6519561661
 20
347.4128451524
 11
432.2834335048
 21
347.263909
  0
LINE
  5
477
100
AcDbEntity
  8
0
100
AcDbLine
 62
7
  6
CONTINUOUS
 10
467.0406477123
 20
342.6788025079
 11
467.7623352735
 21
342.5085897623
  0
LINE
  5
478
100
AcDbEntity
  8
0
100
AcDbLine
 62
7
  6
CONTINUOUS
 10
468.2623352735
 20
342.5085897623
 11
467.5406477123
 21
342.6788025079
  0
LINE
  5
479
100
AcDbEntity
  8
0
100
AcDbLine
 62
7
  6
CONTINUOUS
 10
474.0358382407
 20
341.8277386753
 11
474.7575266277
 21
341.6575259147
  0
LINE
  5
47A
100
AcDbEntity
  8
0
100
AcDbLine
 62
7
  6
CONTINUOUS
 10
426.4738469029
 20
347.4128451524
 11
426.8527330171
 21
347.263909
  0
LINE
  5
47B
100
AcDbEntity
  8
0
100
AcDbLine
 62
7
  6
CONTINUOUS
 10
427.6105052454
 20
347.5617813049
 11
426.9790279067
 21
348.0085897623
  0
LINE
  5
47C
100
AcDbEntity
  8
0
100
AcDbLine
 62
7
  6
CONTINUOUS
 10
428.1105052454
 20
347.5617813049
 11
427.4790279067
 21
348.0085897623
  0
LINE
  5
47D
100
AcDbEntity
  8
0
100
AcDbLine
 62
7
  6
CONTINUOUS
 10
433.0412057332
 20
347.5617813049
 11
432.4097283945
 21
348.0085897623
  0
LINE
  5
47E
100
AcDbEntity
  8
0
100
AcDbLine
 62
7
  6
CONTINUOUS
 10
433.5412057332
 20
347.5617813049
 11
432.9097283945
 21
348.0085897623
  0
LINE
  5
47F
100
AcDbEntity
  8
0
100
AcDbLine
 62
7
  6
CONTINUOUS
 10
432.2834335048
 20
347.263909
 11
432.662319619
 21
346.9660366951
  0
LINE
  5
480
100
AcDbEntity
  8
0
100
AcDbLine
 62
7
  6
CONTINUOUS
 10
429.8838219303
 20
342.2000790862
 11
430.2627080445
 21
341.7532705767
  0
LINE
  5
481
100
AcDbEntity
  8
0
100
AcDbLine
 62
7
  6
CONTINUOUS
 10
433.4200918473
 20
347.1149728475
 11
433.0412057332
 21
347.5617813049
  0
LINE
  5
482
100
AcDbEntity
  8
0
100
AcDbLine
 62
7
  6
CONTINUOUS
 10
433.9200918473
 20
347.1149728475
 11
433.5412057332
 21
347.5617813049
  0
LINE
  5
483
100
AcDbEntity
  8
0
100
AcDbLine
 62
7
  6
CONTINUOUS
 10
427.9893913595
 20
346.9660366951
 11
427.6105052454
 21
347.5617813049
  0
LINE
  5
484
100
AcDbEntity
  8
0
100
AcDbLine
 62
7
  6
CONTINUOUS
 10
428.4893913595
 20
346.9660366951
 11
428.1105052454
 21
347.5617813049
  0
LINE
  5
485
100
AcDbEntity
  8
0
100
AcDbLine
 62
7
  6
CONTINUOUS
 10
425.4583024463
 20
342.3490152387
 11
425.2057112217
 21
342.7958238004
  0
LINE
  5
486
100
AcDbEntity
  8
0
100
AcDbLine
 62
7
  6
CONTINUOUS
 10
424.8320061113
 20
344.8809301434
 11
424.5794163321
 21
345.3277386008
  0
LINE
  5
487
100
AcDbEntity
  8
0
100
AcDbLine
 62
7
  6
CONTINUOUS
 10
425.3320061113
 20
344.8809301434
 11
425.0794163321
 21
345.3277386008
  0
LINE
  5
488
100
AcDbEntity
  8
0
100
AcDbLine
 62
7
  6
CONTINUOUS
 10
427.2316191312
 20
346.9660366951
 11
427.4842089104
 21
346.5192282377
  0
LINE
  5
489
100
AcDbEntity
  8
0
100
AcDbLine
 62
7
  6
CONTINUOUS
 10
430.6415941586
 20
342.3490152387
 11
430.1364117095
 21
343.2426322578
  0
LINE
  5
48A
100
AcDbEntity
  8
0
100
AcDbLine
 62
7
  6
CONTINUOUS
 10
431.1415941586
 20
342.3490152387
 11
430.6364117095
 21
343.2426322578
  0
LINE
  5
48B
100
AcDbEntity
  8
0
100
AcDbLine
 62
7
  6
CONTINUOUS
 10
429.6312307058
 20
342.7958238004
 11
429.8838219303
 21
342.2000790862
  0
LINE
  5
48C
100
AcDbEntity
  8
0
100
AcDbLine
 62
7
  6
CONTINUOUS
 10
423.8216441038
 20
345.6256109057
 11
424.074233883
 21
344.8809301434
  0
LINE
  5
48D
100
AcDbEntity
  8
0
100
AcDbLine
 62
7
  6
CONTINUOUS
 10
424.074233883
 20
342.7958238004
 11
424.200530218
 21
342.3490152387
  0
LINE
  5
48E
100
AcDbEntity
  8
0
100
AcDbLine
 62
7
  6
CONTINUOUS
 10
424.5794163321
 20
345.3277386008
 11
424.4531199972
 21
345.7745470582
  0
LINE
  5
48F
100
AcDbEntity
  8
0
100
AcDbLine
 62
7
  6
CONTINUOUS
 10
425.0794163321
 20
345.3277386008
 11
424.9531199972
 21
345.7745470582
  0
LINE
  5
490
100
AcDbEntity
  8
0
100
AcDbLine
 62
7
  6
CONTINUOUS
 10
421.2957361943
 20
342.7958238004
 11
420.2853734641
 21
348.1575259147
  0
LINE
  5
491
100
AcDbEntity
  8
0
100
AcDbLine
 62
7
  6
CONTINUOUS
 10
421.5100219378
 20
344.3120265338
 11
420.7853734641
 21
348.1575259147
  0
LINE
  5
492
100
AcDbEntity
  8
0
100
AcDbLine
 62
7
  6
CONTINUOUS
 10
419.7801917377
 20
346.8171005426
 11
420.7905544679
 21
341.1575259147
  0
LINE
  5
493
100
AcDbEntity
  8
0
100
AcDbLine
 62
7
  6
CONTINUOUS
 10
416.7491028245
 20
348.1575259147
 11
417.7594655547
 21
341.1575259147
  0
LINE
  5
494
100
AcDbEntity
  8
0
100
AcDbLine
 62
7
  6
CONTINUOUS
 10
418.2646472811
 20
342.7958238004
 11
417.5068750528
 21
348.1575259147
  0
LINE
  5
495
100
AcDbEntity
  8
0
100
AcDbLine
 62
7
  6
CONTINUOUS
 10
418.5503615376
 20
344.3120265338
 11
418.0068750528
 21
348.1575259147
  0
LINE
  5
496
100
AcDbEntity
  8
0
100
AcDbLine
 62
7
  6
CONTINUOUS
 10
422.9973464421
 20
372.1575259147
 11
422.9973464421
 21
360.1575259147
  0
LINE
  5
497
100
AcDbEntity
  8
0
100
AcDbLine
 62
7
  6
CONTINUOUS
 10
423.8216441038
 20
346.2213555155
 11
423.8216441038
 21
345.6256109057
  0
LINE
  5
498
100
AcDbEntity
  8
0
100
AcDbLine
 62
7
  6
CONTINUOUS
 10
424.4531199972
 20
345.7745470582
 11
424.4531199972
 21
346.0724193631
  0
LINE
  5
499
100
AcDbEntity
  8
0
100
AcDbLine
 62
7
  6
CONTINUOUS
 10
424.4973464421
 20
370.8809303222
 11
424.4973464421
 21
367.0511428295
  0
LINE
  5
49A
100
AcDbEntity
  8
0
100
AcDbLine
 62
7
  6
CONTINUOUS
 10
424.4973464421
 20
365.5192281185
 11
424.4973464421
 21
360.1575259147
  0
LINE
  5
49B
100
AcDbEntity
  8
0
100
AcDbLine
 62
7
  6
CONTINUOUS
 10
411.5709926127
 20
347.1149728475
 11
411.4446972263
 21
346.5192282377
  0
LINE
  5
49C
100
AcDbEntity
  8
0
100
AcDbLine
 62
7
  6
CONTINUOUS
 10
412.2024694546
 20
346.370291668
 11
412.3287647959
 21
346.8171005426
  0
LINE
  5
49D
100
AcDbEntity
  8
0
100
AcDbLine
 62
7
  6
CONTINUOUS
 10
412.7024694546
 20
346.370291668
 11
412.8287647959
 21
346.8171005426
  0
LINE
  5
49E
100
AcDbEntity
  8
0
100
AcDbLine
 62
7
  6
CONTINUOUS
 10
431.5204802728
 20
347.263909
 11
431.9019564522
 21
347.3538817052
  0
LINE
  5
49F
100
AcDbEntity
  8
0
100
AcDbLine
 62
7
  6
CONTINUOUS
 10
431.0204802728
 20
347.263909
 11
431.6519561661
 21
347.4128451524
  0
LINE
  5
4A0
100
AcDbEntity
  8
0
100
AcDbLine
 62
7
  6
CONTINUOUS
 10
425.7160746746
 20
348.1575259147
 11
425.0845973359
 21
348.0085897623
  0
LINE
  5
4A1
100
AcDbEntity
  8
0
100
AcDbLine
 62
7
  6
CONTINUOUS
 10
431.6519561661
 20
348.1575259147
 11
430.8941839378
 21
348.0085897623
  0
LINE
  5
4A2
100
AcDbEntity
  8
0
100
AcDbLine
 62
7
  6
CONTINUOUS
 10
475.3348763463
 20
349.6575259147
 11
474.7575266277
 21
349.6575259147
  0
LINE
  5
4A3
100
AcDbEntity
  8
0
100
AcDbLine
 62
7
  6
CONTINUOUS
 10
468.839685818
 20
349.6575259147
 11
468.5510109587
 21
349.6575259147
  0
LINE
  5
4A4
100
AcDbEntity
  8
0
100
AcDbLine
 62
7
  6
CONTINUOUS
 10
464.9425715009
 20
349.6575259147
 11
463.6435333952
 21
349.6575259147
  0
LINE
  5
4A5
100
AcDbEntity
  8
0
100
AcDbLine
 62
7
  6
CONTINUOUS
 10
459.3134063763
 20
349.6575259147
 11
458.0143682706
 21
349.6575259147
  0
LINE
  5
4A6
100
AcDbEntity
  8
0
100
AcDbLine
 62
7
  6
CONTINUOUS
 10
437.6527910083
 20
350.6575259147
 11
407.3419018759
 21
350.6575259147
  0
LINE
  5
4A7
100
AcDbEntity
  8
KONSTRUKTIONSELEMENTE
100
AcDbLine
 62
7
  6
CONTINUOUS
 10
399.9973464421
 20
355.6575259147
 11
489.9973464421
 21
355.6575259147
  0
LINE
  5
4A8
100
AcDbEntity
  8
0
100
AcDbLine
 62
7
  6
CONTINUOUS
 10
468.4453483883
 20
349.639725271
 11
469.3500490643
 21
349.4873131691
  0
LINE
  5
4A9
100
AcDbEntity
  8
0
100
AcDbLine
 62
7
  6
CONTINUOUS
 10
469.8500490643
 20
349.4873131691
 11
468.839685818
 21
349.6575259147
  0
LINE
  5
4AA
100
AcDbEntity
  8
0
100
AcDbLine
 62
7
  6
CONTINUOUS
 10
468.9840236606
 20
345.4022067962
 11
469.8500490643
 21
345.2319940506
  0
LINE
  5
4AB
100
AcDbEntity
  8
0
100
AcDbLine
 62
7
  6
CONTINUOUS
 10
474.979213363
 20
346.7639087616
 11
475.7009017501
 21
346.5936960159
  0
LINE
  5
4AC
100
AcDbEntity
  8
0
100
AcDbLine
 62
7
  6
CONTINUOUS
 10
476.2009017501
 20
346.5936960159
 11
475.479213363
 21
346.7639087616
  0
LINE
  5
4AD
100
AcDbEntity
  8
0
100
AcDbLine
 62
7
  6
CONTINUOUS
 10
468.9840236606
 20
348.8064621864
 11
469.7057112217
 21
348.6362494407
  0
LINE
  5
4AE
100
AcDbEntity
  8
0
100
AcDbLine
 62
7
  6
CONTINUOUS
 10
467.5406477123
 20
341.8277386753
 11
468.1179982568
 21
341.6575259147
  0
LINE
  5
4AF
100
AcDbEntity
  8
0
100
AcDbLine
 62
7
  6
CONTINUOUS
 10
473.6801752574
 20
342.6788025079
 11
474.1131879592
 21
342.5085897623
  0
LINE
  5
4B0
100
AcDbEntity
  8
0
100
AcDbLine
 62
7
  6
CONTINUOUS
 10
474.6131879592
 20
342.5085897623
 11
474.1801752574
 21
342.6788025079
  0
LINE
  5
4B1
100
AcDbEntity
  8
0
100
AcDbLine
 62
7
  6
CONTINUOUS
 10
432.662319619
 20
346.9660366951
 11
433.1675006228
 21
346.0724193631
  0
LINE
  5
4B2
100
AcDbEntity
  8
0
100
AcDbLine
 62
7
  6
CONTINUOUS
 10
433.6726830719
 20
346.5192282377
 11
433.4200918473
 21
347.1149728475
  0
LINE
  5
4B3
100
AcDbEntity
  8
0
100
AcDbLine
 62
7
  6
CONTINUOUS
 10
434.1726830719
 20
346.5192282377
 11
433.9200918473
 21
347.1149728475
  0
LINE
  5
4B4
100
AcDbEntity
  8
0
100
AcDbLine
 62
7
  6
CONTINUOUS
 10
428.2419811387
 20
346.2213555155
 11
427.9893913595
 21
346.9660366951
  0
LINE
  5
4B5
100
AcDbEntity
  8
0
100
AcDbLine
 62
7
  6
CONTINUOUS
 10
428.7419811387
 20
346.2213555155
 11
428.4893913595
 21
346.9660366951
  0
LINE
  5
4B6
100
AcDbEntity
  8
0
100
AcDbLine
 62
7
  6
CONTINUOUS
 10
427.4842089104
 20
346.5192282377
 11
427.6105052454
 21
346.0724193631
  0
LINE
  5
4B7
100
AcDbEntity
  8
0
100
AcDbLine
 62
7
  6
CONTINUOUS
 10
429.5049358162
 20
343.2426322578
 11
429.6312307058
 21
342.7958238004
  0
LINE
  5
4B8
100
AcDbEntity
  8
0
100
AcDbLine
 62
7
  6
CONTINUOUS
 10
429.3786394812
 20
343.9873132287
 11
429.5049358162
 21
343.2426322578
  0
LINE
  5
4B9
100
AcDbEntity
  8
0
100
AcDbLine
 62
7
  6
CONTINUOUS
 10
428.3682774737
 20
345.1788024483
 11
428.2419811387
 21
346.2213555155
  0
LINE
  5
4BA
100
AcDbEntity
  8
0
100
AcDbLine
 62
7
  6
CONTINUOUS
 10
424.9531199972
 20
345.7745470582
 11
424.9531199972
 21
346.0724193631
  0
LINE
  5
4BB
100
AcDbEntity
  8
0
100
AcDbLine
 62
7
  6
CONTINUOUS
 10
426.9973464421
 20
335.6575259147
 11
426.9973464421
 21
284.6575259147
  0
LINE
  5
4BC
100
AcDbEntity
  8
0
100
AcDbLine
 62
7
  6
CONTINUOUS
 10
427.6105052454
 20
346.0724193631
 11
427.6105052454
 21
345.7745470582
  0
LINE
  5
4BD
100
AcDbEntity
  8
0
100
AcDbLine
 62
7
  6
CONTINUOUS
 10
427.736800135
 20
344.434121686
 11
427.736800135
 21
344.1362493811
  0
LINE
  5
4BE
100
AcDbEntity
  8
0
100
AcDbLine
 62
7
  6
CONTINUOUS
 10
428.3682774737
 20
344.1362493811
 11
428.3682774737
 21
345.1788024483
  0
LINE
  5
4BF
100
AcDbEntity
  8
0
100
AcDbLine
 62
7
  6
CONTINUOUS
 10
428.8682774737
 20
344.1362493811
 11
428.8682774737
 21
345.1788024483
  0
LINE
  5
4C0
100
AcDbEntity
  8
0
100
AcDbLine
 62
7
  6
CONTINUOUS
 10
428.9973464421
 20
386.1575259147
 11
428.9973464421
 21
374.1575259147
  0
LINE
  5
4C1
100
AcDbEntity
  8
0
100
AcDbLine
 62
7
  6
CONTINUOUS
 10
429.3786394812
 20
345.3277386008
 11
429.3786394812
 21
343.9873132287
  0
LINE
  5
4C2
100
AcDbEntity
  8
0
100
AcDbLine
 62
7
  6
CONTINUOUS
 10
430.0101168199
 20
344.1362493811
 11
430.0101168199
 21
345.1788024483
  0
LINE
  5
4C3
100
AcDbEntity
  8
0
100
AcDbLine
 62
7
  6
CONTINUOUS
 10
430.4973464421
 20
384.8809303222
 11
430.4973464421
 21
381.0511428295
  0
LINE
  5
4C4
100
AcDbEntity
  8
0
100
AcDbLine
 62
7
  6
CONTINUOUS
 10
430.4973464421
 20
379.5192281185
 11
430.4973464421
 21
374.1575259147
  0
LINE
  5
4C5
100
AcDbEntity
  8
0
100
AcDbLine
 62
7
  6
CONTINUOUS
 10
430.5101168199
 20
344.1362493811
 11
430.5101168199
 21
345.1788024483
  0
LINE
  5
4C6
100
AcDbEntity
  8
0
100
AcDbLine
 62
7
  6
CONTINUOUS
 10
430.7473462037
 20
369.3490156112
 11
430.7473462037
 21
368.5830575405
  0
LINE
  5
4C7
100
AcDbEntity
  8
0
100
AcDbLine
 62
7
  6
CONTINUOUS
 10
422.0535084226
 20
348.1575259147
 11
421.2957361943
 21
342.7958238004
  0
LINE
  5
4C8
100
AcDbEntity
  8
0
100
AcDbLine
 62
7
  6
CONTINUOUS
 10
421.8009179208
 20
341.1575259147
 11
422.811280651
 21
348.1575259147
  0
LINE
  5
4C9
100
AcDbEntity
  8
0
100
AcDbLine
 62
7
  6
CONTINUOUS
 10
422.3009179208
 20
341.1575259147
 11
423.311280651
 21
348.1575259147
  0
LINE
  5
4CA
100
AcDbEntity
  8
0
100
AcDbLine
 62
7
  6
CONTINUOUS
 10
418.7698290075
 20
341.1575259147
 11
419.7801917377
 21
346.8171005426
  0
LINE
  5
4CB
100
AcDbEntity
  8
0
100
AcDbLine
 62
7
  6
CONTINUOUS
 10
419.2698290075
 20
341.1575259147
 11
420.0301917377
 21
345.4167186652
  0
LINE
  5
4CC
100
AcDbEntity
  8
0
100
AcDbLine
 62
7
  6
CONTINUOUS
 10
419.2750100113
 20
348.1575259147
 11
418.2646472811
 21
342.7958238004
  0
LINE
  5
4CD
100
AcDbEntity
  8
0
100
AcDbLine
 62
7
  6
CONTINUOUS
 10
415.4861492311
 20
342.2000790862
 11
415.7387397329
 21
342.7958238004
  0
LINE
  5
4CE
100
AcDbEntity
  8
0
100
AcDbLine
 62
7
  6
CONTINUOUS
 10
415.9861492311
 20
342.2000790862
 11
416.2387397329
 21
342.7958238004
  0
LINE
  5
4CF
100
AcDbEntity
  8
0
100
AcDbLine
 62
7
  6
CONTINUOUS
 10
456.9973454884
 20
361.6894408045
 11
455.9973464421
 21
361.434121686
  0
LINE
  5
4D0
100
AcDbEntity
  8
0
100
AcDbLine
 62
7
  6
CONTINUOUS
 10
456.2473454884
 20
360.1575259147
 11
457.4973464421
 21
360.4128450556
  0
LINE
  5
4D1
100
AcDbEntity
  8
0
100
AcDbLine
 62
7
  6
CONTINUOUS
 10
456.2473454884
 20
360.1575259147
 11
454.7473454884
 21
360.1575259147
  0
LINE
  5
4D2
100
AcDbEntity
  8
0
100
AcDbLine
 62
7
  6
CONTINUOUS
 10
435.7473464421
 20
360.1575259147
 11
434.2473464421
 21
360.1575259147
  0
LINE
  5
4D3
100
AcDbEntity
  8
0
100
AcDbLine
 62
7
  6
CONTINUOUS
 10
424.4973464421
 20
360.1575259147
 11
422.9973464421
 21
360.1575259147
  0
LINE
  5
4D4
100
AcDbEntity
  8
0
100
AcDbLine
 62
7
  6
CONTINUOUS
 10
455.9973464421
 20
361.434121686
 11
454.9973473958
 21
361.434121686
  0
LINE
  5
4D5
100
AcDbEntity
  8
0
100
AcDbLine
 62
7
  6
CONTINUOUS
 10
454.7473454884
 20
360.1575259147
 11
453.4973473958
 21
360.4128450556
  0
LINE
  5
4D6
100
AcDbEntity
  8
0
100
AcDbLine
 62
7
  6
CONTINUOUS
 10
474.8348763463
 20
349.6575259147
 11
475.5565647334
 21
349.4873131691
  0
LINE
  5
4D7
100
AcDbEntity
  8
0
100
AcDbLine
 62
7
  6
CONTINUOUS
 10
476.0565647334
 20
349.4873131691
 11
475.3348763463
 21
349.6575259147
  0
LINE
  5
4D8
100
AcDbEntity
  8
0
100
AcDbLine
 62
7
  6
CONTINUOUS
 10
475.6235520315
 20
345.9128450332
 11
476.0565647334
 21
345.7426322876
  0
LINE
  5
4D9
100
AcDbEntity
  8
0
100
AcDbLine
 62
7
  6
CONTINUOUS
 10
475.479213363
 20
348.8064621864
 11
475.9122260649
 21
348.6362494407
  0
LINE
  5
4DA
100
AcDbEntity
  8
0
100
AcDbLine
 62
7
  6
CONTINUOUS
 10
469.6387239236
 20
345.7426322876
 11
470.3604114848
 21
345.4022067962
  0
LINE
  5
4DB
100
AcDbEntity
  8
0
100
AcDbLine
 62
7
  6
CONTINUOUS
 10
470.8604114848
 20
345.4022067962
 11
470.1387239236
 21
345.7426322876
  0
LINE
  5
4DC
100
AcDbEntity
  8
0
100
AcDbLine
 62
7
  6
CONTINUOUS
 10
466.9632971678
 20
342.1681642113
 11
467.5406477123
 21
341.8277386753
  0
LINE
  5
4DD
100
AcDbEntity
  8
0
100
AcDbLine
 62
7
  6
CONTINUOUS
 10
466.751972853
 20
342.8490152536
 11
467.0406477123
 21
342.6788025079
  0
LINE
  5
4DE
100
AcDbEntity
  8
0
100
AcDbLine
 62
7
  6
CONTINUOUS
 10
467.5406477123
 20
342.6788025079
 11
467.251972853
 21
342.8490152536
  0
LINE
  5
4DF
100
AcDbEntity
  8
0
100
AcDbLine
 62
7
  6
CONTINUOUS
 10
466.5302844659
 20
342.5085897623
 11
466.9632971678
 21
342.1681642113
  0
LINE
  5
4E0
100
AcDbEntity
  8
0
100
AcDbLine
 62
7
  6
CONTINUOUS
 10
430.4973464421
 20
370.1149729667
 11
429.9973462037
 21
370.6256112037
  0
LINE
  5
4E1
100
AcDbEntity
  8
0
100
AcDbLine
 62
7
  6
CONTINUOUS
 10
431.9973464421
 20
370.1149729667
 11
431.2473464421
 21
371.1362494407
  0
LINE
  5
4E2
100
AcDbEntity
  8
0
100
AcDbLine
 62
7
  6
CONTINUOUS
 10
430.7473462037
 20
369.3490156112
 11
430.4973464421
 21
370.1149729667
  0
LINE
  5
4E3
100
AcDbEntity
  8
0
100
AcDbLine
 62
7
  6
CONTINUOUS
 10
432.2473462037
 20
369.3490156112
 11
431.9973464421
 21
370.1149729667
  0
LINE
  5
4E4
100
AcDbEntity
  8
0
100
AcDbLine
 62
7
  6
CONTINUOUS
 10
433.7989779615
 20
346.0724193631
 11
433.6726830719
 21
346.5192282377
  0
LINE
  5
4E5
100
AcDbEntity
  8
0
100
AcDbLine
 62
7
  6
CONTINUOUS
 10
434.2989779615
 20
346.0724193631
 11
434.1726830719
 21
346.5192282377
  0
LINE
  5
4E6
100
AcDbEntity
  8
0
100
AcDbLine
 62
7
  6
CONTINUOUS
 10
433.9252728511
 20
345.3277386008
 11
433.7989779615
 21
346.0724193631
  0
LINE
  5
4E7
100
AcDbEntity
  8
0
100
AcDbLine
 62
7
  6
CONTINUOUS
 10
434.4252728511
 20
345.3277386008
 11
434.2989779615
 21
346.0724193631
  0
LINE
  5
4E8
100
AcDbEntity
  8
0
100
AcDbLine
 62
7
  6
CONTINUOUS
 10
430.1364117095
 20
343.2426322578
 11
430.0101168199
 21
344.1362493811
  0
LINE
  5
4E9
100
AcDbEntity
  8
0
100
AcDbLine
 62
7
  6
CONTINUOUS
 10
430.6364117095
 20
343.2426322578
 11
430.5101168199
 21
344.1362493811
  0
LINE
  5
4EA
100
AcDbEntity
  8
0
100
AcDbLine
 62
7
  6
CONTINUOUS
 10
433.1675006228
 20
346.0724193631
 11
433.2937969577
 21
345.1788024483
  0
LINE
  5
4EB
100
AcDbEntity
  8
0
100
AcDbLine
 62
7
  6
CONTINUOUS
 10
428.8682774737
 20
345.1788024483
 11
428.7419811387
 21
346.2213555155
  0
LINE
  5
4EC
100
AcDbEntity
  8
0
100
AcDbLine
 62
7
  6
CONTINUOUS
 10
432.2473462037
 20
369.3490156112
 11
432.2473462037
 21
368.327738422
  0
LINE
  5
4ED
100
AcDbEntity
  8
0
100
AcDbLine
 62
7
  6
CONTINUOUS
 10
433.2937969577
 20
345.1788024483
 11
433.2937969577
 21
344.1362493811
  0
LINE
  5
4EE
100
AcDbEntity
  8
0
100
AcDbLine
 62
7
  6
CONTINUOUS
 10
433.9252728511
 20
343.9873132287
 11
433.9252728511
 21
345.3277386008
  0
LINE
  5
4EF
100
AcDbEntity
  8
0
100
AcDbLine
 62
7
  6
CONTINUOUS
 10
434.2473464421
 20
372.1575259147
 11
434.2473464421
 21
360.1575259147
  0
LINE
  5
4F0
100
AcDbEntity
  8
0
100
AcDbLine
 62
7
  6
CONTINUOUS
 10
434.4252728511
 20
343.9873132287
 11
434.4252728511
 21
345.3277386008
  0
LINE
  5
4F1
100
AcDbEntity
  8
0
100
AcDbLine
 62
7
  6
CONTINUOUS
 10
435.7473464421
 20
370.8809303222
 11
435.7473464421
 21
367.0511428295
  0
LINE
  5
4F2
100
AcDbEntity
  8
0
100
AcDbLine
 62
7
  6
CONTINUOUS
 10
435.7473464421
 20
365.5192281185
 11
435.7473464421
 21
360.1575259147
  0
LINE
  5
4F3
100
AcDbEntity
  8
0
100
AcDbLine
 62
7
  6
CONTINUOUS
 10
436.7473462037
 20
383.3490156112
 11
436.7473462037
 21
382.5830575405
  0
LINE
  5
4F4
100
AcDbEntity
  8
RUNDUNGEN
100
AcDbLine
 62
7
  6
CONTINUOUS
 10
436.9973464421
 20
438.636298716
 11
436.9973464421
 21
463.7566449687
  0
LINE
  5
4F5
100
AcDbEntity
  8
0
100
AcDbLine
 62
7
  6
CONTINUOUS
 10
437.6527910083
 20
338.6575259147
 11
437.6527910083
 21
350.6575259147
  0
LINE
  5
4F6
100
AcDbEntity
  8
0
100
AcDbLine
 62
7
  6
CONTINUOUS
 10
438.2473462037
 20
383.3490156112
 11
438.2473462037
 21
382.327738422
  0
LINE
  5
4F7
100
AcDbEntity
  8
0
100
AcDbLine
 62
7
  6
CONTINUOUS
 10
428.2419811387
 20
343.0936961053
 11
428.3682774737
 21
344.1362493811
  0
LINE
  5
4F8
100
AcDbEntity
  8
0
100
AcDbLine
 62
7
  6
CONTINUOUS
 10
428.7419811387
 20
343.0936961053
 11
428.8682774737
 21
344.1362493811
  0
LINE
  5
4F9
100
AcDbEntity
  8
0
100
AcDbLine
 62
7
  6
CONTINUOUS
 10
427.736800135
 20
344.1362493811
 11
427.6105052454
 21
343.2426322578
  0
LINE
  5
4FA
100
AcDbEntity
  8
0
100
AcDbLine
 62
7
  6
CONTINUOUS
 10
430.0101168199
 20
345.1788024483
 11
430.1364117095
 21
346.0724193631
  0
LINE
  5
4FB
100
AcDbEntity
  8
0
100
AcDbLine
 62
7
  6
CONTINUOUS
 10
430.5101168199
 20
345.1788024483
 11
430.6364117095
 21
346.0724193631
  0
LINE
  5
4FC
100
AcDbEntity
  8
0
100
AcDbLine
 62
7
  6
CONTINUOUS
 10
433.2937969577
 20
344.1362493811
 11
433.1675006228
 21
343.2426322578
  0
LINE
  5
4FD
100
AcDbEntity
  8
0
100
AcDbLine
 62
7
  6
CONTINUOUS
 10
429.5049358162
 20
346.0724193631
 11
429.3786394812
 21
345.3277386008
  0
LINE
  5
4FE
100
AcDbEntity
  8
0
100
AcDbLine
 62
7
  6
CONTINUOUS
 10
424.4531199972
 20
346.0724193631
 11
424.5794163321
 21
346.5192282377
  0
LINE
  5
4FF
100
AcDbEntity
  8
0
100
AcDbLine
 62
7
  6
CONTINUOUS
 10
424.9531199972
 20
346.0724193631
 11
425.0794163321
 21
346.5192282377
  0
LINE
  5
500
100
AcDbEntity
  8
0
100
AcDbLine
 62
7
  6
CONTINUOUS
 10
427.6105052454
 20
345.7745470582
 11
427.4842089104
 21
345.3277386008
  0
LINE
  5
501
100
AcDbEntity
  8
0
100
AcDbLine
 62
7
  6
CONTINUOUS
 10
427.6105052454
 20
343.2426322578
 11
427.4842089104
 21
342.7958238004
  0
LINE
  5
502
100
AcDbEntity
  8
0
100
AcDbLine
 62
7
  6
CONTINUOUS
 10
429.6312307058
 20
346.5192282377
 11
429.5049358162
 21
346.0724193631
  0
LINE
  5
503
100
AcDbEntity
  8
0
100
AcDbLine
 62
7
  6
CONTINUOUS
 10
430.7473462037
 20
368.5830575405
 11
430.4973464421
 21
367.817100185
  0
LINE
  5
504
100
AcDbEntity
  8
0
100
AcDbLine
 62
7
  6
CONTINUOUS
 10
436.7473462037
 20
382.5830575405
 11
436.4973464421
 21
381.817100185
  0
LINE
  5
505
100
AcDbEntity
  8
0
100
AcDbLine
 62
7
  6
CONTINUOUS
 10
432.2473462037
 20
368.327738422
 11
431.9973464421
 21
367.5617810665
  0
LINE
  5
506
100
AcDbEntity
  8
0
100
AcDbLine
 62
7
  6
CONTINUOUS
 10
438.2473462037
 20
382.327738422
 11
437.9973464421
 21
381.5617810665
  0
LINE
  5
507
100
AcDbEntity
  8
0
100
AcDbLine
 62
7
  6
CONTINUOUS
 10
424.074233883
 20
346.9660366951
 11
423.8216441038
 21
346.2213555155
  0
LINE
  5
508
100
AcDbEntity
  8
0
100
AcDbLine
 62
7
  6
CONTINUOUS
 10
414.9809675046
 20
342.9447599528
 11
414.7283770027
 21
342.4979514955
  0
LINE
  5
509
100
AcDbEntity
  8
0
100
AcDbLine
 62
7
  6
CONTINUOUS
 10
437.9973464421
 20
381.5617810665
 11
437.2473464421
 21
380.5405045925
  0
LINE
  5
50A
100
AcDbEntity
  8
0
100
AcDbLine
 62
7
  6
CONTINUOUS
 10
412.0761741133
 20
347.7107174574
 11
411.5709926127
 21
347.1149728475
  0
LINE
  5
50B
100
AcDbEntity
  8
0
100
AcDbLine
 62
7
  6
CONTINUOUS
 10
436.4973464421
 20
381.817100185
 11
435.9973462037
 21
381.306461948
  0
LINE
  5
50C
100
AcDbEntity
  8
0
100
AcDbLine
 62
7
  6
CONTINUOUS
 10
437.2473464421
 20
380.5405045925
 11
436.2473466805
 21
380.0298663555
  0
LINE
  5
50D
100
AcDbEntity
  8
0
100
AcDbLine
 62
7
  6
CONTINUOUS
 10
435.9973462037
 20
381.306461948
 11
435.2473462037
 21
381.0511428295
  0
LINE
  5
50E
100
AcDbEntity
  8
0
100
AcDbLine
 62
7
  6
CONTINUOUS
 10
454.9973473958
 20
365.774547237
 11
453.9973454884
 21
365.5192281185
  0
LINE
  5
50F
100
AcDbEntity
  8
0
100
AcDbLine
 62
7
  6
CONTINUOUS
 10
456.9973454884
 20
367.0511428295
 11
455.9973464421
 21
366.795823711
  0
LINE
  5
510
100
AcDbEntity
  8
0
100
AcDbLine
 62
7
  6
CONTINUOUS
 10
454.9973473958
 20
370.8809303222
 11
453.9973454884
 21
370.6256112037
  0
LINE
  5
511
100
AcDbEntity
  8
0
100
AcDbLine
 62
7
  6
CONTINUOUS
 10
441.4973459652
 20
365.774547237
 11
440.2473464421
 21
365.5192281185
  0
LINE
  5
512
100
AcDbEntity
  8
0
100
AcDbLine
 62
7
  6
CONTINUOUS
 10
430.2473466805
 20
365.774547237
 11
428.9973464421
 21
365.5192281185
  0
LINE
  5
513
100
AcDbEntity
  8
0
100
AcDbLine
 62
7
  6
CONTINUOUS
 10
454.9973473958
 20
372.1575259147
 11
453.7473464421
 21
371.9022067962
  0
LINE
  5
514
100
AcDbEntity
  8
0
100
AcDbLine
 62
7
  6
CONTINUOUS
 10
448.9973473958
 20
364.4979512869
 11
445.4973464421
 21
364.4979512869
  0
LINE
  5
515
100
AcDbEntity
  8
0
100
AcDbLine
 62
7
  6
CONTINUOUS
 10
440.2473464421
 20
365.5192281185
 11
435.7473464421
 21
365.5192281185
  0
LINE
  5
516
100
AcDbEntity
  8
0
100
AcDbLine
 62
7
  6
CONTINUOUS
 10
428.9973464421
 20
365.5192281185
 11
424.4973464421
 21
365.5192281185
  0
LINE
  5
517
100
AcDbEntity
  8
0
100
AcDbLine
 62
7
  6
CONTINUOUS
 10
455.9973464421
 20
365.774547237
 11
454.9973473958
 21
365.774547237
  0
LINE
  5
518
100
AcDbEntity
  8
0
100
AcDbLine
 62
7
  6
CONTINUOUS
 10
448.9973473958
 20
365.774547237
 11
445.4973464421
 21
365.774547237
  0
LINE
  5
519
100
AcDbEntity
  8
0
100
AcDbLine
 62
7
  6
CONTINUOUS
 10
455.9973464421
 20
366.795823711
 11
454.9973473958
 21
366.795823711
  0
LINE
  5
51A
100
AcDbEntity
  8
0
100
AcDbLine
 62
7
  6
CONTINUOUS
 10
440.4973469189
 20
367.0511428295
 11
435.7473464421
 21
367.0511428295
  0
LINE
  5
51B
100
AcDbEntity
  8
0
100
AcDbLine
 62
7
  6
CONTINUOUS
 10
429.2473462037
 20
367.0511428295
 11
424.4973464421
 21
367.0511428295
  0
LINE
  5
51C
100
AcDbEntity
  8
0
100
AcDbLine
 62
7
  6
CONTINUOUS
 10
467.9973464421
 20
367.306461948
 11
465.2473454884
 21
367.306461948
  0
LINE
  5
51D
100
AcDbEntity
  8
0
100
AcDbLine
 62
7
  6
CONTINUOUS
 10
463.9973473958
 20
367.306461948
 11
461.9973464421
 21
367.306461948
  0
LINE
  5
51E
100
AcDbEntity
  8
0
100
AcDbLine
 62
7
  6
CONTINUOUS
 10
467.9973464421
 20
368.327738422
 11
465.2473454884
 21
368.327738422
  0
LINE
  5
51F
100
AcDbEntity
  8
0
100
AcDbLine
 62
7
  6
CONTINUOUS
 10
463.9973473958
 20
368.327738422
 11
461.9973464421
 21
368.327738422
  0
LINE
  5
520
100
AcDbEntity
  8
0
100
AcDbLine
 62
7
  6
CONTINUOUS
 10
465.2473454884
 20
370.3702920852
 11
463.9973473958
 21
370.3702920852
  0
LINE
  5
521
100
AcDbEntity
  8
0
100
AcDbLine
 62
7
  6
CONTINUOUS
 10
467.4973454884
 20
360.1575259147
 11
465.9973454884
 21
360.4128450556
  0
LINE
  5
522
100
AcDbEntity
  8
0
100
AcDbLine
 62
7
  6
CONTINUOUS
 10
467.4973454884
 20
361.1788024781
 11
466.2473473958
 21
361.434121686
  0
LINE
  5
523
100
AcDbEntity
  8
0
100
AcDbLine
 62
7
  6
CONTINUOUS
 10
430.2473466805
 20
371.9022067962
 11
428.9973464421
 21
372.1575259147
  0
LINE
  5
524
100
AcDbEntity
  8
0
100
AcDbLine
 62
7
  6
CONTINUOUS
 10
454.9973473958
 20
361.434121686
 11
453.9973454884
 21
361.6894408045
  0
LINE
  5
525
100
AcDbEntity
  8
0
100
AcDbLine
 62
7
  6
CONTINUOUS
 10
456.9973454884
 20
365.5192281185
 11
455.9973464421
 21
365.774547237
  0
LINE
  5
526
100
AcDbEntity
  8
0
100
AcDbLine
 62
7
  6
CONTINUOUS
 10
454.9973473958
 20
366.795823711
 11
453.9973454884
 21
367.0511428295
  0
LINE
  5
527
100
AcDbEntity
  8
0
100
AcDbLine
 62
7
  6
CONTINUOUS
 10
429.9973462037
 20
370.6256112037
 11
429.2473462037
 21
370.8809303222
  0
LINE
  5
528
100
AcDbEntity
  8
0
100
AcDbLine
 62
7
  6
CONTINUOUS
 10
465.9973454884
 20
360.4128450556
 11
465.2473454884
 21
360.6681641964
  0
LINE
  5
529
100
AcDbEntity
  8
0
100
AcDbLine
 62
7
  6
CONTINUOUS
 10
441.2473469189
 20
370.6256112037
 11
440.4973469189
 21
370.8809303222
  0
LINE
  5
52A
100
AcDbEntity
  8
0
100
AcDbLine
 62
7
  6
CONTINUOUS
 10
453.9973454884
 20
361.6894408045
 11
452.9973464421
 21
362.2000790415
  0
LINE
  5
52B
100
AcDbEntity
  8
0
100
AcDbLine
 62
7
  6
CONTINUOUS
 10
469.3500490643
 20
349.4873131691
 11
469.9273987829
 21
349.1468876777
  0
LINE
  5
52C
100
AcDbEntity
  8
0
100
AcDbLine
 62
7
  6
CONTINUOUS
 10
470.4273987829
 20
349.1468876777
 11
469.8500490643
 21
349.4873131691
  0
LINE
  5
52D
100
AcDbEntity
  8
0
100
AcDbLine
 62
7
  6
CONTINUOUS
 10
453.4973473958
 20
360.4128450556
 11
452.2473464421
 21
361.1788024781
  0
LINE
  5
52E
100
AcDbEntity
  8
0
100
AcDbLine
 62
7
  6
CONTINUOUS
 10
473.3141498536
 20
342.338376957
 11
474.0358382407
 21
341.8277386753
  0
LINE
  5
52F
100
AcDbEntity
  8
0
100
AcDbLine
 62
7
  6
CONTINUOUS
 10
475.7009017501
 20
346.5936960159
 11
476.4225901372
 21
346.0830577789
  0
LINE
  5
530
100
AcDbEntity
  8
0
100
AcDbLine
 62
7
  6
CONTINUOUS
 10
476.9225901372
 20
346.0830577789
 11
476.2009017501
 21
346.5936960159
  0
LINE
  5
531
100
AcDbEntity
  8
0
100
AcDbLine
 62
7
  6
CONTINUOUS
 10
431.2473464421
 20
371.1362494407
 11
430.2473466805
 21
371.9022067962
  0
LINE
  5
532
100
AcDbEntity
  8
0
100
AcDbLine
 62
7
  6
CONTINUOUS
 10
469.8500490643
 20
345.2319940506
 11
470.2830617662
 21
344.8915685592
  0
LINE
  5
533
100
AcDbEntity
  8
0
100
AcDbLine
 62
7
  6
CONTINUOUS
 10
473.2471625555
 20
343.0192279993
 11
473.6801752574
 21
342.6788025079
  0
LINE
  5
534
100
AcDbEntity
  8
0
100
AcDbLine
 62
7
  6
CONTINUOUS
 10
474.1801752574
 20
342.6788025079
 11
473.7471625555
 21
343.0192279993
  0
LINE
  5
535
100
AcDbEntity
  8
0
100
AcDbLine
 62
7
  6
CONTINUOUS
 10
469.7057112217
 20
348.6362494407
 11
470.1387239236
 21
348.2958239494
  0
LINE
  5
536
100
AcDbEntity
  8
0
100
AcDbLine
 62
7
  6
CONTINUOUS
 10
441.7473464421
 20
370.1149729667
 11
441.2473469189
 21
370.6256112037
  0
LINE
  5
537
100
AcDbEntity
  8
0
100
AcDbLine
 62
7
  6
CONTINUOUS
 10
438.4973466805
 20
374.1575259147
 11
436.2473466805
 21
380.0298663555
  0
LINE
  5
538
100
AcDbEntity
  8
0
100
AcDbLine
 62
7
  6
CONTINUOUS
 10
436.7473462037
 20
374.1575259147
 11
434.7473463229
 21
379.5192281185
  0
LINE
  5
539
100
AcDbEntity
  8
0
100
AcDbLine
 62
7
  6
CONTINUOUS
 10
440.4973462037
 20
386.1575259147
 11
440.4973462037
 21
378.2426321684
  0
LINE
  5
53A
100
AcDbEntity
  8
KONSTRUKTIONSELEMENTE
100
AcDbLine
 62
7
  6
CONTINUOUS
 10
441.5998868205
 20
335.6575259147
 11
441.5998868205
 21
355.6575259147
  0
LINE
  5
53B
100
AcDbEntity
  8
0
100
AcDbLine
 62
7
  6
CONTINUOUS
 10
441.9973469189
 20
386.1575259147
 11
441.9973469189
 21
378.2426321684
  0
LINE
  5
53C
100
AcDbEntity
  8
0
100
AcDbLine
 62
7
  6
CONTINUOUS
 10
441.9973469189
 20
369.3490156112
 11
441.9973469189
 21
368.5830575405
  0
LINE
  5
53D
100
AcDbEntity
  8
0
100
AcDbLine
 62
7
  6
CONTINUOUS
 10
443.4973469189
 20
369.3490156112
 11
443.4973469189
 21
368.327738422
  0
LINE
  5
53E
100
AcDbEntity
  8
0
100
AcDbLine
 62
7
  6
CONTINUOUS
 10
445.4973464421
 20
365.774547237
 11
445.4973464421
 21
364.4979512869
  0
LINE
  5
53F
100
AcDbEntity
  8
0
100
AcDbLine
 62
7
  6
CONTINUOUS
 10
433.7989779615
 20
343.2426322578
 11
433.9252728511
 21
343.9873132287
  0
LINE
  5
540
100
AcDbEntity
  8
0
100
AcDbLine
 62
7
  6
CONTINUOUS
 10
434.2989779615
 20
343.2426322578
 11
434.4252728511
 21
343.9873132287
  0
LINE
  5
541
100
AcDbEntity
  8
0
100
AcDbLine
 62
7
  6
CONTINUOUS
 10
433.6726830719
 20
342.7958238004
 11
433.7989779615
 21
343.2426322578
  0
LINE
  5
542
100
AcDbEntity
  8
0
100
AcDbLine
 62
7
  6
CONTINUOUS
 10
434.1726830719
 20
342.7958238004
 11
434.2989779615
 21
343.2426322578
  0
LINE
  5
543
100
AcDbEntity
  8
0
100
AcDbLine
 62
7
  6
CONTINUOUS
 10
441.9973469189
 20
368.5830575405
 11
441.7473464421
 21
367.817100185
  0
LINE
  5
544
100
AcDbEntity
  8
0
100
AcDbLine
 62
7
  6
CONTINUOUS
 10
427.9893913595
 20
342.3490152387
 11
428.2419811387
 21
343.0936961053
  0
LINE
  5
545
100
AcDbEntity
  8
0
100
AcDbLine
 62
7
  6
CONTINUOUS
 10
428.4893913595
 20
342.3490152387
 11
428.7419811387
 21
343.0936961053
  0
LINE
  5
546
100
AcDbEntity
  8
0
100
AcDbLine
 62
7
  6
CONTINUOUS
 10
429.8838219303
 20
347.1149728475
 11
429.6312307058
 21
346.5192282377
  0
LINE
  5
547
100
AcDbEntity
  8
0
100
AcDbLine
 62
7
  6
CONTINUOUS
 10
424.5794163321
 20
346.5192282377
 11
424.8320061113
 21
346.9660366951
  0
LINE
  5
548
100
AcDbEntity
  8
0
100
AcDbLine
 62
7
  6
CONTINUOUS
 10
425.0794163321
 20
346.5192282377
 11
425.3320061113
 21
346.9660366951
  0
LINE
  5
549
100
AcDbEntity
  8
0
100
AcDbLine
 62
7
  6
CONTINUOUS
 10
427.4842089104
 20
345.3277386008
 11
427.2316191312
 21
344.8809301434
  0
LINE
  5
54A
100
AcDbEntity
  8
0
100
AcDbLine
 62
7
  6
CONTINUOUS
 10
424.4531199972
 20
347.5617813049
 11
424.074233883
 21
346.9660366951
  0
LINE
  5
54B
100
AcDbEntity
  8
0
100
AcDbLine
 62
7
  6
CONTINUOUS
 10
431.9973464421
 20
367.5617810665
 11
431.2473464421
 21
366.5405045925
  0
LINE
  5
54C
100
AcDbEntity
  8
0
100
AcDbLine
 62
7
  6
CONTINUOUS
 10
414.9809675046
 20
341.6043344243
 11
415.4861492311
 21
342.2000790862
  0
LINE
  5
54D
100
AcDbEntity
  8
0
100
AcDbLine
 62
7
  6
CONTINUOUS
 10
415.4809675046
 20
341.6043344243
 11
415.9861492311
 21
342.2000790862
  0
LINE
  5
54E
100
AcDbEntity
  8
0
100
AcDbLine
 62
7
  6
CONTINUOUS
 10
430.4973464421
 20
367.817100185
 11
429.9973462037
 21
367.306461948
  0
LINE
  5
54F
100
AcDbEntity
  8
0
100
AcDbLine
 62
7
  6
CONTINUOUS
 10
431.2473464421
 20
366.5405045925
 11
430.2473466805
 21
365.774547237
  0
LINE
  5
550
100
AcDbEntity
  8
0
100
AcDbLine
 62
7
  6
CONTINUOUS
 10
458.4973454884
 20
375.944759923
 11
457.4973464421
 21
375.6894408045
  0
LINE
  5
551
100
AcDbEntity
  8
0
100
AcDbLine
 62
7
  6
CONTINUOUS
 10
446.4973469189
 20
375.944759923
 11
445.4973464421
 21
375.6894408045
  0
LINE
  5
552
100
AcDbEntity
  8
0
100
AcDbLine
 62
7
  6
CONTINUOUS
 10
458.7473473958
 20
374.4128450556
 11
457.4973464421
 21
374.1575259147
  0
LINE
  5
553
100
AcDbEntity
  8
0
100
AcDbLine
 62
7
  6
CONTINUOUS
 10
446.7473459652
 20
374.4128450556
 11
445.4973464421
 21
374.1575259147
  0
LINE
  5
554
100
AcDbEntity
  8
0
100
AcDbLine
 62
7
  6
CONTINUOUS
 10
455.9973464421
 20
370.8809303222
 11
454.9973473958
 21
370.8809303222
  0
LINE
  5
555
100
AcDbEntity
  8
0
100
AcDbLine
 62
7
  6
CONTINUOUS
 10
440.4973469189
 20
370.8809303222
 11
435.7473464421
 21
370.8809303222
  0
LINE
  5
556
100
AcDbEntity
  8
0
100
AcDbLine
 62
7
  6
CONTINUOUS
 10
429.2473462037
 20
370.8809303222
 11
424.4973464421
 21
370.8809303222
  0
LINE
  5
557
100
AcDbEntity
  8
0
100
AcDbLine
 62
7
  6
CONTINUOUS
 10
455.9973464421
 20
372.1575259147
 11
454.9973473958
 21
372.1575259147
  0
LINE
  5
558
100
AcDbEntity
  8
0
100
AcDbLine
 62
7
  6
CONTINUOUS
 10
440.2473464421
 20
372.1575259147
 11
434.2473464421
 21
372.1575259147
  0
LINE
  5
559
100
AcDbEntity
  8
0
100
AcDbLine
 62
7
  6
CONTINUOUS
 10
428.9973464421
 20
372.1575259147
 11
422.9973464421
 21
372.1575259147
  0
LINE
  5
55A
100
AcDbEntity
  8
0
100
AcDbLine
 62
7
  6
CONTINUOUS
 10
457.4973464421
 20
374.1575259147
 11
451.4973464421
 21
374.1575259147
  0
LINE
  5
55B
100
AcDbEntity
  8
0
100
AcDbLine
 62
7
  6
CONTINUOUS
 10
445.4973464421
 20
374.1575259147
 11
444.4973459652
 21
374.1575259147
  0
LINE
  5
55C
100
AcDbEntity
  8
0
100
AcDbLine
 62
7
  6
CONTINUOUS
 10
438.4973466805
 20
374.1575259147
 11
436.7473462037
 21
374.1575259147
  0
LINE
  5
55D
100
AcDbEntity
  8
0
100
AcDbLine
 62
7
  6
CONTINUOUS
 10
430.4973464421
 20
374.1575259147
 11
428.9973464421
 21
374.1575259147
  0
LINE
  5
55E
100
AcDbEntity
  8
0
100
AcDbLine
 62
7
  6
CONTINUOUS
 10
457.4973464421
 20
375.6894408045
 11
452.9973464421
 21
375.6894408045
  0
LINE
  5
55F
100
AcDbEntity
  8
0
100
AcDbLine
 62
7
  6
CONTINUOUS
 10
445.4973464421
 20
375.6894408045
 11
444.4973459652
 21
375.6894408045
  0
LINE
  5
560
100
AcDbEntity
  8
0
100
AcDbLine
 62
7
  6
CONTINUOUS
 10
441.4973459652
 20
371.9022067962
 11
440.2473464421
 21
372.1575259147
  0
LINE
  5
561
100
AcDbEntity
  8
0
100
AcDbLine
 62
7
  6
CONTINUOUS
 10
444.4973459652
 20
374.1575259147
 11
443.2473464421
 21
374.4128450556
  0
LINE
  5
562
100
AcDbEntity
  8
0
100
AcDbLine
 62
7
  6
CONTINUOUS
 10
457.2473473958
 20
371.9022067962
 11
455.9973464421
 21
372.1575259147
  0
LINE
  5
563
100
AcDbEntity
  8
0
100
AcDbLine
 62
7
  6
CONTINUOUS
 10
456.9973454884
 20
370.6256112037
 11
455.9973464421
 21
370.8809303222
  0
LINE
  5
564
100
AcDbEntity
  8
0
100
AcDbLine
 62
7
  6
CONTINUOUS
 10
444.4973459652
 20
375.6894408045
 11
443.4973469189
 21
375.944759923
  0
LINE
  5
565
100
AcDbEntity
  8
0
100
AcDbLine
 62
7
  6
CONTINUOUS
 10
452.9973464421
 20
366.285185474
 11
452.4973454884
 21
366.5405045925
  0
LINE
  5
566
100
AcDbEntity
  8
0
100
AcDbLine
 62
7
  6
CONTINUOUS
 10
457.9973473958
 20
365.0085898815
 11
456.9973454884
 21
365.5192281185
  0
LINE
  5
567
100
AcDbEntity
  8
0
100
AcDbLine
 62
7
  6
CONTINUOUS
 10
458.4973454884
 20
366.0298663555
 11
457.9973473958
 21
366.285185474
  0
LINE
  5
568
100
AcDbEntity
  8
0
100
AcDbLine
 62
7
  6
CONTINUOUS
 10
443.2473464421
 20
374.4128450556
 11
442.2473459652
 21
374.9234833596
  0
LINE
  5
569
100
AcDbEntity
  8
0
100
AcDbLine
 62
7
  6
CONTINUOUS
 10
465.2473454884
 20
360.6681641964
 11
464.4973454884
 21
361.1788024781
  0
LINE
  5
56A
100
AcDbEntity
  8
0
100
AcDbLine
 62
7
  6
CONTINUOUS
 10
443.4973469189
 20
375.944759923
 11
442.7473469189
 21
376.4553983389
  0
LINE
  5
56B
100
AcDbEntity
  8
0
100
AcDbLine
 62
7
  6
CONTINUOUS
 10
466.2473473958
 20
361.434121686
 11
465.4973473958
 21
361.944759923
  0
LINE
  5
56C
100
AcDbEntity
  8
0
100
AcDbLine
 62
7
  6
CONTINUOUS
 10
475.5565647334
 20
349.4873131691
 11
476.2782514687
 21
348.9766749321
  0
LINE
  5
56D
100
AcDbEntity
  8
0
100
AcDbLine
 62
7
  6
CONTINUOUS
 10
476.7782514687
 20
348.9766749321
 11
476.0565647334
 21
349.4873131691
  0
LINE
  5
56E
100
AcDbEntity
  8
0
100
AcDbLine
 62
7
  6
CONTINUOUS
 10
442.4973464421
 20
371.1362494407
 11
441.4973459652
 21
371.9022067962
  0
LINE
  5
56F
100
AcDbEntity
  8
0
100
AcDbLine
 62
7
  6
CONTINUOUS
 10
453.9973454884
 20
367.0511428295
 11
452.9973464421
 21
367.817100185
  0
LINE
  5
570
100
AcDbEntity
  8
0
100
AcDbLine
 62
7
  6
CONTINUOUS
 10
459.4973473958
 20
365.263909
 11
458.4973454884
 21
366.0298663555
  0
LINE
  5
571
100
AcDbEntity
  8
0
100
AcDbLine
 62
7
  6
CONTINUOUS
 10
476.0565647334
 20
345.7426322876
 11
476.4895774353
 21
345.4022067962
  0
LINE
  5
572
100
AcDbEntity
  8
0
100
AcDbLine
 62
7
  6
CONTINUOUS
 10
475.9122260649
 20
348.6362494407
 11
476.3452387668
 21
348.2958239494
  0
LINE
  5
573
100
AcDbEntity
  8
0
100
AcDbLine
 62
7
  6
CONTINUOUS
 10
452.2473464421
 20
361.1788024781
 11
451.4973464421
 21
361.944759923
  0
LINE
  5
574
100
AcDbEntity
  8
0
100
AcDbLine
 62
7
  6
CONTINUOUS
 10
442.2473459652
 20
374.9234833596
 11
441.2473469189
 21
375.944759923
  0
LINE
  5
575
100
AcDbEntity
  8
0
100
AcDbLine
 62
7
  6
CONTINUOUS
 10
452.4973454884
 20
366.5405045925
 11
451.7473454884
 21
367.306461948
  0
LINE
  5
576
100
AcDbEntity
  8
0
100
AcDbLine
 62
7
  6
CONTINUOUS
 10
436.4973464421
 20
384.1149729667
 11
435.9973462037
 21
384.6256112037
  0
LINE
  5
577
100
AcDbEntity
  8
0
100
AcDbLine
 62
7
  6
CONTINUOUS
 10
466.4632971678
 20
343.1894408641
 11
466.751972853
 21
342.8490152536
  0
LINE
  5
578
100
AcDbEntity
  8
0
100
AcDbLine
 62
7
  6
CONTINUOUS
 10
467.251972853
 20
342.8490152536
 11
466.9632971678
 21
343.1894408641
  0
LINE
  5
579
100
AcDbEntity
  8
0
100
AcDbLine
 62
7
  6
CONTINUOUS
 10
443.2473464421
 20
370.1149729667
 11
442.4973464421
 21
371.1362494407
  0
LINE
  5
57A
100
AcDbEntity
  8
0
100
AcDbLine
 62
7
  6
CONTINUOUS
 10
452.9973464421
 20
362.2000790415
 11
452.2473464421
 21
363.2213556944
  0
LINE
  5
57B
100
AcDbEntity
  8
0
100
AcDbLine
 62
7
  6
CONTINUOUS
 10
437.9973464421
 20
384.1149729667
 11
437.2473464421
 21
385.1362494407
  0
LINE
  5
57C
100
AcDbEntity
  8
0
100
AcDbLine
 62
7
  6
CONTINUOUS
 10
442.7473469189
 20
376.4553983389
 11
442.2473459652
 21
377.2213556944
  0
LINE
  5
57D
100
AcDbEntity
  8
0
100
AcDbLine
 62
7
  6
CONTINUOUS
 10
441.2473469189
 20
375.944759923
 11
440.7473466805
 21
376.9660365759
  0
LINE
  5
57E
100
AcDbEntity
  8
0
100
AcDbLine
 62
7
  6
CONTINUOUS
 10
451.4973464421
 20
361.944759923
 11
450.9973454884
 21
363.2213556944
  0
LINE
  5
57F
100
AcDbEntity
  8
0
100
AcDbLine
 62
7
  6
CONTINUOUS
 10
436.7473462037
 20
383.3490156112
 11
436.4973464421
 21
384.1149729667
  0
LINE
  5
580
100
AcDbEntity
  8
0
100
AcDbLine
 62
7
  6
CONTINUOUS
 10
441.9973469189
 20
369.3490156112
 11
441.7473464421
 21
370.1149729667
  0
LINE
  5
581
100
AcDbEntity
  8
0
100
AcDbLine
 62
7
  6
CONTINUOUS
 10
438.2473462037
 20
383.3490156112
 11
437.9973464421
 21
384.1149729667
  0
LINE
  5
582
100
AcDbEntity
  8
0
100
AcDbLine
 62
7
  6
CONTINUOUS
 10
443.4973469189
 20
369.3490156112
 11
443.2473464421
 21
370.1149729667
  0
LINE
  5
583
100
AcDbEntity
  8
0
100
AcDbLine
 62
7
  6
CONTINUOUS
 10
442.2473459652
 20
377.2213556944
 11
441.9973469189
 21
378.2426321684
  0
LINE
  5
584
100
AcDbEntity
  8
0
100
AcDbLine
 62
7
  6
CONTINUOUS
 10
440.7473466805
 20
376.9660365759
 11
440.4973462037
 21
378.2426321684
  0
LINE
  5
585
100
AcDbEntity
  8
0
100
AcDbLine
 62
7
  6
CONTINUOUS
 10
447.9973469189
 20
386.1575259147
 11
447.9973469189
 21
378.2426321684
  0
LINE
  5
586
100
AcDbEntity
  8
KONSTRUKTIONSELEMENTE
100
AcDbLine
 62
7
  6
CONTINUOUS
 10
448.3948060636
 20
335.6575259147
 11
448.3948060636
 21
355.6575259147
  0
LINE
  5
587
100
AcDbEntity
  8
0
100
AcDbLine
 62
7
  6
CONTINUOUS
 10
448.9973473958
 20
365.774547237
 11
448.9973473958
 21
364.4979512869
  0
LINE
  5
588
100
AcDbEntity
  8
0
100
AcDbLine
 62
7
  6
CONTINUOUS
 10
449.4973469189
 20
386.1575259147
 11
449.4973469189
 21
378.2426321684
  0
LINE
  5
589
100
AcDbEntity
  8
0
100
AcDbLine
 62
7
  6
CONTINUOUS
 10
450.9973454884
 20
363.2213556944
 11
450.9973454884
 21
363.9873130499
  0
LINE
  5
58A
100
AcDbEntity
  8
0
100
AcDbLine
 62
7
  6
CONTINUOUS
 10
451.2473473958
 20
369.0936957775
 11
451.2473473958
 21
368.327738422
  0
LINE
  5
58B
100
AcDbEntity
  8
0
100
AcDbLine
 62
7
  6
CONTINUOUS
 10
451.4973464421
 20
386.1575259147
 11
451.4973464421
 21
374.1575259147
  0
LINE
  5
58C
100
AcDbEntity
  8
0
100
AcDbLine
 62
7
  6
CONTINUOUS
 10
452.2473464421
 20
363.9873130499
 11
452.2473464421
 21
363.2213556944
  0
LINE
  5
58D
100
AcDbEntity
  8
0
100
AcDbLine
 62
7
  6
CONTINUOUS
 10
452.4973454884
 20
369.0936957775
 11
452.4973454884
 21
368.5830575405
  0
LINE
  5
58E
100
AcDbEntity
  8
0
100
AcDbLine
 62
7
  6
CONTINUOUS
 10
449.4973469189
 20
378.2426321684
 11
449.2473464421
 21
376.9660365759
  0
LINE
  5
58F
100
AcDbEntity
  8
0
100
AcDbLine
 62
7
  6
CONTINUOUS
 10
447.9973469189
 20
378.2426321684
 11
447.7473464421
 21
377.2213556944
  0
LINE
  5
590
100
AcDbEntity
  8
0
100
AcDbLine
 62
7
  6
CONTINUOUS
 10
443.4973469189
 20
368.327738422
 11
443.2473464421
 21
367.5617810665
  0
LINE
  5
591
100
AcDbEntity
  8
0
100
AcDbLine
 62
7
  6
CONTINUOUS
 10
433.4200918473
 20
342.2000790862
 11
433.6726830719
 21
342.7958238004
  0
LINE
  5
592
100
AcDbEntity
  8
0
100
AcDbLine
 62
7
  6
CONTINUOUS
 10
433.9200918473
 20
342.2000790862
 11
434.1726830719
 21
342.7958238004
  0
LINE
  5
593
100
AcDbEntity
  8
0
100
AcDbLine
 62
7
  6
CONTINUOUS
 10
449.2473464421
 20
376.9660365759
 11
448.7473469189
 21
375.944759923
  0
LINE
  5
594
100
AcDbEntity
  8
0
100
AcDbLine
 62
7
  6
CONTINUOUS
 10
427.4842089104
 20
342.7958238004
 11
427.2316191312
 21
342.3490152387
  0
LINE
  5
595
100
AcDbEntity
  8
0
100
AcDbLine
 62
7
  6
CONTINUOUS
 10
430.1364117095
 20
346.0724193631
 11
430.6415941586
 21
346.9660366951
  0
LINE
  5
596
100
AcDbEntity
  8
0
100
AcDbLine
 62
7
  6
CONTINUOUS
 10
430.6364117095
 20
346.0724193631
 11
431.1415941586
 21
346.9660366951
  0
LINE
  5
597
100
AcDbEntity
  8
0
100
AcDbLine
 62
7
  6
CONTINUOUS
 10
433.1675006228
 20
343.2426322578
 11
432.662319619
 21
342.3490152387
  0
LINE
  5
598
100
AcDbEntity
  8
0
100
AcDbLine
 62
7
  6
CONTINUOUS
 10
427.6105052454
 20
341.7532705767
 11
427.9893913595
 21
342.3490152387
  0
LINE
  5
599
100
AcDbEntity
  8
0
100
AcDbLine
 62
7
  6
CONTINUOUS
 10
428.1105052454
 20
341.7532705767
 11
428.4893913595
 21
342.3490152387
  0
LINE
  5
59A
100
AcDbEntity
  8
0
100
AcDbLine
 62
7
  6
CONTINUOUS
 10
447.7473464421
 20
377.2213556944
 11
447.2473469189
 21
376.4553983389
  0
LINE
  5
59B
100
AcDbEntity
  8
0
100
AcDbLine
 62
7
  6
CONTINUOUS
 10
443.2473464421
 20
367.5617810665
 11
442.4973464421
 21
366.5405045925
  0
LINE
  5
59C
100
AcDbEntity
  8
0
100
AcDbLine
 62
7
  6
CONTINUOUS
 10
430.2627080445
 20
347.5617813049
 11
429.8838219303
 21
347.1149728475
  0
LINE
  5
59D
100
AcDbEntity
  8
0
100
AcDbLine
 62
7
  6
CONTINUOUS
 10
448.7473469189
 20
375.944759923
 11
447.7473464421
 21
374.9234833596
  0
LINE
  5
59E
100
AcDbEntity
  8
0
100
AcDbLine
 62
7
  6
CONTINUOUS
 10
441.7473464421
 20
367.817100185
 11
441.2473469189
 21
367.306461948
  0
LINE
  5
59F
100
AcDbEntity
  8
0
100
AcDbLine
 62
7
  6
CONTINUOUS
 10
412.3287647959
 20
346.8171005426
 11
412.7076510004
 21
347.1149728475
  0
LINE
  5
5A0
100
AcDbEntity
  8
0
100
AcDbLine
 62
7
  6
CONTINUOUS
 10
412.8287647959
 20
346.8171005426
 11
413.2076510004
 21
347.1149728475
  0
LINE
  5
5A1
100
AcDbEntity
  8
0
100
AcDbLine
 62
7
  6
CONTINUOUS
 10
442.4973464421
 20
366.5405045925
 11
441.4973459652
 21
365.774547237
  0
LINE
  5
5A2
100
AcDbEntity
  8
0
100
AcDbLine
 62
7
  6
CONTINUOUS
 10
447.2473469189
 20
376.4553983389
 11
446.4973469189
 21
375.944759923
  0
LINE
  5
5A3
100
AcDbEntity
  8
0
100
AcDbLine
 62
7
  6
CONTINUOUS
 10
447.7473464421
 20
374.9234833596
 11
446.7473459652
 21
374.4128450556
  0
LINE
  5
5A4
100
AcDbEntity
  8
0
100
AcDbLine
 62
7
  6
CONTINUOUS
 10
429.9973462037
 20
367.306461948
 11
429.2473462037
 21
367.0511428295
  0
LINE
  5
5A5
100
AcDbEntity
  8
0
100
AcDbLine
 62
7
  6
CONTINUOUS
 10
441.2473469189
 20
367.306461948
 11
440.4973469189
 21
367.0511428295
  0
LINE
  5
5A6
100
AcDbEntity
  8
0
100
AcDbLine
 62
7
  6
CONTINUOUS
 10
434.7473463229
 20
379.5192281185
 11
430.4973464421
 21
379.5192281185
  0
LINE
  5
5A7
100
AcDbEntity
  8
0
100
AcDbLine
 62
7
  6
CONTINUOUS
 10
435.2473462037
 20
381.0511428295
 11
430.4973464421
 21
381.0511428295
  0
LINE
  5
5A8
100
AcDbEntity
  8
0
100
AcDbLine
 62
7
  6
CONTINUOUS
 10
436.2473466805
 20
385.9022067962
 11
434.9973464421
 21
386.1575259147
  0
LINE
  5
5A9
100
AcDbEntity
  8
0
100
AcDbLine
 62
7
  6
CONTINUOUS
 10
435.9973462037
 20
384.6256112037
 11
435.2473462037
 21
384.8809303222
  0
LINE
  5
5AA
100
AcDbEntity
  8
0
100
AcDbLine
 62
7
  6
CONTINUOUS
 10
458.4973454884
 20
371.1362494407
 11
457.2473473958
 21
371.9022067962
  0
LINE
  5
5AB
100
AcDbEntity
  8
0
100
AcDbLine
 62
7
  6
CONTINUOUS
 10
437.2473464421
 20
385.1362494407
 11
436.2473466805
 21
385.9022067962
  0
LINE
  5
5AC
100
AcDbEntity
  8
0
100
AcDbLine
 62
7
  6
CONTINUOUS
 10
457.9973473958
 20
369.8596538482
 11
456.9973454884
 21
370.6256112037
  0
LINE
  5
5AD
100
AcDbEntity
  8
0
100
AcDbLine
 62
7
  6
CONTINUOUS
 10
459.2473454884
 20
370.3702920852
 11
458.4973454884
 21
371.1362494407
  0
LINE
  5
5AE
100
AcDbEntity
  8
0
100
AcDbLine
 62
7
  6
CONTINUOUS
 10
469.9273987829
 20
349.1468876777
 11
470.5047493274
 21
348.4660366951
  0
LINE
  5
5AF
100
AcDbEntity
  8
0
100
AcDbLine
 62
7
  6
CONTINUOUS
 10
471.0047493274
 20
348.4660366951
 11
470.4273987829
 21
349.1468876777
  0
LINE
  5
5B0
100
AcDbEntity
  8
0
100
AcDbLine
 62
7
  6
CONTINUOUS
 10
476.4225901372
 20
346.0830577789
 11
476.8556028391
 21
345.5724195419
  0
LINE
  5
5B1
100
AcDbEntity
  8
0
100
AcDbLine
 62
7
  6
CONTINUOUS
 10
477.3556028391
 20
345.5724195419
 11
476.9225901372
 21
346.0830577789
  0
LINE
  5
5B2
100
AcDbEntity
  8
0
100
AcDbLine
 62
7
  6
CONTINUOUS
 10
476.4895774353
 20
345.4022067962
 11
476.7782514687
 21
345.0617813049
  0
LINE
  5
5B3
100
AcDbEntity
  8
0
100
AcDbLine
 62
7
  6
CONTINUOUS
 10
458.7473473958
 20
363.9873130499
 11
457.9973473958
 21
365.0085898815
  0
LINE
  5
5B4
100
AcDbEntity
  8
0
100
AcDbLine
 62
7
  6
CONTINUOUS
 10
452.9973464421
 20
367.817100185
 11
452.4973454884
 21
368.5830575405
  0
LINE
  5
5B5
100
AcDbEntity
  8
0
100
AcDbLine
 62
7
  6
CONTINUOUS
 10
458.4973454884
 20
369.0936957775
 11
457.9973473958
 21
369.8596538482
  0
LINE
  5
5B6
100
AcDbEntity
  8
0
100
AcDbLine
 62
7
  6
CONTINUOUS
 10
472.8811371517
 20
343.0192279993
 11
473.3141498536
 21
342.338376957
  0
LINE
  5
5B7
100
AcDbEntity
  8
0
100
AcDbLine
 62
7
  6
CONTINUOUS
 10
466.2416096066
 20
343.0192279993
 11
466.5302844659
 21
342.5085897623
  0
LINE
  5
5B8
100
AcDbEntity
  8
0
100
AcDbLine
 62
7
  6
CONTINUOUS
 10
470.3604114848
 20
345.4022067962
 11
470.64908717
 21
344.8915685592
  0
LINE
  5
5B9
100
AcDbEntity
  8
0
100
AcDbLine
 62
7
  6
CONTINUOUS
 10
471.14908717
 20
344.8915685592
 11
470.8604114848
 21
345.4022067962
  0
LINE
  5
5BA
100
AcDbEntity
  8
0
100
AcDbLine
 62
7
  6
CONTINUOUS
 10
470.1387239236
 20
348.2958239494
 11
470.4273987829
 21
347.7851857124
  0
LINE
  5
5BB
100
AcDbEntity
  8
0
100
AcDbLine
 62
7
  6
CONTINUOUS
 10
451.7473454884
 20
367.306461948
 11
451.2473473958
 21
368.327738422
  0
LINE
  5
5BC
100
AcDbEntity
  8
0
100
AcDbLine
 62
7
  6
CONTINUOUS
 10
466.3189601511
 20
343.5298663555
 11
466.4632971678
 21
343.1894408641
  0
LINE
  5
5BD
100
AcDbEntity
  8
0
100
AcDbLine
 62
7
  6
CONTINUOUS
 10
466.9632971678
 20
343.1894408641
 11
466.8189601511
 21
343.5298663555
  0
LINE
  5
5BE
100
AcDbEntity
  8
0
100
AcDbLine
 62
7
  6
CONTINUOUS
 10
458.8803936744
 20
347.9553984581
 11
460.9011195478
 21
341.6575259147
  0
LINE
  5
5BF
100
AcDbEntity
  8
0
100
AcDbLine
 62
7
  6
CONTINUOUS
 10
458.8134063763
 20
349.6575259147
 11
460.9784698858
 21
342.5085897623
  0
LINE
  5
5C0
100
AcDbEntity
  8
0
100
AcDbLine
 62
7
  6
CONTINUOUS
 10
461.4784698858
 20
342.5085897623
 11
459.3134063763
 21
349.6575259147
  0
LINE
  5
5C1
100
AcDbEntity
  8
0
100
AcDbLine
 62
7
  6
CONTINUOUS
 10
452.9973464421
 20
384.6256112037
 11
452.9973464421
 21
375.6894408045
  0
LINE
  5
5C2
100
AcDbEntity
  8
RUNDUNGEN
100
AcDbLine
 62
7
  6
CONTINUOUS
 10
452.9973464421
 20
438.636298716
 11
452.9973464421
 21
463.7566456482
  0
LINE
  5
5C3
100
AcDbEntity
  8
0
100
AcDbLine
 62
7
  6
CONTINUOUS
 10
458.0143682706
 20
349.6575259147
 11
458.0143682706
 21
341.6575259147
  0
LINE
  5
5C4
100
AcDbEntity
  8
0
100
AcDbLine
 62
7
  6
CONTINUOUS
 10
458.3803936744
 20
347.9553984581
 11
458.3803936744
 21
341.6575259147
  0
LINE
  5
5C5
100
AcDbEntity
  8
0
100
AcDbLine
 62
7
  6
CONTINUOUS
 10
458.4973454884
 20
369.0936957775
 11
458.4973454884
 21
368.5830575405
  0
LINE
  5
5C6
100
AcDbEntity
  8
0
100
AcDbLine
 62
7
  6
CONTINUOUS
 10
458.7473473958
 20
363.9873130499
 11
458.7473473958
 21
363.2213556944
  0
LINE
  5
5C7
100
AcDbEntity
  8
0
100
AcDbLine
 62
7
  6
CONTINUOUS
 10
458.8803936744
 20
341.6575259147
 11
458.8803936744
 21
347.9553984581
  0
LINE
  5
5C8
100
AcDbEntity
  8
0
100
AcDbLine
 62
7
  6
CONTINUOUS
 10
459.7473464421
 20
369.0936957775
 11
459.7473464421
 21
368.327738422
  0
LINE
  5
5C9
100
AcDbEntity
  8
0
100
AcDbLine
 62
7
  6
CONTINUOUS
 10
459.9973454884
 20
378.2426321684
 11
459.7473464421
 21
377.2213556944
  0
LINE
  5
5CA
100
AcDbEntity
  8
0
100
AcDbLine
 62
7
  6
CONTINUOUS
 10
451.7473454884
 20
370.3702920852
 11
451.2473473958
 21
369.0936957775
  0
LINE
  5
5CB
100
AcDbEntity
  8
0
100
AcDbLine
 62
7
  6
CONTINUOUS
 10
450.9973454884
 20
363.9873130499
 11
451.4973464421
 21
365.263909
  0
LINE
  5
5CC
100
AcDbEntity
  8
0
100
AcDbLine
 62
7
  6
CONTINUOUS
 10
461.2473464421
 20
376.9660365759
 11
460.7473454884
 21
375.944759923
  0
LINE
  5
5CD
100
AcDbEntity
  8
0
100
AcDbLine
 62
7
  6
CONTINUOUS
 10
452.9973464421
 20
369.8596538482
 11
452.4973454884
 21
369.0936957775
  0
LINE
  5
5CE
100
AcDbEntity
  8
0
100
AcDbLine
 62
7
  6
CONTINUOUS
 10
459.7473464421
 20
377.2213556944
 11
459.2473454884
 21
376.4553983389
  0
LINE
  5
5CF
100
AcDbEntity
  8
0
100
AcDbLine
 62
7
  6
CONTINUOUS
 10
452.9973464421
 20
365.0085898815
 11
452.2473464421
 21
363.9873130499
  0
LINE
  5
5D0
100
AcDbEntity
  8
0
100
AcDbLine
 62
7
  6
CONTINUOUS
 10
433.0412057332
 20
341.7532705767
 11
433.4200918473
 21
342.2000790862
  0
LINE
  5
5D1
100
AcDbEntity
  8
0
100
AcDbLine
 62
7
  6
CONTINUOUS
 10
433.5412057332
 20
341.7532705767
 11
433.9200918473
 21
342.2000790862
  0
LINE
  5
5D2
100
AcDbEntity
  8
0
100
AcDbLine
 62
7
  6
CONTINUOUS
 10
452.4973454884
 20
371.1362494407
 11
451.7473454884
 21
370.3702920852
  0
LINE
  5
5D3
100
AcDbEntity
  8
0
100
AcDbLine
 62
7
  6
CONTINUOUS
 10
460.7473454884
 20
375.944759923
 11
459.7473464421
 21
374.9234833596
  0
LINE
  5
5D4
100
AcDbEntity
  8
0
100
AcDbLine
 62
7
  6
CONTINUOUS
 10
414.7283770027
 20
342.4979514955
 11
414.3494908886
 21
342.2000790862
  0
LINE
  5
5D5
100
AcDbEntity
  8
0
100
AcDbLine
 62
7
  6
CONTINUOUS
 10
424.8320061113
 20
346.9660366951
 11
425.2108922255
 21
347.263909
  0
LINE
  5
5D6
100
AcDbEntity
  8
0
100
AcDbLine
 62
7
  6
CONTINUOUS
 10
425.3320061113
 20
346.9660366951
 11
425.7108922255
 21
347.263909
  0
LINE
  5
5D7
100
AcDbEntity
  8
0
100
AcDbLine
 62
7
  6
CONTINUOUS
 10
427.2316191312
 20
344.8809301434
 11
426.8527330171
 21
344.5830578385
  0
LINE
  5
5D8
100
AcDbEntity
  8
0
100
AcDbLine
 62
7
  6
CONTINUOUS
 10
430.6415941586
 20
346.9660366951
 11
431.0204802728
 21
347.263909
  0
LINE
  5
5D9
100
AcDbEntity
  8
0
100
AcDbLine
 62
7
  6
CONTINUOUS
 10
426.9790279067
 20
343.8383770762
 11
427.736800135
 21
344.434121686
  0
LINE
  5
5DA
100
AcDbEntity
  8
0
100
AcDbLine
 62
7
  6
CONTINUOUS
 10
431.1415941586
 20
346.9660366951
 11
431.5204802728
 21
347.263909
  0
LINE
  5
5DB
100
AcDbEntity
  8
0
100
AcDbLine
 62
7
  6
CONTINUOUS
 10
453.9973454884
 20
370.6256112037
 11
452.9973464421
 21
369.8596538482
  0
LINE
  5
5DC
100
AcDbEntity
  8
0
100
AcDbLine
 62
7
  6
CONTINUOUS
 10
451.4973464421
 20
365.263909
 11
452.4973454884
 21
366.0298663555
  0
LINE
  5
5DD
100
AcDbEntity
  8
0
100
AcDbLine
 62
7
  6
CONTINUOUS
 10
457.9973473958
 20
367.817100185
 11
456.9973454884
 21
367.0511428295
  0
LINE
  5
5DE
100
AcDbEntity
  8
0
100
AcDbLine
 62
7
  6
CONTINUOUS
 10
425.0845973359
 20
348.0085897623
 11
424.4531199972
 21
347.5617813049
  0
LINE
  5
5DF
100
AcDbEntity
  8
0
100
AcDbLine
 62
7
  6
CONTINUOUS
 10
459.2473454884
 20
376.4553983389
 11
458.4973454884
 21
375.944759923
  0
LINE
  5
5E0
100
AcDbEntity
  8
0
100
AcDbLine
 62
7
  6
CONTINUOUS
 10
453.7473464421
 20
371.9022067962
 11
452.4973454884
 21
371.1362494407
  0
LINE
  5
5E1
100
AcDbEntity
  8
0
100
AcDbLine
 62
7
  6
CONTINUOUS
 10
412.5813555688
 20
348.0085897623
 11
412.0761741133
 21
347.7107174574
  0
LINE
  5
5E2
100
AcDbEntity
  8
0
100
AcDbLine
 62
7
  6
CONTINUOUS
 10
414.4757861395
 20
341.3064620802
 11
414.9809675046
 21
341.6043344243
  0
LINE
  5
5E3
100
AcDbEntity
  8
0
100
AcDbLine
 62
7
  6
CONTINUOUS
 10
459.7473464421
 20
374.9234833596
 11
458.7473473958
 21
374.4128450556
  0
LINE
  5
5E4
100
AcDbEntity
  8
0
100
AcDbLine
 62
7
  6
CONTINUOUS
 10
452.4973454884
 20
366.0298663555
 11
452.9973464421
 21
366.285185474
  0
LINE
  5
5E5
100
AcDbEntity
  8
0
100
AcDbLine
 62
7
  6
CONTINUOUS
 10
453.9973454884
 20
365.5192281185
 11
452.9973464421
 21
365.0085898815
  0
LINE
  5
5E6
100
AcDbEntity
  8
0
100
AcDbLine
 62
7
  6
CONTINUOUS
 10
457.4973464421
 20
384.6256112037
 11
452.9973464421
 21
384.6256112037
  0
LINE
  5
5E7
100
AcDbEntity
  8
0
100
AcDbLine
 62
7
  6
CONTINUOUS
 10
435.2473462037
 20
384.8809303222
 11
430.4973464421
 21
384.8809303222
  0
LINE
  5
5E8
100
AcDbEntity
  8
0
100
AcDbLine
 62
7
  6
CONTINUOUS
 10
457.4973464421
 20
386.1575259147
 11
451.4973464421
 21
386.1575259147
  0
LINE
  5
5E9
100
AcDbEntity
  8
0
100
AcDbLine
 62
7
  6
CONTINUOUS
 10
449.4973469189
 20
386.1575259147
 11
447.9973469189
 21
386.1575259147
  0
LINE
  5
5EA
100
AcDbEntity
  8
0
100
AcDbLine
 62
7
  6
CONTINUOUS
 10
441.9973469189
 20
386.1575259147
 11
440.4973462037
 21
386.1575259147
  0
LINE
  5
5EB
100
AcDbEntity
  8
0
100
AcDbLine
 62
7
  6
CONTINUOUS
 10
434.9973464421
 20
386.1575259147
 11
428.9973464421
 21
386.1575259147
  0
LINE
  5
5EC
100
AcDbEntity
  8
0
100
AcDbLine
 62
7
  6
CONTINUOUS
 10
458.7473473958
 20
385.9022067962
 11
457.4973464421
 21
386.1575259147
  0
LINE
  5
5ED
100
AcDbEntity
  8
0
100
AcDbLine
 62
7
  6
CONTINUOUS
 10
458.4973454884
 20
384.3702920852
 11
457.4973464421
 21
384.6256112037
  0
LINE
  5
5EE
100
AcDbEntity
  8
0
100
AcDbLine
 62
7
  6
CONTINUOUS
 10
459.7473464421
 20
385.3915685592
 11
458.7473473958
 21
385.9022067962
  0
LINE
  5
5EF
100
AcDbEntity
  8
0
100
AcDbLine
 62
7
  6
CONTINUOUS
 10
459.2473454884
 20
383.8596538482
 11
458.4973454884
 21
384.3702920852
  0
LINE
  5
5F0
100
AcDbEntity
  8
0
100
AcDbLine
 62
7
  6
CONTINUOUS
 10
476.2782514687
 20
348.9766749321
 11
476.7112641706
 21
348.2958239494
  0
LINE
  5
5F1
100
AcDbEntity
  8
0
100
AcDbLine
 62
7
  6
CONTINUOUS
 10
477.2112641706
 20
348.2958239494
 11
476.7782514687
 21
348.9766749321
  0
LINE
  5
5F2
100
AcDbEntity
  8
0
100
AcDbLine
 62
7
  6
CONTINUOUS
 10
472.9584885221
 20
343.5298663555
 11
473.2471625555
 21
343.0192279993
  0
LINE
  5
5F3
100
AcDbEntity
  8
0
100
AcDbLine
 62
7
  6
CONTINUOUS
 10
473.7471625555
 20
343.0192279993
 11
473.4584885221
 21
343.5298663555
  0
LINE
  5
5F4
100
AcDbEntity
  8
0
100
AcDbLine
 62
7
  6
CONTINUOUS
 10
476.3452387668
 20
348.2958239494
 11
476.633914452
 21
347.7851857124
  0
LINE
  5
5F5
100
AcDbEntity
  8
0
100
AcDbLine
 62
7
  6
CONTINUOUS
 10
464.4973454884
 20
361.1788024781
 11
463.9973473958
 21
362.2000790415
  0
LINE
  5
5F6
100
AcDbEntity
  8
0
100
AcDbLine
 62
7
  6
CONTINUOUS
 10
470.2830617662
 20
344.8915685592
 11
470.5717366255
 21
344.2107173381
  0
LINE
  5
5F7
100
AcDbEntity
  8
0
100
AcDbLine
 62
7
  6
CONTINUOUS
 10
459.9973454884
 20
363.9873130499
 11
459.4973473958
 21
365.263909
  0
LINE
  5
5F8
100
AcDbEntity
  8
0
100
AcDbLine
 62
7
  6
CONTINUOUS
 10
459.7473464421
 20
369.0936957775
 11
459.2473454884
 21
370.3702920852
  0
LINE
  5
5F9
100
AcDbEntity
  8
0
100
AcDbLine
 62
7
  6
CONTINUOUS
 10
465.4973473958
 20
361.944759923
 11
465.2473454884
 21
362.7107174574
  0
LINE
  5
5FA
100
AcDbEntity
  8
0
100
AcDbLine
 62
7
  6
CONTINUOUS
 10
466.097271764
 20
343.5298663555
 11
466.2416096066
 21
343.0192279993
  0
LINE
  5
5FB
100
AcDbEntity
  8
0
100
AcDbLine
 62
7
  6
CONTINUOUS
 10
459.9973454884
 20
382.0724193035
 11
459.9973454884
 21
378.2426321684
  0
LINE
  5
5FC
100
AcDbEntity
  8
0
100
AcDbLine
 62
7
  6
CONTINUOUS
 10
459.9973454884
 20
363.2213556944
 11
459.9973454884
 21
363.9873130499
  0
LINE
  5
5FD
100
AcDbEntity
  8
0
100
AcDbLine
 62
7
  6
CONTINUOUS
 10
461.4973454884
 20
382.0724193035
 11
461.4973454884
 21
378.2426321684
  0
LINE
  5
5FE
100
AcDbEntity
  8
0
100
AcDbLine
 62
7
  6
CONTINUOUS
 10
461.9973464421
 20
368.327738422
 11
461.9973464421
 21
367.306461948
  0
LINE
  5
5FF
100
AcDbEntity
  8
0
100
AcDbLine
 62
7
  6
CONTINUOUS
 10
462.9973464421
 20
335.6575259147
 11
462.9973464421
 21
284.6575259147
  0
LINE
  5
600
100
AcDbEntity
  8
0
100
AcDbLine
 62
7
  6
CONTINUOUS
 10
463.9973473958
 20
370.3702920852
 11
463.9973473958
 21
368.327738422
  0
LINE
  5
601
100
AcDbEntity
  8
0
100
AcDbLine
 62
7
  6
CONTINUOUS
 10
463.9973473958
 20
367.306461948
 11
463.9973473958
 21
362.2000790415
  0
LINE
  5
602
100
AcDbEntity
  8
0
100
AcDbLine
 62
7
  6
CONTINUOUS
 10
464.0765460971
 20
347.9553984581
 11
464.0765460971
 21
341.6575259147
  0
LINE
  5
603
100
AcDbEntity
  8
0
100
AcDbLine
 62
7
  6
CONTINUOUS
 10
464.4425715009
 20
349.6575259147
 11
464.4425715009
 21
341.6575259147
  0
LINE
  5
604
100
AcDbEntity
  8
0
100
AcDbLine
 62
7
  6
CONTINUOUS
 10
464.9425715009
 20
341.6575259147
 11
464.9425715009
 21
349.6575259147
  0
LINE
  5
605
100
AcDbEntity
  8
0
100
AcDbLine
 62
7
  6
CONTINUOUS
 10
465.2473454884
 20
370.3702920852
 11
465.2473454884
 21
368.327738422
  0
LINE
  5
606
100
AcDbEntity
  8
0
100
AcDbLine
 62
7
  6
CONTINUOUS
 10
465.2473454884
 20
367.306461948
 11
465.2473454884
 21
362.7107174574
  0
LINE
  5
607
100
AcDbEntity
  8
0
100
AcDbLine
 62
7
  6
CONTINUOUS
 10
461.4973454884
 20
378.2426321684
 11
461.2473464421
 21
376.9660365759
  0
LINE
  5
608
100
AcDbEntity
  8
0
100
AcDbLine
 62
7
  6
CONTINUOUS
 10
459.4973473958
 20
361.944759923
 11
459.9973454884
 21
363.2213556944
  0
LINE
  5
609
100
AcDbEntity
  8
0
100
AcDbLine
 62
7
  6
CONTINUOUS
 10
459.7473464421
 20
368.327738422
 11
459.2473454884
 21
367.306461948
  0
LINE
  5
60A
100
AcDbEntity
  8
0
100
AcDbLine
 62
7
  6
CONTINUOUS
 10
458.4973454884
 20
368.5830575405
 11
457.9973473958
 21
367.817100185
  0
LINE
  5
60B
100
AcDbEntity
  8
0
100
AcDbLine
 62
7
  6
CONTINUOUS
 10
458.7473473958
 20
363.2213556944
 11
457.9973473958
 21
362.2000790415
  0
LINE
  5
60C
100
AcDbEntity
  8
0
100
AcDbLine
 62
7
  6
CONTINUOUS
 10
458.4973454884
 20
366.5405045925
 11
459.2473454884
 21
367.306461948
  0
LINE
  5
60D
100
AcDbEntity
  8
0
100
AcDbLine
 62
7
  6
CONTINUOUS
 10
458.7473473958
 20
361.1788024781
 11
459.4973473958
 21
361.944759923
  0
LINE
  5
60E
100
AcDbEntity
  8
0
100
AcDbLine
 62
7
  6
CONTINUOUS
 10
427.4790279067
 20
343.8383770762
 11
427.7216609682
 21
344.029130093
  0
LINE
  5
60F
100
AcDbEntity
  8
0
100
AcDbLine
 62
7
  6
CONTINUOUS
 10
427.2316191312
 20
342.3490152387
 11
426.8527330171
 21
342.0511429338
  0
LINE
  5
610
100
AcDbEntity
  8
0
100
AcDbLine
 62
7
  6
CONTINUOUS
 10
432.662319619
 20
342.3490152387
 11
432.2834335048
 21
342.0511429338
  0
LINE
  5
611
100
AcDbEntity
  8
0
100
AcDbLine
 62
7
  6
CONTINUOUS
 10
430.8941839378
 20
348.0085897623
 11
430.2627080445
 21
347.5617813049
  0
LINE
  5
612
100
AcDbEntity
  8
0
100
AcDbLine
 62
7
  6
CONTINUOUS
 10
426.9790279067
 20
341.3064620802
 11
427.6105052454
 21
341.7532705767
  0
LINE
  5
613
100
AcDbEntity
  8
0
100
AcDbLine
 62
7
  6
CONTINUOUS
 10
427.4790279067
 20
341.3064620802
 11
428.1105052454
 21
341.7532705767
  0
LINE
  5
614
100
AcDbEntity
  8
0
100
AcDbLine
 62
7
  6
CONTINUOUS
 10
432.4097283945
 20
341.3064620802
 11
433.0412057332
 21
341.7532705767
  0
LINE
  5
615
100
AcDbEntity
  8
0
100
AcDbLine
 62
7
  6
CONTINUOUS
 10
432.9097283945
 20
341.3064620802
 11
433.5412057332
 21
341.7532705767
  0
LINE
  5
616
100
AcDbEntity
  8
0
100
AcDbLine
 62
7
  6
CONTINUOUS
 10
457.4973464421
 20
360.4128450556
 11
458.7473473958
 21
361.1788024781
  0
LINE
  5
617
100
AcDbEntity
  8
0
100
AcDbLine
 62
7
  6
CONTINUOUS
 10
414.9757861395
 20
341.3064620802
 11
415.4809675046
 21
341.6043344243
  0
LINE
  5
618
100
AcDbEntity
  8
0
100
AcDbLine
 62
7
  6
CONTINUOUS
 10
457.9973473958
 20
366.285185474
 11
458.4973454884
 21
366.5405045925
  0
LINE
  5
619
100
AcDbEntity
  8
0
100
AcDbLine
 62
7
  6
CONTINUOUS
 10
457.9973473958
 20
362.2000790415
 11
456.9973454884
 21
361.6894408045
  0
LINE
  5
61A
100
AcDbEntity
  8
0
100
AcDbLine
 62
7
  6
CONTINUOUS
 10
412.7076510004
 20
347.1149728475
 11
413.0865371145
 21
347.263909
  0
LINE
  5
61B
100
AcDbEntity
  8
0
100
AcDbLine
 62
7
  6
CONTINUOUS
 10
413.2076510004
 20
347.1149728475
 11
413.5865371145
 21
347.263909
  0
LINE
  5
61C
100
AcDbEntity
  8
0
100
AcDbLine
 62
7
  6
CONTINUOUS
 10
425.2108922255
 20
347.263909
 11
425.5897783397
 21
347.4128451524
  0
LINE
  5
61D
100
AcDbEntity
  8
0
100
AcDbLine
 62
7
  6
CONTINUOUS
 10
425.7108922255
 20
347.263909
 11
426.0897783397
 21
347.4128451524
  0
LINE
  5
61E
100
AcDbEntity
  8
0
100
AcDbLine
 62
7
  6
CONTINUOUS
 10
413.0865371145
 20
348.1575259147
 11
412.5813555688
 21
348.0085897623
  0
LINE
  5
61F
100
AcDbEntity
  8
RUNDUNGEN
100
AcDbLine
 62
7
  6
CONTINUOUS
 10
473.0642308435
 20
396.6575259147
 11
416.9304620407
 21
396.6575259147
  0
LINE
  5
620
100
AcDbEntity
  8
0
100
AcDbLine
 62
7
  6
CONTINUOUS
 10
460.7473454884
 20
384.3702920852
 11
459.7473464421
 21
385.3915685592
  0
LINE
  5
621
100
AcDbEntity
  8
0
100
AcDbLine
 62
7
  6
CONTINUOUS
 10
459.7473464421
 20
383.0936957775
 11
459.2473454884
 21
383.8596538482
  0
LINE
  5
622
100
AcDbEntity
  8
0
100
AcDbLine
 62
7
  6
CONTINUOUS
 10
461.2473464421
 20
383.3490156112
 11
460.7473454884
 21
384.3702920852
  0
LINE
  5
623
100
AcDbEntity
  8
0
100
AcDbLine
 62
7
  6
CONTINUOUS
 10
472.5924631183
 20
343.8702918468
 11
472.8811371517
 21
343.0192279993
  0
LINE
  5
624
100
AcDbEntity
  8
0
100
AcDbLine
 62
7
  6
CONTINUOUS
 10
476.8556028391
 20
345.5724195419
 11
477.1442768725
 21
344.7213558136
  0
LINE
  5
625
100
AcDbEntity
  8
0
100
AcDbLine
 62
7
  6
CONTINUOUS
 10
477.6442768725
 20
344.7213558136
 11
477.3556028391
 21
345.5724195419
  0
LINE
  5
626
100
AcDbEntity
  8
0
100
AcDbLine
 62
7
  6
CONTINUOUS
 10
472.8141498536
 20
344.0405045925
 11
472.9584885221
 21
343.5298663555
  0
LINE
  5
627
100
AcDbEntity
  8
0
100
AcDbLine
 62
7
  6
CONTINUOUS
 10
473.4584885221
 20
343.5298663555
 11
473.3141498536
 21
344.0405045925
  0
LINE
  5
628
100
AcDbEntity
  8
0
100
AcDbLine
 62
7
  6
CONTINUOUS
 10
459.9973454884
 20
382.0724193035
 11
459.7473464421
 21
383.0936957775
  0
LINE
  5
629
100
AcDbEntity
  8
0
100
AcDbLine
 62
7
  6
CONTINUOUS
 10
470.64908717
 20
344.8915685592
 11
470.7934241867
 21
344.2107173381
  0
LINE
  5
62A
100
AcDbEntity
  8
0
100
AcDbLine
 62
7
  6
CONTINUOUS
 10
471.2934241867
 20
344.2107173381
 11
471.14908717
 21
344.8915685592
  0
LINE
  5
62B
100
AcDbEntity
  8
0
100
AcDbLine
 62
7
  6
CONTINUOUS
 10
470.5047493274
 20
348.4660366951
 11
470.64908717
 21
347.7851857124
  0
LINE
  5
62C
100
AcDbEntity
  8
0
100
AcDbLine
 62
7
  6
CONTINUOUS
 10
471.14908717
 20
347.7851857124
 11
471.0047493274
 21
348.4660366951
  0
LINE
  5
62D
100
AcDbEntity
  8
0
100
AcDbLine
 62
7
  6
CONTINUOUS
 10
461.4973454884
 20
382.0724193035
 11
461.2473464421
 21
383.3490156112
  0
LINE
  5
62E
100
AcDbEntity
  8
0
100
AcDbLine
 62
7
  6
CONTINUOUS
 10
467.4973454884
 20
361.1788024781
 11
467.4973454884
 21
360.1575259147
  0
LINE
  5
62F
100
AcDbEntity
  8
0
100
AcDbLine
 62
7
  6
CONTINUOUS
 10
467.9973464421
 20
368.327738422
 11
467.9973464421
 21
367.306461948
  0
LINE
  5
630
100
AcDbEntity
  8
0
100
AcDbLine
 62
7
  6
CONTINUOUS
 10
468.4066731161
 20
346.0830577789
 11
468.4066731161
 21
345.4022067962
  0
LINE
  5
631
100
AcDbEntity
  8
0
100
AcDbLine
 62
7
  6
CONTINUOUS
 10
470.4273987829
 20
347.7851857124
 11
470.4273987829
 21
347.4447597442
  0
LINE
  5
632
100
AcDbEntity
  8
0
100
AcDbLine
 62
7
  6
CONTINUOUS
 10
470.5717366255
 20
344.2107173381
 11
470.5717366255
 21
343.5298663555
  0
LINE
  5
633
100
AcDbEntity
  8
0
100
AcDbLine
 62
7
  6
CONTINUOUS
 10
470.64908717
 20
347.7851857124
 11
470.64908717
 21
347.4447597442
  0
LINE
  5
634
100
AcDbEntity
  8
0
100
AcDbLine
 62
7
  6
CONTINUOUS
 10
470.7934241867
 20
344.2107173381
 11
470.7934241867
 21
343.5298663555
  0
LINE
  5
635
100
AcDbEntity
  8
0
100
AcDbLine
 62
7
  6
CONTINUOUS
 10
471.14908717
 20
347.4447597442
 11
471.14908717
 21
347.7851857124
  0
LINE
  5
636
100
AcDbEntity
  8
0
100
AcDbLine
 62
7
  6
CONTINUOUS
 10
471.2934241867
 20
343.5298663555
 11
471.2934241867
 21
344.2107173381
  0
LINE
  5
637
100
AcDbEntity
  8
0
100
AcDbLine
 62
7
  6
CONTINUOUS
 10
472.4481244498
 20
346.2532705246
 11
472.4481244498
 21
345.0617813049
  0
LINE
  5
638
100
AcDbEntity
  8
0
100
AcDbLine
 62
7
  6
CONTINUOUS
 10
472.6698128369
 20
346.2532705246
 11
472.6698128369
 21
345.9128450332
  0
LINE
  5
639
100
AcDbEntity
  8
0
100
AcDbLine
 62
7
  6
CONTINUOUS
 10
472.8141498536
 20
344.5511428295
 11
472.8141498536
 21
344.0405045925
  0
LINE
  5
63A
100
AcDbEntity
  8
0
100
AcDbLine
 62
7
  6
CONTINUOUS
 10
473.1698128369
 20
345.9128450332
 11
473.1698128369
 21
346.2532705246
  0
LINE
  5
63B
100
AcDbEntity
  8
0
100
AcDbLine
 62
7
  6
CONTINUOUS
 10
473.3141498536
 20
344.0405045925
 11
473.3141498536
 21
344.5511428295
  0
LINE
  5
63C
100
AcDbEntity
  8
0
100
AcDbLine
 62
7
  6
CONTINUOUS
 10
466.3859474492
 20
348.4660366951
 11
466.2416096066
 21
347.7851857124
  0
LINE
  5
63D
100
AcDbEntity
  8
0
100
AcDbLine
 62
7
  6
CONTINUOUS
 10
463.6435333952
 20
349.6575259147
 11
461.4784698858
 21
342.5085897623
  0
LINE
  5
63E
100
AcDbEntity
  8
0
100
AcDbLine
 62
7
  6
CONTINUOUS
 10
463.5765460971
 20
347.9553984581
 11
461.5558200173
 21
341.6575259147
  0
LINE
  5
63F
100
AcDbEntity
  8
0
100
AcDbLine
 62
7
  6
CONTINUOUS
 10
462.0558200173
 20
341.6575259147
 11
464.0765460971
 21
347.9553984581
  0
LINE
  5
640
100
AcDbEntity
  8
0
100
AcDbLine
 62
7
  6
CONTINUOUS
 10
426.8527330171
 20
344.5830578385
 11
426.4738469029
 21
344.434121686
  0
LINE
  5
641
100
AcDbEntity
  8
0
100
AcDbLine
 62
7
  6
CONTINUOUS
 10
426.8527330171
 20
342.0511429338
 11
426.4738469029
 21
341.9022067813
  0
LINE
  5
642
100
AcDbEntity
  8
0
100
AcDbLine
 62
7
  6
CONTINUOUS
 10
414.3494908886
 20
342.2000790862
 11
413.8443093428
 21
342.0511429338
  0
LINE
  5
643
100
AcDbEntity
  8
0
100
AcDbLine
 62
7
  6
CONTINUOUS
 10
476.7782514687
 20
345.0617813049
 11
476.9225901372
 21
344.5511428295
  0
LINE
  5
644
100
AcDbEntity
  8
0
100
AcDbLine
 62
7
  6
CONTINUOUS
 10
476.7112641706
 20
348.2958239494
 11
476.8556028391
 21
347.7851857124
  0
LINE
  5
645
100
AcDbEntity
  8
0
100
AcDbLine
 62
7
  6
CONTINUOUS
 10
477.3556028391
 20
347.7851857124
 11
477.2112641706
 21
348.2958239494
  0
LINE
  5
646
100
AcDbEntity
  8
0
100
AcDbLine
 62
7
  6
CONTINUOUS
 10
472.4481244498
 20
345.0617813049
 11
472.5924631183
 21
343.8702918468
  0
LINE
  5
647
100
AcDbEntity
  8
0
100
AcDbLine
 62
7
  6
CONTINUOUS
 10
476.9225901372
 20
344.5511428295
 11
476.9225901372
 21
344.0405045925
  0
LINE
  5
648
100
AcDbEntity
  8
0
100
AcDbLine
 62
7
  6
CONTINUOUS
 10
477.1442768725
 20
344.7213558136
 11
477.1442768725
 21
343.8702918468
  0
LINE
  5
649
100
AcDbEntity
  8
0
100
AcDbLine
 62
7
  6
CONTINUOUS
 10
477.6442768725
 20
343.8702918468
 11
477.6442768725
 21
344.7213558136
  0
LINE
  5
64A
100
AcDbEntity
  8
0
100
AcDbLine
 62
7
  6
CONTINUOUS
 10
472.5924631183
 20
347.4447597442
 11
472.4481244498
 21
346.2532705246
  0
LINE
  5
64B
100
AcDbEntity
  8
0
100
AcDbLine
 62
7
  6
CONTINUOUS
 10
472.8141498536
 20
347.2745469986
 11
472.6698128369
 21
346.2532705246
  0
LINE
  5
64C
100
AcDbEntity
  8
0
100
AcDbLine
 62
7
  6
CONTINUOUS
 10
473.1698128369
 20
346.2532705246
 11
473.3141498536
 21
347.2745469986
  0
LINE
  5
64D
100
AcDbEntity
  8
0
100
AcDbLine
 62
7
  6
CONTINUOUS
 10
470.64908717
 20
347.4447597442
 11
470.5047493274
 21
346.7639087616
  0
LINE
  5
64E
100
AcDbEntity
  8
0
100
AcDbLine
 62
7
  6
CONTINUOUS
 10
471.0047493274
 20
346.7639087616
 11
471.14908717
 21
347.4447597442
  0
LINE
  5
64F
100
AcDbEntity
  8
0
100
AcDbLine
 62
7
  6
CONTINUOUS
 10
470.7934241867
 20
343.5298663555
 11
470.64908717
 21
343.0192279993
  0
LINE
  5
650
100
AcDbEntity
  8
0
100
AcDbLine
 62
7
  6
CONTINUOUS
 10
471.14908717
 20
343.0192279993
 11
471.2934241867
 21
343.5298663555
  0
LINE
  5
651
100
AcDbEntity
  8
0
100
AcDbLine
 62
7
  6
CONTINUOUS
 10
472.9584885221
 20
347.7851857124
 11
472.8141498536
 21
347.2745469986
  0
LINE
  5
652
100
AcDbEntity
  8
0
100
AcDbLine
 62
7
  6
CONTINUOUS
 10
473.3141498536
 20
347.2745469986
 11
473.4584885221
 21
347.7851857124
  0
LINE
  5
653
100
AcDbEntity
  8
0
100
AcDbLine
 62
7
  6
CONTINUOUS
 10
472.9584885221
 20
345.0617813049
 11
472.8141498536
 21
344.5511428295
  0
LINE
  5
654
100
AcDbEntity
  8
0
100
AcDbLine
 62
7
  6
CONTINUOUS
 10
472.8811371517
 20
348.2958239494
 11
472.5924631183
 21
347.4447597442
  0
LINE
  5
655
100
AcDbEntity
  8
0
100
AcDbLine
 62
7
  6
CONTINUOUS
 10
470.4273987829
 20
347.4447597442
 11
470.1387239236
 21
346.7639087616
  0
LINE
  5
656
100
AcDbEntity
  8
0
100
AcDbLine
 62
7
  6
CONTINUOUS
 10
466.751972853
 20
348.2958239494
 11
466.4632971678
 21
347.7851857124
  0
LINE
  5
657
100
AcDbEntity
  8
0
100
AcDbLine
 62
7
  6
CONTINUOUS
 10
466.9632971678
 20
347.7851857124
 11
467.251972853
 21
348.2958239494
  0
LINE
  5
658
100
AcDbEntity
  8
0
100
AcDbLine
 62
7
  6
CONTINUOUS
 10
466.9632971678
 20
349.1468876777
 11
466.3859474492
 21
348.4660366951
  0
LINE
  5
659
100
AcDbEntity
  8
0
100
AcDbLine
 62
7
  6
CONTINUOUS
 10
467.1849855549
 20
348.6362494407
 11
466.751972853
 21
348.2958239494
  0
LINE
  5
65A
100
AcDbEntity
  8
0
100
AcDbLine
 62
7
  6
CONTINUOUS
 10
467.5406477123
 20
349.4873131691
 11
466.9632971678
 21
349.1468876777
  0
LINE
  5
65B
100
AcDbEntity
  8
RUNDUNGEN
100
AcDbLine
 62
7
  6
CONTINUOUS
 10
484.9973464421
 20
461.8274427188
 11
484.9973464421
 21
432.2748435142
  0
LINE
  5
65C
100
AcDbEntity
  8
KONSTRUKTIONSELEMENTE
100
AcDbLine
 62
7
  6
CONTINUOUS
 10
486.5998868205
 20
335.6575259147
 11
486.5998868205
 21
355.6575259147
  0
LINE
  5
65D
100
AcDbEntity
  8
0
100
AcDbLine
 62
7
  6
CONTINUOUS
 10
473.3141498536
 20
344.5511428295
 11
473.4584885221
 21
345.0617813049
  0
LINE
  5
65E
100
AcDbEntity
  8
0
100
AcDbLine
 62
7
  6
CONTINUOUS
 10
476.9225901372
 20
344.0405045925
 11
476.7782514687
 21
343.5298663555
  0
LINE
  5
65F
100
AcDbEntity
  8
0
100
AcDbLine
 62
7
  6
CONTINUOUS
 10
477.1442768725
 20
343.8702918468
 11
476.8556028391
 21
343.0192279993
  0
LINE
  5
660
100
AcDbEntity
  8
0
100
AcDbLine
 62
7
  6
CONTINUOUS
 10
477.3556028391
 20
343.0192279993
 11
477.6442768725
 21
343.8702918468
  0
LINE
  5
661
100
AcDbEntity
  8
0
100
AcDbLine
 62
7
  6
CONTINUOUS
 10
470.5717366255
 20
343.5298663555
 11
470.4273987829
 21
343.1894408641
  0
LINE
  5
662
100
AcDbEntity
  8
0
100
AcDbLine
 62
7
  6
CONTINUOUS
 10
470.5047493274
 20
346.7639087616
 11
470.2160744681
 21
346.2532705246
  0
LINE
  5
663
100
AcDbEntity
  8
0
100
AcDbLine
 62
7
  6
CONTINUOUS
 10
470.7160744681
 20
346.2532705246
 11
471.0047493274
 21
346.7639087616
  0
LINE
  5
664
100
AcDbEntity
  8
0
100
AcDbLine
 62
7
  6
CONTINUOUS
 10
473.2471625555
 20
348.2958239494
 11
472.9584885221
 21
347.7851857124
  0
LINE
  5
665
100
AcDbEntity
  8
0
100
AcDbLine
 62
7
  6
CONTINUOUS
 10
470.64908717
 20
343.0192279993
 11
470.3604114848
 21
342.5085897623
  0
LINE
  5
666
100
AcDbEntity
  8
0
100
AcDbLine
 62
7
  6
CONTINUOUS
 10
473.4584885221
 20
347.7851857124
 11
473.7471625555
 21
348.2958239494
  0
LINE
  5
667
100
AcDbEntity
  8
0
100
AcDbLine
 62
7
  6
CONTINUOUS
 10
470.8604114848
 20
342.5085897623
 11
471.14908717
 21
343.0192279993
  0
LINE
  5
668
100
AcDbEntity
  8
0
100
AcDbLine
 62
7
  6
CONTINUOUS
 10
473.3141498536
 20
348.9766749321
 11
472.8811371517
 21
348.2958239494
  0
LINE
  5
669
100
AcDbEntity
  8
0
100
AcDbLine
 62
7
  6
CONTINUOUS
 10
470.1387239236
 20
346.7639087616
 11
469.8500490643
 21
346.4234832702
  0
LINE
  5
66A
100
AcDbEntity
  8
0
100
AcDbLine
 62
7
  6
CONTINUOUS
 10
470.4273987829
 20
343.1894408641
 11
470.1387239236
 21
342.8490152536
  0
LINE
  5
66B
100
AcDbEntity
  8
0
100
AcDbLine
 62
7
  6
CONTINUOUS
 10
473.2471625555
 20
345.4022067962
 11
472.9584885221
 21
345.0617813049
  0
LINE
  5
66C
100
AcDbEntity
  8
0
100
AcDbLine
 62
7
  6
CONTINUOUS
 10
473.4584885221
 20
345.0617813049
 11
473.7471625555
 21
345.4022067962
  0
LINE
  5
66D
100
AcDbEntity
  8
0
100
AcDbLine
 62
7
  6
CONTINUOUS
 10
470.2160744681
 20
346.2532705246
 11
469.6387239236
 21
345.7426322876
  0
LINE
  5
66E
100
AcDbEntity
  8
0
100
AcDbLine
 62
7
  6
CONTINUOUS
 10
470.1387239236
 20
345.7426322876
 11
470.7160744681
 21
346.2532705246
  0
LINE
  5
66F
100
AcDbEntity
  8
0
100
AcDbLine
 62
7
  6
CONTINUOUS
 10
467.251972853
 20
348.2958239494
 11
467.6849855549
 21
348.6362494407
  0
LINE
  5
670
100
AcDbEntity
  8
0
100
AcDbLine
 62
7
  6
CONTINUOUS
 10
473.6801752574
 20
348.6362494407
 11
473.2471625555
 21
348.2958239494
  0
LINE
  5
671
100
AcDbEntity
  8
0
100
AcDbLine
 62
7
  6
CONTINUOUS
 10
473.7471625555
 20
348.2958239494
 11
474.1801752574
 21
348.6362494407
  0
LINE
  5
672
100
AcDbEntity
  8
0
100
AcDbLine
 62
7
  6
CONTINUOUS
 10
474.0358382407
 20
346.5936960159
 11
473.1698128369
 21
345.9128450332
  0
LINE
  5
673
100
AcDbEntity
  8
0
100
AcDbLine
 62
7
  6
CONTINUOUS
 10
473.6801752574
 20
345.7426322876
 11
473.2471625555
 21
345.4022067962
  0
LINE
  5
674
100
AcDbEntity
  8
0
100
AcDbLine
 62
7
  6
CONTINUOUS
 10
473.7471625555
 20
345.4022067962
 11
474.1801752574
 21
345.7426322876
  0
LINE
  5
675
100
AcDbEntity
  8
0
100
AcDbLine
 62
7
  6
CONTINUOUS
 10
470.3604114848
 20
342.5085897623
 11
469.9273987829
 21
342.1681642113
  0
LINE
  5
676
100
AcDbEntity
  8
0
100
AcDbLine
 62
7
  6
CONTINUOUS
 10
470.4273987829
 20
342.1681642113
 11
470.8604114848
 21
342.5085897623
  0
LINE
  5
677
100
AcDbEntity
  8
0
100
AcDbLine
 62
7
  6
CONTINUOUS
 10
474.0358382407
 20
349.4873131691
 11
473.3141498536
 21
348.9766749321
  0
LINE
  5
678
100
AcDbEntity
  8
0
100
AcDbLine
 62
7
  6
CONTINUOUS
 10
470.1387239236
 20
342.8490152536
 11
469.8500490643
 21
342.6788025079
  0
LINE
  5
679
100
AcDbEntity
  8
0
100
AcDbLine
 62
7
  6
CONTINUOUS
 10
469.9273987829
 20
342.1681642113
 11
469.3500490643
 21
341.8277386753
  0
LINE
  5
67A
100
AcDbEntity
  8
0
100
AcDbLine
 62
7
  6
CONTINUOUS
 10
469.8500490643
 20
341.8277386753
 11
470.4273987829
 21
342.1681642113
  0
LINE
  5
67B
100
AcDbEntity
  8
0
100
AcDbLine
 62
7
  6
CONTINUOUS
 10
474.1131879592
 20
348.8064621864
 11
473.6801752574
 21
348.6362494407
  0
LINE
  5
67C
100
AcDbEntity
  8
0
100
AcDbLine
 62
7
  6
CONTINUOUS
 10
474.1801752574
 20
348.6362494407
 11
474.6131879592
 21
348.8064621864
  0
LINE
  5
67D
100
AcDbEntity
  8
0
100
AcDbLine
 62
7
  6
CONTINUOUS
 10
469.8500490643
 20
346.4234832702
 11
468.9840236606
 21
346.0830577789
  0
LINE
  5
67E
100
AcDbEntity
  8
0
100
AcDbLine
 62
7
  6
CONTINUOUS
 10
474.1131879592
 20
345.9128450332
 11
473.6801752574
 21
345.7426322876
  0
LINE
  5
67F
100
AcDbEntity
  8
0
100
AcDbLine
 62
7
  6
CONTINUOUS
 10
474.1801752574
 20
345.7426322876
 11
474.6131879592
 21
345.9128450332
  0
LINE
  5
680
100
AcDbEntity
  8
0
100
AcDbLine
 62
7
  6
CONTINUOUS
 10
476.0565647334
 20
342.6788025079
 11
475.6235520315
 21
342.5085897623
  0
LINE
  5
681
100
AcDbEntity
  8
0
100
AcDbLine
 62
7
  6
CONTINUOUS
 10
469.3500490643
 20
341.8277386753
 11
468.7726985198
 21
341.6575259147
  0
LINE
  5
682
100
AcDbEntity
  8
0
100
AcDbLine
 62
7
  6
CONTINUOUS
 10
469.2726985198
 20
341.6575259147
 11
469.8500490643
 21
341.8277386753
  0
LINE
  5
683
100
AcDbEntity
  8
0
100
AcDbLine
 62
7
  6
CONTINUOUS
 10
488.9973464421
 20
423.3177799526
 11
488.9973464421
 21
355.6575259147
  0
LINE
  5
684
100
AcDbEntity
  8
KONSTRUKTIONSELEMENTE
100
AcDbLine
 62
7
  6
CONTINUOUS
 10
489.9973464421
 20
335.6575259147
 11
489.9973464421
 21
355.6575259147
  0
LINE
  5
685
100
AcDbEntity
  8
0
100
AcDbLine
 62
7
  6
CONTINUOUS
 10
476.7782514687
 20
343.5298663555
 11
476.4895774353
 21
343.0192279993
  0
LINE
  5
686
100
AcDbEntity
  8
0
100
AcDbLine
 62
7
  6
CONTINUOUS
 10
476.8556028391
 20
343.0192279993
 11
476.4225901372
 21
342.338376957
  0
LINE
  5
687
100
AcDbEntity
  8
0
100
AcDbLine
 62
7
  6
CONTINUOUS
 10
476.9225901372
 20
342.338376957
 11
477.3556028391
 21
343.0192279993
  0
LINE
  5
688
100
AcDbEntity
  8
0
100
AcDbLine
 62
7
  6
CONTINUOUS
 10
476.4895774353
 20
343.0192279993
 11
476.0565647334
 21
342.6788025079
  0
LINE
  5
689
100
AcDbEntity
  8
0
100
AcDbLine
 62
7
  6
CONTINUOUS
 10
476.4225901372
 20
342.338376957
 11
475.7009017501
 21
341.8277386753
  0
LINE
  5
68A
100
AcDbEntity
  8
0
100
AcDbLine
 62
7
  6
CONTINUOUS
 10
476.2009017501
 20
341.8277386753
 11
476.9225901372
 21
342.338376957
  0
LINE
  5
68B
100
AcDbEntity
  8
RUNDUNGEN
100
AcDbLine
 62
7
  6
CONTINUOUS
 10
454.8006916985
 20
435.84651638
 11
454.4075886494
 21
436.0921544275
  0
LINE
  5
68C
100
AcDbEntity
  8
BEZUGSACHSEN
100
AcDbLine
 62
7
  6
CONTINUOUS
 10
453.1615037338
 20
437.6575259147
 11
436.8331891503
 21
437.6575259147
  0
LINE
  5
68D
100
AcDbEntity
  8
RUNDUNGEN
100
AcDbLine
 62
7
  6
CONTINUOUS
 10
488.327473461
 20
425.8177799526
 11
485.6672194232
 21
430.4254751072
  0
LINE
  5
68E
100
AcDbEntity
  8
FASEN
100
AcDbLine
 62
7
  6
CONTINUOUS
 10
459.9973464421
 20
281.6575259147
 11
462.9973464421
 21
284.6575259147
  0
LINE
  5
68F
100
AcDbEntity
  8
BEZUGSACHSEN
100
AcDbLine
 62
7
  6
CONTINUOUS
 10
452.9973464421
 20
456.6575259147
 11
436.9973464421
 21
456.6575259147
  0
LINE
  5
690
100
AcDbEntity
  8
RUNDUNGEN
100
AcDbLine
 62
7
  6
CONTINUOUS
 10
480.1916327194
 20
469.9519083483
 11
484.2739546192
 21
464.1217484642
  0
LINE
  5
691
100
AcDbEntity
  8
0
100
AcDbLine
 62
7
  6
CONTINUOUS
 10
476.9387320994
 20
471.6575259147
 11
463.2935209056
 21
471.6575259147
  0
LINE
  5
692
100
AcDbEntity
  8
0
100
AcDbLine
 62
7
  6
CONTINUOUS
 10
426.7011719786
 20
471.6575259147
 11
413.0559607897
 21
471.6575259147
  0
LINE
  5
693
100
AcDbEntity
  8
KONSTRUKTIONSELEMENTE
100
AcDbLine
 62
7
  6
CONTINUOUS
 10
226.2236197586
 20
84.1931450334
 11
226.2236197586
 21
77.3982257903
  0
LINE
  5
694
100
AcDbEntity
  8
KONSTRUKTIONSELEMENTE
100
AcDbLine
 62
7
  6
CONTINUOUS
 10
254.1659060992
 20
125.7956854119
 11
248.281333418
 21
122.3982257903
  0
LINE
  5
695
100
AcDbEntity
  8
KONSTRUKTIONSELEMENTE
100
AcDbLine
 62
7
  6
CONTINUOUS
 10
248.281333418
 20
39.1931450334
 11
254.1659060992
 21
35.7956854119
  0
LINE
  5
696
100
AcDbEntity
  8
KONSTRUKTIONSELEMENTE
100
AcDbLine
 62
7
  6
CONTINUOUS
 10
248.281333418
 20
122.3982257903
 11
226.2236197586
 21
84.1931450334
  0
LINE
  5
697
100
AcDbEntity
  8
KONSTRUKTIONSELEMENTE
100
AcDbLine
 62
7
  6
CONTINUOUS
 10
254.1659060992
 20
35.7956854119
 11
298.281333418
 21
35.7956854119
  0
LINE
  5
698
100
AcDbEntity
  8
KONSTRUKTIONSELEMENTE
100
AcDbLine
 62
7
  6
CONTINUOUS
 10
226.2236197586
 20
77.3982257903
 11
248.281333418
 21
39.1931450334
  0
LINE
  5
699
100
AcDbEntity
  8
RUNDUNGEN
100
AcDbLine
 62
7
  6
CONTINUOUS
 10
293.6592156705
 20
40.7956854119
 11
258.7880239962
 21
40.7956854119
  0
LINE
  5
69A
100
AcDbEntity
  8
0
100
AcDbLine
 62
7
  6
CONTINUOUS
 10
299.7236197586
 20
49.4156854119
 11
300.7236197586
 21
49.4156854119
  0
LINE
  5
69B
100
AcDbEntity
  8
0
100
AcDbLine
 62
7
  6
CONTINUOUS
 10
299.7236197586
 20
49.6856854119
 11
300.7236197586
 21
49.6856854119
  0
LINE
  5
69C
100
AcDbEntity
  8
0
100
AcDbLine
 62
7
  6
CONTINUOUS
 10
299.7236197586
 20
49.8133449711
 11
300.7236197586
 21
49.8133449711
  0
LINE
  5
69D
100
AcDbEntity
  8
0
100
AcDbLine
 62
7
  6
CONTINUOUS
 10
299.7236197586
 20
50.1963236489
 11
300.7236197586
 21
50.1963236489
  0
LINE
  5
69E
100
AcDbEntity
  8
0
100
AcDbLine
 62
7
  6
CONTINUOUS
 10
299.7236197586
 20
50.7069618859
 11
300.7236197586
 21
50.7069618859
  0
LINE
  5
69F
100
AcDbEntity
  8
0
100
AcDbLine
 62
7
  6
CONTINUOUS
 10
299.7236197586
 20
51.0899405636
 11
300.7236197586
 21
51.0899405636
  0
LINE
  5
6A0
100
AcDbEntity
  8
0
100
AcDbLine
 62
7
  6
CONTINUOUS
 10
299.7236197586
 20
51.472919599
 11
300.7236197586
 21
51.472919599
  0
LINE
  5
6A1
100
AcDbEntity
  8
0
100
AcDbLine
 62
7
  6
CONTINUOUS
 10
299.7236197586
 20
51.8558982767
 11
300.7236197586
 21
51.8558982767
  0
LINE
  5
6A2
100
AcDbEntity
  8
0
100
AcDbLine
 62
7
  6
CONTINUOUS
 10
299.7236197586
 20
51.983557836
 11
300.7236197586
 21
51.983557836
  0
LINE
  5
6A3
100
AcDbEntity
  8
0
100
AcDbLine
 62
7
  6
CONTINUOUS
 10
299.7236197586
 20
52.3665365137
 11
300.7236197586
 21
52.3665365137
  0
LINE
  5
6A4
100
AcDbEntity
  8
0
100
AcDbLine
 62
7
  6
CONTINUOUS
 10
299.7236197586
 20
52.7495151915
 11
300.7236197586
 21
52.7495151915
  0
LINE
  5
6A5
100
AcDbEntity
  8
0
100
AcDbLine
 62
7
  6
CONTINUOUS
 10
299.7236197586
 20
53.3878129877
 11
300.7236197586
 21
53.3878129877
  0
LINE
  5
6A6
100
AcDbEntity
  8
0
100
AcDbLine
 62
7
  6
CONTINUOUS
 10
299.7236197586
 20
54.0261109628
 11
300.7236197586
 21
54.0261109628
  0
LWPOLYLINE
  5
6A7
100
AcDbEntity
  8
RUNDUNGEN
100
AcDbPolyline
 62
7
  6
CONTINUOUS
 90
8
 70
0
 10
252.7236597428
 20
99.0054752261
 10
252.7279637307
 20
98.8426413162
 10
252.7680466607
 20
98.445274
 10
252.8493438102
 20
98.0541553816
 10
252.9706798337
 20
97.673587328
 10
253.1306217832
 20
97.3068049767
 10
253.3276109882
 20
96.9574091301
 10
253.5594010358
 20
96.628992233
  0
LINE
  5
6A8
100
AcDbEntity
  8
RUNDUNGEN
100
AcDbLine
 62
7
  6
CONTINUOUS
 10
252.7236197586
 20
91.750113268
 11
252.7236197586
 21
115.7206048821
  0
LINE
  5
6A9
100
AcDbEntity
  8
RUNDUNGEN
100
AcDbLine
 62
7
  6
CONTINUOUS
 10
252.7236197586
 20
45.8707659417
 11
252.7236197586
 21
69.8412573518
  0
LINE
  5
6AA
100
AcDbEntity
  8
0
100
AcDbLine
 62
7
  6
CONTINUOUS
 10
299.7236197586
 20
54.6644088485
 11
300.7236197586
 21
54.6644088485
  0
LINE
  5
6AB
100
AcDbEntity
  8
0
100
AcDbLine
 62
7
  6
CONTINUOUS
 10
299.7236197586
 20
55.1750471302
 11
300.7236197586
 21
55.1750471302
  0
LINE
  5
6AC
100
AcDbEntity
  8
0
100
AcDbLine
 62
7
  6
CONTINUOUS
 10
299.7236197586
 20
55.5580258414
 11
300.7236197586
 21
55.5580258414
  0
LINE
  5
6AD
100
AcDbEntity
  8
0
100
AcDbLine
 62
7
  6
CONTINUOUS
 10
299.7236197586
 20
55.6856854119
 11
300.7236197586
 21
55.6856854119
  0
LINE
  5
6AE
100
AcDbEntity
  8
0
100
AcDbLine
 62
7
  6
CONTINUOUS
 10
299.7236197586
 20
55.8556854119
 11
300.7236197586
 21
55.8556854119
  0
LINE
  5
6AF
100
AcDbEntity
  8
0
100
AcDbLine
 62
7
  6
CONTINUOUS
 10
238.7136210916
 20
57.7956854119
 11
238.128344461
 21
57.7956854119
  0
LINE
  5
6B0
100
AcDbEntity
  8
0
100
AcDbLine
 62
7
  6
CONTINUOUS
 10
237.1603692715
 20
60.5456863655
 11
236.598027793
 21
60.5456863655
  0
LINE
  5
6B1
100
AcDbEntity
  8
0
100
AcDbLine
 62
7
  6
CONTINUOUS
 10
236.5373505492
 20
61.7956844582
 11
235.9837146424
 21
61.7956844582
  0
LINE
  5
6B2
100
AcDbEntity
  8
0
100
AcDbLine
 62
7
  6
CONTINUOUS
 10
235.6403719832
 20
63.7956854119
 11
235.0988097287
 21
63.7956854119
  0
LINE
  5
6B3
100
AcDbEntity
  8
0
100
AcDbLine
 62
7
  6
CONTINUOUS
 10
235.4345276938
 20
64.2956863655
 11
234.8956627383
 21
64.2956863655
  0
LINE
  5
6B4
100
AcDbEntity
  8
0
100
AcDbLine
 62
7
  6
CONTINUOUS
 10
235.334287409
 20
64.5456854119
 11
234.7967263197
 21
64.5456854119
  0
LINE
  5
6B5
100
AcDbEntity
  8
0
100
AcDbLine
 62
7
  6
CONTINUOUS
 10
235.1391028448
 20
65.0456863655
 11
234.6040626966
 21
65.0456863655
  0
LINE
  5
6B6
100
AcDbEntity
  8
0
100
AcDbLine
 62
7
  6
CONTINUOUS
 10
234.7695789423
 20
66.0456854119
 11
234.2392476662
 21
66.0456854119
  0
LINE
  5
6B7
100
AcDbEntity
  8
0
100
AcDbLine
 62
7
  6
CONTINUOUS
 10
234.4272386501
 20
67.0456844582
 11
233.9011969337
 21
67.0456844582
  0
LINE
  5
6B8
100
AcDbEntity
  8
BEZUGSACHSEN
100
AcDbLine
 62
7
  6
CONTINUOUS
 10
266.7236197586
 20
72.7956854119
 11
266.7236197586
 21
88.7956854119
  0
LWPOLYLINE
  5
6B9
100
AcDbEntity
  8
RUNDUNGEN
100
AcDbPolyline
 62
7
  6
CONTINUOUS
 90
8
 70
0
 10
253.5493529135
 20
64.9495157665
 10
253.3201893398
 20
64.622186041
 10
253.1254777718
 20
64.2742056381
 10
252.9674270311
 20
63.9091133966
 10
252.847572946
 20
63.5304499968
 10
252.7673312993
 20
63.1414364641
 10
252.72785003
 20
62.7463441435
 10
252.7236599797
 20
62.5859435252
  0
LINE
  5
6BA
100
AcDbEntity
  8
0
100
AcDbLine
 62
7
  6
CONTINUOUS
 10
234.0365364274
 20
68.2956854119
 11
233.5153067505
 21
68.2956854119
  0
LWPOLYLINE
  5
6BB
100
AcDbEntity
  8
RUNDUNGEN
100
AcDbPolyline
 62
7
  6
CONTINUOUS
 90
3
 70
0
 10
254.0029549756
 20
65.5058882356
 10
253.9861060896
 20
65.4841501502
 10
253.912593337
 20
65.3906512871
  0
LWPOLYLINE
  5
6BC
100
AcDbEntity
  8
RUNDUNGEN
100
AcDbPolyline
 62
7
  6
CONTINUOUS
 90
3
 70
0
 10
253.912593337
 20
65.3906512871
 10
253.8381943368
 20
65.2982176719
 10
253.7629115153
 20
65.2068812541
  0
LINE
  5
6BD
100
AcDbEntity
  8
RUNDUNGEN
100
AcDbLine
 62
7
  6
CONTINUOUS
 10
253.6716517904
 20
65.0990906953
 11
253.5493529135
 21
64.9495157665
  0
LWPOLYLINE
  5
6BE
100
AcDbEntity
  8
RUNDUNGEN
100
AcDbPolyline
 62
7
  6
CONTINUOUS
 90
3
 70
0
 10
253.7629115153
 20
65.2068812541
 10
253.686747171
 20
65.11667297
 10
253.6717551662
 20
65.0991727603
  0
LINE
  5
6BF
100
AcDbEntity
  8
RUNDUNGEN
100
AcDbLine
 62
7
  6
CONTINUOUS
 10
290.4758926738
 20
72.7956854119
 11
261.9713468435
 21
72.7956854119
  0
LINE
  5
6C0
100
AcDbEntity
  8
0
100
AcDbLine
 62
7
  6
CONTINUOUS
 10
232.7063817948
 20
74.2956854119
 11
232.2008983525
 21
74.2956854119
  0
LINE
  5
6C1
100
AcDbEntity
  8
0
100
AcDbLine
 62
7
  6
CONTINUOUS
 10
232.6697739115
 20
74.5456844582
 11
232.1647104657
 21
74.5456844582
  0
LINE
  5
6C2
100
AcDbEntity
  8
0
100
AcDbLine
 62
7
  6
CONTINUOUS
 10
232.634630192
 20
74.7956863655
 11
232.1299692923
 21
74.7956863655
  0
LINE
  5
6C3
100
AcDbEntity
  8
0
100
AcDbLine
 62
7
  6
CONTINUOUS
 10
232.4543383422
 20
76.295684935
 11
231.9517325647
 21
76.295684935
  0
LINE
  5
6C4
100
AcDbEntity
  8
RUNDUNGEN
100
AcDbLine
 62
7
  6
CONTINUOUS
 10
253.6715786187
 20
96.4923653493
 11
253.6918728745
 21
96.4686954212
  0
LINE
  5
6C5
100
AcDbEntity
  8
RUNDUNGEN
100
AcDbLine
 62
7
  6
CONTINUOUS
 10
253.6918728745
 20
96.4686954212
 11
253.768020377
 21
96.3783601265
  0
LINE
  5
6C6
100
AcDbEntity
  8
RUNDUNGEN
100
AcDbLine
 62
7
  6
CONTINUOUS
 10
253.768020377
 20
96.3783601265
 11
253.8432841491
 21
96.2868988273
  0
LINE
  5
6C7
100
AcDbEntity
  8
RUNDUNGEN
100
AcDbLine
 62
7
  6
CONTINUOUS
 10
253.5594010358
 20
96.628992233
 11
253.6715786187
 21
96.4923653493
  0
LWPOLYLINE
  5
6C8
100
AcDbEntity
  8
RUNDUNGEN
100
AcDbPolyline
 62
7
  6
CONTINUOUS
 90
3
 70
0
 10
253.8432841491
 20
96.2868988273
 10
253.9176620046
 20
96.1943424969
 10
253.9904160644
 20
96.1016602269
  0
LINE
  5
6C9
100
AcDbEntity
  8
RUNDUNGEN
100
AcDbLine
 62
7
  6
CONTINUOUS
 10
253.9904160644
 20
96.1016602269
 11
254.0029513095
 21
96.0854873216
  0
LINE
  5
6CA
100
AcDbEntity
  8
RUNDUNGEN
100
AcDbLine
 62
7
  6
CONTINUOUS
 10
296.2161009616
 20
93.4795193242
 11
296.2160262465
 21
93.4794721549
  0
LINE
  5
6CB
100
AcDbEntity
  8
RUNDUNGEN
100
AcDbLine
 62
7
  6
CONTINUOUS
 10
256.2311385556
 20
68.1118514995
 11
256.231213128
 21
68.1118985786
  0
LINE
  5
6CC
100
AcDbEntity
  8
0
100
AcDbLine
 62
7
  6
CONTINUOUS
 10
232.3260116559
 20
77.795684935
 11
231.8248585469
 21
77.795684935
  0
LINE
  5
6CD
100
AcDbEntity
  8
0
100
AcDbLine
 62
7
  6
CONTINUOUS
 10
232.3096413463
 20
78.0456854119
 11
231.8086729502
 21
78.0456854119
  0
LINE
  5
6CE
100
AcDbEntity
  8
0
100
AcDbLine
 62
7
  6
CONTINUOUS
 10
232.2811858496
 20
78.545684935
 11
231.7805382065
 21
78.545684935
  0
LINE
  5
6CF
100
AcDbEntity
  8
0
100
AcDbLine
 62
7
  6
CONTINUOUS
 10
232.2491953898
 20
79.295684935
 11
231.7489078588
 21
79.295684935
  0
LINE
  5
6D0
100
AcDbEntity
  8
0
100
AcDbLine
 62
7
  6
CONTINUOUS
 10
232.2264607594
 20
80.2956854119
 11
231.7264288361
 21
80.2956854119
  0
LINE
  5
6D1
100
AcDbEntity
  8
0
100
AcDbLine
 62
7
  6
CONTINUOUS
 10
232.2264607649
 20
81.2956858887
 11
231.7264288414
 21
81.2956858887
  0
LINE
  5
6D2
100
AcDbEntity
  8
RUNDUNGEN
100
AcDbLine
 62
7
  6
CONTINUOUS
 10
296.2160171071
 20
68.1119044387
 11
296.2161009616
 21
68.1118514995
  0
LINE
  5
6D3
100
AcDbEntity
  8
RUNDUNGEN
100
AcDbLine
 62
7
  6
CONTINUOUS
 10
256.2312226262
 20
93.4794662487
 11
256.2311385556
 21
93.4795193242
  0
LINE
  5
6D4
100
AcDbEntity
  8
0
100
AcDbLine
 62
7
  6
CONTINUOUS
 10
232.2491953573
 20
82.295684935
 11
231.7489078267
 21
82.295684935
  0
LINE
  5
6D5
100
AcDbEntity
  8
0
100
AcDbLine
 62
7
  6
CONTINUOUS
 10
232.2811858007
 20
83.045684935
 11
231.7805381582
 21
83.045684935
  0
LINE
  5
6D6
100
AcDbEntity
  8
0
100
AcDbLine
 62
7
  6
CONTINUOUS
 10
232.3096413762
 20
83.5456858887
 11
231.8086729797
 21
83.5456858887
  0
LINE
  5
6D7
100
AcDbEntity
  8
0
100
AcDbLine
 62
7
  6
CONTINUOUS
 10
232.3260115908
 20
83.795684935
 11
231.8248584824
 21
83.795684935
  0
LINE
  5
6D8
100
AcDbEntity
  8
0
100
AcDbLine
 62
7
  6
CONTINUOUS
 10
232.4543383177
 20
85.2956856503
 11
231.9517325405
 21
85.2956856503
  0
LINE
  5
6D9
100
AcDbEntity
  8
0
100
AcDbLine
 62
7
  6
CONTINUOUS
 10
232.480763199
 20
85.5456854119
 11
231.9778572497
 21
85.5456854119
  0
LINE
  5
6DA
100
AcDbEntity
  8
BEZUGSACHSEN
100
AcDbLine
 62
7
  6
CONTINUOUS
 10
285.7236197586
 20
72.7956854119
 11
285.7236197586
 21
88.7956854119
  0
LWPOLYLINE
  5
6DB
100
AcDbEntity
  8
RUNDUNGEN
100
AcDbPolyline
 62
7
  6
CONTINUOUS
 90
8
 70
0
 10
298.8978865803
 20
96.6418550249
 10
299.1270501228
 20
96.9691846941
 10
299.3217616974
 20
97.3171650775
 10
299.4798124612
 20
97.6822573479
 10
299.5996665684
 20
98.060920814
 10
299.6799082262
 20
98.4499344048
 10
299.7193894929
 20
98.8450267454
 10
299.7235795285
 20
99.0054248824
  0
LINE
  5
6DC
100
AcDbEntity
  8
RUNDUNGEN
100
AcDbLine
 62
7
  6
CONTINUOUS
 10
298.4442828515
 20
96.0854803774
 11
298.4670431772
 21
96.114736963
  0
LINE
  5
6DD
100
AcDbEntity
  8
RUNDUNGEN
100
AcDbLine
 62
7
  6
CONTINUOUS
 10
298.4670431772
 20
96.114736963
 11
298.5346273322
 21
96.2006958411
  0
LWPOLYLINE
  5
6DE
100
AcDbEntity
  8
RUNDUNGEN
100
AcDbPolyline
 62
7
  6
CONTINUOUS
 90
3
 70
0
 10
298.5346273322
 20
96.2006958411
 10
298.609024012
 20
96.2931271665
 10
298.6843091188
 20
96.3844669396
  0
LINE
  5
6DF
100
AcDbEntity
  8
RUNDUNGEN
100
AcDbLine
 62
7
  6
CONTINUOUS
 10
298.7755877217
 20
96.4922801187
 11
298.8978865803
 21
96.6418550249
  0
LWPOLYLINE
  5
6E0
100
AcDbEntity
  8
RUNDUNGEN
100
AcDbPolyline
 62
7
  6
CONTINUOUS
 90
3
 70
0
 10
298.6843091188
 20
96.3844669396
 10
298.7604804101
 20
96.4746838882
 10
298.7754842955
 20
96.4921979905
  0
LINE
  5
6E1
100
AcDbEntity
  8
0
100
AcDbLine
 62
7
  6
CONTINUOUS
 10
232.7063817592
 20
87.2956851735
 11
232.2008983173
 21
87.2956851735
  0
LINE
  5
6E2
100
AcDbEntity
  8
0
100
AcDbLine
 62
7
  6
CONTINUOUS
 10
232.7444581202
 20
87.5456856503
 11
232.2385370967
 21
87.5456856503
  0
LINE
  5
6E3
100
AcDbEntity
  8
0
100
AcDbLine
 62
7
  6
CONTINUOUS
 10
232.7840065007
 20
87.7956854119
 11
232.2776301805
 21
87.7956854119
  0
LINE
  5
6E4
100
AcDbEntity
  8
0
100
AcDbLine
 62
7
  6
CONTINUOUS
 10
232.9115256047
 20
88.5456854119
 11
232.4036756692
 21
88.5456854119
  0
LINE
  5
6E5
100
AcDbEntity
  8
RUNDUNGEN
100
AcDbLine
 62
7
  6
CONTINUOUS
 10
290.4758926738
 20
88.7956854119
 11
261.9713468435
 21
88.7956854119
  0
LINE
  5
6E6
100
AcDbEntity
  8
0
100
AcDbLine
 62
7
  6
CONTINUOUS
 10
233.1024242259
 20
89.5456851735
 11
232.5923522527
 21
89.5456851735
  0
LINE
  5
6E7
100
AcDbEntity
  8
RUNDUNGEN
100
AcDbLine
 62
7
  6
CONTINUOUS
 10
298.775660888
 20
65.0990054945
 11
298.7553722724
 21
65.1226688237
  0
LINE
  5
6E8
100
AcDbEntity
  8
RUNDUNGEN
100
AcDbLine
 62
7
  6
CONTINUOUS
 10
298.7553722724
 20
65.1226688237
 11
298.6792276629
 21
65.2130004694
  0
LINE
  5
6E9
100
AcDbEntity
  8
RUNDUNGEN
100
AcDbLine
 62
7
  6
CONTINUOUS
 10
298.6792276629
 20
65.2130004694
 11
298.6039647537
 21
65.3044604561
  0
LINE
  5
6EA
100
AcDbEntity
  8
RUNDUNGEN
100
AcDbLine
 62
7
  6
CONTINUOUS
 10
298.8878383953
 20
64.9623787074
 11
298.775660888
 21
65.0990054945
  0
LINE
  5
6EB
100
AcDbEntity
  8
RUNDUNGEN
100
AcDbLine
 62
7
  6
CONTINUOUS
 10
298.6039647537
 20
65.3044604561
 11
298.5295859803
 21
65.397017645
  0
LINE
  5
6EC
100
AcDbEntity
  8
RUNDUNGEN
100
AcDbLine
 62
7
  6
CONTINUOUS
 10
298.5295859803
 20
65.397017645
 11
298.4553861623
 21
65.4915537332
  0
LINE
  5
6ED
100
AcDbEntity
  8
RUNDUNGEN
100
AcDbLine
 62
7
  6
CONTINUOUS
 10
298.4553861623
 20
65.4915537332
 11
298.4442800551
 21
65.5058940486
  0
LINE
  5
6EE
100
AcDbEntity
  8
0
100
AcDbLine
 62
7
  6
CONTINUOUS
 10
233.3750491874
 20
90.7956854119
 11
232.8617701671
 21
90.7956854119
  0
LINE
  5
6EF
100
AcDbEntity
  8
0
100
AcDbLine
 62
7
  6
CONTINUOUS
 10
235.2358166948
 20
96.7956854119
 11
234.6995303646
 21
96.7956854119
  0
LWPOLYLINE
  5
6F0
100
AcDbEntity
  8
RUNDUNGEN
100
AcDbPolyline
 62
7
  6
CONTINUOUS
 90
8
 70
0
 10
299.7235797693
 20
62.5858969264
 10
299.719275791
 20
62.7487294436
 10
299.6791928596
 20
63.1460968156
 10
299.597895687
 20
63.5372155184
 10
299.4765596273
 20
63.91778365
 10
299.316617644
 20
64.2845660373
 10
299.1196284214
 20
64.6339618694
 10
298.8878383953
 20
64.9623787074
  0
LINE
  5
6F1
100
AcDbEntity
  8
0
100
AcDbLine
 62
7
  6
CONTINUOUS
 10
238.1185019921
 20
102.7956854119
 11
237.542228884
 21
102.7956854119
  0
LINE
  5
6F2
100
AcDbEntity
  8
RUNDUNGEN
100
AcDbLine
 62
7
  6
CONTINUOUS
 10
299.7236197586
 20
69.8412342618
 11
299.7236197586
 21
45.8707659417
  0
LINE
  5
6F3
100
AcDbEntity
  8
0
100
AcDbLine
 62
7
  6
CONTINUOUS
 10
300.7236197586
 20
114.8087148064
 11
300.7236197586
 21
113.2729864013
  0
LINE
  5
6F4
100
AcDbEntity
  8
0
100
AcDbLine
 62
7
  6
CONTINUOUS
 10
300.7236197586
 20
113.2536061354
 11
300.7236197586
 21
104.8090547658
  0
LINE
  5
6F5
100
AcDbEntity
  8
0
100
AcDbLine
 62
7
  6
CONTINUOUS
 10
300.7236197586
 20
55.8555833094
 11
300.7236197586
 21
55.7272158878
  0
LINE
  5
6F6
100
AcDbEntity
  8
0
100
AcDbLine
 62
7
  6
CONTINUOUS
 10
300.7236197586
 20
55.6856854119
 11
300.7236197586
 21
49.415823926
  0
LINE
  5
6F7
100
AcDbEntity
  8
RUNDUNGEN
100
AcDbLine
 62
7
  6
CONTINUOUS
 10
299.7236197586
 20
115.7206048821
 11
299.7236197586
 21
91.750136562
  0
LINE
  5
6F8
100
AcDbEntity
  8
0
100
AcDbLine
 62
7
  6
CONTINUOUS
 10
299.7236197586
 20
104.8088847861
 11
300.7236197586
 21
104.8088847861
  0
LINE
  5
6F9
100
AcDbEntity
  8
0
100
AcDbLine
 62
7
  6
CONTINUOUS
 10
299.7236197586
 20
104.8339476006
 11
300.7236197586
 21
104.8339476006
  0
LINE
  5
6FA
100
AcDbEntity
  8
0
100
AcDbLine
 62
7
  6
CONTINUOUS
 10
299.7236197586
 20
106.344783171
 11
300.7236197586
 21
106.344783171
  0
LINE
  5
6FB
100
AcDbEntity
  8
0
100
AcDbLine
 62
7
  6
CONTINUOUS
 10
299.7236197586
 20
109.0480492157
 11
300.7236197586
 21
109.0480492157
  0
LINE
  5
6FC
100
AcDbEntity
  8
0
100
AcDbLine
 62
7
  6
CONTINUOUS
 10
299.7236197586
 20
110.5588847861
 11
300.7236197586
 21
110.5588847861
  0
LINE
  5
6FD
100
AcDbEntity
  8
0
100
AcDbLine
 62
7
  6
CONTINUOUS
 10
299.7236197586
 20
113.2729864013
 11
300.7236197586
 21
113.2729864013
  0
LINE
  5
6FE
100
AcDbEntity
  8
0
100
AcDbLine
 62
7
  6
CONTINUOUS
 10
299.7236197586
 20
114.7838219717
 11
300.7236197586
 21
114.7838219717
  0
LINE
  5
6FF
100
AcDbEntity
  8
0
100
AcDbLine
 62
7
  6
CONTINUOUS
 10
299.7236197586
 20
114.8088847861
 11
300.7236197586
 21
114.8088847861
  0
LINE
  5
700
100
AcDbEntity
  8
RUNDUNGEN
100
AcDbLine
 62
7
  6
CONTINUOUS
 10
258.7880238523
 20
120.7956854119
 11
293.6592155244
 21
120.7956854119
  0
LINE
  5
701
100
AcDbEntity
  8
KONSTRUKTIONSELEMENTE
100
AcDbLine
 62
7
  6
CONTINUOUS
 10
304.1659060992
 20
39.1931450334
 11
326.2236197586
 21
77.3982257903
  0
LINE
  5
702
100
AcDbEntity
  8
KONSTRUKTIONSELEMENTE
100
AcDbLine
 62
7
  6
CONTINUOUS
 10
298.281333418
 20
125.7956854119
 11
254.1659060992
 21
125.7956854119
  0
LINE
  5
703
100
AcDbEntity
  8
KONSTRUKTIONSELEMENTE
100
AcDbLine
 62
7
  6
CONTINUOUS
 10
326.2236197586
 20
84.1931450334
 11
304.1659060992
 21
122.3982257903
  0
LINE
  5
704
100
AcDbEntity
  8
KONSTRUKTIONSELEMENTE
100
AcDbLine
 62
7
  6
CONTINUOUS
 10
326.2236197586
 20
77.3982257903
 11
326.2236197586
 21
84.1931450334
  0
LINE
  5
705
100
AcDbEntity
  8
KONSTRUKTIONSELEMENTE
100
AcDbLine
 62
7
  6
CONTINUOUS
 10
298.281333418
 20
35.7956854119
 11
304.1659060992
 21
39.1931450334
  0
LINE
  5
706
100
AcDbEntity
  8
KONSTRUKTIONSELEMENTE
100
AcDbLine
 62
7
  6
CONTINUOUS
 10
304.1659060992
 20
122.3982257903
 11
298.281333418
 21
125.7956854119
  0
ARC
  5
707
100
AcDbEntity
  8
RUNDUNGEN
100
AcDbCircle
 62
7
  6
CONTINUOUS
 10
247.7236197586
 20
401.6575259147
 40
5.0
100
AcDbArc
 50
270.0002321825
 51
0.001039402
  0
ARC
  5
708
100
AcDbEntity
  8
RUNDUNGEN
100
AcDbCircle
 62
7
  6
CONTINUOUS
 10
236.2236197586
 20
392.6575259147
 40
4.0
100
AcDbArc
 50
90.0
 51
180.0
  0
ARC
  5
709
100
AcDbEntity
  8
RUNDUNGEN
100
AcDbCircle
 62
7
  6
CONTINUOUS
 10
304.7236197586
 20
401.6575259147
 40
5.0
100
AcDbArc
 50
179.9995325171
 51
269.9996456824
  0
ARC
  5
70A
100
AcDbEntity
  8
RUNDUNGEN
100
AcDbCircle
 62
7
  6
CONTINUOUS
 10
316.2236197586
 20
392.6575259147
 40
4.0
100
AcDbArc
 50
0.0
 51
90.0
  0
ARC
  5
70B
100
AcDbEntity
  8
RUNDUNGEN
100
AcDbCircle
 62
7
  6
CONTINUOUS
 10
276.2236197586
 20
448.1575259147
 40
23.5
100
AcDbArc
 50
359.9996034953
 51
180.0
  0
ARC
  5
70C
100
AcDbEntity
  8
RUNDUNGEN
100
AcDbCircle
 62
7
  6
CONTINUOUS
 10
399.9973464421
 20
432.9254862733
 40
5.000002792
100
AcDbArc
 50
329.9998891883
 51
359.9998720455
  0
ARC
  5
70D
100
AcDbEntity
  8
RUNDUNGEN
100
AcDbCircle
 62
7
  6
CONTINUOUS
 10
405.9973485551
 20
423.3177836124
 40
5.0
100
AcDbArc
 50
150.0000484265
 51
180.0000419385
  0
ARC
  5
70E
100
AcDbEntity
  8
RUNDUNGEN
100
AcDbCircle
 62
7
  6
CONTINUOUS
 10
433.9973464421
 20
438.636298716
 40
3.0
100
AcDbArc
 50
302.0
 51
360.0
  0
ARC
  5
70F
100
AcDbEntity
  8
RUNDUNGEN
100
AcDbCircle
 62
7
  6
CONTINUOUS
 10
413.0795944803
 20
467.6574971176
 40
4.0
100
AcDbArc
 50
90.0003233722
 51
145.0
  0
ARC
  5
710
100
AcDbEntity
  8
RUNDUNGEN
100
AcDbCircle
 62
7
  6
CONTINUOUS
 10
432.9973464421
 20
463.7567683498
 40
4.0
100
AcDbArc
 50
0.0
 51
65.5566645723
  0
ARC
  5
711
100
AcDbEntity
  8
RUNDUNGEN
100
AcDbCircle
 62
7
  6
CONTINUOUS
 10
426.7011719786
 20
467.6575259147
 40
4.0
100
AcDbArc
 50
50.8832562204
 51
90.0
  0
ARC
  5
712
100
AcDbEntity
  8
RUNDUNGEN
100
AcDbCircle
 62
7
  6
CONTINUOUS
 10
408.9973464421
 20
461.8274427188
 40
4.0
100
AcDbArc
 50
145.0
 51
180.0
  0
ARC
  5
713
100
AcDbEntity
  8
RUNDUNGEN
100
AcDbCircle
 62
7
  6
CONTINUOUS
 10
444.9973464421
 20
420.1575259147
 40
18.5
100
AcDbArc
 50
121.99936197
 51
58.0005884532
  0
ARC
  5
714
100
AcDbEntity
  8
RUNDUNGEN
100
AcDbCircle
 62
7
  6
CONTINUOUS
 10
455.9973464421
 20
438.636298716
 40
3.0
100
AcDbArc
 50
180.0
 51
238.0
  0
ARC
  5
715
100
AcDbEntity
  8
RUNDUNGEN
100
AcDbCircle
 62
7
  6
CONTINUOUS
 10
483.997344344
 20
423.3177835865
 40
5.0
100
AcDbArc
 50
359.9999583583
 51
29.9999519162
  0
ARC
  5
716
100
AcDbEntity
  8
RUNDUNGEN
100
AcDbCircle
 62
7
  6
CONTINUOUS
 10
489.9973464421
 20
432.9254751072
 40
5.0
100
AcDbArc
 50
180.1897183196
 51
210.0
  0
ARC
  5
717
100
AcDbEntity
  8
0
100
AcDbCircle
 62
7
  6
CONTINUOUS
 10
444.9973464421
 20
490.1575259147
 40
25.0
100
AcDbArc
 50
230.8832562204
 51
245.5566645723
  0
ARC
  5
718
100
AcDbEntity
  8
0
100
AcDbCircle
 62
7
  6
CONTINUOUS
 10
444.9973464421
 20
490.1575259147
 40
25.0
100
AcDbArc
 50
294.4433354277
 51
309.1167437796
  0
ARC
  5
719
100
AcDbEntity
  8
RUNDUNGEN
100
AcDbCircle
 62
7
  6
CONTINUOUS
 10
476.915098329
 20
467.6574972245
 40
4.0
100
AcDbArc
 50
35.0
 51
89.9996778505
  0
ARC
  5
71A
100
AcDbEntity
  8
RUNDUNGEN
100
AcDbCircle
 62
7
  6
CONTINUOUS
 10
456.9973464421
 20
463.7567683498
 40
4.0
100
AcDbArc
 50
114.4433354277
 51
180.0
  0
ARC
  5
71B
100
AcDbEntity
  8
RUNDUNGEN
100
AcDbCircle
 62
7
  6
CONTINUOUS
 10
463.2935209056
 20
467.6575259147
 40
4.0
100
AcDbArc
 50
90.0
 51
129.1167437796
  0
ARC
  5
71C
100
AcDbEntity
  8
RUNDUNGEN
100
AcDbCircle
 62
7
  6
CONTINUOUS
 10
480.9973464421
 20
461.8274427188
 40
4.0
100
AcDbArc
 50
0.0
 51
35.0
  0
ARC
  5
71D
100
AcDbEntity
  8
RUNDUNGEN
100
AcDbCircle
 62
7
  6
CONTINUOUS
 10
258.7880328225
 20
44.7956811284
 40
4.0000000003
100
AcDbArc
 50
244.1580076131
 51
269.999584787
  0
ARC
  5
71E
100
AcDbEntity
  8
RUNDUNGEN
100
AcDbCircle
 62
7
  6
CONTINUOUS
 10
256.7236197586
 20
62.4995109483
 40
4.0
100
AcDbArc
 50
140.8832562204
 51
180.0
  0
ARC
  5
71F
100
AcDbEntity
  8
RUNDUNGEN
100
AcDbCircle
 62
7
  6
CONTINUOUS
 10
258.3664769015
 20
64.7294957896
 40
4.0
100
AcDbArc
 50
122.2636471777
 51
146.3551390299
  0
ARC
  5
720
100
AcDbEntity
  8
RUNDUNGEN
100
AcDbCircle
 62
7
  6
CONTINUOUS
 10
256.7236101876
 20
45.8707694396
 40
3.9999957462
100
AcDbArc
 50
180.000050104
 51
240.8237482715
  0
ARC
  5
721
100
AcDbEntity
  8
RUNDUNGEN
100
AcDbCircle
 62
7
  6
CONTINUOUS
 10
261.9713468435
 20
70.7956854119
 40
2.0
100
AcDbArc
 50
90.0
 51
143.9681209275
  0
ARC
  5
722
100
AcDbEntity
  8
RUNDUNGEN
100
AcDbCircle
 62
7
  6
CONTINUOUS
 10
234.2236197586
 20
80.7956854119
 40
25.0
100
AcDbArc
 50
33.6423148658
 51
39.1167437796
  0
ARC
  5
723
100
AcDbEntity
  8
RUNDUNGEN
100
AcDbCircle
 62
7
  6
CONTINUOUS
 10
234.2236197586
 20
80.7956854119
 40
25.0
100
AcDbArc
 50
320.8832562204
 51
326.3576851342
  0
ARC
  5
724
100
AcDbEntity
  8
RUNDUNGEN
100
AcDbCircle
 62
7
  6
CONTINUOUS
 10
248.2236197586
 20
80.7956854119
 40
15.0
100
AcDbArc
 50
36.0318833628
 51
57.7350895893
  0
ARC
  5
725
100
AcDbEntity
  8
RUNDUNGEN
100
AcDbCircle
 62
7
  6
CONTINUOUS
 10
248.2236197586
 20
80.7956854119
 40
15.0
100
AcDbArc
 50
302.2649104107
 51
323.9681209275
  0
ARC
  5
726
100
AcDbEntity
  8
RUNDUNGEN
100
AcDbCircle
 62
7
  6
CONTINUOUS
 10
258.3664769015
 20
96.8618750342
 40
4.0
100
AcDbArc
 50
213.6448889392
 51
237.7365137202
  0
ARC
  5
727
100
AcDbEntity
  8
RUNDUNGEN
100
AcDbCircle
 62
7
  6
CONTINUOUS
 10
261.9713468435
 20
90.7956854119
 40
2.0
100
AcDbArc
 50
216.0318790725
 51
270.0
  0
ARC
  5
728
100
AcDbEntity
  8
RUNDUNGEN
100
AcDbCircle
 62
7
  6
CONTINUOUS
 10
258.7880239845
 20
116.7956854119
 40
4.0
100
AcDbArc
 50
90.0000018936
 51
115.8419370084
  0
ARC
  5
729
100
AcDbEntity
  8
RUNDUNGEN
100
AcDbCircle
 62
7
  6
CONTINUOUS
 10
256.7236197586
 20
115.7206048821
 40
4.0
100
AcDbArc
 50
119.176395855
 51
180.0
  0
ARC
  5
72A
100
AcDbEntity
  8
RUNDUNGEN
100
AcDbCircle
 62
7
  6
CONTINUOUS
 10
256.7236197586
 20
99.0918598754
 40
4.0
100
AcDbArc
 50
180.0
 51
219.1167437796
  0
ARC
  5
72B
100
AcDbEntity
  8
RUNDUNGEN
100
AcDbCircle
 62
7
  6
CONTINUOUS
 10
293.6592155328
 20
44.7956854119
 40
4.0
100
AcDbArc
 50
270.0000019722
 51
295.8419366856
  0
ARC
  5
72C
100
AcDbEntity
  8
RUNDUNGEN
100
AcDbCircle
 62
7
  6
CONTINUOUS
 10
295.7236197586
 20
45.8707659417
 40
4.0
100
AcDbArc
 50
299.176395855
 51
360.0
  0
ARC
  5
72D
100
AcDbEntity
  8
RUNDUNGEN
100
AcDbCircle
 62
7
  6
CONTINUOUS
 10
295.7236197586
 20
62.4995109483
 40
4.0
100
AcDbArc
 50
0.0
 51
39.1167437796
  0
ARC
  5
72E
100
AcDbEntity
  8
RUNDUNGEN
100
AcDbCircle
 62
7
  6
CONTINUOUS
 10
294.0807626158
 20
64.7294957896
 40
4.0
100
AcDbArc
 50
33.6450003128
 51
57.7365100607
  0
ARC
  5
72F
100
AcDbEntity
  8
RUNDUNGEN
100
AcDbCircle
 62
7
  6
CONTINUOUS
 10
290.4758926738
 20
70.7956854119
 40
2.0
100
AcDbArc
 50
36.0318451225
 51
90.0
  0
ARC
  5
730
100
AcDbEntity
  8
0
100
AcDbCircle
 62
7
  6
CONTINUOUS
 10
276.2236197586
 20
80.7956854119
 40
44.5
100
AcDbArc
 50
202.4590156109
 51
211.1214551226
  0
ARC
  5
731
100
AcDbEntity
  8
0
100
AcDbCircle
 62
7
  6
CONTINUOUS
 10
276.2236197586
 20
80.7956854119
 40
44.5
100
AcDbArc
 50
187.7488729532
 51
201.7641306659
  0
ARC
  5
732
100
AcDbEntity
  8
0
100
AcDbCircle
 62
7
  6
CONTINUOUS
 10
276.2236197586
 20
80.7956854119
 40
44.5
100
AcDbArc
 50
150.3709915468
 51
185.8038763814
  0
CIRCLE
  5
733
100
AcDbEntity
  8
RUNDUNGEN
100
AcDbCircle
 62
7
  6
CONTINUOUS
 10
276.2236197586
 20
80.7956854119
 40
44.0
  0
ARC
  5
734
100
AcDbEntity
  8
RUNDUNGEN
100
AcDbCircle
 62
7
  6
CONTINUOUS
 10
294.0807626158
 20
96.8618750342
 40
4.0
100
AcDbArc
 50
302.2649104107
 51
326.3576851342
  0
ARC
  5
735
100
AcDbEntity
  8
RUNDUNGEN
100
AcDbCircle
 62
7
  6
CONTINUOUS
 10
290.4758926738
 20
90.7956854119
 40
2.0
100
AcDbArc
 50
270.0
 51
323.9681209275
  0
ARC
  5
736
100
AcDbEntity
  8
RUNDUNGEN
100
AcDbCircle
 62
7
  6
CONTINUOUS
 10
293.6592155328
 20
116.7956854119
 40
4.0
100
AcDbArc
 50
64.1580653705
 51
90.00000012
  0
ARC
  5
737
100
AcDbEntity
  8
RUNDUNGEN
100
AcDbCircle
 62
7
  6
CONTINUOUS
 10
295.7236197586
 20
99.0918598754
 40
4.0
100
AcDbArc
 50
320.8832562204
 51
360.0
  0
ARC
  5
738
100
AcDbEntity
  8
RUNDUNGEN
100
AcDbCircle
 62
7
  6
CONTINUOUS
 10
295.7236326803
 20
115.7206002243
 40
3.999994257
100
AcDbArc
 50
0.0000667175
 51
60.8237982757
  0
ARC
  5
739
100
AcDbEntity
  8
0
100
AcDbCircle
 62
7
  6
CONTINUOUS
 10
318.2236197586
 20
80.7956854119
 40
25.0
100
AcDbArc
 50
140.8832562204
 51
146.3576851342
  0
ARC
  5
73A
100
AcDbEntity
  8
0
100
AcDbCircle
 62
7
  6
CONTINUOUS
 10
318.2236197586
 20
80.7956854119
 40
25.0
100
AcDbArc
 50
213.6423148658
 51
219.1167437796
  0
ARC
  5
73B
100
AcDbEntity
  8
RUNDUNGEN
100
AcDbCircle
 62
7
  6
CONTINUOUS
 10
318.2236197586
 20
80.7956854119
 40
25.0
100
AcDbArc
 50
213.6423148658
 51
219.1167437796
  0
ARC
  5
73C
100
AcDbEntity
  8
RUNDUNGEN
100
AcDbCircle
 62
7
  6
CONTINUOUS
 10
318.2236197586
 20
80.7956854119
 40
25.0
100
AcDbArc
 50
140.8832562204
 51
146.3576851342
  0
ARC
  5
73D
100
AcDbEntity
  8
RUNDUNGEN
100
AcDbCircle
 62
7
  6
CONTINUOUS
 10
304.2236197586
 20
80.7956854119
 40
15.0
100
AcDbArc
 50
122.2649104107
 51
143.9681209275
  0
ARC
  5
73E
100
AcDbEntity
  8
RUNDUNGEN
100
AcDbCircle
 62
7
  6
CONTINUOUS
 10
304.2236197586
 20
80.7956854119
 40
15.0
100
AcDbArc
 50
216.0318835992
 51
237.7350895893
  0
SPLINE
  5
73F
100
AcDbEntity
  8
RUNDUNGEN
100
AcDbSpline
 62
7
  6
CONTINUOUS
 70
0
 71
3
 72
9
 73
5
 74
0
 42
0.0000001
 43
0.0000001
 44
0.0000000001
 40
0.0
 40
0.0
 40
0.0
 40
0.0
 40
0.4933252081
 40
1.0
 40
1.0
 40
1.0
 40
1.0
 10
299.7235777403
 20
99.0063820282
 30
0.0
 10
299.7215211106
 20
98.5725544328
 30
0.0
 10
299.5624159134
 20
97.6878531327
 30
0.0
 10
299.1159744718
 20
96.9080126563
 30
0.0
 10
298.8335919045
 20
96.5633466848
 30
0.0
  0
LINE
  5
740
100
AcDbEntity
  8
RUNDUNGEN
100
AcDbLine
 62
7
  6
CONTINUOUS
 10
298.8335919045
 20
96.5633466848
 11
298.8272960208
 21
96.555681653
  0
SPLINE
  5
741
100
AcDbEntity
  8
RUNDUNGEN
100
AcDbSpline
 62
7
  6
CONTINUOUS
 70
0
 71
3
 72
9
 73
5
 74
0
 42
0.0000001
 43
0.0000001
 44
0.0000000001
 40
0.0
 40
0.0
 40
0.0
 40
0.0
 40
0.4933252189
 40
1.0
 40
1.0
 40
1.0
 40
1.0
 10
252.7236617681
 20
62.5849864877
 30
0.0
 10
252.725718127
 20
63.0188144676
 30
0.0
 10
252.8848230881
 20
63.9035166308
 30
0.0
 10
253.3312647925
 20
64.6833578912
 30
0.0
 10
253.6136476146
 20
65.0280241378
 30
0.0
  0
LINE
  5
742
100
AcDbEntity
  8
RUNDUNGEN
100
AcDbLine
 62
7
  6
CONTINUOUS
 10
253.6136476146
 20
65.0280241378
 11
253.6199432412
 21
65.0356888566
  0
LINE
  5
743
100
AcDbEntity
  8
RUNDUNGEN
100
AcDbLine
 62
7
  6
CONTINUOUS
 10
298.8272558367
 20
65.0357378879
 11
298.8335918329
 21
65.028024023
  0
SPLINE
  5
744
100
AcDbEntity
  8
RUNDUNGEN
100
AcDbSpline
 62
7
  6
CONTINUOUS
 70
0
 71
3
 72
9
 73
5
 74
0
 42
0.0000001
 43
0.0000001
 44
0.0000000001
 40
0.0
 40
0.0
 40
0.0
 40
0.0
 40
0.506674859
 40
1.0
 40
1.0
 40
1.0
 40
1.0
 10
298.8335918329
 20
65.028024023
 30
0.0
 10
299.1159768743
 20
64.6833497037
 30
0.0
 10
299.5624283291
 20
63.9034965911
 30
0.0
 10
299.7215268716
 20
63.018776165
 30
0.0
 10
299.7235779632
 20
62.5849408459
 30
0.0
  0
LINE
  5
745
100
AcDbEntity
  8
RUNDUNGEN
100
AcDbLine
 62
7
  6
CONTINUOUS
 10
253.619943501
 20
96.5556817092
 11
253.6136476395
 21
96.5633467156
  0
SPLINE
  5
746
100
AcDbEntity
  8
RUNDUNGEN
100
AcDbSpline
 62
7
  6
CONTINUOUS
 70
0
 71
3
 72
9
 73
5
 74
0
 42
0.0000001
 43
0.0000001
 44
0.0000000001
 40
0.0
 40
0.0
 40
0.0
 40
0.0
 40
0.5066748543
 40
1.0
 40
1.0
 40
1.0
 40
1.0
 10
253.6136476395
 20
96.5633467156
 30
0.0
 10
253.3312598857
 20
96.9080190881
 30
0.0
 10
252.8848121833
 20
97.6878758199
 30
0.0
 10
252.7257124954
 20
98.5725956925
 30
0.0
 10
252.7236615492
 20
99.0064312278
 30
0.0
  0
ELLIPSE
  5
747
100
AcDbEntity
  8
0
100
AcDbEllipse
 62
7
  6
CONTINUOUS
 10
276.2236197586
 20
363.9873128652
 30
0.0
 11
44.5
 21
0.0
 31
0.0
 40
0.1702127606
 41
-2.6501366248
 42
-2.6114945815
  0
ELLIPSE
  5
748
100
AcDbEntity
  8
0
100
AcDbEllipse
 62
7
  6
CONTINUOUS
 10
276.2236197586
 20
367.5617806748
 30
0.0
 11
44.5
 21
-0.0
 31
0.0
 40
0.3404255211
 41
-2.669157374
 42
-2.6501366248
  0
ELLIPSE
  5
749
100
AcDbEntity
  8
0
100
AcDbEllipse
 62
7
  6
CONTINUOUS
 10
276.2236197586
 20
374.4553971531
 30
0.0
 11
44.5
 21
-0.0
 31
0.0
 40
0.6808510423
 41
-2.6879949813
 42
-2.669157374
  0
ELLIPSE
  5
74A
100
AcDbEntity
  8
0
100
AcDbEllipse
 62
7
  6
CONTINUOUS
 10
276.2236197586
 20
401.0087384422
 30
0.0
 11
0.0
 21
90.8939608761
 31
0.0
 40
0.4895814812
 41
-4.2712537261
 42
-4.2587913081
  0
ELLIPSE
  5
74B
100
AcDbEntity
  8
0
100
AcDbEllipse
 62
7
  6
CONTINUOUS
 10
276.2236197586
 20
363.9873107291
 30
0.0
 11
44.5
 21
0.0
 31
0.0
 40
0.255319362
 41
2.8685497077
 42
2.8918124279
  0
ELLIPSE
  5
74C
100
AcDbEntity
  8
0
100
AcDbEllipse
 62
7
  6
CONTINUOUS
 10
276.2236197586
 20
357.8596728253
 30
0.0
 11
44.5
 21
0.0
 31
0.0
 40
0.7659558946
 41
2.8451343454
 42
2.8685497077
  0
ELLIPSE
  5
74D
100
AcDbEntity
  8
0
100
AcDbEllipse
 62
7
  6
CONTINUOUS
 10
276.2236197586
 20
347.9021315115
 30
0.0
 11
0.0
 21
68.1704646891
 31
0.0
 40
0.6527753654
 41
1.262568178
 42
1.2743380186
  0
ELLIPSE
  5
74E
100
AcDbEntity
  8
0
100
AcDbEllipse
 62
7
  6
CONTINUOUS
 10
276.2236197586
 20
389.7746411185
 30
0.0
 11
0.0
 21
68.1705283471
 31
0.0
 40
0.6527747559
 41
-4.4159306722
 42
-4.4041608316
  0
ELLIPSE
  5
74F
100
AcDbEntity
  8
0
100
AcDbEllipse
 62
7
  6
CONTINUOUS
 10
276.2236197586
 20
379.8170812079
 30
0.0
 11
44.5
 21
0.0
 31
0.0
 40
0.7659558946
 41
-2.8685497077
 42
-2.8451343454
  0
ELLIPSE
  5
750
100
AcDbEntity
  8
0
100
AcDbEllipse
 62
7
  6
CONTINUOUS
 10
276.2236197586
 20
373.6894433041
 30
0.0
 11
44.5
 21
0.0
 31
0.0
 40
0.255319362
 41
-2.8918124279
 42
-2.8685497077
  0
ELLIPSE
  5
751
100
AcDbEntity
  8
0
100
AcDbEllipse
 62
7
  6
CONTINUOUS
 10
276.2236197586
 20
358.6256087041
 30
0.0
 11
44.5
 21
-0.0
 31
0.0
 40
0.255319362
 41
2.8685497077
 42
2.8918124279
  0
ELLIPSE
  5
752
100
AcDbEntity
  8
0
100
AcDbEllipse
 62
7
  6
CONTINUOUS
 10
276.2236197586
 20
355.5617941351
 30
0.0
 11
44.5
 21
-0.0
 31
0.0
 40
0.510637263
 41
2.8451343454
 42
2.8685497077
  0
ELLIPSE
  5
753
100
AcDbEntity
  8
0
100
AcDbEllipse
 62
7
  6
CONTINUOUS
 10
276.2236197586
 20
344.4979490942
 30
0.0
 11
-0.0
 21
60.5957480669
 31
0.0
 40
0.734374959
 41
1.2566667219
 42
1.2743380186
  0
ELLIPSE
  5
754
100
AcDbEntity
  8
0
100
AcDbEllipse
 62
7
  6
CONTINUOUS
 10
276.2236197586
 20
382.7107229283
 30
0.0
 11
-0.0
 21
60.5957586765
 31
0.0
 40
0.7343748304
 41
-4.4159306722
 42
-4.3982593755
  0
ELLIPSE
  5
755
100
AcDbEntity
  8
0
100
AcDbEllipse
 62
7
  6
CONTINUOUS
 10
276.2236197586
 20
371.6468747879
 30
0.0
 11
44.5
 21
0.0
 31
0.0
 40
0.510637263
 41
-2.8685497077
 42
-2.8451343454
  0
ELLIPSE
  5
756
100
AcDbEntity
  8
0
100
AcDbEllipse
 62
7
  6
CONTINUOUS
 10
276.2236197586
 20
368.5830602189
 30
0.0
 11
44.5
 21
0.0
 31
0.0
 40
0.255319362
 41
-2.8918124279
 42
-2.8685497077
  0
ELLIPSE
  5
757
100
AcDbEntity
  8
0
100
AcDbEllipse
 62
7
  6
CONTINUOUS
 10
276.2236197586
 20
370.3702835783
 30
0.0
 11
44.5
 21
-0.0
 31
0.0
 40
0.510637263
 41
-2.972245067
 42
-2.960834648
  0
ELLIPSE
  5
758
100
AcDbEntity
  8
0
100
AcDbEllipse
 62
7
  6
CONTINUOUS
 10
276.2236197586
 20
374.2000771735
 30
0.0
 11
-0.0
 21
45.446803093
 31
0.0
 40
0.9791667834
 41
-4.560115828
 42
-4.5430413938
  0
ELLIPSE
  5
759
100
AcDbEntity
  8
0
100
AcDbEllipse
 62
7
  6
CONTINUOUS
 10
276.2236197586
 20
381.0937449933
 30
0.0
 11
0.0
 21
90.8939529188
 31
0.0
 40
0.4895815241
 41
-4.5714736209
 42
-4.560115828
  0
ELLIPSE
  5
75A
100
AcDbEntity
  8
0
100
AcDbEllipse
 62
7
  6
CONTINUOUS
 10
276.2236197586
 20
353.1361786225
 30
0.0
 11
-0.0
 21
113.6175048065
 31
0.0
 40
0.3916649998
 41
1.4185231744
 42
1.4298809673
  0
ELLIPSE
  5
75B
100
AcDbEntity
  8
0
100
AcDbEllipse
 62
7
  6
CONTINUOUS
 10
276.2236197586
 20
363.4766768597
 30
0.0
 11
0.0
 21
45.446803093
 31
0.0
 40
0.9791667834
 41
1.4014487402
 42
1.4185231744
  0
ELLIPSE
  5
75C
100
AcDbEntity
  8
0
100
AcDbEllipse
 62
7
  6
CONTINUOUS
 10
276.2236197586
 20
366.5405093984
 30
0.0
 11
44.5
 21
0.0
 31
0.0
 40
0.6127654169
 41
2.943673827
 42
2.972245067
  0
ELLIPSE
  5
75D
100
AcDbEntity
  8
0
100
AcDbEllipse
 62
7
  6
CONTINUOUS
 10
276.2236197586
 20
370.1149743303
 30
0.0
 11
44.5
 21
-0.0
 31
0.0
 40
0.204255139
 41
2.9149378768
 42
2.943673827
  0
ELLIPSE
  5
75E
100
AcDbEntity
  8
0
100
AcDbEllipse
 62
7
  6
CONTINUOUS
 10
276.2236197586
 20
362.1490180574
 30
0.0
 11
44.5
 21
0.0
 31
0.0
 40
0.2042556244
 41
-2.9494003841
 42
-2.9206995616
  0
ELLIPSE
  5
75F
100
AcDbEntity
  8
0
100
AcDbEllipse
 62
7
  6
CONTINUOUS
 10
276.2236197586
 20
365.6213521396
 30
0.0
 11
44.5
 21
-0.0
 31
0.0
 40
0.6127654705
 41
-2.977941811
 42
-2.9494003841
  0
ELLIPSE
  5
760
100
AcDbEntity
  8
0
100
AcDbEllipse
 62
7
  6
CONTINUOUS
 10
276.2236197586
 20
368.5830577789
 30
0.0
 11
0.0
 21
45.4468083978
 31
0.0
 40
0.9791666691
 41
-4.5657971053
 42
-4.5487381378
  0
ELLIPSE
  5
761
100
AcDbEntity
  8
0
100
AcDbEllipse
 62
7
  6
CONTINUOUS
 10
276.2236197586
 20
378.5404732963
 30
0.0
 11
0.0
 21
113.61680694
 31
0.0
 40
0.3916674055
 41
-4.577145634
 42
-4.5657971053
  0
ELLIPSE
  5
762
100
AcDbEntity
  8
0
100
AcDbEllipse
 62
7
  6
CONTINUOUS
 10
276.2236197586
 20
348.6681933021
 30
0.0
 11
-0.0
 21
113.6168228544
 31
0.0
 40
0.3916673507
 41
1.4242044517
 42
1.4355529804
  0
ELLIPSE
  5
763
100
AcDbEntity
  8
0
100
AcDbEllipse
 62
7
  6
CONTINUOUS
 10
276.2236197586
 20
360.2851814411
 30
0.0
 11
44.5
 21
-0.0
 31
0.0
 40
0.765958086
 41
2.972245067
 42
2.9950007785
  0
ELLIPSE
  5
764
100
AcDbEntity
  8
0
100
AcDbEllipse
 62
7
  6
CONTINUOUS
 10
276.2236197586
 20
362.2000873697
 30
0.0
 11
44.5
 21
0.0
 31
0.0
 40
0.510637263
 41
2.960834648
 42
2.972245067
  0
ELLIPSE
  5
765
100
AcDbEntity
  8
0
100
AcDbEllipse
 62
7
  6
CONTINUOUS
 10
276.2236197586
 20
372.9234723284
 30
0.0
 11
-0.0
 21
136.3401492307
 31
0.0
 40
0.3263895503
 41
-4.6786747394
 42
-4.6730529942
  0
ELLIPSE
  5
766
100
AcDbEntity
  8
0
100
AcDbEllipse
 62
7
  6
CONTINUOUS
 10
276.2236197586
 20
369.9447595058
 30
0.0
 11
0.0
 21
60.5957374573
 31
0.0
 40
0.7343750875
 41
-4.6730529942
 42
-4.6561796109
  0
ELLIPSE
  5
767
100
AcDbEntity
  8
0
100
AcDbEllipse
 62
7
  6
CONTINUOUS
 10
276.2236197586
 20
368.4553970681
 30
0.0
 11
44.5
 21
-0.0
 31
0.0
 40
0.7659569903
 41
-3.0853832841
 42
-3.0632504102
  0
ELLIPSE
  5
768
100
AcDbEntity
  8
0
100
AcDbEllipse
 62
7
  6
CONTINUOUS
 10
276.2236197586
 20
371.1873128943
 30
0.0
 11
44.5
 21
0.0
 31
0.0
 40
0.2042553727
 41
3.0346473361
 42
3.0628596398
  0
ELLIPSE
  5
769
100
AcDbEntity
  8
0
100
AcDbEllipse
 62
7
  6
CONTINUOUS
 10
276.2236197586
 20
369.2213569651
 30
0.0
 11
44.5
 21
0.0
 31
0.0
 40
0.7659569903
 41
3.0628596398
 42
3.0853832841
  0
ELLIPSE
  5
76A
100
AcDbEntity
  8
0
100
AcDbEllipse
 62
7
  6
CONTINUOUS
 10
276.2236197586
 20
367.7319945274
 30
0.0
 11
0.0
 21
60.5957374573
 31
0.0
 40
0.7343750875
 41
1.5145869573
 42
1.5314603407
  0
ELLIPSE
  5
76B
100
AcDbEntity
  8
0
100
AcDbEllipse
 62
7
  6
CONTINUOUS
 10
276.2236197586
 20
364.7532817048
 30
0.0
 11
0.0
 21
136.3401492307
 31
0.0
 40
0.3263895503
 41
1.5314603407
 42
1.5370820858
  0
ELLIPSE
  5
76C
100
AcDbEntity
  8
0
100
AcDbEllipse
 62
7
  6
CONTINUOUS
 10
276.2236197586
 20
372.4979487796
 30
0.0
 11
44.5
 21
-0.0
 31
0.0
 40
0.255319362
 41
2.8333645048
 42
2.8568620868
  0
ELLIPSE
  5
76D
100
AcDbEntity
  8
0
100
AcDbEllipse
 62
7
  6
CONTINUOUS
 10
276.2236197586
 20
366.7532690877
 30
0.0
 11
44.5
 21
-0.0
 31
0.0
 40
0.6808512211
 41
2.8156259882
 42
2.8333645048
  0
ELLIPSE
  5
76E
100
AcDbEntity
  8
0
100
AcDbEllipse
 62
7
  6
CONTINUOUS
 10
276.2236197586
 20
354.625656805
 30
0.0
 11
0.0
 21
68.1700746153
 31
0.0
 40
0.6527791007
 41
1.2329449767
 42
1.2448296614
  0
ELLIPSE
  5
76F
100
AcDbEntity
  8
0
100
AcDbEllipse
 62
7
  6
CONTINUOUS
 10
276.2236197586
 20
316.9658138718
 30
0.0
 11
0.0
 21
181.7879058377
 31
0.0
 40
0.244790762
 41
1.226984126
 42
1.2329449767
  0
ELLIPSE
  5
770
100
AcDbEntity
  8
0
100
AcDbEllipse
 62
7
  6
CONTINUOUS
 10
276.2236197586
 20
443.3492376001
 30
0.0
 11
0.0
 21
181.7879058377
 31
0.0
 40
0.244790762
 41
-4.3745376303
 42
-4.3685767796
  0
ELLIPSE
  5
771
100
AcDbEntity
  8
0
100
AcDbEllipse
 62
7
  6
CONTINUOUS
 10
276.2236197586
 20
405.6894157668
 30
0.0
 11
0.0
 21
68.170138273
 31
0.0
 40
0.6527784911
 41
-4.386422315
 42
-4.3745376303
  0
ELLIPSE
  5
772
100
AcDbEntity
  8
0
100
AcDbEllipse
 62
7
  6
CONTINUOUS
 10
276.2236197586
 20
393.5617797019
 30
0.0
 11
44.5
 21
0.0
 31
0.0
 40
0.6808509827
 41
-2.8333645048
 42
-2.8156259882
  0
ELLIPSE
  5
773
100
AcDbEntity
  8
0
100
AcDbEllipse
 62
7
  6
CONTINUOUS
 10
276.2236197586
 20
387.8171032286
 30
0.0
 11
44.5
 21
0.0
 31
0.0
 40
0.255319362
 41
-2.8568620868
 42
-2.8333645048
  0
ELLIPSE
  5
774
100
AcDbEntity
  8
0
100
AcDbEllipse
 62
7
  6
CONTINUOUS
 10
276.2236197586
 20
375.5617813062
 30
0.0
 11
44.5
 21
-0.0
 31
0.0
 40
0.2553189968
 41
3.1078783912
 42
3.1303564621
  0
ELLIPSE
  5
775
100
AcDbEntity
  8
0
100
AcDbEllipse
 62
7
  6
CONTINUOUS
 10
276.2236197586
 20
374.9234827668
 30
0.0
 11
44.5
 21
0.0
 31
0.0
 40
0.6808512211
 41
3.0910092768
 42
3.1078783912
  0
ELLIPSE
  5
776
100
AcDbEntity
  8
0
100
AcDbEllipse
 62
7
  6
CONTINUOUS
 10
276.2236197586
 20
373.0085862215
 30
0.0
 11
0.0
 21
68.1702696517
 31
0.0
 40
0.6527772331
 41
1.5089591724
 42
1.52021295
  0
ELLIPSE
  5
777
100
AcDbEntity
  8
0
100
AcDbEllipse
 62
7
  6
CONTINUOUS
 10
276.2236197586
 20
365.9873359076
 30
0.0
 11
0.0
 21
181.7868656409
 31
0.0
 40
0.2447921628
 41
1.5033294149
 42
1.5089591724
  0
ELLIPSE
  5
778
100
AcDbEntity
  8
0
100
AcDbEllipse
 62
7
  6
CONTINUOUS
 10
276.2236197586
 20
373.0936966715
 30
0.0
 11
0.0
 21
60.5957480669
 31
0.0
 40
0.734374959
 41
-4.5487381378
 42
-4.5316309748
  0
ELLIPSE
  5
779
100
AcDbEntity
  8
0
100
AcDbEllipse
 62
7
  6
CONTINUOUS
 10
276.2236197586
 20
366.2851888334
 30
0.0
 11
44.5
 21
0.0
 31
0.0
 40
0.510638724
 41
-2.960834648
 42
-2.9379406858
  0
ELLIPSE
  5
77A
100
AcDbEntity
  8
0
100
AcDbEllipse
 62
7
  6
CONTINUOUS
 10
276.2236197586
 20
363.9873082447
 30
0.0
 11
44.5
 21
0.0
 31
0.0
 40
0.2553186315
 41
-2.9379406858
 42
-2.9149378768
  0
ELLIPSE
  5
77B
100
AcDbEntity
  8
0
100
AcDbEllipse
 62
7
  6
CONTINUOUS
 10
276.2236197586
 20
388.7107151518
 30
0.0
 11
44.0
 21
0.0
 31
0.0
 40
0.204255139
 41
-2.8535345163
 42
-2.8237689268
  0
ELLIPSE
  5
77C
100
AcDbEntity
  8
0
100
AcDbEllipse
 62
7
  6
CONTINUOUS
 10
276.2236197586
 20
357.859655595
 30
0.0
 11
44.0
 21
-0.0
 31
0.0
 40
0.2042551568
 41
2.8535345163
 42
2.8830397782
  0
ELLIPSE
  5
77D
100
AcDbEntity
  8
0
100
AcDbEllipse
 62
7
  6
CONTINUOUS
 10
276.2236197586
 20
352.7532766738
 30
0.0
 11
44.0
 21
0.0
 31
0.0
 40
0.6127654705
 41
2.8237689268
 42
2.8535345163
  0
ELLIPSE
  5
77E
100
AcDbEntity
  8
0
100
AcDbEllipse
 62
7
  6
CONTINUOUS
 10
276.2236197586
 20
347.1362483476
 30
0.0
 11
-0.0
 21
44.9361701012
 31
0.0
 40
0.9791666691
 41
1.2349742079
 42
1.2529726
  0
ELLIPSE
  5
77F
100
AcDbEntity
  8
0
100
AcDbEllipse
 62
7
  6
CONTINUOUS
 10
276.2236197586
 20
324.9233388945
 30
0.0
 11
0.0
 21
112.3408564219
 31
0.0
 40
0.3916651644
 41
1.2229126027
 42
1.2349742079
  0
ELLIPSE
  5
780
100
AcDbEntity
  8
0
100
AcDbEllipse
 62
7
  6
CONTINUOUS
 10
276.2236197586
 20
402.2853352141
 30
0.0
 11
-0.0
 21
112.3408721576
 31
0.0
 40
0.3916651095
 41
-4.3765668615
 42
-4.3645052563
  0
ELLIPSE
  5
781
100
AcDbEntity
  8
0
100
AcDbEllipse
 62
7
  6
CONTINUOUS
 10
276.2236197586
 20
376.3702702015
 30
0.0
 11
44.0
 21
-0.0
 31
0.0
 40
0.7659558946
 41
-2.8297445137
 42
-2.8057705347
  0
ELLIPSE
  5
782
100
AcDbEntity
  8
0
100
AcDbEllipse
 62
7
  6
CONTINUOUS
 10
276.2236197586
 20
372.9235083651
 30
0.0
 11
44.0
 21
0.0
 31
0.0
 40
0.5106401849
 41
-2.8416613611
 42
-2.8297445137
  0
ELLIPSE
  5
783
100
AcDbEntity
  8
0
100
AcDbEllipse
 62
7
  6
CONTINUOUS
 10
276.2236197586
 20
374.4043324433
 30
0.0
 11
44.5
 21
-0.0
 31
0.0
 40
0.204255139
 41
-2.8918124279
 42
-2.8627107532
  0
ELLIPSE
  5
784
100
AcDbEntity
  8
0
100
AcDbEllipse
 62
7
  6
CONTINUOUS
 10
276.2236197586
 20
379.4086009183
 30
0.0
 11
44.5
 21
-0.0
 31
0.0
 40
0.6127668194
 41
-2.8627107532
 42
-2.8333645048
  0
ELLIPSE
  5
785
100
AcDbEntity
  8
0
100
AcDbEllipse
 62
7
  6
CONTINUOUS
 10
276.2236197586
 20
384.9234808658
 30
0.0
 11
-0.0
 21
45.446803093
 31
0.0
 40
0.9791667834
 41
-4.4041608316
 42
-4.386422315
  0
ELLIPSE
  5
786
100
AcDbEntity
  8
0
100
AcDbEllipse
 62
7
  6
CONTINUOUS
 10
276.2236197586
 20
406.7532150264
 30
0.0
 11
0.0
 21
113.6168546832
 31
0.0
 40
0.391667241
 41
-4.386422315
 42
-4.3745376303
  0
ELLIPSE
  5
787
100
AcDbEntity
  8
0
100
AcDbEllipse
 62
7
  6
CONTINUOUS
 10
276.2236197586
 20
338.2001399028
 30
0.0
 11
-0.0
 21
90.8934328204
 31
0.0
 40
0.4895843255
 41
1.2329449767
 42
1.2448296614
  0
ELLIPSE
  5
788
100
AcDbEntity
  8
0
100
AcDbEllipse
 62
7
  6
CONTINUOUS
 10
276.2236197586
 20
352.7532731675
 30
0.0
 11
-0.0
 21
45.446803093
 31
0.0
 40
0.9791667834
 41
1.2448296614
 42
1.262568178
  0
ELLIPSE
  5
789
100
AcDbEntity
  8
0
100
AcDbEllipse
 62
7
  6
CONTINUOUS
 10
276.2236197586
 20
359.6468625828
 30
0.0
 11
44.5
 21
0.0
 31
0.0
 40
0.5106401849
 41
2.8333645048
 42
2.8451343454
  0
ELLIPSE
  5
78A
100
AcDbEntity
  8
0
100
AcDbEllipse
 62
7
  6
CONTINUOUS
 10
276.2236197586
 20
372.9235083651
 30
0.0
 11
44.5
 21
0.0
 31
0.0
 40
0.5106401849
 41
-2.8451343454
 42
-2.8333645048
  0
ELLIPSE
  5
78B
100
AcDbEntity
  8
0
100
AcDbEllipse
 62
7
  6
CONTINUOUS
 10
276.2236197586
 20
376.3702702015
 30
0.0
 11
44.5
 21
-0.0
 31
0.0
 40
0.7659558946
 41
-2.8333645048
 42
-2.809689697
  0
ELLIPSE
  5
78C
100
AcDbEntity
  8
0
100
AcDbEllipse
 62
7
  6
CONTINUOUS
 10
276.2236197586
 20
402.2853352141
 30
0.0
 11
-0.0
 21
113.6174729775
 31
0.0
 40
0.3916651095
 41
-4.3804860238
 42
-4.3685767796
  0
ELLIPSE
  5
78D
100
AcDbEntity
  8
0
100
AcDbEllipse
 62
7
  6
CONTINUOUS
 10
276.2236197586
 20
324.9233388945
 30
0.0
 11
0.0
 21
113.617457063
 31
0.0
 40
0.3916651644
 41
1.226984126
 42
1.2388933702
  0
ELLIPSE
  5
78E
100
AcDbEntity
  8
0
100
AcDbEllipse
 62
7
  6
CONTINUOUS
 10
276.2236197586
 20
359.6468625828
 30
0.0
 11
44.0
 21
0.0
 31
0.0
 40
0.5106401849
 41
2.8297445137
 42
2.8416613611
  0
ELLIPSE
  5
78F
100
AcDbEntity
  8
0
100
AcDbEllipse
 62
7
  6
CONTINUOUS
 10
276.2236197586
 20
365.7745550382
 30
0.0
 11
44.0
 21
-0.0
 31
0.0
 40
0.204255678
 41
-2.6375669093
 42
-2.6048218399
  0
ELLIPSE
  5
790
100
AcDbEntity
  8
0
100
AcDbEllipse
 62
7
  6
CONTINUOUS
 10
276.2236197586
 20
347.1362483476
 30
0.0
 11
0.0
 21
45.4468083978
 31
0.0
 40
0.9791666691
 41
1.2388933702
 42
1.2566667219
  0
ELLIPSE
  5
791
100
AcDbEntity
  8
0
100
AcDbEllipse
 62
7
  6
CONTINUOUS
 10
276.2236197586
 20
375.902205717
 30
0.0
 11
44.0
 21
0.0
 31
0.0
 40
0.6808509827
 41
-2.6569308797
 42
-2.6375669093
  0
ELLIPSE
  5
792
100
AcDbEntity
  8
0
100
AcDbEllipse
 62
7
  6
CONTINUOUS
 10
276.2236197586
 20
424.7528014713
 30
0.0
 11
-0.0
 21
134.8074975395
 31
0.0
 40
0.3263913418
 41
-4.2341378282
 42
-4.2277272065
  0
ELLIPSE
  5
793
100
AcDbEntity
  8
0
100
AcDbEllipse
 62
7
  6
CONTINUOUS
 10
276.2236197586
 20
352.7532766738
 30
0.0
 11
44.5
 21
0.0
 31
0.0
 40
0.6127654705
 41
2.8274630487
 42
2.8568620868
  0
ELLIPSE
  5
794
100
AcDbEntity
  8
0
100
AcDbEllipse
 62
7
  6
CONTINUOUS
 10
276.2236197586
 20
357.859655595
 30
0.0
 11
44.5
 21
-0.0
 31
0.0
 40
0.2042551568
 41
2.8568620868
 42
2.886010218
  0
ELLIPSE
  5
795
100
AcDbEntity
  8
0
100
AcDbEllipse
 62
7
  6
CONTINUOUS
 10
276.2236197586
 20
369.3490102696
 30
0.0
 11
44.0
 21
0.0
 31
0.0
 40
0.2553186315
 41
-2.9355933545
 42
-2.9252160479
  0
ELLIPSE
  5
796
100
AcDbEntity
  8
0
100
AcDbEllipse
 62
7
  6
CONTINUOUS
 10
276.2236197586
 20
373.9447648728
 30
0.0
 11
44.0
 21
-0.0
 31
0.0
 40
0.765958086
 41
-2.9587575166
 42
-2.9355933545
  0
ELLIPSE
  5
797
100
AcDbEntity
  8
0
100
AcDbEllipse
 62
7
  6
CONTINUOUS
 10
276.2236197586
 20
380.0723944978
 30
0.0
 11
-0.0
 21
67.4041187208
 31
0.0
 40
0.6527791007
 41
-4.5410980554
 42
-4.5295538434
  0
ELLIPSE
  5
798
100
AcDbEntity
  8
0
100
AcDbEllipse
 62
7
  6
CONTINUOUS
 10
276.2236197586
 20
357.6043480913
 30
0.0
 11
0.0
 21
67.4041816632
 31
0.0
 40
0.6527784911
 41
1.3879611898
 42
1.3995054018
  0
ELLIPSE
  5
799
100
AcDbEntity
  8
0
100
AcDbEllipse
 62
7
  6
CONTINUOUS
 10
276.2236197586
 20
363.7319891604
 30
0.0
 11
44.0
 21
0.0
 31
0.0
 40
0.765958086
 41
2.9355933545
 42
2.9587575166
  0
ELLIPSE
  5
79A
100
AcDbEntity
  8
0
100
AcDbEllipse
 62
7
  6
CONTINUOUS
 10
276.2236197586
 20
368.3277437636
 30
0.0
 11
44.0
 21
-0.0
 31
0.0
 40
0.2553186315
 41
9.208401355
 42
9.2187786617
  0
ELLIPSE
  5
79B
100
AcDbEntity
  8
0
100
AcDbEllipse
 62
7
  6
CONTINUOUS
 10
276.2236197586
 20
363.9873082447
 30
0.0
 11
44.0
 21
-0.0
 31
0.0
 40
0.2553186315
 41
-2.9355933545
 42
-2.9252160479
  0
ELLIPSE
  5
79C
100
AcDbEntity
  8
0
100
AcDbEllipse
 62
7
  6
CONTINUOUS
 10
276.2236197586
 20
366.2851888334
 30
0.0
 11
44.0
 21
-0.0
 31
0.0
 40
0.510638724
 41
-2.9587575166
 42
-2.9355933545
  0
ELLIPSE
  5
79D
100
AcDbEntity
  8
0
100
AcDbEllipse
 62
7
  6
CONTINUOUS
 10
276.2236197586
 20
373.0936966715
 30
0.0
 11
0.0
 21
59.914896965
 31
0.0
 40
0.734374959
 41
-4.5468613958
 42
-4.5295538434
  0
ELLIPSE
  5
79E
100
AcDbEntity
  8
0
100
AcDbEllipse
 62
7
  6
CONTINUOUS
 10
276.2236197586
 20
354.1149703441
 30
0.0
 11
-0.0
 21
59.9149074554
 31
0.0
 40
0.7343748304
 41
1.3879611898
 42
1.4052687422
  0
ELLIPSE
  5
79F
100
AcDbEntity
  8
0
100
AcDbEllipse
 62
7
  6
CONTINUOUS
 10
276.2236197586
 20
360.9234800896
 30
0.0
 11
44.0
 21
0.0
 31
0.0
 40
0.510638724
 41
2.9355933545
 42
2.9587575166
  0
ELLIPSE
  5
7A0
100
AcDbEntity
  8
0
100
AcDbEllipse
 62
7
  6
CONTINUOUS
 10
276.2236197586
 20
363.2213606783
 30
0.0
 11
44.0
 21
0.0
 31
0.0
 40
0.2553186315
 41
9.208401355
 42
9.2187786617
  0
ELLIPSE
  5
7A1
100
AcDbEntity
  8
0
100
AcDbEllipse
 62
7
  6
CONTINUOUS
 10
276.2236197586
 20
352.7532731675
 30
0.0
 11
0.0
 21
44.936164856
 31
0.0
 40
0.9791667834
 41
1.2409859672
 42
1.2589481869
  0
ELLIPSE
  5
7A2
100
AcDbEntity
  8
0
100
AcDbEllipse
 62
7
  6
CONTINUOUS
 10
276.2236197586
 20
338.2001399028
 30
0.0
 11
0.0
 21
89.8721582944
 31
0.0
 40
0.4895843255
 41
1.228949876
 42
1.2409859672
  0
ELLIPSE
  5
7A3
100
AcDbEntity
  8
0
100
AcDbEllipse
 62
7
  6
CONTINUOUS
 10
276.2236197586
 20
406.7532150264
 30
0.0
 11
0.0
 21
112.3402608104
 31
0.0
 40
0.391667241
 41
-4.3825786208
 42
-4.3705425296
  0
ELLIPSE
  5
7A4
100
AcDbEntity
  8
0
100
AcDbEllipse
 62
7
  6
CONTINUOUS
 10
276.2236197586
 20
384.9234808658
 30
0.0
 11
-0.0
 21
44.936164856
 31
0.0
 40
0.9791667834
 41
-4.4005408405
 42
-4.3825786208
  0
ELLIPSE
  5
7A5
100
AcDbEntity
  8
0
100
AcDbEllipse
 62
7
  6
CONTINUOUS
 10
276.2236197586
 20
424.7528014713
 30
0.0
 11
0.0
 21
136.3394009207
 31
0.0
 40
0.3263913418
 41
-4.2399537008
 42
-4.2336343528
  0
ELLIPSE
  5
7A6
100
AcDbEntity
  8
0
100
AcDbEllipse
 62
7
  6
CONTINUOUS
 10
276.2236197586
 20
375.902205717
 30
0.0
 11
44.5
 21
0.0
 31
0.0
 40
0.6808509827
 41
-2.662838026
 42
-2.6437534867
  0
ELLIPSE
  5
7A7
100
AcDbEntity
  8
0
100
AcDbEllipse
 62
7
  6
CONTINUOUS
 10
276.2236197586
 20
365.7745550382
 30
0.0
 11
44.5
 21
-0.0
 31
0.0
 40
0.204255678
 41
-2.6437534867
 42
-2.6114945815
  0
ELLIPSE
  5
7A8
100
AcDbEntity
  8
0
100
AcDbEllipse
 62
7
  6
CONTINUOUS
 10
276.2236197586
 20
379.4086009183
 30
0.0
 11
44.0
 21
-0.0
 31
0.0
 40
0.6127668194
 41
-2.8594553192
 42
-2.8297445137
  0
ELLIPSE
  5
7A9
100
AcDbEntity
  8
0
100
AcDbEllipse
 62
7
  6
CONTINUOUS
 10
276.2236197586
 20
368.3277437636
 30
0.0
 11
44.5
 21
0.0
 31
0.0
 40
0.2553186315
 41
2.9149378768
 42
2.9379406858
  0
ELLIPSE
  5
7AA
100
AcDbEntity
  8
0
100
AcDbEllipse
 62
7
  6
CONTINUOUS
 10
276.2236197586
 20
363.7319891604
 30
0.0
 11
44.5
 21
-0.0
 31
0.0
 40
0.765958086
 41
2.9379406858
 42
2.960834648
  0
ELLIPSE
  5
7AB
100
AcDbEntity
  8
0
100
AcDbEllipse
 62
7
  6
CONTINUOUS
 10
276.2236197586
 20
357.6043480913
 30
0.0
 11
-0.0
 21
68.170138273
 31
0.0
 40
0.6527784911
 41
1.3900383212
 42
1.4014487402
  0
ELLIPSE
  5
7AC
100
AcDbEntity
  8
0
100
AcDbEllipse
 62
7
  6
CONTINUOUS
 10
276.2236197586
 20
388.7107151518
 30
0.0
 11
44.5
 21
0.0
 31
0.0
 40
0.204255139
 41
-2.8568620868
 42
-2.8274630487
  0
ELLIPSE
  5
7AD
100
AcDbEntity
  8
0
100
AcDbEllipse
 62
7
  6
CONTINUOUS
 10
276.2236197586
 20
392.923489738
 30
0.0
 11
44.5
 21
0.0
 31
0.0
 40
0.510638724
 41
-2.8274630487
 42
-2.8037413035
  0
ELLIPSE
  5
7AE
100
AcDbEntity
  8
0
100
AcDbEllipse
 62
7
  6
CONTINUOUS
 10
276.2236197586
 20
400.4554109167
 30
0.0
 11
-0.0
 21
45.4468464344
 31
0.0
 40
0.9791658496
 41
-4.3745376303
 42
-4.3506164732
  0
ELLIPSE
  5
7AF
100
AcDbEntity
  8
0
100
AcDbEllipse
 62
7
  6
CONTINUOUS
 10
276.2236197586
 20
416.5404377086
 30
0.0
 11
0.0
 21
90.8934328204
 31
0.0
 40
0.4895843255
 41
-4.3506164732
 42
-4.3385751419
  0
ELLIPSE
  5
7B0
100
AcDbEntity
  8
0
100
AcDbEllipse
 62
7
  6
CONTINUOUS
 10
276.2236197586
 20
466.3280921553
 30
0.0
 11
0.0
 21
227.2350096131
 31
0.0
 40
0.1958324999
 41
-4.3385751419
 42
-4.3325332414
  0
ELLIPSE
  5
7B1
100
AcDbEntity
  8
0
100
AcDbEllipse
 62
7
  6
CONTINUOUS
 10
276.2236197586
 20
293.9870065236
 30
0.0
 11
0.0
 21
227.2348822971
 31
0.0
 40
0.1958326096
 41
1.1909405878
 42
1.1969824883
  0
ELLIPSE
  5
7B2
100
AcDbEntity
  8
0
100
AcDbEllipse
 62
7
  6
CONTINUOUS
 10
276.2236197586
 20
343.7746086671
 30
0.0
 11
-0.0
 21
90.8934487349
 31
0.0
 40
0.4895842398
 41
1.1969824883
 42
1.2090238196
  0
ELLIPSE
  5
7B3
100
AcDbEntity
  8
0
100
AcDbEllipse
 62
7
  6
CONTINUOUS
 10
276.2236197586
 20
359.8596396834
 30
0.0
 11
0.0
 21
45.4468504131
 31
0.0
 40
0.9791657639
 41
1.2090238196
 42
1.2329449767
  0
ELLIPSE
  5
7B4
100
AcDbEntity
  8
0
100
AcDbEllipse
 62
7
  6
CONTINUOUS
 10
276.2236197586
 20
380.0723944978
 30
0.0
 11
0.0
 21
68.1700746153
 31
0.0
 40
0.6527791007
 41
-4.5430413938
 42
-4.5316309748
  0
ELLIPSE
  5
7B5
100
AcDbEntity
  8
0
100
AcDbEllipse
 62
7
  6
CONTINUOUS
 10
276.2236197586
 20
373.9447648728
 30
0.0
 11
44.5
 21
0.0
 31
0.0
 40
0.765958086
 41
-2.960834648
 42
-2.9379406858
  0
ELLIPSE
  5
7B6
100
AcDbEntity
  8
0
100
AcDbEllipse
 62
7
  6
CONTINUOUS
 10
276.2236197586
 20
369.3490102696
 30
0.0
 11
44.5
 21
-0.0
 31
0.0
 40
0.2553186315
 41
-2.9379406858
 42
-2.9149378768
  0
ELLIPSE
  5
7B7
100
AcDbEntity
  8
0
100
AcDbEllipse
 62
7
  6
CONTINUOUS
 10
276.2236197586
 20
374.4043324433
 30
0.0
 11
44.0
 21
-0.0
 31
0.0
 40
0.204255139
 41
-2.8889123984
 42
-2.8594553192
  0
ELLIPSE
  5
7B8
100
AcDbEntity
  8
0
100
AcDbEllipse
 62
7
  6
CONTINUOUS
 10
276.2236197586
 20
367.3915611918
 30
0.0
 11
44.5
 21
-0.0
 31
0.0
 40
0.510638791
 41
2.8037413035
 42
2.8274630487
  0
ELLIPSE
  5
7B9
100
AcDbEntity
  8
0
100
AcDbEllipse
 62
7
  6
CONTINUOUS
 10
276.2236197586
 20
371.6043364541
 30
0.0
 11
44.5
 21
0.0
 31
0.0
 40
0.2042551568
 41
2.8274630487
 42
2.8568620868
  0
ELLIPSE
  5
7BA
100
AcDbEntity
  8
0
100
AcDbEllipse
 62
7
  6
CONTINUOUS
 10
276.2236197586
 20
371.6043364541
 30
0.0
 11
44.0
 21
0.0
 31
0.0
 40
0.2042551568
 41
2.8237689268
 42
2.8535345163
  0
ELLIPSE
  5
7BB
100
AcDbEntity
  8
0
100
AcDbEllipse
 62
7
  6
CONTINUOUS
 10
276.2236197586
 20
367.3915611918
 30
0.0
 11
44.0
 21
0.0
 31
0.0
 40
0.510638791
 41
2.7997462028
 42
2.8237689268
  0
ELLIPSE
  5
7BC
100
AcDbEntity
  8
0
100
AcDbEllipse
 62
7
  6
CONTINUOUS
 10
276.2236197586
 20
355.2639528968
 30
0.0
 11
0.0
 21
227.2335820511
 31
0.0
 40
0.1958337302
 41
1.4694995746
 42
1.47514492
  0
ELLIPSE
  5
7BD
100
AcDbEntity
  8
0
100
AcDbEllipse
 62
7
  6
CONTINUOUS
 10
276.2236197586
 20
368.2851767482
 30
0.0
 11
0.0
 21
90.8937087833
 31
0.0
 40
0.4895828391
 41
1.47514492
 42
1.4864265946
  0
ELLIPSE
  5
7BE
100
AcDbEntity
  8
0
100
AcDbEllipse
 62
7
  6
CONTINUOUS
 10
276.2236197586
 20
372.1149741495
 30
0.0
 11
-0.0
 21
45.4467854009
 31
0.0
 40
0.9791671646
 41
1.4864265946
 42
1.5089591724
  0
ELLIPSE
  5
7BF
100
AcDbEntity
  8
0
100
AcDbEllipse
 62
7
  6
CONTINUOUS
 10
276.2236197586
 20
373.5192286931
 30
0.0
 11
44.5
 21
0.0
 31
0.0
 40
0.5106380606
 41
3.0797554991
 42
3.1022566782
  0
ELLIPSE
  5
7C0
100
AcDbEntity
  8
0
100
AcDbEllipse
 62
7
  6
CONTINUOUS
 10
276.2236197586
 20
359.8596396834
 30
0.0
 11
-0.0
 21
44.9362116444
 31
0.0
 40
0.9791657639
 41
1.2047199852
 42
1.228949876
  0
ELLIPSE
  5
7C1
100
AcDbEntity
  8
0
100
AcDbEllipse
 62
7
  6
CONTINUOUS
 10
276.2236197586
 20
374.0553982194
 30
0.0
 11
44.5
 21
-0.0
 31
0.0
 40
0.2042553906
 41
3.1022566782
 42
3.1303564621
  0
ELLIPSE
  5
7C2
100
AcDbEntity
  8
0
100
AcDbEllipse
 62
7
  6
CONTINUOUS
 10
276.2236197586
 20
343.7746086671
 30
0.0
 11
0.0
 21
89.87217403
 31
0.0
 40
0.4895842398
 41
1.1925211009
 42
1.2047199852
  0
ELLIPSE
  5
7C3
100
AcDbEntity
  8
0
100
AcDbEllipse
 62
7
  6
CONTINUOUS
 10
276.2236197586
 20
293.9870065236
 30
0.0
 11
0.0
 21
224.6816813724
 31
0.0
 40
0.1958326096
 41
1.1863995757
 42
1.1925211009
  0
ELLIPSE
  5
7C4
100
AcDbEntity
  8
0
100
AcDbEllipse
 62
7
  6
CONTINUOUS
 10
276.2236197586
 20
466.3280921553
 30
0.0
 11
0.0
 21
224.6818072579
 31
0.0
 40
0.1958324999
 41
-4.3341137544
 42
-4.3279922293
  0
ELLIPSE
  5
7C5
100
AcDbEntity
  8
0
100
AcDbEllipse
 62
7
  6
CONTINUOUS
 10
276.2236197586
 20
416.5404377086
 30
0.0
 11
0.0
 21
89.8721582944
 31
0.0
 40
0.4895843255
 41
-4.3463126388
 42
-4.3341137544
  0
ELLIPSE
  5
7C6
100
AcDbEntity
  8
0
100
AcDbEllipse
 62
7
  6
CONTINUOUS
 10
276.2236197586
 20
400.4554109167
 30
0.0
 11
0.0
 21
44.9362077105
 31
0.0
 40
0.9791658496
 41
-4.3705425296
 42
-4.3463126388
  0
ELLIPSE
  5
7C7
100
AcDbEntity
  8
0
100
AcDbEllipse
 62
7
  6
CONTINUOUS
 10
276.2236197586
 20
392.923489738
 30
0.0
 11
44.0
 21
-0.0
 31
0.0
 40
0.510638724
 41
-2.8237689268
 42
-2.7997462028
  0
ELLIPSE
  5
7C8
100
AcDbEntity
  8
0
100
AcDbEllipse
 62
7
  6
CONTINUOUS
 10
276.2236197586
 20
363.2213606783
 30
0.0
 11
44.5
 21
0.0
 31
0.0
 40
0.2553186315
 41
2.9149378768
 42
2.9379406858
  0
ELLIPSE
  5
7C9
100
AcDbEntity
  8
0
100
AcDbEllipse
 62
7
  6
CONTINUOUS
 10
276.2236197586
 20
360.9234800896
 30
0.0
 11
44.5
 21
0.0
 31
0.0
 40
0.510638724
 41
2.9379406858
 42
2.960834648
  0
ELLIPSE
  5
7CA
100
AcDbEntity
  8
0
100
AcDbEllipse
 62
7
  6
CONTINUOUS
 10
276.2236197586
 20
354.1149703441
 30
0.0
 11
0.0
 21
60.5957586765
 31
0.0
 40
0.7343748304
 41
1.3900383212
 42
1.4071454842
  0
ENDSEC
  0
SECTION
  2
OBJECTS
  0
DICTIONARY
  5
C
100
AcDbDictionary
280
0
281
1
  3
ACAD_GROUP
350
D
  3
ACAD_MLINESTYLE
350
17
  3
ACAD_LAYOUT
350
1A
  3
ACAD_PLOTSETTINGS
350
19
  3
ACAD_PLOTSTYLENAME
350
E
  0
DICTIONARY
  5
D
102
{ACAD_REACTORS
330
C
102
}
100
AcDbDictionary
280
0
281
1
  0
ACDBDICTIONARYWDFLT
  5
E
102
{ACAD_REACTORS
330
C
102
}
100
AcDbDictionary
281
1
  3
Normal
350
F
100
AcDbDictionaryWithDefault
340
F
  0
DICTIONARY
  5
17
102
{ACAD_REACTORS
330
C
102
}
100
AcDbDictionary
280
0
281
1
  3
Standard
350
18
  0
DICTIONARY
  5
19
102
{ACAD_REACTORS
330
C
102
}
100
AcDbDictionary
281
1
  0
DICTIONARY
  5
1A
102
{ACAD_REACTORS
330
C
102
}
100
AcDbDictionary
281
1
  3
Model
350
7CB
  3
Layout1
350
7CC
  0
ACDBPLACEHOLDER
  5
F
102
{ACAD_REACTORS
330
E
102
}
  0
MLINESTYLE
  5
18
102
{ACAD_REACTORS
330
17
102
}
100
AcDbMlineStyle
  2
STANDARD
 70
0
  3

 62
256
 51
90.0
 52
90.0
 71
2
 49
0.5
 62
256
  6
BYLAYER
 49
-0.5
 62
256
  6
BYLAYER
  0
LAYOUT
  5
7CB
102
{ACAD_REACTORS
330
1A
102
}
100
AcDbPlotSettings
  1

  2
none_device
  4
ISO_A1_(594.00_x_841.00_MM)
  6

 40
0.0
 41
0.0
 42
0.0
 43
0.0
 44
841.0
 45
594.0
 46
0.0
 47
0.0
 48
0.0
 49
0.0
140
0.0
141
0.0
142
1.0
143
1.0
 70
1024
 72
1
 73
0
 74
0
  7

 75
0
147
1.0
148
0.0
149
0.0
100
AcDbLayout
  1
Model
 70
0
 71
0
 10
0.0
 20
0.0
 11
841.0
 21
594.0
 12
0.0
 22
0.0
 32
0.0
 14
0.0
 24
0.0
 34
0.0
 15
0.0
 25
0.0
 35
0.0
146
0.0
 13
0.0
 23
0.0
 33
0.0
 16
1.0
 26
0.0
 36
0.0
 17
0.0
 27
1.0
 37
0.0
 76
0
330
20C
345
0
346
0
  0
LAYOUT
  5
7CC
102
{ACAD_REACTORS
330
1A
102
}
100
AcDbPlotSettings
  1

  2
none_device
  4
ISO_A1_(594.00_x_841.00_MM)
  6

 40
0.0
 41
0.0
 42
0.0
 43
0.0
 44
841.0
 45
594.0
 46
0.0
 47
0.0
 48
0.0
 49
0.0
140
0.0
141
0.0
142
1.0
143
1.0
 70
0
 72
1
 73
0
 74
0
  7

 75
0
147
1.0
148
0.0
149
0.0
100
AcDbLayout
  1
Layout1
 70
0
 71
1
 10
0.0
 20
0.0
 11
841.0
 21
594.0
 12
0.0
 22
0.0
 32
0.0
 14
0.0
 24
0.0
 34
0.0
 15
0.0
 25
0.0
 35
0.0
146
0.0
 13
0.0
 23
0.0
 33
0.0
 16
1.0
 26
0.0
 36
0.0
 17
0.0
 27
1.0
 37
0.0
 76
0
330
20D
345
0
346
0
  0
ENDSEC
  0
EOF
