999
DXF file: 001-m31395-p-20.dxf
999
Pro/ENGINEER 2011490 by Parametric Technology Corporation
  0
SECTION
  2
HEADER
  9
$ACADVER
  1
AC1015
  9
$DWGCODEPAGE
  3
ANSI_1252
  9
$EXTMAX
 10
841.0
 20
594.0
 30
0.0
  9
$EXTMIN
 10
0.0
 20
0.0
 30
0.0
  9
$LIMMIN
 10
0.0
 20
0.0
  9
$LIMMAX
 10
841.0
 20
594.0
  9
$VIEWCTR
 10
420.5
 20
297.0
  9
$VIEWSIZE
 40
594.0
  9
$CLAYER
  8
0
  9
$LTSCALE
 40
46.255
  9
$CELTYPE
  6
BYLAYER
  9
$DIMSCALE
 40
1.0
  9
$DIMASZ
 40
3.5
  9
$DIMEXO
 40
5.25625
  9
$DIMDLI
 40
31.958
  9
$DIMEXE
 40
15.138
  9
$DIMCEN
 40
7.569
  9
$DIMLFAC
 40
1.0
  9
$DIMBLK
  1
_FILLED
  9
$DIMTXT
 40
3.5
  9
$DIMTOL
 70
1
  9
$DIMLIM
 70
0
  9
$DIMTFAC
 40
1.0
  9
$DIMTP
 40
0.005
  9
$DIMTM
 40
0.005
  9
$PDMODE
 70
3
  9
$PDSIZE
 40
0.3125
  9
$HANDSEED
  5
756
  9
$TILEMODE
 70
1
  9
$MEASUREMENT
 70
1
  9
$INSUNITS
 70
4
  0
ENDSEC
  0
SECTION
  2
CLASSES
  0
CLASS
  1
ACDBDICTIONARYWDFLT
  2
AcDbDictionaryWithDefault
  3
AutoCAD 2000
 90
0
280
0
281
0
  0
CLASS
  1
ACDBPLACEHOLDER
  2
AcDbPlaceHolder
  3
AutoCAD 2000
 90
0
280
0
281
0
  0
CLASS
  1
LAYOUT
  2
AcDbLayout
  3
AutoCAD 2000
 90
0
280
0
281
0
  0
ENDSEC
  0
SECTION
  2
TABLES
  0
TABLE
  2
VPORT
  5
8
100
AcDbSymbolTable
 70
2
  0
VPORT
  5
1F4
100
AcDbSymbolTableRecord
100
AcDbViewportTableRecord
  2
*ACTIVE
 70
0
 10
0.0
 20
0.0
 11
1.0
 21
1.0
 12
420.5
 22
297.0
 13
0.0
 23
0.0
 14
1.0
 24
1.0
 15
0.0
 25
0.0
 16
0.0
 26
0.0
 36
1.0
 17
0.0
 27
0.0
 37
0.0
 40
594.0
 41
1.4158249158
 42
50.0
 43
0.0
 44
0.0
 50
0.0
 51
0.0
 71
0
 72
100
 73
1
 74
1
 75
0
 76
0
 77
0
 78
0
  0
ENDTAB
  0
TABLE
  2
LTYPE
  5
5
100
AcDbSymbolTable
 70
6
  0
LTYPE
  5
14
100
AcDbSymbolTableRecord
100
AcDbLinetypeTableRecord
  2
BYBLOCK
 70
0
  3

 72
65
 73
0
 40
0.0
  0
LTYPE
  5
15
100
AcDbSymbolTableRecord
100
AcDbLinetypeTableRecord
  2
BYLAYER
 70
0
  3

 72
65
 73
0
 40
0.0
  0
LTYPE
  5
16
100
AcDbSymbolTableRecord
100
AcDbLinetypeTableRecord
  2
CONTINUOUS
 70
64
  3
Solid line
 72
65
 73
0
 40
0.0
  0
LTYPE
  5
1F5
100
AcDbSymbolTableRecord
100
AcDbLinetypeTableRecord
  2
CENTER
 70
64
  3
____ _ ____ _ ____ _ ____ _ ____ _ ____ _ ____
 72
65
 73
4
 40
0.6
 49
0.375
 74
0
 49
-0.075
 74
0
 49
0.075
 74
0
 49
-0.075
 74
0
  0
LTYPE
  5
1F6
100
AcDbSymbolTableRecord
100
AcDbLinetypeTableRecord
  2
HIDDEN
 70
64
  3
- - - - - - - - - - - - - - - - - - - -
 72
65
 73
2
 40
0.2
 49
0.1
 74
0
 49
-0.1
 74
0
  0
LTYPE
  5
1F7
100
AcDbSymbolTableRecord
100
AcDbLinetypeTableRecord
  2
PHANTOM
 70
64
  3
_____ _ _ _____ _ _ _____ _ _ _____
 72
65
 73
6
 40
0.8
 49
0.45
 74
0
 49
-0.05
 74
0
 49
0.1
 74
0
 49
-0.05
 74
0
 49
0.1
 74
0
 49
-0.05
 74
0
  0
LTYPE
  5
1F8
100
AcDbSymbolTableRecord
100
AcDbLinetypeTableRecord
  2
DOT
 70
64
  3
. . . . . . . . . . . . . . . . . . . .
 72
65
 73
2
 40
0.2
 49
0.1
 74
0
 49
-0.1
 74
0
  0
LTYPE
  5
1F9
100
AcDbSymbolTableRecord
100
AcDbLinetypeTableRecord
  2
DASHED
 70
64
  3
- - - - - - - - - - - - - - - - - - - -
 72
65
 73
2
 40
0.2
 49
0.1
 74
0
 49
-0.1
 74
0
  0
ENDTAB
  0
TABLE
  2
LAYER
  5
2
100
AcDbSymbolTable
 70
36
  0
LAYER
  5
10
100
AcDbSymbolTableRecord
100
AcDbLayerTableRecord
  2
0
 70
0
 62
7
  6
CONTINUOUS
370
-3
390
F
  0
LAYER
  5
1FA
100
AcDbSymbolTableRecord
100
AcDbLayerTableRecord
  2
DEFAULT_1
 70
0
 62
7
  6
CENTER
370
-3
390
F
  0
LAYER
  5
1FB
100
AcDbSymbolTableRecord
100
AcDbLayerTableRecord
  2
DEFAULT_2
 70
0
 62
8
  6
HIDDEN
370
-3
390
F
  0
LAYER
  5
1FC
100
AcDbSymbolTableRecord
100
AcDbLayerTableRecord
  2
DEFAULT_3
 70
0
 62
7
  6
PHANTOM
370
-3
390
F
  0
LAYER
  5
1FD
100
AcDbSymbolTableRecord
100
AcDbLayerTableRecord
  2
AUSFORMSCHRAEGEN
 70
0
 62
7
  6
CONTINUOUS
370
-3
390
F
  0
LAYER
  5
1FE
100
AcDbSymbolTableRecord
100
AcDbLayerTableRecord
  2
BEZUGSACHSEN
 70
0
 62
7
  6
CONTINUOUS
370
-3
390
F
  0
LAYER
  5
1FF
100
AcDbSymbolTableRecord
100
AcDbLayerTableRecord
  2
BEZUGSEBENEN
 70
0
 62
7
  6
CONTINUOUS
370
-3
390
F
  0
LAYER
  5
200
100
AcDbSymbolTableRecord
100
AcDbLayerTableRecord
  2
BG_STARTBEZUEGE
 70
0
 62
7
  6
CONTINUOUS
370
-3
390
F
  0
LAYER
  5
201
100
AcDbSymbolTableRecord
100
AcDbLayerTableRecord
  2
FASEN
 70
0
 62
7
  6
CONTINUOUS
370
-3
390
F
  0
LAYER
  5
202
100
AcDbSymbolTableRecord
100
AcDbLayerTableRecord
  2
HILFEN
 70
0
 62
7
  6
CONTINUOUS
370
-3
390
F
  0
LAYER
  5
203
100
AcDbSymbolTableRecord
100
AcDbLayerTableRecord
  2
KONSTRUKTIONSELEMENTE
 70
0
 62
7
  6
CONTINUOUS
370
-3
390
F
  0
LAYER
  5
204
100
AcDbSymbolTableRecord
100
AcDbLayerTableRecord
  2
NORM
 70
0
 62
7
  6
CONTINUOUS
370
-3
390
F
  0
LAYER
  5
205
100
AcDbSymbolTableRecord
100
AcDbLayerTableRecord
  2
PLATZIERUNG
 70
0
 62
7
  6
CONTINUOUS
370
-3
390
F
  0
LAYER
  5
206
100
AcDbSymbolTableRecord
100
AcDbLayerTableRecord
  2
RUNDUNGEN
 70
0
 62
7
  6
CONTINUOUS
370
-3
390
F
  0
LAYER
  5
207
100
AcDbSymbolTableRecord
100
AcDbLayerTableRecord
  2
TEIL_STARTBEZUEGE
 70
0
 62
7
  6
CONTINUOUS
370
-3
390
F
  0
LAYER
  5
208
100
AcDbSymbolTableRecord
100
AcDbLayerTableRecord
  2
T_STARTBEZUEGE
 70
0
 62
7
  6
CONTINUOUS
370
-3
390
F
  0
LAYER
  5
209
100
AcDbSymbolTableRecord
100
AcDbLayerTableRecord
  2
ZEICHNUNGSBEMASSUNGEN
 70
0
 62
7
  6
CONTINUOUS
370
-3
390
F
  0
ENDTAB
  0
TABLE
  2
STYLE
  5
3
100
AcDbSymbolTable
 70
1
  0
STYLE
  5
11
100
AcDbSymbolTableRecord
100
AcDbTextStyleTableRecord
  2
STANDARD
 70
0
 40
0.0
 41
0.7
 50
0.0
 71
0
 42
0.2
  3
txt
  4

  0
STYLE
  5
20A
100
AcDbSymbolTableRecord
100
AcDbTextStyleTableRecord
  2
TEXTSTYLE_1
 70
0
 40
0.0
 41
0.8
 50
0.0
 71
0
 42
0.2
  3
gdt
  4

  0
ENDTAB
  0
TABLE
  2
VIEW
  5
6
100
AcDbSymbolTable
 70
0
  0
ENDTAB
  0
TABLE
  2
UCS
  5
7
100
AcDbSymbolTable
 70
0
  0
ENDTAB
  0
TABLE
  2
APPID
  5
9
100
AcDbSymbolTable
 70
1
  0
APPID
  5
20B
100
AcDbSymbolTableRecord
100
AcDbRegAppTableRecord
  2
ACAD
 70
0
  0
ENDTAB
  0
TABLE
  2
BLOCK_RECORD
  5
1
100
AcDbSymbolTable
 70
0
  0
BLOCK_RECORD
  5
20C
100
AcDbSymbolTableRecord
100
AcDbBlockTableRecord
  2
*Model_Space
  0
BLOCK_RECORD
  5
20D
100
AcDbSymbolTableRecord
100
AcDbBlockTableRecord
  2
*Paper_Space
  0
ENDTAB
  0
TABLE
  2
DIMSTYLE
  5
A
100
AcDbSymbolTable
 70
1
100
AcDbDimStyleTable
 71
0
  0
DIMSTYLE
105
20E
100
AcDbSymbolTableRecord
100
AcDbDimStyleTableRecord
  2
STANDARD
 70
0
  3

  4

 40
1.0
 41
3.5
 42
0.0625
 43
0.38
 44
0.18
 45
0.0
 46
0.0
 47
0.005
 48
0.005
140
3.5
141
0.09
142
0.0
143
25.4
144
1.0
145
0.0
146
1.0
147
0.09
 71
1.0
 72
0.0
 73
0
 74
0
 75
0
 76
0
 77
1
 78
8
170
0
171
2
172
0
173
0
174
0
175
0
176
0
177
0
178
5
270
2
271
3
272
3
273
2
274
2
275
0
280
0
281
0
282
0
283
1
284
8
285
0
286
0
287
3
288
0
340
11
  0
ENDTAB
  0
ENDSEC
  0
SECTION
  2
BLOCKS
  0
BLOCK
  5
20
100
AcDbEntity
  8
0
100
AcDbBlockBegin
  2
*Model_Space
 70
0
 10
0.0
 20
0.0
 30
0.0
  3
*Model_Space
  1

  0
ENDBLK
  5
21
100
AcDbEntity
  8
0
100
AcDbBlockEnd
  0
BLOCK
  5
1C
100
AcDbEntity
  8
0
100
AcDbBlockBegin
  2
*Paper_Space
 70
0
 10
0.0
 20
0.0
 30
0.0
  3
*Paper_Space
  1

  0
ENDBLK
  5
1D
100
AcDbEntity
  8
0
100
AcDbBlockEnd
  0
ENDSEC
  0
SECTION
  2
ENTITIES
  0
MTEXT
  5
20F
100
AcDbEntity
  8
0
100
AcDbMText
 62
5
  6
CONTINUOUS
  7
STANDARD
 71
1
 72
1
 10
434.3181204598
 20
410.4812287701
 30
0.0
 11
0.3826834324
 21
0.9238795325
 31
0.0
 44
0.9
  1
VIP 13
 40
8.0
 41
36.1904761905
  0
MTEXT
  5
210
100
AcDbEntity
  8
0
100
AcDbMText
 62
5
  6
CONTINUOUS
  7
STANDARD
 71
2
 72
1
 10
249.7649701599
 20
97.8373970095
 30
0.0
 11
0.0
 21
1.0
 31
0.0
 44
0.9
  1
RUD PP-VIP\P5t M30
 40
11.0
 41
88.0
  0
MTEXT
  5
211
100
AcDbEntity
  8
0
100
AcDbMText
 62
5
  6
CONTINUOUS
  7
STANDARD
 71
1
 72
1
 10
495.1881937562
 20
435.8541806708
 30
0.0
 11
0.3826834324
 21
-0.9238795325
 31
0.0
 44
0.9
  1
CE
 40
8.0
 41
13.9047619048
  0
LINE
  5
212
100
AcDbEntity
  8
0
100
AcDbLine
 62
7
  6
CONTINUOUS
 10
0.0
 20
0.0
 11
0.0
 21
594.0
  0
LINE
  5
213
100
AcDbEntity
  8
0
100
AcDbLine
 62
7
  6
CONTINUOUS
 10
0.0
 20
0.0
 11
841.0
 21
0.0
  0
LINE
  5
214
100
AcDbEntity
  8
0
100
AcDbLine
 62
7
  6
CONTINUOUS
 10
0.0
 20
594.0
 11
841.0
 21
594.0
  0
LINE
  5
215
100
AcDbEntity
  8
0
100
AcDbLine
 62
7
  6
CONTINUOUS
 10
841.0
 20
0.0
 11
841.0
 21
594.0
  0
LINE
  5
216
100
AcDbEntity
  8
FASEN
100
AcDbLine
 62
7
  6
CONTINUOUS
 10
276.5768104403
 20
294.0783349241
 11
250.5771028445
 21
294.0783349241
  0
LINE
  5
217
100
AcDbEntity
  8
FASEN
100
AcDbLine
 62
7
  6
CONTINUOUS
 10
278.5769566424
 20
296.0783349241
 11
248.5769566424
 21
296.0783349241
  0
LINE
  5
218
100
AcDbEntity
  8
FASEN
100
AcDbLine
 62
7
  6
CONTINUOUS
 10
250.5769566424
 20
294.0783349241
 11
248.5769566424
 21
296.0783349241
  0
LINE
  5
219
100
AcDbEntity
  8
KONSTRUKTIONSELEMENTE
100
AcDbLine
 62
7
  6
CONTINUOUS
 10
216.0769566424
 20
339.0783349241
 11
216.0769566424
 21
356.0783349241
  0
LINE
  5
21A
100
AcDbEntity
  8
0
100
AcDbLine
 62
7
  6
CONTINUOUS
 10
226.8633769816
 20
344.2272710896
 11
227.1550437873
 21
344.0783349241
  0
LINE
  5
21B
100
AcDbEntity
  8
0
100
AcDbLine
 62
7
  6
CONTINUOUS
 10
227.7294023853
 20
344.2272710896
 11
227.8797230863
 21
344.1505116217
  0
LINE
  5
21C
100
AcDbEntity
  8
0
100
AcDbLine
 62
7
  6
CONTINUOUS
 10
228.5404601758
 20
347.3549306954
 11
228.1758769816
 21
347.6528030003
  0
LINE
  5
21D
100
AcDbEntity
  8
0
100
AcDbLine
 62
7
  6
CONTINUOUS
 10
226.5717101758
 20
344.5251434336
 11
226.8633769816
 21
344.2272710896
  0
LINE
  5
21E
100
AcDbEntity
  8
0
100
AcDbLine
 62
7
  6
CONTINUOUS
 10
226.8633769816
 20
344.9719519431
 11
226.7175437873
 21
345.1208880956
  0
LINE
  5
21F
100
AcDbEntity
  8
0
100
AcDbLine
 62
7
  6
CONTINUOUS
 10
227.4377355796
 20
344.5251434336
 11
227.7294023853
 21
344.2272710896
  0
LINE
  5
220
100
AcDbEntity
  8
0
100
AcDbLine
 62
7
  6
CONTINUOUS
 10
229.8529605931
 20
344.674079586
 11
230.2175433701
 21
344.2272710896
  0
LINE
  5
221
100
AcDbEntity
  8
0
100
AcDbLine
 62
7
  6
CONTINUOUS
 10
230.7189859968
 20
344.674079586
 11
231.0835687739
 21
344.2272710896
  0
LINE
  5
222
100
AcDbEntity
  8
0
100
AcDbLine
 62
7
  6
CONTINUOUS
 10
226.3529601758
 20
344.8230157907
 11
226.5717101758
 21
344.5251434336
  0
LINE
  5
223
100
AcDbEntity
  8
0
100
AcDbLine
 62
7
  6
CONTINUOUS
 10
227.2189855796
 20
344.8230157907
 11
227.4377355796
 21
344.5251434336
  0
LINE
  5
224
100
AcDbEntity
  8
0
100
AcDbLine
 62
7
  6
CONTINUOUS
 10
228.0300437873
 20
347.2059945429
 11
228.2487937873
 21
346.908122238
  0
LINE
  5
225
100
AcDbEntity
  8
0
100
AcDbLine
 62
7
  6
CONTINUOUS
 10
230.2904605931
 20
344.9719519431
 11
230.0717105931
 21
345.269824248
  0
LINE
  5
226
100
AcDbEntity
  8
0
100
AcDbLine
 62
7
  6
CONTINUOUS
 10
227.9571269816
 20
350.1847180093
 11
228.1758769816
 21
349.8868457044
  0
LINE
  5
227
100
AcDbEntity
  8
0
100
AcDbLine
 62
7
  6
CONTINUOUS
 10
226.7175437873
 20
345.1208880956
 11
226.5717101758
 21
345.4187605048
  0
LINE
  5
228
100
AcDbEntity
  8
0
100
AcDbLine
 62
7
  6
CONTINUOUS
 10
229.6342105931
 20
345.1208880956
 11
229.8529605931
 21
344.674079586
  0
LINE
  5
229
100
AcDbEntity
  8
0
100
AcDbLine
 62
7
  6
CONTINUOUS
 10
226.2071269816
 20
345.269824248
 11
226.3529601758
 21
344.8230157907
  0
LINE
  5
22A
100
AcDbEntity
  8
0
100
AcDbLine
 62
7
  6
CONTINUOUS
 10
222.4883769816
 20
349.5889733995
 11
223.5092102801
 21
344.0783349241
  0
LINE
  5
22B
100
AcDbEntity
  8
0
100
AcDbLine
 62
7
  6
CONTINUOUS
 10
223.8008769816
 20
344.8230157907
 11
222.7071269816
 21
351.0783349241
  0
LINE
  5
22C
100
AcDbEntity
  8
0
100
AcDbLine
 62
7
  6
CONTINUOUS
 10
222.0508769816
 20
351.0783349241
 11
222.0508769816
 21
344.0783349241
  0
LINE
  5
22D
100
AcDbEntity
  8
0
100
AcDbLine
 62
7
  6
CONTINUOUS
 10
222.0769566424
 20
373.2937604303
 11
222.0769566424
 21
372.4958881877
  0
LINE
  5
22E
100
AcDbEntity
  8
0
100
AcDbLine
 62
7
  6
CONTINUOUS
 10
222.0777096591
 20
380.9533349241
 11
222.0777096591
 21
375.0171646143
  0
LINE
  5
22F
100
AcDbEntity
  8
0
100
AcDbLine
 62
7
  6
CONTINUOUS
 10
222.0816632292
 20
364.8469521964
 11
222.0816632292
 21
364.0809943045
  0
LINE
  5
230
100
AcDbEntity
  8
0
100
AcDbLine
 62
7
  6
CONTINUOUS
 10
222.0861820654
 20
362.1661009157
 11
222.0861820654
 21
361.2086539531
  0
LINE
  5
231
100
AcDbEntity
  8
0
100
AcDbLine
 62
7
  6
CONTINUOUS
 10
222.2248104467
 20
362.1661009157
 11
222.2248104467
 21
361.2086539531
  0
LINE
  5
232
100
AcDbEntity
  8
0
100
AcDbLine
 62
7
  6
CONTINUOUS
 10
222.2951507594
 20
380.9533349241
 11
222.2951507594
 21
375.0171646143
  0
LINE
  5
233
100
AcDbEntity
  8
0
100
AcDbLine
 62
7
  6
CONTINUOUS
 10
222.3269566424
 20
395.4533349241
 11
222.3269566424
 21
380.9533349241
  0
LINE
  5
234
100
AcDbEntity
  8
0
100
AcDbLine
 62
7
  6
CONTINUOUS
 10
222.3269566424
 20
371.9533349241
 11
222.3269566424
 21
362.1661009157
  0
LINE
  5
235
100
AcDbEntity
  8
0
100
AcDbLine
 62
7
  6
CONTINUOUS
 10
222.3269566424
 20
361.2086539531
 11
222.3269566424
 21
356.0783349241
  0
LINE
  5
236
100
AcDbEntity
  8
0
100
AcDbLine
 62
7
  6
CONTINUOUS
 10
222.3792624454
 20
366.9533349241
 11
222.3792624454
 21
361.9746115769
  0
LINE
  5
237
100
AcDbEntity
  8
0
100
AcDbLine
 62
7
  6
CONTINUOUS
 10
222.4265086357
 20
380.9533349241
 11
222.4265086357
 21
375.0171646143
  0
LINE
  5
238
100
AcDbEntity
  8
0
100
AcDbLine
 62
7
  6
CONTINUOUS
 10
222.4757097636
 20
361.9746115769
 11
222.4757097636
 21
361.2086539531
  0
LINE
  5
239
100
AcDbEntity
  8
0
100
AcDbLine
 62
7
  6
CONTINUOUS
 10
222.4883769816
 20
344.0783349241
 11
222.4883769816
 21
349.5889733995
  0
LINE
  5
23A
100
AcDbEntity
  8
0
100
AcDbLine
 62
7
  6
CONTINUOUS
 10
222.503898639
 20
365.9958882297
 11
222.503898639
 21
362.9320582712
  0
LINE
  5
23B
100
AcDbEntity
  8
0
100
AcDbLine
 62
7
  6
CONTINUOUS
 10
222.6503836732
 20
380.9533349241
 11
222.6503836732
 21
371.9533349241
  0
LINE
  5
23C
100
AcDbEntity
  8
0
100
AcDbLine
 62
7
  6
CONTINUOUS
 10
222.7565133113
 20
365.9958882297
 11
222.7565133113
 21
363.6297885756
  0
LINE
  5
23D
100
AcDbEntity
  8
0
100
AcDbLine
 62
7
  6
CONTINUOUS
 10
222.8553407609
 20
379.8043988908
 11
222.8553407609
 21
373.1022710914
  0
LINE
  5
23E
100
AcDbEntity
  8
0
100
AcDbLine
 62
7
  6
CONTINUOUS
 10
222.9169023853
 20
349.8785981496
 11
222.9169023853
 21
349.5889733995
  0
LINE
  5
23F
100
AcDbEntity
  8
0
100
AcDbLine
 62
7
  6
CONTINUOUS
 10
223.1101492566
 20
379.8043988908
 11
223.1101492566
 21
373.1022710914
  0
LINE
  5
240
100
AcDbEntity
  8
0
100
AcDbLine
 62
7
  6
CONTINUOUS
 10
223.5102643871
 20
360.6341859365
 11
223.5102643871
 21
361.0171646143
  0
LINE
  5
241
100
AcDbEntity
  8
0
100
AcDbLine
 62
7
  6
CONTINUOUS
 10
223.6663144686
 20
366.9533349241
 11
223.6663144686
 21
365.9958882297
  0
LINE
  5
242
100
AcDbEntity
  8
0
100
AcDbLine
 62
7
  6
CONTINUOUS
 10
223.7751034593
 20
360.4426965976
 11
223.7751034593
 21
361.2086539531
  0
LINE
  5
243
100
AcDbEntity
  8
0
100
AcDbLine
 62
7
  6
CONTINUOUS
 10
223.9263342169
 20
366.9533349241
 11
223.9263342169
 21
365.9958882297
  0
LINE
  5
244
100
AcDbEntity
  8
0
100
AcDbLine
 62
7
  6
CONTINUOUS
 10
224.0358385903
 20
360.4426965976
 11
224.0358385903
 21
361.2086539531
  0
LINE
  5
245
100
AcDbEntity
  8
0
100
AcDbLine
 62
7
  6
CONTINUOUS
 10
224.2490083238
 20
377.8895049656
 11
224.2490083238
 21
375.0171646143
  0
LINE
  5
246
100
AcDbEntity
  8
0
100
AcDbLine
 62
7
  6
CONTINUOUS
 10
224.2490085647
 20
364.0809943045
 11
224.2490085647
 21
363.315036949
  0
LINE
  5
247
100
AcDbEntity
  8
0
100
AcDbLine
 62
7
  6
CONTINUOUS
 10
224.6461282982
 20
377.8895049656
 11
224.6461282982
 21
375.0171646143
  0
LINE
  5
248
100
AcDbEntity
  8
0
100
AcDbLine
 62
7
  6
CONTINUOUS
 10
224.7866552914
 20
365.6129095519
 11
224.7866552914
 21
364.0809943045
  0
LINE
  5
249
100
AcDbEntity
  8
0
100
AcDbLine
 62
7
  6
CONTINUOUS
 10
224.7866552914
 20
363.315036949
 11
224.7866552914
 21
359.4852497692
  0
LINE
  5
24A
100
AcDbEntity
  8
0
100
AcDbLine
 62
7
  6
CONTINUOUS
 10
224.9127368059
 20
377.8895049656
 11
224.9127368059
 21
375.0171646143
  0
LINE
  5
24B
100
AcDbEntity
  8
0
100
AcDbLine
 62
7
  6
CONTINUOUS
 10
225.1133769816
 20
349.5889733995
 11
225.1133769816
 21
344.0783349241
  0
LINE
  5
24C
100
AcDbEntity
  8
0
100
AcDbLine
 62
7
  6
CONTINUOUS
 10
225.1562283022
 20
365.6129095519
 11
225.1562283022
 21
364.0809943045
  0
LINE
  5
24D
100
AcDbEntity
  8
0
100
AcDbLine
 62
7
  6
CONTINUOUS
 10
225.1562283022
 20
363.315036949
 11
225.1562283022
 21
359.868228581
  0
LINE
  5
24E
100
AcDbEntity
  8
0
100
AcDbLine
 62
7
  6
CONTINUOUS
 10
225.4264013884
 20
365.6129095519
 11
225.4264013884
 21
364.0809943045
  0
LINE
  5
24F
100
AcDbEntity
  8
0
100
AcDbLine
 62
7
  6
CONTINUOUS
 10
225.4264013884
 20
363.315036949
 11
225.4264013884
 21
359.868228581
  0
LINE
  5
250
100
AcDbEntity
  8
0
100
AcDbLine
 62
7
  6
CONTINUOUS
 10
225.5508769816
 20
344.0783349241
 11
225.5508769816
 21
351.0783349241
  0
LINE
  5
251
100
AcDbEntity
  8
0
100
AcDbLine
 62
7
  6
CONTINUOUS
 10
225.8893008403
 20
358.7192923466
 11
225.8893008403
 21
357.9533349241
  0
LINE
  5
252
100
AcDbEntity
  8
0
100
AcDbLine
 62
7
  6
CONTINUOUS
 10
226.064458725
 20
364.0809943045
 11
226.064458725
 21
363.315036949
  0
LINE
  5
253
100
AcDbEntity
  8
0
100
AcDbLine
 62
7
  6
CONTINUOUS
 10
226.1647674542
 20
358.7192923466
 11
226.1647674542
 21
357.9533349241
  0
LINE
  5
254
100
AcDbEntity
  8
0
100
AcDbLine
 62
7
  6
CONTINUOUS
 10
226.3412211186
 20
364.0809943045
 11
226.3412211186
 21
363.315036949
  0
LINE
  5
255
100
AcDbEntity
  8
0
100
AcDbLine
 62
7
  6
CONTINUOUS
 10
222.0769566437
 20
374.1554617103
 11
222.0770037062
 21
374.2512072588
  0
LINE
  5
256
100
AcDbEntity
  8
KONSTRUKTIONSELEMENTE
100
AcDbLine
 62
7
  6
CONTINUOUS
 10
216.0769566424
 20
339.0783349241
 11
311.0769566424
 21
339.0783349241
  0
LINE
  5
257
100
AcDbEntity
  8
0
100
AcDbLine
 62
7
  6
CONTINUOUS
 10
230.2175433701
 20
344.2272710896
 11
230.6550433701
 21
344.0783349241
  0
LINE
  5
258
100
AcDbEntity
  8
0
100
AcDbLine
 62
7
  6
CONTINUOUS
 10
227.5925437873
 20
347.3549306954
 11
228.0300437873
 21
347.2059945429
  0
LINE
  5
259
100
AcDbEntity
  8
0
100
AcDbLine
 62
7
  6
CONTINUOUS
 10
228.4585691911
 20
347.3549306954
 11
228.5506965709
 21
347.3235681868
  0
LINE
  5
25A
100
AcDbEntity
  8
0
100
AcDbLine
 62
7
  6
CONTINUOUS
 10
227.2279601758
 20
344.8230157907
 11
226.8633769816
 21
344.9719519431
  0
LINE
  5
25B
100
AcDbEntity
  8
0
100
AcDbLine
 62
7
  6
CONTINUOUS
 10
230.6550433701
 20
344.8230157907
 11
230.2904605931
 21
344.9719519431
  0
LINE
  5
25C
100
AcDbEntity
  8
0
100
AcDbLine
 62
7
  6
CONTINUOUS
 10
227.5925437873
 20
350.3336541618
 11
227.9571269816
 21
350.1847180093
  0
LINE
  5
25D
100
AcDbEntity
  8
0
100
AcDbLine
 62
7
  6
CONTINUOUS
 10
228.3217101758
 20
350.6315264667
 11
228.0300437873
 21
350.9293987716
  0
LINE
  5
25E
100
AcDbEntity
  8
0
100
AcDbLine
 62
7
  6
CONTINUOUS
 10
231.4571269816
 20
350.4825903142
 11
231.0925433701
 21
350.9293987716
  0
LINE
  5
25F
100
AcDbEntity
  8
0
100
AcDbLine
 62
7
  6
CONTINUOUS
 10
231.0196269816
 20
350.1847180093
 11
231.2383769816
 21
349.8868457044
  0
LINE
  5
260
100
AcDbEntity
  8
0
100
AcDbLine
 62
7
  6
CONTINUOUS
 10
230.6478044284
 20
344.8194717255
 11
230.7189859968
 21
344.674079586
  0
LINE
  5
261
100
AcDbEntity
  8
0
100
AcDbLine
 62
7
  6
CONTINUOUS
 10
228.6133769816
 20
350.0357818568
 11
228.3217101758
 21
350.6315264667
  0
LINE
  5
262
100
AcDbEntity
  8
0
100
AcDbLine
 62
7
  6
CONTINUOUS
 10
231.6758769816
 20
350.0357818568
 11
231.4571269816
 21
350.4825903142
  0
LINE
  5
263
100
AcDbEntity
  8
0
100
AcDbLine
 62
7
  6
CONTINUOUS
 10
228.6862937873
 20
346.908122238
 11
228.5404601758
 21
347.3549306954
  0
LINE
  5
264
100
AcDbEntity
  8
0
100
AcDbLine
 62
7
  6
CONTINUOUS
 10
228.1758769816
 20
349.8868457044
 11
228.3217101758
 21
349.440037247
  0
LINE
  5
265
100
AcDbEntity
  8
0
100
AcDbLine
 62
7
  6
CONTINUOUS
 10
230.0717105931
 20
345.269824248
 11
229.7800433701
 21
346.1634412671
  0
LINE
  5
266
100
AcDbEntity
  8
0
100
AcDbLine
 62
7
  6
CONTINUOUS
 10
231.2383769816
 20
349.8868457044
 11
231.5300433701
 21
348.9932283724
  0
LINE
  5
267
100
AcDbEntity
  8
0
100
AcDbLine
 62
7
  6
CONTINUOUS
 10
226.5717101758
 20
345.4187605048
 11
226.4987937873
 21
345.7166328097
  0
LINE
  5
268
100
AcDbEntity
  8
0
100
AcDbLine
 62
7
  6
CONTINUOUS
 10
228.2487937873
 20
346.908122238
 11
228.3946269816
 21
346.3123774195
  0
LINE
  5
269
100
AcDbEntity
  8
0
100
AcDbLine
 62
7
  6
CONTINUOUS
 10
229.4883769816
 20
345.7166328097
 11
229.6342105931
 21
345.1208880956
  0
LINE
  5
26A
100
AcDbEntity
  8
0
100
AcDbLine
 62
7
  6
CONTINUOUS
 10
231.8217105931
 20
349.440037247
 11
231.6758769816
 21
350.0357818568
  0
LINE
  5
26B
100
AcDbEntity
  8
0
100
AcDbLine
 62
7
  6
CONTINUOUS
 10
226.1342101758
 20
345.7166328097
 11
226.2071269816
 21
345.269824248
  0
LINE
  5
26C
100
AcDbEntity
  8
0
100
AcDbLine
 62
7
  6
CONTINUOUS
 10
229.4154605931
 20
346.1634412671
 11
229.4883769816
 21
345.7166328097
  0
LINE
  5
26D
100
AcDbEntity
  8
0
100
AcDbLine
 62
7
  6
CONTINUOUS
 10
228.7592101758
 20
346.3123774195
 11
228.6862937873
 21
346.908122238
  0
LINE
  5
26E
100
AcDbEntity
  8
0
100
AcDbLine
 62
7
  6
CONTINUOUS
 10
228.6862937873
 20
349.440037247
 11
228.6133769816
 21
350.0357818568
  0
LINE
  5
26F
100
AcDbEntity
  8
0
100
AcDbLine
 62
7
  6
CONTINUOUS
 10
229.3425433701
 20
346.908122238
 11
229.4154605931
 21
346.1634412671
  0
LINE
  5
270
100
AcDbEntity
  8
0
100
AcDbLine
 62
7
  6
CONTINUOUS
 10
231.9675433701
 20
348.2485476101
 11
231.8946269816
 21
348.9932283724
  0
LINE
  5
271
100
AcDbEntity
  8
0
100
AcDbLine
 62
7
  6
CONTINUOUS
 10
229.7800433701
 20
346.1634412671
 11
229.7071269816
 21
347.0570583905
  0
LINE
  5
272
100
AcDbEntity
  8
0
100
AcDbLine
 62
7
  6
CONTINUOUS
 10
231.5300433701
 20
348.9932283724
 11
231.6029605931
 21
348.0996114577
  0
LINE
  5
273
100
AcDbEntity
  8
0
100
AcDbLine
 62
7
  6
CONTINUOUS
 10
227.3008769816
 20
347.9506753052
 11
227.3008769816
 21
347.3549306954
  0
LINE
  5
274
100
AcDbEntity
  8
0
100
AcDbLine
 62
7
  6
CONTINUOUS
 10
228.1669023853
 20
347.9506753052
 11
228.1669023853
 21
347.3549306954
  0
LINE
  5
275
100
AcDbEntity
  8
0
100
AcDbLine
 62
7
  6
CONTINUOUS
 10
228.3217101758
 20
349.440037247
 11
228.3217101758
 21
349.1421645249
  0
LINE
  5
276
100
AcDbEntity
  8
0
100
AcDbLine
 62
7
  6
CONTINUOUS
 10
228.3946269816
 20
346.3123774195
 11
228.3946269816
 21
345.7166328097
  0
LINE
  5
277
100
AcDbEntity
  8
0
100
AcDbLine
 62
7
  6
CONTINUOUS
 10
228.6862937873
 20
349.1421645249
 11
228.6862937873
 21
349.440037247
  0
LINE
  5
278
100
AcDbEntity
  8
0
100
AcDbLine
 62
7
  6
CONTINUOUS
 10
228.7592101758
 20
345.7166328097
 11
228.7592101758
 21
346.3123774195
  0
LINE
  5
279
100
AcDbEntity
  8
0
100
AcDbLine
 62
7
  6
CONTINUOUS
 10
229.3425433701
 20
348.2485476101
 11
229.3425433701
 21
346.908122238
  0
LINE
  5
27A
100
AcDbEntity
  8
0
100
AcDbLine
 62
7
  6
CONTINUOUS
 10
229.7071269816
 20
347.0570583905
 11
229.7071269816
 21
348.0996114577
  0
LINE
  5
27B
100
AcDbEntity
  8
0
100
AcDbLine
 62
7
  6
CONTINUOUS
 10
231.6029605931
 20
348.0996114577
 11
231.6029605931
 21
347.0570583905
  0
LINE
  5
27C
100
AcDbEntity
  8
0
100
AcDbLine
 62
7
  6
CONTINUOUS
 10
231.9675433701
 20
346.908122238
 11
231.9675433701
 21
348.2485476101
  0
LINE
  5
27D
100
AcDbEntity
  8
0
100
AcDbLine
 62
7
  6
CONTINUOUS
 10
229.7071269816
 20
348.0996114577
 11
229.7800433701
 21
348.9932283724
  0
LINE
  5
27E
100
AcDbEntity
  8
0
100
AcDbLine
 62
7
  6
CONTINUOUS
 10
229.4154605931
 20
348.9932283724
 11
229.3425433701
 21
348.2485476101
  0
LINE
  5
27F
100
AcDbEntity
  8
0
100
AcDbLine
 62
7
  6
CONTINUOUS
 10
226.2800437873
 20
350.0357818568
 11
226.2071269816
 21
349.440037247
  0
LINE
  5
280
100
AcDbEntity
  8
0
100
AcDbLine
 62
7
  6
CONTINUOUS
 10
228.6133769816
 20
348.546419915
 11
228.6862937873
 21
349.1421645249
  0
LINE
  5
281
100
AcDbEntity
  8
0
100
AcDbLine
 62
7
  6
CONTINUOUS
 10
224.8946269816
 20
351.0783349241
 11
223.8008769816
 21
344.8230157907
  0
LINE
  5
282
100
AcDbEntity
  8
0
100
AcDbLine
 62
7
  6
CONTINUOUS
 10
225.5508769816
 20
349.8785981496
 11
225.5002357491
 21
349.5889733995
  0
LINE
  5
283
100
AcDbEntity
  8
0
100
AcDbLine
 62
7
  6
CONTINUOUS
 10
224.0925435787
 20
344.0783349241
 11
225.1133769816
 21
349.5889733995
  0
LINE
  5
284
100
AcDbEntity
  8
0
100
AcDbLine
 62
7
  6
CONTINUOUS
 10
222.0508769816
 20
344.0783349241
 11
222.4883769816
 21
344.0783349241
  0
LINE
  5
285
100
AcDbEntity
  8
0
100
AcDbLine
 62
7
  6
CONTINUOUS
 10
223.5092102801
 20
344.0783349241
 11
224.0925435787
 21
344.0783349241
  0
LINE
  5
286
100
AcDbEntity
  8
0
100
AcDbLine
 62
7
  6
CONTINUOUS
 10
225.1133769816
 20
344.0783349241
 11
225.5508769816
 21
344.0783349241
  0
LINE
  5
287
100
AcDbEntity
  8
0
100
AcDbLine
 62
7
  6
CONTINUOUS
 10
227.1550437873
 20
344.0783349241
 11
227.7383769816
 21
344.0783349241
  0
LINE
  5
288
100
AcDbEntity
  8
0
100
AcDbLine
 62
7
  6
CONTINUOUS
 10
226.8633769816
 20
344.2272710896
 11
227.7294023853
 21
344.2272710896
  0
LINE
  5
289
100
AcDbEntity
  8
0
100
AcDbLine
 62
7
  6
CONTINUOUS
 10
230.2175433701
 20
344.2272710896
 11
231.0835687739
 21
344.2272710896
  0
LINE
  5
28A
100
AcDbEntity
  8
0
100
AcDbLine
 62
7
  6
CONTINUOUS
 10
226.5717101758
 20
344.5251434336
 11
227.4377355796
 21
344.5251434336
  0
LINE
  5
28B
100
AcDbEntity
  8
0
100
AcDbLine
 62
7
  6
CONTINUOUS
 10
229.8529605931
 20
344.674079586
 11
230.7189859968
 21
344.674079586
  0
LINE
  5
28C
100
AcDbEntity
  8
0
100
AcDbLine
 62
7
  6
CONTINUOUS
 10
223.8008769816
 20
344.8230157907
 11
224.230494037
 21
344.8230157907
  0
LINE
  5
28D
100
AcDbEntity
  8
0
100
AcDbLine
 62
7
  6
CONTINUOUS
 10
226.3529601758
 20
344.8230157907
 11
227.2189855796
 21
344.8230157907
  0
LINE
  5
28E
100
AcDbEntity
  8
0
100
AcDbLine
 62
7
  6
CONTINUOUS
 10
227.2279601758
 20
344.8230157907
 11
228.5314855796
 21
344.8230157907
  0
LINE
  5
28F
100
AcDbEntity
  8
0
100
AcDbLine
 62
7
  6
CONTINUOUS
 10
230.6550433701
 20
344.8230157907
 11
231.5210687739
 21
344.8230157907
  0
LINE
  5
290
100
AcDbEntity
  8
0
100
AcDbLine
 62
7
  6
CONTINUOUS
 10
228.0300437873
 20
344.9719519431
 11
228.5890713797
 21
344.9719519431
  0
LINE
  5
291
100
AcDbEntity
  8
0
100
AcDbLine
 62
7
  6
CONTINUOUS
 10
231.0196269816
 20
344.9719519431
 11
231.6029603234
 21
344.9719519431
  0
LINE
  5
292
100
AcDbEntity
  8
0
100
AcDbLine
 62
7
  6
CONTINUOUS
 10
228.1758769816
 20
345.1208880956
 11
228.6376825835
 21
345.1208880956
  0
LINE
  5
293
100
AcDbEntity
  8
0
100
AcDbLine
 62
7
  6
CONTINUOUS
 10
229.6342105931
 20
345.1208880956
 11
230.1810855931
 21
345.1208880956
  0
LINE
  5
294
100
AcDbEntity
  8
0
100
AcDbLine
 62
7
  6
CONTINUOUS
 10
226.2071269816
 20
345.269824248
 11
226.6446270071
 21
345.269824248
  0
LINE
  5
295
100
AcDbEntity
  8
0
100
AcDbLine
 62
7
  6
CONTINUOUS
 10
231.2383769816
 20
345.269824248
 11
231.7123353781
 21
345.269824248
  0
LINE
  5
296
100
AcDbEntity
  8
0
100
AcDbLine
 62
7
  6
CONTINUOUS
 10
228.3217101758
 20
345.4187605048
 11
228.7105992615
 21
345.4187605048
  0
LINE
  5
297
100
AcDbEntity
  8
0
100
AcDbLine
 62
7
  6
CONTINUOUS
 10
228.0300437873
 20
350.9293987716
 11
227.5196269816
 21
351.0783349241
  0
LINE
  5
298
100
AcDbEntity
  8
0
100
AcDbLine
 62
7
  6
CONTINUOUS
 10
231.0925433701
 20
350.9293987716
 11
230.6550433701
 21
351.0783349241
  0
LINE
  5
299
100
AcDbEntity
  8
0
100
AcDbLine
 62
7
  6
CONTINUOUS
 10
230.6550433701
 20
350.3336541618
 11
231.0196269816
 21
350.1847180093
  0
LINE
  5
29A
100
AcDbEntity
  8
0
100
AcDbLine
 62
7
  6
CONTINUOUS
 10
231.8946269816
 20
348.9932283724
 11
231.8217105931
 21
349.440037247
  0
LINE
  5
29B
100
AcDbEntity
  8
KONSTRUKTIONSELEMENTE
100
AcDbLine
 62
7
  6
CONTINUOUS
 10
237.4647973207
 20
339.0783349241
 11
237.4647973207
 21
356.0783349241
  0
LINE
  5
29C
100
AcDbEntity
  8
0
100
AcDbLine
 62
7
  6
CONTINUOUS
 10
231.6029605931
 20
347.0570583905
 11
231.5300433701
 21
346.1634412671
  0
LINE
  5
29D
100
AcDbEntity
  8
0
100
AcDbLine
 62
7
  6
CONTINUOUS
 10
231.8946269816
 20
346.1634412671
 11
231.9675433701
 21
346.908122238
  0
LINE
  5
29E
100
AcDbEntity
  8
0
100
AcDbLine
 62
7
  6
CONTINUOUS
 10
228.6862937873
 20
345.269824248
 11
228.7592101758
 21
345.7166328097
  0
LINE
  5
29F
100
AcDbEntity
  8
0
100
AcDbLine
 62
7
  6
CONTINUOUS
 10
229.4883769816
 20
349.440037247
 11
229.4154605931
 21
348.9932283724
  0
LINE
  5
2A0
100
AcDbEntity
  8
0
100
AcDbLine
 62
7
  6
CONTINUOUS
 10
231.8217105931
 20
345.7166328097
 11
231.8946269816
 21
346.1634412671
  0
LINE
  5
2A1
100
AcDbEntity
  8
0
100
AcDbLine
 62
7
  6
CONTINUOUS
 10
228.3217101758
 20
349.1421645249
 11
228.1758769816
 21
348.546419915
  0
LINE
  5
2A2
100
AcDbEntity
  8
0
100
AcDbLine
 62
7
  6
CONTINUOUS
 10
228.3946269816
 20
345.7166328097
 11
228.3217101758
 21
345.4187605048
  0
LINE
  5
2A3
100
AcDbEntity
  8
0
100
AcDbLine
 62
7
  6
CONTINUOUS
 10
229.6342105931
 20
350.0357818568
 11
229.4883769816
 21
349.440037247
  0
LINE
  5
2A4
100
AcDbEntity
  8
0
100
AcDbLine
 62
7
  6
CONTINUOUS
 10
226.5717101758
 20
349.440037247
 11
226.7175437873
 21
349.8868457044
  0
LINE
  5
2A5
100
AcDbEntity
  8
0
100
AcDbLine
 62
7
  6
CONTINUOUS
 10
228.4675437873
 20
348.0996114577
 11
228.6133769816
 21
348.546419915
  0
LINE
  5
2A6
100
AcDbEntity
  8
0
100
AcDbLine
 62
7
  6
CONTINUOUS
 10
226.4987937873
 20
345.7166328097
 11
226.1342101758
 21
345.7166328097
  0
LINE
  5
2A7
100
AcDbEntity
  8
0
100
AcDbLine
 62
7
  6
CONTINUOUS
 10
228.3946269816
 20
345.7166328097
 11
228.7592101758
 21
345.7166328097
  0
LINE
  5
2A8
100
AcDbEntity
  8
0
100
AcDbLine
 62
7
  6
CONTINUOUS
 10
229.4883769816
 20
345.7166328097
 11
229.9258769645
 21
345.7166328097
  0
LINE
  5
2A9
100
AcDbEntity
  8
0
100
AcDbLine
 62
7
  6
CONTINUOUS
 10
229.4154605931
 20
346.1634412671
 11
229.7800433701
 21
346.1634412671
  0
LINE
  5
2AA
100
AcDbEntity
  8
0
100
AcDbLine
 62
7
  6
CONTINUOUS
 10
231.5300433701
 20
346.1634412671
 11
231.8946269816
 21
346.1634412671
  0
LINE
  5
2AB
100
AcDbEntity
  8
0
100
AcDbLine
 62
7
  6
CONTINUOUS
 10
228.3946269816
 20
346.3123774195
 11
228.7592101758
 21
346.3123774195
  0
LINE
  5
2AC
100
AcDbEntity
  8
0
100
AcDbLine
 62
7
  6
CONTINUOUS
 10
228.2487937873
 20
346.908122238
 11
228.6862937873
 21
346.908122238
  0
LINE
  5
2AD
100
AcDbEntity
  8
0
100
AcDbLine
 62
7
  6
CONTINUOUS
 10
229.3425433701
 20
346.908122238
 11
229.7192797101
 21
346.908122238
  0
LINE
  5
2AE
100
AcDbEntity
  8
0
100
AcDbLine
 62
7
  6
CONTINUOUS
 10
231.6029605931
 20
347.0570583905
 11
231.9675433701
 21
347.0570583905
  0
LINE
  5
2AF
100
AcDbEntity
  8
0
100
AcDbLine
 62
7
  6
CONTINUOUS
 10
228.0300437873
 20
347.2059945429
 11
228.5890713797
 21
347.2059945429
  0
LINE
  5
2B0
100
AcDbEntity
  8
0
100
AcDbLine
 62
7
  6
CONTINUOUS
 10
227.3008769816
 20
347.3549306954
 11
228.4585691911
 21
347.3549306954
  0
LINE
  5
2B1
100
AcDbEntity
  8
0
100
AcDbLine
 62
7
  6
CONTINUOUS
 10
227.3008769816
 20
347.9506753052
 11
228.3703215187
 21
347.9506753052
  0
LINE
  5
2B2
100
AcDbEntity
  8
0
100
AcDbLine
 62
7
  6
CONTINUOUS
 10
231.6029605931
 20
348.0996114577
 11
231.9675433701
 21
348.0996114577
  0
LINE
  5
2B3
100
AcDbEntity
  8
0
100
AcDbLine
 62
7
  6
CONTINUOUS
 10
228.0300437873
 20
348.2485476101
 11
228.5161548521
 21
348.2485476101
  0
LINE
  5
2B4
100
AcDbEntity
  8
0
100
AcDbLine
 62
7
  6
CONTINUOUS
 10
229.3425433701
 20
348.2485476101
 11
229.719279713
 21
348.2485476101
  0
LINE
  5
2B5
100
AcDbEntity
  8
0
100
AcDbLine
 62
7
  6
CONTINUOUS
 10
228.1758769816
 20
348.546419915
 11
228.6133769816
 21
348.546419915
  0
LINE
  5
2B6
100
AcDbEntity
  8
0
100
AcDbLine
 62
7
  6
CONTINUOUS
 10
229.4154605931
 20
348.9932283724
 11
229.7800433701
 21
348.9932283724
  0
LINE
  5
2B7
100
AcDbEntity
  8
0
100
AcDbLine
 62
7
  6
CONTINUOUS
 10
231.5300433701
 20
348.9932283724
 11
231.8946269816
 21
348.9932283724
  0
LINE
  5
2B8
100
AcDbEntity
  8
0
100
AcDbLine
 62
7
  6
CONTINUOUS
 10
228.3217101758
 20
349.1421645249
 11
228.6862937873
 21
349.1421645249
  0
LINE
  5
2B9
100
AcDbEntity
  8
0
100
AcDbLine
 62
7
  6
CONTINUOUS
 10
226.2071269816
 20
349.440037247
 11
226.5717101758
 21
349.440037247
  0
LINE
  5
2BA
100
AcDbEntity
  8
0
100
AcDbLine
 62
7
  6
CONTINUOUS
 10
228.3217101758
 20
349.440037247
 11
228.6862937873
 21
349.440037247
  0
LINE
  5
2BB
100
AcDbEntity
  8
0
100
AcDbLine
 62
7
  6
CONTINUOUS
 10
229.4883769816
 20
349.440037247
 11
229.9258770497
 21
349.440037247
  0
LINE
  5
2BC
100
AcDbEntity
  8
0
100
AcDbLine
 62
7
  6
CONTINUOUS
 10
222.4883769816
 20
349.5889733995
 11
222.9675436178
 21
349.5889733995
  0
LINE
  5
2BD
100
AcDbEntity
  8
0
100
AcDbLine
 62
7
  6
CONTINUOUS
 10
225.1133769816
 20
349.5889733995
 11
225.5508769816
 21
349.5889733995
  0
LINE
  5
2BE
100
AcDbEntity
  8
0
100
AcDbLine
 62
7
  6
CONTINUOUS
 10
228.1758769816
 20
349.8868457044
 11
228.631606183
 21
349.8868457044
  0
LINE
  5
2BF
100
AcDbEntity
  8
0
100
AcDbLine
 62
7
  6
CONTINUOUS
 10
231.2383769816
 20
349.8868457044
 11
231.7123353844
 21
349.8868457044
  0
LINE
  5
2C0
100
AcDbEntity
  8
0
100
AcDbLine
 62
7
  6
CONTINUOUS
 10
226.2800437873
 20
350.0357818568
 11
226.8269187873
 21
350.0357818568
  0
LINE
  5
2C1
100
AcDbEntity
  8
0
100
AcDbLine
 62
7
  6
CONTINUOUS
 10
229.6342105931
 20
350.0357818568
 11
230.1810855931
 21
350.0357818568
  0
LINE
  5
2C2
100
AcDbEntity
  8
0
100
AcDbLine
 62
7
  6
CONTINUOUS
 10
227.9571269816
 20
350.1847180093
 11
228.5404602801
 21
350.1847180093
  0
LINE
  5
2C3
100
AcDbEntity
  8
0
100
AcDbLine
 62
7
  6
CONTINUOUS
 10
231.0196269816
 20
350.1847180093
 11
231.6029603149
 21
350.1847180093
  0
LINE
  5
2C4
100
AcDbEntity
  8
0
100
AcDbLine
 62
7
  6
CONTINUOUS
 10
227.3008769816
 20
350.3336541618
 11
228.4585691911
 21
350.3336541618
  0
LINE
  5
2C5
100
AcDbEntity
  8
0
100
AcDbLine
 62
7
  6
CONTINUOUS
 10
230.6550433701
 20
350.3336541618
 11
231.5210687739
 21
350.3336541618
  0
LINE
  5
2C6
100
AcDbEntity
  8
0
100
AcDbLine
 62
7
  6
CONTINUOUS
 10
229.8529605931
 20
350.4825903142
 11
230.7189859968
 21
350.4825903142
  0
LINE
  5
2C7
100
AcDbEntity
  8
0
100
AcDbLine
 62
7
  6
CONTINUOUS
 10
226.5717101758
 20
350.6315264667
 11
227.4377355796
 21
350.6315264667
  0
LINE
  5
2C8
100
AcDbEntity
  8
0
100
AcDbLine
 62
7
  6
CONTINUOUS
 10
226.8633769816
 20
350.9293987716
 11
227.7294023853
 21
350.9293987716
  0
LINE
  5
2C9
100
AcDbEntity
  8
0
100
AcDbLine
 62
7
  6
CONTINUOUS
 10
230.2175433701
 20
350.9293987716
 11
231.0835687739
 21
350.9293987716
  0
LINE
  5
2CA
100
AcDbEntity
  8
0
100
AcDbLine
 62
7
  6
CONTINUOUS
 10
227.5196269816
 20
351.0783349241
 11
227.3737937873
 21
351.0783349241
  0
LINE
  5
2CB
100
AcDbEntity
  8
0
100
AcDbLine
 62
7
  6
CONTINUOUS
 10
225.5508769816
 20
351.0783349241
 11
224.8946269816
 21
351.0783349241
  0
LINE
  5
2CC
100
AcDbEntity
  8
0
100
AcDbLine
 62
7
  6
CONTINUOUS
 10
222.7071269816
 20
351.0783349241
 11
222.0508769816
 21
351.0783349241
  0
LINE
  5
2CD
100
AcDbEntity
  8
KONSTRUKTIONSELEMENTE
100
AcDbLine
 62
7
  6
CONTINUOUS
 10
242.1891159641
 20
339.0783349241
 11
242.1891159641
 21
356.0783349241
  0
LINE
  5
2CE
100
AcDbEntity
  8
RUNDUNGEN
100
AcDbLine
 62
7
  6
CONTINUOUS
 10
245.0769566424
 20
439.9533349241
 11
245.0769566424
 21
403.4534057113
  0
LINE
  5
2CF
100
AcDbEntity
  8
0
100
AcDbLine
 62
7
  6
CONTINUOUS
 10
231.6758769816
 20
345.1208880956
 11
231.8217105931
 21
345.7166328097
  0
LINE
  5
2D0
100
AcDbEntity
  8
0
100
AcDbLine
 62
7
  6
CONTINUOUS
 10
229.7800433701
 20
348.9932283724
 11
230.0717105931
 21
349.8868457044
  0
LINE
  5
2D1
100
AcDbEntity
  8
0
100
AcDbLine
 62
7
  6
CONTINUOUS
 10
228.5404601758
 20
344.8230157907
 11
228.6862937873
 21
345.269824248
  0
LINE
  5
2D2
100
AcDbEntity
  8
0
100
AcDbLine
 62
7
  6
CONTINUOUS
 10
231.5300433701
 20
346.1634412671
 11
231.2383769816
 21
345.269824248
  0
LINE
  5
2D3
100
AcDbEntity
  8
0
100
AcDbLine
 62
7
  6
CONTINUOUS
 10
226.5717101758
 20
350.6315264667
 11
226.2800437873
 21
350.0357818568
  0
LINE
  5
2D4
100
AcDbEntity
  8
0
100
AcDbLine
 62
7
  6
CONTINUOUS
 10
227.4377355796
 20
350.6315264667
 11
227.2936376025
 21
350.3371984381
  0
LINE
  5
2D5
100
AcDbEntity
  8
0
100
AcDbLine
 62
7
  6
CONTINUOUS
 10
228.1758769816
 20
348.546419915
 11
228.0300437873
 21
348.2485476101
  0
LINE
  5
2D6
100
AcDbEntity
  8
0
100
AcDbLine
 62
7
  6
CONTINUOUS
 10
229.8529605931
 20
350.4825903142
 11
229.6342105931
 21
350.0357818568
  0
LINE
  5
2D7
100
AcDbEntity
  8
0
100
AcDbLine
 62
7
  6
CONTINUOUS
 10
230.7189859968
 20
350.4825903142
 11
230.6478044425
 21
350.3371982205
  0
LINE
  5
2D8
100
AcDbEntity
  8
KONSTRUKTIONSELEMENTE
100
AcDbLine
 62
7
  6
CONTINUOUS
 10
216.0769566424
 20
356.0783349241
 11
311.0769566424
 21
356.0783349241
  0
LINE
  5
2D9
100
AcDbEntity
  8
0
100
AcDbLine
 62
7
  6
CONTINUOUS
 10
226.1647674542
 20
357.9533349241
 11
225.8893008403
 21
357.9533349241
  0
LINE
  5
2DA
100
AcDbEntity
  8
0
100
AcDbLine
 62
7
  6
CONTINUOUS
 10
223.3068237082
 20
357.9533349241
 11
222.8189530735
 21
357.9533349241
  0
LINE
  5
2DB
100
AcDbEntity
  8
0
100
AcDbLine
 62
7
  6
CONTINUOUS
 10
248.5769566424
 20
339.0783349241
 11
248.5769566424
 21
296.0783349241
  0
LINE
  5
2DC
100
AcDbEntity
  8
0
100
AcDbLine
 62
7
  6
CONTINUOUS
 10
228.3217101758
 20
345.4187605048
 11
228.1758769816
 21
345.1208880956
  0
LINE
  5
2DD
100
AcDbEntity
  8
0
100
AcDbLine
 62
7
  6
CONTINUOUS
 10
231.4571269816
 20
344.674079586
 11
231.6758769816
 21
345.1208880956
  0
LINE
  5
2DE
100
AcDbEntity
  8
0
100
AcDbLine
 62
7
  6
CONTINUOUS
 10
228.1758769816
 20
347.6528030003
 11
228.4675437873
 21
348.0996114577
  0
LINE
  5
2DF
100
AcDbEntity
  8
0
100
AcDbLine
 62
7
  6
CONTINUOUS
 10
226.7175437873
 20
349.8868457044
 11
226.9362937873
 21
350.1847180093
  0
LINE
  5
2E0
100
AcDbEntity
  8
0
100
AcDbLine
 62
7
  6
CONTINUOUS
 10
223.5264026512
 20
358.1448242797
 11
223.2689627082
 21
358.1448242797
  0
LINE
  5
2E1
100
AcDbEntity
  8
0
100
AcDbLine
 62
7
  6
CONTINUOUS
 10
226.1647674542
 20
358.7192923466
 11
225.8893008403
 21
358.7192923466
  0
LINE
  5
2E2
100
AcDbEntity
  8
0
100
AcDbLine
 62
7
  6
CONTINUOUS
 10
223.7692648193
 20
358.7192923466
 11
223.5102643871
 21
358.7192923466
  0
LINE
  5
2E3
100
AcDbEntity
  8
0
100
AcDbLine
 62
7
  6
CONTINUOUS
 10
225.7434916909
 20
358.9107817525
 11
225.4710703486
 21
358.9107817525
  0
LINE
  5
2E4
100
AcDbEntity
  8
0
100
AcDbLine
 62
7
  6
CONTINUOUS
 10
223.0507786023
 20
358.9107817525
 11
222.8189530735
 21
358.9107817525
  0
LINE
  5
2E5
100
AcDbEntity
  8
0
100
AcDbLine
 62
7
  6
CONTINUOUS
 10
222.9360462964
 20
359.1022710914
 11
222.6823225965
 21
359.1022710914
  0
LINE
  5
2E6
100
AcDbEntity
  8
0
100
AcDbLine
 62
7
  6
CONTINUOUS
 10
225.504041699
 20
359.2937604303
 11
225.2333215475
 21
359.2937604303
  0
LINE
  5
2E7
100
AcDbEntity
  8
0
100
AcDbLine
 62
7
  6
CONTINUOUS
 10
223.9263342169
 20
359.4852497692
 11
223.6663144686
 21
359.4852497692
  0
LINE
  5
2E8
100
AcDbEntity
  8
0
100
AcDbLine
 62
7
  6
CONTINUOUS
 10
222.8422969531
 20
359.4852497692
 11
222.5891535786
 21
359.4852497692
  0
LINE
  5
2E9
100
AcDbEntity
  8
0
100
AcDbLine
 62
7
  6
CONTINUOUS
 10
225.4264013884
 20
359.868228581
 11
225.1562283022
 21
359.868228581
  0
LINE
  5
2EA
100
AcDbEntity
  8
0
100
AcDbLine
 62
7
  6
CONTINUOUS
 10
222.7842258713
 20
360.2512072588
 11
222.3792624454
 21
360.2512072588
  0
LINE
  5
2EB
100
AcDbEntity
  8
0
100
AcDbLine
 62
7
  6
CONTINUOUS
 10
224.0358385903
 20
360.4426965976
 11
223.7751034593
 21
360.4426965976
  0
LINE
  5
2EC
100
AcDbEntity
  8
0
100
AcDbLine
 62
7
  6
CONTINUOUS
 10
224.0358385903
 20
361.2086539531
 11
223.7751034593
 21
361.2086539531
  0
LINE
  5
2ED
100
AcDbEntity
  8
0
100
AcDbLine
 62
7
  6
CONTINUOUS
 10
222.4757097636
 20
361.2086539531
 11
222.0861820654
 21
361.2086539531
  0
LINE
  5
2EE
100
AcDbEntity
  8
0
100
AcDbLine
 62
7
  6
CONTINUOUS
 10
222.3792624454
 20
361.9746115769
 11
222.8128200182
 21
361.9746115769
  0
LINE
  5
2EF
100
AcDbEntity
  8
0
100
AcDbLine
 62
7
  6
CONTINUOUS
 10
223.9263342169
 20
362.1661009157
 11
223.6663144686
 21
362.1661009157
  0
LINE
  5
2F0
100
AcDbEntity
  8
0
100
AcDbLine
 62
7
  6
CONTINUOUS
 10
222.3792624454
 20
362.1661009157
 11
222.0861820654
 21
362.1661009157
  0
LINE
  5
2F1
100
AcDbEntity
  8
0
100
AcDbLine
 62
7
  6
CONTINUOUS
 10
222.9360462964
 20
362.5490795935
 11
222.6823225965
 21
362.5490795935
  0
LINE
  5
2F2
100
AcDbEntity
  8
0
100
AcDbLine
 62
7
  6
CONTINUOUS
 10
223.0507786023
 20
362.7405689324
 11
222.8189530735
 21
362.7405689324
  0
LINE
  5
2F3
100
AcDbEntity
  8
0
100
AcDbLine
 62
7
  6
CONTINUOUS
 10
222.3269566424
 20
362.7405689324
 11
222.0997415117
 21
362.7405689324
  0
LINE
  5
2F4
100
AcDbEntity
  8
0
100
AcDbLine
 62
7
  6
CONTINUOUS
 10
223.7692648193
 20
362.9320582712
 11
223.5102643871
 21
362.9320582712
  0
LINE
  5
2F5
100
AcDbEntity
  8
0
100
AcDbLine
 62
7
  6
CONTINUOUS
 10
226.3412211186
 20
363.315036949
 11
225.1562283022
 21
363.315036949
  0
LINE
  5
2F6
100
AcDbEntity
  8
0
100
AcDbLine
 62
7
  6
CONTINUOUS
 10
224.7866552914
 20
363.315036949
 11
224.2490085647
 21
363.315036949
  0
LINE
  5
2F7
100
AcDbEntity
  8
0
100
AcDbLine
 62
7
  6
CONTINUOUS
 10
223.5264026512
 20
363.5065262879
 11
223.2689627082
 21
363.5065262879
  0
LINE
  5
2F8
100
AcDbEntity
  8
0
100
AcDbLine
 62
7
  6
CONTINUOUS
 10
222.3349593126
 20
363.5065262879
 11
222.0849110945
 21
363.5065262879
  0
LINE
  5
2F9
100
AcDbEntity
  8
0
100
AcDbLine
 62
7
  6
CONTINUOUS
 10
222.8189530735
 20
363.6980156267
 11
223.3068237082
 21
363.6980156267
  0
LINE
  5
2FA
100
AcDbEntity
  8
0
100
AcDbLine
 62
7
  6
CONTINUOUS
 10
226.3412211186
 20
364.0809943045
 11
225.1562283022
 21
364.0809943045
  0
LINE
  5
2FB
100
AcDbEntity
  8
0
100
AcDbLine
 62
7
  6
CONTINUOUS
 10
224.7866552914
 20
364.0809943045
 11
224.2490085647
 21
364.0809943045
  0
LINE
  5
2FC
100
AcDbEntity
  8
0
100
AcDbLine
 62
7
  6
CONTINUOUS
 10
222.3316917572
 20
364.0809943045
 11
222.0816632292
 21
364.0809943045
  0
LINE
  5
2FD
100
AcDbEntity
  8
0
100
AcDbLine
 62
7
  6
CONTINUOUS
 10
230.0717105931
 20
349.8868457044
 11
230.2904605931
 21
350.1847180093
  0
LINE
  5
2FE
100
AcDbEntity
  8
0
100
AcDbLine
 62
7
  6
CONTINUOUS
 10
228.3217101758
 20
344.5251434336
 11
228.5404601758
 21
344.8230157907
  0
LINE
  5
2FF
100
AcDbEntity
  8
0
100
AcDbLine
 62
7
  6
CONTINUOUS
 10
231.2383769816
 20
345.269824248
 11
231.0196269816
 21
344.9719519431
  0
LINE
  5
300
100
AcDbEntity
  8
0
100
AcDbLine
 62
7
  6
CONTINUOUS
 10
230.2175433701
 20
350.9293987716
 11
229.8529605931
 21
350.4825903142
  0
LINE
  5
301
100
AcDbEntity
  8
0
100
AcDbLine
 62
7
  6
CONTINUOUS
 10
231.0835687739
 20
350.9293987716
 11
230.7189859968
 21
350.4825903142
  0
LINE
  5
302
100
AcDbEntity
  8
0
100
AcDbLine
 62
7
  6
CONTINUOUS
 10
226.8633769816
 20
350.9293987716
 11
226.5717101758
 21
350.6315264667
  0
LINE
  5
303
100
AcDbEntity
  8
0
100
AcDbLine
 62
7
  6
CONTINUOUS
 10
227.7294023853
 20
350.9293987716
 11
227.4377355796
 21
350.6315264667
  0
LINE
  5
304
100
AcDbEntity
  8
0
100
AcDbLine
 62
7
  6
CONTINUOUS
 10
222.3316917572
 20
364.8469521964
 11
222.0816632292
 21
364.8469521964
  0
LINE
  5
305
100
AcDbEntity
  8
0
100
AcDbLine
 62
7
  6
CONTINUOUS
 10
222.3349593126
 20
365.4214202131
 11
222.0849110945
 21
365.4214202131
  0
LINE
  5
306
100
AcDbEntity
  8
0
100
AcDbLine
 62
7
  6
CONTINUOUS
 10
225.4264013884
 20
365.6129095519
 11
224.7866552914
 21
365.6129095519
  0
LINE
  5
307
100
AcDbEntity
  8
0
100
AcDbLine
 62
7
  6
CONTINUOUS
 10
223.9263342169
 20
365.9958882297
 11
222.503898639
 21
365.9958882297
  0
LINE
  5
308
100
AcDbEntity
  8
0
100
AcDbLine
 62
7
  6
CONTINUOUS
 10
222.3269566424
 20
366.1873775686
 11
222.0997415117
 21
366.1873775686
  0
LINE
  5
309
100
AcDbEntity
  8
0
100
AcDbLine
 62
7
  6
CONTINUOUS
 10
222.3269566424
 20
366.7618455852
 11
222.1313974897
 21
366.7618455852
  0
LINE
  5
30A
100
AcDbEntity
  8
0
100
AcDbLine
 62
7
  6
CONTINUOUS
 10
222.3269566424
 20
366.9533349241
 11
222.1901097735
 21
366.9533349241
  0
LINE
  5
30B
100
AcDbEntity
  8
0
100
AcDbLine
 62
7
  6
CONTINUOUS
 10
222.3792624454
 20
366.9533349241
 11
223.9263342169
 21
366.9533349241
  0
LINE
  5
30C
100
AcDbEntity
  8
0
100
AcDbLine
 62
7
  6
CONTINUOUS
 10
231.0925433701
 20
344.2272710896
 11
231.4571269816
 21
344.674079586
  0
LINE
  5
30D
100
AcDbEntity
  8
0
100
AcDbLine
 62
7
  6
CONTINUOUS
 10
228.1758769816
 20
345.1208880956
 11
228.0300437873
 21
344.9719519431
  0
LINE
  5
30E
100
AcDbEntity
  8
0
100
AcDbLine
 62
7
  6
CONTINUOUS
 10
228.0300437873
 20
344.2272710896
 11
228.3217101758
 21
344.5251434336
  0
LINE
  5
30F
100
AcDbEntity
  8
0
100
AcDbLine
 62
7
  6
CONTINUOUS
 10
223.9263340117
 20
371.9533349241
 11
222.6503836732
 21
371.9533349241
  0
LINE
  5
310
100
AcDbEntity
  8
0
100
AcDbLine
 62
7
  6
CONTINUOUS
 10
222.3953846107
 20
371.9533349241
 11
222.1087835917
 21
371.9533349241
  0
LINE
  5
311
100
AcDbEntity
  8
0
100
AcDbLine
 62
7
  6
CONTINUOUS
 10
224.2073639834
 20
372.1448242797
 11
223.9455003717
 21
372.1448242797
  0
LINE
  5
312
100
AcDbEntity
  8
0
100
AcDbLine
 62
7
  6
CONTINUOUS
 10
222.4601736199
 20
372.1448242797
 11
222.2093685314
 21
372.1448242797
  0
LINE
  5
313
100
AcDbEntity
  8
0
100
AcDbLine
 62
7
  6
CONTINUOUS
 10
224.4498101358
 20
372.5278030077
 11
224.1863347414
 21
372.5278030077
  0
LINE
  5
314
100
AcDbEntity
  8
0
100
AcDbLine
 62
7
  6
CONTINUOUS
 10
222.5274914358
 20
372.5278030077
 11
222.2762775469
 21
372.5278030077
  0
LINE
  5
315
100
AcDbEntity
  8
0
100
AcDbLine
 62
7
  6
CONTINUOUS
 10
223.6663142647
 20
373.1022710914
 11
222.8553407609
 21
373.1022710914
  0
LINE
  5
316
100
AcDbEntity
  8
0
100
AcDbLine
 62
7
  6
CONTINUOUS
 10
222.1449717153
 20
373.1022710914
 11
222.1087835917
 21
373.1022710914
  0
LINE
  5
317
100
AcDbEntity
  8
0
100
AcDbLine
 62
7
  6
CONTINUOUS
 10
224.7082370403
 20
373.2937604303
 11
224.4430217072
 21
373.2937604303
  0
LINE
  5
318
100
AcDbEntity
  8
0
100
AcDbLine
 62
7
  6
CONTINUOUS
 10
222.608647667
 20
373.2937604303
 11
222.3569391714
 21
373.2937604303
  0
LINE
  5
319
100
AcDbEntity
  8
0
100
AcDbLine
 62
7
  6
CONTINUOUS
 10
222.1947820649
 20
373.2937604303
 11
222.0861820729
 21
373.2937604303
  0
LINE
  5
31A
100
AcDbEntity
  8
0
100
AcDbLine
 62
7
  6
CONTINUOUS
 10
222.2411085065
 20
373.6767392421
 11
222.0781332431
 21
373.6767392421
  0
LINE
  5
31B
100
AcDbEntity
  8
0
100
AcDbLine
 62
7
  6
CONTINUOUS
 10
224.8435428534
 20
374.0597179199
 11
224.5774073662
 21
374.0597179199
  0
LINE
  5
31C
100
AcDbEntity
  8
0
100
AcDbLine
 62
7
  6
CONTINUOUS
 10
222.6544403005
 20
374.0597179199
 11
222.402451864
 21
374.0597179199
  0
LINE
  5
31D
100
AcDbEntity
  8
0
100
AcDbLine
 62
7
  6
CONTINUOUS
 10
222.2762775469
 20
374.2512072588
 11
222.0770037062
 21
374.2512072588
  0
LINE
  5
31E
100
AcDbEntity
  8
0
100
AcDbLine
 62
7
  6
CONTINUOUS
 10
224.9127368059
 20
375.0171646143
 11
224.6461282982
 21
375.0171646143
  0
LINE
  5
31F
100
AcDbEntity
  8
0
100
AcDbLine
 62
7
  6
CONTINUOUS
 10
222.2951507594
 20
375.0171646143
 11
222.0777096591
 21
375.0171646143
  0
LINE
  5
320
100
AcDbEntity
  8
0
100
AcDbLine
 62
7
  6
CONTINUOUS
 10
222.6503836732
 20
375.0171646143
 11
222.4265086357
 21
375.0171646143
  0
LINE
  5
321
100
AcDbEntity
  8
0
100
AcDbLine
 62
7
  6
CONTINUOUS
 10
228.0300437873
 20
348.2485476101
 11
227.5925437873
 21
347.9506753052
  0
LINE
  5
322
100
AcDbEntity
  8
0
100
AcDbLine
 62
7
  6
CONTINUOUS
 10
224.9127368059
 20
377.8895049656
 11
224.6461282982
 21
377.8895049656
  0
LINE
  5
323
100
AcDbEntity
  8
0
100
AcDbLine
 62
7
  6
CONTINUOUS
 10
224.8435428534
 20
378.8469521964
 11
224.5774073662
 21
378.8469521964
  0
LINE
  5
324
100
AcDbEntity
  8
0
100
AcDbLine
 62
7
  6
CONTINUOUS
 10
224.7082370403
 20
379.6129095519
 11
224.4430217072
 21
379.6129095519
  0
LINE
  5
325
100
AcDbEntity
  8
0
100
AcDbLine
 62
7
  6
CONTINUOUS
 10
223.6663142647
 20
379.8043988908
 11
222.8553407609
 21
379.8043988908
  0
LINE
  5
326
100
AcDbEntity
  8
0
100
AcDbLine
 62
7
  6
CONTINUOUS
 10
224.4498101358
 20
380.3788669074
 11
224.1863347414
 21
380.3788669074
  0
LINE
  5
327
100
AcDbEntity
  8
0
100
AcDbLine
 62
7
  6
CONTINUOUS
 10
224.2073639834
 20
380.7618455852
 11
223.9455003717
 21
380.7618455852
  0
LINE
  5
328
100
AcDbEntity
  8
0
100
AcDbLine
 62
7
  6
CONTINUOUS
 10
223.9263340117
 20
380.9533349241
 11
222.0777096591
 21
380.9533349241
  0
LINE
  5
329
100
AcDbEntity
  8
0
100
AcDbLine
 62
7
  6
CONTINUOUS
 10
227.7383769816
 20
344.0783349241
 11
228.0300437873
 21
344.2272710896
  0
LINE
  5
32A
100
AcDbEntity
  8
0
100
AcDbLine
 62
7
  6
CONTINUOUS
 10
226.9362937873
 20
350.1847180093
 11
227.3008769816
 21
350.3336541618
  0
LINE
  5
32B
100
AcDbEntity
  8
0
100
AcDbLine
 62
7
  6
CONTINUOUS
 10
230.2904605931
 20
350.1847180093
 11
230.6550433701
 21
350.3336541618
  0
LINE
  5
32C
100
AcDbEntity
  8
0
100
AcDbLine
 62
7
  6
CONTINUOUS
 10
230.6550433701
 20
351.0783349241
 11
230.2175433701
 21
350.9293987716
  0
LINE
  5
32D
100
AcDbEntity
  8
0
100
AcDbLine
 62
7
  6
CONTINUOUS
 10
278.5769566424
 20
339.0783349241
 11
278.5769566424
 21
296.0783349241
  0
LINE
  5
32E
100
AcDbEntity
  8
RUNDUNGEN
100
AcDbLine
 62
7
  6
CONTINUOUS
 10
282.0769566424
 20
403.4533704181
 11
282.0769566424
 21
439.9533349241
  0
LINE
  5
32F
100
AcDbEntity
  8
0
100
AcDbLine
 62
7
  6
CONTINUOUS
 10
282.5769566424
 20
432.4733346856
 11
282.5769566424
 21
424.9735649611
  0
LINE
  5
330
100
AcDbEntity
  8
0
100
AcDbLine
 62
7
  6
CONTINUOUS
 10
282.5769566424
 20
422.5733349241
 11
282.5769566424
 21
422.2732967235
  0
LINE
  5
331
100
AcDbEntity
  8
0
100
AcDbLine
 62
7
  6
CONTINUOUS
 10
282.5769566424
 20
422.2633349241
 11
282.5769566424
 21
416.2134558394
  0
LINE
  5
332
100
AcDbEntity
  8
0
100
AcDbLine
 62
7
  6
CONTINUOUS
 10
228.0300437873
 20
344.9719519431
 11
227.6654601758
 21
344.8230157907
  0
LINE
  5
333
100
AcDbEntity
  8
0
100
AcDbLine
 62
7
  6
CONTINUOUS
 10
231.0196269816
 20
344.9719519431
 11
230.6550433701
 21
344.8230157907
  0
LINE
  5
334
100
AcDbEntity
  8
0
100
AcDbLine
 62
7
  6
CONTINUOUS
 10
227.3737937873
 20
351.0783349241
 11
226.8633769816
 21
350.9293987716
  0
LINE
  5
335
100
AcDbEntity
  8
0
100
AcDbLine
 62
7
  6
CONTINUOUS
 10
227.8797230863
 20
350.9732613298
 11
227.7294023853
 21
350.9293987716
  0
LINE
  5
336
100
AcDbEntity
  8
KONSTRUKTIONSELEMENTE
100
AcDbLine
 62
7
  6
CONTINUOUS
 10
284.9647973207
 20
339.0783349241
 11
284.9647973207
 21
356.0783349241
  0
LINE
  5
337
100
AcDbEntity
  8
KONSTRUKTIONSELEMENTE
100
AcDbLine
 62
7
  6
CONTINUOUS
 10
289.6891159641
 20
339.0783349241
 11
289.6891159641
 21
356.0783349241
  0
LINE
  5
338
100
AcDbEntity
  8
0
100
AcDbLine
 62
7
  6
CONTINUOUS
 10
230.6550433701
 20
344.0783349241
 11
231.0925433701
 21
344.2272710896
  0
LINE
  5
339
100
AcDbEntity
  8
RUNDUNGEN
100
AcDbLine
 62
7
  6
CONTINUOUS
 10
301.8269566424
 20
398.4533349241
 11
287.076955071
 21
398.4533349241
  0
LINE
  5
33A
100
AcDbEntity
  8
RUNDUNGEN
100
AcDbLine
 62
7
  6
CONTINUOUS
 10
240.0769571503
 20
398.4533349241
 11
225.3269566424
 21
398.4533349241
  0
LINE
  5
33B
100
AcDbEntity
  8
0
100
AcDbLine
 62
7
  6
CONTINUOUS
 10
304.8269566424
 20
395.4533349241
 11
304.8269566424
 21
356.0783349241
  0
LINE
  5
33C
100
AcDbEntity
  8
0
100
AcDbLine
 62
7
  6
CONTINUOUS
 10
282.0769566424
 20
416.2133349241
 11
282.5769566424
 21
416.2133349241
  0
LINE
  5
33D
100
AcDbEntity
  8
0
100
AcDbLine
 62
7
  6
CONTINUOUS
 10
282.0769566424
 20
421.0912852803
 11
282.5769566424
 21
421.0912852803
  0
LINE
  5
33E
100
AcDbEntity
  8
KONSTRUKTIONSELEMENTE
100
AcDbLine
 62
7
  6
CONTINUOUS
 10
311.0769566424
 20
339.0783349241
 11
311.0769566424
 21
356.0783349241
  0
LINE
  5
33F
100
AcDbEntity
  8
0
100
AcDbLine
 62
7
  6
CONTINUOUS
 10
282.0769566424
 20
421.7431335462
 11
282.5769566424
 21
421.7431335462
  0
LINE
  5
340
100
AcDbEntity
  8
0
100
AcDbLine
 62
7
  6
CONTINUOUS
 10
282.0769566424
 20
422.2633349241
 11
282.5769566424
 21
422.2633349241
  0
LINE
  5
341
100
AcDbEntity
  8
0
100
AcDbLine
 62
7
  6
CONTINUOUS
 10
282.0769566424
 20
422.2733349241
 11
282.5769566424
 21
422.2733349241
  0
LINE
  5
342
100
AcDbEntity
  8
0
100
AcDbLine
 62
7
  6
CONTINUOUS
 10
282.0769566424
 20
422.5733349241
 11
282.5769566424
 21
422.5733349241
  0
LINE
  5
343
100
AcDbEntity
  8
0
100
AcDbLine
 62
7
  6
CONTINUOUS
 10
282.0769566424
 20
424.9733349241
 11
282.5769566424
 21
424.9733349241
  0
LINE
  5
344
100
AcDbEntity
  8
0
100
AcDbLine
 62
7
  6
CONTINUOUS
 10
282.0769566424
 20
425.4733349241
 11
282.5769566424
 21
425.4733349241
  0
LINE
  5
345
100
AcDbEntity
  8
0
100
AcDbLine
 62
7
  6
CONTINUOUS
 10
282.0769566424
 20
426.2233349241
 11
282.5769566424
 21
426.2233349241
  0
LINE
  5
346
100
AcDbEntity
  8
0
100
AcDbLine
 62
7
  6
CONTINUOUS
 10
282.0769566424
 20
426.9733349241
 11
282.5769566424
 21
426.9733349241
  0
LINE
  5
347
100
AcDbEntity
  8
0
100
AcDbLine
 62
7
  6
CONTINUOUS
 10
282.0769566424
 20
427.9733348644
 11
282.5769566424
 21
427.9733348644
  0
LINE
  5
348
100
AcDbEntity
  8
0
100
AcDbLine
 62
7
  6
CONTINUOUS
 10
282.0769566424
 20
428.0983349241
 11
282.5769566424
 21
428.0983349241
  0
LINE
  5
349
100
AcDbEntity
  8
0
100
AcDbLine
 62
7
  6
CONTINUOUS
 10
282.0769566424
 20
428.2233349837
 11
282.5769566424
 21
428.2233349837
  0
LINE
  5
34A
100
AcDbEntity
  8
0
100
AcDbLine
 62
7
  6
CONTINUOUS
 10
282.0769566424
 20
428.7233350433
 11
282.5769566424
 21
428.7233350433
  0
LINE
  5
34B
100
AcDbEntity
  8
0
100
AcDbLine
 62
7
  6
CONTINUOUS
 10
282.0769566424
 20
429.2233349241
 11
282.5769566424
 21
429.2233349241
  0
LINE
  5
34C
100
AcDbEntity
  8
0
100
AcDbLine
 62
7
  6
CONTINUOUS
 10
282.0769566424
 20
430.0983348048
 11
282.5769566424
 21
430.0983348048
  0
LINE
  5
34D
100
AcDbEntity
  8
0
100
AcDbLine
 62
7
  6
CONTINUOUS
 10
282.0769566424
 20
430.3483349241
 11
282.5769566424
 21
430.3483349241
  0
LINE
  5
34E
100
AcDbEntity
  8
0
100
AcDbLine
 62
7
  6
CONTINUOUS
 10
282.0769566424
 20
431.2233348048
 11
282.5769566424
 21
431.2233348048
  0
LINE
  5
34F
100
AcDbEntity
  8
0
100
AcDbLine
 62
7
  6
CONTINUOUS
 10
282.0769566424
 20
431.7233346856
 11
282.5769566424
 21
431.7233346856
  0
LINE
  5
350
100
AcDbEntity
  8
0
100
AcDbLine
 62
7
  6
CONTINUOUS
 10
282.0769566424
 20
432.2233349241
 11
282.5769566424
 21
432.2233349241
  0
LINE
  5
351
100
AcDbEntity
  8
0
100
AcDbLine
 62
7
  6
CONTINUOUS
 10
282.0769566424
 20
432.3483351625
 11
282.5769566424
 21
432.3483351625
  0
LINE
  5
352
100
AcDbEntity
  8
0
100
AcDbLine
 62
7
  6
CONTINUOUS
 10
282.0769566424
 20
432.4733346856
 11
282.5769566424
 21
432.4733346856
  0
LINE
  5
353
100
AcDbEntity
  8
FASEN
100
AcDbLine
 62
7
  6
CONTINUOUS
 10
276.5769566424
 20
294.0783349241
 11
278.5769566424
 21
296.0783349241
  0
LINE
  5
354
100
AcDbEntity
  8
FASEN
100
AcDbLine
 62
7
  6
CONTINUOUS
 10
482.2594241321
 20
294.0783349241
 11
456.2597171342
 21
294.0783349241
  0
LINE
  5
355
100
AcDbEntity
  8
FASEN
100
AcDbLine
 62
7
  6
CONTINUOUS
 10
484.2595706331
 20
296.0783349241
 11
454.2595706331
 21
296.0783349241
  0
LINE
  5
356
100
AcDbEntity
  8
RUNDUNGEN
100
AcDbLine
 62
7
  6
CONTINUOUS
 10
443.5880332694
 20
457.3816986727
 11
437.7114373038
 21
450.3782443184
  0
LINE
  5
357
100
AcDbEntity
  8
FASEN
100
AcDbLine
 62
7
  6
CONTINUOUS
 10
456.2595706331
 20
294.0783349241
 11
454.2595706331
 21
296.0783349241
  0
LINE
  5
358
100
AcDbEntity
  8
RUNDUNGEN
100
AcDbLine
 62
7
  6
CONTINUOUS
 10
428.4114944218
 20
416.1494873468
 11
436.5406595464
 21
430.2296143657
  0
LINE
  5
359
100
AcDbEntity
  8
KONSTRUKTIONSELEMENTE
100
AcDbLine
 62
7
  6
CONTINUOUS
 10
426.7595706331
 20
339.0783349241
 11
426.7595706331
 21
356.0783349241
  0
LINE
  5
35A
100
AcDbEntity
  8
RUNDUNGEN
100
AcDbLine
 62
7
  6
CONTINUOUS
 10
461.6015277554
 20
429.7424930896
 11
459.2226746857
 21
427.6005641649
  0
LINE
  5
35B
100
AcDbEntity
  8
0
100
AcDbLine
 62
7
  6
CONTINUOUS
 10
438.4832912044
 20
345.0889732058
 11
439.0245570689
 21
344.7059944945
  0
LINE
  5
35C
100
AcDbEntity
  8
0
100
AcDbLine
 62
7
  6
CONTINUOUS
 10
439.1328102185
 20
345.4719519282
 11
438.8080506921
 21
345.8549306954
  0
LINE
  5
35D
100
AcDbEntity
  8
0
100
AcDbLine
 62
7
  6
CONTINUOUS
 10
439.6328102185
 20
345.4719519282
 11
439.3080506921
 21
345.8549306954
  0
LINE
  5
35E
100
AcDbEntity
  8
0
100
AcDbLine
 62
7
  6
CONTINUOUS
 10
428.0095706331
 20
414.6494873468
 11
428.0095706331
 21
356.0783349241
  0
LINE
  5
35F
100
AcDbEntity
  8
KONSTRUKTIONSELEMENTE
100
AcDbLine
 62
7
  6
CONTINUOUS
 10
429.4871572736
 20
339.0783349241
 11
429.4871572736
 21
356.0783349241
  0
LINE
  5
360
100
AcDbEntity
  8
0
100
AcDbLine
 62
7
  6
CONTINUOUS
 10
497.8686215018
 20
344.9719519431
 11
497.2371441631
 21
344.8230157907
  0
LINE
  5
361
100
AcDbEntity
  8
0
100
AcDbLine
 62
7
  6
CONTINUOUS
 10
497.2371441631
 20
344.0783349241
 11
497.9949163914
 21
344.2272710896
  0
LINE
  5
362
100
AcDbEntity
  8
0
100
AcDbLine
 62
7
  6
CONTINUOUS
 10
496.9871441631
 20
344.1274711156
 11
497.4949163914
 21
344.2272710896
  0
LINE
  5
363
100
AcDbEntity
  8
KONSTRUKTIONSELEMENTE
100
AcDbLine
 62
7
  6
CONTINUOUS
 10
426.7595706331
 20
339.0783349241
 11
511.7595706331
 21
339.0783349241
  0
LINE
  5
364
100
AcDbEntity
  8
0
100
AcDbLine
 62
7
  6
CONTINUOUS
 10
439.0245570689
 20
344.7059944945
 11
439.5658228946
 21
344.5783349241
  0
LINE
  5
365
100
AcDbEntity
  8
0
100
AcDbLine
 62
7
  6
CONTINUOUS
 10
439.5658228946
 20
345.344292369
 11
439.1328102185
 21
345.4719519282
  0
LINE
  5
366
100
AcDbEntity
  8
0
100
AcDbLine
 62
7
  6
CONTINUOUS
 10
440.0658228946
 20
345.344292369
 11
439.6328102185
 21
345.4719519282
  0
LINE
  5
367
100
AcDbEntity
  8
0
100
AcDbLine
 62
7
  6
CONTINUOUS
 10
439.7823293488
 20
348.0251433814
 11
439.4575698224
 21
348.1528029407
  0
LINE
  5
368
100
AcDbEntity
  8
0
100
AcDbLine
 62
7
  6
CONTINUOUS
 10
440.2823293488
 20
348.0251433814
 11
439.9575698224
 21
348.1528029407
  0
LINE
  5
369
100
AcDbEntity
  8
0
100
AcDbLine
 62
7
  6
CONTINUOUS
 10
438.9163039192
 20
347.6421647037
 11
439.3493165953
 21
347.3868455852
  0
LINE
  5
36A
100
AcDbEntity
  8
0
100
AcDbLine
 62
7
  6
CONTINUOUS
 10
441.4061268261
 20
347.6421647037
 11
440.9731142274
 21
347.8974838222
  0
LINE
  5
36B
100
AcDbEntity
  8
0
100
AcDbLine
 62
7
  6
CONTINUOUS
 10
441.9061268261
 20
347.6421647037
 11
441.4731142274
 21
347.8974838222
  0
LINE
  5
36C
100
AcDbEntity
  8
0
100
AcDbLine
 62
7
  6
CONTINUOUS
 10
450.282887731
 20
345.344292369
 11
449.8498742032
 21
345.5996114875
  0
LINE
  5
36D
100
AcDbEntity
  8
0
100
AcDbLine
 62
7
  6
CONTINUOUS
 10
449.5251146768
 20
345.0889732058
 11
450.0663809671
 21
344.7059944945
  0
LINE
  5
36E
100
AcDbEntity
  8
0
100
AcDbLine
 62
7
  6
CONTINUOUS
 10
439.4575698224
 20
348.1528029407
 11
439.1328102185
 21
348.4081220592
  0
LINE
  5
36F
100
AcDbEntity
  8
0
100
AcDbLine
 62
7
  6
CONTINUOUS
 10
440.8648611552
 20
347.1315264667
 11
441.1896206816
 21
346.8762073482
  0
LINE
  5
370
100
AcDbEntity
  8
0
100
AcDbLine
 62
7
  6
CONTINUOUS
 10
439.9575698224
 20
348.1528029407
 11
439.6328102185
 21
348.4081220592
  0
LINE
  5
371
100
AcDbEntity
  8
0
100
AcDbLine
 62
7
  6
CONTINUOUS
 10
441.2978737538
 20
350.0676966871
 11
440.8648611552
 21
350.4506753648
  0
LINE
  5
372
100
AcDbEntity
  8
0
100
AcDbLine
 62
7
  6
CONTINUOUS
 10
441.7978737538
 20
350.0676966871
 11
441.3648611552
 21
350.4506753648
  0
LINE
  5
373
100
AcDbEntity
  8
0
100
AcDbLine
 62
7
  6
CONTINUOUS
 10
438.4832912044
 20
348.1528029407
 11
438.9163039192
 21
347.6421647037
  0
LINE
  5
374
100
AcDbEntity
  8
0
100
AcDbLine
 62
7
  6
CONTINUOUS
 10
441.8391397344
 20
347.1315264667
 11
441.4061268261
 21
347.6421647037
  0
LINE
  5
375
100
AcDbEntity
  8
0
100
AcDbLine
 62
7
  6
CONTINUOUS
 10
442.3391397344
 20
347.1315264667
 11
441.9061268261
 21
347.6421647037
  0
LINE
  5
376
100
AcDbEntity
  8
0
100
AcDbLine
 62
7
  6
CONTINUOUS
 10
440.7566077732
 20
349.6847180093
 11
440.9731142274
 21
349.4293988908
  0
LINE
  5
377
100
AcDbEntity
  8
0
100
AcDbLine
 62
7
  6
CONTINUOUS
 10
441.6226332802
 20
349.5570584501
 11
441.2978737538
 21
350.0676966871
  0
LINE
  5
378
100
AcDbEntity
  8
0
100
AcDbLine
 62
7
  6
CONTINUOUS
 10
442.1226332802
 20
349.5570584501
 11
441.7978737538
 21
350.0676966871
  0
LINE
  5
379
100
AcDbEntity
  8
0
100
AcDbLine
 62
7
  6
CONTINUOUS
 10
441.1896206816
 20
346.8762073482
 11
441.4061268261
 21
346.4932284916
  0
LINE
  5
37A
100
AcDbEntity
  8
0
100
AcDbLine
 62
7
  6
CONTINUOUS
 10
438.1585316683
 20
345.7272711361
 11
438.4832912044
 21
345.0889732058
  0
LINE
  5
37B
100
AcDbEntity
  8
0
100
AcDbLine
 62
7
  6
CONTINUOUS
 10
442.0556458789
 20
346.6208880509
 11
441.8391397344
 21
347.1315264667
  0
LINE
  5
37C
100
AcDbEntity
  8
0
100
AcDbLine
 62
7
  6
CONTINUOUS
 10
440.9731142274
 20
349.4293988908
 11
441.0813672996
 21
349.1740797723
  0
LINE
  5
37D
100
AcDbEntity
  8
0
100
AcDbLine
 62
7
  6
CONTINUOUS
 10
438.8080506921
 20
345.8549306954
 11
438.6997975425
 21
346.2379093731
  0
LINE
  5
37E
100
AcDbEntity
  8
0
100
AcDbLine
 62
7
  6
CONTINUOUS
 10
439.3080506921
 20
345.8549306954
 11
439.1997975425
 21
346.2379093731
  0
LINE
  5
37F
100
AcDbEntity
  8
0
100
AcDbLine
 62
7
  6
CONTINUOUS
 10
439.1328102185
 20
348.4081220592
 11
439.0245570689
 21
348.7911007369
  0
LINE
  5
380
100
AcDbEntity
  8
0
100
AcDbLine
 62
7
  6
CONTINUOUS
 10
438.0502784896
 20
346.2379093731
 11
438.1585316683
 21
345.7272711361
  0
LINE
  5
381
100
AcDbEntity
  8
0
100
AcDbLine
 62
7
  6
CONTINUOUS
 10
434.1531641726
 20
353.5783349241
 11
434.1531641726
 21
341.5783349241
  0
LINE
  5
382
100
AcDbEntity
  8
0
100
AcDbLine
 62
7
  6
CONTINUOUS
 10
434.6531641726
 20
353.5783349241
 11
434.6531641726
 21
341.5783349241
  0
LINE
  5
383
100
AcDbEntity
  8
RUNDUNGEN
100
AcDbLine
 62
7
  6
CONTINUOUS
 10
437.0095706331
 20
431.9796143657
 11
437.0095706331
 21
448.4498814894
  0
LINE
  5
384
100
AcDbEntity
  8
0
100
AcDbLine
 62
7
  6
CONTINUOUS
 10
438.375038016
 20
349.1740797723
 11
438.375038016
 21
348.6634411777
  0
LINE
  5
385
100
AcDbEntity
  8
0
100
AcDbLine
 62
7
  6
CONTINUOUS
 10
439.0245570689
 20
348.7911007369
 11
439.0245570689
 21
349.0464198554
  0
LINE
  5
386
100
AcDbEntity
  8
0
100
AcDbLine
 62
7
  6
CONTINUOUS
 10
492.6905115159
 20
344.9719519431
 11
492.0590341772
 21
344.8230157907
  0
LINE
  5
387
100
AcDbEntity
  8
0
100
AcDbLine
 62
7
  6
CONTINUOUS
 10
496.6056682697
 20
350.1847180093
 11
497.2371441631
 21
350.3336541618
  0
LINE
  5
388
100
AcDbEntity
  8
0
100
AcDbLine
 62
7
  6
CONTINUOUS
 10
496.1056682697
 20
350.1847180093
 11
496.7371441631
 21
350.3336541618
  0
LINE
  5
389
100
AcDbEntity
  8
0
100
AcDbLine
 62
7
  6
CONTINUOUS
 10
490.7960809451
 20
350.1847180093
 11
491.4275575612
 21
350.3336541618
  0
LINE
  5
38A
100
AcDbEntity
  8
0
100
AcDbLine
 62
7
  6
CONTINUOUS
 10
490.2960809451
 20
350.1847180093
 11
490.9275575612
 21
350.3336541618
  0
LINE
  5
38B
100
AcDbEntity
  8
0
100
AcDbLine
 62
7
  6
CONTINUOUS
 10
497.2371441631
 20
351.0783349241
 11
496.4793719348
 21
350.9293987716
  0
LINE
  5
38C
100
AcDbEntity
  8
0
100
AcDbLine
 62
7
  6
CONTINUOUS
 10
434.1531641726
 20
341.5783349241
 11
461.8659770937
 21
341.5783349241
  0
LINE
  5
38D
100
AcDbEntity
  8
0
100
AcDbLine
 62
7
  6
CONTINUOUS
 10
482.3342908214
 20
344.0783349241
 11
483.0920630497
 21
344.0783349241
  0
LINE
  5
38E
100
AcDbEntity
  8
0
100
AcDbLine
 62
7
  6
CONTINUOUS
 10
484.8601981889
 20
344.0783349241
 11
485.8705610998
 21
344.0783349241
  0
LINE
  5
38F
100
AcDbEntity
  8
0
100
AcDbLine
 62
7
  6
CONTINUOUS
 10
487.6386964196
 20
344.0783349241
 11
488.3964686479
 21
344.0783349241
  0
LINE
  5
390
100
AcDbEntity
  8
0
100
AcDbLine
 62
7
  6
CONTINUOUS
 10
491.1749670593
 20
344.0783349241
 11
492.1853297895
 21
344.0783349241
  0
LINE
  5
391
100
AcDbEntity
  8
0
100
AcDbLine
 62
7
  6
CONTINUOUS
 10
497.9949163914
 20
344.2272710896
 11
497.4949163914
 21
344.2272710896
  0
LINE
  5
392
100
AcDbEntity
  8
0
100
AcDbLine
 62
7
  6
CONTINUOUS
 10
492.6905115159
 20
344.2272710896
 11
492.1905115159
 21
344.2272710896
  0
LINE
  5
393
100
AcDbEntity
  8
0
100
AcDbLine
 62
7
  6
CONTINUOUS
 10
493.1956925197
 20
344.5251434336
 11
492.6956925197
 21
344.5251434336
  0
LINE
  5
394
100
AcDbEntity
  8
0
100
AcDbLine
 62
7
  6
CONTINUOUS
 10
439.5658228946
 20
344.5783349241
 11
440.9318484017
 21
344.5783349241
  0
LINE
  5
395
100
AcDbEntity
  8
0
100
AcDbLine
 62
7
  6
CONTINUOUS
 10
443.7876965832
 20
344.5783349241
 11
445.1537224
 21
344.5783349241
  0
LINE
  5
396
100
AcDbEntity
  8
0
100
AcDbLine
 62
7
  6
CONTINUOUS
 10
446.3857727946
 20
344.5783349241
 11
447.7517986113
 21
344.5783349241
  0
LINE
  5
397
100
AcDbEntity
  8
0
100
AcDbLine
 62
7
  6
CONTINUOUS
 10
450.6076472575
 20
344.5783349241
 11
451.7571663103
 21
344.5783349241
  0
LINE
  5
398
100
AcDbEntity
  8
0
100
AcDbLine
 62
7
  6
CONTINUOUS
 10
455.3707861524
 20
344.5783349241
 11
456.5203052052
 21
344.5783349241
  0
LINE
  5
399
100
AcDbEntity
  8
0
100
AcDbLine
 62
7
  6
CONTINUOUS
 10
498.6263937301
 20
344.674079586
 11
498.1263937301
 21
344.674079586
  0
LINE
  5
39A
100
AcDbEntity
  8
0
100
AcDbLine
 62
7
  6
CONTINUOUS
 10
457.0615714955
 20
344.7059944945
 11
456.5615714955
 21
344.7059944945
  0
LINE
  5
39B
100
AcDbEntity
  8
0
100
AcDbLine
 62
7
  6
CONTINUOUS
 10
452.2984313617
 20
344.7059944945
 11
451.7984313617
 21
344.7059944945
  0
LINE
  5
39C
100
AcDbEntity
  8
0
100
AcDbLine
 62
7
  6
CONTINUOUS
 10
441.4731142274
 20
344.7059944945
 11
440.9731142274
 21
344.7059944945
  0
LINE
  5
39D
100
AcDbEntity
  8
0
100
AcDbLine
 62
7
  6
CONTINUOUS
 10
497.2371441631
 20
344.8230157907
 11
496.7371441631
 21
344.8230157907
  0
LINE
  5
39E
100
AcDbEntity
  8
0
100
AcDbLine
 62
7
  6
CONTINUOUS
 10
493.5745786338
 20
344.8230157907
 11
493.0745786338
 21
344.8230157907
  0
LINE
  5
39F
100
AcDbEntity
  8
0
100
AcDbLine
 62
7
  6
CONTINUOUS
 10
492.0590341772
 20
344.8230157907
 11
490.8012619489
 21
344.8230157907
  0
LINE
  5
3A0
100
AcDbEntity
  8
0
100
AcDbLine
 62
7
  6
CONTINUOUS
 10
485.3653797347
 20
344.8230157907
 11
484.8653797347
 21
344.8230157907
  0
LINE
  5
3A1
100
AcDbEntity
  8
0
100
AcDbLine
 62
7
  6
CONTINUOUS
 10
441.9061268261
 20
344.9613136465
 11
441.4061268261
 21
344.9613136465
  0
LINE
  5
3A2
100
AcDbEntity
  8
0
100
AcDbLine
 62
7
  6
CONTINUOUS
 10
496.6056682697
 20
344.9719519431
 11
496.1056682697
 21
344.9719519431
  0
LINE
  5
3A3
100
AcDbEntity
  8
0
100
AcDbLine
 62
7
  6
CONTINUOUS
 10
490.6697853328
 20
344.9719519431
 11
490.1697853328
 21
344.9719519431
  0
LINE
  5
3A4
100
AcDbEntity
  8
0
100
AcDbLine
 62
7
  6
CONTINUOUS
 10
457.6028377858
 20
345.0889732058
 11
457.1028377858
 21
345.0889732058
  0
LINE
  5
3A5
100
AcDbEntity
  8
0
100
AcDbLine
 62
7
  6
CONTINUOUS
 10
452.8396976521
 20
345.0889732058
 11
452.3396976521
 21
345.0889732058
  0
LINE
  5
3A6
100
AcDbEntity
  8
0
100
AcDbLine
 62
7
  6
CONTINUOUS
 10
499.0052798443
 20
345.1208880956
 11
498.5052798443
 21
345.1208880956
  0
LINE
  5
3A7
100
AcDbEntity
  8
0
100
AcDbLine
 62
7
  6
CONTINUOUS
 10
490.417194831
 20
345.1208880956
 11
489.917194831
 21
345.1208880956
  0
LINE
  5
3A8
100
AcDbEntity
  8
0
100
AcDbLine
 62
7
  6
CONTINUOUS
 10
456.0203052052
 20
345.2166328097
 11
455.3707861524
 21
345.2166328097
  0
LINE
  5
3A9
100
AcDbEntity
  8
0
100
AcDbLine
 62
7
  6
CONTINUOUS
 10
451.1489123089
 20
345.2166328097
 11
450.71590002
 21
345.2166328097
  0
LINE
  5
3AA
100
AcDbEntity
  8
0
100
AcDbLine
 62
7
  6
CONTINUOUS
 10
496.2267821556
 20
345.269824248
 11
495.7267821556
 21
345.269824248
  0
LINE
  5
3AB
100
AcDbEntity
  8
0
100
AcDbLine
 62
7
  6
CONTINUOUS
 10
493.8271698584
 20
345.269824248
 11
493.3271698584
 21
345.269824248
  0
LINE
  5
3AC
100
AcDbEntity
  8
0
100
AcDbLine
 62
7
  6
CONTINUOUS
 10
455.4377738634
 20
345.344292369
 11
454.9377738634
 21
345.344292369
  0
LINE
  5
3AD
100
AcDbEntity
  8
0
100
AcDbLine
 62
7
  6
CONTINUOUS
 10
450.782887731
 20
345.344292369
 11
450.282887731
 21
345.344292369
  0
LINE
  5
3AE
100
AcDbEntity
  8
0
100
AcDbLine
 62
7
  6
CONTINUOUS
 10
440.4318484017
 20
345.344292369
 11
439.5658228946
 21
345.344292369
  0
LINE
  5
3AF
100
AcDbEntity
  8
0
100
AcDbLine
 62
7
  6
CONTINUOUS
 10
490.1646036064
 20
345.4187605048
 11
489.6646036064
 21
345.4187605048
  0
LINE
  5
3B0
100
AcDbEntity
  8
0
100
AcDbLine
 62
7
  6
CONTINUOUS
 10
453.1644571785
 20
345.4719519282
 11
452.6644571785
 21
345.4719519282
  0
LINE
  5
3B1
100
AcDbEntity
  8
0
100
AcDbLine
 62
7
  6
CONTINUOUS
 10
442.3391397344
 20
345.4719519282
 11
441.8391397344
 21
345.4719519282
  0
LINE
  5
3B2
100
AcDbEntity
  8
0
100
AcDbLine
 62
7
  6
CONTINUOUS
 10
439.6328102185
 20
345.4719519282
 11
439.1328102185
 21
345.4719519282
  0
LINE
  5
3B3
100
AcDbEntity
  8
0
100
AcDbLine
 62
7
  6
CONTINUOUS
 10
457.9275973123
 20
345.5996114875
 11
457.4275973123
 21
345.5996114875
  0
LINE
  5
3B4
100
AcDbEntity
  8
0
100
AcDbLine
 62
7
  6
CONTINUOUS
 10
455.113014337
 20
345.5996114875
 11
454.613014337
 21
345.5996114875
  0
LINE
  5
3B5
100
AcDbEntity
  8
0
100
AcDbLine
 62
7
  6
CONTINUOUS
 10
450.3498742032
 20
345.5996114875
 11
449.8498742032
 21
345.5996114875
  0
LINE
  5
3B6
100
AcDbEntity
  8
0
100
AcDbLine
 62
7
  6
CONTINUOUS
 10
499.2578710688
 20
345.7166328097
 11
498.7578710688
 21
345.7166328097
  0
LINE
  5
3B7
100
AcDbEntity
  8
0
100
AcDbLine
 62
7
  6
CONTINUOUS
 10
493.953464748
 20
345.7166328097
 11
493.453464748
 21
345.7166328097
  0
LINE
  5
3B8
100
AcDbEntity
  8
0
100
AcDbLine
 62
7
  6
CONTINUOUS
 10
490.0383087168
 20
345.7166328097
 11
489.4068313781
 21
345.7166328097
  0
LINE
  5
3B9
100
AcDbEntity
  8
0
100
AcDbLine
 62
7
  6
CONTINUOUS
 10
439.3080506921
 20
345.8549306954
 11
438.8080506921
 21
345.8549306954
  0
LINE
  5
3BA
100
AcDbEntity
  8
0
100
AcDbLine
 62
7
  6
CONTINUOUS
 10
442.5556458789
 20
345.9825902546
 11
442.0556458789
 21
345.9825902546
  0
LINE
  5
3BB
100
AcDbEntity
  8
0
100
AcDbLine
 62
7
  6
CONTINUOUS
 10
454.8965075731
 20
346.1102498139
 11
453.7469885203
 21
346.1102498139
  0
LINE
  5
3BC
100
AcDbEntity
  8
0
100
AcDbLine
 62
7
  6
CONTINUOUS
 10
453.3809639424
 20
346.1102498139
 11
452.8809639424
 21
346.1102498139
  0
LINE
  5
3BD
100
AcDbEntity
  8
0
100
AcDbLine
 62
7
  6
CONTINUOUS
 10
450.0251146768
 20
346.1102498139
 11
449.5251146768
 21
346.1102498139
  0
LINE
  5
3BE
100
AcDbEntity
  8
0
100
AcDbLine
 62
7
  6
CONTINUOUS
 10
499.3841659584
 20
346.1634412671
 11
498.8841659584
 21
346.1634412671
  0
LINE
  5
3BF
100
AcDbEntity
  8
0
100
AcDbLine
 62
7
  6
CONTINUOUS
 10
495.7215997065
 20
346.1634412671
 11
495.2215997065
 21
346.1634412671
  0
LINE
  5
3C0
100
AcDbEntity
  8
0
100
AcDbLine
 62
7
  6
CONTINUOUS
 10
458.1441028373
 20
346.2379093731
 11
457.6441028373
 21
346.2379093731
  0
LINE
  5
3C1
100
AcDbEntity
  8
0
100
AcDbLine
 62
7
  6
CONTINUOUS
 10
439.1997975425
 20
346.2379093731
 11
438.0502784896
 21
346.2379093731
  0
LINE
  5
3C2
100
AcDbEntity
  8
0
100
AcDbLine
 62
7
  6
CONTINUOUS
 10
450.0663809671
 20
344.7059944945
 11
450.6076472575
 21
344.5783349241
  0
LINE
  5
3C3
100
AcDbEntity
  8
0
100
AcDbLine
 62
7
  6
CONTINUOUS
 10
440.9731142274
 20
347.8974838222
 11
440.4318484017
 21
348.0251433814
  0
LINE
  5
3C4
100
AcDbEntity
  8
0
100
AcDbLine
 62
7
  6
CONTINUOUS
 10
454.8295211009
 20
344.7059944945
 11
455.3707861524
 21
344.5783349241
  0
LINE
  5
3C5
100
AcDbEntity
  8
0
100
AcDbLine
 62
7
  6
CONTINUOUS
 10
441.4731142274
 20
347.8974838222
 11
440.9318484017
 21
348.0251433814
  0
LINE
  5
3C6
100
AcDbEntity
  8
0
100
AcDbLine
 62
7
  6
CONTINUOUS
 10
440.8648611552
 20
350.4506753648
 11
440.3235951746
 21
350.5783349241
  0
LINE
  5
3C7
100
AcDbEntity
  8
0
100
AcDbLine
 62
7
  6
CONTINUOUS
 10
441.3648611552
 20
350.4506753648
 11
440.8235951746
 21
350.5783349241
  0
LINE
  5
3C8
100
AcDbEntity
  8
0
100
AcDbLine
 62
7
  6
CONTINUOUS
 10
456.5615714955
 20
348.2804624999
 11
456.0203052052
 21
348.4081220592
  0
LINE
  5
3C9
100
AcDbEntity
  8
0
100
AcDbLine
 62
7
  6
CONTINUOUS
 10
457.0615714955
 20
348.2804624999
 11
456.5203052052
 21
348.4081220592
  0
LINE
  5
3CA
100
AcDbEntity
  8
0
100
AcDbLine
 62
7
  6
CONTINUOUS
 10
439.3493165953
 20
347.3868455852
 11
439.7823293488
 21
347.2591860259
  0
LINE
  5
3CB
100
AcDbEntity
  8
0
100
AcDbLine
 62
7
  6
CONTINUOUS
 10
440.4318484017
 20
347.2591860259
 11
440.8648611552
 21
347.1315264667
  0
LINE
  5
3CC
100
AcDbEntity
  8
0
100
AcDbLine
 62
7
  6
CONTINUOUS
 10
450.71590002
 20
345.2166328097
 11
450.282887731
 21
345.344292369
  0
LINE
  5
3CD
100
AcDbEntity
  8
0
100
AcDbLine
 62
7
  6
CONTINUOUS
 10
451.154269102
 20
345.234802677
 11
450.782887731
 21
345.344292369
  0
LINE
  5
3CE
100
AcDbEntity
  8
0
100
AcDbLine
 62
7
  6
CONTINUOUS
 10
455.3707861524
 20
345.2166328097
 11
454.9377738634
 21
345.344292369
  0
LINE
  5
3CF
100
AcDbEntity
  8
0
100
AcDbLine
 62
7
  6
CONTINUOUS
 10
455.8707861524
 20
345.2166328097
 11
455.4377738634
 21
345.344292369
  0
LINE
  5
3D0
100
AcDbEntity
  8
0
100
AcDbLine
 62
7
  6
CONTINUOUS
 10
451.1489123089
 20
347.3868455852
 11
451.5819258367
 21
347.2591860259
  0
LINE
  5
3D1
100
AcDbEntity
  8
0
100
AcDbLine
 62
7
  6
CONTINUOUS
 10
450.71590002
 20
347.8974838222
 11
450.282887731
 21
348.0251433814
  0
LINE
  5
3D2
100
AcDbEntity
  8
0
100
AcDbLine
 62
7
  6
CONTINUOUS
 10
451.154269102
 20
347.9156536895
 11
450.782887731
 21
348.0251433814
  0
LINE
  5
3D3
100
AcDbEntity
  8
0
100
AcDbLine
 62
7
  6
CONTINUOUS
 10
456.0203052052
 20
347.7698242629
 11
456.453318733
 21
347.6421647037
  0
LINE
  5
3D4
100
AcDbEntity
  8
0
100
AcDbLine
 62
7
  6
CONTINUOUS
 10
451.1489123089
 20
349.9400371278
 11
451.5819258367
 21
349.8123775686
  0
LINE
  5
3D5
100
AcDbEntity
  8
0
100
AcDbLine
 62
7
  6
CONTINUOUS
 10
440.4318484017
 20
349.8123775686
 11
440.7566077732
 21
349.6847180093
  0
LINE
  5
3D6
100
AcDbEntity
  8
0
100
AcDbLine
 62
7
  6
CONTINUOUS
 10
450.782887731
 20
345.344292369
 11
450.3498742032
 21
345.5996114875
  0
LINE
  5
3D7
100
AcDbEntity
  8
0
100
AcDbLine
 62
7
  6
CONTINUOUS
 10
449.6333686782
 20
347.7698242629
 11
449.8498742032
 21
347.6421647037
  0
LINE
  5
3D8
100
AcDbEntity
  8
0
100
AcDbLine
 62
7
  6
CONTINUOUS
 10
451.5819258367
 20
347.2591860259
 11
452.0149381256
 21
347.0038669074
  0
LINE
  5
3D9
100
AcDbEntity
  8
0
100
AcDbLine
 62
7
  6
CONTINUOUS
 10
452.2314448895
 20
347.5145051444
 11
452.0149381256
 21
347.6421647037
  0
LINE
  5
3DA
100
AcDbEntity
  8
0
100
AcDbLine
 62
7
  6
CONTINUOUS
 10
452.7314448895
 20
347.5145051444
 11
452.5149381256
 21
347.6421647037
  0
LINE
  5
3DB
100
AcDbEntity
  8
0
100
AcDbLine
 62
7
  6
CONTINUOUS
 10
454.2882548106
 20
345.0889732058
 11
454.8295211009
 21
344.7059944945
  0
LINE
  5
3DC
100
AcDbEntity
  8
0
100
AcDbLine
 62
7
  6
CONTINUOUS
 10
452.2314448895
 20
350.0676966871
 11
451.6901785992
 21
350.4506753648
  0
LINE
  5
3DD
100
AcDbEntity
  8
0
100
AcDbLine
 62
7
  6
CONTINUOUS
 10
452.7314448895
 20
350.0676966871
 11
452.1901785992
 21
350.4506753648
  0
LINE
  5
3DE
100
AcDbEntity
  8
0
100
AcDbLine
 62
7
  6
CONTINUOUS
 10
457.1028377858
 20
347.8974838222
 11
456.5615714955
 21
348.2804624999
  0
LINE
  5
3DF
100
AcDbEntity
  8
0
100
AcDbLine
 62
7
  6
CONTINUOUS
 10
454.9377738634
 20
345.344292369
 11
454.613014337
 21
345.5996114875
  0
LINE
  5
3E0
100
AcDbEntity
  8
0
100
AcDbLine
 62
7
  6
CONTINUOUS
 10
455.4377738634
 20
345.344292369
 11
455.113014337
 21
345.5996114875
  0
LINE
  5
3E1
100
AcDbEntity
  8
0
100
AcDbLine
 62
7
  6
CONTINUOUS
 10
456.453318733
 20
347.6421647037
 11
456.7780782594
 21
347.3868455852
  0
LINE
  5
3E2
100
AcDbEntity
  8
0
100
AcDbLine
 62
7
  6
CONTINUOUS
 10
450.282887731
 20
348.0251433814
 11
449.8498742032
 21
348.4081220592
  0
LINE
  5
3E3
100
AcDbEntity
  8
0
100
AcDbLine
 62
7
  6
CONTINUOUS
 10
450.782887731
 20
348.0251433814
 11
450.3498742032
 21
348.4081220592
  0
LINE
  5
3E4
100
AcDbEntity
  8
0
100
AcDbLine
 62
7
  6
CONTINUOUS
 10
452.6644571785
 20
347.1315264667
 11
452.2314448895
 21
347.5145051444
  0
LINE
  5
3E5
100
AcDbEntity
  8
0
100
AcDbLine
 62
7
  6
CONTINUOUS
 10
453.1644571785
 20
347.1315264667
 11
452.7314448895
 21
347.5145051444
  0
LINE
  5
3E6
100
AcDbEntity
  8
0
100
AcDbLine
 62
7
  6
CONTINUOUS
 10
451.5819258367
 20
349.8123775686
 11
452.0149381256
 21
349.4293988908
  0
LINE
  5
3E7
100
AcDbEntity
  8
0
100
AcDbLine
 62
7
  6
CONTINUOUS
 10
449.2003551504
 20
345.4719519282
 11
449.5251146768
 21
345.0889732058
  0
LINE
  5
3E8
100
AcDbEntity
  8
0
100
AcDbLine
 62
7
  6
CONTINUOUS
 10
449.3086091518
 20
348.1528029407
 11
449.6333686782
 21
347.7698242629
  0
LINE
  5
3E9
100
AcDbEntity
  8
0
100
AcDbLine
 62
7
  6
CONTINUOUS
 10
449.8498742032
 20
345.5996114875
 11
449.5251146768
 21
346.1102498139
  0
LINE
  5
3EA
100
AcDbEntity
  8
0
100
AcDbLine
 62
7
  6
CONTINUOUS
 10
450.3498742032
 20
345.5996114875
 11
450.0251146768
 21
346.1102498139
  0
LINE
  5
3EB
100
AcDbEntity
  8
0
100
AcDbLine
 62
7
  6
CONTINUOUS
 10
452.0149381256
 20
347.0038669074
 11
452.3396976521
 21
346.4932284916
  0
LINE
  5
3EC
100
AcDbEntity
  8
0
100
AcDbLine
 62
7
  6
CONTINUOUS
 10
449.8498742032
 20
348.4081220592
 11
449.6333686782
 21
348.7911007369
  0
LINE
  5
3ED
100
AcDbEntity
  8
0
100
AcDbLine
 62
7
  6
CONTINUOUS
 10
450.3498742032
 20
348.4081220592
 11
450.1333686782
 21
348.7911007369
  0
LINE
  5
3EE
100
AcDbEntity
  8
0
100
AcDbLine
 62
7
  6
CONTINUOUS
 10
442.5556458789
 20
346.6208880509
 11
442.3391397344
 21
347.1315264667
  0
LINE
  5
3EF
100
AcDbEntity
  8
0
100
AcDbLine
 62
7
  6
CONTINUOUS
 10
439.6328102185
 20
348.4081220592
 11
439.5245570689
 21
348.7911007369
  0
LINE
  5
3F0
100
AcDbEntity
  8
0
100
AcDbLine
 62
7
  6
CONTINUOUS
 10
441.7308863525
 20
349.1740797723
 11
441.6226332802
 21
349.5570584501
  0
LINE
  5
3F1
100
AcDbEntity
  8
0
100
AcDbLine
 62
7
  6
CONTINUOUS
 10
442.2308863525
 20
349.1740797723
 11
442.1226332802
 21
349.5570584501
  0
LINE
  5
3F2
100
AcDbEntity
  8
0
100
AcDbLine
 62
7
  6
CONTINUOUS
 10
438.375038016
 20
348.6634411777
 11
438.4832912044
 21
348.1528029407
  0
LINE
  5
3F3
100
AcDbEntity
  8
0
100
AcDbLine
 62
7
  6
CONTINUOUS
 10
439.5245570689
 20
348.7911007369
 11
439.5245570689
 21
349.0464198554
  0
LINE
  5
3F4
100
AcDbEntity
  8
0
100
AcDbLine
 62
7
  6
CONTINUOUS
 10
441.4061268261
 20
346.4932284916
 11
441.4061268261
 21
346.1102498139
  0
LINE
  5
3F5
100
AcDbEntity
  8
0
100
AcDbLine
 62
7
  6
CONTINUOUS
 10
442.0556458789
 20
345.9825902546
 11
442.0556458789
 21
346.6208880509
  0
LINE
  5
3F6
100
AcDbEntity
  8
0
100
AcDbLine
 62
7
  6
CONTINUOUS
 10
442.5556458789
 20
345.9825902546
 11
442.5556458789
 21
346.6208880509
  0
LINE
  5
3F7
100
AcDbEntity
  8
0
100
AcDbLine
 62
7
  6
CONTINUOUS
 10
438.4832912044
 20
349.6847180093
 11
438.375038016
 21
349.1740797723
  0
LINE
  5
3F8
100
AcDbEntity
  8
0
100
AcDbLine
 62
7
  6
CONTINUOUS
 10
456.5203052052
 20
344.5783349241
 11
457.0615714955
 21
344.7059944945
  0
LINE
  5
3F9
100
AcDbEntity
  8
0
100
AcDbLine
 62
7
  6
CONTINUOUS
 10
456.0203052052
 20
344.5783349241
 11
456.5615714955
 21
344.7059944945
  0
LINE
  5
3FA
100
AcDbEntity
  8
0
100
AcDbLine
 62
7
  6
CONTINUOUS
 10
451.7571663103
 20
344.5783349241
 11
452.2984313617
 21
344.7059944945
  0
LINE
  5
3FB
100
AcDbEntity
  8
0
100
AcDbLine
 62
7
  6
CONTINUOUS
 10
451.2571663103
 20
344.5783349241
 11
451.7984313617
 21
344.7059944945
  0
LINE
  5
3FC
100
AcDbEntity
  8
0
100
AcDbLine
 62
7
  6
CONTINUOUS
 10
440.9318484017
 20
344.5783349241
 11
441.4731142274
 21
344.7059944945
  0
LINE
  5
3FD
100
AcDbEntity
  8
0
100
AcDbLine
 62
7
  6
CONTINUOUS
 10
440.4318484017
 20
344.5783349241
 11
440.9731142274
 21
344.7059944945
  0
LINE
  5
3FE
100
AcDbEntity
  8
0
100
AcDbLine
 62
7
  6
CONTINUOUS
 10
455.3707861524
 20
348.4081220592
 11
454.8295211009
 21
348.2804624999
  0
LINE
  5
3FF
100
AcDbEntity
  8
0
100
AcDbLine
 62
7
  6
CONTINUOUS
 10
491.5538531734
 20
351.0783349241
 11
490.6697853328
 21
350.9293987716
  0
LINE
  5
400
100
AcDbEntity
  8
0
100
AcDbLine
 62
7
  6
CONTINUOUS
 10
493.953464748
 20
346.3123774195
 11
493.453464748
 21
346.3123774195
  0
LINE
  5
401
100
AcDbEntity
  8
0
100
AcDbLine
 62
7
  6
CONTINUOUS
 10
453.3809639424
 20
346.4932284916
 11
452.8809639424
 21
346.4932284916
  0
LINE
  5
402
100
AcDbEntity
  8
0
100
AcDbLine
 62
7
  6
CONTINUOUS
 10
450.0251146768
 20
346.4932284916
 11
449.5251146768
 21
346.4932284916
  0
LINE
  5
403
100
AcDbEntity
  8
0
100
AcDbLine
 62
7
  6
CONTINUOUS
 10
442.5556458789
 20
346.6208880509
 11
442.0556458789
 21
346.6208880509
  0
LINE
  5
404
100
AcDbEntity
  8
0
100
AcDbLine
 62
7
  6
CONTINUOUS
 10
458.1441028373
 20
346.7485476101
 11
457.6441028373
 21
346.7485476101
  0
LINE
  5
405
100
AcDbEntity
  8
0
100
AcDbLine
 62
7
  6
CONTINUOUS
 10
499.510460848
 20
346.908122238
 11
499.010460848
 21
346.908122238
  0
LINE
  5
406
100
AcDbEntity
  8
0
100
AcDbLine
 62
7
  6
CONTINUOUS
 10
493.8271698584
 20
346.908122238
 11
493.3271698584
 21
346.908122238
  0
LINE
  5
407
100
AcDbEntity
  8
0
100
AcDbLine
 62
7
  6
CONTINUOUS
 10
450.3498742032
 20
347.0038669074
 11
449.8498742032
 21
347.0038669074
  0
LINE
  5
408
100
AcDbEntity
  8
0
100
AcDbLine
 62
7
  6
CONTINUOUS
 10
495.5953048169
 20
347.0570583905
 11
495.0953048169
 21
347.0570583905
  0
LINE
  5
409
100
AcDbEntity
  8
0
100
AcDbLine
 62
7
  6
CONTINUOUS
 10
453.1644571785
 20
347.1315264667
 11
452.6644571785
 21
347.1315264667
  0
LINE
  5
40A
100
AcDbEntity
  8
0
100
AcDbLine
 62
7
  6
CONTINUOUS
 10
442.3391397344
 20
347.1315264667
 11
441.8391397344
 21
347.1315264667
  0
LINE
  5
40B
100
AcDbEntity
  8
0
100
AcDbLine
 62
7
  6
CONTINUOUS
 10
450.782887731
 20
347.2591860259
 11
450.282887731
 21
347.2591860259
  0
LINE
  5
40C
100
AcDbEntity
  8
0
100
AcDbLine
 62
7
  6
CONTINUOUS
 10
439.7823293488
 20
347.2591860259
 11
440.4318484017
 21
347.2591860259
  0
LINE
  5
40D
100
AcDbEntity
  8
0
100
AcDbLine
 62
7
  6
CONTINUOUS
 10
453.7469885203
 20
347.2591860259
 11
455.0047615745
 21
347.2591860259
  0
LINE
  5
40E
100
AcDbEntity
  8
0
100
AcDbLine
 62
7
  6
CONTINUOUS
 10
493.5745786338
 20
347.3549306954
 11
493.0745786338
 21
347.3549306954
  0
LINE
  5
40F
100
AcDbEntity
  8
0
100
AcDbLine
 62
7
  6
CONTINUOUS
 10
491.4275575612
 20
347.3549306954
 11
491.9327392876
 21
347.3549306954
  0
LINE
  5
410
100
AcDbEntity
  8
0
100
AcDbLine
 62
7
  6
CONTINUOUS
 10
457.9275973123
 20
347.3868455852
 11
457.4275973123
 21
347.3868455852
  0
LINE
  5
411
100
AcDbEntity
  8
0
100
AcDbLine
 62
7
  6
CONTINUOUS
 10
450.71590002
 20
347.3868455852
 11
451.1489123089
 21
347.3868455852
  0
LINE
  5
412
100
AcDbEntity
  8
0
100
AcDbLine
 62
7
  6
CONTINUOUS
 10
452.7314448895
 20
347.5145051444
 11
452.2314448895
 21
347.5145051444
  0
LINE
  5
413
100
AcDbEntity
  8
0
100
AcDbLine
 62
7
  6
CONTINUOUS
 10
455.4377738634
 20
347.6421647037
 11
454.9377738634
 21
347.6421647037
  0
LINE
  5
414
100
AcDbEntity
  8
0
100
AcDbLine
 62
7
  6
CONTINUOUS
 10
452.5149381256
 20
347.6421647037
 11
452.0149381256
 21
347.6421647037
  0
LINE
  5
415
100
AcDbEntity
  8
0
100
AcDbLine
 62
7
  6
CONTINUOUS
 10
441.9061268261
 20
347.6421647037
 11
441.4061268261
 21
347.6421647037
  0
LINE
  5
416
100
AcDbEntity
  8
0
100
AcDbLine
 62
7
  6
CONTINUOUS
 10
492.9431020178
 20
347.6528030003
 11
492.4431020178
 21
347.6528030003
  0
LINE
  5
417
100
AcDbEntity
  8
0
100
AcDbLine
 62
7
  6
CONTINUOUS
 10
452.7314448895
 20
347.7698242629
 11
452.2314448895
 21
347.7698242629
  0
LINE
  5
418
100
AcDbEntity
  8
0
100
AcDbLine
 62
7
  6
CONTINUOUS
 10
455.3707861524
 20
347.7698242629
 11
456.0203052052
 21
347.7698242629
  0
LINE
  5
419
100
AcDbEntity
  8
0
100
AcDbLine
 62
7
  6
CONTINUOUS
 10
457.6028377858
 20
347.8974838222
 11
457.1028377858
 21
347.8974838222
  0
LINE
  5
41A
100
AcDbEntity
  8
0
100
AcDbLine
 62
7
  6
CONTINUOUS
 10
451.1489123089
 20
347.8974838222
 11
450.71590002
 21
347.8974838222
  0
LINE
  5
41B
100
AcDbEntity
  8
0
100
AcDbLine
 62
7
  6
CONTINUOUS
 10
441.4731142274
 20
347.8974838222
 11
440.9731142274
 21
347.8974838222
  0
LINE
  5
41C
100
AcDbEntity
  8
0
100
AcDbLine
 62
7
  6
CONTINUOUS
 10
491.9327392876
 20
347.9506753052
 11
491.4275575612
 21
347.9506753052
  0
LINE
  5
41D
100
AcDbEntity
  8
0
100
AcDbLine
 62
7
  6
CONTINUOUS
 10
450.782887731
 20
348.0251433814
 11
450.282887731
 21
348.0251433814
  0
LINE
  5
41E
100
AcDbEntity
  8
0
100
AcDbLine
 62
7
  6
CONTINUOUS
 10
440.9318484017
 20
348.0251433814
 11
439.7823293488
 21
348.0251433814
  0
LINE
  5
41F
100
AcDbEntity
  8
0
100
AcDbLine
 62
7
  6
CONTINUOUS
 10
495.5953048169
 20
348.0996114577
 11
495.0953048169
 21
348.0996114577
  0
LINE
  5
420
100
AcDbEntity
  8
0
100
AcDbLine
 62
7
  6
CONTINUOUS
 10
493.4482837442
 20
348.0996114577
 11
492.9482837442
 21
348.0996114577
  0
LINE
  5
421
100
AcDbEntity
  8
0
100
AcDbLine
 62
7
  6
CONTINUOUS
 10
453.056204416
 20
348.1528029407
 11
452.556204416
 21
348.1528029407
  0
LINE
  5
422
100
AcDbEntity
  8
0
100
AcDbLine
 62
7
  6
CONTINUOUS
 10
439.9575698224
 20
348.1528029407
 11
439.4575698224
 21
348.1528029407
  0
LINE
  5
423
100
AcDbEntity
  8
0
100
AcDbLine
 62
7
  6
CONTINUOUS
 10
499.510460848
 20
348.2485476101
 11
499.010460848
 21
348.2485476101
  0
LINE
  5
424
100
AcDbEntity
  8
0
100
AcDbLine
 62
7
  6
CONTINUOUS
 10
457.0615714955
 20
348.2804624999
 11
456.5615714955
 21
348.2804624999
  0
LINE
  5
425
100
AcDbEntity
  8
0
100
AcDbLine
 62
7
  6
CONTINUOUS
 10
456.5203052052
 20
348.4081220592
 11
455.3707861524
 21
348.4081220592
  0
LINE
  5
426
100
AcDbEntity
  8
0
100
AcDbLine
 62
7
  6
CONTINUOUS
 10
450.3498742032
 20
348.4081220592
 11
449.8498742032
 21
348.4081220592
  0
LINE
  5
427
100
AcDbEntity
  8
0
100
AcDbLine
 62
7
  6
CONTINUOUS
 10
439.6328102185
 20
348.4081220592
 11
439.1328102185
 21
348.4081220592
  0
LINE
  5
428
100
AcDbEntity
  8
0
100
AcDbLine
 62
7
  6
CONTINUOUS
 10
493.7008742461
 20
348.546419915
 11
493.2008742461
 21
348.546419915
  0
LINE
  5
429
100
AcDbEntity
  8
0
100
AcDbLine
 62
7
  6
CONTINUOUS
 10
453.272709941
 20
348.6634411777
 11
452.772709941
 21
348.6634411777
  0
LINE
  5
42A
100
AcDbEntity
  8
0
100
AcDbLine
 62
7
  6
CONTINUOUS
 10
450.1333686782
 20
348.7911007369
 11
449.6333686782
 21
348.7911007369
  0
LINE
  5
42B
100
AcDbEntity
  8
0
100
AcDbLine
 62
7
  6
CONTINUOUS
 10
439.5245570689
 20
348.7911007369
 11
439.0245570689
 21
348.7911007369
  0
LINE
  5
42C
100
AcDbEntity
  8
0
100
AcDbLine
 62
7
  6
CONTINUOUS
 10
499.3841659584
 20
348.9932283724
 11
498.8841659584
 21
348.9932283724
  0
LINE
  5
42D
100
AcDbEntity
  8
0
100
AcDbLine
 62
7
  6
CONTINUOUS
 10
495.7215997065
 20
348.9932283724
 11
495.2215997065
 21
348.9932283724
  0
LINE
  5
42E
100
AcDbEntity
  8
0
100
AcDbLine
 62
7
  6
CONTINUOUS
 10
453.272709941
 20
349.0464198554
 11
452.772709941
 21
349.0464198554
  0
LINE
  5
42F
100
AcDbEntity
  8
0
100
AcDbLine
 62
7
  6
CONTINUOUS
 10
450.1333686782
 20
349.0464198554
 11
449.6333686782
 21
349.0464198554
  0
LINE
  5
430
100
AcDbEntity
  8
0
100
AcDbLine
 62
7
  6
CONTINUOUS
 10
439.5245570689
 20
349.0464198554
 11
439.0245570689
 21
349.0464198554
  0
LINE
  5
431
100
AcDbEntity
  8
0
100
AcDbLine
 62
7
  6
CONTINUOUS
 10
493.8271698584
 20
349.1421645249
 11
493.3271698584
 21
349.1421645249
  0
LINE
  5
432
100
AcDbEntity
  8
0
100
AcDbLine
 62
7
  6
CONTINUOUS
 10
441.0813672996
 20
349.1740797723
 11
442.2308863525
 21
349.1740797723
  0
LINE
  5
433
100
AcDbEntity
  8
0
100
AcDbLine
 62
7
  6
CONTINUOUS
 10
450.3498742032
 20
349.4293988908
 11
449.8498742032
 21
349.4293988908
  0
LINE
  5
434
100
AcDbEntity
  8
0
100
AcDbLine
 62
7
  6
CONTINUOUS
 10
439.6328102185
 20
349.4293988908
 11
439.1328102185
 21
349.4293988908
  0
LINE
  5
435
100
AcDbEntity
  8
0
100
AcDbLine
 62
7
  6
CONTINUOUS
 10
499.2578710688
 20
349.440037247
 11
498.7578710688
 21
349.440037247
  0
LINE
  5
436
100
AcDbEntity
  8
0
100
AcDbLine
 62
7
  6
CONTINUOUS
 10
493.8271698584
 20
349.440037247
 11
493.3271698584
 21
349.440037247
  0
LINE
  5
437
100
AcDbEntity
  8
0
100
AcDbLine
 62
7
  6
CONTINUOUS
 10
489.5331269904
 20
349.440037247
 11
490.1646036064
 21
349.440037247
  0
LINE
  5
438
100
AcDbEntity
  8
0
100
AcDbLine
 62
7
  6
CONTINUOUS
 10
442.1226332802
 20
349.5570584501
 11
441.6226332802
 21
349.5570584501
  0
LINE
  5
439
100
AcDbEntity
  8
0
100
AcDbLine
 62
7
  6
CONTINUOUS
 10
487.6386964196
 20
349.5889733995
 11
487.1386964196
 21
349.5889733995
  0
LINE
  5
43A
100
AcDbEntity
  8
0
100
AcDbLine
 62
7
  6
CONTINUOUS
 10
483.0920630497
 20
349.5889733995
 11
482.5920630497
 21
349.5889733995
  0
LINE
  5
43B
100
AcDbEntity
  8
0
100
AcDbLine
 62
7
  6
CONTINUOUS
 10
453.056204416
 20
349.6847180093
 11
452.556204416
 21
349.6847180093
  0
LINE
  5
43C
100
AcDbEntity
  8
0
100
AcDbLine
 62
7
  6
CONTINUOUS
 10
439.9575698224
 20
349.6847180093
 11
439.4575698224
 21
349.6847180093
  0
LINE
  5
43D
100
AcDbEntity
  8
0
100
AcDbLine
 62
7
  6
CONTINUOUS
 10
450.782887731
 20
349.8123775686
 11
450.282887731
 21
349.8123775686
  0
LINE
  5
43E
100
AcDbEntity
  8
0
100
AcDbLine
 62
7
  6
CONTINUOUS
 10
439.7823293488
 20
349.8123775686
 11
440.4318484017
 21
349.8123775686
  0
LINE
  5
43F
100
AcDbEntity
  8
0
100
AcDbLine
 62
7
  6
CONTINUOUS
 10
496.2267821556
 20
349.8868457044
 11
495.7267821556
 21
349.8868457044
  0
LINE
  5
440
100
AcDbEntity
  8
0
100
AcDbLine
 62
7
  6
CONTINUOUS
 10
490.417194831
 20
349.8868457044
 11
489.917194831
 21
349.8868457044
  0
LINE
  5
441
100
AcDbEntity
  8
0
100
AcDbLine
 62
7
  6
CONTINUOUS
 10
450.71590002
 20
349.9400371278
 11
451.1489123089
 21
349.9400371278
  0
LINE
  5
442
100
AcDbEntity
  8
0
100
AcDbLine
 62
7
  6
CONTINUOUS
 10
454.2882548106
 20
349.9400371278
 11
457.9275973123
 21
349.9400371278
  0
LINE
  5
443
100
AcDbEntity
  8
0
100
AcDbLine
 62
7
  6
CONTINUOUS
 10
499.0052798443
 20
350.0357818568
 11
498.5052798443
 21
350.0357818568
  0
LINE
  5
444
100
AcDbEntity
  8
0
100
AcDbLine
 62
7
  6
CONTINUOUS
 10
493.7008742461
 20
350.0357818568
 11
493.2008742461
 21
350.0357818568
  0
LINE
  5
445
100
AcDbEntity
  8
0
100
AcDbLine
 62
7
  6
CONTINUOUS
 10
452.7314448895
 20
350.0676966871
 11
452.2314448895
 21
350.0676966871
  0
LINE
  5
446
100
AcDbEntity
  8
0
100
AcDbLine
 62
7
  6
CONTINUOUS
 10
441.7978737538
 20
350.0676966871
 11
441.2978737538
 21
350.0676966871
  0
LINE
  5
447
100
AcDbEntity
  8
0
100
AcDbLine
 62
7
  6
CONTINUOUS
 10
496.6056682697
 20
350.1847180093
 11
496.1056682697
 21
350.1847180093
  0
LINE
  5
448
100
AcDbEntity
  8
0
100
AcDbLine
 62
7
  6
CONTINUOUS
 10
490.7960809451
 20
350.1847180093
 11
490.2960809451
 21
350.1847180093
  0
LINE
  5
449
100
AcDbEntity
  8
0
100
AcDbLine
 62
7
  6
CONTINUOUS
 10
497.2371441631
 20
350.3336541618
 11
496.7371441631
 21
350.3336541618
  0
LINE
  5
44A
100
AcDbEntity
  8
0
100
AcDbLine
 62
7
  6
CONTINUOUS
 10
490.9275575612
 20
350.3336541618
 11
491.9327392876
 21
350.3336541618
  0
LINE
  5
44B
100
AcDbEntity
  8
0
100
AcDbLine
 62
7
  6
CONTINUOUS
 10
452.1901785992
 20
350.4506753648
 11
451.6901785992
 21
350.4506753648
  0
LINE
  5
44C
100
AcDbEntity
  8
0
100
AcDbLine
 62
7
  6
CONTINUOUS
 10
441.3648611552
 20
350.4506753648
 11
440.8648611552
 21
350.4506753648
  0
LINE
  5
44D
100
AcDbEntity
  8
0
100
AcDbLine
 62
7
  6
CONTINUOUS
 10
498.6263937301
 20
350.4825903142
 11
498.1263937301
 21
350.4825903142
  0
LINE
  5
44E
100
AcDbEntity
  8
0
100
AcDbLine
 62
7
  6
CONTINUOUS
 10
457.9275973123
 20
350.5783349241
 11
453.7469885203
 21
350.5783349241
  0
LINE
  5
44F
100
AcDbEntity
  8
0
100
AcDbLine
 62
7
  6
CONTINUOUS
 10
451.6489123089
 20
350.5783349241
 11
450.71590002
 21
350.5783349241
  0
LINE
  5
450
100
AcDbEntity
  8
0
100
AcDbLine
 62
7
  6
CONTINUOUS
 10
448.6178238086
 20
350.5783349241
 11
447.4683047558
 21
350.5783349241
  0
LINE
  5
451
100
AcDbEntity
  8
0
100
AcDbLine
 62
7
  6
CONTINUOUS
 10
446.4527605056
 20
350.5783349241
 11
445.0867346889
 21
350.5783349241
  0
LINE
  5
452
100
AcDbEntity
  8
0
100
AcDbLine
 62
7
  6
CONTINUOUS
 10
444.0711904388
 20
350.5783349241
 11
442.9216713859
 21
350.5783349241
  0
LINE
  5
453
100
AcDbEntity
  8
0
100
AcDbLine
 62
7
  6
CONTINUOUS
 10
440.8235951746
 20
350.5783349241
 11
439.7823293488
 21
350.5783349241
  0
LINE
  5
454
100
AcDbEntity
  8
0
100
AcDbLine
 62
7
  6
CONTINUOUS
 10
493.1956925197
 20
350.6315264667
 11
492.6956925197
 21
350.6315264667
  0
LINE
  5
455
100
AcDbEntity
  8
0
100
AcDbLine
 62
7
  6
CONTINUOUS
 10
497.9949163914
 20
350.9293987716
 11
497.4949163914
 21
350.9293987716
  0
LINE
  5
456
100
AcDbEntity
  8
0
100
AcDbLine
 62
7
  6
CONTINUOUS
 10
492.6905115159
 20
350.9293987716
 11
492.1905115159
 21
350.9293987716
  0
LINE
  5
457
100
AcDbEntity
  8
0
100
AcDbLine
 62
7
  6
CONTINUOUS
 10
491.8064436753
 20
351.0783349241
 11
491.5538531734
 21
351.0783349241
  0
LINE
  5
458
100
AcDbEntity
  8
0
100
AcDbLine
 62
7
  6
CONTINUOUS
 10
488.3964686479
 20
351.0783349241
 11
487.2598103054
 21
351.0783349241
  0
LINE
  5
459
100
AcDbEntity
  8
0
100
AcDbLine
 62
7
  6
CONTINUOUS
 10
483.4709491639
 20
351.0783349241
 11
482.3342908214
 21
351.0783349241
  0
LINE
  5
45A
100
AcDbEntity
  8
0
100
AcDbLine
 62
7
  6
CONTINUOUS
 10
496.4793719348
 20
344.2272710896
 11
497.2371441631
 21
344.0783349241
  0
LINE
  5
45B
100
AcDbEntity
  8
0
100
AcDbLine
 62
7
  6
CONTINUOUS
 10
491.9327392876
 20
347.3549306954
 11
492.6905115159
 21
347.2059945429
  0
LINE
  5
45C
100
AcDbEntity
  8
0
100
AcDbLine
 62
7
  6
CONTINUOUS
 10
451.6901785992
 20
350.4506753648
 11
451.1489123089
 21
350.5783349241
  0
LINE
  5
45D
100
AcDbEntity
  8
0
100
AcDbLine
 62
7
  6
CONTINUOUS
 10
452.1901785992
 20
350.4506753648
 11
451.6489123089
 21
350.5783349241
  0
LINE
  5
45E
100
AcDbEntity
  8
0
100
AcDbLine
 62
7
  6
CONTINUOUS
 10
490.8012619489
 20
344.8230157907
 11
490.1697853328
 21
344.9719519431
  0
LINE
  5
45F
100
AcDbEntity
  8
0
100
AcDbLine
 62
7
  6
CONTINUOUS
 10
491.3012619489
 20
344.8230157907
 11
490.6697853328
 21
344.9719519431
  0
LINE
  5
460
100
AcDbEntity
  8
0
100
AcDbLine
 62
7
  6
CONTINUOUS
 10
496.7371441631
 20
344.8230157907
 11
496.1056682697
 21
344.9719519431
  0
LINE
  5
461
100
AcDbEntity
  8
0
100
AcDbLine
 62
7
  6
CONTINUOUS
 10
497.2371441631
 20
344.8230157907
 11
496.6056682697
 21
344.9719519431
  0
LINE
  5
462
100
AcDbEntity
  8
0
100
AcDbLine
 62
7
  6
CONTINUOUS
 10
490.6697853328
 20
344.2272710896
 11
491.1749670593
 21
344.0783349241
  0
LINE
  5
463
100
AcDbEntity
  8
0
100
AcDbLine
 62
7
  6
CONTINUOUS
 10
457.6028377858
 20
347.8974838222
 11
457.0615714955
 21
348.2804624999
  0
LINE
  5
464
100
AcDbEntity
  8
0
100
AcDbLine
 62
7
  6
CONTINUOUS
 10
452.556204416
 20
349.6847180093
 11
452.2314448895
 21
350.0676966871
  0
LINE
  5
465
100
AcDbEntity
  8
0
100
AcDbLine
 62
7
  6
CONTINUOUS
 10
453.056204416
 20
349.6847180093
 11
452.7314448895
 21
350.0676966871
  0
LINE
  5
466
100
AcDbEntity
  8
0
100
AcDbLine
 62
7
  6
CONTINUOUS
 10
453.9634952842
 20
345.5996114875
 11
454.2882548106
 21
345.0889732058
  0
LINE
  5
467
100
AcDbEntity
  8
0
100
AcDbLine
 62
7
  6
CONTINUOUS
 10
457.4275973123
 20
347.3868455852
 11
457.1028377858
 21
347.8974838222
  0
LINE
  5
468
100
AcDbEntity
  8
0
100
AcDbLine
 62
7
  6
CONTINUOUS
 10
457.9275973123
 20
347.3868455852
 11
457.6028377858
 21
347.8974838222
  0
LINE
  5
469
100
AcDbEntity
  8
0
100
AcDbLine
 62
7
  6
CONTINUOUS
 10
452.0149381256
 20
349.4293988908
 11
452.2314448895
 21
349.0464198554
  0
LINE
  5
46A
100
AcDbEntity
  8
0
100
AcDbLine
 62
7
  6
CONTINUOUS
 10
456.7780782594
 20
347.3868455852
 11
456.9945837845
 21
347.0038669074
  0
LINE
  5
46B
100
AcDbEntity
  8
0
100
AcDbLine
 62
7
  6
CONTINUOUS
 10
449.0921023879
 20
348.6634411777
 11
449.3086091518
 21
348.1528029407
  0
LINE
  5
46C
100
AcDbEntity
  8
0
100
AcDbLine
 62
7
  6
CONTINUOUS
 10
453.7469885203
 20
346.1102498139
 11
453.9634952842
 21
345.5996114875
  0
LINE
  5
46D
100
AcDbEntity
  8
0
100
AcDbLine
 62
7
  6
CONTINUOUS
 10
454.613014337
 20
345.5996114875
 11
454.3965075731
 21
346.1102498139
  0
LINE
  5
46E
100
AcDbEntity
  8
0
100
AcDbLine
 62
7
  6
CONTINUOUS
 10
455.113014337
 20
345.5996114875
 11
454.8965075731
 21
346.1102498139
  0
LINE
  5
46F
100
AcDbEntity
  8
0
100
AcDbLine
 62
7
  6
CONTINUOUS
 10
448.9838496254
 20
346.1102498139
 11
449.2003551504
 21
345.4719519282
  0
LINE
  5
470
100
AcDbEntity
  8
0
100
AcDbLine
 62
7
  6
CONTINUOUS
 10
452.8809639424
 20
346.4932284916
 11
452.6644571785
 21
347.1315264667
  0
LINE
  5
471
100
AcDbEntity
  8
0
100
AcDbLine
 62
7
  6
CONTINUOUS
 10
453.3809639424
 20
346.4932284916
 11
453.1644571785
 21
347.1315264667
  0
LINE
  5
472
100
AcDbEntity
  8
0
100
AcDbLine
 62
7
  6
CONTINUOUS
 10
452.772709941
 20
349.0464198554
 11
452.556204416
 21
349.6847180093
  0
LINE
  5
473
100
AcDbEntity
  8
0
100
AcDbLine
 62
7
  6
CONTINUOUS
 10
453.272709941
 20
349.0464198554
 11
453.056204416
 21
349.6847180093
  0
LINE
  5
474
100
AcDbEntity
  8
0
100
AcDbLine
 62
7
  6
CONTINUOUS
 10
446.8187857029
 20
345.9825902546
 11
445.9527605056
 21
350.5783349241
  0
LINE
  5
475
100
AcDbEntity
  8
0
100
AcDbLine
 62
7
  6
CONTINUOUS
 10
447.0330714464
 20
347.4987929881
 11
446.4527605056
 21
350.5783349241
  0
LINE
  5
476
100
AcDbEntity
  8
0
100
AcDbLine
 62
7
  6
CONTINUOUS
 10
445.5197475973
 20
349.4293988908
 11
446.3857727946
 21
344.5783349241
  0
LINE
  5
477
100
AcDbEntity
  8
0
100
AcDbLine
 62
7
  6
CONTINUOUS
 10
442.9216713859
 20
350.5783349241
 11
443.7876965832
 21
344.5783349241
  0
LINE
  5
478
100
AcDbEntity
  8
0
100
AcDbLine
 62
7
  6
CONTINUOUS
 10
444.2207094916
 20
345.9825902546
 11
443.5711904388
 21
350.5783349241
  0
LINE
  5
479
100
AcDbEntity
  8
0
100
AcDbLine
 62
7
  6
CONTINUOUS
 10
444.5064237481
 20
347.4987929881
 11
444.0711904388
 21
350.5783349241
  0
LINE
  5
47A
100
AcDbEntity
  8
0
100
AcDbLine
 62
7
  6
CONTINUOUS
 10
448.9838496254
 20
346.4932284916
 11
448.9838496254
 21
346.1102498139
  0
LINE
  5
47B
100
AcDbEntity
  8
0
100
AcDbLine
 62
7
  6
CONTINUOUS
 10
449.0921023879
 20
349.0464198554
 11
449.0921023879
 21
348.6634411777
  0
LINE
  5
47C
100
AcDbEntity
  8
0
100
AcDbLine
 62
7
  6
CONTINUOUS
 10
449.5251146768
 20
346.1102498139
 11
449.5251146768
 21
346.4932284916
  0
LINE
  5
47D
100
AcDbEntity
  8
0
100
AcDbLine
 62
7
  6
CONTINUOUS
 10
449.6333686782
 20
348.7911007369
 11
449.6333686782
 21
349.0464198554
  0
LINE
  5
47E
100
AcDbEntity
  8
0
100
AcDbLine
 62
7
  6
CONTINUOUS
 10
450.0251146768
 20
346.1102498139
 11
450.0251146768
 21
346.4932284916
  0
LINE
  5
47F
100
AcDbEntity
  8
0
100
AcDbLine
 62
7
  6
CONTINUOUS
 10
450.1333686782
 20
348.7911007369
 11
450.1333686782
 21
349.0464198554
  0
LINE
  5
480
100
AcDbEntity
  8
0
100
AcDbLine
 62
7
  6
CONTINUOUS
 10
447.4683047558
 20
350.5783349241
 11
446.8187857029
 21
345.9825902546
  0
LINE
  5
481
100
AcDbEntity
  8
0
100
AcDbLine
 62
7
  6
CONTINUOUS
 10
444.6537224
 20
344.5783349241
 11
445.5197475973
 21
349.4293988908
  0
LINE
  5
482
100
AcDbEntity
  8
0
100
AcDbLine
 62
7
  6
CONTINUOUS
 10
445.1537224
 20
344.5783349241
 11
445.7697475973
 21
348.0290170134
  0
LINE
  5
483
100
AcDbEntity
  8
0
100
AcDbLine
 62
7
  6
CONTINUOUS
 10
445.0867346889
 20
350.5783349241
 11
444.2207094916
 21
345.9825902546
  0
LINE
  5
484
100
AcDbEntity
  8
0
100
AcDbLine
 62
7
  6
CONTINUOUS
 10
439.0245570689
 20
349.0464198554
 11
439.1328102185
 21
349.4293988908
  0
LINE
  5
485
100
AcDbEntity
  8
0
100
AcDbLine
 62
7
  6
CONTINUOUS
 10
439.5245570689
 20
349.0464198554
 11
439.6328102185
 21
349.4293988908
  0
LINE
  5
486
100
AcDbEntity
  8
0
100
AcDbLine
 62
7
  6
CONTINUOUS
 10
478.9470713484
 20
359.1022710914
 11
478.1970699179
 21
358.9107817525
  0
LINE
  5
487
100
AcDbEntity
  8
0
100
AcDbLine
 62
7
  6
CONTINUOUS
 10
450.71590002
 20
350.5783349241
 11
450.1746337297
 21
350.4506753648
  0
LINE
  5
488
100
AcDbEntity
  8
0
100
AcDbLine
 62
7
  6
CONTINUOUS
 10
479.1345706331
 20
358.1448242797
 11
478.1970699179
 21
357.9533349241
  0
LINE
  5
489
100
AcDbEntity
  8
0
100
AcDbLine
 62
7
  6
CONTINUOUS
 10
461.8659770937
 20
353.5783349241
 11
434.1531641726
 21
353.5783349241
  0
LINE
  5
48A
100
AcDbEntity
  8
KONSTRUKTIONSELEMENTE
100
AcDbLine
 62
7
  6
CONTINUOUS
 10
426.7595706331
 20
356.0783349241
 11
511.7595706331
 21
356.0783349241
  0
LINE
  5
48B
100
AcDbEntity
  8
0
100
AcDbLine
 62
7
  6
CONTINUOUS
 10
478.1970699179
 20
357.9533349241
 11
477.0720699179
 21
357.9533349241
  0
LINE
  5
48C
100
AcDbEntity
  8
0
100
AcDbLine
 62
7
  6
CONTINUOUS
 10
462.8220706331
 20
357.9533349241
 11
461.6970706331
 21
357.9533349241
  0
LINE
  5
48D
100
AcDbEntity
  8
0
100
AcDbLine
 62
7
  6
CONTINUOUS
 10
454.3845706331
 20
357.9533349241
 11
453.2595706331
 21
357.9533349241
  0
LINE
  5
48E
100
AcDbEntity
  8
0
100
AcDbLine
 62
7
  6
CONTINUOUS
 10
492.1905115159
 20
350.9293987716
 11
491.4301484244
 21
351.0574947707
  0
LINE
  5
48F
100
AcDbEntity
  8
0
100
AcDbLine
 62
7
  6
CONTINUOUS
 10
492.6905115159
 20
350.9293987716
 11
491.8064436753
 21
351.0783349241
  0
LINE
  5
490
100
AcDbEntity
  8
0
100
AcDbLine
 62
7
  6
CONTINUOUS
 10
497.4949163914
 20
350.9293987716
 11
496.9871441631
 21
351.0291987368
  0
LINE
  5
491
100
AcDbEntity
  8
0
100
AcDbLine
 62
7
  6
CONTINUOUS
 10
497.9949163914
 20
350.9293987716
 11
497.2371441631
 21
351.0783349241
  0
LINE
  5
492
100
AcDbEntity
  8
0
100
AcDbLine
 62
7
  6
CONTINUOUS
 10
491.9327392876
 20
350.3336541618
 11
492.5642159036
 21
350.1847180093
  0
LINE
  5
493
100
AcDbEntity
  8
0
100
AcDbLine
 62
7
  6
CONTINUOUS
 10
497.2371441631
 20
350.3336541618
 11
497.8686215018
 21
350.1847180093
  0
LINE
  5
494
100
AcDbEntity
  8
0
100
AcDbLine
 62
7
  6
CONTINUOUS
 10
457.6441028373
 20
346.7485476101
 11
457.4275973123
 21
347.3868455852
  0
LINE
  5
495
100
AcDbEntity
  8
0
100
AcDbLine
 62
7
  6
CONTINUOUS
 10
458.1441028373
 20
346.7485476101
 11
457.9275973123
 21
347.3868455852
  0
LINE
  5
496
100
AcDbEntity
  8
0
100
AcDbLine
 62
7
  6
CONTINUOUS
 10
456.9945837845
 20
347.0038669074
 11
457.1028377858
 21
346.6208880509
  0
LINE
  5
497
100
AcDbEntity
  8
0
100
AcDbLine
 62
7
  6
CONTINUOUS
 10
452.2314448895
 20
349.0464198554
 11
452.2314448895
 21
348.7911007369
  0
LINE
  5
498
100
AcDbEntity
  8
0
100
AcDbLine
 62
7
  6
CONTINUOUS
 10
452.3396976521
 20
346.4932284916
 11
452.3396976521
 21
346.1102498139
  0
LINE
  5
499
100
AcDbEntity
  8
0
100
AcDbLine
 62
7
  6
CONTINUOUS
 10
452.772709941
 20
348.6634411777
 11
452.772709941
 21
349.0464198554
  0
LINE
  5
49A
100
AcDbEntity
  8
0
100
AcDbLine
 62
7
  6
CONTINUOUS
 10
452.8809639424
 20
346.1102498139
 11
452.8809639424
 21
346.4932284916
  0
LINE
  5
49B
100
AcDbEntity
  8
0
100
AcDbLine
 62
7
  6
CONTINUOUS
 10
453.2595706331
 20
366.9533349241
 11
453.2595706331
 21
357.9533349241
  0
LINE
  5
49C
100
AcDbEntity
  8
0
100
AcDbLine
 62
7
  6
CONTINUOUS
 10
453.272709941
 20
348.6634411777
 11
453.272709941
 21
349.0464198554
  0
LINE
  5
49D
100
AcDbEntity
  8
0
100
AcDbLine
 62
7
  6
CONTINUOUS
 10
453.3809639424
 20
346.1102498139
 11
453.3809639424
 21
346.4932284916
  0
LINE
  5
49E
100
AcDbEntity
  8
0
100
AcDbLine
 62
7
  6
CONTINUOUS
 10
453.7469885203
 20
350.5783349241
 11
453.7469885203
 21
347.2591860259
  0
LINE
  5
49F
100
AcDbEntity
  8
0
100
AcDbLine
 62
7
  6
CONTINUOUS
 10
454.2595706331
 20
339.0783349241
 11
454.2595706331
 21
296.0783349241
  0
LINE
  5
4A0
100
AcDbEntity
  8
0
100
AcDbLine
 62
7
  6
CONTINUOUS
 10
454.2882548106
 20
347.8974838222
 11
454.2882548106
 21
349.9400371278
  0
LINE
  5
4A1
100
AcDbEntity
  8
0
100
AcDbLine
 62
7
  6
CONTINUOUS
 10
454.3845706331
 20
365.9958882297
 11
454.3845706331
 21
363.1235476101
  0
LINE
  5
4A2
100
AcDbEntity
  8
0
100
AcDbLine
 62
7
  6
CONTINUOUS
 10
454.3845706331
 20
361.9746115769
 11
454.3845706331
 21
357.9533349241
  0
LINE
  5
4A3
100
AcDbEntity
  8
0
100
AcDbLine
 62
7
  6
CONTINUOUS
 10
454.7882548106
 20
348.2512641006
 11
454.7882548106
 21
349.9400371278
  0
LINE
  5
4A4
100
AcDbEntity
  8
0
100
AcDbLine
 62
7
  6
CONTINUOUS
 10
457.1028377858
 20
346.6208880509
 11
457.1028377858
 21
346.3655689324
  0
LINE
  5
4A5
100
AcDbEntity
  8
0
100
AcDbLine
 62
7
  6
CONTINUOUS
 10
457.4275973123
 20
349.9400371278
 11
457.4275973123
 21
350.5783349241
  0
LINE
  5
4A6
100
AcDbEntity
  8
0
100
AcDbLine
 62
7
  6
CONTINUOUS
 10
457.6441028373
 20
346.2379093731
 11
457.6441028373
 21
346.7485476101
  0
LINE
  5
4A7
100
AcDbEntity
  8
0
100
AcDbLine
 62
7
  6
CONTINUOUS
 10
447.2517986113
 20
344.5783349241
 11
448.1178238086
 21
350.5783349241
  0
LINE
  5
4A8
100
AcDbEntity
  8
0
100
AcDbLine
 62
7
  6
CONTINUOUS
 10
447.7517986113
 20
344.5783349241
 11
448.6178238086
 21
350.5783349241
  0
LINE
  5
4A9
100
AcDbEntity
  8
0
100
AcDbLine
 62
7
  6
CONTINUOUS
 10
441.8391397344
 20
345.4719519282
 11
442.0556458789
 21
345.9825902546
  0
LINE
  5
4AA
100
AcDbEntity
  8
0
100
AcDbLine
 62
7
  6
CONTINUOUS
 10
442.3391397344
 20
345.4719519282
 11
442.5556458789
 21
345.9825902546
  0
LINE
  5
4AB
100
AcDbEntity
  8
0
100
AcDbLine
 62
7
  6
CONTINUOUS
 10
477.0720699179
 20
362.7405689324
 11
476.3220706331
 21
362.5490795935
  0
LINE
  5
4AC
100
AcDbEntity
  8
0
100
AcDbLine
 62
7
  6
CONTINUOUS
 10
476.1345713484
 20
363.5065262879
 11
477.0720699179
 21
363.6980156267
  0
LINE
  5
4AD
100
AcDbEntity
  8
0
100
AcDbLine
 62
7
  6
CONTINUOUS
 10
467.1345702755
 20
362.1661009157
 11
466.1970706331
 21
361.9746115769
  0
LINE
  5
4AE
100
AcDbEntity
  8
0
100
AcDbLine
 62
7
  6
CONTINUOUS
 10
458.697070812
 20
362.1661009157
 11
457.7595706331
 21
361.9746115769
  0
LINE
  5
4AF
100
AcDbEntity
  8
0
100
AcDbLine
 62
7
  6
CONTINUOUS
 10
478.1970699179
 20
358.9107817525
 11
477.0720699179
 21
358.9107817525
  0
LINE
  5
4B0
100
AcDbEntity
  8
0
100
AcDbLine
 62
7
  6
CONTINUOUS
 10
475.3845699179
 20
360.2512072588
 11
474.2595699179
 21
360.2512072588
  0
LINE
  5
4B1
100
AcDbEntity
  8
0
100
AcDbLine
 62
7
  6
CONTINUOUS
 10
472.7595713484
 20
361.2086539531
 11
470.1345706331
 21
361.2086539531
  0
LINE
  5
4B2
100
AcDbEntity
  8
0
100
AcDbLine
 62
7
  6
CONTINUOUS
 10
466.1970706331
 20
361.9746115769
 11
462.8220706331
 21
361.9746115769
  0
LINE
  5
4B3
100
AcDbEntity
  8
0
100
AcDbLine
 62
7
  6
CONTINUOUS
 10
457.7595706331
 20
361.9746115769
 11
454.3845706331
 21
361.9746115769
  0
LINE
  5
4B4
100
AcDbEntity
  8
0
100
AcDbLine
 62
7
  6
CONTINUOUS
 10
474.2595699179
 20
361.9746115769
 11
475.5720713484
 21
361.9746115769
  0
LINE
  5
4B5
100
AcDbEntity
  8
0
100
AcDbLine
 62
7
  6
CONTINUOUS
 10
472.7595713484
 20
362.1661009157
 11
470.1345706331
 21
362.1661009157
  0
LINE
  5
4B6
100
AcDbEntity
  8
0
100
AcDbLine
 62
7
  6
CONTINUOUS
 10
478.1970699179
 20
362.7405689324
 11
477.0720699179
 21
362.7405689324
  0
LINE
  5
4B7
100
AcDbEntity
  8
0
100
AcDbLine
 62
7
  6
CONTINUOUS
 10
466.3845709908
 20
363.1235476101
 11
462.8220706331
 21
363.1235476101
  0
LINE
  5
4B8
100
AcDbEntity
  8
0
100
AcDbLine
 62
7
  6
CONTINUOUS
 10
457.9470704543
 20
363.1235476101
 11
454.3845706331
 21
363.1235476101
  0
LINE
  5
4B9
100
AcDbEntity
  8
0
100
AcDbLine
 62
7
  6
CONTINUOUS
 10
487.0095706331
 20
363.315036949
 11
484.9470699179
 21
363.315036949
  0
LINE
  5
4BA
100
AcDbEntity
  8
0
100
AcDbLine
 62
7
  6
CONTINUOUS
 10
484.0095713484
 20
363.315036949
 11
482.5095706331
 21
363.315036949
  0
LINE
  5
4BB
100
AcDbEntity
  8
0
100
AcDbLine
 62
7
  6
CONTINUOUS
 10
477.0720699179
 20
363.6980156267
 11
478.1970699179
 21
363.6980156267
  0
LINE
  5
4BC
100
AcDbEntity
  8
0
100
AcDbLine
 62
7
  6
CONTINUOUS
 10
487.0095706331
 20
364.0809943045
 11
484.9470699179
 21
364.0809943045
  0
LINE
  5
4BD
100
AcDbEntity
  8
0
100
AcDbLine
 62
7
  6
CONTINUOUS
 10
484.0095713484
 20
364.0809943045
 11
482.5095706331
 21
364.0809943045
  0
LINE
  5
4BE
100
AcDbEntity
  8
0
100
AcDbLine
 62
7
  6
CONTINUOUS
 10
485.5095699179
 20
358.1448242797
 11
486.6345699179
 21
357.9533349241
  0
LINE
  5
4BF
100
AcDbEntity
  8
0
100
AcDbLine
 62
7
  6
CONTINUOUS
 10
477.0720699179
 20
357.9533349241
 11
476.1345713484
 21
358.1448242797
  0
LINE
  5
4C0
100
AcDbEntity
  8
0
100
AcDbLine
 62
7
  6
CONTINUOUS
 10
486.6345699179
 20
358.7192923466
 11
485.6970713484
 21
358.9107817525
  0
LINE
  5
4C1
100
AcDbEntity
  8
0
100
AcDbLine
 62
7
  6
CONTINUOUS
 10
477.0720699179
 20
358.9107817525
 11
476.3220706331
 21
359.1022710914
  0
LINE
  5
4C2
100
AcDbEntity
  8
0
100
AcDbLine
 62
7
  6
CONTINUOUS
 10
458.5095704543
 20
365.8043988908
 11
457.9470704543
 21
365.9958882297
  0
LINE
  5
4C3
100
AcDbEntity
  8
0
100
AcDbLine
 62
7
  6
CONTINUOUS
 10
484.9470699179
 20
358.3363136353
 11
485.5095699179
 21
358.1448242797
  0
LINE
  5
4C4
100
AcDbEntity
  8
0
100
AcDbLine
 62
7
  6
CONTINUOUS
 10
493.0745786338
 20
347.3549306954
 11
492.4431020178
 21
347.6528030003
  0
LINE
  5
4C5
100
AcDbEntity
  8
0
100
AcDbLine
 62
7
  6
CONTINUOUS
 10
493.5745786338
 20
347.3549306954
 11
492.9431020178
 21
347.6528030003
  0
LINE
  5
4C6
100
AcDbEntity
  8
0
100
AcDbLine
 62
7
  6
CONTINUOUS
 10
490.1646036064
 20
344.5251434336
 11
490.6697853328
 21
344.2272710896
  0
LINE
  5
4C7
100
AcDbEntity
  8
0
100
AcDbLine
 62
7
  6
CONTINUOUS
 10
490.1697853328
 20
344.9719519431
 11
489.917194831
 21
345.1208880956
  0
LINE
  5
4C8
100
AcDbEntity
  8
0
100
AcDbLine
 62
7
  6
CONTINUOUS
 10
490.6697853328
 20
344.9719519431
 11
490.417194831
 21
345.1208880956
  0
LINE
  5
4C9
100
AcDbEntity
  8
0
100
AcDbLine
 62
7
  6
CONTINUOUS
 10
475.1970706331
 20
358.7192923466
 11
476.1345713484
 21
358.1448242797
  0
LINE
  5
4CA
100
AcDbEntity
  8
0
100
AcDbLine
 62
7
  6
CONTINUOUS
 10
459.4470706331
 20
366.1873775686
 11
458.697070812
 21
366.7618455852
  0
LINE
  5
4CB
100
AcDbEntity
  8
0
100
AcDbLine
 62
7
  6
CONTINUOUS
 10
489.7857174923
 20
344.8230157907
 11
490.1646036064
 21
344.5251434336
  0
LINE
  5
4CC
100
AcDbEntity
  8
0
100
AcDbLine
 62
7
  6
CONTINUOUS
 10
458.8845706331
 20
365.4214202131
 11
458.5095704543
 21
365.8043988908
  0
LINE
  5
4CD
100
AcDbEntity
  8
0
100
AcDbLine
 62
7
  6
CONTINUOUS
 10
460.0095706331
 20
365.4214202131
 11
459.4470706331
 21
366.1873775686
  0
LINE
  5
4CE
100
AcDbEntity
  8
0
100
AcDbLine
 62
7
  6
CONTINUOUS
 10
459.0720704543
 20
364.8469521964
 11
458.8845706331
 21
365.4214202131
  0
LINE
  5
4CF
100
AcDbEntity
  8
0
100
AcDbLine
 62
7
  6
CONTINUOUS
 10
460.1970704543
 20
364.8469521964
 11
460.0095706331
 21
365.4214202131
  0
LINE
  5
4D0
100
AcDbEntity
  8
0
100
AcDbLine
 62
7
  6
CONTINUOUS
 10
457.9275973123
 20
349.9400371278
 11
457.9275973123
 21
350.5783349241
  0
LINE
  5
4D1
100
AcDbEntity
  8
0
100
AcDbLine
 62
7
  6
CONTINUOUS
 10
458.1441028373
 20
346.2379093731
 11
458.1441028373
 21
346.7485476101
  0
LINE
  5
4D2
100
AcDbEntity
  8
0
100
AcDbLine
 62
7
  6
CONTINUOUS
 10
459.0720704543
 20
364.8469521964
 11
459.0720704543
 21
364.2724836434
  0
LINE
  5
4D3
100
AcDbEntity
  8
0
100
AcDbLine
 62
7
  6
CONTINUOUS
 10
459.2595706331
 20
380.9533349241
 11
459.2595706331
 21
371.9533349241
  0
LINE
  5
4D4
100
AcDbEntity
  8
0
100
AcDbLine
 62
7
  6
CONTINUOUS
 10
460.1970704543
 20
364.8469521964
 11
460.1970704543
 21
364.0809943045
  0
LINE
  5
4D5
100
AcDbEntity
  8
0
100
AcDbLine
 62
7
  6
CONTINUOUS
 10
460.3845706331
 20
379.9958882297
 11
460.3845706331
 21
377.1235476101
  0
LINE
  5
4D6
100
AcDbEntity
  8
0
100
AcDbLine
 62
7
  6
CONTINUOUS
 10
460.3845706331
 20
375.9746115769
 11
460.3845706331
 21
371.9533349241
  0
LINE
  5
4D7
100
AcDbEntity
  8
0
100
AcDbLine
 62
7
  6
CONTINUOUS
 10
461.6970706331
 20
366.9533349241
 11
461.6970706331
 21
357.9533349241
  0
LINE
  5
4D8
100
AcDbEntity
  8
0
100
AcDbLine
 62
7
  6
CONTINUOUS
 10
461.8659770937
 20
341.5783349241
 11
461.8659770937
 21
353.5783349241
  0
LINE
  5
4D9
100
AcDbEntity
  8
RUNDUNGEN
100
AcDbLine
 62
7
  6
CONTINUOUS
 10
462.7595706331
 20
432.3434999788
 11
462.7595706331
 21
452.1662771938
  0
LINE
  5
4DA
100
AcDbEntity
  8
0
100
AcDbLine
 62
7
  6
CONTINUOUS
 10
462.8220706331
 20
365.9958882297
 11
462.8220706331
 21
363.1235476101
  0
LINE
  5
4DB
100
AcDbEntity
  8
0
100
AcDbLine
 62
7
  6
CONTINUOUS
 10
462.8220706331
 20
361.9746115769
 11
462.8220706331
 21
357.9533349241
  0
LINE
  5
4DC
100
AcDbEntity
  8
0
100
AcDbLine
 62
7
  6
CONTINUOUS
 10
459.0720704543
 20
364.2724836434
 11
458.8845706331
 21
363.6980156267
  0
LINE
  5
4DD
100
AcDbEntity
  8
0
100
AcDbLine
 62
7
  6
CONTINUOUS
 10
449.3086091518
 20
349.6847180093
 11
449.0921023879
 21
349.0464198554
  0
LINE
  5
4DE
100
AcDbEntity
  8
0
100
AcDbLine
 62
7
  6
CONTINUOUS
 10
449.2003551504
 20
347.1315264667
 11
448.9838496254
 21
346.4932284916
  0
LINE
  5
4DF
100
AcDbEntity
  8
0
100
AcDbLine
 62
7
  6
CONTINUOUS
 10
452.6644571785
 20
345.4719519282
 11
452.8809639424
 21
346.1102498139
  0
LINE
  5
4E0
100
AcDbEntity
  8
0
100
AcDbLine
 62
7
  6
CONTINUOUS
 10
453.1644571785
 20
345.4719519282
 11
453.3809639424
 21
346.1102498139
  0
LINE
  5
4E1
100
AcDbEntity
  8
0
100
AcDbLine
 62
7
  6
CONTINUOUS
 10
441.4061268261
 20
346.1102498139
 11
441.1896206816
 21
345.7272711361
  0
LINE
  5
4E2
100
AcDbEntity
  8
0
100
AcDbLine
 62
7
  6
CONTINUOUS
 10
438.9163039192
 20
350.1953562463
 11
438.4832912044
 21
349.6847180093
  0
LINE
  5
4E3
100
AcDbEntity
  8
0
100
AcDbLine
 62
7
  6
CONTINUOUS
 10
481.3845699179
 20
373.2937604303
 11
480.6345706331
 21
373.1022710914
  0
LINE
  5
4E4
100
AcDbEntity
  8
0
100
AcDbLine
 62
7
  6
CONTINUOUS
 10
481.5720713484
 20
372.1448242797
 11
480.6345706331
 21
371.9533349241
  0
LINE
  5
4E5
100
AcDbEntity
  8
0
100
AcDbLine
 62
7
  6
CONTINUOUS
 10
484.9470699179
 20
365.6129095519
 11
484.0095713484
 21
365.6129095519
  0
LINE
  5
4E6
100
AcDbEntity
  8
0
100
AcDbLine
 62
7
  6
CONTINUOUS
 10
480.6345713484
 20
365.9958882297
 11
475.1970706331
 21
365.9958882297
  0
LINE
  5
4E7
100
AcDbEntity
  8
0
100
AcDbLine
 62
7
  6
CONTINUOUS
 10
466.3845709908
 20
365.9958882297
 11
462.8220706331
 21
365.9958882297
  0
LINE
  5
4E8
100
AcDbEntity
  8
0
100
AcDbLine
 62
7
  6
CONTINUOUS
 10
457.9470704543
 20
365.9958882297
 11
454.3845706331
 21
365.9958882297
  0
LINE
  5
4E9
100
AcDbEntity
  8
0
100
AcDbLine
 62
7
  6
CONTINUOUS
 10
466.1970706331
 20
366.9533349241
 11
461.6970706331
 21
366.9533349241
  0
LINE
  5
4EA
100
AcDbEntity
  8
0
100
AcDbLine
 62
7
  6
CONTINUOUS
 10
457.7595706331
 20
366.9533349241
 11
453.2595706331
 21
366.9533349241
  0
LINE
  5
4EB
100
AcDbEntity
  8
0
100
AcDbLine
 62
7
  6
CONTINUOUS
 10
474.2595699179
 20
366.9533349241
 11
480.6345713484
 21
366.9533349241
  0
LINE
  5
4EC
100
AcDbEntity
  8
0
100
AcDbLine
 62
7
  6
CONTINUOUS
 10
458.697070812
 20
366.7618455852
 11
457.7595706331
 21
366.9533349241
  0
LINE
  5
4ED
100
AcDbEntity
  8
0
100
AcDbLine
 62
7
  6
CONTINUOUS
 10
478.1970699179
 20
363.6980156267
 11
479.1345706331
 21
363.5065262879
  0
LINE
  5
4EE
100
AcDbEntity
  8
0
100
AcDbLine
 62
7
  6
CONTINUOUS
 10
467.1345702755
 20
366.7618455852
 11
466.1970706331
 21
366.9533349241
  0
LINE
  5
4EF
100
AcDbEntity
  8
0
100
AcDbLine
 62
7
  6
CONTINUOUS
 10
478.9470713484
 20
362.5490795935
 11
478.1970699179
 21
362.7405689324
  0
LINE
  5
4F0
100
AcDbEntity
  8
0
100
AcDbLine
 62
7
  6
CONTINUOUS
 10
466.9470709908
 20
365.8043988908
 11
466.3845709908
 21
365.9958882297
  0
LINE
  5
4F1
100
AcDbEntity
  8
0
100
AcDbLine
 62
7
  6
CONTINUOUS
 10
492.6956925197
 20
350.6315264667
 11
492.1905115159
 21
350.9293987716
  0
LINE
  5
4F2
100
AcDbEntity
  8
0
100
AcDbLine
 62
7
  6
CONTINUOUS
 10
493.1956925197
 20
350.6315264667
 11
492.6905115159
 21
350.9293987716
  0
LINE
  5
4F3
100
AcDbEntity
  8
0
100
AcDbLine
 62
7
  6
CONTINUOUS
 10
480.0720713484
 20
362.9320582712
 11
479.1345706331
 21
363.5065262879
  0
LINE
  5
4F4
100
AcDbEntity
  8
0
100
AcDbLine
 62
7
  6
CONTINUOUS
 10
476.3220706331
 20
359.1022710914
 11
475.7595706331
 21
359.4852497692
  0
LINE
  5
4F5
100
AcDbEntity
  8
0
100
AcDbLine
 62
7
  6
CONTINUOUS
 10
484.9470699179
 20
358.3363136353
 11
484.3845699179
 21
358.7192923466
  0
LINE
  5
4F6
100
AcDbEntity
  8
0
100
AcDbLine
 62
7
  6
CONTINUOUS
 10
479.5095713484
 20
362.1661009157
 11
478.9470713484
 21
362.5490795935
  0
LINE
  5
4F7
100
AcDbEntity
  8
0
100
AcDbLine
 62
7
  6
CONTINUOUS
 10
495.8478960414
 20
344.674079586
 11
496.4793719348
 21
344.2272710896
  0
LINE
  5
4F8
100
AcDbEntity
  8
0
100
AcDbLine
 62
7
  6
CONTINUOUS
 10
467.8845706331
 20
366.1873775686
 11
467.1345702755
 21
366.7618455852
  0
LINE
  5
4F9
100
AcDbEntity
  8
0
100
AcDbLine
 62
7
  6
CONTINUOUS
 10
492.6905115159
 20
347.2059945429
 11
493.0693976301
 21
346.908122238
  0
LINE
  5
4FA
100
AcDbEntity
  8
0
100
AcDbLine
 62
7
  6
CONTINUOUS
 10
496.1056682697
 20
344.9719519431
 11
495.7267821556
 21
345.269824248
  0
LINE
  5
4FB
100
AcDbEntity
  8
0
100
AcDbLine
 62
7
  6
CONTINUOUS
 10
496.6056682697
 20
344.9719519431
 11
496.2267821556
 21
345.269824248
  0
LINE
  5
4FC
100
AcDbEntity
  8
0
100
AcDbLine
 62
7
  6
CONTINUOUS
 10
492.5642159036
 20
350.1847180093
 11
492.9431020178
 21
349.8868457044
  0
LINE
  5
4FD
100
AcDbEntity
  8
0
100
AcDbLine
 62
7
  6
CONTINUOUS
 10
467.3220706331
 20
365.4214202131
 11
466.9470709908
 21
365.8043988908
  0
LINE
  5
4FE
100
AcDbEntity
  8
0
100
AcDbLine
 62
7
  6
CONTINUOUS
 10
468.4470706331
 20
365.4214202131
 11
467.8845706331
 21
366.1873775686
  0
LINE
  5
4FF
100
AcDbEntity
  8
0
100
AcDbLine
 62
7
  6
CONTINUOUS
 10
474.6345706331
 20
359.4852497692
 11
475.1970706331
 21
358.7192923466
  0
LINE
  5
500
100
AcDbEntity
  8
0
100
AcDbLine
 62
7
  6
CONTINUOUS
 10
465.0720704543
 20
371.9533349241
 11
463.5720705437
 21
375.9746115769
  0
LINE
  5
501
100
AcDbEntity
  8
0
100
AcDbLine
 62
7
  6
CONTINUOUS
 10
465.0720704543
 20
378.8469521964
 11
465.0720704543
 21
378.2724836434
  0
LINE
  5
502
100
AcDbEntity
  8
0
100
AcDbLine
 62
7
  6
CONTINUOUS
 10
466.1970704543
 20
378.8469521964
 11
466.1970704543
 21
378.0809943045
  0
LINE
  5
503
100
AcDbEntity
  8
KONSTRUKTIONSELEMENTE
100
AcDbLine
 62
7
  6
CONTINUOUS
 10
466.5319839927
 20
339.0783349241
 11
466.5319839927
 21
356.0783349241
  0
LINE
  5
504
100
AcDbEntity
  8
0
100
AcDbLine
 62
7
  6
CONTINUOUS
 10
467.5095709908
 20
364.8469521964
 11
467.5095709908
 21
364.2724836434
  0
LINE
  5
505
100
AcDbEntity
  8
0
100
AcDbLine
 62
7
  6
CONTINUOUS
 10
467.8845704543
 20
380.9533349241
 11
467.8845704543
 21
375.0171646143
  0
LINE
  5
506
100
AcDbEntity
  8
0
100
AcDbLine
 62
7
  6
CONTINUOUS
 10
468.6345709908
 20
364.8469521964
 11
468.6345709908
 21
364.0809943045
  0
LINE
  5
507
100
AcDbEntity
  8
0
100
AcDbLine
 62
7
  6
CONTINUOUS
 10
469.0095709908
 20
380.9533349241
 11
469.0095709908
 21
375.0171646143
  0
LINE
  5
508
100
AcDbEntity
  8
0
100
AcDbLine
 62
7
  6
CONTINUOUS
 10
457.1028377858
 20
346.3655689324
 11
456.9945837845
 21
345.9825902546
  0
LINE
  5
509
100
AcDbEntity
  8
0
100
AcDbLine
 62
7
  6
CONTINUOUS
 10
460.1970704543
 20
364.0809943045
 11
460.0095706331
 21
363.5065262879
  0
LINE
  5
50A
100
AcDbEntity
  8
0
100
AcDbLine
 62
7
  6
CONTINUOUS
 10
465.0720704543
 20
378.2724836434
 11
464.8845706331
 21
377.6980156267
  0
LINE
  5
50B
100
AcDbEntity
  8
0
100
AcDbLine
 62
7
  6
CONTINUOUS
 10
466.1970704543
 20
378.0809943045
 11
466.0095706331
 21
377.5065262879
  0
LINE
  5
50C
100
AcDbEntity
  8
0
100
AcDbLine
 62
7
  6
CONTINUOUS
 10
457.4275973123
 20
345.5996114875
 11
457.6441028373
 21
346.2379093731
  0
LINE
  5
50D
100
AcDbEntity
  8
0
100
AcDbLine
 62
7
  6
CONTINUOUS
 10
457.9275973123
 20
345.5996114875
 11
458.1441028373
 21
346.2379093731
  0
LINE
  5
50E
100
AcDbEntity
  8
0
100
AcDbLine
 62
7
  6
CONTINUOUS
 10
452.556204416
 20
348.1528029407
 11
452.772709941
 21
348.6634411777
  0
LINE
  5
50F
100
AcDbEntity
  8
0
100
AcDbLine
 62
7
  6
CONTINUOUS
 10
453.056204416
 20
348.1528029407
 11
453.272709941
 21
348.6634411777
  0
LINE
  5
510
100
AcDbEntity
  8
0
100
AcDbLine
 62
7
  6
CONTINUOUS
 10
449.6333686782
 20
349.0464198554
 11
449.8498742032
 21
349.4293988908
  0
LINE
  5
511
100
AcDbEntity
  8
0
100
AcDbLine
 62
7
  6
CONTINUOUS
 10
450.1333686782
 20
349.0464198554
 11
450.3498742032
 21
349.4293988908
  0
LINE
  5
512
100
AcDbEntity
  8
0
100
AcDbLine
 62
7
  6
CONTINUOUS
 10
452.2314448895
 20
348.7911007369
 11
452.0149381256
 21
348.4081220592
  0
LINE
  5
513
100
AcDbEntity
  8
0
100
AcDbLine
 62
7
  6
CONTINUOUS
 10
449.5251146768
 20
346.4932284916
 11
449.8498742032
 21
347.0038669074
  0
LINE
  5
514
100
AcDbEntity
  8
0
100
AcDbLine
 62
7
  6
CONTINUOUS
 10
450.0251146768
 20
346.4932284916
 11
450.3498742032
 21
347.0038669074
  0
LINE
  5
515
100
AcDbEntity
  8
0
100
AcDbLine
 62
7
  6
CONTINUOUS
 10
466.0095706331
 20
377.5065262879
 11
465.4470706331
 21
376.7405689324
  0
LINE
  5
516
100
AcDbEntity
  8
0
100
AcDbLine
 62
7
  6
CONTINUOUS
 10
460.0095706331
 20
363.5065262879
 11
459.4470706331
 21
362.7405689324
  0
LINE
  5
517
100
AcDbEntity
  8
0
100
AcDbLine
 62
7
  6
CONTINUOUS
 10
441.4061268261
 20
344.9613136465
 11
441.8391397344
 21
345.4719519282
  0
LINE
  5
518
100
AcDbEntity
  8
0
100
AcDbLine
 62
7
  6
CONTINUOUS
 10
441.9061268261
 20
344.9613136465
 11
442.3391397344
 21
345.4719519282
  0
LINE
  5
519
100
AcDbEntity
  8
0
100
AcDbLine
 62
7
  6
CONTINUOUS
 10
464.8845706331
 20
377.6980156267
 11
464.5095704543
 21
377.315036949
  0
LINE
  5
51A
100
AcDbEntity
  8
0
100
AcDbLine
 62
7
  6
CONTINUOUS
 10
465.4470706331
 20
376.7405689324
 11
464.697070812
 21
376.3575902546
  0
LINE
  5
51B
100
AcDbEntity
  8
0
100
AcDbLine
 62
7
  6
CONTINUOUS
 10
464.5095704543
 20
377.315036949
 11
463.9470704543
 21
377.1235476101
  0
LINE
  5
51C
100
AcDbEntity
  8
0
100
AcDbLine
 62
7
  6
CONTINUOUS
 10
472.3845709908
 20
373.2937604303
 11
471.6345706331
 21
373.1022710914
  0
LINE
  5
51D
100
AcDbEntity
  8
0
100
AcDbLine
 62
7
  6
CONTINUOUS
 10
472.5720702755
 20
372.1448242797
 11
471.6345706331
 21
371.9533349241
  0
LINE
  5
51E
100
AcDbEntity
  8
0
100
AcDbLine
 62
7
  6
CONTINUOUS
 10
480.6345706331
 20
371.9533349241
 11
476.1345706331
 21
371.9533349241
  0
LINE
  5
51F
100
AcDbEntity
  8
0
100
AcDbLine
 62
7
  6
CONTINUOUS
 10
471.6345706331
 20
371.9533349241
 11
470.8845702755
 21
371.9533349241
  0
LINE
  5
520
100
AcDbEntity
  8
0
100
AcDbLine
 62
7
  6
CONTINUOUS
 10
466.384570812
 20
371.9533349241
 11
465.0720704543
 21
371.9533349241
  0
LINE
  5
521
100
AcDbEntity
  8
0
100
AcDbLine
 62
7
  6
CONTINUOUS
 10
460.3845706331
 20
371.9533349241
 11
459.2595706331
 21
371.9533349241
  0
LINE
  5
522
100
AcDbEntity
  8
0
100
AcDbLine
 62
7
  6
CONTINUOUS
 10
480.6345706331
 20
373.1022710914
 11
477.2595706331
 21
373.1022710914
  0
LINE
  5
523
100
AcDbEntity
  8
0
100
AcDbLine
 62
7
  6
CONTINUOUS
 10
471.6345706331
 20
373.1022710914
 11
470.8845702755
 21
373.1022710914
  0
LINE
  5
524
100
AcDbEntity
  8
0
100
AcDbLine
 62
7
  6
CONTINUOUS
 10
463.5720705437
 20
375.9746115769
 11
460.3845706331
 21
375.9746115769
  0
LINE
  5
525
100
AcDbEntity
  8
0
100
AcDbLine
 62
7
  6
CONTINUOUS
 10
470.8845702755
 20
371.9533349241
 11
469.9470706331
 21
372.1448242797
  0
LINE
  5
526
100
AcDbEntity
  8
0
100
AcDbLine
 62
7
  6
CONTINUOUS
 10
470.8845702755
 20
373.1022710914
 11
470.1345709908
 21
373.2937604303
  0
LINE
  5
527
100
AcDbEntity
  8
0
100
AcDbLine
 62
7
  6
CONTINUOUS
 10
469.9470706331
 20
372.1448242797
 11
469.1970702755
 21
372.5278030077
  0
LINE
  5
528
100
AcDbEntity
  8
0
100
AcDbLine
 62
7
  6
CONTINUOUS
 10
485.6970713484
 20
358.9107817525
 11
485.1345713484
 21
359.2937604303
  0
LINE
  5
529
100
AcDbEntity
  8
0
100
AcDbLine
 62
7
  6
CONTINUOUS
 10
470.1345709908
 20
373.2937604303
 11
469.5720709908
 21
373.6767392421
  0
LINE
  5
52A
100
AcDbEntity
  8
0
100
AcDbLine
 62
7
  6
CONTINUOUS
 10
498.1263937301
 20
350.4825903142
 11
497.4949163914
 21
350.9293987716
  0
LINE
  5
52B
100
AcDbEntity
  8
0
100
AcDbLine
 62
7
  6
CONTINUOUS
 10
498.6263937301
 20
350.4825903142
 11
497.9949163914
 21
350.9293987716
  0
LINE
  5
52C
100
AcDbEntity
  8
0
100
AcDbLine
 62
7
  6
CONTINUOUS
 10
465.4470706331
 20
380.1873775686
 11
464.697070812
 21
380.7618455852
  0
LINE
  5
52D
100
AcDbEntity
  8
0
100
AcDbLine
 62
7
  6
CONTINUOUS
 10
497.8686215018
 20
350.1847180093
 11
498.247507616
 21
349.8868457044
  0
LINE
  5
52E
100
AcDbEntity
  8
0
100
AcDbLine
 62
7
  6
CONTINUOUS
 10
469.1970702755
 20
372.5278030077
 11
468.4470709908
 21
373.2937604303
  0
LINE
  5
52F
100
AcDbEntity
  8
0
100
AcDbLine
 62
7
  6
CONTINUOUS
 10
464.8845706331
 20
379.4214202131
 11
464.5095704543
 21
379.8043988908
  0
LINE
  5
530
100
AcDbEntity
  8
0
100
AcDbLine
 62
7
  6
CONTINUOUS
 10
489.917194831
 20
345.1208880956
 11
489.6646036064
 21
345.4187605048
  0
LINE
  5
531
100
AcDbEntity
  8
0
100
AcDbLine
 62
7
  6
CONTINUOUS
 10
490.417194831
 20
345.1208880956
 11
490.1646036064
 21
345.4187605048
  0
LINE
  5
532
100
AcDbEntity
  8
0
100
AcDbLine
 62
7
  6
CONTINUOUS
 10
495.4690099273
 20
345.1208880956
 11
495.8478960414
 21
344.674079586
  0
LINE
  5
533
100
AcDbEntity
  8
0
100
AcDbLine
 62
7
  6
CONTINUOUS
 10
466.0095706331
 20
379.4214202131
 11
465.4470706331
 21
380.1873775686
  0
LINE
  5
534
100
AcDbEntity
  8
0
100
AcDbLine
 62
7
  6
CONTINUOUS
 10
480.6345713484
 20
362.1661009157
 11
480.0720713484
 21
362.9320582712
  0
LINE
  5
535
100
AcDbEntity
  8
0
100
AcDbLine
 62
7
  6
CONTINUOUS
 10
469.5720709908
 20
373.6767392421
 11
469.1970702755
 21
374.2512072588
  0
LINE
  5
536
100
AcDbEntity
  8
0
100
AcDbLine
 62
7
  6
CONTINUOUS
 10
474.2595699179
 20
360.2512072588
 11
474.6345706331
 21
359.4852497692
  0
LINE
  5
537
100
AcDbEntity
  8
0
100
AcDbLine
 62
7
  6
CONTINUOUS
 10
468.4470709908
 20
373.2937604303
 11
468.072070812
 21
374.0597179199
  0
LINE
  5
538
100
AcDbEntity
  8
0
100
AcDbLine
 62
7
  6
CONTINUOUS
 10
475.7595706331
 20
359.4852497692
 11
475.3845699179
 21
360.2512072588
  0
LINE
  5
539
100
AcDbEntity
  8
0
100
AcDbLine
 62
7
  6
CONTINUOUS
 10
466.384570812
 20
371.9533349241
 11
464.697070812
 21
376.3575902546
  0
LINE
  5
53A
100
AcDbEntity
  8
0
100
AcDbLine
 62
7
  6
CONTINUOUS
 10
467.5095709908
 20
364.8469521964
 11
467.3220706331
 21
365.4214202131
  0
LINE
  5
53B
100
AcDbEntity
  8
0
100
AcDbLine
 62
7
  6
CONTINUOUS
 10
468.6345709908
 20
364.8469521964
 11
468.4470706331
 21
365.4214202131
  0
LINE
  5
53C
100
AcDbEntity
  8
0
100
AcDbLine
 62
7
  6
CONTINUOUS
 10
465.0720704543
 20
378.8469521964
 11
464.8845706331
 21
379.4214202131
  0
LINE
  5
53D
100
AcDbEntity
  8
0
100
AcDbLine
 62
7
  6
CONTINUOUS
 10
466.1970704543
 20
378.8469521964
 11
466.0095706331
 21
379.4214202131
  0
LINE
  5
53E
100
AcDbEntity
  8
0
100
AcDbLine
 62
7
  6
CONTINUOUS
 10
469.1970702755
 20
374.2512072588
 11
469.0095709908
 21
375.0171646143
  0
LINE
  5
53F
100
AcDbEntity
  8
0
100
AcDbLine
 62
7
  6
CONTINUOUS
 10
468.072070812
 20
374.0597179199
 11
467.8845704543
 21
375.0171646143
  0
LINE
  5
540
100
AcDbEntity
  8
0
100
AcDbLine
 62
7
  6
CONTINUOUS
 10
470.1345706331
 20
362.1661009157
 11
470.1345706331
 21
361.2086539531
  0
LINE
  5
541
100
AcDbEntity
  8
KONSTRUKTIONSELEMENTE
100
AcDbLine
 62
7
  6
CONTINUOUS
 10
471.9871572736
 20
339.0783349241
 11
471.9871572736
 21
356.0783349241
  0
LINE
  5
542
100
AcDbEntity
  8
0
100
AcDbLine
 62
7
  6
CONTINUOUS
 10
472.7595713484
 20
362.1661009157
 11
472.7595713484
 21
361.2086539531
  0
LINE
  5
543
100
AcDbEntity
  8
0
100
AcDbLine
 62
7
  6
CONTINUOUS
 10
473.5095709908
 20
380.9533349241
 11
473.5095709908
 21
375.0171646143
  0
LINE
  5
544
100
AcDbEntity
  8
0
100
AcDbLine
 62
7
  6
CONTINUOUS
 10
474.2595699179
 20
366.9533349241
 11
474.2595699179
 21
361.9746115769
  0
LINE
  5
545
100
AcDbEntity
  8
0
100
AcDbLine
 62
7
  6
CONTINUOUS
 10
474.6345709908
 20
380.9533349241
 11
474.6345709908
 21
375.0171646143
  0
LINE
  5
546
100
AcDbEntity
  8
0
100
AcDbLine
 62
7
  6
CONTINUOUS
 10
475.1970706331
 20
365.9958882297
 11
475.1970706331
 21
362.9320582712
  0
LINE
  5
547
100
AcDbEntity
  8
RUNDUNGEN
100
AcDbLine
 62
7
  6
CONTINUOUS
 10
475.7595706331
 20
432.3434999788
 11
475.7595706331
 21
452.1662771938
  0
LINE
  5
548
100
AcDbEntity
  8
0
100
AcDbLine
 62
7
  6
CONTINUOUS
 10
476.1345706331
 20
380.9533349241
 11
476.1345706331
 21
371.9533349241
  0
LINE
  5
549
100
AcDbEntity
  8
0
100
AcDbLine
 62
7
  6
CONTINUOUS
 10
474.6345709908
 20
375.0171646143
 11
474.4470706331
 21
374.0597179199
  0
LINE
  5
54A
100
AcDbEntity
  8
0
100
AcDbLine
 62
7
  6
CONTINUOUS
 10
473.5095709908
 20
375.0171646143
 11
473.3220706331
 21
374.2512072588
  0
LINE
  5
54B
100
AcDbEntity
  8
0
100
AcDbLine
 62
7
  6
CONTINUOUS
 10
467.5095709908
 20
364.2724836434
 11
467.3220706331
 21
363.6980156267
  0
LINE
  5
54C
100
AcDbEntity
  8
0
100
AcDbLine
 62
7
  6
CONTINUOUS
 10
468.6345709908
 20
364.0809943045
 11
468.4470706331
 21
363.5065262879
  0
LINE
  5
54D
100
AcDbEntity
  8
0
100
AcDbLine
 62
7
  6
CONTINUOUS
 10
474.4470706331
 20
374.0597179199
 11
474.0720709908
 21
373.2937604303
  0
LINE
  5
54E
100
AcDbEntity
  8
0
100
AcDbLine
 62
7
  6
CONTINUOUS
 10
456.9945837845
 20
345.9825902546
 11
456.7780782594
 21
345.5996114875
  0
LINE
  5
54F
100
AcDbEntity
  8
0
100
AcDbLine
 62
7
  6
CONTINUOUS
 10
452.3396976521
 20
346.1102498139
 11
452.0149381256
 21
345.5996114875
  0
LINE
  5
550
100
AcDbEntity
  8
0
100
AcDbLine
 62
7
  6
CONTINUOUS
 10
457.1028377858
 20
345.0889732058
 11
457.4275973123
 21
345.5996114875
  0
LINE
  5
551
100
AcDbEntity
  8
0
100
AcDbLine
 62
7
  6
CONTINUOUS
 10
457.6028377858
 20
345.0889732058
 11
457.9275973123
 21
345.5996114875
  0
LINE
  5
552
100
AcDbEntity
  8
0
100
AcDbLine
 62
7
  6
CONTINUOUS
 10
473.3220706331
 20
374.2512072588
 11
472.9470709908
 21
373.6767392421
  0
LINE
  5
553
100
AcDbEntity
  8
0
100
AcDbLine
 62
7
  6
CONTINUOUS
 10
468.4470706331
 20
363.5065262879
 11
467.8845706331
 21
362.7405689324
  0
LINE
  5
554
100
AcDbEntity
  8
0
100
AcDbLine
 62
7
  6
CONTINUOUS
 10
449.6333686782
 20
350.0676966871
 11
449.3086091518
 21
349.6847180093
  0
LINE
  5
555
100
AcDbEntity
  8
0
100
AcDbLine
 62
7
  6
CONTINUOUS
 10
452.2314448895
 20
347.7698242629
 11
452.556204416
 21
348.1528029407
  0
LINE
  5
556
100
AcDbEntity
  8
0
100
AcDbLine
 62
7
  6
CONTINUOUS
 10
452.7314448895
 20
347.7698242629
 11
453.056204416
 21
348.1528029407
  0
LINE
  5
557
100
AcDbEntity
  8
0
100
AcDbLine
 62
7
  6
CONTINUOUS
 10
458.8845706331
 20
363.6980156267
 11
458.5095704543
 21
363.315036949
  0
LINE
  5
558
100
AcDbEntity
  8
0
100
AcDbLine
 62
7
  6
CONTINUOUS
 10
474.0720709908
 20
373.2937604303
 11
473.3220706331
 21
372.5278030077
  0
LINE
  5
559
100
AcDbEntity
  8
0
100
AcDbLine
 62
7
  6
CONTINUOUS
 10
439.1328102185
 20
349.4293988908
 11
439.4575698224
 21
349.6847180093
  0
LINE
  5
55A
100
AcDbEntity
  8
0
100
AcDbLine
 62
7
  6
CONTINUOUS
 10
439.6328102185
 20
349.4293988908
 11
439.9575698224
 21
349.6847180093
  0
LINE
  5
55B
100
AcDbEntity
  8
0
100
AcDbLine
 62
7
  6
CONTINUOUS
 10
441.1896206816
 20
345.7272711361
 11
440.8648611552
 21
345.4719519282
  0
LINE
  5
55C
100
AcDbEntity
  8
0
100
AcDbLine
 62
7
  6
CONTINUOUS
 10
459.4470706331
 20
362.7405689324
 11
458.697070812
 21
362.1661009157
  0
LINE
  5
55D
100
AcDbEntity
  8
0
100
AcDbLine
 62
7
  6
CONTINUOUS
 10
472.9470709908
 20
373.6767392421
 11
472.3845709908
 21
373.2937604303
  0
LINE
  5
55E
100
AcDbEntity
  8
0
100
AcDbLine
 62
7
  6
CONTINUOUS
 10
473.3220706331
 20
372.5278030077
 11
472.5720702755
 21
372.1448242797
  0
LINE
  5
55F
100
AcDbEntity
  8
0
100
AcDbLine
 62
7
  6
CONTINUOUS
 10
463.9470704543
 20
377.1235476101
 11
460.3845706331
 21
377.1235476101
  0
LINE
  5
560
100
AcDbEntity
  8
0
100
AcDbLine
 62
7
  6
CONTINUOUS
 10
480.6345706331
 20
379.8043988908
 11
477.2595706331
 21
379.8043988908
  0
LINE
  5
561
100
AcDbEntity
  8
0
100
AcDbLine
 62
7
  6
CONTINUOUS
 10
463.9470704543
 20
379.9958882297
 11
460.3845706331
 21
379.9958882297
  0
LINE
  5
562
100
AcDbEntity
  8
0
100
AcDbLine
 62
7
  6
CONTINUOUS
 10
480.6345706331
 20
380.9533349241
 11
476.1345706331
 21
380.9533349241
  0
LINE
  5
563
100
AcDbEntity
  8
0
100
AcDbLine
 62
7
  6
CONTINUOUS
 10
474.6345709908
 20
380.9533349241
 11
473.5095709908
 21
380.9533349241
  0
LINE
  5
564
100
AcDbEntity
  8
0
100
AcDbLine
 62
7
  6
CONTINUOUS
 10
469.0095709908
 20
380.9533349241
 11
467.8845704543
 21
380.9533349241
  0
LINE
  5
565
100
AcDbEntity
  8
0
100
AcDbLine
 62
7
  6
CONTINUOUS
 10
463.7595706331
 20
380.9533349241
 11
459.2595706331
 21
380.9533349241
  0
LINE
  5
566
100
AcDbEntity
  8
0
100
AcDbLine
 62
7
  6
CONTINUOUS
 10
464.697070812
 20
380.7618455852
 11
463.7595706331
 21
380.9533349241
  0
LINE
  5
567
100
AcDbEntity
  8
0
100
AcDbLine
 62
7
  6
CONTINUOUS
 10
481.5720713484
 20
380.7618455852
 11
480.6345706331
 21
380.9533349241
  0
LINE
  5
568
100
AcDbEntity
  8
0
100
AcDbLine
 62
7
  6
CONTINUOUS
 10
481.3845699179
 20
379.6129095519
 11
480.6345706331
 21
379.8043988908
  0
LINE
  5
569
100
AcDbEntity
  8
0
100
AcDbLine
 62
7
  6
CONTINUOUS
 10
464.5095704543
 20
379.8043988908
 11
463.9470704543
 21
379.9958882297
  0
LINE
  5
56A
100
AcDbEntity
  8
0
100
AcDbLine
 62
7
  6
CONTINUOUS
 10
493.2008742461
 20
350.0357818568
 11
492.6956925197
 21
350.6315264667
  0
LINE
  5
56B
100
AcDbEntity
  8
0
100
AcDbLine
 62
7
  6
CONTINUOUS
 10
493.7008742461
 20
350.0357818568
 11
493.1956925197
 21
350.6315264667
  0
LINE
  5
56C
100
AcDbEntity
  8
0
100
AcDbLine
 62
7
  6
CONTINUOUS
 10
498.5052798443
 20
350.0357818568
 11
498.1263937301
 21
350.4825903142
  0
LINE
  5
56D
100
AcDbEntity
  8
0
100
AcDbLine
 62
7
  6
CONTINUOUS
 10
499.0052798443
 20
350.0357818568
 11
498.6263937301
 21
350.4825903142
  0
LINE
  5
56E
100
AcDbEntity
  8
0
100
AcDbLine
 62
7
  6
CONTINUOUS
 10
479.8845699179
 20
361.5916328991
 11
479.5095713484
 21
362.1661009157
  0
LINE
  5
56F
100
AcDbEntity
  8
0
100
AcDbLine
 62
7
  6
CONTINUOUS
 10
489.5331269904
 20
345.269824248
 11
489.7857174923
 21
344.8230157907
  0
LINE
  5
570
100
AcDbEntity
  8
0
100
AcDbLine
 62
7
  6
CONTINUOUS
 10
493.3271698584
 20
346.908122238
 11
493.0745786338
 21
347.3549306954
  0
LINE
  5
571
100
AcDbEntity
  8
0
100
AcDbLine
 62
7
  6
CONTINUOUS
 10
493.8271698584
 20
346.908122238
 11
493.5745786338
 21
347.3549306954
  0
LINE
  5
572
100
AcDbEntity
  8
0
100
AcDbLine
 62
7
  6
CONTINUOUS
 10
484.3845699179
 20
358.7192923466
 11
484.0095713484
 21
359.4852497692
  0
LINE
  5
573
100
AcDbEntity
  8
0
100
AcDbLine
 62
7
  6
CONTINUOUS
 10
489.6646036064
 20
345.4187605048
 11
489.5383087168
 21
345.7166328097
  0
LINE
  5
574
100
AcDbEntity
  8
0
100
AcDbLine
 62
7
  6
CONTINUOUS
 10
481.0095699179
 20
361.2086539531
 11
480.6345713484
 21
362.1661009157
  0
LINE
  5
575
100
AcDbEntity
  8
0
100
AcDbLine
 62
7
  6
CONTINUOUS
 10
480.0720713484
 20
361.0171646143
 11
479.8845699179
 21
361.5916328991
  0
LINE
  5
576
100
AcDbEntity
  8
0
100
AcDbLine
 62
7
  6
CONTINUOUS
 10
483.0920630497
 20
349.5889733995
 11
484.8601981889
 21
344.0783349241
  0
LINE
  5
577
100
AcDbEntity
  8
0
100
AcDbLine
 62
7
  6
CONTINUOUS
 10
484.8653797347
 20
344.8230157907
 11
482.9709491639
 21
351.0783349241
  0
LINE
  5
578
100
AcDbEntity
  8
0
100
AcDbLine
 62
7
  6
CONTINUOUS
 10
485.3653797347
 20
344.8230157907
 11
483.4709491639
 21
351.0783349241
  0
LINE
  5
579
100
AcDbEntity
  8
0
100
AcDbLine
 62
7
  6
CONTINUOUS
 10
477.2595706331
 20
379.8043988908
 11
477.2595706331
 21
373.1022710914
  0
LINE
  5
57A
100
AcDbEntity
  8
0
100
AcDbLine
 62
7
  6
CONTINUOUS
 10
480.0720713484
 20
360.6341859365
 11
480.0720713484
 21
361.0171646143
  0
LINE
  5
57B
100
AcDbEntity
  8
0
100
AcDbLine
 62
7
  6
CONTINUOUS
 10
480.6345713484
 20
366.9533349241
 11
480.6345713484
 21
365.9958882297
  0
LINE
  5
57C
100
AcDbEntity
  8
0
100
AcDbLine
 62
7
  6
CONTINUOUS
 10
481.0095699179
 20
360.4426965976
 11
481.0095699179
 21
361.2086539531
  0
LINE
  5
57D
100
AcDbEntity
  8
0
100
AcDbLine
 62
7
  6
CONTINUOUS
 10
482.3342908214
 20
351.0783349241
 11
482.3342908214
 21
344.0783349241
  0
LINE
  5
57E
100
AcDbEntity
  8
0
100
AcDbLine
 62
7
  6
CONTINUOUS
 10
482.3220706331
 20
374.2512072588
 11
481.9470699179
 21
373.6767392421
  0
LINE
  5
57F
100
AcDbEntity
  8
0
100
AcDbLine
 62
7
  6
CONTINUOUS
 10
452.3396976521
 20
345.0889732058
 11
452.6644571785
 21
345.4719519282
  0
LINE
  5
580
100
AcDbEntity
  8
0
100
AcDbLine
 62
7
  6
CONTINUOUS
 10
452.8396976521
 20
345.0889732058
 11
453.1644571785
 21
345.4719519282
  0
LINE
  5
581
100
AcDbEntity
  8
0
100
AcDbLine
 62
7
  6
CONTINUOUS
 10
467.3220706331
 20
363.6980156267
 11
466.9470709908
 21
363.315036949
  0
LINE
  5
582
100
AcDbEntity
  8
0
100
AcDbLine
 62
7
  6
CONTINUOUS
 10
483.0720699179
 20
373.2937604303
 11
482.3220706331
 21
372.5278030077
  0
LINE
  5
583
100
AcDbEntity
  8
0
100
AcDbLine
 62
7
  6
CONTINUOUS
 10
449.8498742032
 20
349.4293988908
 11
450.282887731
 21
349.8123775686
  0
LINE
  5
584
100
AcDbEntity
  8
0
100
AcDbLine
 62
7
  6
CONTINUOUS
 10
450.3498742032
 20
349.4293988908
 11
450.782887731
 21
349.8123775686
  0
LINE
  5
585
100
AcDbEntity
  8
0
100
AcDbLine
 62
7
  6
CONTINUOUS
 10
449.6333686782
 20
347.5145051444
 11
449.2003551504
 21
347.1315264667
  0
LINE
  5
586
100
AcDbEntity
  8
0
100
AcDbLine
 62
7
  6
CONTINUOUS
 10
452.0149381256
 20
348.4081220592
 11
451.5819258367
 21
348.0251433814
  0
LINE
  5
587
100
AcDbEntity
  8
0
100
AcDbLine
 62
7
  6
CONTINUOUS
 10
454.5047615745
 20
347.2591860259
 11
454.9377738634
 21
347.6421647037
  0
LINE
  5
588
100
AcDbEntity
  8
0
100
AcDbLine
 62
7
  6
CONTINUOUS
 10
455.0047615745
 20
347.2591860259
 11
455.4377738634
 21
347.6421647037
  0
LINE
  5
589
100
AcDbEntity
  8
0
100
AcDbLine
 62
7
  6
CONTINUOUS
 10
467.8845706331
 20
362.7405689324
 11
467.1345702755
 21
362.1661009157
  0
LINE
  5
58A
100
AcDbEntity
  8
0
100
AcDbLine
 62
7
  6
CONTINUOUS
 10
450.1746337297
 20
350.4506753648
 11
449.6333686782
 21
350.0676966871
  0
LINE
  5
58B
100
AcDbEntity
  8
0
100
AcDbLine
 62
7
  6
CONTINUOUS
 10
481.9470699179
 20
373.6767392421
 11
481.3845699179
 21
373.2937604303
  0
LINE
  5
58C
100
AcDbEntity
  8
0
100
AcDbLine
 62
7
  6
CONTINUOUS
 10
439.3493165953
 20
350.4506753648
 11
438.9163039192
 21
350.1953562463
  0
LINE
  5
58D
100
AcDbEntity
  8
0
100
AcDbLine
 62
7
  6
CONTINUOUS
 10
440.9731142274
 20
344.7059944945
 11
441.4061268261
 21
344.9613136465
  0
LINE
  5
58E
100
AcDbEntity
  8
0
100
AcDbLine
 62
7
  6
CONTINUOUS
 10
441.4731142274
 20
344.7059944945
 11
441.9061268261
 21
344.9613136465
  0
LINE
  5
58F
100
AcDbEntity
  8
0
100
AcDbLine
 62
7
  6
CONTINUOUS
 10
482.3220706331
 20
372.5278030077
 11
481.5720713484
 21
372.1448242797
  0
LINE
  5
590
100
AcDbEntity
  8
0
100
AcDbLine
 62
7
  6
CONTINUOUS
 10
458.5095704543
 20
363.315036949
 11
457.9470704543
 21
363.1235476101
  0
LINE
  5
591
100
AcDbEntity
  8
0
100
AcDbLine
 62
7
  6
CONTINUOUS
 10
466.9470709908
 20
363.315036949
 11
466.3845709908
 21
363.1235476101
  0
LINE
  5
592
100
AcDbEntity
  8
0
100
AcDbLine
 62
7
  6
CONTINUOUS
 10
482.3220706331
 20
380.3788669074
 11
481.5720713484
 21
380.7618455852
  0
LINE
  5
593
100
AcDbEntity
  8
0
100
AcDbLine
 62
7
  6
CONTINUOUS
 10
481.9470699179
 20
379.2299308742
 11
481.3845699179
 21
379.6129095519
  0
LINE
  5
594
100
AcDbEntity
  8
0
100
AcDbLine
 62
7
  6
CONTINUOUS
 10
483.0720699179
 20
379.6129095519
 11
482.3220706331
 21
380.3788669074
  0
LINE
  5
595
100
AcDbEntity
  8
0
100
AcDbLine
 62
7
  6
CONTINUOUS
 10
482.3220706331
 20
378.6554623211
 11
481.9470699179
 21
379.2299308742
  0
LINE
  5
596
100
AcDbEntity
  8
0
100
AcDbLine
 62
7
  6
CONTINUOUS
 10
492.9431020178
 20
349.8868457044
 11
493.1956925197
 21
349.440037247
  0
LINE
  5
597
100
AcDbEntity
  8
0
100
AcDbLine
 62
7
  6
CONTINUOUS
 10
495.7267821556
 20
345.269824248
 11
495.2215997065
 21
346.1634412671
  0
LINE
  5
598
100
AcDbEntity
  8
0
100
AcDbLine
 62
7
  6
CONTINUOUS
 10
496.2267821556
 20
345.269824248
 11
495.7215997065
 21
346.1634412671
  0
LINE
  5
599
100
AcDbEntity
  8
0
100
AcDbLine
 62
7
  6
CONTINUOUS
 10
498.247507616
 20
349.8868457044
 11
498.7526886197
 21
348.9932283724
  0
LINE
  5
59A
100
AcDbEntity
  8
0
100
AcDbLine
 62
7
  6
CONTINUOUS
 10
490.1646036064
 20
345.4187605048
 11
490.0383087168
 21
345.7166328097
  0
LINE
  5
59B
100
AcDbEntity
  8
0
100
AcDbLine
 62
7
  6
CONTINUOUS
 10
493.0693976301
 20
346.908122238
 11
493.3219881319
 21
346.3123774195
  0
LINE
  5
59C
100
AcDbEntity
  8
0
100
AcDbLine
 62
7
  6
CONTINUOUS
 10
495.2164187027
 20
345.7166328097
 11
495.4690099273
 21
345.1208880956
  0
LINE
  5
59D
100
AcDbEntity
  8
0
100
AcDbLine
 62
7
  6
CONTINUOUS
 10
485.1345713484
 20
359.2937604303
 11
484.9470699179
 21
359.868228581
  0
LINE
  5
59E
100
AcDbEntity
  8
0
100
AcDbLine
 62
7
  6
CONTINUOUS
 10
489.4068313781
 20
345.7166328097
 11
489.5331269904
 21
345.269824248
  0
LINE
  5
59F
100
AcDbEntity
  8
0
100
AcDbLine
 62
7
  6
CONTINUOUS
 10
482.5095699179
 20
377.8895049656
 11
482.5095699179
 21
375.0171646143
  0
LINE
  5
5A0
100
AcDbEntity
  8
0
100
AcDbLine
 62
7
  6
CONTINUOUS
 10
482.5095706331
 20
364.0809943045
 11
482.5095706331
 21
363.315036949
  0
LINE
  5
5A1
100
AcDbEntity
  8
0
100
AcDbLine
 62
7
  6
CONTINUOUS
 10
482.5920630497
 20
344.0783349241
 11
482.5920630497
 21
349.5889733995
  0
LINE
  5
5A2
100
AcDbEntity
  8
0
100
AcDbLine
 62
7
  6
CONTINUOUS
 10
483.0920630497
 20
344.0783349241
 11
483.0920630497
 21
349.5889733995
  0
LINE
  5
5A3
100
AcDbEntity
  8
0
100
AcDbLine
 62
7
  6
CONTINUOUS
 10
483.6345699179
 20
377.8895049656
 11
483.6345699179
 21
375.0171646143
  0
LINE
  5
5A4
100
AcDbEntity
  8
0
100
AcDbLine
 62
7
  6
CONTINUOUS
 10
484.0095713484
 20
365.6129095519
 11
484.0095713484
 21
364.0809943045
  0
LINE
  5
5A5
100
AcDbEntity
  8
0
100
AcDbLine
 62
7
  6
CONTINUOUS
 10
484.0095713484
 20
363.315036949
 11
484.0095713484
 21
359.4852497692
  0
LINE
  5
5A6
100
AcDbEntity
  8
0
100
AcDbLine
 62
7
  6
CONTINUOUS
 10
484.2595706331
 20
339.0783349241
 11
484.2595706331
 21
296.0783349241
  0
LINE
  5
5A7
100
AcDbEntity
  8
0
100
AcDbLine
 62
7
  6
CONTINUOUS
 10
484.9470699179
 20
365.6129095519
 11
484.9470699179
 21
364.0809943045
  0
LINE
  5
5A8
100
AcDbEntity
  8
0
100
AcDbLine
 62
7
  6
CONTINUOUS
 10
484.9470699179
 20
363.315036949
 11
484.9470699179
 21
359.868228581
  0
LINE
  5
5A9
100
AcDbEntity
  8
0
100
AcDbLine
 62
7
  6
CONTINUOUS
 10
486.6345699179
 20
358.7192923466
 11
486.6345699179
 21
357.9533349241
  0
LINE
  5
5AA
100
AcDbEntity
  8
0
100
AcDbLine
 62
7
  6
CONTINUOUS
 10
487.0095706331
 20
364.0809943045
 11
487.0095706331
 21
363.315036949
  0
LINE
  5
5AB
100
AcDbEntity
  8
0
100
AcDbLine
 62
7
  6
CONTINUOUS
 10
487.6386964196
 20
349.5889733995
 11
487.6386964196
 21
344.0783349241
  0
LINE
  5
5AC
100
AcDbEntity
  8
0
100
AcDbLine
 62
7
  6
CONTINUOUS
 10
487.8964686479
 20
344.0783349241
 11
487.8964686479
 21
351.0783349241
  0
LINE
  5
5AD
100
AcDbEntity
  8
0
100
AcDbLine
 62
7
  6
CONTINUOUS
 10
488.3964686479
 20
344.0783349241
 11
488.3964686479
 21
351.0783349241
  0
LINE
  5
5AE
100
AcDbEntity
  8
0
100
AcDbLine
 62
7
  6
CONTINUOUS
 10
483.6345699179
 20
375.0171646143
 11
483.4470706331
 21
374.0597179199
  0
LINE
  5
5AF
100
AcDbEntity
  8
0
100
AcDbLine
 62
7
  6
CONTINUOUS
 10
482.5095699179
 20
375.0171646143
 11
482.3220706331
 21
374.2512072588
  0
LINE
  5
5B0
100
AcDbEntity
  8
0
100
AcDbLine
 62
7
  6
CONTINUOUS
 10
479.8845699179
 20
360.0597179199
 11
480.0720713484
 21
360.6341859365
  0
LINE
  5
5B1
100
AcDbEntity
  8
0
100
AcDbLine
 62
7
  6
CONTINUOUS
 10
480.6345713484
 20
359.4852497692
 11
481.0095699179
 21
360.4426965976
  0
LINE
  5
5B2
100
AcDbEntity
  8
0
100
AcDbLine
 62
7
  6
CONTINUOUS
 10
483.4470706331
 20
374.0597179199
 11
483.0720699179
 21
373.2937604303
  0
LINE
  5
5B3
100
AcDbEntity
  8
0
100
AcDbLine
 62
7
  6
CONTINUOUS
 10
479.8845699179
 20
360.0597179199
 11
479.5095713484
 21
359.4852497692
  0
LINE
  5
5B4
100
AcDbEntity
  8
0
100
AcDbLine
 62
7
  6
CONTINUOUS
 10
480.0720713484
 20
358.7192923466
 11
480.6345713484
 21
359.4852497692
  0
LINE
  5
5B5
100
AcDbEntity
  8
0
100
AcDbLine
 62
7
  6
CONTINUOUS
 10
456.7780782594
 20
345.5996114875
 11
456.453318733
 21
345.344292369
  0
LINE
  5
5B6
100
AcDbEntity
  8
0
100
AcDbLine
 62
7
  6
CONTINUOUS
 10
476.3220706331
 20
362.5490795935
 11
475.5720713484
 21
361.9746115769
  0
LINE
  5
5B7
100
AcDbEntity
  8
0
100
AcDbLine
 62
7
  6
CONTINUOUS
 10
454.8295211009
 20
348.2804624999
 11
454.2882548106
 21
347.8974838222
  0
LINE
  5
5B8
100
AcDbEntity
  8
0
100
AcDbLine
 62
7
  6
CONTINUOUS
 10
451.7984313617
 20
344.7059944945
 11
452.3396976521
 21
345.0889732058
  0
LINE
  5
5B9
100
AcDbEntity
  8
0
100
AcDbLine
 62
7
  6
CONTINUOUS
 10
452.2984313617
 20
344.7059944945
 11
452.8396976521
 21
345.0889732058
  0
LINE
  5
5BA
100
AcDbEntity
  8
0
100
AcDbLine
 62
7
  6
CONTINUOUS
 10
456.5615714955
 20
344.7059944945
 11
457.1028377858
 21
345.0889732058
  0
LINE
  5
5BB
100
AcDbEntity
  8
0
100
AcDbLine
 62
7
  6
CONTINUOUS
 10
457.0615714955
 20
344.7059944945
 11
457.6028377858
 21
345.0889732058
  0
LINE
  5
5BC
100
AcDbEntity
  8
0
100
AcDbLine
 62
7
  6
CONTINUOUS
 10
475.1970706331
 20
362.9320582712
 11
476.1345713484
 21
363.5065262879
  0
LINE
  5
5BD
100
AcDbEntity
  8
0
100
AcDbLine
 62
7
  6
CONTINUOUS
 10
449.8498742032
 20
347.6421647037
 11
449.6333686782
 21
347.5145051444
  0
LINE
  5
5BE
100
AcDbEntity
  8
0
100
AcDbLine
 62
7
  6
CONTINUOUS
 10
449.8498742032
 20
347.0038669074
 11
450.282887731
 21
347.2591860259
  0
LINE
  5
5BF
100
AcDbEntity
  8
0
100
AcDbLine
 62
7
  6
CONTINUOUS
 10
450.3498742032
 20
347.0038669074
 11
450.782887731
 21
347.2591860259
  0
LINE
  5
5C0
100
AcDbEntity
  8
0
100
AcDbLine
 62
7
  6
CONTINUOUS
 10
452.0149381256
 20
347.6421647037
 11
452.2314448895
 21
347.7698242629
  0
LINE
  5
5C1
100
AcDbEntity
  8
0
100
AcDbLine
 62
7
  6
CONTINUOUS
 10
452.5149381256
 20
347.6421647037
 11
452.7314448895
 21
347.7698242629
  0
LINE
  5
5C2
100
AcDbEntity
  8
0
100
AcDbLine
 62
7
  6
CONTINUOUS
 10
452.0149381256
 20
345.5996114875
 11
451.5819258367
 21
345.344292369
  0
LINE
  5
5C3
100
AcDbEntity
  8
0
100
AcDbLine
 62
7
  6
CONTINUOUS
 10
439.4575698224
 20
349.6847180093
 11
439.7823293488
 21
349.8123775686
  0
LINE
  5
5C4
100
AcDbEntity
  8
0
100
AcDbLine
 62
7
  6
CONTINUOUS
 10
439.9575698224
 20
349.6847180093
 11
440.2823293488
 21
349.8123775686
  0
LINE
  5
5C5
100
AcDbEntity
  8
0
100
AcDbLine
 62
7
  6
CONTINUOUS
 10
439.7823293488
 20
350.5783349241
 11
439.3493165953
 21
350.4506753648
  0
LINE
  5
5C6
100
AcDbEntity
  8
0
100
AcDbLine
 62
7
  6
CONTINUOUS
 10
483.4470706331
 20
378.8469521964
 11
483.0720699179
 21
379.6129095519
  0
LINE
  5
5C7
100
AcDbEntity
  8
0
100
AcDbLine
 62
7
  6
CONTINUOUS
 10
498.7578710688
 20
349.440037247
 11
498.5052798443
 21
350.0357818568
  0
LINE
  5
5C8
100
AcDbEntity
  8
0
100
AcDbLine
 62
7
  6
CONTINUOUS
 10
499.2578710688
 20
349.440037247
 11
499.0052798443
 21
350.0357818568
  0
LINE
  5
5C9
100
AcDbEntity
  8
0
100
AcDbLine
 62
7
  6
CONTINUOUS
 10
495.0901238131
 20
346.1634412671
 11
495.2164187027
 21
345.7166328097
  0
LINE
  5
5CA
100
AcDbEntity
  8
0
100
AcDbLine
 62
7
  6
CONTINUOUS
 10
482.5095699179
 20
377.8895049656
 11
482.3220706331
 21
378.6554623211
  0
LINE
  5
5CB
100
AcDbEntity
  8
0
100
AcDbLine
 62
7
  6
CONTINUOUS
 10
493.453464748
 20
346.3123774195
 11
493.3271698584
 21
346.908122238
  0
LINE
  5
5CC
100
AcDbEntity
  8
0
100
AcDbLine
 62
7
  6
CONTINUOUS
 10
493.953464748
 20
346.3123774195
 11
493.8271698584
 21
346.908122238
  0
LINE
  5
5CD
100
AcDbEntity
  8
0
100
AcDbLine
 62
7
  6
CONTINUOUS
 10
493.3271698584
 20
349.440037247
 11
493.2008742461
 21
350.0357818568
  0
LINE
  5
5CE
100
AcDbEntity
  8
0
100
AcDbLine
 62
7
  6
CONTINUOUS
 10
493.8271698584
 20
349.440037247
 11
493.7008742461
 21
350.0357818568
  0
LINE
  5
5CF
100
AcDbEntity
  8
0
100
AcDbLine
 62
7
  6
CONTINUOUS
 10
483.6345699179
 20
377.8895049656
 11
483.4470706331
 21
378.8469521964
  0
LINE
  5
5D0
100
AcDbEntity
  8
0
100
AcDbLine
 62
7
  6
CONTINUOUS
 10
491.4275575612
 20
347.9506753052
 11
491.4275575612
 21
347.3549306954
  0
LINE
  5
5D1
100
AcDbEntity
  8
0
100
AcDbLine
 62
7
  6
CONTINUOUS
 10
493.1956925197
 20
349.440037247
 11
493.1956925197
 21
349.1421645249
  0
LINE
  5
5D2
100
AcDbEntity
  8
0
100
AcDbLine
 62
7
  6
CONTINUOUS
 10
493.3219881319
 20
346.3123774195
 11
493.3219881319
 21
345.7166328097
  0
LINE
  5
5D3
100
AcDbEntity
  8
0
100
AcDbLine
 62
7
  6
CONTINUOUS
 10
493.3271698584
 20
349.1421645249
 11
493.3271698584
 21
349.440037247
  0
LINE
  5
5D4
100
AcDbEntity
  8
0
100
AcDbLine
 62
7
  6
CONTINUOUS
 10
493.453464748
 20
345.7166328097
 11
493.453464748
 21
346.3123774195
  0
LINE
  5
5D5
100
AcDbEntity
  8
0
100
AcDbLine
 62
7
  6
CONTINUOUS
 10
493.8271698584
 20
349.1421645249
 11
493.8271698584
 21
349.440037247
  0
LINE
  5
5D6
100
AcDbEntity
  8
0
100
AcDbLine
 62
7
  6
CONTINUOUS
 10
493.953464748
 20
345.7166328097
 11
493.953464748
 21
346.3123774195
  0
LINE
  5
5D7
100
AcDbEntity
  8
0
100
AcDbLine
 62
7
  6
CONTINUOUS
 10
489.6594226027
 20
350.0357818568
 11
489.5331269904
 21
349.440037247
  0
LINE
  5
5D8
100
AcDbEntity
  8
0
100
AcDbLine
 62
7
  6
CONTINUOUS
 10
487.2598103054
 20
351.0783349241
 11
485.3653797347
 21
344.8230157907
  0
LINE
  5
5D9
100
AcDbEntity
  8
0
100
AcDbLine
 62
7
  6
CONTINUOUS
 10
485.3705610998
 20
344.0783349241
 11
487.1386964196
 21
349.5889733995
  0
LINE
  5
5DA
100
AcDbEntity
  8
0
100
AcDbLine
 62
7
  6
CONTINUOUS
 10
479.5095713484
 20
359.4852497692
 11
478.9470713484
 21
359.1022710914
  0
LINE
  5
5DB
100
AcDbEntity
  8
0
100
AcDbLine
 62
7
  6
CONTINUOUS
 10
480.0720713484
 20
358.7192923466
 11
479.1345706331
 21
358.1448242797
  0
LINE
  5
5DC
100
AcDbEntity
  8
0
100
AcDbLine
 62
7
  6
CONTINUOUS
 10
450.282887731
 20
349.8123775686
 11
450.71590002
 21
349.9400371278
  0
LINE
  5
5DD
100
AcDbEntity
  8
0
100
AcDbLine
 62
7
  6
CONTINUOUS
 10
450.782887731
 20
349.8123775686
 11
451.154269102
 21
349.9218672605
  0
LINE
  5
5DE
100
AcDbEntity
  8
0
100
AcDbLine
 62
7
  6
CONTINUOUS
 10
440.8648611552
 20
345.4719519282
 11
440.4318484017
 21
345.344292369
  0
LINE
  5
5DF
100
AcDbEntity
  8
0
100
AcDbLine
 62
7
  6
CONTINUOUS
 10
451.5819258367
 20
348.0251433814
 11
451.1489123089
 21
347.8974838222
  0
LINE
  5
5E0
100
AcDbEntity
  8
0
100
AcDbLine
 62
7
  6
CONTINUOUS
 10
450.282887731
 20
347.2591860259
 11
450.71590002
 21
347.3868455852
  0
LINE
  5
5E1
100
AcDbEntity
  8
0
100
AcDbLine
 62
7
  6
CONTINUOUS
 10
450.782887731
 20
347.2591860259
 11
451.154269102
 21
347.3686757179
  0
LINE
  5
5E2
100
AcDbEntity
  8
0
100
AcDbLine
 62
7
  6
CONTINUOUS
 10
454.9377738634
 20
347.6421647037
 11
455.3707861524
 21
347.7698242629
  0
LINE
  5
5E3
100
AcDbEntity
  8
0
100
AcDbLine
 62
7
  6
CONTINUOUS
 10
455.4377738634
 20
347.6421647037
 11
455.8707861524
 21
347.7698242629
  0
LINE
  5
5E4
100
AcDbEntity
  8
0
100
AcDbLine
 62
7
  6
CONTINUOUS
 10
451.5819258367
 20
345.344292369
 11
451.1489123089
 21
345.2166328097
  0
LINE
  5
5E5
100
AcDbEntity
  8
RUNDUNGEN
100
AcDbLine
 62
7
  6
CONTINUOUS
 10
499.4392409428
 20
398.4533349241
 11
439.0799003235
 21
398.4533349241
  0
LINE
  5
5E6
100
AcDbEntity
  8
0
100
AcDbLine
 62
7
  6
CONTINUOUS
 10
498.8841659584
 20
348.9932283724
 11
498.7578710688
 21
349.440037247
  0
LINE
  5
5E7
100
AcDbEntity
  8
0
100
AcDbLine
 62
7
  6
CONTINUOUS
 10
499.3841659584
 20
348.9932283724
 11
499.2578710688
 21
349.440037247
  0
LINE
  5
5E8
100
AcDbEntity
  8
0
100
AcDbLine
 62
7
  6
CONTINUOUS
 10
494.9638274782
 20
346.908122238
 11
495.0901238131
 21
346.1634412671
  0
LINE
  5
5E9
100
AcDbEntity
  8
0
100
AcDbLine
 62
7
  6
CONTINUOUS
 10
499.010460848
 20
348.2485476101
 11
498.8841659584
 21
348.9932283724
  0
LINE
  5
5EA
100
AcDbEntity
  8
0
100
AcDbLine
 62
7
  6
CONTINUOUS
 10
499.510460848
 20
348.2485476101
 11
499.3841659584
 21
348.9932283724
  0
LINE
  5
5EB
100
AcDbEntity
  8
0
100
AcDbLine
 62
7
  6
CONTINUOUS
 10
495.2215997065
 20
346.1634412671
 11
495.0953048169
 21
347.0570583905
  0
LINE
  5
5EC
100
AcDbEntity
  8
0
100
AcDbLine
 62
7
  6
CONTINUOUS
 10
495.7215997065
 20
346.1634412671
 11
495.5953048169
 21
347.0570583905
  0
LINE
  5
5ED
100
AcDbEntity
  8
0
100
AcDbLine
 62
7
  6
CONTINUOUS
 10
498.7526886197
 20
348.9932283724
 11
498.8789849547
 21
348.0996114577
  0
LINE
  5
5EE
100
AcDbEntity
  8
0
100
AcDbLine
 62
7
  6
CONTINUOUS
 10
494.9638274782
 20
348.2485476101
 11
494.9638274782
 21
346.908122238
  0
LINE
  5
5EF
100
AcDbEntity
  8
0
100
AcDbLine
 62
7
  6
CONTINUOUS
 10
495.0953048169
 20
347.0570583905
 11
495.0953048169
 21
348.0996114577
  0
LINE
  5
5F0
100
AcDbEntity
  8
0
100
AcDbLine
 62
7
  6
CONTINUOUS
 10
495.5953048169
 20
347.0570583905
 11
495.5953048169
 21
348.0996114577
  0
LINE
  5
5F1
100
AcDbEntity
  8
0
100
AcDbLine
 62
7
  6
CONTINUOUS
 10
498.8789849547
 20
348.0996114577
 11
498.8789849547
 21
347.0570583905
  0
LINE
  5
5F2
100
AcDbEntity
  8
0
100
AcDbLine
 62
7
  6
CONTINUOUS
 10
499.010460848
 20
346.908122238
 11
499.010460848
 21
348.2485476101
  0
LINE
  5
5F3
100
AcDbEntity
  8
0
100
AcDbLine
 62
7
  6
CONTINUOUS
 10
499.510460848
 20
346.908122238
 11
499.510460848
 21
348.2485476101
  0
LINE
  5
5F4
100
AcDbEntity
  8
0
100
AcDbLine
 62
7
  6
CONTINUOUS
 10
495.0953048169
 20
348.0996114577
 11
495.2215997065
 21
348.9932283724
  0
LINE
  5
5F5
100
AcDbEntity
  8
0
100
AcDbLine
 62
7
  6
CONTINUOUS
 10
495.5953048169
 20
348.0996114577
 11
495.7215997065
 21
348.9932283724
  0
LINE
  5
5F6
100
AcDbEntity
  8
0
100
AcDbLine
 62
7
  6
CONTINUOUS
 10
495.0901238131
 20
348.9932283724
 11
494.9638274782
 21
348.2485476101
  0
LINE
  5
5F7
100
AcDbEntity
  8
0
100
AcDbLine
 62
7
  6
CONTINUOUS
 10
493.2008742461
 20
348.546419915
 11
493.3271698584
 21
349.1421645249
  0
LINE
  5
5F8
100
AcDbEntity
  8
0
100
AcDbLine
 62
7
  6
CONTINUOUS
 10
493.7008742461
 20
348.546419915
 11
493.8271698584
 21
349.1421645249
  0
LINE
  5
5F9
100
AcDbEntity
  8
0
100
AcDbLine
 62
7
  6
CONTINUOUS
 10
493.3271698584
 20
345.269824248
 11
493.453464748
 21
345.7166328097
  0
LINE
  5
5FA
100
AcDbEntity
  8
0
100
AcDbLine
 62
7
  6
CONTINUOUS
 10
485.8705610998
 20
344.0783349241
 11
487.6386964196
 21
349.5889733995
  0
LINE
  5
5FB
100
AcDbEntity
  8
0
100
AcDbLine
 62
7
  6
CONTINUOUS
 10
489.6646036064
 20
349.440037247
 11
489.917194831
 21
349.8868457044
  0
LINE
  5
5FC
100
AcDbEntity
  8
0
100
AcDbLine
 62
7
  6
CONTINUOUS
 10
490.1646036064
 20
349.440037247
 11
490.417194831
 21
349.8868457044
  0
LINE
  5
5FD
100
AcDbEntity
  8
0
100
AcDbLine
 62
7
  6
CONTINUOUS
 10
456.453318733
 20
345.344292369
 11
456.0203052052
 21
345.2166328097
  0
LINE
  5
5FE
100
AcDbEntity
  8
RUNDUNGEN
100
AcDbLine
 62
7
  6
CONTINUOUS
 10
501.5095706331
 20
448.4498814894
 11
501.5095706331
 21
431.9796143657
  0
LINE
  5
5FF
100
AcDbEntity
  8
0
100
AcDbLine
 62
7
  6
CONTINUOUS
 10
498.8789849547
 20
347.0570583905
 11
498.7526886197
 21
346.1634412671
  0
LINE
  5
600
100
AcDbEntity
  8
0
100
AcDbLine
 62
7
  6
CONTINUOUS
 10
498.8841659584
 20
346.1634412671
 11
499.010460848
 21
346.908122238
  0
LINE
  5
601
100
AcDbEntity
  8
0
100
AcDbLine
 62
7
  6
CONTINUOUS
 10
499.3841659584
 20
346.1634412671
 11
499.510460848
 21
346.908122238
  0
LINE
  5
602
100
AcDbEntity
  8
0
100
AcDbLine
 62
7
  6
CONTINUOUS
 10
493.8271698584
 20
345.269824248
 11
493.953464748
 21
345.7166328097
  0
LINE
  5
603
100
AcDbEntity
  8
0
100
AcDbLine
 62
7
  6
CONTINUOUS
 10
495.2164187027
 20
349.440037247
 11
495.0901238131
 21
348.9932283724
  0
LINE
  5
604
100
AcDbEntity
  8
0
100
AcDbLine
 62
7
  6
CONTINUOUS
 10
498.7578710688
 20
345.7166328097
 11
498.8841659584
 21
346.1634412671
  0
LINE
  5
605
100
AcDbEntity
  8
0
100
AcDbLine
 62
7
  6
CONTINUOUS
 10
499.2578710688
 20
345.7166328097
 11
499.3841659584
 21
346.1634412671
  0
LINE
  5
606
100
AcDbEntity
  8
0
100
AcDbLine
 62
7
  6
CONTINUOUS
 10
493.1956925197
 20
349.1421645249
 11
492.9431020178
 21
348.546419915
  0
LINE
  5
607
100
AcDbEntity
  8
0
100
AcDbLine
 62
7
  6
CONTINUOUS
 10
493.3219881319
 20
345.7166328097
 11
493.1956925197
 21
345.4187605048
  0
LINE
  5
608
100
AcDbEntity
  8
0
100
AcDbLine
 62
7
  6
CONTINUOUS
 10
495.4690099273
 20
350.0357818568
 11
495.2164187027
 21
349.440037247
  0
LINE
  5
609
100
AcDbEntity
  8
0
100
AcDbLine
 62
7
  6
CONTINUOUS
 10
492.9482837442
 20
348.0996114577
 11
493.2008742461
 21
348.546419915
  0
LINE
  5
60A
100
AcDbEntity
  8
0
100
AcDbLine
 62
7
  6
CONTINUOUS
 10
493.4482837442
 20
348.0996114577
 11
493.7008742461
 21
348.546419915
  0
LINE
  5
60B
100
AcDbEntity
  8
0
100
AcDbLine
 62
7
  6
CONTINUOUS
 10
495.2215997065
 20
348.9932283724
 11
495.7267821556
 21
349.8868457044
  0
LINE
  5
60C
100
AcDbEntity
  8
0
100
AcDbLine
 62
7
  6
CONTINUOUS
 10
493.0745786338
 20
344.8230157907
 11
493.3271698584
 21
345.269824248
  0
LINE
  5
60D
100
AcDbEntity
  8
0
100
AcDbLine
 62
7
  6
CONTINUOUS
 10
495.7215997065
 20
348.9932283724
 11
496.2267821556
 21
349.8868457044
  0
LINE
  5
60E
100
AcDbEntity
  8
0
100
AcDbLine
 62
7
  6
CONTINUOUS
 10
493.5745786338
 20
344.8230157907
 11
493.8271698584
 21
345.269824248
  0
LINE
  5
60F
100
AcDbEntity
  8
0
100
AcDbLine
 62
7
  6
CONTINUOUS
 10
490.1646036064
 20
350.6315264667
 11
489.6594226027
 21
350.0357818568
  0
LINE
  5
610
100
AcDbEntity
  8
0
100
AcDbLine
 62
7
  6
CONTINUOUS
 10
492.9431020178
 20
348.546419915
 11
492.6905115159
 21
348.2485476101
  0
LINE
  5
611
100
AcDbEntity
  8
0
100
AcDbLine
 62
7
  6
CONTINUOUS
 10
495.8478960414
 20
350.4825903142
 11
495.4690099273
 21
350.0357818568
  0
LINE
  5
612
100
AcDbEntity
  8
0
100
AcDbLine
 62
7
  6
CONTINUOUS
 10
492.4431020178
 20
347.6528030003
 11
492.9482837442
 21
348.0996114577
  0
LINE
  5
613
100
AcDbEntity
  8
0
100
AcDbLine
 62
7
  6
CONTINUOUS
 10
492.9431020178
 20
347.6528030003
 11
493.4482837442
 21
348.0996114577
  0
LINE
  5
614
100
AcDbEntity
  8
0
100
AcDbLine
 62
7
  6
CONTINUOUS
 10
489.917194831
 20
349.8868457044
 11
490.2960809451
 21
350.1847180093
  0
LINE
  5
615
100
AcDbEntity
  8
0
100
AcDbLine
 62
7
  6
CONTINUOUS
 10
490.417194831
 20
349.8868457044
 11
490.7960809451
 21
350.1847180093
  0
LINE
  5
616
100
AcDbEntity
  8
0
100
AcDbLine
 62
7
  6
CONTINUOUS
 10
495.7267821556
 20
349.8868457044
 11
496.1056682697
 21
350.1847180093
  0
LINE
  5
617
100
AcDbEntity
  8
0
100
AcDbLine
 62
7
  6
CONTINUOUS
 10
496.2267821556
 20
349.8868457044
 11
496.6056682697
 21
350.1847180093
  0
LINE
  5
618
100
AcDbEntity
  8
0
100
AcDbLine
 62
7
  6
CONTINUOUS
 10
496.4793719348
 20
350.9293987716
 11
495.8478960414
 21
350.4825903142
  0
LINE
  5
619
100
AcDbEntity
  8
0
100
AcDbLine
 62
7
  6
CONTINUOUS
 10
490.6697853328
 20
350.9293987716
 11
490.1646036064
 21
350.6315264667
  0
LINE
  5
61A
100
AcDbEntity
  8
0
100
AcDbLine
 62
7
  6
CONTINUOUS
 10
492.6905115159
 20
348.2485476101
 11
491.9327392876
 21
347.9506753052
  0
LINE
  5
61B
100
AcDbEntity
  8
0
100
AcDbLine
 62
7
  6
CONTINUOUS
 10
491.6853297895
 20
344.0783349241
 11
492.1905115159
 21
344.2272710896
  0
LINE
  5
61C
100
AcDbEntity
  8
0
100
AcDbLine
 62
7
  6
CONTINUOUS
 10
492.1853297895
 20
344.0783349241
 11
492.6905115159
 21
344.2272710896
  0
LINE
  5
61D
100
AcDbEntity
  8
KONSTRUKTIONSELEMENTE
100
AcDbLine
 62
7
  6
CONTINUOUS
 10
509.0319839927
 20
339.0783349241
 11
509.0319839927
 21
356.0783349241
  0
LINE
  5
61E
100
AcDbEntity
  8
0
100
AcDbLine
 62
7
  6
CONTINUOUS
 10
510.5095706331
 20
414.6494873468
 11
510.5095706331
 21
356.0783349241
  0
LINE
  5
61F
100
AcDbEntity
  8
KONSTRUKTIONSELEMENTE
100
AcDbLine
 62
7
  6
CONTINUOUS
 10
511.7595706331
 20
339.0783349241
 11
511.7595706331
 21
356.0783349241
  0
LINE
  5
620
100
AcDbEntity
  8
0
100
AcDbLine
 62
7
  6
CONTINUOUS
 10
498.5052798443
 20
345.1208880956
 11
498.7578710688
 21
345.7166328097
  0
LINE
  5
621
100
AcDbEntity
  8
0
100
AcDbLine
 62
7
  6
CONTINUOUS
 10
499.0052798443
 20
345.1208880956
 11
499.2578710688
 21
345.7166328097
  0
LINE
  5
622
100
AcDbEntity
  8
0
100
AcDbLine
 62
7
  6
CONTINUOUS
 10
498.7526886197
 20
346.1634412671
 11
498.247507616
 21
345.269824248
  0
LINE
  5
623
100
AcDbEntity
  8
0
100
AcDbLine
 62
7
  6
CONTINUOUS
 10
493.1956925197
 20
345.4187605048
 11
492.9431020178
 21
345.1208880956
  0
LINE
  5
624
100
AcDbEntity
  8
0
100
AcDbLine
 62
7
  6
CONTINUOUS
 10
498.1263937301
 20
344.674079586
 11
498.5052798443
 21
345.1208880956
  0
LINE
  5
625
100
AcDbEntity
  8
0
100
AcDbLine
 62
7
  6
CONTINUOUS
 10
498.6263937301
 20
344.674079586
 11
499.0052798443
 21
345.1208880956
  0
LINE
  5
626
100
AcDbEntity
  8
0
100
AcDbLine
 62
7
  6
CONTINUOUS
 10
492.6956925197
 20
344.5251434336
 11
493.0745786338
 21
344.8230157907
  0
LINE
  5
627
100
AcDbEntity
  8
0
100
AcDbLine
 62
7
  6
CONTINUOUS
 10
493.1956925197
 20
344.5251434336
 11
493.5745786338
 21
344.8230157907
  0
LINE
  5
628
100
AcDbEntity
  8
0
100
AcDbLine
 62
7
  6
CONTINUOUS
 10
498.247507616
 20
345.269824248
 11
497.8686215018
 21
344.9719519431
  0
LINE
  5
629
100
AcDbEntity
  8
0
100
AcDbLine
 62
7
  6
CONTINUOUS
 10
497.4949163914
 20
344.2272710896
 11
498.1263937301
 21
344.674079586
  0
LINE
  5
62A
100
AcDbEntity
  8
0
100
AcDbLine
 62
7
  6
CONTINUOUS
 10
497.9949163914
 20
344.2272710896
 11
498.6263937301
 21
344.674079586
  0
LINE
  5
62B
100
AcDbEntity
  8
0
100
AcDbLine
 62
7
  6
CONTINUOUS
 10
492.9431020178
 20
345.1208880956
 11
492.6905115159
 21
344.9719519431
  0
LINE
  5
62C
100
AcDbEntity
  8
0
100
AcDbLine
 62
7
  6
CONTINUOUS
 10
492.1905115159
 20
344.2272710896
 11
492.6956925197
 21
344.5251434336
  0
LINE
  5
62D
100
AcDbEntity
  8
0
100
AcDbLine
 62
7
  6
CONTINUOUS
 10
492.6905115159
 20
344.2272710896
 11
493.1956925197
 21
344.5251434336
  0
LINE
  5
62E
100
AcDbEntity
  8
RUNDUNGEN
100
AcDbLine
 62
7
  6
CONTINUOUS
 10
479.2964534978
 20
427.6005759447
 11
476.9176135109
 21
429.7424930896
  0
LINE
  5
62F
100
AcDbEntity
  8
BEZUGSACHSEN
100
AcDbLine
 62
7
  6
CONTINUOUS
 10
475.7674986637
 20
432.0783349241
 11
462.7516426002
 21
432.0783349241
  0
LINE
  5
630
100
AcDbEntity
  8
RUNDUNGEN
100
AcDbLine
 62
7
  6
CONTINUOUS
 10
501.9784817199
 20
430.2296143657
 11
510.1076468445
 21
416.1494873468
  0
LINE
  5
631
100
AcDbEntity
  8
FASEN
100
AcDbLine
 62
7
  6
CONTINUOUS
 10
482.2595706331
 20
294.0783349241
 11
484.2595706331
 21
296.0783349241
  0
LINE
  5
632
100
AcDbEntity
  8
BEZUGSACHSEN
100
AcDbLine
 62
7
  6
CONTINUOUS
 10
475.7595706331
 20
447.8283349241
 11
462.7595706331
 21
447.8283349241
  0
LINE
  5
633
100
AcDbEntity
  8
RUNDUNGEN
100
AcDbLine
 62
7
  6
CONTINUOUS
 10
494.9311075492
 20
457.3816992063
 11
500.8077039625
 21
450.3782443184
  0
LINE
  5
634
100
AcDbEntity
  8
0
100
AcDbLine
 62
7
  6
CONTINUOUS
 10
492.6349200392
 20
458.4533349241
 11
484.9040584803
 21
458.4533349241
  0
LINE
  5
635
100
AcDbEntity
  8
0
100
AcDbLine
 62
7
  6
CONTINUOUS
 10
453.7918623349
 20
458.4533349241
 11
445.8850078911
 21
458.4533349241
  0
LINE
  5
636
100
AcDbEntity
  8
KONSTRUKTIONSELEMENTE
100
AcDbLine
 62
7
  6
CONTINUOUS
 10
216.0769566424
 20
99.9694334186
 11
216.0769566424
 21
94.5142601376
  0
LINE
  5
637
100
AcDbEntity
  8
KONSTRUKTIONSELEMENTE
100
AcDbLine
 62
7
  6
CONTINUOUS
 10
242.1891159641
 20
139.7418467781
 11
237.4647973207
 21
137.0142601376
  0
LINE
  5
638
100
AcDbEntity
  8
KONSTRUKTIONSELEMENTE
100
AcDbLine
 62
7
  6
CONTINUOUS
 10
237.4647973207
 20
57.4694334186
 11
242.1891159641
 21
54.7418467781
  0
LINE
  5
639
100
AcDbEntity
  8
KONSTRUKTIONSELEMENTE
100
AcDbLine
 62
7
  6
CONTINUOUS
 10
237.4647973207
 20
137.0142601376
 11
216.0769566424
 21
99.9694334186
  0
LINE
  5
63A
100
AcDbEntity
  8
KONSTRUKTIONSELEMENTE
100
AcDbLine
 62
7
  6
CONTINUOUS
 10
242.1891159641
 20
54.7418467781
 11
284.9647973207
 21
54.7418467781
  0
LINE
  5
63B
100
AcDbEntity
  8
KONSTRUKTIONSELEMENTE
100
AcDbLine
 62
7
  6
CONTINUOUS
 10
216.0769566424
 20
94.5142601376
 11
237.4647973207
 21
57.4694334186
  0
LINE
  5
63C
100
AcDbEntity
  8
RUNDUNGEN
100
AcDbLine
 62
7
  6
CONTINUOUS
 10
279.0769566424
 20
64.9918467781
 11
248.0769566424
 21
64.9918467781
  0
LINE
  5
63D
100
AcDbEntity
  8
0
100
AcDbLine
 62
7
  6
CONTINUOUS
 10
282.0769566424
 20
70.6566505342
 11
282.5769566424
 21
70.6566505342
  0
LINE
  5
63E
100
AcDbEntity
  8
0
100
AcDbLine
 62
7
  6
CONTINUOUS
 10
282.0769566424
 20
71.1250419586
 11
282.5769566424
 21
71.1250419586
  0
LINE
  5
63F
100
AcDbEntity
  8
0
100
AcDbLine
 62
7
  6
CONTINUOUS
 10
282.0769566424
 20
71.1718467781
 11
282.5769566424
 21
71.1718467781
  0
LINE
  5
640
100
AcDbEntity
  8
0
100
AcDbLine
 62
7
  6
CONTINUOUS
 10
282.0769566424
 20
71.2995063373
 11
282.5769566424
 21
71.2995063373
  0
LINE
  5
641
100
AcDbEntity
  8
0
100
AcDbLine
 62
7
  6
CONTINUOUS
 10
282.0769566424
 20
71.5548254558
 11
282.5769566424
 21
71.5548254558
  0
LINE
  5
642
100
AcDbEntity
  8
0
100
AcDbLine
 62
7
  6
CONTINUOUS
 10
282.0769566424
 20
72.0654636928
 11
282.5769566424
 21
72.0654636928
  0
LINE
  5
643
100
AcDbEntity
  8
0
100
AcDbLine
 62
7
  6
CONTINUOUS
 10
282.0769566424
 20
72.5761019298
 11
282.5769566424
 21
72.5761019298
  0
LINE
  5
644
100
AcDbEntity
  8
0
100
AcDbLine
 62
7
  6
CONTINUOUS
 10
282.0769566424
 20
72.831421406
 11
282.5769566424
 21
72.831421406
  0
LINE
  5
645
100
AcDbEntity
  8
0
100
AcDbLine
 62
7
  6
CONTINUOUS
 10
282.0769566424
 20
73.342059643
 11
282.5769566424
 21
73.342059643
  0
LINE
  5
646
100
AcDbEntity
  8
0
100
AcDbLine
 62
7
  6
CONTINUOUS
 10
282.0769566424
 20
73.7250383207
 11
282.5769566424
 21
73.7250383207
  0
LINE
  5
647
100
AcDbEntity
  8
0
100
AcDbLine
 62
7
  6
CONTINUOUS
 10
282.0769566424
 20
74.1080169985
 11
282.5769566424
 21
74.1080169985
  0
LINE
  5
648
100
AcDbEntity
  8
0
100
AcDbLine
 62
7
  6
CONTINUOUS
 10
282.0769566424
 20
74.363336117
 11
282.5769566424
 21
74.363336117
  0
LINE
  5
649
100
AcDbEntity
  8
0
100
AcDbLine
 62
7
  6
CONTINUOUS
 10
282.0769566424
 20
74.7463147947
 11
282.5769566424
 21
74.7463147947
  0
LINE
  5
64A
100
AcDbEntity
  8
0
100
AcDbLine
 62
7
  6
CONTINUOUS
 10
282.0769566424
 20
75.2569532105
 11
282.5769566424
 21
75.2569532105
  0
LINE
  5
64B
100
AcDbEntity
  8
0
100
AcDbLine
 62
7
  6
CONTINUOUS
 10
282.0769566424
 20
75.7675914475
 11
282.5769566424
 21
75.7675914475
  0
LINE
  5
64C
100
AcDbEntity
  8
0
100
AcDbLine
 62
7
  6
CONTINUOUS
 10
282.0769566424
 20
76.1505702147
 11
282.5769566424
 21
76.1505702147
  0
LINE
  5
64D
100
AcDbEntity
  8
0
100
AcDbLine
 62
7
  6
CONTINUOUS
 10
282.0769566424
 20
76.5335488924
 11
282.5769566424
 21
76.5335488924
  0
LWPOLYLINE
  5
64E
100
AcDbEntity
  8
RUNDUNGEN
100
AcDbPolyline
 62
7
  6
CONTINUOUS
 90
10
 70
0
 10
245.076950547
 20
112.4344908759
 10
245.0773931937
 20
112.3897245473
 10
245.0881829011
 20
112.1973070889
 10
245.1118599498
 20
112.014431192
 10
245.1463743528
 20
111.8418328315
 10
245.1899035363
 20
111.6793786465
 10
245.2406034706
 20
111.5272797262
 10
245.2970651415
 20
111.38464738
 10
245.3578461621
 20
111.2511155635
 10
245.4218933988
 20
111.1256808714
  0
LINE
  5
64F
100
AcDbEntity
  8
RUNDUNGEN
100
AcDbLine
 62
7
  6
CONTINUOUS
 10
245.0769566424
 20
62.2731073197
 11
245.0769566424
 21
84.0793770894
  0
LINE
  5
650
100
AcDbEntity
  8
RUNDUNGEN
100
AcDbLine
 62
7
  6
CONTINUOUS
 10
245.0769566424
 20
110.4043167947
 11
245.0769566424
 21
132.2105828253
  0
LINE
  5
651
100
AcDbEntity
  8
0
100
AcDbLine
 62
7
  6
CONTINUOUS
 10
282.0769566424
 20
76.7888680556
 11
282.5769566424
 21
76.7888680556
  0
LINE
  5
652
100
AcDbEntity
  8
0
100
AcDbLine
 62
7
  6
CONTINUOUS
 10
282.0769566424
 20
77.0441872077
 11
282.5769566424
 21
77.0441872077
  0
LINE
  5
653
100
AcDbEntity
  8
0
100
AcDbLine
 62
7
  6
CONTINUOUS
 10
282.0769566424
 20
77.1718467781
 11
282.5769566424
 21
77.1718467781
  0
LINE
  5
654
100
AcDbEntity
  8
0
100
AcDbLine
 62
7
  6
CONTINUOUS
 10
226.3412211186
 20
79.4918467781
 11
226.064458725
 21
79.4918467781
  0
LINE
  5
655
100
AcDbEntity
  8
0
100
AcDbLine
 62
7
  6
CONTINUOUS
 10
225.4264013884
 20
81.5543474934
 11
225.1562283022
 21
81.5543474934
  0
LINE
  5
656
100
AcDbEntity
  8
0
100
AcDbLine
 62
7
  6
CONTINUOUS
 10
225.0542363478
 20
82.4918460628
 11
224.7866552914
 21
82.4918460628
  0
LINE
  5
657
100
AcDbEntity
  8
0
100
AcDbLine
 62
7
  6
CONTINUOUS
 10
224.9127368059
 20
82.8668474934
 11
224.6461282982
 21
82.8668474934
  0
LINE
  5
658
100
AcDbEntity
  8
0
100
AcDbLine
 62
7
  6
CONTINUOUS
 10
224.8435428534
 20
83.0543467781
 11
224.5774073662
 21
83.0543467781
  0
LINE
  5
659
100
AcDbEntity
  8
0
100
AcDbLine
 62
7
  6
CONTINUOUS
 10
224.7082370403
 20
83.4293474934
 11
224.4430217072
 21
83.4293474934
  0
LINE
  5
65A
100
AcDbEntity
  8
0
100
AcDbLine
 62
7
  6
CONTINUOUS
 10
224.4498101358
 20
84.1793467781
 11
224.1863347414
 21
84.1793467781
  0
LINE
  5
65B
100
AcDbEntity
  8
0
100
AcDbLine
 62
7
  6
CONTINUOUS
 10
224.2073639834
 20
84.9293460628
 11
223.9455003717
 21
84.9293460628
  0
LWPOLYLINE
  5
65C
100
AcDbEntity
  8
RUNDUNGEN
100
AcDbPolyline
 62
7
  6
CONTINUOUS
 90
13
 70
0
 10
245.596335923
 20
83.6274371756
 10
245.529697718
 20
83.5187930487
 10
245.4677889581
 20
83.4096825764
 10
245.4071518322
 20
83.293097943
 10
245.3488241508
 20
83.1691775226
 10
245.293555359
 20
83.0374561194
 10
245.2425067063
 20
82.8984369997
 10
245.1965276959
 20
82.7519460074
 10
245.15669878
 20
82.598598788
 10
245.1238916954
 20
82.4384142082
 10
245.0990619179
 20
82.2718550662
 10
245.0831301029
 20
82.0994380527
 10
245.0769507095
 20
81.904991627
  0
LINE
  5
65D
100
AcDbEntity
  8
0
100
AcDbLine
 62
7
  6
CONTINUOUS
 10
223.9263340117
 20
85.8668467781
 11
223.6663142647
 21
85.8668467781
  0
LWPOLYLINE
  5
65E
100
AcDbEntity
  8
RUNDUNGEN
100
AcDbPolyline
 62
7
  6
CONTINUOUS
 90
3
 70
0
 10
245.488747619
 20
111.0066722202
 10
245.5577348765
 20
110.8932688109
 10
245.5696274633
 20
110.874501991
  0
LINE
  5
65F
100
AcDbEntity
  8
RUNDUNGEN
100
AcDbLine
 62
7
  6
CONTINUOUS
 10
245.4218933988
 20
111.1256808714
 11
245.488747619
 21
111.0066722202
  0
LINE
  5
660
100
AcDbEntity
  8
BEZUGSACHSEN
100
AcDbLine
 62
7
  6
CONTINUOUS
 10
255.7019566424
 20
90.7418467781
 11
255.7019566424
 21
103.7418467781
  0
LINE
  5
661
100
AcDbEntity
  8
RUNDUNGEN
100
AcDbLine
 62
7
  6
CONTINUOUS
 10
245.5963382948
 20
83.6274356784
 11
245.5964140117
 21
83.6275546643
  0
LINE
  5
662
100
AcDbEntity
  8
RUNDUNGEN
100
AcDbLine
 62
7
  6
CONTINUOUS
 10
247.3889822436
 20
85.8478131495
 11
247.3882067988
 21
85.8465988509
  0
LINE
  5
663
100
AcDbEntity
  8
RUNDUNGEN
100
AcDbLine
 62
7
  6
CONTINUOUS
 10
247.3895720756
 20
85.8486034957
 11
247.2437336994
 21
85.6262159502
  0
LINE
  5
664
100
AcDbEntity
  8
RUNDUNGEN
100
AcDbLine
 62
7
  6
CONTINUOUS
 10
245.7154396053
 20
83.8021121839
 11
245.5964140117
 21
83.6275546643
  0
LWPOLYLINE
  5
665
100
AcDbEntity
  8
RUNDUNGEN
100
AcDbPolyline
 62
7
  6
CONTINUOUS
 90
6
 70
0
 10
247.2437336994
 20
85.6262159502
 10
247.0230245192
 20
85.3118029762
 10
246.7904206012
 20
85.0070574342
 10
246.5460706797
 20
84.7138531245
 10
246.2901228837
 20
84.4338338125
 10
246.0909093043
 20
84.2336274944
  0
LINE
  5
666
100
AcDbEntity
  8
RUNDUNGEN
100
AcDbLine
 62
7
  6
CONTINUOUS
 10
245.8395273451
 20
83.9618151299
 11
245.7154396053
 21
83.8021121839
  0
LINE
  5
667
100
AcDbEntity
  8
0
100
AcDbLine
 62
7
  6
CONTINUOUS
 10
222.9039081336
 20
90.3668467781
 11
222.6503836732
 21
90.3668467781
  0
LINE
  5
668
100
AcDbEntity
  8
RUNDUNGEN
100
AcDbLine
 62
7
  6
CONTINUOUS
 10
273.5769566424
 20
90.7418467781
 11
253.5769566424
 21
90.7418467781
  0
LINE
  5
669
100
AcDbEntity
  8
0
100
AcDbLine
 62
7
  6
CONTINUOUS
 10
222.6786452939
 20
91.8668464205
 11
222.4265086357
 21
91.8668464205
  0
LINE
  5
66A
100
AcDbEntity
  8
0
100
AcDbLine
 62
7
  6
CONTINUOUS
 10
222.5464802016
 20
92.9918464205
 11
222.2951507594
 21
92.9918464205
  0
LINE
  5
66B
100
AcDbEntity
  8
0
100
AcDbLine
 62
7
  6
CONTINUOUS
 10
222.5274914358
 20
93.1793467781
 11
222.2762775469
 21
93.1793467781
  0
LINE
  5
66C
100
AcDbEntity
  8
0
100
AcDbLine
 62
7
  6
CONTINUOUS
 10
222.4921073533
 20
93.5543464205
 11
222.2411085065
 21
93.5543464205
  0
LWPOLYLINE
  5
66D
100
AcDbEntity
  8
RUNDUNGEN
100
AcDbPolyline
 62
7
  6
CONTINUOUS
 90
3
 70
0
 10
245.6998905716
 20
110.6856302785
 10
245.8290221486
 20
110.5236025043
 10
245.9690055025
 20
110.3698035896
  0
LINE
  5
66E
100
AcDbEntity
  8
RUNDUNGEN
100
AcDbLine
 62
7
  6
CONTINUOUS
 10
247.2435159742
 20
108.8578095641
 11
247.3890482455
 21
108.6359126498
  0
LWPOLYLINE
  5
66F
100
AcDbEntity
  8
RUNDUNGEN
100
AcDbPolyline
 62
7
  6
CONTINUOUS
 90
3
 70
0
 10
245.5694809132
 20
110.8747301827
 10
245.5820505019
 20
110.8551625312
 10
245.6998905716
 20
110.6856302785
  0
LINE
  5
670
100
AcDbEntity
  8
RUNDUNGEN
100
AcDbLine
 62
7
  6
CONTINUOUS
 10
247.3891222131
 20
108.6357936991
 11
247.3892149664
 21
108.6356483599
  0
LWPOLYLINE
  5
671
100
AcDbEntity
  8
RUNDUNGEN
100
AcDbPolyline
 62
7
  6
CONTINUOUS
 90
3
 70
0
 10
246.0908780066
 20
84.2335719638
 10
245.9733096114
 20
84.1139453831
 10
245.8395273451
 20
83.9618151299
  0
LWPOLYLINE
  5
672
100
AcDbEntity
  8
RUNDUNGEN
100
AcDbPolyline
 62
7
  6
CONTINUOUS
 90
5
 70
0
 10
247.9935378246
 20
86.5006793354
 10
247.8223757447
 20
86.359614079
 10
247.6643885293
 20
86.2039397618
 10
247.5208184967
 20
86.0348811931
 10
247.3879667584
 20
85.8462222736
  0
LINE
  5
673
100
AcDbEntity
  8
RUNDUNGEN
100
AcDbLine
 62
7
  6
CONTINUOUS
 10
278.9773869264
 20
107.8576697191
 11
279.1603770733
 21
107.983015184
  0
LINE
  5
674
100
AcDbEntity
  8
RUNDUNGEN
100
AcDbLine
 62
7
  6
CONTINUOUS
 10
248.1765279395
 20
86.62602482
 11
247.9935378246
 21
86.5006793354
  0
LINE
  5
675
100
AcDbEntity
  8
RUNDUNGEN
100
AcDbLine
 62
7
  6
CONTINUOUS
 10
278.9766183468
 20
107.8571910675
 11
278.9773199271
 21
107.8576272594
  0
LINE
  5
676
100
AcDbEntity
  8
0
100
AcDbLine
 62
7
  6
CONTINUOUS
 10
222.4454982101
 20
94.1168464205
 11
222.1947820649
 21
94.1168464205
  0
LINE
  5
677
100
AcDbEntity
  8
0
100
AcDbLine
 62
7
  6
CONTINUOUS
 10
222.3953846107
 20
94.8668467781
 11
222.1449717153
 21
94.8668467781
  0
LINE
  5
678
100
AcDbEntity
  8
0
100
AcDbLine
 62
7
  6
CONTINUOUS
 10
222.3589766317
 20
95.6168471357
 11
222.1087835917
 21
95.6168471357
  0
LINE
  5
679
100
AcDbEntity
  8
0
100
AcDbLine
 62
7
  6
CONTINUOUS
 10
222.3362379972
 20
96.3668464205
 11
222.0861820729
 21
96.3668464205
  0
LINE
  5
67A
100
AcDbEntity
  8
0
100
AcDbLine
 62
7
  6
CONTINUOUS
 10
222.3281403742
 20
96.9293464205
 11
222.0781332431
 21
96.9293464205
  0
LINE
  5
67B
100
AcDbEntity
  8
0
100
AcDbLine
 62
7
  6
CONTINUOUS
 10
222.3270039915
 20
97.3043471357
 11
222.0770037062
 21
97.3043471357
  0
LINE
  5
67C
100
AcDbEntity
  8
0
100
AcDbLine
 62
7
  6
CONTINUOUS
 10
222.327714223
 20
97.4918464205
 11
222.0777096591
 21
97.4918464205
  0
LWPOLYLINE
  5
67D
100
AcDbEntity
  8
RUNDUNGEN
100
AcDbPolyline
 62
7
  6
CONTINUOUS
 90
6
 70
0
 10
245.9690055025
 20
110.3698035896
 10
246.2627177054
 20
110.0782994543
 10
246.5264649245
 20
109.7922386074
 10
246.7779758882
 20
109.4922062908
 10
247.0170472094
 20
109.1800603359
 10
247.2435159742
 20
108.8578095641
  0
LINE
  5
67E
100
AcDbEntity
  8
RUNDUNGEN
100
AcDbLine
 62
7
  6
CONTINUOUS
 10
281.1961554367
 20
110.3814473132
 11
281.3326623197
 21
110.5327649794
  0
LWPOLYLINE
  5
67F
100
AcDbEntity
  8
RUNDUNGEN
100
AcDbPolyline
 62
7
  6
CONTINUOUS
 90
5
 70
0
 10
279.1603770733
 20
107.983015184
 10
279.3315391863
 20
108.1240804241
 10
279.4895264355
 20
108.2797547282
 10
279.6330965023
 20
108.4488132869
 10
279.7659492199
 20
108.6374736803
  0
LINE
  5
680
100
AcDbEntity
  8
RUNDUNGEN
100
AcDbLine
 62
7
  6
CONTINUOUS
 10
248.1772968395
 20
86.6265036709
 11
248.1765951154
 21
86.6260673896
  0
LINE
  5
681
100
AcDbEntity
  8
0
100
AcDbLine
 62
7
  6
CONTINUOUS
 10
222.3498796843
 20
98.6168469569
 11
222.0997415176
 21
98.6168469569
  0
LINE
  5
682
100
AcDbEntity
  8
0
100
AcDbLine
 62
7
  6
CONTINUOUS
 10
222.3817278716
 20
99.3668471357
 11
222.1313974897
 21
99.3668471357
  0
LINE
  5
683
100
AcDbEntity
  8
0
100
AcDbLine
 62
7
  6
CONTINUOUS
 10
222.427267992
 20
100.1168465993
 11
222.176662247
 21
100.1168465993
  0
LINE
  5
684
100
AcDbEntity
  8
0
100
AcDbLine
 62
7
  6
CONTINUOUS
 10
222.4407974554
 20
100.3043469569
 11
222.1901097867
 21
100.3043469569
  0
LINE
  5
685
100
AcDbEntity
  8
0
100
AcDbLine
 62
7
  6
CONTINUOUS
 10
222.4551862525
 20
100.4918467781
 11
222.204411398
 21
100.4918467781
  0
LINE
  5
686
100
AcDbEntity
  8
0
100
AcDbLine
 62
7
  6
CONTINUOUS
 10
222.5035182211
 20
101.0543467781
 11
222.2524500664
 21
101.0543467781
  0
LINE
  5
687
100
AcDbEntity
  8
0
100
AcDbLine
 62
7
  6
CONTINUOUS
 10
222.5800531571
 20
101.8043465993
 11
222.3285191522
 21
101.8043465993
  0
LINE
  5
688
100
AcDbEntity
  8
RUNDUNGEN
100
AcDbLine
 62
7
  6
CONTINUOUS
 10
281.0629932615
 20
84.2336238751
 11
281.0631212451
 21
84.2335000159
  0
LWPOLYLINE
  5
689
100
AcDbEntity
  8
RUNDUNGEN
100
AcDbPolyline
 62
7
  6
CONTINUOUS
 90
6
 70
0
 10
281.0630039459
 20
84.2336373676
 10
280.8586860011
 20
84.43915915
 10
280.6028681325
 20
84.7195587781
 10
280.3585638177
 20
85.0132576921
 10
280.1259877215
 20
85.318506078
 10
279.9053069831
 20
85.6334385641
  0
LINE
  5
68A
100
AcDbEntity
  8
BEZUGSACHSEN
100
AcDbLine
 62
7
  6
CONTINUOUS
 10
271.4519566424
 20
90.7418467781
 11
271.4519566424
 21
103.7418467781
  0
LWPOLYLINE
  5
68B
100
AcDbEntity
  8
RUNDUNGEN
100
AcDbPolyline
 62
7
  6
CONTINUOUS
 90
11
 70
0
 10
281.6670982436
 20
111.0099740782
 10
281.734492492
 20
111.1302929645
 10
281.7988703764
 20
111.2569234506
 10
281.8597663333
 20
111.3915148679
 10
281.9161745347
 20
111.5351545165
 10
281.9666565378
 20
111.6882154817
 10
282.0098151612
 20
111.8516099585
 10
282.0437999917
 20
112.0251213462
 10
282.0667913841
 20
112.2089450108
 10
282.0767246391
 20
112.4024252601
 10
282.0769624685
 20
112.4342833288
  0
LINE
  5
68C
100
AcDbEntity
  8
RUNDUNGEN
100
AcDbLine
 62
7
  6
CONTINUOUS
 10
281.5973101627
 20
110.8950660494
 11
281.6670982436
 21
111.0099740782
  0
LINE
  5
68D
100
AcDbEntity
  8
RUNDUNGEN
100
AcDbLine
 62
7
  6
CONTINUOUS
 10
281.5843046641
 20
110.8745320646
 11
281.5973101627
 21
110.8950660494
  0
LINE
  5
68E
100
AcDbEntity
  8
RUNDUNGEN
100
AcDbLine
 62
7
  6
CONTINUOUS
 10
279.7649360313
 20
108.6358863899
 11
279.7657087358
 21
108.6370964067
  0
LINE
  5
68F
100
AcDbEntity
  8
RUNDUNGEN
100
AcDbLine
 62
7
  6
CONTINUOUS
 10
279.7643467195
 20
108.635096879
 11
279.9153048457
 21
108.8650739012
  0
LINE
  5
690
100
AcDbEntity
  8
RUNDUNGEN
100
AcDbLine
 62
7
  6
CONTINUOUS
 10
281.4587453806
 20
110.6919908638
 11
281.5844388802
 21
110.8747474186
  0
LWPOLYLINE
  5
691
100
AcDbEntity
  8
RUNDUNGEN
100
AcDbPolyline
 62
7
  6
CONTINUOUS
 90
6
 70
0
 10
279.9153048457
 20
108.8650739012
 10
280.1418119957
 20
109.1867948997
 10
280.3809185648
 20
109.4984307492
 10
280.6324783693
 20
109.7979580761
 10
280.8963459371
 20
110.0836021448
 10
281.1961554367
 20
110.3814473132
  0
LINE
  5
692
100
AcDbEntity
  8
RUNDUNGEN
100
AcDbLine
 62
7
  6
CONTINUOUS
 10
281.3326623197
 20
110.5327649794
 11
281.4587453806
 21
110.6919908638
  0
LINE
  5
693
100
AcDbEntity
  8
0
100
AcDbLine
 62
7
  6
CONTINUOUS
 10
222.6952675873
 20
102.7418467781
 11
222.44302904
 21
102.7418467781
  0
LINE
  5
694
100
AcDbEntity
  8
RUNDUNGEN
100
AcDbLine
 62
7
  6
CONTINUOUS
 10
253.5769566424
 20
103.7418467781
 11
273.5769566424
 21
103.7418467781
  0
LWPOLYLINE
  5
695
100
AcDbEntity
  8
RUNDUNGEN
100
AcDbPolyline
 62
7
  6
CONTINUOUS
 90
4
 70
0
 10
281.5572208134
 20
83.6280016076
 10
281.4903166222
 20
83.7289956378
 10
281.2992215093
 20
83.9800310639
 10
281.0632277706
 20
84.2333969089
  0
LINE
  5
696
100
AcDbEntity
  8
RUNDUNGEN
100
AcDbLine
 62
7
  6
CONTINUOUS
 10
279.9053069831
 20
85.6334385641
 11
279.7648626874
 21
85.8477805459
  0
LINE
  5
697
100
AcDbEntity
  8
RUNDUNGEN
100
AcDbLine
 62
7
  6
CONTINUOUS
 10
279.7647887114
 20
85.8478995111
 11
279.7647008366
 21
85.8480372058
  0
LINE
  5
698
100
AcDbEntity
  8
RUNDUNGEN
100
AcDbLine
 62
7
  6
CONTINUOUS
 10
281.5572208134
 20
83.6280016076
 11
281.5575426298
 21
83.6274961836
  0
LINE
  5
699
100
AcDbEntity
  8
0
100
AcDbLine
 62
7
  6
CONTINUOUS
 10
223.5574301584
 20
107.2418467781
 11
223.2997918961
 21
107.2418467781
  0
LINE
  5
69A
100
AcDbEntity
  8
0
100
AcDbLine
 62
7
  6
CONTINUOUS
 10
223.7022015017
 20
107.8043465993
 11
223.4436338604
 21
107.8043465993
  0
LINE
  5
69B
100
AcDbEntity
  8
0
100
AcDbLine
 62
7
  6
CONTINUOUS
 10
223.9624075474
 20
108.7418467781
 11
223.7021525677
 21
108.7418467781
  0
LINE
  5
69C
100
AcDbEntity
  8
0
100
AcDbLine
 62
7
  6
CONTINUOUS
 10
225.5564029905
 20
113.2418467781
 11
225.2853126453
 21
113.2418467781
  0
LWPOLYLINE
  5
69D
100
AcDbEntity
  8
RUNDUNGEN
100
AcDbPolyline
 62
7
  6
CONTINUOUS
 90
14
 70
0
 10
282.076959926
 20
81.9048146579
 10
282.0768229706
 20
81.9345355263
 10
282.0700260739
 20
82.1109069151
 10
282.0535783914
 20
82.2822335032
 10
282.0283638498
 20
82.4476962789
 10
281.9952970706
 20
82.6067862146
 10
281.9553312278
 20
82.7590660074
 10
281.909323675
 20
82.9045291018
 10
281.8583427593
 20
83.0425584117
 10
281.8032396579
 20
83.1733207623
 10
281.7451505974
 20
83.2963412038
 10
281.6848250703
 20
83.4120664449
 10
281.6232899299
 20
83.520359769
 10
281.5575403068
 20
83.6274947524
  0
LINE
  5
69E
100
AcDbEntity
  8
RUNDUNGEN
100
AcDbLine
 62
7
  6
CONTINUOUS
 10
282.0769566424
 20
62.2731105933
 11
282.0769566424
 21
84.079400197
  0
LINE
  5
69F
100
AcDbEntity
  8
0
100
AcDbLine
 62
7
  6
CONTINUOUS
 10
282.0769566424
 20
67.9918467781
 11
282.0769566424
 21
81.5973589309
  0
LINE
  5
6A0
100
AcDbEntity
  8
0
100
AcDbLine
 62
7
  6
CONTINUOUS
 10
282.0769566424
 20
112.7095550764
 11
282.0769566424
 21
126.4918467781
  0
LINE
  5
6A1
100
AcDbEntity
  8
RUNDUNGEN
100
AcDbLine
 62
7
  6
CONTINUOUS
 10
282.0769566424
 20
110.4042933592
 11
282.0769566424
 21
132.2105857472
  0
LINE
  5
6A2
100
AcDbEntity
  8
0
100
AcDbLine
 62
7
  6
CONTINUOUS
 10
282.5769566424
 20
126.0402562332
 11
282.5769566424
 21
124.8117965265
  0
LINE
  5
6A3
100
AcDbEntity
  8
0
100
AcDbLine
 62
7
  6
CONTINUOUS
 10
282.5769566424
 20
124.7657672432
 11
282.5769566424
 21
118.0407742356
  0
LINE
  5
6A4
100
AcDbEntity
  8
0
100
AcDbLine
 62
7
  6
CONTINUOUS
 10
282.5769566424
 20
77.1718467781
 11
282.5769566424
 21
70.6566505342
  0
LINE
  5
6A5
100
AcDbEntity
  8
0
100
AcDbLine
 62
7
  6
CONTINUOUS
 10
282.0769566424
 20
118.0405152344
 11
282.5769566424
 21
118.0405152344
  0
LINE
  5
6A6
100
AcDbEntity
  8
0
100
AcDbLine
 62
7
  6
CONTINUOUS
 10
282.0769566424
 20
118.060565486
 11
282.5769566424
 21
118.060565486
  0
LINE
  5
6A7
100
AcDbEntity
  8
0
100
AcDbLine
 62
7
  6
CONTINUOUS
 10
282.0769566424
 20
119.2692339423
 11
282.5769566424
 21
119.2692339423
  0
LINE
  5
6A8
100
AcDbEntity
  8
0
100
AcDbLine
 62
7
  6
CONTINUOUS
 10
282.0769566424
 20
121.4318467781
 11
282.5769566424
 21
121.4318467781
  0
LINE
  5
6A9
100
AcDbEntity
  8
0
100
AcDbLine
 62
7
  6
CONTINUOUS
 10
282.0769566424
 20
122.6405152344
 11
282.5769566424
 21
122.6405152344
  0
LINE
  5
6AA
100
AcDbEntity
  8
0
100
AcDbLine
 62
7
  6
CONTINUOUS
 10
282.0769566424
 20
124.8117965265
 11
282.5769566424
 21
124.8117965265
  0
LINE
  5
6AB
100
AcDbEntity
  8
0
100
AcDbLine
 62
7
  6
CONTINUOUS
 10
282.0769566424
 20
126.0204649828
 11
282.5769566424
 21
126.0204649828
  0
LINE
  5
6AC
100
AcDbEntity
  8
0
100
AcDbLine
 62
7
  6
CONTINUOUS
 10
282.0769566424
 20
126.0405152344
 11
282.5769566424
 21
126.0405152344
  0
LINE
  5
6AD
100
AcDbEntity
  8
RUNDUNGEN
100
AcDbLine
 62
7
  6
CONTINUOUS
 10
248.0769566424
 20
129.4918467781
 11
279.0769566424
 21
129.4918467781
  0
LINE
  5
6AE
100
AcDbEntity
  8
KONSTRUKTIONSELEMENTE
100
AcDbLine
 62
7
  6
CONTINUOUS
 10
289.6891159641
 20
57.4694334186
 11
311.0769566424
 21
94.5142601376
  0
LINE
  5
6AF
100
AcDbEntity
  8
KONSTRUKTIONSELEMENTE
100
AcDbLine
 62
7
  6
CONTINUOUS
 10
284.9647973207
 20
139.7418467781
 11
242.1891159641
 21
139.7418467781
  0
LINE
  5
6B0
100
AcDbEntity
  8
KONSTRUKTIONSELEMENTE
100
AcDbLine
 62
7
  6
CONTINUOUS
 10
311.0769566424
 20
99.9694334186
 11
289.6891159641
 21
137.0142601376
  0
LINE
  5
6B1
100
AcDbEntity
  8
KONSTRUKTIONSELEMENTE
100
AcDbLine
 62
7
  6
CONTINUOUS
 10
311.0769566424
 20
94.5142601376
 11
311.0769566424
 21
99.9694334186
  0
LINE
  5
6B2
100
AcDbEntity
  8
KONSTRUKTIONSELEMENTE
100
AcDbLine
 62
7
  6
CONTINUOUS
 10
284.9647973207
 20
54.7418467781
 11
289.6891159641
 21
57.4694334186
  0
LINE
  5
6B3
100
AcDbEntity
  8
KONSTRUKTIONSELEMENTE
100
AcDbLine
 62
7
  6
CONTINUOUS
 10
289.6891159641
 20
137.0142601376
 11
284.9647973207
 21
139.7418467781
  0
ARC
  5
6B4
100
AcDbEntity
  8
RUNDUNGEN
100
AcDbCircle
 62
7
  6
CONTINUOUS
 10
263.5769566424
 20
439.9533349241
 40
18.5
100
AcDbArc
 50
0.0
 51
180.0
  0
ARC
  5
6B5
100
AcDbEntity
  8
RUNDUNGEN
100
AcDbCircle
 62
7
  6
CONTINUOUS
 10
240.0769566424
 20
403.4533349241
 40
5.0
100
AcDbArc
 50
270.0000058206
 51
0.0008111621
  0
ARC
  5
6B6
100
AcDbEntity
  8
RUNDUNGEN
100
AcDbCircle
 62
7
  6
CONTINUOUS
 10
287.0769566424
 20
403.4533349241
 40
5.0
100
AcDbArc
 50
179.9995932686
 51
269.9999819927
  0
ARC
  5
6B7
100
AcDbEntity
  8
RUNDUNGEN
100
AcDbCircle
 62
7
  6
CONTINUOUS
 10
301.8269566424
 20
395.4533349241
 40
3.0
100
AcDbArc
 50
0.0
 51
90.0
  0
ARC
  5
6B8
100
AcDbEntity
  8
RUNDUNGEN
100
AcDbCircle
 62
7
  6
CONTINUOUS
 10
225.3269566424
 20
395.4533349241
 40
3.0
100
AcDbArc
 50
90.0
 51
180.0
  0
ARC
  5
6B9
100
AcDbEntity
  8
0
100
AcDbCircle
 62
7
  6
CONTINUOUS
 10
469.2595706331
 20
474.9533349241
 40
22.0
100
AcDbArc
 50
230.8513123577
 51
248.4479111128
  0
ARC
  5
6BA
100
AcDbEntity
  8
0
100
AcDbCircle
 62
7
  6
CONTINUOUS
 10
469.2595706331
 20
474.9533349241
 40
22.0
100
AcDbArc
 50
291.5520888872
 51
308.7394245979
  0
ARC
  5
6BB
100
AcDbEntity
  8
RUNDUNGEN
100
AcDbCircle
 62
7
  6
CONTINUOUS
 10
469.2595706331
 20
416.4533349241
 40
15.0
100
AcDbArc
 50
131.9996754234
 51
48.0003918211
  0
ARC
  5
6BC
100
AcDbEntity
  8
RUNDUNGEN
100
AcDbCircle
 62
7
  6
CONTINUOUS
 10
479.2595706331
 20
432.3434999788
 40
3.5
100
AcDbArc
 50
180.0
 51
228.0000004995
  0
ARC
  5
6BD
100
AcDbEntity
  8
RUNDUNGEN
100
AcDbCircle
 62
7
  6
CONTINUOUS
 10
459.2595706331
 20
432.3434999788
 40
3.5
100
AcDbArc
 50
312.000000001
 51
360.0
  0
ARC
  5
6BE
100
AcDbEntity
  8
RUNDUNGEN
100
AcDbCircle
 62
7
  6
CONTINUOUS
 10
433.5095706331
 20
431.9796143657
 40
3.5
100
AcDbArc
 50
330.0
 51
360.0
  0
ARC
  5
6BF
100
AcDbEntity
  8
RUNDUNGEN
100
AcDbCircle
 62
7
  6
CONTINUOUS
 10
505.0095706331
 20
431.9796143657
 40
3.5
100
AcDbArc
 50
180.0
 51
210.0
  0
ARC
  5
6C0
100
AcDbEntity
  8
RUNDUNGEN
100
AcDbCircle
 62
7
  6
CONTINUOUS
 10
445.8861657654
 20
455.4533348505
 40
3.0
100
AcDbArc
 50
90.0000013153
 51
139.9999999999
  0
ARC
  5
6C1
100
AcDbEntity
  8
RUNDUNGEN
100
AcDbCircle
 62
7
  6
CONTINUOUS
 10
492.6329756043
 20
455.4533347272
 40
3.0
100
AcDbArc
 50
40.0000000004
 51
89.9999964842
  0
ARC
  5
6C2
100
AcDbEntity
  8
RUNDUNGEN
100
AcDbCircle
 62
7
  6
CONTINUOUS
 10
484.9040584803
 20
455.4533349241
 40
3.0
100
AcDbArc
 50
90.0
 51
128.7394245979
  0
ARC
  5
6C3
100
AcDbEntity
  8
RUNDUNGEN
100
AcDbCircle
 62
7
  6
CONTINUOUS
 10
440.0095706331
 20
448.4498814894
 40
3.0
100
AcDbArc
 50
140.0
 51
180.0
  0
ARC
  5
6C4
100
AcDbEntity
  8
RUNDUNGEN
100
AcDbCircle
 62
7
  6
CONTINUOUS
 10
498.5095706331
 20
448.4498814894
 40
3.0
100
AcDbArc
 50
0.0
 51
40.0
  0
ARC
  5
6C5
100
AcDbEntity
  8
RUNDUNGEN
100
AcDbCircle
 62
7
  6
CONTINUOUS
 10
507.5095682145
 20
414.6494915359
 40
3.0
100
AcDbArc
 50
359.9999199934
 51
29.9999076162
  0
ARC
  5
6C6
100
AcDbEntity
  8
RUNDUNGEN
100
AcDbCircle
 62
7
  6
CONTINUOUS
 10
431.0095730286
 20
414.6494914958
 40
3.0
100
AcDbArc
 50
150.0000915004
 51
180.0000792416
  0
ARC
  5
6C7
100
AcDbEntity
  8
RUNDUNGEN
100
AcDbCircle
 62
7
  6
CONTINUOUS
 10
478.2595706331
 20
452.1662771938
 40
2.5
100
AcDbArc
 50
111.5520888872
 51
180.0
  0
ARC
  5
6C8
100
AcDbEntity
  8
RUNDUNGEN
100
AcDbCircle
 62
7
  6
CONTINUOUS
 10
460.2595706331
 20
452.1662771938
 40
2.5
100
AcDbArc
 50
0.0
 51
68.4479111128
  0
ARC
  5
6C9
100
AcDbEntity
  8
RUNDUNGEN
100
AcDbCircle
 62
7
  6
CONTINUOUS
 10
453.7918623349
 20
455.9533349241
 40
2.5
100
AcDbArc
 50
50.8513123577
 51
90.0
  0
ARC
  5
6CA
100
AcDbEntity
  8
RUNDUNGEN
100
AcDbCircle
 62
7
  6
CONTINUOUS
 10
248.0769566424
 20
62.2731107415
 40
3.0
100
AcDbArc
 50
180.0000517236
 51
246.0943149491
  0
ARC
  5
6CB
100
AcDbEntity
  8
RUNDUNGEN
100
AcDbCircle
 62
7
  6
CONTINUOUS
 10
248.0769566424
 20
67.9918467781
 40
3.0
100
AcDbArc
 50
180.0
 51
270.0
  0
ARC
  5
6CC
100
AcDbEntity
  8
RUNDUNGEN
100
AcDbCircle
 62
7
  6
CONTINUOUS
 10
248.0769566424
 20
81.5973589309
 40
3.0
100
AcDbArc
 50
141.2605754021
 51
180.0
  0
ARC
  5
6CD
100
AcDbEntity
  8
RUNDUNGEN
100
AcDbCircle
 62
7
  6
CONTINUOUS
 10
253.5769566424
 20
88.2418467781
 40
2.5
100
AcDbArc
 50
90.0
 51
143.1304213557
  0
ARC
  5
6CE
100
AcDbEntity
  8
RUNDUNGEN
100
AcDbCircle
 62
7
  6
CONTINUOUS
 10
249.5096485046
 20
84.5110806118
 40
2.4999999916
100
AcDbArc
 50
121.9275116606
 51
148.6930113691
  0
ARC
  5
6CF
100
AcDbEntity
  8
RUNDUNGEN
100
AcDbCircle
 62
7
  6
CONTINUOUS
 10
228.5769566424
 20
97.2418467781
 40
22.0
100
AcDbArc
 50
31.3069722275
 51
39.1486876423
  0
ARC
  5
6D0
100
AcDbEntity
  8
RUNDUNGEN
100
AcDbCircle
 62
7
  6
CONTINUOUS
 10
228.5769566424
 20
97.2418467781
 40
22.0
100
AcDbArc
 50
321.2605754021
 51
328.6930277725
  0
ARC
  5
6D1
100
AcDbEntity
  8
RUNDUNGEN
100
AcDbCircle
 62
7
  6
CONTINUOUS
 10
241.5769566424
 20
97.2418467781
 40
12.5
100
AcDbArc
 50
36.8698953643
 51
58.1275704689
  0
ARC
  5
6D2
100
AcDbEntity
  8
RUNDUNGEN
100
AcDbCircle
 62
7
  6
CONTINUOUS
 10
241.5769566424
 20
97.2418467781
 40
12.5
100
AcDbArc
 50
301.8722583998
 51
323.1300385539
  0
ARC
  5
6D3
100
AcDbEntity
  8
RUNDUNGEN
100
AcDbCircle
 62
7
  6
CONTINUOUS
 10
253.5769566424
 20
106.2418467781
 40
2.5
100
AcDbArc
 50
216.8699090534
 51
270.0
  0
ARC
  5
6D4
100
AcDbEntity
  8
RUNDUNGEN
100
AcDbCircle
 62
7
  6
CONTINUOUS
 10
247.5769566424
 20
112.7095550764
 40
2.5
100
AcDbArc
 50
180.0
 51
219.1486876423
  0
ARC
  5
6D5
100
AcDbEntity
  8
RUNDUNGEN
100
AcDbCircle
 62
7
  6
CONTINUOUS
 10
249.5096489501
 20
109.9726123777
 40
2.5
100
AcDbArc
 50
211.3069722275
 51
238.0724728042
  0
ARC
  5
6D6
100
AcDbEntity
  8
RUNDUNGEN
100
AcDbCircle
 62
7
  6
CONTINUOUS
 10
249.4964744495
 20
109.9808118977
 40
2.4999998081
100
AcDbArc
 50
212.5504964493
 51
238.1317460926
  0
ARC
  5
6D7
100
AcDbEntity
  8
RUNDUNGEN
100
AcDbCircle
 62
7
  6
CONTINUOUS
 10
248.0769566424
 20
126.4918467781
 40
3.0
100
AcDbArc
 50
90.0
 51
180.0
  0
ARC
  5
6D8
100
AcDbEntity
  8
RUNDUNGEN
100
AcDbCircle
 62
7
  6
CONTINUOUS
 10
248.0769566424
 20
132.2105828147
 40
3.0
100
AcDbArc
 50
113.9054283119
 51
179.9999997994
  0
ARC
  5
6D9
100
AcDbEntity
  8
RUNDUNGEN
100
AcDbCircle
 62
7
  6
CONTINUOUS
 10
279.0769566424
 20
67.9918467781
 40
3.0
100
AcDbArc
 50
270.0
 51
360.0
  0
ARC
  5
6DA
100
AcDbEntity
  8
RUNDUNGEN
100
AcDbCircle
 62
7
  6
CONTINUOUS
 10
279.0769566424
 20
62.2731107415
 40
3.0
100
AcDbArc
 50
293.9053769945
 51
359.9999971712
  0
ARC
  5
6DB
100
AcDbEntity
  8
RUNDUNGEN
100
AcDbCircle
 62
7
  6
CONTINUOUS
 10
279.0769566424
 20
81.5973589309
 40
3.0
100
AcDbArc
 50
0.0
 51
38.7394245979
  0
ARC
  5
6DC
100
AcDbEntity
  8
RUNDUNGEN
100
AcDbCircle
 62
7
  6
CONTINUOUS
 10
273.5769566424
 20
88.2418467781
 40
2.5
100
AcDbArc
 50
36.8699444981
 51
90.0
  0
ARC
  5
6DD
100
AcDbEntity
  8
RUNDUNGEN
100
AcDbCircle
 62
7
  6
CONTINUOUS
 10
277.6442643347
 20
84.5110811785
 40
2.5
100
AcDbArc
 50
31.3069722275
 51
58.0724728042
  0
ARC
  5
6DE
100
AcDbEntity
  8
RUNDUNGEN
100
AcDbCircle
 62
7
  6
CONTINUOUS
 10
277.6574345284
 20
84.5028842931
 40
2.4999998446
100
AcDbArc
 50
32.5502064668
 51
58.1317268081
  0
ARC
  5
6DF
100
AcDbEntity
  8
0
100
AcDbCircle
 62
7
  6
CONTINUOUS
 10
263.5769566424
 20
97.2418467781
 40
41.5
100
AcDbArc
 50
157.3225971215
 51
205.3223719953
  0
CIRCLE
  5
6E0
100
AcDbEntity
  8
RUNDUNGEN
100
AcDbCircle
 62
7
  6
CONTINUOUS
 10
263.5769566424
 20
97.2418467781
 40
41.25
  0
ARC
  5
6E1
100
AcDbEntity
  8
RUNDUNGEN
100
AcDbCircle
 62
7
  6
CONTINUOUS
 10
273.5769566424
 20
106.2418467781
 40
2.5
100
AcDbArc
 50
270.0
 51
323.1303313437
  0
ARC
  5
6E2
100
AcDbEntity
  8
RUNDUNGEN
100
AcDbCircle
 62
7
  6
CONTINUOUS
 10
279.5769566424
 20
112.7095550764
 40
2.5
100
AcDbArc
 50
320.8513123577
 51
360.0
  0
ARC
  5
6E3
100
AcDbEntity
  8
RUNDUNGEN
100
AcDbCircle
 62
7
  6
CONTINUOUS
 10
277.6442647337
 20
109.9726128835
 40
2.4999999924
100
AcDbArc
 50
301.9275133047
 51
328.6930131171
  0
ARC
  5
6E4
100
AcDbEntity
  8
RUNDUNGEN
100
AcDbCircle
 62
7
  6
CONTINUOUS
 10
279.0769566424
 20
126.4918467781
 40
3.0
100
AcDbArc
 50
0.0
 51
90.0
  0
ARC
  5
6E5
100
AcDbEntity
  8
RUNDUNGEN
100
AcDbCircle
 62
7
  6
CONTINUOUS
 10
279.0769566424
 20
132.2105828147
 40
3.0
100
AcDbArc
 50
0.0000449366
 51
66.0943170742
  0
ARC
  5
6E6
100
AcDbEntity
  8
0
100
AcDbCircle
 62
7
  6
CONTINUOUS
 10
298.5769566424
 20
97.2418467781
 40
22.0
100
AcDbArc
 50
140.8513123577
 51
148.6930277725
  0
ARC
  5
6E7
100
AcDbEntity
  8
0
100
AcDbCircle
 62
7
  6
CONTINUOUS
 10
298.5769566424
 20
97.2418467781
 40
22.0
100
AcDbArc
 50
211.3069722275
 51
218.7394245979
  0
ARC
  5
6E8
100
AcDbEntity
  8
RUNDUNGEN
100
AcDbCircle
 62
7
  6
CONTINUOUS
 10
298.5769566424
 20
97.2418467781
 40
22.0
100
AcDbArc
 50
140.8513123577
 51
148.6930277725
  0
ARC
  5
6E9
100
AcDbEntity
  8
RUNDUNGEN
100
AcDbCircle
 62
7
  6
CONTINUOUS
 10
298.5769566424
 20
97.2418467781
 40
22.0
100
AcDbArc
 50
211.3069722275
 51
218.7394245979
  0
ARC
  5
6EA
100
AcDbEntity
  8
RUNDUNGEN
100
AcDbCircle
 62
7
  6
CONTINUOUS
 10
285.5769566424
 20
97.2418467781
 40
12.5
100
AcDbArc
 50
216.8698882754
 51
238.1251784539
  0
ARC
  5
6EB
100
AcDbEntity
  8
RUNDUNGEN
100
AcDbCircle
 62
7
  6
CONTINUOUS
 10
285.5769566424
 20
97.2418467781
 40
12.5
100
AcDbArc
 50
121.8722481371
 51
143.1300565563
  0
ELLIPSE
  5
6EC
100
AcDbEntity
  8
0
100
AcDbEllipse
 62
7
  6
CONTINUOUS
 10
263.5769566424
 20
360.9107815172
 30
0.0
 11
41.5
 21
-0.0
 31
0.0
 40
0.1702127606
 41
-2.7392595102
 42
-2.7096072081
  0
ELLIPSE
  5
6ED
100
AcDbEntity
  8
0
100
AcDbEllipse
 62
7
  6
CONTINUOUS
 10
263.5769566424
 20
363.6767387547
 30
0.0
 11
41.5
 21
0.0
 31
0.0
 40
0.3404255211
 41
-2.7539445979
 42
-2.7392595102
  0
ELLIPSE
  5
6EE
100
AcDbEntity
  8
0
100
AcDbEllipse
 62
7
  6
CONTINUOUS
 10
263.5769566424
 20
369.017163874
 30
0.0
 11
41.5
 21
-0.0
 31
0.0
 40
0.6808510423
 41
-2.7685421488
 42
-2.7539445979
  0
ELLIPSE
  5
6EF
100
AcDbEntity
  8
0
100
AcDbEllipse
 62
7
  6
CONTINUOUS
 10
263.5769566424
 20
389.6130247789
 30
0.0
 11
0.0
 21
84.7662781204
 31
0.0
 40
0.4895814812
 41
-4.3490237897
 42
-4.3393384756
  0
ELLIPSE
  5
6F0
100
AcDbEntity
  8
0
100
AcDbEllipse
 62
7
  6
CONTINUOUS
 10
263.5769566424
 20
359.2937636084
 30
0.0
 11
41.5
 21
-0.0
 31
0.0
 40
0.6127654169
 41
2.9751627276
 42
2.9980277054
  0
ELLIPSE
  5
6F1
100
AcDbEntity
  8
0
100
AcDbEllipse
 62
7
  6
CONTINUOUS
 10
263.5769566424
 20
362.1022688473
 30
0.0
 11
41.5
 21
-0.0
 31
0.0
 40
0.2042556065
 41
2.9522096206
 42
2.9751627276
  0
ELLIPSE
  5
6F2
100
AcDbEntity
  8
0
100
AcDbEllipse
 62
7
  6
CONTINUOUS
 10
263.5769566424
 20
359.5490818432
 30
0.0
 11
41.5
 21
0.0
 31
0.0
 40
0.2042556244
 41
-2.9751627276
 42
-2.9522096206
  0
ELLIPSE
  5
6F3
100
AcDbEntity
  8
0
100
AcDbEllipse
 62
7
  6
CONTINUOUS
 10
263.5769566424
 20
362.3575873279
 30
0.0
 11
41.5
 21
-0.0
 31
0.0
 40
0.6127654705
 41
-2.9980277054
 42
-2.9751627276
  0
ELLIPSE
  5
6F4
100
AcDbEntity
  8
0
100
AcDbEllipse
 62
7
  6
CONTINUOUS
 10
263.5769566424
 20
366.8043984736
 30
0.0
 11
-0.0
 21
56.5106365085
 31
0.0
 40
0.7343750233
 41
1.7006792696
 42
1.714361275
  0
ELLIPSE
  5
6F5
100
AcDbEntity
  8
0
100
AcDbEllipse
 62
7
  6
CONTINUOUS
 10
263.5769566424
 20
370.4639528467
 30
0.0
 11
0.0
 21
84.7658005055
 31
0.0
 40
0.4895842398
 41
-4.5916136656
 42
-4.5825060376
  0
ELLIPSE
  5
6F6
100
AcDbEntity
  8
0
100
AcDbEllipse
 62
7
  6
CONTINUOUS
 10
263.5769566424
 20
356.628871666
 30
0.0
 11
41.5
 21
0.0
 31
0.0
 40
0.2553186315
 41
2.9059851462
 42
2.9245307254
  0
ELLIPSE
  5
6F7
100
AcDbEntity
  8
0
100
AcDbEllipse
 62
7
  6
CONTINUOUS
 10
263.5769566424
 20
352.5065267099
 30
0.0
 11
41.5
 21
-0.0
 31
0.0
 40
0.6808509827
 41
2.8920219673
 42
2.9059851462
  0
ELLIPSE
  5
6F8
100
AcDbEntity
  8
0
100
AcDbEllipse
 62
7
  6
CONTINUOUS
 10
263.5769566424
 20
343.7830593209
 30
0.0
 11
-0.0
 21
63.5747178663
 31
0.0
 40
0.6527752131
 41
1.3118893838
 42
1.3212256405
  0
ELLIPSE
  5
6F9
100
AcDbEntity
  8
0
100
AcDbEllipse
 62
7
  6
CONTINUOUS
 10
263.5769566424
 20
327.5067808618
 30
0.0
 11
0.0
 21
127.147950951
 31
0.0
 40
0.3263914179
 41
1.3072125849
 42
1.3118893838
  0
ELLIPSE
  5
6FA
100
AcDbEntity
  8
0
100
AcDbEllipse
 62
7
  6
CONTINUOUS
 10
263.5769566424
 20
394.1445851563
 30
0.0
 11
0.0
 21
127.1480103168
 31
0.0
 40
0.3263912656
 41
-4.4534820374
 42
-4.4488052384
  0
ELLIPSE
  5
6FB
100
AcDbEntity
  8
0
100
AcDbEllipse
 62
7
  6
CONTINUOUS
 10
263.5769566424
 20
377.8682876983
 30
0.0
 11
0.0
 21
63.5747030247
 31
0.0
 40
0.6527753654
 41
-4.4628182941
 42
-4.4534820374
  0
ELLIPSE
  5
6FC
100
AcDbEntity
  8
0
100
AcDbEllipse
 62
7
  6
CONTINUOUS
 10
263.5769566424
 20
369.1448239751
 30
0.0
 11
41.5
 21
-0.0
 31
0.0
 40
0.6808509827
 41
-2.9059851462
 42
-2.8920219673
  0
ELLIPSE
  5
6FD
100
AcDbEntity
  8
0
100
AcDbEllipse
 62
7
  6
CONTINUOUS
 10
263.5769566424
 20
365.0224790189
 30
0.0
 11
41.5
 21
0.0
 31
0.0
 40
0.2553186315
 41
-2.9245307254
 42
-2.9059851462
  0
ELLIPSE
  5
6FE
100
AcDbEntity
  8
0
100
AcDbEllipse
 62
7
  6
CONTINUOUS
 10
263.5769566424
 20
365.9958829452
 30
0.0
 11
0.0
 21
127.148678496
 31
0.0
 40
0.3263895503
 41
-4.6973281787
 42
-4.6928094162
  0
ELLIPSE
  5
6FF
100
AcDbEntity
  8
0
100
AcDbEllipse
 62
7
  6
CONTINUOUS
 10
263.5769566424
 20
364.6129091347
 30
0.0
 11
-0.0
 21
56.5106315613
 31
0.0
 40
0.7343750875
 41
-4.6928094162
 42
-4.6792503853
  0
ELLIPSE
  5
700
100
AcDbEntity
  8
0
100
AcDbEllipse
 62
7
  6
CONTINUOUS
 10
263.5769566424
 20
363.793759794
 30
0.0
 11
41.5
 21
0.0
 31
0.0
 40
0.7659569903
 41
-3.1084540585
 42
-3.0903654233
  0
ELLIPSE
  5
701
100
AcDbEntity
  8
0
100
AcDbEllipse
 62
7
  6
CONTINUOUS
 10
263.5769566424
 20
366.3278028451
 30
0.0
 11
41.5
 21
-0.0
 31
0.0
 40
0.2042553727
 41
3.0677303301
 42
3.0903654233
  0
ELLIPSE
  5
702
100
AcDbEntity
  8
0
100
AcDbEllipse
 62
7
  6
CONTINUOUS
 10
263.5769566424
 20
365.1341867069
 30
0.0
 11
41.5
 21
0.0
 31
0.0
 40
0.7659569903
 41
3.0903654233
 42
3.1084540585
  0
ELLIPSE
  5
703
100
AcDbEntity
  8
0
100
AcDbEllipse
 62
7
  6
CONTINUOUS
 10
263.5769566424
 20
364.3150373662
 30
0.0
 11
0.0
 21
56.5106315613
 31
0.0
 40
0.7343750875
 41
1.5376577317
 42
1.5512167626
  0
ELLIPSE
  5
704
100
AcDbEntity
  8
0
100
AcDbEllipse
 62
7
  6
CONTINUOUS
 10
263.5769566424
 20
362.9320635558
 30
0.0
 11
0.0
 21
127.148678496
 31
0.0
 40
0.3263895503
 41
1.5512167626
 42
1.5557355251
  0
ELLIPSE
  5
705
100
AcDbEntity
  8
0
100
AcDbEllipse
 62
7
  6
CONTINUOUS
 10
263.5769566424
 20
370.1980133488
 30
0.0
 11
41.5
 21
0.0
 31
0.0
 40
0.255319362
 41
2.8450989987
 42
2.8639426762
  0
ELLIPSE
  5
706
100
AcDbEntity
  8
0
100
AcDbEllipse
 62
7
  6
CONTINUOUS
 10
263.5769566424
 20
365.0384398616
 30
0.0
 11
41.5
 21
0.0
 31
0.0
 40
0.6808512211
 41
2.8308950911
 42
2.8450989987
  0
ELLIPSE
  5
707
100
AcDbEntity
  8
0
100
AcDbEllipse
 62
7
  6
CONTINUOUS
 10
263.5769566424
 20
354.2406095135
 30
0.0
 11
-0.0
 21
63.574339248
 31
0.0
 40
0.6527791007
 41
1.250593551
 42
1.2600987643
  0
ELLIPSE
  5
708
100
AcDbEntity
  8
0
100
AcDbEllipse
 62
7
  6
CONTINUOUS
 10
263.5769566424
 20
320.8893079328
 30
0.0
 11
0.0
 21
169.5325413992
 31
0.0
 40
0.244790762
 41
1.2458297721
 42
1.250593551
  0
ELLIPSE
  5
709
100
AcDbEntity
  8
0
100
AcDbEllipse
 62
7
  6
CONTINUOUS
 10
263.5769566424
 20
432.0173616471
 30
0.0
 11
0.0
 21
169.5325413992
 31
0.0
 40
0.244790762
 41
-4.3921862046
 42
-4.3874224257
  0
ELLIPSE
  5
70A
100
AcDbEntity
  8
0
100
AcDbEllipse
 62
7
  6
CONTINUOUS
 10
263.5769566424
 20
398.6660787524
 30
0.0
 11
0.0
 21
63.5743986141
 31
0.0
 40
0.6527784911
 41
-4.4016914179
 42
-4.3921862046
  0
ELLIPSE
  5
70B
100
AcDbEntity
  8
0
100
AcDbEllipse
 62
7
  6
CONTINUOUS
 10
263.5769566424
 20
387.8682272298
 30
0.0
 11
41.5
 21
0.0
 31
0.0
 40
0.6808509827
 41
-2.8450989987
 42
-2.8308950911
  0
ELLIPSE
  5
70C
100
AcDbEntity
  8
0
100
AcDbEllipse
 62
7
  6
CONTINUOUS
 10
263.5769566424
 20
382.7086566335
 30
0.0
 11
41.5
 21
-0.0
 31
0.0
 40
0.255319362
 41
-2.8639426762
 42
-2.8450989987
  0
ELLIPSE
  5
70D
100
AcDbEntity
  8
0
100
AcDbEllipse
 62
7
  6
CONTINUOUS
 10
263.5769566424
 20
372.2852498607
 30
0.0
 11
41.5
 21
0.0
 31
0.0
 40
0.2042553906
 41
-3.1250256307
 42
-3.1024260227
  0
ELLIPSE
  5
70E
100
AcDbEntity
  8
0
100
AcDbEllipse
 62
7
  6
CONTINUOUS
 10
263.5769566424
 20
372.4958879463
 30
0.0
 11
41.5
 21
0.0
 31
0.0
 40
0.5106380606
 41
-3.1415926113
 42
-3.1250256307
  0
ELLIPSE
  5
70F
100
AcDbEntity
  8
0
100
AcDbEllipse
 62
7
  6
CONTINUOUS
 10
263.5769566424
 20
373.9958857054
 30
0.0
 11
0.0
 21
169.5325413992
 31
0.0
 40
0.244790762
 41
1.5647722026
 42
1.5692902935
  0
ELLIPSE
  5
710
100
AcDbEntity
  8
0
100
AcDbEllipse
 62
7
  6
CONTINUOUS
 10
263.5769566424
 20
372.4958884741
 30
0.0
 11
41.5
 21
0.0
 31
0.0
 40
0.2553189968
 41
3.0662200949
 42
3.0843324529
  0
ELLIPSE
  5
711
100
AcDbEntity
  8
0
100
AcDbEllipse
 62
7
  6
CONTINUOUS
 10
263.5769566424
 20
371.1661001209
 30
0.0
 11
41.5
 21
-0.0
 31
0.0
 40
0.6808512211
 41
3.0526198827
 42
3.0662200949
  0
ELLIPSE
  5
712
100
AcDbEntity
  8
0
100
AcDbEllipse
 62
7
  6
CONTINUOUS
 10
263.5769566424
 20
368.0277978102
 30
0.0
 11
-0.0
 21
63.5745211358
 31
0.0
 40
0.6527772331
 41
1.4727477373
 42
1.4818235559
  0
ELLIPSE
  5
713
100
AcDbEntity
  8
0
100
AcDbEllipse
 62
7
  6
CONTINUOUS
 10
263.5769566424
 20
357.6554962101
 30
0.0
 11
-0.0
 21
169.531571328
 31
0.0
 40
0.2447921628
 41
1.4682068219
 42
1.4727477373
  0
ELLIPSE
  5
714
100
AcDbEntity
  8
0
100
AcDbEllipse
 62
7
  6
CONTINUOUS
 10
263.5769566424
 20
343.9958875835
 30
0.0
 11
0.0
 21
56.1702109873
 31
0.0
 40
0.7343750233
 41
1.2914185615
 42
1.3055766923
  0
ELLIPSE
  5
715
100
AcDbEntity
  8
0
100
AcDbEllipse
 62
7
  6
CONTINUOUS
 10
263.5769566424
 20
372.7618209327
 30
0.0
 11
-0.0
 21
84.7658005055
 31
0.0
 40
0.4895842398
 41
-4.5642574902
 42
-4.5551149099
  0
ELLIPSE
  5
716
100
AcDbEntity
  8
0
100
AcDbEllipse
 62
7
  6
CONTINUOUS
 10
263.5769566424
 20
363.9107811565
 30
0.0
 11
41.5
 21
0.0
 31
0.0
 40
0.6808509827
 41
-2.9843185831
 42
-2.9705795892
  0
ELLIPSE
  5
717
100
AcDbEntity
  8
0
100
AcDbEllipse
 62
7
  6
CONTINUOUS
 10
263.5769566424
 20
360.9054640855
 30
0.0
 11
41.5
 21
-0.0
 31
0.0
 40
0.255319362
 41
-2.9705795892
 42
-2.9522096206
  0
ELLIPSE
  5
718
100
AcDbEntity
  8
0
100
AcDbEllipse
 62
7
  6
CONTINUOUS
 10
263.5769566424
 20
330.4425833566
 30
0.0
 11
0.0
 21
105.3195528955
 31
0.0
 40
0.3916651644
 41
1.2819479837
 42
1.2914185615
  0
ELLIPSE
  5
719
100
AcDbEntity
  8
0
100
AcDbEllipse
 62
7
  6
CONTINUOUS
 10
263.5769566424
 20
391.2087713963
 30
0.0
 11
0.0
 21
105.3195676477
 31
0.0
 40
0.3916651095
 41
-4.433011215
 42
-4.4235406373
  0
ELLIPSE
  5
71A
100
AcDbEntity
  8
0
100
AcDbEllipse
 62
7
  6
CONTINUOUS
 10
263.5769566424
 20
377.6554617454
 30
0.0
 11
-0.0
 21
56.1702060699
 31
0.0
 40
0.7343750875
 41
-4.4471693459
 42
-4.433011215
  0
ELLIPSE
  5
71B
100
AcDbEntity
  8
0
100
AcDbEllipse
 62
7
  6
CONTINUOUS
 10
263.5769566424
 20
369.5575847797
 30
0.0
 11
41.25
 21
-0.0
 31
0.0
 40
0.6127654169
 41
-2.8998510617
 42
-2.8763730191
  0
ELLIPSE
  5
71C
100
AcDbEntity
  8
0
100
AcDbEllipse
 62
7
  6
CONTINUOUS
 10
263.5769566424
 20
365.5235457851
 30
0.0
 11
41.25
 21
0.0
 31
0.0
 40
0.204255139
 41
-2.9231939434
 42
-2.8998510617
  0
ELLIPSE
  5
71D
100
AcDbEntity
  8
0
100
AcDbEllipse
 62
7
  6
CONTINUOUS
 10
263.5769566424
 20
407.8256168737
 30
0.0
 11
0.0
 21
84.255148401
 31
0.0
 40
0.4895843255
 41
-4.370944571
 42
-4.361279945
  0
ELLIPSE
  5
71E
100
AcDbEntity
  8
0
100
AcDbEllipse
 62
7
  6
CONTINUOUS
 10
263.5769566424
 20
393.7193035715
 30
0.0
 11
0.0
 21
42.1276947286
 31
0.0
 40
0.9791658496
 41
-4.3901757484
 42
-4.370944571
  0
ELLIPSE
  5
71F
100
AcDbEntity
  8
0
100
AcDbEllipse
 62
7
  6
CONTINUOUS
 10
263.5769566424
 20
387.0490852395
 30
0.0
 11
41.25
 21
-0.0
 31
0.0
 40
0.510638724
 41
-2.8384878959
 42
-2.8193794216
  0
ELLIPSE
  5
720
100
AcDbEntity
  8
0
100
AcDbEllipse
 62
7
  6
CONTINUOUS
 10
263.5769566424
 20
383.2767371298
 30
0.0
 11
41.25
 21
0.0
 31
0.0
 40
0.204255139
 41
-2.8622149063
 42
-2.8384878959
  0
ELLIPSE
  5
721
100
AcDbEntity
  8
0
100
AcDbEllipse
 62
7
  6
CONTINUOUS
 10
263.5769566424
 20
362.2682346057
 30
0.0
 11
41.25
 21
0.0
 31
0.0
 40
0.204255678
 41
-2.7317283593
 42
-2.7068113039
  0
ELLIPSE
  5
722
100
AcDbEntity
  8
0
100
AcDbEllipse
 62
7
  6
CONTINUOUS
 10
263.5769566424
 20
370.1022702671
 30
0.0
 11
41.25
 21
-0.0
 31
0.0
 40
0.6808509827
 41
-2.7465489766
 42
-2.7317283593
  0
ELLIPSE
  5
723
100
AcDbEntity
  8
0
100
AcDbEllipse
 62
7
  6
CONTINUOUS
 10
263.5769566424
 20
407.9316949726
 30
0.0
 11
0.0
 21
126.3820289433
 31
0.0
 40
0.3263913418
 41
-4.3222650755
 42
-4.3173453034
  0
ELLIPSE
  5
724
100
AcDbEntity
  8
0
100
AcDbEllipse
 62
7
  6
CONTINUOUS
 10
263.5769566424
 20
360.7458865994
 30
0.0
 11
41.5
 21
-0.0
 31
0.0
 40
0.255319362
 41
2.9522096206
 42
2.9705795892
  0
ELLIPSE
  5
725
100
AcDbEntity
  8
0
100
AcDbEllipse
 62
7
  6
CONTINUOUS
 10
263.5769566424
 20
357.1395006113
 30
0.0
 11
41.5
 21
-0.0
 31
0.0
 40
0.765958086
 41
2.9705795892
 42
2.9888914551
  0
ELLIPSE
  5
726
100
AcDbEntity
  8
0
100
AcDbEllipse
 62
7
  6
CONTINUOUS
 10
263.5769566424
 20
357.1395006113
 30
0.0
 11
41.25
 21
0.0
 31
0.0
 40
0.765958086
 41
2.9695328282
 42
2.9879586653
  0
ELLIPSE
  5
727
100
AcDbEntity
  8
0
100
AcDbEllipse
 62
7
  6
CONTINUOUS
 10
263.5769566424
 20
360.7458865994
 30
0.0
 11
41.25
 21
0.0
 31
0.0
 40
0.255319362
 41
9.2355912543
 42
9.2527181354
  0
ELLIPSE
  5
728
100
AcDbEntity
  8
0
100
AcDbEllipse
 62
7
  6
CONTINUOUS
 10
263.5769566424
 20
371.4682283714
 30
0.0
 11
41.25
 21
0.0
 31
0.0
 40
0.2042553906
 41
3.0612030739
 42
3.0839850382
  0
ELLIPSE
  5
729
100
AcDbEntity
  8
0
100
AcDbEllipse
 62
7
  6
CONTINUOUS
 10
263.5769566424
 20
370.4533358867
 30
0.0
 11
41.25
 21
0.0
 31
0.0
 40
0.5106380606
 41
3.0429479011
 42
3.0612030739
  0
ELLIPSE
  5
72A
100
AcDbEntity
  8
0
100
AcDbEllipse
 62
7
  6
CONTINUOUS
 10
263.5769566424
 20
368.3788689473
 30
0.0
 11
0.0
 21
42.1276381525
 31
0.0
 40
0.9791671646
 41
1.4538633566
 42
1.4721515743
  0
ELLIPSE
  5
72B
100
AcDbEntity
  8
0
100
AcDbEllipse
 62
7
  6
CONTINUOUS
 10
263.5769566424
 20
407.9316949726
 30
0.0
 11
0.0
 21
127.1479806339
 31
0.0
 40
0.3263913418
 41
-4.3247409247
 42
-4.3198558179
  0
ELLIPSE
  5
72C
100
AcDbEntity
  8
0
100
AcDbEllipse
 62
7
  6
CONTINUOUS
 10
263.5769566424
 20
370.1022702671
 30
0.0
 11
41.5
 21
-0.0
 31
0.0
 40
0.6808509827
 41
-2.7490594911
 42
-2.7343441642
  0
ELLIPSE
  5
72D
100
AcDbEntity
  8
0
100
AcDbEllipse
 62
7
  6
CONTINUOUS
 10
263.5769566424
 20
362.2682346057
 30
0.0
 11
41.5
 21
-0.0
 31
0.0
 40
0.204255678
 41
-2.7343441642
 42
-2.7096072081
  0
ELLIPSE
  5
72E
100
AcDbEntity
  8
0
100
AcDbEllipse
 62
7
  6
CONTINUOUS
 10
263.5769566424
 20
363.4639625421
 30
0.0
 11
0.0
 21
84.2554042093
 31
0.0
 40
0.4895828391
 41
1.4454940782
 42
1.4538633566
  0
ELLIPSE
  5
72F
100
AcDbEntity
  8
0
100
AcDbEllipse
 62
7
  6
CONTINUOUS
 10
263.5769566424
 20
369.6299325149
 30
0.0
 11
41.25
 21
-0.0
 31
0.0
 40
0.2042551568
 41
2.8384878959
 42
2.8622149063
  0
ELLIPSE
  5
730
100
AcDbEntity
  8
0
100
AcDbEllipse
 62
7
  6
CONTINUOUS
 10
263.5769566424
 20
360.9054640855
 30
0.0
 11
41.25
 21
-0.0
 31
0.0
 40
0.255319362
 41
-2.9695328282
 42
-2.9524059471
  0
ELLIPSE
  5
731
100
AcDbEntity
  8
0
100
AcDbEllipse
 62
7
  6
CONTINUOUS
 10
263.5769566424
 20
363.9107811565
 30
0.0
 11
41.25
 21
-0.0
 31
0.0
 40
0.6808509827
 41
-2.983357396
 42
-2.9695328282
  0
ELLIPSE
  5
732
100
AcDbEntity
  8
0
100
AcDbEllipse
 62
7
  6
CONTINUOUS
 10
263.5769566424
 20
372.7618209327
 30
0.0
 11
-0.0
 21
84.2551631531
 31
0.0
 40
0.4895842398
 41
-4.5633530377
 42
-4.5541537228
  0
ELLIPSE
  5
733
100
AcDbEntity
  8
0
100
AcDbEllipse
 62
7
  6
CONTINUOUS
 10
263.5769566424
 20
365.8575837998
 30
0.0
 11
41.25
 21
-0.0
 31
0.0
 40
0.510638791
 41
2.8193794216
 42
2.8384878959
  0
ELLIPSE
  5
734
100
AcDbEntity
  8
0
100
AcDbEllipse
 62
7
  6
CONTINUOUS
 10
263.5769566424
 20
383.2767371298
 30
0.0
 11
41.5
 21
0.0
 31
0.0
 40
0.204255139
 41
-2.8639426762
 42
-2.8403713266
  0
ELLIPSE
  5
735
100
AcDbEntity
  8
0
100
AcDbEllipse
 62
7
  6
CONTINUOUS
 10
263.5769566424
 20
387.0490852395
 30
0.0
 11
41.5
 21
0.0
 31
0.0
 40
0.510638724
 41
-2.8403713266
 42
-2.8213898778
  0
ELLIPSE
  5
736
100
AcDbEntity
  8
0
100
AcDbEllipse
 62
7
  6
CONTINUOUS
 10
263.5769566424
 20
393.7193035715
 30
0.0
 11
0.0
 21
42.3830140906
 31
0.0
 40
0.9791658496
 41
-4.3921862046
 42
-4.373084499
  0
ELLIPSE
  5
737
100
AcDbEntity
  8
0
100
AcDbEllipse
 62
7
  6
CONTINUOUS
 10
263.5769566424
 20
407.8256168737
 30
0.0
 11
0.0
 21
84.765785664
 31
0.0
 40
0.4895843255
 41
-4.373084499
 42
-4.3634855969
  0
ELLIPSE
  5
738
100
AcDbEntity
  8
0
100
AcDbEllipse
 62
7
  6
CONTINUOUS
 10
263.5769566424
 20
451.2940690253
 30
0.0
 11
0.0
 21
211.9157954819
 31
0.0
 40
0.1958324999
 41
-4.3634855969
 42
-4.3586736371
  0
ELLIPSE
  5
739
100
AcDbEntity
  8
0
100
AcDbEllipse
 62
7
  6
CONTINUOUS
 10
263.5769566424
 20
301.6126416819
 30
0.0
 11
0.0
 21
211.915676749
 31
0.0
 40
0.1958326096
 41
1.2170809835
 42
1.2218929433
  0
ELLIPSE
  5
73A
100
AcDbEntity
  8
0
100
AcDbEllipse
 62
7
  6
CONTINUOUS
 10
263.5769566424
 20
345.0810481688
 30
0.0
 11
-0.0
 21
84.7658005055
 31
0.0
 40
0.4895842398
 41
1.2218929433
 42
1.2314918455
  0
ELLIPSE
  5
73B
100
AcDbEntity
  8
0
100
AcDbEllipse
 62
7
  6
CONTINUOUS
 10
263.5769566424
 20
359.1873651758
 30
0.0
 11
-0.0
 21
42.3830178009
 31
0.0
 40
0.9791657639
 41
1.2314918455
 42
1.250593551
  0
ELLIPSE
  5
73C
100
AcDbEntity
  8
0
100
AcDbEllipse
 62
7
  6
CONTINUOUS
 10
263.5769566424
 20
365.8575837998
 30
0.0
 11
41.5
 21
-0.0
 31
0.0
 40
0.510638791
 41
2.8213898778
 42
2.8403713266
  0
ELLIPSE
  5
73D
100
AcDbEntity
  8
0
100
AcDbEllipse
 62
7
  6
CONTINUOUS
 10
263.5769566424
 20
369.6299325149
 30
0.0
 11
41.5
 21
-0.0
 31
0.0
 40
0.2042551568
 41
2.8403713266
 42
2.8639426762
  0
ELLIPSE
  5
73E
100
AcDbEntity
  8
0
100
AcDbEllipse
 62
7
  6
CONTINUOUS
 10
263.5769566424
 20
365.5235457851
 30
0.0
 11
41.5
 21
0.0
 31
0.0
 40
0.204255139
 41
-2.9245307254
 42
-2.901336112
  0
ELLIPSE
  5
73F
100
AcDbEntity
  8
0
100
AcDbEllipse
 62
7
  6
CONTINUOUS
 10
263.5769566424
 20
369.5575847797
 30
0.0
 11
41.5
 21
0.0
 31
0.0
 40
0.6127654169
 41
-2.901336112
 42
-2.8780089116
  0
ELLIPSE
  5
740
100
AcDbEntity
  8
0
100
AcDbEllipse
 62
7
  6
CONTINUOUS
 10
263.5769566424
 20
377.6554617454
 30
0.0
 11
0.0
 21
56.5106315613
 31
0.0
 40
0.7343750875
 41
-4.4488052384
 42
-4.4347389851
  0
ELLIPSE
  5
741
100
AcDbEntity
  8
0
100
AcDbEllipse
 62
7
  6
CONTINUOUS
 10
263.5769566424
 20
347.5704098999
 30
0.0
 11
0.0
 21
211.91446416
 31
0.0
 40
0.1958337302
 41
1.4409133753
 42
1.4454684956
  0
ELLIPSE
  5
742
100
AcDbEntity
  8
0
100
AcDbEllipse
 62
7
  6
CONTINUOUS
 10
263.5769566424
 20
363.4639625421
 30
0.0
 11
-0.0
 21
84.7660430227
 31
0.0
 40
0.4895828391
 41
1.4454684956
 42
1.454570971
  0
ELLIPSE
  5
743
100
AcDbEntity
  8
0
100
AcDbEllipse
 62
7
  6
CONTINUOUS
 10
263.5769566424
 20
368.3788689473
 30
0.0
 11
-0.0
 21
42.3829571716
 31
0.0
 40
0.9791671646
 41
1.454570971
 42
1.4727477373
  0
ELLIPSE
  5
744
100
AcDbEntity
  8
0
100
AcDbEllipse
 62
7
  6
CONTINUOUS
 10
263.5769566424
 20
370.4533358867
 30
0.0
 11
41.5
 21
-0.0
 31
0.0
 40
0.5106380606
 41
3.043544064
 42
3.0616883849
  0
ELLIPSE
  5
745
100
AcDbEntity
  8
0
100
AcDbEllipse
 62
7
  6
CONTINUOUS
 10
263.5769566424
 20
391.2087713963
 30
0.0
 11
0.0
 21
105.9578680577
 31
0.0
 40
0.3916651095
 41
-4.4347389851
 42
-4.4253302769
  0
ELLIPSE
  5
746
100
AcDbEntity
  8
0
100
AcDbEllipse
 62
7
  6
CONTINUOUS
 10
263.5769566424
 20
371.4682283714
 30
0.0
 11
41.5
 21
-0.0
 31
0.0
 40
0.2042553906
 41
3.0616883849
 42
3.0843324529
  0
ELLIPSE
  5
747
100
AcDbEntity
  8
0
100
AcDbEllipse
 62
7
  6
CONTINUOUS
 10
263.5769566424
 20
330.4425833566
 30
0.0
 11
0.0
 21
105.9578532161
 31
0.0
 40
0.3916651644
 41
1.2837376233
 42
1.2931463315
  0
ELLIPSE
  5
748
100
AcDbEntity
  8
0
100
AcDbEllipse
 62
7
  6
CONTINUOUS
 10
263.5769566424
 20
374.1554622241
 30
0.0
 11
0.0
 21
63.574339248
 31
0.0
 40
0.6527791007
 41
-4.7123889723
 42
-4.7048587801
  0
ELLIPSE
  5
749
100
AcDbEntity
  8
0
100
AcDbEllipse
 62
7
  6
CONTINUOUS
 10
263.5769566424
 20
373.8895054922
 30
0.0
 11
41.5
 21
-0.0
 31
0.0
 40
0.6808512211
 41
-3.1340624533
 42
-3.1205067451
  0
ELLIPSE
  5
74A
100
AcDbEntity
  8
0
100
AcDbEllipse
 62
7
  6
CONTINUOUS
 10
263.5769566424
 20
373.5171649633
 30
0.0
 11
41.5
 21
0.0
 31
0.0
 40
0.255319362
 41
-3.1205067451
 42
-3.1024260227
  0
ELLIPSE
  5
74B
100
AcDbEntity
  8
0
100
AcDbEllipse
 62
7
  6
CONTINUOUS
 10
263.5769566424
 20
343.9958875835
 30
0.0
 11
0.0
 21
56.5106365085
 31
0.0
 40
0.7343750233
 41
1.2931463315
 42
1.3072125849
  0
ELLIPSE
  5
74C
100
AcDbEntity
  8
0
100
AcDbEllipse
 62
7
  6
CONTINUOUS
 10
263.5769566424
 20
352.0937652581
 30
0.0
 11
41.5
 21
-0.0
 31
0.0
 40
0.6127654705
 41
2.8780089116
 42
2.901336112
  0
ELLIPSE
  5
74D
100
AcDbEntity
  8
0
100
AcDbEllipse
 62
7
  6
CONTINUOUS
 10
263.5769566424
 20
359.1873651758
 30
0.0
 11
0.0
 21
42.1276984166
 31
0.0
 40
0.9791657639
 41
1.2293519174
 42
1.2485830948
  0
ELLIPSE
  5
74E
100
AcDbEntity
  8
0
100
AcDbEllipse
 62
7
  6
CONTINUOUS
 10
263.5769566424
 20
356.1278046058
 30
0.0
 11
41.5
 21
-0.0
 31
0.0
 40
0.2042551568
 41
2.901336112
 42
2.9245307254
  0
ELLIPSE
  5
74F
100
AcDbEntity
  8
0
100
AcDbEllipse
 62
7
  6
CONTINUOUS
 10
263.5769566424
 20
345.0810481688
 30
0.0
 11
0.0
 21
84.2551631531
 31
0.0
 40
0.4895842398
 41
1.2196872914
 42
1.2293519174
  0
ELLIPSE
  5
750
100
AcDbEntity
  8
0
100
AcDbEllipse
 62
7
  6
CONTINUOUS
 10
263.5769566424
 20
301.6126416819
 30
0.0
 11
0.0
 21
210.6390762866
 31
0.0
 40
0.1958326096
 41
1.21484221
 42
1.2196872914
  0
ELLIPSE
  5
751
100
AcDbEntity
  8
0
100
AcDbEllipse
 62
7
  6
CONTINUOUS
 10
263.5769566424
 20
451.2940690253
 30
0.0
 11
0.0
 21
210.6391943043
 31
0.0
 40
0.1958324999
 41
-4.361279945
 42
-4.3564348636
  0
ELLIPSE
  5
752
100
AcDbEntity
  8
0
100
AcDbEllipse
 62
7
  6
CONTINUOUS
 10
263.5769566424
 20
356.1278046058
 30
0.0
 11
41.25
 21
-0.0
 31
0.0
 40
0.2042551568
 41
2.8998510617
 42
2.9231939434
  0
ELLIPSE
  5
753
100
AcDbEntity
  8
0
100
AcDbEllipse
 62
7
  6
CONTINUOUS
 10
263.5769566424
 20
352.0937652581
 30
0.0
 11
41.25
 21
0.0
 31
0.0
 40
0.6127654705
 41
2.8763730191
 42
2.8998510617
  0
ENDSEC
  0
SECTION
  2
OBJECTS
  0
DICTIONARY
  5
C
100
AcDbDictionary
280
0
281
1
  3
ACAD_GROUP
350
D
  3
ACAD_MLINESTYLE
350
17
  3
ACAD_LAYOUT
350
1A
  3
ACAD_PLOTSETTINGS
350
19
  3
ACAD_PLOTSTYLENAME
350
E
  0
DICTIONARY
  5
D
102
{ACAD_REACTORS
330
C
102
}
100
AcDbDictionary
280
0
281
1
  0
ACDBDICTIONARYWDFLT
  5
E
102
{ACAD_REACTORS
330
C
102
}
100
AcDbDictionary
281
1
  3
Normal
350
F
100
AcDbDictionaryWithDefault
340
F
  0
DICTIONARY
  5
17
102
{ACAD_REACTORS
330
C
102
}
100
AcDbDictionary
280
0
281
1
  3
Standard
350
18
  0
DICTIONARY
  5
19
102
{ACAD_REACTORS
330
C
102
}
100
AcDbDictionary
281
1
  0
DICTIONARY
  5
1A
102
{ACAD_REACTORS
330
C
102
}
100
AcDbDictionary
281
1
  3
Model
350
754
  3
Layout1
350
755
  0
ACDBPLACEHOLDER
  5
F
102
{ACAD_REACTORS
330
E
102
}
  0
MLINESTYLE
  5
18
102
{ACAD_REACTORS
330
17
102
}
100
AcDbMlineStyle
  2
STANDARD
 70
0
  3

 62
256
 51
90.0
 52
90.0
 71
2
 49
0.5
 62
256
  6
BYLAYER
 49
-0.5
 62
256
  6
BYLAYER
  0
LAYOUT
  5
754
102
{ACAD_REACTORS
330
1A
102
}
100
AcDbPlotSettings
  1

  2
none_device
  4
ISO_A1_(594.00_x_841.00_MM)
  6

 40
0.0
 41
0.0
 42
0.0
 43
0.0
 44
841.0
 45
594.0
 46
0.0
 47
0.0
 48
0.0
 49
0.0
140
0.0
141
0.0
142
1.0
143
1.0
 70
1024
 72
1
 73
0
 74
0
  7

 75
0
147
1.0
148
0.0
149
0.0
100
AcDbLayout
  1
Model
 70
0
 71
0
 10
0.0
 20
0.0
 11
841.0
 21
594.0
 12
0.0
 22
0.0
 32
0.0
 14
0.0
 24
0.0
 34
0.0
 15
0.0
 25
0.0
 35
0.0
146
0.0
 13
0.0
 23
0.0
 33
0.0
 16
1.0
 26
0.0
 36
0.0
 17
0.0
 27
1.0
 37
0.0
 76
0
330
20C
345
0
346
0
  0
LAYOUT
  5
755
102
{ACAD_REACTORS
330
1A
102
}
100
AcDbPlotSettings
  1

  2
none_device
  4
ISO_A1_(594.00_x_841.00_MM)
  6

 40
0.0
 41
0.0
 42
0.0
 43
0.0
 44
841.0
 45
594.0
 46
0.0
 47
0.0
 48
0.0
 49
0.0
140
0.0
141
0.0
142
1.0
143
1.0
 70
0
 72
1
 73
0
 74
0
  7

 75
0
147
1.0
148
0.0
149
0.0
100
AcDbLayout
  1
Layout1
 70
0
 71
1
 10
0.0
 20
0.0
 11
841.0
 21
594.0
 12
0.0
 22
0.0
 32
0.0
 14
0.0
 24
0.0
 34
0.0
 15
0.0
 25
0.0
 35
0.0
146
0.0
 13
0.0
 23
0.0
 33
0.0
 16
1.0
 26
0.0
 36
0.0
 17
0.0
 27
1.0
 37
0.0
 76
0
330
20D
345
0
346
0
  0
ENDSEC
  0
EOF
