999
DXF file: 001-m31347-p-20.dxf
999
Pro/ENGINEER 2011490 by Parametric Technology Corporation
  0
SECTION
  2
HEADER
  9
$ACADVER
  1
AC1015
  9
$DWGCODEPAGE
  3
ANSI_1252
  9
$EXTMAX
 10
594.0
 20
420.0
 30
0.0
  9
$EXTMIN
 10
0.0
 20
0.0
 30
0.0
  9
$LIMMIN
 10
0.0
 20
0.0
  9
$LIMMAX
 10
594.0
 20
420.0
  9
$VIEWCTR
 10
297.0
 20
210.0
  9
$VIEWSIZE
 40
420.0
  9
$CLAYER
  8
0
  9
$LTSCALE
 40
32.67
  9
$CELTYPE
  6
BYLAYER
  9
$DIMSCALE
 40
1.0
  9
$DIMASZ
 40
3.5
  9
$DIMEXO
 40
3.7125
  9
$DIMDLI
 40
22.572
  9
$DIMEXE
 40
10.692
  9
$DIMCEN
 40
5.346
  9
$DIMLFAC
 40
1.0
  9
$DIMBLK
  1
_FILLED
  9
$DIMTXT
 40
3.5
  9
$DIMTOL
 70
1
  9
$DIMLIM
 70
0
  9
$DIMTFAC
 40
1.0
  9
$DIMTP
 40
0.005
  9
$DIMTM
 40
0.005
  9
$PDMODE
 70
3
  9
$PDSIZE
 40
0.3125
  9
$HANDSEED
  5
6ED
  9
$TILEMODE
 70
1
  9
$MEASUREMENT
 70
1
  9
$INSUNITS
 70
4
  0
ENDSEC
  0
SECTION
  2
CLASSES
  0
CLASS
  1
ACDBDICTIONARYWDFLT
  2
AcDbDictionaryWithDefault
  3
AutoCAD 2000
 90
0
280
0
281
0
  0
CLASS
  1
ACDBPLACEHOLDER
  2
AcDbPlaceHolder
  3
AutoCAD 2000
 90
0
280
0
281
0
  0
CLASS
  1
LAYOUT
  2
AcDbLayout
  3
AutoCAD 2000
 90
0
280
0
281
0
  0
ENDSEC
  0
SECTION
  2
TABLES
  0
TABLE
  2
VPORT
  5
8
100
AcDbSymbolTable
 70
2
  0
VPORT
  5
1F4
100
AcDbSymbolTableRecord
100
AcDbViewportTableRecord
  2
*ACTIVE
 70
0
 10
0.0
 20
0.0
 11
1.0
 21
1.0
 12
297.0
 22
210.0
 13
0.0
 23
0.0
 14
1.0
 24
1.0
 15
0.0
 25
0.0
 16
0.0
 26
0.0
 36
1.0
 17
0.0
 27
0.0
 37
0.0
 40
420.0
 41
1.4142857143
 42
50.0
 43
0.0
 44
0.0
 50
0.0
 51
0.0
 71
0
 72
100
 73
1
 74
1
 75
0
 76
0
 77
0
 78
0
  0
ENDTAB
  0
TABLE
  2
LTYPE
  5
5
100
AcDbSymbolTable
 70
6
  0
LTYPE
  5
14
100
AcDbSymbolTableRecord
100
AcDbLinetypeTableRecord
  2
BYBLOCK
 70
0
  3

 72
65
 73
0
 40
0.0
  0
LTYPE
  5
15
100
AcDbSymbolTableRecord
100
AcDbLinetypeTableRecord
  2
BYLAYER
 70
0
  3

 72
65
 73
0
 40
0.0
  0
LTYPE
  5
16
100
AcDbSymbolTableRecord
100
AcDbLinetypeTableRecord
  2
CONTINUOUS
 70
64
  3
Solid line
 72
65
 73
0
 40
0.0
  0
LTYPE
  5
1F5
100
AcDbSymbolTableRecord
100
AcDbLinetypeTableRecord
  2
CENTER
 70
64
  3
____ _ ____ _ ____ _ ____ _ ____ _ ____ _ ____
 72
65
 73
4
 40
0.6
 49
0.375
 74
0
 49
-0.075
 74
0
 49
0.075
 74
0
 49
-0.075
 74
0
  0
LTYPE
  5
1F6
100
AcDbSymbolTableRecord
100
AcDbLinetypeTableRecord
  2
HIDDEN
 70
64
  3
- - - - - - - - - - - - - - - - - - - -
 72
65
 73
2
 40
0.2
 49
0.1
 74
0
 49
-0.1
 74
0
  0
LTYPE
  5
1F7
100
AcDbSymbolTableRecord
100
AcDbLinetypeTableRecord
  2
PHANTOM
 70
64
  3
_____ _ _ _____ _ _ _____ _ _ _____
 72
65
 73
6
 40
0.8
 49
0.45
 74
0
 49
-0.05
 74
0
 49
0.1
 74
0
 49
-0.05
 74
0
 49
0.1
 74
0
 49
-0.05
 74
0
  0
LTYPE
  5
1F8
100
AcDbSymbolTableRecord
100
AcDbLinetypeTableRecord
  2
DOT
 70
64
  3
. . . . . . . . . . . . . . . . . . . .
 72
65
 73
2
 40
0.2
 49
0.1
 74
0
 49
-0.1
 74
0
  0
LTYPE
  5
1F9
100
AcDbSymbolTableRecord
100
AcDbLinetypeTableRecord
  2
DASHED
 70
64
  3
- - - - - - - - - - - - - - - - - - - -
 72
65
 73
2
 40
0.2
 49
0.1
 74
0
 49
-0.1
 74
0
  0
ENDTAB
  0
TABLE
  2
LAYER
  5
2
100
AcDbSymbolTable
 70
36
  0
LAYER
  5
10
100
AcDbSymbolTableRecord
100
AcDbLayerTableRecord
  2
0
 70
0
 62
7
  6
CONTINUOUS
370
-3
390
F
  0
LAYER
  5
1FA
100
AcDbSymbolTableRecord
100
AcDbLayerTableRecord
  2
DEFAULT_1
 70
0
 62
7
  6
CENTER
370
-3
390
F
  0
LAYER
  5
1FB
100
AcDbSymbolTableRecord
100
AcDbLayerTableRecord
  2
DEFAULT_2
 70
0
 62
8
  6
HIDDEN
370
-3
390
F
  0
LAYER
  5
1FC
100
AcDbSymbolTableRecord
100
AcDbLayerTableRecord
  2
DEFAULT_3
 70
0
 62
7
  6
PHANTOM
370
-3
390
F
  0
LAYER
  5
1FD
100
AcDbSymbolTableRecord
100
AcDbLayerTableRecord
  2
AUSFORMSCHRAEGEN
 70
0
 62
7
  6
CONTINUOUS
370
-3
390
F
  0
LAYER
  5
1FE
100
AcDbSymbolTableRecord
100
AcDbLayerTableRecord
  2
BEZUGSACHSEN
 70
0
 62
7
  6
CONTINUOUS
370
-3
390
F
  0
LAYER
  5
1FF
100
AcDbSymbolTableRecord
100
AcDbLayerTableRecord
  2
BEZUGSEBENEN
 70
0
 62
7
  6
CONTINUOUS
370
-3
390
F
  0
LAYER
  5
200
100
AcDbSymbolTableRecord
100
AcDbLayerTableRecord
  2
BG_STARTBEZUEGE
 70
0
 62
7
  6
CONTINUOUS
370
-3
390
F
  0
LAYER
  5
201
100
AcDbSymbolTableRecord
100
AcDbLayerTableRecord
  2
FASEN
 70
0
 62
7
  6
CONTINUOUS
370
-3
390
F
  0
LAYER
  5
202
100
AcDbSymbolTableRecord
100
AcDbLayerTableRecord
  2
HILFEN
 70
0
 62
7
  6
CONTINUOUS
370
-3
390
F
  0
LAYER
  5
203
100
AcDbSymbolTableRecord
100
AcDbLayerTableRecord
  2
KONSTRUKTIONSELEMENTE
 70
0
 62
7
  6
CONTINUOUS
370
-3
390
F
  0
LAYER
  5
204
100
AcDbSymbolTableRecord
100
AcDbLayerTableRecord
  2
NORM
 70
0
 62
7
  6
CONTINUOUS
370
-3
390
F
  0
LAYER
  5
205
100
AcDbSymbolTableRecord
100
AcDbLayerTableRecord
  2
PLATZIERUNG
 70
0
 62
7
  6
CONTINUOUS
370
-3
390
F
  0
LAYER
  5
206
100
AcDbSymbolTableRecord
100
AcDbLayerTableRecord
  2
RUNDUNGEN
 70
0
 62
7
  6
CONTINUOUS
370
-3
390
F
  0
LAYER
  5
207
100
AcDbSymbolTableRecord
100
AcDbLayerTableRecord
  2
TEIL_STARTBEZUEGE
 70
0
 62
7
  6
CONTINUOUS
370
-3
390
F
  0
LAYER
  5
208
100
AcDbSymbolTableRecord
100
AcDbLayerTableRecord
  2
T_STARTBEZUEGE
 70
0
 62
7
  6
CONTINUOUS
370
-3
390
F
  0
LAYER
  5
209
100
AcDbSymbolTableRecord
100
AcDbLayerTableRecord
  2
ZEICHNUNGSBEMASSUNGEN
 70
0
 62
7
  6
CONTINUOUS
370
-3
390
F
  0
ENDTAB
  0
TABLE
  2
STYLE
  5
3
100
AcDbSymbolTable
 70
1
  0
STYLE
  5
11
100
AcDbSymbolTableRecord
100
AcDbTextStyleTableRecord
  2
STANDARD
 70
0
 40
0.0
 41
0.7
 50
0.0
 71
0
 42
0.2
  3
txt
  4

  0
STYLE
  5
20A
100
AcDbSymbolTableRecord
100
AcDbTextStyleTableRecord
  2
TEXTSTYLE_1
 70
0
 40
0.0
 41
0.8
 50
0.0
 71
0
 42
0.2
  3
gdt
  4

  0
ENDTAB
  0
TABLE
  2
VIEW
  5
6
100
AcDbSymbolTable
 70
0
  0
ENDTAB
  0
TABLE
  2
UCS
  5
7
100
AcDbSymbolTable
 70
0
  0
ENDTAB
  0
TABLE
  2
APPID
  5
9
100
AcDbSymbolTable
 70
1
  0
APPID
  5
20B
100
AcDbSymbolTableRecord
100
AcDbRegAppTableRecord
  2
ACAD
 70
0
  0
ENDTAB
  0
TABLE
  2
BLOCK_RECORD
  5
1
100
AcDbSymbolTable
 70
0
  0
BLOCK_RECORD
  5
20C
100
AcDbSymbolTableRecord
100
AcDbBlockTableRecord
  2
*Model_Space
  0
BLOCK_RECORD
  5
20D
100
AcDbSymbolTableRecord
100
AcDbBlockTableRecord
  2
*Paper_Space
  0
ENDTAB
  0
TABLE
  2
DIMSTYLE
  5
A
100
AcDbSymbolTable
 70
1
100
AcDbDimStyleTable
 71
0
  0
DIMSTYLE
105
20E
100
AcDbSymbolTableRecord
100
AcDbDimStyleTableRecord
  2
STANDARD
 70
0
  3

  4

 40
1.0
 41
3.5
 42
0.0625
 43
0.38
 44
0.18
 45
0.0
 46
0.0
 47
0.005
 48
0.005
140
3.5
141
0.09
142
0.0
143
25.4
144
1.0
145
0.0
146
1.0
147
0.09
 71
1.0
 72
0.0
 73
0
 74
0
 75
0
 76
0
 77
1
 78
8
170
0
171
2
172
0
173
0
174
0
175
0
176
0
177
0
178
5
270
2
271
3
272
3
273
2
274
2
275
0
280
0
281
0
282
0
283
1
284
8
285
0
286
0
287
3
288
0
340
11
  0
ENDTAB
  0
ENDSEC
  0
SECTION
  2
BLOCKS
  0
BLOCK
  5
20
100
AcDbEntity
  8
0
100
AcDbBlockBegin
  2
*Model_Space
 70
0
 10
0.0
 20
0.0
 30
0.0
  3
*Model_Space
  1

  0
ENDBLK
  5
21
100
AcDbEntity
  8
0
100
AcDbBlockEnd
  0
BLOCK
  5
1C
100
AcDbEntity
  8
0
100
AcDbBlockBegin
  2
*Paper_Space
 70
0
 10
0.0
 20
0.0
 30
0.0
  3
*Paper_Space
  1

  0
ENDBLK
  5
1D
100
AcDbEntity
  8
0
100
AcDbBlockEnd
  0
ENDSEC
  0
SECTION
  2
ENTITIES
  0
MTEXT
  5
20F
100
AcDbEntity
  8
0
100
AcDbMText
 62
5
  6
CONTINUOUS
  7
STANDARD
 71
1
 72
1
 10
281.7843536819
 20
286.2747692239
 30
0.0
 11
0.3826834324
 21
0.9238795325
 31
0.0
 44
0.9
  1
VIP 8
 40
8.0
 41
32.1904761905
  0
MTEXT
  5
210
100
AcDbEntity
  8
0
100
AcDbMText
 62
5
  6
CONTINUOUS
  7
STANDARD
 71
2
 72
1
 10
177.8013954569
 20
74.7953994095
 30
0.0
 11
0.0
 21
1.0
 31
0.0
 44
0.9
  1
RUD PP-VIP\P2,5t M20
 40
7.0
 41
56.0
  0
MTEXT
  5
211
100
AcDbEntity
  8
0
100
AcDbMText
 62
5
  6
CONTINUOUS
  7
STANDARD
 71
1
 72
1
 10
325.4758595749
 20
304.3708548703
 30
0.0
 11
0.3826834324
 21
-0.9238795325
 31
0.0
 44
0.9
  1
CE
 40
8.0
 41
13.9047619048
  0
LINE
  5
212
100
AcDbEntity
  8
0
100
AcDbLine
 62
7
  6
CONTINUOUS
 10
0.0
 20
0.0
 11
0.0
 21
420.0
  0
LINE
  5
213
100
AcDbEntity
  8
0
100
AcDbLine
 62
7
  6
CONTINUOUS
 10
0.0
 20
0.0
 11
594.0
 21
0.0
  0
LINE
  5
214
100
AcDbEntity
  8
0
100
AcDbLine
 62
7
  6
CONTINUOUS
 10
0.0
 20
420.0
 11
594.0
 21
420.0
  0
LINE
  5
215
100
AcDbEntity
  8
0
100
AcDbLine
 62
7
  6
CONTINUOUS
 10
594.0
 20
0.0
 11
594.0
 21
420.0
  0
LINE
  5
216
100
AcDbEntity
  8
FASEN
100
AcDbLine
 62
7
  6
CONTINUOUS
 10
195.3027076827
 20
214.6827536135
 11
178.302707683
 21
214.6827536135
  0
LINE
  5
217
100
AcDbEntity
  8
FASEN
100
AcDbLine
 62
7
  6
CONTINUOUS
 10
196.8027076828
 20
216.1827536135
 11
176.8027076828
 21
216.1827536135
  0
LINE
  5
218
100
AcDbEntity
  8
FASEN
100
AcDbLine
 62
7
  6
CONTINUOUS
 10
178.3027076841
 20
214.6827536121
 11
176.8027076844
 21
216.1827536119
  0
LINE
  5
219
100
AcDbEntity
  8
KONSTRUKTIONSELEMENTE
100
AcDbLine
 62
7
  6
CONTINUOUS
 10
156.5080045256
 20
244.6827536135
 11
156.5080045256
 21
255.6827536135
  0
LINE
  5
21A
100
AcDbEntity
  8
0
100
AcDbLine
 62
7
  6
CONTINUOUS
 10
164.969866052
 20
247.650838705
 11
165.2563239482
 21
247.2997748864
  0
LINE
  5
21B
100
AcDbEntity
  8
0
100
AcDbLine
 62
7
  6
CONTINUOUS
 10
165.4028787539
 20
247.650838705
 11
165.6893366501
 21
247.2997748864
  0
LINE
  5
21C
100
AcDbEntity
  8
0
100
AcDbLine
 62
7
  6
CONTINUOUS
 10
165.313616052
 20
247.8848812713
 11
165.141741052
 21
248.1189237966
  0
LINE
  5
21D
100
AcDbEntity
  8
0
100
AcDbLine
 62
7
  6
CONTINUOUS
 10
163.4802825001
 20
251.9806260376
 11
163.6521575001
 21
251.7465835123
  0
LINE
  5
21E
100
AcDbEntity
  8
0
100
AcDbLine
 62
7
  6
CONTINUOUS
 10
163.913295202
 20
251.9806260376
 11
164.0639925415
 21
251.7754211743
  0
LINE
  5
21F
100
AcDbEntity
  8
0
100
AcDbLine
 62
7
  6
CONTINUOUS
 10
164.797991052
 20
248.001902534
 11
164.969866052
 21
247.650838705
  0
LINE
  5
220
100
AcDbEntity
  8
0
100
AcDbLine
 62
7
  6
CONTINUOUS
 10
165.2376541553
 20
247.9883187353
 11
165.4028787539
 21
247.650838705
  0
LINE
  5
221
100
AcDbEntity
  8
0
100
AcDbLine
 62
7
  6
CONTINUOUS
 10
159.1834075001
 20
251.512540987
 11
159.9854908061
 21
247.1827536135
  0
LINE
  5
222
100
AcDbEntity
  8
0
100
AcDbLine
 62
7
  6
CONTINUOUS
 10
160.3101138733
 20
247.7678600087
 11
160.418503508
 21
247.1827536135
  0
LINE
  5
223
100
AcDbEntity
  8
0
100
AcDbLine
 62
7
  6
CONTINUOUS
 10
160.2146575001
 20
247.7678600087
 11
159.3552825001
 21
252.6827536135
  0
LINE
  5
224
100
AcDbEntity
  8
0
100
AcDbLine
 62
7
  6
CONTINUOUS
 10
158.8396575001
 20
252.6827536135
 11
158.8396575001
 21
247.1827536135
  0
LINE
  5
225
100
AcDbEntity
  8
0
100
AcDbLine
 62
7
  6
CONTINUOUS
 10
159.1834075001
 20
247.1827536135
 11
159.1834075001
 21
251.512540987
  0
LINE
  5
226
100
AcDbEntity
  8
0
100
AcDbLine
 62
7
  6
CONTINUOUS
 10
159.272670202
 20
252.6827536135
 11
159.272670202
 21
251.512540987
  0
LINE
  5
227
100
AcDbEntity
  8
0
100
AcDbLine
 62
7
  6
CONTINUOUS
 10
160.0527076828
 20
269.5029662554
 11
160.0527076828
 21
269.0508387013
  0
LINE
  5
228
100
AcDbEntity
  8
0
100
AcDbLine
 62
7
  6
CONTINUOUS
 10
160.0527076828
 20
264.9444557576
 11
160.0527076828
 21
264.3657325543
  0
LINE
  5
229
100
AcDbEntity
  8
0
100
AcDbLine
 62
7
  6
CONTINUOUS
 10
160.0527076828
 20
259.2742429896
 11
160.0527076828
 21
258.5827536135
  0
LINE
  5
22A
100
AcDbEntity
  8
0
100
AcDbLine
 62
7
  6
CONTINUOUS
 10
160.054297816
 20
274.5827536135
 11
160.054297816
 21
270.2955195009
  0
LINE
  5
22B
100
AcDbEntity
  8
0
100
AcDbLine
 62
7
  6
CONTINUOUS
 10
160.0755058951
 20
274.5827536135
 11
160.0755058951
 21
270.2955195009
  0
LINE
  5
22C
100
AcDbEntity
  8
0
100
AcDbLine
 62
7
  6
CONTINUOUS
 10
160.0809627814
 20
263.2848810999
 11
160.0809627814
 21
263.5614771991
  0
LINE
  5
22D
100
AcDbEntity
  8
0
100
AcDbLine
 62
7
  6
CONTINUOUS
 10
160.1307355148
 20
263.5614771991
 11
160.1307355148
 21
263.2848810999
  0
LINE
  5
22E
100
AcDbEntity
  8
0
100
AcDbLine
 62
7
  6
CONTINUOUS
 10
160.1307355148
 20
259.2742429896
 11
160.1307355148
 21
258.5827536135
  0
LINE
  5
22F
100
AcDbEntity
  8
0
100
AcDbLine
 62
7
  6
CONTINUOUS
 10
160.1422998887
 20
274.5827536135
 11
160.1422998887
 21
268.0827536135
  0
LINE
  5
230
100
AcDbEntity
  8
0
100
AcDbLine
 62
7
  6
CONTINUOUS
 10
160.2214642958
 20
273.7529664784
 11
160.2214642958
 21
268.9125408455
  0
LINE
  5
231
100
AcDbEntity
  8
0
100
AcDbLine
 62
7
  6
CONTINUOUS
 10
160.3027076828
 20
280.0827536135
 11
160.3027076828
 21
274.5827536135
  0
LINE
  5
232
100
AcDbEntity
  8
0
100
AcDbLine
 62
7
  6
CONTINUOUS
 10
160.3027076828
 20
268.0827536135
 11
160.3027076828
 21
265.0827536135
  0
LINE
  5
233
100
AcDbEntity
  8
0
100
AcDbLine
 62
7
  6
CONTINUOUS
 10
160.3027076828
 20
260.8469774792
 11
160.3027076828
 21
259.2742429896
  0
LINE
  5
234
100
AcDbEntity
  8
0
100
AcDbLine
 62
7
  6
CONTINUOUS
 10
160.3027076828
 20
257.7529663815
 11
160.3027076828
 21
255.6827536135
  0
LINE
  5
235
100
AcDbEntity
  8
0
100
AcDbLine
 62
7
  6
CONTINUOUS
 10
160.3814738106
 20
263.5614771991
 11
160.3814738106
 21
263.2848810999
  0
LINE
  5
236
100
AcDbEntity
  8
0
100
AcDbLine
 62
7
  6
CONTINUOUS
 10
160.4730665914
 20
273.7529664784
 11
160.4730665914
 21
268.9125408455
  0
LINE
  5
237
100
AcDbEntity
  8
0
100
AcDbLine
 62
7
  6
CONTINUOUS
 10
160.6665975754
 20
265.0827536135
 11
160.6665975754
 21
261.4870089738
  0
LINE
  5
238
100
AcDbEntity
  8
0
100
AcDbLine
 62
7
  6
CONTINUOUS
 10
160.8234491291
 20
264.3912643342
 11
160.8234491291
 21
262.1784982531
  0
LINE
  5
239
100
AcDbEntity
  8
0
100
AcDbLine
 62
7
  6
CONTINUOUS
 10
160.9292508031
 20
272.3699875324
 11
160.9292508031
 21
270.2955195009
  0
LINE
  5
23A
100
AcDbEntity
  8
0
100
AcDbLine
 62
7
  6
CONTINUOUS
 10
161.0809391783
 20
264.3912643342
 11
161.0809391783
 21
262.6531927432
  0
LINE
  5
23B
100
AcDbEntity
  8
0
100
AcDbLine
 62
7
  6
CONTINUOUS
 10
161.1562818663
 20
272.3699875324
 11
161.1562818663
 21
270.2955195009
  0
LINE
  5
23C
100
AcDbEntity
  8
0
100
AcDbLine
 62
7
  6
CONTINUOUS
 10
161.2459075001
 20
251.512540987
 11
161.2459075001
 21
247.1827536135
  0
LINE
  5
23D
100
AcDbEntity
  8
0
100
AcDbLine
 62
7
  6
CONTINUOUS
 10
161.41714767
 20
272.3699875324
 11
161.41714767
 21
270.2955195009
  0
LINE
  5
23E
100
AcDbEntity
  8
0
100
AcDbLine
 62
7
  6
CONTINUOUS
 10
161.5896575001
 20
247.1827536135
 11
161.5896575001
 21
252.6827536135
  0
LINE
  5
23F
100
AcDbEntity
  8
0
100
AcDbLine
 62
7
  6
CONTINUOUS
 10
161.9504441423
 20
260.7955195009
 11
161.9504441423
 21
260.5189237892
  0
LINE
  5
240
100
AcDbEntity
  8
0
100
AcDbLine
 62
7
  6
CONTINUOUS
 10
162.0479907242
 20
247.7678600087
 11
162.0479907242
 21
247.1827536135
  0
LINE
  5
241
100
AcDbEntity
  8
0
100
AcDbLine
 62
7
  6
CONTINUOUS
 10
162.1160797178
 20
265.0827536135
 11
162.1160797178
 21
264.3912643342
  0
LINE
  5
242
100
AcDbEntity
  8
0
100
AcDbLine
 62
7
  6
CONTINUOUS
 10
162.2308556705
 20
260.9338173567
 11
162.2308556705
 21
260.3806259333
  0
LINE
  5
243
100
AcDbEntity
  8
0
100
AcDbLine
 62
7
  6
CONTINUOUS
 10
162.3871982619
 20
265.0827536135
 11
162.3871982619
 21
264.3912643342
  0
LINE
  5
244
100
AcDbEntity
  8
0
100
AcDbLine
 62
7
  6
CONTINUOUS
 10
162.4810034261
 20
247.7678600087
 11
162.4810034261
 21
247.1827536135
  0
LINE
  5
245
100
AcDbEntity
  8
0
100
AcDbLine
 62
7
  6
CONTINUOUS
 10
162.5032547813
 20
260.9338173567
 11
162.5032547813
 21
260.3806259333
  0
LINE
  5
246
100
AcDbEntity
  8
0
100
AcDbLine
 62
7
  6
CONTINUOUS
 10
165.2563239482
 20
247.2997748864
 11
165.6000739482
 21
247.1827536135
  0
LINE
  5
247
100
AcDbEntity
  8
0
100
AcDbLine
 62
7
  6
CONTINUOUS
 10
165.6893366501
 20
247.2997748864
 11
165.8165802992
 21
247.2564579008
  0
LINE
  5
248
100
AcDbEntity
  8
0
100
AcDbLine
 62
7
  6
CONTINUOUS
 10
165.6000739482
 20
247.7678600087
 11
165.313616052
 21
247.8848812713
  0
LINE
  5
249
100
AcDbEntity
  8
0
100
AcDbLine
 62
7
  6
CONTINUOUS
 10
163.1938242761
 20
252.0976473002
 11
163.4802825001
 21
251.9806260376
  0
LINE
  5
24A
100
AcDbEntity
  8
0
100
AcDbLine
 62
7
  6
CONTINUOUS
 10
163.6268369779
 20
252.0976473002
 11
163.913295202
 21
251.9806260376
  0
LINE
  5
24B
100
AcDbEntity
  8
0
100
AcDbLine
 62
7
  6
CONTINUOUS
 10
163.8240325001
 20
252.3316898255
 11
163.5948657242
 21
252.5657323508
  0
LINE
  5
24C
100
AcDbEntity
  8
0
100
AcDbLine
 62
7
  6
CONTINUOUS
 10
166.2302825001
 20
252.2146685629
 11
165.9438239482
 21
252.5657323508
  0
LINE
  5
24D
100
AcDbEntity
  8
0
100
AcDbLine
 62
7
  6
CONTINUOUS
 10
165.8865325001
 20
251.9806260376
 11
166.0584075001
 21
251.7465835123
  0
LINE
  5
24E
100
AcDbEntity
  8
0
100
AcDbLine
 62
7
  6
CONTINUOUS
 10
166.319545202
 20
251.9806260376
 11
166.3955070963
 21
251.8771885768
  0
LINE
  5
24F
100
AcDbEntity
  8
0
100
AcDbLine
 62
7
  6
CONTINUOUS
 10
164.0531992761
 20
251.863604775
 11
163.8240325001
 21
252.3316898255
  0
LINE
  5
250
100
AcDbEntity
  8
0
100
AcDbLine
 62
7
  6
CONTINUOUS
 10
166.4021575001
 20
251.863604775
 11
166.2302825001
 21
252.2146685629
  0
LINE
  5
251
100
AcDbEntity
  8
0
100
AcDbLine
 62
7
  6
CONTINUOUS
 10
163.6521575001
 20
251.7465835123
 11
163.7667407242
 21
251.3955197244
  0
LINE
  5
252
100
AcDbEntity
  8
0
100
AcDbLine
 62
7
  6
CONTINUOUS
 10
165.141741052
 20
248.1189237966
 11
164.9125739482
 21
248.8210514544
  0
LINE
  5
253
100
AcDbEntity
  8
0
100
AcDbLine
 62
7
  6
CONTINUOUS
 10
166.0584075001
 20
251.7465835123
 11
166.2875739482
 21
251.0444556086
  0
LINE
  5
254
100
AcDbEntity
  8
0
100
AcDbLine
 62
7
  6
CONTINUOUS
 10
164.6834075001
 20
248.4699876665
 11
164.797991052
 21
248.001902534
  0
LINE
  5
255
100
AcDbEntity
  8
0
100
AcDbLine
 62
7
  6
CONTINUOUS
 10
164.626116052
 20
248.8210514544
 11
164.6834075001
 21
248.4699876665
  0
LINE
  5
256
100
AcDbEntity
  8
0
100
AcDbLine
 62
7
  6
CONTINUOUS
 10
164.1104907242
 20
251.3955197244
 11
164.0531992761
 21
251.863604775
  0
LINE
  5
257
100
AcDbEntity
  8
0
100
AcDbLine
 62
7
  6
CONTINUOUS
 10
164.5688239482
 20
249.4061579316
 11
164.626116052
 21
248.8210514544
  0
LINE
  5
258
100
AcDbEntity
  8
0
100
AcDbLine
 62
7
  6
CONTINUOUS
 10
166.6313239482
 20
250.4593492954
 11
166.5740325001
 21
251.0444556086
  0
LINE
  5
259
100
AcDbEntity
  8
0
100
AcDbLine
 62
7
  6
CONTINUOUS
 10
164.9125739482
 20
248.8210514544
 11
164.8552825001
 21
249.5231791942
  0
LINE
  5
25A
100
AcDbEntity
  8
0
100
AcDbLine
 62
7
  6
CONTINUOUS
 10
166.2875739482
 20
251.0444556086
 11
166.344866052
 21
250.3423280327
  0
LINE
  5
25B
100
AcDbEntity
  8
0
100
AcDbLine
 62
7
  6
CONTINUOUS
 10
162.7258653662
 20
263.0082853882
 11
162.7258653662
 21
262.4550939648
  0
LINE
  5
25C
100
AcDbEntity
  8
0
100
AcDbLine
 62
7
  6
CONTINUOUS
 10
163.2811103132
 20
264.1146686225
 11
163.2811103132
 21
263.0082853882
  0
LINE
  5
25D
100
AcDbEntity
  8
0
100
AcDbLine
 62
7
  6
CONTINUOUS
 10
163.2811103132
 20
262.4550939648
 11
163.2811103132
 21
259.6891365572
  0
LINE
  5
25E
100
AcDbEntity
  8
0
100
AcDbLine
 62
7
  6
CONTINUOUS
 10
163.6606350048
 20
264.1146686225
 11
163.6606350048
 21
263.0082853882
  0
LINE
  5
25F
100
AcDbEntity
  8
0
100
AcDbLine
 62
7
  6
CONTINUOUS
 10
163.6606350048
 20
262.4550939648
 11
163.6606350048
 21
259.9657323657
  0
LINE
  5
260
100
AcDbEntity
  8
0
100
AcDbLine
 62
7
  6
CONTINUOUS
 10
163.7667407242
 20
251.3955197244
 11
163.7667407242
 21
251.1614768713
  0
LINE
  5
261
100
AcDbEntity
  8
0
100
AcDbLine
 62
7
  6
CONTINUOUS
 10
163.9500704645
 20
264.1146686225
 11
163.9500704645
 21
263.0082853882
  0
LINE
  5
262
100
AcDbEntity
  8
0
100
AcDbLine
 62
7
  6
CONTINUOUS
 10
163.9500704645
 20
262.4550939648
 11
163.9500704645
 21
259.9657323657
  0
LINE
  5
263
100
AcDbEntity
  8
0
100
AcDbLine
 62
7
  6
CONTINUOUS
 10
164.1104907242
 20
247.1827536135
 11
164.1104907242
 21
247.7678600087
  0
LINE
  5
264
100
AcDbEntity
  8
0
100
AcDbLine
 62
7
  6
CONTINUOUS
 10
164.1104907242
 20
251.1614768713
 11
164.1104907242
 21
251.3955197244
  0
LINE
  5
265
100
AcDbEntity
  8
0
100
AcDbLine
 62
7
  6
CONTINUOUS
 10
164.411480634
 20
259.1359450853
 11
164.411480634
 21
258.5827536135
  0
LINE
  5
266
100
AcDbEntity
  8
0
100
AcDbLine
 62
7
  6
CONTINUOUS
 10
164.5688239482
 20
250.4593492954
 11
164.5688239482
 21
249.4061579316
  0
LINE
  5
267
100
AcDbEntity
  8
0
100
AcDbLine
 62
7
  6
CONTINUOUS
 10
164.5908592469
 20
263.0082853882
 11
164.5908592469
 21
262.4550939648
  0
LINE
  5
268
100
AcDbEntity
  8
0
100
AcDbLine
 62
7
  6
CONTINUOUS
 10
164.7107510299
 20
259.1359450853
 11
164.7107510299
 21
258.5827536135
  0
LINE
  5
269
100
AcDbEntity
  8
0
100
AcDbLine
 62
7
  6
CONTINUOUS
 10
164.8552825001
 20
249.5231791942
 11
164.8552825001
 21
250.3423280327
  0
LINE
  5
26A
100
AcDbEntity
  8
0
100
AcDbLine
 62
7
  6
CONTINUOUS
 10
164.8925796381
 20
263.0082853882
 11
164.8925796381
 21
262.4550939648
  0
LINE
  5
26B
100
AcDbEntity
  8
0
100
AcDbLine
 62
7
  6
CONTINUOUS
 10
166.344866052
 20
250.3423280327
 11
166.344866052
 21
249.5231791942
  0
LINE
  5
26C
100
AcDbEntity
  8
0
100
AcDbLine
 62
7
  6
CONTINUOUS
 10
166.6313239482
 20
249.4061579316
 11
166.6313239482
 21
250.4593492954
  0
LINE
  5
26D
100
AcDbEntity
  8
0
100
AcDbLine
 62
7
  6
CONTINUOUS
 10
164.8552825001
 20
250.3423280327
 11
164.9125739482
 21
251.0444556086
  0
LINE
  5
26E
100
AcDbEntity
  8
0
100
AcDbLine
 62
7
  6
CONTINUOUS
 10
164.626116052
 20
251.0444556086
 11
164.5688239482
 21
250.4593492954
  0
LINE
  5
26F
100
AcDbEntity
  8
0
100
AcDbLine
 62
7
  6
CONTINUOUS
 10
162.1625742761
 20
251.863604775
 11
162.1052825001
 21
251.3955197244
  0
LINE
  5
270
100
AcDbEntity
  8
0
100
AcDbLine
 62
7
  6
CONTINUOUS
 10
164.0531992761
 20
250.6933918207
 11
164.1104907242
 21
251.1614768713
  0
LINE
  5
271
100
AcDbEntity
  8
0
100
AcDbLine
 62
7
  6
CONTINUOUS
 10
161.0740325001
 20
252.6827536135
 11
160.2146575001
 21
247.7678600087
  0
LINE
  5
272
100
AcDbEntity
  8
0
100
AcDbLine
 62
7
  6
CONTINUOUS
 10
161.507045202
 20
252.6827536135
 11
161.3024321307
 21
251.512540987
  0
LINE
  5
273
100
AcDbEntity
  8
0
100
AcDbLine
 62
7
  6
CONTINUOUS
 10
160.4438241121
 20
247.1827536135
 11
161.2459075001
 21
251.512540987
  0
LINE
  5
274
100
AcDbEntity
  8
KONSTRUKTIONSELEMENTE
100
AcDbLine
 62
7
  6
CONTINUOUS
 10
156.5080045256
 20
244.6827536135
 11
217.09741084
 21
244.6827536135
  0
LINE
  5
275
100
AcDbEntity
  8
0
100
AcDbLine
 62
7
  6
CONTINUOUS
 10
158.8396575001
 20
247.1827536135
 11
159.1834075001
 21
247.1827536135
  0
LINE
  5
276
100
AcDbEntity
  8
0
100
AcDbLine
 62
7
  6
CONTINUOUS
 10
159.9854908061
 20
247.1827536135
 11
160.4438241121
 21
247.1827536135
  0
LINE
  5
277
100
AcDbEntity
  8
0
100
AcDbLine
 62
7
  6
CONTINUOUS
 10
161.2459075001
 20
247.1827536135
 11
161.5896575001
 21
247.1827536135
  0
LINE
  5
278
100
AcDbEntity
  8
0
100
AcDbLine
 62
7
  6
CONTINUOUS
 10
162.0479907242
 20
247.1827536135
 11
164.1104907242
 21
247.1827536135
  0
LINE
  5
279
100
AcDbEntity
  8
0
100
AcDbLine
 62
7
  6
CONTINUOUS
 10
165.2563239482
 20
247.2997748864
 11
165.6893366501
 21
247.2997748864
  0
LINE
  5
27A
100
AcDbEntity
  8
0
100
AcDbLine
 62
7
  6
CONTINUOUS
 10
164.969866052
 20
247.650838705
 11
165.4028787539
 21
247.650838705
  0
LINE
  5
27B
100
AcDbEntity
  8
0
100
AcDbLine
 62
7
  6
CONTINUOUS
 10
164.1104907242
 20
247.7678600087
 11
162.5063242761
 21
247.7678600087
  0
LINE
  5
27C
100
AcDbEntity
  8
0
100
AcDbLine
 62
7
  6
CONTINUOUS
 10
160.2146575001
 20
247.7678600087
 11
160.5522137579
 21
247.7678600087
  0
LINE
  5
27D
100
AcDbEntity
  8
0
100
AcDbLine
 62
7
  6
CONTINUOUS
 10
162.0479907242
 20
247.7678600087
 11
162.4810034261
 21
247.7678600087
  0
LINE
  5
27E
100
AcDbEntity
  8
0
100
AcDbLine
 62
7
  6
CONTINUOUS
 10
165.6000739482
 20
247.7678600087
 11
166.0330866501
 21
247.7678600087
  0
LINE
  5
27F
100
AcDbEntity
  8
0
100
AcDbLine
 62
7
  6
CONTINUOUS
 10
165.8865325001
 20
247.8848812713
 11
166.319545202
 21
247.8848812713
  0
LINE
  5
280
100
AcDbEntity
  8
0
100
AcDbLine
 62
7
  6
CONTINUOUS
 10
164.797991052
 20
248.001902534
 11
165.2310037539
 21
248.001902534
  0
LINE
  5
281
100
AcDbEntity
  8
0
100
AcDbLine
 62
7
  6
CONTINUOUS
 10
166.0584075001
 20
248.1189237966
 11
166.4308033831
 21
248.1189237966
  0
LINE
  5
282
100
AcDbEntity
  8
0
100
AcDbLine
 62
7
  6
CONTINUOUS
 10
164.6834075001
 20
248.4699876665
 11
165.0271574867
 21
248.4699876665
  0
LINE
  5
283
100
AcDbEntity
  8
0
100
AcDbLine
 62
7
  6
CONTINUOUS
 10
163.5948657242
 20
252.5657323508
 11
163.2511157242
 21
252.6827536135
  0
LINE
  5
284
100
AcDbEntity
  8
0
100
AcDbLine
 62
7
  6
CONTINUOUS
 10
165.9438239482
 20
252.5657323508
 11
165.6000739482
 21
252.6827536135
  0
LINE
  5
285
100
AcDbEntity
  8
0
100
AcDbLine
 62
7
  6
CONTINUOUS
 10
165.6000739482
 20
252.0976473002
 11
165.8865325001
 21
251.9806260376
  0
LINE
  5
286
100
AcDbEntity
  8
0
100
AcDbLine
 62
7
  6
CONTINUOUS
 10
166.0330866501
 20
252.0976473002
 11
166.319545202
 21
251.9806260376
  0
LINE
  5
287
100
AcDbEntity
  8
0
100
AcDbLine
 62
7
  6
CONTINUOUS
 10
166.516741052
 20
251.3955197244
 11
166.4021575001
 21
251.863604775
  0
LINE
  5
288
100
AcDbEntity
  8
0
100
AcDbLine
 62
7
  6
CONTINUOUS
 10
166.5740325001
 20
251.0444556086
 11
166.516741052
 21
251.3955197244
  0
LINE
  5
289
100
AcDbEntity
  8
KONSTRUKTIONSELEMENTE
100
AcDbLine
 62
7
  6
CONTINUOUS
 10
169.4660136319
 20
244.6827536135
 11
169.4660136319
 21
255.6827536135
  0
LINE
  5
28A
100
AcDbEntity
  8
0
100
AcDbLine
 62
7
  6
CONTINUOUS
 10
166.344866052
 20
249.5231791942
 11
166.2875739482
 21
248.8210514544
  0
LINE
  5
28B
100
AcDbEntity
  8
0
100
AcDbLine
 62
7
  6
CONTINUOUS
 10
166.5740325001
 20
248.8210514544
 11
166.6313239482
 21
249.4061579316
  0
LINE
  5
28C
100
AcDbEntity
  8
0
100
AcDbLine
 62
7
  6
CONTINUOUS
 10
164.6834075001
 20
251.3955197244
 11
164.626116052
 21
251.0444556086
  0
LINE
  5
28D
100
AcDbEntity
  8
0
100
AcDbLine
 62
7
  6
CONTINUOUS
 10
166.516741052
 20
248.4699876665
 11
166.5740325001
 21
248.8210514544
  0
LINE
  5
28E
100
AcDbEntity
  8
0
100
AcDbLine
 62
7
  6
CONTINUOUS
 10
163.7667407242
 20
251.1614768713
 11
163.6521575001
 21
250.6933918207
  0
LINE
  5
28F
100
AcDbEntity
  8
0
100
AcDbLine
 62
7
  6
CONTINUOUS
 10
164.797991052
 20
251.863604775
 11
164.6834075001
 21
251.3955197244
  0
LINE
  5
290
100
AcDbEntity
  8
0
100
AcDbLine
 62
7
  6
CONTINUOUS
 10
162.3917407242
 20
251.3955197244
 11
162.5063242761
 21
251.7465835123
  0
LINE
  5
291
100
AcDbEntity
  8
0
100
AcDbLine
 62
7
  6
CONTINUOUS
 10
164.626116052
 20
248.8210514544
 11
164.9125739482
 21
248.8210514544
  0
LINE
  5
292
100
AcDbEntity
  8
0
100
AcDbLine
 62
7
  6
CONTINUOUS
 10
166.2875739482
 20
248.8210514544
 11
166.5740325001
 21
248.8210514544
  0
LINE
  5
293
100
AcDbEntity
  8
0
100
AcDbLine
 62
7
  6
CONTINUOUS
 10
164.5688239482
 20
249.4061579316
 11
164.8648310726
 21
249.4061579316
  0
LINE
  5
294
100
AcDbEntity
  8
0
100
AcDbLine
 62
7
  6
CONTINUOUS
 10
166.344866052
 20
249.5231791942
 11
166.6313239482
 21
249.5231791942
  0
LINE
  5
295
100
AcDbEntity
  8
0
100
AcDbLine
 62
7
  6
CONTINUOUS
 10
166.344866052
 20
250.3423280327
 11
166.6313239482
 21
250.3423280327
  0
LINE
  5
296
100
AcDbEntity
  8
0
100
AcDbLine
 62
7
  6
CONTINUOUS
 10
164.5688239482
 20
250.4593492954
 11
164.8648310748
 21
250.4593492954
  0
LINE
  5
297
100
AcDbEntity
  8
0
100
AcDbLine
 62
7
  6
CONTINUOUS
 10
163.6521575001
 20
250.6933918207
 11
164.0531992761
 21
250.6933918207
  0
LINE
  5
298
100
AcDbEntity
  8
0
100
AcDbLine
 62
7
  6
CONTINUOUS
 10
164.626116052
 20
251.0444556086
 11
164.9125739482
 21
251.0444556086
  0
LINE
  5
299
100
AcDbEntity
  8
0
100
AcDbLine
 62
7
  6
CONTINUOUS
 10
166.2875739482
 20
251.0444556086
 11
166.5740325001
 21
251.0444556086
  0
LINE
  5
29A
100
AcDbEntity
  8
0
100
AcDbLine
 62
7
  6
CONTINUOUS
 10
163.7667407242
 20
251.1614768713
 11
164.1104907242
 21
251.1614768713
  0
LINE
  5
29B
100
AcDbEntity
  8
0
100
AcDbLine
 62
7
  6
CONTINUOUS
 10
162.1052825001
 20
251.3955197244
 11
162.3917407242
 21
251.3955197244
  0
LINE
  5
29C
100
AcDbEntity
  8
0
100
AcDbLine
 62
7
  6
CONTINUOUS
 10
163.7667407242
 20
251.3955197244
 11
164.1104907242
 21
251.3955197244
  0
LINE
  5
29D
100
AcDbEntity
  8
0
100
AcDbLine
 62
7
  6
CONTINUOUS
 10
164.6834075001
 20
251.3955197244
 11
165.0271575536
 21
251.3955197244
  0
LINE
  5
29E
100
AcDbEntity
  8
0
100
AcDbLine
 62
7
  6
CONTINUOUS
 10
159.1834075001
 20
251.512540987
 11
159.5598955715
 21
251.512540987
  0
LINE
  5
29F
100
AcDbEntity
  8
0
100
AcDbLine
 62
7
  6
CONTINUOUS
 10
161.2459075001
 20
251.512540987
 11
161.5896575001
 21
251.512540987
  0
LINE
  5
2A0
100
AcDbEntity
  8
0
100
AcDbLine
 62
7
  6
CONTINUOUS
 10
163.6521575001
 20
251.7465835123
 11
164.0675221381
 21
251.7465835123
  0
LINE
  5
2A1
100
AcDbEntity
  8
0
100
AcDbLine
 62
7
  6
CONTINUOUS
 10
166.0584075001
 20
251.7465835123
 11
166.4308033881
 21
251.7465835123
  0
LINE
  5
2A2
100
AcDbEntity
  8
0
100
AcDbLine
 62
7
  6
CONTINUOUS
 10
162.1625742761
 20
251.863604775
 11
162.5955869779
 21
251.863604775
  0
LINE
  5
2A3
100
AcDbEntity
  8
0
100
AcDbLine
 62
7
  6
CONTINUOUS
 10
164.797991052
 20
251.863604775
 11
165.2310037539
 21
251.863604775
  0
LINE
  5
2A4
100
AcDbEntity
  8
0
100
AcDbLine
 62
7
  6
CONTINUOUS
 10
163.4802825001
 20
251.9806260376
 11
163.913295202
 21
251.9806260376
  0
LINE
  5
2A5
100
AcDbEntity
  8
0
100
AcDbLine
 62
7
  6
CONTINUOUS
 10
165.8865325001
 20
251.9806260376
 11
166.319545202
 21
251.9806260376
  0
LINE
  5
2A6
100
AcDbEntity
  8
0
100
AcDbLine
 62
7
  6
CONTINUOUS
 10
162.9646575001
 20
252.0976473002
 11
163.6268369779
 21
252.0976473002
  0
LINE
  5
2A7
100
AcDbEntity
  8
0
100
AcDbLine
 62
7
  6
CONTINUOUS
 10
165.6000739482
 20
252.0976473002
 11
166.0330866501
 21
252.0976473002
  0
LINE
  5
2A8
100
AcDbEntity
  8
0
100
AcDbLine
 62
7
  6
CONTINUOUS
 10
164.969866052
 20
252.2146685629
 11
165.4028787539
 21
252.2146685629
  0
LINE
  5
2A9
100
AcDbEntity
  8
0
100
AcDbLine
 62
7
  6
CONTINUOUS
 10
162.3917407242
 20
252.3316898255
 11
162.8247534261
 21
252.3316898255
  0
LINE
  5
2AA
100
AcDbEntity
  8
0
100
AcDbLine
 62
7
  6
CONTINUOUS
 10
162.6209075001
 20
252.5657323508
 11
163.053920202
 21
252.5657323508
  0
LINE
  5
2AB
100
AcDbEntity
  8
0
100
AcDbLine
 62
7
  6
CONTINUOUS
 10
165.2563239482
 20
252.5657323508
 11
165.6893366501
 21
252.5657323508
  0
LINE
  5
2AC
100
AcDbEntity
  8
0
100
AcDbLine
 62
7
  6
CONTINUOUS
 10
163.2511157242
 20
252.6827536135
 11
163.0219492761
 21
252.6827536135
  0
LINE
  5
2AD
100
AcDbEntity
  8
0
100
AcDbLine
 62
7
  6
CONTINUOUS
 10
161.5896575001
 20
252.6827536135
 11
161.0740325001
 21
252.6827536135
  0
LINE
  5
2AE
100
AcDbEntity
  8
0
100
AcDbLine
 62
7
  6
CONTINUOUS
 10
159.3552825001
 20
252.6827536135
 11
158.8396575001
 21
252.6827536135
  0
LINE
  5
2AF
100
AcDbEntity
  8
KONSTRUKTIONSELEMENTE
100
AcDbLine
 62
7
  6
CONTINUOUS
 10
173.8446985765
 20
244.6827536135
 11
173.8446985765
 21
255.6827536135
  0
LINE
  5
2B0
100
AcDbEntity
  8
RUNDUNGEN
100
AcDbLine
 62
7
  6
CONTINUOUS
 10
174.3027076828
 20
310.5827536135
 11
174.3027076828
 21
287.5827536135
  0
LINE
  5
2B1
100
AcDbEntity
  8
0
100
AcDbLine
 62
7
  6
CONTINUOUS
 10
166.4021575001
 20
248.001902534
 11
166.516741052
 21
248.4699876665
  0
LINE
  5
2B2
100
AcDbEntity
  8
0
100
AcDbLine
 62
7
  6
CONTINUOUS
 10
163.9386157242
 20
250.3423280327
 11
164.0531992761
 21
250.6933918207
  0
LINE
  5
2B3
100
AcDbEntity
  8
0
100
AcDbLine
 62
7
  6
CONTINUOUS
 10
164.9125739482
 20
251.0444556086
 11
165.141741052
 21
251.7465835123
  0
LINE
  5
2B4
100
AcDbEntity
  8
0
100
AcDbLine
 62
7
  6
CONTINUOUS
 10
166.2875739482
 20
248.8210514544
 11
166.0584075001
 21
248.1189237966
  0
LINE
  5
2B5
100
AcDbEntity
  8
0
100
AcDbLine
 62
7
  6
CONTINUOUS
 10
162.3917407242
 20
252.3316898255
 11
162.1625742761
 21
251.863604775
  0
LINE
  5
2B6
100
AcDbEntity
  8
0
100
AcDbLine
 62
7
  6
CONTINUOUS
 10
162.8247534261
 20
252.3316898255
 11
162.6022373627
 21
251.8771885509
  0
LINE
  5
2B7
100
AcDbEntity
  8
0
100
AcDbLine
 62
7
  6
CONTINUOUS
 10
164.969866052
 20
252.2146685629
 11
164.797991052
 21
251.863604775
  0
LINE
  5
2B8
100
AcDbEntity
  8
0
100
AcDbLine
 62
7
  6
CONTINUOUS
 10
165.4028787539
 20
252.2146685629
 11
165.2376541577
 21
251.8771885768
  0
LINE
  5
2B9
100
AcDbEntity
  8
KONSTRUKTIONSELEMENTE
100
AcDbLine
 62
7
  6
CONTINUOUS
 10
156.5080045256
 20
255.6827536135
 11
217.09741084
 21
255.6827536135
  0
LINE
  5
2BA
100
AcDbEntity
  8
0
100
AcDbLine
 62
7
  6
CONTINUOUS
 10
176.8027076828
 20
244.6827536135
 11
176.8027076828
 21
216.1827536135
  0
LINE
  5
2BB
100
AcDbEntity
  8
FASEN
100
AcDbLine
 62
7
  6
CONTINUOUS
 10
176.8027076828
 20
244.6827536135
 11
176.8027076828
 21
216.1827536135
  0
LINE
  5
2BC
100
AcDbEntity
  8
0
100
AcDbLine
 62
7
  6
CONTINUOUS
 10
166.2302825001
 20
247.650838705
 11
166.4021575001
 21
248.001902534
  0
LINE
  5
2BD
100
AcDbEntity
  8
0
100
AcDbLine
 62
7
  6
CONTINUOUS
 10
163.6521575001
 20
250.6933918207
 11
162.0479907242
 21
247.7678600087
  0
LINE
  5
2BE
100
AcDbEntity
  8
0
100
AcDbLine
 62
7
  6
CONTINUOUS
 10
164.0061829851
 20
250.5493421998
 11
162.4810034261
 21
247.7678600087
  0
LINE
  5
2BF
100
AcDbEntity
  8
0
100
AcDbLine
 62
7
  6
CONTINUOUS
 10
162.5063242761
 20
247.7678600087
 11
163.9386157242
 21
250.3423280327
  0
LINE
  5
2C0
100
AcDbEntity
  8
0
100
AcDbLine
 62
7
  6
CONTINUOUS
 10
162.5063242761
 20
251.7465835123
 11
162.6781992761
 21
251.9806260376
  0
LINE
  5
2C1
100
AcDbEntity
  8
0
100
AcDbLine
 62
7
  6
CONTINUOUS
 10
160.5768776979
 20
257.7529663815
 11
160.2358698017
 21
257.7529663815
  0
LINE
  5
2C2
100
AcDbEntity
  8
0
100
AcDbLine
 62
7
  6
CONTINUOUS
 10
164.7107510299
 20
258.5827536135
 11
164.411480634
 21
258.5827536135
  0
LINE
  5
2C3
100
AcDbEntity
  8
0
100
AcDbLine
 62
7
  6
CONTINUOUS
 10
161.7170561484
 20
258.5827536135
 11
161.1936762559
 21
258.5827536135
  0
LINE
  5
2C4
100
AcDbEntity
  8
0
100
AcDbLine
 62
7
  6
CONTINUOUS
 10
160.2918718747
 20
258.5827536135
 11
160.0527301828
 21
258.5827536135
  0
LINE
  5
2C5
100
AcDbEntity
  8
0
100
AcDbLine
 62
7
  6
CONTINUOUS
 10
161.9578963847
 20
258.7210514814
 11
161.6914124466
 21
258.7210514814
  0
LINE
  5
2C6
100
AcDbEntity
  8
0
100
AcDbLine
 62
7
  6
CONTINUOUS
 10
164.7107510299
 20
259.1359450853
 11
164.411480634
 21
259.1359450853
  0
LINE
  5
2C7
100
AcDbEntity
  8
0
100
AcDbLine
 62
7
  6
CONTINUOUS
 10
162.2197358713
 20
259.1359450853
 11
161.9504441423
 21
259.1359450853
  0
LINE
  5
2C8
100
AcDbEntity
  8
0
100
AcDbLine
 62
7
  6
CONTINUOUS
 10
164.2768345721
 20
259.2742429896
 11
163.983254153
 21
259.2742429896
  0
LINE
  5
2C9
100
AcDbEntity
  8
0
100
AcDbLine
 62
7
  6
CONTINUOUS
 10
161.4531038811
 20
259.2742429896
 11
161.1936762559
 21
259.2742429896
  0
LINE
  5
2CA
100
AcDbEntity
  8
0
100
AcDbLine
 62
7
  6
CONTINUOUS
 10
160.7075813966
 20
259.2742429896
 11
160.0531072087
 21
259.2742429896
  0
LINE
  5
2CB
100
AcDbEntity
  8
0
100
AcDbLine
 62
7
  6
CONTINUOUS
 10
161.2960449503
 20
259.4125408455
 11
161.0364051978
 21
259.4125408455
  0
LINE
  5
2CC
100
AcDbEntity
  8
0
100
AcDbLine
 62
7
  6
CONTINUOUS
 10
164.0301130715
 20
259.5508387013
 11
163.7396730748
 21
259.5508387013
  0
LINE
  5
2CD
100
AcDbEntity
  8
0
100
AcDbLine
 62
7
  6
CONTINUOUS
 10
162.3871982619
 20
259.6891365572
 11
162.1160797178
 21
259.6891365572
  0
LINE
  5
2CE
100
AcDbEntity
  8
0
100
AcDbLine
 62
7
  6
CONTINUOUS
 10
161.1850448613
 20
259.6891365572
 11
160.9265188514
 21
259.6891365572
  0
LINE
  5
2CF
100
AcDbEntity
  8
0
100
AcDbLine
 62
7
  6
CONTINUOUS
 10
163.9500704645
 20
259.9657323657
 11
163.6606350048
 21
259.9657323657
  0
LINE
  5
2D0
100
AcDbEntity
  8
0
100
AcDbLine
 62
7
  6
CONTINUOUS
 10
161.1148801851
 20
260.2423280774
 11
160.6665975754
 21
260.2423280774
  0
LINE
  5
2D1
100
AcDbEntity
  8
0
100
AcDbLine
 62
7
  6
CONTINUOUS
 10
162.5032547813
 20
260.3806259333
 11
162.2308556705
 21
260.3806259333
  0
LINE
  5
2D2
100
AcDbEntity
  8
0
100
AcDbLine
 62
7
  6
CONTINUOUS
 10
162.5032547813
 20
260.9338173567
 11
162.2308556705
 21
260.9338173567
  0
LINE
  5
2D3
100
AcDbEntity
  8
0
100
AcDbLine
 62
7
  6
CONTINUOUS
 10
165.141741052
 20
251.7465835123
 11
165.313616052
 21
251.9806260376
  0
LINE
  5
2D4
100
AcDbEntity
  8
0
100
AcDbLine
 62
7
  6
CONTINUOUS
 10
166.0584075001
 20
248.1189237966
 11
165.8865325001
 21
247.8848812713
  0
LINE
  5
2D5
100
AcDbEntity
  8
0
100
AcDbLine
 62
7
  6
CONTINUOUS
 10
166.3955070987
 20
247.9883187353
 11
166.319545202
 21
247.8848812713
  0
LINE
  5
2D6
100
AcDbEntity
  8
0
100
AcDbLine
 62
7
  6
CONTINUOUS
 10
165.2563239482
 20
252.5657323508
 11
164.969866052
 21
252.2146685629
  0
LINE
  5
2D7
100
AcDbEntity
  8
0
100
AcDbLine
 62
7
  6
CONTINUOUS
 10
165.6893366501
 20
252.5657323508
 11
165.4028787539
 21
252.2146685629
  0
LINE
  5
2D8
100
AcDbEntity
  8
0
100
AcDbLine
 62
7
  6
CONTINUOUS
 10
162.6209075001
 20
252.5657323508
 11
162.3917407242
 21
252.3316898255
  0
LINE
  5
2D9
100
AcDbEntity
  8
0
100
AcDbLine
 62
7
  6
CONTINUOUS
 10
163.053920202
 20
252.5657323508
 11
162.8247534261
 21
252.3316898255
  0
LINE
  5
2DA
100
AcDbEntity
  8
0
100
AcDbLine
 62
7
  6
CONTINUOUS
 10
161.1495813151
 20
261.4870089738
 11
160.6665975754
 21
261.4870089738
  0
LINE
  5
2DB
100
AcDbEntity
  8
0
100
AcDbLine
 62
7
  6
CONTINUOUS
 10
162.3871982619
 20
261.6253068297
 11
162.1160797178
 21
261.6253068297
  0
LINE
  5
2DC
100
AcDbEntity
  8
0
100
AcDbLine
 62
7
  6
CONTINUOUS
 10
161.2960449503
 20
261.9019025414
 11
161.0364051978
 21
261.9019025414
  0
LINE
  5
2DD
100
AcDbEntity
  8
0
100
AcDbLine
 62
7
  6
CONTINUOUS
 10
161.4531038811
 20
262.0402003973
 11
161.1936762559
 21
262.0402003973
  0
LINE
  5
2DE
100
AcDbEntity
  8
0
100
AcDbLine
 62
7
  6
CONTINUOUS
 10
162.2197358713
 20
262.1784982531
 11
161.9504441423
 21
262.1784982531
  0
LINE
  5
2DF
100
AcDbEntity
  8
0
100
AcDbLine
 62
7
  6
CONTINUOUS
 10
160.3532197101
 20
262.316796109
 11
160.1027467462
 21
262.316796109
  0
LINE
  5
2E0
100
AcDbEntity
  8
0
100
AcDbLine
 62
7
  6
CONTINUOUS
 10
164.8925796381
 20
262.4550939648
 11
163.6606350048
 21
262.4550939648
  0
LINE
  5
2E1
100
AcDbEntity
  8
0
100
AcDbLine
 62
7
  6
CONTINUOUS
 10
163.2811103132
 20
262.4550939648
 11
162.7258653662
 21
262.4550939648
  0
LINE
  5
2E2
100
AcDbEntity
  8
0
100
AcDbLine
 62
7
  6
CONTINUOUS
 10
161.9578963847
 20
262.5933918207
 11
161.6914124466
 21
262.5933918207
  0
LINE
  5
2E3
100
AcDbEntity
  8
0
100
AcDbLine
 62
7
  6
CONTINUOUS
 10
161.7170561484
 20
262.7316896765
 11
161.1936762559
 21
262.7316896765
  0
LINE
  5
2E4
100
AcDbEntity
  8
0
100
AcDbLine
 62
7
  6
CONTINUOUS
 10
160.3713586643
 20
262.7316896765
 11
160.1207154233
 21
262.7316896765
  0
LINE
  5
2E5
100
AcDbEntity
  8
0
100
AcDbLine
 62
7
  6
CONTINUOUS
 10
164.8925796381
 20
263.0082853882
 11
163.6606350048
 21
263.0082853882
  0
LINE
  5
2E6
100
AcDbEntity
  8
0
100
AcDbLine
 62
7
  6
CONTINUOUS
 10
163.2811103132
 20
263.0082853882
 11
162.7258653662
 21
263.0082853882
  0
LINE
  5
2E7
100
AcDbEntity
  8
0
100
AcDbLine
 62
7
  6
CONTINUOUS
 10
160.3814738106
 20
263.2848810999
 11
160.1307355148
 21
263.2848810999
  0
LINE
  5
2E8
100
AcDbEntity
  8
0
100
AcDbLine
 62
7
  6
CONTINUOUS
 10
160.3814738106
 20
263.5614771991
 11
160.1307355148
 21
263.5614771991
  0
LINE
  5
2E9
100
AcDbEntity
  8
0
100
AcDbLine
 62
7
  6
CONTINUOUS
 10
163.9500704645
 20
264.1146686225
 11
163.2811103132
 21
264.1146686225
  0
LINE
  5
2EA
100
AcDbEntity
  8
0
100
AcDbLine
 62
7
  6
CONTINUOUS
 10
160.3713586643
 20
264.1146686225
 11
160.1207154233
 21
264.1146686225
  0
LINE
  5
2EB
100
AcDbEntity
  8
0
100
AcDbLine
 62
7
  6
CONTINUOUS
 10
162.3871982619
 20
264.3912643342
 11
160.8234491291
 21
264.3912643342
  0
LINE
  5
2EC
100
AcDbEntity
  8
0
100
AcDbLine
 62
7
  6
CONTINUOUS
 10
160.3378647602
 20
264.6678600459
 11
160.087535759
 21
264.6678600459
  0
LINE
  5
2ED
100
AcDbEntity
  8
0
100
AcDbLine
 62
7
  6
CONTINUOUS
 10
160.3154879531
 20
264.9444557576
 11
160.0653684545
 21
264.9444557576
  0
LINE
  5
2EE
100
AcDbEntity
  8
0
100
AcDbLine
 62
7
  6
CONTINUOUS
 10
162.3871982619
 20
265.0827536135
 11
160.6665975754
 21
265.0827536135
  0
LINE
  5
2EF
100
AcDbEntity
  8
0
100
AcDbLine
 62
7
  6
CONTINUOUS
 10
160.3027097299
 20
265.0827536135
 11
160.0527097108
 21
265.0827536135
  0
LINE
  5
2F0
100
AcDbEntity
  8
0
100
AcDbLine
 62
7
  6
CONTINUOUS
 10
165.9438239482
 20
247.2997748864
 11
166.2302825001
 21
247.650838705
  0
LINE
  5
2F1
100
AcDbEntity
  8
0
100
AcDbLine
 62
7
  6
CONTINUOUS
 10
160.8665631399
 20
268.0827536135
 11
160.0738170633
 21
268.0827536135
  0
LINE
  5
2F2
100
AcDbEntity
  8
0
100
AcDbLine
 62
7
  6
CONTINUOUS
 10
161.017792241
 20
268.2210514814
 11
160.7609265543
 21
268.2210514814
  0
LINE
  5
2F3
100
AcDbEntity
  8
0
100
AcDbLine
 62
7
  6
CONTINUOUS
 10
160.1422998887
 20
268.2210514814
 11
160.0554843915
 21
268.2210514814
  0
LINE
  5
2F4
100
AcDbEntity
  8
0
100
AcDbLine
 62
7
  6
CONTINUOUS
 10
161.1522820345
 20
268.4976472295
 11
160.8940829424
 21
268.4976472295
  0
LINE
  5
2F5
100
AcDbEntity
  8
0
100
AcDbLine
 62
7
  6
CONTINUOUS
 10
160.1422998887
 20
268.4976472295
 11
160.0531640243
 21
268.4976472295
  0
LINE
  5
2F6
100
AcDbEntity
  8
0
100
AcDbLine
 62
7
  6
CONTINUOUS
 10
160.6111805462
 20
268.9125408455
 11
160.2214642958
 21
268.9125408455
  0
LINE
  5
2F7
100
AcDbEntity
  8
0
100
AcDbLine
 62
7
  6
CONTINUOUS
 10
161.298982404
 20
269.0508387013
 11
161.0393130482
 21
269.0508387013
  0
LINE
  5
2F8
100
AcDbEntity
  8
0
100
AcDbLine
 62
7
  6
CONTINUOUS
 10
160.1422998887
 20
269.0508387013
 11
160.0618136819
 21
269.0508387013
  0
LINE
  5
2F9
100
AcDbEntity
  8
0
100
AcDbLine
 62
7
  6
CONTINUOUS
 10
161.3769771439
 20
269.6040302216
 11
161.1165193039
 21
269.6040302216
  0
LINE
  5
2FA
100
AcDbEntity
  8
0
100
AcDbLine
 62
7
  6
CONTINUOUS
 10
160.1422998887
 20
269.6040302216
 11
160.0702550561
 21
269.6040302216
  0
LINE
  5
2FB
100
AcDbEntity
  8
0
100
AcDbLine
 62
7
  6
CONTINUOUS
 10
161.41714767
 20
270.2955195009
 11
161.1562818663
 21
270.2955195009
  0
LINE
  5
2FC
100
AcDbEntity
  8
0
100
AcDbLine
 62
7
  6
CONTINUOUS
 10
160.1422998887
 20
270.2955195009
 11
160.0755058951
 21
270.2955195009
  0
LINE
  5
2FD
100
AcDbEntity
  8
0
100
AcDbLine
 62
7
  6
CONTINUOUS
 10
161.41714767
 20
272.3699875324
 11
161.1562818663
 21
272.3699875324
  0
LINE
  5
2FE
100
AcDbEntity
  8
0
100
AcDbLine
 62
7
  6
CONTINUOUS
 10
161.3769771439
 20
273.0614771991
 11
161.1165193039
 21
273.0614771991
  0
LINE
  5
2FF
100
AcDbEntity
  8
0
100
AcDbLine
 62
7
  6
CONTINUOUS
 10
162.6781992761
 20
251.9806260376
 11
162.9646575001
 21
252.0976473002
  0
LINE
  5
300
100
AcDbEntity
  8
0
100
AcDbLine
 62
7
  6
CONTINUOUS
 10
165.313616052
 20
251.9806260376
 11
165.6000739482
 21
252.0976473002
  0
LINE
  5
301
100
AcDbEntity
  8
0
100
AcDbLine
 62
7
  6
CONTINUOUS
 10
165.6000739482
 20
252.6827536135
 11
165.2563239482
 21
252.5657323508
  0
LINE
  5
302
100
AcDbEntity
  8
0
100
AcDbLine
 62
7
  6
CONTINUOUS
 10
165.8165802992
 20
252.6090493326
 11
165.6893366501
 21
252.5657323508
  0
LINE
  5
303
100
AcDbEntity
  8
0
100
AcDbLine
 62
7
  6
CONTINUOUS
 10
161.298982404
 20
273.6146686225
 11
161.0393130482
 21
273.6146686225
  0
LINE
  5
304
100
AcDbEntity
  8
0
100
AcDbLine
 62
7
  6
CONTINUOUS
 10
160.6111805462
 20
273.7529664784
 11
160.2214642958
 21
273.7529664784
  0
LINE
  5
305
100
AcDbEntity
  8
0
100
AcDbLine
 62
7
  6
CONTINUOUS
 10
161.1522820345
 20
274.1678600459
 11
160.8940829424
 21
274.1678600459
  0
LINE
  5
306
100
AcDbEntity
  8
0
100
AcDbLine
 62
7
  6
CONTINUOUS
 10
161.017792241
 20
274.4444557576
 11
160.7609265543
 21
274.4444557576
  0
LINE
  5
307
100
AcDbEntity
  8
0
100
AcDbLine
 62
7
  6
CONTINUOUS
 10
160.0572852771
 20
274.5827536135
 11
160.054297816
 21
274.5827536135
  0
LINE
  5
308
100
AcDbEntity
  8
0
100
AcDbLine
 62
7
  6
CONTINUOUS
 10
160.8665631399
 20
274.5827536135
 11
160.0755058951
 21
274.5827536135
  0
LINE
  5
309
100
AcDbEntity
  8
0
100
AcDbLine
 62
7
  6
CONTINUOUS
 10
196.8027076828
 20
244.6827536135
 11
196.8027076828
 21
216.1827536135
  0
LINE
  5
30A
100
AcDbEntity
  8
FASEN
100
AcDbLine
 62
7
  6
CONTINUOUS
 10
196.8027076828
 20
244.6827536135
 11
196.8027076828
 21
216.1827536135
  0
LINE
  5
30B
100
AcDbEntity
  8
RUNDUNGEN
100
AcDbLine
 62
7
  6
CONTINUOUS
 10
199.3027076828
 20
287.5827536135
 11
199.3027076828
 21
310.5827536135
  0
LINE
  5
30C
100
AcDbEntity
  8
KONSTRUKTIONSELEMENTE
100
AcDbLine
 62
7
  6
CONTINUOUS
 10
199.7607167891
 20
244.6827536135
 11
199.7607167891
 21
255.6827536135
  0
LINE
  5
30D
100
AcDbEntity
  8
0
100
AcDbLine
 62
7
  6
CONTINUOUS
 10
165.8865325001
 20
247.8848812713
 11
165.6000739482
 21
247.7678600087
  0
LINE
  5
30E
100
AcDbEntity
  8
0
100
AcDbLine
 62
7
  6
CONTINUOUS
 10
166.319545202
 20
247.8848812713
 11
166.0330866501
 21
247.7678600087
  0
LINE
  5
30F
100
AcDbEntity
  8
0
100
AcDbLine
 62
7
  6
CONTINUOUS
 10
163.0219492761
 20
252.6827536135
 11
162.6209075001
 21
252.5657323508
  0
LINE
  5
310
100
AcDbEntity
  8
0
100
AcDbLine
 62
7
  6
CONTINUOUS
 10
163.3451985967
 20
252.6507254054
 11
163.053920202
 21
252.5657323508
  0
LINE
  5
311
100
AcDbEntity
  8
0
100
AcDbLine
 62
7
  6
CONTINUOUS
 10
199.8027076828
 20
307.299420598
 11
199.8027076828
 21
304.299420598
  0
LINE
  5
312
100
AcDbEntity
  8
0
100
AcDbLine
 62
7
  6
CONTINUOUS
 10
199.8027076828
 20
303.7426625673
 11
199.8027076828
 21
300.9926625673
  0
LINE
  5
313
100
AcDbEntity
  8
0
100
AcDbLine
 62
7
  6
CONTINUOUS
 10
199.8027076828
 20
299.6327536135
 11
199.8027076828
 21
296.5494201212
  0
LINE
  5
314
100
AcDbEntity
  8
0
100
AcDbLine
 62
7
  6
CONTINUOUS
 10
199.8027076828
 20
295.8827536135
 11
199.8027076828
 21
295.3827536135
  0
LINE
  5
315
100
AcDbEntity
  8
0
100
AcDbLine
 62
7
  6
CONTINUOUS
 10
199.8027076828
 20
294.7160868673
 11
199.8027076828
 21
291.3827536135
  0
LINE
  5
316
100
AcDbEntity
  8
0
100
AcDbLine
 62
7
  6
CONTINUOUS
 10
165.6000739482
 20
247.1827536135
 11
165.9438239482
 21
247.2997748864
  0
LINE
  5
317
100
AcDbEntity
  8
RUNDUNGEN
100
AcDbLine
 62
7
  6
CONTINUOUS
 10
210.8027076828
 20
282.5827536135
 11
204.3025641421
 21
282.5827536135
  0
LINE
  5
318
100
AcDbEntity
  8
RUNDUNGEN
100
AcDbLine
 62
7
  6
CONTINUOUS
 10
169.3028671661
 20
282.5827536135
 11
162.8027076828
 21
282.5827536135
  0
LINE
  5
319
100
AcDbEntity
  8
KONSTRUKTIONSELEMENTE
100
AcDbLine
 62
7
  6
CONTINUOUS
 10
204.1394017337
 20
244.6827536135
 11
204.1394017337
 21
255.6827536135
  0
LINE
  5
31A
100
AcDbEntity
  8
0
100
AcDbLine
 62
7
  6
CONTINUOUS
 10
199.3027076828
 20
291.3827536135
 11
199.8027076828
 21
291.3827536135
  0
LINE
  5
31B
100
AcDbEntity
  8
0
100
AcDbLine
 62
7
  6
CONTINUOUS
 10
199.3027076828
 20
291.8827536135
 11
199.8027076828
 21
291.8827536135
  0
LINE
  5
31C
100
AcDbEntity
  8
0
100
AcDbLine
 62
7
  6
CONTINUOUS
 10
199.3027076828
 20
293.0494202404
 11
199.8027076828
 21
293.0494202404
  0
LINE
  5
31D
100
AcDbEntity
  8
0
100
AcDbLine
 62
7
  6
CONTINUOUS
 10
199.3027076828
 20
294.2160868673
 11
199.8027076828
 21
294.2160868673
  0
LINE
  5
31E
100
AcDbEntity
  8
0
100
AcDbLine
 62
7
  6
CONTINUOUS
 10
213.3027076828
 20
280.0827536135
 11
213.3027076828
 21
255.6827536135
  0
LINE
  5
31F
100
AcDbEntity
  8
0
100
AcDbLine
 62
7
  6
CONTINUOUS
 10
199.3027076828
 20
294.7160868673
 11
199.8027076828
 21
294.7160868673
  0
LINE
  5
320
100
AcDbEntity
  8
0
100
AcDbLine
 62
7
  6
CONTINUOUS
 10
199.3027076828
 20
295.3827536135
 11
199.8027076828
 21
295.3827536135
  0
LINE
  5
321
100
AcDbEntity
  8
0
100
AcDbLine
 62
7
  6
CONTINUOUS
 10
199.3027076828
 20
295.8827536135
 11
199.8027076828
 21
295.8827536135
  0
LINE
  5
322
100
AcDbEntity
  8
0
100
AcDbLine
 62
7
  6
CONTINUOUS
 10
199.3027076828
 20
296.5494201212
 11
199.8027076828
 21
296.5494201212
  0
LINE
  5
323
100
AcDbEntity
  8
KONSTRUKTIONSELEMENTE
100
AcDbLine
 62
7
  6
CONTINUOUS
 10
217.09741084
 20
244.6827536135
 11
217.09741084
 21
255.6827536135
  0
LINE
  5
324
100
AcDbEntity
  8
0
100
AcDbLine
 62
7
  6
CONTINUOUS
 10
199.3027076828
 20
298.5494201212
 11
199.8027076828
 21
298.5494201212
  0
LINE
  5
325
100
AcDbEntity
  8
0
100
AcDbLine
 62
7
  6
CONTINUOUS
 10
199.3027076828
 20
298.9660871058
 11
199.8027076828
 21
298.9660871058
  0
LINE
  5
326
100
AcDbEntity
  8
0
100
AcDbLine
 62
7
  6
CONTINUOUS
 10
199.3027076828
 20
299.2994201212
 11
199.8027076828
 21
299.2994201212
  0
LINE
  5
327
100
AcDbEntity
  8
0
100
AcDbLine
 62
7
  6
CONTINUOUS
 10
199.3027076828
 20
299.549420598
 11
199.8027076828
 21
299.549420598
  0
LINE
  5
328
100
AcDbEntity
  8
0
100
AcDbLine
 62
7
  6
CONTINUOUS
 10
199.3027076828
 20
299.6327536135
 11
199.8027076828
 21
299.6327536135
  0
LINE
  5
329
100
AcDbEntity
  8
0
100
AcDbLine
 62
7
  6
CONTINUOUS
 10
199.3027076828
 20
300.9926625673
 11
199.8027076828
 21
300.9926625673
  0
LINE
  5
32A
100
AcDbEntity
  8
0
100
AcDbLine
 62
7
  6
CONTINUOUS
 10
199.3027076828
 20
303.7426625673
 11
199.8027076828
 21
303.7426625673
  0
LINE
  5
32B
100
AcDbEntity
  8
0
100
AcDbLine
 62
7
  6
CONTINUOUS
 10
199.3027076828
 20
304.299420598
 11
199.8027076828
 21
304.299420598
  0
LINE
  5
32C
100
AcDbEntity
  8
0
100
AcDbLine
 62
7
  6
CONTINUOUS
 10
199.3027076828
 20
304.3827536135
 11
199.8027076828
 21
304.3827536135
  0
LINE
  5
32D
100
AcDbEntity
  8
0
100
AcDbLine
 62
7
  6
CONTINUOUS
 10
199.3027076828
 20
304.549420598
 11
199.8027076828
 21
304.549420598
  0
LINE
  5
32E
100
AcDbEntity
  8
0
100
AcDbLine
 62
7
  6
CONTINUOUS
 10
199.3027076828
 20
304.799420598
 11
199.8027076828
 21
304.799420598
  0
LINE
  5
32F
100
AcDbEntity
  8
0
100
AcDbLine
 62
7
  6
CONTINUOUS
 10
199.3027076828
 20
305.2160866289
 11
199.8027076828
 21
305.2160866289
  0
LINE
  5
330
100
AcDbEntity
  8
0
100
AcDbLine
 62
7
  6
CONTINUOUS
 10
199.3027076828
 20
305.6327536135
 11
199.8027076828
 21
305.6327536135
  0
LINE
  5
331
100
AcDbEntity
  8
0
100
AcDbLine
 62
7
  6
CONTINUOUS
 10
199.3027076828
 20
305.9660866289
 11
199.8027076828
 21
305.9660866289
  0
LINE
  5
332
100
AcDbEntity
  8
0
100
AcDbLine
 62
7
  6
CONTINUOUS
 10
199.3027076828
 20
306.3827536135
 11
199.8027076828
 21
306.3827536135
  0
LINE
  5
333
100
AcDbEntity
  8
0
100
AcDbLine
 62
7
  6
CONTINUOUS
 10
199.3027076828
 20
306.799420598
 11
199.8027076828
 21
306.799420598
  0
LINE
  5
334
100
AcDbEntity
  8
0
100
AcDbLine
 62
7
  6
CONTINUOUS
 10
199.3027076828
 20
307.049420598
 11
199.8027076828
 21
307.049420598
  0
LINE
  5
335
100
AcDbEntity
  8
0
100
AcDbLine
 62
7
  6
CONTINUOUS
 10
199.3027076828
 20
307.2160866289
 11
199.8027076828
 21
307.2160866289
  0
LINE
  5
336
100
AcDbEntity
  8
0
100
AcDbLine
 62
7
  6
CONTINUOUS
 10
199.3027076828
 20
307.299420598
 11
199.8027076828
 21
307.299420598
  0
LINE
  5
337
100
AcDbEntity
  8
FASEN
100
AcDbLine
 62
7
  6
CONTINUOUS
 10
195.302707682
 20
214.6827536127
 11
196.8027076819
 21
216.1827536126
  0
LINE
  5
338
100
AcDbEntity
  8
FASEN
100
AcDbLine
 62
7
  6
CONTINUOUS
 10
316.8677994871
 20
214.6827536135
 11
299.8677994871
 21
214.6827536135
  0
LINE
  5
339
100
AcDbEntity
  8
FASEN
100
AcDbLine
 62
7
  6
CONTINUOUS
 10
318.3677994871
 20
216.1827536135
 11
298.3677994871
 21
216.1827536135
  0
LINE
  5
33A
100
AcDbEntity
  8
RUNDUNGEN
100
AcDbLine
 62
7
  6
CONTINUOUS
 10
289.118635518
 20
322.1899347619
 11
286.3034544515
 21
318.8349326121
  0
LINE
  5
33B
100
AcDbEntity
  8
FASEN
100
AcDbLine
 62
7
  6
CONTINUOUS
 10
299.8677994871
 20
214.6827536135
 11
298.3677994871
 21
216.1827536135
  0
LINE
  5
33C
100
AcDbEntity
  8
RUNDUNGEN
100
AcDbLine
 62
7
  6
CONTINUOUS
 10
282.2697232757
 20
298.7789060362
 11
284.8988884003
 21
303.3327536135
  0
LINE
  5
33D
100
AcDbEntity
  8
0
100
AcDbLine
 62
7
  6
CONTINUOUS
 10
288.4112841019
 20
247.0231791346
 11
288.7721280116
 21
246.7678599938
  0
LINE
  5
33E
100
AcDbEntity
  8
0
100
AcDbLine
 62
7
  6
CONTINUOUS
 10
288.844296778
 20
247.2784982829
 11
288.627790427
 21
247.533817461
  0
LINE
  5
33F
100
AcDbEntity
  8
0
100
AcDbLine
 62
7
  6
CONTINUOUS
 10
289.094296778
 20
247.2784982829
 11
288.877790427
 21
247.533817461
  0
LINE
  5
340
100
AcDbEntity
  8
0
100
AcDbLine
 62
7
  6
CONTINUOUS
 10
288.4112841019
 20
249.0657322912
 11
288.6999592451
 21
248.7253067999
  0
LINE
  5
341
100
AcDbEntity
  8
KONSTRUKTIONSELEMENTE
100
AcDbLine
 62
7
  6
CONTINUOUS
 10
280.8677994871
 20
244.6827536135
 11
280.8677994871
 21
255.6827536135
  0
LINE
  5
342
100
AcDbEntity
  8
0
100
AcDbLine
 62
7
  6
CONTINUOUS
 10
281.8677994871
 20
297.2789060362
 11
281.8677994871
 21
255.6827536135
  0
LINE
  5
343
100
AcDbEntity
  8
KONSTRUKTIONSELEMENTE
100
AcDbLine
 62
7
  6
CONTINUOUS
 10
283.3958344185
 20
244.6827536135
 11
283.3958344185
 21
255.6827536135
  0
LINE
  5
344
100
AcDbEntity
  8
RUNDUNGEN
100
AcDbLine
 62
7
  6
CONTINUOUS
 10
303.8540891381
 20
304.5145359102
 11
300.9363512323
 21
301.2740596771
  0
LINE
  5
345
100
AcDbEntity
  8
0
100
AcDbLine
 62
7
  6
CONTINUOUS
 10
327.1399213707
 20
247.8848812713
 11
326.6437606045
 21
247.7678600087
  0
LINE
  5
346
100
AcDbEntity
  8
0
100
AcDbLine
 62
7
  6
CONTINUOUS
 10
326.6437606045
 20
247.1827536135
 11
327.2391530696
 21
247.2997748864
  0
LINE
  5
347
100
AcDbEntity
  8
0
100
AcDbLine
 62
7
  6
CONTINUOUS
 10
326.5187606045
 20
247.2073217093
 11
326.9891530696
 21
247.2997748864
  0
LINE
  5
348
100
AcDbEntity
  8
KONSTRUKTIONSELEMENTE
100
AcDbLine
 62
7
  6
CONTINUOUS
 10
280.8677994871
 20
244.6827536135
 11
335.8677994871
 21
244.6827536135
  0
LINE
  5
349
100
AcDbEntity
  8
0
100
AcDbLine
 62
7
  6
CONTINUOUS
 10
288.7721280116
 20
246.7678599938
 11
289.1329718954
 21
246.6827536135
  0
LINE
  5
34A
100
AcDbEntity
  8
0
100
AcDbLine
 62
7
  6
CONTINUOUS
 10
296.1333439437
 20
246.7678599938
 11
296.4941881373
 21
246.6827536135
  0
LINE
  5
34B
100
AcDbEntity
  8
0
100
AcDbLine
 62
7
  6
CONTINUOUS
 10
289.1329718954
 20
247.1933919101
 11
288.844296778
 21
247.2784982829
  0
LINE
  5
34C
100
AcDbEntity
  8
0
100
AcDbLine
 62
7
  6
CONTINUOUS
 10
289.3829718954
 20
247.1933919101
 11
289.094296778
 21
247.2784982829
  0
LINE
  5
34D
100
AcDbEntity
  8
0
100
AcDbLine
 62
7
  6
CONTINUOUS
 10
288.9886343625
 20
248.5550940542
 11
289.2773095315
 21
248.4699876814
  0
LINE
  5
34E
100
AcDbEntity
  8
0
100
AcDbLine
 62
7
  6
CONTINUOUS
 10
289.7103222334
 20
248.4699876814
 11
289.9989974024
 21
248.3848813086
  0
LINE
  5
34F
100
AcDbEntity
  8
0
100
AcDbLine
 62
7
  6
CONTINUOUS
 10
296.4941881373
 20
247.1082855372
 11
296.2055124521
 21
247.1933919101
  0
LINE
  5
350
100
AcDbEntity
  8
0
100
AcDbLine
 62
7
  6
CONTINUOUS
 10
296.7441881373
 20
247.1082855372
 11
296.4555124521
 21
247.1933919101
  0
LINE
  5
351
100
AcDbEntity
  8
0
100
AcDbLine
 62
7
  6
CONTINUOUS
 10
289.2773095315
 20
248.9806259184
 11
289.0608031806
 21
249.0657322912
  0
LINE
  5
352
100
AcDbEntity
  8
0
100
AcDbLine
 62
7
  6
CONTINUOUS
 10
289.5273095315
 20
248.9806259184
 11
289.3108031806
 21
249.0657322912
  0
LINE
  5
353
100
AcDbEntity
  8
0
100
AcDbLine
 62
7
  6
CONTINUOUS
 10
289.7103222334
 20
250.1721153765
 11
289.9268284811
 21
250.0870090036
  0
LINE
  5
354
100
AcDbEntity
  8
0
100
AcDbLine
 62
7
  6
CONTINUOUS
 10
288.6999592451
 20
248.7253067999
 11
288.9886343625
 21
248.5550940542
  0
LINE
  5
355
100
AcDbEntity
  8
0
100
AcDbLine
 62
7
  6
CONTINUOUS
 10
290.359841183
 20
248.7253067999
 11
290.0711661172
 21
248.8955195456
  0
LINE
  5
356
100
AcDbEntity
  8
0
100
AcDbLine
 62
7
  6
CONTINUOUS
 10
290.609841183
 20
248.7253067999
 11
290.3211661172
 21
248.8955195456
  0
LINE
  5
357
100
AcDbEntity
  8
0
100
AcDbLine
 62
7
  6
CONTINUOUS
 10
295.7724997502
 20
247.0231791346
 11
296.1333439437
 21
246.7678599938
  0
LINE
  5
358
100
AcDbEntity
  8
0
100
AcDbLine
 62
7
  6
CONTINUOUS
 10
289.0608031806
 20
249.0657322912
 11
288.844296778
 21
249.2359450369
  0
LINE
  5
359
100
AcDbEntity
  8
0
100
AcDbLine
 62
7
  6
CONTINUOUS
 10
289.9989974024
 20
248.3848813086
 11
290.2155037534
 21
248.2146685629
  0
LINE
  5
35A
100
AcDbEntity
  8
0
100
AcDbLine
 62
7
  6
CONTINUOUS
 10
289.3108031806
 20
249.0657322912
 11
289.094296778
 21
249.2359450369
  0
LINE
  5
35B
100
AcDbEntity
  8
0
100
AcDbLine
 62
7
  6
CONTINUOUS
 10
296.2055124521
 20
247.1933919101
 11
295.9890061011
 21
247.3636046557
  0
LINE
  5
35C
100
AcDbEntity
  8
0
100
AcDbLine
 62
7
  6
CONTINUOUS
 10
296.4555124521
 20
247.1933919101
 11
296.2390061011
 21
247.3636046557
  0
LINE
  5
35D
100
AcDbEntity
  8
0
100
AcDbLine
 62
7
  6
CONTINUOUS
 10
290.2876724682
 20
250.3423281221
 11
289.9989974024
 21
250.5976472406
  0
LINE
  5
35E
100
AcDbEntity
  8
0
100
AcDbLine
 62
7
  6
CONTINUOUS
 10
290.5376724682
 20
250.3423281221
 11
290.2489974024
 21
250.5976472406
  0
LINE
  5
35F
100
AcDbEntity
  8
0
100
AcDbLine
 62
7
  6
CONTINUOUS
 10
290.6485164552
 20
248.3848813086
 11
290.359841183
 21
248.7253067999
  0
LINE
  5
360
100
AcDbEntity
  8
0
100
AcDbLine
 62
7
  6
CONTINUOUS
 10
290.8985164552
 20
248.3848813086
 11
290.609841183
 21
248.7253067999
  0
LINE
  5
361
100
AcDbEntity
  8
0
100
AcDbLine
 62
7
  6
CONTINUOUS
 10
289.9268284811
 20
250.0870090036
 11
290.0711661172
 21
249.916796258
  0
LINE
  5
362
100
AcDbEntity
  8
0
100
AcDbLine
 62
7
  6
CONTINUOUS
 10
290.5041788191
 20
250.0019026308
 11
290.2876724682
 21
250.3423281221
  0
LINE
  5
363
100
AcDbEntity
  8
0
100
AcDbLine
 62
7
  6
CONTINUOUS
 10
290.7541788191
 20
250.0019026308
 11
290.5376724682
 21
250.3423281221
  0
LINE
  5
364
100
AcDbEntity
  8
0
100
AcDbLine
 62
7
  6
CONTINUOUS
 10
290.2155037534
 20
248.2146685629
 11
290.359841183
 21
247.9593493252
  0
LINE
  5
365
100
AcDbEntity
  8
0
100
AcDbLine
 62
7
  6
CONTINUOUS
 10
288.1947777445
 20
247.4487110882
 11
288.4112841019
 21
247.0231791346
  0
LINE
  5
366
100
AcDbEntity
  8
0
100
AcDbLine
 62
7
  6
CONTINUOUS
 10
290.7928538849
 20
248.044455698
 11
290.6485164552
 21
248.3848813086
  0
LINE
  5
367
100
AcDbEntity
  8
0
100
AcDbLine
 62
7
  6
CONTINUOUS
 10
290.0711661172
 20
249.916796258
 11
290.1433348321
 21
249.7465835123
  0
LINE
  5
368
100
AcDbEntity
  8
0
100
AcDbLine
 62
7
  6
CONTINUOUS
 10
291.0428538849
 20
248.044455698
 11
290.8985164552
 21
248.3848813086
  0
LINE
  5
369
100
AcDbEntity
  8
0
100
AcDbLine
 62
7
  6
CONTINUOUS
 10
288.627790427
 20
247.533817461
 11
288.5556216606
 21
247.7891365795
  0
LINE
  5
36A
100
AcDbEntity
  8
0
100
AcDbLine
 62
7
  6
CONTINUOUS
 10
288.877790427
 20
247.533817461
 11
288.8056216606
 21
247.7891365795
  0
LINE
  5
36B
100
AcDbEntity
  8
0
100
AcDbLine
 62
7
  6
CONTINUOUS
 10
288.844296778
 20
249.2359450369
 11
288.7721280116
 21
249.4912641554
  0
LINE
  5
36C
100
AcDbEntity
  8
0
100
AcDbLine
 62
7
  6
CONTINUOUS
 10
289.094296778
 20
249.2359450369
 11
289.0221280116
 21
249.4912641554
  0
LINE
  5
36D
100
AcDbEntity
  8
0
100
AcDbLine
 62
7
  6
CONTINUOUS
 10
288.1226089587
 20
247.7891365795
 11
288.1947777445
 21
247.4487110882
  0
LINE
  5
36E
100
AcDbEntity
  8
RUNDUNGEN
100
AcDbLine
 62
7
  6
CONTINUOUS
 10
285.3677994871
 20
305.0827536135
 11
285.3677994871
 21
316.2639956845
  0
LINE
  5
36F
100
AcDbEntity
  8
0
100
AcDbLine
 62
7
  6
CONTINUOUS
 10
285.9575454493
 20
251.6827536135
 11
285.9575454493
 21
245.6827536135
  0
LINE
  5
370
100
AcDbEntity
  8
0
100
AcDbLine
 62
7
  6
CONTINUOUS
 10
286.2075454493
 20
251.6827536135
 11
286.2075454493
 21
245.6827536135
  0
LINE
  5
371
100
AcDbEntity
  8
0
100
AcDbLine
 62
7
  6
CONTINUOUS
 10
288.3391153097
 20
249.7465835123
 11
288.3391153097
 21
249.4061577826
  0
LINE
  5
372
100
AcDbEntity
  8
0
100
AcDbLine
 62
7
  6
CONTINUOUS
 10
326.147600974
 20
251.9806260376
 11
326.6437606045
 21
252.0976473002
  0
LINE
  5
373
100
AcDbEntity
  8
0
100
AcDbLine
 62
7
  6
CONTINUOUS
 10
325.897600974
 20
251.9806260376
 11
326.3937606045
 21
252.0976473002
  0
LINE
  5
374
100
AcDbEntity
  8
0
100
AcDbLine
 62
7
  6
CONTINUOUS
 10
300.3526267691
 20
246.6827536135
 11
300.7134709626
 21
246.7678599938
  0
LINE
  5
375
100
AcDbEntity
  8
0
100
AcDbLine
 62
7
  6
CONTINUOUS
 10
285.9575454493
 20
245.6827536135
 11
303.2780535249
 21
245.6827536135
  0
LINE
  5
376
100
AcDbEntity
  8
0
100
AcDbLine
 62
7
  6
CONTINUOUS
 10
289.1329718954
 20
246.6827536135
 11
289.9603222334
 21
246.6827536135
  0
LINE
  5
377
100
AcDbEntity
  8
0
100
AcDbLine
 62
7
  6
CONTINUOUS
 10
291.9475543544
 20
246.6827536135
 11
292.7749048989
 21
246.6827536135
  0
LINE
  5
378
100
AcDbEntity
  8
0
100
AcDbLine
 62
7
  6
CONTINUOUS
 10
293.679605162
 20
246.6827536135
 11
294.5069557065
 21
246.6827536135
  0
LINE
  5
379
100
AcDbEntity
  8
0
100
AcDbLine
 62
7
  6
CONTINUOUS
 10
296.4941881373
 20
246.6827536135
 11
297.1772008392
 21
246.6827536135
  0
LINE
  5
37A
100
AcDbEntity
  8
0
100
AcDbLine
 62
7
  6
CONTINUOUS
 10
299.6696140672
 20
246.6827536135
 11
300.3526267691
 21
246.6827536135
  0
LINE
  5
37B
100
AcDbEntity
  8
0
100
AcDbLine
 62
7
  6
CONTINUOUS
 10
300.7134709626
 20
246.7678599938
 11
300.4634709626
 21
246.7678599938
  0
LINE
  5
37C
100
AcDbEntity
  8
0
100
AcDbLine
 62
7
  6
CONTINUOUS
 10
297.5380442068
 20
246.7678599938
 11
297.2880442068
 21
246.7678599938
  0
LINE
  5
37D
100
AcDbEntity
  8
0
100
AcDbLine
 62
7
  6
CONTINUOUS
 10
290.3211661172
 20
246.7678599938
 11
290.0711661172
 21
246.7678599938
  0
LINE
  5
37E
100
AcDbEntity
  8
0
100
AcDbLine
 62
7
  6
CONTINUOUS
 10
290.609841183
 20
246.9380727618
 11
290.359841183
 21
246.9380727618
  0
LINE
  5
37F
100
AcDbEntity
  8
0
100
AcDbLine
 62
7
  6
CONTINUOUS
 10
301.0743151562
 20
247.0231791346
 11
300.8243151562
 21
247.0231791346
  0
LINE
  5
380
100
AcDbEntity
  8
0
100
AcDbLine
 62
7
  6
CONTINUOUS
 10
297.8988884003
 20
247.0231791346
 11
297.6488884003
 21
247.0231791346
  0
LINE
  5
381
100
AcDbEntity
  8
0
100
AcDbLine
 62
7
  6
CONTINUOUS
 10
300.1026267691
 20
247.1082855372
 11
299.6696140672
 21
247.1082855372
  0
LINE
  5
382
100
AcDbEntity
  8
0
100
AcDbLine
 62
7
  6
CONTINUOUS
 10
296.9272008392
 20
247.1082855372
 11
296.4941881373
 21
247.1082855372
  0
LINE
  5
383
100
AcDbEntity
  8
0
100
AcDbLine
 62
7
  6
CONTINUOUS
 10
314.9343758361
 20
247.1827536135
 11
315.5297683012
 21
247.1827536135
  0
LINE
  5
384
100
AcDbEntity
  8
0
100
AcDbLine
 62
7
  6
CONTINUOUS
 10
316.9190173391
 20
247.1827536135
 11
317.7128739119
 21
247.1827536135
  0
LINE
  5
385
100
AcDbEntity
  8
0
100
AcDbLine
 62
7
  6
CONTINUOUS
 10
319.1021230918
 20
247.1827536135
 11
319.6975155569
 21
247.1827536135
  0
LINE
  5
386
100
AcDbEntity
  8
0
100
AcDbLine
 62
7
  6
CONTINUOUS
 10
320.4913719878
 20
247.1827536135
 11
324.0637267784
 21
247.1827536135
  0
LINE
  5
387
100
AcDbEntity
  8
0
100
AcDbLine
 62
7
  6
CONTINUOUS
 10
299.6309392079
 20
247.1933919101
 11
299.3809392079
 21
247.1933919101
  0
LINE
  5
388
100
AcDbEntity
  8
0
100
AcDbLine
 62
7
  6
CONTINUOUS
 10
296.4555124521
 20
247.1933919101
 11
296.2055124521
 21
247.1933919101
  0
LINE
  5
389
100
AcDbEntity
  8
0
100
AcDbLine
 62
7
  6
CONTINUOUS
 10
289.7103222334
 20
247.1933919101
 11
289.1329718954
 21
247.1933919101
  0
LINE
  5
38A
100
AcDbEntity
  8
0
100
AcDbLine
 62
7
  6
CONTINUOUS
 10
290.8985164552
 20
247.2784982829
 11
290.6485164552
 21
247.2784982829
  0
LINE
  5
38B
100
AcDbEntity
  8
0
100
AcDbLine
 62
7
  6
CONTINUOUS
 10
289.094296778
 20
247.2784982829
 11
288.844296778
 21
247.2784982829
  0
LINE
  5
38C
100
AcDbEntity
  8
0
100
AcDbLine
 62
7
  6
CONTINUOUS
 10
327.2391530696
 20
247.2997748864
 11
326.9891530696
 21
247.2997748864
  0
LINE
  5
38D
100
AcDbEntity
  8
0
100
AcDbLine
 62
7
  6
CONTINUOUS
 10
301.2908215071
 20
247.3636046557
 11
301.0408215071
 21
247.3636046557
  0
LINE
  5
38E
100
AcDbEntity
  8
0
100
AcDbLine
 62
7
  6
CONTINUOUS
 10
299.414432857
 20
247.3636046557
 11
299.164432857
 21
247.3636046557
  0
LINE
  5
38F
100
AcDbEntity
  8
0
100
AcDbLine
 62
7
  6
CONTINUOUS
 10
298.1153947513
 20
247.3636046557
 11
297.8653947513
 21
247.3636046557
  0
LINE
  5
390
100
AcDbEntity
  8
0
100
AcDbLine
 62
7
  6
CONTINUOUS
 10
296.2390061011
 20
247.3636046557
 11
295.9890061011
 21
247.3636046557
  0
LINE
  5
391
100
AcDbEntity
  8
0
100
AcDbLine
 62
7
  6
CONTINUOUS
 10
288.877790427
 20
247.533817461
 11
288.627790427
 21
247.533817461
  0
LINE
  5
392
100
AcDbEntity
  8
0
100
AcDbLine
 62
7
  6
CONTINUOUS
 10
291.0428538849
 20
247.6189238339
 11
290.7928538849
 21
247.6189238339
  0
LINE
  5
393
100
AcDbEntity
  8
0
100
AcDbLine
 62
7
  6
CONTINUOUS
 10
327.7353138358
 20
247.650838705
 11
327.4853138358
 21
247.650838705
  0
LINE
  5
394
100
AcDbEntity
  8
0
100
AcDbLine
 62
7
  6
CONTINUOUS
 10
299.2700950144
 20
247.7040302067
 11
298.5870823125
 21
247.7040302067
  0
LINE
  5
395
100
AcDbEntity
  8
0
100
AcDbLine
 62
7
  6
CONTINUOUS
 10
296.0946690844
 20
247.7040302067
 11
295.4116563825
 21
247.7040302067
  0
LINE
  5
396
100
AcDbEntity
  8
0
100
AcDbLine
 62
7
  6
CONTINUOUS
 10
326.6437606045
 20
247.7678600087
 11
326.3937606045
 21
247.7678600087
  0
LINE
  5
397
100
AcDbEntity
  8
0
100
AcDbLine
 62
7
  6
CONTINUOUS
 10
324.0637267784
 20
247.7678600087
 11
321.0352289864
 21
247.7678600087
  0
LINE
  5
398
100
AcDbEntity
  8
0
100
AcDbLine
 62
7
  6
CONTINUOUS
 10
317.3159456965
 20
247.7678600087
 11
317.0659456965
 21
247.7678600087
  0
LINE
  5
399
100
AcDbEntity
  8
0
100
AcDbLine
 62
7
  6
CONTINUOUS
 10
301.4351585238
 20
247.7891365795
 11
301.1851585238
 21
247.7891365795
  0
LINE
  5
39A
100
AcDbEntity
  8
0
100
AcDbLine
 62
7
  6
CONTINUOUS
 10
298.2597325939
 20
247.7891365795
 11
298.0097325939
 21
247.7891365795
  0
LINE
  5
39B
100
AcDbEntity
  8
0
100
AcDbLine
 62
7
  6
CONTINUOUS
 10
288.8056216606
 20
247.7891365795
 11
288.1226089587
 21
247.7891365795
  0
LINE
  5
39C
100
AcDbEntity
  8
0
100
AcDbLine
 62
7
  6
CONTINUOUS
 10
326.147600974
 20
247.8848812713
 11
325.897600974
 21
247.8848812713
  0
LINE
  5
39D
100
AcDbEntity
  8
0
100
AcDbLine
 62
7
  6
CONTINUOUS
 10
328.0330100683
 20
248.001902534
 11
327.7830100683
 21
248.001902534
  0
LINE
  5
39E
100
AcDbEntity
  8
0
100
AcDbLine
 62
7
  6
CONTINUOUS
 10
291.0428538849
 20
248.044455698
 11
290.7928538849
 21
248.044455698
  0
LINE
  5
39F
100
AcDbEntity
  8
0
100
AcDbLine
 62
7
  6
CONTINUOUS
 10
325.8499047415
 20
248.1189237966
 11
325.5999047415
 21
248.1189237966
  0
LINE
  5
3A0
100
AcDbEntity
  8
0
100
AcDbLine
 62
7
  6
CONTINUOUS
 10
301.4351585238
 20
248.1295620709
 11
301.1851585238
 21
248.1295620709
  0
LINE
  5
3A1
100
AcDbEntity
  8
0
100
AcDbLine
 62
7
  6
CONTINUOUS
 10
298.2597325939
 20
248.1295620709
 11
298.0097325939
 21
248.1295620709
  0
LINE
  5
3A2
100
AcDbEntity
  8
0
100
AcDbLine
 62
7
  6
CONTINUOUS
 10
290.8985164552
 20
248.3848813086
 11
290.6485164552
 21
248.3848813086
  0
LINE
  5
3A3
100
AcDbEntity
  8
0
100
AcDbLine
 62
7
  6
CONTINUOUS
 10
328.2314746019
 20
248.4699876665
 11
327.9814746019
 21
248.4699876665
  0
LINE
  5
3A4
100
AcDbEntity
  8
0
100
AcDbLine
 62
7
  6
CONTINUOUS
 10
289.2773095315
 20
248.4699876814
 11
289.7103222334
 21
248.4699876814
  0
LINE
  5
3A5
100
AcDbEntity
  8
0
100
AcDbLine
 62
7
  6
CONTINUOUS
 10
295.4116563825
 20
248.4699876814
 11
296.1668375928
 21
248.4699876814
  0
LINE
  5
3A6
100
AcDbEntity
  8
0
100
AcDbLine
 62
7
  6
CONTINUOUS
 10
298.5870823125
 20
248.4699876814
 11
299.3422643486
 21
248.4699876814
  0
LINE
  5
3A7
100
AcDbEntity
  8
0
100
AcDbLine
 62
7
  6
CONTINUOUS
 10
301.2908215071
 20
248.5550940542
 11
301.0408215071
 21
248.5550940542
  0
LINE
  5
3A8
100
AcDbEntity
  8
0
100
AcDbLine
 62
7
  6
CONTINUOUS
 10
298.1153947513
 20
248.5550940542
 11
297.8653947513
 21
248.5550940542
  0
LINE
  5
3A9
100
AcDbEntity
  8
0
100
AcDbLine
 62
7
  6
CONTINUOUS
 10
299.6309392079
 20
248.7253067999
 11
299.3809392079
 21
248.7253067999
  0
LINE
  5
3AA
100
AcDbEntity
  8
0
100
AcDbLine
 62
7
  6
CONTINUOUS
 10
296.4555124521
 20
248.7253067999
 11
296.2055124521
 21
248.7253067999
  0
LINE
  5
3AB
100
AcDbEntity
  8
0
100
AcDbLine
 62
7
  6
CONTINUOUS
 10
290.609841183
 20
248.7253067999
 11
290.359841183
 21
248.7253067999
  0
LINE
  5
3AC
100
AcDbEntity
  8
0
100
AcDbLine
 62
7
  6
CONTINUOUS
 10
296.4941881373
 20
248.8104131727
 11
296.9272008392
 21
248.8104131727
  0
LINE
  5
3AD
100
AcDbEntity
  8
0
100
AcDbLine
 62
7
  6
CONTINUOUS
 10
299.6696140672
 20
248.8104131727
 11
300.1026267691
 21
248.8104131727
  0
LINE
  5
3AE
100
AcDbEntity
  8
0
100
AcDbLine
 62
7
  6
CONTINUOUS
 10
328.3307063009
 20
248.8210514544
 11
328.0807063009
 21
248.8210514544
  0
LINE
  5
3AF
100
AcDbEntity
  8
0
100
AcDbLine
 62
7
  6
CONTINUOUS
 10
325.4529756743
 20
248.8210514544
 11
325.2029756743
 21
248.8210514544
  0
LINE
  5
3B0
100
AcDbEntity
  8
0
100
AcDbLine
 62
7
  6
CONTINUOUS
 10
301.0743151562
 20
248.8955195456
 11
300.8243151562
 21
248.8955195456
  0
LINE
  5
3B1
100
AcDbEntity
  8
0
100
AcDbLine
 62
7
  6
CONTINUOUS
 10
297.8988884003
 20
248.8955195456
 11
297.6488884003
 21
248.8955195456
  0
LINE
  5
3B2
100
AcDbEntity
  8
0
100
AcDbLine
 62
7
  6
CONTINUOUS
 10
290.3211661172
 20
248.8955195456
 11
290.0711661172
 21
248.8955195456
  0
LINE
  5
3B3
100
AcDbEntity
  8
0
100
AcDbLine
 62
7
  6
CONTINUOUS
 10
289.9603222334
 20
248.9806259184
 11
289.2773095315
 21
248.9806259184
  0
LINE
  5
3B4
100
AcDbEntity
  8
0
100
AcDbLine
 62
7
  6
CONTINUOUS
 10
289.3108031806
 20
249.0657322912
 11
289.0608031806
 21
249.0657322912
  0
LINE
  5
3B5
100
AcDbEntity
  8
0
100
AcDbLine
 62
7
  6
CONTINUOUS
 10
300.7134709626
 20
249.1508386641
 11
300.4634709626
 21
249.1508386641
  0
LINE
  5
3B6
100
AcDbEntity
  8
0
100
AcDbLine
 62
7
  6
CONTINUOUS
 10
297.5380442068
 20
249.1508386641
 11
297.2880442068
 21
249.1508386641
  0
LINE
  5
3B7
100
AcDbEntity
  8
0
100
AcDbLine
 62
7
  6
CONTINUOUS
 10
290.0711661172
 20
248.8955195456
 11
289.7103222334
 21
248.9806259184
  0
LINE
  5
3B8
100
AcDbEntity
  8
0
100
AcDbLine
 62
7
  6
CONTINUOUS
 10
299.3087706996
 20
246.7678599938
 11
299.6696140672
 21
246.6827536135
  0
LINE
  5
3B9
100
AcDbEntity
  8
0
100
AcDbLine
 62
7
  6
CONTINUOUS
 10
290.3211661172
 20
248.8955195456
 11
289.9603222334
 21
248.9806259184
  0
LINE
  5
3BA
100
AcDbEntity
  8
0
100
AcDbLine
 62
7
  6
CONTINUOUS
 10
289.9989974024
 20
250.5976472406
 11
289.6381534153
 21
250.6827536135
  0
LINE
  5
3BB
100
AcDbEntity
  8
0
100
AcDbLine
 62
7
  6
CONTINUOUS
 10
290.2489974024
 20
250.5976472406
 11
289.8881534153
 21
250.6827536135
  0
LINE
  5
3BC
100
AcDbEntity
  8
0
100
AcDbLine
 62
7
  6
CONTINUOUS
 10
297.2880442068
 20
249.1508386641
 11
296.9272008392
 21
249.2359450369
  0
LINE
  5
3BD
100
AcDbEntity
  8
0
100
AcDbLine
 62
7
  6
CONTINUOUS
 10
297.5380442068
 20
249.1508386641
 11
297.1772008392
 21
249.2359450369
  0
LINE
  5
3BE
100
AcDbEntity
  8
0
100
AcDbLine
 62
7
  6
CONTINUOUS
 10
300.4634709626
 20
249.1508386641
 11
300.1026267691
 21
249.2359450369
  0
LINE
  5
3BF
100
AcDbEntity
  8
0
100
AcDbLine
 62
7
  6
CONTINUOUS
 10
300.7134709626
 20
249.1508386641
 11
300.3526267691
 21
249.2359450369
  0
LINE
  5
3C0
100
AcDbEntity
  8
0
100
AcDbLine
 62
7
  6
CONTINUOUS
 10
299.6696140672
 20
247.1082855372
 11
299.3809392079
 21
247.1933919101
  0
LINE
  5
3C1
100
AcDbEntity
  8
0
100
AcDbLine
 62
7
  6
CONTINUOUS
 10
299.9196140672
 20
247.1082855372
 11
299.6309392079
 21
247.1933919101
  0
LINE
  5
3C2
100
AcDbEntity
  8
0
100
AcDbLine
 62
7
  6
CONTINUOUS
 10
296.9272008392
 20
248.8104131727
 11
297.2158756985
 21
248.7253067999
  0
LINE
  5
3C3
100
AcDbEntity
  8
0
100
AcDbLine
 62
7
  6
CONTINUOUS
 10
300.1026267691
 20
248.8104131727
 11
300.3913024543
 21
248.7253067999
  0
LINE
  5
3C4
100
AcDbEntity
  8
0
100
AcDbLine
 62
7
  6
CONTINUOUS
 10
298.947926506
 20
247.0231791346
 11
299.3087706996
 21
246.7678599938
  0
LINE
  5
3C5
100
AcDbEntity
  8
0
100
AcDbLine
 62
7
  6
CONTINUOUS
 10
297.6488884003
 20
248.8955195456
 11
297.2880442068
 21
249.1508386641
  0
LINE
  5
3C6
100
AcDbEntity
  8
0
100
AcDbLine
 62
7
  6
CONTINUOUS
 10
297.8988884003
 20
248.8955195456
 11
297.5380442068
 21
249.1508386641
  0
LINE
  5
3C7
100
AcDbEntity
  8
0
100
AcDbLine
 62
7
  6
CONTINUOUS
 10
300.8243151562
 20
248.8955195456
 11
300.4634709626
 21
249.1508386641
  0
LINE
  5
3C8
100
AcDbEntity
  8
0
100
AcDbLine
 62
7
  6
CONTINUOUS
 10
301.0743151562
 20
248.8955195456
 11
300.7134709626
 21
249.1508386641
  0
LINE
  5
3C9
100
AcDbEntity
  8
0
100
AcDbLine
 62
7
  6
CONTINUOUS
 10
297.2158756985
 20
248.7253067999
 11
297.4323820494
 21
248.5550940542
  0
LINE
  5
3CA
100
AcDbEntity
  8
0
100
AcDbLine
 62
7
  6
CONTINUOUS
 10
299.3809392079
 20
247.1933919101
 11
299.164432857
 21
247.3636046557
  0
LINE
  5
3CB
100
AcDbEntity
  8
0
100
AcDbLine
 62
7
  6
CONTINUOUS
 10
299.6309392079
 20
247.1933919101
 11
299.414432857
 21
247.3636046557
  0
LINE
  5
3CC
100
AcDbEntity
  8
0
100
AcDbLine
 62
7
  6
CONTINUOUS
 10
300.3913024543
 20
248.7253067999
 11
300.6078088052
 21
248.5550940542
  0
LINE
  5
3CD
100
AcDbEntity
  8
0
100
AcDbLine
 62
7
  6
CONTINUOUS
 10
295.5559933992
 20
247.3636046557
 11
295.7724997502
 21
247.0231791346
  0
LINE
  5
3CE
100
AcDbEntity
  8
0
100
AcDbLine
 62
7
  6
CONTINUOUS
 10
297.8653947513
 20
248.5550940542
 11
297.6488884003
 21
248.8955195456
  0
LINE
  5
3CF
100
AcDbEntity
  8
0
100
AcDbLine
 62
7
  6
CONTINUOUS
 10
295.4116563825
 20
247.7040302067
 11
295.5559933992
 21
247.3636046557
  0
LINE
  5
3D0
100
AcDbEntity
  8
0
100
AcDbLine
 62
7
  6
CONTINUOUS
 10
295.9890061011
 20
247.3636046557
 11
295.8446690844
 21
247.7040302067
  0
LINE
  5
3D1
100
AcDbEntity
  8
0
100
AcDbLine
 62
7
  6
CONTINUOUS
 10
290.5763475339
 20
249.7465835123
 11
290.5041788191
 21
250.0019026308
  0
LINE
  5
3D2
100
AcDbEntity
  8
0
100
AcDbLine
 62
7
  6
CONTINUOUS
 10
290.8263475339
 20
249.7465835123
 11
290.7541788191
 21
250.0019026308
  0
LINE
  5
3D3
100
AcDbEntity
  8
0
100
AcDbLine
 62
7
  6
CONTINUOUS
 10
288.3391153097
 20
249.4061577826
 11
288.4112841019
 21
249.0657322912
  0
LINE
  5
3D4
100
AcDbEntity
  8
0
100
AcDbLine
 62
7
  6
CONTINUOUS
 10
288.7721280116
 20
249.4912641554
 11
288.7721280116
 21
249.6614769011
  0
LINE
  5
3D5
100
AcDbEntity
  8
0
100
AcDbLine
 62
7
  6
CONTINUOUS
 10
289.0221280116
 20
249.4912641554
 11
289.0221280116
 21
249.6614769011
  0
LINE
  5
3D6
100
AcDbEntity
  8
0
100
AcDbLine
 62
7
  6
CONTINUOUS
 10
290.359841183
 20
247.9593493252
 11
290.359841183
 21
247.7040302067
  0
LINE
  5
3D7
100
AcDbEntity
  8
0
100
AcDbLine
 62
7
  6
CONTINUOUS
 10
290.3677994871
 20
265.0827536135
 11
290.3677994871
 21
258.5827536135
  0
LINE
  5
3D8
100
AcDbEntity
  8
0
100
AcDbLine
 62
7
  6
CONTINUOUS
 10
290.7928538849
 20
247.6189238339
 11
290.7928538849
 21
248.044455698
  0
LINE
  5
3D9
100
AcDbEntity
  8
0
100
AcDbLine
 62
7
  6
CONTINUOUS
 10
291.0428538849
 20
247.6189238339
 11
291.0428538849
 21
248.044455698
  0
LINE
  5
3DA
100
AcDbEntity
  8
0
100
AcDbLine
 62
7
  6
CONTINUOUS
 10
291.1802994871
 20
264.3912643342
 11
291.1802994871
 21
262.316796109
  0
LINE
  5
3DB
100
AcDbEntity
  8
0
100
AcDbLine
 62
7
  6
CONTINUOUS
 10
291.1802994871
 20
261.4870089738
 11
291.1802994871
 21
258.5827536135
  0
LINE
  5
3DC
100
AcDbEntity
  8
0
100
AcDbLine
 62
7
  6
CONTINUOUS
 10
300.1026267691
 20
246.6827536135
 11
300.4634709626
 21
246.7678599938
  0
LINE
  5
3DD
100
AcDbEntity
  8
0
100
AcDbLine
 62
7
  6
CONTINUOUS
 10
321.582925219
 20
251.9806260376
 11
322.0790854173
 21
252.0976473002
  0
LINE
  5
3DE
100
AcDbEntity
  8
0
100
AcDbLine
 62
7
  6
CONTINUOUS
 10
321.332925219
 20
251.9806260376
 11
321.8290854173
 21
252.0976473002
  0
LINE
  5
3DF
100
AcDbEntity
  8
0
100
AcDbLine
 62
7
  6
CONTINUOUS
 10
297.1772008392
 20
246.6827536135
 11
297.5380442068
 21
246.7678599938
  0
LINE
  5
3E0
100
AcDbEntity
  8
0
100
AcDbLine
 62
7
  6
CONTINUOUS
 10
296.9272008392
 20
246.6827536135
 11
297.2880442068
 21
246.7678599938
  0
LINE
  5
3E1
100
AcDbEntity
  8
0
100
AcDbLine
 62
7
  6
CONTINUOUS
 10
289.9603222334
 20
246.6827536135
 11
290.3211661172
 21
246.7678599938
  0
LINE
  5
3E2
100
AcDbEntity
  8
0
100
AcDbLine
 62
7
  6
CONTINUOUS
 10
289.7103222334
 20
246.6827536135
 11
290.0711661172
 21
246.7678599938
  0
LINE
  5
3E3
100
AcDbEntity
  8
0
100
AcDbLine
 62
7
  6
CONTINUOUS
 10
299.6696140672
 20
249.2359450369
 11
299.3087706996
 21
249.1508386641
  0
LINE
  5
3E4
100
AcDbEntity
  8
0
100
AcDbLine
 62
7
  6
CONTINUOUS
 10
296.4941881373
 20
249.2359450369
 11
296.1333439437
 21
249.1508386641
  0
LINE
  5
3E5
100
AcDbEntity
  8
0
100
AcDbLine
 62
7
  6
CONTINUOUS
 10
326.6437606045
 20
252.6827536135
 11
326.0483681394
 21
252.5657323508
  0
LINE
  5
3E6
100
AcDbEntity
  8
0
100
AcDbLine
 62
7
  6
CONTINUOUS
 10
322.1783176841
 20
252.6827536135
 11
321.4836929522
 21
252.5657323508
  0
LINE
  5
3E7
100
AcDbEntity
  8
0
100
AcDbLine
 62
7
  6
CONTINUOUS
 10
300.3526267691
 20
249.2359450369
 11
299.6696140672
 21
249.2359450369
  0
LINE
  5
3E8
100
AcDbEntity
  8
0
100
AcDbLine
 62
7
  6
CONTINUOUS
 10
297.1772008392
 20
249.2359450369
 11
296.4941881373
 21
249.2359450369
  0
LINE
  5
3E9
100
AcDbEntity
  8
0
100
AcDbLine
 62
7
  6
CONTINUOUS
 10
289.094296778
 20
249.2359450369
 11
288.844296778
 21
249.2359450369
  0
LINE
  5
3EA
100
AcDbEntity
  8
0
100
AcDbLine
 62
7
  6
CONTINUOUS
 10
328.4299379998
 20
249.4061579316
 11
328.1799379998
 21
249.4061579316
  0
LINE
  5
3EB
100
AcDbEntity
  8
0
100
AcDbLine
 62
7
  6
CONTINUOUS
 10
289.0221280116
 20
249.4912641554
 11
288.7721280116
 21
249.4912641554
  0
LINE
  5
3EC
100
AcDbEntity
  8
0
100
AcDbLine
 62
7
  6
CONTINUOUS
 10
325.3537439754
 20
249.5231791942
 11
325.1037439754
 21
249.5231791942
  0
LINE
  5
3ED
100
AcDbEntity
  8
0
100
AcDbLine
 62
7
  6
CONTINUOUS
 10
289.0221280116
 20
249.6614769011
 11
288.7721280116
 21
249.6614769011
  0
LINE
  5
3EE
100
AcDbEntity
  8
0
100
AcDbLine
 62
7
  6
CONTINUOUS
 10
290.1433348321
 20
249.7465835123
 11
290.8263475339
 21
249.7465835123
  0
LINE
  5
3EF
100
AcDbEntity
  8
0
100
AcDbLine
 62
7
  6
CONTINUOUS
 10
289.094296778
 20
249.916796258
 11
288.844296778
 21
249.916796258
  0
LINE
  5
3F0
100
AcDbEntity
  8
0
100
AcDbLine
 62
7
  6
CONTINUOUS
 10
290.7541788191
 20
250.0019026308
 11
290.5041788191
 21
250.0019026308
  0
LINE
  5
3F1
100
AcDbEntity
  8
0
100
AcDbLine
 62
7
  6
CONTINUOUS
 10
289.3108031806
 20
250.0870090036
 11
289.0608031806
 21
250.0870090036
  0
LINE
  5
3F2
100
AcDbEntity
  8
0
100
AcDbLine
 62
7
  6
CONTINUOUS
 10
289.2773095315
 20
250.1721153765
 11
289.7103222334
 21
250.1721153765
  0
LINE
  5
3F3
100
AcDbEntity
  8
0
100
AcDbLine
 62
7
  6
CONTINUOUS
 10
295.7724997502
 20
250.2572217493
 11
298.1153947513
 21
250.2572217493
  0
LINE
  5
3F4
100
AcDbEntity
  8
0
100
AcDbLine
 62
7
  6
CONTINUOUS
 10
298.947926506
 20
250.2572217493
 11
301.2908215071
 21
250.2572217493
  0
LINE
  5
3F5
100
AcDbEntity
  8
0
100
AcDbLine
 62
7
  6
CONTINUOUS
 10
325.3537439754
 20
250.3423280327
 11
325.1037439754
 21
250.3423280327
  0
LINE
  5
3F6
100
AcDbEntity
  8
0
100
AcDbLine
 62
7
  6
CONTINUOUS
 10
323.7660305458
 20
250.3423280327
 11
323.5160305458
 21
250.3423280327
  0
LINE
  5
3F7
100
AcDbEntity
  8
0
100
AcDbLine
 62
7
  6
CONTINUOUS
 10
290.5376724682
 20
250.3423281221
 11
290.2876724682
 21
250.3423281221
  0
LINE
  5
3F8
100
AcDbEntity
  8
0
100
AcDbLine
 62
7
  6
CONTINUOUS
 10
328.4299379998
 20
250.4593492954
 11
328.1799379998
 21
250.4593492954
  0
LINE
  5
3F9
100
AcDbEntity
  8
0
100
AcDbLine
 62
7
  6
CONTINUOUS
 10
290.2489974024
 20
250.5976472406
 11
289.9989974024
 21
250.5976472406
  0
LINE
  5
3FA
100
AcDbEntity
  8
0
100
AcDbLine
 62
7
  6
CONTINUOUS
 10
301.2908215071
 20
250.6827536135
 11
298.5870823125
 21
250.6827536135
  0
LINE
  5
3FB
100
AcDbEntity
  8
0
100
AcDbLine
 62
7
  6
CONTINUOUS
 10
298.1153947513
 20
250.6827536135
 11
295.4116563825
 21
250.6827536135
  0
LINE
  5
3FC
100
AcDbEntity
  8
0
100
AcDbLine
 62
7
  6
CONTINUOUS
 10
295.084305838
 20
250.6827536135
 11
294.4012931362
 21
250.6827536135
  0
LINE
  5
3FD
100
AcDbEntity
  8
0
100
AcDbLine
 62
7
  6
CONTINUOUS
 10
293.6409303027
 20
250.6827536135
 11
292.8135797582
 21
250.6827536135
  0
LINE
  5
3FE
100
AcDbEntity
  8
0
100
AcDbLine
 62
7
  6
CONTINUOUS
 10
292.0532169248
 20
250.6827536135
 11
291.3702042229
 21
250.6827536135
  0
LINE
  5
3FF
100
AcDbEntity
  8
0
100
AcDbLine
 62
7
  6
CONTINUOUS
 10
289.8881534153
 20
250.6827536135
 11
289.2773095315
 21
250.6827536135
  0
LINE
  5
400
100
AcDbEntity
  8
0
100
AcDbLine
 62
7
  6
CONTINUOUS
 10
323.9644950794
 20
250.6933918207
 11
323.7144950794
 21
250.6933918207
  0
LINE
  5
401
100
AcDbEntity
  8
0
100
AcDbLine
 62
7
  6
CONTINUOUS
 10
328.3307063009
 20
251.0444556086
 11
328.0807063009
 21
251.0444556086
  0
LINE
  5
402
100
AcDbEntity
  8
0
100
AcDbLine
 62
7
  6
CONTINUOUS
 10
325.4529756743
 20
251.0444556086
 11
325.2029756743
 21
251.0444556086
  0
LINE
  5
403
100
AcDbEntity
  8
0
100
AcDbLine
 62
7
  6
CONTINUOUS
 10
324.0637267784
 20
251.1614768713
 11
323.8137267784
 21
251.1614768713
  0
LINE
  5
404
100
AcDbEntity
  8
0
100
AcDbLine
 62
7
  6
CONTINUOUS
 10
328.2314746019
 20
251.3955197244
 11
327.9814746019
 21
251.3955197244
  0
LINE
  5
405
100
AcDbEntity
  8
0
100
AcDbLine
 62
7
  6
CONTINUOUS
 10
324.0637267784
 20
251.3955197244
 11
323.8137267784
 21
251.3955197244
  0
LINE
  5
406
100
AcDbEntity
  8
0
100
AcDbLine
 62
7
  6
CONTINUOUS
 10
320.5906042545
 20
251.3955197244
 11
321.0867644529
 21
251.3955197244
  0
LINE
  5
407
100
AcDbEntity
  8
0
100
AcDbLine
 62
7
  6
CONTINUOUS
 10
319.1021230918
 20
251.512540987
 11
318.8521230918
 21
251.512540987
  0
LINE
  5
408
100
AcDbEntity
  8
0
100
AcDbLine
 62
7
  6
CONTINUOUS
 10
315.5297683012
 20
251.512540987
 11
315.2797683012
 21
251.512540987
  0
LINE
  5
409
100
AcDbEntity
  8
0
100
AcDbLine
 62
7
  6
CONTINUOUS
 10
303.2780535249
 20
251.6827536135
 11
285.9575454493
 21
251.6827536135
  0
LINE
  5
40A
100
AcDbEntity
  8
0
100
AcDbLine
 62
7
  6
CONTINUOUS
 10
325.8499047415
 20
251.7465835123
 11
325.5999047415
 21
251.7465835123
  0
LINE
  5
40B
100
AcDbEntity
  8
0
100
AcDbLine
 62
7
  6
CONTINUOUS
 10
321.2852289864
 20
251.7465835123
 11
321.0352289864
 21
251.7465835123
  0
LINE
  5
40C
100
AcDbEntity
  8
0
100
AcDbLine
 62
7
  6
CONTINUOUS
 10
328.0330100683
 20
251.863604775
 11
327.7830100683
 21
251.863604775
  0
LINE
  5
40D
100
AcDbEntity
  8
0
100
AcDbLine
 62
7
  6
CONTINUOUS
 10
323.9644950794
 20
251.863604775
 11
323.7144950794
 21
251.863604775
  0
LINE
  5
40E
100
AcDbEntity
  8
0
100
AcDbLine
 62
7
  6
CONTINUOUS
 10
326.147600974
 20
251.9806260376
 11
325.897600974
 21
251.9806260376
  0
LINE
  5
40F
100
AcDbEntity
  8
0
100
AcDbLine
 62
7
  6
CONTINUOUS
 10
321.582925219
 20
251.9806260376
 11
321.332925219
 21
251.9806260376
  0
LINE
  5
410
100
AcDbEntity
  8
0
100
AcDbLine
 62
7
  6
CONTINUOUS
 10
326.6437606045
 20
252.0976473002
 11
326.3937606045
 21
252.0976473002
  0
LINE
  5
411
100
AcDbEntity
  8
0
100
AcDbLine
 62
7
  6
CONTINUOUS
 10
321.8290854173
 20
252.0976473002
 11
322.4760139166
 21
252.0976473002
  0
LINE
  5
412
100
AcDbEntity
  8
0
100
AcDbLine
 62
7
  6
CONTINUOUS
 10
327.7353138358
 20
252.2146685629
 11
327.4853138358
 21
252.2146685629
  0
LINE
  5
413
100
AcDbEntity
  8
0
100
AcDbLine
 62
7
  6
CONTINUOUS
 10
323.5675665801
 20
252.3316898255
 11
323.3175665801
 21
252.3316898255
  0
LINE
  5
414
100
AcDbEntity
  8
0
100
AcDbLine
 62
7
  6
CONTINUOUS
 10
327.2391530696
 20
252.5657323508
 11
326.9891530696
 21
252.5657323508
  0
LINE
  5
415
100
AcDbEntity
  8
0
100
AcDbLine
 62
7
  6
CONTINUOUS
 10
323.1706380807
 20
252.5657323508
 11
322.9206380807
 21
252.5657323508
  0
LINE
  5
416
100
AcDbEntity
  8
0
100
AcDbLine
 62
7
  6
CONTINUOUS
 10
322.5752456156
 20
252.6827536135
 11
322.1783176841
 21
252.6827536135
  0
LINE
  5
417
100
AcDbEntity
  8
0
100
AcDbLine
 62
7
  6
CONTINUOUS
 10
319.6975155569
 20
252.6827536135
 11
318.8044268592
 21
252.6827536135
  0
LINE
  5
418
100
AcDbEntity
  8
0
100
AcDbLine
 62
7
  6
CONTINUOUS
 10
315.8274645337
 20
252.6827536135
 11
314.9343758361
 21
252.6827536135
  0
LINE
  5
419
100
AcDbEntity
  8
0
100
AcDbLine
 62
7
  6
CONTINUOUS
 10
326.0483681394
 20
247.2997748864
 11
326.6437606045
 21
247.1827536135
  0
LINE
  5
41A
100
AcDbEntity
  8
0
100
AcDbLine
 62
7
  6
CONTINUOUS
 10
326.3937606045
 20
247.7678600087
 11
325.897600974
 21
247.8848812713
  0
LINE
  5
41B
100
AcDbEntity
  8
0
100
AcDbLine
 62
7
  6
CONTINUOUS
 10
326.6437606045
 20
247.7678600087
 11
326.147600974
 21
247.8848812713
  0
LINE
  5
41C
100
AcDbEntity
  8
0
100
AcDbLine
 62
7
  6
CONTINUOUS
 10
298.7314201551
 20
247.3636046557
 11
298.947926506
 21
247.0231791346
  0
LINE
  5
41D
100
AcDbEntity
  8
0
100
AcDbLine
 62
7
  6
CONTINUOUS
 10
298.1153947513
 20
248.5550940542
 11
297.8988884003
 21
248.8955195456
  0
LINE
  5
41E
100
AcDbEntity
  8
0
100
AcDbLine
 62
7
  6
CONTINUOUS
 10
301.0408215071
 20
248.5550940542
 11
300.8243151562
 21
248.8955195456
  0
LINE
  5
41F
100
AcDbEntity
  8
0
100
AcDbLine
 62
7
  6
CONTINUOUS
 10
301.2908215071
 20
248.5550940542
 11
301.0743151562
 21
248.8955195456
  0
LINE
  5
420
100
AcDbEntity
  8
0
100
AcDbLine
 62
7
  6
CONTINUOUS
 10
297.4323820494
 20
248.5550940542
 11
297.576719892
 21
248.2997749357
  0
LINE
  5
421
100
AcDbEntity
  8
0
100
AcDbLine
 62
7
  6
CONTINUOUS
 10
300.6078088052
 20
248.5550940542
 11
300.7521458219
 21
248.2997749357
  0
LINE
  5
422
100
AcDbEntity
  8
0
100
AcDbLine
 62
7
  6
CONTINUOUS
 10
296.2390061011
 20
247.3636046557
 11
296.0946690844
 21
247.7040302067
  0
LINE
  5
423
100
AcDbEntity
  8
0
100
AcDbLine
 62
7
  6
CONTINUOUS
 10
298.5870823125
 20
247.7040302067
 11
298.7314201551
 21
247.3636046557
  0
LINE
  5
424
100
AcDbEntity
  8
0
100
AcDbLine
 62
7
  6
CONTINUOUS
 10
299.164432857
 20
247.3636046557
 11
299.0200950144
 21
247.7040302067
  0
LINE
  5
425
100
AcDbEntity
  8
0
100
AcDbLine
 62
7
  6
CONTINUOUS
 10
299.414432857
 20
247.3636046557
 11
299.2700950144
 21
247.7040302067
  0
LINE
  5
426
100
AcDbEntity
  8
0
100
AcDbLine
 62
7
  6
CONTINUOUS
 10
298.0097325939
 20
248.1295620709
 11
297.8653947513
 21
248.5550940542
  0
LINE
  5
427
100
AcDbEntity
  8
0
100
AcDbLine
 62
7
  6
CONTINUOUS
 10
298.2597325939
 20
248.1295620709
 11
298.1153947513
 21
248.5550940542
  0
LINE
  5
428
100
AcDbEntity
  8
0
100
AcDbLine
 62
7
  6
CONTINUOUS
 10
297.576719892
 20
248.2997749357
 11
297.6488884003
 21
248.044455698
  0
LINE
  5
429
100
AcDbEntity
  8
0
100
AcDbLine
 62
7
  6
CONTINUOUS
 10
293.9682804343
 20
247.6189238339
 11
293.3909303027
 21
250.6827536135
  0
LINE
  5
42A
100
AcDbEntity
  8
0
100
AcDbLine
 62
7
  6
CONTINUOUS
 10
294.075423306
 20
248.3770252006
 11
293.6409303027
 21
250.6827536135
  0
LINE
  5
42B
100
AcDbEntity
  8
0
100
AcDbLine
 62
7
  6
CONTINUOUS
 10
293.1022550305
 20
249.916796258
 11
293.679605162
 21
246.6827536135
  0
LINE
  5
42C
100
AcDbEntity
  8
0
100
AcDbLine
 62
7
  6
CONTINUOUS
 10
291.3702042229
 20
250.6827536135
 11
291.9475543544
 21
246.6827536135
  0
LINE
  5
42D
100
AcDbEntity
  8
0
100
AcDbLine
 62
7
  6
CONTINUOUS
 10
292.2362296267
 20
247.6189238339
 11
291.8032169248
 21
250.6827536135
  0
LINE
  5
42E
100
AcDbEntity
  8
0
100
AcDbLine
 62
7
  6
CONTINUOUS
 10
292.3790867549
 20
248.3770252006
 11
292.0532169248
 21
250.6827536135
  0
LINE
  5
42F
100
AcDbEntity
  8
0
100
AcDbLine
 62
7
  6
CONTINUOUS
 10
294.5657160246
 20
263.5614771991
 11
294.5657160246
 21
263.1465832441
  0
LINE
  5
430
100
AcDbEntity
  8
0
100
AcDbLine
 62
7
  6
CONTINUOUS
 10
295.3782160246
 20
263.5614771991
 11
295.3782160246
 21
263.0082853882
  0
LINE
  5
431
100
AcDbEntity
  8
0
100
AcDbLine
 62
7
  6
CONTINUOUS
 10
295.4116563825
 20
250.6827536135
 11
295.4116563825
 21
248.4699876814
  0
LINE
  5
432
100
AcDbEntity
  8
0
100
AcDbLine
 62
7
  6
CONTINUOUS
 10
295.7724997502
 20
248.8955195456
 11
295.7724997502
 21
250.2572217493
  0
LINE
  5
433
100
AcDbEntity
  8
0
100
AcDbLine
 62
7
  6
CONTINUOUS
 10
296.0224997502
 20
249.0724096848
 11
296.0224997502
 21
250.2572217493
  0
LINE
  5
434
100
AcDbEntity
  8
0
100
AcDbLine
 62
7
  6
CONTINUOUS
 10
296.4615494871
 20
265.0827536135
 11
296.4615494871
 21
258.5827536135
  0
LINE
  5
435
100
AcDbEntity
  8
0
100
AcDbLine
 62
7
  6
CONTINUOUS
 10
292.5249048989
 20
246.6827536135
 11
293.1022550305
 21
249.916796258
  0
LINE
  5
436
100
AcDbEntity
  8
0
100
AcDbLine
 62
7
  6
CONTINUOUS
 10
292.8135797582
 20
250.6827536135
 11
292.2362296267
 21
247.6189238339
  0
LINE
  5
437
100
AcDbEntity
  8
0
100
AcDbLine
 62
7
  6
CONTINUOUS
 10
288.4112841019
 20
250.0870090036
 11
288.3391153097
 21
249.7465835123
  0
LINE
  5
438
100
AcDbEntity
  8
0
100
AcDbLine
 62
7
  6
CONTINUOUS
 10
288.7721280116
 20
249.6614769011
 11
288.844296778
 21
249.916796258
  0
LINE
  5
439
100
AcDbEntity
  8
0
100
AcDbLine
 62
7
  6
CONTINUOUS
 10
289.0221280116
 20
249.6614769011
 11
289.094296778
 21
249.916796258
  0
LINE
  5
43A
100
AcDbEntity
  8
0
100
AcDbLine
 62
7
  6
CONTINUOUS
 10
317.5865494871
 20
258.7210514814
 11
316.9094671869
 21
258.5827536135
  0
LINE
  5
43B
100
AcDbEntity
  8
KONSTRUKTIONSELEMENTE
100
AcDbLine
 62
7
  6
CONTINUOUS
 10
280.8677994871
 20
255.6827536135
 11
335.8677994871
 21
255.6827536135
  0
LINE
  5
43C
100
AcDbEntity
  8
0
100
AcDbLine
 62
7
  6
CONTINUOUS
 10
322.9206380807
 20
252.5657323508
 11
322.3252456156
 21
252.6827536135
  0
LINE
  5
43D
100
AcDbEntity
  8
0
100
AcDbLine
 62
7
  6
CONTINUOUS
 10
323.1706380807
 20
252.5657323508
 11
322.5752456156
 21
252.6827536135
  0
LINE
  5
43E
100
AcDbEntity
  8
0
100
AcDbLine
 62
7
  6
CONTINUOUS
 10
326.9891530696
 20
252.5657323508
 11
326.5187606045
 21
252.6581855198
  0
LINE
  5
43F
100
AcDbEntity
  8
0
100
AcDbLine
 62
7
  6
CONTINUOUS
 10
327.2391530696
 20
252.5657323508
 11
326.6437606045
 21
252.6827536135
  0
LINE
  5
440
100
AcDbEntity
  8
0
100
AcDbLine
 62
7
  6
CONTINUOUS
 10
322.4760139166
 20
252.0976473002
 11
322.9721741149
 21
251.9806260376
  0
LINE
  5
441
100
AcDbEntity
  8
0
100
AcDbLine
 62
7
  6
CONTINUOUS
 10
326.6437606045
 20
252.0976473002
 11
327.1399213707
 21
251.9806260376
  0
LINE
  5
442
100
AcDbEntity
  8
0
100
AcDbLine
 62
7
  6
CONTINUOUS
 10
294.8365494871
 20
264.5295621901
 11
294.2948829496
 21
264.9444557576
  0
LINE
  5
443
100
AcDbEntity
  8
0
100
AcDbLine
 62
7
  6
CONTINUOUS
 10
294.4302994871
 20
263.9763707666
 11
294.1594660246
 21
264.2529664784
  0
LINE
  5
444
100
AcDbEntity
  8
0
100
AcDbLine
 62
7
  6
CONTINUOUS
 10
295.2427994871
 20
263.9763707666
 11
294.8365494871
 21
264.5295621901
  0
LINE
  5
445
100
AcDbEntity
  8
0
100
AcDbLine
 62
7
  6
CONTINUOUS
 10
301.1851585238
 20
248.1295620709
 11
301.0408215071
 21
248.5550940542
  0
LINE
  5
446
100
AcDbEntity
  8
0
100
AcDbLine
 62
7
  6
CONTINUOUS
 10
301.4351585238
 20
248.1295620709
 11
301.2908215071
 21
248.5550940542
  0
LINE
  5
447
100
AcDbEntity
  8
0
100
AcDbLine
 62
7
  6
CONTINUOUS
 10
294.5657160246
 20
263.5614771991
 11
294.4302994871
 21
263.9763707666
  0
LINE
  5
448
100
AcDbEntity
  8
0
100
AcDbLine
 62
7
  6
CONTINUOUS
 10
295.3782160246
 20
263.5614771991
 11
295.2427994871
 21
263.9763707666
  0
LINE
  5
449
100
AcDbEntity
  8
0
100
AcDbLine
 62
7
  6
CONTINUOUS
 10
300.7521458219
 20
248.2997749357
 11
300.8243151562
 21
248.044455698
  0
LINE
  5
44A
100
AcDbEntity
  8
0
100
AcDbLine
 62
7
  6
CONTINUOUS
 10
297.2740494871
 20
264.3912643342
 11
297.2740494871
 21
262.316796109
  0
LINE
  5
44B
100
AcDbEntity
  8
0
100
AcDbLine
 62
7
  6
CONTINUOUS
 10
297.2740494871
 20
261.4870089738
 11
297.2740494871
 21
258.5827536135
  0
LINE
  5
44C
100
AcDbEntity
  8
0
100
AcDbLine
 62
7
  6
CONTINUOUS
 10
297.6488884003
 20
248.044455698
 11
297.6488884003
 21
247.8742429524
  0
LINE
  5
44D
100
AcDbEntity
  8
0
100
AcDbLine
 62
7
  6
CONTINUOUS
 10
297.8653947513
 20
250.2572217493
 11
297.8653947513
 21
250.6827536135
  0
LINE
  5
44E
100
AcDbEntity
  8
0
100
AcDbLine
 62
7
  6
CONTINUOUS
 10
298.0097325939
 20
247.7891365795
 11
298.0097325939
 21
248.1295620709
  0
LINE
  5
44F
100
AcDbEntity
  8
0
100
AcDbLine
 62
7
  6
CONTINUOUS
 10
298.1153947513
 20
250.2572217493
 11
298.1153947513
 21
250.6827536135
  0
LINE
  5
450
100
AcDbEntity
  8
0
100
AcDbLine
 62
7
  6
CONTINUOUS
 10
298.2597325939
 20
247.7891365795
 11
298.2597325939
 21
248.1295620709
  0
LINE
  5
451
100
AcDbEntity
  8
0
100
AcDbLine
 62
7
  6
CONTINUOUS
 10
298.3677994871
 20
274.5827536135
 11
298.3677994871
 21
268.0827536135
  0
LINE
  5
452
100
AcDbEntity
  8
0
100
AcDbLine
 62
7
  6
CONTINUOUS
 10
298.3677994871
 20
244.6827536135
 11
298.3677994871
 21
216.1827536135
  0
LINE
  5
453
100
AcDbEntity
  8
0
100
AcDbLine
 62
7
  6
CONTINUOUS
 10
298.5870823125
 20
250.6827536135
 11
298.5870823125
 21
248.4699876814
  0
LINE
  5
454
100
AcDbEntity
  8
0
100
AcDbLine
 62
7
  6
CONTINUOUS
 10
298.947926506
 20
248.8955195456
 11
298.947926506
 21
250.2572217493
  0
LINE
  5
455
100
AcDbEntity
  8
0
100
AcDbLine
 62
7
  6
CONTINUOUS
 10
299.1802994871
 20
273.8912643342
 11
299.1802994871
 21
271.816796109
  0
LINE
  5
456
100
AcDbEntity
  8
0
100
AcDbLine
 62
7
  6
CONTINUOUS
 10
299.1802994871
 20
270.9870089738
 11
299.1802994871
 21
268.0827536135
  0
LINE
  5
457
100
AcDbEntity
  8
0
100
AcDbLine
 62
7
  6
CONTINUOUS
 10
299.197926506
 20
249.0724096848
 11
299.197926506
 21
250.2572217493
  0
LINE
  5
458
100
AcDbEntity
  8
0
100
AcDbLine
 62
7
  6
CONTINUOUS
 10
300.6594664121
 20
263.5614771991
 11
300.6594664121
 21
263.1465832441
  0
LINE
  5
459
100
AcDbEntity
  8
0
100
AcDbLine
 62
7
  6
CONTINUOUS
 10
294.4012931362
 20
250.6827536135
 11
293.9682804343
 21
247.6189238339
  0
LINE
  5
45A
100
AcDbEntity
  8
0
100
AcDbLine
 62
7
  6
CONTINUOUS
 10
294.2569557065
 20
246.6827536135
 11
294.834305838
 21
250.6827536135
  0
LINE
  5
45B
100
AcDbEntity
  8
0
100
AcDbLine
 62
7
  6
CONTINUOUS
 10
294.5069557065
 20
246.6827536135
 11
295.084305838
 21
250.6827536135
  0
LINE
  5
45C
100
AcDbEntity
  8
0
100
AcDbLine
 62
7
  6
CONTINUOUS
 10
292.7749048989
 20
246.6827536135
 11
293.2272550305
 21
249.2166053193
  0
LINE
  5
45D
100
AcDbEntity
  8
0
100
AcDbLine
 62
7
  6
CONTINUOUS
 10
294.5657160246
 20
263.1465832441
 11
294.4302994871
 21
262.7316896765
  0
LINE
  5
45E
100
AcDbEntity
  8
0
100
AcDbLine
 62
7
  6
CONTINUOUS
 10
295.3782160246
 20
263.0082853882
 11
295.2427994871
 21
262.5933918207
  0
LINE
  5
45F
100
AcDbEntity
  8
0
100
AcDbLine
 62
7
  6
CONTINUOUS
 10
290.6485164552
 20
247.2784982829
 11
290.7928538849
 21
247.6189238339
  0
LINE
  5
460
100
AcDbEntity
  8
0
100
AcDbLine
 62
7
  6
CONTINUOUS
 10
290.8985164552
 20
247.2784982829
 11
291.0428538849
 21
247.6189238339
  0
LINE
  5
461
100
AcDbEntity
  8
0
100
AcDbLine
 62
7
  6
CONTINUOUS
 10
317.4511317873
 20
259.4125408455
 11
316.9094671869
 21
259.2742429896
  0
LINE
  5
462
100
AcDbEntity
  8
0
100
AcDbLine
 62
7
  6
CONTINUOUS
 10
316.0969656372
 20
262.0402003973
 11
315.5552994871
 21
261.9019025414
  0
LINE
  5
463
100
AcDbEntity
  8
0
100
AcDbLine
 62
7
  6
CONTINUOUS
 10
316.0969656372
 20
262.7316896765
 11
315.419883337
 21
262.5933918207
  0
LINE
  5
464
100
AcDbEntity
  8
0
100
AcDbLine
 62
7
  6
CONTINUOUS
 10
312.169883337
 20
257.7529663815
 11
311.4927994871
 21
257.7529663815
  0
LINE
  5
465
100
AcDbEntity
  8
0
100
AcDbLine
 62
7
  6
CONTINUOUS
 10
316.9094671869
 20
258.5827536135
 11
316.0969656372
 21
258.5827536135
  0
LINE
  5
466
100
AcDbEntity
  8
0
100
AcDbLine
 62
7
  6
CONTINUOUS
 10
310.4094656372
 20
258.5827536135
 11
305.5344656372
 21
258.5827536135
  0
LINE
  5
467
100
AcDbEntity
  8
0
100
AcDbLine
 62
7
  6
CONTINUOUS
 10
297.2740494871
 20
258.5827536135
 11
296.4615494871
 21
258.5827536135
  0
LINE
  5
468
100
AcDbEntity
  8
0
100
AcDbLine
 62
7
  6
CONTINUOUS
 10
291.1802994871
 20
258.5827536135
 11
290.3677994871
 21
258.5827536135
  0
LINE
  5
469
100
AcDbEntity
  8
0
100
AcDbLine
 62
7
  6
CONTINUOUS
 10
316.9094671869
 20
259.2742429896
 11
316.0969656372
 21
259.2742429896
  0
LINE
  5
46A
100
AcDbEntity
  8
0
100
AcDbLine
 62
7
  6
CONTINUOUS
 10
312.982383337
 20
259.2742429896
 11
312.3052994871
 21
259.2742429896
  0
LINE
  5
46B
100
AcDbEntity
  8
0
100
AcDbLine
 62
7
  6
CONTINUOUS
 10
310.4094656372
 20
259.2742429896
 11
306.6177994871
 21
259.2742429896
  0
LINE
  5
46C
100
AcDbEntity
  8
0
100
AcDbLine
 62
7
  6
CONTINUOUS
 10
314.8782156372
 20
260.2423280774
 11
314.0657156372
 21
260.2423280774
  0
LINE
  5
46D
100
AcDbEntity
  8
0
100
AcDbLine
 62
7
  6
CONTINUOUS
 10
304.451133337
 20
260.9338173567
 11
302.5552994871
 21
260.9338173567
  0
LINE
  5
46E
100
AcDbEntity
  8
0
100
AcDbLine
 62
7
  6
CONTINUOUS
 10
323.0032171869
 20
258.5827536135
 11
322.1907171869
 21
258.7210514814
  0
LINE
  5
46F
100
AcDbEntity
  8
0
100
AcDbLine
 62
7
  6
CONTINUOUS
 10
316.0969656372
 20
258.5827536135
 11
315.419883337
 21
258.7210514814
  0
LINE
  5
470
100
AcDbEntity
  8
0
100
AcDbLine
 62
7
  6
CONTINUOUS
 10
294.1594660246
 20
264.2529664784
 11
293.7532160246
 21
264.3912643342
  0
LINE
  5
471
100
AcDbEntity
  8
0
100
AcDbLine
 62
7
  6
CONTINUOUS
 10
300.9302994871
 20
264.5295621901
 11
300.3886325621
 21
264.9444557576
  0
LINE
  5
472
100
AcDbEntity
  8
0
100
AcDbLine
 62
7
  6
CONTINUOUS
 10
300.5240494871
 20
263.9763707666
 11
300.2532164121
 21
264.2529664784
  0
LINE
  5
473
100
AcDbEntity
  8
0
100
AcDbLine
 62
7
  6
CONTINUOUS
 10
301.3365494871
 20
263.9763707666
 11
300.9302994871
 21
264.5295621901
  0
LINE
  5
474
100
AcDbEntity
  8
0
100
AcDbLine
 62
7
  6
CONTINUOUS
 10
300.6594664121
 20
263.5614771991
 11
300.5240494871
 21
263.9763707666
  0
LINE
  5
475
100
AcDbEntity
  8
0
100
AcDbLine
 62
7
  6
CONTINUOUS
 10
301.4719664121
 20
263.5614771991
 11
301.3365494871
 21
263.9763707666
  0
LINE
  5
476
100
AcDbEntity
  8
0
100
AcDbLine
 62
7
  6
CONTINUOUS
 10
300.8243151562
 20
248.044455698
 11
300.8243151562
 21
247.8742429524
  0
LINE
  5
477
100
AcDbEntity
  8
0
100
AcDbLine
 62
7
  6
CONTINUOUS
 10
301.0408215071
 20
250.2572217493
 11
301.0408215071
 21
250.6827536135
  0
LINE
  5
478
100
AcDbEntity
  8
0
100
AcDbLine
 62
7
  6
CONTINUOUS
 10
301.1851585238
 20
247.7891365795
 11
301.1851585238
 21
248.1295620709
  0
LINE
  5
479
100
AcDbEntity
  8
0
100
AcDbLine
 62
7
  6
CONTINUOUS
 10
301.2908215071
 20
250.2572217493
 11
301.2908215071
 21
250.6827536135
  0
LINE
  5
47A
100
AcDbEntity
  8
0
100
AcDbLine
 62
7
  6
CONTINUOUS
 10
301.4351585238
 20
247.7891365795
 11
301.4351585238
 21
248.1295620709
  0
LINE
  5
47B
100
AcDbEntity
  8
0
100
AcDbLine
 62
7
  6
CONTINUOUS
 10
301.4719664121
 20
263.5614771991
 11
301.4719664121
 21
263.0082853882
  0
LINE
  5
47C
100
AcDbEntity
  8
0
100
AcDbLine
 62
7
  6
CONTINUOUS
 10
302.5552994871
 20
261.6253068297
 11
302.5552994871
 21
260.9338173567
  0
LINE
  5
47D
100
AcDbEntity
  8
0
100
AcDbLine
 62
7
  6
CONTINUOUS
 10
302.5657160246
 20
273.0614771991
 11
302.5657160246
 21
272.6465832441
  0
LINE
  5
47E
100
AcDbEntity
  8
0
100
AcDbLine
 62
7
  6
CONTINUOUS
 10
303.2780535249
 20
245.6827536135
 11
303.2780535249
 21
251.6827536135
  0
LINE
  5
47F
100
AcDbEntity
  8
0
100
AcDbLine
 62
7
  6
CONTINUOUS
 10
303.3782160246
 20
273.0614771991
 11
303.3782160246
 21
272.5082853882
  0
LINE
  5
480
100
AcDbEntity
  8
RUNDUNGEN
100
AcDbLine
 62
7
  6
CONTINUOUS
 10
304.3677994871
 20
305.8527971229
 11
304.3677994871
 21
318.607769258
  0
LINE
  5
481
100
AcDbEntity
  8
0
100
AcDbLine
 62
7
  6
CONTINUOUS
 10
304.451133337
 20
261.6253068297
 11
304.451133337
 21
260.9338173567
  0
LINE
  5
482
100
AcDbEntity
  8
0
100
AcDbLine
 62
7
  6
CONTINUOUS
 10
304.5969660246
 20
274.5827536135
 11
304.5969660246
 21
270.2955195009
  0
LINE
  5
483
100
AcDbEntity
  8
0
100
AcDbLine
 62
7
  6
CONTINUOUS
 10
297.6488884003
 20
247.8742429524
 11
297.576719892
 21
247.6189238339
  0
LINE
  5
484
100
AcDbEntity
  8
0
100
AcDbLine
 62
7
  6
CONTINUOUS
 10
302.5657160246
 20
272.6465832441
 11
302.4302994871
 21
272.2316896765
  0
LINE
  5
485
100
AcDbEntity
  8
0
100
AcDbLine
 62
7
  6
CONTINUOUS
 10
303.3782160246
 20
272.5082853882
 11
303.2427994871
 21
272.0933918207
  0
LINE
  5
486
100
AcDbEntity
  8
0
100
AcDbLine
 62
7
  6
CONTINUOUS
 10
300.6594664121
 20
263.1465832441
 11
300.5240494871
 21
262.7316896765
  0
LINE
  5
487
100
AcDbEntity
  8
0
100
AcDbLine
 62
7
  6
CONTINUOUS
 10
301.4719664121
 20
263.0082853882
 11
301.3365494871
 21
262.5933918207
  0
LINE
  5
488
100
AcDbEntity
  8
0
100
AcDbLine
 62
7
  6
CONTINUOUS
 10
290.359841183
 20
247.7040302067
 11
290.2155037534
 21
247.4487110882
  0
LINE
  5
489
100
AcDbEntity
  8
0
100
AcDbLine
 62
7
  6
CONTINUOUS
 10
295.2427994871
 20
262.5933918207
 11
294.8365494871
 21
262.0402003973
  0
LINE
  5
48A
100
AcDbEntity
  8
0
100
AcDbLine
 62
7
  6
CONTINUOUS
 10
303.2427994871
 20
272.0933918207
 11
302.8365494871
 21
271.5402003973
  0
LINE
  5
48B
100
AcDbEntity
  8
0
100
AcDbLine
 62
7
  6
CONTINUOUS
 10
302.4302994871
 20
272.2316896765
 11
302.1594660246
 21
271.9550939648
  0
LINE
  5
48C
100
AcDbEntity
  8
0
100
AcDbLine
 62
7
  6
CONTINUOUS
 10
294.4302994871
 20
262.7316896765
 11
294.1594660246
 21
262.4550939648
  0
LINE
  5
48D
100
AcDbEntity
  8
0
100
AcDbLine
 62
7
  6
CONTINUOUS
 10
302.8365494871
 20
271.5402003973
 11
302.2948829496
 21
271.2636046856
  0
LINE
  5
48E
100
AcDbEntity
  8
0
100
AcDbLine
 62
7
  6
CONTINUOUS
 10
302.1594660246
 20
271.9550939648
 11
301.7532160246
 21
271.816796109
  0
LINE
  5
48F
100
AcDbEntity
  8
0
100
AcDbLine
 62
7
  6
CONTINUOUS
 10
300.3886325621
 20
261.6253068297
 11
299.7115494871
 21
261.4870089738
  0
LINE
  5
490
100
AcDbEntity
  8
0
100
AcDbLine
 62
7
  6
CONTINUOUS
 10
294.2948829496
 20
261.6253068297
 11
293.6177994871
 21
261.4870089738
  0
LINE
  5
491
100
AcDbEntity
  8
0
100
AcDbLine
 62
7
  6
CONTINUOUS
 10
307.701133337
 20
264.3912643342
 11
307.0240494871
 21
264.2529664784
  0
LINE
  5
492
100
AcDbEntity
  8
0
100
AcDbLine
 62
7
  6
CONTINUOUS
 10
307.8365494871
 20
265.0827536135
 11
306.888633337
 21
264.9444557576
  0
LINE
  5
493
100
AcDbEntity
  8
0
100
AcDbLine
 62
7
  6
CONTINUOUS
 10
315.013633337
 20
261.4870089738
 11
314.0657156372
 21
261.4870089738
  0
LINE
  5
494
100
AcDbEntity
  8
0
100
AcDbLine
 62
7
  6
CONTINUOUS
 10
299.7115494871
 20
261.4870089738
 11
297.2740494871
 21
261.4870089738
  0
LINE
  5
495
100
AcDbEntity
  8
0
100
AcDbLine
 62
7
  6
CONTINUOUS
 10
293.6177994871
 20
261.4870089738
 11
291.1802994871
 21
261.4870089738
  0
LINE
  5
496
100
AcDbEntity
  8
0
100
AcDbLine
 62
7
  6
CONTINUOUS
 10
304.451133337
 20
261.6253068297
 11
302.5552994871
 21
261.6253068297
  0
LINE
  5
497
100
AcDbEntity
  8
0
100
AcDbLine
 62
7
  6
CONTINUOUS
 10
316.9094671869
 20
262.0402003973
 11
316.0969656372
 21
262.0402003973
  0
LINE
  5
498
100
AcDbEntity
  8
0
100
AcDbLine
 62
7
  6
CONTINUOUS
 10
299.8469664121
 20
262.316796109
 11
297.2740494871
 21
262.316796109
  0
LINE
  5
499
100
AcDbEntity
  8
0
100
AcDbLine
 62
7
  6
CONTINUOUS
 10
293.7532160246
 20
262.316796109
 11
291.1802994871
 21
262.316796109
  0
LINE
  5
49A
100
AcDbEntity
  8
0
100
AcDbLine
 62
7
  6
CONTINUOUS
 10
323.2740494871
 20
262.4550939648
 11
321.7844671869
 21
262.4550939648
  0
LINE
  5
49B
100
AcDbEntity
  8
0
100
AcDbLine
 62
7
  6
CONTINUOUS
 10
321.1073817873
 20
262.4550939648
 11
320.0240494871
 21
262.4550939648
  0
LINE
  5
49C
100
AcDbEntity
  8
0
100
AcDbLine
 62
7
  6
CONTINUOUS
 10
316.9094671869
 20
262.7316896765
 11
316.0969656372
 21
262.7316896765
  0
LINE
  5
49D
100
AcDbEntity
  8
0
100
AcDbLine
 62
7
  6
CONTINUOUS
 10
323.2740494871
 20
263.0082853882
 11
321.7844671869
 21
263.0082853882
  0
LINE
  5
49E
100
AcDbEntity
  8
0
100
AcDbLine
 62
7
  6
CONTINUOUS
 10
321.1073817873
 20
263.0082853882
 11
320.0240494871
 21
263.0082853882
  0
LINE
  5
49F
100
AcDbEntity
  8
0
100
AcDbLine
 62
7
  6
CONTINUOUS
 10
306.3469656372
 20
263.5614771991
 11
305.669883337
 21
263.5614771991
  0
LINE
  5
4A0
100
AcDbEntity
  8
0
100
AcDbLine
 62
7
  6
CONTINUOUS
 10
321.7844671869
 20
264.1146686225
 11
321.1073817873
 21
264.1146686225
  0
LINE
  5
4A1
100
AcDbEntity
  8
0
100
AcDbLine
 62
7
  6
CONTINUOUS
 10
318.6698817873
 20
264.3912643342
 11
314.7427994871
 21
264.3912643342
  0
LINE
  5
4A2
100
AcDbEntity
  8
0
100
AcDbLine
 62
7
  6
CONTINUOUS
 10
308.2427994871
 20
264.3912643342
 11
307.701133337
 21
264.3912643342
  0
LINE
  5
4A3
100
AcDbEntity
  8
0
100
AcDbLine
 62
7
  6
CONTINUOUS
 10
299.8469664121
 20
264.3912643342
 11
297.2740494871
 21
264.3912643342
  0
LINE
  5
4A4
100
AcDbEntity
  8
0
100
AcDbLine
 62
7
  6
CONTINUOUS
 10
293.7532160246
 20
264.3912643342
 11
291.1802994871
 21
264.3912643342
  0
LINE
  5
4A5
100
AcDbEntity
  8
0
100
AcDbLine
 62
7
  6
CONTINUOUS
 10
318.6698817873
 20
265.0827536135
 11
314.0657156372
 21
265.0827536135
  0
LINE
  5
4A6
100
AcDbEntity
  8
0
100
AcDbLine
 62
7
  6
CONTINUOUS
 10
308.3782156372
 20
265.0827536135
 11
307.8365494871
 21
265.0827536135
  0
LINE
  5
4A7
100
AcDbEntity
  8
0
100
AcDbLine
 62
7
  6
CONTINUOUS
 10
299.7115494871
 20
265.0827536135
 11
296.4615494871
 21
265.0827536135
  0
LINE
  5
4A8
100
AcDbEntity
  8
0
100
AcDbLine
 62
7
  6
CONTINUOUS
 10
293.6177994871
 20
265.0827536135
 11
290.3677994871
 21
265.0827536135
  0
LINE
  5
4A9
100
AcDbEntity
  8
0
100
AcDbLine
 62
7
  6
CONTINUOUS
 10
309.1907156372
 20
264.9444557576
 11
308.3782156372
 21
265.0827536135
  0
LINE
  5
4AA
100
AcDbEntity
  8
0
100
AcDbLine
 62
7
  6
CONTINUOUS
 10
294.2948829496
 20
264.9444557576
 11
293.6177994871
 21
265.0827536135
  0
LINE
  5
4AB
100
AcDbEntity
  8
0
100
AcDbLine
 62
7
  6
CONTINUOUS
 10
323.0032171869
 20
259.1359450853
 11
322.3261317873
 21
259.2742429896
  0
LINE
  5
4AC
100
AcDbEntity
  8
0
100
AcDbLine
 62
7
  6
CONTINUOUS
 10
300.3886325621
 20
264.9444557576
 11
299.7115494871
 21
265.0827536135
  0
LINE
  5
4AD
100
AcDbEntity
  8
0
100
AcDbLine
 62
7
  6
CONTINUOUS
 10
308.919883337
 20
264.2529664784
 11
308.2427994871
 21
264.3912643342
  0
LINE
  5
4AE
100
AcDbEntity
  8
0
100
AcDbLine
 62
7
  6
CONTINUOUS
 10
317.5865494871
 20
262.5933918207
 11
316.9094671869
 21
262.7316896765
  0
LINE
  5
4AF
100
AcDbEntity
  8
0
100
AcDbLine
 62
7
  6
CONTINUOUS
 10
316.0969656372
 20
259.2742429896
 11
315.5552994871
 21
259.4125408455
  0
LINE
  5
4B0
100
AcDbEntity
  8
0
100
AcDbLine
 62
7
  6
CONTINUOUS
 10
317.4511317873
 20
261.9019025414
 11
316.9094671869
 21
262.0402003973
  0
LINE
  5
4B1
100
AcDbEntity
  8
0
100
AcDbLine
 62
7
  6
CONTINUOUS
 10
300.2532164121
 20
264.2529664784
 11
299.8469664121
 21
264.3912643342
  0
LINE
  5
4B2
100
AcDbEntity
  8
0
100
AcDbLine
 62
7
  6
CONTINUOUS
 10
322.1907171869
 20
258.7210514814
 11
321.7844671869
 21
258.8593493494
  0
LINE
  5
4B3
100
AcDbEntity
  8
0
100
AcDbLine
 62
7
  6
CONTINUOUS
 10
323.3175665801
 20
252.3316898255
 11
322.9206380807
 21
252.5657323508
  0
LINE
  5
4B4
100
AcDbEntity
  8
0
100
AcDbLine
 62
7
  6
CONTINUOUS
 10
323.5675665801
 20
252.3316898255
 11
323.1706380807
 21
252.5657323508
  0
LINE
  5
4B5
100
AcDbEntity
  8
0
100
AcDbLine
 62
7
  6
CONTINUOUS
 10
315.419883337
 20
258.7210514814
 11
314.7427994871
 21
259.1359450853
  0
LINE
  5
4B6
100
AcDbEntity
  8
0
100
AcDbLine
 62
7
  6
CONTINUOUS
 10
315.5552994871
 20
259.4125408455
 11
315.1490494871
 21
259.6891365572
  0
LINE
  5
4B7
100
AcDbEntity
  8
0
100
AcDbLine
 62
7
  6
CONTINUOUS
 10
309.326133337
 20
263.9763707666
 11
308.919883337
 21
264.2529664784
  0
LINE
  5
4B8
100
AcDbEntity
  8
0
100
AcDbLine
 62
7
  6
CONTINUOUS
 10
325.5522085089
 20
247.650838705
 11
326.0483681394
 21
247.2997748864
  0
LINE
  5
4B9
100
AcDbEntity
  8
0
100
AcDbLine
 62
7
  6
CONTINUOUS
 10
325.897600974
 20
247.8848812713
 11
325.5999047415
 21
248.1189237966
  0
LINE
  5
4BA
100
AcDbEntity
  8
0
100
AcDbLine
 62
7
  6
CONTINUOUS
 10
326.147600974
 20
247.8848812713
 11
325.8499047415
 21
248.1189237966
  0
LINE
  5
4BB
100
AcDbEntity
  8
0
100
AcDbLine
 62
7
  6
CONTINUOUS
 10
322.9721741149
 20
251.9806260376
 11
323.2698703475
 21
251.7465835123
  0
LINE
  5
4BC
100
AcDbEntity
  8
0
100
AcDbLine
 62
7
  6
CONTINUOUS
 10
303.5136329496
 20
268.0827536135
 11
302.2948829496
 21
271.2636046856
  0
LINE
  5
4BD
100
AcDbEntity
  8
0
100
AcDbLine
 62
7
  6
CONTINUOUS
 10
302.5657160246
 20
268.0827536135
 11
301.4823827559
 21
270.9870089738
  0
LINE
  5
4BE
100
AcDbEntity
  8
0
100
AcDbLine
 62
7
  6
CONTINUOUS
 10
302.5657160246
 20
273.0614771991
 11
302.4302994871
 21
273.4763707666
  0
LINE
  5
4BF
100
AcDbEntity
  8
0
100
AcDbLine
 62
7
  6
CONTINUOUS
 10
305.4094664121
 20
274.5827536135
 11
305.4094664121
 21
270.2955195009
  0
LINE
  5
4C0
100
AcDbEntity
  8
0
100
AcDbLine
 62
7
  6
CONTINUOUS
 10
305.5344656372
 20
259.2742429896
 11
305.5344656372
 21
258.5827536135
  0
LINE
  5
4C1
100
AcDbEntity
  8
KONSTRUKTIONSELEMENTE
100
AcDbLine
 62
7
  6
CONTINUOUS
 10
305.8397645557
 20
244.6827536135
 11
305.8397645557
 21
255.6827536135
  0
LINE
  5
4C2
100
AcDbEntity
  8
0
100
AcDbLine
 62
7
  6
CONTINUOUS
 10
308.6594664121
 20
274.5827536135
 11
308.6594664121
 21
270.2955195009
  0
LINE
  5
4C3
100
AcDbEntity
  8
0
100
AcDbLine
 62
7
  6
CONTINUOUS
 10
305.8052994871
 20
264.1146686225
 11
305.669883337
 21
263.5614771991
  0
LINE
  5
4C4
100
AcDbEntity
  8
0
100
AcDbLine
 62
7
  6
CONTINUOUS
 10
308.6594664121
 20
270.2955195009
 11
308.5240494871
 21
269.7423280774
  0
LINE
  5
4C5
100
AcDbEntity
  8
0
100
AcDbLine
 62
7
  6
CONTINUOUS
 10
300.8243151562
 20
247.8742429524
 11
300.7521458219
 21
247.6189238339
  0
LINE
  5
4C6
100
AcDbEntity
  8
0
100
AcDbLine
 62
7
  6
CONTINUOUS
 10
297.8653947513
 20
247.3636046557
 11
298.0097325939
 21
247.7891365795
  0
LINE
  5
4C7
100
AcDbEntity
  8
0
100
AcDbLine
 62
7
  6
CONTINUOUS
 10
298.1153947513
 20
247.3636046557
 11
298.2597325939
 21
247.7891365795
  0
LINE
  5
4C8
100
AcDbEntity
  8
0
100
AcDbLine
 62
7
  6
CONTINUOUS
 10
301.0408215071
 20
247.3636046557
 11
301.1851585238
 21
247.7891365795
  0
LINE
  5
4C9
100
AcDbEntity
  8
0
100
AcDbLine
 62
7
  6
CONTINUOUS
 10
301.2908215071
 20
247.3636046557
 11
301.4351585238
 21
247.7891365795
  0
LINE
  5
4CA
100
AcDbEntity
  8
0
100
AcDbLine
 62
7
  6
CONTINUOUS
 10
308.5240494871
 20
269.7423280774
 11
308.2532164121
 21
269.3274345099
  0
LINE
  5
4CB
100
AcDbEntity
  8
0
100
AcDbLine
 62
7
  6
CONTINUOUS
 10
301.3365494871
 20
262.5933918207
 11
300.9302994871
 21
262.0402003973
  0
LINE
  5
4CC
100
AcDbEntity
  8
0
100
AcDbLine
 62
7
  6
CONTINUOUS
 10
288.6999592451
 20
250.427434495
 11
288.4112841019
 21
250.0870090036
  0
LINE
  5
4CD
100
AcDbEntity
  8
0
100
AcDbLine
 62
7
  6
CONTINUOUS
 10
290.359841183
 20
246.9380727618
 11
290.6485164552
 21
247.2784982829
  0
LINE
  5
4CE
100
AcDbEntity
  8
0
100
AcDbLine
 62
7
  6
CONTINUOUS
 10
300.5240494871
 20
262.7316896765
 11
300.2532164121
 21
262.4550939648
  0
LINE
  5
4CF
100
AcDbEntity
  8
0
100
AcDbLine
 62
7
  6
CONTINUOUS
 10
309.0657164121
 20
269.0508387013
 11
308.5240494871
 21
268.4976472295
  0
LINE
  5
4D0
100
AcDbEntity
  8
0
100
AcDbLine
 62
7
  6
CONTINUOUS
 10
294.8365494871
 20
262.0402003973
 11
294.2948829496
 21
261.6253068297
  0
LINE
  5
4D1
100
AcDbEntity
  8
0
100
AcDbLine
 62
7
  6
CONTINUOUS
 10
308.2532164121
 20
269.3274345099
 11
307.8469664121
 21
269.0508387013
  0
LINE
  5
4D2
100
AcDbEntity
  8
0
100
AcDbLine
 62
7
  6
CONTINUOUS
 10
308.5240494871
 20
268.4976472295
 11
307.9823825621
 21
268.2210514814
  0
LINE
  5
4D3
100
AcDbEntity
  8
0
100
AcDbLine
 62
7
  6
CONTINUOUS
 10
314.3469656372
 20
269.0508387013
 11
313.8052994871
 21
268.9125408455
  0
LINE
  5
4D4
100
AcDbEntity
  8
0
100
AcDbLine
 62
7
  6
CONTINUOUS
 10
307.8469664121
 20
269.0508387013
 11
307.3052994871
 21
268.9125408455
  0
LINE
  5
4D5
100
AcDbEntity
  8
0
100
AcDbLine
 62
7
  6
CONTINUOUS
 10
314.482383337
 20
268.2210514814
 11
313.8052994871
 21
268.0827536135
  0
LINE
  5
4D6
100
AcDbEntity
  8
0
100
AcDbLine
 62
7
  6
CONTINUOUS
 10
307.9823825621
 20
268.2210514814
 11
307.3052994871
 21
268.0827536135
  0
LINE
  5
4D7
100
AcDbEntity
  8
0
100
AcDbLine
 62
7
  6
CONTINUOUS
 10
313.8052994871
 20
268.0827536135
 11
310.5552994871
 21
268.0827536135
  0
LINE
  5
4D8
100
AcDbEntity
  8
0
100
AcDbLine
 62
7
  6
CONTINUOUS
 10
307.3052994871
 20
268.0827536135
 11
306.7636325621
 21
268.0827536135
  0
LINE
  5
4D9
100
AcDbEntity
  8
0
100
AcDbLine
 62
7
  6
CONTINUOUS
 10
303.5136329496
 20
268.0827536135
 11
302.5657160246
 21
268.0827536135
  0
LINE
  5
4DA
100
AcDbEntity
  8
0
100
AcDbLine
 62
7
  6
CONTINUOUS
 10
299.1802994871
 20
268.0827536135
 11
298.3677994871
 21
268.0827536135
  0
LINE
  5
4DB
100
AcDbEntity
  8
0
100
AcDbLine
 62
7
  6
CONTINUOUS
 10
313.8052994871
 20
268.9125408455
 11
311.3677994871
 21
268.9125408455
  0
LINE
  5
4DC
100
AcDbEntity
  8
0
100
AcDbLine
 62
7
  6
CONTINUOUS
 10
307.3052994871
 20
268.9125408455
 11
306.7636325621
 21
268.9125408455
  0
LINE
  5
4DD
100
AcDbEntity
  8
0
100
AcDbLine
 62
7
  6
CONTINUOUS
 10
306.7636325621
 20
268.0827536135
 11
306.0865494871
 21
268.2210514814
  0
LINE
  5
4DE
100
AcDbEntity
  8
0
100
AcDbLine
 62
7
  6
CONTINUOUS
 10
306.7636325621
 20
268.9125408455
 11
306.2219664121
 21
269.0508387013
  0
LINE
  5
4DF
100
AcDbEntity
  8
0
100
AcDbLine
 62
7
  6
CONTINUOUS
 10
309.732383337
 20
264.6678600459
 11
309.1907156372
 21
264.9444557576
  0
LINE
  5
4E0
100
AcDbEntity
  8
0
100
AcDbLine
 62
7
  6
CONTINUOUS
 10
306.0865494871
 20
268.2210514814
 11
305.5448825621
 21
268.4976472295
  0
LINE
  5
4E1
100
AcDbEntity
  8
0
100
AcDbLine
 62
7
  6
CONTINUOUS
 10
318.2636317873
 20
262.1784982531
 11
317.5865494871
 21
262.5933918207
  0
LINE
  5
4E2
100
AcDbEntity
  8
0
100
AcDbLine
 62
7
  6
CONTINUOUS
 10
306.2219664121
 20
269.0508387013
 11
305.8157164121
 21
269.3274345099
  0
LINE
  5
4E3
100
AcDbEntity
  8
0
100
AcDbLine
 62
7
  6
CONTINUOUS
 10
321.7844671869
 20
258.8593493494
 11
321.3782171869
 21
259.1359450853
  0
LINE
  5
4E4
100
AcDbEntity
  8
0
100
AcDbLine
 62
7
  6
CONTINUOUS
 10
317.8573817873
 20
261.6253068297
 11
317.4511317873
 21
261.9019025414
  0
LINE
  5
4E5
100
AcDbEntity
  8
0
100
AcDbLine
 62
7
  6
CONTINUOUS
 10
322.3261317873
 20
259.2742429896
 11
321.9198817873
 21
259.5508387013
  0
LINE
  5
4E6
100
AcDbEntity
  8
0
100
AcDbLine
 62
7
  6
CONTINUOUS
 10
327.4853138358
 20
252.2146685629
 11
326.9891530696
 21
252.5657323508
  0
LINE
  5
4E7
100
AcDbEntity
  8
0
100
AcDbLine
 62
7
  6
CONTINUOUS
 10
327.7353138358
 20
252.2146685629
 11
327.2391530696
 21
252.5657323508
  0
LINE
  5
4E8
100
AcDbEntity
  8
0
100
AcDbLine
 62
7
  6
CONTINUOUS
 10
327.1399213707
 20
251.9806260376
 11
327.4376176032
 21
251.7465835123
  0
LINE
  5
4E9
100
AcDbEntity
  8
0
100
AcDbLine
 62
7
  6
CONTINUOUS
 10
305.5448825621
 20
268.4976472295
 11
305.0032164121
 21
269.0508387013
  0
LINE
  5
4EA
100
AcDbEntity
  8
0
100
AcDbLine
 62
7
  6
CONTINUOUS
 10
310.2740494871
 20
264.1146686225
 11
309.732383337
 21
264.6678600459
  0
LINE
  5
4EB
100
AcDbEntity
  8
0
100
AcDbLine
 62
7
  6
CONTINUOUS
 10
302.4302994871
 20
273.4763707666
 11
302.1594660246
 21
273.7529664784
  0
LINE
  5
4EC
100
AcDbEntity
  8
0
100
AcDbLine
 62
7
  6
CONTINUOUS
 10
325.2545122764
 20
248.001902534
 11
325.5522085089
 21
247.650838705
  0
LINE
  5
4ED
100
AcDbEntity
  8
0
100
AcDbLine
 62
7
  6
CONTINUOUS
 10
303.2427994871
 20
273.4763707666
 11
302.8365494871
 21
274.0295621901
  0
LINE
  5
4EE
100
AcDbEntity
  8
0
100
AcDbLine
 62
7
  6
CONTINUOUS
 10
314.7427994871
 20
259.1359450853
 11
314.3365494871
 21
259.6891365572
  0
LINE
  5
4EF
100
AcDbEntity
  8
0
100
AcDbLine
 62
7
  6
CONTINUOUS
 10
305.8157164121
 20
269.3274345099
 11
305.5448825621
 21
269.7423280774
  0
LINE
  5
4F0
100
AcDbEntity
  8
0
100
AcDbLine
 62
7
  6
CONTINUOUS
 10
309.5969656372
 20
263.5614771991
 11
309.326133337
 21
263.9763707666
  0
LINE
  5
4F1
100
AcDbEntity
  8
0
100
AcDbLine
 62
7
  6
CONTINUOUS
 10
305.0032164121
 20
269.0508387013
 11
304.7323829496
 21
269.6040302216
  0
LINE
  5
4F2
100
AcDbEntity
  8
0
100
AcDbLine
 62
7
  6
CONTINUOUS
 10
303.3782160246
 20
273.0614771991
 11
303.2427994871
 21
273.4763707666
  0
LINE
  5
4F3
100
AcDbEntity
  8
0
100
AcDbLine
 62
7
  6
CONTINUOUS
 10
305.5448825621
 20
269.7423280774
 11
305.4094664121
 21
270.2955195009
  0
LINE
  5
4F4
100
AcDbEntity
  8
0
100
AcDbLine
 62
7
  6
CONTINUOUS
 10
304.7323829496
 20
269.6040302216
 11
304.5969660246
 21
270.2955195009
  0
LINE
  5
4F5
100
AcDbEntity
  8
0
100
AcDbLine
 62
7
  6
CONTINUOUS
 10
309.4719664121
 20
274.5827536135
 11
309.4719664121
 21
270.2955195009
  0
LINE
  5
4F6
100
AcDbEntity
  8
0
100
AcDbLine
 62
7
  6
CONTINUOUS
 10
309.5969656372
 20
263.2848810999
 11
309.5969656372
 21
263.5614771991
  0
LINE
  5
4F7
100
AcDbEntity
  8
0
100
AcDbLine
 62
7
  6
CONTINUOUS
 10
310.4094656372
 20
263.5614771991
 11
310.4094656372
 21
263.2848810999
  0
LINE
  5
4F8
100
AcDbEntity
  8
0
100
AcDbLine
 62
7
  6
CONTINUOUS
 10
310.4094656372
 20
259.2742429896
 11
310.4094656372
 21
258.5827536135
  0
LINE
  5
4F9
100
AcDbEntity
  8
0
100
AcDbLine
 62
7
  6
CONTINUOUS
 10
310.5552994871
 20
274.5827536135
 11
310.5552994871
 21
268.0827536135
  0
LINE
  5
4FA
100
AcDbEntity
  8
KONSTRUKTIONSELEMENTE
100
AcDbLine
 62
7
  6
CONTINUOUS
 10
310.8958344185
 20
244.6827536135
 11
310.8958344185
 21
255.6827536135
  0
LINE
  5
4FB
100
AcDbEntity
  8
0
100
AcDbLine
 62
7
  6
CONTINUOUS
 10
311.3677994871
 20
273.7529664784
 11
311.3677994871
 21
268.9125408455
  0
LINE
  5
4FC
100
AcDbEntity
  8
RUNDUNGEN
100
AcDbLine
 62
7
  6
CONTINUOUS
 10
312.3677994871
 20
305.8527971229
 11
312.3677994871
 21
318.607769258
  0
LINE
  5
4FD
100
AcDbEntity
  8
0
100
AcDbLine
 62
7
  6
CONTINUOUS
 10
309.4719664121
 20
270.2955195009
 11
309.3365494871
 21
269.6040302216
  0
LINE
  5
4FE
100
AcDbEntity
  8
0
100
AcDbLine
 62
7
  6
CONTINUOUS
 10
310.4094656372
 20
263.2848810999
 11
310.2740494871
 21
262.7316896765
  0
LINE
  5
4FF
100
AcDbEntity
  8
0
100
AcDbLine
 62
7
  6
CONTINUOUS
 10
309.3365494871
 20
269.6040302216
 11
309.0657164121
 21
269.0508387013
  0
LINE
  5
500
100
AcDbEntity
  8
0
100
AcDbLine
 62
7
  6
CONTINUOUS
 10
309.326133337
 20
262.7316896765
 11
309.5969656372
 21
263.2848810999
  0
LINE
  5
501
100
AcDbEntity
  8
0
100
AcDbLine
 62
7
  6
CONTINUOUS
 10
297.576719892
 20
247.6189238339
 11
297.4323820494
 21
247.3636046557
  0
LINE
  5
502
100
AcDbEntity
  8
0
100
AcDbLine
 62
7
  6
CONTINUOUS
 10
300.7521458219
 20
247.6189238339
 11
300.6078088052
 21
247.3636046557
  0
LINE
  5
503
100
AcDbEntity
  8
0
100
AcDbLine
 62
7
  6
CONTINUOUS
 10
297.6488884003
 20
247.0231791346
 11
297.8653947513
 21
247.3636046557
  0
LINE
  5
504
100
AcDbEntity
  8
0
100
AcDbLine
 62
7
  6
CONTINUOUS
 10
297.8988884003
 20
247.0231791346
 11
298.1153947513
 21
247.3636046557
  0
LINE
  5
505
100
AcDbEntity
  8
0
100
AcDbLine
 62
7
  6
CONTINUOUS
 10
306.6177994871
 20
263.9763707666
 11
306.3469656372
 21
263.5614771991
  0
LINE
  5
506
100
AcDbEntity
  8
0
100
AcDbLine
 62
7
  6
CONTINUOUS
 10
290.609841183
 20
246.9380727618
 11
290.8985164552
 21
247.2784982829
  0
LINE
  5
507
100
AcDbEntity
  8
0
100
AcDbLine
 62
7
  6
CONTINUOUS
 10
306.3469656372
 20
264.6678600459
 11
305.8052994871
 21
264.1146686225
  0
LINE
  5
508
100
AcDbEntity
  8
0
100
AcDbLine
 62
7
  6
CONTINUOUS
 10
288.844296778
 20
249.916796258
 11
289.0608031806
 21
250.0870090036
  0
LINE
  5
509
100
AcDbEntity
  8
0
100
AcDbLine
 62
7
  6
CONTINUOUS
 10
289.094296778
 20
249.916796258
 11
289.3108031806
 21
250.0870090036
  0
LINE
  5
50A
100
AcDbEntity
  8
0
100
AcDbLine
 62
7
  6
CONTINUOUS
 10
300.9302994871
 20
262.0402003973
 11
300.3886325621
 21
261.6253068297
  0
LINE
  5
50B
100
AcDbEntity
  8
0
100
AcDbLine
 62
7
  6
CONTINUOUS
 10
307.0240494871
 20
264.2529664784
 11
306.6177994871
 21
263.9763707666
  0
LINE
  5
50C
100
AcDbEntity
  8
0
100
AcDbLine
 62
7
  6
CONTINUOUS
 10
314.7532156372
 20
269.3274345099
 11
314.3469656372
 21
269.0508387013
  0
LINE
  5
50D
100
AcDbEntity
  8
0
100
AcDbLine
 62
7
  6
CONTINUOUS
 10
306.888633337
 20
264.9444557576
 11
306.3469656372
 21
264.6678600459
  0
LINE
  5
50E
100
AcDbEntity
  8
0
100
AcDbLine
 62
7
  6
CONTINUOUS
 10
315.0240494871
 20
268.4976472295
 11
314.482383337
 21
268.2210514814
  0
LINE
  5
50F
100
AcDbEntity
  8
0
100
AcDbLine
 62
7
  6
CONTINUOUS
 10
294.1594660246
 20
262.4550939648
 11
293.7532160246
 21
262.316796109
  0
LINE
  5
510
100
AcDbEntity
  8
0
100
AcDbLine
 62
7
  6
CONTINUOUS
 10
300.2532164121
 20
262.4550939648
 11
299.8469664121
 21
262.316796109
  0
LINE
  5
511
100
AcDbEntity
  8
0
100
AcDbLine
 62
7
  6
CONTINUOUS
 10
301.4823827559
 20
270.9870089738
 11
299.1802994871
 21
270.9870089738
  0
LINE
  5
512
100
AcDbEntity
  8
0
100
AcDbLine
 62
7
  6
CONTINUOUS
 10
301.7532160246
 20
271.816796109
 11
299.1802994871
 21
271.816796109
  0
LINE
  5
513
100
AcDbEntity
  8
0
100
AcDbLine
 62
7
  6
CONTINUOUS
 10
302.2948829496
 20
274.4444557576
 11
301.6177994871
 21
274.5827536135
  0
LINE
  5
514
100
AcDbEntity
  8
0
100
AcDbLine
 62
7
  6
CONTINUOUS
 10
302.1594660246
 20
273.7529664784
 11
301.7532160246
 21
273.8912643342
  0
LINE
  5
515
100
AcDbEntity
  8
0
100
AcDbLine
 62
7
  6
CONTINUOUS
 10
302.8365494871
 20
274.0295621901
 11
302.2948829496
 21
274.4444557576
  0
LINE
  5
516
100
AcDbEntity
  8
0
100
AcDbLine
 62
7
  6
CONTINUOUS
 10
323.7144950794
 20
251.863604775
 11
323.3175665801
 21
252.3316898255
  0
LINE
  5
517
100
AcDbEntity
  8
0
100
AcDbLine
 62
7
  6
CONTINUOUS
 10
323.9644950794
 20
251.863604775
 11
323.5675665801
 21
252.3316898255
  0
LINE
  5
518
100
AcDbEntity
  8
0
100
AcDbLine
 62
7
  6
CONTINUOUS
 10
327.7830100683
 20
251.863604775
 11
327.4853138358
 21
252.2146685629
  0
LINE
  5
519
100
AcDbEntity
  8
0
100
AcDbLine
 62
7
  6
CONTINUOUS
 10
328.0330100683
 20
251.863604775
 11
327.7353138358
 21
252.2146685629
  0
LINE
  5
51A
100
AcDbEntity
  8
0
100
AcDbLine
 62
7
  6
CONTINUOUS
 10
318.6698817873
 20
261.6253068297
 11
318.2636317873
 21
262.1784982531
  0
LINE
  5
51B
100
AcDbEntity
  8
0
100
AcDbLine
 62
7
  6
CONTINUOUS
 10
318.1282171869
 20
261.2104132621
 11
317.8573817873
 21
261.6253068297
  0
LINE
  5
51C
100
AcDbEntity
  8
0
100
AcDbLine
 62
7
  6
CONTINUOUS
 10
323.2698703475
 20
251.7465835123
 11
323.4683343133
 21
251.3955197244
  0
LINE
  5
51D
100
AcDbEntity
  8
0
100
AcDbLine
 62
7
  6
CONTINUOUS
 10
314.3365494871
 20
259.6891365572
 11
314.0657156372
 21
260.2423280774
  0
LINE
  5
51E
100
AcDbEntity
  8
0
100
AcDbLine
 62
7
  6
CONTINUOUS
 10
315.1490494871
 20
259.6891365572
 11
314.8782156372
 21
260.2423280774
  0
LINE
  5
51F
100
AcDbEntity
  8
0
100
AcDbLine
 62
7
  6
CONTINUOUS
 10
315.5297683012
 20
251.512540987
 11
316.9190173391
 21
247.1827536135
  0
LINE
  5
520
100
AcDbEntity
  8
0
100
AcDbLine
 62
7
  6
CONTINUOUS
 10
317.0659456965
 20
247.7678600087
 11
315.5774645337
 21
252.6827536135
  0
LINE
  5
521
100
AcDbEntity
  8
0
100
AcDbLine
 62
7
  6
CONTINUOUS
 10
317.3159456965
 20
247.7678600087
 11
315.8274645337
 21
252.6827536135
  0
LINE
  5
522
100
AcDbEntity
  8
0
100
AcDbLine
 62
7
  6
CONTINUOUS
 10
310.4094656372
 20
263.5614771991
 11
310.2740494871
 21
264.1146686225
  0
LINE
  5
523
100
AcDbEntity
  8
0
100
AcDbLine
 62
7
  6
CONTINUOUS
 10
314.0657156372
 20
265.0827536135
 11
314.0657156372
 21
261.4870089738
  0
LINE
  5
524
100
AcDbEntity
  8
0
100
AcDbLine
 62
7
  6
CONTINUOUS
 10
314.7427994871
 20
264.3912643342
 11
314.7427994871
 21
262.1784982531
  0
LINE
  5
525
100
AcDbEntity
  8
0
100
AcDbLine
 62
7
  6
CONTINUOUS
 10
314.9343758361
 20
252.6827536135
 11
314.9343758361
 21
247.1827536135
  0
LINE
  5
526
100
AcDbEntity
  8
0
100
AcDbLine
 62
7
  6
CONTINUOUS
 10
315.1594656372
 20
272.3699875324
 11
315.1594656372
 21
270.2955195009
  0
LINE
  5
527
100
AcDbEntity
  8
0
100
AcDbLine
 62
7
  6
CONTINUOUS
 10
315.2797683012
 20
247.1827536135
 11
315.2797683012
 21
251.512540987
  0
LINE
  5
528
100
AcDbEntity
  8
0
100
AcDbLine
 62
7
  6
CONTINUOUS
 10
315.5297683012
 20
247.1827536135
 11
315.5297683012
 21
251.512540987
  0
LINE
  5
529
100
AcDbEntity
  8
0
100
AcDbLine
 62
7
  6
CONTINUOUS
 10
315.9719656372
 20
272.3699875324
 11
315.9719656372
 21
270.2955195009
  0
LINE
  5
52A
100
AcDbEntity
  8
0
100
AcDbLine
 62
7
  6
CONTINUOUS
 10
315.9719656372
 20
270.2955195009
 11
315.8365494871
 21
269.6040302216
  0
LINE
  5
52B
100
AcDbEntity
  8
0
100
AcDbLine
 62
7
  6
CONTINUOUS
 10
315.1594656372
 20
270.2955195009
 11
315.0240494871
 21
269.7423280774
  0
LINE
  5
52C
100
AcDbEntity
  8
0
100
AcDbLine
 62
7
  6
CONTINUOUS
 10
315.8365494871
 20
269.6040302216
 11
315.5657156372
 21
269.0508387013
  0
LINE
  5
52D
100
AcDbEntity
  8
0
100
AcDbLine
 62
7
  6
CONTINUOUS
 10
312.3052994871
 20
259.2742429896
 11
311.4927994871
 21
257.7529663815
  0
LINE
  5
52E
100
AcDbEntity
  8
0
100
AcDbLine
 62
7
  6
CONTINUOUS
 10
312.982383337
 20
259.2742429896
 11
312.169883337
 21
257.7529663815
  0
LINE
  5
52F
100
AcDbEntity
  8
0
100
AcDbLine
 62
7
  6
CONTINUOUS
 10
300.8243151562
 20
247.0231791346
 11
301.0408215071
 21
247.3636046557
  0
LINE
  5
530
100
AcDbEntity
  8
0
100
AcDbLine
 62
7
  6
CONTINUOUS
 10
301.0743151562
 20
247.0231791346
 11
301.2908215071
 21
247.3636046557
  0
LINE
  5
531
100
AcDbEntity
  8
0
100
AcDbLine
 62
7
  6
CONTINUOUS
 10
310.2740494871
 20
262.7316896765
 11
310.0032156372
 21
262.316796109
  0
LINE
  5
532
100
AcDbEntity
  8
0
100
AcDbLine
 62
7
  6
CONTINUOUS
 10
315.0240494871
 20
269.7423280774
 11
314.7532156372
 21
269.3274345099
  0
LINE
  5
533
100
AcDbEntity
  8
0
100
AcDbLine
 62
7
  6
CONTINUOUS
 10
315.5657156372
 20
269.0508387013
 11
315.0240494871
 21
268.4976472295
  0
LINE
  5
534
100
AcDbEntity
  8
0
100
AcDbLine
 62
7
  6
CONTINUOUS
 10
305.5344656372
 20
259.2742429896
 11
309.326133337
 21
262.7316896765
  0
LINE
  5
535
100
AcDbEntity
  8
0
100
AcDbLine
 62
7
  6
CONTINUOUS
 10
310.0032156372
 20
262.316796109
 11
306.6177994871
 21
259.2742429896
  0
LINE
  5
536
100
AcDbEntity
  8
0
100
AcDbLine
 62
7
  6
CONTINUOUS
 10
295.9168375928
 20
248.4699876814
 11
296.2055124521
 21
248.7253067999
  0
LINE
  5
537
100
AcDbEntity
  8
0
100
AcDbLine
 62
7
  6
CONTINUOUS
 10
296.1668375928
 20
248.4699876814
 11
296.4555124521
 21
248.7253067999
  0
LINE
  5
538
100
AcDbEntity
  8
0
100
AcDbLine
 62
7
  6
CONTINUOUS
 10
290.2155037534
 20
247.4487110882
 11
289.9989974024
 21
247.2784982829
  0
LINE
  5
539
100
AcDbEntity
  8
0
100
AcDbLine
 62
7
  6
CONTINUOUS
 10
288.9886343625
 20
250.5976472406
 11
288.6999592451
 21
250.427434495
  0
LINE
  5
53A
100
AcDbEntity
  8
0
100
AcDbLine
 62
7
  6
CONTINUOUS
 10
313.8052994871
 20
273.7529664784
 11
311.3677994871
 21
273.7529664784
  0
LINE
  5
53B
100
AcDbEntity
  8
0
100
AcDbLine
 62
7
  6
CONTINUOUS
 10
301.7532160246
 20
273.8912643342
 11
299.1802994871
 21
273.8912643342
  0
LINE
  5
53C
100
AcDbEntity
  8
0
100
AcDbLine
 62
7
  6
CONTINUOUS
 10
313.8052994871
 20
274.5827536135
 11
310.5552994871
 21
274.5827536135
  0
LINE
  5
53D
100
AcDbEntity
  8
0
100
AcDbLine
 62
7
  6
CONTINUOUS
 10
309.4719664121
 20
274.5827536135
 11
308.6594664121
 21
274.5827536135
  0
LINE
  5
53E
100
AcDbEntity
  8
0
100
AcDbLine
 62
7
  6
CONTINUOUS
 10
305.4094664121
 20
274.5827536135
 11
304.5969660246
 21
274.5827536135
  0
LINE
  5
53F
100
AcDbEntity
  8
0
100
AcDbLine
 62
7
  6
CONTINUOUS
 10
301.6177994871
 20
274.5827536135
 11
298.3677994871
 21
274.5827536135
  0
LINE
  5
540
100
AcDbEntity
  8
0
100
AcDbLine
 62
7
  6
CONTINUOUS
 10
314.482383337
 20
274.4444557576
 11
313.8052994871
 21
274.5827536135
  0
LINE
  5
541
100
AcDbEntity
  8
0
100
AcDbLine
 62
7
  6
CONTINUOUS
 10
314.3469656372
 20
273.6146686225
 11
313.8052994871
 21
273.7529664784
  0
LINE
  5
542
100
AcDbEntity
  8
0
100
AcDbLine
 62
7
  6
CONTINUOUS
 10
315.0240494871
 20
274.1678600459
 11
314.482383337
 21
274.4444557576
  0
LINE
  5
543
100
AcDbEntity
  8
0
100
AcDbLine
 62
7
  6
CONTINUOUS
 10
314.7532156372
 20
273.3380729108
 11
314.3469656372
 21
273.6146686225
  0
LINE
  5
544
100
AcDbEntity
  8
0
100
AcDbLine
 62
7
  6
CONTINUOUS
 10
315.5657156372
 20
273.6146686225
 11
315.0240494871
 21
274.1678600459
  0
LINE
  5
545
100
AcDbEntity
  8
0
100
AcDbLine
 62
7
  6
CONTINUOUS
 10
315.0240494871
 20
272.9231789558
 11
314.7532156372
 21
273.3380729108
  0
LINE
  5
546
100
AcDbEntity
  8
0
100
AcDbLine
 62
7
  6
CONTINUOUS
 10
325.5999047415
 20
248.1189237966
 11
325.2029756743
 21
248.8210514544
  0
LINE
  5
547
100
AcDbEntity
  8
0
100
AcDbLine
 62
7
  6
CONTINUOUS
 10
325.8499047415
 20
248.1189237966
 11
325.4529756743
 21
248.8210514544
  0
LINE
  5
548
100
AcDbEntity
  8
0
100
AcDbLine
 62
7
  6
CONTINUOUS
 10
327.4376176032
 20
251.7465835123
 11
327.8345455347
 21
251.0444556086
  0
LINE
  5
549
100
AcDbEntity
  8
0
100
AcDbLine
 62
7
  6
CONTINUOUS
 10
321.3782171869
 20
259.1359450853
 11
321.1073817873
 21
259.6891365572
  0
LINE
  5
54A
100
AcDbEntity
  8
0
100
AcDbLine
 62
7
  6
CONTINUOUS
 10
315.8365494871
 20
273.0614771991
 11
315.5657156372
 21
273.6146686225
  0
LINE
  5
54B
100
AcDbEntity
  8
0
100
AcDbLine
 62
7
  6
CONTINUOUS
 10
325.0560477428
 20
248.4699876665
 11
325.2545122764
 21
248.001902534
  0
LINE
  5
54C
100
AcDbEntity
  8
0
100
AcDbLine
 62
7
  6
CONTINUOUS
 10
318.9407171869
 20
260.9338173567
 11
318.6698817873
 21
261.6253068297
  0
LINE
  5
54D
100
AcDbEntity
  8
0
100
AcDbLine
 62
7
  6
CONTINUOUS
 10
318.2636317873
 20
260.7955195009
 11
318.1282171869
 21
261.2104132621
  0
LINE
  5
54E
100
AcDbEntity
  8
0
100
AcDbLine
 62
7
  6
CONTINUOUS
 10
315.1594656372
 20
272.3699875324
 11
315.0240494871
 21
272.9231789558
  0
LINE
  5
54F
100
AcDbEntity
  8
0
100
AcDbLine
 62
7
  6
CONTINUOUS
 10
315.9719656372
 20
272.3699875324
 11
315.8365494871
 21
273.0614771991
  0
LINE
  5
550
100
AcDbEntity
  8
0
100
AcDbLine
 62
7
  6
CONTINUOUS
 10
318.2636317873
 20
260.7955195009
 11
318.2636317873
 21
260.5189237892
  0
LINE
  5
551
100
AcDbEntity
  8
0
100
AcDbLine
 62
7
  6
CONTINUOUS
 10
318.3677994871
 20
244.6827536135
 11
318.3677994871
 21
216.1827536135
  0
LINE
  5
552
100
AcDbEntity
  8
0
100
AcDbLine
 62
7
  6
CONTINUOUS
 10
318.6698817873
 20
265.0827536135
 11
318.6698817873
 21
264.3912643342
  0
LINE
  5
553
100
AcDbEntity
  8
0
100
AcDbLine
 62
7
  6
CONTINUOUS
 10
318.9407171869
 20
260.9338173567
 11
318.9407171869
 21
260.3806259333
  0
LINE
  5
554
100
AcDbEntity
  8
0
100
AcDbLine
 62
7
  6
CONTINUOUS
 10
319.1021230918
 20
251.512540987
 11
319.1021230918
 21
247.1827536135
  0
LINE
  5
555
100
AcDbEntity
  8
0
100
AcDbLine
 62
7
  6
CONTINUOUS
 10
319.4475155569
 20
247.1827536135
 11
319.4475155569
 21
252.6827536135
  0
LINE
  5
556
100
AcDbEntity
  8
0
100
AcDbLine
 62
7
  6
CONTINUOUS
 10
319.6975155569
 20
247.1827536135
 11
319.6975155569
 21
252.6827536135
  0
LINE
  5
557
100
AcDbEntity
  8
0
100
AcDbLine
 62
7
  6
CONTINUOUS
 10
320.0240494871
 20
263.0082853882
 11
320.0240494871
 21
262.4550939648
  0
LINE
  5
558
100
AcDbEntity
  8
0
100
AcDbLine
 62
7
  6
CONTINUOUS
 10
320.4913719878
 20
247.7678600087
 11
320.4913719878
 21
247.1827536135
  0
LINE
  5
559
100
AcDbEntity
  8
0
100
AcDbLine
 62
7
  6
CONTINUOUS
 10
318.2636317873
 20
260.5189237891
 11
318.1282171869
 21
260.1040302216
  0
LINE
  5
55A
100
AcDbEntity
  8
0
100
AcDbLine
 62
7
  6
CONTINUOUS
 10
299.0922643486
 20
248.4699876814
 11
299.3809392079
 21
248.7253067999
  0
LINE
  5
55B
100
AcDbEntity
  8
0
100
AcDbLine
 62
7
  6
CONTINUOUS
 10
299.3422643486
 20
248.4699876814
 11
299.6309392079
 21
248.7253067999
  0
LINE
  5
55C
100
AcDbEntity
  8
0
100
AcDbLine
 62
7
  6
CONTINUOUS
 10
297.4323820494
 20
247.3636046557
 11
297.2158756985
 21
247.1933919101
  0
LINE
  5
55D
100
AcDbEntity
  8
0
100
AcDbLine
 62
7
  6
CONTINUOUS
 10
300.6078088052
 20
247.3636046557
 11
300.3913024543
 21
247.1933919101
  0
LINE
  5
55E
100
AcDbEntity
  8
0
100
AcDbLine
 62
7
  6
CONTINUOUS
 10
315.5552994871
 20
261.9019025414
 11
315.013633337
 21
261.4870089738
  0
LINE
  5
55F
100
AcDbEntity
  8
0
100
AcDbLine
 62
7
  6
CONTINUOUS
 10
296.1333439437
 20
249.1508386641
 11
295.7724997502
 21
248.8955195456
  0
LINE
  5
560
100
AcDbEntity
  8
0
100
AcDbLine
 62
7
  6
CONTINUOUS
 10
299.3087706996
 20
249.1508386641
 11
298.947926506
 21
248.8955195456
  0
LINE
  5
561
100
AcDbEntity
  8
0
100
AcDbLine
 62
7
  6
CONTINUOUS
 10
297.2880442068
 20
246.7678599938
 11
297.6488884003
 21
247.0231791346
  0
LINE
  5
562
100
AcDbEntity
  8
0
100
AcDbLine
 62
7
  6
CONTINUOUS
 10
297.5380442068
 20
246.7678599938
 11
297.8988884003
 21
247.0231791346
  0
LINE
  5
563
100
AcDbEntity
  8
0
100
AcDbLine
 62
7
  6
CONTINUOUS
 10
315.419883337
 20
262.5933918207
 11
314.7427994871
 21
262.1784982531
  0
LINE
  5
564
100
AcDbEntity
  8
0
100
AcDbLine
 62
7
  6
CONTINUOUS
 10
290.0711661172
 20
246.7678599938
 11
290.359841183
 21
246.9380727618
  0
LINE
  5
565
100
AcDbEntity
  8
0
100
AcDbLine
 62
7
  6
CONTINUOUS
 10
290.3211661172
 20
246.7678599938
 11
290.609841183
 21
246.9380727618
  0
LINE
  5
566
100
AcDbEntity
  8
0
100
AcDbLine
 62
7
  6
CONTINUOUS
 10
289.0608031806
 20
250.0870090036
 11
289.2773095315
 21
250.1721153765
  0
LINE
  5
567
100
AcDbEntity
  8
0
100
AcDbLine
 62
7
  6
CONTINUOUS
 10
289.3108031806
 20
250.0870090036
 11
289.5273095315
 21
250.1721153765
  0
LINE
  5
568
100
AcDbEntity
  8
0
100
AcDbLine
 62
7
  6
CONTINUOUS
 10
289.2773095315
 20
250.6827536135
 11
288.9886343625
 21
250.5976472406
  0
LINE
  5
569
100
AcDbEntity
  8
0
100
AcDbLine
 62
7
  6
CONTINUOUS
 10
327.9814746019
 20
251.3955197244
 11
327.7830100683
 21
251.863604775
  0
LINE
  5
56A
100
AcDbEntity
  8
0
100
AcDbLine
 62
7
  6
CONTINUOUS
 10
328.2314746019
 20
251.3955197244
 11
328.0330100683
 21
251.863604775
  0
LINE
  5
56B
100
AcDbEntity
  8
0
100
AcDbLine
 62
7
  6
CONTINUOUS
 10
321.9198817873
 20
259.5508387013
 11
321.7844671869
 21
259.9657323657
  0
LINE
  5
56C
100
AcDbEntity
  8
0
100
AcDbLine
 62
7
  6
CONTINUOUS
 10
324.9568160438
 20
248.8210514544
 11
325.0560477428
 21
248.4699876665
  0
LINE
  5
56D
100
AcDbEntity
  8
0
100
AcDbLine
 62
7
  6
CONTINUOUS
 10
323.8137267784
 20
251.3955197244
 11
323.7144950794
 21
251.863604775
  0
LINE
  5
56E
100
AcDbEntity
  8
0
100
AcDbLine
 62
7
  6
CONTINUOUS
 10
324.0637267784
 20
251.3955197244
 11
323.9644950794
 21
251.863604775
  0
LINE
  5
56F
100
AcDbEntity
  8
0
100
AcDbLine
 62
7
  6
CONTINUOUS
 10
321.1073817873
 20
264.1146686225
 11
321.1073817873
 21
263.0082853882
  0
LINE
  5
570
100
AcDbEntity
  8
0
100
AcDbLine
 62
7
  6
CONTINUOUS
 10
321.1073817873
 20
262.4550939648
 11
321.1073817873
 21
259.6891365572
  0
LINE
  5
571
100
AcDbEntity
  8
0
100
AcDbLine
 62
7
  6
CONTINUOUS
 10
321.7844671869
 20
264.1146686225
 11
321.7844671869
 21
263.0082853882
  0
LINE
  5
572
100
AcDbEntity
  8
0
100
AcDbLine
 62
7
  6
CONTINUOUS
 10
321.7844671869
 20
262.4550939648
 11
321.7844671869
 21
259.9657323657
  0
LINE
  5
573
100
AcDbEntity
  8
0
100
AcDbLine
 62
7
  6
CONTINUOUS
 10
323.0032171869
 20
259.1359450853
 11
323.0032171869
 21
258.5827536135
  0
LINE
  5
574
100
AcDbEntity
  8
0
100
AcDbLine
 62
7
  6
CONTINUOUS
 10
323.2740494871
 20
263.0082853882
 11
323.2740494871
 21
262.4550939648
  0
LINE
  5
575
100
AcDbEntity
  8
0
100
AcDbLine
 62
7
  6
CONTINUOUS
 10
323.4683343133
 20
251.3955197244
 11
323.4683343133
 21
251.1614768713
  0
LINE
  5
576
100
AcDbEntity
  8
0
100
AcDbLine
 62
7
  6
CONTINUOUS
 10
323.8137267784
 20
247.1827536135
 11
323.8137267784
 21
247.7678600087
  0
LINE
  5
577
100
AcDbEntity
  8
0
100
AcDbLine
 62
7
  6
CONTINUOUS
 10
323.8137267784
 20
251.1614768713
 11
323.8137267784
 21
251.3955197244
  0
LINE
  5
578
100
AcDbEntity
  8
0
100
AcDbLine
 62
7
  6
CONTINUOUS
 10
324.0637267784
 20
247.1827536135
 11
324.0637267784
 21
247.7678600087
  0
LINE
  5
579
100
AcDbEntity
  8
0
100
AcDbLine
 62
7
  6
CONTINUOUS
 10
324.0637267784
 20
251.1614768713
 11
324.0637267784
 21
251.3955197244
  0
LINE
  5
57A
100
AcDbEntity
  8
0
100
AcDbLine
 62
7
  6
CONTINUOUS
 10
324.8575832092
 20
250.4593492954
 11
324.8575832092
 21
249.4061579316
  0
LINE
  5
57B
100
AcDbEntity
  8
0
100
AcDbLine
 62
7
  6
CONTINUOUS
 10
325.1037439754
 20
249.5231791942
 11
325.1037439754
 21
250.3423280327
  0
LINE
  5
57C
100
AcDbEntity
  8
0
100
AcDbLine
 62
7
  6
CONTINUOUS
 10
320.6898365213
 20
251.863604775
 11
320.5906042545
 21
251.3955197244
  0
LINE
  5
57D
100
AcDbEntity
  8
0
100
AcDbLine
 62
7
  6
CONTINUOUS
 10
318.8044268592
 20
252.6827536135
 11
317.3159456965
 21
247.7678600087
  0
LINE
  5
57E
100
AcDbEntity
  8
0
100
AcDbLine
 62
7
  6
CONTINUOUS
 10
317.4628739119
 20
247.1827536135
 11
318.8521230918
 21
251.512540987
  0
LINE
  5
57F
100
AcDbEntity
  8
0
100
AcDbLine
 62
7
  6
CONTINUOUS
 10
317.7128739119
 20
247.1827536135
 11
319.1021230918
 21
251.512540987
  0
LINE
  5
580
100
AcDbEntity
  8
0
100
AcDbLine
 62
7
  6
CONTINUOUS
 10
318.9407171869
 20
260.3806259333
 11
318.6698817873
 21
259.6891365572
  0
LINE
  5
581
100
AcDbEntity
  8
0
100
AcDbLine
 62
7
  6
CONTINUOUS
 10
318.1282171869
 20
260.1040302216
 11
317.8573817873
 21
259.6891365572
  0
LINE
  5
582
100
AcDbEntity
  8
0
100
AcDbLine
 62
7
  6
CONTINUOUS
 10
318.6698817873
 20
259.6891365572
 11
318.2636317873
 21
259.1359450853
  0
LINE
  5
583
100
AcDbEntity
  8
0
100
AcDbLine
 62
7
  6
CONTINUOUS
 10
300.4634709626
 20
246.7678599938
 11
300.8243151562
 21
247.0231791346
  0
LINE
  5
584
100
AcDbEntity
  8
0
100
AcDbLine
 62
7
  6
CONTINUOUS
 10
300.7134709626
 20
246.7678599938
 11
301.0743151562
 21
247.0231791346
  0
LINE
  5
585
100
AcDbEntity
  8
0
100
AcDbLine
 62
7
  6
CONTINUOUS
 10
317.8573817873
 20
259.6891365572
 11
317.4511317873
 21
259.4125408455
  0
LINE
  5
586
100
AcDbEntity
  8
0
100
AcDbLine
 62
7
  6
CONTINUOUS
 10
318.2636317873
 20
259.1359450853
 11
317.5865494871
 21
258.7210514814
  0
LINE
  5
587
100
AcDbEntity
  8
0
100
AcDbLine
 62
7
  6
CONTINUOUS
 10
289.9989974024
 20
247.2784982829
 11
289.7103222334
 21
247.1933919101
  0
LINE
  5
588
100
AcDbEntity
  8
0
100
AcDbLine
 62
7
  6
CONTINUOUS
 10
296.2055124521
 20
248.7253067999
 11
296.4941881373
 21
248.8104131727
  0
LINE
  5
589
100
AcDbEntity
  8
0
100
AcDbLine
 62
7
  6
CONTINUOUS
 10
296.4555124521
 20
248.7253067999
 11
296.7441881373
 21
248.8104131727
  0
LINE
  5
58A
100
AcDbEntity
  8
RUNDUNGEN
100
AcDbLine
 62
7
  6
CONTINUOUS
 10
324.7920650773
 20
282.5827536135
 11
291.9435319808
 21
282.5827536135
  0
LINE
  5
58B
100
AcDbEntity
  8
0
100
AcDbLine
 62
7
  6
CONTINUOUS
 10
328.0807063009
 20
251.0444556086
 11
327.9814746019
 21
251.3955197244
  0
LINE
  5
58C
100
AcDbEntity
  8
0
100
AcDbLine
 62
7
  6
CONTINUOUS
 10
328.3307063009
 20
251.0444556086
 11
328.2314746019
 21
251.3955197244
  0
LINE
  5
58D
100
AcDbEntity
  8
0
100
AcDbLine
 62
7
  6
CONTINUOUS
 10
324.8575832092
 20
249.4061579316
 11
324.9568160438
 21
248.8210514544
  0
LINE
  5
58E
100
AcDbEntity
  8
0
100
AcDbLine
 62
7
  6
CONTINUOUS
 10
328.1799379998
 20
250.4593492954
 11
328.0807063009
 21
251.0444556086
  0
LINE
  5
58F
100
AcDbEntity
  8
0
100
AcDbLine
 62
7
  6
CONTINUOUS
 10
328.4299379998
 20
250.4593492954
 11
328.3307063009
 21
251.0444556086
  0
LINE
  5
590
100
AcDbEntity
  8
0
100
AcDbLine
 62
7
  6
CONTINUOUS
 10
325.2029756743
 20
248.8210514544
 11
325.1037439754
 21
249.5231791942
  0
LINE
  5
591
100
AcDbEntity
  8
0
100
AcDbLine
 62
7
  6
CONTINUOUS
 10
325.4529756743
 20
248.8210514544
 11
325.3537439754
 21
249.5231791942
  0
LINE
  5
592
100
AcDbEntity
  8
0
100
AcDbLine
 62
7
  6
CONTINUOUS
 10
325.3537439754
 20
249.5231791942
 11
325.3537439754
 21
250.3423280327
  0
LINE
  5
593
100
AcDbEntity
  8
0
100
AcDbLine
 62
7
  6
CONTINUOUS
 10
327.9337783693
 20
250.3423280327
 11
327.9337783693
 21
249.5231791942
  0
LINE
  5
594
100
AcDbEntity
  8
0
100
AcDbLine
 62
7
  6
CONTINUOUS
 10
328.1799379998
 20
249.4061579316
 11
328.1799379998
 21
250.4593492954
  0
LINE
  5
595
100
AcDbEntity
  8
0
100
AcDbLine
 62
7
  6
CONTINUOUS
 10
328.4299379998
 20
249.4061579316
 11
328.4299379998
 21
250.4593492954
  0
LINE
  5
596
100
AcDbEntity
  8
0
100
AcDbLine
 62
7
  6
CONTINUOUS
 10
325.1037439754
 20
250.3423280327
 11
325.2029756743
 21
251.0444556086
  0
LINE
  5
597
100
AcDbEntity
  8
0
100
AcDbLine
 62
7
  6
CONTINUOUS
 10
325.3537439754
 20
250.3423280327
 11
325.4529756743
 21
251.0444556086
  0
LINE
  5
598
100
AcDbEntity
  8
0
100
AcDbLine
 62
7
  6
CONTINUOUS
 10
324.9568160438
 20
251.0444556086
 11
324.8575832092
 21
250.4593492954
  0
LINE
  5
599
100
AcDbEntity
  8
0
100
AcDbLine
 62
7
  6
CONTINUOUS
 10
323.7144950794
 20
250.6933918207
 11
323.8137267784
 21
251.1614768713
  0
LINE
  5
59A
100
AcDbEntity
  8
0
100
AcDbLine
 62
7
  6
CONTINUOUS
 10
323.9644950794
 20
250.6933918207
 11
324.0637267784
 21
251.1614768713
  0
LINE
  5
59B
100
AcDbEntity
  8
0
100
AcDbLine
 62
7
  6
CONTINUOUS
 10
320.8367644529
 20
251.3955197244
 11
321.0352289864
 21
251.7465835123
  0
LINE
  5
59C
100
AcDbEntity
  8
0
100
AcDbLine
 62
7
  6
CONTINUOUS
 10
321.0867644529
 20
251.3955197244
 11
321.2852289864
 21
251.7465835123
  0
LINE
  5
59D
100
AcDbEntity
  8
0
100
AcDbLine
 62
7
  6
CONTINUOUS
 10
321.0867644529
 20
252.3316898255
 11
320.6898365213
 21
251.863604775
  0
LINE
  5
59E
100
AcDbEntity
  8
0
100
AcDbLine
 62
7
  6
CONTINUOUS
 10
321.4836929522
 20
252.5657323508
 11
321.0867644529
 21
252.3316898255
  0
LINE
  5
59F
100
AcDbEntity
  8
0
100
AcDbLine
 62
7
  6
CONTINUOUS
 10
299.3809392079
 20
248.7253067999
 11
299.6696140672
 21
248.8104131727
  0
LINE
  5
5A0
100
AcDbEntity
  8
0
100
AcDbLine
 62
7
  6
CONTINUOUS
 10
299.6309392079
 20
248.7253067999
 11
299.9196140672
 21
248.8104131727
  0
LINE
  5
5A1
100
AcDbEntity
  8
0
100
AcDbLine
 62
7
  6
CONTINUOUS
 10
297.2158756985
 20
247.1933919101
 11
296.9272008392
 21
247.1082855372
  0
LINE
  5
5A2
100
AcDbEntity
  8
0
100
AcDbLine
 62
7
  6
CONTINUOUS
 10
300.3913024543
 20
247.1933919101
 11
300.1026267691
 21
247.1082855372
  0
LINE
  5
5A3
100
AcDbEntity
  8
0
100
AcDbLine
 62
7
  6
CONTINUOUS
 10
327.8345455347
 20
251.0444556086
 11
327.9337783693
 21
250.3423280327
  0
LINE
  5
5A4
100
AcDbEntity
  8
RUNDUNGEN
100
AcDbLine
 62
7
  6
CONTINUOUS
 10
331.3677994871
 20
316.2639940709
 11
331.3677994871
 21
305.0827536135
  0
LINE
  5
5A5
100
AcDbEntity
  8
0
100
AcDbLine
 62
7
  6
CONTINUOUS
 10
327.9337783693
 20
249.5231791942
 11
327.8345455347
 21
248.8210514544
  0
LINE
  5
5A6
100
AcDbEntity
  8
0
100
AcDbLine
 62
7
  6
CONTINUOUS
 10
328.0807063009
 20
248.8210514544
 11
328.1799379998
 21
249.4061579316
  0
LINE
  5
5A7
100
AcDbEntity
  8
0
100
AcDbLine
 62
7
  6
CONTINUOUS
 10
328.3307063009
 20
248.8210514544
 11
328.4299379998
 21
249.4061579316
  0
LINE
  5
5A8
100
AcDbEntity
  8
0
100
AcDbLine
 62
7
  6
CONTINUOUS
 10
325.0560477428
 20
251.3955197244
 11
324.9568160438
 21
251.0444556086
  0
LINE
  5
5A9
100
AcDbEntity
  8
0
100
AcDbLine
 62
7
  6
CONTINUOUS
 10
327.9814746019
 20
248.4699876665
 11
328.0807063009
 21
248.8210514544
  0
LINE
  5
5AA
100
AcDbEntity
  8
0
100
AcDbLine
 62
7
  6
CONTINUOUS
 10
328.2314746019
 20
248.4699876665
 11
328.3307063009
 21
248.8210514544
  0
LINE
  5
5AB
100
AcDbEntity
  8
0
100
AcDbLine
 62
7
  6
CONTINUOUS
 10
323.4683343133
 20
251.1614768713
 11
323.2698703475
 21
250.6933918207
  0
LINE
  5
5AC
100
AcDbEntity
  8
0
100
AcDbLine
 62
7
  6
CONTINUOUS
 10
325.2545122764
 20
251.863604775
 11
325.0560477428
 21
251.3955197244
  0
LINE
  5
5AD
100
AcDbEntity
  8
0
100
AcDbLine
 62
7
  6
CONTINUOUS
 10
323.5160305458
 20
250.3423280327
 11
323.7144950794
 21
250.6933918207
  0
LINE
  5
5AE
100
AcDbEntity
  8
0
100
AcDbLine
 62
7
  6
CONTINUOUS
 10
323.7660305458
 20
250.3423280327
 11
323.9644950794
 21
250.6933918207
  0
LINE
  5
5AF
100
AcDbEntity
  8
0
100
AcDbLine
 62
7
  6
CONTINUOUS
 10
325.2029756743
 20
251.0444556086
 11
325.5999047415
 21
251.7465835123
  0
LINE
  5
5B0
100
AcDbEntity
  8
0
100
AcDbLine
 62
7
  6
CONTINUOUS
 10
325.4529756743
 20
251.0444556086
 11
325.8499047415
 21
251.7465835123
  0
LINE
  5
5B1
100
AcDbEntity
  8
0
100
AcDbLine
 62
7
  6
CONTINUOUS
 10
325.5522085089
 20
252.2146685629
 11
325.2545122764
 21
251.863604775
  0
LINE
  5
5B2
100
AcDbEntity
  8
0
100
AcDbLine
 62
7
  6
CONTINUOUS
 10
323.2698703475
 20
250.6933918207
 11
320.4913719878
 21
247.7678600087
  0
LINE
  5
5B3
100
AcDbEntity
  8
0
100
AcDbLine
 62
7
  6
CONTINUOUS
 10
321.0352289864
 20
247.7678600087
 11
323.5160305458
 21
250.3423280327
  0
LINE
  5
5B4
100
AcDbEntity
  8
0
100
AcDbLine
 62
7
  6
CONTINUOUS
 10
321.2852289864
 20
247.7678600087
 11
323.7660305458
 21
250.3423280327
  0
LINE
  5
5B5
100
AcDbEntity
  8
0
100
AcDbLine
 62
7
  6
CONTINUOUS
 10
321.0352289864
 20
251.7465835123
 11
321.332925219
 21
251.9806260376
  0
LINE
  5
5B6
100
AcDbEntity
  8
0
100
AcDbLine
 62
7
  6
CONTINUOUS
 10
321.2852289864
 20
251.7465835123
 11
321.582925219
 21
251.9806260376
  0
LINE
  5
5B7
100
AcDbEntity
  8
0
100
AcDbLine
 62
7
  6
CONTINUOUS
 10
325.5999047415
 20
251.7465835123
 11
325.897600974
 21
251.9806260376
  0
LINE
  5
5B8
100
AcDbEntity
  8
0
100
AcDbLine
 62
7
  6
CONTINUOUS
 10
325.8499047415
 20
251.7465835123
 11
326.147600974
 21
251.9806260376
  0
LINE
  5
5B9
100
AcDbEntity
  8
0
100
AcDbLine
 62
7
  6
CONTINUOUS
 10
326.0483681394
 20
252.5657323508
 11
325.5522085089
 21
252.2146685629
  0
LINE
  5
5BA
100
AcDbEntity
  8
KONSTRUKTIONSELEMENTE
100
AcDbLine
 62
7
  6
CONTINUOUS
 10
333.3397645557
 20
244.6827536135
 11
333.3397645557
 21
255.6827536135
  0
LINE
  5
5BB
100
AcDbEntity
  8
0
100
AcDbLine
 62
7
  6
CONTINUOUS
 10
334.8677994871
 20
297.2789060362
 11
334.8677994871
 21
255.6827536135
  0
LINE
  5
5BC
100
AcDbEntity
  8
KONSTRUKTIONSELEMENTE
100
AcDbLine
 62
7
  6
CONTINUOUS
 10
335.8677994871
 20
244.6827536135
 11
335.8677994871
 21
255.6827536135
  0
LINE
  5
5BD
100
AcDbEntity
  8
0
100
AcDbLine
 62
7
  6
CONTINUOUS
 10
327.7830100683
 20
248.001902534
 11
327.9814746019
 21
248.4699876665
  0
LINE
  5
5BE
100
AcDbEntity
  8
0
100
AcDbLine
 62
7
  6
CONTINUOUS
 10
328.0330100683
 20
248.001902534
 11
328.2314746019
 21
248.4699876665
  0
LINE
  5
5BF
100
AcDbEntity
  8
0
100
AcDbLine
 62
7
  6
CONTINUOUS
 10
327.8345455347
 20
248.8210514544
 11
327.4376176032
 21
248.1189237966
  0
LINE
  5
5C0
100
AcDbEntity
  8
0
100
AcDbLine
 62
7
  6
CONTINUOUS
 10
327.4853138358
 20
247.650838705
 11
327.7830100683
 21
248.001902534
  0
LINE
  5
5C1
100
AcDbEntity
  8
0
100
AcDbLine
 62
7
  6
CONTINUOUS
 10
327.7353138358
 20
247.650838705
 11
328.0330100683
 21
248.001902534
  0
LINE
  5
5C2
100
AcDbEntity
  8
0
100
AcDbLine
 62
7
  6
CONTINUOUS
 10
327.4376176032
 20
248.1189237966
 11
327.1399213707
 21
247.8848812713
  0
LINE
  5
5C3
100
AcDbEntity
  8
0
100
AcDbLine
 62
7
  6
CONTINUOUS
 10
326.9891530696
 20
247.2997748864
 11
327.4853138358
 21
247.650838705
  0
LINE
  5
5C4
100
AcDbEntity
  8
0
100
AcDbLine
 62
7
  6
CONTINUOUS
 10
327.2391530696
 20
247.2997748864
 11
327.7353138358
 21
247.650838705
  0
LINE
  5
5C5
100
AcDbEntity
  8
RUNDUNGEN
100
AcDbLine
 62
7
  6
CONTINUOUS
 10
315.7992477419
 20
301.2740596771
 11
312.8815098361
 21
304.5145359102
  0
LINE
  5
5C6
100
AcDbEntity
  8
BEZUGSACHSEN
100
AcDbLine
 62
7
  6
CONTINUOUS
 10
312.3735097735
 20
305.6827536135
 11
304.3620892007
 21
305.6827536135
  0
LINE
  5
5C7
100
AcDbEntity
  8
RUNDUNGEN
100
AcDbLine
 62
7
  6
CONTINUOUS
 10
334.4658756985
 20
298.7789060362
 11
331.8367105739
 21
303.3327536135
  0
LINE
  5
5C8
100
AcDbEntity
  8
FASEN
100
AcDbLine
 62
7
  6
CONTINUOUS
 10
316.8677994871
 20
214.6827536135
 11
318.3677994871
 21
216.1827536135
  0
LINE
  5
5C9
100
AcDbEntity
  8
BEZUGSACHSEN
100
AcDbLine
 62
7
  6
CONTINUOUS
 10
312.3677994871
 20
315.4827536135
 11
304.3677994871
 21
315.4827536135
  0
LINE
  5
5CA
100
AcDbEntity
  8
RUNDUNGEN
100
AcDbLine
 62
7
  6
CONTINUOUS
 10
327.6169635222
 20
322.1899346832
 11
330.4319772596
 21
318.8351319485
  0
LINE
  5
5CB
100
AcDbEntity
  8
0
100
AcDbLine
 62
7
  6
CONTINUOUS
 10
325.7240345018
 20
323.0827536135
 11
320.1257755034
 21
323.0827536135
  0
LINE
  5
5CC
100
AcDbEntity
  8
0
100
AcDbLine
 62
7
  6
CONTINUOUS
 10
296.6098234708
 20
323.0827536135
 11
291.0115644905
 21
323.0827536135
  0
LINE
  5
5CD
100
AcDbEntity
  8
KONSTRUKTIONSELEMENTE
100
AcDbLine
 62
7
  6
CONTINUOUS
 10
156.5080045256
 20
76.8839438207
 11
156.5080045256
 21
71.8278739578
  0
LINE
  5
5CE
100
AcDbEntity
  8
KONSTRUKTIONSELEMENTE
100
AcDbLine
 62
7
  6
CONTINUOUS
 10
173.8446985765
 20
101.8559088893
 11
169.4660136319
 21
99.3278739578
  0
LINE
  5
5CF
100
AcDbEntity
  8
KONSTRUKTIONSELEMENTE
100
AcDbLine
 62
7
  6
CONTINUOUS
 10
169.4660136319
 20
49.3839438207
 11
173.8446985765
 21
46.8559088893
  0
LINE
  5
5D0
100
AcDbEntity
  8
KONSTRUKTIONSELEMENTE
100
AcDbLine
 62
7
  6
CONTINUOUS
 10
169.4660136319
 20
99.3278739578
 11
156.5080045256
 21
76.8839438207
  0
LINE
  5
5D1
100
AcDbEntity
  8
KONSTRUKTIONSELEMENTE
100
AcDbLine
 62
7
  6
CONTINUOUS
 10
173.8446985765
 20
46.8559088893
 11
199.7607167891
 21
46.8559088893
  0
LINE
  5
5D2
100
AcDbEntity
  8
KONSTRUKTIONSELEMENTE
100
AcDbLine
 62
7
  6
CONTINUOUS
 10
156.5080045256
 20
71.8278739578
 11
169.4660136319
 21
49.3839438207
  0
LINE
  5
5D3
100
AcDbEntity
  8
RUNDUNGEN
100
AcDbLine
 62
7
  6
CONTINUOUS
 10
196.8027076828
 20
51.3559088893
 11
176.8027076828
 21
51.3559088893
  0
LINE
  5
5D4
100
AcDbEntity
  8
0
100
AcDbLine
 62
7
  6
CONTINUOUS
 10
199.3027076828
 20
55.9959088893
 11
199.8027076828
 21
55.9959088893
  0
LINE
  5
5D5
100
AcDbEntity
  8
0
100
AcDbLine
 62
7
  6
CONTINUOUS
 10
199.3027076828
 20
56.0810152621
 11
199.8027076828
 21
56.0810152621
  0
LINE
  5
5D6
100
AcDbEntity
  8
0
100
AcDbLine
 62
7
  6
CONTINUOUS
 10
199.3027076828
 20
56.3363343806
 11
199.8027076828
 21
56.3363343806
  0
LINE
  5
5D7
100
AcDbEntity
  8
0
100
AcDbLine
 62
7
  6
CONTINUOUS
 10
199.3027076828
 20
56.5916534991
 11
199.8027076828
 21
56.5916534991
  0
LINE
  5
5D8
100
AcDbEntity
  8
0
100
AcDbLine
 62
7
  6
CONTINUOUS
 10
199.3027076828
 20
57.0171856017
 11
199.8027076828
 21
57.0171856017
  0
LINE
  5
5D9
100
AcDbEntity
  8
0
100
AcDbLine
 62
7
  6
CONTINUOUS
 10
199.3027076828
 20
57.2725047202
 11
199.8027076828
 21
57.2725047202
  0
LINE
  5
5DA
100
AcDbEntity
  8
0
100
AcDbLine
 62
7
  6
CONTINUOUS
 10
199.3027076828
 20
57.6129302115
 11
199.8027076828
 21
57.6129302115
  0
LINE
  5
5DB
100
AcDbEntity
  8
0
100
AcDbLine
 62
7
  6
CONTINUOUS
 10
199.3027076828
 20
57.86824933
 11
199.8027076828
 21
57.86824933
  0
LINE
  5
5DC
100
AcDbEntity
  8
0
100
AcDbLine
 62
7
  6
CONTINUOUS
 10
199.3027076828
 20
57.9533557028
 11
199.8027076828
 21
57.9533557028
  0
LINE
  5
5DD
100
AcDbEntity
  8
0
100
AcDbLine
 62
7
  6
CONTINUOUS
 10
199.3027076828
 20
58.0384620757
 11
199.8027076828
 21
58.0384620757
  0
LINE
  5
5DE
100
AcDbEntity
  8
0
100
AcDbLine
 62
7
  6
CONTINUOUS
 10
199.3027076828
 20
58.2937811942
 11
199.8027076828
 21
58.2937811942
  0
LINE
  5
5DF
100
AcDbEntity
  8
0
100
AcDbLine
 62
7
  6
CONTINUOUS
 10
199.3027076828
 20
58.7193131775
 11
199.8027076828
 21
58.7193131775
  0
LINE
  5
5E0
100
AcDbEntity
  8
0
100
AcDbLine
 62
7
  6
CONTINUOUS
 10
199.3027076828
 20
58.974632296
 11
199.8027076828
 21
58.974632296
  0
LINE
  5
5E1
100
AcDbEntity
  8
0
100
AcDbLine
 62
7
  6
CONTINUOUS
 10
199.3027076828
 20
59.4001642198
 11
199.8027076828
 21
59.4001642198
  0
LINE
  5
5E2
100
AcDbEntity
  8
0
100
AcDbLine
 62
7
  6
CONTINUOUS
 10
164.8925796381
 20
59.4496588893
 11
164.5908592469
 21
59.4496588893
  0
LINE
  5
5E3
100
AcDbEntity
  8
0
100
AcDbLine
 62
7
  6
CONTINUOUS
 10
199.3027076828
 20
59.6554833681
 11
199.8027076828
 21
59.6554833681
  0
LINE
  5
5E4
100
AcDbEntity
  8
0
100
AcDbLine
 62
7
  6
CONTINUOUS
 10
199.3027076828
 20
59.910802509
 11
199.8027076828
 21
59.910802509
  0
LINE
  5
5E5
100
AcDbEntity
  8
0
100
AcDbLine
 62
7
  6
CONTINUOUS
 10
199.3027076828
 20
59.9959088893
 11
199.8027076828
 21
59.9959088893
  0
LINE
  5
5E6
100
AcDbEntity
  8
0
100
AcDbLine
 62
7
  6
CONTINUOUS
 10
163.9500704645
 20
60.9392411894
 11
163.6606350048
 21
60.9392411894
  0
LWPOLYLINE
  5
5E7
100
AcDbEntity
  8
RUNDUNGEN
100
AcDbPolyline
 62
7
  6
CONTINUOUS
 90
5
 70
0
 10
174.3026959719
 20
85.5474478411
 10
174.3044336545
 20
85.4629655645
 10
174.3299760186
 20
85.2068744595
 10
174.3852220399
 20
84.9567249072
 10
174.4694408039
 20
84.7141282743
  0
LINE
  5
5E8
100
AcDbEntity
  8
RUNDUNGEN
100
AcDbLine
 62
7
  6
CONTINUOUS
 10
174.3027076828
 20
52.5384757849
 11
174.3027076828
 21
64.6090737218
  0
LINE
  5
5E9
100
AcDbEntity
  8
RUNDUNGEN
100
AcDbLine
 62
7
  6
CONTINUOUS
 10
174.3027076828
 20
84.1027457883
 11
174.3027076828
 21
96.1733354664
  0
LINE
  5
5EA
100
AcDbEntity
  8
0
100
AcDbLine
 62
7
  6
CONTINUOUS
 10
174.3027076828
 20
86.1138849056
 11
174.3027076828
 21
94.8559088893
  0
LINE
  5
5EB
100
AcDbEntity
  8
0
100
AcDbLine
 62
7
  6
CONTINUOUS
 10
163.5658179852
 20
61.6163265891
 11
163.2811103132
 21
61.6163265891
  0
LINE
  5
5EC
100
AcDbEntity
  8
0
100
AcDbLine
 62
7
  6
CONTINUOUS
 10
163.0039296483
 20
62.6996588893
 11
162.7258653662
 21
62.6996588893
  0
LINE
  5
5ED
100
AcDbEntity
  8
0
100
AcDbLine
 62
7
  6
CONTINUOUS
 10
162.5032547813
 20
63.7829911894
 11
162.2308556705
 21
63.7829911894
  0
LINE
  5
5EE
100
AcDbEntity
  8
0
100
AcDbLine
 62
7
  6
CONTINUOUS
 10
162.3871982619
 20
64.0538265891
 11
162.1160797178
 21
64.0538265891
  0
LWPOLYLINE
  5
5EF
100
AcDbEntity
  8
RUNDUNGEN
100
AcDbPolyline
 62
7
  6
CONTINUOUS
 90
6
 70
0
 10
174.5796406135
 20
64.2261124881
 10
174.4676676008
 20
63.9933915806
 10
174.3842403584
 20
63.7516141104
 10
174.3295766119
 20
63.5024371631
 10
174.3043811141
 20
63.2475305078
 10
174.3026959793
 20
63.164348408
  0
LINE
  5
5F0
100
AcDbEntity
  8
RUNDUNGEN
100
AcDbLine
 62
7
  6
CONTINUOUS
 10
175.991690996
 20
66.2603037137
 11
175.8578863369
 21
65.9893940803
  0
LWPOLYLINE
  5
5F1
100
AcDbEntity
  8
RUNDUNGEN
100
AcDbPolyline
 62
7
  6
CONTINUOUS
 90
6
 70
0
 10
175.8578863369
 20
65.9893940803
 10
175.6763418491
 20
65.6606250697
 10
175.4920456106
 20
65.368307728
 10
175.3085647626
 20
65.1153809323
 10
175.130204066
 20
64.9038398918
 10
174.8869926059
 20
64.6541578386
  0
LINE
  5
5F2
100
AcDbEntity
  8
0
100
AcDbLine
 62
7
  6
CONTINUOUS
 10
161.41714767
 20
66.7517427392
 11
161.1562818663
 21
66.7517427392
  0
LINE
  5
5F3
100
AcDbEntity
  8
0
100
AcDbLine
 62
7
  6
CONTINUOUS
 10
161.3769771439
 20
66.8871588893
 11
161.1165193039
 21
66.8871588893
  0
LINE
  5
5F4
100
AcDbEntity
  8
0
100
AcDbLine
 62
7
  6
CONTINUOUS
 10
161.298982404
 20
67.1579927392
 11
161.0393130482
 21
67.1579927392
  0
LINE
  5
5F5
100
AcDbEntity
  8
0
100
AcDbLine
 62
7
  6
CONTINUOUS
 10
161.1522820345
 20
67.6996588893
 11
160.8940829424
 21
67.6996588893
  0
LINE
  5
5F6
100
AcDbEntity
  8
0
100
AcDbLine
 62
7
  6
CONTINUOUS
 10
161.017792241
 20
68.2413250393
 11
160.7609265543
 21
68.2413250393
  0
LINE
  5
5F7
100
AcDbEntity
  8
0
100
AcDbLine
 62
7
  6
CONTINUOUS
 10
160.8665631399
 20
68.9184088893
 11
160.6111805462
 21
68.9184088893
  0
LWPOLYLINE
  5
5F8
100
AcDbEntity
  8
RUNDUNGEN
100
AcDbPolyline
 62
7
  6
CONTINUOUS
 90
3
 70
0
 10
175.6801124878
 20
83.0447899044
 10
175.8616685815
 20
82.7151126062
 10
175.9915978752
 20
82.4517116751
  0
LINE
  5
5F9
100
AcDbEntity
  8
RUNDUNGEN
100
AcDbLine
 62
7
  6
CONTINUOUS
 10
174.4694408039
 20
84.7141282743
 11
174.5824232159
 21
84.4807038994
  0
LINE
  5
5FA
100
AcDbEntity
  8
BEZUGSACHSEN
100
AcDbLine
 62
7
  6
CONTINUOUS
 10
181.9027076828
 20
70.3559088893
 11
181.9027076828
 21
78.3559088893
  0
LINE
  5
5FB
100
AcDbEntity
  8
RUNDUNGEN
100
AcDbLine
 62
7
  6
CONTINUOUS
 10
174.7194939565
 20
64.4469782285
 11
174.5796406135
 21
64.2261124881
  0
LINE
  5
5FC
100
AcDbEntity
  8
RUNDUNGEN
100
AcDbLine
 62
7
  6
CONTINUOUS
 10
174.8869926059
 20
64.6541578386
 11
174.7194939565
 21
64.4469782285
  0
LINE
  5
5FD
100
AcDbEntity
  8
RUNDUNGEN
100
AcDbLine
 62
7
  6
CONTINUOUS
 10
193.3027076828
 20
70.3559088893
 11
180.3027076869
 21
70.3559088893
  0
LINE
  5
5FE
100
AcDbEntity
  8
RUNDUNGEN
100
AcDbLine
 62
7
  6
CONTINUOUS
 10
174.7235194268
 20
84.2592426702
 11
174.8925625647
 21
84.0515510741
  0
LINE
  5
5FF
100
AcDbEntity
  8
RUNDUNGEN
100
AcDbLine
 62
7
  6
CONTINUOUS
 10
174.5824232159
 20
84.4807038994
 11
174.7235194268
 21
84.2592426702
  0
LINE
  5
600
100
AcDbEntity
  8
RUNDUNGEN
100
AcDbLine
 62
7
  6
CONTINUOUS
 10
174.9995279001
 20
64.7696930868
 11
174.9985313466
 21
64.7687366503
  0
LINE
  5
601
100
AcDbEntity
  8
0
100
AcDbLine
 62
7
  6
CONTINUOUS
 10
160.393147979
 20
72.1684088893
 11
160.1422998887
 21
72.1684088893
  0
LINE
  5
602
100
AcDbEntity
  8
0
100
AcDbLine
 62
7
  6
CONTINUOUS
 10
160.3814738106
 20
72.3142427392
 11
160.1307355148
 21
72.3142427392
  0
LINE
  5
603
100
AcDbEntity
  8
0
100
AcDbLine
 62
7
  6
CONTINUOUS
 10
160.3713586643
 20
72.4496588893
 11
160.1207154233
 21
72.4496588893
  0
LINE
  5
604
100
AcDbEntity
  8
0
100
AcDbLine
 62
7
  6
CONTINUOUS
 10
160.3378647602
 20
72.9913250393
 11
160.087535759
 21
72.9913250393
  0
LINE
  5
605
100
AcDbEntity
  8
0
100
AcDbLine
 62
7
  6
CONTINUOUS
 10
160.3257211586
 20
73.2517419643
 11
160.0755058951
 21
73.2517419643
  0
LINE
  5
606
100
AcDbEntity
  8
0
100
AcDbLine
 62
7
  6
CONTINUOUS
 10
160.3043128181
 20
74.0642419643
 11
160.054297816
 21
74.0642419643
  0
LINE
  5
607
100
AcDbEntity
  8
0
100
AcDbLine
 62
7
  6
CONTINUOUS
 10
160.3031683295
 20
74.1996588893
 11
160.0531640243
 21
74.1996588893
  0
LINE
  5
608
100
AcDbEntity
  8
0
100
AcDbLine
 62
7
  6
CONTINUOUS
 10
160.3029554062
 20
74.4704919643
 11
160.0529530911
 21
74.4704919643
  0
LINE
  5
609
100
AcDbEntity
  8
RUNDUNGEN
100
AcDbLine
 62
7
  6
CONTINUOUS
 10
174.999487587
 20
83.942122933
 11
174.9984007295
 21
83.9431661071
  0
LWPOLYLINE
  5
60A
100
AcDbEntity
  8
RUNDUNGEN
100
AcDbPolyline
 62
7
  6
CONTINUOUS
 90
5
 70
0
 10
174.8925625647
 20
84.0515510741
 10
175.1336772373
 20
83.8041736167
 10
175.3121937947
 20
83.5917863346
 10
175.4957694506
 20
83.3379927796
 10
175.6801124878
 20
83.0447899044
  0
LINE
  5
60B
100
AcDbEntity
  8
RUNDUNGEN
100
AcDbLine
 62
7
  6
CONTINUOUS
 10
198.6058871531
 20
83.9421244266
 11
198.606883156
 21
83.9430803341
  0
LINE
  5
60C
100
AcDbEntity
  8
0
100
AcDbLine
 62
7
  6
CONTINUOUS
 10
160.3078264242
 20
74.8767419643
 11
160.0577785764
 21
74.8767419643
  0
LINE
  5
60D
100
AcDbEntity
  8
0
100
AcDbLine
 62
7
  6
CONTINUOUS
 10
160.3240163679
 20
75.4184088893
 11
160.0738170633
 21
75.4184088893
  0
LINE
  5
60E
100
AcDbEntity
  8
0
100
AcDbLine
 62
7
  6
CONTINUOUS
 10
160.3513060474
 20
75.9600758142
 11
160.1008510343
 21
75.9600758142
  0
LINE
  5
60F
100
AcDbEntity
  8
0
100
AcDbLine
 62
7
  6
CONTINUOUS
 10
160.3897298042
 20
76.5017419643
 11
160.1389138715
 21
76.5017419643
  0
LINE
  5
610
100
AcDbEntity
  8
0
100
AcDbLine
 62
7
  6
CONTINUOUS
 10
160.4258831587
 20
76.9079919643
 11
160.1747266858
 21
76.9079919643
  0
LINE
  5
611
100
AcDbEntity
  8
0
100
AcDbLine
 62
7
  6
CONTINUOUS
 10
160.4534925136
 20
77.1788258142
 11
160.2020753588
 21
77.1788258142
  0
LINE
  5
612
100
AcDbEntity
  8
0
100
AcDbLine
 62
7
  6
CONTINUOUS
 10
160.4683524521
 20
77.3142419643
 11
160.2167947698
 21
77.3142419643
  0
LINE
  5
613
100
AcDbEntity
  8
RUNDUNGEN
100
AcDbLine
 62
7
  6
CONTINUOUS
 10
198.6059256805
 20
64.7696968291
 11
198.607012345
 21
64.7686538435
  0
LWPOLYLINE
  5
614
100
AcDbEntity
  8
RUNDUNGEN
100
AcDbPolyline
 62
7
  6
CONTINUOUS
 90
5
 70
0
 10
198.7128503749
 20
64.6602693882
 10
198.4717555635
 20
64.9076250685
 10
198.2932524052
 20
65.1199915668
 10
198.109681294
 20
65.3737726507
 10
197.925334149
 20
65.6669746939
  0
LINE
  5
615
100
AcDbEntity
  8
BEZUGSACHSEN
100
AcDbLine
 62
7
  6
CONTINUOUS
 10
191.7027076828
 20
70.3559088893
 11
191.7027076828
 21
78.3559088893
  0
LWPOLYLINE
  5
616
100
AcDbEntity
  8
RUNDUNGEN
100
AcDbPolyline
 62
7
  6
CONTINUOUS
 90
6
 70
0
 10
197.7475368908
 20
82.7224389743
 10
197.9290855699
 20
83.0512131426
 10
198.1133834631
 20
83.3435301884
 10
198.2968627914
 20
83.5964524746
 10
198.4752185011
 20
83.8079857712
 10
198.718420798
 20
84.057657512
  0
LINE
  5
617
100
AcDbEntity
  8
RUNDUNGEN
100
AcDbLine
 62
7
  6
CONTINUOUS
 10
198.8859198935
 20
84.2648371417
 11
199.0257737474
 21
84.4857032371
  0
LINE
  5
618
100
AcDbEntity
  8
RUNDUNGEN
100
AcDbLine
 62
7
  6
CONTINUOUS
 10
198.718420798
 20
84.057657512
 11
198.8859198935
 21
84.2648371417
  0
LINE
  5
619
100
AcDbEntity
  8
0
100
AcDbLine
 62
7
  6
CONTINUOUS
 10
160.5723661868
 20
78.1267423517
 11
160.3198204724
 21
78.1267423517
  0
LINE
  5
61A
100
AcDbEntity
  8
0
100
AcDbLine
 62
7
  6
CONTINUOUS
 10
160.5937449741
 20
78.2725750393
 11
160.3409952237
 21
78.2725750393
  0
LINE
  5
61B
100
AcDbEntity
  8
RUNDUNGEN
100
AcDbLine
 62
7
  6
CONTINUOUS
 10
193.3027076787
 20
78.3559088893
 11
180.3027076828
 21
78.3559088893
  0
LINE
  5
61C
100
AcDbEntity
  8
0
100
AcDbLine
 62
7
  6
CONTINUOUS
 10
160.751084562
 20
79.2100754268
 11
160.4968230327
 21
79.2100754268
  0
LINE
  5
61D
100
AcDbEntity
  8
0
100
AcDbLine
 62
7
  6
CONTINUOUS
 10
160.7766811541
 20
79.3454923517
 11
160.5221719792
 21
79.3454923517
  0
LINE
  5
61E
100
AcDbEntity
  8
0
100
AcDbLine
 62
7
  6
CONTINUOUS
 10
160.8030081653
 20
79.4809088893
 11
160.5482437766
 21
79.4809088893
  0
LINE
  5
61F
100
AcDbEntity
  8
0
100
AcDbLine
 62
7
  6
CONTINUOUS
 10
160.8863948
 20
79.8871588893
 11
160.6308186903
 21
79.8871588893
  0
LINE
  5
620
100
AcDbEntity
  8
RUNDUNGEN
100
AcDbLine
 62
7
  6
CONTINUOUS
 10
198.881894121
 20
64.4525777522
 11
198.7128503749
 21
64.6602693882
  0
LINE
  5
621
100
AcDbEntity
  8
RUNDUNGEN
100
AcDbLine
 62
7
  6
CONTINUOUS
 10
199.0229909142
 20
64.2311162597
 11
198.881894121
 21
64.4525777522
  0
LINE
  5
622
100
AcDbEntity
  8
RUNDUNGEN
100
AcDbLine
 62
7
  6
CONTINUOUS
 10
197.925334149
 20
65.6669746939
 11
197.7437661806
 21
65.9966675533
  0
LWPOLYLINE
  5
623
100
AcDbEntity
  8
RUNDUNGEN
100
AcDbPolyline
 62
7
  6
CONTINUOUS
 90
6
 70
0
 10
199.0257737474
 20
84.4857032371
 10
199.1377472289
 20
84.7184247302
 10
199.2211748518
 20
84.9602029783
 10
199.275838797
 20
85.2093806607
 10
199.3010343142
 20
85.4642878092
 10
199.3027194319
 20
85.5474683347
  0
LINE
  5
624
100
AcDbEntity
  8
RUNDUNGEN
100
AcDbLine
 62
7
  6
CONTINUOUS
 10
197.6137205493
 20
82.4515058015
 11
197.7475368908
 21
82.7224389743
  0
LINE
  5
625
100
AcDbEntity
  8
0
100
AcDbLine
 62
7
  6
CONTINUOUS
 10
161.0079468828
 20
80.4288254268
 11
160.7511782703
 21
80.4288254268
  0
LINE
  5
626
100
AcDbEntity
  8
0
100
AcDbLine
 62
7
  6
CONTINUOUS
 10
161.176793065
 20
81.1059088893
 11
160.9183494717
 21
81.1059088893
  0
LINE
  5
627
100
AcDbEntity
  8
RUNDUNGEN
100
AcDbLine
 62
7
  6
CONTINUOUS
 10
197.7437661806
 20
65.9966675533
 11
197.613813539
 21
66.2601145351
  0
LINE
  5
628
100
AcDbEntity
  8
RUNDUNGEN
100
AcDbLine
 62
7
  6
CONTINUOUS
 10
199.1359738362
 20
63.9976914347
 11
199.0229909142
 21
64.2311162597
  0
LINE
  5
629
100
AcDbEntity
  8
0
100
AcDbLine
 62
7
  6
CONTINUOUS
 10
162.2619252992
 20
84.3559088893
 11
161.992175645
 21
84.3559088893
  0
LWPOLYLINE
  5
62A
100
AcDbEntity
  8
RUNDUNGEN
100
AcDbPolyline
 62
7
  6
CONTINUOUS
 90
5
 70
0
 10
199.3027193778
 20
63.1643709028
 10
199.3009816994
 20
63.2488522258
 10
199.2754392543
 20
63.5049439874
 10
199.2201929958
 20
63.755094204
 10
199.1359738362
 20
63.9976914347
  0
LINE
  5
62B
100
AcDbEntity
  8
RUNDUNGEN
100
AcDbLine
 62
7
  6
CONTINUOUS
 10
199.3027076828
 20
52.53848466
 11
199.3027076828
 21
64.6091145444
  0
LINE
  5
62C
100
AcDbEntity
  8
RUNDUNGEN
100
AcDbLine
 62
7
  6
CONTINUOUS
 10
199.3027076828
 20
84.1027032341
 11
199.3027076828
 21
96.1733440662
  0
LINE
  5
62D
100
AcDbEntity
  8
0
100
AcDbLine
 62
7
  6
CONTINUOUS
 10
199.8027076828
 20
94.1840456009
 11
199.8027076828
 21
93.4165475863
  0
LINE
  5
62E
100
AcDbEntity
  8
0
100
AcDbLine
 62
7
  6
CONTINUOUS
 10
199.8027076828
 20
93.3532976642
 11
199.8027076828
 21
89.1849479566
  0
LINE
  5
62F
100
AcDbEntity
  8
0
100
AcDbLine
 62
7
  6
CONTINUOUS
 10
199.8027076828
 20
59.9959088893
 11
199.8027076828
 21
55.9959088893
  0
LINE
  5
630
100
AcDbEntity
  8
0
100
AcDbLine
 62
7
  6
CONTINUOUS
 10
163.1280121
 20
86.2621588893
 11
162.8485074052
 21
86.2621588893
  0
LINE
  5
631
100
AcDbEntity
  8
0
100
AcDbLine
 62
7
  6
CONTINUOUS
 10
163.7046401993
 20
87.3454923517
 11
163.418242295
 21
87.3454923517
  0
LINE
  5
632
100
AcDbEntity
  8
0
100
AcDbLine
 62
7
  6
CONTINUOUS
 10
163.7813181722
 20
87.4809088893
 11
163.4939780949
 21
87.4809088893
  0
LINE
  5
633
100
AcDbEntity
  8
0
100
AcDbLine
 62
7
  6
CONTINUOUS
 10
164.0177285642
 20
87.8871588893
 11
163.7274444462
 21
87.8871588893
  0
LINE
  5
634
100
AcDbEntity
  8
0
100
AcDbLine
 62
7
  6
CONTINUOUS
 10
164.3482421998
 20
88.4288254268
 11
164.0537402309
 21
88.4288254268
  0
LINE
  5
635
100
AcDbEntity
  8
0
100
AcDbLine
 62
7
  6
CONTINUOUS
 10
164.7870882275
 20
89.1059088893
 11
164.4867940784
 21
89.1059088893
  0
LINE
  5
636
100
AcDbEntity
  8
0
100
AcDbLine
 62
7
  6
CONTINUOUS
 10
199.3027076828
 20
89.1844967787
 11
199.8027076828
 21
89.1844967787
  0
LINE
  5
637
100
AcDbEntity
  8
0
100
AcDbLine
 62
7
  6
CONTINUOUS
 10
199.3027076828
 20
89.1970281859
 11
199.8027076828
 21
89.1970281859
  0
LINE
  5
638
100
AcDbEntity
  8
0
100
AcDbLine
 62
7
  6
CONTINUOUS
 10
199.3027076828
 20
89.9524459711
 11
199.8027076828
 21
89.9524459711
  0
LINE
  5
639
100
AcDbEntity
  8
0
100
AcDbLine
 62
7
  6
CONTINUOUS
 10
199.3027076828
 20
91.3090789935
 11
199.8027076828
 21
91.3090789935
  0
LINE
  5
63A
100
AcDbEntity
  8
0
100
AcDbLine
 62
7
  6
CONTINUOUS
 10
199.3027076828
 20
92.0644967787
 11
199.8027076828
 21
92.0644967787
  0
LINE
  5
63B
100
AcDbEntity
  8
0
100
AcDbLine
 62
7
  6
CONTINUOUS
 10
167.354057344
 20
92.3559088893
 11
167.0147694375
 21
92.3559088893
  0
LINE
  5
63C
100
AcDbEntity
  8
0
100
AcDbLine
 62
7
  6
CONTINUOUS
 10
199.3027076828
 20
93.4165475863
 11
199.8027076828
 21
93.4165475863
  0
LINE
  5
63D
100
AcDbEntity
  8
0
100
AcDbLine
 62
7
  6
CONTINUOUS
 10
199.3027076828
 20
94.1719653715
 11
199.8027076828
 21
94.1719653715
  0
LINE
  5
63E
100
AcDbEntity
  8
0
100
AcDbLine
 62
7
  6
CONTINUOUS
 10
199.3027076828
 20
94.1844967787
 11
199.8027076828
 21
94.1844967787
  0
LINE
  5
63F
100
AcDbEntity
  8
RUNDUNGEN
100
AcDbLine
 62
7
  6
CONTINUOUS
 10
176.8027076828
 20
97.3559088893
 11
196.8027076828
 21
97.3559088893
  0
LINE
  5
640
100
AcDbEntity
  8
KONSTRUKTIONSELEMENTE
100
AcDbLine
 62
7
  6
CONTINUOUS
 10
204.1394017337
 20
49.3839438207
 11
217.09741084
 21
71.8278739578
  0
LINE
  5
641
100
AcDbEntity
  8
KONSTRUKTIONSELEMENTE
100
AcDbLine
 62
7
  6
CONTINUOUS
 10
199.7607167891
 20
101.8559088893
 11
173.8446985765
 21
101.8559088893
  0
LINE
  5
642
100
AcDbEntity
  8
KONSTRUKTIONSELEMENTE
100
AcDbLine
 62
7
  6
CONTINUOUS
 10
217.09741084
 20
76.8839438207
 11
204.1394017337
 21
99.3278739578
  0
LINE
  5
643
100
AcDbEntity
  8
KONSTRUKTIONSELEMENTE
100
AcDbLine
 62
7
  6
CONTINUOUS
 10
217.09741084
 20
71.8278739578
 11
217.09741084
 21
76.8839438207
  0
LINE
  5
644
100
AcDbEntity
  8
KONSTRUKTIONSELEMENTE
100
AcDbLine
 62
7
  6
CONTINUOUS
 10
199.7607167891
 20
46.8559088893
 11
204.1394017337
 21
49.3839438207
  0
LINE
  5
645
100
AcDbEntity
  8
KONSTRUKTIONSELEMENTE
100
AcDbLine
 62
7
  6
CONTINUOUS
 10
204.1394017337
 20
99.3278739578
 11
199.7607167891
 21
101.8559088893
  0
ARC
  5
646
100
AcDbEntity
  8
RUNDUNGEN
100
AcDbCircle
 62
7
  6
CONTINUOUS
 10
169.3027076828
 20
287.5827536135
 40
5.0
100
AcDbArc
 50
270.0018452386
 51
360.0
  0
ARC
  5
647
100
AcDbEntity
  8
RUNDUNGEN
100
AcDbCircle
 62
7
  6
CONTINUOUS
 10
162.8027076828
 20
280.0827536135
 40
2.5
100
AcDbArc
 50
90.0
 51
180.0
  0
ARC
  5
648
100
AcDbEntity
  8
RUNDUNGEN
100
AcDbCircle
 62
7
  6
CONTINUOUS
 10
204.3027076828
 20
287.5827536135
 40
5.0
100
AcDbArc
 50
180.0
 51
269.9983551441
  0
ARC
  5
649
100
AcDbEntity
  8
RUNDUNGEN
100
AcDbCircle
 62
7
  6
CONTINUOUS
 10
210.8027076828
 20
280.0827536135
 40
2.5
100
AcDbArc
 50
0.0
 51
90.0
  0
ARC
  5
64A
100
AcDbEntity
  8
RUNDUNGEN
100
AcDbCircle
 62
7
  6
CONTINUOUS
 10
186.8027076828
 20
310.5827536135
 40
12.5
100
AcDbArc
 50
0.0
 51
180.0
  0
ARC
  5
64B
100
AcDbEntity
  8
RUNDUNGEN
100
AcDbCircle
 62
7
  6
CONTINUOUS
 10
289.3677994871
 20
316.2639815097
 40
4.0
100
AcDbArc
 50
140.0037374998
 51
179.9997921047
  0
ARC
  5
64C
100
AcDbEntity
  8
RUNDUNGEN
100
AcDbCircle
 62
7
  6
CONTINUOUS
 10
281.8677994871
 20
305.0827536135
 40
3.5
100
AcDbArc
 50
330.0
 51
360.0
  0
ARC
  5
64D
100
AcDbEntity
  8
RUNDUNGEN
100
AcDbCircle
 62
7
  6
CONTINUOUS
 10
284.8678042631
 20
297.2789143084
 40
3.0
100
AcDbArc
 50
150.0001824283
 51
180.0001579872
  0
ARC
  5
64E
100
AcDbEntity
  8
RUNDUNGEN
100
AcDbCircle
 62
7
  6
CONTINUOUS
 10
302.3677994871
 20
305.8527971229
 40
2.0
100
AcDbArc
 50
318.0
 51
359.999997951
  0
ARC
  5
64F
100
AcDbEntity
  8
RUNDUNGEN
100
AcDbCircle
 62
7
  6
CONTINUOUS
 10
296.6098234708
 20
320.5827536135
 40
2.5
100
AcDbArc
 50
56.8465915844
 51
90.0
  0
ARC
  5
650
100
AcDbEntity
  8
RUNDUNGEN
100
AcDbCircle
 62
7
  6
CONTINUOUS
 10
291.0335312899
 20
320.5827091103
 40
2.5
100
AcDbArc
 50
90.0013403835
 51
140.0
  0
ARC
  5
651
100
AcDbEntity
  8
RUNDUNGEN
100
AcDbCircle
 62
7
  6
CONTINUOUS
 10
302.5677994871
 20
318.607769258
 40
1.8
100
AcDbArc
 50
0.0
 51
73.8086483614
  0
ARC
  5
652
100
AcDbEntity
  8
RUNDUNGEN
100
AcDbCircle
 62
7
  6
CONTINUOUS
 10
308.3677994871
 20
294.5827536135
 40
10.0
100
AcDbArc
 50
138.0
 51
42.0
  0
ARC
  5
653
100
AcDbEntity
  8
RUNDUNGEN
100
AcDbCircle
 62
7
  6
CONTINUOUS
 10
327.3677994871
 20
316.2639815097
 40
4.0
100
AcDbArc
 50
0.0001746461
 51
40.0
  0
ARC
  5
654
100
AcDbEntity
  8
RUNDUNGEN
100
AcDbCircle
 62
7
  6
CONTINUOUS
 10
334.8677994871
 20
305.0827536135
 40
3.5
100
AcDbArc
 50
180.0
 51
210.0
  0
ARC
  5
655
100
AcDbEntity
  8
RUNDUNGEN
100
AcDbCircle
 62
7
  6
CONTINUOUS
 10
331.8677947477
 20
297.2789142451
 40
3.0
100
AcDbArc
 50
359.9998432218
 51
29.9998189678
  0
ARC
  5
656
100
AcDbEntity
  8
RUNDUNGEN
100
AcDbCircle
 62
7
  6
CONTINUOUS
 10
314.3677994871
 20
305.8527971229
 40
2.0
100
AcDbArc
 50
180.0
 51
222.0
  0
ARC
  5
657
100
AcDbEntity
  8
0
100
AcDbCircle
 62
7
  6
CONTINUOUS
 10
308.3677994871
 20
338.5827536135
 40
19.0
100
AcDbArc
 50
236.8465915844
 51
253.8086483614
  0
ARC
  5
658
100
AcDbEntity
  8
0
100
AcDbCircle
 62
7
  6
CONTINUOUS
 10
308.3677994871
 20
338.5827536135
 40
19.0
100
AcDbArc
 50
286.1913516386
 51
303.1534084156
  0
ARC
  5
659
100
AcDbEntity
  8
RUNDUNGEN
100
AcDbCircle
 62
7
  6
CONTINUOUS
 10
320.1257755034
 20
320.5827536135
 40
2.5
100
AcDbArc
 50
90.0
 51
123.1534084156
  0
ARC
  5
65A
100
AcDbEntity
  8
RUNDUNGEN
100
AcDbCircle
 62
7
  6
CONTINUOUS
 10
325.702067462
 20
320.5827093752
 40
2.5
100
AcDbArc
 50
40.0
 51
89.9986678936
  0
ARC
  5
65B
100
AcDbEntity
  8
RUNDUNGEN
100
AcDbCircle
 62
7
  6
CONTINUOUS
 10
314.1677994871
 20
318.607769258
 40
1.8
100
AcDbArc
 50
106.1913516386
 51
180.0
  0
ARC
  5
65C
100
AcDbEntity
  8
RUNDUNGEN
100
AcDbCircle
 62
7
  6
CONTINUOUS
 10
176.8027076828
 20
53.8559088893
 40
2.5
100
AcDbArc
 50
180.0
 51
270.0
  0
ARC
  5
65D
100
AcDbEntity
  8
RUNDUNGEN
100
AcDbCircle
 62
7
  6
CONTINUOUS
 10
176.8027076828
 20
62.5979328729
 40
2.5
100
AcDbArc
 50
146.8465915844
 51
180.0
  0
ARC
  5
65E
100
AcDbEntity
  8
RUNDUNGEN
100
AcDbCircle
 62
7
  6
CONTINUOUS
 10
176.8026798894
 20
52.5384900822
 40
2.4999907355
100
AcDbArc
 50
180.0001242696
 51
245.3749792201
  0
ARC
  5
65F
100
AcDbEntity
  8
RUNDUNGEN
100
AcDbCircle
 62
7
  6
CONTINUOUS
 10
180.3027076828
 20
68.3559088893
 40
2.0
100
AcDbArc
 50
90.0069682051
 51
143.1300514331
  0
ARC
  5
660
100
AcDbEntity
  8
RUNDUNGEN
100
AcDbCircle
 62
7
  6
CONTINUOUS
 10
178.0193743495
 20
66.396026841
 40
1.8
100
AcDbArc
 50
125.6853347127
 51
157.4998630115
  0
ARC
  5
661
100
AcDbEntity
  8
RUNDUNGEN
100
AcDbCircle
 62
7
  6
CONTINUOUS
 10
158.8027076828
 20
74.3559088893
 40
19.0
100
AcDbArc
 50
22.5001987364
 51
33.1534084156
  0
ARC
  5
662
100
AcDbEntity
  8
RUNDUNGEN
100
AcDbCircle
 62
7
  6
CONTINUOUS
 10
158.8027076828
 20
74.3559088893
 40
19.0
100
AcDbArc
 50
326.8465915844
 51
337.4998012636
  0
ARC
  5
663
100
AcDbEntity
  8
RUNDUNGEN
100
AcDbCircle
 62
7
  6
CONTINUOUS
 10
172.3027076828
 20
74.3559088893
 40
8.0
100
AcDbArc
 50
36.870053437
 51
54.3146652873
  0
ARC
  5
664
100
AcDbEntity
  8
RUNDUNGEN
100
AcDbCircle
 62
7
  6
CONTINUOUS
 10
172.3027076828
 20
74.3559088893
 40
8.0
100
AcDbArc
 50
305.6853347127
 51
323.1299444396
  0
ARC
  5
665
100
AcDbEntity
  8
RUNDUNGEN
100
AcDbCircle
 62
7
  6
CONTINUOUS
 10
176.8027076828
 20
86.1138849056
 40
2.5
100
AcDbArc
 50
180.0
 51
213.1534084157
  0
ARC
  5
666
100
AcDbEntity
  8
RUNDUNGEN
100
AcDbCircle
 62
7
  6
CONTINUOUS
 10
176.8027076828
 20
94.8559088893
 40
2.5
100
AcDbArc
 50
90.0
 51
180.0
  0
ARC
  5
667
100
AcDbEntity
  8
RUNDUNGEN
100
AcDbCircle
 62
7
  6
CONTINUOUS
 10
176.8027076828
 20
96.1733324595
 40
2.5
100
AcDbArc
 50
114.6237416071
 51
179.9999310867
  0
ARC
  5
668
100
AcDbEntity
  8
RUNDUNGEN
100
AcDbCircle
 62
7
  6
CONTINUOUS
 10
180.3027076828
 20
80.3559088893
 40
2.0
100
AcDbArc
 50
216.8692744805
 51
269.9930176024
  0
ARC
  5
669
100
AcDbEntity
  8
RUNDUNGEN
100
AcDbCircle
 62
7
  6
CONTINUOUS
 10
178.0193743495
 20
82.3157909375
 40
1.8
100
AcDbArc
 50
202.5001232247
 51
234.3146652873
  0
ARC
  5
66A
100
AcDbEntity
  8
RUNDUNGEN
100
AcDbCircle
 62
7
  6
CONTINUOUS
 10
196.8027076828
 20
62.5979328729
 40
2.5
100
AcDbArc
 50
0.0
 51
33.1534084157
  0
ARC
  5
66B
100
AcDbEntity
  8
RUNDUNGEN
100
AcDbCircle
 62
7
  6
CONTINUOUS
 10
196.8027076828
 20
53.8559088893
 40
2.5
100
AcDbArc
 50
270.0
 51
360.0
  0
ARC
  5
66C
100
AcDbEntity
  8
RUNDUNGEN
100
AcDbCircle
 62
7
  6
CONTINUOUS
 10
196.8027076828
 20
52.5384837795
 40
2.5
100
AcDbArc
 50
294.6237019276
 51
359.9999487353
  0
ARC
  5
66D
100
AcDbEntity
  8
RUNDUNGEN
100
AcDbCircle
 62
7
  6
CONTINUOUS
 10
193.3027076828
 20
68.3559088893
 40
2.0
100
AcDbArc
 50
36.8693584021
 51
89.9930176024
  0
ARC
  5
66E
100
AcDbEntity
  8
RUNDUNGEN
100
AcDbCircle
 62
7
  6
CONTINUOUS
 10
195.5860410161
 20
66.396026841
 40
1.8
100
AcDbArc
 50
22.5001224707
 51
54.3146652873
  0
ARC
  5
66F
100
AcDbEntity
  8
0
100
AcDbCircle
 62
7
  6
CONTINUOUS
 10
186.8027076828
 20
74.3559088893
 40
26.75
100
AcDbArc
 50
205.8328784155
 51
213.8653457931
  0
ARC
  5
670
100
AcDbEntity
  8
0
100
AcDbCircle
 62
7
  6
CONTINUOUS
 10
186.8027076828
 20
74.3559088893
 40
26.75
100
AcDbArc
 50
137.7089324571
 51
150.9487402983
  0
ARC
  5
671
100
AcDbEntity
  8
0
100
AcDbCircle
 62
7
  6
CONTINUOUS
 10
186.8027076828
 20
74.3559088893
 40
26.75
100
AcDbArc
 50
184.690640396
 51
203.2815206619
  0
ARC
  5
672
100
AcDbEntity
  8
0
100
AcDbCircle
 62
7
  6
CONTINUOUS
 10
186.8027076828
 20
74.3559088893
 40
26.75
100
AcDbArc
 50
153.5706816676
 51
171.5806321782
  0
ARC
  5
673
100
AcDbEntity
  8
0
100
AcDbCircle
 62
7
  6
CONTINUOUS
 10
186.8027076828
 20
74.3559088893
 40
26.75
100
AcDbArc
 50
171.896266877
 51
184.3772981717
  0
CIRCLE
  5
674
100
AcDbEntity
  8
RUNDUNGEN
100
AcDbCircle
 62
7
  6
CONTINUOUS
 10
186.8027076828
 20
74.3559088893
 40
26.5
  0
ARC
  5
675
100
AcDbEntity
  8
RUNDUNGEN
100
AcDbCircle
 62
7
  6
CONTINUOUS
 10
193.3027076828
 20
80.3559088893
 40
2.0
100
AcDbArc
 50
270.0069682051
 51
323.1300236191
  0
ARC
  5
676
100
AcDbEntity
  8
RUNDUNGEN
100
AcDbCircle
 62
7
  6
CONTINUOUS
 10
195.5860410161
 20
82.3157909375
 40
1.8
100
AcDbArc
 50
305.6853347127
 51
337.4998635246
  0
ARC
  5
677
100
AcDbEntity
  8
RUNDUNGEN
100
AcDbCircle
 62
7
  6
CONTINUOUS
 10
196.8027076828
 20
86.1138849056
 40
2.5
100
AcDbArc
 50
326.8465915844
 51
360.0
  0
ARC
  5
678
100
AcDbEntity
  8
RUNDUNGEN
100
AcDbCircle
 62
7
  6
CONTINUOUS
 10
196.8027076828
 20
94.8559088893
 40
2.5
100
AcDbArc
 50
0.0
 51
90.0
  0
ARC
  5
679
100
AcDbEntity
  8
RUNDUNGEN
100
AcDbCircle
 62
7
  6
CONTINUOUS
 10
196.8027508542
 20
96.173325581
 40
2.4999856095
100
AcDbArc
 50
0.0001727517
 51
65.3749659526
  0
ARC
  5
67A
100
AcDbEntity
  8
0
100
AcDbCircle
 62
7
  6
CONTINUOUS
 10
214.8027076828
 20
74.3559088893
 40
19.0
100
AcDbArc
 50
146.8465915844
 51
157.4998012636
  0
ARC
  5
67B
100
AcDbEntity
  8
0
100
AcDbCircle
 62
7
  6
CONTINUOUS
 10
214.8027076828
 20
74.3559088893
 40
19.0
100
AcDbArc
 50
202.5001987364
 51
213.1534084156
  0
ARC
  5
67C
100
AcDbEntity
  8
RUNDUNGEN
100
AcDbCircle
 62
7
  6
CONTINUOUS
 10
214.8027076828
 20
74.3559088893
 40
19.0
100
AcDbArc
 50
202.5001987364
 51
213.1534084156
  0
ARC
  5
67D
100
AcDbEntity
  8
RUNDUNGEN
100
AcDbCircle
 62
7
  6
CONTINUOUS
 10
214.8027076828
 20
74.3559088893
 40
19.0
100
AcDbArc
 50
146.8465915844
 51
157.4998012636
  0
ARC
  5
67E
100
AcDbEntity
  8
RUNDUNGEN
100
AcDbCircle
 62
7
  6
CONTINUOUS
 10
201.3027076828
 20
74.3559088893
 40
8.0
100
AcDbArc
 50
125.6853347127
 51
143.1299654866
  0
ARC
  5
67F
100
AcDbEntity
  8
RUNDUNGEN
100
AcDbCircle
 62
7
  6
CONTINUOUS
 10
201.3027076828
 20
74.3559088893
 40
8.0
100
AcDbArc
 50
216.8700324566
 51
234.3146652873
  0
ELLIPSE
  5
680
100
AcDbEntity
  8
0
100
AcDbEllipse
 62
7
  6
CONTINUOUS
 10
186.8027076828
 20
261.857829292
 30
0.0
 11
26.75
 21
0.0
 31
0.0
 40
0.9118538228
 41
3.1057594212
 42
3.1415927632
  0
ELLIPSE
  5
681
100
AcDbEntity
  8
0
100
AcDbEllipse
 62
7
  6
CONTINUOUS
 10
186.8027076828
 20
261.0738884622
 30
0.0
 11
26.75
 21
0.0
 31
0.0
 40
0.1702127606
 41
-2.5985485181
 42
-2.5626748267
  0
ELLIPSE
  5
682
100
AcDbEntity
  8
0
100
AcDbEllipse
 62
7
  6
CONTINUOUS
 10
186.8027076828
 20
263.426725443
 30
0.0
 11
26.75
 21
-0.0
 31
0.0
 40
0.3404255211
 41
-2.6161942986
 42
-2.5985485181
  0
ELLIPSE
  5
683
100
AcDbEntity
  8
0
100
AcDbEllipse
 62
7
  6
CONTINUOUS
 10
186.8027076828
 20
267.9941015366
 30
0.0
 11
26.75
 21
-0.0
 31
0.0
 40
0.6808510423
 41
-2.6336613558
 42
-2.6161942986
  0
ELLIPSE
  5
684
100
AcDbEntity
  8
0
100
AcDbEllipse
 62
7
  6
CONTINUOUS
 10
186.8027076828
 20
285.7102116936
 30
0.0
 11
-0.0
 21
54.6378792883
 31
0.0
 40
0.4895870841
 41
-4.2160083982
 42
-4.2044576826
  0
ELLIPSE
  5
685
100
AcDbEntity
  8
0
100
AcDbEllipse
 62
7
  6
CONTINUOUS
 10
186.8027076828
 20
258.2721187204
 30
0.0
 11
26.75
 21
-0.0
 31
0.0
 40
0.6127654169
 41
2.8748099729
 42
2.9009593227
  0
ELLIPSE
  5
686
100
AcDbEntity
  8
0
100
AcDbEllipse
 62
7
  6
CONTINUOUS
 10
186.8027076828
 20
261.152964157
 30
0.0
 11
26.75
 21
-0.0
 31
0.0
 40
0.2042556065
 41
2.8484724015
 42
2.8748099729
  0
ELLIPSE
  5
687
100
AcDbEntity
  8
0
100
AcDbEllipse
 62
7
  6
CONTINUOUS
 10
186.8027076828
 20
260.1614792712
 30
0.0
 11
26.75
 21
-0.0
 31
0.0
 40
0.2042556244
 41
-2.8748099729
 42
-2.8484724015
  0
ELLIPSE
  5
688
100
AcDbEntity
  8
0
100
AcDbEllipse
 62
7
  6
CONTINUOUS
 10
186.8027076828
 20
263.04232496
 30
0.0
 11
26.75
 21
0.0
 31
0.0
 40
0.6127654705
 41
-2.9009593227
 42
-2.8748099729
  0
ELLIPSE
  5
689
100
AcDbEntity
  8
0
100
AcDbEllipse
 62
7
  6
CONTINUOUS
 10
186.8027076828
 20
264.6288533101
 30
0.0
 11
26.75
 21
-0.0
 31
0.0
 40
0.6808509827
 41
-3.1209525395
 42
-3.1057594212
  0
ELLIPSE
  5
68A
100
AcDbEntity
  8
0
100
AcDbEllipse
 62
7
  6
CONTINUOUS
 10
186.8027076828
 20
264.3657324418
 30
0.0
 11
26.75
 21
-0.0
 31
0.0
 40
0.204255139
 41
-3.1415925183
 42
-3.1209525395
  0
ELLIPSE
  5
68B
100
AcDbEntity
  8
0
100
AcDbEllipse
 62
7
  6
CONTINUOUS
 10
186.8027076828
 20
267.8167958743
 30
0.0
 11
-0.0
 21
36.4255307615
 31
0.0
 40
0.7343750233
 41
-4.4873638684
 42
-4.4717556495
  0
ELLIPSE
  5
68C
100
AcDbEntity
  8
0
100
AcDbEllipse
 62
7
  6
CONTINUOUS
 10
186.8027076828
 20
271.8806033467
 30
0.0
 11
0.0
 21
54.6381967114
 31
0.0
 40
0.4895842398
 41
-4.4977382253
 42
-4.4873638684
  0
ELLIPSE
  5
68D
100
AcDbEntity
  8
0
100
AcDbEllipse
 62
7
  6
CONTINUOUS
 10
186.8027076828
 20
257.0933836027
 30
0.0
 11
26.75
 21
-0.0
 31
0.0
 40
0.2553200925
 41
2.795139524
 42
2.8165864335
  0
ELLIPSE
  5
68E
100
AcDbEntity
  8
0
100
AcDbEllipse
 62
7
  6
CONTINUOUS
 10
186.8027076828
 20
253.228145123
 30
0.0
 11
26.75
 21
0.0
 31
0.0
 40
0.6808509827
 41
2.778945199
 42
2.795139524
  0
ELLIPSE
  5
68F
100
AcDbEntity
  8
0
100
AcDbEllipse
 62
7
  6
CONTINUOUS
 10
186.8027076828
 20
245.152013346
 30
0.0
 11
-0.0
 21
40.9784154453
 31
0.0
 40
0.6527826835
 41
1.1972973236
 42
1.2081488722
  0
ELLIPSE
  5
690
100
AcDbEntity
  8
0
100
AcDbEllipse
 62
7
  6
CONTINUOUS
 10
186.8027076828
 20
230.1993189922
 30
0.0
 11
-0.0
 21
81.9586876287
 31
0.0
 40
0.3263839475
 41
1.1918544115
 42
1.1972973236
  0
ELLIPSE
  5
691
100
AcDbEntity
  8
0
100
AcDbEllipse
 62
7
  6
CONTINUOUS
 10
186.8027076828
 20
291.1151384541
 30
0.0
 11
0.0
 21
81.9587258955
 31
0.0
 40
0.3263837951
 41
-4.3388899772
 42
-4.3334470651
  0
ELLIPSE
  5
692
100
AcDbEntity
  8
0
100
AcDbEllipse
 62
7
  6
CONTINUOUS
 10
186.8027076828
 20
276.1624266472
 30
0.0
 11
0.0
 21
40.9784058788
 31
0.0
 40
0.6527828359
 41
-4.3497415258
 42
-4.3388899772
  0
ELLIPSE
  5
693
100
AcDbEntity
  8
0
100
AcDbEllipse
 62
7
  6
CONTINUOUS
 10
186.8027076828
 20
268.0862982639
 30
0.0
 11
26.75
 21
-0.0
 31
0.0
 40
0.6808509827
 41
-2.795139524
 42
-2.778945199
  0
ELLIPSE
  5
694
100
AcDbEntity
  8
0
100
AcDbEllipse
 62
7
  6
CONTINUOUS
 10
186.8027076828
 20
264.2210597842
 30
0.0
 11
26.75
 21
-0.0
 31
0.0
 40
0.2553200925
 41
-2.8165864335
 42
-2.795139524
  0
ELLIPSE
  5
695
100
AcDbEntity
  8
0
100
AcDbEllipse
 62
7
  6
CONTINUOUS
 10
186.8027076828
 20
251.9019025042
 30
0.0
 11
0.0
 21
50.0851067901
 31
0.0
 40
0.5340909047
 41
1.4230632709
 42
1.4537065296
  0
ELLIPSE
  5
696
100
AcDbEntity
  8
0
100
AcDbEllipse
 62
7
  6
CONTINUOUS
 10
186.8027076828
 20
260.7742345791
 30
0.0
 11
0.0
 21
54.6384997883
 31
0.0
 40
0.4895815241
 41
1.524830005
 42
1.5349630944
  0
ELLIPSE
  5
697
100
AcDbEntity
  8
0
100
AcDbEllipse
 62
7
  6
CONTINUOUS
 10
186.8027076828
 20
265.4444620897
 30
0.0
 11
0.0
 21
40.9788748412
 31
0.0
 40
0.6527753654
 41
-4.676555748
 42
-4.6664226586
  0
ELLIPSE
  5
698
100
AcDbEntity
  8
0
100
AcDbEllipse
 62
7
  6
CONTINUOUS
 10
186.8027076828
 20
267.5242418146
 30
0.0
 11
26.75
 21
-0.0
 31
0.0
 40
0.255319362
 41
2.9161680635
 42
2.9368951093
  0
ELLIPSE
  5
699
100
AcDbEntity
  8
0
100
AcDbEllipse
 62
7
  6
CONTINUOUS
 10
186.8027076828
 20
264.979916127
 30
0.0
 11
26.75
 21
-0.0
 31
0.0
 40
0.6808512211
 41
2.900558362
 42
2.9161680635
  0
ELLIPSE
  5
69A
100
AcDbEntity
  8
0
100
AcDbEllipse
 62
7
  6
CONTINUOUS
 10
186.8027076828
 20
259.5455402312
 30
0.0
 11
-0.0
 21
40.9786403587
 31
0.0
 40
0.6527791007
 41
1.3193224209
 42
1.3297620352
  0
ELLIPSE
  5
69B
100
AcDbEntity
  8
0
100
AcDbEllipse
 62
7
  6
CONTINUOUS
 10
186.8027076828
 20
242.5507382295
 30
0.0
 11
0.0
 21
109.2769995766
 31
0.0
 40
0.244790762
 41
1.3140922009
 42
1.3193224209
  0
ELLIPSE
  5
69C
100
AcDbEntity
  8
0
100
AcDbEllipse
 62
7
  6
CONTINUOUS
 10
186.8027076828
 20
300.1147688037
 30
0.0
 11
0.0
 21
109.2769995766
 31
0.0
 40
0.244790762
 41
-4.4609150745
 42
-4.4556848545
  0
ELLIPSE
  5
69D
100
AcDbEntity
  8
0
100
AcDbEllipse
 62
7
  6
CONTINUOUS
 10
186.8027076828
 20
283.1199763239
 30
0.0
 11
0.0
 21
40.9786786248
 31
0.0
 40
0.6527784911
 41
-4.4713546888
 42
-4.4609150745
  0
ELLIPSE
  5
69E
100
AcDbEntity
  8
0
100
AcDbEllipse
 62
7
  6
CONTINUOUS
 10
186.8027076828
 20
277.6855897713
 30
0.0
 11
26.75
 21
-0.0
 31
0.0
 40
0.6808509827
 41
-2.9161680635
 42
-2.900558362
  0
ELLIPSE
  5
69F
100
AcDbEntity
  8
0
100
AcDbEllipse
 62
7
  6
CONTINUOUS
 10
186.8027076828
 20
275.1412655092
 30
0.0
 11
26.75
 21
-0.0
 31
0.0
 40
0.255319362
 41
-2.9368951093
 42
-2.9161680635
  0
ELLIPSE
  5
6A0
100
AcDbEntity
  8
0
100
AcDbEllipse
 62
7
  6
CONTINUOUS
 10
186.8027076828
 20
269.1040314986
 30
0.0
 11
0.0
 21
109.2763742898
 31
0.0
 40
0.2447921628
 41
1.5598926743
 42
1.5649551721
  0
ELLIPSE
  5
6A1
100
AcDbEntity
  8
0
100
AcDbEllipse
 62
7
  6
CONTINUOUS
 10
186.8027076828
 20
269.5029661756
 30
0.0
 11
0.0
 21
40.9787575996
 31
0.0
 40
0.6527772331
 41
1.5649551721
 42
1.5707963231
  0
ELLIPSE
  5
6A2
100
AcDbEntity
  8
0
100
AcDbEllipse
 62
7
  6
CONTINUOUS
 10
186.8027076828
 20
268.299774966
 30
0.0
 11
26.75
 21
-0.0
 31
0.0
 40
0.2042553906
 41
-3.1271840457
 42
-3.1018625761
  0
ELLIPSE
  5
6A3
100
AcDbEntity
  8
0
100
AcDbEllipse
 62
7
  6
CONTINUOUS
 10
186.8027076828
 20
260.8470091498
 30
0.0
 11
26.5
 21
0.0
 31
0.0
 40
0.8987235201
 41
9.3630249027
 42
9.424779516
  0
ELLIPSE
  5
6A4
100
AcDbEntity
  8
0
100
AcDbEllipse
 62
7
  6
CONTINUOUS
 10
186.8027076828
 20
259.8114828285
 30
0.0
 11
0.0
 21
40.5956624114
 31
0.0
 40
0.6527791007
 41
1.4988001826
 42
1.5090432687
  0
ELLIPSE
  5
6A5
100
AcDbEntity
  8
0
100
AcDbEllipse
 62
7
  6
CONTINUOUS
 10
186.8027076828
 20
254.9444268562
 30
0.0
 11
0.0
 21
108.2557192067
 31
0.0
 40
0.244790762
 41
1.4936758975
 42
1.4988001826
  0
ELLIPSE
  5
6A6
100
AcDbEntity
  8
0
100
AcDbEllipse
 62
7
  6
CONTINUOUS
 10
186.8027076828
 20
271.9019314428
 30
0.0
 11
0.0
 21
108.2557192067
 31
0.0
 40
0.244790762
 41
-4.6403928362
 42
-4.635268551
  0
ELLIPSE
  5
6A7
100
AcDbEntity
  8
0
100
AcDbEllipse
 62
7
  6
CONTINUOUS
 10
186.8027076828
 20
266.0614787577
 30
0.0
 11
0.0
 21
27.0638523711
 31
0.0
 40
0.9791658496
 41
-4.6608724662
 42
-4.6403928362
  0
ELLIPSE
  5
6A8
100
AcDbEntity
  8
0
100
AcDbEllipse
 62
7
  6
CONTINUOUS
 10
186.8027076828
 20
265.3646674082
 30
0.0
 11
26.5
 21
-0.0
 31
0.0
 40
0.510637263
 41
-3.1105342209
 42
-3.0900761394
  0
ELLIPSE
  5
6A9
100
AcDbEntity
  8
0
100
AcDbEllipse
 62
7
  6
CONTINUOUS
 10
186.8027076828
 20
265.084526575
 30
0.0
 11
26.5
 21
0.0
 31
0.0
 40
0.1702127457
 41
-3.1411995913
 42
-3.1105342209
  0
ELLIPSE
  5
6AA
100
AcDbEntity
  8
0
100
AcDbEllipse
 62
7
  6
CONTINUOUS
 10
186.8027076828
 20
250.6341710302
 30
0.0
 11
-0.0
 21
49.6170216799
 31
0.0
 40
0.5340909047
 41
1.3957688043
 42
1.4268246089
  0
ELLIPSE
  5
6AB
100
AcDbEntity
  8
0
100
AcDbEllipse
 62
7
  6
CONTINUOUS
 10
186.8027076828
 20
256.3965787985
 30
0.0
 11
26.5
 21
-0.0
 31
0.0
 40
0.765958086
 41
2.8669256736
 42
2.8881003469
  0
ELLIPSE
  5
6AC
100
AcDbEntity
  8
0
100
AcDbEllipse
 62
7
  6
CONTINUOUS
 10
186.8027076828
 20
260.0667946271
 30
0.0
 11
26.5
 21
0.0
 31
0.0
 40
0.255319362
 41
2.8456238706
 42
2.8669256736
  0
ELLIPSE
  5
6AD
100
AcDbEntity
  8
0
100
AcDbEllipse
 62
7
  6
CONTINUOUS
 10
186.8027076828
 20
261.2476487598
 30
0.0
 11
26.5
 21
0.0
 31
0.0
 40
0.255319362
 41
-2.8669256736
 42
-2.8456238706
  0
ELLIPSE
  5
6AE
100
AcDbEntity
  8
0
100
AcDbEllipse
 62
7
  6
CONTINUOUS
 10
186.8027076828
 20
264.3061572834
 30
0.0
 11
26.5
 21
-0.0
 31
0.0
 40
0.6808509827
 41
-2.8828179693
 42
-2.8669256736
  0
ELLIPSE
  5
6AF
100
AcDbEntity
  8
0
100
AcDbEllipse
 62
7
  6
CONTINUOUS
 10
186.8027076828
 20
273.5401747422
 30
0.0
 11
0.0
 21
54.127559359
 31
0.0
 40
0.4895842398
 41
-4.4641718926
 42
-4.4536142961
  0
ELLIPSE
  5
6B0
100
AcDbEntity
  8
0
100
AcDbEllipse
 62
7
  6
CONTINUOUS
 10
186.8027076828
 20
256.8380699445
 30
0.0
 11
26.5
 21
-0.0
 31
0.0
 40
0.2042556244
 41
2.7862865579
 42
2.8134059061
  0
ELLIPSE
  5
6B1
100
AcDbEntity
  8
0
100
AcDbEllipse
 62
7
  6
CONTINUOUS
 10
186.8027076828
 20
253.0721068705
 30
0.0
 11
26.5
 21
0.0
 31
0.0
 40
0.6127668731
 41
2.7588914408
 42
2.7862865579
  0
ELLIPSE
  5
6B2
100
AcDbEntity
  8
0
100
AcDbEllipse
 62
7
  6
CONTINUOUS
 10
186.8027076828
 20
245.6607696139
 30
0.0
 11
-0.0
 21
36.0851052403
 31
0.0
 40
0.7343750233
 41
1.1715133473
 42
1.188095114
  0
ELLIPSE
  5
6B3
100
AcDbEntity
  8
0
100
AcDbEllipse
 62
7
  6
CONTINUOUS
 10
186.8027076828
 20
301.0727504492
 30
0.0
 11
0.0
 21
81.9587067621
 31
0.0
 40
0.3263838713
 41
-4.1869906254
 42
-4.1811291862
  0
ELLIPSE
  5
6B4
100
AcDbEntity
  8
0
100
AcDbEllipse
 62
7
  6
CONTINUOUS
 10
186.8027076828
 20
268.7777872526
 30
0.0
 11
26.75
 21
-0.0
 31
0.0
 40
0.6808509827
 41
-2.6103328594
 42
-2.592625041
  0
ELLIPSE
  5
6B5
100
AcDbEntity
  8
0
100
AcDbEllipse
 62
7
  6
CONTINUOUS
 10
186.8027076828
 20
262.1252985661
 30
0.0
 11
26.75
 21
0.0
 31
0.0
 40
0.204254743
 41
-2.592625041
 42
-2.5626748267
  0
ELLIPSE
  5
6B6
100
AcDbEntity
  8
0
100
AcDbEllipse
 62
7
  6
CONTINUOUS
 10
186.8027076828
 20
233.3861478328
 30
0.0
 11
0.0
 21
67.6590596819
 31
0.0
 40
0.3916696467
 41
1.1603942744
 42
1.1715133473
  0
ELLIPSE
  5
6B7
100
AcDbEntity
  8
0
100
AcDbEllipse
 62
7
  6
CONTINUOUS
 10
186.8027076828
 20
287.9282992384
 30
0.0
 11
-0.0
 21
67.659069159
 31
0.0
 40
0.3916695918
 41
-4.3131060009
 42
-4.301986928
  0
ELLIPSE
  5
6B8
100
AcDbEntity
  8
0
100
AcDbEllipse
 62
7
  6
CONTINUOUS
 10
186.8027076828
 20
275.6536725449
 30
0.0
 11
-0.0
 21
36.0851020813
 31
0.0
 40
0.7343750875
 41
-4.3296877676
 42
-4.3131060009
  0
ELLIPSE
  5
6B9
100
AcDbEntity
  8
0
100
AcDbEllipse
 62
7
  6
CONTINUOUS
 10
186.8027076828
 20
268.2423359371
 30
0.0
 11
26.5
 21
0.0
 31
0.0
 40
0.6127668194
 41
-2.7862865579
 42
-2.7588914408
  0
ELLIPSE
  5
6BA
100
AcDbEntity
  8
0
100
AcDbEllipse
 62
7
  6
CONTINUOUS
 10
186.8027076828
 20
264.4763731928
 30
0.0
 11
26.5
 21
-0.0
 31
0.0
 40
0.2042556065
 41
-2.8134059061
 42
-2.7862865579
  0
ELLIPSE
  5
6BB
100
AcDbEntity
  8
0
100
AcDbEllipse
 62
7
  6
CONTINUOUS
 10
186.8027076828
 20
264.4763731928
 30
0.0
 11
26.75
 21
-0.0
 31
0.0
 40
0.2042556065
 41
-2.8165864335
 42
-2.7897521248
  0
ELLIPSE
  5
6BC
100
AcDbEntity
  8
0
100
AcDbEllipse
 62
7
  6
CONTINUOUS
 10
186.8027076828
 20
268.2423359371
 30
0.0
 11
26.75
 21
0.0
 31
0.0
 40
0.6127668194
 41
-2.7897521248
 42
-2.7626507383
  0
ELLIPSE
  5
6BD
100
AcDbEntity
  8
0
100
AcDbEllipse
 62
7
  6
CONTINUOUS
 10
186.8027076828
 20
275.6536725449
 30
0.0
 11
0.0
 21
36.4255275726
 31
0.0
 40
0.7343750875
 41
-4.3334470651
 42
-4.3170461776
  0
ELLIPSE
  5
6BE
100
AcDbEntity
  8
0
100
AcDbEllipse
 62
7
  6
CONTINUOUS
 10
186.8027076828
 20
287.9282992384
 30
0.0
 11
0.0
 21
68.2973622643
 31
0.0
 40
0.3916695918
 41
-4.3170461776
 42
-4.30604979
  0
ELLIPSE
  5
6BF
100
AcDbEntity
  8
0
100
AcDbEllipse
 62
7
  6
CONTINUOUS
 10
186.8027076828
 20
233.3861478328
 30
0.0
 11
-0.0
 21
68.2973526978
 31
0.0
 40
0.3916696467
 41
1.1644571364
 42
1.175453524
  0
ELLIPSE
  5
6C0
100
AcDbEntity
  8
0
100
AcDbEllipse
 62
7
  6
CONTINUOUS
 10
186.8027076828
 20
245.6607696139
 30
0.0
 11
0.0
 21
36.4255307615
 31
0.0
 40
0.7343750233
 41
1.175453524
 42
1.1918544115
  0
ELLIPSE
  5
6C1
100
AcDbEntity
  8
0
100
AcDbEllipse
 62
7
  6
CONTINUOUS
 10
186.8027076828
 20
253.0721068705
 30
0.0
 11
26.75
 21
0.0
 31
0.0
 40
0.6127668731
 41
2.7626507383
 42
2.7897521248
  0
ELLIPSE
  5
6C2
100
AcDbEntity
  8
0
100
AcDbEllipse
 62
7
  6
CONTINUOUS
 10
186.8027076828
 20
256.8380699445
 30
0.0
 11
26.75
 21
-0.0
 31
0.0
 40
0.2042556244
 41
2.7897521248
 42
2.8165864335
  0
ELLIPSE
  5
6C3
100
AcDbEntity
  8
0
100
AcDbEllipse
 62
7
  6
CONTINUOUS
 10
186.8027076828
 20
262.1252985661
 30
0.0
 11
26.5
 21
-0.0
 31
0.0
 40
0.204254743
 41
-2.5868441687
 42
-2.5564960574
  0
ELLIPSE
  5
6C4
100
AcDbEntity
  8
0
100
AcDbEllipse
 62
7
  6
CONTINUOUS
 10
186.8027076828
 20
268.7777872526
 30
0.0
 11
26.5
 21
0.0
 31
0.0
 40
0.6808509827
 41
-2.6047802769
 42
-2.5868441687
  0
ELLIPSE
  5
6C5
100
AcDbEntity
  8
0
100
AcDbEllipse
 62
7
  6
CONTINUOUS
 10
186.8027076828
 20
301.0727504492
 30
0.0
 11
0.0
 21
81.1927375401
 31
0.0
 40
0.3263838713
 41
-4.1815125385
 42
-4.1755766037
  0
ELLIPSE
  5
6C6
100
AcDbEntity
  8
0
100
AcDbEllipse
 62
7
  6
CONTINUOUS
 10
186.8027076828
 20
265.084526575
 30
0.0
 11
26.75
 21
-0.0
 31
0.0
 40
0.1702127457
 41
-3.1412032648
 42
-3.1108245787
  0
ELLIPSE
  5
6C7
100
AcDbEntity
  8
0
100
AcDbEllipse
 62
7
  6
CONTINUOUS
 10
186.8027076828
 20
265.3646674082
 30
0.0
 11
26.75
 21
0.0
 31
0.0
 40
0.510637263
 41
-3.1108245787
 42
-3.0905580225
  0
ELLIPSE
  5
6C8
100
AcDbEntity
  8
0
100
AcDbEllipse
 62
7
  6
CONTINUOUS
 10
186.8027076828
 20
266.0614787577
 30
0.0
 11
-0.0
 21
27.3191717331
 31
0.0
 40
0.9791658496
 41
-4.6613543493
 42
-4.6410668461
  0
ELLIPSE
  5
6C9
100
AcDbEntity
  8
0
100
AcDbEllipse
 62
7
  6
CONTINUOUS
 10
186.8027076828
 20
271.9019314428
 30
0.0
 11
0.0
 21
109.2769995766
 31
0.0
 40
0.244790762
 41
-4.6410668461
 42
-4.6359907149
  0
ELLIPSE
  5
6CA
100
AcDbEntity
  8
0
100
AcDbEllipse
 62
7
  6
CONTINUOUS
 10
186.8027076828
 20
254.9444268562
 30
0.0
 11
-0.0
 21
109.2769995766
 31
0.0
 40
0.244790762
 41
1.4943980614
 42
1.4994741925
  0
ELLIPSE
  5
6CB
100
AcDbEntity
  8
0
100
AcDbEllipse
 62
7
  6
CONTINUOUS
 10
186.8027076828
 20
259.8114828285
 30
0.0
 11
-0.0
 21
40.9786403587
 31
0.0
 40
0.6527791007
 41
1.4994741925
 42
1.5096211245
  0
ELLIPSE
  5
6CC
100
AcDbEntity
  8
0
100
AcDbEllipse
 62
7
  6
CONTINUOUS
 10
186.8027076828
 20
260.8470091498
 30
0.0
 11
26.75
 21
0.0
 31
0.0
 40
0.8987235201
 41
9.3636027585
 42
9.4902452766
  0
ELLIPSE
  5
6CD
100
AcDbEntity
  8
0
100
AcDbEllipse
 62
7
  6
CONTINUOUS
 10
186.8027076828
 20
273.5401747422
 30
0.0
 11
0.0
 21
54.6381967114
 31
0.0
 40
0.4895842398
 41
-4.4665398163
 42
-4.4560874137
  0
ELLIPSE
  5
6CE
100
AcDbEntity
  8
0
100
AcDbEllipse
 62
7
  6
CONTINUOUS
 10
186.8027076828
 20
264.3061572834
 30
0.0
 11
26.75
 21
0.0
 31
0.0
 40
0.6808509827
 41
-2.8852910869
 42
-2.8695582433
  0
ELLIPSE
  5
6CF
100
AcDbEntity
  8
0
100
AcDbEllipse
 62
7
  6
CONTINUOUS
 10
186.8027076828
 20
261.2476487598
 30
0.0
 11
26.75
 21
-0.0
 31
0.0
 40
0.255319362
 41
-2.8695582433
 42
-2.8484724015
  0
ELLIPSE
  5
6D0
100
AcDbEntity
  8
0
100
AcDbEllipse
 62
7
  6
CONTINUOUS
 10
186.8027076828
 20
260.0667946271
 30
0.0
 11
26.75
 21
0.0
 31
0.0
 40
0.255319362
 41
2.8484724015
 42
2.8695582433
  0
ELLIPSE
  5
6D1
100
AcDbEntity
  8
0
100
AcDbEllipse
 62
7
  6
CONTINUOUS
 10
186.8027076828
 20
256.3965787985
 30
0.0
 11
26.75
 21
-0.0
 31
0.0
 40
0.765958086
 41
2.8695582433
 42
2.8905207611
  0
ELLIPSE
  5
6D2
100
AcDbEntity
  8
0
100
AcDbEllipse
 62
7
  6
CONTINUOUS
 10
186.8027076828
 20
250.6341710302
 30
0.0
 11
-0.0
 21
50.0851067901
 31
0.0
 40
0.5340909047
 41
7.6806065531
 42
7.7113646879
  0
ELLIPSE
  5
6D3
100
AcDbEntity
  8
0
100
AcDbEllipse
 62
7
  6
CONTINUOUS
 10
186.8027076828
 20
266.9721161981
 30
0.0
 11
26.5
 21
-0.0
 31
0.0
 40
0.2042551568
 41
2.908755531
 42
2.9349361691
  0
ELLIPSE
  5
6D4
100
AcDbEntity
  8
0
100
AcDbEllipse
 62
7
  6
CONTINUOUS
 10
186.8027076828
 20
265.0987077766
 30
0.0
 11
26.5
 21
-0.0
 31
0.0
 40
0.510638791
 41
2.8876942873
 42
2.908755531
  0
ELLIPSE
  5
6D5
100
AcDbEntity
  8
0
100
AcDbEllipse
 62
7
  6
CONTINUOUS
 10
186.8027076828
 20
261.6997686213
 30
0.0
 11
-0.0
 21
27.0638547404
 31
0.0
 40
0.9791657639
 41
1.2957209535
 42
1.3168979605
  0
ELLIPSE
  5
6D6
100
AcDbEntity
  8
0
100
AcDbEllipse
 62
7
  6
CONTINUOUS
 10
186.8027076828
 20
254.3487393174
 30
0.0
 11
0.0
 21
54.127559359
 31
0.0
 40
0.4895842398
 41
1.285085407
 42
1.2957209535
  0
ELLIPSE
  5
6D7
100
AcDbEntity
  8
0
100
AcDbEllipse
 62
7
  6
CONTINUOUS
 10
186.8027076828
 20
231.4655914091
 30
0.0
 11
0.0
 21
135.3196490084
 31
0.0
 40
0.1958326096
 41
1.2797552598
 42
1.285085407
  0
ELLIPSE
  5
6D8
100
AcDbEntity
  8
0
100
AcDbEllipse
 62
7
  6
CONTINUOUS
 10
186.8027076828
 20
311.1999373799
 30
0.0
 11
0.0
 21
135.3197248258
 31
0.0
 40
0.1958324999
 41
-4.4266780606
 42
-4.4213479134
  0
ELLIPSE
  5
6D9
100
AcDbEntity
  8
0
100
AcDbEllipse
 62
7
  6
CONTINUOUS
 10
186.8027076828
 20
288.3167654323
 30
0.0
 11
0.0
 21
54.1275498818
 31
0.0
 40
0.4895843255
 41
-4.4373136071
 42
-4.4266780606
  0
ELLIPSE
  5
6DA
100
AcDbEntity
  8
0
100
AcDbEllipse
 62
7
  6
CONTINUOUS
 10
186.8027076828
 20
280.9657380589
 30
0.0
 11
0.0
 21
27.0638523711
 31
0.0
 40
0.9791658496
 41
-4.4584906141
 42
-4.4373136071
  0
ELLIPSE
  5
6DB
100
AcDbEntity
  8
0
100
AcDbEllipse
 62
7
  6
CONTINUOUS
 10
186.8027076828
 20
277.5667990524
 30
0.0
 11
26.5
 21
-0.0
 31
0.0
 40
0.510638724
 41
-2.908755531
 42
-2.8876942873
  0
ELLIPSE
  5
6DC
100
AcDbEntity
  8
0
100
AcDbEllipse
 62
7
  6
CONTINUOUS
 10
186.8027076828
 20
275.6933909316
 30
0.0
 11
26.5
 21
0.0
 31
0.0
 40
0.204255139
 41
-2.9349361691
 42
-2.908755531
  0
ELLIPSE
  5
6DD
100
AcDbEntity
  8
0
100
AcDbEllipse
 62
7
  6
CONTINUOUS
 10
186.8027076828
 20
275.6933909316
 30
0.0
 11
26.75
 21
0.0
 31
0.0
 40
0.204255139
 41
-2.9368951093
 42
-2.910971194
  0
ELLIPSE
  5
6DE
100
AcDbEntity
  8
0
100
AcDbEllipse
 62
7
  6
CONTINUOUS
 10
186.8027076828
 20
277.5667990524
 30
0.0
 11
26.75
 21
-0.0
 31
0.0
 40
0.510638724
 41
-2.910971194
 42
-2.8901187477
  0
ELLIPSE
  5
6DF
100
AcDbEntity
  8
0
100
AcDbEllipse
 62
7
  6
CONTINUOUS
 10
186.8027076828
 20
280.9657380589
 30
0.0
 11
-0.0
 21
27.3191717331
 31
0.0
 40
0.9791658496
 41
-4.4609150745
 42
-4.4399502925
  0
ELLIPSE
  5
6E0
100
AcDbEntity
  8
0
100
AcDbEllipse
 62
7
  6
CONTINUOUS
 10
186.8027076828
 20
288.3167654323
 30
0.0
 11
0.0
 21
54.6381871449
 31
0.0
 40
0.4895843255
 41
-4.4399502925
 42
-4.4294222636
  0
ELLIPSE
  5
6E1
100
AcDbEntity
  8
0
100
AcDbEllipse
 62
7
  6
CONTINUOUS
 10
186.8027076828
 20
311.1999373799
 30
0.0
 11
-0.0
 21
136.5963260034
 31
0.0
 40
0.1958324999
 41
-4.4294222636
 42
-4.4241462481
  0
ELLIPSE
  5
6E2
100
AcDbEntity
  8
0
100
AcDbEllipse
 62
7
  6
CONTINUOUS
 10
186.8027076828
 20
231.4655914091
 30
0.0
 11
-0.0
 21
136.5962494707
 31
0.0
 40
0.1958326096
 41
1.2825535945
 42
1.2878296101
  0
ELLIPSE
  5
6E3
100
AcDbEntity
  8
0
100
AcDbEllipse
 62
7
  6
CONTINUOUS
 10
186.8027076828
 20
254.3487393174
 30
0.0
 11
0.0
 21
54.6381967114
 31
0.0
 40
0.4895842398
 41
1.2878296101
 42
1.298357639
  0
ELLIPSE
  5
6E4
100
AcDbEntity
  8
0
100
AcDbEllipse
 62
7
  6
CONTINUOUS
 10
186.8027076828
 20
261.6997686213
 30
0.0
 11
0.0
 21
27.3191741247
 31
0.0
 40
0.9791657639
 41
1.298357639
 42
1.3193224209
  0
ELLIPSE
  5
6E5
100
AcDbEntity
  8
0
100
AcDbEllipse
 62
7
  6
CONTINUOUS
 10
186.8027076828
 20
265.0987077766
 30
0.0
 11
26.75
 21
-0.0
 31
0.0
 40
0.510638791
 41
2.8901187477
 42
2.910971194
  0
ELLIPSE
  5
6E6
100
AcDbEntity
  8
0
100
AcDbEllipse
 62
7
  6
CONTINUOUS
 10
186.8027076828
 20
266.9721161981
 30
0.0
 11
26.75
 21
-0.0
 31
0.0
 40
0.2042551568
 41
2.910971194
 42
2.9368951093
  0
ELLIPSE
  5
6E7
100
AcDbEntity
  8
0
100
AcDbEllipse
 62
7
  6
CONTINUOUS
 10
186.8027076828
 20
264.6572317359
 30
0.0
 11
0.0
 21
136.5954678622
 31
0.0
 40
0.1958337302
 41
1.5295073281
 42
1.5345734527
  0
ELLIPSE
  5
6E8
100
AcDbEntity
  8
0
100
AcDbEllipse
 62
7
  6
CONTINUOUS
 10
186.8027076828
 20
268.4178600325
 30
0.0
 11
26.75
 21
-0.0
 31
0.0
 40
0.5106380606
 41
3.1357514989
 42
3.1560012615
  0
ELLIPSE
  5
6E9
100
AcDbEntity
  8
0
100
AcDbEllipse
 62
7
  6
CONTINUOUS
 10
186.8027076828
 20
268.3380728425
 30
0.0
 11
0.0
 21
27.3191350443
 31
0.0
 40
0.9791671646
 41
1.5447030136
 42
1.5649551721
  0
ELLIPSE
  5
6EA
100
AcDbEntity
  8
0
100
AcDbEllipse
 62
7
  6
CONTINUOUS
 10
186.8027076828
 20
267.6253048197
 30
0.0
 11
0.0
 21
54.6383530327
 31
0.0
 40
0.4895828391
 41
1.5345734527
 42
1.5447030136
  0
ENDSEC
  0
SECTION
  2
OBJECTS
  0
DICTIONARY
  5
C
100
AcDbDictionary
280
0
281
1
  3
ACAD_GROUP
350
D
  3
ACAD_MLINESTYLE
350
17
  3
ACAD_LAYOUT
350
1A
  3
ACAD_PLOTSETTINGS
350
19
  3
ACAD_PLOTSTYLENAME
350
E
  0
DICTIONARY
  5
D
102
{ACAD_REACTORS
330
C
102
}
100
AcDbDictionary
280
0
281
1
  0
ACDBDICTIONARYWDFLT
  5
E
102
{ACAD_REACTORS
330
C
102
}
100
AcDbDictionary
281
1
  3
Normal
350
F
100
AcDbDictionaryWithDefault
340
F
  0
DICTIONARY
  5
17
102
{ACAD_REACTORS
330
C
102
}
100
AcDbDictionary
280
0
281
1
  3
Standard
350
18
  0
DICTIONARY
  5
19
102
{ACAD_REACTORS
330
C
102
}
100
AcDbDictionary
281
1
  0
DICTIONARY
  5
1A
102
{ACAD_REACTORS
330
C
102
}
100
AcDbDictionary
281
1
  3
Model
350
6EB
  3
Layout1
350
6EC
  0
ACDBPLACEHOLDER
  5
F
102
{ACAD_REACTORS
330
E
102
}
  0
MLINESTYLE
  5
18
102
{ACAD_REACTORS
330
17
102
}
100
AcDbMlineStyle
  2
STANDARD
 70
0
  3

 62
256
 51
90.0
 52
90.0
 71
2
 49
0.5
 62
256
  6
BYLAYER
 49
-0.5
 62
256
  6
BYLAYER
  0
LAYOUT
  5
6EB
102
{ACAD_REACTORS
330
1A
102
}
100
AcDbPlotSettings
  1

  2
none_device
  4
ISO_A2_(594.00_x_420.00_MM)
  6

 40
0.0
 41
0.0
 42
0.0
 43
0.0
 44
594.0
 45
420.0
 46
0.0
 47
0.0
 48
0.0
 49
0.0
140
0.0
141
0.0
142
1.0
143
1.0
 70
1024
 72
1
 73
0
 74
0
  7

 75
0
147
1.0
148
0.0
149
0.0
100
AcDbLayout
  1
Model
 70
0
 71
0
 10
0.0
 20
0.0
 11
594.0
 21
420.0
 12
0.0
 22
0.0
 32
0.0
 14
0.0
 24
0.0
 34
0.0
 15
0.0
 25
0.0
 35
0.0
146
0.0
 13
0.0
 23
0.0
 33
0.0
 16
1.0
 26
0.0
 36
0.0
 17
0.0
 27
1.0
 37
0.0
 76
0
330
20C
345
0
346
0
  0
LAYOUT
  5
6EC
102
{ACAD_REACTORS
330
1A
102
}
100
AcDbPlotSettings
  1

  2
none_device
  4
ISO_A2_(594.00_x_420.00_MM)
  6

 40
0.0
 41
0.0
 42
0.0
 43
0.0
 44
594.0
 45
420.0
 46
0.0
 47
0.0
 48
0.0
 49
0.0
140
0.0
141
0.0
142
1.0
143
1.0
 70
0
 72
1
 73
0
 74
0
  7

 75
0
147
1.0
148
0.0
149
0.0
100
AcDbLayout
  1
Layout1
 70
0
 71
1
 10
0.0
 20
0.0
 11
594.0
 21
420.0
 12
0.0
 22
0.0
 32
0.0
 14
0.0
 24
0.0
 34
0.0
 15
0.0
 25
0.0
 35
0.0
146
0.0
 13
0.0
 23
0.0
 33
0.0
 16
1.0
 26
0.0
 36
0.0
 17
0.0
 27
1.0
 37
0.0
 76
0
330
20D
345
0
346
0
  0
ENDSEC
  0
EOF
