999
DXF file: 001-m31452-p-20.dxf
999
Pro/ENGINEER 2011490 by Parametric Technology Corporation
  0
SECTION
  2
HEADER
  9
$ACADVER
  1
AC1015
  9
$DWGCODEPAGE
  3
ANSI_1252
  9
$EXTMAX
 10
420.0
 20
297.0
 30
0.0
  9
$EXTMIN
 10
0.0
 20
0.0
 30
0.0
  9
$LIMMIN
 10
0.0
 20
0.0
  9
$LIMMAX
 10
420.0
 20
297.0
  9
$VIEWCTR
 10
210.0
 20
148.5
  9
$VIEWSIZE
 40
297.0
  9
$CLAYER
  8
0
  9
$LTSCALE
 40
23.1
  9
$CELTYPE
  6
BYLAYER
  9
$DIMSCALE
 40
1.0
  9
$DIMASZ
 40
3.5
  9
$DIMEXO
 40
2.625
  9
$DIMDLI
 40
15.96
  9
$DIMEXE
 40
7.56
  9
$DIMCEN
 40
3.78
  9
$DIMLFAC
 40
1.0
  9
$DIMBLK
  1
_FILLED
  9
$DIMTXT
 40
3.5
  9
$DIMTOL
 70
1
  9
$DIMLIM
 70
0
  9
$DIMTFAC
 40
1.0
  9
$DIMTP
 40
0.005
  9
$DIMTM
 40
0.005
  9
$PDMODE
 70
3
  9
$PDSIZE
 40
0.3125
  9
$HANDSEED
  5
656
  9
$TILEMODE
 70
1
  9
$MEASUREMENT
 70
1
  9
$INSUNITS
 70
4
  0
ENDSEC
  0
SECTION
  2
CLASSES
  0
CLASS
  1
ACDBDICTIONARYWDFLT
  2
AcDbDictionaryWithDefault
  3
AutoCAD 2000
 90
0
280
0
281
0
  0
CLASS
  1
ACDBPLACEHOLDER
  2
AcDbPlaceHolder
  3
AutoCAD 2000
 90
0
280
0
281
0
  0
CLASS
  1
LAYOUT
  2
AcDbLayout
  3
AutoCAD 2000
 90
0
280
0
281
0
  0
ENDSEC
  0
SECTION
  2
TABLES
  0
TABLE
  2
VPORT
  5
8
100
AcDbSymbolTable
 70
2
  0
VPORT
  5
1F4
100
AcDbSymbolTableRecord
100
AcDbViewportTableRecord
  2
*ACTIVE
 70
0
 10
0.0
 20
0.0
 11
1.0
 21
1.0
 12
210.0
 22
148.5
 13
0.0
 23
0.0
 14
1.0
 24
1.0
 15
0.0
 25
0.0
 16
0.0
 26
0.0
 36
1.0
 17
0.0
 27
0.0
 37
0.0
 40
297.0
 41
1.4141414141
 42
50.0
 43
0.0
 44
0.0
 50
0.0
 51
0.0
 71
0
 72
100
 73
1
 74
1
 75
0
 76
0
 77
0
 78
0
  0
ENDTAB
  0
TABLE
  2
LTYPE
  5
5
100
AcDbSymbolTable
 70
6
  0
LTYPE
  5
14
100
AcDbSymbolTableRecord
100
AcDbLinetypeTableRecord
  2
BYBLOCK
 70
0
  3

 72
65
 73
0
 40
0.0
  0
LTYPE
  5
15
100
AcDbSymbolTableRecord
100
AcDbLinetypeTableRecord
  2
BYLAYER
 70
0
  3

 72
65
 73
0
 40
0.0
  0
LTYPE
  5
16
100
AcDbSymbolTableRecord
100
AcDbLinetypeTableRecord
  2
CONTINUOUS
 70
64
  3
Solid line
 72
65
 73
0
 40
0.0
  0
LTYPE
  5
1F5
100
AcDbSymbolTableRecord
100
AcDbLinetypeTableRecord
  2
CENTER
 70
64
  3
____ _ ____ _ ____ _ ____ _ ____ _ ____ _ ____
 72
65
 73
4
 40
0.6
 49
0.375
 74
0
 49
-0.075
 74
0
 49
0.075
 74
0
 49
-0.075
 74
0
  0
LTYPE
  5
1F6
100
AcDbSymbolTableRecord
100
AcDbLinetypeTableRecord
  2
HIDDEN
 70
64
  3
- - - - - - - - - - - - - - - - - - - -
 72
65
 73
2
 40
0.2
 49
0.1
 74
0
 49
-0.1
 74
0
  0
LTYPE
  5
1F7
100
AcDbSymbolTableRecord
100
AcDbLinetypeTableRecord
  2
PHANTOM
 70
64
  3
_____ _ _ _____ _ _ _____ _ _ _____
 72
65
 73
6
 40
0.8
 49
0.45
 74
0
 49
-0.05
 74
0
 49
0.1
 74
0
 49
-0.05
 74
0
 49
0.1
 74
0
 49
-0.05
 74
0
  0
LTYPE
  5
1F8
100
AcDbSymbolTableRecord
100
AcDbLinetypeTableRecord
  2
DOT
 70
64
  3
. . . . . . . . . . . . . . . . . . . .
 72
65
 73
2
 40
0.2
 49
0.1
 74
0
 49
-0.1
 74
0
  0
LTYPE
  5
1F9
100
AcDbSymbolTableRecord
100
AcDbLinetypeTableRecord
  2
DASHED
 70
64
  3
- - - - - - - - - - - - - - - - - - - -
 72
65
 73
2
 40
0.2
 49
0.1
 74
0
 49
-0.1
 74
0
  0
ENDTAB
  0
TABLE
  2
LAYER
  5
2
100
AcDbSymbolTable
 70
36
  0
LAYER
  5
10
100
AcDbSymbolTableRecord
100
AcDbLayerTableRecord
  2
0
 70
0
 62
7
  6
CONTINUOUS
370
-3
390
F
  0
LAYER
  5
1FA
100
AcDbSymbolTableRecord
100
AcDbLayerTableRecord
  2
DEFAULT_1
 70
0
 62
7
  6
CENTER
370
-3
390
F
  0
LAYER
  5
1FB
100
AcDbSymbolTableRecord
100
AcDbLayerTableRecord
  2
DEFAULT_2
 70
0
 62
8
  6
HIDDEN
370
-3
390
F
  0
LAYER
  5
1FC
100
AcDbSymbolTableRecord
100
AcDbLayerTableRecord
  2
DEFAULT_3
 70
0
 62
7
  6
PHANTOM
370
-3
390
F
  0
LAYER
  5
1FD
100
AcDbSymbolTableRecord
100
AcDbLayerTableRecord
  2
AUSFORMSCHRAEGEN
 70
0
 62
7
  6
CONTINUOUS
370
-3
390
F
  0
LAYER
  5
1FE
100
AcDbSymbolTableRecord
100
AcDbLayerTableRecord
  2
BEZUGSACHSEN
 70
0
 62
7
  6
CONTINUOUS
370
-3
390
F
  0
LAYER
  5
1FF
100
AcDbSymbolTableRecord
100
AcDbLayerTableRecord
  2
BEZUGSEBENEN
 70
0
 62
7
  6
CONTINUOUS
370
-3
390
F
  0
LAYER
  5
200
100
AcDbSymbolTableRecord
100
AcDbLayerTableRecord
  2
BG_STARTBEZUEGE
 70
0
 62
7
  6
CONTINUOUS
370
-3
390
F
  0
LAYER
  5
201
100
AcDbSymbolTableRecord
100
AcDbLayerTableRecord
  2
FASEN
 70
0
 62
7
  6
CONTINUOUS
370
-3
390
F
  0
LAYER
  5
202
100
AcDbSymbolTableRecord
100
AcDbLayerTableRecord
  2
HILFEN
 70
0
 62
7
  6
CONTINUOUS
370
-3
390
F
  0
LAYER
  5
203
100
AcDbSymbolTableRecord
100
AcDbLayerTableRecord
  2
KONSTRUKTIONSELEMENTE
 70
0
 62
7
  6
CONTINUOUS
370
-3
390
F
  0
LAYER
  5
204
100
AcDbSymbolTableRecord
100
AcDbLayerTableRecord
  2
NORM
 70
0
 62
7
  6
CONTINUOUS
370
-3
390
F
  0
LAYER
  5
205
100
AcDbSymbolTableRecord
100
AcDbLayerTableRecord
  2
PLATZIERUNG
 70
0
 62
7
  6
CONTINUOUS
370
-3
390
F
  0
LAYER
  5
206
100
AcDbSymbolTableRecord
100
AcDbLayerTableRecord
  2
RUNDUNGEN
 70
0
 62
7
  6
CONTINUOUS
370
-3
390
F
  0
LAYER
  5
207
100
AcDbSymbolTableRecord
100
AcDbLayerTableRecord
  2
TEIL_STARTBEZUEGE
 70
0
 62
7
  6
CONTINUOUS
370
-3
390
F
  0
LAYER
  5
208
100
AcDbSymbolTableRecord
100
AcDbLayerTableRecord
  2
T_STARTBEZUEGE
 70
0
 62
7
  6
CONTINUOUS
370
-3
390
F
  0
LAYER
  5
209
100
AcDbSymbolTableRecord
100
AcDbLayerTableRecord
  2
ZEICHNUNGSBEMASSUNGEN
 70
0
 62
7
  6
CONTINUOUS
370
-3
390
F
  0
ENDTAB
  0
TABLE
  2
STYLE
  5
3
100
AcDbSymbolTable
 70
1
  0
STYLE
  5
11
100
AcDbSymbolTableRecord
100
AcDbTextStyleTableRecord
  2
STANDARD
 70
0
 40
0.0
 41
0.7
 50
0.0
 71
0
 42
0.2
  3
txt
  4

  0
STYLE
  5
20A
100
AcDbSymbolTableRecord
100
AcDbTextStyleTableRecord
  2
TEXTSTYLE_1
 70
0
 40
0.0
 41
0.8
 50
0.0
 71
0
 42
0.2
  3
gdt
  4

  0
ENDTAB
  0
TABLE
  2
VIEW
  5
6
100
AcDbSymbolTable
 70
0
  0
ENDTAB
  0
TABLE
  2
UCS
  5
7
100
AcDbSymbolTable
 70
0
  0
ENDTAB
  0
TABLE
  2
APPID
  5
9
100
AcDbSymbolTable
 70
1
  0
APPID
  5
20B
100
AcDbSymbolTableRecord
100
AcDbRegAppTableRecord
  2
ACAD
 70
0
  0
ENDTAB
  0
TABLE
  2
BLOCK_RECORD
  5
1
100
AcDbSymbolTable
 70
0
  0
BLOCK_RECORD
  5
20C
100
AcDbSymbolTableRecord
100
AcDbBlockTableRecord
  2
*Model_Space
  0
BLOCK_RECORD
  5
20D
100
AcDbSymbolTableRecord
100
AcDbBlockTableRecord
  2
*Paper_Space
  0
ENDTAB
  0
TABLE
  2
DIMSTYLE
  5
A
100
AcDbSymbolTable
 70
1
100
AcDbDimStyleTable
 71
0
  0
DIMSTYLE
105
20E
100
AcDbSymbolTableRecord
100
AcDbDimStyleTableRecord
  2
STANDARD
 70
0
  3

  4

 40
1.0
 41
3.5
 42
0.0625
 43
0.38
 44
0.18
 45
0.0
 46
0.0
 47
0.005
 48
0.005
140
3.5
141
0.09
142
0.0
143
25.4
144
1.0
145
0.0
146
1.0
147
0.09
 71
1.0
 72
0.0
 73
0
 74
0
 75
0
 76
0
 77
1
 78
8
170
0
171
2
172
0
173
0
174
0
175
0
176
0
177
0
178
5
270
2
271
3
272
3
273
2
274
2
275
0
280
0
281
0
282
0
283
1
284
8
285
0
286
0
287
3
288
0
340
11
  0
ENDTAB
  0
ENDSEC
  0
SECTION
  2
BLOCKS
  0
BLOCK
  5
20
100
AcDbEntity
  8
0
100
AcDbBlockBegin
  2
*Model_Space
 70
0
 10
0.0
 20
0.0
 30
0.0
  3
*Model_Space
  1

  0
ENDBLK
  5
21
100
AcDbEntity
  8
0
100
AcDbBlockEnd
  0
BLOCK
  5
1C
100
AcDbEntity
  8
0
100
AcDbBlockBegin
  2
*Paper_Space
 70
0
 10
0.0
 20
0.0
 30
0.0
  3
*Paper_Space
  1

  0
ENDBLK
  5
1D
100
AcDbEntity
  8
0
100
AcDbBlockEnd
  0
ENDSEC
  0
SECTION
  2
ENTITIES
  0
MTEXT
  5
20F
100
AcDbEntity
  8
0
100
AcDbMText
 62
5
  6
CONTINUOUS
  7
STANDARD
 71
1
 72
1
 10
243.693134911
 20
201.2509345022
 30
0.0
 11
0.3826834324
 21
0.9238795325
 31
0.0
 44
0.9
  1
VIP 6
 40
6.0
 41
24.1428571429
  0
MTEXT
  5
210
100
AcDbEntity
  8
0
100
AcDbMText
 62
5
  6
CONTINUOUS
  7
STANDARD
 71
2
 72
1
 10
146.7328226149
 20
50.8398590334
 30
0.0
 11
0.0
 21
1.0
 31
0.0
 44
0.9
  1
RUD PP-VIP\P1,5t M16
 40
5.0
 41
40.0
  0
MTEXT
  5
211
100
AcDbEntity
  8
0
100
AcDbMText
 62
5
  6
CONTINUOUS
  7
STANDARD
 71
1
 72
1
 10
275.9411664237
 20
216.6501525767
 30
0.0
 11
0.3826834324
 21
-0.9238795325
 31
0.0
 44
0.9
  1
CE
 40
6.0
 41
10.4285714286
  0
LINE
  5
212
100
AcDbEntity
  8
0
100
AcDbLine
 62
7
  6
CONTINUOUS
 10
0.0
 20
0.0
 11
0.0
 21
297.0
  0
LINE
  5
213
100
AcDbEntity
  8
0
100
AcDbLine
 62
7
  6
CONTINUOUS
 10
0.0
 20
0.0
 11
420.0
 21
0.0
  0
LINE
  5
214
100
AcDbEntity
  8
0
100
AcDbLine
 62
7
  6
CONTINUOUS
 10
0.0
 20
297.0
 11
420.0
 21
297.0
  0
LINE
  5
215
100
AcDbEntity
  8
0
100
AcDbLine
 62
7
  6
CONTINUOUS
 10
420.0
 20
0.0
 11
420.0
 21
297.0
  0
LINE
  5
216
100
AcDbEntity
  8
FASEN
100
AcDbLine
 62
7
  6
CONTINUOUS
 10
161.0111125545
 20
143.091960567
 11
146.0111125545
 21
143.091960567
  0
LINE
  5
217
100
AcDbEntity
  8
FASEN
100
AcDbLine
 62
7
  6
CONTINUOUS
 10
161.5111125545
 20
143.591960567
 11
145.5111125545
 21
143.591960567
  0
LINE
  5
218
100
AcDbEntity
  8
FASEN
100
AcDbLine
 62
7
  6
CONTINUOUS
 10
146.0111125545
 20
143.091960567
 11
145.5111125545
 21
143.591960567
  0
LINE
  5
219
100
AcDbEntity
  8
KONSTRUKTIONSELEMENTE
100
AcDbLine
 62
7
  6
CONTINUOUS
 10
130.5111125545
 20
167.091960567
 11
130.5111125545
 21
176.091960567
  0
LINE
  5
21A
100
AcDbEntity
  8
0
100
AcDbLine
 62
7
  6
CONTINUOUS
 10
137.1013418663
 20
169.9749392783
 11
137.3357167769
 21
169.6877052448
  0
LINE
  5
21B
100
AcDbEntity
  8
0
100
AcDbLine
 62
7
  6
CONTINUOUS
 10
137.5343545682
 20
169.9749392783
 11
137.7687294788
 21
169.6877052448
  0
LINE
  5
21C
100
AcDbEntity
  8
0
100
AcDbLine
 62
7
  6
CONTINUOUS
 10
137.3825918663
 20
170.1664286507
 11
137.2419668663
 21
170.3579179895
  0
LINE
  5
21D
100
AcDbEntity
  8
0
100
AcDbLine
 62
7
  6
CONTINUOUS
 10
133.2575917769
 20
174.091960567
 11
133.2575917769
 21
169.591960567
  0
LINE
  5
21E
100
AcDbEntity
  8
0
100
AcDbLine
 62
7
  6
CONTINUOUS
 10
133.5111125545
 20
185.3579180119
 11
133.5111125545
 21
184.591960567
  0
LINE
  5
21F
100
AcDbEntity
  8
0
100
AcDbLine
 62
7
  6
CONTINUOUS
 10
133.5111125545
 20
180.4004712281
 11
133.5111125545
 21
179.762173253
  0
LINE
  5
220
100
AcDbEntity
  8
0
100
AcDbLine
 62
7
  6
CONTINUOUS
 10
133.5361282229
 20
180.4004712281
 11
133.5361282229
 21
179.762173253
  0
LINE
  5
221
100
AcDbEntity
  8
0
100
AcDbLine
 62
7
  6
CONTINUOUS
 10
133.5388417769
 20
169.591960567
 11
133.5388417769
 21
173.1345138726
  0
LINE
  5
222
100
AcDbEntity
  8
0
100
AcDbLine
 62
7
  6
CONTINUOUS
 10
133.5674418972
 20
190.591960567
 11
133.5674418972
 21
186.6345136938
  0
LINE
  5
223
100
AcDbEntity
  8
0
100
AcDbLine
 62
7
  6
CONTINUOUS
 10
133.5878221426
 20
182.1877054152
 11
133.5878221426
 21
181.6770668206
  0
LINE
  5
224
100
AcDbEntity
  8
0
100
AcDbLine
 62
7
  6
CONTINUOUS
 10
133.6113637644
 20
181.6770668206
 11
133.6113637644
 21
182.6983436522
  0
LINE
  5
225
100
AcDbEntity
  8
0
100
AcDbLine
 62
7
  6
CONTINUOUS
 10
133.6380780875
 20
190.591960567
 11
133.6380780875
 21
186.6345136938
  0
LINE
  5
226
100
AcDbEntity
  8
0
100
AcDbLine
 62
7
  6
CONTINUOUS
 10
133.6906044788
 20
174.0282623912
 11
133.6906044788
 21
173.1345138726
  0
LINE
  5
227
100
AcDbEntity
  8
0
100
AcDbLine
 62
7
  6
CONTINUOUS
 10
133.7010771526
 20
177.591960567
 11
133.7010771526
 21
182.570684093
  0
LINE
  5
228
100
AcDbEntity
  8
0
100
AcDbLine
 62
7
  6
CONTINUOUS
 10
133.7611125545
 20
194.791960567
 11
133.7611125545
 21
190.591960567
  0
LINE
  5
229
100
AcDbEntity
  8
0
100
AcDbLine
 62
7
  6
CONTINUOUS
 10
133.7611125545
 20
184.591960567
 11
133.7611125545
 21
183.591960567
  0
LINE
  5
22A
100
AcDbEntity
  8
0
100
AcDbLine
 62
7
  6
CONTINUOUS
 10
133.7611125545
 20
177.591960567
 11
133.7611125545
 21
176.091960567
  0
LINE
  5
22B
100
AcDbEntity
  8
0
100
AcDbLine
 62
7
  6
CONTINUOUS
 10
133.7769416826
 20
190.591960567
 11
133.7769416826
 21
184.591960567
  0
LINE
  5
22C
100
AcDbEntity
  8
0
100
AcDbLine
 62
7
  6
CONTINUOUS
 10
133.8197438022
 20
183.591960567
 11
133.8197438022
 21
177.591960567
  0
LINE
  5
22D
100
AcDbEntity
  8
0
100
AcDbLine
 62
7
  6
CONTINUOUS
 10
133.9151946122
 20
189.8260032115
 11
133.9151946122
 21
185.3579180119
  0
LINE
  5
22E
100
AcDbEntity
  8
0
100
AcDbLine
 62
7
  6
CONTINUOUS
 10
134.0737129512
 20
183.591960567
 11
134.0737129512
 21
177.591960567
  0
LINE
  5
22F
100
AcDbEntity
  8
0
100
AcDbLine
 62
7
  6
CONTINUOUS
 10
134.1704171171
 20
189.8260032115
 11
134.1704171171
 21
185.3579180119
  0
LINE
  5
230
100
AcDbEntity
  8
0
100
AcDbLine
 62
7
  6
CONTINUOUS
 10
137.3357167769
 20
169.6877052448
 11
137.5700916875
 21
169.591960567
  0
LINE
  5
231
100
AcDbEntity
  8
0
100
AcDbLine
 62
7
  6
CONTINUOUS
 10
137.7687294788
 20
169.6877052448
 11
137.9037855506
 21
169.6325333834
  0
LINE
  5
232
100
AcDbEntity
  8
0
100
AcDbLine
 62
7
  6
CONTINUOUS
 10
137.5232168663
 20
170.0706839812
 11
137.3825918663
 21
170.1664286507
  0
LINE
  5
233
100
AcDbEntity
  8
0
100
AcDbLine
 62
7
  6
CONTINUOUS
 10
137.8513419557
 20
171.9855775711
 11
137.9919669557
 21
171.8898329017
  0
LINE
  5
234
100
AcDbEntity
  8
0
100
AcDbLine
 62
7
  6
CONTINUOUS
 10
138.2843546576
 20
171.9855775711
 11
138.3379606048
 21
171.9490799093
  0
LINE
  5
235
100
AcDbEntity
  8
0
100
AcDbLine
 62
7
  6
CONTINUOUS
 10
137.8044665981
 20
173.6132372198
 11
137.9450915981
 21
173.5174925503
  0
LINE
  5
236
100
AcDbEntity
  8
0
100
AcDbLine
 62
7
  6
CONTINUOUS
 10
138.2732169557
 20
172.0813222406
 11
138.0388417769
 21
172.3685562489
  0
LINE
  5
237
100
AcDbEntity
  8
0
100
AcDbLine
 62
7
  6
CONTINUOUS
 10
138.2263415981
 20
173.7089818892
 11
137.9919669557
 21
173.9962158975
  0
LINE
  5
238
100
AcDbEntity
  8
0
100
AcDbLine
 62
7
  6
CONTINUOUS
 10
137.9919669557
 20
171.8898329017
 11
138.1325919557
 21
171.6983435628
  0
LINE
  5
239
100
AcDbEntity
  8
0
100
AcDbLine
 62
7
  6
CONTINUOUS
 10
137.9450915981
 20
173.5174925503
 11
138.0857165981
 21
173.3260032115
  0
LINE
  5
23A
100
AcDbEntity
  8
0
100
AcDbLine
 62
7
  6
CONTINUOUS
 10
138.1325919557
 20
171.6983435628
 11
138.2263415981
 21
171.5068542239
  0
LINE
  5
23B
100
AcDbEntity
  8
0
100
AcDbLine
 62
7
  6
CONTINUOUS
 10
138.4138419557
 20
171.7940882323
 11
138.2732169557
 21
172.0813222406
  0
LINE
  5
23C
100
AcDbEntity
  8
0
100
AcDbLine
 62
7
  6
CONTINUOUS
 10
136.9607168663
 20
170.3579179895
 11
137.1013418663
 21
169.9749392783
  0
LINE
  5
23D
100
AcDbEntity
  8
0
100
AcDbLine
 62
7
  6
CONTINUOUS
 10
137.4911921241
 20
170.0924880584
 11
137.5343545682
 21
169.9749392783
  0
LINE
  5
23E
100
AcDbEntity
  8
0
100
AcDbLine
 62
7
  6
CONTINUOUS
 10
137.2419668663
 20
170.3579179895
 11
137.1482166875
 21
170.6451520649
  0
LINE
  5
23F
100
AcDbEntity
  8
0
100
AcDbLine
 62
7
  6
CONTINUOUS
 10
136.8669666875
 20
170.8366414038
 11
136.9607168663
 21
170.3579179895
  0
LINE
  5
240
100
AcDbEntity
  8
0
100
AcDbLine
 62
7
  6
CONTINUOUS
 10
133.5388417769
 20
173.1345138726
 11
134.1950917545
 21
169.591960567
  0
LINE
  5
241
100
AcDbEntity
  8
0
100
AcDbLine
 62
7
  6
CONTINUOUS
 10
134.539422028
 20
170.0706839812
 11
134.5990980958
 21
169.7485420257
  0
LINE
  5
242
100
AcDbEntity
  8
0
100
AcDbLine
 62
7
  6
CONTINUOUS
 10
134.3825917769
 20
170.0706839812
 11
133.6794667769
 21
174.091960567
  0
LINE
  5
243
100
AcDbEntity
  8
0
100
AcDbLine
 62
7
  6
CONTINUOUS
 10
136.8200918663
 20
171.5068542239
 11
136.8669666875
 21
170.8366414038
  0
LINE
  5
244
100
AcDbEntity
  8
0
100
AcDbLine
 62
7
  6
CONTINUOUS
 10
134.7298883783
 20
183.591960567
 11
134.7298883783
 21
180.2728116688
  0
LINE
  5
245
100
AcDbEntity
  8
0
100
AcDbLine
 62
7
  6
CONTINUOUS
 10
134.9706161438
 20
188.5494072613
 11
134.9706161438
 21
186.6345136938
  0
LINE
  5
246
100
AcDbEntity
  8
0
100
AcDbLine
 62
7
  6
CONTINUOUS
 10
134.9706163367
 20
182.9536627707
 11
134.9706163367
 21
180.9111094651
  0
LINE
  5
247
100
AcDbEntity
  8
0
100
AcDbLine
 62
7
  6
CONTINUOUS
 10
135.2263417769
 20
173.1345138726
 11
135.2263417769
 21
169.591960567
  0
LINE
  5
248
100
AcDbEntity
  8
0
100
AcDbLine
 62
7
  6
CONTINUOUS
 10
135.2405761639
 20
182.9536627707
 11
135.2405761639
 21
181.2940881428
  0
LINE
  5
249
100
AcDbEntity
  8
0
100
AcDbLine
 62
7
  6
CONTINUOUS
 10
135.2919603276
 20
188.5494072613
 11
135.2919603276
 21
186.6345136938
  0
LINE
  5
24A
100
AcDbEntity
  8
0
100
AcDbLine
 62
7
  6
CONTINUOUS
 10
135.5075917769
 20
169.591960567
 11
135.5075917769
 21
174.091960567
  0
LINE
  5
24B
100
AcDbEntity
  8
0
100
AcDbLine
 62
7
  6
CONTINUOUS
 10
135.5667538903
 20
188.5494072613
 11
135.5667538903
 21
186.6345136938
  0
LINE
  5
24C
100
AcDbEntity
  8
0
100
AcDbLine
 62
7
  6
CONTINUOUS
 10
135.8825916875
 20
173.4217478809
 11
135.8825916875
 21
172.6557902572
  0
LINE
  5
24D
100
AcDbEntity
  8
0
100
AcDbLine
 62
7
  6
CONTINUOUS
 10
136.1638416875
 20
173.3260032115
 11
136.1638416875
 21
169.591960567
  0
LINE
  5
24E
100
AcDbEntity
  8
0
100
AcDbLine
 62
7
  6
CONTINUOUS
 10
136.3156043894
 20
173.4217478809
 11
136.3156043894
 21
173.3260032115
  0
LINE
  5
24F
100
AcDbEntity
  8
0
100
AcDbLine
 62
7
  6
CONTINUOUS
 10
136.4450916875
 20
169.591960567
 11
136.4450916875
 21
174.091960567
  0
LINE
  5
250
100
AcDbEntity
  8
0
100
AcDbLine
 62
7
  6
CONTINUOUS
 10
136.6458378829
 20
179.6345136938
 11
136.6458378829
 21
179.3791945753
  0
LINE
  5
251
100
AcDbEntity
  8
0
100
AcDbLine
 62
7
  6
CONTINUOUS
 10
136.8200918663
 20
172.17706691
 11
136.8200918663
 21
171.5068542239
  0
LINE
  5
252
100
AcDbEntity
  8
0
100
AcDbLine
 62
7
  6
CONTINUOUS
 10
136.8908127861
 20
183.591960567
 11
136.8908127861
 21
182.9536627707
  0
LINE
  5
253
100
AcDbEntity
  8
0
100
AcDbLine
 62
7
  6
CONTINUOUS
 10
137.0544667769
 20
171.9855775711
 11
137.0544667769
 21
172.17706691
  0
LINE
  5
254
100
AcDbEntity
  8
0
100
AcDbLine
 62
7
  6
CONTINUOUS
 10
137.0609032595
 20
179.762173253
 11
137.0609032595
 21
179.251535016
  0
LINE
  5
255
100
AcDbEntity
  8
0
100
AcDbLine
 62
7
  6
CONTINUOUS
 10
137.1013418663
 20
170.9323860732
 11
137.1013418663
 21
171.2196200815
  0
LINE
  5
256
100
AcDbEntity
  8
0
100
AcDbLine
 62
7
  6
CONTINUOUS
 10
137.1925077002
 20
183.591960567
 11
137.1925077002
 21
182.9536627707
  0
LINE
  5
257
100
AcDbEntity
  8
0
100
AcDbLine
 62
7
  6
CONTINUOUS
 10
137.2531045682
 20
171.9855775711
 11
137.2531045682
 21
171.7135097934
  0
LINE
  5
258
100
AcDbEntity
  8
0
100
AcDbLine
 62
7
  6
CONTINUOUS
 10
137.3657762047
 20
179.762173253
 11
137.3657762047
 21
179.251535016
  0
LINE
  5
259
100
AcDbEntity
  8
0
100
AcDbLine
 62
7
  6
CONTINUOUS
 10
135.0857167769
 20
174.091960567
 11
134.3825917769
 21
170.0706839812
  0
LINE
  5
25A
100
AcDbEntity
  8
RUNDUNGEN
100
AcDbLine
 62
7
  6
CONTINUOUS
 10
142.6637134705
 20
197.911173305
 11
142.657816946
 21
197.9063305675
  0
LINE
  5
25B
100
AcDbEntity
  8
KONSTRUKTIONSELEMENTE
100
AcDbLine
 62
7
  6
CONTINUOUS
 10
130.5111125545
 20
167.091960567
 11
176.5111125545
 21
167.091960567
  0
LINE
  5
25C
100
AcDbEntity
  8
0
100
AcDbLine
 62
7
  6
CONTINUOUS
 10
133.2575917769
 20
169.591960567
 11
133.5388417769
 21
169.591960567
  0
LINE
  5
25D
100
AcDbEntity
  8
0
100
AcDbLine
 62
7
  6
CONTINUOUS
 10
134.1950917545
 20
169.591960567
 11
134.5700917322
 21
169.591960567
  0
LINE
  5
25E
100
AcDbEntity
  8
0
100
AcDbLine
 62
7
  6
CONTINUOUS
 10
135.2263417769
 20
169.591960567
 11
135.5075917769
 21
169.591960567
  0
LINE
  5
25F
100
AcDbEntity
  8
0
100
AcDbLine
 62
7
  6
CONTINUOUS
 10
136.1638416875
 20
169.591960567
 11
136.4450916875
 21
169.591960567
  0
LINE
  5
260
100
AcDbEntity
  8
0
100
AcDbLine
 62
7
  6
CONTINUOUS
 10
137.5700916875
 20
169.591960567
 11
137.8044665981
 21
169.591960567
  0
LINE
  5
261
100
AcDbEntity
  8
0
100
AcDbLine
 62
7
  6
CONTINUOUS
 10
137.3357167769
 20
169.6877052448
 11
137.7687294788
 21
169.6877052448
  0
LINE
  5
262
100
AcDbEntity
  8
0
100
AcDbLine
 62
7
  6
CONTINUOUS
 10
137.1013418663
 20
169.9749392783
 11
137.5343545682
 21
169.9749392783
  0
LINE
  5
263
100
AcDbEntity
  8
0
100
AcDbLine
 62
7
  6
CONTINUOUS
 10
134.3825917769
 20
170.0706839812
 11
134.6587741697
 21
170.0706839812
  0
LINE
  5
264
100
AcDbEntity
  8
0
100
AcDbLine
 62
7
  6
CONTINUOUS
 10
137.5232168663
 20
170.0706839812
 11
138.2843546576
 21
170.0706839812
  0
LINE
  5
265
100
AcDbEntity
  8
0
100
AcDbLine
 62
7
  6
CONTINUOUS
 10
137.9919669557
 20
170.1664286507
 11
138.3435294619
 21
170.1664286507
  0
LINE
  5
266
100
AcDbEntity
  8
0
100
AcDbLine
 62
7
  6
CONTINUOUS
 10
138.0388417769
 20
172.3685562489
 11
137.8044665981
 21
172.4643009183
  0
LINE
  5
267
100
AcDbEntity
  8
0
100
AcDbLine
 62
7
  6
CONTINUOUS
 10
137.9919669557
 20
173.9962158975
 11
137.7575917769
 21
174.091960567
  0
LINE
  5
268
100
AcDbEntity
  8
0
100
AcDbLine
 62
7
  6
CONTINUOUS
 10
138.2374793
 20
173.6132372198
 11
138.2695040308
 21
173.5914331503
  0
LINE
  5
269
100
AcDbEntity
  8
0
100
AcDbLine
 62
7
  6
CONTINUOUS
 10
138.3669665981
 20
173.3260032115
 11
138.2263415981
 21
173.7089818892
  0
LINE
  5
26A
100
AcDbEntity
  8
0
100
AcDbLine
 62
7
  6
CONTINUOUS
 10
138.0857165981
 20
173.3260032115
 11
138.1794667769
 21
173.0387692032
  0
LINE
  5
26B
100
AcDbEntity
  8
0
100
AcDbLine
 62
7
  6
CONTINUOUS
 10
138.5075915981
 20
171.3153648851
 11
138.4138419557
 21
171.7940882323
  0
LINE
  5
26C
100
AcDbEntity
  8
0
100
AcDbLine
 62
7
  6
CONTINUOUS
 10
137.1482166875
 20
170.6451520649
 11
137.1013418663
 21
170.9323860732
  0
LINE
  5
26D
100
AcDbEntity
  8
0
100
AcDbLine
 62
7
  6
CONTINUOUS
 10
138.2263415981
 20
171.5068542239
 11
138.2732169557
 21
171.2196200815
  0
LINE
  5
26E
100
AcDbEntity
  8
0
100
AcDbLine
 62
7
  6
CONTINUOUS
 10
138.4138419557
 20
173.0387692032
 11
138.3669665981
 21
173.3260032115
  0
LINE
  5
26F
100
AcDbEntity
  8
0
100
AcDbLine
 62
7
  6
CONTINUOUS
 10
137.7993534232
 20
181.6770668206
 11
137.7993534232
 21
181.1664285836
  0
LINE
  5
270
100
AcDbEntity
  8
0
100
AcDbLine
 62
7
  6
CONTINUOUS
 10
138.2732169557
 20
171.2196200815
 11
138.2732169557
 21
170.9323860732
  0
LINE
  5
271
100
AcDbEntity
  8
0
100
AcDbLine
 62
7
  6
CONTINUOUS
 10
138.5075915981
 20
170.8366414038
 11
138.5075915981
 21
171.3153648851
  0
LINE
  5
272
100
AcDbEntity
  8
0
100
AcDbLine
 62
7
  6
CONTINUOUS
 10
138.641364725
 20
182.6983436522
 11
138.641364725
 21
181.6770668206
  0
LINE
  5
273
100
AcDbEntity
  8
0
100
AcDbLine
 62
7
  6
CONTINUOUS
 10
138.641364725
 20
181.1664285836
 11
138.641364725
 21
178.6132371304
  0
LINE
  5
274
100
AcDbEntity
  8
0
100
AcDbLine
 62
7
  6
CONTINUOUS
 10
139.2282566322
 20
182.6983436522
 11
139.2282566322
 21
181.6770668206
  0
LINE
  5
275
100
AcDbEntity
  8
0
100
AcDbLine
 62
7
  6
CONTINUOUS
 10
139.2282566322
 20
181.1664285836
 11
139.2282566322
 21
178.8685563383
  0
LINE
  5
276
100
AcDbEntity
  8
0
100
AcDbLine
 62
7
  6
CONTINUOUS
 10
139.5804817971
 20
182.6983436522
 11
139.5804817971
 21
181.6770668206
  0
LINE
  5
277
100
AcDbEntity
  8
0
100
AcDbLine
 62
7
  6
CONTINUOUS
 10
139.5804817971
 20
181.1664285836
 11
139.5804817971
 21
178.8685563383
  0
LINE
  5
278
100
AcDbEntity
  8
0
100
AcDbLine
 62
7
  6
CONTINUOUS
 10
140.4254583427
 20
178.1025988487
 11
140.4254583427
 21
177.591960567
  0
LINE
  5
279
100
AcDbEntity
  8
0
100
AcDbLine
 62
7
  6
CONTINUOUS
 10
140.720124516
 20
181.6770668206
 11
140.720124516
 21
181.1664285836
  0
LINE
  5
27A
100
AcDbEntity
  8
0
100
AcDbLine
 62
7
  6
CONTINUOUS
 10
140.8108430238
 20
178.1025988487
 11
140.8108430238
 21
177.591960567
  0
LINE
  5
27B
100
AcDbEntity
  8
0
100
AcDbLine
 62
7
  6
CONTINUOUS
 10
136.8669666875
 20
172.8472795961
 11
136.8200918663
 21
172.17706691
  0
LINE
  5
27C
100
AcDbEntity
  8
0
100
AcDbLine
 62
7
  6
CONTINUOUS
 10
137.0544667769
 20
172.17706691
 11
137.1013418663
 21
172.7515349266
  0
LINE
  5
27D
100
AcDbEntity
  8
0
100
AcDbLine
 62
7
  6
CONTINUOUS
 10
137.1013418663
 20
172.7515349266
 11
137.1482166875
 21
173.0387692032
  0
LINE
  5
27E
100
AcDbEntity
  8
0
100
AcDbLine
 62
7
  6
CONTINUOUS
 10
137.1013418663
 20
171.2196200815
 11
137.1482166875
 21
171.5068542239
  0
LINE
  5
27F
100
AcDbEntity
  8
0
100
AcDbLine
 62
7
  6
CONTINUOUS
 10
135.5075917769
 20
174.0282623912
 11
135.351318784
 21
173.1345138726
  0
LINE
  5
280
100
AcDbEntity
  8
0
100
AcDbLine
 62
7
  6
CONTINUOUS
 10
134.5700917322
 20
169.591960567
 11
135.2263417769
 21
173.1345138726
  0
LINE
  5
281
100
AcDbEntity
  8
0
100
AcDbLine
 62
7
  6
CONTINUOUS
 10
136.9607168663
 20
173.3260032115
 11
136.8669666875
 21
172.8472795961
  0
LINE
  5
282
100
AcDbEntity
  8
0
100
AcDbLine
 62
7
  6
CONTINUOUS
 10
136.9607168663
 20
170.3579179895
 11
137.2419668663
 21
170.3579179895
  0
LINE
  5
283
100
AcDbEntity
  8
0
100
AcDbLine
 62
7
  6
CONTINUOUS
 10
138.1325919557
 20
170.3579179895
 11
138.4138419557
 21
170.3579179895
  0
LINE
  5
284
100
AcDbEntity
  8
0
100
AcDbLine
 62
7
  6
CONTINUOUS
 10
138.2263415981
 20
170.6451520649
 11
138.4700917464
 21
170.6451520649
  0
LINE
  5
285
100
AcDbEntity
  8
0
100
AcDbLine
 62
7
  6
CONTINUOUS
 10
136.8669666875
 20
170.8366414038
 11
137.1169668067
 21
170.8366414038
  0
LINE
  5
286
100
AcDbEntity
  8
0
100
AcDbLine
 62
7
  6
CONTINUOUS
 10
138.2732169557
 20
170.9323860732
 11
138.5075915981
 21
170.9323860732
  0
LINE
  5
287
100
AcDbEntity
  8
0
100
AcDbLine
 62
7
  6
CONTINUOUS
 10
138.2732169557
 20
171.2196200815
 11
138.5075915981
 21
171.2196200815
  0
LINE
  5
288
100
AcDbEntity
  8
0
100
AcDbLine
 62
7
  6
CONTINUOUS
 10
136.8200918663
 20
171.5068542239
 11
137.1482166875
 21
171.5068542239
  0
LINE
  5
289
100
AcDbEntity
  8
0
100
AcDbLine
 62
7
  6
CONTINUOUS
 10
138.2263415981
 20
171.5068542239
 11
138.4700917411
 21
171.5068542239
  0
LINE
  5
28A
100
AcDbEntity
  8
0
100
AcDbLine
 62
7
  6
CONTINUOUS
 10
138.1325919557
 20
171.6983435628
 11
138.4325918842
 21
171.6983435628
  0
LINE
  5
28B
100
AcDbEntity
  8
0
100
AcDbLine
 62
7
  6
CONTINUOUS
 10
137.9919669557
 20
171.8898329017
 11
138.3669669557
 21
171.8898329017
  0
LINE
  5
28C
100
AcDbEntity
  8
0
100
AcDbLine
 62
7
  6
CONTINUOUS
 10
137.0544667769
 20
171.9855775711
 11
137.4874794788
 21
171.9855775711
  0
LINE
  5
28D
100
AcDbEntity
  8
0
100
AcDbLine
 62
7
  6
CONTINUOUS
 10
137.5232168663
 20
171.9855775711
 11
138.2843546576
 21
171.9855775711
  0
LINE
  5
28E
100
AcDbEntity
  8
0
100
AcDbLine
 62
7
  6
CONTINUOUS
 10
136.8200918663
 20
172.17706691
 11
137.0544667769
 21
172.17706691
  0
LINE
  5
28F
100
AcDbEntity
  8
0
100
AcDbLine
 62
7
  6
CONTINUOUS
 10
137.3357167769
 20
172.3685562489
 11
137.7687294788
 21
172.3685562489
  0
LINE
  5
290
100
AcDbEntity
  8
0
100
AcDbLine
 62
7
  6
CONTINUOUS
 10
137.8044665981
 20
172.4643009183
 11
137.5700916875
 21
172.4643009183
  0
LINE
  5
291
100
AcDbEntity
  8
0
100
AcDbLine
 62
7
  6
CONTINUOUS
 10
136.8669666875
 20
172.8472795961
 11
137.1169667921
 21
172.8472795961
  0
LINE
  5
292
100
AcDbEntity
  8
0
100
AcDbLine
 62
7
  6
CONTINUOUS
 10
138.1794667769
 20
173.0387692032
 11
138.4138419557
 21
173.0387692032
  0
LINE
  5
293
100
AcDbEntity
  8
0
100
AcDbLine
 62
7
  6
CONTINUOUS
 10
133.5388417769
 20
173.1345138726
 11
133.8468774716
 21
173.1345138726
  0
LINE
  5
294
100
AcDbEntity
  8
0
100
AcDbLine
 62
7
  6
CONTINUOUS
 10
135.2263417769
 20
173.1345138726
 11
135.5075917769
 21
173.1345138726
  0
LINE
  5
295
100
AcDbEntity
  8
0
100
AcDbLine
 62
7
  6
CONTINUOUS
 10
136.1638416875
 20
173.3260032115
 11
136.4450916875
 21
173.3260032115
  0
LINE
  5
296
100
AcDbEntity
  8
0
100
AcDbLine
 62
7
  6
CONTINUOUS
 10
136.9607168663
 20
173.3260032115
 11
137.2419668663
 21
173.3260032115
  0
LINE
  5
297
100
AcDbEntity
  8
0
100
AcDbLine
 62
7
  6
CONTINUOUS
 10
138.0857165981
 20
173.3260032115
 11
138.3669665981
 21
173.3260032115
  0
LINE
  5
298
100
AcDbEntity
  8
0
100
AcDbLine
 62
7
  6
CONTINUOUS
 10
135.8825916875
 20
173.4217478809
 11
136.3156043894
 21
173.4217478809
  0
LINE
  5
299
100
AcDbEntity
  8
0
100
AcDbLine
 62
7
  6
CONTINUOUS
 10
137.9450915981
 20
173.5174925503
 11
138.2966540981
 21
173.5174925503
  0
LINE
  5
29A
100
AcDbEntity
  8
KONSTRUKTIONSELEMENTE
100
AcDbLine
 62
7
  6
CONTINUOUS
 10
141.0040709993
 20
167.091960567
 11
141.0040709993
 21
176.091960567
  0
LINE
  5
29B
100
AcDbEntity
  8
0
100
AcDbLine
 62
7
  6
CONTINUOUS
 10
141.1146664912
 20
181.6770668206
 11
141.1146664912
 21
181.1664285836
  0
LINE
  5
29C
100
AcDbEntity
  8
KONSTRUKTIONSELEMENTE
100
AcDbLine
 62
7
  6
CONTINUOUS
 10
143.0181541096
 20
167.091960567
 11
143.0181541096
 21
176.091960567
  0
LINE
  5
29D
100
AcDbEntity
  8
0
100
AcDbLine
 62
7
  6
CONTINUOUS
 10
138.2732169557
 20
170.9323860732
 11
138.2263415981
 21
170.6451520649
  0
LINE
  5
29E
100
AcDbEntity
  8
0
100
AcDbLine
 62
7
  6
CONTINUOUS
 10
138.4138419557
 20
170.3579179895
 11
138.5075915981
 21
170.8366414038
  0
LINE
  5
29F
100
AcDbEntity
  8
0
100
AcDbLine
 62
7
  6
CONTINUOUS
 10
137.1482166875
 20
173.0387692032
 11
137.2419668663
 21
173.3260032115
  0
LINE
  5
2A0
100
AcDbEntity
  8
0
100
AcDbLine
 62
7
  6
CONTINUOUS
 10
138.2263415981
 20
170.6451520649
 11
138.1325919557
 21
170.3579179895
  0
LINE
  5
2A1
100
AcDbEntity
  8
0
100
AcDbLine
 62
7
  6
CONTINUOUS
 10
137.1013418663
 20
173.7089818892
 11
136.9607168663
 21
173.3260032115
  0
LINE
  5
2A2
100
AcDbEntity
  8
0
100
AcDbLine
 62
7
  6
CONTINUOUS
 10
137.5343545682
 20
173.7089818892
 11
137.4911921355
 21
173.5914331503
  0
LINE
  5
2A3
100
AcDbEntity
  8
0
100
AcDbLine
 62
7
  6
CONTINUOUS
 10
136.1638416875
 20
174.091960567
 11
135.8825916875
 21
173.4217478809
  0
LINE
  5
2A4
100
AcDbEntity
  8
0
100
AcDbLine
 62
7
  6
CONTINUOUS
 10
135.8825916875
 20
172.6557902572
 11
136.1638416875
 21
173.3260032115
  0
LINE
  5
2A5
100
AcDbEntity
  8
0
100
AcDbLine
 62
7
  6
CONTINUOUS
 10
136.4450916875
 20
173.7303133205
 11
136.3156043894
 21
173.4217478809
  0
LINE
  5
2A6
100
AcDbEntity
  8
0
100
AcDbLine
 62
7
  6
CONTINUOUS
 10
137.5232168663
 20
173.6132372198
 11
138.2374793
 21
173.6132372198
  0
LINE
  5
2A7
100
AcDbEntity
  8
0
100
AcDbLine
 62
7
  6
CONTINUOUS
 10
137.1013418663
 20
173.7089818892
 11
137.5343545682
 21
173.7089818892
  0
LINE
  5
2A8
100
AcDbEntity
  8
0
100
AcDbLine
 62
7
  6
CONTINUOUS
 10
137.3357167769
 20
173.9962158975
 11
137.7687294788
 21
173.9962158975
  0
LINE
  5
2A9
100
AcDbEntity
  8
0
100
AcDbLine
 62
7
  6
CONTINUOUS
 10
137.7575917769
 20
174.091960567
 11
137.5700916875
 21
174.091960567
  0
LINE
  5
2AA
100
AcDbEntity
  8
0
100
AcDbLine
 62
7
  6
CONTINUOUS
 10
136.4450916875
 20
174.091960567
 11
136.1638416875
 21
174.091960567
  0
LINE
  5
2AB
100
AcDbEntity
  8
0
100
AcDbLine
 62
7
  6
CONTINUOUS
 10
135.5075917769
 20
174.091960567
 11
135.0857167769
 21
174.091960567
  0
LINE
  5
2AC
100
AcDbEntity
  8
0
100
AcDbLine
 62
7
  6
CONTINUOUS
 10
133.6794667769
 20
174.091960567
 11
133.2575917769
 21
174.091960567
  0
LINE
  5
2AD
100
AcDbEntity
  8
KONSTRUKTIONSELEMENTE
100
AcDbLine
 62
7
  6
CONTINUOUS
 10
130.5111125545
 20
176.091960567
 11
176.5111125545
 21
176.091960567
  0
LINE
  5
2AE
100
AcDbEntity
  8
0
100
AcDbLine
 62
7
  6
CONTINUOUS
 10
134.4376527186
 20
176.8260031221
 11
134.0239372846
 21
176.8260031221
  0
LINE
  5
2AF
100
AcDbEntity
  8
RUNDUNGEN
100
AcDbLine
 62
7
  6
CONTINUOUS
 10
144.5111125545
 20
201.791960567
 11
144.5111125545
 21
220.291960567
  0
LINE
  5
2B0
100
AcDbEntity
  8
0
100
AcDbLine
 62
7
  6
CONTINUOUS
 10
145.5111125545
 20
167.091960567
 11
145.5111125545
 21
143.591960567
  0
LINE
  5
2B1
100
AcDbEntity
  8
0
100
AcDbLine
 62
7
  6
CONTINUOUS
 10
138.2732169557
 20
169.9749392783
 11
138.4138419557
 21
170.3579179895
  0
LINE
  5
2B2
100
AcDbEntity
  8
0
100
AcDbLine
 62
7
  6
CONTINUOUS
 10
137.1482166875
 20
171.5068542239
 11
137.2419668663
 21
171.6983435628
  0
LINE
  5
2B3
100
AcDbEntity
  8
0
100
AcDbLine
 62
7
  6
CONTINUOUS
 10
140.8108430238
 20
177.591960567
 11
140.4254583427
 21
177.591960567
  0
LINE
  5
2B4
100
AcDbEntity
  8
0
100
AcDbLine
 62
7
  6
CONTINUOUS
 10
136.1960177219
 20
177.591960567
 11
135.5267441101
 21
177.591960567
  0
LINE
  5
2B5
100
AcDbEntity
  8
0
100
AcDbLine
 62
7
  6
CONTINUOUS
 10
134.0737129512
 20
177.591960567
 11
133.7010771526
 21
177.591960567
  0
LINE
  5
2B6
100
AcDbEntity
  8
0
100
AcDbLine
 62
7
  6
CONTINUOUS
 10
136.5539053847
 20
177.7196201374
 11
136.2633771959
 21
177.7196201374
  0
LINE
  5
2B7
100
AcDbEntity
  8
0
100
AcDbLine
 62
7
  6
CONTINUOUS
 10
140.8108430238
 20
178.1025988487
 11
140.4254583427
 21
178.1025988487
  0
LINE
  5
2B8
100
AcDbEntity
  8
0
100
AcDbLine
 62
7
  6
CONTINUOUS
 10
136.9430713381
 20
178.1025988487
 11
136.6458378829
 21
178.1025988487
  0
LINE
  5
2B9
100
AcDbEntity
  8
0
100
AcDbLine
 62
7
  6
CONTINUOUS
 10
140.1016931913
 20
178.2302584526
 11
139.7361342367
 21
178.2302584526
  0
LINE
  5
2BA
100
AcDbEntity
  8
0
100
AcDbLine
 62
7
  6
CONTINUOUS
 10
135.9113963903
 20
178.2302584526
 11
135.5267441101
 21
178.2302584526
  0
LINE
  5
2BB
100
AcDbEntity
  8
0
100
AcDbLine
 62
7
  6
CONTINUOUS
 10
134.6551620508
 20
178.2302584526
 11
134.212472706
 21
178.2302584526
  0
LINE
  5
2BC
100
AcDbEntity
  8
0
100
AcDbLine
 62
7
  6
CONTINUOUS
 10
135.5667541096
 20
178.3579180119
 11
135.2919605435
 21
178.3579180119
  0
LINE
  5
2BD
100
AcDbEntity
  8
0
100
AcDbLine
 62
7
  6
CONTINUOUS
 10
139.7072398391
 20
178.4855775711
 11
139.3518610933
 21
178.4855775711
  0
LINE
  5
2BE
100
AcDbEntity
  8
0
100
AcDbLine
 62
7
  6
CONTINUOUS
 10
137.1925077002
 20
178.6132371304
 11
136.8908127861
 21
178.6132371304
  0
LINE
  5
2BF
100
AcDbEntity
  8
0
100
AcDbLine
 62
7
  6
CONTINUOUS
 10
135.399048205
 20
178.6132371304
 11
135.1267611925
 21
178.6132371304
  0
LINE
  5
2C0
100
AcDbEntity
  8
0
100
AcDbLine
 62
7
  6
CONTINUOUS
 10
139.5804817971
 20
178.8685563383
 11
139.2282566322
 21
178.8685563383
  0
LINE
  5
2C1
100
AcDbEntity
  8
0
100
AcDbLine
 62
7
  6
CONTINUOUS
 10
135.292389156
 20
179.1238754568
 11
134.7298883783
 21
179.1238754568
  0
LINE
  5
2C2
100
AcDbEntity
  8
0
100
AcDbLine
 62
7
  6
CONTINUOUS
 10
137.3657762047
 20
179.251535016
 11
137.0609032595
 21
179.251535016
  0
LINE
  5
2C3
100
AcDbEntity
  8
0
100
AcDbLine
 62
7
  6
CONTINUOUS
 10
137.3657762047
 20
179.762173253
 11
137.0609032595
 21
179.762173253
  0
LINE
  5
2C4
100
AcDbEntity
  8
0
100
AcDbLine
 62
7
  6
CONTINUOUS
 10
133.7010771526
 20
179.762173253
 11
133.5111127341
 21
179.762173253
  0
LINE
  5
2C5
100
AcDbEntity
  8
0
100
AcDbLine
 62
7
  6
CONTINUOUS
 10
137.2419668663
 20
173.3260032115
 11
137.3825918663
 21
173.5174925503
  0
LINE
  5
2C6
100
AcDbEntity
  8
0
100
AcDbLine
 62
7
  6
CONTINUOUS
 10
137.3357167769
 20
172.3685562489
 11
137.0544667769
 21
171.9855775711
  0
LINE
  5
2C7
100
AcDbEntity
  8
0
100
AcDbLine
 62
7
  6
CONTINUOUS
 10
137.2419668663
 20
171.6983435628
 11
137.3825918663
 21
171.8898329017
  0
LINE
  5
2C8
100
AcDbEntity
  8
0
100
AcDbLine
 62
7
  6
CONTINUOUS
 10
137.7687294788
 20
172.3685562489
 11
137.4874794788
 21
171.9855775711
  0
LINE
  5
2C9
100
AcDbEntity
  8
0
100
AcDbLine
 62
7
  6
CONTINUOUS
 10
138.1325919557
 20
170.3579179895
 11
137.9919669557
 21
170.1664286507
  0
LINE
  5
2CA
100
AcDbEntity
  8
0
100
AcDbLine
 62
7
  6
CONTINUOUS
 10
137.3357167769
 20
173.9962158975
 11
137.1013418663
 21
173.7089818892
  0
LINE
  5
2CB
100
AcDbEntity
  8
0
100
AcDbLine
 62
7
  6
CONTINUOUS
 10
137.7687294788
 20
173.9962158975
 11
137.5343545682
 21
173.7089818892
  0
LINE
  5
2CC
100
AcDbEntity
  8
0
100
AcDbLine
 62
7
  6
CONTINUOUS
 10
135.3452106333
 20
180.2728116688
 11
134.7298883783
 21
180.2728116688
  0
LINE
  5
2CD
100
AcDbEntity
  8
0
100
AcDbLine
 62
7
  6
CONTINUOUS
 10
137.1925077002
 20
180.4004712281
 11
136.8908127861
 21
180.4004712281
  0
LINE
  5
2CE
100
AcDbEntity
  8
0
100
AcDbLine
 62
7
  6
CONTINUOUS
 10
133.7010771526
 20
180.4004712281
 11
133.5111127341
 21
180.4004712281
  0
LINE
  5
2CF
100
AcDbEntity
  8
0
100
AcDbLine
 62
7
  6
CONTINUOUS
 10
135.5667541096
 20
180.6557903466
 11
135.2919605435
 21
180.6557903466
  0
LINE
  5
2D0
100
AcDbEntity
  8
0
100
AcDbLine
 62
7
  6
CONTINUOUS
 10
135.9113963903
 20
180.7834499058
 11
135.5267441101
 21
180.7834499058
  0
LINE
  5
2D1
100
AcDbEntity
  8
0
100
AcDbLine
 62
7
  6
CONTINUOUS
 10
133.7010771526
 20
180.7834499058
 11
133.6380780605
 21
180.7834499058
  0
LINE
  5
2D2
100
AcDbEntity
  8
0
100
AcDbLine
 62
7
  6
CONTINUOUS
 10
136.9430713381
 20
180.9111094651
 11
136.6458378829
 21
180.9111094651
  0
LINE
  5
2D3
100
AcDbEntity
  8
0
100
AcDbLine
 62
7
  6
CONTINUOUS
 10
141.1146664912
 20
181.1664285836
 11
139.2282566322
 21
181.1664285836
  0
LINE
  5
2D4
100
AcDbEntity
  8
0
100
AcDbLine
 62
7
  6
CONTINUOUS
 10
138.641364725
 20
181.1664285836
 11
137.7993534232
 21
181.1664285836
  0
LINE
  5
2D5
100
AcDbEntity
  8
0
100
AcDbLine
 62
7
  6
CONTINUOUS
 10
136.5539053847
 20
181.2940881428
 11
136.2633771959
 21
181.2940881428
  0
LINE
  5
2D6
100
AcDbEntity
  8
0
100
AcDbLine
 62
7
  6
CONTINUOUS
 10
133.7010771526
 20
181.2940881428
 11
133.5991971519
 21
181.2940881428
  0
LINE
  5
2D7
100
AcDbEntity
  8
0
100
AcDbLine
 62
7
  6
CONTINUOUS
 10
136.1960177219
 20
181.4217477021
 11
135.5267441101
 21
181.4217477021
  0
LINE
  5
2D8
100
AcDbEntity
  8
0
100
AcDbLine
 62
7
  6
CONTINUOUS
 10
141.1146664912
 20
181.6770668206
 11
139.2282566322
 21
181.6770668206
  0
LINE
  5
2D9
100
AcDbEntity
  8
0
100
AcDbLine
 62
7
  6
CONTINUOUS
 10
138.641364725
 20
181.6770668206
 11
137.7993534232
 21
181.6770668206
  0
LINE
  5
2DA
100
AcDbEntity
  8
0
100
AcDbLine
 62
7
  6
CONTINUOUS
 10
133.7010771526
 20
181.6770668206
 11
133.5878221426
 21
181.6770668206
  0
LINE
  5
2DB
100
AcDbEntity
  8
0
100
AcDbLine
 62
7
  6
CONTINUOUS
 10
133.6113637644
 20
182.1877054152
 11
133.5878221426
 21
182.1877054152
  0
LINE
  5
2DC
100
AcDbEntity
  8
0
100
AcDbLine
 62
7
  6
CONTINUOUS
 10
133.6113637644
 20
182.570684093
 11
133.5991971519
 21
182.570684093
  0
LINE
  5
2DD
100
AcDbEntity
  8
0
100
AcDbLine
 62
7
  6
CONTINUOUS
 10
139.5804817971
 20
182.6983436522
 11
138.641364725
 21
182.6983436522
  0
LINE
  5
2DE
100
AcDbEntity
  8
0
100
AcDbLine
 62
7
  6
CONTINUOUS
 10
137.1925077002
 20
182.9536627707
 11
134.9706163367
 21
182.9536627707
  0
LINE
  5
2DF
100
AcDbEntity
  8
0
100
AcDbLine
 62
7
  6
CONTINUOUS
 10
138.0388417769
 20
169.6877052448
 11
138.2732169557
 21
169.9749392783
  0
LINE
  5
2E0
100
AcDbEntity
  8
0
100
AcDbLine
 62
7
  6
CONTINUOUS
 10
137.1925077002
 20
183.591960567
 11
134.7298883783
 21
183.591960567
  0
LINE
  5
2E1
100
AcDbEntity
  8
0
100
AcDbLine
 62
7
  6
CONTINUOUS
 10
133.7010771526
 20
183.591960567
 11
134.0737129512
 21
183.591960567
  0
LINE
  5
2E2
100
AcDbEntity
  8
0
100
AcDbLine
 62
7
  6
CONTINUOUS
 10
134.7761185593
 20
184.591960567
 11
133.7769416826
 21
184.591960567
  0
LINE
  5
2E3
100
AcDbEntity
  8
0
100
AcDbLine
 62
7
  6
CONTINUOUS
 10
133.7626948963
 20
184.591960567
 11
133.5126751155
 21
184.591960567
  0
LINE
  5
2E4
100
AcDbEntity
  8
0
100
AcDbLine
 62
7
  6
CONTINUOUS
 10
134.9963382258
 20
184.7196201374
 11
134.7298887274
 21
184.7196201374
  0
LINE
  5
2E5
100
AcDbEntity
  8
0
100
AcDbLine
 62
7
  6
CONTINUOUS
 10
133.780504976
 20
184.7196201374
 11
133.5302623369
 21
184.7196201374
  0
LINE
  5
2E6
100
AcDbEntity
  8
0
100
AcDbLine
 62
7
  6
CONTINUOUS
 10
135.189762304
 20
184.9749392894
 11
134.920540347
 21
184.9749392894
  0
LINE
  5
2E7
100
AcDbEntity
  8
0
100
AcDbLine
 62
7
  6
CONTINUOUS
 10
133.7769416826
 20
184.9749392894
 11
133.5584341628
 21
184.9749392894
  0
LINE
  5
2E8
100
AcDbEntity
  8
0
100
AcDbLine
 62
7
  6
CONTINUOUS
 10
134.5127573625
 20
185.3579180119
 11
133.9151946122
 21
185.3579180119
  0
LINE
  5
2E9
100
AcDbEntity
  8
0
100
AcDbLine
 62
7
  6
CONTINUOUS
 10
133.5126751155
 20
185.3579180119
 11
133.5111125545
 21
185.3579180119
  0
LINE
  5
2EA
100
AcDbEntity
  8
0
100
AcDbLine
 62
7
  6
CONTINUOUS
 10
135.3990479977
 20
185.4855775711
 11
135.1267609883
 21
185.4855775711
  0
LINE
  5
2EB
100
AcDbEntity
  8
0
100
AcDbLine
 62
7
  6
CONTINUOUS
 10
133.7769416826
 20
185.4855775711
 11
133.5991971743
 21
185.4855775711
  0
LINE
  5
2EC
100
AcDbEntity
  8
0
100
AcDbLine
 62
7
  6
CONTINUOUS
 10
135.5098105182
 20
185.9962158975
 11
135.235873158
 21
185.9962158975
  0
LINE
  5
2ED
100
AcDbEntity
  8
0
100
AcDbLine
 62
7
  6
CONTINUOUS
 10
133.7769416826
 20
185.9962158975
 11
133.624323598
 21
185.9962158975
  0
LINE
  5
2EE
100
AcDbEntity
  8
0
100
AcDbLine
 62
7
  6
CONTINUOUS
 10
137.3825918663
 20
173.5174925503
 11
137.5232168663
 21
173.6132372198
  0
LINE
  5
2EF
100
AcDbEntity
  8
0
100
AcDbLine
 62
7
  6
CONTINUOUS
 10
137.3825918663
 20
171.8898329017
 11
137.5232168663
 21
171.9855775711
  0
LINE
  5
2F0
100
AcDbEntity
  8
0
100
AcDbLine
 62
7
  6
CONTINUOUS
 10
135.5667538903
 20
186.6345136938
 11
135.2919603276
 21
186.6345136938
  0
LINE
  5
2F1
100
AcDbEntity
  8
0
100
AcDbLine
 62
7
  6
CONTINUOUS
 10
133.7769416826
 20
186.6345136938
 11
133.6380780875
 21
186.6345136938
  0
LINE
  5
2F2
100
AcDbEntity
  8
0
100
AcDbLine
 62
7
  6
CONTINUOUS
 10
135.5667538903
 20
188.5494072613
 11
135.2919603276
 21
188.5494072613
  0
LINE
  5
2F3
100
AcDbEntity
  8
0
100
AcDbLine
 62
7
  6
CONTINUOUS
 10
135.5098105182
 20
189.1877054152
 11
135.235873158
 21
189.1877054152
  0
LINE
  5
2F4
100
AcDbEntity
  8
0
100
AcDbLine
 62
7
  6
CONTINUOUS
 10
135.3990479977
 20
189.6983436522
 11
135.1267609883
 21
189.6983436522
  0
LINE
  5
2F5
100
AcDbEntity
  8
0
100
AcDbLine
 62
7
  6
CONTINUOUS
 10
134.5127573625
 20
189.8260032115
 11
133.9151946122
 21
189.8260032115
  0
LINE
  5
2F6
100
AcDbEntity
  8
0
100
AcDbLine
 62
7
  6
CONTINUOUS
 10
137.9919669557
 20
170.1664286507
 11
137.8513419557
 21
170.0706839812
  0
LINE
  5
2F7
100
AcDbEntity
  8
0
100
AcDbLine
 62
7
  6
CONTINUOUS
 10
138.3163793998
 20
170.0924880584
 11
138.2843546576
 21
170.0706839812
  0
LINE
  5
2F8
100
AcDbEntity
  8
0
100
AcDbLine
 62
7
  6
CONTINUOUS
 10
137.5700916875
 20
174.091960567
 11
137.3357167769
 21
173.9962158975
  0
LINE
  5
2F9
100
AcDbEntity
  8
0
100
AcDbLine
 62
7
  6
CONTINUOUS
 10
137.8803481534
 20
174.0418133255
 11
137.7687294788
 21
173.9962158975
  0
LINE
  5
2FA
100
AcDbEntity
  8
0
100
AcDbLine
 62
7
  6
CONTINUOUS
 10
137.5700916875
 20
172.4643009183
 11
137.3357167769
 21
172.3685562489
  0
LINE
  5
2FB
100
AcDbEntity
  8
0
100
AcDbLine
 62
7
  6
CONTINUOUS
 10
137.9037855506
 20
172.4237281054
 11
137.7687294788
 21
172.3685562489
  0
LINE
  5
2FC
100
AcDbEntity
  8
0
100
AcDbLine
 62
7
  6
CONTINUOUS
 10
135.189762304
 20
190.2089818892
 11
134.920540347
 21
190.2089818892
  0
LINE
  5
2FD
100
AcDbEntity
  8
0
100
AcDbLine
 62
7
  6
CONTINUOUS
 10
134.9963382258
 20
190.4643010077
 11
134.7298887274
 21
190.4643010077
  0
LINE
  5
2FE
100
AcDbEntity
  8
0
100
AcDbLine
 62
7
  6
CONTINUOUS
 10
134.7761185593
 20
190.591960567
 11
133.5674418972
 21
190.591960567
  0
LINE
  5
2FF
100
AcDbEntity
  8
0
100
AcDbLine
 62
7
  6
CONTINUOUS
 10
161.5111125545
 20
167.091960567
 11
161.5111125545
 21
143.591960567
  0
LINE
  5
300
100
AcDbEntity
  8
RUNDUNGEN
100
AcDbLine
 62
7
  6
CONTINUOUS
 10
162.5111125545
 20
201.791960567
 11
162.5111125545
 21
220.291960567
  0
LINE
  5
301
100
AcDbEntity
  8
0
100
AcDbLine
 62
7
  6
CONTINUOUS
 10
163.0111125545
 20
215.0494608054
 11
163.0111125545
 21
212.7994608054
  0
LINE
  5
302
100
AcDbEntity
  8
0
100
AcDbLine
 62
7
  6
CONTINUOUS
 10
163.0111125545
 20
212.0212715341
 11
163.0111125545
 21
209.8216678284
  0
LINE
  5
303
100
AcDbEntity
  8
0
100
AcDbLine
 62
7
  6
CONTINUOUS
 10
163.0111125545
 20
209.299460567
 11
163.0111125545
 21
206.111960567
  0
LINE
  5
304
100
AcDbEntity
  8
0
100
AcDbLine
 62
7
  6
CONTINUOUS
 10
163.0111125545
 20
205.6119605074
 11
163.0111125545
 21
203.111960567
  0
LINE
  5
305
100
AcDbEntity
  8
0
100
AcDbLine
 62
7
  6
CONTINUOUS
 10
137.8044665981
 20
169.591960567
 11
138.0388417769
 21
169.6877052448
  0
LINE
  5
306
100
AcDbEntity
  8
KONSTRUKTIONSELEMENTE
100
AcDbLine
 62
7
  6
CONTINUOUS
 10
164.0040709993
 20
167.091960567
 11
164.0040709993
 21
176.091960567
  0
LINE
  5
307
100
AcDbEntity
  8
KONSTRUKTIONSELEMENTE
100
AcDbLine
 62
7
  6
CONTINUOUS
 10
166.0181541096
 20
167.091960567
 11
166.0181541096
 21
176.091960567
  0
LINE
  5
308
100
AcDbEntity
  8
RUNDUNGEN
100
AcDbLine
 62
7
  6
CONTINUOUS
 10
171.2611125545
 20
196.791960567
 11
167.5110814995
 21
196.791960567
  0
LINE
  5
309
100
AcDbEntity
  8
RUNDUNGEN
100
AcDbLine
 62
7
  6
CONTINUOUS
 10
139.5111125545
 20
196.791960567
 11
135.7611125545
 21
196.791960567
  0
LINE
  5
30A
100
AcDbEntity
  8
0
100
AcDbLine
 62
7
  6
CONTINUOUS
 10
173.2611125545
 20
194.791960567
 11
173.2611125545
 21
176.091960567
  0
LINE
  5
30B
100
AcDbEntity
  8
0
100
AcDbLine
 62
7
  6
CONTINUOUS
 10
162.5111125545
 20
203.111960567
 11
163.0111125545
 21
203.111960567
  0
LINE
  5
30C
100
AcDbEntity
  8
0
100
AcDbLine
 62
7
  6
CONTINUOUS
 10
162.5111125545
 20
203.486960567
 11
163.0111125545
 21
203.486960567
  0
LINE
  5
30D
100
AcDbEntity
  8
0
100
AcDbLine
 62
7
  6
CONTINUOUS
 10
162.5111125545
 20
204.3619605372
 11
163.0111125545
 21
204.3619605372
  0
LINE
  5
30E
100
AcDbEntity
  8
0
100
AcDbLine
 62
7
  6
CONTINUOUS
 10
162.5111125545
 20
205.2369605074
 11
163.0111125545
 21
205.2369605074
  0
LINE
  5
30F
100
AcDbEntity
  8
0
100
AcDbLine
 62
7
  6
CONTINUOUS
 10
162.5111125545
 20
205.6119605074
 11
163.0111125545
 21
205.6119605074
  0
LINE
  5
310
100
AcDbEntity
  8
0
100
AcDbLine
 62
7
  6
CONTINUOUS
 10
162.5111125545
 20
206.111960567
 11
163.0111125545
 21
206.111960567
  0
LINE
  5
311
100
AcDbEntity
  8
KONSTRUKTIONSELEMENTE
100
AcDbLine
 62
7
  6
CONTINUOUS
 10
176.5111125545
 20
167.091960567
 11
176.5111125545
 21
176.091960567
  0
LINE
  5
312
100
AcDbEntity
  8
0
100
AcDbLine
 62
7
  6
CONTINUOUS
 10
162.5111125545
 20
206.486960567
 11
163.0111125545
 21
206.486960567
  0
LINE
  5
313
100
AcDbEntity
  8
0
100
AcDbLine
 62
7
  6
CONTINUOUS
 10
162.5111125545
 20
206.9869604478
 11
163.0111125545
 21
206.9869604478
  0
LINE
  5
314
100
AcDbEntity
  8
0
100
AcDbLine
 62
7
  6
CONTINUOUS
 10
162.5111125545
 20
208.4869604478
 11
163.0111125545
 21
208.4869604478
  0
LINE
  5
315
100
AcDbEntity
  8
0
100
AcDbLine
 62
7
  6
CONTINUOUS
 10
162.5111125545
 20
208.7994606862
 11
163.0111125545
 21
208.7994606862
  0
LINE
  5
316
100
AcDbEntity
  8
0
100
AcDbLine
 62
7
  6
CONTINUOUS
 10
162.5111125545
 20
209.0494604478
 11
163.0111125545
 21
209.0494604478
  0
LINE
  5
317
100
AcDbEntity
  8
0
100
AcDbLine
 62
7
  6
CONTINUOUS
 10
162.5111125545
 20
209.2369608054
 11
163.0111125545
 21
209.2369608054
  0
LINE
  5
318
100
AcDbEntity
  8
0
100
AcDbLine
 62
7
  6
CONTINUOUS
 10
162.5111125545
 20
209.299460567
 11
163.0111125545
 21
209.299460567
  0
LINE
  5
319
100
AcDbEntity
  8
0
100
AcDbLine
 62
7
  6
CONTINUOUS
 10
162.5111125545
 20
209.8212715341
 11
163.0111125545
 21
209.8212715341
  0
LINE
  5
31A
100
AcDbEntity
  8
0
100
AcDbLine
 62
7
  6
CONTINUOUS
 10
162.5111125545
 20
212.0212715341
 11
163.0111125545
 21
212.0212715341
  0
LINE
  5
31B
100
AcDbEntity
  8
0
100
AcDbLine
 62
7
  6
CONTINUOUS
 10
162.5111125545
 20
212.7994608054
 11
163.0111125545
 21
212.7994608054
  0
LINE
  5
31C
100
AcDbEntity
  8
0
100
AcDbLine
 62
7
  6
CONTINUOUS
 10
162.5111125545
 20
212.861960567
 11
163.0111125545
 21
212.861960567
  0
LINE
  5
31D
100
AcDbEntity
  8
0
100
AcDbLine
 62
7
  6
CONTINUOUS
 10
162.5111125545
 20
212.9869608054
 11
163.0111125545
 21
212.9869608054
  0
LINE
  5
31E
100
AcDbEntity
  8
0
100
AcDbLine
 62
7
  6
CONTINUOUS
 10
162.5111125545
 20
213.1744608054
 11
163.0111125545
 21
213.1744608054
  0
LINE
  5
31F
100
AcDbEntity
  8
0
100
AcDbLine
 62
7
  6
CONTINUOUS
 10
162.5111125545
 20
213.4869603286
 11
163.0111125545
 21
213.4869603286
  0
LINE
  5
320
100
AcDbEntity
  8
0
100
AcDbLine
 62
7
  6
CONTINUOUS
 10
162.5111125545
 20
213.799460567
 11
163.0111125545
 21
213.799460567
  0
LINE
  5
321
100
AcDbEntity
  8
0
100
AcDbLine
 62
7
  6
CONTINUOUS
 10
162.5111125545
 20
214.0494603286
 11
163.0111125545
 21
214.0494603286
  0
LINE
  5
322
100
AcDbEntity
  8
0
100
AcDbLine
 62
7
  6
CONTINUOUS
 10
162.5111125545
 20
214.361960567
 11
163.0111125545
 21
214.361960567
  0
LINE
  5
323
100
AcDbEntity
  8
0
100
AcDbLine
 62
7
  6
CONTINUOUS
 10
162.5111125545
 20
214.6744608054
 11
163.0111125545
 21
214.6744608054
  0
LINE
  5
324
100
AcDbEntity
  8
0
100
AcDbLine
 62
7
  6
CONTINUOUS
 10
162.5111125545
 20
214.8619608054
 11
163.0111125545
 21
214.8619608054
  0
LINE
  5
325
100
AcDbEntity
  8
0
100
AcDbLine
 62
7
  6
CONTINUOUS
 10
162.5111125545
 20
214.924460567
 11
163.0111125545
 21
214.924460567
  0
LINE
  5
326
100
AcDbEntity
  8
0
100
AcDbLine
 62
7
  6
CONTINUOUS
 10
162.5111125545
 20
215.0494608054
 11
163.0111125545
 21
215.0494608054
  0
LINE
  5
327
100
AcDbEntity
  8
FASEN
100
AcDbLine
 62
7
  6
CONTINUOUS
 10
161.0111125545
 20
143.091960567
 11
161.5111125545
 21
143.591960567
  0
LINE
  5
328
100
AcDbEntity
  8
FASEN
100
AcDbLine
 62
7
  6
CONTINUOUS
 10
270.6227739371
 20
143.091960567
 11
255.6234508603
 21
143.091960567
  0
LINE
  5
329
100
AcDbEntity
  8
FASEN
100
AcDbLine
 62
7
  6
CONTINUOUS
 10
271.1231123987
 20
143.591960567
 11
255.1231123987
 21
143.591960567
  0
LINE
  5
32A
100
AcDbEntity
  8
FASEN
100
AcDbLine
 62
7
  6
CONTINUOUS
 10
255.6231123987
 20
143.091960567
 11
255.1231123987
 21
143.591960567
  0
LINE
  5
32B
100
AcDbEntity
  8
RUNDUNGEN
100
AcDbLine
 62
7
  6
CONTINUOUS
 10
248.4744372642
 20
228.7919605672
 11
247.4780488892
 21
227.0661652776
  0
LINE
  5
32C
100
AcDbEntity
  8
RUNDUNGEN
100
AcDbLine
 62
7
  6
CONTINUOUS
 10
246.674201312
 20
212.7070240764
 11
243.5070869949
 21
207.221421166
  0
LINE
  5
32D
100
AcDbEntity
  8
KONSTRUKTIONSELEMENTE
100
AcDbLine
 62
7
  6
CONTINUOUS
 10
242.6231123987
 20
167.091960567
 11
242.6231123987
 21
176.091960567
  0
LINE
  5
32E
100
AcDbEntity
  8
0
100
AcDbLine
 62
7
  6
CONTINUOUS
 10
243.3731123987
 20
206.721421166
 11
243.3731123987
 21
176.091960567
  0
LINE
  5
32F
100
AcDbEntity
  8
KONSTRUKTIONSELEMENTE
100
AcDbLine
 62
7
  6
CONTINUOUS
 10
243.7859438246
 20
167.091960567
 11
243.7859438246
 21
176.091960567
  0
LINE
  5
330
100
AcDbEntity
  8
RUNDUNGEN
100
AcDbLine
 62
7
  6
CONTINUOUS
 10
259.6094020497
 20
214.3454022788
 11
257.1780682645
 21
211.6451325492
  0
LINE
  5
331
100
AcDbEntity
  8
0
100
AcDbLine
 62
7
  6
CONTINUOUS
 10
276.9184035857
 20
169.591960567
 11
277.3243533035
 21
169.6877052448
  0
LINE
  5
332
100
AcDbEntity
  8
0
100
AcDbLine
 62
7
  6
CONTINUOUS
 10
276.6684035857
 20
169.591960567
 11
277.0743533035
 21
169.6877052448
  0
LINE
  5
333
100
AcDbEntity
  8
KONSTRUKTIONSELEMENTE
100
AcDbLine
 62
7
  6
CONTINUOUS
 10
242.6231123987
 20
167.091960567
 11
283.6231123987
 21
167.091960567
  0
LINE
  5
334
100
AcDbEntity
  8
0
100
AcDbLine
 62
7
  6
CONTINUOUS
 10
248.418494228
 20
170.1664286497
 11
248.7342326263
 21
170.091960567
  0
LINE
  5
335
100
AcDbEntity
  8
0
100
AcDbLine
 62
7
  6
CONTINUOUS
 10
248.7342326263
 20
170.5387690765
 11
248.4816418986
 21
170.6132371527
  0
LINE
  5
336
100
AcDbEntity
  8
0
100
AcDbLine
 62
7
  6
CONTINUOUS
 10
248.9842326263
 20
170.5387690765
 11
248.7316418986
 21
170.6132371527
  0
LINE
  5
337
100
AcDbEntity
  8
0
100
AcDbLine
 62
7
  6
CONTINUOUS
 10
248.3553465574
 20
171.8791946051
 11
248.6079372851
 21
171.7302584526
  0
LINE
  5
338
100
AcDbEntity
  8
0
100
AcDbLine
 62
7
  6
CONTINUOUS
 10
249.807743253
 20
171.8791946051
 11
249.5551525705
 21
172.0281307575
  0
LINE
  5
339
100
AcDbEntity
  8
0
100
AcDbLine
 62
7
  6
CONTINUOUS
 10
250.057743253
 20
171.8791946051
 11
249.8051525705
 21
172.0281307575
  0
LINE
  5
33A
100
AcDbEntity
  8
0
100
AcDbLine
 62
7
  6
CONTINUOUS
 10
248.1027558071
 20
170.389832898
 11
248.418494228
 21
170.1664286497
  0
LINE
  5
33B
100
AcDbEntity
  8
0
100
AcDbLine
 62
7
  6
CONTINUOUS
 10
248.6710850009
 20
172.17706691
 11
248.4816418986
 21
172.3260030625
  0
LINE
  5
33C
100
AcDbEntity
  8
0
100
AcDbLine
 62
7
  6
CONTINUOUS
 10
249.492004945
 20
171.5813223002
 11
249.6814480021
 21
171.4323861477
  0
LINE
  5
33D
100
AcDbEntity
  8
0
100
AcDbLine
 62
7
  6
CONTINUOUS
 10
248.9210850009
 20
172.17706691
 11
248.7316418986
 21
172.3260030625
  0
LINE
  5
33E
100
AcDbEntity
  8
0
100
AcDbLine
 62
7
  6
CONTINUOUS
 10
248.4816418986
 20
170.6132371527
 11
248.2921988416
 21
170.8366414336
  0
LINE
  5
33F
100
AcDbEntity
  8
0
100
AcDbLine
 62
7
  6
CONTINUOUS
 10
248.7316418986
 20
170.6132371527
 11
248.5421988416
 21
170.8366414336
  0
LINE
  5
340
100
AcDbEntity
  8
0
100
AcDbLine
 62
7
  6
CONTINUOUS
 10
248.1027558071
 20
172.17706691
 11
248.3553465574
 21
171.8791946051
  0
LINE
  5
341
100
AcDbEntity
  8
0
100
AcDbLine
 62
7
  6
CONTINUOUS
 10
250.0603341162
 20
171.5813223002
 11
249.807743253
 21
171.8791946051
  0
LINE
  5
342
100
AcDbEntity
  8
0
100
AcDbLine
 62
7
  6
CONTINUOUS
 10
250.3103341162
 20
171.5813223002
 11
250.057743253
 21
171.8791946051
  0
LINE
  5
343
100
AcDbEntity
  8
0
100
AcDbLine
 62
7
  6
CONTINUOUS
 10
249.4288571389
 20
173.0706840334
 11
249.5551525705
 21
172.9217478809
  0
LINE
  5
344
100
AcDbEntity
  8
0
100
AcDbLine
 62
7
  6
CONTINUOUS
 10
249.6814480021
 20
171.4323861477
 11
249.807743253
 21
171.2089818147
  0
LINE
  5
345
100
AcDbEntity
  8
0
100
AcDbLine
 62
7
  6
CONTINUOUS
 10
247.9133127443
 20
170.7621733573
 11
248.1027558071
 21
170.389832898
  0
LINE
  5
346
100
AcDbEntity
  8
0
100
AcDbLine
 62
7
  6
CONTINUOUS
 10
245.0788837647
 20
174.846410198
 11
245.0788837647
 21
169.091960567
  0
LINE
  5
347
100
AcDbEntity
  8
0
100
AcDbLine
 62
7
  6
CONTINUOUS
 10
245.3288837647
 20
174.846410198
 11
245.3288837647
 21
169.091960567
  0
LINE
  5
348
100
AcDbEntity
  8
RUNDUNGEN
100
AcDbLine
 62
7
  6
CONTINUOUS
 10
247.1431123987
 20
225.8161625486
 11
247.1431123987
 21
214.4570240764
  0
LINE
  5
349
100
AcDbEntity
  8
0
100
AcDbLine
 62
7
  6
CONTINUOUS
 10
276.5124543326
 20
172.4643009183
 11
276.1065050794
 21
172.3685562489
  0
LINE
  5
34A
100
AcDbEntity
  8
0
100
AcDbLine
 62
7
  6
CONTINUOUS
 10
245.0788837647
 20
169.091960567
 11
260.6673410328
 21
169.091960567
  0
LINE
  5
34B
100
AcDbEntity
  8
0
100
AcDbLine
 62
7
  6
CONTINUOUS
 10
269.0429853798
 20
169.591960567
 11
269.5301246694
 21
169.591960567
  0
LINE
  5
34C
100
AcDbEntity
  8
0
100
AcDbLine
 62
7
  6
CONTINUOUS
 10
270.6667829732
 20
169.591960567
 11
271.3163019873
 21
169.591960567
  0
LINE
  5
34D
100
AcDbEntity
  8
0
100
AcDbLine
 62
7
  6
CONTINUOUS
 10
272.4529604072
 20
169.591960567
 11
272.9400996968
 21
169.591960567
  0
LINE
  5
34E
100
AcDbEntity
  8
0
100
AcDbLine
 62
7
  6
CONTINUOUS
 10
274.0767578844
 20
169.591960567
 11
274.5638971741
 21
169.591960567
  0
LINE
  5
34F
100
AcDbEntity
  8
0
100
AcDbLine
 62
7
  6
CONTINUOUS
 10
276.5124543326
 20
169.591960567
 11
276.9184035857
 21
169.591960567
  0
LINE
  5
350
100
AcDbEntity
  8
0
100
AcDbLine
 62
7
  6
CONTINUOUS
 10
277.3243533035
 20
169.6877052448
 11
277.0743533035
 21
169.6877052448
  0
LINE
  5
351
100
AcDbEntity
  8
0
100
AcDbLine
 62
7
  6
CONTINUOUS
 10
277.7303030212
 20
169.9749392783
 11
277.4803030212
 21
169.9749392783
  0
LINE
  5
352
100
AcDbEntity
  8
0
100
AcDbLine
 62
7
  6
CONTINUOUS
 10
276.9995940868
 20
170.0706839812
 11
276.1812647607
 21
170.0706839812
  0
LINE
  5
353
100
AcDbEntity
  8
0
100
AcDbLine
 62
7
  6
CONTINUOUS
 10
270.9915425383
 20
170.0706839812
 11
270.7415425383
 21
170.0706839812
  0
LINE
  5
354
100
AcDbEntity
  8
0
100
AcDbLine
 62
7
  6
CONTINUOUS
 10
248.7342326263
 20
170.091960567
 11
249.4894141721
 21
170.091960567
  0
LINE
  5
355
100
AcDbEntity
  8
0
100
AcDbLine
 62
7
  6
CONTINUOUS
 10
251.196992278
 20
170.091960567
 11
251.9521740045
 21
170.091960567
  0
LINE
  5
356
100
AcDbEntity
  8
0
100
AcDbLine
 62
7
  6
CONTINUOUS
 10
252.7125367346
 20
170.091960567
 11
253.4677184611
 21
170.091960567
  0
LINE
  5
357
100
AcDbEntity
  8
0
100
AcDbLine
 62
7
  6
CONTINUOUS
 10
255.7436260092
 20
170.091960567
 11
256.3725121234
 21
170.091960567
  0
LINE
  5
358
100
AcDbEntity
  8
0
100
AcDbLine
 62
7
  6
CONTINUOUS
 10
257.63805658
 20
170.091960567
 11
258.2669426942
 21
170.091960567
  0
LINE
  5
359
100
AcDbEntity
  8
0
100
AcDbLine
 62
7
  6
CONTINUOUS
 10
276.1876951159
 20
170.1664286507
 11
275.9376951159
 21
170.1664286507
  0
LINE
  5
35A
100
AcDbEntity
  8
0
100
AcDbLine
 62
7
  6
CONTINUOUS
 10
249.8051525705
 20
170.1664286497
 11
249.5551525705
 21
170.1664286497
  0
LINE
  5
35B
100
AcDbEntity
  8
0
100
AcDbLine
 62
7
  6
CONTINUOUS
 10
250.057743253
 20
170.3153648217
 11
249.807743253
 21
170.3153648217
  0
LINE
  5
35C
100
AcDbEntity
  8
0
100
AcDbLine
 62
7
  6
CONTINUOUS
 10
277.973872666
 20
170.3579179895
 11
277.723872666
 21
170.3579179895
  0
LINE
  5
35D
100
AcDbEntity
  8
0
100
AcDbLine
 62
7
  6
CONTINUOUS
 10
275.9441254711
 20
170.3579179895
 11
275.6941254711
 21
170.3579179895
  0
LINE
  5
35E
100
AcDbEntity
  8
0
100
AcDbLine
 62
7
  6
CONTINUOUS
 10
249.2394141721
 20
170.5387690765
 11
248.7342326263
 21
170.5387690765
  0
LINE
  5
35F
100
AcDbEntity
  8
0
100
AcDbLine
 62
7
  6
CONTINUOUS
 10
250.3103341162
 20
170.6132371527
 11
250.0603341162
 21
170.6132371527
  0
LINE
  5
360
100
AcDbEntity
  8
0
100
AcDbLine
 62
7
  6
CONTINUOUS
 10
248.7316418986
 20
170.6132371527
 11
248.4816418986
 21
170.6132371527
  0
LINE
  5
361
100
AcDbEntity
  8
0
100
AcDbLine
 62
7
  6
CONTINUOUS
 10
275.7817453981
 20
170.6451520649
 11
275.5317453981
 21
170.6451520649
  0
LINE
  5
362
100
AcDbEntity
  8
0
100
AcDbLine
 62
7
  6
CONTINUOUS
 10
249.5551525705
 20
172.0281307575
 11
249.2394141721
 21
172.1025988338
  0
LINE
  5
363
100
AcDbEntity
  8
0
100
AcDbLine
 62
7
  6
CONTINUOUS
 10
249.8051525705
 20
172.0281307575
 11
249.4894141721
 21
172.1025988338
  0
LINE
  5
364
100
AcDbEntity
  8
0
100
AcDbLine
 62
7
  6
CONTINUOUS
 10
248.6079372851
 20
171.7302584526
 11
248.860528058
 21
171.6557903764
  0
LINE
  5
365
100
AcDbEntity
  8
0
100
AcDbLine
 62
7
  6
CONTINUOUS
 10
249.2394141721
 20
171.6557903764
 11
249.492004945
 21
171.5813223002
  0
LINE
  5
366
100
AcDbEntity
  8
0
100
AcDbLine
 62
7
  6
CONTINUOUS
 10
248.860528058
 20
172.1025988338
 11
248.6710850009
 21
172.17706691
  0
LINE
  5
367
100
AcDbEntity
  8
0
100
AcDbLine
 62
7
  6
CONTINUOUS
 10
249.110528058
 20
172.1025988338
 11
248.9210850009
 21
172.17706691
  0
LINE
  5
368
100
AcDbEntity
  8
0
100
AcDbLine
 62
7
  6
CONTINUOUS
 10
249.2394141721
 20
173.1451521096
 11
249.4288571389
 21
173.0706840334
  0
LINE
  5
369
100
AcDbEntity
  8
0
100
AcDbLine
 62
7
  6
CONTINUOUS
 10
249.7445956275
 20
173.2940882621
 11
249.492004945
 21
173.5174924907
  0
LINE
  5
36A
100
AcDbEntity
  8
0
100
AcDbLine
 62
7
  6
CONTINUOUS
 10
249.9945956275
 20
173.2940882621
 11
249.742004945
 21
173.5174924907
  0
LINE
  5
36B
100
AcDbEntity
  8
0
100
AcDbLine
 62
7
  6
CONTINUOUS
 10
249.9340386846
 20
172.9962159571
 11
249.7445956275
 21
173.2940882621
  0
LINE
  5
36C
100
AcDbEntity
  8
0
100
AcDbLine
 62
7
  6
CONTINUOUS
 10
250.1840386846
 20
172.9962159571
 11
249.9945956275
 21
173.2940882621
  0
LINE
  5
36D
100
AcDbEntity
  8
0
100
AcDbLine
 62
7
  6
CONTINUOUS
 10
250.1866293672
 20
171.2834498909
 11
250.0603341162
 21
171.5813223002
  0
LINE
  5
36E
100
AcDbEntity
  8
0
100
AcDbLine
 62
7
  6
CONTINUOUS
 10
249.5551525705
 20
172.9217478809
 11
249.6183001959
 21
172.7728117285
  0
LINE
  5
36F
100
AcDbEntity
  8
0
100
AcDbLine
 62
7
  6
CONTINUOUS
 10
250.4366293672
 20
171.2834498909
 11
250.3103341162
 21
171.5813223002
  0
LINE
  5
370
100
AcDbEntity
  8
0
100
AcDbLine
 62
7
  6
CONTINUOUS
 10
248.2921988416
 20
170.8366414336
 11
248.2290511709
 21
171.0600456623
  0
LINE
  5
371
100
AcDbEntity
  8
0
100
AcDbLine
 62
7
  6
CONTINUOUS
 10
248.5421988416
 20
170.8366414336
 11
248.4790511709
 21
171.0600456623
  0
LINE
  5
372
100
AcDbEntity
  8
0
100
AcDbLine
 62
7
  6
CONTINUOUS
 10
248.4816418986
 20
172.3260030625
 11
248.418494228
 21
172.5494072911
  0
LINE
  5
373
100
AcDbEntity
  8
0
100
AcDbLine
 62
7
  6
CONTINUOUS
 10
248.7316418986
 20
172.3260030625
 11
248.668494228
 21
172.5494072911
  0
LINE
  5
374
100
AcDbEntity
  8
0
100
AcDbLine
 62
7
  6
CONTINUOUS
 10
249.9971863101
 20
172.7728117285
 11
249.9340386846
 21
172.9962159571
  0
LINE
  5
375
100
AcDbEntity
  8
0
100
AcDbLine
 62
7
  6
CONTINUOUS
 10
250.2471863101
 20
172.7728117285
 11
250.1840386846
 21
172.9962159571
  0
LINE
  5
376
100
AcDbEntity
  8
0
100
AcDbLine
 62
7
  6
CONTINUOUS
 10
247.8501650568
 20
171.0600456623
 11
247.9133127443
 21
170.7621733573
  0
LINE
  5
377
100
AcDbEntity
  8
0
100
AcDbLine
 62
7
  6
CONTINUOUS
 10
248.0396081138
 20
172.4749392149
 11
248.1027558071
 21
172.17706691
  0
LINE
  5
378
100
AcDbEntity
  8
0
100
AcDbLine
 62
7
  6
CONTINUOUS
 10
248.0396081138
 20
172.7728117285
 11
248.0396081138
 21
172.4749392149
  0
LINE
  5
379
100
AcDbEntity
  8
0
100
AcDbLine
 62
7
  6
CONTINUOUS
 10
248.418494228
 20
172.5494072911
 11
248.418494228
 21
172.6983434436
  0
LINE
  5
37A
100
AcDbEntity
  8
0
100
AcDbLine
 62
7
  6
CONTINUOUS
 10
248.668494228
 20
172.5494072911
 11
248.668494228
 21
172.6983434436
  0
LINE
  5
37B
100
AcDbEntity
  8
0
100
AcDbLine
 62
7
  6
CONTINUOUS
 10
249.807743253
 20
171.2089818147
 11
249.807743253
 21
170.985577586
  0
LINE
  5
37C
100
AcDbEntity
  8
0
100
AcDbLine
 62
7
  6
CONTINUOUS
 10
250.1866293672
 20
170.9111095098
 11
250.1866293672
 21
171.2834498909
  0
LINE
  5
37D
100
AcDbEntity
  8
0
100
AcDbLine
 62
7
  6
CONTINUOUS
 10
250.4366293672
 20
170.9111095098
 11
250.4366293672
 21
171.2834498909
  0
LINE
  5
37E
100
AcDbEntity
  8
0
100
AcDbLine
 62
7
  6
CONTINUOUS
 10
276.5124543326
 20
174.091960567
 11
276.1065050794
 21
173.9962158975
  0
LINE
  5
37F
100
AcDbEntity
  8
0
100
AcDbLine
 62
7
  6
CONTINUOUS
 10
249.4894141721
 20
170.091960567
 11
249.8051525705
 21
170.1664286497
  0
LINE
  5
380
100
AcDbEntity
  8
0
100
AcDbLine
 62
7
  6
CONTINUOUS
 10
249.2394141721
 20
170.091960567
 11
249.5551525705
 21
170.1664286497
  0
LINE
  5
381
100
AcDbEntity
  8
0
100
AcDbLine
 62
7
  6
CONTINUOUS
 10
278.1362518098
 20
170.8366414038
 11
277.8862518098
 21
170.8366414038
  0
LINE
  5
382
100
AcDbEntity
  8
0
100
AcDbLine
 62
7
  6
CONTINUOUS
 10
248.5421988416
 20
170.8366414336
 11
248.2921988416
 21
170.8366414336
  0
LINE
  5
383
100
AcDbEntity
  8
0
100
AcDbLine
 62
7
  6
CONTINUOUS
 10
250.4366293672
 20
170.9111095098
 11
250.1866293672
 21
170.9111095098
  0
LINE
  5
384
100
AcDbEntity
  8
0
100
AcDbLine
 62
7
  6
CONTINUOUS
 10
275.7005558262
 20
170.9323860732
 11
275.4505558262
 21
170.9323860732
  0
LINE
  5
385
100
AcDbEntity
  8
0
100
AcDbLine
 62
7
  6
CONTINUOUS
 10
248.4790511709
 20
171.0600456623
 11
247.8501650568
 21
171.0600456623
  0
LINE
  5
386
100
AcDbEntity
  8
0
100
AcDbLine
 62
7
  6
CONTINUOUS
 10
254.2280815526
 20
171.1345137385
 11
255.7436260092
 21
171.1345137385
  0
LINE
  5
387
100
AcDbEntity
  8
0
100
AcDbLine
 62
7
  6
CONTINUOUS
 10
256.1225121234
 20
171.1345137385
 11
257.0039887394
 21
171.1345137385
  0
LINE
  5
388
100
AcDbEntity
  8
0
100
AcDbLine
 62
7
  6
CONTINUOUS
 10
275.7005558262
 20
171.2196200815
 11
275.4505558262
 21
171.2196200815
  0
LINE
  5
389
100
AcDbEntity
  8
0
100
AcDbLine
 62
7
  6
CONTINUOUS
 10
250.4366293672
 20
171.2834498909
 11
250.1866293672
 21
171.2834498909
  0
LINE
  5
38A
100
AcDbEntity
  8
0
100
AcDbLine
 62
7
  6
CONTINUOUS
 10
278.1362518098
 20
171.3153648851
 11
277.8862518098
 21
171.3153648851
  0
LINE
  5
38B
100
AcDbEntity
  8
0
100
AcDbLine
 62
7
  6
CONTINUOUS
 10
275.7817453981
 20
171.5068542239
 11
275.5317453981
 21
171.5068542239
  0
LINE
  5
38C
100
AcDbEntity
  8
0
100
AcDbLine
 62
7
  6
CONTINUOUS
 10
257.0039887394
 20
171.5813223002
 11
256.1225121234
 21
171.5813223002
  0
LINE
  5
38D
100
AcDbEntity
  8
0
100
AcDbLine
 62
7
  6
CONTINUOUS
 10
255.7436260092
 20
171.5813223002
 11
254.6701151116
 21
171.5813223002
  0
LINE
  5
38E
100
AcDbEntity
  8
0
100
AcDbLine
 62
7
  6
CONTINUOUS
 10
250.3103341162
 20
171.5813223002
 11
250.0603341162
 21
171.5813223002
  0
LINE
  5
38F
100
AcDbEntity
  8
0
100
AcDbLine
 62
7
  6
CONTINUOUS
 10
248.860528058
 20
171.6557903764
 11
249.2394141721
 21
171.6557903764
  0
LINE
  5
390
100
AcDbEntity
  8
0
100
AcDbLine
 62
7
  6
CONTINUOUS
 10
275.9441254711
 20
171.6983435628
 11
275.6941254711
 21
171.6983435628
  0
LINE
  5
391
100
AcDbEntity
  8
0
100
AcDbLine
 62
7
  6
CONTINUOUS
 10
277.973872666
 20
171.7940882323
 11
277.723872666
 21
171.7940882323
  0
LINE
  5
392
100
AcDbEntity
  8
0
100
AcDbLine
 62
7
  6
CONTINUOUS
 10
250.057743253
 20
171.8791946051
 11
249.807743253
 21
171.8791946051
  0
LINE
  5
393
100
AcDbEntity
  8
0
100
AcDbLine
 62
7
  6
CONTINUOUS
 10
276.1876951159
 20
171.8898329017
 11
275.9376951159
 21
171.8898329017
  0
LINE
  5
394
100
AcDbEntity
  8
0
100
AcDbLine
 62
7
  6
CONTINUOUS
 10
275.6193657898
 20
171.9855775711
 11
275.3693657898
 21
171.9855775711
  0
LINE
  5
395
100
AcDbEntity
  8
0
100
AcDbLine
 62
7
  6
CONTINUOUS
 10
276.1812647607
 20
171.9855775711
 11
276.9995940868
 21
171.9855775711
  0
LINE
  5
396
100
AcDbEntity
  8
0
100
AcDbLine
 62
7
  6
CONTINUOUS
 10
249.8051525705
 20
172.0281307575
 11
249.5551525705
 21
172.0281307575
  0
LINE
  5
397
100
AcDbEntity
  8
0
100
AcDbLine
 62
7
  6
CONTINUOUS
 10
277.7303030212
 20
172.0813222406
 11
277.4803030212
 21
172.0813222406
  0
LINE
  5
398
100
AcDbEntity
  8
0
100
AcDbLine
 62
7
  6
CONTINUOUS
 10
249.4894141721
 20
172.1025988338
 11
248.860528058
 21
172.1025988338
  0
LINE
  5
399
100
AcDbEntity
  8
0
100
AcDbLine
 62
7
  6
CONTINUOUS
 10
275.6193657898
 20
172.17706691
 11
275.3693657898
 21
172.17706691
  0
LINE
  5
39A
100
AcDbEntity
  8
0
100
AcDbLine
 62
7
  6
CONTINUOUS
 10
248.9210850009
 20
172.17706691
 11
248.6710850009
 21
172.17706691
  0
LINE
  5
39B
100
AcDbEntity
  8
0
100
AcDbLine
 62
7
  6
CONTINUOUS
 10
248.7316418986
 20
172.3260030625
 11
248.4816418986
 21
172.3260030625
  0
LINE
  5
39C
100
AcDbEntity
  8
0
100
AcDbLine
 62
7
  6
CONTINUOUS
 10
277.3243533035
 20
172.3685562489
 11
277.0743533035
 21
172.3685562489
  0
LINE
  5
39D
100
AcDbEntity
  8
0
100
AcDbLine
 62
7
  6
CONTINUOUS
 10
276.9184035857
 20
172.4643009183
 11
276.5124543326
 21
172.4643009183
  0
LINE
  5
39E
100
AcDbEntity
  8
0
100
AcDbLine
 62
7
  6
CONTINUOUS
 10
257.5091704659
 20
172.4749392149
 11
257.2591704658
 21
172.4749392149
  0
LINE
  5
39F
100
AcDbEntity
  8
0
100
AcDbLine
 62
7
  6
CONTINUOUS
 10
248.668494228
 20
172.5494072911
 11
248.418494228
 21
172.5494072911
  0
LINE
  5
3A0
100
AcDbEntity
  8
0
100
AcDbLine
 62
7
  6
CONTINUOUS
 10
248.668494228
 20
172.6983434436
 11
248.418494228
 21
172.6983434436
  0
LINE
  5
3A1
100
AcDbEntity
  8
0
100
AcDbLine
 62
7
  6
CONTINUOUS
 10
275.7005558262
 20
172.7515349266
 11
275.4505558262
 21
172.7515349266
  0
LINE
  5
3A2
100
AcDbEntity
  8
0
100
AcDbLine
 62
7
  6
CONTINUOUS
 10
249.6183001959
 20
172.7728117285
 11
250.2471863101
 21
172.7728117285
  0
LINE
  5
3A3
100
AcDbEntity
  8
0
100
AcDbLine
 62
7
  6
CONTINUOUS
 10
248.7316418986
 20
172.9217478809
 11
248.4816418986
 21
172.9217478809
  0
LINE
  5
3A4
100
AcDbEntity
  8
0
100
AcDbLine
 62
7
  6
CONTINUOUS
 10
250.1840386846
 20
172.9962159571
 11
249.9340386846
 21
172.9962159571
  0
LINE
  5
3A5
100
AcDbEntity
  8
0
100
AcDbLine
 62
7
  6
CONTINUOUS
 10
275.7817453981
 20
173.0387692032
 11
275.5317453981
 21
173.0387692032
  0
LINE
  5
3A6
100
AcDbEntity
  8
0
100
AcDbLine
 62
7
  6
CONTINUOUS
 10
277.5679229483
 20
173.0387692032
 11
277.973872666
 21
173.0387692032
  0
LINE
  5
3A7
100
AcDbEntity
  8
0
100
AcDbLine
 62
7
  6
CONTINUOUS
 10
248.9210850009
 20
173.0706840334
 11
248.6710850009
 21
173.0706840334
  0
LINE
  5
3A8
100
AcDbEntity
  8
0
100
AcDbLine
 62
7
  6
CONTINUOUS
 10
272.4529604072
 20
173.1345138726
 11
272.2029604072
 21
173.1345138726
  0
LINE
  5
3A9
100
AcDbEntity
  8
0
100
AcDbLine
 62
7
  6
CONTINUOUS
 10
269.5301246694
 20
173.1345138726
 11
269.2801246694
 21
173.1345138726
  0
LINE
  5
3AA
100
AcDbEntity
  8
0
100
AcDbLine
 62
7
  6
CONTINUOUS
 10
248.860528058
 20
173.1451521096
 11
249.2394141721
 21
173.1451521096
  0
LINE
  5
3AB
100
AcDbEntity
  8
0
100
AcDbLine
 62
7
  6
CONTINUOUS
 10
249.9945956275
 20
173.2940882621
 11
249.7445956275
 21
173.2940882621
  0
LINE
  5
3AC
100
AcDbEntity
  8
0
100
AcDbLine
 62
7
  6
CONTINUOUS
 10
277.892682165
 20
173.3260032115
 11
277.642682165
 21
173.3260032115
  0
LINE
  5
3AD
100
AcDbEntity
  8
0
100
AcDbLine
 62
7
  6
CONTINUOUS
 10
275.9441254711
 20
173.3260032115
 11
275.6941254711
 21
173.3260032115
  0
LINE
  5
3AE
100
AcDbEntity
  8
0
100
AcDbLine
 62
7
  6
CONTINUOUS
 10
274.0767578844
 20
173.3260032115
 11
273.8267578844
 21
173.3260032115
  0
LINE
  5
3AF
100
AcDbEntity
  8
0
100
AcDbLine
 62
7
  6
CONTINUOUS
 10
276.1876951159
 20
173.5174925503
 11
275.9376951159
 21
173.5174925503
  0
LINE
  5
3B0
100
AcDbEntity
  8
0
100
AcDbLine
 62
7
  6
CONTINUOUS
 10
249.742004945
 20
173.5174924907
 11
249.492004945
 21
173.5174924907
  0
LINE
  5
3B1
100
AcDbEntity
  8
0
100
AcDbLine
 62
7
  6
CONTINUOUS
 10
258.2669426942
 20
173.591960567
 11
257.63805658
 21
173.591960567
  0
LINE
  5
3B2
100
AcDbEntity
  8
0
100
AcDbLine
 62
7
  6
CONTINUOUS
 10
256.3725121234
 20
173.591960567
 11
255.7436260092
 21
173.591960567
  0
LINE
  5
3B3
100
AcDbEntity
  8
0
100
AcDbLine
 62
7
  6
CONTINUOUS
 10
253.9728998262
 20
173.591960567
 11
253.344013712
 21
173.591960567
  0
LINE
  5
3B4
100
AcDbEntity
  8
0
100
AcDbLine
 62
7
  6
CONTINUOUS
 10
252.7099462328
 20
173.591960567
 11
251.9547645063
 21
173.591960567
  0
LINE
  5
3B5
100
AcDbEntity
  8
0
100
AcDbLine
 62
7
  6
CONTINUOUS
 10
251.3206970271
 20
173.591960567
 11
250.6918109129
 21
173.591960567
  0
LINE
  5
3B6
100
AcDbEntity
  8
0
100
AcDbLine
 62
7
  6
CONTINUOUS
 10
249.4262664563
 20
173.591960567
 11
248.860528058
 21
173.591960567
  0
LINE
  5
3B7
100
AcDbEntity
  8
0
100
AcDbLine
 62
7
  6
CONTINUOUS
 10
276.1812647607
 20
173.6132372198
 11
276.9184035857
 21
173.6132372198
  0
LINE
  5
3B8
100
AcDbEntity
  8
0
100
AcDbLine
 62
7
  6
CONTINUOUS
 10
277.6491125202
 20
173.7089818892
 11
277.3991125202
 21
173.7089818892
  0
LINE
  5
3B9
100
AcDbEntity
  8
0
100
AcDbLine
 62
7
  6
CONTINUOUS
 10
249.492004945
 20
173.5174924907
 11
249.1762664563
 21
173.591960567
  0
LINE
  5
3BA
100
AcDbEntity
  8
0
100
AcDbLine
 62
7
  6
CONTINUOUS
 10
249.742004945
 20
173.5174924907
 11
249.4262664563
 21
173.591960567
  0
LINE
  5
3BB
100
AcDbEntity
  8
0
100
AcDbLine
 62
7
  6
CONTINUOUS
 10
276.1065050794
 20
169.6877052448
 11
276.5124543326
 21
169.591960567
  0
LINE
  5
3BC
100
AcDbEntity
  8
0
100
AcDbLine
 62
7
  6
CONTINUOUS
 10
252.9651275979
 20
170.9111095098
 11
252.4599462328
 21
173.591960567
  0
LINE
  5
3BD
100
AcDbEntity
  8
0
100
AcDbLine
 62
7
  6
CONTINUOUS
 10
253.0722704696
 20
171.6692108765
 11
252.7099462328
 21
173.591960567
  0
LINE
  5
3BE
100
AcDbEntity
  8
0
100
AcDbLine
 62
7
  6
CONTINUOUS
 10
252.2073553696
 20
172.9217478809
 11
252.7125367346
 21
170.091960567
  0
LINE
  5
3BF
100
AcDbEntity
  8
0
100
AcDbLine
 62
7
  6
CONTINUOUS
 10
250.6918109129
 20
173.591960567
 11
251.196992278
 21
170.091960567
  0
LINE
  5
3C0
100
AcDbEntity
  8
0
100
AcDbLine
 62
7
  6
CONTINUOUS
 10
251.4495831412
 20
170.9111095098
 11
251.0706970271
 21
173.591960567
  0
LINE
  5
3C1
100
AcDbEntity
  8
0
100
AcDbLine
 62
7
  6
CONTINUOUS
 10
251.5924402695
 20
171.6692108765
 11
251.3206970271
 21
173.591960567
  0
LINE
  5
3C2
100
AcDbEntity
  8
0
100
AcDbLine
 62
7
  6
CONTINUOUS
 10
251.1231123987
 20
183.591960567
 11
251.1231123987
 21
177.591960567
  0
LINE
  5
3C3
100
AcDbEntity
  8
0
100
AcDbLine
 62
7
  6
CONTINUOUS
 10
251.8731123987
 20
182.9536627707
 11
251.8731123987
 21
181.0387690243
  0
LINE
  5
3C4
100
AcDbEntity
  8
0
100
AcDbLine
 62
7
  6
CONTINUOUS
 10
251.8731123987
 20
180.2728116688
 11
251.8731123987
 21
177.591960567
  0
LINE
  5
3C5
100
AcDbEntity
  8
0
100
AcDbLine
 62
7
  6
CONTINUOUS
 10
248.1027558071
 20
173.0706840334
 11
248.0396081138
 21
172.7728117285
  0
LINE
  5
3C6
100
AcDbEntity
  8
0
100
AcDbLine
 62
7
  6
CONTINUOUS
 10
248.418494228
 20
172.6983434436
 11
248.4816418986
 21
172.9217478809
  0
LINE
  5
3C7
100
AcDbEntity
  8
0
100
AcDbLine
 62
7
  6
CONTINUOUS
 10
248.668494228
 20
172.6983434436
 11
248.7316418986
 21
172.9217478809
  0
LINE
  5
3C8
100
AcDbEntity
  8
0
100
AcDbLine
 62
7
  6
CONTINUOUS
 10
273.1231128755
 20
178.3579180119
 11
272.6231119219
 21
178.2302584526
  0
LINE
  5
3C9
100
AcDbEntity
  8
0
100
AcDbLine
 62
7
  6
CONTINUOUS
 10
273.2481123987
 20
177.7196201374
 11
272.6231119219
 21
177.591960567
  0
LINE
  5
3CA
100
AcDbEntity
  8
0
100
AcDbLine
 62
7
  6
CONTINUOUS
 10
277.2431637316
 20
173.9962158975
 11
276.9931637316
 21
173.9962158975
  0
LINE
  5
3CB
100
AcDbEntity
  8
0
100
AcDbLine
 62
7
  6
CONTINUOUS
 10
276.8372140138
 20
174.091960567
 11
276.5124543326
 21
174.091960567
  0
LINE
  5
3CC
100
AcDbEntity
  8
0
100
AcDbLine
 62
7
  6
CONTINUOUS
 10
274.5638971741
 20
174.091960567
 11
274.0767578844
 21
174.091960567
  0
LINE
  5
3CD
100
AcDbEntity
  8
0
100
AcDbLine
 62
7
  6
CONTINUOUS
 10
272.9400996968
 20
174.091960567
 11
272.2093907624
 21
174.091960567
  0
LINE
  5
3CE
100
AcDbEntity
  8
0
100
AcDbLine
 62
7
  6
CONTINUOUS
 10
269.7736943142
 20
174.091960567
 11
269.0429853798
 21
174.091960567
  0
LINE
  5
3CF
100
AcDbEntity
  8
0
100
AcDbLine
 62
7
  6
CONTINUOUS
 10
260.6673410328
 20
174.846410198
 11
245.0788837647
 21
174.846410198
  0
LINE
  5
3D0
100
AcDbEntity
  8
KONSTRUKTIONSELEMENTE
100
AcDbLine
 62
7
  6
CONTINUOUS
 10
242.6231123987
 20
176.091960567
 11
283.6231123987
 21
176.091960567
  0
LINE
  5
3D1
100
AcDbEntity
  8
0
100
AcDbLine
 62
7
  6
CONTINUOUS
 10
268.2481128755
 20
176.8260031221
 11
267.6231123987
 21
176.8260031221
  0
LINE
  5
3D2
100
AcDbEntity
  8
0
100
AcDbLine
 62
7
  6
CONTINUOUS
 10
277.0743533035
 20
172.3685562489
 11
276.6684035857
 21
172.4643009183
  0
LINE
  5
3D3
100
AcDbEntity
  8
0
100
AcDbLine
 62
7
  6
CONTINUOUS
 10
277.3243533035
 20
172.3685562489
 11
276.9184035857
 21
172.4643009183
  0
LINE
  5
3D4
100
AcDbEntity
  8
0
100
AcDbLine
 62
7
  6
CONTINUOUS
 10
276.1812647607
 20
170.0706839812
 11
275.9376951159
 21
170.1664286507
  0
LINE
  5
3D5
100
AcDbEntity
  8
0
100
AcDbLine
 62
7
  6
CONTINUOUS
 10
276.4312647607
 20
170.0706839812
 11
276.1876951159
 21
170.1664286507
  0
LINE
  5
3D6
100
AcDbEntity
  8
0
100
AcDbLine
 62
7
  6
CONTINUOUS
 10
254.2280815526
 20
171.5813223002
 11
254.2280815526
 21
171.1345137385
  0
LINE
  5
3D7
100
AcDbEntity
  8
0
100
AcDbLine
 62
7
  6
CONTINUOUS
 10
254.9981122795
 20
182.1877054152
 11
254.9981122795
 21
181.8047263798
  0
LINE
  5
3D8
100
AcDbEntity
  8
0
100
AcDbLine
 62
7
  6
CONTINUOUS
 10
255.1231123987
 20
190.591960567
 11
255.1231123987
 21
184.591960567
  0
LINE
  5
3D9
100
AcDbEntity
  8
0
100
AcDbLine
 62
7
  6
CONTINUOUS
 10
255.1231123987
 20
167.091960567
 11
255.1231123987
 21
143.591960567
  0
LINE
  5
3DA
100
AcDbEntity
  8
0
100
AcDbLine
 62
7
  6
CONTINUOUS
 10
255.7436260092
 20
172.9962159571
 11
255.7436260092
 21
171.5813223002
  0
LINE
  5
3DB
100
AcDbEntity
  8
0
100
AcDbLine
 62
7
  6
CONTINUOUS
 10
255.7436260092
 20
171.1345137385
 11
255.7436260092
 21
170.091960567
  0
LINE
  5
3DC
100
AcDbEntity
  8
0
100
AcDbLine
 62
7
  6
CONTINUOUS
 10
255.7481122795
 20
182.1877054152
 11
255.7481122795
 21
181.6770668206
  0
LINE
  5
3DD
100
AcDbEntity
  8
0
100
AcDbLine
 62
7
  6
CONTINUOUS
 10
255.8731123987
 20
189.9536627707
 11
255.8731123987
 21
188.0387690243
  0
LINE
  5
3DE
100
AcDbEntity
  8
0
100
AcDbLine
 62
7
  6
CONTINUOUS
 10
255.8731123987
 20
187.2728116688
 11
255.8731123987
 21
184.591960567
  0
LINE
  5
3DF
100
AcDbEntity
  8
0
100
AcDbLine
 62
7
  6
CONTINUOUS
 10
256.1225121234
 20
170.091960567
 11
256.1225121234
 21
171.1345137385
  0
LINE
  5
3E0
100
AcDbEntity
  8
0
100
AcDbLine
 62
7
  6
CONTINUOUS
 10
256.1225121234
 20
171.5813223002
 11
256.1225121234
 21
173.591960567
  0
LINE
  5
3E1
100
AcDbEntity
  8
0
100
AcDbLine
 62
7
  6
CONTINUOUS
 10
256.3725121234
 20
170.091960567
 11
256.3725121234
 21
171.1345137385
  0
LINE
  5
3E2
100
AcDbEntity
  8
0
100
AcDbLine
 62
7
  6
CONTINUOUS
 10
256.3725121234
 20
171.5813223002
 11
256.3725121234
 21
173.591960567
  0
LINE
  5
3E3
100
AcDbEntity
  8
0
100
AcDbLine
 62
7
  6
CONTINUOUS
 10
256.7481123987
 20
183.591960567
 11
256.7481123987
 21
177.591960567
  0
LINE
  5
3E4
100
AcDbEntity
  8
0
100
AcDbLine
 62
7
  6
CONTINUOUS
 10
256.7539887394
 20
171.1345137385
 11
256.7539887394
 21
171.5813223002
  0
LINE
  5
3E5
100
AcDbEntity
  8
0
100
AcDbLine
 62
7
  6
CONTINUOUS
 10
257.0039887394
 20
171.1345137385
 11
257.0039887394
 21
171.5813223002
  0
LINE
  5
3E6
100
AcDbEntity
  8
0
100
AcDbLine
 62
7
  6
CONTINUOUS
 10
253.344013712
 20
173.591960567
 11
252.9651275979
 21
170.9111095098
  0
LINE
  5
3E7
100
AcDbEntity
  8
0
100
AcDbLine
 62
7
  6
CONTINUOUS
 10
253.2177184611
 20
170.091960567
 11
253.7228998262
 21
173.591960567
  0
LINE
  5
3E8
100
AcDbEntity
  8
0
100
AcDbLine
 62
7
  6
CONTINUOUS
 10
253.4677184611
 20
170.091960567
 11
253.9728998262
 21
173.591960567
  0
LINE
  5
3E9
100
AcDbEntity
  8
0
100
AcDbLine
 62
7
  6
CONTINUOUS
 10
251.7021740045
 20
170.091960567
 11
252.2073553696
 21
172.9217478809
  0
LINE
  5
3EA
100
AcDbEntity
  8
0
100
AcDbLine
 62
7
  6
CONTINUOUS
 10
251.9521740045
 20
170.091960567
 11
252.3323553696
 21
172.2215569422
  0
LINE
  5
3EB
100
AcDbEntity
  8
0
100
AcDbLine
 62
7
  6
CONTINUOUS
 10
251.9547645063
 20
173.591960567
 11
251.4495831412
 21
170.9111095098
  0
LINE
  5
3EC
100
AcDbEntity
  8
0
100
AcDbLine
 62
7
  6
CONTINUOUS
 10
254.9981122795
 20
181.8047263798
 11
254.8731123987
 21
181.4217477021
  0
LINE
  5
3ED
100
AcDbEntity
  8
0
100
AcDbLine
 62
7
  6
CONTINUOUS
 10
250.0603341162
 20
170.6132371527
 11
250.1866293672
 21
170.9111095098
  0
LINE
  5
3EE
100
AcDbEntity
  8
0
100
AcDbLine
 62
7
  6
CONTINUOUS
 10
271.8731119219
 20
180.7834499058
 11
271.3731123987
 21
180.6557903466
  0
LINE
  5
3EF
100
AcDbEntity
  8
0
100
AcDbLine
 62
7
  6
CONTINUOUS
 10
271.8731119219
 20
181.4217477021
 11
271.2481128755
 21
181.2940881428
  0
LINE
  5
3F0
100
AcDbEntity
  8
0
100
AcDbLine
 62
7
  6
CONTINUOUS
 10
272.6231119219
 20
177.591960567
 11
271.8731119219
 21
177.591960567
  0
LINE
  5
3F1
100
AcDbEntity
  8
0
100
AcDbLine
 62
7
  6
CONTINUOUS
 10
266.6231119219
 20
177.591960567
 11
265.8731119219
 21
177.591960567
  0
LINE
  5
3F2
100
AcDbEntity
  8
0
100
AcDbLine
 62
7
  6
CONTINUOUS
 10
257.4981123987
 20
177.591960567
 11
256.7481123987
 21
177.591960567
  0
LINE
  5
3F3
100
AcDbEntity
  8
0
100
AcDbLine
 62
7
  6
CONTINUOUS
 10
251.8731123987
 20
177.591960567
 11
251.1231123987
 21
177.591960567
  0
LINE
  5
3F4
100
AcDbEntity
  8
0
100
AcDbLine
 62
7
  6
CONTINUOUS
 10
272.6231119219
 20
178.2302584526
 11
271.8731119219
 21
178.2302584526
  0
LINE
  5
3F5
100
AcDbEntity
  8
0
100
AcDbLine
 62
7
  6
CONTINUOUS
 10
268.9981128755
 20
178.2302584526
 11
268.3731123987
 21
178.2302584526
  0
LINE
  5
3F6
100
AcDbEntity
  8
0
100
AcDbLine
 62
7
  6
CONTINUOUS
 10
270.7481119219
 20
179.1238754568
 11
269.9981119219
 21
179.1238754568
  0
LINE
  5
3F7
100
AcDbEntity
  8
0
100
AcDbLine
 62
7
  6
CONTINUOUS
 10
264.1231128755
 20
179.762173253
 11
262.3731123987
 21
179.762173253
  0
LINE
  5
3F8
100
AcDbEntity
  8
0
100
AcDbLine
 62
7
  6
CONTINUOUS
 10
278.2481133524
 20
177.591960567
 11
277.4981133524
 21
177.7196201374
  0
LINE
  5
3F9
100
AcDbEntity
  8
0
100
AcDbLine
 62
7
  6
CONTINUOUS
 10
271.8731119219
 20
177.591960567
 11
271.2481128755
 21
177.7196201374
  0
LINE
  5
3FA
100
AcDbEntity
  8
0
100
AcDbLine
 62
7
  6
CONTINUOUS
 10
276.9931637316
 20
173.9962158975
 11
276.5872140138
 21
174.091960567
  0
LINE
  5
3FB
100
AcDbEntity
  8
0
100
AcDbLine
 62
7
  6
CONTINUOUS
 10
277.2431637316
 20
173.9962158975
 11
276.8372140138
 21
174.091960567
  0
LINE
  5
3FC
100
AcDbEntity
  8
0
100
AcDbLine
 62
7
  6
CONTINUOUS
 10
276.9995940868
 20
171.9855775711
 11
277.2431637316
 21
171.8898329017
  0
LINE
  5
3FD
100
AcDbEntity
  8
0
100
AcDbLine
 62
7
  6
CONTINUOUS
 10
276.9184035857
 20
173.6132372198
 11
277.1619732306
 21
173.5174925503
  0
LINE
  5
3FE
100
AcDbEntity
  8
0
100
AcDbLine
 62
7
  6
CONTINUOUS
 10
275.7005558262
 20
169.9749392783
 11
276.1065050794
 21
169.6877052448
  0
LINE
  5
3FF
100
AcDbEntity
  8
0
100
AcDbLine
 62
7
  6
CONTINUOUS
 10
255.2481123987
 20
183.08132233
 11
254.7481125179
 21
183.4643010077
  0
LINE
  5
400
100
AcDbEntity
  8
0
100
AcDbLine
 62
7
  6
CONTINUOUS
 10
254.8731123987
 20
182.570684093
 11
254.6231122795
 21
182.8260032115
  0
LINE
  5
401
100
AcDbEntity
  8
0
100
AcDbLine
 62
7
  6
CONTINUOUS
 10
255.6231123987
 20
182.570684093
 11
255.2481123987
 21
183.08132233
  0
LINE
  5
402
100
AcDbEntity
  8
0
100
AcDbLine
 62
7
  6
CONTINUOUS
 10
254.9981122795
 20
182.1877054152
 11
254.8731123987
 21
182.570684093
  0
LINE
  5
403
100
AcDbEntity
  8
0
100
AcDbLine
 62
7
  6
CONTINUOUS
 10
255.7481122795
 20
182.1877054152
 11
255.6231123987
 21
182.570684093
  0
LINE
  5
404
100
AcDbEntity
  8
0
100
AcDbLine
 62
7
  6
CONTINUOUS
 10
257.2591704658
 20
173.0706840334
 11
257.2591704658
 21
172.4749392149
  0
LINE
  5
405
100
AcDbEntity
  8
0
100
AcDbLine
 62
7
  6
CONTINUOUS
 10
257.4981123987
 20
182.9536627707
 11
257.4981123987
 21
181.0387690243
  0
LINE
  5
406
100
AcDbEntity
  8
0
100
AcDbLine
 62
7
  6
CONTINUOUS
 10
257.4981123987
 20
180.2728116688
 11
257.4981123987
 21
177.591960567
  0
LINE
  5
407
100
AcDbEntity
  8
0
100
AcDbLine
 62
7
  6
CONTINUOUS
 10
257.63805658
 20
172.9962159571
 11
257.63805658
 21
170.091960567
  0
LINE
  5
408
100
AcDbEntity
  8
0
100
AcDbLine
 62
7
  6
CONTINUOUS
 10
258.0169426942
 20
170.091960567
 11
258.0169426942
 21
173.591960567
  0
LINE
  5
409
100
AcDbEntity
  8
0
100
AcDbLine
 62
7
  6
CONTINUOUS
 10
258.2669426942
 20
170.091960567
 11
258.2669426942
 21
173.591960567
  0
LINE
  5
40A
100
AcDbEntity
  8
0
100
AcDbLine
 62
7
  6
CONTINUOUS
 10
258.9981122795
 20
189.1877054152
 11
258.9981122795
 21
188.8047263798
  0
LINE
  5
40B
100
AcDbEntity
  8
0
100
AcDbLine
 62
7
  6
CONTINUOUS
 10
259.7481122795
 20
189.1877054152
 11
259.7481122795
 21
188.6770668206
  0
LINE
  5
40C
100
AcDbEntity
  8
RUNDUNGEN
100
AcDbLine
 62
7
  6
CONTINUOUS
 10
260.1231123987
 20
215.6836634915
 11
260.1231123987
 21
225.8675174221
  0
LINE
  5
40D
100
AcDbEntity
  8
0
100
AcDbLine
 62
7
  6
CONTINUOUS
 10
255.7481122795
 20
181.6770668206
 11
255.6231123987
 21
181.2940881428
  0
LINE
  5
40E
100
AcDbEntity
  8
0
100
AcDbLine
 62
7
  6
CONTINUOUS
 10
258.9981122795
 20
188.8047263798
 11
258.8731123987
 21
188.4217477021
  0
LINE
  5
40F
100
AcDbEntity
  8
0
100
AcDbLine
 62
7
  6
CONTINUOUS
 10
259.7481122795
 20
188.6770668206
 11
259.6231123987
 21
188.2940881428
  0
LINE
  5
410
100
AcDbEntity
  8
0
100
AcDbLine
 62
7
  6
CONTINUOUS
 10
250.3103341162
 20
170.6132371527
 11
250.4366293672
 21
170.9111095098
  0
LINE
  5
411
100
AcDbEntity
  8
0
100
AcDbLine
 62
7
  6
CONTINUOUS
 10
249.807743253
 20
170.985577586
 11
249.6814480021
 21
170.7621733573
  0
LINE
  5
412
100
AcDbEntity
  8
0
100
AcDbLine
 62
7
  6
CONTINUOUS
 10
259.6231123987
 20
188.2940881428
 11
259.2481123987
 21
187.7834499058
  0
LINE
  5
413
100
AcDbEntity
  8
0
100
AcDbLine
 62
7
  6
CONTINUOUS
 10
255.6231123987
 20
181.2940881428
 11
255.2481123987
 21
180.7834499058
  0
LINE
  5
414
100
AcDbEntity
  8
0
100
AcDbLine
 62
7
  6
CONTINUOUS
 10
248.3553465574
 20
173.3685563383
 11
248.1027558071
 21
173.0706840334
  0
LINE
  5
415
100
AcDbEntity
  8
0
100
AcDbLine
 62
7
  6
CONTINUOUS
 10
258.8731123987
 20
188.4217477021
 11
258.6231122795
 21
188.1664285836
  0
LINE
  5
416
100
AcDbEntity
  8
0
100
AcDbLine
 62
7
  6
CONTINUOUS
 10
259.2481123987
 20
187.7834499058
 11
258.7481125179
 21
187.5281307873
  0
LINE
  5
417
100
AcDbEntity
  8
0
100
AcDbLine
 62
7
  6
CONTINUOUS
 10
258.6231122795
 20
188.1664285836
 11
258.2481122795
 21
188.0387690243
  0
LINE
  5
418
100
AcDbEntity
  8
0
100
AcDbLine
 62
7
  6
CONTINUOUS
 10
260.3731121603
 20
180.4004712281
 11
259.7481123987
 21
180.2728116688
  0
LINE
  5
419
100
AcDbEntity
  8
0
100
AcDbLine
 62
7
  6
CONTINUOUS
 10
254.7481125179
 20
180.4004712281
 11
254.1231123987
 21
180.2728116688
  0
LINE
  5
41A
100
AcDbEntity
  8
0
100
AcDbLine
 62
7
  6
CONTINUOUS
 10
269.9981128755
 20
184.7196201374
 11
269.3731123987
 21
184.591960567
  0
LINE
  5
41B
100
AcDbEntity
  8
0
100
AcDbLine
 62
7
  6
CONTINUOUS
 10
270.8731128755
 20
180.2728116688
 11
269.9981119219
 21
180.2728116688
  0
LINE
  5
41C
100
AcDbEntity
  8
0
100
AcDbLine
 62
7
  6
CONTINUOUS
 10
259.7481123987
 20
180.2728116688
 11
257.4981123987
 21
180.2728116688
  0
LINE
  5
41D
100
AcDbEntity
  8
0
100
AcDbLine
 62
7
  6
CONTINUOUS
 10
254.1231123987
 20
180.2728116688
 11
251.8731123987
 21
180.2728116688
  0
LINE
  5
41E
100
AcDbEntity
  8
0
100
AcDbLine
 62
7
  6
CONTINUOUS
 10
264.1231128755
 20
180.4004712281
 11
262.3731123987
 21
180.4004712281
  0
LINE
  5
41F
100
AcDbEntity
  8
0
100
AcDbLine
 62
7
  6
CONTINUOUS
 10
272.6231119219
 20
180.7834499058
 11
271.8731119219
 21
180.7834499058
  0
LINE
  5
420
100
AcDbEntity
  8
0
100
AcDbLine
 62
7
  6
CONTINUOUS
 10
259.8731126371
 20
181.0387690243
 11
257.4981123987
 21
181.0387690243
  0
LINE
  5
421
100
AcDbEntity
  8
0
100
AcDbLine
 62
7
  6
CONTINUOUS
 10
254.2481122795
 20
181.0387690243
 11
251.8731123987
 21
181.0387690243
  0
LINE
  5
422
100
AcDbEntity
  8
0
100
AcDbLine
 62
7
  6
CONTINUOUS
 10
278.4981123987
 20
181.1664285836
 11
277.1231133524
 21
181.1664285836
  0
LINE
  5
423
100
AcDbEntity
  8
0
100
AcDbLine
 62
7
  6
CONTINUOUS
 10
276.498111445
 20
181.1664285836
 11
275.4981123987
 21
181.1664285836
  0
LINE
  5
424
100
AcDbEntity
  8
0
100
AcDbLine
 62
7
  6
CONTINUOUS
 10
272.6231119219
 20
181.4217477021
 11
271.8731119219
 21
181.4217477021
  0
LINE
  5
425
100
AcDbEntity
  8
0
100
AcDbLine
 62
7
  6
CONTINUOUS
 10
278.4981123987
 20
181.6770668206
 11
277.1231133524
 21
181.6770668206
  0
LINE
  5
426
100
AcDbEntity
  8
0
100
AcDbLine
 62
7
  6
CONTINUOUS
 10
276.498111445
 20
181.6770668206
 11
275.4981123987
 21
181.6770668206
  0
LINE
  5
427
100
AcDbEntity
  8
0
100
AcDbLine
 62
7
  6
CONTINUOUS
 10
277.1231133524
 20
182.6983436522
 11
276.498111445
 21
182.6983436522
  0
LINE
  5
428
100
AcDbEntity
  8
0
100
AcDbLine
 62
7
  6
CONTINUOUS
 10
274.2481128755
 20
182.9536627707
 11
270.6231123987
 21
182.9536627707
  0
LINE
  5
429
100
AcDbEntity
  8
0
100
AcDbLine
 62
7
  6
CONTINUOUS
 10
259.8731126371
 20
182.9536627707
 11
257.4981123987
 21
182.9536627707
  0
LINE
  5
42A
100
AcDbEntity
  8
0
100
AcDbLine
 62
7
  6
CONTINUOUS
 10
254.2481122795
 20
182.9536627707
 11
251.8731123987
 21
182.9536627707
  0
LINE
  5
42B
100
AcDbEntity
  8
0
100
AcDbLine
 62
7
  6
CONTINUOUS
 10
278.2481133524
 20
178.1025988487
 11
277.623111445
 21
178.2302584526
  0
LINE
  5
42C
100
AcDbEntity
  8
0
100
AcDbLine
 62
7
  6
CONTINUOUS
 10
254.7481125179
 20
183.4643010077
 11
254.1231123987
 21
183.591960567
  0
LINE
  5
42D
100
AcDbEntity
  8
0
100
AcDbLine
 62
7
  6
CONTINUOUS
 10
260.3731121603
 20
183.4643010077
 11
259.7481123987
 21
183.591960567
  0
LINE
  5
42E
100
AcDbEntity
  8
0
100
AcDbLine
 62
7
  6
CONTINUOUS
 10
273.2481123987
 20
181.2940881428
 11
272.6231119219
 21
181.4217477021
  0
LINE
  5
42F
100
AcDbEntity
  8
0
100
AcDbLine
 62
7
  6
CONTINUOUS
 10
271.8731119219
 20
178.2302584526
 11
271.3731123987
 21
178.3579180119
  0
LINE
  5
430
100
AcDbEntity
  8
0
100
AcDbLine
 62
7
  6
CONTINUOUS
 10
273.1231128755
 20
180.6557903466
 11
272.6231119219
 21
180.7834499058
  0
LINE
  5
431
100
AcDbEntity
  8
0
100
AcDbLine
 62
7
  6
CONTINUOUS
 10
254.6231122795
 20
182.8260032115
 11
254.2481122795
 21
182.9536627707
  0
LINE
  5
432
100
AcDbEntity
  8
0
100
AcDbLine
 62
7
  6
CONTINUOUS
 10
260.2481126371
 20
182.8260032115
 11
259.8731126371
 21
182.9536627707
  0
LINE
  5
433
100
AcDbEntity
  8
0
100
AcDbLine
 62
7
  6
CONTINUOUS
 10
277.4981133524
 20
177.7196201374
 11
277.1231133524
 21
177.8472797078
  0
LINE
  5
434
100
AcDbEntity
  8
0
100
AcDbLine
 62
7
  6
CONTINUOUS
 10
271.2481128755
 20
177.7196201374
 11
270.6231123987
 21
178.1025988487
  0
LINE
  5
435
100
AcDbEntity
  8
0
100
AcDbLine
 62
7
  6
CONTINUOUS
 10
277.4803030212
 20
172.0813222406
 11
277.0743533035
 21
172.3685562489
  0
LINE
  5
436
100
AcDbEntity
  8
0
100
AcDbLine
 62
7
  6
CONTINUOUS
 10
277.7303030212
 20
172.0813222406
 11
277.3243533035
 21
172.3685562489
  0
LINE
  5
437
100
AcDbEntity
  8
0
100
AcDbLine
 62
7
  6
CONTINUOUS
 10
260.8731123987
 20
183.08132233
 11
260.3731121603
 21
183.4643010077
  0
LINE
  5
438
100
AcDbEntity
  8
0
100
AcDbLine
 62
7
  6
CONTINUOUS
 10
275.9376951159
 20
170.1664286507
 11
275.6941254711
 21
170.3579179895
  0
LINE
  5
439
100
AcDbEntity
  8
0
100
AcDbLine
 62
7
  6
CONTINUOUS
 10
276.1876951159
 20
170.1664286507
 11
275.9441254711
 21
170.3579179895
  0
LINE
  5
43A
100
AcDbEntity
  8
0
100
AcDbLine
 62
7
  6
CONTINUOUS
 10
260.4981123987
 20
182.570684093
 11
260.2481126371
 21
182.8260032115
  0
LINE
  5
43B
100
AcDbEntity
  8
0
100
AcDbLine
 62
7
  6
CONTINUOUS
 10
261.2481123987
 20
182.570684093
 11
260.8731123987
 21
183.08132233
  0
LINE
  5
43C
100
AcDbEntity
  8
0
100
AcDbLine
 62
7
  6
CONTINUOUS
 10
259.8731125179
 20
184.591960567
 11
258.7481125179
 21
187.5281307873
  0
LINE
  5
43D
100
AcDbEntity
  8
0
100
AcDbLine
 62
7
  6
CONTINUOUS
 10
258.9981122795
 20
184.591960567
 11
257.9981123391
 21
187.2728116688
  0
LINE
  5
43E
100
AcDbEntity
  8
0
100
AcDbLine
 62
7
  6
CONTINUOUS
 10
260.6231126371
 20
182.1877054152
 11
260.4981123987
 21
182.570684093
  0
LINE
  5
43F
100
AcDbEntity
  8
0
100
AcDbLine
 62
7
  6
CONTINUOUS
 10
258.9981122795
 20
189.1877054152
 11
258.8731123987
 21
189.570684093
  0
LINE
  5
440
100
AcDbEntity
  8
0
100
AcDbLine
 62
7
  6
CONTINUOUS
 10
261.3731126371
 20
182.1877054152
 11
261.2481123987
 21
182.570684093
  0
LINE
  5
441
100
AcDbEntity
  8
0
100
AcDbLine
 62
7
  6
CONTINUOUS
 10
260.6231126371
 20
182.1877054152
 11
260.6231126371
 21
181.8047263798
  0
LINE
  5
442
100
AcDbEntity
  8
0
100
AcDbLine
 62
7
  6
CONTINUOUS
 10
260.6673410328
 20
169.091960567
 11
260.6673410328
 21
174.846410198
  0
LINE
  5
443
100
AcDbEntity
  8
0
100
AcDbLine
 62
7
  6
CONTINUOUS
 10
260.8731122795
 20
190.591960567
 11
260.8731122795
 21
186.6345136938
  0
LINE
  5
444
100
AcDbEntity
  8
0
100
AcDbLine
 62
7
  6
CONTINUOUS
 10
261.3731126371
 20
182.1877054152
 11
261.3731126371
 21
181.6770668206
  0
LINE
  5
445
100
AcDbEntity
  8
0
100
AcDbLine
 62
7
  6
CONTINUOUS
 10
261.6231126371
 20
190.591960567
 11
261.6231126371
 21
186.6345136938
  0
LINE
  5
446
100
AcDbEntity
  8
KONSTRUKTIONSELEMENTE
100
AcDbLine
 62
7
  6
CONTINUOUS
 10
261.9602809728
 20
167.091960567
 11
261.9602809728
 21
176.091960567
  0
LINE
  5
447
100
AcDbEntity
  8
0
100
AcDbLine
 62
7
  6
CONTINUOUS
 10
262.3731123987
 20
180.4004712281
 11
262.3731123987
 21
179.762173253
  0
LINE
  5
448
100
AcDbEntity
  8
0
100
AcDbLine
 62
7
  6
CONTINUOUS
 10
260.6231126371
 20
181.8047263798
 11
260.4981123987
 21
181.4217477021
  0
LINE
  5
449
100
AcDbEntity
  8
0
100
AcDbLine
 62
7
  6
CONTINUOUS
 10
261.3731126371
 20
181.6770668206
 11
261.2481123987
 21
181.2940881428
  0
LINE
  5
44A
100
AcDbEntity
  8
0
100
AcDbLine
 62
7
  6
CONTINUOUS
 10
249.807743253
 20
170.3153648217
 11
250.0603341162
 21
170.6132371527
  0
LINE
  5
44B
100
AcDbEntity
  8
0
100
AcDbLine
 62
7
  6
CONTINUOUS
 10
250.057743253
 20
170.3153648217
 11
250.3103341162
 21
170.6132371527
  0
LINE
  5
44C
100
AcDbEntity
  8
0
100
AcDbLine
 62
7
  6
CONTINUOUS
 10
254.8731123987
 20
181.4217477021
 11
254.6231122795
 21
181.1664285836
  0
LINE
  5
44D
100
AcDbEntity
  8
0
100
AcDbLine
 62
7
  6
CONTINUOUS
 10
255.2481123987
 20
180.7834499058
 11
254.7481125179
 21
180.4004712281
  0
LINE
  5
44E
100
AcDbEntity
  8
0
100
AcDbLine
 62
7
  6
CONTINUOUS
 10
269.8731119219
 20
185.4855775711
 11
269.3731123987
 21
185.3579180119
  0
LINE
  5
44F
100
AcDbEntity
  8
0
100
AcDbLine
 62
7
  6
CONTINUOUS
 10
263.8731126371
 20
185.4855775711
 11
263.3731123987
 21
185.3579180119
  0
LINE
  5
450
100
AcDbEntity
  8
0
100
AcDbLine
 62
7
  6
CONTINUOUS
 10
263.9981121603
 20
184.7196201374
 11
263.3731123987
 21
184.591960567
  0
LINE
  5
451
100
AcDbEntity
  8
0
100
AcDbLine
 62
7
  6
CONTINUOUS
 10
274.2481128755
 20
183.591960567
 11
269.9981119219
 21
183.591960567
  0
LINE
  5
452
100
AcDbEntity
  8
0
100
AcDbLine
 62
7
  6
CONTINUOUS
 10
259.7481123987
 20
183.591960567
 11
256.7481123987
 21
183.591960567
  0
LINE
  5
453
100
AcDbEntity
  8
0
100
AcDbLine
 62
7
  6
CONTINUOUS
 10
254.1231123987
 20
183.591960567
 11
251.1231123987
 21
183.591960567
  0
LINE
  5
454
100
AcDbEntity
  8
0
100
AcDbLine
 62
7
  6
CONTINUOUS
 10
265.8731119219
 20
183.591960567
 11
266.6231119219
 21
183.591960567
  0
LINE
  5
455
100
AcDbEntity
  8
0
100
AcDbLine
 62
7
  6
CONTINUOUS
 10
269.3731123987
 20
184.591960567
 11
266.3731123987
 21
184.591960567
  0
LINE
  5
456
100
AcDbEntity
  8
0
100
AcDbLine
 62
7
  6
CONTINUOUS
 10
263.3731123987
 20
184.591960567
 11
262.8731121603
 21
184.591960567
  0
LINE
  5
457
100
AcDbEntity
  8
0
100
AcDbLine
 62
7
  6
CONTINUOUS
 10
259.8731125179
 20
184.591960567
 11
258.9981122795
 21
184.591960567
  0
LINE
  5
458
100
AcDbEntity
  8
0
100
AcDbLine
 62
7
  6
CONTINUOUS
 10
255.8731123987
 20
184.591960567
 11
255.1231123987
 21
184.591960567
  0
LINE
  5
459
100
AcDbEntity
  8
0
100
AcDbLine
 62
7
  6
CONTINUOUS
 10
269.3731123987
 20
185.3579180119
 11
267.1231123987
 21
185.3579180119
  0
LINE
  5
45A
100
AcDbEntity
  8
0
100
AcDbLine
 62
7
  6
CONTINUOUS
 10
263.3731123987
 20
185.3579180119
 11
262.8731121603
 21
185.3579180119
  0
LINE
  5
45B
100
AcDbEntity
  8
0
100
AcDbLine
 62
7
  6
CONTINUOUS
 10
262.8731121603
 20
184.591960567
 11
262.2481123987
 21
184.7196201374
  0
LINE
  5
45C
100
AcDbEntity
  8
0
100
AcDbLine
 62
7
  6
CONTINUOUS
 10
262.8731121603
 20
185.3579180119
 11
262.3731126371
 21
185.4855775711
  0
LINE
  5
45D
100
AcDbEntity
  8
0
100
AcDbLine
 62
7
  6
CONTINUOUS
 10
262.2481123987
 20
184.7196201374
 11
261.7481121603
 21
184.9749392894
  0
LINE
  5
45E
100
AcDbEntity
  8
0
100
AcDbLine
 62
7
  6
CONTINUOUS
 10
271.3731123987
 20
178.3579180119
 11
270.9981123987
 21
178.6132371304
  0
LINE
  5
45F
100
AcDbEntity
  8
0
100
AcDbLine
 62
7
  6
CONTINUOUS
 10
262.3731126371
 20
185.4855775711
 11
261.9981126371
 21
185.740896779
  0
LINE
  5
460
100
AcDbEntity
  8
0
100
AcDbLine
 62
7
  6
CONTINUOUS
 10
277.3991125202
 20
173.7089818892
 11
276.9931637316
 21
173.9962158975
  0
LINE
  5
461
100
AcDbEntity
  8
0
100
AcDbLine
 62
7
  6
CONTINUOUS
 10
277.6491125202
 20
173.7089818892
 11
277.2431637316
 21
173.9962158975
  0
LINE
  5
462
100
AcDbEntity
  8
0
100
AcDbLine
 62
7
  6
CONTINUOUS
 10
277.2431637316
 20
171.8898329017
 11
277.4867333764
 21
171.6983435628
  0
LINE
  5
463
100
AcDbEntity
  8
0
100
AcDbLine
 62
7
  6
CONTINUOUS
 10
277.1619732306
 20
173.5174925503
 11
277.4055428754
 21
173.3260032115
  0
LINE
  5
464
100
AcDbEntity
  8
0
100
AcDbLine
 62
7
  6
CONTINUOUS
 10
261.7481121603
 20
184.9749392894
 11
261.2481126371
 21
185.4855775711
  0
LINE
  5
465
100
AcDbEntity
  8
0
100
AcDbLine
 62
7
  6
CONTINUOUS
 10
258.8731123987
 20
189.570684093
 11
258.6231122795
 21
189.8260032115
  0
LINE
  5
466
100
AcDbEntity
  8
0
100
AcDbLine
 62
7
  6
CONTINUOUS
 10
259.6231123987
 20
189.570684093
 11
259.2481123987
 21
190.08132233
  0
LINE
  5
467
100
AcDbEntity
  8
0
100
AcDbLine
 62
7
  6
CONTINUOUS
 10
261.9981126371
 20
185.740896779
 11
261.7481121603
 21
186.1238754568
  0
LINE
  5
468
100
AcDbEntity
  8
0
100
AcDbLine
 62
7
  6
CONTINUOUS
 10
261.2481126371
 20
185.4855775711
 11
260.9981125179
 21
185.9962158975
  0
LINE
  5
469
100
AcDbEntity
  8
0
100
AcDbLine
 62
7
  6
CONTINUOUS
 10
259.7481122795
 20
189.1877054152
 11
259.6231123987
 21
189.570684093
  0
LINE
  5
46A
100
AcDbEntity
  8
0
100
AcDbLine
 62
7
  6
CONTINUOUS
 10
261.7481121603
 20
186.1238754568
 11
261.6231126371
 21
186.6345136938
  0
LINE
  5
46B
100
AcDbEntity
  8
0
100
AcDbLine
 62
7
  6
CONTINUOUS
 10
260.9981125179
 20
185.9962158975
 11
260.8731122795
 21
186.6345136938
  0
LINE
  5
46C
100
AcDbEntity
  8
0
100
AcDbLine
 62
7
  6
CONTINUOUS
 10
264.1231128755
 20
180.4004712281
 11
264.1231128755
 21
179.762173253
  0
LINE
  5
46D
100
AcDbEntity
  8
KONSTRUKTIONSELEMENTE
100
AcDbLine
 62
7
  6
CONTINUOUS
 10
264.2859438246
 20
167.091960567
 11
264.2859438246
 21
176.091960567
  0
LINE
  5
46E
100
AcDbEntity
  8
0
100
AcDbLine
 62
7
  6
CONTINUOUS
 10
264.6231126371
 20
190.591960567
 11
264.6231126371
 21
186.6345136938
  0
LINE
  5
46F
100
AcDbEntity
  8
0
100
AcDbLine
 62
7
  6
CONTINUOUS
 10
265.1231119219
 20
181.6770668206
 11
265.1231119219
 21
182.6983436522
  0
LINE
  5
470
100
AcDbEntity
  8
0
100
AcDbLine
 62
7
  6
CONTINUOUS
 10
265.3731126371
 20
190.591960567
 11
265.3731126371
 21
186.6345136938
  0
LINE
  5
471
100
AcDbEntity
  8
0
100
AcDbLine
 62
7
  6
CONTINUOUS
 10
265.8731119219
 20
177.591960567
 11
265.8731119219
 21
182.570684093
  0
LINE
  5
472
100
AcDbEntity
  8
RUNDUNGEN
100
AcDbLine
 62
7
  6
CONTINUOUS
 10
266.1231123987
 20
215.6836634915
 11
266.1231123987
 21
225.8674975924
  0
LINE
  5
473
100
AcDbEntity
  8
0
100
AcDbLine
 62
7
  6
CONTINUOUS
 10
266.3731123987
 20
190.591960567
 11
266.3731123987
 21
184.591960567
  0
LINE
  5
474
100
AcDbEntity
  8
0
100
AcDbLine
 62
7
  6
CONTINUOUS
 10
266.6231119219
 20
183.591960567
 11
266.6231119219
 21
177.591960567
  0
LINE
  5
475
100
AcDbEntity
  8
RUNDUNGEN
100
AcDbLine
 62
7
  6
CONTINUOUS
 10
266.5516689945
 20
216.1599136645
 11
266.5535427702
 21
223.8968231056
  0
LINE
  5
476
100
AcDbEntity
  8
0
100
AcDbLine
 62
7
  6
CONTINUOUS
 10
265.3731126371
 20
186.6345136938
 11
265.2481123987
 21
185.9962158975
  0
LINE
  5
477
100
AcDbEntity
  8
0
100
AcDbLine
 62
7
  6
CONTINUOUS
 10
264.6231126371
 20
186.6345136938
 11
264.4981123987
 21
186.1238754568
  0
LINE
  5
478
100
AcDbEntity
  8
0
100
AcDbLine
 62
7
  6
CONTINUOUS
 10
265.2481123987
 20
185.9962158975
 11
264.9981126371
 21
185.4855775711
  0
LINE
  5
479
100
AcDbEntity
  8
0
100
AcDbLine
 62
7
  6
CONTINUOUS
 10
264.4981123987
 20
186.1238754568
 11
264.2481126371
 21
185.740896779
  0
LINE
  5
47A
100
AcDbEntity
  8
0
100
AcDbLine
 62
7
  6
CONTINUOUS
 10
257.63805658
 20
173.591960567
 11
257.2591704658
 21
173.0706840334
  0
LINE
  5
47B
100
AcDbEntity
  8
0
100
AcDbLine
 62
7
  6
CONTINUOUS
 10
257.2591704658
 20
172.4749392149
 11
257.63805658
 21
172.9962159571
  0
LINE
  5
47C
100
AcDbEntity
  8
0
100
AcDbLine
 62
7
  6
CONTINUOUS
 10
257.5091704658
 20
172.4749392149
 11
257.63805658
 21
172.6522625086
  0
LINE
  5
47D
100
AcDbEntity
  8
0
100
AcDbLine
 62
7
  6
CONTINUOUS
 10
261.2481123987
 20
181.2940881428
 11
260.8731123987
 21
180.7834499058
  0
LINE
  5
47E
100
AcDbEntity
  8
0
100
AcDbLine
 62
7
  6
CONTINUOUS
 10
255.7436260092
 20
173.591960567
 11
254.2280815526
 21
171.5813223002
  0
LINE
  5
47F
100
AcDbEntity
  8
0
100
AcDbLine
 62
7
  6
CONTINUOUS
 10
254.6701151116
 20
171.5813223002
 11
255.7436260092
 21
172.9962159571
  0
LINE
  5
480
100
AcDbEntity
  8
0
100
AcDbLine
 62
7
  6
CONTINUOUS
 10
254.9201151116
 20
171.5813223002
 11
255.7436260092
 21
172.6667144914
  0
LINE
  5
481
100
AcDbEntity
  8
0
100
AcDbLine
 62
7
  6
CONTINUOUS
 10
260.4981123987
 20
181.4217477021
 11
260.2481126371
 21
181.1664285836
  0
LINE
  5
482
100
AcDbEntity
  8
0
100
AcDbLine
 62
7
  6
CONTINUOUS
 10
264.9981126371
 20
185.4855775711
 11
264.4981123987
 21
184.9749392894
  0
LINE
  5
483
100
AcDbEntity
  8
0
100
AcDbLine
 62
7
  6
CONTINUOUS
 10
248.4816418986
 20
172.9217478809
 11
248.6710850009
 21
173.0706840334
  0
LINE
  5
484
100
AcDbEntity
  8
0
100
AcDbLine
 62
7
  6
CONTINUOUS
 10
248.7316418986
 20
172.9217478809
 11
248.9210850009
 21
173.0706840334
  0
LINE
  5
485
100
AcDbEntity
  8
0
100
AcDbLine
 62
7
  6
CONTINUOUS
 10
260.8731123987
 20
180.7834499058
 11
260.3731121603
 21
180.4004712281
  0
LINE
  5
486
100
AcDbEntity
  8
0
100
AcDbLine
 62
7
  6
CONTINUOUS
 10
264.2481126371
 20
185.740896779
 11
263.8731126371
 21
185.4855775711
  0
LINE
  5
487
100
AcDbEntity
  8
0
100
AcDbLine
 62
7
  6
CONTINUOUS
 10
248.6079372851
 20
173.5174924907
 11
248.3553465574
 21
173.3685563383
  0
LINE
  5
488
100
AcDbEntity
  8
0
100
AcDbLine
 62
7
  6
CONTINUOUS
 10
264.4981123987
 20
184.9749392894
 11
263.9981121603
 21
184.7196201374
  0
LINE
  5
489
100
AcDbEntity
  8
0
100
AcDbLine
 62
7
  6
CONTINUOUS
 10
254.6231122795
 20
181.1664285836
 11
254.2481122795
 21
181.0387690243
  0
LINE
  5
48A
100
AcDbEntity
  8
0
100
AcDbLine
 62
7
  6
CONTINUOUS
 10
257.9981123391
 20
187.2728116688
 11
255.8731123987
 21
187.2728116688
  0
LINE
  5
48B
100
AcDbEntity
  8
0
100
AcDbLine
 62
7
  6
CONTINUOUS
 10
258.2481122795
 20
188.0387690243
 11
255.8731123987
 21
188.0387690243
  0
LINE
  5
48C
100
AcDbEntity
  8
0
100
AcDbLine
 62
7
  6
CONTINUOUS
 10
258.7481125179
 20
190.4643010077
 11
258.1231123987
 21
190.591960567
  0
LINE
  5
48D
100
AcDbEntity
  8
0
100
AcDbLine
 62
7
  6
CONTINUOUS
 10
258.6231122795
 20
189.8260032115
 11
258.2481122795
 21
189.9536627707
  0
LINE
  5
48E
100
AcDbEntity
  8
0
100
AcDbLine
 62
7
  6
CONTINUOUS
 10
273.8731128755
 20
180.9111094651
 11
273.2481123987
 21
181.2940881428
  0
LINE
  5
48F
100
AcDbEntity
  8
0
100
AcDbLine
 62
7
  6
CONTINUOUS
 10
277.1231133524
 20
177.8472797078
 11
276.7481133524
 21
178.1025988487
  0
LINE
  5
490
100
AcDbEntity
  8
0
100
AcDbLine
 62
7
  6
CONTINUOUS
 10
273.4981128755
 20
180.4004712281
 11
273.1231128755
 21
180.6557903466
  0
LINE
  5
491
100
AcDbEntity
  8
0
100
AcDbLine
 62
7
  6
CONTINUOUS
 10
277.623111445
 20
178.2302584526
 11
277.248111445
 21
178.4855775711
  0
LINE
  5
492
100
AcDbEntity
  8
0
100
AcDbLine
 62
7
  6
CONTINUOUS
 10
259.2481123987
 20
190.08132233
 11
258.7481125179
 21
190.4643010077
  0
LINE
  5
493
100
AcDbEntity
  8
0
100
AcDbLine
 62
7
  6
CONTINUOUS
 10
277.723872666
 20
171.7940882323
 11
277.4803030212
 21
172.0813222406
  0
LINE
  5
494
100
AcDbEntity
  8
0
100
AcDbLine
 62
7
  6
CONTINUOUS
 10
277.973872666
 20
171.7940882323
 11
277.7303030212
 21
172.0813222406
  0
LINE
  5
495
100
AcDbEntity
  8
0
100
AcDbLine
 62
7
  6
CONTINUOUS
 10
277.4867333764
 20
171.6983435628
 11
277.6491125202
 21
171.5068542239
  0
LINE
  5
496
100
AcDbEntity
  8
0
100
AcDbLine
 62
7
  6
CONTINUOUS
 10
270.6231123987
 20
178.1025988487
 11
270.2481123987
 21
178.6132371304
  0
LINE
  5
497
100
AcDbEntity
  8
0
100
AcDbLine
 62
7
  6
CONTINUOUS
 10
275.4569861814
 20
170.3579179895
 11
275.7005558262
 21
169.9749392783
  0
LINE
  5
498
100
AcDbEntity
  8
0
100
AcDbLine
 62
7
  6
CONTINUOUS
 10
275.6941254711
 20
170.3579179895
 11
275.5317453981
 21
170.6451520649
  0
LINE
  5
499
100
AcDbEntity
  8
0
100
AcDbLine
 62
7
  6
CONTINUOUS
 10
275.9441254711
 20
170.3579179895
 11
275.7817453981
 21
170.6451520649
  0
LINE
  5
49A
100
AcDbEntity
  8
0
100
AcDbLine
 62
7
  6
CONTINUOUS
 10
270.2481123987
 20
178.6132371304
 11
269.9981119219
 21
179.1238754568
  0
LINE
  5
49B
100
AcDbEntity
  8
0
100
AcDbLine
 62
7
  6
CONTINUOUS
 10
269.5301246694
 20
173.1345138726
 11
270.6667829732
 21
169.591960567
  0
LINE
  5
49C
100
AcDbEntity
  8
0
100
AcDbLine
 62
7
  6
CONTINUOUS
 10
270.7415425383
 20
170.0706839812
 11
269.5236943142
 21
174.091960567
  0
LINE
  5
49D
100
AcDbEntity
  8
0
100
AcDbLine
 62
7
  6
CONTINUOUS
 10
270.9915425383
 20
170.0706839812
 11
269.7736943142
 21
174.091960567
  0
LINE
  5
49E
100
AcDbEntity
  8
0
100
AcDbLine
 62
7
  6
CONTINUOUS
 10
267.1231123987
 20
189.8260032115
 11
267.1231123987
 21
185.3579180119
  0
LINE
  5
49F
100
AcDbEntity
  8
0
100
AcDbLine
 62
7
  6
CONTINUOUS
 10
269.0429853798
 20
174.091960567
 11
269.0429853798
 21
169.591960567
  0
LINE
  5
4A0
100
AcDbEntity
  8
0
100
AcDbLine
 62
7
  6
CONTINUOUS
 10
269.2801246694
 20
169.591960567
 11
269.2801246694
 21
173.1345138726
  0
LINE
  5
4A1
100
AcDbEntity
  8
0
100
AcDbLine
 62
7
  6
CONTINUOUS
 10
269.5301246694
 20
169.591960567
 11
269.5301246694
 21
173.1345138726
  0
LINE
  5
4A2
100
AcDbEntity
  8
0
100
AcDbLine
 62
7
  6
CONTINUOUS
 10
270.4981123987
 20
186.1238754568
 11
270.2481119219
 21
185.740896779
  0
LINE
  5
4A3
100
AcDbEntity
  8
0
100
AcDbLine
 62
7
  6
CONTINUOUS
 10
265.1231119219
 20
182.6983436522
 11
265.8731119219
 21
183.591960567
  0
LINE
  5
4A4
100
AcDbEntity
  8
0
100
AcDbLine
 62
7
  6
CONTINUOUS
 10
265.8731119219
 20
182.570684093
 11
265.1231119219
 21
181.6770668206
  0
LINE
  5
4A5
100
AcDbEntity
  8
0
100
AcDbLine
 62
7
  6
CONTINUOUS
 10
270.9981119219
 20
185.4855775711
 11
270.4981123987
 21
184.9749392894
  0
LINE
  5
4A6
100
AcDbEntity
  8
0
100
AcDbLine
 62
7
  6
CONTINUOUS
 10
249.6814480021
 20
170.7621733573
 11
249.492004945
 21
170.6132371527
  0
LINE
  5
4A7
100
AcDbEntity
  8
0
100
AcDbLine
 62
7
  6
CONTINUOUS
 10
270.2481119219
 20
185.740896779
 11
269.8731119219
 21
185.4855775711
  0
LINE
  5
4A8
100
AcDbEntity
  8
0
100
AcDbLine
 62
7
  6
CONTINUOUS
 10
270.4981123987
 20
184.9749392894
 11
269.9981128755
 21
184.7196201374
  0
LINE
  5
4A9
100
AcDbEntity
  8
0
100
AcDbLine
 62
7
  6
CONTINUOUS
 10
260.2481126371
 20
181.1664285836
 11
259.8731126371
 21
181.0387690243
  0
LINE
  5
4AA
100
AcDbEntity
  8
0
100
AcDbLine
 62
7
  6
CONTINUOUS
 10
269.3731123987
 20
189.8260032115
 11
267.1231123987
 21
189.8260032115
  0
LINE
  5
4AB
100
AcDbEntity
  8
0
100
AcDbLine
 62
7
  6
CONTINUOUS
 10
258.2481122795
 20
189.9536627707
 11
255.8731123987
 21
189.9536627707
  0
LINE
  5
4AC
100
AcDbEntity
  8
0
100
AcDbLine
 62
7
  6
CONTINUOUS
 10
269.3731123987
 20
190.591960567
 11
266.3731123987
 21
190.591960567
  0
LINE
  5
4AD
100
AcDbEntity
  8
0
100
AcDbLine
 62
7
  6
CONTINUOUS
 10
265.3731126371
 20
190.591960567
 11
264.6231126371
 21
190.591960567
  0
LINE
  5
4AE
100
AcDbEntity
  8
0
100
AcDbLine
 62
7
  6
CONTINUOUS
 10
261.6231126371
 20
190.591960567
 11
260.8731122795
 21
190.591960567
  0
LINE
  5
4AF
100
AcDbEntity
  8
0
100
AcDbLine
 62
7
  6
CONTINUOUS
 10
258.1231123987
 20
190.591960567
 11
255.1231123987
 21
190.591960567
  0
LINE
  5
4B0
100
AcDbEntity
  8
0
100
AcDbLine
 62
7
  6
CONTINUOUS
 10
269.9981128755
 20
190.4643010077
 11
269.3731123987
 21
190.591960567
  0
LINE
  5
4B1
100
AcDbEntity
  8
0
100
AcDbLine
 62
7
  6
CONTINUOUS
 10
269.8731119219
 20
189.6983436522
 11
269.3731123987
 21
189.8260032115
  0
LINE
  5
4B2
100
AcDbEntity
  8
0
100
AcDbLine
 62
7
  6
CONTINUOUS
 10
270.2481119219
 20
189.4430245337
 11
269.8731119219
 21
189.6983436522
  0
LINE
  5
4B3
100
AcDbEntity
  8
0
100
AcDbLine
 62
7
  6
CONTINUOUS
 10
274.2481128755
 20
180.4004712281
 11
273.8731128755
 21
180.9111094651
  0
LINE
  5
4B4
100
AcDbEntity
  8
0
100
AcDbLine
 62
7
  6
CONTINUOUS
 10
273.7481119219
 20
180.0174925503
 11
273.4981128755
 21
180.4004712281
  0
LINE
  5
4B5
100
AcDbEntity
  8
0
100
AcDbLine
 62
7
  6
CONTINUOUS
 10
277.642682165
 20
173.3260032115
 11
277.3991125202
 21
173.7089818892
  0
LINE
  5
4B6
100
AcDbEntity
  8
0
100
AcDbLine
 62
7
  6
CONTINUOUS
 10
277.892682165
 20
173.3260032115
 11
277.6491125202
 21
173.7089818892
  0
LINE
  5
4B7
100
AcDbEntity
  8
0
100
AcDbLine
 62
7
  6
CONTINUOUS
 10
277.4055428754
 20
173.3260032115
 11
277.5679229483
 21
173.0387692032
  0
LINE
  5
4B8
100
AcDbEntity
  8
0
100
AcDbLine
 62
7
  6
CONTINUOUS
 10
270.9981123987
 20
178.6132371304
 11
270.7481119219
 21
179.1238754568
  0
LINE
  5
4B9
100
AcDbEntity
  8
0
100
AcDbLine
 62
7
  6
CONTINUOUS
 10
275.2946061085
 20
170.8366414038
 11
275.4569861814
 21
170.3579179895
  0
LINE
  5
4BA
100
AcDbEntity
  8
0
100
AcDbLine
 62
7
  6
CONTINUOUS
 10
269.9981119219
 20
183.591960567
 11
269.9981119219
 21
180.2728116688
  0
LINE
  5
4BB
100
AcDbEntity
  8
0
100
AcDbLine
 62
7
  6
CONTINUOUS
 10
270.6231119219
 20
188.5494072613
 11
270.6231119219
 21
186.6345136938
  0
LINE
  5
4BC
100
AcDbEntity
  8
0
100
AcDbLine
 62
7
  6
CONTINUOUS
 10
270.6231123987
 20
182.9536627707
 11
270.6231123987
 21
180.9111094651
  0
LINE
  5
4BD
100
AcDbEntity
  8
0
100
AcDbLine
 62
7
  6
CONTINUOUS
 10
271.1231123987
 20
167.091960567
 11
271.1231123987
 21
143.591960567
  0
LINE
  5
4BE
100
AcDbEntity
  8
0
100
AcDbLine
 62
7
  6
CONTINUOUS
 10
271.3731119219
 20
188.5494072613
 11
271.3731119219
 21
186.6345136938
  0
LINE
  5
4BF
100
AcDbEntity
  8
0
100
AcDbLine
 62
7
  6
CONTINUOUS
 10
272.4529604072
 20
173.1345138726
 11
272.4529604072
 21
169.591960567
  0
LINE
  5
4C0
100
AcDbEntity
  8
0
100
AcDbLine
 62
7
  6
CONTINUOUS
 10
272.6900996968
 20
169.591960567
 11
272.6900996968
 21
174.091960567
  0
LINE
  5
4C1
100
AcDbEntity
  8
0
100
AcDbLine
 62
7
  6
CONTINUOUS
 10
272.9400996968
 20
169.591960567
 11
272.9400996968
 21
174.091960567
  0
LINE
  5
4C2
100
AcDbEntity
  8
0
100
AcDbLine
 62
7
  6
CONTINUOUS
 10
271.3731119219
 20
186.6345136938
 11
271.2481123987
 21
185.9962158975
  0
LINE
  5
4C3
100
AcDbEntity
  8
0
100
AcDbLine
 62
7
  6
CONTINUOUS
 10
270.6231119219
 20
186.6345136938
 11
270.4981123987
 21
186.1238754568
  0
LINE
  5
4C4
100
AcDbEntity
  8
0
100
AcDbLine
 62
7
  6
CONTINUOUS
 10
271.2481123987
 20
185.9962158975
 11
270.9981119219
 21
185.4855775711
  0
LINE
  5
4C5
100
AcDbEntity
  8
0
100
AcDbLine
 62
7
  6
CONTINUOUS
 10
268.3731123987
 20
178.2302584526
 11
267.6231123987
 21
176.8260031221
  0
LINE
  5
4C6
100
AcDbEntity
  8
0
100
AcDbLine
 62
7
  6
CONTINUOUS
 10
268.9981128755
 20
178.2302584526
 11
268.2481128755
 21
176.8260031221
  0
LINE
  5
4C7
100
AcDbEntity
  8
0
100
AcDbLine
 62
7
  6
CONTINUOUS
 10
271.3731123987
 20
180.6557903466
 11
270.8731128755
 21
180.2728116688
  0
LINE
  5
4C8
100
AcDbEntity
  8
0
100
AcDbLine
 62
7
  6
CONTINUOUS
 10
271.2481128755
 20
181.2940881428
 11
270.6231123987
 21
180.9111094651
  0
LINE
  5
4C9
100
AcDbEntity
  8
0
100
AcDbLine
 62
7
  6
CONTINUOUS
 10
249.5551525705
 20
170.1664286497
 11
249.807743253
 21
170.3153648217
  0
LINE
  5
4CA
100
AcDbEntity
  8
0
100
AcDbLine
 62
7
  6
CONTINUOUS
 10
249.8051525705
 20
170.1664286497
 11
250.057743253
 21
170.3153648217
  0
LINE
  5
4CB
100
AcDbEntity
  8
0
100
AcDbLine
 62
7
  6
CONTINUOUS
 10
248.6710850009
 20
173.0706840334
 11
248.860528058
 21
173.1451521096
  0
LINE
  5
4CC
100
AcDbEntity
  8
0
100
AcDbLine
 62
7
  6
CONTINUOUS
 10
248.9210850009
 20
173.0706840334
 11
249.110528058
 21
173.1451521096
  0
LINE
  5
4CD
100
AcDbEntity
  8
0
100
AcDbLine
 62
7
  6
CONTINUOUS
 10
248.860528058
 20
173.591960567
 11
248.6079372851
 21
173.5174924907
  0
LINE
  5
4CE
100
AcDbEntity
  8
0
100
AcDbLine
 62
7
  6
CONTINUOUS
 10
270.4981123987
 20
190.2089818892
 11
269.9981128755
 21
190.4643010077
  0
LINE
  5
4CF
100
AcDbEntity
  8
0
100
AcDbLine
 62
7
  6
CONTINUOUS
 10
270.9981119219
 20
189.6983436522
 11
270.4981123987
 21
190.2089818892
  0
LINE
  5
4D0
100
AcDbEntity
  8
0
100
AcDbLine
 62
7
  6
CONTINUOUS
 10
270.4981123987
 20
189.0600454983
 11
270.2481119219
 21
189.4430245337
  0
LINE
  5
4D1
100
AcDbEntity
  8
0
100
AcDbLine
 62
7
  6
CONTINUOUS
 10
271.2481123987
 20
189.1877054152
 11
270.9981119219
 21
189.6983436522
  0
LINE
  5
4D2
100
AcDbEntity
  8
0
100
AcDbLine
 62
7
  6
CONTINUOUS
 10
276.7481133524
 20
178.1025988487
 11
276.498111445
 21
178.6132371304
  0
LINE
  5
4D3
100
AcDbEntity
  8
0
100
AcDbLine
 62
7
  6
CONTINUOUS
 10
274.4981119219
 20
179.762173253
 11
274.2481128755
 21
180.4004712281
  0
LINE
  5
4D4
100
AcDbEntity
  8
0
100
AcDbLine
 62
7
  6
CONTINUOUS
 10
277.8862518098
 20
171.3153648851
 11
277.723872666
 21
171.7940882323
  0
LINE
  5
4D5
100
AcDbEntity
  8
0
100
AcDbLine
 62
7
  6
CONTINUOUS
 10
278.1362518098
 20
171.3153648851
 11
277.973872666
 21
171.7940882323
  0
LINE
  5
4D6
100
AcDbEntity
  8
0
100
AcDbLine
 62
7
  6
CONTINUOUS
 10
273.8731128755
 20
179.6345136938
 11
273.7481119219
 21
180.0174925503
  0
LINE
  5
4D7
100
AcDbEntity
  8
0
100
AcDbLine
 62
7
  6
CONTINUOUS
 10
275.5317453981
 20
170.6451520649
 11
275.4505558262
 21
170.9323860732
  0
LINE
  5
4D8
100
AcDbEntity
  8
0
100
AcDbLine
 62
7
  6
CONTINUOUS
 10
275.7817453981
 20
170.6451520649
 11
275.7005558262
 21
170.9323860732
  0
LINE
  5
4D9
100
AcDbEntity
  8
0
100
AcDbLine
 62
7
  6
CONTINUOUS
 10
270.6231119219
 20
188.5494072613
 11
270.4981123987
 21
189.0600454983
  0
LINE
  5
4DA
100
AcDbEntity
  8
0
100
AcDbLine
 62
7
  6
CONTINUOUS
 10
271.3731119219
 20
188.5494072613
 11
271.2481123987
 21
189.1877054152
  0
LINE
  5
4DB
100
AcDbEntity
  8
0
100
AcDbLine
 62
7
  6
CONTINUOUS
 10
273.5896185948
 20
173.4217478809
 11
273.5896185948
 21
172.6557902572
  0
LINE
  5
4DC
100
AcDbEntity
  8
0
100
AcDbLine
 62
7
  6
CONTINUOUS
 10
273.8731128755
 20
179.6345136938
 11
273.8731128755
 21
179.3791945753
  0
LINE
  5
4DD
100
AcDbEntity
  8
0
100
AcDbLine
 62
7
  6
CONTINUOUS
 10
274.0767578844
 20
173.3260032115
 11
274.0767578844
 21
169.591960567
  0
LINE
  5
4DE
100
AcDbEntity
  8
0
100
AcDbLine
 62
7
  6
CONTINUOUS
 10
274.2481128755
 20
183.591960567
 11
274.2481128755
 21
182.9536627707
  0
LINE
  5
4DF
100
AcDbEntity
  8
0
100
AcDbLine
 62
7
  6
CONTINUOUS
 10
274.3138971741
 20
169.591960567
 11
274.3138971741
 21
174.091960567
  0
LINE
  5
4E0
100
AcDbEntity
  8
0
100
AcDbLine
 62
7
  6
CONTINUOUS
 10
274.4981119219
 20
179.762173253
 11
274.4981119219
 21
179.251535016
  0
LINE
  5
4E1
100
AcDbEntity
  8
0
100
AcDbLine
 62
7
  6
CONTINUOUS
 10
274.5638971741
 20
169.591960567
 11
274.5638971741
 21
174.091960567
  0
LINE
  5
4E2
100
AcDbEntity
  8
0
100
AcDbLine
 62
7
  6
CONTINUOUS
 10
275.2134165366
 20
172.17706691
 11
275.2134165366
 21
171.5068542239
  0
LINE
  5
4E3
100
AcDbEntity
  8
0
100
AcDbLine
 62
7
  6
CONTINUOUS
 10
275.3693657898
 20
171.9855775711
 11
275.3693657898
 21
172.17706691
  0
LINE
  5
4E4
100
AcDbEntity
  8
0
100
AcDbLine
 62
7
  6
CONTINUOUS
 10
275.4505558262
 20
170.9323860732
 11
275.4505558262
 21
171.2196200815
  0
LINE
  5
4E5
100
AcDbEntity
  8
0
100
AcDbLine
 62
7
  6
CONTINUOUS
 10
275.4981123987
 20
181.6770668206
 11
275.4981123987
 21
181.1664285836
  0
LINE
  5
4E6
100
AcDbEntity
  8
0
100
AcDbLine
 62
7
  6
CONTINUOUS
 10
275.6193657898
 20
171.9855775711
 11
275.6193657898
 21
172.17706691
  0
LINE
  5
4E7
100
AcDbEntity
  8
0
100
AcDbLine
 62
7
  6
CONTINUOUS
 10
275.7005558262
 20
170.9323860732
 11
275.7005558262
 21
171.2196200815
  0
LINE
  5
4E8
100
AcDbEntity
  8
0
100
AcDbLine
 62
7
  6
CONTINUOUS
 10
272.2093907624
 20
174.091960567
 11
270.9915425383
 21
170.0706839812
  0
LINE
  5
4E9
100
AcDbEntity
  8
0
100
AcDbLine
 62
7
  6
CONTINUOUS
 10
271.0663019873
 20
169.591960567
 11
272.2029604072
 21
173.1345138726
  0
LINE
  5
4EA
100
AcDbEntity
  8
0
100
AcDbLine
 62
7
  6
CONTINUOUS
 10
271.3163019873
 20
169.591960567
 11
272.4529604072
 21
173.1345138726
  0
LINE
  5
4EB
100
AcDbEntity
  8
0
100
AcDbLine
 62
7
  6
CONTINUOUS
 10
273.8731128755
 20
179.3791945753
 11
273.7481119219
 21
178.9962158975
  0
LINE
  5
4EC
100
AcDbEntity
  8
0
100
AcDbLine
 62
7
  6
CONTINUOUS
 10
274.4981119219
 20
179.251535016
 11
274.2481128755
 21
178.6132371304
  0
LINE
  5
4ED
100
AcDbEntity
  8
0
100
AcDbLine
 62
7
  6
CONTINUOUS
 10
273.7481119219
 20
178.9962158975
 11
273.4981128755
 21
178.6132371304
  0
LINE
  5
4EE
100
AcDbEntity
  8
0
100
AcDbLine
 62
7
  6
CONTINUOUS
 10
273.4981128755
 20
178.6132371304
 11
273.1231128755
 21
178.3579180119
  0
LINE
  5
4EF
100
AcDbEntity
  8
0
100
AcDbLine
 62
7
  6
CONTINUOUS
 10
273.8731128755
 20
178.1025988487
 11
273.2481123987
 21
177.7196201374
  0
LINE
  5
4F0
100
AcDbEntity
  8
0
100
AcDbLine
 62
7
  6
CONTINUOUS
 10
249.492004945
 20
170.6132371527
 11
249.2394141721
 21
170.5387690765
  0
LINE
  5
4F1
100
AcDbEntity
  8
RUNDUNGEN
100
AcDbLine
 62
7
  6
CONTINUOUS
 10
274.0346888201
 20
196.791960567
 11
252.2115359773
 21
196.791960567
  0
LINE
  5
4F2
100
AcDbEntity
  8
0
100
AcDbLine
 62
7
  6
CONTINUOUS
 10
277.248111445
 20
178.4855775711
 11
277.1231133524
 21
178.8685563383
  0
LINE
  5
4F3
100
AcDbEntity
  8
0
100
AcDbLine
 62
7
  6
CONTINUOUS
 10
277.6491125202
 20
171.5068542239
 11
277.7303030212
 21
171.2196200815
  0
LINE
  5
4F4
100
AcDbEntity
  8
0
100
AcDbLine
 62
7
  6
CONTINUOUS
 10
277.723872666
 20
173.0387692032
 11
277.642682165
 21
173.3260032115
  0
LINE
  5
4F5
100
AcDbEntity
  8
0
100
AcDbLine
 62
7
  6
CONTINUOUS
 10
277.973872666
 20
173.0387692032
 11
277.892682165
 21
173.3260032115
  0
LINE
  5
4F6
100
AcDbEntity
  8
0
100
AcDbLine
 62
7
  6
CONTINUOUS
 10
275.2134165366
 20
171.5068542239
 11
275.2946061085
 21
170.8366414038
  0
LINE
  5
4F7
100
AcDbEntity
  8
0
100
AcDbLine
 62
7
  6
CONTINUOUS
 10
276.498111445
 20
182.6983436522
 11
276.498111445
 21
181.6770668206
  0
LINE
  5
4F8
100
AcDbEntity
  8
0
100
AcDbLine
 62
7
  6
CONTINUOUS
 10
276.498111445
 20
181.1664285836
 11
276.498111445
 21
178.6132371304
  0
LINE
  5
4F9
100
AcDbEntity
  8
0
100
AcDbLine
 62
7
  6
CONTINUOUS
 10
277.1231133524
 20
182.6983436522
 11
277.1231133524
 21
181.6770668206
  0
LINE
  5
4FA
100
AcDbEntity
  8
0
100
AcDbLine
 62
7
  6
CONTINUOUS
 10
277.1231133524
 20
181.1664285836
 11
277.1231133524
 21
178.8685563383
  0
LINE
  5
4FB
100
AcDbEntity
  8
0
100
AcDbLine
 62
7
  6
CONTINUOUS
 10
277.7303030212
 20
171.2196200815
 11
277.7303030212
 21
170.9323860732
  0
LINE
  5
4FC
100
AcDbEntity
  8
0
100
AcDbLine
 62
7
  6
CONTINUOUS
 10
277.8862518098
 20
170.8366414038
 11
277.8862518098
 21
171.3153648851
  0
LINE
  5
4FD
100
AcDbEntity
  8
RUNDUNGEN
100
AcDbLine
 62
7
  6
CONTINUOUS
 10
278.1231123987
 20
214.4570240764
 11
278.1231123987
 21
225.8161652775
  0
LINE
  5
4FE
100
AcDbEntity
  8
0
100
AcDbLine
 62
7
  6
CONTINUOUS
 10
278.1362518098
 20
170.8366414038
 11
278.1362518098
 21
171.3153648851
  0
LINE
  5
4FF
100
AcDbEntity
  8
0
100
AcDbLine
 62
7
  6
CONTINUOUS
 10
278.2481133524
 20
178.1025988487
 11
278.2481133524
 21
177.591960567
  0
LINE
  5
500
100
AcDbEntity
  8
0
100
AcDbLine
 62
7
  6
CONTINUOUS
 10
278.4981123987
 20
181.6770668206
 11
278.4981123987
 21
181.1664285836
  0
LINE
  5
501
100
AcDbEntity
  8
0
100
AcDbLine
 62
7
  6
CONTINUOUS
 10
275.2946061085
 20
172.8472795961
 11
275.2134165366
 21
172.17706691
  0
LINE
  5
502
100
AcDbEntity
  8
0
100
AcDbLine
 62
7
  6
CONTINUOUS
 10
275.3693657898
 20
172.17706691
 11
275.4505558262
 21
172.7515349266
  0
LINE
  5
503
100
AcDbEntity
  8
0
100
AcDbLine
 62
7
  6
CONTINUOUS
 10
275.6193657898
 20
172.17706691
 11
275.7005558262
 21
172.7515349266
  0
LINE
  5
504
100
AcDbEntity
  8
0
100
AcDbLine
 62
7
  6
CONTINUOUS
 10
275.4505558262
 20
172.7515349266
 11
275.5317453981
 21
173.0387692032
  0
LINE
  5
505
100
AcDbEntity
  8
0
100
AcDbLine
 62
7
  6
CONTINUOUS
 10
275.7005558262
 20
172.7515349266
 11
275.7817453981
 21
173.0387692032
  0
LINE
  5
506
100
AcDbEntity
  8
0
100
AcDbLine
 62
7
  6
CONTINUOUS
 10
275.4505558262
 20
171.2196200815
 11
275.5317453981
 21
171.5068542239
  0
LINE
  5
507
100
AcDbEntity
  8
0
100
AcDbLine
 62
7
  6
CONTINUOUS
 10
275.7005558262
 20
171.2196200815
 11
275.7817453981
 21
171.5068542239
  0
LINE
  5
508
100
AcDbEntity
  8
0
100
AcDbLine
 62
7
  6
CONTINUOUS
 10
275.4569861814
 20
173.3260032115
 11
275.2946061085
 21
172.8472795961
  0
LINE
  5
509
100
AcDbEntity
  8
0
100
AcDbLine
 62
7
  6
CONTINUOUS
 10
274.0767578844
 20
174.091960567
 11
273.5896185948
 21
173.4217478809
  0
LINE
  5
50A
100
AcDbEntity
  8
0
100
AcDbLine
 62
7
  6
CONTINUOUS
 10
273.5896185948
 20
172.9997437057
 11
273.8267578844
 21
173.3260032115
  0
LINE
  5
50B
100
AcDbEntity
  8
0
100
AcDbLine
 62
7
  6
CONTINUOUS
 10
274.2481128755
 20
178.6132371304
 11
273.8731128755
 21
178.1025988487
  0
LINE
  5
50C
100
AcDbEntity
  8
KONSTRUKTIONSELEMENTE
100
AcDbLine
 62
7
  6
CONTINUOUS
 10
282.4602809728
 20
167.091960567
 11
282.4602809728
 21
176.091960567
  0
LINE
  5
50D
100
AcDbEntity
  8
0
100
AcDbLine
 62
7
  6
CONTINUOUS
 10
277.7303030212
 20
170.9323860732
 11
277.6491125202
 21
170.6451520649
  0
LINE
  5
50E
100
AcDbEntity
  8
0
100
AcDbLine
 62
7
  6
CONTINUOUS
 10
277.723872666
 20
170.3579179895
 11
277.8862518098
 21
170.8366414038
  0
LINE
  5
50F
100
AcDbEntity
  8
0
100
AcDbLine
 62
7
  6
CONTINUOUS
 10
277.973872666
 20
170.3579179895
 11
278.1362518098
 21
170.8366414038
  0
LINE
  5
510
100
AcDbEntity
  8
0
100
AcDbLine
 62
7
  6
CONTINUOUS
 10
275.5317453981
 20
173.0387692032
 11
275.6941254711
 21
173.3260032115
  0
LINE
  5
511
100
AcDbEntity
  8
0
100
AcDbLine
 62
7
  6
CONTINUOUS
 10
275.7817453981
 20
173.0387692032
 11
275.9441254711
 21
173.3260032115
  0
LINE
  5
512
100
AcDbEntity
  8
0
100
AcDbLine
 62
7
  6
CONTINUOUS
 10
275.7005558262
 20
173.7089818892
 11
275.4569861814
 21
173.3260032115
  0
LINE
  5
513
100
AcDbEntity
  8
0
100
AcDbLine
 62
7
  6
CONTINUOUS
 10
273.5896185948
 20
172.6557902572
 11
274.0767578844
 21
173.3260032115
  0
LINE
  5
514
100
AcDbEntity
  8
0
100
AcDbLine
 62
7
  6
CONTINUOUS
 10
275.5317453981
 20
171.5068542239
 11
275.6941254711
 21
171.6983435628
  0
LINE
  5
515
100
AcDbEntity
  8
0
100
AcDbLine
 62
7
  6
CONTINUOUS
 10
275.7817453981
 20
171.5068542239
 11
275.9441254711
 21
171.6983435628
  0
LINE
  5
516
100
AcDbEntity
  8
0
100
AcDbLine
 62
7
  6
CONTINUOUS
 10
275.6941254711
 20
173.3260032115
 11
275.9376951159
 21
173.5174925503
  0
LINE
  5
517
100
AcDbEntity
  8
0
100
AcDbLine
 62
7
  6
CONTINUOUS
 10
275.9441254711
 20
173.3260032115
 11
276.1876951159
 21
173.5174925503
  0
LINE
  5
518
100
AcDbEntity
  8
0
100
AcDbLine
 62
7
  6
CONTINUOUS
 10
276.1065050794
 20
172.3685562489
 11
275.6193657898
 21
171.9855775711
  0
LINE
  5
519
100
AcDbEntity
  8
0
100
AcDbLine
 62
7
  6
CONTINUOUS
 10
275.6941254711
 20
171.6983435628
 11
275.9376951159
 21
171.8898329017
  0
LINE
  5
51A
100
AcDbEntity
  8
0
100
AcDbLine
 62
7
  6
CONTINUOUS
 10
275.9441254711
 20
171.6983435628
 11
276.1876951159
 21
171.8898329017
  0
LINE
  5
51B
100
AcDbEntity
  8
0
100
AcDbLine
 62
7
  6
CONTINUOUS
 10
276.1065050794
 20
173.9962158975
 11
275.7005558262
 21
173.7089818892
  0
LINE
  5
51C
100
AcDbEntity
  8
0
100
AcDbLine
 62
7
  6
CONTINUOUS
 10
275.9376951159
 20
173.5174925503
 11
276.1812647607
 21
173.6132372198
  0
LINE
  5
51D
100
AcDbEntity
  8
0
100
AcDbLine
 62
7
  6
CONTINUOUS
 10
276.1876951159
 20
173.5174925503
 11
276.4312647607
 21
173.6132372198
  0
LINE
  5
51E
100
AcDbEntity
  8
0
100
AcDbLine
 62
7
  6
CONTINUOUS
 10
275.9376951159
 20
171.8898329017
 11
276.1812647607
 21
171.9855775711
  0
LINE
  5
51F
100
AcDbEntity
  8
0
100
AcDbLine
 62
7
  6
CONTINUOUS
 10
276.1876951159
 20
171.8898329017
 11
276.4312647607
 21
171.9855775711
  0
LINE
  5
520
100
AcDbEntity
  8
0
100
AcDbLine
 62
7
  6
CONTINUOUS
 10
282.8731123987
 20
205.0240113745
 11
282.8731123987
 21
176.091960567
  0
LINE
  5
521
100
AcDbEntity
  8
KONSTRUKTIONSELEMENTE
100
AcDbLine
 62
7
  6
CONTINUOUS
 10
283.6231123987
 20
167.091960567
 11
283.6231123987
 21
176.091960567
  0
LINE
  5
522
100
AcDbEntity
  8
0
100
AcDbLine
 62
7
  6
CONTINUOUS
 10
277.6491125202
 20
170.6451520649
 11
277.4867333764
 21
170.3579179895
  0
LINE
  5
523
100
AcDbEntity
  8
0
100
AcDbLine
 62
7
  6
CONTINUOUS
 10
277.4803030212
 20
169.9749392783
 11
277.723872666
 21
170.3579179895
  0
LINE
  5
524
100
AcDbEntity
  8
0
100
AcDbLine
 62
7
  6
CONTINUOUS
 10
277.7303030212
 20
169.9749392783
 11
277.973872666
 21
170.3579179895
  0
LINE
  5
525
100
AcDbEntity
  8
0
100
AcDbLine
 62
7
  6
CONTINUOUS
 10
277.4867333764
 20
170.3579179895
 11
277.2431637316
 21
170.1664286507
  0
LINE
  5
526
100
AcDbEntity
  8
0
100
AcDbLine
 62
7
  6
CONTINUOUS
 10
277.0743533035
 20
169.6877052448
 11
277.4803030212
 21
169.9749392783
  0
LINE
  5
527
100
AcDbEntity
  8
0
100
AcDbLine
 62
7
  6
CONTINUOUS
 10
277.3243533035
 20
169.6877052448
 11
277.7303030212
 21
169.9749392783
  0
LINE
  5
528
100
AcDbEntity
  8
0
100
AcDbLine
 62
7
  6
CONTINUOUS
 10
277.2431637316
 20
170.1664286507
 11
276.9995940868
 21
170.0706839812
  0
LINE
  5
529
100
AcDbEntity
  8
RUNDUNGEN
100
AcDbLine
 62
7
  6
CONTINUOUS
 10
269.068137765
 20
211.6451533931
 11
266.6368227478
 21
214.3454022788
  0
LINE
  5
52A
100
AcDbEntity
  8
RUNDUNGEN
100
AcDbLine
 62
7
  6
CONTINUOUS
 10
282.7391378025
 20
205.5240113745
 11
278.5920234855
 21
212.7070240764
  0
LINE
  5
52B
100
AcDbEntity
  8
BEZUGSACHSEN
100
AcDbLine
 62
7
  6
CONTINUOUS
 10
266.1231123987
 20
216.091960567
 11
260.1231123987
 21
216.091960567
  0
LINE
  5
52C
100
AcDbEntity
  8
RUNDUNGEN
100
AcDbLine
 62
7
  6
CONTINUOUS
 10
277.7882431981
 20
227.066048728
 11
276.7917875332
 21
228.7919605672
  0
LINE
  5
52D
100
AcDbEntity
  8
FASEN
100
AcDbLine
 62
7
  6
CONTINUOUS
 10
270.6231123987
 20
143.091960567
 11
271.1231123987
 21
143.591960567
  0
LINE
  5
52E
100
AcDbEntity
  8
BEZUGSACHSEN
100
AcDbLine
 62
7
  6
CONTINUOUS
 10
266.1231123987
 20
223.491960567
 11
260.1231123987
 21
223.491960567
  0
LINE
  5
52F
100
AcDbEntity
  8
0
100
AcDbLine
 62
7
  6
CONTINUOUS
 10
275.9257734116
 20
229.291960567
 11
272.1784975368
 21
229.291960567
  0
LINE
  5
530
100
AcDbEntity
  8
0
100
AcDbLine
 62
7
  6
CONTINUOUS
 10
254.0677272606
 20
229.291960567
 11
249.3404513494
 21
229.291960567
  0
LINE
  5
531
100
AcDbEntity
  8
KONSTRUKTIONSELEMENTE
100
AcDbLine
 62
7
  6
CONTINUOUS
 10
130.5111125545
 20
51.6022247169
 11
130.5111125545
 21
49.2765618651
  0
LINE
  5
532
100
AcDbEntity
  8
KONSTRUKTIONSELEMENTE
100
AcDbLine
 62
7
  6
CONTINUOUS
 10
143.0181541096
 20
70.939393291
 11
141.0040709993
 21
69.7765618651
  0
LINE
  5
533
100
AcDbEntity
  8
KONSTRUKTIONSELEMENTE
100
AcDbLine
 62
7
  6
CONTINUOUS
 10
141.0040709993
 20
31.1022247169
 11
143.0181541096
 21
29.939393291
  0
LINE
  5
534
100
AcDbEntity
  8
KONSTRUKTIONSELEMENTE
100
AcDbLine
 62
7
  6
CONTINUOUS
 10
141.0040709993
 20
69.7765618651
 11
130.5111125545
 21
51.6022247169
  0
LINE
  5
535
100
AcDbEntity
  8
KONSTRUKTIONSELEMENTE
100
AcDbLine
 62
7
  6
CONTINUOUS
 10
143.0181541096
 20
29.939393291
 11
164.0040709993
 21
29.939393291
  0
LINE
  5
536
100
AcDbEntity
  8
KONSTRUKTIONSELEMENTE
100
AcDbLine
 62
7
  6
CONTINUOUS
 10
130.5111125545
 20
49.2765618651
 11
141.0040709993
 21
31.1022247169
  0
LINE
  5
537
100
AcDbEntity
  8
0
100
AcDbLine
 62
7
  6
CONTINUOUS
 10
141.1146664912
 20
35.064393291
 11
140.720124516
 21
35.064393291
  0
LINE
  5
538
100
AcDbEntity
  8
RUNDUNGEN
100
AcDbLine
 62
7
  6
CONTINUOUS
 10
145.5111125545
 20
35.439393291
 11
161.5111125545
 21
35.439393291
  0
LINE
  5
539
100
AcDbEntity
  8
0
100
AcDbLine
 62
7
  6
CONTINUOUS
 10
139.5804817971
 20
36.4393923374
 11
139.2282566322
 21
36.4393923374
  0
LINE
  5
53A
100
AcDbEntity
  8
0
100
AcDbLine
 62
7
  6
CONTINUOUS
 10
138.9793576532
 20
37.0643942447
 11
138.641364725
 21
37.0643942447
  0
LINE
  5
53B
100
AcDbEntity
  8
0
100
AcDbLine
 62
7
  6
CONTINUOUS
 10
162.5111125545
 20
37.439393291
 11
163.0111125545
 21
37.439393291
  0
LINE
  5
53C
100
AcDbEntity
  8
0
100
AcDbLine
 62
7
  6
CONTINUOUS
 10
162.5111125545
 20
37.5032230706
 11
163.0111125545
 21
37.5032230706
  0
LINE
  5
53D
100
AcDbEntity
  8
0
100
AcDbLine
 62
7
  6
CONTINUOUS
 10
162.5111125545
 20
37.6947124095
 11
163.0111125545
 21
37.6947124095
  0
LINE
  5
53E
100
AcDbEntity
  8
0
100
AcDbLine
 62
7
  6
CONTINUOUS
 10
162.5111125545
 20
37.950031528
 11
163.0111125545
 21
37.950031528
  0
LINE
  5
53F
100
AcDbEntity
  8
0
100
AcDbLine
 62
7
  6
CONTINUOUS
 10
138.1188458273
 20
38.064393291
 11
137.7993534232
 21
38.064393291
  0
LINE
  5
540
100
AcDbEntity
  8
0
100
AcDbLine
 62
7
  6
CONTINUOUS
 10
162.5111125545
 20
38.1415208669
 11
163.0111125545
 21
38.1415208669
  0
LINE
  5
541
100
AcDbEntity
  8
0
100
AcDbLine
 62
7
  6
CONTINUOUS
 10
162.5111125545
 20
38.3330103846
 11
163.0111125545
 21
38.3330103846
  0
LINE
  5
542
100
AcDbEntity
  8
0
100
AcDbLine
 62
7
  6
CONTINUOUS
 10
162.5111125545
 20
38.5244997235
 11
163.0111125545
 21
38.5244997235
  0
LINE
  5
543
100
AcDbEntity
  8
0
100
AcDbLine
 62
7
  6
CONTINUOUS
 10
162.5111125545
 20
38.5883295031
 11
163.0111125545
 21
38.5883295031
  0
LINE
  5
544
100
AcDbEntity
  8
0
100
AcDbLine
 62
7
  6
CONTINUOUS
 10
162.5111125545
 20
38.779818842
 11
163.0111125545
 21
38.779818842
  0
LINE
  5
545
100
AcDbEntity
  8
0
100
AcDbLine
 62
7
  6
CONTINUOUS
 10
162.5111125545
 20
38.9713081808
 11
163.0111125545
 21
38.9713081808
  0
LINE
  5
546
100
AcDbEntity
  8
0
100
AcDbLine
 62
7
  6
CONTINUOUS
 10
137.3657762047
 20
39.0643937679
 11
137.0609032595
 21
39.0643937679
  0
LINE
  5
547
100
AcDbEntity
  8
0
100
AcDbLine
 62
7
  6
CONTINUOUS
 10
162.5111125545
 20
39.290457079
 11
163.0111125545
 21
39.290457079
  0
LINE
  5
548
100
AcDbEntity
  8
0
100
AcDbLine
 62
7
  6
CONTINUOUS
 10
137.1925077002
 20
39.3143928142
 11
136.8908127861
 21
39.3143928142
  0
LINE
  5
549
100
AcDbEntity
  8
0
100
AcDbLine
 62
7
  6
CONTINUOUS
 10
162.5111125545
 20
39.6096060665
 11
163.0111125545
 21
39.6096060665
  0
LINE
  5
54A
100
AcDbEntity
  8
0
100
AcDbLine
 62
7
  6
CONTINUOUS
 10
162.5111125545
 20
39.9287550093
 11
163.0111125545
 21
39.9287550093
  0
LINE
  5
54B
100
AcDbEntity
  8
0
100
AcDbLine
 62
7
  6
CONTINUOUS
 10
162.5111125545
 20
40.1840741502
 11
163.0111125545
 21
40.1840741502
  0
LINE
  5
54C
100
AcDbEntity
  8
0
100
AcDbLine
 62
7
  6
CONTINUOUS
 10
162.5111125545
 20
40.3755635058
 11
163.0111125545
 21
40.3755635058
  0
LINE
  5
54D
100
AcDbEntity
  8
0
100
AcDbLine
 62
7
  6
CONTINUOUS
 10
162.5111125545
 20
40.439393291
 11
163.0111125545
 21
40.439393291
  0
LWPOLYLINE
  5
54E
100
AcDbEntity
  8
RUNDUNGEN
100
AcDbPolyline
 62
7
  6
CONTINUOUS
 90
7
 70
0
 10
144.5111124975
 20
58.809380564
 10
144.5128553637
 20
58.7338153933
 10
144.5214731236
 20
58.6255141789
 10
144.5359277355
 20
58.5244011064
 10
144.555135375
 20
58.4289573123
 10
144.578258765
 20
58.3382036094
 10
144.5886713707
 20
58.3022877277
  0
LINE
  5
54F
100
AcDbEntity
  8
0
100
AcDbLine
 62
7
  6
CONTINUOUS
 10
144.5111125545
 20
36.439393291
 11
144.5111125545
 21
41.3840081529
  0
LINE
  5
550
100
AcDbEntity
  8
RUNDUNGEN
100
AcDbLine
 62
7
  6
CONTINUOUS
 10
144.5111125545
 20
34.1279709128
 11
144.5111125545
 21
42.0697673703
  0
LINE
  5
551
100
AcDbEntity
  8
RUNDUNGEN
100
AcDbLine
 62
7
  6
CONTINUOUS
 10
144.5111125545
 20
58.8086913885
 11
144.5111125545
 21
66.7508156692
  0
LINE
  5
552
100
AcDbEntity
  8
0
100
AcDbLine
 62
7
  6
CONTINUOUS
 10
135.5667538903
 20
42.1893937679
 11
135.2919603276
 21
42.1893937679
  0
LINE
  5
553
100
AcDbEntity
  8
0
100
AcDbLine
 62
7
  6
CONTINUOUS
 10
135.5098105182
 20
42.314393291
 11
135.235873158
 21
42.314393291
  0
LWPOLYLINE
  5
554
100
AcDbEntity
  8
RUNDUNGEN
100
AcDbPolyline
 62
7
  6
CONTINUOUS
 90
6
 70
0
 10
144.5772479775
 20
42.5369627273
 10
144.553979838
 20
42.4447521376
 10
144.534811626
 20
42.3478686589
 10
144.5205879999
 20
42.2452303414
 10
144.5124285456
 20
42.1351478424
 10
144.5111126222
 20
42.0696271988
  0
LINE
  5
555
100
AcDbEntity
  8
RUNDUNGEN
100
AcDbLine
 62
7
  6
CONTINUOUS
 10
144.5886538279
 20
42.5764403658
 11
144.5772479775
 21
42.5369627273
  0
LINE
  5
556
100
AcDbEntity
  8
RUNDUNGEN
100
AcDbLine
 62
7
  6
CONTINUOUS
 10
144.588646972
 20
42.5764423904
 11
144.5887326395
 21
42.5767281044
  0
LINE
  5
557
100
AcDbEntity
  8
0
100
AcDbLine
 62
7
  6
CONTINUOUS
 10
135.3990479977
 20
42.5643937679
 11
135.1267609883
 21
42.5643937679
  0
LINE
  5
558
100
AcDbEntity
  8
0
100
AcDbLine
 62
7
  6
CONTINUOUS
 10
135.189762304
 20
43.064393291
 11
134.920540347
 21
43.064393291
  0
LINE
  5
559
100
AcDbEntity
  8
0
100
AcDbLine
 62
7
  6
CONTINUOUS
 10
134.9963382258
 20
43.5643928142
 11
134.7298887274
 21
43.5643928142
  0
LINE
  5
55A
100
AcDbEntity
  8
0
100
AcDbLine
 62
7
  6
CONTINUOUS
 10
134.7761185593
 20
44.189393291
 11
134.5127573625
 21
44.189393291
  0
LINE
  5
55B
100
AcDbEntity
  8
RUNDUNGEN
100
AcDbLine
 62
7
  6
CONTINUOUS
 10
144.5887551673
 20
58.3019992044
 11
144.5886688466
 21
58.3022869734
  0
LINE
  5
55C
100
AcDbEntity
  8
RUNDUNGEN
100
AcDbLine
 62
7
  6
CONTINUOUS
 10
144.6480822934
 20
42.7446508213
 11
144.5887326395
 21
42.5767281044
  0
LINE
  5
55D
100
AcDbEntity
  8
RUNDUNGEN
100
AcDbLine
 62
7
  6
CONTINUOUS
 10
145.4314281128
 20
44.1797817598
 11
145.3954937888
 21
44.0988299933
  0
LWPOLYLINE
  5
55E
100
AcDbEntity
  8
RUNDUNGEN
100
AcDbPolyline
 62
7
  6
CONTINUOUS
 90
3
 70
0
 10
145.3954937888
 20
44.0988299933
 10
145.360125635
 20
44.0210477051
 10
145.3233058079
 20
43.9420028902
  0
LINE
  5
55F
100
AcDbEntity
  8
RUNDUNGEN
100
AcDbLine
 62
7
  6
CONTINUOUS
 10
145.3233058079
 20
43.9420028902
 11
145.2912635597
 21
43.8747048853
  0
LWPOLYLINE
  5
560
100
AcDbEntity
  8
RUNDUNGEN
100
AcDbPolyline
 62
7
  6
CONTINUOUS
 90
3
 70
0
 10
145.2912395736
 20
43.8746601951
 10
145.2454474143
 20
43.7812850159
 10
145.1568023568
 20
43.6105956287
  0
LWPOLYLINE
  5
561
100
AcDbEntity
  8
RUNDUNGEN
100
AcDbPolyline
 62
7
  6
CONTINUOUS
 90
5
 70
0
 10
145.1568023568
 20
43.6105956287
 10
145.0678764235
 20
43.4519625317
 10
144.9792885789
 20
43.3057615636
 10
144.8917193478
 20
43.1723033855
 10
144.8518618344
 20
43.1150816761
  0
LWPOLYLINE
  5
562
100
AcDbEntity
  8
RUNDUNGEN
100
AcDbPolyline
 62
7
  6
CONTINUOUS
 90
3
 70
0
 10
145.1606875404
 20
57.2609836774
 10
145.2493018822
 20
57.0897835389
 10
145.2912357143
 20
57.0041346449
  0
LWPOLYLINE
  5
563
100
AcDbEntity
  8
RUNDUNGEN
100
AcDbPolyline
 62
7
  6
CONTINUOUS
 90
4
 70
0
 10
145.2912357143
 20
57.0041346449
 10
145.3268236947
 20
56.9293123688
 10
145.3635632429
 20
56.8502615262
 10
145.399510835
 20
56.7710225156
  0
LWPOLYLINE
  5
564
100
AcDbEntity
  8
RUNDUNGEN
100
AcDbPolyline
 62
7
  6
CONTINUOUS
 90
4
 70
0
 10
144.6516686693
 20
58.1254184339
 10
144.7307349324
 20
57.9588870292
 10
144.8262961899
 20
57.8006422668
 10
144.8954936365
 20
57.7009504285
  0
LINE
  5
565
100
AcDbEntity
  8
RUNDUNGEN
100
AcDbLine
 62
7
  6
CONTINUOUS
 10
145.4314286697
 20
56.6990035472
 11
145.399510835
 21
56.7710225156
  0
LINE
  5
566
100
AcDbEntity
  8
RUNDUNGEN
100
AcDbLine
 62
7
  6
CONTINUOUS
 10
144.5887551673
 20
58.3019992044
 11
144.6516686693
 21
58.1254184339
  0
LINE
  5
567
100
AcDbEntity
  8
BEZUGSACHSEN
100
AcDbLine
 62
7
  6
CONTINUOUS
 10
149.8111125545
 20
47.439393291
 11
149.8111125545
 21
53.439393291
  0
LWPOLYLINE
  5
568
100
AcDbEntity
  8
RUNDUNGEN
100
AcDbPolyline
 62
7
  6
CONTINUOUS
 90
4
 70
0
 10
144.8511966277
 20
43.1141226355
 10
144.8162441663
 20
43.063071013
 10
144.7242518933
 20
42.9077334911
 10
144.6480822934
 20
42.7446508213
  0
LINE
  5
569
100
AcDbEntity
  8
RUNDUNGEN
100
AcDbLine
 62
7
  6
CONTINUOUS
 10
148.4350337226
 20
47.0108366953
 11
148.4337284715
 21
47.0089629196
  0
LINE
  5
56A
100
AcDbEntity
  8
RUNDUNGEN
100
AcDbLine
 62
7
  6
CONTINUOUS
 10
144.8513975732
 20
43.1144058349
 11
144.8518532167
 21
43.1150474951
  0
LINE
  5
56B
100
AcDbEntity
  8
0
100
AcDbLine
 62
7
  6
CONTINUOUS
 10
134.0303528157
 20
47.189393291
 11
133.7769416826
 21
47.189393291
  0
LINE
  5
56C
100
AcDbEntity
  8
RUNDUNGEN
100
AcDbLine
 62
7
  6
CONTINUOUS
 10
157.7665499079
 20
47.439393291
 11
149.255675201
 21
47.439393291
  0
LINE
  5
56D
100
AcDbEntity
  8
0
100
AcDbLine
 62
7
  6
CONTINUOUS
 10
133.9535052718
 20
47.6893937679
 11
133.7010771526
 21
47.6893937679
  0
LINE
  5
56E
100
AcDbEntity
  8
0
100
AcDbLine
 62
7
  6
CONTINUOUS
 10
133.8896957115
 20
48.1893930526
 11
133.6380780875
 21
48.1893930526
  0
LINE
  5
56F
100
AcDbEntity
  8
RUNDUNGEN
100
AcDbLine
 62
7
  6
CONTINUOUS
 10
144.8518533838
 20
57.7637195046
 11
144.8515792115
 21
57.7641055867
  0
LWPOLYLINE
  5
570
100
AcDbEntity
  8
RUNDUNGEN
100
AcDbPolyline
 62
7
  6
CONTINUOUS
 90
4
 70
0
 10
144.8954936365
 20
57.7009504285
 10
144.9831431188
 20
57.5669044503
 10
145.0717633338
 20
57.4201504214
 10
145.1606875404
 20
57.2609836774
  0
LINE
  5
571
100
AcDbEntity
  8
RUNDUNGEN
100
AcDbLine
 62
7
  6
CONTINUOUS
 10
160.6984867188
 20
55.7393138274
 11
160.6983602287
 21
55.7392466904
  0
LINE
  5
572
100
AcDbEntity
  8
0
100
AcDbLine
 62
7
  6
CONTINUOUS
 10
133.8181569793
 20
48.9393930526
 11
133.5674418972
 21
48.9393930526
  0
LINE
  5
573
100
AcDbEntity
  8
0
100
AcDbLine
 62
7
  6
CONTINUOUS
 10
133.8090346184
 20
49.064393291
 11
133.5584341628
 21
49.064393291
  0
LINE
  5
574
100
AcDbEntity
  8
0
100
AcDbLine
 62
7
  6
CONTINUOUS
 10
133.7931797403
 20
49.3143930526
 11
133.5427782608
 21
49.3143930526
  0
LINE
  5
575
100
AcDbEntity
  8
0
100
AcDbLine
 62
7
  6
CONTINUOUS
 10
133.7753582075
 20
49.6893930526
 11
133.5251800108
 21
49.6893930526
  0
LINE
  5
576
100
AcDbEntity
  8
0
100
AcDbLine
 62
7
  6
CONTINUOUS
 10
133.7626948963
 20
50.189393291
 11
133.5126751155
 21
50.189393291
  0
LINE
  5
577
100
AcDbEntity
  8
0
100
AcDbLine
 62
7
  6
CONTINUOUS
 10
133.7626948994
 20
50.6893935294
 11
133.5126751185
 21
50.6893935294
  0
LINE
  5
578
100
AcDbEntity
  8
RUNDUNGEN
100
AcDbLine
 62
7
  6
CONTINUOUS
 10
160.6983598429
 20
45.1395411609
 11
160.69848864
 21
45.1394727992
  0
LINE
  5
579
100
AcDbEntity
  8
RUNDUNGEN
100
AcDbLine
 62
7
  6
CONTINUOUS
 10
146.3237398987
 20
45.1394734482
 11
146.323864802
 21
45.1395397429
  0
LINE
  5
57A
100
AcDbEntity
  8
0
100
AcDbLine
 62
7
  6
CONTINUOUS
 10
133.7753581894
 20
51.1893930526
 11
133.5251799929
 21
51.1893930526
  0
LINE
  5
57B
100
AcDbEntity
  8
0
100
AcDbLine
 62
7
  6
CONTINUOUS
 10
133.7931797131
 20
51.5643930526
 11
133.5427782339
 21
51.5643930526
  0
LINE
  5
57C
100
AcDbEntity
  8
0
100
AcDbLine
 62
7
  6
CONTINUOUS
 10
133.809034635
 20
51.8143935294
 11
133.5584341793
 21
51.8143935294
  0
LINE
  5
57D
100
AcDbEntity
  8
0
100
AcDbLine
 62
7
  6
CONTINUOUS
 10
133.818156943
 20
51.9393930526
 11
133.5674418614
 21
51.9393930526
  0
LINE
  5
57E
100
AcDbEntity
  8
0
100
AcDbLine
 62
7
  6
CONTINUOUS
 10
133.8896956978
 20
52.6893934102
 11
133.638078074
 21
52.6893934102
  0
LINE
  5
57F
100
AcDbEntity
  8
RUNDUNGEN
100
AcDbLine
 62
7
  6
CONTINUOUS
 10
146.3238652053
 20
55.7392455415
 11
146.3237331554
 21
55.7393156298
  0
LINE
  5
580
100
AcDbEntity
  8
RUNDUNGEN
100
AcDbLine
 62
7
  6
CONTINUOUS
 10
158.5885550885
 20
47.0088790447
 11
158.5871995419
 21
47.0108249827
  0
LINE
  5
581
100
AcDbEntity
  8
BEZUGSACHSEN
100
AcDbLine
 62
7
  6
CONTINUOUS
 10
157.2111125545
 20
47.439393291
 11
157.2111125545
 21
53.439393291
  0
LWPOLYLINE
  5
582
100
AcDbEntity
  8
RUNDUNGEN
100
AcDbPolyline
 62
7
  6
CONTINUOUS
 90
5
 70
0
 10
161.8653935986
 20
57.268138548
 10
161.9543136014
 20
57.4267664271
 10
162.0429014817
 20
57.5729708713
 10
162.130481493
 20
57.7064473161
 10
162.1703601904
 20
57.7637000206
  0
LWPOLYLINE
  5
583
100
AcDbEntity
  8
RUNDUNGEN
100
AcDbPolyline
 62
7
  6
CONTINUOUS
 90
4
 70
0
 10
162.1710262397
 20
57.7646600965
 10
162.2059805625
 20
57.8157144112
 10
162.2979724133
 20
57.9710512943
 10
162.3741418472
 20
58.1341331823
  0
LINE
  5
584
100
AcDbEntity
  8
RUNDUNGEN
100
AcDbLine
 62
7
  6
CONTINUOUS
 10
162.1708255997
 20
57.7643773279
 11
162.1703688503
 21
57.7637341134
  0
LINE
  5
585
100
AcDbEntity
  8
0
100
AcDbLine
 62
7
  6
CONTINUOUS
 10
133.9535053724
 20
53.1893935294
 11
133.7010772519
 21
53.1893935294
  0
LINE
  5
586
100
AcDbEntity
  8
RUNDUNGEN
100
AcDbLine
 62
7
  6
CONTINUOUS
 10
149.255675201
 20
53.439393291
 11
157.7665499079
 21
53.439393291
  0
LINE
  5
587
100
AcDbEntity
  8
0
100
AcDbLine
 62
7
  6
CONTINUOUS
 10
134.0303527958
 20
53.6893931718
 11
133.776941663
 21
53.6893931718
  0
LINE
  5
588
100
AcDbEntity
  8
0
100
AcDbLine
 62
7
  6
CONTINUOUS
 10
134.0516193906
 20
53.8143934102
 11
133.7979348757
 21
53.8143934102
  0
LINE
  5
589
100
AcDbEntity
  8
0
100
AcDbLine
 62
7
  6
CONTINUOUS
 10
134.0737130371
 20
53.939393291
 11
133.819743887
 21
53.939393291
  0
LINE
  5
58A
100
AcDbEntity
  8
0
100
AcDbLine
 62
7
  6
CONTINUOUS
 10
134.144985554
 20
54.314393291
 11
133.89009385
 21
54.314393291
  0
LINE
  5
58B
100
AcDbEntity
  8
0
100
AcDbLine
 62
7
  6
CONTINUOUS
 10
134.2517803739
 20
54.8143931718
 11
133.9954937828
 21
54.8143931718
  0
LINE
  5
58C
100
AcDbEntity
  8
RUNDUNGEN
100
AcDbLine
 62
7
  6
CONTINUOUS
 10
162.1703708343
 20
43.1150675495
 11
162.1706671197
 21
43.1146503241
  0
LWPOLYLINE
  5
58D
100
AcDbEntity
  8
RUNDUNGEN
100
AcDbPolyline
 62
7
  6
CONTINUOUS
 90
4
 70
0
 10
162.1267268472
 20
43.1778432372
 10
162.0390747976
 20
43.3118934684
 10
161.9504545444
 20
43.4586475559
 10
161.8615316122
 20
43.6178125519
  0
LWPOLYLINE
  5
58E
100
AcDbEntity
  8
RUNDUNGEN
100
AcDbPolyline
 62
7
  6
CONTINUOUS
 90
3
 70
0
 10
161.8615316122
 20
43.6178125519
 10
161.7729198407
 20
43.7890086467
 10
161.7309900523
 20
43.8746497167
  0
LINE
  5
58F
100
AcDbEntity
  8
RUNDUNGEN
100
AcDbLine
 62
7
  6
CONTINUOUS
 10
162.433572397
 20
58.3023503108
 11
162.4449947195
 21
58.3418867767
  0
LINE
  5
590
100
AcDbEntity
  8
RUNDUNGEN
100
AcDbLine
 62
7
  6
CONTINUOUS
 10
162.4335793844
 20
58.3023482422
 11
162.4334917004
 21
58.3020557968
  0
LINE
  5
591
100
AcDbEntity
  8
RUNDUNGEN
100
AcDbLine
 62
7
  6
CONTINUOUS
 10
162.3741418472
 20
58.1341331823
 11
162.4334917004
 21
58.3020557968
  0
LINE
  5
592
100
AcDbEntity
  8
RUNDUNGEN
100
AcDbLine
 62
7
  6
CONTINUOUS
 10
161.5907969261
 20
56.6990046875
 11
161.6267313798
 21
56.7799565718
  0
LWPOLYLINE
  5
593
100
AcDbEntity
  8
RUNDUNGEN
100
AcDbPolyline
 62
7
  6
CONTINUOUS
 90
3
 70
0
 10
161.6267313798
 20
56.7799565718
 10
161.6621011868
 20
56.8577425193
 10
161.6989207651
 20
56.9367868057
  0
LINE
  5
594
100
AcDbEntity
  8
RUNDUNGEN
100
AcDbLine
 62
7
  6
CONTINUOUS
 10
161.6989207651
 20
56.9367868057
 11
161.7309615573
 21
57.0040817562
  0
LWPOLYLINE
  5
595
100
AcDbEntity
  8
RUNDUNGEN
100
AcDbPolyline
 62
7
  6
CONTINUOUS
 90
3
 70
0
 10
161.730986277
 20
57.0041276086
 10
161.7767590562
 20
57.0974644532
 10
161.8653935986
 20
57.268138548
  0
LINE
  5
596
100
AcDbEntity
  8
0
100
AcDbLine
 62
7
  6
CONTINUOUS
 10
134.4045037502
 20
55.439393291
 11
134.1461958234
 21
55.439393291
  0
LWPOLYLINE
  5
597
100
AcDbEntity
  8
RUNDUNGEN
100
AcDbPolyline
 62
7
  6
CONTINUOUS
 90
4
 70
0
 10
161.7309900523
 20
43.8746497167
 10
161.6954018431
 20
43.9494734901
 10
161.6586623048
 20
44.0285243585
 10
161.6227146343
 20
44.1077635684
  0
LWPOLYLINE
  5
598
100
AcDbEntity
  8
RUNDUNGEN
100
AcDbPolyline
 62
7
  6
CONTINUOUS
 90
4
 70
0
 10
162.3705597597
 20
42.7533574877
 10
162.2914893948
 20
42.919900344
 10
162.1959201623
 20
43.0781570618
 10
162.1267268472
 20
43.1778432372
  0
LINE
  5
599
100
AcDbEntity
  8
RUNDUNGEN
100
AcDbLine
 62
7
  6
CONTINUOUS
 10
161.5907963967
 20
44.1797830894
 11
161.6227146343
 21
44.1077635684
  0
LINE
  5
59A
100
AcDbEntity
  8
RUNDUNGEN
100
AcDbLine
 62
7
  6
CONTINUOUS
 10
162.433469811
 20
42.5767891719
 11
162.3705597597
 21
42.7533574877
  0
LINE
  5
59B
100
AcDbEntity
  8
RUNDUNGEN
100
AcDbLine
 62
7
  6
CONTINUOUS
 10
162.433469811
 20
42.5767891719
 11
162.4335156631
 21
42.5766363986
  0
LWPOLYLINE
  5
59C
100
AcDbEntity
  8
RUNDUNGEN
100
AcDbPolyline
 62
7
  6
CONTINUOUS
 90
6
 70
0
 10
162.4449947195
 20
58.3418867767
 10
162.4682602962
 20
58.4341004068
 10
162.4874233038
 20
58.5309754061
 10
162.5016415949
 20
58.6335995931
 10
162.5097980197
 20
58.7436690819
 10
162.5111126311
 20
58.8091340096
  0
LINE
  5
59D
100
AcDbEntity
  8
0
100
AcDbLine
 62
7
  6
CONTINUOUS
 10
135.4539117747
 20
58.439393291
 11
135.1808097747
 21
58.439393291
  0
LINE
  5
59E
100
AcDbEntity
  8
0
100
AcDbLine
 62
7
  6
CONTINUOUS
 10
135.6247524721
 20
58.8143931718
 11
135.3490813631
 21
58.8143931718
  0
LWPOLYLINE
  5
59F
100
AcDbEntity
  8
RUNDUNGEN
100
AcDbPolyline
 62
7
  6
CONTINUOUS
 90
7
 70
0
 10
162.5111147009
 20
42.0710311912
 10
162.5093076504
 20
42.1462804534
 10
162.5004474205
 20
42.2559618259
 10
162.4856066528
 20
42.3583440369
 10
162.4660105126
 20
42.4545154707
 10
162.4426861346
 20
42.5451342004
 10
162.4335119513
 20
42.5766352767
  0
LINE
  5
5A0
100
AcDbEntity
  8
RUNDUNGEN
100
AcDbLine
 62
7
  6
CONTINUOUS
 10
162.5111125545
 20
66.7508156692
 11
162.5111125545
 21
58.8086945092
  0
LINE
  5
5A1
100
AcDbEntity
  8
RUNDUNGEN
100
AcDbLine
 62
7
  6
CONTINUOUS
 10
162.5111103056
 20
42.071068378
 11
162.5111125545
 21
34.1279709128
  0
LINE
  5
5A2
100
AcDbEntity
  8
0
100
AcDbLine
 62
7
  6
CONTINUOUS
 10
163.0111125545
 20
65.4099026819
 11
163.0111125545
 21
64.8055684538
  0
LINE
  5
5A3
100
AcDbEntity
  8
0
100
AcDbLine
 62
7
  6
CONTINUOUS
 10
163.0111125545
 20
64.7826773288
 11
163.0111125545
 21
61.4299529335
  0
LINE
  5
5A4
100
AcDbEntity
  8
0
100
AcDbLine
 62
7
  6
CONTINUOUS
 10
163.0111125545
 20
40.439393291
 11
163.0111125545
 21
37.439393291
  0
LINE
  5
5A5
100
AcDbEntity
  8
0
100
AcDbLine
 62
7
  6
CONTINUOUS
 10
135.9309390627
 20
59.439393291
 11
135.650541455
 21
59.439393291
  0
LINE
  5
5A6
100
AcDbEntity
  8
0
100
AcDbLine
 62
7
  6
CONTINUOUS
 10
162.5111125545
 20
61.4199278077
 11
163.0111125545
 21
61.4199278077
  0
LINE
  5
5A7
100
AcDbEntity
  8
0
100
AcDbLine
 62
7
  6
CONTINUOUS
 10
162.5111125545
 20
61.4299529335
 11
163.0111125545
 21
61.4299529335
  0
LINE
  5
5A8
100
AcDbEntity
  8
0
100
AcDbLine
 62
7
  6
CONTINUOUS
 10
162.5111125545
 20
62.0342871616
 11
163.0111125545
 21
62.0342871616
  0
LINE
  5
5A9
100
AcDbEntity
  8
0
100
AcDbLine
 62
7
  6
CONTINUOUS
 10
137.8247331124
 20
62.439393291
 11
137.5111125545
 21
62.439393291
  0
LINE
  5
5AA
100
AcDbEntity
  8
0
100
AcDbLine
 62
7
  6
CONTINUOUS
 10
162.5111125545
 20
63.1155935795
 11
163.0111125545
 21
63.1155935795
  0
LINE
  5
5AB
100
AcDbEntity
  8
0
100
AcDbLine
 62
7
  6
CONTINUOUS
 10
162.5111125545
 20
63.7199278077
 11
163.0111125545
 21
63.7199278077
  0
LINE
  5
5AC
100
AcDbEntity
  8
0
100
AcDbLine
 62
7
  6
CONTINUOUS
 10
162.5111125545
 20
64.8055684538
 11
163.0111125545
 21
64.8055684538
  0
LINE
  5
5AD
100
AcDbEntity
  8
0
100
AcDbLine
 62
7
  6
CONTINUOUS
 10
162.5111125545
 20
65.4099026819
 11
163.0111125545
 21
65.4099026819
  0
LINE
  5
5AE
100
AcDbEntity
  8
0
100
AcDbLine
 62
7
  6
CONTINUOUS
 10
162.5111125545
 20
65.4199278077
 11
163.0111125545
 21
65.4199278077
  0
LINE
  5
5AF
100
AcDbEntity
  8
RUNDUNGEN
100
AcDbLine
 62
7
  6
CONTINUOUS
 10
161.5111125545
 20
66.419393291
 11
145.5111125545
 21
66.419393291
  0
LINE
  5
5B0
100
AcDbEntity
  8
KONSTRUKTIONSELEMENTE
100
AcDbLine
 62
7
  6
CONTINUOUS
 10
166.0181541096
 20
31.1022247169
 11
176.5111125545
 21
49.2765618651
  0
LINE
  5
5B1
100
AcDbEntity
  8
KONSTRUKTIONSELEMENTE
100
AcDbLine
 62
7
  6
CONTINUOUS
 10
164.0040709993
 20
70.939393291
 11
143.0181541096
 21
70.939393291
  0
LINE
  5
5B2
100
AcDbEntity
  8
KONSTRUKTIONSELEMENTE
100
AcDbLine
 62
7
  6
CONTINUOUS
 10
176.5111125545
 20
51.6022247169
 11
166.0181541096
 21
69.7765618651
  0
LINE
  5
5B3
100
AcDbEntity
  8
KONSTRUKTIONSELEMENTE
100
AcDbLine
 62
7
  6
CONTINUOUS
 10
176.5111125545
 20
49.2765618651
 11
176.5111125545
 21
51.6022247169
  0
LINE
  5
5B4
100
AcDbEntity
  8
KONSTRUKTIONSELEMENTE
100
AcDbLine
 62
7
  6
CONTINUOUS
 10
164.0040709993
 20
29.939393291
 11
166.0181541096
 21
31.1022247169
  0
LINE
  5
5B5
100
AcDbEntity
  8
KONSTRUKTIONSELEMENTE
100
AcDbLine
 62
7
  6
CONTINUOUS
 10
166.0181541096
 20
69.7765618651
 11
164.0040709993
 21
70.939393291
  0
ARC
  5
5B6
100
AcDbEntity
  8
RUNDUNGEN
100
AcDbCircle
 62
7
  6
CONTINUOUS
 10
139.5111125545
 20
201.791960567
 40
5.0
100
AcDbArc
 50
270.0000324082
 51
360.0
  0
ARC
  5
5B7
100
AcDbEntity
  8
RUNDUNGEN
100
AcDbCircle
 62
7
  6
CONTINUOUS
 10
135.7611125545
 20
194.791960567
 40
2.0
100
AcDbArc
 50
90.0
 51
180.0
  0
ARC
  5
5B8
100
AcDbEntity
  8
RUNDUNGEN
100
AcDbCircle
 62
7
  6
CONTINUOUS
 10
167.5111125545
 20
201.791960567
 40
5.0
100
AcDbArc
 50
180.0
 51
269.9996441364
  0
ARC
  5
5B9
100
AcDbEntity
  8
RUNDUNGEN
100
AcDbCircle
 62
7
  6
CONTINUOUS
 10
171.2611125545
 20
194.791960567
 40
2.0
100
AcDbArc
 50
0.0
 51
90.0
  0
ARC
  5
5BA
100
AcDbEntity
  8
RUNDUNGEN
100
AcDbCircle
 62
7
  6
CONTINUOUS
 10
153.5111125545
 20
220.291960567
 40
9.0
100
AcDbArc
 50
0.0
 51
180.0
  0
ARC
  5
5BB
100
AcDbEntity
  8
RUNDUNGEN
100
AcDbCircle
 62
7
  6
CONTINUOUS
 10
243.6431123987
 20
214.4570240764
 40
3.5
100
AcDbArc
 50
330.0
 51
360.0
  0
ARC
  5
5BC
100
AcDbEntity
  8
RUNDUNGEN
100
AcDbCircle
 62
7
  6
CONTINUOUS
 10
249.6431123987
 20
225.8161652776
 40
2.5
100
AcDbArc
 50
150.0
 51
180.0000625445
  0
ARC
  5
5BD
100
AcDbEntity
  8
RUNDUNGEN
100
AcDbCircle
 62
7
  6
CONTINUOUS
 10
258.1231123987
 20
225.8676752813
 40
2.0
100
AcDbArc
 50
0.0
 51
76.8634412131
  0
ARC
  5
5BE
100
AcDbEntity
  8
RUNDUNGEN
100
AcDbCircle
 62
7
  6
CONTINUOUS
 10
258.1231123987
 20
215.6836634915
 40
2.0
100
AcDbArc
 50
318.0
 51
360.0
  0
ARC
  5
5BF
100
AcDbEntity
  8
RUNDUNGEN
100
AcDbCircle
 62
7
  6
CONTINUOUS
 10
244.3731608187
 20
206.7215050319
 40
1.0
100
AcDbArc
 50
150.0055485255
 51
180.0048048296
  0
ARC
  5
5C0
100
AcDbEntity
  8
RUNDUNGEN
100
AcDbCircle
 62
7
  6
CONTINUOUS
 10
254.0677272606
 20
227.791960567
 40
1.5
100
AcDbArc
 50
65.090847263
 51
90.0
  0
ARC
  5
5C1
100
AcDbEntity
  8
RUNDUNGEN
100
AcDbCircle
 62
7
  6
CONTINUOUS
 10
249.3404626679
 20
228.291960567
 40
1.0
100
AcDbArc
 50
90.0000000005
 51
150.0
  0
ARC
  5
5C2
100
AcDbEntity
  8
RUNDUNGEN
100
AcDbCircle
 62
7
  6
CONTINUOUS
 10
263.1231123987
 20
206.291960567
 40
8.0
100
AcDbArc
 50
137.9987747858
 51
42.001426094
  0
ARC
  5
5C3
100
AcDbEntity
  8
RUNDUNGEN
100
AcDbCircle
 62
7
  6
CONTINUOUS
 10
281.6231123987
 20
214.4570240764
 40
3.5
100
AcDbArc
 50
180.0
 51
210.0
  0
ARC
  5
5C4
100
AcDbEntity
  8
RUNDUNGEN
100
AcDbCircle
 62
7
  6
CONTINUOUS
 10
275.6231123987
 20
225.8161652776
 40
2.5
100
AcDbArc
 50
0.0009709829
 51
29.9969156548
  0
ARC
  5
5C5
100
AcDbEntity
  8
RUNDUNGEN
100
AcDbCircle
 62
7
  6
CONTINUOUS
 10
268.1231123987
 20
225.8676752813
 40
2.0
100
AcDbArc
 50
103.1365587869
 51
180.0
  0
ARC
  5
5C6
100
AcDbEntity
  8
RUNDUNGEN
100
AcDbCircle
 62
7
  6
CONTINUOUS
 10
268.1231123987
 20
215.6836634915
 40
2.0
100
AcDbArc
 50
180.0
 51
222.0
  0
ARC
  5
5C7
100
AcDbEntity
  8
RUNDUNGEN
100
AcDbCircle
 62
7
  6
CONTINUOUS
 10
281.8731041502
 20
205.0240256614
 40
1.0
100
AcDbArc
 50
359.9991814288
 51
29.9990547862
  0
ARC
  5
5C8
100
AcDbEntity
  8
0
100
AcDbCircle
 62
7
  6
CONTINUOUS
 10
263.1231123987
 20
247.291960567
 40
20.0
100
AcDbArc
 50
245.090847263
 51
256.8634412131
  0
ARC
  5
5C9
100
AcDbEntity
  8
0
100
AcDbCircle
 62
7
  6
CONTINUOUS
 10
263.1231123987
 20
247.291960567
 40
20.0
100
AcDbArc
 50
283.1365587869
 51
294.909152737
  0
ARC
  5
5CA
100
AcDbEntity
  8
RUNDUNGEN
100
AcDbCircle
 62
7
  6
CONTINUOUS
 10
272.1784975368
 20
227.791960567
 40
1.5
100
AcDbArc
 50
90.0
 51
114.909152737
  0
ARC
  5
5CB
100
AcDbEntity
  8
RUNDUNGEN
100
AcDbCircle
 62
7
  6
CONTINUOUS
 10
275.9257621295
 20
228.2919605669
 40
1.0
100
AcDbArc
 50
30.0
 51
89.9999999994
  0
ARC
  5
5CC
100
AcDbEntity
  8
RUNDUNGEN
100
AcDbCircle
 62
7
  6
CONTINUOUS
 10
147.3640530149
 20
43.4283402027
 40
1.9999999826
100
AcDbArc
 50
118.7910677326
 51
161.4165852833
  0
ARC
  5
5CD
100
AcDbEntity
  8
RUNDUNGEN
100
AcDbCircle
 62
7
  6
CONTINUOUS
 10
146.5110839178
 20
34.127973741
 40
1.9999918181
100
AcDbArc
 50
180.0000810222
 51
246.7743345796
  0
ARC
  5
5CE
100
AcDbEntity
  8
RUNDUNGEN
100
AcDbCircle
 62
7
  6
CONTINUOUS
 10
147.2609318816
 20
43.3735031889
 40
1.9992447997
100
AcDbArc
 50
117.9547110294
 51
156.21648671
  0
ARC
  5
5CF
100
AcDbEntity
  8
RUNDUNGEN
100
AcDbCircle
 62
7
  6
CONTINUOUS
 10
146.0111125545
 20
41.3840081529
 40
1.5
100
AcDbArc
 50
155.0908472631
 51
180.0
  0
ARC
  5
5D0
100
AcDbEntity
  8
RUNDUNGEN
100
AcDbCircle
 62
7
  6
CONTINUOUS
 10
145.5111125545
 20
36.439393291
 40
1.0
100
AcDbArc
 50
180.0
 51
270.0
  0
ARC
  5
5D1
100
AcDbEntity
  8
RUNDUNGEN
100
AcDbCircle
 62
7
  6
CONTINUOUS
 10
149.255675201
 20
46.439393291
 40
1.0
100
AcDbArc
 50
89.9981653606
 51
145.4095925601
  0
ARC
  5
5D2
100
AcDbEntity
  8
RUNDUNGEN
100
AcDbCircle
 62
7
  6
CONTINUOUS
 10
126.5111125545
 20
50.439393291
 40
20.0
100
AcDbArc
 50
18.5833672856
 51
24.909152737
  0
ARC
  5
5D3
100
AcDbEntity
  8
RUNDUNGEN
100
AcDbCircle
 62
7
  6
CONTINUOUS
 10
126.5111125545
 20
50.439393291
 40
20.0
100
AcDbArc
 50
335.090847263
 51
341.4166327144
  0
ARC
  5
5D4
100
AcDbEntity
  8
RUNDUNGEN
100
AcDbCircle
 62
7
  6
CONTINUOUS
 10
143.5111125545
 20
50.439393291
 40
6.0
100
AcDbArc
 50
297.9555532773
 51
325.1284614819
  0
ARC
  5
5D5
100
AcDbEntity
  8
RUNDUNGEN
100
AcDbCircle
 62
7
  6
CONTINUOUS
 10
143.5111125545
 20
50.439393291
 40
6.0
100
AcDbArc
 50
34.849904579
 51
62.0445627616
  0
ARC
  5
5D6
100
AcDbEntity
  8
RUNDUNGEN
100
AcDbCircle
 62
7
  6
CONTINUOUS
 10
147.3640537309
 20
57.4504448734
 40
2.0
100
AcDbArc
 50
198.5833672856
 51
241.2088935109
  0
ARC
  5
5D7
100
AcDbEntity
  8
RUNDUNGEN
100
AcDbCircle
 62
7
  6
CONTINUOUS
 10
147.2609325338
 20
57.5052820233
 40
1.9992448518
100
AcDbArc
 50
203.7835097047
 51
242.0450587242
  0
ARC
  5
5D8
100
AcDbEntity
  8
RUNDUNGEN
100
AcDbCircle
 62
7
  6
CONTINUOUS
 10
149.255675201
 20
54.439393291
 40
1.0
100
AcDbArc
 50
214.849904579
 51
270.0
  0
ARC
  5
5D9
100
AcDbEntity
  8
RUNDUNGEN
100
AcDbCircle
 62
7
  6
CONTINUOUS
 10
146.5111125545
 20
66.7508156692
 40
2.0
100
AcDbArc
 50
113.2270472543
 51
180.0
  0
ARC
  5
5DA
100
AcDbEntity
  8
RUNDUNGEN
100
AcDbCircle
 62
7
  6
CONTINUOUS
 10
146.0111125545
 20
59.4947784292
 40
1.5
100
AcDbArc
 50
180.0
 51
204.909152737
  0
ARC
  5
5DB
100
AcDbEntity
  8
RUNDUNGEN
100
AcDbCircle
 62
7
  6
CONTINUOUS
 10
145.5111125545
 20
65.419393291
 40
1.0
100
AcDbArc
 50
90.0
 51
180.0
  0
ARC
  5
5DC
100
AcDbEntity
  8
RUNDUNGEN
100
AcDbCircle
 62
7
  6
CONTINUOUS
 10
160.5111125545
 20
34.1279709128
 40
2.0
100
AcDbArc
 50
293.2248924501
 51
360.0
  0
ARC
  5
5DD
100
AcDbEntity
  8
RUNDUNGEN
100
AcDbCircle
 62
7
  6
CONTINUOUS
 10
159.658171378
 20
43.4283417087
 40
2.0
100
AcDbArc
 50
18.5833672856
 51
61.2088935109
  0
ARC
  5
5DE
100
AcDbEntity
  8
RUNDUNGEN
100
AcDbCircle
 62
7
  6
CONTINUOUS
 10
159.7612924987
 20
43.373504686
 40
1.9992448534
100
AcDbArc
 50
23.7835074029
 51
62.0451644683
  0
ARC
  5
5DF
100
AcDbEntity
  8
RUNDUNGEN
100
AcDbCircle
 62
7
  6
CONTINUOUS
 10
161.0111125545
 20
41.3840081529
 40
1.5
100
AcDbArc
 50
0.0
 51
24.9091527382
  0
ARC
  5
5E0
100
AcDbEntity
  8
RUNDUNGEN
100
AcDbCircle
 62
7
  6
CONTINUOUS
 10
161.5111125545
 20
36.439393291
 40
1.0
100
AcDbArc
 50
270.0
 51
360.0
  0
ARC
  5
5E1
100
AcDbEntity
  8
RUNDUNGEN
100
AcDbCircle
 62
7
  6
CONTINUOUS
 10
157.7665499079
 20
46.439393291
 40
1.0
100
AcDbArc
 50
34.5786948864
 51
90.0018508594
  0
ARC
  5
5E2
100
AcDbEntity
  8
0
100
AcDbCircle
 62
7
  6
CONTINUOUS
 10
153.5111125545
 20
50.439393291
 40
20.0
100
AcDbArc
 50
218.2249102016
 51
230.2417722628
  0
ARC
  5
5E3
100
AcDbEntity
  8
0
100
AcDbCircle
 62
7
  6
CONTINUOUS
 10
153.5111125545
 20
50.439393291
 40
20.0
100
AcDbArc
 50
143.1301023542
 51
214.6631037125
  0
CIRCLE
  5
5E4
100
AcDbEntity
  8
RUNDUNGEN
100
AcDbCircle
 62
7
  6
CONTINUOUS
 10
153.5111125545
 20
50.439393291
 40
19.75
  0
ARC
  5
5E5
100
AcDbEntity
  8
RUNDUNGEN
100
AcDbCircle
 62
7
  6
CONTINUOUS
 10
157.7665499079
 20
54.439393291
 40
1.0
100
AcDbArc
 50
270.0
 51
325.150095421
  0
ARC
  5
5E6
100
AcDbEntity
  8
RUNDUNGEN
100
AcDbCircle
 62
7
  6
CONTINUOUS
 10
163.5111125545
 20
50.439393291
 40
6.0
100
AcDbArc
 50
214.8725147689
 51
242.0445627885
  0
ARC
  5
5E7
100
AcDbEntity
  8
RUNDUNGEN
100
AcDbCircle
 62
7
  6
CONTINUOUS
 10
163.5111125545
 20
50.439393291
 40
6.0
100
AcDbArc
 50
117.9555526836
 51
145.150095421
  0
ARC
  5
5E8
100
AcDbEntity
  8
RUNDUNGEN
100
AcDbCircle
 62
7
  6
CONTINUOUS
 10
159.6581720035
 20
57.4504461778
 40
1.9999999845
100
AcDbArc
 50
298.7910727894
 51
341.4165915854
  0
ARC
  5
5E9
100
AcDbEntity
  8
RUNDUNGEN
100
AcDbCircle
 62
7
  6
CONTINUOUS
 10
159.7612931545
 20
57.5052832436
 40
1.9992447963
100
AcDbArc
 50
297.9547633064
 51
336.2164871285
  0
ARC
  5
5EA
100
AcDbEntity
  8
RUNDUNGEN
100
AcDbCircle
 62
7
  6
CONTINUOUS
 10
160.5111125545
 20
66.7508156692
 40
2.0
100
AcDbArc
 50
0.0
 51
66.7726241047
  0
ARC
  5
5EB
100
AcDbEntity
  8
RUNDUNGEN
100
AcDbCircle
 62
7
  6
CONTINUOUS
 10
161.0111125545
 20
59.4947784292
 40
1.5
100
AcDbArc
 50
335.090847263
 51
360.0
  0
ARC
  5
5EC
100
AcDbEntity
  8
RUNDUNGEN
100
AcDbCircle
 62
7
  6
CONTINUOUS
 10
161.5111125545
 20
65.419393291
 40
1.0
100
AcDbArc
 50
0.0
 51
90.0
  0
ARC
  5
5ED
100
AcDbEntity
  8
0
100
AcDbCircle
 62
7
  6
CONTINUOUS
 10
180.5111125545
 20
50.439393291
 40
20.0
100
AcDbArc
 50
155.090847263
 51
161.4166327144
  0
ARC
  5
5EE
100
AcDbEntity
  8
0
100
AcDbCircle
 62
7
  6
CONTINUOUS
 10
180.5111125545
 20
50.439393291
 40
20.0
100
AcDbArc
 50
198.5833672856
 51
204.909152737
  0
ARC
  5
5EF
100
AcDbEntity
  8
RUNDUNGEN
100
AcDbCircle
 62
7
  6
CONTINUOUS
 10
180.5111125545
 20
50.439393291
 40
20.0
100
AcDbArc
 50
155.090847263
 51
161.4166327144
  0
ARC
  5
5F0
100
AcDbEntity
  8
RUNDUNGEN
100
AcDbCircle
 62
7
  6
CONTINUOUS
 10
180.5111125545
 20
50.439393291
 40
20.0
100
AcDbArc
 50
198.5833672856
 51
204.909152737
  0
ELLIPSE
  5
5F1
100
AcDbEntity
  8
0
100
AcDbEllipse
 62
7
  6
CONTINUOUS
 10
153.5111125545
 20
180.1664287329
 30
0.0
 11
20.0
 21
-0.0
 31
0.0
 40
0.1702127606
 41
-2.3395898072
 42
-2.2840300758
  0
ELLIPSE
  5
5F2
100
AcDbEntity
  8
0
100
AcDbEllipse
 62
7
  6
CONTINUOUS
 10
153.5111125545
 20
182.6132373284
 30
0.0
 11
20.0
 21
0.0
 31
0.0
 40
0.3404255211
 41
-2.3661950902
 42
-2.3395898072
  0
ELLIPSE
  5
5F3
100
AcDbEntity
  8
0
100
AcDbEllipse
 62
7
  6
CONTINUOUS
 10
153.5111125545
 20
187.3791949489
 30
0.0
 11
20.0
 21
-0.0
 31
0.0
 40
0.6808510423
 41
-2.3921237758
 42
-2.3661950902
  0
ELLIPSE
  5
5F4
100
AcDbEntity
  8
0
100
AcDbEllipse
 62
7
  6
CONTINUOUS
 10
153.5111125545
 20
205.9321748266
 30
0.0
 11
0.0
 21
40.8507508697
 31
0.0
 40
0.4895870841
 41
-3.979862797
 42
-3.9629201026
  0
ELLIPSE
  5
5F5
100
AcDbEntity
  8
0
100
AcDbEllipse
 62
7
  6
CONTINUOUS
 10
153.5111125545
 20
176.3153688384
 30
0.0
 11
20.0
 21
-0.0
 31
0.0
 40
0.6127654169
 41
9.0064315482
 42
9.0403811863
  0
ELLIPSE
  5
5F6
100
AcDbEntity
  8
0
100
AcDbEllipse
 62
7
  6
CONTINUOUS
 10
153.5111125545
 20
179.6345112429
 30
0.0
 11
20.0
 21
-0.0
 31
0.0
 40
0.2042556065
 41
2.6887760854
 42
2.7232462411
  0
ELLIPSE
  5
5F7
100
AcDbEntity
  8
0
100
AcDbEllipse
 62
7
  6
CONTINUOUS
 10
153.5111125545
 20
179.3791971826
 30
0.0
 11
20.0
 21
0.0
 31
0.0
 40
0.2042556244
 41
-2.7232462411
 42
-2.6887760854
  0
ELLIPSE
  5
5F8
100
AcDbEntity
  8
0
100
AcDbEllipse
 62
7
  6
CONTINUOUS
 10
153.5111125545
 20
182.6983398777
 30
0.0
 11
20.0
 21
0.0
 31
0.0
 40
0.6127654705
 41
-2.7571958791
 42
-2.7232462411
  0
ELLIPSE
  5
5F9
100
AcDbEntity
  8
0
100
AcDbEllipse
 62
7
  6
CONTINUOUS
 10
153.5111125545
 20
188.3153644827
 30
0.0
 11
0.0
 21
27.2340416908
 31
0.0
 40
0.7343750233
 41
-4.3481374835
 42
-4.3279922059
  0
ELLIPSE
  5
5FA
100
AcDbEntity
  8
0
100
AcDbEllipse
 62
7
  6
CONTINUOUS
 10
153.5111125545
 20
193.166401675
 30
0.0
 11
0.0
 21
40.8509881954
 31
0.0
 40
0.4895842398
 41
-4.3614816622
 42
-4.3481374835
  0
ELLIPSE
  5
5FB
100
AcDbEntity
  8
0
100
AcDbEllipse
 62
7
  6
CONTINUOUS
 10
153.5111125545
 20
175.804731575
 30
0.0
 11
20.0
 21
0.0
 31
0.0
 40
0.2553186315
 41
2.6179938505
 42
2.646628649
  0
ELLIPSE
  5
5FC
100
AcDbEntity
  8
0
100
AcDbEllipse
 62
7
  6
CONTINUOUS
 10
153.5111125545
 20
171.5494078606
 30
0.0
 11
20.0
 21
-0.0
 31
0.0
 40
0.6808509827
 41
2.5962044396
 42
2.6179938505
  0
ELLIPSE
  5
5FD
100
AcDbEntity
  8
0
100
AcDbEllipse
 62
7
  6
CONTINUOUS
 10
153.5111125545
 20
162.7195569333
 30
0.0
 11
0.0
 21
30.6384182488
 31
0.0
 40
0.6527752131
 41
1.0107210487
 42
1.0254081128
  0
ELLIPSE
  5
5FE
100
AcDbEntity
  8
0
100
AcDbEllipse
 62
7
  6
CONTINUOUS
 10
153.5111125545
 20
146.443278109
 30
0.0
 11
0.0
 21
61.2761209402
 31
0.0
 40
0.3263914179
 41
1.0033266714
 42
1.0107210487
  0
ELLIPSE
  5
5FF
100
AcDbEntity
  8
0
100
AcDbEllipse
 62
7
  6
CONTINUOUS
 10
153.5111125545
 20
212.570445538
 30
0.0
 11
0.0
 21
61.2761495503
 31
0.0
 40
0.3263912656
 41
-4.1523137023
 42
-4.144919325
  0
ELLIPSE
  5
600
100
AcDbEntity
  8
0
100
AcDbEllipse
 62
7
  6
CONTINUOUS
 10
153.5111125545
 20
196.2941477147
 30
0.0
 11
0.0
 21
30.6384110962
 31
0.0
 40
0.6527753654
 41
-4.1670007664
 42
-4.1523137023
  0
ELLIPSE
  5
601
100
AcDbEntity
  8
0
100
AcDbEllipse
 62
7
  6
CONTINUOUS
 10
153.5111125545
 20
187.4643004979
 30
0.0
 11
20.0
 21
-0.0
 31
0.0
 40
0.6808509827
 41
-2.6179938505
 42
-2.5962044396
  0
ELLIPSE
  5
602
100
AcDbEntity
  8
0
100
AcDbEllipse
 62
7
  6
CONTINUOUS
 10
153.5111125545
 20
183.2089767835
 30
0.0
 11
20.0
 21
0.0
 31
0.0
 40
0.2553186315
 41
-2.646628649
 42
-2.6179938505
  0
ELLIPSE
  5
603
100
AcDbEntity
  8
0
100
AcDbEllipse
 62
7
  6
CONTINUOUS
 10
153.5111125545
 20
168.4004711387
 30
0.0
 11
0.0
 21
37.446808815
 31
0.0
 40
0.5340909047
 41
1.3051841772
 42
1.3438532906
  0
ELLIPSE
  5
604
100
AcDbEntity
  8
0
100
AcDbEllipse
 62
7
  6
CONTINUOUS
 10
153.5111125545
 20
180.315365781
 30
0.0
 11
0.0
 21
23.8297843933
 31
0.0
 40
0.8392858143
 41
1.4328593544
 42
1.4706289296
  0
ELLIPSE
  5
605
100
AcDbEntity
  8
0
100
AcDbEllipse
 62
7
  6
CONTINUOUS
 10
153.5111125545
 20
187.038757352
 30
0.0
 11
-0.0
 21
61.2764715643
 31
0.0
 40
0.3263895503
 41
1.6584083549
 42
1.6646842019
  0
ELLIPSE
  5
606
100
AcDbEntity
  8
0
100
AcDbEllipse
 62
7
  6
CONTINUOUS
 10
153.5111125545
 20
183.8472793278
 30
0.0
 11
-0.0
 21
27.2340393066
 31
0.0
 40
0.7343750875
 41
-4.6185011053
 42
-4.5996503139
  0
ELLIPSE
  5
607
100
AcDbEntity
  8
0
100
AcDbEllipse
 62
7
  6
CONTINUOUS
 10
153.5111125545
 20
182.5068531339
 30
0.0
 11
20.0
 21
-0.0
 31
0.0
 40
0.7659569903
 41
3.2543313201
 42
3.279529662
  0
ELLIPSE
  5
608
100
AcDbEntity
  8
0
100
AcDbEllipse
 62
7
  6
CONTINUOUS
 10
153.5111125545
 20
181.3579191019
 30
0.0
 11
20.0
 21
-0.0
 31
0.0
 40
0.7659569903
 41
3.0186446257
 42
3.0288539871
  0
ELLIPSE
  5
609
100
AcDbEntity
  8
0
100
AcDbEllipse
 62
7
  6
CONTINUOUS
 10
153.5111125545
 20
180.017492908
 30
0.0
 11
-0.0
 21
27.2340393066
 31
0.0
 40
0.7343750875
 41
1.4580576603
 42
1.4769084517
  0
ELLIPSE
  5
60A
100
AcDbEntity
  8
0
100
AcDbEllipse
 62
7
  6
CONTINUOUS
 10
153.5111125545
 20
176.8260148838
 30
0.0
 11
0.0
 21
61.2764715643
 31
0.0
 40
0.3263895503
 41
1.4769084517
 42
1.4831842987
  0
ELLIPSE
  5
60B
100
AcDbEntity
  8
0
100
AcDbEllipse
 62
7
  6
CONTINUOUS
 10
153.5111125545
 20
183.7621719994
 30
0.0
 11
20.0
 21
0.0
 31
0.0
 40
0.255319362
 41
2.7973328796
 42
2.8237689497
  0
ELLIPSE
  5
60C
100
AcDbEntity
  8
0
100
AcDbEllipse
 62
7
  6
CONTINUOUS
 10
153.5111125545
 20
180.8898321535
 30
0.0
 11
20.0
 21
-0.0
 31
0.0
 40
0.6808512211
 41
2.7773411822
 42
2.7973328796
  0
ELLIPSE
  5
60D
100
AcDbEntity
  8
0
100
AcDbEllipse
 62
7
  6
CONTINUOUS
 10
153.5111125545
 20
174.8260260121
 30
0.0
 11
0.0
 21
30.6382357822
 31
0.0
 40
0.6527791007
 41
1.193132433
 42
1.2065448554
  0
ELLIPSE
  5
60E
100
AcDbEntity
  8
0
100
AcDbEllipse
 62
7
  6
CONTINUOUS
 10
153.5111125545
 20
155.9961045455
 30
0.0
 11
0.0
 21
81.70242959
 31
0.0
 40
0.244790762
 41
1.186399578
 42
1.193132433
  0
ELLIPSE
  5
60F
100
AcDbEntity
  8
0
100
AcDbEllipse
 62
7
  6
CONTINUOUS
 10
153.5111125545
 20
219.1878164096
 30
0.0
 11
0.0
 21
81.70242959
 31
0.0
 40
0.244790762
 41
-4.3347250866
 42
-4.3279922316
  0
ELLIPSE
  5
610
100
AcDbEntity
  8
0
100
AcDbEllipse
 62
7
  6
CONTINUOUS
 10
153.5111125545
 20
200.357905493
 30
0.0
 11
0.0
 21
30.6382643923
 31
0.0
 40
0.6527784911
 41
-4.348137509
 42
-4.3347250866
  0
ELLIPSE
  5
611
100
AcDbEntity
  8
0
100
AcDbEllipse
 62
7
  6
CONTINUOUS
 10
153.5111125545
 20
194.2940874606
 30
0.0
 11
20.0
 21
0.0
 31
0.0
 40
0.6808509827
 41
-2.7973328796
 42
-2.7773411822
  0
ELLIPSE
  5
612
100
AcDbEntity
  8
0
100
AcDbEllipse
 62
7
  6
CONTINUOUS
 10
153.5111125545
 20
191.4217492239
 30
0.0
 11
20.0
 21
-0.0
 31
0.0
 40
0.255319362
 41
-2.8237689497
 42
-2.7973328796
  0
ELLIPSE
  5
613
100
AcDbEntity
  8
0
100
AcDbEllipse
 62
7
  6
CONTINUOUS
 10
153.5111125545
 20
185.2940882627
 30
0.0
 11
20.0
 21
0.0
 31
0.0
 40
0.2553189968
 41
3.104083847
 42
3.129092328
  0
ELLIPSE
  5
614
100
AcDbEntity
  8
0
100
AcDbEllipse
 62
7
  6
CONTINUOUS
 10
153.5111125545
 20
184.974938993
 30
0.0
 11
20.0
 21
0.0
 31
0.0
 40
0.6808512211
 41
3.0853129362
 42
3.104083847
  0
ELLIPSE
  5
615
100
AcDbEntity
  8
0
100
AcDbEllipse
 62
7
  6
CONTINUOUS
 10
153.5111125545
 20
184.0174907204
 30
0.0
 11
-0.0
 21
30.638323439
 31
0.0
 40
0.6527772331
 41
1.5019920527
 42
1.5145166095
  0
ELLIPSE
  5
616
100
AcDbEntity
  8
0
100
AcDbEllipse
 62
7
  6
CONTINUOUS
 10
153.5111125545
 20
180.5068655634
 30
0.0
 11
0.0
 21
81.7019620858
 31
0.0
 40
0.2447921628
 41
1.4957258238
 42
1.5019920527
  0
ELLIPSE
  5
617
100
AcDbEntity
  8
0
100
AcDbEllipse
 62
7
  6
CONTINUOUS
 10
153.5111125545
 20
150.2088716472
 30
0.0
 11
-0.0
 21
51.0640256463
 31
0.0
 40
0.3916651644
 41
0.9658110381
 42
0.9809299032
  0
ELLIPSE
  5
618
100
AcDbEntity
  8
0
100
AcDbEllipse
 62
7
  6
CONTINUOUS
 10
153.5111125545
 20
163.4643007905
 30
0.0
 11
0.0
 21
27.2340416908
 31
0.0
 40
0.7343750233
 41
0.9809299032
 42
1.0033266714
  0
ELLIPSE
  5
619
100
AcDbEntity
  8
0
100
AcDbEllipse
 62
7
  6
CONTINUOUS
 10
153.5111125545
 20
171.5153697482
 30
0.0
 11
20.0
 21
0.0
 31
0.0
 40
0.6127654705
 41
2.5741229982
 42
2.6107618382
  0
ELLIPSE
  5
61A
100
AcDbEntity
  8
0
100
AcDbEllipse
 62
7
  6
CONTINUOUS
 10
153.5111125545
 20
230.6772436873
 30
0.0
 11
-0.0
 21
100.8514930305
 31
0.0
 40
0.1958324999
 41
-4.2884077766
 42
-4.2814528888
  0
ELLIPSE
  5
61B
100
AcDbEntity
  8
0
100
AcDbEllipse
 62
7
  6
CONTINUOUS
 10
153.5111125545
 20
205.7834164639
 30
0.0
 11
0.0
 21
40.3403437799
 31
0.0
 40
0.4895843255
 41
-4.302252871
 42
-4.2884077766
  0
ELLIPSE
  5
61C
100
AcDbEntity
  8
0
100
AcDbEllipse
 62
7
  6
CONTINUOUS
 10
153.5111125545
 20
197.740903068
 30
0.0
 11
-0.0
 21
20.1702295973
 31
0.0
 40
0.9791658496
 41
-4.329698453
 42
-4.302252871
  0
ELLIPSE
  5
61D
100
AcDbEntity
  8
0
100
AcDbEllipse
 62
7
  6
CONTINUOUS
 10
153.5111125545
 20
175.6515366743
 30
0.0
 11
19.75
 21
0.0
 31
0.0
 40
0.2042551568
 41
2.6033146861
 42
2.6397832727
  0
ELLIPSE
  5
61E
100
AcDbEntity
  8
0
100
AcDbEllipse
 62
7
  6
CONTINUOUS
 10
153.5111125545
 20
171.5153697482
 30
0.0
 11
19.75
 21
-0.0
 31
0.0
 40
0.6127654705
 41
2.5660336447
 42
2.6033146861
  0
ELLIPSE
  5
61F
100
AcDbEntity
  8
0
100
AcDbEllipse
 62
7
  6
CONTINUOUS
 10
153.5111125545
 20
163.4643007905
 30
0.0
 11
0.0
 21
26.8936161697
 31
0.0
 40
0.7343750233
 41
0.972432697
 42
0.9952373179
  0
ELLIPSE
  5
620
100
AcDbEntity
  8
0
100
AcDbEllipse
 62
7
  6
CONTINUOUS
 10
153.5111125545
 20
175.6515366743
 30
0.0
 11
20.0
 21
-0.0
 31
0.0
 40
0.2042551568
 41
2.6107618382
 42
2.646628649
  0
ELLIPSE
  5
621
100
AcDbEntity
  8
0
100
AcDbEllipse
 62
7
  6
CONTINUOUS
 10
153.5111125545
 20
150.2088716472
 30
0.0
 11
-0.0
 21
50.4257253257
 31
0.0
 40
0.3916651644
 41
0.9570313566
 42
0.972432697
  0
ELLIPSE
  5
622
100
AcDbEntity
  8
0
100
AcDbEllipse
 62
7
  6
CONTINUOUS
 10
153.5111125545
 20
208.8048406899
 30
0.0
 11
0.0
 21
50.4257323889
 31
0.0
 40
0.3916651095
 41
-4.1140253506
 42
-4.0986240102
  0
ELLIPSE
  5
623
100
AcDbEntity
  8
0
100
AcDbEllipse
 62
7
  6
CONTINUOUS
 10
153.5111125545
 20
195.5494062417
 30
0.0
 11
0.0
 21
26.8936138153
 31
0.0
 40
0.7343750875
 41
-4.1368299715
 42
-4.1140253506
  0
ELLIPSE
  5
624
100
AcDbEntity
  8
0
100
AcDbEllipse
 62
7
  6
CONTINUOUS
 10
153.5111125545
 20
187.4983379889
 30
0.0
 11
19.75
 21
-0.0
 31
0.0
 40
0.6127654169
 41
-2.6033146861
 42
-2.5660336447
  0
ELLIPSE
  5
625
100
AcDbEntity
  8
0
100
AcDbEllipse
 62
7
  6
CONTINUOUS
 10
153.5111125545
 20
183.3621714249
 30
0.0
 11
19.75
 21
-0.0
 31
0.0
 40
0.204255139
 41
-2.6397832727
 42
-2.6033146861
  0
ELLIPSE
  5
626
100
AcDbEntity
  8
0
100
AcDbEllipse
 62
7
  6
CONTINUOUS
 10
153.5111125545
 20
193.9749424786
 30
0.0
 11
19.75
 21
0.0
 31
0.0
 40
0.510638724
 41
-2.7860476973
 42
-2.7589021262
  0
ELLIPSE
  5
627
100
AcDbEntity
  8
0
100
AcDbEllipse
 62
7
  6
CONTINUOUS
 10
153.5111125545
 20
191.8685551855
 30
0.0
 11
19.75
 21
0.0
 31
0.0
 40
0.204255139
 41
-2.8196018301
 42
-2.7860476973
  0
ELLIPSE
  5
628
100
AcDbEntity
  8
0
100
AcDbEllipse
 62
7
  6
CONTINUOUS
 10
153.5111125545
 20
181.1919520312
 30
0.0
 11
19.75
 21
0.0
 31
0.0
 40
0.204254743
 41
-2.3171386739
 42
-2.2692727208
  0
ELLIPSE
  5
629
100
AcDbEntity
  8
0
100
AcDbEllipse
 62
7
  6
CONTINUOUS
 10
153.5111125545
 20
188.102597052
 30
0.0
 11
19.75
 21
0.0
 31
0.0
 40
0.6808509827
 41
-2.344696991
 42
-2.3171386739
  0
ELLIPSE
  5
62A
100
AcDbEntity
  8
0
100
AcDbEllipse
 62
7
  6
CONTINUOUS
 10
153.5111125545
 20
221.7628356965
 30
0.0
 11
0.0
 21
60.511568544
 31
0.0
 40
0.3263838713
 41
-3.924507162
 42
-3.9154933178
  0
ELLIPSE
  5
62B
100
AcDbEntity
  8
0
100
AcDbEllipse
 62
7
  6
CONTINUOUS
 10
153.5111125545
 20
184.5408967193
 30
0.0
 11
19.75
 21
0.0
 31
0.0
 40
0.2042553906
 41
3.1017457914
 42
3.1289340877
  0
ELLIPSE
  5
62C
100
AcDbEntity
  8
0
100
AcDbEllipse
 62
7
  6
CONTINUOUS
 10
153.5111125545
 20
194.6983137323
 30
0.0
 11
0.0
 21
40.8509881954
 31
0.0
 40
0.4895842398
 41
-4.3212409629
 42
-4.3076813782
  0
ELLIPSE
  5
62D
100
AcDbEntity
  8
0
100
AcDbEllipse
 62
7
  6
CONTINUOUS
 10
153.5111125545
 20
183.9749386189
 30
0.0
 11
20.0
 21
-0.0
 31
0.0
 40
0.6808509827
 41
-2.7368850514
 42
-2.7163959262
  0
ELLIPSE
  5
62E
100
AcDbEntity
  8
0
100
AcDbEllipse
 62
7
  6
CONTINUOUS
 10
153.5111125545
 20
180.4643027483
 30
0.0
 11
20.0
 21
0.0
 31
0.0
 40
0.255319362
 41
-2.7163959262
 42
-2.6887760854
  0
ELLIPSE
  5
62F
100
AcDbEntity
  8
0
100
AcDbEllipse
 62
7
  6
CONTINUOUS
 10
153.5111125545
 20
178.5494056102
 30
0.0
 11
20.0
 21
-0.0
 31
0.0
 40
0.255319362
 41
2.6887760854
 42
2.7163959262
  0
ELLIPSE
  5
630
100
AcDbEntity
  8
0
100
AcDbEllipse
 62
7
  6
CONTINUOUS
 10
153.5111125545
 20
174.3366361373
 30
0.0
 11
20.0
 21
0.0
 31
0.0
 40
0.765958086
 41
2.7163959262
 42
2.7436744658
  0
ELLIPSE
  5
631
100
AcDbEntity
  8
0
100
AcDbEllipse
 62
7
  6
CONTINUOUS
 10
153.5111125545
 20
167.2302574704
 30
0.0
 11
-0.0
 21
37.446808815
 31
0.0
 40
0.5340909047
 41
1.2726487388
 42
1.3116556416
  0
ELLIPSE
  5
632
100
AcDbEntity
  8
0
100
AcDbEllipse
 62
7
  6
CONTINUOUS
 10
153.5111125545
 20
179.2940879957
 30
0.0
 11
0.0
 21
23.8297939301
 31
0.0
 40
0.8392854785
 41
1.4328593544
 42
1.4706289296
  0
ELLIPSE
  5
633
100
AcDbEntity
  8
0
100
AcDbEllipse
 62
7
  6
CONTINUOUS
 10
153.5111125545
 20
167.2302574704
 30
0.0
 11
-0.0
 21
36.9787237048
 31
0.0
 40
0.5340909047
 41
1.2687564297
 42
1.3082984246
  0
ELLIPSE
  5
634
100
AcDbEntity
  8
0
100
AcDbEllipse
 62
7
  6
CONTINUOUS
 10
153.5111125545
 20
174.3366361373
 30
0.0
 11
19.75
 21
-0.0
 31
0.0
 40
0.765958086
 41
2.7106565354
 42
2.7383476995
  0
ELLIPSE
  5
635
100
AcDbEntity
  8
0
100
AcDbEllipse
 62
7
  6
CONTINUOUS
 10
153.5111125545
 20
178.5494056102
 30
0.0
 11
19.75
 21
-0.0
 31
0.0
 40
0.255319362
 41
8.9657934456
 42
8.9938418426
  0
ELLIPSE
  5
636
100
AcDbEntity
  8
0
100
AcDbEllipse
 62
7
  6
CONTINUOUS
 10
153.5111125545
 20
191.8685551855
 30
0.0
 11
20.0
 21
-0.0
 31
0.0
 40
0.204255139
 41
-2.8237689497
 42
-2.7906852846
  0
ELLIPSE
  5
637
100
AcDbEntity
  8
0
100
AcDbEllipse
 62
7
  6
CONTINUOUS
 10
153.5111125545
 20
193.9749424786
 30
0.0
 11
20.0
 21
-0.0
 31
0.0
 40
0.510638724
 41
-2.7906852846
 42
-2.7639287598
  0
ELLIPSE
  5
638
100
AcDbEntity
  8
0
100
AcDbEllipse
 62
7
  6
CONTINUOUS
 10
153.5111125545
 20
197.740903068
 30
0.0
 11
0.0
 21
20.4255489593
 31
0.0
 40
0.9791658496
 41
-4.3347250866
 42
-4.3076814041
  0
ELLIPSE
  5
639
100
AcDbEntity
  8
0
100
AcDbEllipse
 62
7
  6
CONTINUOUS
 10
153.5111125545
 20
221.7628356965
 30
0.0
 11
0.0
 21
61.2775377661
 31
0.0
 40
0.3263838713
 41
-3.936991417
 42
-3.928201823
  0
ELLIPSE
  5
63A
100
AcDbEntity
  8
0
100
AcDbEllipse
 62
7
  6
CONTINUOUS
 10
153.5111125545
 20
188.102597052
 30
0.0
 11
20.0
 21
0.0
 31
0.0
 40
0.6808509827
 41
-2.3574054962
 42
-2.3305583285
  0
ELLIPSE
  5
63B
100
AcDbEntity
  8
0
100
AcDbEllipse
 62
7
  6
CONTINUOUS
 10
153.5111125545
 20
205.7834164639
 30
0.0
 11
0.0
 21
40.8509810429
 31
0.0
 40
0.4895843255
 41
-4.3076814041
 42
-4.2940425939
  0
ELLIPSE
  5
63C
100
AcDbEntity
  8
0
100
AcDbEllipse
 62
7
  6
CONTINUOUS
 10
153.5111125545
 20
181.1919520312
 30
0.0
 11
20.0
 21
0.0
 31
0.0
 40
0.204254743
 41
-2.3305583285
 42
-2.2840300758
  0
ELLIPSE
  5
63D
100
AcDbEntity
  8
0
100
AcDbEllipse
 62
7
  6
CONTINUOUS
 10
153.5111125545
 20
183.3153658367
 30
0.0
 11
19.75
 21
-0.0
 31
0.0
 40
0.2042551568
 41
2.7860476973
 42
2.8196018301
  0
ELLIPSE
  5
63E
100
AcDbEntity
  8
0
100
AcDbEllipse
 62
7
  6
CONTINUOUS
 10
153.5111125545
 20
230.6772436873
 30
0.0
 11
0.0
 21
102.1280942081
 31
0.0
 40
0.1958324999
 41
-4.2940425939
 42
-4.2871922792
  0
ELLIPSE
  5
63F
100
AcDbEntity
  8
0
100
AcDbEllipse
 62
7
  6
CONTINUOUS
 10
153.5111125545
 20
181.2089782055
 30
0.0
 11
19.75
 21
-0.0
 31
0.0
 40
0.510638791
 41
2.7589021262
 42
2.7860476973
  0
ELLIPSE
  5
640
100
AcDbEntity
  8
0
100
AcDbEllipse
 62
7
  6
CONTINUOUS
 10
153.5111125545
 20
177.4430174513
 30
0.0
 11
0.0
 21
20.1702313631
 31
0.0
 40
0.9791657639
 41
1.1606602174
 42
1.1881057994
  0
ELLIPSE
  5
641
100
AcDbEntity
  8
0
100
AcDbEllipse
 62
7
  6
CONTINUOUS
 10
153.5111125545
 20
180.4643027483
 30
0.0
 11
19.75
 21
0.0
 31
0.0
 40
0.255319362
 41
-2.7106565354
 42
-2.6826081384
  0
ELLIPSE
  5
642
100
AcDbEntity
  8
0
100
AcDbEllipse
 62
7
  6
CONTINUOUS
 10
153.5111125545
 20
144.5067008714
 30
0.0
 11
0.0
 21
102.1280369874
 31
0.0
 40
0.1958326096
 41
1.1455996256
 42
1.1524499404
  0
ELLIPSE
  5
643
100
AcDbEntity
  8
0
100
AcDbEllipse
 62
7
  6
CONTINUOUS
 10
153.5111125545
 20
169.4005019431
 30
0.0
 11
0.0
 21
40.8509881954
 31
0.0
 40
0.4895842398
 41
1.1524499404
 42
1.1660887505
  0
ELLIPSE
  5
644
100
AcDbEntity
  8
0
100
AcDbEllipse
 62
7
  6
CONTINUOUS
 10
153.5111125545
 20
177.4430174513
 30
0.0
 11
0.0
 21
20.4255507474
 31
0.0
 40
0.9791657639
 41
1.1660887505
 42
1.193132433
  0
ELLIPSE
  5
645
100
AcDbEntity
  8
0
100
AcDbEllipse
 62
7
  6
CONTINUOUS
 10
153.5111125545
 20
181.2089782055
 30
0.0
 11
20.0
 21
-0.0
 31
0.0
 40
0.510638791
 41
2.7639287598
 42
2.7906852846
  0
ELLIPSE
  5
646
100
AcDbEntity
  8
0
100
AcDbEllipse
 62
7
  6
CONTINUOUS
 10
153.5111125545
 20
183.3153658367
 30
0.0
 11
20.0
 21
0.0
 31
0.0
 40
0.2042551568
 41
2.7906852846
 42
2.8237689497
  0
ELLIPSE
  5
647
100
AcDbEntity
  8
0
100
AcDbEllipse
 62
7
  6
CONTINUOUS
 10
153.5111125545
 20
183.9749386189
 30
0.0
 11
19.75
 21
0.0
 31
0.0
 40
0.6808509827
 41
-2.7314565178
 42
-2.7106565354
  0
ELLIPSE
  5
648
100
AcDbEntity
  8
0
100
AcDbEllipse
 62
7
  6
CONTINUOUS
 10
153.5111125545
 20
194.6983137323
 30
0.0
 11
-0.0
 21
40.340350843
 31
0.0
 40
0.4895842398
 41
-4.3160150858
 42
-4.3022528446
  0
ELLIPSE
  5
649
100
AcDbEntity
  8
0
100
AcDbEllipse
 62
7
  6
CONTINUOUS
 10
153.5111125545
 20
169.4005019431
 30
0.0
 11
-0.0
 21
40.340350843
 31
0.0
 40
0.4895842398
 41
1.1468151231
 42
1.1606602174
  0
ELLIPSE
  5
64A
100
AcDbEntity
  8
0
100
AcDbEllipse
 62
7
  6
CONTINUOUS
 10
153.5111125545
 20
175.145174058
 30
0.0
 11
0.0
 21
102.1274526072
 31
0.0
 40
0.1958337302
 41
1.4580576483
 42
1.4643453939
  0
ELLIPSE
  5
64B
100
AcDbEntity
  8
0
100
AcDbEllipse
 62
7
  6
CONTINUOUS
 10
153.5111125545
 20
181.6557859837
 30
0.0
 11
0.0
 21
40.8511050712
 31
0.0
 40
0.4895828391
 41
1.4643453939
 42
1.4769084397
  0
ELLIPSE
  5
64C
100
AcDbEntity
  8
0
100
AcDbEllipse
 62
7
  6
CONTINUOUS
 10
153.5111125545
 20
183.5706846843
 30
0.0
 11
-0.0
 21
20.4255215285
 31
0.0
 40
0.9791671646
 41
1.4769084397
 42
1.5019920527
  0
ELLIPSE
  5
64D
100
AcDbEntity
  8
0
100
AcDbEllipse
 62
7
  6
CONTINUOUS
 10
153.5111125545
 20
184.2728119562
 30
0.0
 11
20.0
 21
-0.0
 31
0.0
 40
0.5106380606
 41
3.0727883795
 42
3.0978286968
  0
ELLIPSE
  5
64E
100
AcDbEntity
  8
0
100
AcDbEllipse
 62
7
  6
CONTINUOUS
 10
153.5111125545
 20
144.5067008714
 30
0.0
 11
0.0
 21
100.8514365251
 31
0.0
 40
0.1958326096
 41
1.1398602352
 42
1.1468151231
  0
ELLIPSE
  5
64F
100
AcDbEntity
  8
0
100
AcDbEllipse
 62
7
  6
CONTINUOUS
 10
153.5111125545
 20
184.5408967193
 30
0.0
 11
20.0
 21
-0.0
 31
0.0
 40
0.2042553906
 41
3.0978286968
 42
3.129092328
  0
ELLIPSE
  5
650
100
AcDbEntity
  8
0
100
AcDbEllipse
 62
7
  6
CONTINUOUS
 10
153.5111125545
 20
183.3621714249
 30
0.0
 11
20.0
 21
0.0
 31
0.0
 40
0.204255139
 41
-2.646628649
 42
-2.6107618382
  0
ELLIPSE
  5
651
100
AcDbEntity
  8
0
100
AcDbEllipse
 62
7
  6
CONTINUOUS
 10
153.5111125545
 20
187.4983379889
 30
0.0
 11
20.0
 21
-0.0
 31
0.0
 40
0.6127654169
 41
-2.6107618382
 42
-2.5741229982
  0
ELLIPSE
  5
652
100
AcDbEntity
  8
0
100
AcDbEllipse
 62
7
  6
CONTINUOUS
 10
153.5111125545
 20
195.5494062417
 30
0.0
 11
0.0
 21
27.2340393066
 31
0.0
 40
0.7343750875
 41
-4.144919325
 42
-4.1225225568
  0
ELLIPSE
  5
653
100
AcDbEntity
  8
0
100
AcDbEllipse
 62
7
  6
CONTINUOUS
 10
153.5111125545
 20
208.8048406899
 30
0.0
 11
0.0
 21
51.0640327989
 31
0.0
 40
0.3916651095
 41
-4.1225225568
 42
-4.1074036916
  0
ENDSEC
  0
SECTION
  2
OBJECTS
  0
DICTIONARY
  5
C
100
AcDbDictionary
280
0
281
1
  3
ACAD_GROUP
350
D
  3
ACAD_MLINESTYLE
350
17
  3
ACAD_LAYOUT
350
1A
  3
ACAD_PLOTSETTINGS
350
19
  3
ACAD_PLOTSTYLENAME
350
E
  0
DICTIONARY
  5
D
102
{ACAD_REACTORS
330
C
102
}
100
AcDbDictionary
280
0
281
1
  0
ACDBDICTIONARYWDFLT
  5
E
102
{ACAD_REACTORS
330
C
102
}
100
AcDbDictionary
281
1
  3
Normal
350
F
100
AcDbDictionaryWithDefault
340
F
  0
DICTIONARY
  5
17
102
{ACAD_REACTORS
330
C
102
}
100
AcDbDictionary
280
0
281
1
  3
Standard
350
18
  0
DICTIONARY
  5
19
102
{ACAD_REACTORS
330
C
102
}
100
AcDbDictionary
281
1
  0
DICTIONARY
  5
1A
102
{ACAD_REACTORS
330
C
102
}
100
AcDbDictionary
281
1
  3
Model
350
654
  3
Layout1
350
655
  0
ACDBPLACEHOLDER
  5
F
102
{ACAD_REACTORS
330
E
102
}
  0
MLINESTYLE
  5
18
102
{ACAD_REACTORS
330
17
102
}
100
AcDbMlineStyle
  2
STANDARD
 70
0
  3

 62
256
 51
90.0
 52
90.0
 71
2
 49
0.5
 62
256
  6
BYLAYER
 49
-0.5
 62
256
  6
BYLAYER
  0
LAYOUT
  5
654
102
{ACAD_REACTORS
330
1A
102
}
100
AcDbPlotSettings
  1

  2
none_device
  4
ISO_A3_(420.00_x_297.00_MM)
  6

 40
0.0
 41
0.0
 42
0.0
 43
0.0
 44
420.0
 45
297.0
 46
0.0
 47
0.0
 48
0.0
 49
0.0
140
0.0
141
0.0
142
1.0
143
1.0
 70
1024
 72
1
 73
0
 74
0
  7

 75
0
147
1.0
148
0.0
149
0.0
100
AcDbLayout
  1
Model
 70
0
 71
0
 10
0.0
 20
0.0
 11
420.0
 21
297.0
 12
0.0
 22
0.0
 32
0.0
 14
0.0
 24
0.0
 34
0.0
 15
0.0
 25
0.0
 35
0.0
146
0.0
 13
0.0
 23
0.0
 33
0.0
 16
1.0
 26
0.0
 36
0.0
 17
0.0
 27
1.0
 37
0.0
 76
0
330
20C
345
0
346
0
  0
LAYOUT
  5
655
102
{ACAD_REACTORS
330
1A
102
}
100
AcDbPlotSettings
  1

  2
none_device
  4
ISO_A3_(420.00_x_297.00_MM)
  6

 40
0.0
 41
0.0
 42
0.0
 43
0.0
 44
420.0
 45
297.0
 46
0.0
 47
0.0
 48
0.0
 49
0.0
140
0.0
141
0.0
142
1.0
143
1.0
 70
0
 72
1
 73
0
 74
0
  7

 75
0
147
1.0
148
0.0
149
0.0
100
AcDbLayout
  1
Layout1
 70
0
 71
1
 10
0.0
 20
0.0
 11
420.0
 21
297.0
 12
0.0
 22
0.0
 32
0.0
 14
0.0
 24
0.0
 34
0.0
 15
0.0
 25
0.0
 35
0.0
146
0.0
 13
0.0
 23
0.0
 33
0.0
 16
1.0
 26
0.0
 36
0.0
 17
0.0
 27
1.0
 37
0.0
 76
0
330
20D
345
0
346
0
  0
ENDSEC
  0
EOF
