999
DXF file: 001-m31453-p-20.dxf
999
Pro/ENGINEER 2011490 by Parametric Technology Corporation
  0
SECTION
  2
HEADER
  9
$ACADVER
  1
AC1015
  9
$DWGCODEPAGE
  3
ANSI_1252
  9
$EXTMAX
 10
297.0
 20
210.0
 30
0.0
  9
$EXTMIN
 10
0.0
 20
0.0
 30
0.0
  9
$LIMMIN
 10
0.0
 20
0.0
  9
$LIMMAX
 10
297.0
 20
210.0
  9
$VIEWCTR
 10
148.5
 20
105.0
  9
$VIEWSIZE
 40
210.0
  9
$CLAYER
  8
0
  9
$LTSCALE
 40
16.335
  9
$CELTYPE
  6
BYLAYER
  9
$DIMSCALE
 40
1.0
  9
$DIMASZ
 40
3.5
  9
$DIMEXO
 40
1.85625
  9
$DIMDLI
 40
11.286
  9
$DIMEXE
 40
5.346
  9
$DIMCEN
 40
2.673
  9
$DIMLFAC
 40
1.0
  9
$DIMBLK
  1
_FILLED
  9
$DIMTXT
 40
3.5
  9
$DIMTOL
 70
1
  9
$DIMLIM
 70
0
  9
$DIMTFAC
 40
1.0
  9
$DIMTP
 40
0.005
  9
$DIMTM
 40
0.005
  9
$PDMODE
 70
3
  9
$PDSIZE
 40
0.3125
  9
$HANDSEED
  5
794
  9
$TILEMODE
 70
1
  9
$MEASUREMENT
 70
1
  9
$INSUNITS
 70
4
  0
ENDSEC
  0
SECTION
  2
CLASSES
  0
CLASS
  1
ACDBDICTIONARYWDFLT
  2
AcDbDictionaryWithDefault
  3
AutoCAD 2000
 90
0
280
0
281
0
  0
CLASS
  1
ACDBPLACEHOLDER
  2
AcDbPlaceHolder
  3
AutoCAD 2000
 90
0
280
0
281
0
  0
CLASS
  1
LAYOUT
  2
AcDbLayout
  3
AutoCAD 2000
 90
0
280
0
281
0
  0
ENDSEC
  0
SECTION
  2
TABLES
  0
TABLE
  2
VPORT
  5
8
100
AcDbSymbolTable
 70
2
  0
VPORT
  5
1F4
100
AcDbSymbolTableRecord
100
AcDbViewportTableRecord
  2
*ACTIVE
 70
0
 10
0.0
 20
0.0
 11
1.0
 21
1.0
 12
148.5
 22
105.0
 13
0.0
 23
0.0
 14
1.0
 24
1.0
 15
0.0
 25
0.0
 16
0.0
 26
0.0
 36
1.0
 17
0.0
 27
0.0
 37
0.0
 40
210.0
 41
1.4142857143
 42
50.0
 43
0.0
 44
0.0
 50
0.0
 51
0.0
 71
0
 72
100
 73
1
 74
1
 75
0
 76
0
 77
0
 78
0
  0
ENDTAB
  0
TABLE
  2
LTYPE
  5
5
100
AcDbSymbolTable
 70
6
  0
LTYPE
  5
14
100
AcDbSymbolTableRecord
100
AcDbLinetypeTableRecord
  2
BYBLOCK
 70
0
  3

 72
65
 73
0
 40
0.0
  0
LTYPE
  5
15
100
AcDbSymbolTableRecord
100
AcDbLinetypeTableRecord
  2
BYLAYER
 70
0
  3

 72
65
 73
0
 40
0.0
  0
LTYPE
  5
16
100
AcDbSymbolTableRecord
100
AcDbLinetypeTableRecord
  2
CONTINUOUS
 70
64
  3
Solid line
 72
65
 73
0
 40
0.0
  0
LTYPE
  5
1F5
100
AcDbSymbolTableRecord
100
AcDbLinetypeTableRecord
  2
CENTER
 70
64
  3
____ _ ____ _ ____ _ ____ _ ____ _ ____ _ ____
 72
65
 73
4
 40
0.6
 49
0.375
 74
0
 49
-0.075
 74
0
 49
0.075
 74
0
 49
-0.075
 74
0
  0
LTYPE
  5
1F6
100
AcDbSymbolTableRecord
100
AcDbLinetypeTableRecord
  2
HIDDEN
 70
64
  3
- - - - - - - - - - - - - - - - - - - -
 72
65
 73
2
 40
0.2
 49
0.1
 74
0
 49
-0.1
 74
0
  0
LTYPE
  5
1F7
100
AcDbSymbolTableRecord
100
AcDbLinetypeTableRecord
  2
PHANTOM
 70
64
  3
_____ _ _ _____ _ _ _____ _ _ _____
 72
65
 73
6
 40
0.8
 49
0.45
 74
0
 49
-0.05
 74
0
 49
0.1
 74
0
 49
-0.05
 74
0
 49
0.1
 74
0
 49
-0.05
 74
0
  0
LTYPE
  5
1F8
100
AcDbSymbolTableRecord
100
AcDbLinetypeTableRecord
  2
DOT
 70
64
  3
. . . . . . . . . . . . . . . . . . . .
 72
65
 73
2
 40
0.2
 49
0.1
 74
0
 49
-0.1
 74
0
  0
LTYPE
  5
1F9
100
AcDbSymbolTableRecord
100
AcDbLinetypeTableRecord
  2
DASHED
 70
64
  3
- - - - - - - - - - - - - - - - - - - -
 72
65
 73
2
 40
0.2
 49
0.1
 74
0
 49
-0.1
 74
0
  0
ENDTAB
  0
TABLE
  2
LAYER
  5
2
100
AcDbSymbolTable
 70
36
  0
LAYER
  5
10
100
AcDbSymbolTableRecord
100
AcDbLayerTableRecord
  2
0
 70
0
 62
7
  6
CONTINUOUS
370
-3
390
F
  0
LAYER
  5
1FA
100
AcDbSymbolTableRecord
100
AcDbLayerTableRecord
  2
DEFAULT_1
 70
0
 62
7
  6
CENTER
370
-3
390
F
  0
LAYER
  5
1FB
100
AcDbSymbolTableRecord
100
AcDbLayerTableRecord
  2
DEFAULT_2
 70
0
 62
8
  6
HIDDEN
370
-3
390
F
  0
LAYER
  5
1FC
100
AcDbSymbolTableRecord
100
AcDbLayerTableRecord
  2
DEFAULT_3
 70
0
 62
7
  6
PHANTOM
370
-3
390
F
  0
LAYER
  5
1FD
100
AcDbSymbolTableRecord
100
AcDbLayerTableRecord
  2
AUSFORMSCHRAEGEN
 70
0
 62
7
  6
CONTINUOUS
370
-3
390
F
  0
LAYER
  5
1FE
100
AcDbSymbolTableRecord
100
AcDbLayerTableRecord
  2
BEZUGSACHSEN
 70
0
 62
7
  6
CONTINUOUS
370
-3
390
F
  0
LAYER
  5
1FF
100
AcDbSymbolTableRecord
100
AcDbLayerTableRecord
  2
BEZUGSEBENEN
 70
0
 62
7
  6
CONTINUOUS
370
-3
390
F
  0
LAYER
  5
200
100
AcDbSymbolTableRecord
100
AcDbLayerTableRecord
  2
BG_STARTBEZUEGE
 70
0
 62
7
  6
CONTINUOUS
370
-3
390
F
  0
LAYER
  5
201
100
AcDbSymbolTableRecord
100
AcDbLayerTableRecord
  2
FASEN
 70
0
 62
7
  6
CONTINUOUS
370
-3
390
F
  0
LAYER
  5
202
100
AcDbSymbolTableRecord
100
AcDbLayerTableRecord
  2
HILFEN
 70
0
 62
7
  6
CONTINUOUS
370
-3
390
F
  0
LAYER
  5
203
100
AcDbSymbolTableRecord
100
AcDbLayerTableRecord
  2
KONSTRUKTIONSELEMENTE
 70
0
 62
7
  6
CONTINUOUS
370
-3
390
F
  0
LAYER
  5
204
100
AcDbSymbolTableRecord
100
AcDbLayerTableRecord
  2
KURVEN
 70
0
 62
7
  6
CONTINUOUS
370
-3
390
F
  0
LAYER
  5
205
100
AcDbSymbolTableRecord
100
AcDbLayerTableRecord
  2
NORM
 70
0
 62
7
  6
CONTINUOUS
370
-3
390
F
  0
LAYER
  5
206
100
AcDbSymbolTableRecord
100
AcDbLayerTableRecord
  2
PLATZIERUNG
 70
0
 62
7
  6
CONTINUOUS
370
-3
390
F
  0
LAYER
  5
207
100
AcDbSymbolTableRecord
100
AcDbLayerTableRecord
  2
RUNDUNGEN
 70
0
 62
7
  6
CONTINUOUS
370
-3
390
F
  0
LAYER
  5
208
100
AcDbSymbolTableRecord
100
AcDbLayerTableRecord
  2
TEIL_STARTBEZUEGE
 70
0
 62
7
  6
CONTINUOUS
370
-3
390
F
  0
LAYER
  5
209
100
AcDbSymbolTableRecord
100
AcDbLayerTableRecord
  2
T_STARTBEZUEGE
 70
0
 62
7
  6
CONTINUOUS
370
-3
390
F
  0
LAYER
  5
20A
100
AcDbSymbolTableRecord
100
AcDbLayerTableRecord
  2
ZEICHNUNGSBEMASSUNGEN
 70
0
 62
7
  6
CONTINUOUS
370
-3
390
F
  0
ENDTAB
  0
TABLE
  2
STYLE
  5
3
100
AcDbSymbolTable
 70
1
  0
STYLE
  5
11
100
AcDbSymbolTableRecord
100
AcDbTextStyleTableRecord
  2
STANDARD
 70
0
 40
0.0
 41
0.7
 50
0.0
 71
0
 42
0.2
  3
txt
  4

  0
STYLE
  5
20B
100
AcDbSymbolTableRecord
100
AcDbTextStyleTableRecord
  2
TEXTSTYLE_1
 70
0
 40
0.0
 41
0.8
 50
0.0
 71
0
 42
0.2
  3
gdt
  4

  0
ENDTAB
  0
TABLE
  2
VIEW
  5
6
100
AcDbSymbolTable
 70
0
  0
ENDTAB
  0
TABLE
  2
UCS
  5
7
100
AcDbSymbolTable
 70
0
  0
ENDTAB
  0
TABLE
  2
APPID
  5
9
100
AcDbSymbolTable
 70
1
  0
APPID
  5
20C
100
AcDbSymbolTableRecord
100
AcDbRegAppTableRecord
  2
ACAD
 70
0
  0
ENDTAB
  0
TABLE
  2
BLOCK_RECORD
  5
1
100
AcDbSymbolTable
 70
0
  0
BLOCK_RECORD
  5
20D
100
AcDbSymbolTableRecord
100
AcDbBlockTableRecord
  2
*Model_Space
  0
BLOCK_RECORD
  5
20E
100
AcDbSymbolTableRecord
100
AcDbBlockTableRecord
  2
*Paper_Space
  0
ENDTAB
  0
TABLE
  2
DIMSTYLE
  5
A
100
AcDbSymbolTable
 70
1
100
AcDbDimStyleTable
 71
0
  0
DIMSTYLE
105
20F
100
AcDbSymbolTableRecord
100
AcDbDimStyleTableRecord
  2
STANDARD
 70
0
  3

  4

 40
1.0
 41
3.5
 42
0.0625
 43
0.38
 44
0.18
 45
0.0
 46
0.0
 47
0.005
 48
0.005
140
3.5
141
0.09
142
0.0
143
25.4
144
1.0
145
0.0
146
1.0
147
0.09
 71
1.0
 72
0.0
 73
0
 74
0
 75
0
 76
0
 77
1
 78
8
170
0
171
2
172
0
173
0
174
0
175
0
176
0
177
0
178
5
270
2
271
3
272
3
273
2
274
2
275
0
280
0
281
0
282
0
283
1
284
8
285
0
286
0
287
3
288
0
340
11
  0
ENDTAB
  0
ENDSEC
  0
SECTION
  2
BLOCKS
  0
BLOCK
  5
20
100
AcDbEntity
  8
0
100
AcDbBlockBegin
  2
*Model_Space
 70
0
 10
0.0
 20
0.0
 30
0.0
  3
*Model_Space
  1

  0
ENDBLK
  5
21
100
AcDbEntity
  8
0
100
AcDbBlockEnd
  0
BLOCK
  5
1C
100
AcDbEntity
  8
0
100
AcDbBlockBegin
  2
*Paper_Space
 70
0
 10
0.0
 20
0.0
 30
0.0
  3
*Paper_Space
  1

  0
ENDBLK
  5
1D
100
AcDbEntity
  8
0
100
AcDbBlockEnd
  0
ENDSEC
  0
SECTION
  2
ENTITIES
  0
MTEXT
  5
210
100
AcDbEntity
  8
0
100
AcDbMText
 62
5
  6
CONTINUOUS
  7
STANDARD
 71
1
 72
1
 10
166.8885293687
 20
148.1132343585
 30
0.0
 11
0.3826834324
 21
0.9238795325
 31
0.0
 44
0.9
  1
VIP 4
 40
4.0
 41
16.0952380952
  0
MTEXT
  5
211
100
AcDbEntity
  8
0
100
AcDbMText
 62
5
  6
CONTINUOUS
  7
STANDARD
 71
2
 72
1
 10
109.5556266315
 20
57.7170492919
 30
0.0
 11
0.0
 21
1.0
 31
0.0
 44
0.9
  1
RUD PP-VIP\P0,63t M12
 40
4.0
 41
32.0
  0
MTEXT
  5
212
100
AcDbEntity
  8
0
100
AcDbMText
 62
5
  6
CONTINUOUS
  7
STANDARD
 71
1
 72
1
 10
193.2999194453
 20
157.5010384869
 30
0.0
 11
0.3826834324
 21
-0.9238795325
 31
0.0
 44
0.9
  1
CE
 40
4.0
 41
6.9523809524
  0
LINE
  5
213
100
AcDbEntity
  8
0
100
AcDbLine
 62
7
  6
CONTINUOUS
 10
0.0
 20
0.0
 11
0.0
 21
210.0
  0
LINE
  5
214
100
AcDbEntity
  8
0
100
AcDbLine
 62
7
  6
CONTINUOUS
 10
0.0
 20
0.0
 11
297.0
 21
0.0
  0
LINE
  5
215
100
AcDbEntity
  8
0
100
AcDbLine
 62
7
  6
CONTINUOUS
 10
0.0
 20
210.0
 11
297.0
 21
210.0
  0
LINE
  5
216
100
AcDbEntity
  8
0
100
AcDbLine
 62
7
  6
CONTINUOUS
 10
297.0
 20
0.0
 11
297.0
 21
210.0
  0
LINE
  5
217
100
AcDbEntity
  8
FASEN
100
AcDbLine
 62
7
  6
CONTINUOUS
 10
120.2551495515
 20
99.778415919
 11
109.2558416744
 21
99.778415919
  0
LINE
  5
218
100
AcDbEntity
  8
FASEN
100
AcDbLine
 62
7
  6
CONTINUOUS
 10
120.7554956129
 20
100.278415919
 11
108.7554956129
 21
100.278415919
  0
LINE
  5
219
100
AcDbEntity
  8
FASEN
100
AcDbLine
 62
7
  6
CONTINUOUS
 10
109.2554956129
 20
99.778415919
 11
108.7554956129
 21
100.278415919
  0
LINE
  5
21A
100
AcDbEntity
  8
KONSTRUKTIONSELEMENTE
100
AcDbLine
 62
7
  6
CONTINUOUS
 10
94.7554956129
 20
117.778415919
 11
94.7554956129
 21
126.278415919
  0
LINE
  5
21B
100
AcDbEntity
  8
0
100
AcDbLine
 62
7
  6
CONTINUOUS
 10
97.2420383448
 20
123.0773521907
 11
97.8253716583
 21
119.928415919
  0
LINE
  5
21C
100
AcDbEntity
  8
0
100
AcDbLine
 62
7
  6
CONTINUOUS
 10
98.1795555349
 20
120.3539478428
 11
98.2085446685
 21
120.1974593788
  0
LINE
  5
21D
100
AcDbEntity
  8
0
100
AcDbLine
 62
7
  6
CONTINUOUS
 10
97.9920383448
 20
120.3539478428
 11
97.3670383448
 21
123.928415919
  0
LINE
  5
21E
100
AcDbEntity
  8
0
100
AcDbLine
 62
7
  6
CONTINUOUS
 10
96.9920383448
 20
123.928415919
 11
96.9920383448
 21
119.928415919
  0
LINE
  5
21F
100
AcDbEntity
  8
0
100
AcDbLine
 62
7
  6
CONTINUOUS
 10
97.2420383448
 20
119.928415919
 11
97.2420383448
 21
123.0773521907
  0
LINE
  5
220
100
AcDbEntity
  8
0
100
AcDbLine
 62
7
  6
CONTINUOUS
 10
97.4250510467
 20
123.5966326375
 11
97.4250510467
 21
123.0773521907
  0
LINE
  5
221
100
AcDbEntity
  8
0
100
AcDbLine
 62
7
  6
CONTINUOUS
 10
97.5054956129
 20
134.6890542156
 11
97.5054956129
 21
134.212458551
  0
LINE
  5
222
100
AcDbEntity
  8
0
100
AcDbLine
 62
7
  6
CONTINUOUS
 10
97.5183828684
 20
138.178415919
 11
97.5183828684
 21
135.5401180036
  0
LINE
  5
223
100
AcDbEntity
  8
0
100
AcDbLine
 62
7
  6
CONTINUOUS
 10
97.5183828868
 20
130.5613945968
 11
97.5183828868
 21
129.7954372413
  0
LINE
  5
224
100
AcDbEntity
  8
0
100
AcDbLine
 62
7
  6
CONTINUOUS
 10
97.5571026125
 20
138.178415919
 11
97.5571026125
 21
135.5401180036
  0
LINE
  5
225
100
AcDbEntity
  8
0
100
AcDbLine
 62
7
  6
CONTINUOUS
 10
97.5783143377
 20
130.4762882239
 11
97.5783143377
 21
129.8805436141
  0
LINE
  5
226
100
AcDbEntity
  8
0
100
AcDbLine
 62
7
  6
CONTINUOUS
 10
97.6031958165
 20
138.178415919
 11
97.6031958165
 21
135.5401180036
  0
LINE
  5
227
100
AcDbEntity
  8
0
100
AcDbLine
 62
7
  6
CONTINUOUS
 10
97.6218299222
 20
130.4762882239
 11
97.6218299222
 21
130.3060754783
  0
LINE
  5
228
100
AcDbEntity
  8
0
100
AcDbLine
 62
7
  6
CONTINUOUS
 10
97.6317628555
 20
129.6252243764
 11
97.6317628555
 21
129.3699052579
  0
LINE
  5
229
100
AcDbEntity
  8
0
100
AcDbLine
 62
7
  6
CONTINUOUS
 10
97.6876164242
 20
138.178415919
 11
97.6876164242
 21
134.178415919
  0
LINE
  5
22A
100
AcDbEntity
  8
0
100
AcDbLine
 62
7
  6
CONTINUOUS
 10
97.7554956129
 20
142.178415919
 11
97.7554956129
 21
138.178415919
  0
LINE
  5
22B
100
AcDbEntity
  8
0
100
AcDbLine
 62
7
  6
CONTINUOUS
 10
97.7554956129
 20
134.178415919
 11
97.7554956129
 21
132.178415919
  0
LINE
  5
22C
100
AcDbEntity
  8
0
100
AcDbLine
 62
7
  6
CONTINUOUS
 10
97.7554956129
 20
127.6677776224
 11
97.7554956129
 21
126.278415919
  0
LINE
  5
22D
100
AcDbEntity
  8
0
100
AcDbLine
 62
7
  6
CONTINUOUS
 10
97.7683681336
 20
137.667777682
 11
97.7683681336
 21
134.6890542156
  0
LINE
  5
22E
100
AcDbEntity
  8
0
100
AcDbLine
 62
7
  6
CONTINUOUS
 10
97.8836337255
 20
129.6252243764
 11
97.8836337255
 21
129.3699052579
  0
LINE
  5
22F
100
AcDbEntity
  8
0
100
AcDbLine
 62
7
  6
CONTINUOUS
 10
98.0162783616
 20
129.6252243764
 11
98.0162783616
 21
129.3699052579
  0
LINE
  5
230
100
AcDbEntity
  8
0
100
AcDbLine
 62
7
  6
CONTINUOUS
 10
98.0222950822
 20
137.667777682
 11
98.0222950822
 21
134.6890542156
  0
LINE
  5
231
100
AcDbEntity
  8
0
100
AcDbLine
 62
7
  6
CONTINUOUS
 10
98.1255362105
 20
129.7103308684
 11
98.1255362105
 21
129.2847988851
  0
LINE
  5
232
100
AcDbEntity
  8
0
100
AcDbLine
 62
7
  6
CONTINUOUS
 10
98.3506774504
 20
136.8167137153
 11
98.3506774504
 21
135.5401180036
  0
LINE
  5
233
100
AcDbEntity
  8
0
100
AcDbLine
 62
7
  6
CONTINUOUS
 10
98.3850023483
 20
129.7103308684
 11
98.3850023483
 21
129.2847988851
  0
LINE
  5
234
100
AcDbEntity
  8
0
100
AcDbLine
 62
7
  6
CONTINUOUS
 10
98.5217429374
 20
136.8167137153
 11
98.5217429374
 21
135.5401180036
  0
LINE
  5
235
100
AcDbEntity
  8
0
100
AcDbLine
 62
7
  6
CONTINUOUS
 10
98.7420383448
 20
123.0773521907
 11
98.7420383448
 21
119.928415919
  0
LINE
  5
236
100
AcDbEntity
  8
0
100
AcDbLine
 62
7
  6
CONTINUOUS
 10
98.7876458538
 20
136.8167137153
 11
98.7876458538
 21
135.5401180036
  0
LINE
  5
237
100
AcDbEntity
  8
0
100
AcDbLine
 62
7
  6
CONTINUOUS
 10
98.811148218
 20
130.3911818511
 11
98.811148218
 21
130.0507563598
  0
LINE
  5
238
100
AcDbEntity
  8
0
100
AcDbLine
 62
7
  6
CONTINUOUS
 10
98.9920383448
 20
119.928415919
 11
98.9920383448
 21
123.928415919
  0
LINE
  5
239
100
AcDbEntity
  8
0
100
AcDbLine
 62
7
  6
CONTINUOUS
 10
99.3253715987
 20
123.3326713092
 11
99.3253715987
 21
122.6518200881
  0
LINE
  5
23A
100
AcDbEntity
  8
0
100
AcDbLine
 62
7
  6
CONTINUOUS
 10
99.3444606055
 20
131.2422458179
 11
99.3444606055
 21
131.0720328338
  0
LINE
  5
23B
100
AcDbEntity
  8
0
100
AcDbLine
 62
7
  6
CONTINUOUS
 10
99.3866511889
 20
129.4550116307
 11
99.3866511889
 21
129.1145861394
  0
LINE
  5
23C
100
AcDbEntity
  8
KONSTRUKTIONSELEMENTE
100
AcDbLine
 62
7
  6
CONTINUOUS
 10
94.7554956129
 20
117.778415919
 11
134.7554956129
 21
117.778415919
  0
LINE
  5
23D
100
AcDbEntity
  8
0
100
AcDbLine
 62
7
  6
CONTINUOUS
 10
101.4503718371
 20
123.6730968005
 11
101.2837048525
 21
123.8433095462
  0
LINE
  5
23E
100
AcDbEntity
  8
0
100
AcDbLine
 62
7
  6
CONTINUOUS
 10
101.2003718371
 20
123.417777682
 11
101.3253718371
 21
123.2475649364
  0
LINE
  5
23F
100
AcDbEntity
  8
0
100
AcDbLine
 62
7
  6
CONTINUOUS
 10
101.6170383448
 20
123.3326713092
 11
101.4503718371
 21
123.6730968005
  0
LINE
  5
240
100
AcDbEntity
  8
0
100
AcDbLine
 62
7
  6
CONTINUOUS
 10
101.3253718371
 20
123.2475649364
 11
101.4087048525
 21
122.9922458179
  0
LINE
  5
241
100
AcDbEntity
  8
0
100
AcDbLine
 62
7
  6
CONTINUOUS
 10
99.5611523912
 20
131.2422458179
 11
99.5611523912
 21
131.0720328338
  0
LINE
  5
242
100
AcDbEntity
  8
0
100
AcDbLine
 62
7
  6
CONTINUOUS
 10
99.5753715987
 20
123.2475649364
 11
99.5753715987
 21
119.928415919
  0
LINE
  5
243
100
AcDbEntity
  8
0
100
AcDbLine
 62
7
  6
CONTINUOUS
 10
99.6062382054
 20
129.4550116307
 11
99.6062382054
 21
129.1145861394
  0
LINE
  5
244
100
AcDbEntity
  8
0
100
AcDbLine
 62
7
  6
CONTINUOUS
 10
99.7583843006
 20
123.3326713092
 11
99.7583843006
 21
123.2475649364
  0
LINE
  5
245
100
AcDbEntity
  8
0
100
AcDbLine
 62
7
  6
CONTINUOUS
 10
99.8253715987
 20
119.928415919
 11
99.8253715987
 21
123.928415919
  0
LINE
  5
246
100
AcDbEntity
  8
0
100
AcDbLine
 62
7
  6
CONTINUOUS
 10
99.8455805917
 20
131.2422458179
 11
99.8455805917
 21
131.0720328338
  0
LINE
  5
247
100
AcDbEntity
  8
0
100
AcDbLine
 62
7
  6
CONTINUOUS
 10
99.8915291167
 20
129.4550116307
 11
99.8915291167
 21
129.1145861394
  0
LINE
  5
248
100
AcDbEntity
  8
0
100
AcDbLine
 62
7
  6
CONTINUOUS
 10
99.9887909401
 20
130.9018200881
 11
99.9887909401
 21
130.5613945968
  0
LINE
  5
249
100
AcDbEntity
  8
0
100
AcDbLine
 62
7
  6
CONTINUOUS
 10
100.1587050909
 20
120.3539478428
 11
100.1587050909
 21
119.928415919
  0
LINE
  5
24A
100
AcDbEntity
  8
0
100
AcDbLine
 62
7
  6
CONTINUOUS
 10
100.4124760551
 20
131.5826713092
 11
100.4124760551
 21
130.9018200881
  0
LINE
  5
24B
100
AcDbEntity
  8
0
100
AcDbLine
 62
7
  6
CONTINUOUS
 10
100.4124760551
 20
130.5613945968
 11
100.4124760551
 21
128.8592669613
  0
LINE
  5
24C
100
AcDbEntity
  8
0
100
AcDbLine
 62
7
  6
CONTINUOUS
 10
100.5917177928
 20
120.3539478428
 11
100.5917177928
 21
119.928415919
  0
LINE
  5
24D
100
AcDbEntity
  8
0
100
AcDbLine
 62
7
  6
CONTINUOUS
 10
100.699802816
 20
131.5826713092
 11
100.699802816
 21
130.9018200881
  0
LINE
  5
24E
100
AcDbEntity
  8
0
100
AcDbLine
 62
7
  6
CONTINUOUS
 10
100.699802816
 20
130.5613945968
 11
100.699802816
 21
129.0294797666
  0
LINE
  5
24F
100
AcDbEntity
  8
0
100
AcDbLine
 62
7
  6
CONTINUOUS
 10
101.0077685281
 20
131.5826713092
 11
101.0077685281
 21
130.9018200881
  0
LINE
  5
250
100
AcDbEntity
  8
0
100
AcDbLine
 62
7
  6
CONTINUOUS
 10
101.0077685281
 20
130.5613945968
 11
101.0077685281
 21
129.0294797666
  0
LINE
  5
251
100
AcDbEntity
  8
0
100
AcDbLine
 62
7
  6
CONTINUOUS
 10
101.2647580497
 20
128.5188414402
 11
101.2647580497
 21
128.178415919
  0
LINE
  5
252
100
AcDbEntity
  8
0
100
AcDbLine
 62
7
  6
CONTINUOUS
 10
101.3992647535
 20
130.9018200881
 11
101.3992647535
 21
130.5613945968
  0
LINE
  5
253
100
AcDbEntity
  8
0
100
AcDbLine
 62
7
  6
CONTINUOUS
 10
101.4087048525
 20
122.9922458179
 11
101.4087048525
 21
122.8220328338
  0
LINE
  5
254
100
AcDbEntity
  8
0
100
AcDbLine
 62
7
  6
CONTINUOUS
 10
101.5859284219
 20
128.5188414402
 11
101.5859284219
 21
128.178415919
  0
LINE
  5
255
100
AcDbEntity
  8
0
100
AcDbLine
 62
7
  6
CONTINUOUS
 10
101.6587048525
 20
119.928415919
 11
101.6587048525
 21
120.3539478428
  0
LINE
  5
256
100
AcDbEntity
  8
0
100
AcDbLine
 62
7
  6
CONTINUOUS
 10
101.6587048525
 20
122.8220328338
 11
101.6587048525
 21
122.9922458179
  0
LINE
  5
257
100
AcDbEntity
  8
0
100
AcDbLine
 62
7
  6
CONTINUOUS
 10
101.7237496528
 20
130.9018200881
 11
101.7237496528
 21
130.5613945968
  0
LINE
  5
258
100
AcDbEntity
  8
0
100
AcDbLine
 62
7
  6
CONTINUOUS
 10
100.2420383448
 20
123.3326713092
 11
100.2003715987
 21
122.9922458179
  0
LINE
  5
259
100
AcDbEntity
  8
0
100
AcDbLine
 62
7
  6
CONTINUOUS
 10
98.6170383448
 20
123.928415919
 11
97.9920383448
 21
120.3539478428
  0
LINE
  5
25A
100
AcDbEntity
  8
0
100
AcDbLine
 62
7
  6
CONTINUOUS
 10
98.9920383448
 20
123.5966326375
 11
98.9012415403
 21
123.0773521907
  0
LINE
  5
25B
100
AcDbEntity
  8
0
100
AcDbLine
 62
7
  6
CONTINUOUS
 10
98.1587049717
 20
119.928415919
 11
98.7420383448
 21
123.0773521907
  0
LINE
  5
25C
100
AcDbEntity
  8
0
100
AcDbLine
 62
7
  6
CONTINUOUS
 10
96.9920383448
 20
119.928415919
 11
97.2420383448
 21
119.928415919
  0
LINE
  5
25D
100
AcDbEntity
  8
0
100
AcDbLine
 62
7
  6
CONTINUOUS
 10
97.8253716583
 20
119.928415919
 11
98.1587049717
 21
119.928415919
  0
LINE
  5
25E
100
AcDbEntity
  8
0
100
AcDbLine
 62
7
  6
CONTINUOUS
 10
98.7420383448
 20
119.928415919
 11
98.9920383448
 21
119.928415919
  0
LINE
  5
25F
100
AcDbEntity
  8
0
100
AcDbLine
 62
7
  6
CONTINUOUS
 10
99.5753715987
 20
119.928415919
 11
99.8253715987
 21
119.928415919
  0
LINE
  5
260
100
AcDbEntity
  8
0
100
AcDbLine
 62
7
  6
CONTINUOUS
 10
100.1587050909
 20
119.928415919
 11
101.6587048525
 21
119.928415919
  0
LINE
  5
261
100
AcDbEntity
  8
0
100
AcDbLine
 62
7
  6
CONTINUOUS
 10
97.9920383448
 20
120.3539478428
 11
98.237533805
 21
120.3539478428
  0
LINE
  5
262
100
AcDbEntity
  8
0
100
AcDbLine
 62
7
  6
CONTINUOUS
 10
100.1587050909
 20
120.3539478428
 11
101.6587048525
 21
120.3539478428
  0
LINE
  5
263
100
AcDbEntity
  8
0
100
AcDbLine
 62
7
  6
CONTINUOUS
 10
101.2837048525
 20
123.8433095462
 11
101.0337048525
 21
123.928415919
  0
LINE
  5
264
100
AcDbEntity
  8
0
100
AcDbLine
 62
7
  6
CONTINUOUS
 10
100.9920383448
 20
123.5028840549
 11
101.2003718371
 21
123.417777682
  0
LINE
  5
265
100
AcDbEntity
  8
0
100
AcDbLine
 62
7
  6
CONTINUOUS
 10
101.4250510467
 20
123.5028840549
 11
101.5608685437
 21
123.4474012114
  0
LINE
  5
266
100
AcDbEntity
  8
0
100
AcDbLine
 62
7
  6
CONTINUOUS
 10
101.6587048525
 20
122.9922458179
 11
101.6170383448
 21
123.3326713092
  0
LINE
  5
267
100
AcDbEntity
  8
KONSTRUKTIONSELEMENTE
100
AcDbLine
 62
7
  6
CONTINUOUS
 10
103.5785810767
 20
117.778415919
 11
103.5785810767
 21
126.278415919
  0
LINE
  5
268
100
AcDbEntity
  8
0
100
AcDbLine
 62
7
  6
CONTINUOUS
 10
101.6170383448
 20
122.4816073424
 11
101.6587048525
 21
122.8220328338
  0
LINE
  5
269
100
AcDbEntity
  8
0
100
AcDbLine
 62
7
  6
CONTINUOUS
 10
101.4087048525
 20
122.8220328338
 11
101.3253718371
 21
122.4816073424
  0
LINE
  5
26A
100
AcDbEntity
  8
0
100
AcDbLine
 62
7
  6
CONTINUOUS
 10
100.4087050909
 20
122.9922458179
 11
100.4920383448
 21
123.2475649364
  0
LINE
  5
26B
100
AcDbEntity
  8
0
100
AcDbLine
 62
7
  6
CONTINUOUS
 10
99.5753715987
 20
123.928415919
 11
99.3253715987
 21
123.3326713092
  0
LINE
  5
26C
100
AcDbEntity
  8
0
100
AcDbLine
 62
7
  6
CONTINUOUS
 10
99.3253715987
 20
122.6518200881
 11
99.5753715987
 21
123.2475649364
  0
LINE
  5
26D
100
AcDbEntity
  8
0
100
AcDbLine
 62
7
  6
CONTINUOUS
 10
101.3253718371
 20
122.4816073424
 11
101.6170383448
 21
122.4816073424
  0
LINE
  5
26E
100
AcDbEntity
  8
0
100
AcDbLine
 62
7
  6
CONTINUOUS
 10
101.4087048525
 20
122.8220328338
 11
101.6587048525
 21
122.8220328338
  0
LINE
  5
26F
100
AcDbEntity
  8
0
100
AcDbLine
 62
7
  6
CONTINUOUS
 10
100.2003715987
 20
122.9922458179
 11
100.4087050909
 21
122.9922458179
  0
LINE
  5
270
100
AcDbEntity
  8
0
100
AcDbLine
 62
7
  6
CONTINUOUS
 10
101.4087048525
 20
122.9922458179
 11
101.6587048525
 21
122.9922458179
  0
LINE
  5
271
100
AcDbEntity
  8
0
100
AcDbLine
 62
7
  6
CONTINUOUS
 10
97.2420383448
 20
123.0773521907
 11
97.5158478512
 21
123.0773521907
  0
LINE
  5
272
100
AcDbEntity
  8
0
100
AcDbLine
 62
7
  6
CONTINUOUS
 10
98.7420383448
 20
123.0773521907
 11
98.9920383448
 21
123.0773521907
  0
LINE
  5
273
100
AcDbEntity
  8
KONSTRUKTIONSELEMENTE
100
AcDbLine
 62
7
  6
CONTINUOUS
 10
105.9324101492
 20
117.778415919
 11
105.9324101492
 21
126.278415919
  0
LINE
  5
274
100
AcDbEntity
  8
0
100
AcDbLine
 62
7
  6
CONTINUOUS
 10
101.5337048525
 20
122.2262882239
 11
101.6170383448
 21
122.4816073424
  0
LINE
  5
275
100
AcDbEntity
  8
0
100
AcDbLine
 62
7
  6
CONTINUOUS
 10
99.8253715987
 20
123.4923005963
 11
99.7583843006
 21
123.3326713092
  0
LINE
  5
276
100
AcDbEntity
  8
0
100
AcDbLine
 62
7
  6
CONTINUOUS
 10
100.4087050909
 20
123.6730968005
 11
100.2420383448
 21
123.3326713092
  0
LINE
  5
277
100
AcDbEntity
  8
0
100
AcDbLine
 62
7
  6
CONTINUOUS
 10
100.8417177928
 20
123.6730968005
 11
100.7416376071
 21
123.4686778195
  0
LINE
  5
278
100
AcDbEntity
  8
0
100
AcDbLine
 62
7
  6
CONTINUOUS
 10
99.5753715987
 20
123.2475649364
 11
99.8253715987
 21
123.2475649364
  0
LINE
  5
279
100
AcDbEntity
  8
0
100
AcDbLine
 62
7
  6
CONTINUOUS
 10
101.3253718371
 20
123.2475649364
 11
101.6274549717
 21
123.2475649364
  0
LINE
  5
27A
100
AcDbEntity
  8
0
100
AcDbLine
 62
7
  6
CONTINUOUS
 10
99.3253715987
 20
123.3326713092
 11
99.7583843006
 21
123.3326713092
  0
LINE
  5
27B
100
AcDbEntity
  8
0
100
AcDbLine
 62
7
  6
CONTINUOUS
 10
100.2420383448
 20
123.3326713092
 11
100.5545383448
 21
123.3326713092
  0
LINE
  5
27C
100
AcDbEntity
  8
0
100
AcDbLine
 62
7
  6
CONTINUOUS
 10
101.2003718371
 20
123.417777682
 11
101.5753717179
 21
123.417777682
  0
LINE
  5
27D
100
AcDbEntity
  8
0
100
AcDbLine
 62
7
  6
CONTINUOUS
 10
100.8253715987
 20
123.5028840549
 11
101.4250510467
 21
123.5028840549
  0
LINE
  5
27E
100
AcDbEntity
  8
0
100
AcDbLine
 62
7
  6
CONTINUOUS
 10
100.4087050909
 20
123.6730968005
 11
100.8417177928
 21
123.6730968005
  0
LINE
  5
27F
100
AcDbEntity
  8
0
100
AcDbLine
 62
7
  6
CONTINUOUS
 10
100.5753715987
 20
123.8433095462
 11
101.0083843006
 21
123.8433095462
  0
LINE
  5
280
100
AcDbEntity
  8
0
100
AcDbLine
 62
7
  6
CONTINUOUS
 10
101.0337048525
 20
123.928415919
 11
100.8670383448
 21
123.928415919
  0
LINE
  5
281
100
AcDbEntity
  8
0
100
AcDbLine
 62
7
  6
CONTINUOUS
 10
99.8253715987
 20
123.928415919
 11
99.5753715987
 21
123.928415919
  0
LINE
  5
282
100
AcDbEntity
  8
0
100
AcDbLine
 62
7
  6
CONTINUOUS
 10
98.9920383448
 20
123.928415919
 11
98.6170383448
 21
123.928415919
  0
LINE
  5
283
100
AcDbEntity
  8
0
100
AcDbLine
 62
7
  6
CONTINUOUS
 10
97.3670383448
 20
123.928415919
 11
96.9920383448
 21
123.928415919
  0
LINE
  5
284
100
AcDbEntity
  8
RUNDUNGEN
100
AcDbLine
 62
7
  6
CONTINUOUS
 10
108.2554956129
 20
147.678415919
 11
108.2554956129
 21
160.178415919
  0
LINE
  5
285
100
AcDbEntity
  8
0
100
AcDbLine
 62
7
  6
CONTINUOUS
 10
108.7554956129
 20
117.778415919
 11
108.7554956129
 21
100.278415919
  0
LINE
  5
286
100
AcDbEntity
  8
0
100
AcDbLine
 62
7
  6
CONTINUOUS
 10
101.3253718371
 20
122.4816073424
 11
100.1587050909
 21
120.3539478428
  0
LINE
  5
287
100
AcDbEntity
  8
0
100
AcDbLine
 62
7
  6
CONTINUOUS
 10
100.4920383448
 20
120.3539478428
 11
101.5337048525
 21
122.2262882239
  0
LINE
  5
288
100
AcDbEntity
  8
0
100
AcDbLine
 62
7
  6
CONTINUOUS
 10
100.4920383448
 20
123.2475649364
 11
100.6170383448
 21
123.417777682
  0
LINE
  5
289
100
AcDbEntity
  8
KONSTRUKTIONSELEMENTE
100
AcDbLine
 62
7
  6
CONTINUOUS
 10
94.7554956129
 20
126.278415919
 11
134.7554956129
 21
126.278415919
  0
LINE
  5
28A
100
AcDbEntity
  8
0
100
AcDbLine
 62
7
  6
CONTINUOUS
 10
97.760602597
 20
127.6677776224
 11
97.5105285609
 21
127.6677776224
  0
LINE
  5
28B
100
AcDbEntity
  8
0
100
AcDbLine
 62
7
  6
CONTINUOUS
 10
101.5859284219
 20
128.178415919
 11
101.2647580497
 21
128.178415919
  0
LINE
  5
28C
100
AcDbEntity
  8
0
100
AcDbLine
 62
7
  6
CONTINUOUS
 10
99.3014870753
 20
128.178415919
 11
98.7433471922
 21
128.178415919
  0
LINE
  5
28D
100
AcDbEntity
  8
0
100
AcDbLine
 62
7
  6
CONTINUOUS
 10
98.0854960733
 20
128.178415919
 11
97.753861759
 21
128.178415919
  0
LINE
  5
28E
100
AcDbEntity
  8
0
100
AcDbLine
 62
7
  6
CONTINUOUS
 10
99.4586637518
 20
128.2635222993
 11
99.1813001285
 21
128.2635222993
  0
LINE
  5
28F
100
AcDbEntity
  8
0
100
AcDbLine
 62
7
  6
CONTINUOUS
 10
98.1742562141
 20
128.2635222993
 11
97.9180373724
 21
128.2635222993
  0
LINE
  5
290
100
AcDbEntity
  8
0
100
AcDbLine
 62
7
  6
CONTINUOUS
 10
100.5753715987
 20
123.8433095462
 11
100.4087050909
 21
123.6730968005
  0
LINE
  5
291
100
AcDbEntity
  8
0
100
AcDbLine
 62
7
  6
CONTINUOUS
 10
101.0083843006
 20
123.8433095462
 11
100.8417177928
 21
123.6730968005
  0
LINE
  5
292
100
AcDbEntity
  8
0
100
AcDbLine
 62
7
  6
CONTINUOUS
 10
99.6248148615
 20
128.4337350673
 11
99.3444606055
 21
128.4337350673
  0
LINE
  5
293
100
AcDbEntity
  8
0
100
AcDbLine
 62
7
  6
CONTINUOUS
 10
101.5859284219
 20
128.5188414402
 11
101.2647580497
 21
128.5188414402
  0
LINE
  5
294
100
AcDbEntity
  8
0
100
AcDbLine
 62
7
  6
CONTINUOUS
 10
98.2740243744
 20
128.5188414402
 11
98.0162783616
 21
128.5188414402
  0
LINE
  5
295
100
AcDbEntity
  8
0
100
AcDbLine
 62
7
  6
CONTINUOUS
 10
101.2565249454
 20
128.6039478428
 11
100.9430118
 21
128.6039478428
  0
LINE
  5
296
100
AcDbEntity
  8
0
100
AcDbLine
 62
7
  6
CONTINUOUS
 10
99.7554956129
 20
128.6039478428
 11
99.4727438973
 21
128.6039478428
  0
LINE
  5
297
100
AcDbEntity
  8
0
100
AcDbLine
 62
7
  6
CONTINUOUS
 10
98.9896305875
 20
128.6039478428
 11
98.7769944316
 21
128.6039478428
  0
LINE
  5
298
100
AcDbEntity
  8
0
100
AcDbLine
 62
7
  6
CONTINUOUS
 10
97.8472463471
 20
128.6039478428
 11
97.7397757039
 21
128.6039478428
  0
LINE
  5
299
100
AcDbEntity
  8
0
100
AcDbLine
 62
7
  6
CONTINUOUS
 10
97.6317628555
 20
128.6039478428
 11
97.5298687262
 21
128.6039478428
  0
LINE
  5
29A
100
AcDbEntity
  8
0
100
AcDbLine
 62
7
  6
CONTINUOUS
 10
98.8812067211
 20
128.6890542156
 11
98.6137625021
 21
128.6890542156
  0
LINE
  5
29B
100
AcDbEntity
  8
0
100
AcDbLine
 62
7
  6
CONTINUOUS
 10
97.899693638
 20
128.6890542156
 11
97.7000304908
 21
128.6890542156
  0
LINE
  5
29C
100
AcDbEntity
  8
0
100
AcDbLine
 62
7
  6
CONTINUOUS
 10
101.0687729933
 20
128.7741605885
 11
100.7594648875
 21
128.7741605885
  0
LINE
  5
29D
100
AcDbEntity
  8
0
100
AcDbLine
 62
7
  6
CONTINUOUS
 10
98.8183357945
 20
128.7741605885
 11
98.5519292438
 21
128.7741605885
  0
LINE
  5
29E
100
AcDbEntity
  8
0
100
AcDbLine
 62
7
  6
CONTINUOUS
 10
97.6031957655
 20
128.7741605885
 11
97.5345055136
 21
128.7741605885
  0
LINE
  5
29F
100
AcDbEntity
  8
0
100
AcDbLine
 62
7
  6
CONTINUOUS
 10
99.8455805917
 20
128.8592669613
 11
99.5611523912
 21
128.8592669613
  0
LINE
  5
2A0
100
AcDbEntity
  8
0
100
AcDbLine
 62
7
  6
CONTINUOUS
 10
98.3392517925
 20
128.8592669613
 11
98.0804975268
 21
128.8592669613
  0
LINE
  5
2A1
100
AcDbEntity
  8
0
100
AcDbLine
 62
7
  6
CONTINUOUS
 10
97.9163876484
 20
128.8592669613
 11
97.6640340885
 21
128.8592669613
  0
LINE
  5
2A2
100
AcDbEntity
  8
0
100
AcDbLine
 62
7
  6
CONTINUOUS
 10
98.7574488571
 20
128.9443733937
 11
98.4920396456
 21
128.9443733937
  0
LINE
  5
2A3
100
AcDbEntity
  8
0
100
AcDbLine
 62
7
  6
CONTINUOUS
 10
101.0077685281
 20
129.0294797666
 11
100.699802816
 21
129.0294797666
  0
LINE
  5
2A4
100
AcDbEntity
  8
0
100
AcDbLine
 62
7
  6
CONTINUOUS
 10
99.8915291167
 20
129.1145861394
 11
99.6062382054
 21
129.1145861394
  0
LINE
  5
2A5
100
AcDbEntity
  8
0
100
AcDbLine
 62
7
  6
CONTINUOUS
 10
98.7277416812
 20
129.1145861394
 11
98.3238188878
 21
129.1145861394
  0
LINE
  5
2A6
100
AcDbEntity
  8
0
100
AcDbLine
 62
7
  6
CONTINUOUS
 10
97.5928141827
 20
129.1145861394
 11
97.5256361798
 21
129.1145861394
  0
LINE
  5
2A7
100
AcDbEntity
  8
0
100
AcDbLine
 62
7
  6
CONTINUOUS
 10
97.8941328513
 20
129.1145861394
 11
97.6421074569
 21
129.1145861394
  0
LINE
  5
2A8
100
AcDbEntity
  8
0
100
AcDbLine
 62
7
  6
CONTINUOUS
 10
98.3850023483
 20
129.2847988851
 11
98.1255362105
 21
129.2847988851
  0
LINE
  5
2A9
100
AcDbEntity
  8
0
100
AcDbLine
 62
7
  6
CONTINUOUS
 10
97.5861997286
 20
129.3699052579
 11
97.5218076733
 21
129.3699052579
  0
LINE
  5
2AA
100
AcDbEntity
  8
0
100
AcDbLine
 62
7
  6
CONTINUOUS
 10
97.8836337255
 20
129.3699052579
 11
97.6317628555
 21
129.3699052579
  0
LINE
  5
2AB
100
AcDbEntity
  8
0
100
AcDbLine
 62
7
  6
CONTINUOUS
 10
99.8915291167
 20
129.4550116307
 11
99.6062382054
 21
129.4550116307
  0
LINE
  5
2AC
100
AcDbEntity
  8
0
100
AcDbLine
 62
7
  6
CONTINUOUS
 10
97.8836337255
 20
129.6252243764
 11
97.6317628555
 21
129.6252243764
  0
LINE
  5
2AD
100
AcDbEntity
  8
0
100
AcDbLine
 62
7
  6
CONTINUOUS
 10
98.3850023483
 20
129.7103308684
 11
98.1255362105
 21
129.7103308684
  0
LINE
  5
2AE
100
AcDbEntity
  8
0
100
AcDbLine
 62
7
  6
CONTINUOUS
 10
99.8455805917
 20
129.7954372413
 11
99.5611523912
 21
129.7954372413
  0
LINE
  5
2AF
100
AcDbEntity
  8
0
100
AcDbLine
 62
7
  6
CONTINUOUS
 10
97.5783143377
 20
129.7954372413
 11
97.5183828868
 21
129.7954372413
  0
LINE
  5
2B0
100
AcDbEntity
  8
0
100
AcDbLine
 62
7
  6
CONTINUOUS
 10
97.8941328513
 20
129.8805436141
 11
97.6421074569
 21
129.8805436141
  0
LINE
  5
2B1
100
AcDbEntity
  8
0
100
AcDbLine
 62
7
  6
CONTINUOUS
 10
99.7554956129
 20
130.0507563598
 11
99.4727438973
 21
130.0507563598
  0
LINE
  5
2B2
100
AcDbEntity
  8
0
100
AcDbLine
 62
7
  6
CONTINUOUS
 10
98.9528935798
 20
130.0507563598
 11
98.811148218
 21
130.0507563598
  0
LINE
  5
2B3
100
AcDbEntity
  8
0
100
AcDbLine
 62
7
  6
CONTINUOUS
 10
97.9163876484
 20
130.0507563598
 11
97.6640340885
 21
130.0507563598
  0
LINE
  5
2B4
100
AcDbEntity
  8
0
100
AcDbLine
 62
7
  6
CONTINUOUS
 10
98.3392517925
 20
130.1358627326
 11
98.0804975268
 21
130.1358627326
  0
LINE
  5
2B5
100
AcDbEntity
  8
0
100
AcDbLine
 62
7
  6
CONTINUOUS
 10
99.5406000854
 20
130.2209691054
 11
99.2617695952
 21
130.2209691054
  0
LINE
  5
2B6
100
AcDbEntity
  8
0
100
AcDbLine
 62
7
  6
CONTINUOUS
 10
97.899693638
 20
130.2209691054
 11
97.7000304908
 21
130.2209691054
  0
LINE
  5
2B7
100
AcDbEntity
  8
0
100
AcDbLine
 62
7
  6
CONTINUOUS
 10
97.8472463471
 20
130.3060754783
 11
97.7397757039
 21
130.3060754783
  0
LINE
  5
2B8
100
AcDbEntity
  8
0
100
AcDbLine
 62
7
  6
CONTINUOUS
 10
98.9528935798
 20
130.3911818511
 11
98.811148218
 21
130.3911818511
  0
LINE
  5
2B9
100
AcDbEntity
  8
0
100
AcDbLine
 62
7
  6
CONTINUOUS
 10
98.2740243744
 20
130.3911818511
 11
98.0162783616
 21
130.3911818511
  0
LINE
  5
2BA
100
AcDbEntity
  8
0
100
AcDbLine
 62
7
  6
CONTINUOUS
 10
99.7113472836
 20
130.4762882239
 11
99.4294100411
 21
130.4762882239
  0
LINE
  5
2BB
100
AcDbEntity
  8
0
100
AcDbLine
 62
7
  6
CONTINUOUS
 10
97.6528654664
 20
130.4762882239
 11
97.6218299222
 21
130.4762882239
  0
LINE
  5
2BC
100
AcDbEntity
  8
0
100
AcDbLine
 62
7
  6
CONTINUOUS
 10
101.7237496528
 20
130.5613945968
 11
100.699802816
 21
130.5613945968
  0
LINE
  5
2BD
100
AcDbEntity
  8
0
100
AcDbLine
 62
7
  6
CONTINUOUS
 10
100.4124760551
 20
130.5613945968
 11
99.9887909401
 21
130.5613945968
  0
LINE
  5
2BE
100
AcDbEntity
  8
0
100
AcDbLine
 62
7
  6
CONTINUOUS
 10
97.5783143377
 20
130.5613945968
 11
97.5183828868
 21
130.5613945968
  0
LINE
  5
2BF
100
AcDbEntity
  8
0
100
AcDbLine
 62
7
  6
CONTINUOUS
 10
98.1742562141
 20
130.6465009696
 11
97.9180373724
 21
130.6465009696
  0
LINE
  5
2C0
100
AcDbEntity
  8
0
100
AcDbLine
 62
7
  6
CONTINUOUS
 10
99.8002386127
 20
130.7316073424
 11
99.5166566826
 21
130.7316073424
  0
LINE
  5
2C1
100
AcDbEntity
  8
0
100
AcDbLine
 62
7
  6
CONTINUOUS
 10
98.0854960733
 20
130.7316073424
 11
97.753861759
 21
130.7316073424
  0
LINE
  5
2C2
100
AcDbEntity
  8
0
100
AcDbLine
 62
7
  6
CONTINUOUS
 10
101.7237496528
 20
130.9018200881
 11
100.699802816
 21
130.9018200881
  0
LINE
  5
2C3
100
AcDbEntity
  8
0
100
AcDbLine
 62
7
  6
CONTINUOUS
 10
100.4124760551
 20
130.9018200881
 11
99.9887909401
 21
130.9018200881
  0
LINE
  5
2C4
100
AcDbEntity
  8
0
100
AcDbLine
 62
7
  6
CONTINUOUS
 10
97.8836337255
 20
130.9869264609
 11
97.6317628555
 21
130.9869264609
  0
LINE
  5
2C5
100
AcDbEntity
  8
0
100
AcDbLine
 62
7
  6
CONTINUOUS
 10
97.5861997286
 20
130.9869264609
 11
97.5218076733
 21
130.9869264609
  0
LINE
  5
2C6
100
AcDbEntity
  8
0
100
AcDbLine
 62
7
  6
CONTINUOUS
 10
99.8455805917
 20
131.0720328338
 11
99.5611523912
 21
131.0720328338
  0
LINE
  5
2C7
100
AcDbEntity
  8
0
100
AcDbLine
 62
7
  6
CONTINUOUS
 10
99.8455805917
 20
131.2422458179
 11
99.5611523912
 21
131.2422458179
  0
LINE
  5
2C8
100
AcDbEntity
  8
0
100
AcDbLine
 62
7
  6
CONTINUOUS
 10
98.7574488571
 20
131.2422458179
 11
98.3506777604
 21
131.2422458179
  0
LINE
  5
2C9
100
AcDbEntity
  8
0
100
AcDbLine
 62
7
  6
CONTINUOUS
 10
98.3392517925
 20
131.2422458179
 11
97.9756714184
 21
131.2422458179
  0
LINE
  5
2CA
100
AcDbEntity
  8
0
100
AcDbLine
 62
7
  6
CONTINUOUS
 10
97.8941328513
 20
131.2422458179
 11
97.6421074569
 21
131.2422458179
  0
LINE
  5
2CB
100
AcDbEntity
  8
0
100
AcDbLine
 62
7
  6
CONTINUOUS
 10
97.5928141893
 20
131.2422458179
 11
97.5256361798
 21
131.2422458179
  0
LINE
  5
2CC
100
AcDbEntity
  8
0
100
AcDbLine
 62
7
  6
CONTINUOUS
 10
98.8183357945
 20
131.4975649364
 11
98.5519292438
 21
131.4975649364
  0
LINE
  5
2CD
100
AcDbEntity
  8
0
100
AcDbLine
 62
7
  6
CONTINUOUS
 10
98.3170584393
 20
131.4975649364
 11
98.0586481047
 21
131.4975649364
  0
LINE
  5
2CE
100
AcDbEntity
  8
0
100
AcDbLine
 62
7
  6
CONTINUOUS
 10
97.9163876484
 20
131.4975649364
 11
97.6640340885
 21
131.4975649364
  0
LINE
  5
2CF
100
AcDbEntity
  8
0
100
AcDbLine
 62
7
  6
CONTINUOUS
 10
101.0077685281
 20
131.5826713092
 11
100.4124760551
 21
131.5826713092
  0
LINE
  5
2D0
100
AcDbEntity
  8
0
100
AcDbLine
 62
7
  6
CONTINUOUS
 10
99.8002386127
 20
131.5826713092
 11
99.5166566826
 21
131.5826713092
  0
LINE
  5
2D1
100
AcDbEntity
  8
0
100
AcDbLine
 62
7
  6
CONTINUOUS
 10
97.6031957655
 20
131.5826713092
 11
97.5345055136
 21
131.5826713092
  0
LINE
  5
2D2
100
AcDbEntity
  8
0
100
AcDbLine
 62
7
  6
CONTINUOUS
 10
98.9133925308
 20
131.667777682
 11
98.6454139848
 21
131.667777682
  0
LINE
  5
2D3
100
AcDbEntity
  8
0
100
AcDbLine
 62
7
  6
CONTINUOUS
 10
97.8817818052
 20
131.667777682
 11
97.7000304908
 21
131.667777682
  0
LINE
  5
2D4
100
AcDbEntity
  8
0
100
AcDbLine
 62
7
  6
CONTINUOUS
 10
98.9528935798
 20
131.7528840549
 11
98.811148218
 21
131.7528840549
  0
LINE
  5
2D5
100
AcDbEntity
  8
0
100
AcDbLine
 62
7
  6
CONTINUOUS
 10
97.8306208822
 20
131.7528840549
 11
97.7397757039
 21
131.7528840549
  0
LINE
  5
2D6
100
AcDbEntity
  8
0
100
AcDbLine
 62
7
  6
CONTINUOUS
 10
98.2531811178
 20
131.8379904277
 11
97.9957556479
 21
131.8379904277
  0
LINE
  5
2D7
100
AcDbEntity
  8
0
100
AcDbLine
 62
7
  6
CONTINUOUS
 10
97.6317628555
 20
131.8379904277
 11
97.5508450788
 21
131.8379904277
  0
LINE
  5
2D8
100
AcDbEntity
  8
0
100
AcDbLine
 62
7
  6
CONTINUOUS
 10
99.6248148615
 20
131.9230968005
 11
99.3444606055
 21
131.9230968005
  0
LINE
  5
2D9
100
AcDbEntity
  8
0
100
AcDbLine
 62
7
  6
CONTINUOUS
 10
99.4586637518
 20
132.0933095462
 11
99.1813001285
 21
132.0933095462
  0
LINE
  5
2DA
100
AcDbEntity
  8
0
100
AcDbLine
 62
7
  6
CONTINUOUS
 10
98.1556293418
 20
132.0933095462
 11
97.899693638
 21
132.0933095462
  0
LINE
  5
2DB
100
AcDbEntity
  8
0
100
AcDbLine
 62
7
  6
CONTINUOUS
 10
97.6876164242
 20
132.0933095462
 11
97.5861997286
 21
132.0933095462
  0
LINE
  5
2DC
100
AcDbEntity
  8
0
100
AcDbLine
 62
7
  6
CONTINUOUS
 10
99.1893288765
 20
132.178415919
 11
98.8458110141
 21
132.178415919
  0
LINE
  5
2DD
100
AcDbEntity
  8
0
100
AcDbLine
 62
7
  6
CONTINUOUS
 10
98.069049017
 20
132.178415919
 11
97.6421074569
 21
132.178415919
  0
LINE
  5
2DE
100
AcDbEntity
  8
0
100
AcDbLine
 62
7
  6
CONTINUOUS
 10
98.3618993022
 20
134.178415919
 11
97.5127435124
 21
134.178415919
  0
LINE
  5
2DF
100
AcDbEntity
  8
0
100
AcDbLine
 62
7
  6
CONTINUOUS
 10
98.4820084094
 20
134.2635222993
 11
98.2210199405
 21
134.2635222993
  0
LINE
  5
2E0
100
AcDbEntity
  8
0
100
AcDbLine
 62
7
  6
CONTINUOUS
 10
97.6876164242
 20
134.2635222993
 11
97.5298687009
 21
134.2635222993
  0
LINE
  5
2E1
100
AcDbEntity
  8
0
100
AcDbLine
 62
7
  6
CONTINUOUS
 10
98.5864665759
 20
134.4337350673
 11
98.3238188878
 21
134.4337350673
  0
LINE
  5
2E2
100
AcDbEntity
  8
0
100
AcDbLine
 62
7
  6
CONTINUOUS
 10
97.6876164242
 20
134.4337350673
 11
97.5508450788
 21
134.4337350673
  0
LINE
  5
2E3
100
AcDbEntity
  8
0
100
AcDbLine
 62
7
  6
CONTINUOUS
 10
98.1027931295
 20
134.6890542156
 11
97.7683681336
 21
134.6890542156
  0
LINE
  5
2E4
100
AcDbEntity
  8
0
100
AcDbLine
 62
7
  6
CONTINUOUS
 10
97.5127435124
 20
134.6890542156
 11
97.5073074719
 21
134.6890542156
  0
LINE
  5
2E5
100
AcDbEntity
  8
0
100
AcDbLine
 62
7
  6
CONTINUOUS
 10
98.6985222855
 20
134.7741605885
 11
98.4340712744
 21
134.7741605885
  0
LINE
  5
2E6
100
AcDbEntity
  8
0
100
AcDbLine
 62
7
  6
CONTINUOUS
 10
97.6876164242
 20
134.7741605885
 11
97.5783143816
 21
134.7741605885
  0
LINE
  5
2E7
100
AcDbEntity
  8
0
100
AcDbLine
 62
7
  6
CONTINUOUS
 10
97.5256362029
 20
134.7741605885
 11
97.5063007832
 21
134.7741605885
  0
LINE
  5
2E8
100
AcDbEntity
  8
0
100
AcDbLine
 62
7
  6
CONTINUOUS
 10
97.5395469448
 20
134.9443733937
 11
97.5105285494
 21
134.9443733937
  0
LINE
  5
2E9
100
AcDbEntity
  8
0
100
AcDbLine
 62
7
  6
CONTINUOUS
 10
98.7574488571
 20
135.1145861394
 11
98.4920396456
 21
135.1145861394
  0
LINE
  5
2EA
100
AcDbEntity
  8
0
100
AcDbLine
 62
7
  6
CONTINUOUS
 10
97.6876164242
 20
135.1145861394
 11
97.5944933112
 21
135.1145861394
  0
LINE
  5
2EB
100
AcDbEntity
  8
0
100
AcDbLine
 62
7
  6
CONTINUOUS
 10
97.5508450788
 20
135.1996925122
 11
97.5153615636
 21
135.1996925122
  0
LINE
  5
2EC
100
AcDbEntity
  8
0
100
AcDbLine
 62
7
  6
CONTINUOUS
 10
98.7876458538
 20
135.5401180036
 11
98.5217429374
 21
135.5401180036
  0
LINE
  5
2ED
100
AcDbEntity
  8
0
100
AcDbLine
 62
7
  6
CONTINUOUS
 10
97.5571026125
 20
135.5401180036
 11
97.5183828684
 21
135.5401180036
  0
LINE
  5
2EE
100
AcDbEntity
  8
0
100
AcDbLine
 62
7
  6
CONTINUOUS
 10
97.6876164242
 20
135.5401180036
 11
97.6031958165
 21
135.5401180036
  0
LINE
  5
2EF
100
AcDbEntity
  8
0
100
AcDbLine
 62
7
  6
CONTINUOUS
 10
100.6170383448
 20
123.417777682
 11
100.8253715987
 21
123.5028840549
  0
LINE
  5
2F0
100
AcDbEntity
  8
0
100
AcDbLine
 62
7
  6
CONTINUOUS
 10
100.8670383448
 20
123.928415919
 11
100.5753715987
 21
123.8433095462
  0
LINE
  5
2F1
100
AcDbEntity
  8
0
100
AcDbLine
 62
7
  6
CONTINUOUS
 10
101.1566338472
 20
123.8865677556
 11
101.0083843006
 21
123.8433095462
  0
LINE
  5
2F2
100
AcDbEntity
  8
0
100
AcDbLine
 62
7
  6
CONTINUOUS
 10
98.7876458538
 20
136.8167137153
 11
98.5217429374
 21
136.8167137153
  0
LINE
  5
2F3
100
AcDbEntity
  8
0
100
AcDbLine
 62
7
  6
CONTINUOUS
 10
98.7574488571
 20
137.2422458179
 11
98.4920396456
 21
137.2422458179
  0
LINE
  5
2F4
100
AcDbEntity
  8
0
100
AcDbLine
 62
7
  6
CONTINUOUS
 10
98.6985222855
 20
137.5826713092
 11
98.4340712744
 21
137.5826713092
  0
LINE
  5
2F5
100
AcDbEntity
  8
0
100
AcDbLine
 62
7
  6
CONTINUOUS
 10
98.1027931295
 20
137.667777682
 11
97.7683681336
 21
137.667777682
  0
LINE
  5
2F6
100
AcDbEntity
  8
0
100
AcDbLine
 62
7
  6
CONTINUOUS
 10
98.5864665759
 20
137.9230968005
 11
98.3238188878
 21
137.9230968005
  0
LINE
  5
2F7
100
AcDbEntity
  8
0
100
AcDbLine
 62
7
  6
CONTINUOUS
 10
98.4820084094
 20
138.0933095462
 11
98.2210199405
 21
138.0933095462
  0
LINE
  5
2F8
100
AcDbEntity
  8
0
100
AcDbLine
 62
7
  6
CONTINUOUS
 10
98.3618993022
 20
138.178415919
 11
97.6031958165
 21
138.178415919
  0
LINE
  5
2F9
100
AcDbEntity
  8
0
100
AcDbLine
 62
7
  6
CONTINUOUS
 10
97.5903079058
 20
138.178415919
 11
97.5183828684
 21
138.178415919
  0
LINE
  5
2FA
100
AcDbEntity
  8
0
100
AcDbLine
 62
7
  6
CONTINUOUS
 10
120.7554956129
 20
117.778415919
 11
120.7554956129
 21
100.278415919
  0
LINE
  5
2FB
100
AcDbEntity
  8
RUNDUNGEN
100
AcDbLine
 62
7
  6
CONTINUOUS
 10
121.2554956129
 20
147.678415919
 11
121.2554956129
 21
160.178415919
  0
LINE
  5
2FC
100
AcDbEntity
  8
0
100
AcDbLine
 62
7
  6
CONTINUOUS
 10
121.7554956129
 20
158.263415919
 11
121.7554956129
 21
156.5967494113
  0
LINE
  5
2FD
100
AcDbEntity
  8
0
100
AcDbLine
 62
7
  6
CONTINUOUS
 10
121.7554956129
 20
156.2545885057
 11
121.7554956129
 21
154.6052492444
  0
LINE
  5
2FE
100
AcDbEntity
  8
0
100
AcDbLine
 62
7
  6
CONTINUOUS
 10
121.7554956129
 20
154.263415919
 11
121.7554956129
 21
152.0552492444
  0
LINE
  5
2FF
100
AcDbEntity
  8
0
100
AcDbLine
 62
7
  6
CONTINUOUS
 10
121.7554956129
 20
151.805082546
 11
121.7554956129
 21
150.138415919
  0
LINE
  5
300
100
AcDbEntity
  8
KONSTRUKTIONSELEMENTE
100
AcDbLine
 62
7
  6
CONTINUOUS
 10
123.5785810767
 20
117.778415919
 11
123.5785810767
 21
126.278415919
  0
LINE
  5
301
100
AcDbEntity
  8
RUNDUNGEN
100
AcDbLine
 62
7
  6
CONTINUOUS
 10
130.2550827577
 20
143.678415919
 11
125.2554145424
 21
143.678415919
  0
LINE
  5
302
100
AcDbEntity
  8
RUNDUNGEN
100
AcDbLine
 62
7
  6
CONTINUOUS
 10
104.2555999784
 20
143.678415919
 11
99.2554956129
 21
143.678415919
  0
LINE
  5
303
100
AcDbEntity
  8
KONSTRUKTIONSELEMENTE
100
AcDbLine
 62
7
  6
CONTINUOUS
 10
125.9324101492
 20
117.778415919
 11
125.9324101492
 21
126.278415919
  0
LINE
  5
304
100
AcDbEntity
  8
0
100
AcDbLine
 62
7
  6
CONTINUOUS
 10
131.7554956129
 20
142.178415919
 11
131.7554956129
 21
126.278415919
  0
LINE
  5
305
100
AcDbEntity
  8
0
100
AcDbLine
 62
7
  6
CONTINUOUS
 10
121.2554956129
 20
150.138415919
 11
121.7554956129
 21
150.138415919
  0
LINE
  5
306
100
AcDbEntity
  8
0
100
AcDbLine
 62
7
  6
CONTINUOUS
 10
121.2554956129
 20
150.388415919
 11
121.7554956129
 21
150.388415919
  0
LINE
  5
307
100
AcDbEntity
  8
0
100
AcDbLine
 62
7
  6
CONTINUOUS
 10
121.2554956129
 20
150.9717492325
 11
121.7554956129
 21
150.9717492325
  0
LINE
  5
308
100
AcDbEntity
  8
0
100
AcDbLine
 62
7
  6
CONTINUOUS
 10
121.2554956129
 20
151.555082546
 11
121.7554956129
 21
151.555082546
  0
LINE
  5
309
100
AcDbEntity
  8
KONSTRUKTIONSELEMENTE
100
AcDbLine
 62
7
  6
CONTINUOUS
 10
134.7554956129
 20
117.778415919
 11
134.7554956129
 21
126.278415919
  0
LINE
  5
30A
100
AcDbEntity
  8
0
100
AcDbLine
 62
7
  6
CONTINUOUS
 10
121.2554956129
 20
151.805082546
 11
121.7554956129
 21
151.805082546
  0
LINE
  5
30B
100
AcDbEntity
  8
0
100
AcDbLine
 62
7
  6
CONTINUOUS
 10
121.2554956129
 20
152.0545885057
 11
121.7554956129
 21
152.0545885057
  0
LINE
  5
30C
100
AcDbEntity
  8
0
100
AcDbLine
 62
7
  6
CONTINUOUS
 10
121.2554956129
 20
152.138415919
 11
121.7554956129
 21
152.138415919
  0
LINE
  5
30D
100
AcDbEntity
  8
0
100
AcDbLine
 62
7
  6
CONTINUOUS
 10
121.2554956129
 20
152.388415919
 11
121.7554956129
 21
152.388415919
  0
LINE
  5
30E
100
AcDbEntity
  8
0
100
AcDbLine
 62
7
  6
CONTINUOUS
 10
121.2554956129
 20
152.7217491729
 11
121.7554956129
 21
152.7217491729
  0
LINE
  5
30F
100
AcDbEntity
  8
0
100
AcDbLine
 62
7
  6
CONTINUOUS
 10
121.2554956129
 20
153.7217491729
 11
121.7554956129
 21
153.7217491729
  0
LINE
  5
310
100
AcDbEntity
  8
0
100
AcDbLine
 62
7
  6
CONTINUOUS
 10
121.2554956129
 20
153.9300826652
 11
121.7554956129
 21
153.9300826652
  0
LINE
  5
311
100
AcDbEntity
  8
0
100
AcDbLine
 62
7
  6
CONTINUOUS
 10
121.2554956129
 20
154.0967491729
 11
121.7554956129
 21
154.0967491729
  0
LINE
  5
312
100
AcDbEntity
  8
0
100
AcDbLine
 62
7
  6
CONTINUOUS
 10
121.2554956129
 20
154.2217494113
 11
121.7554956129
 21
154.2217494113
  0
LINE
  5
313
100
AcDbEntity
  8
0
100
AcDbLine
 62
7
  6
CONTINUOUS
 10
121.2554956129
 20
154.263415919
 11
121.7554956129
 21
154.263415919
  0
LINE
  5
314
100
AcDbEntity
  8
0
100
AcDbLine
 62
7
  6
CONTINUOUS
 10
121.2554956129
 20
154.6045885057
 11
121.7554956129
 21
154.6045885057
  0
LINE
  5
315
100
AcDbEntity
  8
0
100
AcDbLine
 62
7
  6
CONTINUOUS
 10
121.2554956129
 20
156.2545885057
 11
121.7554956129
 21
156.2545885057
  0
LINE
  5
316
100
AcDbEntity
  8
0
100
AcDbLine
 62
7
  6
CONTINUOUS
 10
121.2554956129
 20
156.5967494113
 11
121.7554956129
 21
156.5967494113
  0
LINE
  5
317
100
AcDbEntity
  8
0
100
AcDbLine
 62
7
  6
CONTINUOUS
 10
121.2554956129
 20
157.5967494113
 11
121.7554956129
 21
157.5967494113
  0
LINE
  5
318
100
AcDbEntity
  8
0
100
AcDbLine
 62
7
  6
CONTINUOUS
 10
121.2554956129
 20
157.8467494113
 11
121.7554956129
 21
157.8467494113
  0
LINE
  5
319
100
AcDbEntity
  8
0
100
AcDbLine
 62
7
  6
CONTINUOUS
 10
121.2554956129
 20
158.263415919
 11
121.7554956129
 21
158.263415919
  0
LINE
  5
31A
100
AcDbEntity
  8
FASEN
100
AcDbLine
 62
7
  6
CONTINUOUS
 10
120.2554956129
 20
99.778415919
 11
120.7554956129
 21
100.278415919
  0
LINE
  5
31B
100
AcDbEntity
  8
FASEN
100
AcDbLine
 62
7
  6
CONTINUOUS
 10
187.7992718863
 20
99.778415919
 11
176.7995468076
 21
99.778415919
  0
LINE
  5
31C
100
AcDbEntity
  8
FASEN
100
AcDbLine
 62
7
  6
CONTINUOUS
 10
188.2994093469
 20
100.278415919
 11
176.2994093469
 21
100.278415919
  0
LINE
  5
31D
100
AcDbEntity
  8
RUNDUNGEN
100
AcDbLine
 62
7
  6
CONTINUOUS
 10
170.389672562
 20
166.3212035287
 11
169.8843016283
 21
165.7189259029
  0
LINE
  5
31E
100
AcDbEntity
  8
FASEN
100
AcDbLine
 62
7
  6
CONTINUOUS
 10
176.7994093469
 20
99.778415919
 11
176.2994093469
 21
100.278415919
  0
LINE
  5
31F
100
AcDbEntity
  8
RUNDUNGEN
100
AcDbLine
 62
7
  6
CONTINUOUS
 10
168.8304982602
 20
156.2944413228
 11
165.4333839432
 21
150.4104667266
  0
LINE
  5
320
100
AcDbEntity
  8
KONSTRUKTIONSELEMENTE
100
AcDbLine
 62
7
  6
CONTINUOUS
 10
164.2994093469
 20
117.778415919
 11
164.2994093469
 21
126.278415919
  0
LINE
  5
321
100
AcDbEntity
  8
RUNDUNGEN
100
AcDbLine
 62
7
  6
CONTINUOUS
 10
179.9141265852
 20
158.2433886065
 11
177.4689668975
 21
155.5277636566
  0
LINE
  5
322
100
AcDbEntity
  8
0
100
AcDbLine
 62
7
  6
CONTINUOUS
 10
168.6072097019
 20
120.2837350599
 11
168.8778426341
 21
120.0922457042
  0
LINE
  5
323
100
AcDbEntity
  8
0
100
AcDbLine
 62
7
  6
CONTINUOUS
 10
168.931969209
 20
120.4752244211
 11
168.7695894458
 21
120.6667138047
  0
LINE
  5
324
100
AcDbEntity
  8
0
100
AcDbLine
 62
7
  6
CONTINUOUS
 10
169.181969209
 20
120.4752244211
 11
169.0195894458
 21
120.6667138047
  0
LINE
  5
325
100
AcDbEntity
  8
0
100
AcDbLine
 62
7
  6
CONTINUOUS
 10
168.6072097019
 20
121.8156499273
 11
168.8237160593
 21
121.5603308088
  0
LINE
  5
326
100
AcDbEntity
  8
0
100
AcDbLine
 62
7
  6
CONTINUOUS
 10
168.4448299339
 20
120.6028840251
 11
168.6072097019
 21
120.2837350599
  0
LINE
  5
327
100
AcDbEntity
  8
0
100
AcDbLine
 62
7
  6
CONTINUOUS
 10
165.2994093469
 20
149.9104667266
 11
165.2994093469
 21
126.278415919
  0
LINE
  5
328
100
AcDbEntity
  8
KONSTRUKTIONSELEMENTE
100
AcDbLine
 62
7
  6
CONTINUOUS
 10
165.6583931956
 20
117.778415919
 11
165.6583931956
 21
126.278415919
  0
LINE
  5
329
100
AcDbEntity
  8
0
100
AcDbLine
 62
7
  6
CONTINUOUS
 10
166.8058768556
 20
124.778415919
 11
166.8058768556
 21
118.778415919
  0
LINE
  5
32A
100
AcDbEntity
  8
0
100
AcDbLine
 62
7
  6
CONTINUOUS
 10
167.0558768556
 20
124.778415919
 11
167.0558768556
 21
118.778415919
  0
LINE
  5
32B
100
AcDbEntity
  8
KONSTRUKTIONSELEMENTE
100
AcDbLine
 62
7
  6
CONTINUOUS
 10
164.2994093469
 20
117.778415919
 11
200.2994093469
 21
117.778415919
  0
LINE
  5
32C
100
AcDbEntity
  8
0
100
AcDbLine
 62
7
  6
CONTINUOUS
 10
168.8778426341
 20
120.0922457042
 11
169.148475547
 21
120.028415919
  0
LINE
  5
32D
100
AcDbEntity
  8
0
100
AcDbLine
 62
7
  6
CONTINUOUS
 10
169.148475547
 20
120.4113946415
 11
168.931969209
 21
120.4752244211
  0
LINE
  5
32E
100
AcDbEntity
  8
0
100
AcDbLine
 62
7
  6
CONTINUOUS
 10
169.398475547
 20
120.4113946415
 11
169.181969209
 21
120.4752244211
  0
LINE
  5
32F
100
AcDbEntity
  8
0
100
AcDbLine
 62
7
  6
CONTINUOUS
 10
169.0402223973
 20
121.4326712496
 11
169.2567287741
 21
121.36884147
  0
LINE
  5
330
100
AcDbEntity
  8
0
100
AcDbLine
 62
7
  6
CONTINUOUS
 10
169.5814883005
 20
121.36884147
 11
169.7979946773
 21
121.3050116903
  0
LINE
  5
331
100
AcDbEntity
  8
0
100
AcDbLine
 62
7
  6
CONTINUOUS
 10
169.2567287741
 20
121.7518201477
 11
169.0943490109
 21
121.8156499273
  0
LINE
  5
332
100
AcDbEntity
  8
0
100
AcDbLine
 62
7
  6
CONTINUOUS
 10
169.5067287741
 20
121.7518201477
 11
169.3443490109
 21
121.8156499273
  0
LINE
  5
333
100
AcDbEntity
  8
0
100
AcDbLine
 62
7
  6
CONTINUOUS
 10
168.8237160593
 20
121.5603308088
 11
169.0402223973
 21
121.4326712496
  0
LINE
  5
334
100
AcDbEntity
  8
0
100
AcDbLine
 62
7
  6
CONTINUOUS
 10
170.0686275127
 20
121.5603308088
 11
169.8521212134
 21
121.6879903681
  0
LINE
  5
335
100
AcDbEntity
  8
0
100
AcDbLine
 62
7
  6
CONTINUOUS
 10
170.3186275127
 20
121.5603308088
 11
170.1021212134
 21
121.6879903681
  0
LINE
  5
336
100
AcDbEntity
  8
0
100
AcDbLine
 62
7
  6
CONTINUOUS
 10
174.1822484388
 20
120.2199052803
 11
174.3987545833
 21
120.0922457042
  0
LINE
  5
337
100
AcDbEntity
  8
0
100
AcDbLine
 62
7
  6
CONTINUOUS
 10
174.3987545833
 20
120.4113946415
 11
174.2905012013
 21
120.4752244211
  0
LINE
  5
338
100
AcDbEntity
  8
0
100
AcDbLine
 62
7
  6
CONTINUOUS
 10
174.6487545833
 20
120.4113946415
 11
174.5405012013
 21
120.4752244211
  0
LINE
  5
339
100
AcDbEntity
  8
0
100
AcDbLine
 62
7
  6
CONTINUOUS
 10
169.0943490109
 20
121.8156499273
 11
168.931969209
 21
121.9433094866
  0
LINE
  5
33A
100
AcDbEntity
  8
0
100
AcDbLine
 62
7
  6
CONTINUOUS
 10
169.7979946773
 20
121.3050116903
 11
169.9603744405
 21
121.1773521311
  0
LINE
  5
33B
100
AcDbEntity
  8
0
100
AcDbLine
 62
7
  6
CONTINUOUS
 10
169.3443490109
 20
121.8156499273
 11
169.181969209
 21
121.9433094866
  0
LINE
  5
33C
100
AcDbEntity
  8
0
100
AcDbLine
 62
7
  6
CONTINUOUS
 10
174.0198686756
 20
120.3475648619
 11
174.1822484388
 21
120.2199052803
  0
LINE
  5
33D
100
AcDbEntity
  8
0
100
AcDbLine
 62
7
  6
CONTINUOUS
 10
170.0145009766
 20
122.7730968005
 11
169.7979946773
 21
122.9645861394
  0
LINE
  5
33E
100
AcDbEntity
  8
0
100
AcDbLine
 62
7
  6
CONTINUOUS
 10
170.2645009766
 20
122.7730968005
 11
170.0479946773
 21
122.9645861394
  0
LINE
  5
33F
100
AcDbEntity
  8
0
100
AcDbLine
 62
7
  6
CONTINUOUS
 10
170.2851339669
 20
121.3050116903
 11
170.0686275127
 21
121.5603308088
  0
LINE
  5
340
100
AcDbEntity
  8
0
100
AcDbLine
 62
7
  6
CONTINUOUS
 10
170.5351339669
 20
121.3050116903
 11
170.3186275127
 21
121.5603308088
  0
LINE
  5
341
100
AcDbEntity
  8
0
100
AcDbLine
 62
7
  6
CONTINUOUS
 10
169.7438679863
 20
122.5816074617
 11
169.8521212134
 21
122.4539479024
  0
LINE
  5
342
100
AcDbEntity
  8
0
100
AcDbLine
 62
7
  6
CONTINUOUS
 10
170.1768807398
 20
122.517777682
 11
170.0145009766
 21
122.7730968005
  0
LINE
  5
343
100
AcDbEntity
  8
0
100
AcDbLine
 62
7
  6
CONTINUOUS
 10
170.4268807398
 20
122.517777682
 11
170.2645009766
 21
122.7730968005
  0
LINE
  5
344
100
AcDbEntity
  8
0
100
AcDbLine
 62
7
  6
CONTINUOUS
 10
169.9603744405
 20
121.1773521311
 11
170.0686275127
 21
120.9858627028
  0
LINE
  5
345
100
AcDbEntity
  8
0
100
AcDbLine
 62
7
  6
CONTINUOUS
 10
170.3933870391
 20
121.0496924824
 11
170.2851339669
 21
121.3050116903
  0
LINE
  5
346
100
AcDbEntity
  8
0
100
AcDbLine
 62
7
  6
CONTINUOUS
 10
169.8521212134
 20
122.4539479024
 11
169.9062477495
 21
122.3262883432
  0
LINE
  5
347
100
AcDbEntity
  8
0
100
AcDbLine
 62
7
  6
CONTINUOUS
 10
170.6433870391
 20
121.0496924824
 11
170.5351339669
 21
121.3050116903
  0
LINE
  5
348
100
AcDbEntity
  8
0
100
AcDbLine
 62
7
  6
CONTINUOUS
 10
168.7695894458
 20
120.6667138047
 11
168.7154628709
 21
120.8582031436
  0
LINE
  5
349
100
AcDbEntity
  8
0
100
AcDbLine
 62
7
  6
CONTINUOUS
 10
169.0195894458
 20
120.6667138047
 11
168.9654628709
 21
120.8582031436
  0
LINE
  5
34A
100
AcDbEntity
  8
0
100
AcDbLine
 62
7
  6
CONTINUOUS
 10
168.931969209
 20
121.9433094866
 11
168.8778426341
 21
122.1347988255
  0
LINE
  5
34B
100
AcDbEntity
  8
0
100
AcDbLine
 62
7
  6
CONTINUOUS
 10
169.181969209
 20
121.9433094866
 11
169.1278426341
 21
122.1347988255
  0
LINE
  5
34C
100
AcDbEntity
  8
0
100
AcDbLine
 62
7
  6
CONTINUOUS
 10
168.3907033445
 20
120.8582031436
 11
168.4448299339
 21
120.6028840251
  0
LINE
  5
34D
100
AcDbEntity
  8
0
100
AcDbLine
 62
7
  6
CONTINUOUS
 10
168.5530831077
 20
122.0709690458
 11
168.6072097019
 21
121.8156499273
  0
LINE
  5
34E
100
AcDbEntity
  8
0
100
AcDbLine
 62
7
  6
CONTINUOUS
 10
168.5530831077
 20
122.3262883432
 11
168.5530831077
 21
122.0709690458
  0
LINE
  5
34F
100
AcDbEntity
  8
0
100
AcDbLine
 62
7
  6
CONTINUOUS
 10
168.8778426341
 20
122.1347988255
 11
168.8778426341
 21
122.2624583847
  0
LINE
  5
350
100
AcDbEntity
  8
0
100
AcDbLine
 62
7
  6
CONTINUOUS
 10
169.1278426341
 20
122.1347988255
 11
169.1278426341
 21
122.2624583847
  0
LINE
  5
351
100
AcDbEntity
  8
RUNDUNGEN
100
AcDbLine
 62
7
  6
CONTINUOUS
 10
169.2994093469
 20
164.1119434671
 11
169.2994093469
 21
158.0444413228
  0
LINE
  5
352
100
AcDbEntity
  8
0
100
AcDbLine
 62
7
  6
CONTINUOUS
 10
169.2994093469
 20
132.178415919
 11
169.2994093469
 21
128.178415919
  0
LINE
  5
353
100
AcDbEntity
  8
0
100
AcDbLine
 62
7
  6
CONTINUOUS
 10
169.7994093469
 20
131.7528840549
 11
169.7994093469
 21
130.4762882239
  0
LINE
  5
354
100
AcDbEntity
  8
0
100
AcDbLine
 62
7
  6
CONTINUOUS
 10
169.7994093469
 20
129.9656499869
 11
169.7994093469
 21
128.178415919
  0
LINE
  5
355
100
AcDbEntity
  8
0
100
AcDbLine
 62
7
  6
CONTINUOUS
 10
166.8058768556
 20
118.778415919
 11
179.7962579123
 21
118.778415919
  0
LINE
  5
356
100
AcDbEntity
  8
0
100
AcDbLine
 62
7
  6
CONTINUOUS
 10
187.5321988405
 20
119.928415919
 11
187.9652115424
 21
119.928415919
  0
LINE
  5
357
100
AcDbEntity
  8
0
100
AcDbLine
 62
7
  6
CONTINUOUS
 10
188.975574479
 20
119.928415919
 11
189.5529247138
 21
119.928415919
  0
LINE
  5
358
100
AcDbEntity
  8
0
100
AcDbLine
 62
7
  6
CONTINUOUS
 10
190.5632877537
 20
119.928415919
 11
190.9963004556
 21
119.928415919
  0
LINE
  5
359
100
AcDbEntity
  8
0
100
AcDbLine
 62
7
  6
CONTINUOUS
 10
192.006663289
 20
119.928415919
 11
192.4396759909
 21
119.928415919
  0
LINE
  5
35A
100
AcDbEntity
  8
0
100
AcDbLine
 62
7
  6
CONTINUOUS
 10
193.0170265354
 20
119.928415919
 11
195.6151023338
 21
119.928415919
  0
LINE
  5
35B
100
AcDbEntity
  8
0
100
AcDbLine
 62
7
  6
CONTINUOUS
 10
169.148475547
 20
120.028415919
 11
169.8314883005
 21
120.028415919
  0
LINE
  5
35C
100
AcDbEntity
  8
0
100
AcDbLine
 62
7
  6
CONTINUOUS
 10
171.2594123913
 20
120.028415919
 11
171.9424252997
 21
120.028415919
  0
LINE
  5
35D
100
AcDbEntity
  8
0
100
AcDbLine
 62
7
  6
CONTINUOUS
 10
172.558450497
 20
120.028415919
 11
173.2414634053
 21
120.028415919
  0
LINE
  5
35E
100
AcDbEntity
  8
0
100
AcDbLine
 62
7
  6
CONTINUOUS
 10
174.6152607277
 20
120.028415919
 11
175.2982736361
 21
120.028415919
  0
LINE
  5
35F
100
AcDbEntity
  8
0
100
AcDbLine
 62
7
  6
CONTINUOUS
 10
177.1050841766
 20
120.028415919
 11
177.6257167023
 21
120.028415919
  0
LINE
  5
360
100
AcDbEntity
  8
0
100
AcDbLine
 62
7
  6
CONTINUOUS
 10
177.8963498474
 20
120.0922457042
 11
177.6463498474
 21
120.0922457042
  0
LINE
  5
361
100
AcDbEntity
  8
0
100
AcDbLine
 62
7
  6
CONTINUOUS
 10
175.5147797806
 20
120.0922457042
 11
175.2647797806
 21
120.0922457042
  0
LINE
  5
362
100
AcDbEntity
  8
0
100
AcDbLine
 62
7
  6
CONTINUOUS
 10
170.1021212134
 20
120.0922457042
 11
169.8521212134
 21
120.0922457042
  0
LINE
  5
363
100
AcDbEntity
  8
0
100
AcDbLine
 62
7
  6
CONTINUOUS
 10
175.7312865445
 20
120.2199052803
 11
175.4812865445
 21
120.2199052803
  0
LINE
  5
364
100
AcDbEntity
  8
0
100
AcDbLine
 62
7
  6
CONTINUOUS
 10
170.3186275127
 20
120.2199052803
 11
170.0686275127
 21
120.2199052803
  0
LINE
  5
365
100
AcDbEntity
  8
0
100
AcDbLine
 62
7
  6
CONTINUOUS
 10
178.1669829926
 20
120.2837350599
 11
177.9169829926
 21
120.2837350599
  0
LINE
  5
366
100
AcDbEntity
  8
0
100
AcDbLine
 62
7
  6
CONTINUOUS
 10
177.429843703
 20
120.3475648619
 11
177.0509571759
 21
120.3475648619
  0
LINE
  5
367
100
AcDbEntity
  8
0
100
AcDbLine
 62
7
  6
CONTINUOUS
 10
175.8936663077
 20
120.3475648619
 11
175.6436663077
 21
120.3475648619
  0
LINE
  5
368
100
AcDbEntity
  8
0
100
AcDbLine
 62
7
  6
CONTINUOUS
 10
174.9941472548
 20
120.3475648619
 11
174.6693877284
 21
120.3475648619
  0
LINE
  5
369
100
AcDbEntity
  8
0
100
AcDbLine
 62
7
  6
CONTINUOUS
 10
195.6151023338
 20
120.3539478428
 11
193.344376667
 21
120.3539478428
  0
LINE
  5
36A
100
AcDbEntity
  8
0
100
AcDbLine
 62
7
  6
CONTINUOUS
 10
189.264249648
 20
120.3539478428
 11
189.014249648
 21
120.3539478428
  0
LINE
  5
36B
100
AcDbEntity
  8
0
100
AcDbLine
 62
7
  6
CONTINUOUS
 10
177.1385774127
 20
120.4113946415
 11
176.8885774127
 21
120.4113946415
  0
LINE
  5
36C
100
AcDbEntity
  8
0
100
AcDbLine
 62
7
  6
CONTINUOUS
 10
174.6487545833
 20
120.4113946415
 11
174.3987545833
 21
120.4113946415
  0
LINE
  5
36D
100
AcDbEntity
  8
0
100
AcDbLine
 62
7
  6
CONTINUOUS
 10
169.5814883005
 20
120.4113946415
 11
169.148475547
 21
120.4113946415
  0
LINE
  5
36E
100
AcDbEntity
  8
0
100
AcDbLine
 62
7
  6
CONTINUOUS
 10
174.5405012013
 20
120.4752244211
 11
174.2905012013
 21
120.4752244211
  0
LINE
  5
36F
100
AcDbEntity
  8
0
100
AcDbLine
 62
7
  6
CONTINUOUS
 10
170.5351339669
 20
120.4752244211
 11
170.2851339669
 21
120.4752244211
  0
LINE
  5
370
100
AcDbEntity
  8
0
100
AcDbLine
 62
7
  6
CONTINUOUS
 10
169.181969209
 20
120.4752244211
 11
168.931969209
 21
120.4752244211
  0
LINE
  5
371
100
AcDbEntity
  8
0
100
AcDbLine
 62
7
  6
CONTINUOUS
 10
178.3293627558
 20
120.5390542007
 11
178.0793627558
 21
120.5390542007
  0
LINE
  5
372
100
AcDbEntity
  8
0
100
AcDbLine
 62
7
  6
CONTINUOUS
 10
176.9761976495
 20
120.5390542007
 11
176.7261976495
 21
120.5390542007
  0
LINE
  5
373
100
AcDbEntity
  8
0
100
AcDbLine
 62
7
  6
CONTINUOUS
 10
176.0019190702
 20
120.5390542007
 11
175.7519190702
 21
120.5390542007
  0
LINE
  5
374
100
AcDbEntity
  8
0
100
AcDbLine
 62
7
  6
CONTINUOUS
 10
174.4322484388
 20
120.6028840251
 11
174.1822484388
 21
120.6028840251
  0
LINE
  5
375
100
AcDbEntity
  8
0
100
AcDbLine
 62
7
  6
CONTINUOUS
 10
169.0195894458
 20
120.6667138047
 11
168.7695894458
 21
120.6667138047
  0
LINE
  5
376
100
AcDbEntity
  8
0
100
AcDbLine
 62
7
  6
CONTINUOUS
 10
176.8679448869
 20
120.7305435843
 11
176.6179448869
 21
120.7305435843
  0
LINE
  5
377
100
AcDbEntity
  8
0
100
AcDbLine
 62
7
  6
CONTINUOUS
 10
176.0560460709
 20
120.7305435843
 11
175.8060460709
 21
120.7305435843
  0
LINE
  5
378
100
AcDbEntity
  8
0
100
AcDbLine
 62
7
  6
CONTINUOUS
 10
174.3781214381
 20
120.7305435843
 11
173.8574889124
 21
120.7305435843
  0
LINE
  5
379
100
AcDbEntity
  8
0
100
AcDbLine
 62
7
  6
CONTINUOUS
 10
170.6433870391
 20
120.7305435843
 11
170.3933870391
 21
120.7305435843
  0
LINE
  5
37A
100
AcDbEntity
  8
0
100
AcDbLine
 62
7
  6
CONTINUOUS
 10
178.4376155183
 20
120.8582031436
 11
178.1876155183
 21
120.8582031436
  0
LINE
  5
37B
100
AcDbEntity
  8
0
100
AcDbLine
 62
7
  6
CONTINUOUS
 10
168.9654628709
 20
120.8582031436
 11
168.3907033445
 21
120.8582031436
  0
LINE
  5
37C
100
AcDbEntity
  8
0
100
AcDbLine
 62
7
  6
CONTINUOUS
 10
174.9400202541
 20
121.4326712496
 11
175.2647797806
 21
121.36884147
  0
LINE
  5
37D
100
AcDbEntity
  8
0
100
AcDbLine
 62
7
  6
CONTINUOUS
 10
174.6693877284
 20
120.3475648619
 11
174.3987545833
 21
120.4113946415
  0
LINE
  5
37E
100
AcDbEntity
  8
0
100
AcDbLine
 62
7
  6
CONTINUOUS
 10
174.9193877284
 20
120.3475648619
 11
174.6487545833
 21
120.4113946415
  0
LINE
  5
37F
100
AcDbEntity
  8
0
100
AcDbLine
 62
7
  6
CONTINUOUS
 10
169.8521212134
 20
121.6879903681
 11
169.5814883005
 21
121.7518201477
  0
LINE
  5
380
100
AcDbEntity
  8
0
100
AcDbLine
 62
7
  6
CONTINUOUS
 10
176.8344510314
 20
120.0922457042
 11
177.1050841766
 21
120.028415919
  0
LINE
  5
381
100
AcDbEntity
  8
0
100
AcDbLine
 62
7
  6
CONTINUOUS
 10
170.1021212134
 20
121.6879903681
 11
169.8314883005
 21
121.7518201477
  0
LINE
  5
382
100
AcDbEntity
  8
0
100
AcDbLine
 62
7
  6
CONTINUOUS
 10
169.7979946773
 20
122.9645861394
 11
169.527361687
 21
123.028415919
  0
LINE
  5
383
100
AcDbEntity
  8
0
100
AcDbLine
 62
7
  6
CONTINUOUS
 10
170.0479946773
 20
122.9645861394
 11
169.777361687
 21
123.028415919
  0
LINE
  5
384
100
AcDbEntity
  8
0
100
AcDbLine
 62
7
  6
CONTINUOUS
 10
174.3987545833
 20
120.0922457042
 11
174.6152607277
 21
120.028415919
  0
LINE
  5
385
100
AcDbEntity
  8
0
100
AcDbLine
 62
7
  6
CONTINUOUS
 10
169.5814883005
 20
122.6454372413
 11
169.7438679863
 21
122.5816074617
  0
LINE
  5
386
100
AcDbEntity
  8
0
100
AcDbLine
 62
7
  6
CONTINUOUS
 10
177.0509571759
 20
120.3475648619
 11
176.8885774127
 21
120.4113946415
  0
LINE
  5
387
100
AcDbEntity
  8
0
100
AcDbLine
 62
7
  6
CONTINUOUS
 10
177.3009571759
 20
120.3475648619
 11
177.1385774127
 21
120.4113946415
  0
LINE
  5
388
100
AcDbEntity
  8
0
100
AcDbLine
 62
7
  6
CONTINUOUS
 10
177.429843703
 20
121.6241605885
 11
177.5922234662
 21
121.5603308088
  0
LINE
  5
389
100
AcDbEntity
  8
0
100
AcDbLine
 62
7
  6
CONTINUOUS
 10
175.6436663077
 20
121.4326712496
 11
175.3730331625
 21
121.5603308088
  0
LINE
  5
38A
100
AcDbEntity
  8
0
100
AcDbLine
 62
7
  6
CONTINUOUS
 10
175.8936663077
 20
121.4326712496
 11
175.6230331625
 21
121.5603308088
  0
LINE
  5
38B
100
AcDbEntity
  8
0
100
AcDbLine
 62
7
  6
CONTINUOUS
 10
175.4812865445
 20
122.8369265802
 11
175.2647797806
 21
122.9645861394
  0
LINE
  5
38C
100
AcDbEntity
  8
0
100
AcDbLine
 62
7
  6
CONTINUOUS
 10
176.5638178862
 20
120.2837350599
 11
176.8344510314
 21
120.0922457042
  0
LINE
  5
38D
100
AcDbEntity
  8
0
100
AcDbLine
 62
7
  6
CONTINUOUS
 10
175.2647797806
 20
121.36884147
 11
175.4271595438
 21
121.2411819107
  0
LINE
  5
38E
100
AcDbEntity
  8
0
100
AcDbLine
 62
7
  6
CONTINUOUS
 10
176.8885774127
 20
120.4113946415
 11
176.7261976495
 21
120.5390542007
  0
LINE
  5
38F
100
AcDbEntity
  8
0
100
AcDbLine
 62
7
  6
CONTINUOUS
 10
177.1385774127
 20
120.4113946415
 11
176.9761976495
 21
120.5390542007
  0
LINE
  5
390
100
AcDbEntity
  8
0
100
AcDbLine
 62
7
  6
CONTINUOUS
 10
175.2106533993
 20
122.6454372413
 11
175.3730331625
 21
122.517777682
  0
LINE
  5
391
100
AcDbEntity
  8
0
100
AcDbLine
 62
7
  6
CONTINUOUS
 10
174.2905012013
 20
120.4752244211
 11
174.1822484388
 21
120.6028840251
  0
LINE
  5
392
100
AcDbEntity
  8
0
100
AcDbLine
 62
7
  6
CONTINUOUS
 10
174.5405012013
 20
120.4752244211
 11
174.4322484388
 21
120.6028840251
  0
LINE
  5
393
100
AcDbEntity
  8
0
100
AcDbLine
 62
7
  6
CONTINUOUS
 10
173.9116152936
 20
120.5390542007
 11
174.0198686756
 21
120.3475648619
  0
LINE
  5
394
100
AcDbEntity
  8
0
100
AcDbLine
 62
7
  6
CONTINUOUS
 10
174.1822484388
 20
120.6028840251
 11
174.1281214381
 21
120.7305435843
  0
LINE
  5
395
100
AcDbEntity
  8
0
100
AcDbLine
 62
7
  6
CONTINUOUS
 10
170.2310072759
 20
122.3262883432
 11
170.1768807398
 21
122.517777682
  0
LINE
  5
396
100
AcDbEntity
  8
0
100
AcDbLine
 62
7
  6
CONTINUOUS
 10
170.4810072759
 20
122.3262883432
 11
170.4268807398
 21
122.517777682
  0
LINE
  5
397
100
AcDbEntity
  8
0
100
AcDbLine
 62
7
  6
CONTINUOUS
 10
170.8263997926
 20
123.028415919
 11
171.2594123913
 21
120.028415919
  0
LINE
  5
398
100
AcDbEntity
  8
0
100
AcDbLine
 62
7
  6
CONTINUOUS
 10
171.4759188455
 20
120.7305435843
 11
171.1511593191
 21
123.028415919
  0
LINE
  5
399
100
AcDbEntity
  8
0
100
AcDbLine
 62
7
  6
CONTINUOUS
 10
170.0686275127
 20
120.9858627028
 11
170.0686275127
 21
120.7943733639
  0
LINE
  5
39A
100
AcDbEntity
  8
0
100
AcDbLine
 62
7
  6
CONTINUOUS
 10
170.3933870391
 20
120.7305435843
 11
170.3933870391
 21
121.0496924824
  0
LINE
  5
39B
100
AcDbEntity
  8
0
100
AcDbLine
 62
7
  6
CONTINUOUS
 10
170.6433870391
 20
120.7305435843
 11
170.6433870391
 21
121.0496924824
  0
LINE
  5
39C
100
AcDbEntity
  8
0
100
AcDbLine
 62
7
  6
CONTINUOUS
 10
171.8827426008
 20
131.2422458179
 11
171.8827426008
 21
130.9869264609
  0
LINE
  5
39D
100
AcDbEntity
  8
0
100
AcDbLine
 62
7
  6
CONTINUOUS
 10
172.3827426008
 20
131.2422458179
 11
172.3827426008
 21
130.9018200881
  0
LINE
  5
39E
100
AcDbEntity
  8
0
100
AcDbLine
 62
7
  6
CONTINUOUS
 10
168.6072097019
 20
122.5816074617
 11
168.5530831077
 21
122.3262883432
  0
LINE
  5
39F
100
AcDbEntity
  8
0
100
AcDbLine
 62
7
  6
CONTINUOUS
 10
168.8778426341
 20
122.2624583847
 11
168.931969209
 21
122.4539479024
  0
LINE
  5
3A0
100
AcDbEntity
  8
0
100
AcDbLine
 62
7
  6
CONTINUOUS
 10
193.8108830179
 20
123.417777682
 11
194.1717267985
 21
123.5028840549
  0
LINE
  5
3A1
100
AcDbEntity
  8
0
100
AcDbLine
 62
7
  6
CONTINUOUS
 10
193.5608830179
 20
123.417777682
 11
193.9217267985
 21
123.5028840549
  0
LINE
  5
3A2
100
AcDbEntity
  8
0
100
AcDbLine
 62
7
  6
CONTINUOUS
 10
177.6257167023
 20
120.028415919
 11
177.8963498474
 21
120.0922457042
  0
LINE
  5
3A3
100
AcDbEntity
  8
0
100
AcDbLine
 62
7
  6
CONTINUOUS
 10
177.3757167023
 20
120.028415919
 11
177.6463498474
 21
120.0922457042
  0
LINE
  5
3A4
100
AcDbEntity
  8
0
100
AcDbLine
 62
7
  6
CONTINUOUS
 10
175.2647797806
 20
120.4113946415
 11
174.9941472548
 21
120.3475648619
  0
LINE
  5
3A5
100
AcDbEntity
  8
0
100
AcDbLine
 62
7
  6
CONTINUOUS
 10
169.8314883005
 20
120.028415919
 11
170.1021212134
 21
120.0922457042
  0
LINE
  5
3A6
100
AcDbEntity
  8
0
100
AcDbLine
 62
7
  6
CONTINUOUS
 10
169.5814883005
 20
120.028415919
 11
169.8521212134
 21
120.0922457042
  0
LINE
  5
3A7
100
AcDbEntity
  8
0
100
AcDbLine
 62
7
  6
CONTINUOUS
 10
177.1050841766
 20
121.9433094866
 11
176.8344510314
 21
121.879479707
  0
LINE
  5
3A8
100
AcDbEntity
  8
0
100
AcDbLine
 62
7
  6
CONTINUOUS
 10
194.2438957198
 20
123.928415919
 11
193.7387140966
 21
123.8433095462
  0
LINE
  5
3A9
100
AcDbEntity
  8
0
100
AcDbLine
 62
7
  6
CONTINUOUS
 10
176.8138178862
 20
120.9220329232
 11
176.5638178862
 21
120.9220329232
  0
LINE
  5
3AA
100
AcDbEntity
  8
0
100
AcDbLine
 62
7
  6
CONTINUOUS
 10
176.0560460709
 20
120.9858627028
 11
175.8060460709
 21
120.9858627028
  0
LINE
  5
3AB
100
AcDbEntity
  8
0
100
AcDbLine
 62
7
  6
CONTINUOUS
 10
170.6433870391
 20
121.0496924824
 11
170.3933870391
 21
121.0496924824
  0
LINE
  5
3AC
100
AcDbEntity
  8
0
100
AcDbLine
 62
7
  6
CONTINUOUS
 10
176.8138178862
 20
121.1135222621
 11
176.5638178862
 21
121.1135222621
  0
LINE
  5
3AD
100
AcDbEntity
  8
0
100
AcDbLine
 62
7
  6
CONTINUOUS
 10
178.4376155183
 20
121.1773521311
 11
178.1876155183
 21
121.1773521311
  0
LINE
  5
3AE
100
AcDbEntity
  8
0
100
AcDbLine
 62
7
  6
CONTINUOUS
 10
176.0019190702
 20
121.2411819107
 11
175.7519190702
 21
121.2411819107
  0
LINE
  5
3AF
100
AcDbEntity
  8
0
100
AcDbLine
 62
7
  6
CONTINUOUS
 10
176.8679448869
 20
121.3050116903
 11
176.6179448869
 21
121.3050116903
  0
LINE
  5
3B0
100
AcDbEntity
  8
0
100
AcDbLine
 62
7
  6
CONTINUOUS
 10
170.5351339669
 20
121.3050116903
 11
170.2851339669
 21
121.3050116903
  0
LINE
  5
3B1
100
AcDbEntity
  8
0
100
AcDbLine
 62
7
  6
CONTINUOUS
 10
169.2567287741
 20
121.36884147
 11
169.5814883005
 21
121.36884147
  0
LINE
  5
3B2
100
AcDbEntity
  8
0
100
AcDbLine
 62
7
  6
CONTINUOUS
 10
176.9761976495
 20
121.4326712496
 11
176.7261976495
 21
121.4326712496
  0
LINE
  5
3B3
100
AcDbEntity
  8
0
100
AcDbLine
 62
7
  6
CONTINUOUS
 10
175.8936663077
 20
121.4326712496
 11
175.6436663077
 21
121.4326712496
  0
LINE
  5
3B4
100
AcDbEntity
  8
0
100
AcDbLine
 62
7
  6
CONTINUOUS
 10
174.7235141097
 20
121.4326712496
 11
174.9400202541
 21
121.4326712496
  0
LINE
  5
3B5
100
AcDbEntity
  8
0
100
AcDbLine
 62
7
  6
CONTINUOUS
 10
178.3293627558
 20
121.4965010292
 11
178.0793627558
 21
121.4965010292
  0
LINE
  5
3B6
100
AcDbEntity
  8
0
100
AcDbLine
 62
7
  6
CONTINUOUS
 10
177.1385774127
 20
121.5603308088
 11
176.8885774127
 21
121.5603308088
  0
LINE
  5
3B7
100
AcDbEntity
  8
0
100
AcDbLine
 62
7
  6
CONTINUOUS
 10
175.6230331625
 20
121.5603308088
 11
175.3730331625
 21
121.5603308088
  0
LINE
  5
3B8
100
AcDbEntity
  8
0
100
AcDbLine
 62
7
  6
CONTINUOUS
 10
170.3186275127
 20
121.5603308088
 11
170.0686275127
 21
121.5603308088
  0
LINE
  5
3B9
100
AcDbEntity
  8
0
100
AcDbLine
 62
7
  6
CONTINUOUS
 10
177.0509571759
 20
121.6241605885
 11
177.429843703
 21
121.6241605885
  0
LINE
  5
3BA
100
AcDbEntity
  8
0
100
AcDbLine
 62
7
  6
CONTINUOUS
 10
178.1669829926
 20
121.6879903681
 11
177.9169829926
 21
121.6879903681
  0
LINE
  5
3BB
100
AcDbEntity
  8
0
100
AcDbLine
 62
7
  6
CONTINUOUS
 10
174.9400202541
 20
121.6879903681
 11
174.7235141097
 21
121.6879903681
  0
LINE
  5
3BC
100
AcDbEntity
  8
0
100
AcDbLine
 62
7
  6
CONTINUOUS
 10
170.1021212134
 20
121.6879903681
 11
169.8521212134
 21
121.6879903681
  0
LINE
  5
3BD
100
AcDbEntity
  8
0
100
AcDbLine
 62
7
  6
CONTINUOUS
 10
176.6720712682
 20
121.7518201477
 11
176.509691505
 21
121.7518201477
  0
LINE
  5
3BE
100
AcDbEntity
  8
0
100
AcDbLine
 62
7
  6
CONTINUOUS
 10
175.839539307
 20
121.7518201477
 11
175.589539307
 21
121.7518201477
  0
LINE
  5
3BF
100
AcDbEntity
  8
0
100
AcDbLine
 62
7
  6
CONTINUOUS
 10
169.8314883005
 20
121.7518201477
 11
169.2567287741
 21
121.7518201477
  0
LINE
  5
3C0
100
AcDbEntity
  8
0
100
AcDbLine
 62
7
  6
CONTINUOUS
 10
169.3443490109
 20
121.8156499273
 11
169.0943490109
 21
121.8156499273
  0
LINE
  5
3C1
100
AcDbEntity
  8
0
100
AcDbLine
 62
7
  6
CONTINUOUS
 10
177.8963498474
 20
121.879479707
 11
177.6463498474
 21
121.879479707
  0
LINE
  5
3C2
100
AcDbEntity
  8
0
100
AcDbLine
 62
7
  6
CONTINUOUS
 10
177.6257167023
 20
121.9433094866
 11
177.1050841766
 21
121.9433094866
  0
LINE
  5
3C3
100
AcDbEntity
  8
0
100
AcDbLine
 62
7
  6
CONTINUOUS
 10
175.9477926889
 20
121.9433094866
 11
175.6977926889
 21
121.9433094866
  0
LINE
  5
3C4
100
AcDbEntity
  8
0
100
AcDbLine
 62
7
  6
CONTINUOUS
 10
169.181969209
 20
121.9433094866
 11
168.931969209
 21
121.9433094866
  0
LINE
  5
3C5
100
AcDbEntity
  8
0
100
AcDbLine
 62
7
  6
CONTINUOUS
 10
176.8138178862
 20
122.1347988255
 11
176.5638178862
 21
122.1347988255
  0
LINE
  5
3C6
100
AcDbEntity
  8
0
100
AcDbLine
 62
7
  6
CONTINUOUS
 10
169.1278426341
 20
122.1347988255
 11
168.8778426341
 21
122.1347988255
  0
LINE
  5
3C7
100
AcDbEntity
  8
0
100
AcDbLine
 62
7
  6
CONTINUOUS
 10
176.0019190702
 20
122.1986286051
 11
175.7519190702
 21
122.1986286051
  0
LINE
  5
3C8
100
AcDbEntity
  8
0
100
AcDbLine
 62
7
  6
CONTINUOUS
 10
195.3985959829
 20
122.2262882239
 11
195.1485959829
 21
122.2262882239
  0
LINE
  5
3C9
100
AcDbEntity
  8
0
100
AcDbLine
 62
7
  6
CONTINUOUS
 10
169.1278426341
 20
122.2624583847
 11
168.8778426341
 21
122.2624583847
  0
LINE
  5
3CA
100
AcDbEntity
  8
0
100
AcDbLine
 62
7
  6
CONTINUOUS
 10
176.8679448869
 20
122.3262883432
 11
176.6179448869
 21
122.3262883432
  0
LINE
  5
3CB
100
AcDbEntity
  8
0
100
AcDbLine
 62
7
  6
CONTINUOUS
 10
176.0019190702
 20
122.3262883432
 11
175.7519190702
 21
122.3262883432
  0
LINE
  5
3CC
100
AcDbEntity
  8
0
100
AcDbLine
 62
7
  6
CONTINUOUS
 10
169.9062477495
 20
122.3262883432
 11
170.4810072759
 21
122.3262883432
  0
LINE
  5
3CD
100
AcDbEntity
  8
0
100
AcDbLine
 62
7
  6
CONTINUOUS
 10
173.9116152936
 20
122.3262883432
 11
174.4322484388
 21
122.3262883432
  0
LINE
  5
3CE
100
AcDbEntity
  8
0
100
AcDbLine
 62
7
  6
CONTINUOUS
 10
177.8087296107
 20
122.3262883432
 11
178.3293627558
 21
122.3262883432
  0
LINE
  5
3CF
100
AcDbEntity
  8
0
100
AcDbLine
 62
7
  6
CONTINUOUS
 10
169.181969209
 20
122.4539479024
 11
168.931969209
 21
122.4539479024
  0
LINE
  5
3D0
100
AcDbEntity
  8
0
100
AcDbLine
 62
7
  6
CONTINUOUS
 10
195.5429338255
 20
122.4816073424
 11
195.2929338255
 21
122.4816073424
  0
LINE
  5
3D1
100
AcDbEntity
  8
0
100
AcDbLine
 62
7
  6
CONTINUOUS
 10
178.2752357551
 20
122.517777682
 11
178.0252357551
 21
122.517777682
  0
LINE
  5
3D2
100
AcDbEntity
  8
0
100
AcDbLine
 62
7
  6
CONTINUOUS
 10
176.9761976495
 20
122.517777682
 11
176.7261976495
 21
122.517777682
  0
LINE
  5
3D3
100
AcDbEntity
  8
0
100
AcDbLine
 62
7
  6
CONTINUOUS
 10
174.5405012013
 20
122.517777682
 11
174.2905012013
 21
122.517777682
  0
LINE
  5
3D4
100
AcDbEntity
  8
0
100
AcDbLine
 62
7
  6
CONTINUOUS
 10
170.4268807398
 20
122.517777682
 11
170.1768807398
 21
122.517777682
  0
LINE
  5
3D5
100
AcDbEntity
  8
0
100
AcDbLine
 62
7
  6
CONTINUOUS
 10
175.9477926889
 20
122.5816074617
 11
175.6977926889
 21
122.5816074617
  0
LINE
  5
3D6
100
AcDbEntity
  8
0
100
AcDbLine
 62
7
  6
CONTINUOUS
 10
169.3443490109
 20
122.5816074617
 11
169.0943490109
 21
122.5816074617
  0
LINE
  5
3D7
100
AcDbEntity
  8
0
100
AcDbLine
 62
7
  6
CONTINUOUS
 10
177.1385774127
 20
122.6454372413
 11
176.8885774127
 21
122.6454372413
  0
LINE
  5
3D8
100
AcDbEntity
  8
0
100
AcDbLine
 62
7
  6
CONTINUOUS
 10
174.7028809645
 20
122.6454372413
 11
174.4528809645
 21
122.6454372413
  0
LINE
  5
3D9
100
AcDbEntity
  8
0
100
AcDbLine
 62
7
  6
CONTINUOUS
 10
169.2567287741
 20
122.6454372413
 11
169.5814883005
 21
122.6454372413
  0
LINE
  5
3DA
100
AcDbEntity
  8
0
100
AcDbLine
 62
7
  6
CONTINUOUS
 10
174.7235141097
 20
122.7092670209
 11
174.9400202541
 21
122.7092670209
  0
LINE
  5
3DB
100
AcDbEntity
  8
0
100
AcDbLine
 62
7
  6
CONTINUOUS
 10
177.0509571759
 20
122.7092670209
 11
177.3757167023
 21
122.7092670209
  0
LINE
  5
3DC
100
AcDbEntity
  8
0
100
AcDbLine
 62
7
  6
CONTINUOUS
 10
178.1128559919
 20
122.7730968005
 11
177.8628559919
 21
122.7730968005
  0
LINE
  5
3DD
100
AcDbEntity
  8
0
100
AcDbLine
 62
7
  6
CONTINUOUS
 10
170.2645009766
 20
122.7730968005
 11
170.0145009766
 21
122.7730968005
  0
LINE
  5
3DE
100
AcDbEntity
  8
0
100
AcDbLine
 62
7
  6
CONTINUOUS
 10
195.6151023338
 20
122.8220328338
 11
195.3651023338
 21
122.8220328338
  0
LINE
  5
3DF
100
AcDbEntity
  8
0
100
AcDbLine
 62
7
  6
CONTINUOUS
 10
175.7312865445
 20
122.8369265802
 11
175.4812865445
 21
122.8369265802
  0
LINE
  5
3E0
100
AcDbEntity
  8
0
100
AcDbLine
 62
7
  6
CONTINUOUS
 10
177.8422234662
 20
122.9645861394
 11
177.5922234662
 21
122.9645861394
  0
LINE
  5
3E1
100
AcDbEntity
  8
0
100
AcDbLine
 62
7
  6
CONTINUOUS
 10
175.5147797806
 20
122.9645861394
 11
175.2647797806
 21
122.9645861394
  0
LINE
  5
3E2
100
AcDbEntity
  8
0
100
AcDbLine
 62
7
  6
CONTINUOUS
 10
170.0479946773
 20
122.9645861394
 11
169.7979946773
 21
122.9645861394
  0
LINE
  5
3E3
100
AcDbEntity
  8
0
100
AcDbLine
 62
7
  6
CONTINUOUS
 10
195.6151023338
 20
122.9922458179
 11
195.3651023338
 21
122.9922458179
  0
LINE
  5
3E4
100
AcDbEntity
  8
0
100
AcDbLine
 62
7
  6
CONTINUOUS
 10
193.0891950438
 20
122.9922458179
 11
193.4500392373
 21
122.9922458179
  0
LINE
  5
3E5
100
AcDbEntity
  8
0
100
AcDbLine
 62
7
  6
CONTINUOUS
 10
177.571590321
 20
123.028415919
 11
177.1050841766
 21
123.028415919
  0
LINE
  5
3E6
100
AcDbEntity
  8
0
100
AcDbLine
 62
7
  6
CONTINUOUS
 10
175.1358938729
 20
123.028415919
 11
174.7776404909
 21
123.028415919
  0
LINE
  5
3E7
100
AcDbEntity
  8
0
100
AcDbLine
 62
7
  6
CONTINUOUS
 10
173.674476004
 20
123.028415919
 11
173.0997164776
 21
123.028415919
  0
LINE
  5
3E8
100
AcDbEntity
  8
0
100
AcDbLine
 62
7
  6
CONTINUOUS
 10
172.5919443525
 20
123.028415919
 11
171.9089314441
 21
123.028415919
  0
LINE
  5
3E9
100
AcDbEntity
  8
0
100
AcDbLine
 62
7
  6
CONTINUOUS
 10
171.4011593191
 20
123.028415919
 11
170.8263997926
 21
123.028415919
  0
LINE
  5
3EA
100
AcDbEntity
  8
0
100
AcDbLine
 62
7
  6
CONTINUOUS
 10
169.777361687
 20
123.028415919
 11
169.2567287741
 21
123.028415919
  0
LINE
  5
3EB
100
AcDbEntity
  8
0
100
AcDbLine
 62
7
  6
CONTINUOUS
 10
190.5632877537
 20
123.0773521907
 11
190.3132877537
 21
123.0773521907
  0
LINE
  5
3EC
100
AcDbEntity
  8
0
100
AcDbLine
 62
7
  6
CONTINUOUS
 10
187.9652115424
 20
123.0773521907
 11
187.7152115424
 21
123.0773521907
  0
LINE
  5
3ED
100
AcDbEntity
  8
0
100
AcDbLine
 62
7
  6
CONTINUOUS
 10
193.594376667
 20
123.2475649364
 11
193.344376667
 21
123.2475649364
  0
LINE
  5
3EE
100
AcDbEntity
  8
0
100
AcDbLine
 62
7
  6
CONTINUOUS
 10
192.006663289
 20
123.2475649364
 11
191.756663289
 21
123.2475649364
  0
LINE
  5
3EF
100
AcDbEntity
  8
0
100
AcDbLine
 62
7
  6
CONTINUOUS
 10
195.5429338255
 20
123.3326713092
 11
195.2929338255
 21
123.3326713092
  0
LINE
  5
3F0
100
AcDbEntity
  8
0
100
AcDbLine
 62
7
  6
CONTINUOUS
 10
193.8108830179
 20
123.417777682
 11
193.5608830179
 21
123.417777682
  0
LINE
  5
3F1
100
AcDbEntity
  8
0
100
AcDbLine
 62
7
  6
CONTINUOUS
 10
175.2647797806
 20
122.9645861394
 11
174.8858938729
 21
123.028415919
  0
LINE
  5
3F2
100
AcDbEntity
  8
0
100
AcDbLine
 62
7
  6
CONTINUOUS
 10
175.5147797806
 20
122.9645861394
 11
175.1358938729
 21
123.028415919
  0
LINE
  5
3F3
100
AcDbEntity
  8
0
100
AcDbLine
 62
7
  6
CONTINUOUS
 10
177.6463498474
 20
121.879479707
 11
177.3757167023
 21
121.9433094866
  0
LINE
  5
3F4
100
AcDbEntity
  8
0
100
AcDbLine
 62
7
  6
CONTINUOUS
 10
177.8963498474
 20
121.879479707
 11
177.6257167023
 21
121.9433094866
  0
LINE
  5
3F5
100
AcDbEntity
  8
0
100
AcDbLine
 62
7
  6
CONTINUOUS
 10
174.9400202541
 20
122.7092670209
 11
175.2106533993
 21
122.6454372413
  0
LINE
  5
3F6
100
AcDbEntity
  8
0
100
AcDbLine
 62
7
  6
CONTINUOUS
 10
177.5922234662
 20
122.9645861394
 11
177.321590321
 21
123.028415919
  0
LINE
  5
3F7
100
AcDbEntity
  8
0
100
AcDbLine
 62
7
  6
CONTINUOUS
 10
177.8422234662
 20
122.9645861394
 11
177.571590321
 21
123.028415919
  0
LINE
  5
3F8
100
AcDbEntity
  8
0
100
AcDbLine
 62
7
  6
CONTINUOUS
 10
177.3757167023
 20
122.7092670209
 11
177.5380964655
 21
122.6454372413
  0
LINE
  5
3F9
100
AcDbEntity
  8
0
100
AcDbLine
 62
7
  6
CONTINUOUS
 10
175.7312865445
 20
122.8369265802
 11
175.5147797806
 21
122.9645861394
  0
LINE
  5
3FA
100
AcDbEntity
  8
0
100
AcDbLine
 62
7
  6
CONTINUOUS
 10
177.9169829926
 20
121.6879903681
 11
177.6463498474
 21
121.879479707
  0
LINE
  5
3FB
100
AcDbEntity
  8
0
100
AcDbLine
 62
7
  6
CONTINUOUS
 10
178.1669829926
 20
121.6879903681
 11
177.8963498474
 21
121.879479707
  0
LINE
  5
3FC
100
AcDbEntity
  8
0
100
AcDbLine
 62
7
  6
CONTINUOUS
 10
177.8628559919
 20
122.7730968005
 11
177.5922234662
 21
122.9645861394
  0
LINE
  5
3FD
100
AcDbEntity
  8
0
100
AcDbLine
 62
7
  6
CONTINUOUS
 10
178.1128559919
 20
122.7730968005
 11
177.8422234662
 21
122.9645861394
  0
LINE
  5
3FE
100
AcDbEntity
  8
0
100
AcDbLine
 62
7
  6
CONTINUOUS
 10
177.5922234662
 20
121.5603308088
 11
177.7546032294
 21
121.4326712496
  0
LINE
  5
3FF
100
AcDbEntity
  8
0
100
AcDbLine
 62
7
  6
CONTINUOUS
 10
177.5380964655
 20
122.6454372413
 11
177.7004762287
 21
122.517777682
  0
LINE
  5
400
100
AcDbEntity
  8
0
100
AcDbLine
 62
7
  6
CONTINUOUS
 10
175.6977926889
 20
122.5816074617
 11
175.4812865445
 21
122.8369265802
  0
LINE
  5
401
100
AcDbEntity
  8
0
100
AcDbLine
 62
7
  6
CONTINUOUS
 10
175.9477926889
 20
122.5816074617
 11
175.7312865445
 21
122.8369265802
  0
LINE
  5
402
100
AcDbEntity
  8
0
100
AcDbLine
 62
7
  6
CONTINUOUS
 10
178.0793627558
 20
121.4965010292
 11
177.9169829926
 21
121.6879903681
  0
LINE
  5
403
100
AcDbEntity
  8
0
100
AcDbLine
 62
7
  6
CONTINUOUS
 10
178.3293627558
 20
121.4965010292
 11
178.1669829926
 21
121.6879903681
  0
LINE
  5
404
100
AcDbEntity
  8
0
100
AcDbLine
 62
7
  6
CONTINUOUS
 10
177.7546032294
 20
121.4326712496
 11
177.8628559919
 21
121.3050116903
  0
LINE
  5
405
100
AcDbEntity
  8
0
100
AcDbLine
 62
7
  6
CONTINUOUS
 10
176.401438123
 20
120.5390542007
 11
176.5638178862
 21
120.2837350599
  0
LINE
  5
406
100
AcDbEntity
  8
0
100
AcDbLine
 62
7
  6
CONTINUOUS
 10
175.7519190702
 20
121.2411819107
 11
175.6436663077
 21
121.4326712496
  0
LINE
  5
407
100
AcDbEntity
  8
0
100
AcDbLine
 62
7
  6
CONTINUOUS
 10
176.0019190702
 20
121.2411819107
 11
175.8936663077
 21
121.4326712496
  0
LINE
  5
408
100
AcDbEntity
  8
0
100
AcDbLine
 62
7
  6
CONTINUOUS
 10
175.3730331625
 20
122.517777682
 11
175.4812865445
 21
122.3262883432
  0
LINE
  5
409
100
AcDbEntity
  8
0
100
AcDbLine
 62
7
  6
CONTINUOUS
 10
176.7261976495
 20
120.5390542007
 11
176.6179448869
 21
120.7305435843
  0
LINE
  5
40A
100
AcDbEntity
  8
0
100
AcDbLine
 62
7
  6
CONTINUOUS
 10
176.9761976495
 20
120.5390542007
 11
176.8679448869
 21
120.7305435843
  0
LINE
  5
40B
100
AcDbEntity
  8
0
100
AcDbLine
 62
7
  6
CONTINUOUS
 10
174.4322484388
 20
120.6028840251
 11
174.3781214381
 21
120.7305435843
  0
LINE
  5
40C
100
AcDbEntity
  8
0
100
AcDbLine
 62
7
  6
CONTINUOUS
 10
175.4271595438
 20
121.2411819107
 11
175.5354129257
 21
120.9858627028
  0
LINE
  5
40D
100
AcDbEntity
  8
0
100
AcDbLine
 62
7
  6
CONTINUOUS
 10
171.8827426008
 20
131.2422458179
 11
171.7994093469
 21
131.4975649364
  0
LINE
  5
40E
100
AcDbEntity
  8
0
100
AcDbLine
 62
7
  6
CONTINUOUS
 10
172.3827426008
 20
131.2422458179
 11
172.2994093469
 21
131.4975649364
  0
LINE
  5
40F
100
AcDbEntity
  8
0
100
AcDbLine
 62
7
  6
CONTINUOUS
 10
173.8574889124
 20
120.7305435843
 11
173.9116152936
 21
120.5390542007
  0
LINE
  5
410
100
AcDbEntity
  8
0
100
AcDbLine
 62
7
  6
CONTINUOUS
 10
172.7749569512
 20
120.7305435843
 11
172.3419443525
 21
123.028415919
  0
LINE
  5
411
100
AcDbEntity
  8
0
100
AcDbLine
 62
7
  6
CONTINUOUS
 10
172.8820998229
 20
121.488644951
 11
172.5919443525
 21
123.028415919
  0
LINE
  5
412
100
AcDbEntity
  8
0
100
AcDbLine
 62
7
  6
CONTINUOUS
 10
172.1254378983
 20
122.4539479024
 11
172.558450497
 21
120.028415919
  0
LINE
  5
413
100
AcDbEntity
  8
0
100
AcDbLine
 62
7
  6
CONTINUOUS
 10
171.6187759737
 20
121.488644951
 11
171.4011593191
 21
123.028415919
  0
LINE
  5
414
100
AcDbEntity
  8
0
100
AcDbLine
 62
7
  6
CONTINUOUS
 10
173.0494093469
 20
132.178415919
 11
173.0494093469
 21
128.178415919
  0
LINE
  5
415
100
AcDbEntity
  8
0
100
AcDbLine
 62
7
  6
CONTINUOUS
 10
173.5494093469
 20
131.7528840549
 11
173.5494093469
 21
130.4762882239
  0
LINE
  5
416
100
AcDbEntity
  8
0
100
AcDbLine
 62
7
  6
CONTINUOUS
 10
173.5494093469
 20
129.9656499869
 11
173.5494093469
 21
128.178415919
  0
LINE
  5
417
100
AcDbEntity
  8
0
100
AcDbLine
 62
7
  6
CONTINUOUS
 10
174.7235141097
 20
121.6879903681
 11
174.7235141097
 21
121.4326712496
  0
LINE
  5
418
100
AcDbEntity
  8
0
100
AcDbLine
 62
7
  6
CONTINUOUS
 10
173.0997164776
 20
123.028415919
 11
172.7749569512
 21
120.7305435843
  0
LINE
  5
419
100
AcDbEntity
  8
0
100
AcDbLine
 62
7
  6
CONTINUOUS
 10
172.9914634053
 20
120.028415919
 11
173.424476004
 21
123.028415919
  0
LINE
  5
41A
100
AcDbEntity
  8
0
100
AcDbLine
 62
7
  6
CONTINUOUS
 10
171.6924252997
 20
120.028415919
 11
172.1254378983
 21
122.4539479024
  0
LINE
  5
41B
100
AcDbEntity
  8
0
100
AcDbLine
 62
7
  6
CONTINUOUS
 10
171.9424252997
 20
120.028415919
 11
172.2504378983
 21
121.7537569637
  0
LINE
  5
41C
100
AcDbEntity
  8
0
100
AcDbLine
 62
7
  6
CONTINUOUS
 10
171.9089314441
 20
123.028415919
 11
171.4759188455
 21
120.7305435843
  0
LINE
  5
41D
100
AcDbEntity
  8
0
100
AcDbLine
 62
7
  6
CONTINUOUS
 10
169.1278426341
 20
122.2624583847
 11
169.181969209
 21
122.4539479024
  0
LINE
  5
41E
100
AcDbEntity
  8
0
100
AcDbLine
 62
7
  6
CONTINUOUS
 10
171.8827426008
 20
130.9869264609
 11
171.7994093469
 21
130.7316073424
  0
LINE
  5
41F
100
AcDbEntity
  8
0
100
AcDbLine
 62
7
  6
CONTINUOUS
 10
172.3827426008
 20
130.9018200881
 11
172.2994093469
 21
130.6465009696
  0
LINE
  5
420
100
AcDbEntity
  8
0
100
AcDbLine
 62
7
  6
CONTINUOUS
 10
177.1050841766
 20
123.028415919
 11
176.8344510314
 21
122.9645861394
  0
LINE
  5
421
100
AcDbEntity
  8
0
100
AcDbLine
 62
7
  6
CONTINUOUS
 10
174.7028809645
 20
122.6454372413
 11
174.9417852327
 21
122.7017836536
  0
LINE
  5
422
100
AcDbEntity
  8
0
100
AcDbLine
 62
7
  6
CONTINUOUS
 10
174.4528809645
 20
122.6454372413
 11
174.7235141097
 21
122.7092670209
  0
LINE
  5
423
100
AcDbEntity
  8
0
100
AcDbLine
 62
7
  6
CONTINUOUS
 10
174.7776404909
 20
123.028415919
 11
174.3987545833
 21
122.9645861394
  0
LINE
  5
424
100
AcDbEntity
  8
0
100
AcDbLine
 62
7
  6
CONTINUOUS
 10
193.9217267985
 20
123.5028840549
 11
194.4604020708
 21
123.5028840549
  0
LINE
  5
425
100
AcDbEntity
  8
0
100
AcDbLine
 62
7
  6
CONTINUOUS
 10
195.2542589662
 20
123.6730968005
 11
195.0042589662
 21
123.6730968005
  0
LINE
  5
426
100
AcDbEntity
  8
0
100
AcDbLine
 62
7
  6
CONTINUOUS
 10
194.965583281
 20
123.8433095462
 11
194.715583281
 21
123.8433095462
  0
LINE
  5
427
100
AcDbEntity
  8
0
100
AcDbLine
 62
7
  6
CONTINUOUS
 10
194.5325705791
 20
123.928415919
 11
194.2438957198
 21
123.928415919
  0
LINE
  5
428
100
AcDbEntity
  8
0
100
AcDbLine
 62
7
  6
CONTINUOUS
 10
192.4396759909
 20
123.928415919
 11
192.006663289
 21
123.928415919
  0
LINE
  5
429
100
AcDbEntity
  8
0
100
AcDbLine
 62
7
  6
CONTINUOUS
 10
190.9963004556
 20
123.928415919
 11
190.3467814028
 21
123.928415919
  0
LINE
  5
42A
100
AcDbEntity
  8
0
100
AcDbLine
 62
7
  6
CONTINUOUS
 10
188.1817178933
 20
123.928415919
 11
187.5321988405
 21
123.928415919
  0
LINE
  5
42B
100
AcDbEntity
  8
0
100
AcDbLine
 62
7
  6
CONTINUOUS
 10
179.7962579123
 20
124.778415919
 11
166.8058768556
 21
124.778415919
  0
LINE
  5
42C
100
AcDbEntity
  8
0
100
AcDbLine
 62
7
  6
CONTINUOUS
 10
172.0494093469
 20
131.8379904277
 11
171.7160760931
 21
132.0933095462
  0
LINE
  5
42D
100
AcDbEntity
  8
0
100
AcDbLine
 62
7
  6
CONTINUOUS
 10
171.7994093469
 20
131.4975649364
 11
171.6327426008
 21
131.667777682
  0
LINE
  5
42E
100
AcDbEntity
  8
0
100
AcDbLine
 62
7
  6
CONTINUOUS
 10
172.2994093469
 20
131.4975649364
 11
172.0494093469
 21
131.8379904277
  0
LINE
  5
42F
100
AcDbEntity
  8
0
100
AcDbLine
 62
7
  6
CONTINUOUS
 10
178.0252357551
 20
122.517777682
 11
177.8628559919
 21
122.7730968005
  0
LINE
  5
430
100
AcDbEntity
  8
0
100
AcDbLine
 62
7
  6
CONTINUOUS
 10
178.2752357551
 20
122.517777682
 11
178.1128559919
 21
122.7730968005
  0
LINE
  5
431
100
AcDbEntity
  8
0
100
AcDbLine
 62
7
  6
CONTINUOUS
 10
177.7004762287
 20
122.517777682
 11
177.8087296107
 21
122.3262883432
  0
LINE
  5
432
100
AcDbEntity
  8
0
100
AcDbLine
 62
7
  6
CONTINUOUS
 10
176.2931853605
 20
120.8582031436
 11
176.401438123
 21
120.5390542007
  0
LINE
  5
433
100
AcDbEntity
  8
0
100
AcDbLine
 62
7
  6
CONTINUOUS
 10
178.1876155183
 20
121.1773521311
 11
178.0793627558
 21
121.4965010292
  0
LINE
  5
434
100
AcDbEntity
  8
0
100
AcDbLine
 62
7
  6
CONTINUOUS
 10
178.4376155183
 20
121.1773521311
 11
178.3293627558
 21
121.4965010292
  0
LINE
  5
435
100
AcDbEntity
  8
0
100
AcDbLine
 62
7
  6
CONTINUOUS
 10
176.6179448869
 20
120.7305435843
 11
176.5638178862
 21
120.9220329232
  0
LINE
  5
436
100
AcDbEntity
  8
0
100
AcDbLine
 62
7
  6
CONTINUOUS
 10
176.8679448869
 20
120.7305435843
 11
176.8138178862
 21
120.9220329232
  0
LINE
  5
437
100
AcDbEntity
  8
0
100
AcDbLine
 62
7
  6
CONTINUOUS
 10
177.8628559919
 20
121.3050116903
 11
177.9169829926
 21
121.1135222621
  0
LINE
  5
438
100
AcDbEntity
  8
0
100
AcDbLine
 62
7
  6
CONTINUOUS
 10
175.8060460709
 20
120.9858627028
 11
175.7519190702
 21
121.2411819107
  0
LINE
  5
439
100
AcDbEntity
  8
0
100
AcDbLine
 62
7
  6
CONTINUOUS
 10
175.7519190702
 20
122.3262883432
 11
175.6977926889
 21
122.5816074617
  0
LINE
  5
43A
100
AcDbEntity
  8
0
100
AcDbLine
 62
7
  6
CONTINUOUS
 10
176.0560460709
 20
120.9858627028
 11
176.0019190702
 21
121.2411819107
  0
LINE
  5
43B
100
AcDbEntity
  8
0
100
AcDbLine
 62
7
  6
CONTINUOUS
 10
176.0019190702
 20
122.3262883432
 11
175.9477926889
 21
122.5816074617
  0
LINE
  5
43C
100
AcDbEntity
  8
0
100
AcDbLine
 62
7
  6
CONTINUOUS
 10
176.2390583598
 20
121.3050116903
 11
176.2931853605
 21
120.8582031436
  0
LINE
  5
43D
100
AcDbEntity
  8
0
100
AcDbLine
 62
7
  6
CONTINUOUS
 10
175.4812865445
 20
122.3262883432
 11
175.4812865445
 21
122.1986286051
  0
LINE
  5
43E
100
AcDbEntity
  8
0
100
AcDbLine
 62
7
  6
CONTINUOUS
 10
175.5354129257
 20
120.9858627028
 11
175.5354129257
 21
120.7305435843
  0
LINE
  5
43F
100
AcDbEntity
  8
0
100
AcDbLine
 62
7
  6
CONTINUOUS
 10
175.6327428392
 20
131.2422458179
 11
175.6327428392
 21
130.9869264609
  0
LINE
  5
440
100
AcDbEntity
  8
0
100
AcDbLine
 62
7
  6
CONTINUOUS
 10
175.7519190702
 20
122.1986286051
 11
175.7519190702
 21
122.3262883432
  0
LINE
  5
441
100
AcDbEntity
  8
0
100
AcDbLine
 62
7
  6
CONTINUOUS
 10
175.8060460709
 20
120.7305435843
 11
175.8060460709
 21
120.9858627028
  0
LINE
  5
442
100
AcDbEntity
  8
0
100
AcDbLine
 62
7
  6
CONTINUOUS
 10
176.0019190702
 20
122.1986286051
 11
176.0019190702
 21
122.3262883432
  0
LINE
  5
443
100
AcDbEntity
  8
0
100
AcDbLine
 62
7
  6
CONTINUOUS
 10
176.0560460709
 20
120.7305435843
 11
176.0560460709
 21
120.9858627028
  0
LINE
  5
444
100
AcDbEntity
  8
0
100
AcDbLine
 62
7
  6
CONTINUOUS
 10
176.1327428392
 20
131.2422458179
 11
176.1327428392
 21
130.9018200881
  0
LINE
  5
445
100
AcDbEntity
  8
0
100
AcDbLine
 62
7
  6
CONTINUOUS
 10
176.2390583598
 20
121.7518201477
 11
176.2390583598
 21
121.3050116903
  0
LINE
  5
446
100
AcDbEntity
  8
0
100
AcDbLine
 62
7
  6
CONTINUOUS
 10
176.2994093469
 20
117.778415919
 11
176.2994093469
 21
100.278415919
  0
LINE
  5
447
100
AcDbEntity
  8
0
100
AcDbLine
 62
7
  6
CONTINUOUS
 10
176.509691505
 20
121.6241605885
 11
176.509691505
 21
121.7518201477
  0
LINE
  5
448
100
AcDbEntity
  8
0
100
AcDbLine
 62
7
  6
CONTINUOUS
 10
176.5638178862
 20
120.9220329232
 11
176.5638178862
 21
121.1135222621
  0
LINE
  5
449
100
AcDbEntity
  8
0
100
AcDbLine
 62
7
  6
CONTINUOUS
 10
176.7994093469
 20
130.0507563598
 11
176.7994093469
 21
129.6252243764
  0
LINE
  5
44A
100
AcDbEntity
  8
0
100
AcDbLine
 62
7
  6
CONTINUOUS
 10
176.8138178862
 20
120.9220329232
 11
176.8138178862
 21
121.1135222621
  0
LINE
  5
44B
100
AcDbEntity
  8
0
100
AcDbLine
 62
7
  6
CONTINUOUS
 10
177.2994093469
 20
138.178415919
 11
177.2994093469
 21
134.178415919
  0
LINE
  5
44C
100
AcDbEntity
  8
0
100
AcDbLine
 62
7
  6
CONTINUOUS
 10
173.2414634053
 20
120.028415919
 11
173.674476004
 21
123.028415919
  0
LINE
  5
44D
100
AcDbEntity
  8
0
100
AcDbLine
 62
7
  6
CONTINUOUS
 10
173.9657416749
 20
122.5816074617
 11
173.9116152936
 21
122.3262883432
  0
LINE
  5
44E
100
AcDbEntity
  8
0
100
AcDbLine
 62
7
  6
CONTINUOUS
 10
175.6327428392
 20
130.9869264609
 11
175.5494093469
 21
130.7316073424
  0
LINE
  5
44F
100
AcDbEntity
  8
0
100
AcDbLine
 62
7
  6
CONTINUOUS
 10
176.1327428392
 20
130.9018200881
 11
176.0494093469
 21
130.6465009696
  0
LINE
  5
450
100
AcDbEntity
  8
0
100
AcDbLine
 62
7
  6
CONTINUOUS
 10
170.2851339669
 20
120.4752244211
 11
170.3933870391
 21
120.7305435843
  0
LINE
  5
451
100
AcDbEntity
  8
0
100
AcDbLine
 62
7
  6
CONTINUOUS
 10
170.5351339669
 20
120.4752244211
 11
170.6433870391
 21
120.7305435843
  0
LINE
  5
452
100
AcDbEntity
  8
0
100
AcDbLine
 62
7
  6
CONTINUOUS
 10
172.2994093469
 20
130.6465009696
 11
172.0494093469
 21
130.3060754783
  0
LINE
  5
453
100
AcDbEntity
  8
0
100
AcDbLine
 62
7
  6
CONTINUOUS
 10
171.7994093469
 20
130.7316073424
 11
171.6327426008
 21
130.5613945968
  0
LINE
  5
454
100
AcDbEntity
  8
0
100
AcDbLine
 62
7
  6
CONTINUOUS
 10
189.7160753778
 20
128.2635222993
 11
189.3827433161
 21
128.178415919
  0
LINE
  5
455
100
AcDbEntity
  8
0
100
AcDbLine
 62
7
  6
CONTINUOUS
 10
189.7160753778
 20
128.6890542156
 11
189.2994093469
 21
128.6039478428
  0
LINE
  5
456
100
AcDbEntity
  8
0
100
AcDbLine
 62
7
  6
CONTINUOUS
 10
186.0494093469
 20
128.2635222993
 11
185.6327433161
 21
128.178415919
  0
LINE
  5
457
100
AcDbEntity
  8
KONSTRUKTIONSELEMENTE
100
AcDbLine
 62
7
  6
CONTINUOUS
 10
164.2994093469
 20
126.278415919
 11
200.2994093469
 21
126.278415919
  0
LINE
  5
458
100
AcDbEntity
  8
0
100
AcDbLine
 62
7
  6
CONTINUOUS
 10
182.7160763315
 20
127.6677776224
 11
182.2994093469
 21
127.6677776224
  0
LINE
  5
459
100
AcDbEntity
  8
0
100
AcDbLine
 62
7
  6
CONTINUOUS
 10
189.3827433161
 20
128.178415919
 11
188.7160753778
 21
128.178415919
  0
LINE
  5
45A
100
AcDbEntity
  8
0
100
AcDbLine
 62
7
  6
CONTINUOUS
 10
185.6327433161
 20
128.178415919
 11
185.2160763315
 21
128.178415919
  0
LINE
  5
45B
100
AcDbEntity
  8
0
100
AcDbLine
 62
7
  6
CONTINUOUS
 10
173.5494093469
 20
128.178415919
 11
173.0494093469
 21
128.178415919
  0
LINE
  5
45C
100
AcDbEntity
  8
0
100
AcDbLine
 62
7
  6
CONTINUOUS
 10
169.7994093469
 20
128.178415919
 11
169.2994093469
 21
128.178415919
  0
LINE
  5
45D
100
AcDbEntity
  8
0
100
AcDbLine
 62
7
  6
CONTINUOUS
 10
180.1327423624
 20
128.178415919
 11
179.6327423624
 21
128.2635222993
  0
LINE
  5
45E
100
AcDbEntity
  8
0
100
AcDbLine
 62
7
  6
CONTINUOUS
 10
194.715583281
 20
123.8433095462
 11
194.2825705791
 21
123.928415919
  0
LINE
  5
45F
100
AcDbEntity
  8
0
100
AcDbLine
 62
7
  6
CONTINUOUS
 10
194.965583281
 20
123.8433095462
 11
194.5325705791
 21
123.928415919
  0
LINE
  5
460
100
AcDbEntity
  8
0
100
AcDbLine
 62
7
  6
CONTINUOUS
 10
180.1327423624
 20
128.6039478428
 11
179.7160763315
 21
128.6890542156
  0
LINE
  5
461
100
AcDbEntity
  8
0
100
AcDbLine
 62
7
  6
CONTINUOUS
 10
194.4604020708
 20
123.5028840549
 11
194.8212462643
 21
123.417777682
  0
LINE
  5
462
100
AcDbEntity
  8
0
100
AcDbLine
 62
7
  6
CONTINUOUS
 10
171.6327426008
 20
131.667777682
 11
171.3827426008
 21
131.7528840549
  0
LINE
  5
463
100
AcDbEntity
  8
0
100
AcDbLine
 62
7
  6
CONTINUOUS
 10
179.6327423624
 20
128.2635222993
 11
179.2160763315
 21
128.5188414402
  0
LINE
  5
464
100
AcDbEntity
  8
0
100
AcDbLine
 62
7
  6
CONTINUOUS
 10
179.7160763315
 20
128.6890542156
 11
179.4660763315
 21
128.8592669613
  0
LINE
  5
465
100
AcDbEntity
  8
0
100
AcDbLine
 62
7
  6
CONTINUOUS
 10
175.7994093469
 20
131.8379904277
 11
175.4660758547
 21
132.0933095462
  0
LINE
  5
466
100
AcDbEntity
  8
0
100
AcDbLine
 62
7
  6
CONTINUOUS
 10
175.5494093469
 20
131.4975649364
 11
175.3827428392
 21
131.667777682
  0
LINE
  5
467
100
AcDbEntity
  8
0
100
AcDbLine
 62
7
  6
CONTINUOUS
 10
179.2160763315
 20
128.5188414402
 11
178.9660763315
 21
128.7741605885
  0
LINE
  5
468
100
AcDbEntity
  8
0
100
AcDbLine
 62
7
  6
CONTINUOUS
 10
176.0494093469
 20
131.4975649364
 11
175.7994093469
 21
131.8379904277
  0
LINE
  5
469
100
AcDbEntity
  8
0
100
AcDbLine
 62
7
  6
CONTINUOUS
 10
179.4660763315
 20
128.8592669613
 11
179.1327423624
 21
129.3699052579
  0
LINE
  5
46A
100
AcDbEntity
  8
0
100
AcDbLine
 62
7
  6
CONTINUOUS
 10
178.9660763315
 20
128.7741605885
 11
178.7994093469
 21
129.1145861394
  0
LINE
  5
46B
100
AcDbEntity
  8
0
100
AcDbLine
 62
7
  6
CONTINUOUS
 10
175.6327428392
 20
131.2422458179
 11
175.5494093469
 21
131.4975649364
  0
LINE
  5
46C
100
AcDbEntity
  8
0
100
AcDbLine
 62
7
  6
CONTINUOUS
 10
176.1327428392
 20
131.2422458179
 11
176.0494093469
 21
131.4975649364
  0
LINE
  5
46D
100
AcDbEntity
  8
0
100
AcDbLine
 62
7
  6
CONTINUOUS
 10
178.0793627558
 20
122.3262883432
 11
178.0252357551
 21
122.517777682
  0
LINE
  5
46E
100
AcDbEntity
  8
0
100
AcDbLine
 62
7
  6
CONTINUOUS
 10
178.3293627558
 20
122.3262883432
 11
178.2752357551
 21
122.517777682
  0
LINE
  5
46F
100
AcDbEntity
  8
0
100
AcDbLine
 62
7
  6
CONTINUOUS
 10
177.7994093469
 20
137.7528840549
 11
177.7994093469
 21
136.4762882239
  0
LINE
  5
470
100
AcDbEntity
  8
0
100
AcDbLine
 62
7
  6
CONTINUOUS
 10
177.7994093469
 20
135.9656499869
 11
177.7994093469
 21
134.178415919
  0
LINE
  5
471
100
AcDbEntity
  8
0
100
AcDbLine
 62
7
  6
CONTINUOUS
 10
177.9169829926
 20
121.1135222621
 11
177.9169829926
 21
120.9220329232
  0
LINE
  5
472
100
AcDbEntity
  8
0
100
AcDbLine
 62
7
  6
CONTINUOUS
 10
177.9660763315
 20
130.0507563598
 11
177.9660763315
 21
129.6252243764
  0
LINE
  5
473
100
AcDbEntity
  8
0
100
AcDbLine
 62
7
  6
CONTINUOUS
 10
178.1876155183
 20
120.8582031436
 11
178.1876155183
 21
121.1773521311
  0
LINE
  5
474
100
AcDbEntity
  8
0
100
AcDbLine
 62
7
  6
CONTINUOUS
 10
178.4376155183
 20
120.8582031436
 11
178.4376155183
 21
121.1773521311
  0
LINE
  5
475
100
AcDbEntity
  8
0
100
AcDbLine
 62
7
  6
CONTINUOUS
 10
178.6327423624
 20
129.7954372413
 11
178.6327423624
 21
130.5613945968
  0
LINE
  5
476
100
AcDbEntity
  8
0
100
AcDbLine
 62
7
  6
CONTINUOUS
 10
179.0494093469
 20
130.4762882239
 11
179.0494093469
 21
129.8805436141
  0
LINE
  5
477
100
AcDbEntity
  8
0
100
AcDbLine
 62
7
  6
CONTINUOUS
 10
179.7962579123
 20
118.778415919
 11
179.7962579123
 21
124.778415919
  0
LINE
  5
478
100
AcDbEntity
  8
0
100
AcDbLine
 62
7
  6
CONTINUOUS
 10
179.8827426008
 20
137.2422458179
 11
179.8827426008
 21
136.9869264609
  0
LINE
  5
479
100
AcDbEntity
  8
0
100
AcDbLine
 62
7
  6
CONTINUOUS
 10
176.2931853605
 20
122.1986286051
 11
176.2390583598
 21
121.7518201477
  0
LINE
  5
47A
100
AcDbEntity
  8
0
100
AcDbLine
 62
7
  6
CONTINUOUS
 10
176.509691505
 20
121.7518201477
 11
176.5638178862
 21
122.1347988255
  0
LINE
  5
47B
100
AcDbEntity
  8
0
100
AcDbLine
 62
7
  6
CONTINUOUS
 10
176.7706439876
 20
121.8293159493
 11
176.8138178862
 21
122.1347988255
  0
LINE
  5
47C
100
AcDbEntity
  8
0
100
AcDbLine
 62
7
  6
CONTINUOUS
 10
179.1327423624
 20
130.9869264609
 11
179.0494093469
 21
130.4762882239
  0
LINE
  5
47D
100
AcDbEntity
  8
0
100
AcDbLine
 62
7
  6
CONTINUOUS
 10
178.7160763315
 20
130.9869264609
 11
178.6327423624
 21
130.5613945968
  0
LINE
  5
47E
100
AcDbEntity
  8
0
100
AcDbLine
 62
7
  6
CONTINUOUS
 10
175.6977926889
 20
121.9433094866
 11
175.7519190702
 21
122.1986286051
  0
LINE
  5
47F
100
AcDbEntity
  8
0
100
AcDbLine
 62
7
  6
CONTINUOUS
 10
175.9477926889
 20
121.9433094866
 11
176.0019190702
 21
122.1986286051
  0
LINE
  5
480
100
AcDbEntity
  8
0
100
AcDbLine
 62
7
  6
CONTINUOUS
 10
175.7519190702
 20
120.5390542007
 11
175.8060460709
 21
120.7305435843
  0
LINE
  5
481
100
AcDbEntity
  8
0
100
AcDbLine
 62
7
  6
CONTINUOUS
 10
176.0019190702
 20
120.5390542007
 11
176.0560460709
 21
120.7305435843
  0
LINE
  5
482
100
AcDbEntity
  8
0
100
AcDbLine
 62
7
  6
CONTINUOUS
 10
176.5638178862
 20
122.1347988255
 11
176.6179448869
 21
122.3262883432
  0
LINE
  5
483
100
AcDbEntity
  8
0
100
AcDbLine
 62
7
  6
CONTINUOUS
 10
176.8138178862
 20
122.1347988255
 11
176.8679448869
 21
122.3262883432
  0
LINE
  5
484
100
AcDbEntity
  8
0
100
AcDbLine
 62
7
  6
CONTINUOUS
 10
176.5638178862
 20
121.1135222621
 11
176.6179448869
 21
121.3050116903
  0
LINE
  5
485
100
AcDbEntity
  8
0
100
AcDbLine
 62
7
  6
CONTINUOUS
 10
179.8827426008
 20
136.9869264609
 11
179.7994093469
 21
136.7316073424
  0
LINE
  5
486
100
AcDbEntity
  8
0
100
AcDbLine
 62
7
  6
CONTINUOUS
 10
180.3827426008
 20
136.9018200881
 11
180.2994093469
 21
136.6465009696
  0
LINE
  5
487
100
AcDbEntity
  8
0
100
AcDbLine
 62
7
  6
CONTINUOUS
 10
178.7994093469
 20
131.2422458179
 11
178.7160763315
 21
130.9869264609
  0
LINE
  5
488
100
AcDbEntity
  8
0
100
AcDbLine
 62
7
  6
CONTINUOUS
 10
178.9660763315
 20
131.5826713092
 11
178.7994093469
 21
131.2422458179
  0
LINE
  5
489
100
AcDbEntity
  8
0
100
AcDbLine
 62
7
  6
CONTINUOUS
 10
170.0686275127
 20
120.7943733639
 11
169.9603744405
 21
120.6028840251
  0
LINE
  5
48A
100
AcDbEntity
  8
0
100
AcDbLine
 62
7
  6
CONTINUOUS
 10
180.2994093469
 20
136.6465009696
 11
180.0494093469
 21
136.3060754783
  0
LINE
  5
48B
100
AcDbEntity
  8
0
100
AcDbLine
 62
7
  6
CONTINUOUS
 10
176.0494093469
 20
130.6465009696
 11
175.7994093469
 21
130.3060754783
  0
LINE
  5
48C
100
AcDbEntity
  8
0
100
AcDbLine
 62
7
  6
CONTINUOUS
 10
168.8237160593
 20
122.8369265802
 11
168.6072097019
 21
122.5816074617
  0
LINE
  5
48D
100
AcDbEntity
  8
0
100
AcDbLine
 62
7
  6
CONTINUOUS
 10
179.7994093469
 20
136.7316073424
 11
179.6327426008
 21
136.5613945968
  0
LINE
  5
48E
100
AcDbEntity
  8
0
100
AcDbLine
 62
7
  6
CONTINUOUS
 10
175.5494093469
 20
130.7316073424
 11
175.3827428392
 21
130.5613945968
  0
LINE
  5
48F
100
AcDbEntity
  8
0
100
AcDbLine
 62
7
  6
CONTINUOUS
 10
172.0494093469
 20
130.3060754783
 11
171.7160760931
 21
130.0507563598
  0
LINE
  5
490
100
AcDbEntity
  8
0
100
AcDbLine
 62
7
  6
CONTINUOUS
 10
180.0494093469
 20
136.3060754783
 11
179.7160760931
 21
136.1358627326
  0
LINE
  5
491
100
AcDbEntity
  8
0
100
AcDbLine
 62
7
  6
CONTINUOUS
 10
179.6327426008
 20
136.5613945968
 11
179.3827426008
 21
136.4762882239
  0
LINE
  5
492
100
AcDbEntity
  8
0
100
AcDbLine
 62
7
  6
CONTINUOUS
 10
180.5494093469
 20
128.6890542156
 11
180.1327423624
 21
128.6039478428
  0
LINE
  5
493
100
AcDbEntity
  8
0
100
AcDbLine
 62
7
  6
CONTINUOUS
 10
185.2160763315
 20
130.7316073424
 11
184.7994093469
 21
130.6465009696
  0
LINE
  5
494
100
AcDbEntity
  8
0
100
AcDbLine
 62
7
  6
CONTINUOUS
 10
188.8827433161
 20
131.7528840549
 11
188.4660753778
 21
131.667777682
  0
LINE
  5
495
100
AcDbEntity
  8
0
100
AcDbLine
 62
7
  6
CONTINUOUS
 10
180.6327423624
 20
128.2635222993
 11
180.1327423624
 21
128.178415919
  0
LINE
  5
496
100
AcDbEntity
  8
0
100
AcDbLine
 62
7
  6
CONTINUOUS
 10
189.2994093469
 20
128.6039478428
 11
188.7994093469
 21
128.6039478428
  0
LINE
  5
497
100
AcDbEntity
  8
0
100
AcDbLine
 62
7
  6
CONTINUOUS
 10
185.7160753778
 20
128.6039478428
 11
185.1327423624
 21
128.6039478428
  0
LINE
  5
498
100
AcDbEntity
  8
0
100
AcDbLine
 62
7
  6
CONTINUOUS
 10
183.2160763315
 20
128.6039478428
 11
182.7994093469
 21
128.6039478428
  0
LINE
  5
499
100
AcDbEntity
  8
0
100
AcDbLine
 62
7
  6
CONTINUOUS
 10
187.9660753778
 20
129.1145861394
 11
187.5494093469
 21
129.1145861394
  0
LINE
  5
49A
100
AcDbEntity
  8
0
100
AcDbLine
 62
7
  6
CONTINUOUS
 10
177.9660763315
 20
129.6252243764
 11
176.7994093469
 21
129.6252243764
  0
LINE
  5
49B
100
AcDbEntity
  8
0
100
AcDbLine
 62
7
  6
CONTINUOUS
 10
175.0494093469
 20
129.9656499869
 11
173.5494093469
 21
129.9656499869
  0
LINE
  5
49C
100
AcDbEntity
  8
0
100
AcDbLine
 62
7
  6
CONTINUOUS
 10
171.2994093469
 20
129.9656499869
 11
169.7994093469
 21
129.9656499869
  0
LINE
  5
49D
100
AcDbEntity
  8
0
100
AcDbLine
 62
7
  6
CONTINUOUS
 10
189.2160753778
 20
130.0507563598
 11
188.8827433161
 21
130.0507563598
  0
LINE
  5
49E
100
AcDbEntity
  8
0
100
AcDbLine
 62
7
  6
CONTINUOUS
 10
177.9660763315
 20
130.0507563598
 11
176.7994093469
 21
130.0507563598
  0
LINE
  5
49F
100
AcDbEntity
  8
0
100
AcDbLine
 62
7
  6
CONTINUOUS
 10
185.7160753778
 20
130.3060754783
 11
185.1327423624
 21
130.3060754783
  0
LINE
  5
4A0
100
AcDbEntity
  8
0
100
AcDbLine
 62
7
  6
CONTINUOUS
 10
189.2160753778
 20
130.3911818511
 11
188.8827433161
 21
130.3911818511
  0
LINE
  5
4A1
100
AcDbEntity
  8
0
100
AcDbLine
 62
7
  6
CONTINUOUS
 10
175.1327428392
 20
130.4762882239
 11
173.5494093469
 21
130.4762882239
  0
LINE
  5
4A2
100
AcDbEntity
  8
0
100
AcDbLine
 62
7
  6
CONTINUOUS
 10
171.3827426008
 20
130.4762882239
 11
169.7994093469
 21
130.4762882239
  0
LINE
  5
4A3
100
AcDbEntity
  8
0
100
AcDbLine
 62
7
  6
CONTINUOUS
 10
193.2160753778
 20
130.5613945968
 11
192.2994093469
 21
130.5613945968
  0
LINE
  5
4A4
100
AcDbEntity
  8
0
100
AcDbLine
 62
7
  6
CONTINUOUS
 10
191.8827433161
 20
130.5613945968
 11
191.2160753778
 21
130.5613945968
  0
LINE
  5
4A5
100
AcDbEntity
  8
0
100
AcDbLine
 62
7
  6
CONTINUOUS
 10
185.6327433161
 20
130.7316073424
 11
185.2160763315
 21
130.7316073424
  0
LINE
  5
4A6
100
AcDbEntity
  8
0
100
AcDbLine
 62
7
  6
CONTINUOUS
 10
193.2160753778
 20
130.9018200881
 11
192.2994093469
 21
130.9018200881
  0
LINE
  5
4A7
100
AcDbEntity
  8
0
100
AcDbLine
 62
7
  6
CONTINUOUS
 10
191.8827433161
 20
130.9018200881
 11
191.2160753778
 21
130.9018200881
  0
LINE
  5
4A8
100
AcDbEntity
  8
0
100
AcDbLine
 62
7
  6
CONTINUOUS
 10
193.0494093469
 20
128.178415919
 11
192.5494093469
 21
128.2635222993
  0
LINE
  5
4A9
100
AcDbEntity
  8
0
100
AcDbLine
 62
7
  6
CONTINUOUS
 10
185.2160763315
 20
128.178415919
 11
184.7994093469
 21
128.2635222993
  0
LINE
  5
4AA
100
AcDbEntity
  8
0
100
AcDbLine
 62
7
  6
CONTINUOUS
 10
171.7160760931
 20
132.0933095462
 11
171.2994093469
 21
132.178415919
  0
LINE
  5
4AB
100
AcDbEntity
  8
0
100
AcDbLine
 62
7
  6
CONTINUOUS
 10
188.7994093469
 20
128.6039478428
 11
188.3827433161
 21
128.6890542156
  0
LINE
  5
4AC
100
AcDbEntity
  8
0
100
AcDbLine
 62
7
  6
CONTINUOUS
 10
175.4660758547
 20
132.0933095462
 11
175.0494093469
 21
132.178415919
  0
LINE
  5
4AD
100
AcDbEntity
  8
0
100
AcDbLine
 62
7
  6
CONTINUOUS
 10
193.0494093469
 20
128.5188414402
 11
192.6327433161
 21
128.6039478428
  0
LINE
  5
4AE
100
AcDbEntity
  8
0
100
AcDbLine
 62
7
  6
CONTINUOUS
 10
188.7160753778
 20
128.178415919
 11
188.3827433161
 21
128.2635222993
  0
LINE
  5
4AF
100
AcDbEntity
  8
0
100
AcDbLine
 62
7
  6
CONTINUOUS
 10
175.3827428392
 20
131.667777682
 11
175.1327428392
 21
131.7528840549
  0
LINE
  5
4B0
100
AcDbEntity
  8
0
100
AcDbLine
 62
7
  6
CONTINUOUS
 10
185.1327423624
 20
128.6039478428
 11
184.8827423624
 21
128.6890542156
  0
LINE
  5
4B1
100
AcDbEntity
  8
0
100
AcDbLine
 62
7
  6
CONTINUOUS
 10
184.7994093469
 20
128.2635222993
 11
184.3827423624
 21
128.5188414402
  0
LINE
  5
4B2
100
AcDbEntity
  8
0
100
AcDbLine
 62
7
  6
CONTINUOUS
 10
184.8827423624
 20
128.6890542156
 11
184.6327423624
 21
128.8592669613
  0
LINE
  5
4B3
100
AcDbEntity
  8
0
100
AcDbLine
 62
7
  6
CONTINUOUS
 10
180.7994093469
 20
131.4975649364
 11
180.5494093469
 21
131.667777682
  0
LINE
  5
4B4
100
AcDbEntity
  8
0
100
AcDbLine
 62
7
  6
CONTINUOUS
 10
181.1327423624
 20
130.9869264609
 11
180.7994093469
 21
131.4975649364
  0
LINE
  5
4B5
100
AcDbEntity
  8
0
100
AcDbLine
 62
7
  6
CONTINUOUS
 10
178.7994093469
 20
129.1145861394
 11
178.7160763315
 21
129.3699052579
  0
LINE
  5
4B6
100
AcDbEntity
  8
0
100
AcDbLine
 62
7
  6
CONTINUOUS
 10
178.7160763315
 20
129.3699052579
 11
178.6327423624
 21
129.7954372413
  0
LINE
  5
4B7
100
AcDbEntity
  8
0
100
AcDbLine
 62
7
  6
CONTINUOUS
 10
179.1327423624
 20
129.3699052579
 11
179.0494093469
 21
129.8805436141
  0
LINE
  5
4B8
100
AcDbEntity
  8
RUNDUNGEN
100
AcDbLine
 62
7
  6
CONTINUOUS
 10
180.2994093469
 20
159.247084516
 11
180.2994093469
 21
164.5275753693
  0
LINE
  5
4B9
100
AcDbEntity
  8
0
100
AcDbLine
 62
7
  6
CONTINUOUS
 10
180.3827426008
 20
137.2422458179
 11
180.3827426008
 21
136.9018200881
  0
LINE
  5
4BA
100
AcDbEntity
  8
KONSTRUKTIONSELEMENTE
100
AcDbLine
 62
7
  6
CONTINUOUS
 10
180.9404254983
 20
117.778415919
 11
180.9404254983
 21
126.278415919
  0
LINE
  5
4BB
100
AcDbEntity
  8
0
100
AcDbLine
 62
7
  6
CONTINUOUS
 10
181.1327426008
 20
138.178415919
 11
181.1327426008
 21
135.5401180036
  0
LINE
  5
4BC
100
AcDbEntity
  8
0
100
AcDbLine
 62
7
  6
CONTINUOUS
 10
181.2160763315
 20
130.4762882239
 11
181.2160763315
 21
129.8805436141
  0
LINE
  5
4BD
100
AcDbEntity
  8
0
100
AcDbLine
 62
7
  6
CONTINUOUS
 10
181.6327423624
 20
130.5613945968
 11
181.6327423624
 21
129.7954372413
  0
LINE
  5
4BE
100
AcDbEntity
  8
0
100
AcDbLine
 62
7
  6
CONTINUOUS
 10
181.6327428392
 20
138.178415919
 11
181.6327428392
 21
135.5401180036
  0
LINE
  5
4BF
100
AcDbEntity
  8
0
100
AcDbLine
 62
7
  6
CONTINUOUS
 10
181.2160763315
 20
129.8805436141
 11
181.1327423624
 21
129.3699052579
  0
LINE
  5
4C0
100
AcDbEntity
  8
0
100
AcDbLine
 62
7
  6
CONTINUOUS
 10
181.6327423624
 20
129.7954372413
 11
181.5494093469
 21
129.3699052579
  0
LINE
  5
4C1
100
AcDbEntity
  8
0
100
AcDbLine
 62
7
  6
CONTINUOUS
 10
176.8138178862
 20
121.1135222621
 11
176.8679448869
 21
121.3050116903
  0
LINE
  5
4C2
100
AcDbEntity
  8
0
100
AcDbLine
 62
7
  6
CONTINUOUS
 10
177.9169829926
 20
120.9220329232
 11
177.8628559919
 21
120.7305435843
  0
LINE
  5
4C3
100
AcDbEntity
  8
0
100
AcDbLine
 62
7
  6
CONTINUOUS
 10
176.401438123
 20
122.517777682
 11
176.2931853605
 21
122.1986286051
  0
LINE
  5
4C4
100
AcDbEntity
  8
0
100
AcDbLine
 62
7
  6
CONTINUOUS
 10
178.0793627558
 20
120.5390542007
 11
178.1876155183
 21
120.8582031436
  0
LINE
  5
4C5
100
AcDbEntity
  8
0
100
AcDbLine
 62
7
  6
CONTINUOUS
 10
178.3293627558
 20
120.5390542007
 11
178.4376155183
 21
120.8582031436
  0
LINE
  5
4C6
100
AcDbEntity
  8
0
100
AcDbLine
 62
7
  6
CONTINUOUS
 10
175.4812865445
 20
122.1986286051
 11
175.3730331625
 21
121.9433094866
  0
LINE
  5
4C7
100
AcDbEntity
  8
0
100
AcDbLine
 62
7
  6
CONTINUOUS
 10
175.5354129257
 20
120.7305435843
 11
175.4812865445
 21
120.6028840251
  0
LINE
  5
4C8
100
AcDbEntity
  8
0
100
AcDbLine
 62
7
  6
CONTINUOUS
 10
174.1822484388
 20
122.3262883432
 11
174.2905012013
 21
122.517777682
  0
LINE
  5
4C9
100
AcDbEntity
  8
0
100
AcDbLine
 62
7
  6
CONTINUOUS
 10
174.4322484388
 20
122.3262883432
 11
174.5405012013
 21
122.517777682
  0
LINE
  5
4CA
100
AcDbEntity
  8
0
100
AcDbLine
 62
7
  6
CONTINUOUS
 10
175.589539307
 20
121.7518201477
 11
175.6977926889
 21
121.9433094866
  0
LINE
  5
4CB
100
AcDbEntity
  8
0
100
AcDbLine
 62
7
  6
CONTINUOUS
 10
175.839539307
 20
121.7518201477
 11
175.9477926889
 21
121.9433094866
  0
LINE
  5
4CC
100
AcDbEntity
  8
0
100
AcDbLine
 62
7
  6
CONTINUOUS
 10
179.4660763315
 20
131.4975649364
 11
179.1327423624
 21
130.9869264609
  0
LINE
  5
4CD
100
AcDbEntity
  8
0
100
AcDbLine
 62
7
  6
CONTINUOUS
 10
183.5494093469
 20
135.1996925122
 11
183.3827428392
 21
134.9443733937
  0
LINE
  5
4CE
100
AcDbEntity
  8
0
100
AcDbLine
 62
7
  6
CONTINUOUS
 10
170.0686275127
 20
120.2199052803
 11
170.2851339669
 21
120.4752244211
  0
LINE
  5
4CF
100
AcDbEntity
  8
0
100
AcDbLine
 62
7
  6
CONTINUOUS
 10
170.3186275127
 20
120.2199052803
 11
170.5351339669
 21
120.4752244211
  0
LINE
  5
4D0
100
AcDbEntity
  8
0
100
AcDbLine
 62
7
  6
CONTINUOUS
 10
179.2160763315
 20
131.8379904277
 11
178.9660763315
 21
131.5826713092
  0
LINE
  5
4D1
100
AcDbEntity
  8
0
100
AcDbLine
 62
7
  6
CONTINUOUS
 10
183.8827428392
 20
134.7741605885
 11
183.5494093469
 21
134.4337350673
  0
LINE
  5
4D2
100
AcDbEntity
  8
0
100
AcDbLine
 62
7
  6
CONTINUOUS
 10
168.931969209
 20
122.4539479024
 11
169.0943490109
 21
122.5816074617
  0
LINE
  5
4D3
100
AcDbEntity
  8
0
100
AcDbLine
 62
7
  6
CONTINUOUS
 10
175.7994093469
 20
130.3060754783
 11
175.4660758547
 21
130.0507563598
  0
LINE
  5
4D4
100
AcDbEntity
  8
0
100
AcDbLine
 62
7
  6
CONTINUOUS
 10
183.3827428392
 20
134.9443733937
 11
183.1327428392
 21
134.7741605885
  0
LINE
  5
4D5
100
AcDbEntity
  8
0
100
AcDbLine
 62
7
  6
CONTINUOUS
 10
179.7160763315
 20
131.667777682
 11
179.4660763315
 21
131.4975649364
  0
LINE
  5
4D6
100
AcDbEntity
  8
0
100
AcDbLine
 62
7
  6
CONTINUOUS
 10
179.6327423624
 20
132.0933095462
 11
179.2160763315
 21
131.8379904277
  0
LINE
  5
4D7
100
AcDbEntity
  8
0
100
AcDbLine
 62
7
  6
CONTINUOUS
 10
183.5494093469
 20
134.4337350673
 11
183.2160758547
 21
134.2635222993
  0
LINE
  5
4D8
100
AcDbEntity
  8
0
100
AcDbLine
 62
7
  6
CONTINUOUS
 10
171.6327426008
 20
130.5613945968
 11
171.3827426008
 21
130.4762882239
  0
LINE
  5
4D9
100
AcDbEntity
  8
0
100
AcDbLine
 62
7
  6
CONTINUOUS
 10
175.3827428392
 20
130.5613945968
 11
175.1327428392
 21
130.4762882239
  0
LINE
  5
4DA
100
AcDbEntity
  8
0
100
AcDbLine
 62
7
  6
CONTINUOUS
 10
187.1327423624
 20
134.7741605885
 11
186.7994093469
 21
134.6890542156
  0
LINE
  5
4DB
100
AcDbEntity
  8
0
100
AcDbLine
 62
7
  6
CONTINUOUS
 10
175.4660758547
 20
130.0507563598
 11
175.0494093469
 21
129.9656499869
  0
LINE
  5
4DC
100
AcDbEntity
  8
0
100
AcDbLine
 62
7
  6
CONTINUOUS
 10
185.2160763315
 20
132.178415919
 11
184.7994093469
 21
132.0933095462
  0
LINE
  5
4DD
100
AcDbEntity
  8
0
100
AcDbLine
 62
7
  6
CONTINUOUS
 10
180.1327423624
 20
131.7528840549
 11
179.7160763315
 21
131.667777682
  0
LINE
  5
4DE
100
AcDbEntity
  8
0
100
AcDbLine
 62
7
  6
CONTINUOUS
 10
171.7160760931
 20
130.0507563598
 11
171.2994093469
 21
129.9656499869
  0
LINE
  5
4DF
100
AcDbEntity
  8
0
100
AcDbLine
 62
7
  6
CONTINUOUS
 10
187.2160763315
 20
134.2635222993
 11
186.7994093469
 21
134.178415919
  0
LINE
  5
4E0
100
AcDbEntity
  8
0
100
AcDbLine
 62
7
  6
CONTINUOUS
 10
180.1327423624
 20
132.178415919
 11
179.6327423624
 21
132.0933095462
  0
LINE
  5
4E1
100
AcDbEntity
  8
0
100
AcDbLine
 62
7
  6
CONTINUOUS
 10
188.9660753778
 20
132.178415919
 11
188.3827433161
 21
132.0933095462
  0
LINE
  5
4E2
100
AcDbEntity
  8
0
100
AcDbLine
 62
7
  6
CONTINUOUS
 10
188.0494093469
 20
131.2422458179
 11
187.6327433161
 21
131.2422458179
  0
LINE
  5
4E3
100
AcDbEntity
  8
0
100
AcDbLine
 62
7
  6
CONTINUOUS
 10
186.7160753778
 20
131.2422458179
 11
186.2994093469
 21
131.2422458179
  0
LINE
  5
4E4
100
AcDbEntity
  8
0
100
AcDbLine
 62
7
  6
CONTINUOUS
 10
192.2994093469
 20
131.5826713092
 11
191.8827433161
 21
131.5826713092
  0
LINE
  5
4E5
100
AcDbEntity
  8
0
100
AcDbLine
 62
7
  6
CONTINUOUS
 10
189.2160753778
 20
131.7528840549
 11
188.8827433161
 21
131.7528840549
  0
LINE
  5
4E6
100
AcDbEntity
  8
0
100
AcDbLine
 62
7
  6
CONTINUOUS
 10
185.6327433161
 20
131.7528840549
 11
185.1327423624
 21
131.7528840549
  0
LINE
  5
4E7
100
AcDbEntity
  8
0
100
AcDbLine
 62
7
  6
CONTINUOUS
 10
175.1327428392
 20
131.7528840549
 11
173.5494093469
 21
131.7528840549
  0
LINE
  5
4E8
100
AcDbEntity
  8
0
100
AcDbLine
 62
7
  6
CONTINUOUS
 10
171.3827426008
 20
131.7528840549
 11
169.7994093469
 21
131.7528840549
  0
LINE
  5
4E9
100
AcDbEntity
  8
0
100
AcDbLine
 62
7
  6
CONTINUOUS
 10
189.1327433161
 20
132.178415919
 11
188.9660753778
 21
132.178415919
  0
LINE
  5
4EA
100
AcDbEntity
  8
0
100
AcDbLine
 62
7
  6
CONTINUOUS
 10
185.5494093469
 20
132.178415919
 11
185.2160763315
 21
132.178415919
  0
LINE
  5
4EB
100
AcDbEntity
  8
0
100
AcDbLine
 62
7
  6
CONTINUOUS
 10
175.0494093469
 20
132.178415919
 11
173.0494093469
 21
132.178415919
  0
LINE
  5
4EC
100
AcDbEntity
  8
0
100
AcDbLine
 62
7
  6
CONTINUOUS
 10
171.2994093469
 20
132.178415919
 11
169.2994093469
 21
132.178415919
  0
LINE
  5
4ED
100
AcDbEntity
  8
0
100
AcDbLine
 62
7
  6
CONTINUOUS
 10
189.7160753778
 20
132.0933095462
 11
189.1327433161
 21
132.178415919
  0
LINE
  5
4EE
100
AcDbEntity
  8
0
100
AcDbLine
 62
7
  6
CONTINUOUS
 10
189.7160753778
 20
129.9656499869
 11
189.2160753778
 21
130.0507563598
  0
LINE
  5
4EF
100
AcDbEntity
  8
0
100
AcDbLine
 62
7
  6
CONTINUOUS
 10
180.6327423624
 20
132.0933095462
 11
180.1327423624
 21
132.178415919
  0
LINE
  5
4F0
100
AcDbEntity
  8
0
100
AcDbLine
 62
7
  6
CONTINUOUS
 10
180.5494093469
 20
131.667777682
 11
180.1327423624
 21
131.7528840549
  0
LINE
  5
4F1
100
AcDbEntity
  8
0
100
AcDbLine
 62
7
  6
CONTINUOUS
 10
186.0494093469
 20
130.6465009696
 11
185.6327433161
 21
130.7316073424
  0
LINE
  5
4F2
100
AcDbEntity
  8
0
100
AcDbLine
 62
7
  6
CONTINUOUS
 10
185.9660753778
 20
132.0933095462
 11
185.5494093469
 21
132.178415919
  0
LINE
  5
4F3
100
AcDbEntity
  8
0
100
AcDbLine
 62
7
  6
CONTINUOUS
 10
189.6327433161
 20
131.667777682
 11
189.2160753778
 21
131.7528840549
  0
LINE
  5
4F4
100
AcDbEntity
  8
0
100
AcDbLine
 62
7
  6
CONTINUOUS
 10
185.9660753778
 20
130.2209691054
 11
185.7160753778
 21
130.3060754783
  0
LINE
  5
4F5
100
AcDbEntity
  8
0
100
AcDbLine
 62
7
  6
CONTINUOUS
 10
192.5494093469
 20
128.2635222993
 11
192.2994093469
 21
128.3486286796
  0
LINE
  5
4F6
100
AcDbEntity
  8
0
100
AcDbLine
 62
7
  6
CONTINUOUS
 10
185.8827433161
 20
131.667777682
 11
185.6327433161
 21
131.7528840549
  0
LINE
  5
4F7
100
AcDbEntity
  8
0
100
AcDbLine
 62
7
  6
CONTINUOUS
 10
190.2994093469
 20
130.0507563598
 11
189.8827433161
 21
130.2209691054
  0
LINE
  5
4F8
100
AcDbEntity
  8
0
100
AcDbLine
 62
7
  6
CONTINUOUS
 10
188.3827433161
 20
128.2635222993
 11
188.0494093469
 21
128.4337350673
  0
LINE
  5
4F9
100
AcDbEntity
  8
0
100
AcDbLine
 62
7
  6
CONTINUOUS
 10
188.3827433161
 20
128.6890542156
 11
188.2160753778
 21
128.7741605885
  0
LINE
  5
4FA
100
AcDbEntity
  8
0
100
AcDbLine
 62
7
  6
CONTINUOUS
 10
195.0042589662
 20
123.6730968005
 11
194.715583281
 21
123.8433095462
  0
LINE
  5
4FB
100
AcDbEntity
  8
0
100
AcDbLine
 62
7
  6
CONTINUOUS
 10
195.2542589662
 20
123.6730968005
 11
194.965583281
 21
123.8433095462
  0
LINE
  5
4FC
100
AcDbEntity
  8
0
100
AcDbLine
 62
7
  6
CONTINUOUS
 10
181.0494093469
 20
131.8379904277
 11
180.6327423624
 21
132.0933095462
  0
LINE
  5
4FD
100
AcDbEntity
  8
0
100
AcDbLine
 62
7
  6
CONTINUOUS
 10
186.4660753778
 20
130.3911818511
 11
186.0494093469
 21
130.6465009696
  0
LINE
  5
4FE
100
AcDbEntity
  8
0
100
AcDbLine
 62
7
  6
CONTINUOUS
 10
188.0494093469
 20
128.4337350673
 11
187.7994093469
 21
128.6039478428
  0
LINE
  5
4FF
100
AcDbEntity
  8
0
100
AcDbLine
 62
7
  6
CONTINUOUS
 10
186.2160753778
 20
130.0507563598
 11
185.9660753778
 21
130.2209691054
  0
LINE
  5
500
100
AcDbEntity
  8
0
100
AcDbLine
 62
7
  6
CONTINUOUS
 10
194.8212462643
 20
123.417777682
 11
195.0377526152
 21
123.2475649364
  0
LINE
  5
501
100
AcDbEntity
  8
0
100
AcDbLine
 62
7
  6
CONTINUOUS
 10
181.2994093469
 20
131.5826713092
 11
181.0494093469
 21
131.8379904277
  0
LINE
  5
502
100
AcDbEntity
  8
0
100
AcDbLine
 62
7
  6
CONTINUOUS
 10
184.3827423624
 20
128.5188414402
 11
184.1327423624
 21
128.8592669613
  0
LINE
  5
503
100
AcDbEntity
  8
0
100
AcDbLine
 62
7
  6
CONTINUOUS
 10
184.6327423624
 20
128.8592669613
 11
184.4660763315
 21
129.1145861394
  0
LINE
  5
504
100
AcDbEntity
  8
0
100
AcDbLine
 62
7
  6
CONTINUOUS
 10
181.4660763315
 20
131.2422458179
 11
181.2994093469
 21
131.5826713092
  0
LINE
  5
505
100
AcDbEntity
  8
0
100
AcDbLine
 62
7
  6
CONTINUOUS
 10
181.3827428392
 20
134.7741605885
 11
181.2160760931
 21
135.1145861394
  0
LINE
  5
506
100
AcDbEntity
  8
0
100
AcDbLine
 62
7
  6
CONTINUOUS
 10
184.1327423624
 20
128.8592669613
 11
183.9660763315
 21
129.2847988851
  0
LINE
  5
507
100
AcDbEntity
  8
0
100
AcDbLine
 62
7
  6
CONTINUOUS
 10
180.4660760931
 20
134.178415919
 11
179.7160760931
 21
136.1358627326
  0
LINE
  5
508
100
AcDbEntity
  8
0
100
AcDbLine
 62
7
  6
CONTINUOUS
 10
179.8827426008
 20
134.178415919
 11
179.2160759739
 21
135.9656499869
  0
LINE
  5
509
100
AcDbEntity
  8
0
100
AcDbLine
 62
7
  6
CONTINUOUS
 10
181.5494093469
 20
130.9869264609
 11
181.4660763315
 21
131.2422458179
  0
LINE
  5
50A
100
AcDbEntity
  8
0
100
AcDbLine
 62
7
  6
CONTINUOUS
 10
179.8827426008
 20
137.2422458179
 11
179.7994093469
 21
137.4975649364
  0
LINE
  5
50B
100
AcDbEntity
  8
0
100
AcDbLine
 62
7
  6
CONTINUOUS
 10
180.3827426008
 20
137.2422458179
 11
180.2994093469
 21
137.4975649364
  0
LINE
  5
50C
100
AcDbEntity
  8
0
100
AcDbLine
 62
7
  6
CONTINUOUS
 10
181.7160758547
 20
135.1996925122
 11
181.6327428392
 21
135.5401180036
  0
LINE
  5
50D
100
AcDbEntity
  8
0
100
AcDbLine
 62
7
  6
CONTINUOUS
 10
181.6327423624
 20
130.5613945968
 11
181.5494093469
 21
130.9869264609
  0
LINE
  5
50E
100
AcDbEntity
  8
0
100
AcDbLine
 62
7
  6
CONTINUOUS
 10
181.2160760931
 20
135.1145861394
 11
181.1327426008
 21
135.5401180036
  0
LINE
  5
50F
100
AcDbEntity
  8
0
100
AcDbLine
 62
7
  6
CONTINUOUS
 10
181.2160763315
 20
130.4762882239
 11
181.1327423624
 21
130.9869264609
  0
LINE
  5
510
100
AcDbEntity
  8
0
100
AcDbLine
 62
7
  6
CONTINUOUS
 10
183.6327428392
 20
138.178415919
 11
183.6327428392
 21
135.5401180036
  0
LINE
  5
511
100
AcDbEntity
  8
KONSTRUKTIONSELEMENTE
100
AcDbLine
 62
7
  6
CONTINUOUS
 10
183.6583931956
 20
117.778415919
 11
183.6583931956
 21
126.278415919
  0
LINE
  5
512
100
AcDbEntity
  8
0
100
AcDbLine
 62
7
  6
CONTINUOUS
 10
183.8827423624
 20
130.4762882239
 11
183.8827423624
 21
129.8805436141
  0
LINE
  5
513
100
AcDbEntity
  8
0
100
AcDbLine
 62
7
  6
CONTINUOUS
 10
184.1327428392
 20
138.178415919
 11
184.1327428392
 21
135.5401180036
  0
LINE
  5
514
100
AcDbEntity
  8
0
100
AcDbLine
 62
7
  6
CONTINUOUS
 10
184.2994093469
 20
130.4762882239
 11
184.2994093469
 21
130.3060754783
  0
LINE
  5
515
100
AcDbEntity
  8
RUNDUNGEN
100
AcDbLine
 62
7
  6
CONTINUOUS
 10
184.2994093469
 20
159.247084516
 11
184.2994093469
 21
164.5290312223
  0
LINE
  5
516
100
AcDbEntity
  8
0
100
AcDbLine
 62
7
  6
CONTINUOUS
 10
184.3827423624
 20
129.6252243764
 11
184.3827423624
 21
129.3699052579
  0
LINE
  5
517
100
AcDbEntity
  8
0
100
AcDbLine
 62
7
  6
CONTINUOUS
 10
184.7994093469
 20
138.178415919
 11
184.7994093469
 21
134.178415919
  0
LINE
  5
518
100
AcDbEntity
  8
0
100
AcDbLine
 62
7
  6
CONTINUOUS
 10
183.9660763315
 20
131.0720328338
 11
183.8827423624
 21
130.4762882239
  0
LINE
  5
519
100
AcDbEntity
  8
0
100
AcDbLine
 62
7
  6
CONTINUOUS
 10
184.3827423624
 20
130.9869264609
 11
184.2994093469
 21
130.4762882239
  0
LINE
  5
51A
100
AcDbEntity
  8
0
100
AcDbLine
 62
7
  6
CONTINUOUS
 10
184.1327428392
 20
135.5401180036
 11
184.0494093469
 21
135.1145861394
  0
LINE
  5
51B
100
AcDbEntity
  8
0
100
AcDbLine
 62
7
  6
CONTINUOUS
 10
183.6327428392
 20
135.5401180036
 11
183.5494093469
 21
135.1996925122
  0
LINE
  5
51C
100
AcDbEntity
  8
0
100
AcDbLine
 62
7
  6
CONTINUOUS
 10
181.5494093469
 20
129.3699052579
 11
181.4660763315
 21
129.1145861394
  0
LINE
  5
51D
100
AcDbEntity
  8
0
100
AcDbLine
 62
7
  6
CONTINUOUS
 10
184.4660763315
 20
131.2422458179
 11
184.3827423624
 21
130.9869264609
  0
LINE
  5
51E
100
AcDbEntity
  8
0
100
AcDbLine
 62
7
  6
CONTINUOUS
 10
184.1327423624
 20
131.4975649364
 11
183.9660763315
 21
131.0720328338
  0
LINE
  5
51F
100
AcDbEntity
  8
0
100
AcDbLine
 62
7
  6
CONTINUOUS
 10
184.0494093469
 20
135.1145861394
 11
183.8827428392
 21
134.7741605885
  0
LINE
  5
520
100
AcDbEntity
  8
0
100
AcDbLine
 62
7
  6
CONTINUOUS
 10
181.4660763315
 20
129.1145861394
 11
181.2994093469
 21
128.7741605885
  0
LINE
  5
521
100
AcDbEntity
  8
0
100
AcDbLine
 62
7
  6
CONTINUOUS
 10
182.7994093469
 20
128.6039478428
 11
182.2994093469
 21
127.6677776224
  0
LINE
  5
522
100
AcDbEntity
  8
0
100
AcDbLine
 62
7
  6
CONTINUOUS
 10
176.6179448869
 20
122.3262883432
 11
176.7261976495
 21
122.517777682
  0
LINE
  5
523
100
AcDbEntity
  8
0
100
AcDbLine
 62
7
  6
CONTINUOUS
 10
175.6436663077
 20
120.3475648619
 11
175.7519190702
 21
120.5390542007
  0
LINE
  5
524
100
AcDbEntity
  8
0
100
AcDbLine
 62
7
  6
CONTINUOUS
 10
176.8679448869
 20
122.3262883432
 11
176.9761976495
 21
122.517777682
  0
LINE
  5
525
100
AcDbEntity
  8
0
100
AcDbLine
 62
7
  6
CONTINUOUS
 10
175.8936663077
 20
120.3475648619
 11
176.0019190702
 21
120.5390542007
  0
LINE
  5
526
100
AcDbEntity
  8
0
100
AcDbLine
 62
7
  6
CONTINUOUS
 10
177.8628559919
 20
120.7305435843
 11
177.7546032294
 21
120.5390542007
  0
LINE
  5
527
100
AcDbEntity
  8
0
100
AcDbLine
 62
7
  6
CONTINUOUS
 10
176.5638178862
 20
122.7730968005
 11
176.401438123
 21
122.517777682
  0
LINE
  5
528
100
AcDbEntity
  8
0
100
AcDbLine
 62
7
  6
CONTINUOUS
 10
181.1327423624
 20
129.3699052579
 11
180.7994093469
 21
128.8592669613
  0
LINE
  5
529
100
AcDbEntity
  8
0
100
AcDbLine
 62
7
  6
CONTINUOUS
 10
184.3827423624
 20
131.8379904277
 11
184.1327423624
 21
131.4975649364
  0
LINE
  5
52A
100
AcDbEntity
  8
0
100
AcDbLine
 62
7
  6
CONTINUOUS
 10
174.1822484388
 20
122.8369265802
 11
173.9657416749
 21
122.5816074617
  0
LINE
  5
52B
100
AcDbEntity
  8
0
100
AcDbLine
 62
7
  6
CONTINUOUS
 10
175.3730331625
 20
121.9433094866
 11
175.2647797806
 21
121.8156499273
  0
LINE
  5
52C
100
AcDbEntity
  8
0
100
AcDbLine
 62
7
  6
CONTINUOUS
 10
181.2994093469
 20
128.7741605885
 11
181.0494093469
 21
128.5188414402
  0
LINE
  5
52D
100
AcDbEntity
  8
0
100
AcDbLine
 62
7
  6
CONTINUOUS
 10
169.181969209
 20
122.4539479024
 11
169.3443490109
 21
122.5816074617
  0
LINE
  5
52E
100
AcDbEntity
  8
0
100
AcDbLine
 62
7
  6
CONTINUOUS
 10
169.9603744405
 20
120.6028840251
 11
169.7979946773
 21
120.4752244211
  0
LINE
  5
52F
100
AcDbEntity
  8
0
100
AcDbLine
 62
7
  6
CONTINUOUS
 10
187.3827423624
 20
134.9443733937
 11
187.1327423624
 21
134.7741605885
  0
LINE
  5
530
100
AcDbEntity
  8
0
100
AcDbLine
 62
7
  6
CONTINUOUS
 10
184.8827423624
 20
131.667777682
 11
184.6327423624
 21
131.4975649364
  0
LINE
  5
531
100
AcDbEntity
  8
0
100
AcDbLine
 62
7
  6
CONTINUOUS
 10
180.7994093469
 20
128.8592669613
 11
180.5494093469
 21
128.6890542156
  0
LINE
  5
532
100
AcDbEntity
  8
0
100
AcDbLine
 62
7
  6
CONTINUOUS
 10
184.7994093469
 20
132.0933095462
 11
184.3827423624
 21
131.8379904277
  0
LINE
  5
533
100
AcDbEntity
  8
0
100
AcDbLine
 62
7
  6
CONTINUOUS
 10
169.0402223973
 20
122.9645861394
 11
168.8237160593
 21
122.8369265802
  0
LINE
  5
534
100
AcDbEntity
  8
0
100
AcDbLine
 62
7
  6
CONTINUOUS
 10
187.5494093469
 20
134.4337350673
 11
187.2160763315
 21
134.2635222993
  0
LINE
  5
535
100
AcDbEntity
  8
0
100
AcDbLine
 62
7
  6
CONTINUOUS
 10
185.1327423624
 20
131.7528840549
 11
184.8827423624
 21
131.667777682
  0
LINE
  5
536
100
AcDbEntity
  8
0
100
AcDbLine
 62
7
  6
CONTINUOUS
 10
183.1327428392
 20
134.7741605885
 11
182.7994093469
 21
134.6890542156
  0
LINE
  5
537
100
AcDbEntity
  8
0
100
AcDbLine
 62
7
  6
CONTINUOUS
 10
183.2160758547
 20
134.2635222993
 11
182.7994093469
 21
134.178415919
  0
LINE
  5
538
100
AcDbEntity
  8
0
100
AcDbLine
 62
7
  6
CONTINUOUS
 10
186.7994093469
 20
134.178415919
 11
184.7994093469
 21
134.178415919
  0
LINE
  5
539
100
AcDbEntity
  8
0
100
AcDbLine
 62
7
  6
CONTINUOUS
 10
182.7994093469
 20
134.178415919
 11
182.4660758547
 21
134.178415919
  0
LINE
  5
53A
100
AcDbEntity
  8
0
100
AcDbLine
 62
7
  6
CONTINUOUS
 10
180.4660760931
 20
134.178415919
 11
179.8827426008
 21
134.178415919
  0
LINE
  5
53B
100
AcDbEntity
  8
0
100
AcDbLine
 62
7
  6
CONTINUOUS
 10
177.7994093469
 20
134.178415919
 11
177.2994093469
 21
134.178415919
  0
LINE
  5
53C
100
AcDbEntity
  8
0
100
AcDbLine
 62
7
  6
CONTINUOUS
 10
186.7994093469
 20
134.6890542156
 11
185.2994093469
 21
134.6890542156
  0
LINE
  5
53D
100
AcDbEntity
  8
0
100
AcDbLine
 62
7
  6
CONTINUOUS
 10
182.7994093469
 20
134.6890542156
 11
182.4660758547
 21
134.6890542156
  0
LINE
  5
53E
100
AcDbEntity
  8
0
100
AcDbLine
 62
7
  6
CONTINUOUS
 10
179.2160759739
 20
135.9656499869
 11
177.7994093469
 21
135.9656499869
  0
LINE
  5
53F
100
AcDbEntity
  8
0
100
AcDbLine
 62
7
  6
CONTINUOUS
 10
182.4660758547
 20
134.178415919
 11
182.0494093469
 21
134.2635222993
  0
LINE
  5
540
100
AcDbEntity
  8
0
100
AcDbLine
 62
7
  6
CONTINUOUS
 10
182.4660758547
 20
134.6890542156
 11
182.1327428392
 21
134.7741605885
  0
LINE
  5
541
100
AcDbEntity
  8
0
100
AcDbLine
 62
7
  6
CONTINUOUS
 10
182.0494093469
 20
134.2635222993
 11
181.7160758547
 21
134.4337350673
  0
LINE
  5
542
100
AcDbEntity
  8
0
100
AcDbLine
 62
7
  6
CONTINUOUS
 10
190.0494093469
 20
131.9230968005
 11
189.7160753778
 21
132.0933095462
  0
LINE
  5
543
100
AcDbEntity
  8
0
100
AcDbLine
 62
7
  6
CONTINUOUS
 10
186.3827433161
 20
131.8379904277
 11
185.9660753778
 21
132.0933095462
  0
LINE
  5
544
100
AcDbEntity
  8
0
100
AcDbLine
 62
7
  6
CONTINUOUS
 10
186.1327433161
 20
131.4975649364
 11
185.8827433161
 21
131.667777682
  0
LINE
  5
545
100
AcDbEntity
  8
0
100
AcDbLine
 62
7
  6
CONTINUOUS
 10
182.1327428392
 20
134.7741605885
 11
181.8827428392
 21
134.9443733937
  0
LINE
  5
546
100
AcDbEntity
  8
0
100
AcDbLine
 62
7
  6
CONTINUOUS
 10
189.9660753778
 20
129.7954372413
 11
189.7160753778
 21
129.9656499869
  0
LINE
  5
547
100
AcDbEntity
  8
0
100
AcDbLine
 62
7
  6
CONTINUOUS
 10
192.2994093469
 20
128.3486286796
 11
192.0494093469
 21
128.5188414402
  0
LINE
  5
548
100
AcDbEntity
  8
0
100
AcDbLine
 62
7
  6
CONTINUOUS
 10
192.6327433161
 20
128.6039478428
 11
192.3827433161
 21
128.7741605885
  0
LINE
  5
549
100
AcDbEntity
  8
0
100
AcDbLine
 62
7
  6
CONTINUOUS
 10
189.8827433161
 20
131.4975649364
 11
189.6327433161
 21
131.667777682
  0
LINE
  5
54A
100
AcDbEntity
  8
0
100
AcDbLine
 62
7
  6
CONTINUOUS
 10
180.0494093469
 20
137.8379904277
 11
179.7160760931
 21
138.0933095462
  0
LINE
  5
54B
100
AcDbEntity
  8
0
100
AcDbLine
 62
7
  6
CONTINUOUS
 10
181.7160758547
 20
134.4337350673
 11
181.3827428392
 21
134.7741605885
  0
LINE
  5
54C
100
AcDbEntity
  8
0
100
AcDbLine
 62
7
  6
CONTINUOUS
 10
186.3827433161
 20
129.8805436141
 11
186.2160753778
 21
130.0507563598
  0
LINE
  5
54D
100
AcDbEntity
  8
0
100
AcDbLine
 62
7
  6
CONTINUOUS
 10
186.7160753778
 20
130.1358627326
 11
186.4660753778
 21
130.3911818511
  0
LINE
  5
54E
100
AcDbEntity
  8
0
100
AcDbLine
 62
7
  6
CONTINUOUS
 10
188.2160753778
 20
128.7741605885
 11
188.0494093469
 21
128.9443733937
  0
LINE
  5
54F
100
AcDbEntity
  8
0
100
AcDbLine
 62
7
  6
CONTINUOUS
 10
179.7994093469
 20
137.4975649364
 11
179.6327426008
 21
137.667777682
  0
LINE
  5
550
100
AcDbEntity
  8
0
100
AcDbLine
 62
7
  6
CONTINUOUS
 10
180.2994093469
 20
137.4975649364
 11
180.0494093469
 21
137.8379904277
  0
LINE
  5
551
100
AcDbEntity
  8
0
100
AcDbLine
 62
7
  6
CONTINUOUS
 10
186.6327433161
 20
131.4975649364
 11
186.3827433161
 21
131.8379904277
  0
LINE
  5
552
100
AcDbEntity
  8
0
100
AcDbLine
 62
7
  6
CONTINUOUS
 10
181.8827428392
 20
134.9443733937
 11
181.7160758547
 21
135.1996925122
  0
LINE
  5
553
100
AcDbEntity
  8
0
100
AcDbLine
 62
7
  6
CONTINUOUS
 10
187.7994093469
 20
128.6039478428
 11
187.6327433161
 21
128.8592669613
  0
LINE
  5
554
100
AcDbEntity
  8
0
100
AcDbLine
 62
7
  6
CONTINUOUS
 10
186.2994093469
 20
131.2422458179
 11
186.1327433161
 21
131.4975649364
  0
LINE
  5
555
100
AcDbEntity
  8
0
100
AcDbLine
 62
7
  6
CONTINUOUS
 10
184.4660763315
 20
129.1145861394
 11
184.3827423624
 21
129.3699052579
  0
LINE
  5
556
100
AcDbEntity
  8
0
100
AcDbLine
 62
7
  6
CONTINUOUS
 10
186.4660753778
 20
129.6252243764
 11
186.3827433161
 21
129.8805436141
  0
LINE
  5
557
100
AcDbEntity
  8
0
100
AcDbLine
 62
7
  6
CONTINUOUS
 10
187.9652115424
 20
123.0773521907
 11
188.975574479
 21
119.928415919
  0
LINE
  5
558
100
AcDbEntity
  8
0
100
AcDbLine
 62
7
  6
CONTINUOUS
 10
189.014249648
 20
120.3539478428
 11
187.9317178933
 21
123.928415919
  0
LINE
  5
559
100
AcDbEntity
  8
0
100
AcDbLine
 62
7
  6
CONTINUOUS
 10
183.9660763315
 20
129.2847988851
 11
183.8827423624
 21
129.8805436141
  0
LINE
  5
55A
100
AcDbEntity
  8
0
100
AcDbLine
 62
7
  6
CONTINUOUS
 10
185.2994093469
 20
137.667777682
 11
185.2994093469
 21
134.6890542156
  0
LINE
  5
55B
100
AcDbEntity
  8
0
100
AcDbLine
 62
7
  6
CONTINUOUS
 10
186.4660753778
 20
129.6252243764
 11
186.4660753778
 21
129.3699052579
  0
LINE
  5
55C
100
AcDbEntity
  8
0
100
AcDbLine
 62
7
  6
CONTINUOUS
 10
186.8827433161
 20
129.7103308684
 11
186.8827433161
 21
129.2847988851
  0
LINE
  5
55D
100
AcDbEntity
  8
0
100
AcDbLine
 62
7
  6
CONTINUOUS
 10
187.5321988405
 20
123.928415919
 11
187.5321988405
 21
119.928415919
  0
LINE
  5
55E
100
AcDbEntity
  8
0
100
AcDbLine
 62
7
  6
CONTINUOUS
 10
187.6327423624
 20
136.8167137153
 11
187.6327423624
 21
135.5401180036
  0
LINE
  5
55F
100
AcDbEntity
  8
0
100
AcDbLine
 62
7
  6
CONTINUOUS
 10
188.1327423624
 20
135.5401180036
 11
188.0494093469
 21
135.1145861394
  0
LINE
  5
560
100
AcDbEntity
  8
0
100
AcDbLine
 62
7
  6
CONTINUOUS
 10
187.6327423624
 20
135.5401180036
 11
187.5494093469
 21
135.1996925122
  0
LINE
  5
561
100
AcDbEntity
  8
0
100
AcDbLine
 62
7
  6
CONTINUOUS
 10
184.4660763315
 20
129.8805436141
 11
184.3827423624
 21
129.6252243764
  0
LINE
  5
562
100
AcDbEntity
  8
0
100
AcDbLine
 62
7
  6
CONTINUOUS
 10
186.4660753778
 20
129.3699052579
 11
186.3827433161
 21
129.1145861394
  0
LINE
  5
563
100
AcDbEntity
  8
0
100
AcDbLine
 62
7
  6
CONTINUOUS
 10
188.0494093469
 20
135.1145861394
 11
187.8827423624
 21
134.7741605885
  0
LINE
  5
564
100
AcDbEntity
  8
0
100
AcDbLine
 62
7
  6
CONTINUOUS
 10
183.2160763315
 20
128.6039478428
 11
182.7160763315
 21
127.6677776224
  0
LINE
  5
565
100
AcDbEntity
  8
0
100
AcDbLine
 62
7
  6
CONTINUOUS
 10
177.9169829926
 20
120.2837350599
 11
178.0793627558
 21
120.5390542007
  0
LINE
  5
566
100
AcDbEntity
  8
0
100
AcDbLine
 62
7
  6
CONTINUOUS
 10
178.1669829926
 20
120.2837350599
 11
178.3293627558
 21
120.5390542007
  0
LINE
  5
567
100
AcDbEntity
  8
0
100
AcDbLine
 62
7
  6
CONTINUOUS
 10
184.6327423624
 20
131.4975649364
 11
184.4660763315
 21
131.2422458179
  0
LINE
  5
568
100
AcDbEntity
  8
0
100
AcDbLine
 62
7
  6
CONTINUOUS
 10
187.5494093469
 20
135.1996925122
 11
187.3827423624
 21
134.9443733937
  0
LINE
  5
569
100
AcDbEntity
  8
0
100
AcDbLine
 62
7
  6
CONTINUOUS
 10
175.4812865445
 20
120.6028840251
 11
175.3730331625
 21
120.4752244211
  0
LINE
  5
56A
100
AcDbEntity
  8
0
100
AcDbLine
 62
7
  6
CONTINUOUS
 10
176.6179448869
 20
121.3050116903
 11
176.7261976495
 21
121.4326712496
  0
LINE
  5
56B
100
AcDbEntity
  8
0
100
AcDbLine
 62
7
  6
CONTINUOUS
 10
176.8679448869
 20
121.3050116903
 11
176.9761976495
 21
121.4326712496
  0
LINE
  5
56C
100
AcDbEntity
  8
0
100
AcDbLine
 62
7
  6
CONTINUOUS
 10
187.8827423624
 20
134.7741605885
 11
187.5494093469
 21
134.4337350673
  0
LINE
  5
56D
100
AcDbEntity
  8
0
100
AcDbLine
 62
7
  6
CONTINUOUS
 10
184.6327423624
 20
130.0507563598
 11
184.4660763315
 21
129.8805436141
  0
LINE
  5
56E
100
AcDbEntity
  8
0
100
AcDbLine
 62
7
  6
CONTINUOUS
 10
188.0494093469
 20
131.9230968005
 11
187.7160753778
 21
131.5826713092
  0
LINE
  5
56F
100
AcDbEntity
  8
0
100
AcDbLine
 62
7
  6
CONTINUOUS
 10
175.3730331625
 20
121.5603308088
 11
175.589539307
 21
121.7518201477
  0
LINE
  5
570
100
AcDbEntity
  8
0
100
AcDbLine
 62
7
  6
CONTINUOUS
 10
175.6230331625
 20
121.5603308088
 11
175.839539307
 21
121.7518201477
  0
LINE
  5
571
100
AcDbEntity
  8
0
100
AcDbLine
 62
7
  6
CONTINUOUS
 10
174.2905012013
 20
122.517777682
 11
174.4528809645
 21
122.6454372413
  0
LINE
  5
572
100
AcDbEntity
  8
0
100
AcDbLine
 62
7
  6
CONTINUOUS
 10
174.5405012013
 20
122.517777682
 11
174.7028809645
 21
122.6454372413
  0
LINE
  5
573
100
AcDbEntity
  8
0
100
AcDbLine
 62
7
  6
CONTINUOUS
 10
176.7261976495
 20
122.517777682
 11
176.8885774127
 21
122.6454372413
  0
LINE
  5
574
100
AcDbEntity
  8
0
100
AcDbLine
 62
7
  6
CONTINUOUS
 10
176.9761976495
 20
122.517777682
 11
177.1385774127
 21
122.6454372413
  0
LINE
  5
575
100
AcDbEntity
  8
0
100
AcDbLine
 62
7
  6
CONTINUOUS
 10
176.8344510314
 20
122.9645861394
 11
176.5638178862
 21
122.7730968005
  0
LINE
  5
576
100
AcDbEntity
  8
0
100
AcDbLine
 62
7
  6
CONTINUOUS
 10
184.7994093469
 20
130.6465009696
 11
184.2994093469
 21
130.3060754783
  0
LINE
  5
577
100
AcDbEntity
  8
0
100
AcDbLine
 62
7
  6
CONTINUOUS
 10
184.8827423624
 20
130.2209691054
 11
184.6327423624
 21
130.0507563598
  0
LINE
  5
578
100
AcDbEntity
  8
0
100
AcDbLine
 62
7
  6
CONTINUOUS
 10
188.4660753778
 20
131.667777682
 11
188.2160753778
 21
131.4975649364
  0
LINE
  5
579
100
AcDbEntity
  8
0
100
AcDbLine
 62
7
  6
CONTINUOUS
 10
181.0494093469
 20
128.5188414402
 11
180.6327423624
 21
128.2635222993
  0
LINE
  5
57A
100
AcDbEntity
  8
0
100
AcDbLine
 62
7
  6
CONTINUOUS
 10
174.3987545833
 20
122.9645861394
 11
174.1822484388
 21
122.8369265802
  0
LINE
  5
57B
100
AcDbEntity
  8
0
100
AcDbLine
 62
7
  6
CONTINUOUS
 10
169.8521212134
 20
120.0922457042
 11
170.0686275127
 21
120.2199052803
  0
LINE
  5
57C
100
AcDbEntity
  8
0
100
AcDbLine
 62
7
  6
CONTINUOUS
 10
170.1021212134
 20
120.0922457042
 11
170.3186275127
 21
120.2199052803
  0
LINE
  5
57D
100
AcDbEntity
  8
0
100
AcDbLine
 62
7
  6
CONTINUOUS
 10
188.3827433161
 20
132.0933095462
 11
188.0494093469
 21
131.9230968005
  0
LINE
  5
57E
100
AcDbEntity
  8
0
100
AcDbLine
 62
7
  6
CONTINUOUS
 10
169.0943490109
 20
122.5816074617
 11
169.2567287741
 21
122.6454372413
  0
LINE
  5
57F
100
AcDbEntity
  8
0
100
AcDbLine
 62
7
  6
CONTINUOUS
 10
169.3443490109
 20
122.5816074617
 11
169.5067287741
 21
122.6454372413
  0
LINE
  5
580
100
AcDbEntity
  8
0
100
AcDbLine
 62
7
  6
CONTINUOUS
 10
185.1327423624
 20
130.3060754783
 11
184.8827423624
 21
130.2209691054
  0
LINE
  5
581
100
AcDbEntity
  8
0
100
AcDbLine
 62
7
  6
CONTINUOUS
 10
189.7160753778
 20
130.5613945968
 11
189.2160753778
 21
130.3911818511
  0
LINE
  5
582
100
AcDbEntity
  8
0
100
AcDbLine
 62
7
  6
CONTINUOUS
 10
179.3827426008
 20
136.4762882239
 11
177.7994093469
 21
136.4762882239
  0
LINE
  5
583
100
AcDbEntity
  8
0
100
AcDbLine
 62
7
  6
CONTINUOUS
 10
186.7994093469
 20
137.667777682
 11
185.2994093469
 21
137.667777682
  0
LINE
  5
584
100
AcDbEntity
  8
0
100
AcDbLine
 62
7
  6
CONTINUOUS
 10
179.3827426008
 20
137.7528840549
 11
177.7994093469
 21
137.7528840549
  0
LINE
  5
585
100
AcDbEntity
  8
0
100
AcDbLine
 62
7
  6
CONTINUOUS
 10
186.7994093469
 20
138.178415919
 11
184.7994093469
 21
138.178415919
  0
LINE
  5
586
100
AcDbEntity
  8
0
100
AcDbLine
 62
7
  6
CONTINUOUS
 10
184.1327428392
 20
138.178415919
 11
183.6327428392
 21
138.178415919
  0
LINE
  5
587
100
AcDbEntity
  8
0
100
AcDbLine
 62
7
  6
CONTINUOUS
 10
181.6327428392
 20
138.178415919
 11
181.1327426008
 21
138.178415919
  0
LINE
  5
588
100
AcDbEntity
  8
0
100
AcDbLine
 62
7
  6
CONTINUOUS
 10
179.2994093469
 20
138.178415919
 11
177.2994093469
 21
138.178415919
  0
LINE
  5
589
100
AcDbEntity
  8
0
100
AcDbLine
 62
7
  6
CONTINUOUS
 10
179.7160760931
 20
138.0933095462
 11
179.2994093469
 21
138.178415919
  0
LINE
  5
58A
100
AcDbEntity
  8
0
100
AcDbLine
 62
7
  6
CONTINUOUS
 10
179.6327426008
 20
137.667777682
 11
179.3827426008
 21
137.7528840549
  0
LINE
  5
58B
100
AcDbEntity
  8
0
100
AcDbLine
 62
7
  6
CONTINUOUS
 10
190.3827433161
 20
131.5826713092
 11
190.0494093469
 21
131.9230968005
  0
LINE
  5
58C
100
AcDbEntity
  8
0
100
AcDbLine
 62
7
  6
CONTINUOUS
 10
195.2929338255
 20
123.3326713092
 11
195.0042589662
 21
123.6730968005
  0
LINE
  5
58D
100
AcDbEntity
  8
0
100
AcDbLine
 62
7
  6
CONTINUOUS
 10
195.5429338255
 20
123.3326713092
 11
195.2542589662
 21
123.6730968005
  0
LINE
  5
58E
100
AcDbEntity
  8
0
100
AcDbLine
 62
7
  6
CONTINUOUS
 10
190.4660753778
 20
129.7954372413
 11
190.2994093469
 21
130.0507563598
  0
LINE
  5
58F
100
AcDbEntity
  8
0
100
AcDbLine
 62
7
  6
CONTINUOUS
 10
190.0494093469
 20
131.2422458179
 11
189.8827433161
 21
131.4975649364
  0
LINE
  5
590
100
AcDbEntity
  8
0
100
AcDbLine
 62
7
  6
CONTINUOUS
 10
188.0494093469
 20
128.9443733937
 11
187.9660753778
 21
129.1145861394
  0
LINE
  5
591
100
AcDbEntity
  8
0
100
AcDbLine
 62
7
  6
CONTINUOUS
 10
190.1327433161
 20
129.4550116307
 11
189.9660753778
 21
129.7954372413
  0
LINE
  5
592
100
AcDbEntity
  8
0
100
AcDbLine
 62
7
  6
CONTINUOUS
 10
186.8827433161
 20
129.7103308684
 11
186.7160753778
 21
130.1358627326
  0
LINE
  5
593
100
AcDbEntity
  8
0
100
AcDbLine
 62
7
  6
CONTINUOUS
 10
186.7160753778
 20
131.2422458179
 11
186.6327433161
 21
131.4975649364
  0
LINE
  5
594
100
AcDbEntity
  8
0
100
AcDbLine
 62
7
  6
CONTINUOUS
 10
187.6327433161
 20
128.8592669613
 11
187.5494093469
 21
129.1145861394
  0
LINE
  5
595
100
AcDbEntity
  8
0
100
AcDbLine
 62
7
  6
CONTINUOUS
 10
189.264249648
 20
120.3539478428
 11
188.1817178933
 21
123.928415919
  0
LINE
  5
596
100
AcDbEntity
  8
0
100
AcDbLine
 62
7
  6
CONTINUOUS
 10
187.7152115424
 20
119.928415919
 11
187.7152115424
 21
123.0773521907
  0
LINE
  5
597
100
AcDbEntity
  8
0
100
AcDbLine
 62
7
  6
CONTINUOUS
 10
187.9652115424
 20
119.928415919
 11
187.9652115424
 21
123.0773521907
  0
LINE
  5
598
100
AcDbEntity
  8
0
100
AcDbLine
 62
7
  6
CONTINUOUS
 10
188.1327423624
 20
136.8167137153
 11
188.1327423624
 21
135.5401180036
  0
LINE
  5
599
100
AcDbEntity
  8
0
100
AcDbLine
 62
7
  6
CONTINUOUS
 10
188.2994093469
 20
117.778415919
 11
188.2994093469
 21
100.278415919
  0
LINE
  5
59A
100
AcDbEntity
  8
0
100
AcDbLine
 62
7
  6
CONTINUOUS
 10
188.8827433161
 20
130.3911818511
 11
188.8827433161
 21
130.0507563598
  0
LINE
  5
59B
100
AcDbEntity
  8
0
100
AcDbLine
 62
7
  6
CONTINUOUS
 10
190.0494093469
 20
131.2422458179
 11
190.0494093469
 21
131.0720328338
  0
LINE
  5
59C
100
AcDbEntity
  8
0
100
AcDbLine
 62
7
  6
CONTINUOUS
 10
190.1327433161
 20
129.4550116307
 11
190.1327433161
 21
129.1145861394
  0
LINE
  5
59D
100
AcDbEntity
  8
0
100
AcDbLine
 62
7
  6
CONTINUOUS
 10
187.7160753778
 20
131.5826713092
 11
187.6327433161
 21
131.2422458179
  0
LINE
  5
59E
100
AcDbEntity
  8
0
100
AcDbLine
 62
7
  6
CONTINUOUS
 10
186.8827433161
 20
129.2847988851
 11
186.7160753778
 21
128.8592669613
  0
LINE
  5
59F
100
AcDbEntity
  8
0
100
AcDbLine
 62
7
  6
CONTINUOUS
 10
190.0494093469
 20
131.0720328338
 11
189.8827433161
 21
130.7316073424
  0
LINE
  5
5A0
100
AcDbEntity
  8
0
100
AcDbLine
 62
7
  6
CONTINUOUS
 10
186.3827433161
 20
129.1145861394
 11
186.2160753778
 21
128.8592669613
  0
LINE
  5
5A1
100
AcDbEntity
  8
0
100
AcDbLine
 62
7
  6
CONTINUOUS
 10
188.2160753778
 20
131.4975649364
 11
188.0494093469
 21
131.2422458179
  0
LINE
  5
5A2
100
AcDbEntity
  8
0
100
AcDbLine
 62
7
  6
CONTINUOUS
 10
186.7160753778
 20
128.8592669613
 11
186.4660753778
 21
128.5188414402
  0
LINE
  5
5A3
100
AcDbEntity
  8
0
100
AcDbLine
 62
7
  6
CONTINUOUS
 10
189.8827433161
 20
130.7316073424
 11
189.7160753778
 21
130.5613945968
  0
LINE
  5
5A4
100
AcDbEntity
  8
0
100
AcDbLine
 62
7
  6
CONTINUOUS
 10
176.8344510314
 20
121.879479707
 11
176.509691505
 21
121.6241605885
  0
LINE
  5
5A5
100
AcDbEntity
  8
0
100
AcDbLine
 62
7
  6
CONTINUOUS
 10
176.7261976495
 20
121.4326712496
 11
176.8885774127
 21
121.5603308088
  0
LINE
  5
5A6
100
AcDbEntity
  8
0
100
AcDbLine
 62
7
  6
CONTINUOUS
 10
176.9761976495
 20
121.4326712496
 11
177.1385774127
 21
121.5603308088
  0
LINE
  5
5A7
100
AcDbEntity
  8
0
100
AcDbLine
 62
7
  6
CONTINUOUS
 10
175.4812865445
 20
120.2199052803
 11
175.6436663077
 21
120.3475648619
  0
LINE
  5
5A8
100
AcDbEntity
  8
0
100
AcDbLine
 62
7
  6
CONTINUOUS
 10
175.7312865445
 20
120.2199052803
 11
175.8936663077
 21
120.3475648619
  0
LINE
  5
5A9
100
AcDbEntity
  8
0
100
AcDbLine
 62
7
  6
CONTINUOUS
 10
177.7546032294
 20
120.5390542007
 11
177.5922234662
 21
120.4113946415
  0
LINE
  5
5AA
100
AcDbEntity
  8
0
100
AcDbLine
 62
7
  6
CONTINUOUS
 10
190.2160753778
 20
130.4762882239
 11
189.8827433161
 21
130.2209691054
  0
LINE
  5
5AB
100
AcDbEntity
  8
0
100
AcDbLine
 62
7
  6
CONTINUOUS
 10
186.2160753778
 20
128.8592669613
 11
185.9660753778
 21
128.6890542156
  0
LINE
  5
5AC
100
AcDbEntity
  8
0
100
AcDbLine
 62
7
  6
CONTINUOUS
 10
186.4660753778
 20
128.5188414402
 11
186.0494093469
 21
128.2635222993
  0
LINE
  5
5AD
100
AcDbEntity
  8
0
100
AcDbLine
 62
7
  6
CONTINUOUS
 10
175.3730331625
 20
120.4752244211
 11
175.2647797806
 21
120.4113946415
  0
LINE
  5
5AE
100
AcDbEntity
  8
0
100
AcDbLine
 62
7
  6
CONTINUOUS
 10
175.2647797806
 20
120.0922457042
 11
175.4812865445
 21
120.2199052803
  0
LINE
  5
5AF
100
AcDbEntity
  8
0
100
AcDbLine
 62
7
  6
CONTINUOUS
 10
175.5147797806
 20
120.0922457042
 11
175.7312865445
 21
120.2199052803
  0
LINE
  5
5B0
100
AcDbEntity
  8
0
100
AcDbLine
 62
7
  6
CONTINUOUS
 10
189.8827433161
 20
128.7741605885
 11
189.7160753778
 21
128.6890542156
  0
LINE
  5
5B1
100
AcDbEntity
  8
0
100
AcDbLine
 62
7
  6
CONTINUOUS
 10
190.0494093469
 20
128.4337350673
 11
189.7160753778
 21
128.2635222993
  0
LINE
  5
5B2
100
AcDbEntity
  8
0
100
AcDbLine
 62
7
  6
CONTINUOUS
 10
176.8885774127
 20
122.6454372413
 11
177.0509571759
 21
122.7092670209
  0
LINE
  5
5B3
100
AcDbEntity
  8
0
100
AcDbLine
 62
7
  6
CONTINUOUS
 10
185.9660753778
 20
128.6890542156
 11
185.7160753778
 21
128.6039478428
  0
LINE
  5
5B4
100
AcDbEntity
  8
0
100
AcDbLine
 62
7
  6
CONTINUOUS
 10
169.2567287741
 20
123.028415919
 11
169.0402223973
 21
122.9645861394
  0
LINE
  5
5B5
100
AcDbEntity
  8
0
100
AcDbLine
 62
7
  6
CONTINUOUS
 10
187.2160763315
 20
138.0933095462
 11
186.7994093469
 21
138.178415919
  0
LINE
  5
5B6
100
AcDbEntity
  8
0
100
AcDbLine
 62
7
  6
CONTINUOUS
 10
187.1327423624
 20
137.5826713092
 11
186.7994093469
 21
137.667777682
  0
LINE
  5
5B7
100
AcDbEntity
  8
0
100
AcDbLine
 62
7
  6
CONTINUOUS
 10
187.5494093469
 20
137.9230968005
 11
187.2160763315
 21
138.0933095462
  0
LINE
  5
5B8
100
AcDbEntity
  8
0
100
AcDbLine
 62
7
  6
CONTINUOUS
 10
187.3827423624
 20
137.4124585635
 11
187.1327423624
 21
137.5826713092
  0
LINE
  5
5B9
100
AcDbEntity
  8
0
100
AcDbLine
 62
7
  6
CONTINUOUS
 10
187.8827423624
 20
137.5826713092
 11
187.5494093469
 21
137.9230968005
  0
LINE
  5
5BA
100
AcDbEntity
  8
0
100
AcDbLine
 62
7
  6
CONTINUOUS
 10
187.5494093469
 20
137.1571392066
 11
187.3827423624
 21
137.4124585635
  0
LINE
  5
5BB
100
AcDbEntity
  8
0
100
AcDbLine
 62
7
  6
CONTINUOUS
 10
195.0377526152
 20
123.2475649364
 11
195.1820896319
 21
122.9922458179
  0
LINE
  5
5BC
100
AcDbEntity
  8
0
100
AcDbLine
 62
7
  6
CONTINUOUS
 10
192.0494093469
 20
128.5188414402
 11
191.8827433161
 21
128.8592669613
  0
LINE
  5
5BD
100
AcDbEntity
  8
0
100
AcDbLine
 62
7
  6
CONTINUOUS
 10
188.0494093469
 20
137.2422458179
 11
187.8827423624
 21
137.5826713092
  0
LINE
  5
5BE
100
AcDbEntity
  8
0
100
AcDbLine
 62
7
  6
CONTINUOUS
 10
187.6327423624
 20
136.8167137153
 11
187.5494093469
 21
137.1571392066
  0
LINE
  5
5BF
100
AcDbEntity
  8
0
100
AcDbLine
 62
7
  6
CONTINUOUS
 10
190.5494093469
 20
129.4550116307
 11
190.4660753778
 21
129.7954372413
  0
LINE
  5
5C0
100
AcDbEntity
  8
0
100
AcDbLine
 62
7
  6
CONTINUOUS
 10
190.4660753778
 20
131.2422458179
 11
190.3827433161
 21
131.5826713092
  0
LINE
  5
5C1
100
AcDbEntity
  8
0
100
AcDbLine
 62
7
  6
CONTINUOUS
 10
188.1327423624
 20
136.8167137153
 11
188.0494093469
 21
137.2422458179
  0
LINE
  5
5C2
100
AcDbEntity
  8
0
100
AcDbLine
 62
7
  6
CONTINUOUS
 10
190.4660753778
 20
131.2422458179
 11
190.4660753778
 21
131.0720328338
  0
LINE
  5
5C3
100
AcDbEntity
  8
0
100
AcDbLine
 62
7
  6
CONTINUOUS
 10
190.5494093469
 20
129.4550116307
 11
190.5494093469
 21
129.1145861394
  0
LINE
  5
5C4
100
AcDbEntity
  8
0
100
AcDbLine
 62
7
  6
CONTINUOUS
 10
190.5632877537
 20
123.0773521907
 11
190.5632877537
 21
119.928415919
  0
LINE
  5
5C5
100
AcDbEntity
  8
0
100
AcDbLine
 62
7
  6
CONTINUOUS
 10
190.7463004556
 20
119.928415919
 11
190.7463004556
 21
123.928415919
  0
LINE
  5
5C6
100
AcDbEntity
  8
0
100
AcDbLine
 62
7
  6
CONTINUOUS
 10
190.9963004556
 20
119.928415919
 11
190.9963004556
 21
123.928415919
  0
LINE
  5
5C7
100
AcDbEntity
  8
0
100
AcDbLine
 62
7
  6
CONTINUOUS
 10
191.2160753778
 20
130.9018200881
 11
191.2160753778
 21
130.5613945968
  0
LINE
  5
5C8
100
AcDbEntity
  8
0
100
AcDbLine
 62
7
  6
CONTINUOUS
 10
191.5736505872
 20
123.3326713092
 11
191.5736505872
 21
122.6518200881
  0
LINE
  5
5C9
100
AcDbEntity
  8
0
100
AcDbLine
 62
7
  6
CONTINUOUS
 10
191.8827433161
 20
131.5826713092
 11
191.8827433161
 21
130.9018200881
  0
LINE
  5
5CA
100
AcDbEntity
  8
0
100
AcDbLine
 62
7
  6
CONTINUOUS
 10
191.8827433161
 20
130.5613945968
 11
191.8827433161
 21
128.8592669613
  0
LINE
  5
5CB
100
AcDbEntity
  8
0
100
AcDbLine
 62
7
  6
CONTINUOUS
 10
192.006663289
 20
123.2475649364
 11
192.006663289
 21
119.928415919
  0
LINE
  5
5CC
100
AcDbEntity
  8
0
100
AcDbLine
 62
7
  6
CONTINUOUS
 10
192.1896759909
 20
119.928415919
 11
192.1896759909
 21
123.928415919
  0
LINE
  5
5CD
100
AcDbEntity
  8
0
100
AcDbLine
 62
7
  6
CONTINUOUS
 10
192.2994093469
 20
131.5826713092
 11
192.2994093469
 21
130.9018200881
  0
LINE
  5
5CE
100
AcDbEntity
  8
0
100
AcDbLine
 62
7
  6
CONTINUOUS
 10
192.2994093469
 20
130.5613945968
 11
192.2994093469
 21
129.0294797666
  0
LINE
  5
5CF
100
AcDbEntity
  8
0
100
AcDbLine
 62
7
  6
CONTINUOUS
 10
192.4396759909
 20
119.928415919
 11
192.4396759909
 21
123.928415919
  0
LINE
  5
5D0
100
AcDbEntity
  8
0
100
AcDbLine
 62
7
  6
CONTINUOUS
 10
190.4660753778
 20
131.0720328338
 11
190.3827433161
 21
130.7316073424
  0
LINE
  5
5D1
100
AcDbEntity
  8
0
100
AcDbLine
 62
7
  6
CONTINUOUS
 10
190.3467814028
 20
123.928415919
 11
189.264249648
 21
120.3539478428
  0
LINE
  5
5D2
100
AcDbEntity
  8
0
100
AcDbLine
 62
7
  6
CONTINUOUS
 10
190.5494093469
 20
129.1145861394
 11
190.4660753778
 21
128.8592669613
  0
LINE
  5
5D3
100
AcDbEntity
  8
0
100
AcDbLine
 62
7
  6
CONTINUOUS
 10
190.1327433161
 20
129.1145861394
 11
190.0494093469
 21
128.9443733937
  0
LINE
  5
5D4
100
AcDbEntity
  8
0
100
AcDbLine
 62
7
  6
CONTINUOUS
 10
190.3827433161
 20
130.7316073424
 11
190.2160753778
 21
130.4762882239
  0
LINE
  5
5D5
100
AcDbEntity
  8
0
100
AcDbLine
 62
7
  6
CONTINUOUS
 10
190.4660753778
 20
128.8592669613
 11
190.2994093469
 21
128.6039478428
  0
LINE
  5
5D6
100
AcDbEntity
  8
0
100
AcDbLine
 62
7
  6
CONTINUOUS
 10
190.0494093469
 20
128.9443733937
 11
189.8827433161
 21
128.7741605885
  0
LINE
  5
5D7
100
AcDbEntity
  8
0
100
AcDbLine
 62
7
  6
CONTINUOUS
 10
177.6463498474
 20
120.0922457042
 11
177.9169829926
 21
120.2837350599
  0
LINE
  5
5D8
100
AcDbEntity
  8
0
100
AcDbLine
 62
7
  6
CONTINUOUS
 10
177.8963498474
 20
120.0922457042
 11
178.1669829926
 21
120.2837350599
  0
LINE
  5
5D9
100
AcDbEntity
  8
0
100
AcDbLine
 62
7
  6
CONTINUOUS
 10
190.2994093469
 20
128.6039478428
 11
190.0494093469
 21
128.4337350673
  0
LINE
  5
5DA
100
AcDbEntity
  8
0
100
AcDbLine
 62
7
  6
CONTINUOUS
 10
177.1385774127
 20
122.6454372413
 11
177.3009571759
 21
122.7092670209
  0
LINE
  5
5DB
100
AcDbEntity
  8
0
100
AcDbLine
 62
7
  6
CONTINUOUS
 10
175.2647797806
 20
121.8156499273
 11
174.9400202541
 21
121.6879903681
  0
LINE
  5
5DC
100
AcDbEntity
  8
0
100
AcDbLine
 62
7
  6
CONTINUOUS
 10
176.8885774127
 20
121.5603308088
 11
177.0509571759
 21
121.6241605885
  0
LINE
  5
5DD
100
AcDbEntity
  8
0
100
AcDbLine
 62
7
  6
CONTINUOUS
 10
177.1385774127
 20
121.5603308088
 11
177.3009571759
 21
121.6241605885
  0
LINE
  5
5DE
100
AcDbEntity
  8
0
100
AcDbLine
 62
7
  6
CONTINUOUS
 10
177.5922234662
 20
120.4113946415
 11
177.429843703
 21
120.3475648619
  0
LINE
  5
5DF
100
AcDbEntity
  8
0
100
AcDbLine
 62
7
  6
CONTINUOUS
 10
169.7979946773
 20
120.4752244211
 11
169.5814883005
 21
120.4113946415
  0
LINE
  5
5E0
100
AcDbEntity
  8
RUNDUNGEN
100
AcDbLine
 62
7
  6
CONTINUOUS
 10
193.7012790967
 20
143.678415919
 11
170.8975365761
 21
143.678415919
  0
LINE
  5
5E1
100
AcDbEntity
  8
0
100
AcDbLine
 62
7
  6
CONTINUOUS
 10
192.3827433161
 20
128.7741605885
 11
192.2994093469
 21
129.0294797666
  0
LINE
  5
5E2
100
AcDbEntity
  8
0
100
AcDbLine
 62
7
  6
CONTINUOUS
 10
193.0170265354
 20
120.3539478428
 11
193.0170265354
 21
119.928415919
  0
LINE
  5
5E3
100
AcDbEntity
  8
0
100
AcDbLine
 62
7
  6
CONTINUOUS
 10
193.0494093469
 20
128.5188414402
 11
193.0494093469
 21
128.178415919
  0
LINE
  5
5E4
100
AcDbEntity
  8
0
100
AcDbLine
 62
7
  6
CONTINUOUS
 10
193.2160753778
 20
130.9018200881
 11
193.2160753778
 21
130.5613945968
  0
LINE
  5
5E5
100
AcDbEntity
  8
0
100
AcDbLine
 62
7
  6
CONTINUOUS
 10
195.1820896319
 20
122.9922458179
 11
195.1820896319
 21
122.8220328338
  0
LINE
  5
5E6
100
AcDbEntity
  8
RUNDUNGEN
100
AcDbLine
 62
7
  6
CONTINUOUS
 10
195.2994093469
 20
158.0444413228
 11
195.2994093469
 21
164.1119528396
  0
LINE
  5
5E7
100
AcDbEntity
  8
0
100
AcDbLine
 62
7
  6
CONTINUOUS
 10
193.1613639651
 20
123.3326713092
 11
193.0891950438
 21
122.9922458179
  0
LINE
  5
5E8
100
AcDbEntity
  8
0
100
AcDbLine
 62
7
  6
CONTINUOUS
 10
189.3029247138
 20
119.928415919
 11
190.3132877537
 21
123.0773521907
  0
LINE
  5
5E9
100
AcDbEntity
  8
0
100
AcDbLine
 62
7
  6
CONTINUOUS
 10
189.5529247138
 20
119.928415919
 11
190.5632877537
 21
123.0773521907
  0
LINE
  5
5EA
100
AcDbEntity
  8
0
100
AcDbLine
 62
7
  6
CONTINUOUS
 10
175.0482736361
 20
120.028415919
 11
175.2647797806
 21
120.0922457042
  0
LINE
  5
5EB
100
AcDbEntity
  8
0
100
AcDbLine
 62
7
  6
CONTINUOUS
 10
175.2982736361
 20
120.028415919
 11
175.5147797806
 21
120.0922457042
  0
LINE
  5
5EC
100
AcDbEntity
  8
0
100
AcDbLine
 62
7
  6
CONTINUOUS
 10
195.3651023338
 20
122.9922458179
 11
195.2929338255
 21
123.3326713092
  0
LINE
  5
5ED
100
AcDbEntity
  8
0
100
AcDbLine
 62
7
  6
CONTINUOUS
 10
195.6151023338
 20
122.9922458179
 11
195.5429338255
 21
123.3326713092
  0
LINE
  5
5EE
100
AcDbEntity
  8
0
100
AcDbLine
 62
7
  6
CONTINUOUS
 10
195.3651023338
 20
119.928415919
 11
195.3651023338
 21
120.3539478428
  0
LINE
  5
5EF
100
AcDbEntity
  8
0
100
AcDbLine
 62
7
  6
CONTINUOUS
 10
195.3651023338
 20
122.8220328338
 11
195.3651023338
 21
122.9922458179
  0
LINE
  5
5F0
100
AcDbEntity
  8
0
100
AcDbLine
 62
7
  6
CONTINUOUS
 10
195.6151023338
 20
119.928415919
 11
195.6151023338
 21
120.3539478428
  0
LINE
  5
5F1
100
AcDbEntity
  8
0
100
AcDbLine
 62
7
  6
CONTINUOUS
 10
195.6151023338
 20
122.8220328338
 11
195.6151023338
 21
122.9922458179
  0
LINE
  5
5F2
100
AcDbEntity
  8
0
100
AcDbLine
 62
7
  6
CONTINUOUS
 10
195.2929338255
 20
122.4816073424
 11
195.3651023338
 21
122.8220328338
  0
LINE
  5
5F3
100
AcDbEntity
  8
0
100
AcDbLine
 62
7
  6
CONTINUOUS
 10
195.5429338255
 20
122.4816073424
 11
195.6151023338
 21
122.8220328338
  0
LINE
  5
5F4
100
AcDbEntity
  8
0
100
AcDbLine
 62
7
  6
CONTINUOUS
 10
193.2000392373
 20
122.9922458179
 11
193.344376667
 21
123.2475649364
  0
LINE
  5
5F5
100
AcDbEntity
  8
0
100
AcDbLine
 62
7
  6
CONTINUOUS
 10
193.4500392373
 20
122.9922458179
 11
193.594376667
 21
123.2475649364
  0
LINE
  5
5F6
100
AcDbEntity
  8
0
100
AcDbLine
 62
7
  6
CONTINUOUS
 10
192.006663289
 20
123.928415919
 11
191.5736505872
 21
123.3326713092
  0
LINE
  5
5F7
100
AcDbEntity
  8
0
100
AcDbLine
 62
7
  6
CONTINUOUS
 10
191.5736505872
 20
122.9957735366
 11
191.756663289
 21
123.2475649364
  0
LINE
  5
5F8
100
AcDbEntity
  8
0
100
AcDbLine
 62
7
  6
CONTINUOUS
 10
191.5736505872
 20
122.6518200881
 11
192.006663289
 21
123.2475649364
  0
LINE
  5
5F9
100
AcDbEntity
  8
0
100
AcDbLine
 62
7
  6
CONTINUOUS
 10
193.4500392373
 20
123.6730968005
 11
193.1613639651
 21
123.3326713092
  0
LINE
  5
5FA
100
AcDbEntity
  8
0
100
AcDbLine
 62
7
  6
CONTINUOUS
 10
193.344376667
 20
123.2475649364
 11
193.5608830179
 21
123.417777682
  0
LINE
  5
5FB
100
AcDbEntity
  8
0
100
AcDbLine
 62
7
  6
CONTINUOUS
 10
193.594376667
 20
123.2475649364
 11
193.8108830179
 21
123.417777682
  0
LINE
  5
5FC
100
AcDbEntity
  8
0
100
AcDbLine
 62
7
  6
CONTINUOUS
 10
193.7387140966
 20
123.8433095462
 11
193.4500392373
 21
123.6730968005
  0
LINE
  5
5FD
100
AcDbEntity
  8
KONSTRUKTIONSELEMENTE
100
AcDbLine
 62
7
  6
CONTINUOUS
 10
198.9404254983
 20
117.778415919
 11
198.9404254983
 21
126.278415919
  0
LINE
  5
5FE
100
AcDbEntity
  8
0
100
AcDbLine
 62
7
  6
CONTINUOUS
 10
199.2994093469
 20
149.9104667266
 11
199.2994093469
 21
126.278415919
  0
LINE
  5
5FF
100
AcDbEntity
  8
KONSTRUKTIONSELEMENTE
100
AcDbLine
 62
7
  6
CONTINUOUS
 10
200.2994093469
 20
117.778415919
 11
200.2994093469
 21
126.278415919
  0
LINE
  5
600
100
AcDbEntity
  8
0
100
AcDbLine
 62
7
  6
CONTINUOUS
 10
195.1820896319
 20
122.8220328338
 11
195.0377526152
 21
122.4816073424
  0
LINE
  5
601
100
AcDbEntity
  8
0
100
AcDbLine
 62
7
  6
CONTINUOUS
 10
195.1485959829
 20
122.2262882239
 11
195.2929338255
 21
122.4816073424
  0
LINE
  5
602
100
AcDbEntity
  8
0
100
AcDbLine
 62
7
  6
CONTINUOUS
 10
195.3985959829
 20
122.2262882239
 11
195.5429338255
 21
122.4816073424
  0
LINE
  5
603
100
AcDbEntity
  8
0
100
AcDbLine
 62
7
  6
CONTINUOUS
 10
195.0377526152
 20
122.4816073424
 11
193.0170265354
 21
120.3539478428
  0
LINE
  5
604
100
AcDbEntity
  8
0
100
AcDbLine
 62
7
  6
CONTINUOUS
 10
193.344376667
 20
120.3539478428
 11
195.1485959829
 21
122.2262882239
  0
LINE
  5
605
100
AcDbEntity
  8
0
100
AcDbLine
 62
7
  6
CONTINUOUS
 10
193.594376667
 20
120.3539478428
 11
195.3985959829
 21
122.2262882239
  0
LINE
  5
606
100
AcDbEntity
  8
RUNDUNGEN
100
AcDbLine
 62
7
  6
CONTINUOUS
 10
187.1298517012
 20
155.5277637624
 11
184.6846921087
 21
158.2433886065
  0
LINE
  5
607
100
AcDbEntity
  8
BEZUGSACHSEN
100
AcDbLine
 62
7
  6
CONTINUOUS
 10
184.3682708423
 20
158.778415919
 11
180.2305477669
 21
158.778415919
  0
LINE
  5
608
100
AcDbEntity
  8
RUNDUNGEN
100
AcDbLine
 62
7
  6
CONTINUOUS
 10
199.1654347507
 20
150.4104667266
 11
195.7683204337
 21
156.2944413228
  0
LINE
  5
609
100
AcDbEntity
  8
FASEN
100
AcDbLine
 62
7
  6
CONTINUOUS
 10
187.7994093469
 20
99.778415919
 11
188.2994093469
 21
100.278415919
  0
LINE
  5
60A
100
AcDbEntity
  8
BEZUGSACHSEN
100
AcDbLine
 62
7
  6
CONTINUOUS
 10
184.2994093469
 20
163.578415919
 11
180.2994093469
 21
163.578415919
  0
LINE
  5
60B
100
AcDbEntity
  8
RUNDUNGEN
100
AcDbLine
 62
7
  6
CONTINUOUS
 10
194.7145204547
 20
165.7189218639
 11
194.2091461319
 21
166.3212035287
  0
LINE
  5
60C
100
AcDbEntity
  8
0
100
AcDbLine
 62
7
  6
CONTINUOUS
 10
193.4431032322
 20
166.678415919
 11
188.4840677854
 21
166.678415919
  0
LINE
  5
60D
100
AcDbEntity
  8
0
100
AcDbLine
 62
7
  6
CONTINUOUS
 10
176.1147509085
 20
166.678415919
 11
171.1557156614
 21
166.678415919
  0
LINE
  5
60E
100
AcDbEntity
  8
KONSTRUKTIONSELEMENTE
100
AcDbLine
 62
7
  6
CONTINUOUS
 10
94.7554956129
 20
58.8196389879
 11
94.7554956129
 21
56.1016712906
  0
LINE
  5
60F
100
AcDbEntity
  8
KONSTRUKTIONSELEMENTE
100
AcDbLine
 62
7
  6
CONTINUOUS
 10
105.9324101492
 20
75.4606551392
 11
103.5785810767
 21
74.1016712906
  0
LINE
  5
610
100
AcDbEntity
  8
KONSTRUKTIONSELEMENTE
100
AcDbLine
 62
7
  6
CONTINUOUS
 10
103.5785810767
 20
40.8196389879
 11
105.9324101492
 21
39.4606551392
  0
LINE
  5
611
100
AcDbEntity
  8
KONSTRUKTIONSELEMENTE
100
AcDbLine
 62
7
  6
CONTINUOUS
 10
103.5785810767
 20
74.1016712906
 11
94.7554956129
 21
58.8196389879
  0
LINE
  5
612
100
AcDbEntity
  8
KONSTRUKTIONSELEMENTE
100
AcDbLine
 62
7
  6
CONTINUOUS
 10
105.9324101492
 20
39.4606551392
 11
123.5785810767
 21
39.4606551392
  0
LINE
  5
613
100
AcDbEntity
  8
KONSTRUKTIONSELEMENTE
100
AcDbLine
 62
7
  6
CONTINUOUS
 10
94.7554956129
 20
56.1016712906
 11
103.5785810767
 21
40.8196389879
  0
LINE
  5
614
100
AcDbEntity
  8
RUNDUNGEN
100
AcDbLine
 62
7
  6
CONTINUOUS
 10
109.2554956129
 20
44.4606551392
 11
120.2554956129
 21
44.4606551392
  0
LINE
  5
615
100
AcDbEntity
  8
0
100
AcDbLine
 62
7
  6
CONTINUOUS
 10
101.7237496528
 20
46.5439891084
 11
101.3992647535
 21
46.5439891084
  0
LINE
  5
616
100
AcDbEntity
  8
0
100
AcDbLine
 62
7
  6
CONTINUOUS
 10
121.2554956129
 20
46.6556551392
 11
121.7554956129
 21
46.6556551392
  0
LINE
  5
617
100
AcDbEntity
  8
0
100
AcDbLine
 62
7
  6
CONTINUOUS
 10
101.0077685281
 20
47.4606551392
 11
100.699802816
 21
47.4606551392
  0
LINE
  5
618
100
AcDbEntity
  8
0
100
AcDbLine
 62
7
  6
CONTINUOUS
 10
121.2554956129
 20
47.8045912917
 11
121.7554956129
 21
47.8045912917
  0
LINE
  5
619
100
AcDbEntity
  8
0
100
AcDbLine
 62
7
  6
CONTINUOUS
 10
100.7141384835
 20
47.8773211701
 11
100.4124760551
 21
47.8773211701
  0
LINE
  5
61A
100
AcDbEntity
  8
0
100
AcDbLine
 62
7
  6
CONTINUOUS
 10
121.2554956129
 20
48.0599104698
 11
121.7554956129
 21
48.0599104698
  0
LINE
  5
61B
100
AcDbEntity
  8
0
100
AcDbLine
 62
7
  6
CONTINUOUS
 10
100.281620289
 20
48.5439891084
 11
99.9887909401
 21
48.5439891084
  0
LINE
  5
61C
100
AcDbEntity
  8
0
100
AcDbLine
 62
7
  6
CONTINUOUS
 10
121.2554956129
 20
48.6556551392
 11
121.7554956129
 21
48.6556551392
  0
LINE
  5
61D
100
AcDbEntity
  8
0
100
AcDbLine
 62
7
  6
CONTINUOUS
 10
99.8915291167
 20
49.2106551392
 11
99.6062382054
 21
49.2106551392
  0
LINE
  5
61E
100
AcDbEntity
  8
0
100
AcDbLine
 62
7
  6
CONTINUOUS
 10
99.8455805917
 20
49.2939891084
 11
99.5611523912
 21
49.2939891084
  0
LINE
  5
61F
100
AcDbEntity
  8
0
100
AcDbLine
 62
7
  6
CONTINUOUS
 10
99.8002386127
 20
49.3773211701
 11
99.5166566826
 21
49.3773211701
  0
LINE
  5
620
100
AcDbEntity
  8
0
100
AcDbLine
 62
7
  6
CONTINUOUS
 10
99.6248148615
 20
49.7106551392
 11
99.3444606055
 21
49.7106551392
  0
LINE
  5
621
100
AcDbEntity
  8
0
100
AcDbLine
 62
7
  6
CONTINUOUS
 10
99.4586637518
 20
50.0439891084
 11
99.1813001285
 21
50.0439891084
  0
LINE
  5
622
100
AcDbEntity
  8
RUNDUNGEN
100
AcDbLine
 62
7
  6
CONTINUOUS
 10
108.2554956129
 20
42.7892543881
 11
108.2554956129
 21
51.3320402025
  0
LINE
  5
623
100
AcDbEntity
  8
RUNDUNGEN
100
AcDbLine
 62
7
  6
CONTINUOUS
 10
108.2554956129
 20
63.5892641396
 11
108.2554956129
 21
72.1320439363
  0
LINE
  5
624
100
AcDbEntity
  8
0
100
AcDbLine
 62
7
  6
CONTINUOUS
 10
99.1893288765
 20
50.6273211701
 11
98.9166810466
 21
50.6273211701
  0
LINE
  5
625
100
AcDbEntity
  8
0
100
AcDbLine
 62
7
  6
CONTINUOUS
 10
99.1172232009
 20
50.7939891084
 11
98.8458110141
 21
50.7939891084
  0
LINE
  5
626
100
AcDbEntity
  8
0
100
AcDbLine
 62
7
  6
CONTINUOUS
 10
98.8812067211
 20
51.3773211701
 11
98.6137625021
 21
51.3773211701
  0
LINE
  5
627
100
AcDbEntity
  8
0
100
AcDbLine
 62
7
  6
CONTINUOUS
 10
98.7876458538
 20
51.6273221238
 11
98.5217429374
 21
51.6273221238
  0
LINE
  5
628
100
AcDbEntity
  8
0
100
AcDbLine
 62
7
  6
CONTINUOUS
 10
98.7574488571
 20
51.7106551392
 11
98.4920396456
 21
51.7106551392
  0
LINE
  5
629
100
AcDbEntity
  8
0
100
AcDbLine
 62
7
  6
CONTINUOUS
 10
98.6985222855
 20
51.8773221238
 11
98.4340712744
 21
51.8773221238
  0
LINE
  5
62A
100
AcDbEntity
  8
0
100
AcDbLine
 62
7
  6
CONTINUOUS
 10
98.5864665759
 20
52.2106551392
 11
98.3238188878
 21
52.2106551392
  0
LINE
  5
62B
100
AcDbEntity
  8
RUNDUNGEN
100
AcDbLine
 62
7
  6
CONTINUOUS
 10
108.7681163041
 20
52.6938759817
 11
108.7566682646
 21
52.6676209997
  0
LWPOLYLINE
  5
62C
100
AcDbEntity
  8
RUNDUNGEN
100
AcDbPolyline
 62
7
  6
CONTINUOUS
 90
5
 70
0
 10
108.7566682646
 20
52.6676209997
 10
108.7091585266
 20
52.5625217464
 10
108.6592594501
 20
52.4580849393
 10
108.607002308
 20
52.3543286526
 10
108.552419446
 20
52.2512723951
  0
LINE
  5
62D
100
AcDbEntity
  8
0
100
AcDbLine
 62
7
  6
CONTINUOUS
 10
98.4820084094
 20
52.5439881547
 11
98.2210199405
 21
52.5439881547
  0
LINE
  5
62E
100
AcDbEntity
  8
0
100
AcDbLine
 62
7
  6
CONTINUOUS
 10
98.3618993022
 20
52.9606551392
 11
98.1027931295
 21
52.9606551392
  0
LWPOLYLINE
  5
62F
100
AcDbEntity
  8
RUNDUNGEN
100
AcDbPolyline
 62
7
  6
CONTINUOUS
 90
3
 70
0
 10
108.7124806748
 20
62.3516292753
 10
108.7598089611
 20
62.2465245049
 10
108.7681165695
 20
62.2274336921
  0
LINE
  5
630
100
AcDbEntity
  8
BEZUGSACHSEN
100
AcDbLine
 62
7
  6
CONTINUOUS
 10
112.3554956129
 20
55.4606551392
 11
112.3554956129
 21
59.4606551392
  0
LWPOLYLINE
  5
631
100
AcDbEntity
  8
RUNDUNGEN
100
AcDbPolyline
 62
7
  6
CONTINUOUS
 90
3
 70
0
 10
108.552419446
 20
52.2512723951
 10
108.5318562589
 20
52.2137275271
 10
108.5021526464
 20
52.1607822332
  0
LINE
  5
632
100
AcDbEntity
  8
RUNDUNGEN
100
AcDbLine
 62
7
  6
CONTINUOUS
 10
108.5021526464
 20
52.1607822332
 11
108.472252084
 21
52.1089961116
  0
LINE
  5
633
100
AcDbEntity
  8
RUNDUNGEN
100
AcDbLine
 62
7
  6
CONTINUOUS
 10
108.472252084
 20
52.1089961116
 11
108.4638924145
 21
52.0947827518
  0
LINE
  5
634
100
AcDbEntity
  8
0
100
AcDbLine
 62
7
  6
CONTINUOUS
 10
97.9403238921
 20
54.9606551392
 11
97.6876164242
 21
54.9606551392
  0
LINE
  5
635
100
AcDbEntity
  8
0
100
AcDbLine
 62
7
  6
CONTINUOUS
 10
97.8836337255
 20
55.3773221238
 11
97.6317628555
 21
55.3773221238
  0
LINE
  5
636
100
AcDbEntity
  8
RUNDUNGEN
100
AcDbLine
 62
7
  6
CONTINUOUS
 10
117.447073628
 20
55.4606551392
 11
111.5639175976
 21
55.4606551392
  0
LINE
  5
637
100
AcDbEntity
  8
0
100
AcDbLine
 62
7
  6
CONTINUOUS
 10
97.8546409509
 20
55.627321647
 11
97.6031958165
 21
55.627321647
  0
LWPOLYLINE
  5
638
100
AcDbEntity
  8
RUNDUNGEN
100
AcDbPolyline
 62
7
  6
CONTINUOUS
 90
3
 70
0
 10
108.4645666715
 20
62.8253902698
 10
108.4765379813
 20
62.8049826046
 10
108.5064247692
 20
62.7530062901
  0
LINE
  5
639
100
AcDbEntity
  8
RUNDUNGEN
100
AcDbLine
 62
7
  6
CONTINUOUS
 10
108.5064247692
 20
62.7530062901
 11
108.5361124615
 21
62.6998711129
  0
LINE
  5
63A
100
AcDbEntity
  8
RUNDUNGEN
100
AcDbLine
 62
7
  6
CONTINUOUS
 10
108.5361124615
 20
62.6998711129
 11
108.5562855972
 21
62.6629019828
  0
LINE
  5
63B
100
AcDbEntity
  8
RUNDUNGEN
100
AcDbLine
 62
7
  6
CONTINUOUS
 10
108.5562855972
 20
62.6629019828
 11
108.6106872544
 21
62.5598366809
  0
LWPOLYLINE
  5
63C
100
AcDbEntity
  8
RUNDUNGEN
100
AcDbPolyline
 62
7
  6
CONTINUOUS
 90
3
 70
0
 10
108.6106872544
 20
62.5598366809
 10
108.662763021
 20
62.4560726803
 10
108.7124806748
 20
62.3516292753
  0
LINE
  5
63D
100
AcDbEntity
  8
0
100
AcDbLine
 62
7
  6
CONTINUOUS
 10
97.8078638669
 20
56.127321647
 11
97.5571026125
 21
56.127321647
  0
LINE
  5
63E
100
AcDbEntity
  8
0
100
AcDbLine
 62
7
  6
CONTINUOUS
 10
97.8015137797
 20
56.2106551392
 11
97.5508450788
 21
56.2106551392
  0
LINE
  5
63F
100
AcDbEntity
  8
0
100
AcDbLine
 62
7
  6
CONTINUOUS
 10
97.7900487121
 20
56.377321647
 11
97.5395469448
 21
56.377321647
  0
LINE
  5
640
100
AcDbEntity
  8
0
100
AcDbLine
 62
7
  6
CONTINUOUS
 10
97.7759327419
 20
56.627321647
 11
97.5256362029
 21
56.627321647
  0
LINE
  5
641
100
AcDbEntity
  8
0
100
AcDbLine
 62
7
  6
CONTINUOUS
 10
97.762850145
 20
56.9606551392
 11
97.5127435124
 21
56.9606551392
  0
LINE
  5
642
100
AcDbEntity
  8
0
100
AcDbLine
 62
7
  6
CONTINUOUS
 10
97.7563126245
 20
57.2939886315
 11
97.5063007832
 21
57.2939886315
  0
LINE
  5
643
100
AcDbEntity
  8
0
100
AcDbLine
 62
7
  6
CONTINUOUS
 10
97.7563126245
 20
57.627321647
 11
97.5063007832
 21
57.627321647
  0
LINE
  5
644
100
AcDbEntity
  8
0
100
AcDbLine
 62
7
  6
CONTINUOUS
 10
97.7606025853
 20
57.877321647
 11
97.5105285494
 21
57.877321647
  0
LINE
  5
645
100
AcDbEntity
  8
0
100
AcDbLine
 62
7
  6
CONTINUOUS
 10
97.765506736
 20
58.0439886315
 11
97.5153615636
 21
58.0439886315
  0
LINE
  5
646
100
AcDbEntity
  8
0
100
AcDbLine
 62
7
  6
CONTINUOUS
 10
97.7685725317
 20
58.127321647
 11
97.5183828684
 21
58.127321647
  0
LINE
  5
647
100
AcDbEntity
  8
0
100
AcDbLine
 62
7
  6
CONTINUOUS
 10
97.7955755452
 20
58.6273218854
 11
97.5449933337
 21
58.6273218854
  0
LINE
  5
648
100
AcDbEntity
  8
0
100
AcDbLine
 62
7
  6
CONTINUOUS
 10
97.8015137797
 20
58.7106551392
 11
97.5508450788
 21
58.7106551392
  0
LINE
  5
649
100
AcDbEntity
  8
0
100
AcDbLine
 62
7
  6
CONTINUOUS
 10
97.837392257
 20
59.1273221238
 11
97.5861997286
 21
59.1273221238
  0
LINE
  5
64A
100
AcDbEntity
  8
0
100
AcDbLine
 62
7
  6
CONTINUOUS
 10
97.8546409251
 20
59.2939883931
 11
97.603195791
 21
59.2939883931
  0
LINE
  5
64B
100
AcDbEntity
  8
0
100
AcDbLine
 62
7
  6
CONTINUOUS
 10
97.8638885673
 20
59.3773218854
 11
97.6123077943
 21
59.3773218854
  0
LINE
  5
64C
100
AcDbEntity
  8
RUNDUNGEN
100
AcDbLine
 62
7
  6
CONTINUOUS
 10
117.447073628
 20
59.4606551392
 11
111.5639175978
 21
59.4606551392
  0
LINE
  5
64D
100
AcDbEntity
  8
0
100
AcDbLine
 62
7
  6
CONTINUOUS
 10
97.8735525968
 20
59.4606551392
 11
97.6218299222
 21
59.4606551392
  0
LINE
  5
64E
100
AcDbEntity
  8
BEZUGSACHSEN
100
AcDbLine
 62
7
  6
CONTINUOUS
 10
117.1554956129
 20
55.4606551392
 11
117.1554956129
 21
59.4606551392
  0
LINE
  5
64F
100
AcDbEntity
  8
RUNDUNGEN
100
AcDbLine
 62
7
  6
CONTINUOUS
 10
120.7428622465
 20
62.227404996
 11
120.7543271942
 21
62.2536989591
  0
LWPOLYLINE
  5
650
100
AcDbEntity
  8
RUNDUNGEN
100
AcDbPolyline
 62
7
  6
CONTINUOUS
 90
4
 70
0
 10
120.7543271942
 20
62.2536989591
 10
120.8018396399
 20
62.3588034859
 10
120.8517399528
 20
62.463242014
 10
120.9039967674
 20
62.5669967565
  0
LINE
  5
651
100
AcDbEntity
  8
0
100
AcDbLine
 62
7
  6
CONTINUOUS
 10
120.6122263821
 20
61.9134689519
 11
121.0888289463
 21
62.9581293067
  0
LINE
  5
652
100
AcDbEntity
  8
RUNDUNGEN
100
AcDbLine
 62
7
  6
CONTINUOUS
 10
120.9039967674
 20
62.5669967565
 11
120.9585769033
 21
62.670047296
  0
LWPOLYLINE
  5
653
100
AcDbEntity
  8
RUNDUNGEN
100
AcDbPolyline
 62
7
  6
CONTINUOUS
 90
3
 70
0
 10
120.9585769033
 20
62.670047296
 10
120.9791312316
 20
62.7075759485
 10
121.0088343342
 20
62.7605205915
  0
LINE
  5
654
100
AcDbEntity
  8
RUNDUNGEN
100
AcDbLine
 62
7
  6
CONTINUOUS
 10
121.0088343342
 20
62.7605205915
 11
121.0387350386
 21
62.8123071714
  0
LINE
  5
655
100
AcDbEntity
  8
RUNDUNGEN
100
AcDbLine
 62
7
  6
CONTINUOUS
 10
121.0387350386
 20
62.8123071714
 11
121.0470988052
 21
62.8265275256
  0
LINE
  5
656
100
AcDbEntity
  8
0
100
AcDbLine
 62
7
  6
CONTINUOUS
 10
97.9050505149
 20
59.7106551392
 11
97.6528642364
 21
59.7106551392
  0
LINE
  5
657
100
AcDbEntity
  8
0
100
AcDbLine
 62
7
  6
CONTINUOUS
 10
97.9529246995
 20
60.0439883931
 11
97.7000305269
 21
60.0439883931
  0
LINE
  5
658
100
AcDbEntity
  8
0
100
AcDbLine
 62
7
  6
CONTINUOUS
 10
98.0222950822
 20
60.4606551392
 11
97.7683681336
 21
60.4606551392
  0
LWPOLYLINE
  5
659
100
AcDbEntity
  8
RUNDUNGEN
100
AcDbPolyline
 62
7
  6
CONTINUOUS
 90
3
 70
0
 10
121.0464249295
 20
52.095919989
 10
121.0344559388
 20
52.1163230653
 10
121.0045692477
 20
52.1682990645
  0
LINE
  5
65A
100
AcDbEntity
  8
RUNDUNGEN
100
AcDbLine
 62
7
  6
CONTINUOUS
 10
121.0045692477
 20
52.1682990645
 11
120.9748812242
 21
52.2214346463
  0
LINE
  5
65B
100
AcDbEntity
  8
RUNDUNGEN
100
AcDbLine
 62
7
  6
CONTINUOUS
 10
120.9748812242
 20
52.2214346463
 11
120.954712501
 21
52.2583956481
  0
LINE
  5
65C
100
AcDbEntity
  8
RUNDUNGEN
100
AcDbLine
 62
7
  6
CONTINUOUS
 10
120.954712501
 20
52.2583956481
 11
120.9003142693
 21
52.3614536317
  0
LWPOLYLINE
  5
65D
100
AcDbEntity
  8
RUNDUNGEN
100
AcDbPolyline
 62
7
  6
CONTINUOUS
 90
3
 70
0
 10
120.9003142693
 20
52.3614536317
 10
120.8482390273
 20
52.4652154482
 10
120.7985196853
 20
52.5696612514
  0
LINE
  5
65E
100
AcDbEntity
  8
0
100
AcDbLine
 62
7
  6
CONTINUOUS
 10
121.0888289463
 20
51.9631809717
 11
120.6122263821
 21
53.0078413265
  0
LWPOLYLINE
  5
65F
100
AcDbEntity
  8
RUNDUNGEN
100
AcDbPolyline
 62
7
  6
CONTINUOUS
 90
3
 70
0
 10
120.7985196853
 20
52.5696612514
 10
120.751187723
 20
52.6747732914
 10
120.7428622615
 20
52.6939052606
  0
LINE
  5
660
100
AcDbEntity
  8
0
100
AcDbLine
 62
7
  6
CONTINUOUS
 10
98.5074188036
 20
62.4606551392
 11
98.2460286318
 21
62.4606551392
  0
LINE
  5
661
100
AcDbEntity
  8
0
100
AcDbLine
 62
7
  6
CONTINUOUS
 10
98.6697876708
 20
62.9606551392
 11
98.4058014262
 21
62.9606551392
  0
LINE
  5
662
100
AcDbEntity
  8
RUNDUNGEN
100
AcDbLine
 62
7
  6
CONTINUOUS
 10
121.2554956129
 20
72.1320437473
 11
121.2554956129
 21
63.5892690751
  0
LINE
  5
663
100
AcDbEntity
  8
RUNDUNGEN
100
AcDbLine
 62
7
  6
CONTINUOUS
 10
121.2554956129
 20
51.3320472207
 11
121.2554956129
 21
42.7892663422
  0
LINE
  5
664
100
AcDbEntity
  8
0
100
AcDbLine
 62
7
  6
CONTINUOUS
 10
121.2554956129
 20
45.4606551392
 11
121.2554956129
 21
51.2759967008
  0
LINE
  5
665
100
AcDbEntity
  8
0
100
AcDbLine
 62
7
  6
CONTINUOUS
 10
121.2554956129
 20
63.6453135777
 11
121.2554956129
 21
69.4606551392
  0
LINE
  5
666
100
AcDbEntity
  8
0
100
AcDbLine
 62
7
  6
CONTINUOUS
 10
121.7554956129
 20
69.012382694
 11
121.7554956129
 21
66.0274203827
  0
LINE
  5
667
100
AcDbEntity
  8
0
100
AcDbLine
 62
7
  6
CONTINUOUS
 10
121.7554956129
 20
48.6556551392
 11
121.7554956129
 21
46.6556551392
  0
LINE
  5
668
100
AcDbEntity
  8
0
100
AcDbLine
 62
7
  6
CONTINUOUS
 10
98.9133927164
 20
63.627321647
 11
98.6454141674
 21
63.627321647
  0
LINE
  5
669
100
AcDbEntity
  8
0
100
AcDbLine
 62
7
  6
CONTINUOUS
 10
98.9460838592
 20
63.7106551392
 11
98.6775604221
 21
63.7106551392
  0
LINE
  5
66A
100
AcDbEntity
  8
0
100
AcDbLine
 62
7
  6
CONTINUOUS
 10
99.0472175405
 20
63.9606551392
 11
98.7769944316
 21
63.9606551392
  0
LINE
  5
66B
100
AcDbEntity
  8
0
100
AcDbLine
 62
7
  6
CONTINUOUS
 10
99.1893286672
 20
64.2939886315
 11
98.9166808409
 21
64.2939886315
  0
LINE
  5
66C
100
AcDbEntity
  8
0
100
AcDbLine
 62
7
  6
CONTINUOUS
 10
99.3789712982
 20
64.7106551392
 11
99.1030197704
 21
64.7106551392
  0
LINE
  5
66D
100
AcDbEntity
  8
0
100
AcDbLine
 62
7
  6
CONTINUOUS
 10
121.2554956129
 20
66.0274203827
 11
121.7554956129
 21
66.0274203827
  0
LINE
  5
66E
100
AcDbEntity
  8
0
100
AcDbLine
 62
7
  6
CONTINUOUS
 10
121.2554956129
 20
66.4806710538
 11
121.7554956129
 21
66.4806710538
  0
LINE
  5
66F
100
AcDbEntity
  8
0
100
AcDbLine
 62
7
  6
CONTINUOUS
 10
100.4923437873
 20
66.7106551392
 11
100.1952758344
 21
66.7106551392
  0
LINE
  5
670
100
AcDbEntity
  8
0
100
AcDbLine
 62
7
  6
CONTINUOUS
 10
121.2554956129
 20
67.2966508672
 11
121.7554956129
 21
67.2966508672
  0
LINE
  5
671
100
AcDbEntity
  8
0
100
AcDbLine
 62
7
  6
CONTINUOUS
 10
100.9475370148
 20
67.3773218854
 11
100.6408854289
 21
67.3773218854
  0
LINE
  5
672
100
AcDbEntity
  8
0
100
AcDbLine
 62
7
  6
CONTINUOUS
 10
101.0077685281
 20
67.4606551392
 11
100.699802816
 21
67.4606551392
  0
LINE
  5
673
100
AcDbEntity
  8
0
100
AcDbLine
 62
7
  6
CONTINUOUS
 10
101.1931396229
 20
67.7106551392
 11
100.8810586874
 21
67.7106551392
  0
LINE
  5
674
100
AcDbEntity
  8
0
100
AcDbLine
 62
7
  6
CONTINUOUS
 10
121.2554956129
 20
67.7499015383
 11
121.7554956129
 21
67.7499015383
  0
LINE
  5
675
100
AcDbEntity
  8
0
100
AcDbLine
 62
7
  6
CONTINUOUS
 10
101.4516218448
 20
68.0439883931
 11
101.1336177234
 21
68.0439883931
  0
LINE
  5
676
100
AcDbEntity
  8
0
100
AcDbLine
 62
7
  6
CONTINUOUS
 10
101.7940142161
 20
68.4606551392
 11
101.467813347
 21
68.4606551392
  0
LINE
  5
677
100
AcDbEntity
  8
0
100
AcDbLine
 62
7
  6
CONTINUOUS
 10
121.2554956129
 20
68.5591320229
 11
121.7554956129
 21
68.5591320229
  0
LINE
  5
678
100
AcDbEntity
  8
0
100
AcDbLine
 62
7
  6
CONTINUOUS
 10
121.2554956129
 20
69.012382694
 11
121.7554956129
 21
69.012382694
  0
LINE
  5
679
100
AcDbEntity
  8
RUNDUNGEN
100
AcDbLine
 62
7
  6
CONTINUOUS
 10
120.2554956129
 20
70.4606551392
 11
109.2554956129
 21
70.4606551392
  0
LINE
  5
67A
100
AcDbEntity
  8
0
100
AcDbLine
 62
7
  6
CONTINUOUS
 10
103.8010444628
 20
70.4606551392
 11
103.4169551425
 21
70.4606551392
  0
LINE
  5
67B
100
AcDbEntity
  8
KONSTRUKTIONSELEMENTE
100
AcDbLine
 62
7
  6
CONTINUOUS
 10
125.9324101492
 20
40.8196389879
 11
134.7554956129
 21
56.1016712906
  0
LINE
  5
67C
100
AcDbEntity
  8
KONSTRUKTIONSELEMENTE
100
AcDbLine
 62
7
  6
CONTINUOUS
 10
123.5785810767
 20
75.4606551392
 11
105.9324101492
 21
75.4606551392
  0
LINE
  5
67D
100
AcDbEntity
  8
KONSTRUKTIONSELEMENTE
100
AcDbLine
 62
7
  6
CONTINUOUS
 10
134.7554956129
 20
58.8196389879
 11
125.9324101492
 21
74.1016712906
  0
LINE
  5
67E
100
AcDbEntity
  8
KONSTRUKTIONSELEMENTE
100
AcDbLine
 62
7
  6
CONTINUOUS
 10
134.7554956129
 20
56.1016712906
 11
134.7554956129
 21
58.8196389879
  0
LINE
  5
67F
100
AcDbEntity
  8
KONSTRUKTIONSELEMENTE
100
AcDbLine
 62
7
  6
CONTINUOUS
 10
123.5785810767
 20
39.4606551392
 11
125.9324101492
 21
40.8196389879
  0
LINE
  5
680
100
AcDbEntity
  8
KONSTRUKTIONSELEMENTE
100
AcDbLine
 62
7
  6
CONTINUOUS
 10
125.9324101492
 20
74.1016712906
 11
123.5785810767
 21
75.4606551392
  0
ARC
  5
681
100
AcDbEntity
  8
RUNDUNGEN
100
AcDbCircle
 62
7
  6
CONTINUOUS
 10
114.7554956129
 20
160.178415919
 40
6.5
100
AcDbArc
 50
0.0
 51
180.0
  0
ARC
  5
682
100
AcDbEntity
  8
RUNDUNGEN
100
AcDbCircle
 62
7
  6
CONTINUOUS
 10
104.2554956129
 20
147.678415919
 40
4.0
100
AcDbArc
 50
270.0014949249
 51
360.0
  0
ARC
  5
683
100
AcDbEntity
  8
RUNDUNGEN
100
AcDbCircle
 62
7
  6
CONTINUOUS
 10
125.2554956129
 20
147.678415919
 40
4.0
100
AcDbArc
 50
180.0
 51
269.9988387507
  0
ARC
  5
684
100
AcDbEntity
  8
RUNDUNGEN
100
AcDbCircle
 62
7
  6
CONTINUOUS
 10
130.2554956129
 20
142.178415919
 40
1.5
100
AcDbArc
 50
0.0
 51
90.0
  0
ARC
  5
685
100
AcDbEntity
  8
RUNDUNGEN
100
AcDbCircle
 62
7
  6
CONTINUOUS
 10
99.2554956129
 20
142.178415919
 40
1.5
100
AcDbArc
 50
90.0
 51
180.0
  0
ARC
  5
686
100
AcDbEntity
  8
RUNDUNGEN
100
AcDbCircle
 62
7
  6
CONTINUOUS
 10
165.7994093469
 20
158.0444413228
 40
3.5
100
AcDbArc
 50
330.0
 51
360.0
  0
ARC
  5
687
100
AcDbEntity
  8
RUNDUNGEN
100
AcDbCircle
 62
7
  6
CONTINUOUS
 10
178.7994093469
 20
159.247084516
 40
1.5
100
AcDbArc
 50
318.0
 51
360.0
  0
ARC
  5
688
100
AcDbEntity
  8
RUNDUNGEN
100
AcDbCircle
 62
7
  6
CONTINUOUS
 10
166.2994721458
 20
149.9105754974
 40
1.0
100
AcDbArc
 50
150.0071962184
 51
180.006231494
  0
ARC
  5
689
100
AcDbEntity
  8
RUNDUNGEN
100
AcDbCircle
 62
7
  6
CONTINUOUS
 10
171.7994093469
 20
164.1119528397
 40
2.5
100
AcDbArc
 50
139.9998791628
 51
180.0002148027
  0
ARC
  5
68A
100
AcDbEntity
  8
RUNDUNGEN
100
AcDbCircle
 62
7
  6
CONTINUOUS
 10
176.1147509085
 20
165.178415919
 40
1.5
100
AcDbArc
 50
62.7339555493
 51
90.0
  0
ARC
  5
68B
100
AcDbEntity
  8
RUNDUNGEN
100
AcDbCircle
 62
7
  6
CONTINUOUS
 10
171.1557170051
 20
165.678415919
 40
1.0
100
AcDbArc
 50
90.0000000001
 51
140.0
  0
ARC
  5
68C
100
AcDbEntity
  8
RUNDUNGEN
100
AcDbCircle
 62
7
  6
CONTINUOUS
 10
179.2994093469
 20
164.5293052784
 40
1.0
100
AcDbArc
 50
0.0
 51
76.6576362029
  0
ARC
  5
68D
100
AcDbEntity
  8
RUNDUNGEN
100
AcDbCircle
 62
7
  6
CONTINUOUS
 10
182.2994093469
 20
151.178415919
 40
6.5
100
AcDbArc
 50
138.0000142783
 51
41.9999869764
  0
ARC
  5
68E
100
AcDbEntity
  8
RUNDUNGEN
100
AcDbCircle
 62
7
  6
CONTINUOUS
 10
198.7994093469
 20
158.0444413228
 40
3.5
100
AcDbArc
 50
180.0
 51
210.0
  0
ARC
  5
68F
100
AcDbEntity
  8
RUNDUNGEN
100
AcDbCircle
 62
7
  6
CONTINUOUS
 10
185.7994093469
 20
159.247084516
 40
1.5
100
AcDbArc
 50
180.0
 51
222.0
  0
ARC
  5
690
100
AcDbEntity
  8
RUNDUNGEN
100
AcDbCircle
 62
7
  6
CONTINUOUS
 10
198.2994004723
 20
149.9104820979
 40
1.0
100
AcDbArc
 50
359.9991193011
 51
29.9989830454
  0
ARC
  5
691
100
AcDbEntity
  8
0
100
AcDbCircle
 62
7
  6
CONTINUOUS
 10
182.2994093469
 20
177.178415919
 40
12.0
100
AcDbArc
 50
242.7339555493
 51
256.6576362029
  0
ARC
  5
692
100
AcDbEntity
  8
0
100
AcDbCircle
 62
7
  6
CONTINUOUS
 10
182.2994093469
 20
177.178415919
 40
12.0
100
AcDbArc
 50
283.3423637971
 51
297.2660444507
  0
ARC
  5
693
100
AcDbEntity
  8
RUNDUNGEN
100
AcDbCircle
 62
7
  6
CONTINUOUS
 10
192.7994093469
 20
164.1119528397
 40
2.5
100
AcDbArc
 50
0.0006043467
 51
40.0
  0
ARC
  5
694
100
AcDbEntity
  8
RUNDUNGEN
100
AcDbCircle
 62
7
  6
CONTINUOUS
 10
188.4840677854
 20
165.178415919
 40
1.5
100
AcDbArc
 50
90.0
 51
117.2660444507
  0
ARC
  5
695
100
AcDbEntity
  8
RUNDUNGEN
100
AcDbCircle
 62
7
  6
CONTINUOUS
 10
193.4431016888
 20
165.678415919
 40
1.0
100
AcDbArc
 50
40.0
 51
90.0
  0
ARC
  5
696
100
AcDbEntity
  8
RUNDUNGEN
100
AcDbCircle
 62
7
  6
CONTINUOUS
 10
185.2994093469
 20
164.5293052784
 40
1.0
100
AcDbArc
 50
103.3423637971
 51
180.0
  0
ARC
  5
697
100
AcDbEntity
  8
RUNDUNGEN
100
AcDbCircle
 62
7
  6
CONTINUOUS
 10
97.7554956129
 20
57.4606551392
 40
12.0
100
AcDbArc
 50
332.7339555493
 51
339.7193540039
  0
ARC
  5
698
100
AcDbEntity
  8
RUNDUNGEN
100
AcDbCircle
 62
7
  6
CONTINUOUS
 10
97.7554956129
 20
57.4606551392
 40
12.0
100
AcDbArc
 50
20.2806459961
 51
27.2660444507
  0
ARC
  5
699
100
AcDbEntity
  8
RUNDUNGEN
100
AcDbCircle
 62
7
  6
CONTINUOUS
 10
109.7554591255
 20
42.7892551257
 40
1.4999900489
100
AcDbArc
 50
180.0000281736
 51
251.1803883162
  0
ARC
  5
69A
100
AcDbEntity
  8
RUNDUNGEN
100
AcDbCircle
 62
7
  6
CONTINUOUS
 10
109.2554956129
 20
45.4606551392
 40
1.0
100
AcDbArc
 50
180.0
 51
270.0
  0
ARC
  5
69B
100
AcDbEntity
  8
RUNDUNGEN
100
AcDbCircle
 62
7
  6
CONTINUOUS
 10
107.2554956129
 20
57.4606551392
 40
4.25
100
AcDbArc
 50
34.8474264105
 51
59.1255945924
  0
ARC
  5
69C
100
AcDbEntity
  8
RUNDUNGEN
100
AcDbCircle
 62
7
  6
CONTINUOUS
 10
107.2554956129
 20
57.4606551392
 40
4.25
100
AcDbArc
 50
300.8744054076
 51
325.1524722286
  0
ARC
  5
69D
100
AcDbEntity
  8
RUNDUNGEN
100
AcDbCircle
 62
7
  6
CONTINUOUS
 10
109.768236763
 20
51.3297650604
 40
1.5128141151
100
AcDbArc
 50
161.7640982673
 51
177.2408470198
  0
ARC
  5
69E
100
AcDbEntity
  8
RUNDUNGEN
100
AcDbCircle
 62
7
  6
CONTINUOUS
 10
109.7554956129
 20
51.2759967008
 40
1.5
100
AcDbArc
 50
152.7339555493
 51
180.0
  0
ARC
  5
69F
100
AcDbEntity
  8
RUNDUNGEN
100
AcDbCircle
 62
7
  6
CONTINUOUS
 10
109.7529466425
 20
51.3333688878
 40
1.4971647965
100
AcDbArc
 50
149.3259705155
 51
161.7119786222
  0
ARC
  5
6A0
100
AcDbEntity
  8
RUNDUNGEN
100
AcDbCircle
 62
7
  6
CONTINUOUS
 10
109.7452999936
 20
51.3316870063
 40
1.4898116412
100
AcDbArc
 50
177.2722134902
 51
177.8523418659
  0
ARC
  5
6A1
100
AcDbEntity
  8
RUNDUNGEN
100
AcDbCircle
 62
7
  6
CONTINUOUS
 10
109.7361151854
 20
51.3319885938
 40
1.4806219834
100
AcDbArc
 50
177.8506846843
 51
179.9979958687
  0
ARC
  5
6A2
100
AcDbEntity
  8
RUNDUNGEN
100
AcDbCircle
 62
7
  6
CONTINUOUS
 10
109.9495745603
 20
52.9546104629
 40
1.0
100
AcDbArc
 50
120.8744054076
 51
159.7193540039
  0
ARC
  5
6A3
100
AcDbEntity
  8
RUNDUNGEN
100
AcDbCircle
 62
7
  6
CONTINUOUS
 10
111.5639175978
 20
54.4606551392
 40
1.0
100
AcDbArc
 50
90.0
 51
145.1399941868
  0
ARC
  5
6A4
100
AcDbEntity
  8
RUNDUNGEN
100
AcDbCircle
 62
7
  6
CONTINUOUS
 10
109.7682390387
 20
63.5915349741
 40
1.512813669
100
AcDbArc
 50
182.7603375489
 51
198.2357609146
  0
ARC
  5
6A5
100
AcDbEntity
  8
RUNDUNGEN
100
AcDbCircle
 62
7
  6
CONTINUOUS
 10
109.7554956129
 20
63.6453135777
 40
1.5
100
AcDbArc
 50
180.0
 51
207.2660444545
  0
ARC
  5
6A6
100
AcDbEntity
  8
RUNDUNGEN
100
AcDbCircle
 62
7
  6
CONTINUOUS
 10
109.7529496334
 20
63.5879313016
 40
1.4971650748
100
AcDbArc
 50
198.2878761439
 51
210.6734797429
  0
ARC
  5
6A7
100
AcDbEntity
  8
RUNDUNGEN
100
AcDbCircle
 62
7
  6
CONTINUOUS
 10
109.7452997881
 20
63.5896128362
 40
1.4898086905
100
AcDbArc
 50
182.1457136318
 51
182.7289865264
  0
ARC
  5
6A8
100
AcDbEntity
  8
RUNDUNGEN
100
AcDbCircle
 62
7
  6
CONTINUOUS
 10
109.736111058
 20
63.5893112942
 40
1.4806151138
100
AcDbArc
 50
180.0022077105
 51
182.1473661934
  0
ARC
  5
6A9
100
AcDbEntity
  8
RUNDUNGEN
100
AcDbCircle
 62
7
  6
CONTINUOUS
 10
109.9495745603
 20
61.9666998156
 40
1.0
100
AcDbArc
 50
200.2805987045
 51
239.1255945924
  0
ARC
  5
6AA
100
AcDbEntity
  8
RUNDUNGEN
100
AcDbCircle
 62
7
  6
CONTINUOUS
 10
109.7554956129
 20
72.1320558904
 40
1.5
100
AcDbArc
 50
108.8196331525
 51
180.0
  0
ARC
  5
6AB
100
AcDbEntity
  8
RUNDUNGEN
100
AcDbCircle
 62
7
  6
CONTINUOUS
 10
109.2554956129
 20
69.4606551392
 40
1.0
100
AcDbArc
 50
90.0
 51
180.0
  0
ARC
  5
6AC
100
AcDbEntity
  8
RUNDUNGEN
100
AcDbCircle
 62
7
  6
CONTINUOUS
 10
111.5639175978
 20
60.4606551392
 40
1.0
100
AcDbArc
 50
214.8604365792
 51
270.0
  0
ARC
  5
6AD
100
AcDbEntity
  8
RUNDUNGEN
100
AcDbCircle
 62
7
  6
CONTINUOUS
 10
119.7554956129
 20
42.7892543881
 40
1.5
100
AcDbArc
 50
288.8196295078
 51
360.0
  0
ARC
  5
6AE
100
AcDbEntity
  8
RUNDUNGEN
100
AcDbCircle
 62
7
  6
CONTINUOUS
 10
120.2554956129
 20
45.4606551392
 40
1.0
100
AcDbArc
 50
270.0
 51
360.0
  0
ARC
  5
6AF
100
AcDbEntity
  8
0
100
AcDbCircle
 62
7
  6
CONTINUOUS
 10
114.7554956129
 20
57.4606551392
 40
17.25
100
AcDbArc
 50
211.1250856063
 51
219.2607199174
  0
ARC
  5
6B0
100
AcDbEntity
  8
0
100
AcDbCircle
 62
7
  6
CONTINUOUS
 10
114.7554956129
 20
57.4606551392
 40
17.25
100
AcDbArc
 50
147.5725066183
 51
159.0539998895
  0
ARC
  5
6B1
100
AcDbEntity
  8
0
100
AcDbCircle
 62
7
  6
CONTINUOUS
 10
114.7554956129
 20
57.4606551392
 40
17.25
100
AcDbArc
 50
131.094787995
 51
144.9088248461
  0
ARC
  5
6B2
100
AcDbEntity
  8
0
100
AcDbCircle
 62
7
  6
CONTINUOUS
 10
114.7554956129
 20
57.4606551392
 40
17.25
100
AcDbArc
 50
161.4071774506
 51
208.5718781423
  0
CIRCLE
  5
6B3
100
AcDbEntity
  8
RUNDUNGEN
100
AcDbCircle
 62
7
  6
CONTINUOUS
 10
114.7554956129
 20
57.4606551392
 40
17.0
  0
ARC
  5
6B4
100
AcDbEntity
  8
RUNDUNGEN
100
AcDbCircle
 62
7
  6
CONTINUOUS
 10
117.447073628
 20
54.4606551392
 40
1.0
100
AcDbArc
 50
34.850096882
 51
90.0
  0
ARC
  5
6B5
100
AcDbEntity
  8
RUNDUNGEN
100
AcDbCircle
 62
7
  6
CONTINUOUS
 10
119.7427523195
 20
51.3297759432
 40
1.5128135129
100
AcDbArc
 50
2.7599158803
 51
18.236091943
  0
ARC
  5
6B6
100
AcDbEntity
  8
RUNDUNGEN
100
AcDbCircle
 62
7
  6
CONTINUOUS
 10
119.7554956129
 20
51.2759967008
 40
1.5
100
AcDbArc
 50
0.0
 51
27.2660444537
  0
ARC
  5
6B7
100
AcDbEntity
  8
RUNDUNGEN
100
AcDbCircle
 62
7
  6
CONTINUOUS
 10
119.7580417884
 20
51.3333797328
 40
1.4971648294
100
AcDbArc
 50
18.2882071439
 51
30.6733631426
  0
ARC
  5
6B8
100
AcDbEntity
  8
RUNDUNGEN
100
AcDbCircle
 62
7
  6
CONTINUOUS
 10
119.765693741
 20
51.3316982712
 40
1.4898063631
100
AcDbArc
 50
2.1461823641
 51
2.7285550138
  0
ARC
  5
6B9
100
AcDbEntity
  8
RUNDUNGEN
100
AcDbCircle
 62
7
  6
CONTINUOUS
 10
119.7748797379
 20
51.3319997748
 40
1.4806155194
100
AcDbArc
 50
0.0026274083
 51
2.1478353615
  0
ARC
  5
6BA
100
AcDbEntity
  8
RUNDUNGEN
100
AcDbCircle
 62
7
  6
CONTINUOUS
 10
119.6836206129
 20
52.6367735088
 40
1.0
100
AcDbArc
 50
21.7812864027
 51
66.7562981596
  0
ARC
  5
6BB
100
AcDbEntity
  8
RUNDUNGEN
100
AcDbCircle
 62
7
  6
CONTINUOUS
 10
121.7554956129
 20
57.4606551392
 40
4.25
100
AcDbArc
 50
113.2437018404
 51
145.1500297308
  0
ARC
  5
6BC
100
AcDbEntity
  8
RUNDUNGEN
100
AcDbCircle
 62
7
  6
CONTINUOUS
 10
121.7554956129
 20
57.4606551392
 40
4.25
100
AcDbArc
 50
214.8498593313
 51
246.7562981596
  0
ARC
  5
6BD
100
AcDbEntity
  8
RUNDUNGEN
100
AcDbCircle
 62
7
  6
CONTINUOUS
 10
131.7554956129
 20
57.4606551392
 40
12.0
100
AcDbArc
 50
201.7814874452
 51
207.2660444507
  0
ARC
  5
6BE
100
AcDbEntity
  8
RUNDUNGEN
100
AcDbCircle
 62
7
  6
CONTINUOUS
 10
131.7554956129
 20
57.4606551392
 40
12.0
100
AcDbArc
 50
152.7339555493
 51
158.2185125548
  0
ARC
  5
6BF
100
AcDbEntity
  8
RUNDUNGEN
100
AcDbCircle
 62
7
  6
CONTINUOUS
 10
117.447073628
 20
60.4606551392
 40
1.0
100
AcDbArc
 50
270.0
 51
325.1503746043
  0
ARC
  5
6C0
100
AcDbEntity
  8
RUNDUNGEN
100
AcDbCircle
 62
7
  6
CONTINUOUS
 10
119.7427544283
 20
63.591544755
 40
1.5128141156
100
AcDbArc
 50
341.7640016113
 51
357.2409396931
  0
ARC
  5
6C1
100
AcDbEntity
  8
RUNDUNGEN
100
AcDbCircle
 62
7
  6
CONTINUOUS
 10
119.7554956129
 20
63.6453135777
 40
1.5
100
AcDbArc
 50
332.7339555493
 51
360.0
  0
ARC
  5
6C2
100
AcDbEntity
  8
RUNDUNGEN
100
AcDbCircle
 62
7
  6
CONTINUOUS
 10
119.7580444423
 20
63.5879409555
 40
1.4971649093
100
AcDbArc
 50
329.3260167424
 51
341.7118812221
  0
ARC
  5
6C3
100
AcDbEntity
  8
RUNDUNGEN
100
AcDbCircle
 62
7
  6
CONTINUOUS
 10
119.7656918182
 20
63.5896227567
 40
1.4898110209
100
AcDbArc
 50
357.2723084712
 51
357.8522626408
  0
ARC
  5
6C4
100
AcDbEntity
  8
RUNDUNGEN
100
AcDbCircle
 62
7
  6
CONTINUOUS
 10
119.7748760577
 20
63.5893211793
 40
1.4806219318
100
AcDbArc
 50
357.8506054041
 51
359.9979060391
  0
ARC
  5
6C5
100
AcDbEntity
  8
RUNDUNGEN
100
AcDbCircle
 62
7
  6
CONTINUOUS
 10
119.6836206129
 20
62.2845367697
 40
1.0
100
AcDbArc
 50
293.2437018405
 51
338.218538781
  0
ARC
  5
6C6
100
AcDbEntity
  8
RUNDUNGEN
100
AcDbCircle
 62
7
  6
CONTINUOUS
 10
119.755549262
 20
72.1320562403
 40
1.4999853684
100
AcDbArc
 50
359.9999866315
 51
71.180116958
  0
ARC
  5
6C7
100
AcDbEntity
  8
RUNDUNGEN
100
AcDbCircle
 62
7
  6
CONTINUOUS
 10
120.2554956129
 20
69.4606551392
 40
1.0
100
AcDbArc
 50
0.0
 51
90.0
  0
ELLIPSE
  5
6C8
100
AcDbEntity
  8
0
100
AcDbEllipse
 62
7
  6
CONTINUOUS
 10
114.7554956129
 20
130.0082030951
 30
0.0
 11
17.25
 21
-0.0
 31
0.0
 40
0.1702127606
 41
-2.5053183993
 42
-2.4687796686
  0
ELLIPSE
  5
6C9
100
AcDbEntity
  8
0
100
AcDbEllipse
 62
7
  6
CONTINUOUS
 10
114.7554956129
 20
131.752883891
 30
0.0
 11
17.25
 21
-0.0
 31
0.0
 40
0.3404255211
 41
-2.5232197357
 42
-2.5053183993
  0
ELLIPSE
  5
6CA
100
AcDbEntity
  8
0
100
AcDbEllipse
 62
7
  6
CONTINUOUS
 10
114.7554956129
 20
135.1571391023
 30
0.0
 11
17.25
 21
0.0
 31
0.0
 40
0.6808510423
 41
-2.5408959007
 42
-2.5232197357
  0
ELLIPSE
  5
6CB
100
AcDbEntity
  8
0
100
AcDbEllipse
 62
7
  6
CONTINUOUS
 10
114.7554956129
 20
148.4338103962
 30
0.0
 11
0.0
 21
35.2341758452
 31
0.0
 40
0.4895814812
 41
-4.1233579658
 42
-4.1116922274
  0
ELLIPSE
  5
6CC
100
AcDbEntity
  8
0
100
AcDbEllipse
 62
7
  6
CONTINUOUS
 10
114.7554956129
 20
129.8167198268
 30
0.0
 11
17.25
 21
0.0
 31
0.0
 40
0.2553201148
 41
-2.7811835937
 42
-2.7604507859
  0
ELLIPSE
  5
6CD
100
AcDbEntity
  8
0
100
AcDbEllipse
 62
7
  6
CONTINUOUS
 10
114.7554956129
 20
131.3698997154
 30
0.0
 11
17.25
 21
-0.0
 31
0.0
 40
0.5106373301
 41
-2.8017557441
 42
-2.7811835937
  0
ELLIPSE
  5
6CE
100
AcDbEntity
  8
0
100
AcDbEllipse
 62
7
  6
CONTINUOUS
 10
114.7554956129
 20
132.3486289031
 30
0.0
 11
17.25
 21
0.0
 31
0.0
 40
0.6808511019
 41
-2.8170866829
 42
-2.8017557441
  0
ELLIPSE
  5
6CF
100
AcDbEntity
  8
0
100
AcDbEllipse
 62
7
  6
CONTINUOUS
 10
114.7554956129
 20
137.0295108943
 30
0.0
 11
0.0
 21
26.4256295705
 31
0.0
 40
0.6527753654
 41
-4.398059598
 42
-4.3878830097
  0
ELLIPSE
  5
6D0
100
AcDbEntity
  8
0
100
AcDbEllipse
 62
7
  6
CONTINUOUS
 10
114.7554956129
 20
145.1995716413
 30
0.0
 11
0.0
 21
52.850666649
 31
0.0
 40
0.3263913418
 41
-4.4031352793
 42
-4.398059598
  0
ELLIPSE
  5
6D1
100
AcDbEntity
  8
0
100
AcDbEllipse
 62
7
  6
CONTINUOUS
 10
114.7554956129
 20
127.1741585975
 30
0.0
 11
17.25
 21
-0.0
 31
0.0
 40
0.2042556065
 41
2.6971534255
 42
2.7237418543
  0
ELLIPSE
  5
6D2
100
AcDbEntity
  8
0
100
AcDbEllipse
 62
7
  6
CONTINUOUS
 10
114.7554956129
 20
124.9018498433
 30
0.0
 11
17.25
 21
-0.0
 31
0.0
 40
0.5106343412
 41
2.6864242662
 42
2.6971534255
  0
ELLIPSE
  5
6D3
100
AcDbEntity
  8
0
100
AcDbEllipse
 62
7
  6
CONTINUOUS
 10
114.7554956129
 20
121.0294477556
 30
0.0
 11
-0.0
 21
17.6170925494
 31
0.0
 40
0.9791627053
 41
1.1048422604
 42
1.1156279394
  0
ELLIPSE
  5
6D4
100
AcDbEntity
  8
0
100
AcDbEllipse
 62
7
  6
CONTINUOUS
 10
114.7554956129
 20
113.1147088175
 30
0.0
 11
0.0
 21
35.2337695406
 31
0.0
 40
0.4895871269
 41
1.0994274396
 42
1.1048422604
  0
ELLIPSE
  5
6D5
100
AcDbEntity
  8
0
100
AcDbEllipse
 62
7
  6
CONTINUOUS
 10
114.7554956129
 20
145.4548945554
 30
0.0
 11
0.0
 21
35.2337818787
 31
0.0
 40
0.4895869555
 41
-4.2518350298
 42
-4.2410200932
  0
ELLIPSE
  5
6D6
100
AcDbEntity
  8
0
100
AcDbEllipse
 62
7
  6
CONTINUOUS
 10
114.7554956129
 20
135.0152943422
 30
0.0
 11
17.25
 21
0.0
 31
0.0
 40
0.6808509827
 41
-2.6971534255
 42
-2.6810387031
  0
ELLIPSE
  5
6D7
100
AcDbEntity
  8
0
100
AcDbEllipse
 62
7
  6
CONTINUOUS
 10
114.7554956129
 20
131.2280610758
 30
0.0
 11
17.25
 21
-0.0
 31
0.0
 40
0.1702127457
 41
-2.7290214122
 42
-2.6971534255
  0
ELLIPSE
  5
6D8
100
AcDbEntity
  8
0
100
AcDbEllipse
 62
7
  6
CONTINUOUS
 10
114.7554956129
 20
128.0365724192
 30
0.0
 11
17.25
 21
-0.0
 31
0.0
 40
0.3404254913
 41
2.6971534255
 42
2.7290214122
  0
ELLIPSE
  5
6D9
100
AcDbEntity
  8
0
100
AcDbEllipse
 62
7
  6
CONTINUOUS
 10
114.7554956129
 20
122.9869858521
 30
0.0
 11
0.0
 21
17.6168847703
 31
0.0
 40
0.9791742538
 41
1.1156279394
 42
1.1263570987
  0
ELLIPSE
  5
6DA
100
AcDbEntity
  8
0
100
AcDbEllipse
 62
7
  6
CONTINUOUS
 10
114.7554956129
 20
115.2421871007
 30
0.0
 11
0.0
 21
35.2341727607
 31
0.0
 40
0.4895815241
 41
1.1048422604
 42
1.1156279394
  0
ELLIPSE
  5
6DB
100
AcDbEntity
  8
0
100
AcDbEllipse
 62
7
  6
CONTINUOUS
 10
114.7554956129
 20
143.1146301177
 30
0.0
 11
0.0
 21
26.4256295705
 31
0.0
 40
0.6527753654
 41
-4.257220593
 42
-4.246434914
  0
ELLIPSE
  5
6DC
100
AcDbEntity
  8
0
100
AcDbEllipse
 62
7
  6
CONTINUOUS
 10
114.7554956129
 20
136.6606853211
 30
0.0
 11
17.25
 21
-0.0
 31
0.0
 40
0.6808509827
 41
-2.7024973008
 42
-2.6864242662
  0
ELLIPSE
  5
6DD
100
AcDbEntity
  8
0
100
AcDbEllipse
 62
7
  6
CONTINUOUS
 10
114.7554956129
 20
133.1656454026
 30
0.0
 11
17.25
 21
-0.0
 31
0.0
 40
0.2042546715
 41
-2.7290214122
 42
-2.7024973008
  0
ELLIPSE
  5
6DE
100
AcDbEntity
  8
0
100
AcDbEllipse
 62
7
  6
CONTINUOUS
 10
114.7554956129
 20
109.4546793234
 30
0.0
 11
0.0
 21
70.4691519799
 31
0.0
 40
0.2447879606
 41
1.25138299
 42
1.2564669444
  0
ELLIPSE
  5
6DF
100
AcDbEntity
  8
0
100
AcDbEllipse
 62
7
  6
CONTINUOUS
 10
114.7554956129
 20
126.0507682756
 30
0.0
 11
-0.0
 21
17.6169855747
 31
0.0
 40
0.979168651
 41
1.2309594173
 42
1.25138299
  0
ELLIPSE
  5
6E0
100
AcDbEntity
  8
0
100
AcDbEllipse
 62
7
  6
CONTINUOUS
 10
114.7554956129
 20
128.9869325381
 30
0.0
 11
17.25
 21
-0.0
 31
0.0
 40
0.510637263
 41
2.7811835937
 42
2.8017557441
  0
ELLIPSE
  5
6E1
100
AcDbEntity
  8
0
100
AcDbEllipse
 62
7
  6
CONTINUOUS
 10
114.7554956129
 20
131.2057696306
 30
0.0
 11
17.25
 21
-0.0
 31
0.0
 40
0.1458969572
 41
2.7447878452
 42
2.7811835937
  0
ELLIPSE
  5
6E2
100
AcDbEntity
  8
0
100
AcDbEllipse
 62
7
  6
CONTINUOUS
 10
114.7554956129
 20
134.0507247163
 30
0.0
 11
0.0
 21
17.6168847703
 31
0.0
 40
0.9791742538
 41
-4.483338297
 42
-4.4734056101
  0
ELLIPSE
  5
6E3
100
AcDbEntity
  8
0
100
AcDbEllipse
 62
7
  6
CONTINUOUS
 10
114.7554956129
 20
132.7174222757
 30
0.0
 11
17.25
 21
0.0
 31
0.0
 40
0.6808509827
 41
-2.9273982099
 42
-2.9125419702
  0
ELLIPSE
  5
6E4
100
AcDbEntity
  8
0
100
AcDbEllipse
 62
7
  6
CONTINUOUS
 10
114.7554956129
 20
131.4691956906
 30
0.0
 11
17.25
 21
0.0
 31
0.0
 40
0.3404254913
 41
-2.9422065888
 42
-2.9273982099
  0
ELLIPSE
  5
6E5
100
AcDbEntity
  8
0
100
AcDbEllipse
 62
7
  6
CONTINUOUS
 10
114.7554956129
 20
127.4408276305
 30
0.0
 11
17.25
 21
-0.0
 31
0.0
 40
0.3404254913
 41
2.9273982099
 42
2.9422065888
  0
ELLIPSE
  5
6E6
100
AcDbEntity
  8
0
100
AcDbEllipse
 62
7
  6
CONTINUOUS
 10
114.7554956129
 20
126.1926010454
 30
0.0
 11
17.25
 21
0.0
 31
0.0
 40
0.6808509827
 41
2.9125419702
 42
2.9273982099
  0
ELLIPSE
  5
6E7
100
AcDbEntity
  8
0
100
AcDbEllipse
 62
7
  6
CONTINUOUS
 10
114.7554956129
 20
122.8593130258
 30
0.0
 11
-0.0
 21
26.4253333245
 31
0.0
 40
0.6527826835
 41
7.6149982637
 42
7.6249309506
  0
ELLIPSE
  5
6E8
100
AcDbEntity
  8
0
100
AcDbEllipse
 62
7
  6
CONTINUOUS
 10
114.7554956129
 20
116.6037564849
 30
0.0
 11
0.0
 21
52.8518639849
 31
0.0
 40
0.3263839475
 41
1.3268377635
 42
1.3318129565
  0
ELLIPSE
  5
6E9
100
AcDbEntity
  8
0
100
AcDbEllipse
 62
7
  6
CONTINUOUS
 10
114.7554956129
 20
142.39137911
 30
0.0
 11
0.0
 21
52.8518886616
 31
0.0
 40
0.3263837951
 41
-4.4734056101
 42
-4.468430417
  0
ELLIPSE
  5
6EA
100
AcDbEntity
  8
0
100
AcDbEllipse
 62
7
  6
CONTINUOUS
 10
114.7554956129
 20
128.7741601914
 30
0.0
 11
17.25
 21
-0.0
 31
0.0
 40
0.2042551568
 41
-2.9961529185
 42
-2.9716943233
  0
ELLIPSE
  5
6EB
100
AcDbEntity
  8
0
100
AcDbEllipse
 62
7
  6
CONTINUOUS
 10
114.7554956129
 20
129.7954359757
 30
0.0
 11
17.25
 21
-0.0
 31
0.0
 40
0.6127654705
 41
-3.0205241801
 42
-2.9961529185
  0
ELLIPSE
  5
6EC
100
AcDbEntity
  8
0
100
AcDbEllipse
 62
7
  6
CONTINUOUS
 10
114.7554956129
 20
131.3557203501
 30
0.0
 11
0.0
 21
23.4893609583
 31
0.0
 40
0.7343750233
 41
-4.6059077008
 42
-4.5913205069
  0
ELLIPSE
  5
6ED
100
AcDbEntity
  8
0
100
AcDbEllipse
 62
7
  6
CONTINUOUS
 10
114.7554956129
 20
133.5401351672
 30
0.0
 11
0.0
 21
44.0427221199
 31
0.0
 40
0.3916651644
 41
-4.6156196456
 42
-4.6059077008
  0
ELLIPSE
  5
6EE
100
AcDbEntity
  8
0
100
AcDbEllipse
 62
7
  6
CONTINUOUS
 10
114.7554956129
 20
141.1996048357
 30
0.0
 11
0.0
 21
123.3182180684
 31
0.0
 40
0.1398820083
 41
-4.6204721843
 42
-4.6156196456
  0
ELLIPSE
  5
6EF
100
AcDbEntity
  8
0
100
AcDbEllipse
 62
7
  6
CONTINUOUS
 10
114.7554956129
 20
119.1572292673
 30
0.0
 11
0.0
 21
123.3181933922
 31
0.0
 40
0.1398820363
 41
1.474026992
 42
1.4788795307
  0
ELLIPSE
  5
6F0
100
AcDbEntity
  8
0
100
AcDbEllipse
 62
7
  6
CONTINUOUS
 10
114.7554956129
 20
126.8166947635
 30
0.0
 11
0.0
 21
44.0427406273
 31
0.0
 40
0.3916649998
 41
1.4643150472
 42
1.474026992
  0
ELLIPSE
  5
6F1
100
AcDbEntity
  8
0
100
AcDbEllipse
 62
7
  6
CONTINUOUS
 10
114.7554956129
 20
129.0011117661
 30
0.0
 11
0.0
 21
23.489358902
 31
0.0
 40
0.7343750875
 41
1.4497278533
 42
1.4643150472
  0
ELLIPSE
  5
6F2
100
AcDbEntity
  8
0
100
AcDbEllipse
 62
7
  6
CONTINUOUS
 10
114.7554956129
 20
130.561396004
 30
0.0
 11
17.25
 21
-0.0
 31
0.0
 40
0.6127654169
 41
2.9961529185
 42
3.0205241801
  0
ELLIPSE
  5
6F3
100
AcDbEntity
  8
0
100
AcDbEllipse
 62
7
  6
CONTINUOUS
 10
114.7554956129
 20
131.5826716988
 30
0.0
 11
17.25
 21
0.0
 31
0.0
 40
0.204255139
 41
9.2548796305
 42
9.2793382256
  0
ELLIPSE
  5
6F4
100
AcDbEntity
  8
0
100
AcDbEllipse
 62
7
  6
CONTINUOUS
 10
114.7554956129
 20
137.3699280371
 30
0.0
 11
0.0
 21
26.4256295705
 31
0.0
 40
0.6527753654
 41
-4.4882958503
 42
-4.4783748934
  0
ELLIPSE
  5
6F5
100
AcDbEntity
  8
0
100
AcDbEllipse
 62
7
  6
CONTINUOUS
 10
114.7554956129
 20
134.1074941361
 30
0.0
 11
17.25
 21
0.0
 31
0.0
 40
0.6808509827
 41
-2.9323393952
 42
-2.9174995235
  0
ELLIPSE
  5
6F6
100
AcDbEntity
  8
0
100
AcDbEllipse
 62
7
  6
CONTINUOUS
 10
114.7554956129
 20
132.8876359091
 30
0.0
 11
17.25
 21
0.0
 31
0.0
 40
0.3404254913
 41
-2.9471326425
 42
-2.9323393952
  0
ELLIPSE
  5
6F7
100
AcDbEntity
  8
0
100
AcDbEllipse
 62
7
  6
CONTINUOUS
 10
114.7554956129
 20
128.944373513
 30
0.0
 11
17.25
 21
-0.0
 31
0.0
 40
0.6808509827
 41
9.2793382256
 42
9.3085745883
  0
ELLIPSE
  5
6F8
100
AcDbEntity
  8
0
100
AcDbEllipse
 62
7
  6
CONTINUOUS
 10
114.7554956129
 20
130.1358631222
 30
0.0
 11
17.25
 21
-0.0
 31
0.0
 40
0.204255139
 41
9.2548796305
 42
9.2793382256
  0
ELLIPSE
  5
6F9
100
AcDbEntity
  8
0
100
AcDbEllipse
 62
7
  6
CONTINUOUS
 10
114.7554956129
 20
127.6677776224
 30
0.0
 11
0.0
 21
32.2978726029
 31
0.0
 40
0.5340909047
 41
1.5418067593
 42
1.5707963268
  0
ELLIPSE
  5
6FA
100
AcDbEntity
  8
0
100
AcDbEllipse
 62
7
  6
CONTINUOUS
 10
114.7554956129
 20
131.8096215826
 30
0.0
 11
17.25
 21
-0.0
 31
0.0
 40
0.1702127457
 41
3.015656142
 42
3.0448233188
  0
ELLIPSE
  5
6FB
100
AcDbEntity
  8
0
100
AcDbEllipse
 62
7
  6
CONTINUOUS
 10
114.7554956129
 20
131.0720336566
 30
0.0
 11
17.25
 21
0.0
 31
0.0
 40
0.6127654169
 41
3.0448233188
 42
3.0690653173
  0
ELLIPSE
  5
6FC
100
AcDbEntity
  8
0
100
AcDbEllipse
 62
7
  6
CONTINUOUS
 10
114.7554956129
 20
130.5613948352
 30
0.0
 11
0.0
 21
17.6170191765
 31
0.0
 40
0.9791667834
 41
1.4982689905
 42
1.5127927932
  0
ELLIPSE
  5
6FD
100
AcDbEntity
  8
0
100
AcDbEllipse
 62
7
  6
CONTINUOUS
 10
114.7554956129
 20
129.5401222571
 30
0.0
 11
0.0
 21
35.2339711495
 31
0.0
 40
0.4895843255
 41
1.5127927932
 42
1.5224683563
  0
ELLIPSE
  5
6FE
100
AcDbEntity
  8
0
100
AcDbEllipse
 62
7
  6
CONTINUOUS
 10
114.7554956129
 20
128.689043483
 30
0.0
 11
0.0
 21
52.8513084938
 31
0.0
 40
0.3263873779
 41
1.5224683563
 42
1.527304356
  0
ELLIPSE
  5
6FF
100
AcDbEntity
  8
0
100
AcDbEllipse
 62
7
  6
CONTINUOUS
 10
114.7554956129
 20
127.1571250739
 30
0.0
 11
0.0
 21
88.0854319017
 31
0.0
 40
0.1958326096
 41
1.527304356
 42
1.5321393382
  0
ELLIPSE
  5
700
100
AcDbEntity
  8
0
100
AcDbEllipse
 62
7
  6
CONTINUOUS
 10
114.7554956129
 20
133.1997077178
 30
0.0
 11
0.0
 21
88.0854565781
 31
0.0
 40
0.1958325548
 41
1.6094533154
 42
1.6142882976
  0
ELLIPSE
  5
701
100
AcDbEntity
  8
0
100
AcDbEllipse
 62
7
  6
CONTINUOUS
 10
114.7554956129
 20
131.6677860901
 30
0.0
 11
0.0
 21
52.851259141
 31
0.0
 40
0.3263876827
 41
1.6142882976
 42
1.6191242973
  0
ELLIPSE
  5
702
100
AcDbEntity
  8
0
100
AcDbEllipse
 62
7
  6
CONTINUOUS
 10
114.7554956129
 20
130.8167099982
 30
0.0
 11
0.0
 21
35.2339773186
 31
0.0
 40
0.4895842398
 41
1.6191242973
 42
1.6287998604
  0
ELLIPSE
  5
703
100
AcDbEntity
  8
0
100
AcDbEllipse
 62
7
  6
CONTINUOUS
 10
114.7554956129
 20
129.7954371817
 30
0.0
 11
0.0
 21
17.6170212328
 31
0.0
 40
0.9791666691
 41
1.6287998604
 42
1.6384808921
  0
ELLIPSE
  5
704
100
AcDbEntity
  8
0
100
AcDbEllipse
 62
7
  6
CONTINUOUS
 10
114.7554956129
 20
133.5401170867
 30
0.0
 11
17.25
 21
-0.0
 31
0.0
 40
0.255319362
 41
2.8575972694
 42
2.8776698055
  0
ELLIPSE
  5
705
100
AcDbEntity
  8
0
100
AcDbEllipse
 62
7
  6
CONTINUOUS
 10
114.7554956129
 20
131.483379903
 30
0.0
 11
17.25
 21
0.0
 31
0.0
 40
0.6808512211
 41
2.8424657724
 42
2.8575972694
  0
ELLIPSE
  5
706
100
AcDbEntity
  8
0
100
AcDbEllipse
 62
7
  6
CONTINUOUS
 10
114.7554956129
 20
127.1571556194
 30
0.0
 11
0.0
 21
26.4254783621
 31
0.0
 40
0.6527791007
 41
1.2615426257
 42
1.2716694456
  0
ELLIPSE
  5
707
100
AcDbEntity
  8
0
100
AcDbEllipse
 62
7
  6
CONTINUOUS
 10
114.7554956129
 20
113.7528047449
 30
0.0
 11
0.0
 21
70.4683455213
 31
0.0
 40
0.244790762
 41
1.2564670025
 42
1.2615426257
  0
ELLIPSE
  5
708
100
AcDbEntity
  8
0
100
AcDbEllipse
 62
7
  6
CONTINUOUS
 10
114.7554956129
 20
158.604026974
 30
0.0
 11
0.0
 21
70.4683455213
 31
0.0
 40
0.244790762
 41
-4.4031352793
 42
-4.3980596561
  0
ELLIPSE
  5
709
100
AcDbEntity
  8
0
100
AcDbEllipse
 62
7
  6
CONTINUOUS
 10
114.7554956129
 20
145.1996836096
 30
0.0
 11
0.0
 21
26.4255030384
 31
0.0
 40
0.6527784911
 41
-4.4132620991
 42
-4.4031352793
  0
ELLIPSE
  5
70A
100
AcDbEntity
  8
0
100
AcDbEllipse
 62
7
  6
CONTINUOUS
 10
114.7554956129
 20
140.8734508423
 30
0.0
 11
17.25
 21
0.0
 31
0.0
 40
0.6808509827
 41
-2.8575972694
 42
-2.8424657724
  0
ELLIPSE
  5
70B
100
AcDbEntity
  8
0
100
AcDbEllipse
 62
7
  6
CONTINUOUS
 10
114.7554956129
 20
138.816714811
 30
0.0
 11
17.25
 21
0.0
 31
0.0
 40
0.255319362
 41
-2.8776698055
 42
-2.8575972694
  0
ELLIPSE
  5
70C
100
AcDbEntity
  8
0
100
AcDbEllipse
 62
7
  6
CONTINUOUS
 10
114.7554956129
 20
134.2124584517
 30
0.0
 11
17.25
 21
0.0
 31
0.0
 40
0.2042553906
 41
3.141592596
 42
3.1512546305
  0
ELLIPSE
  5
70D
100
AcDbEntity
  8
0
100
AcDbEllipse
 62
7
  6
CONTINUOUS
 10
114.7554956129
 20
132.8167043332
 30
0.0
 11
0.0
 21
70.4683455213
 31
0.0
 40
0.244790762
 41
1.5321393658
 42
1.536973444
  0
ELLIPSE
  5
70E
100
AcDbEntity
  8
0
100
AcDbEllipse
 62
7
  6
CONTINUOUS
 10
114.7554956129
 20
134.3060770584
 30
0.0
 11
0.0
 21
26.4254783621
 31
0.0
 40
0.6527791007
 41
1.536973444
 42
1.5466393972
  0
ELLIPSE
  5
70F
100
AcDbEntity
  8
0
100
AcDbEllipse
 62
7
  6
CONTINUOUS
 10
114.7554956129
 20
134.6606854932
 30
0.0
 11
17.25
 21
-0.0
 31
0.0
 40
0.6808512211
 41
3.117435724
 42
3.1319306767
  0
ELLIPSE
  5
710
100
AcDbEntity
  8
0
100
AcDbEllipse
 62
7
  6
CONTINUOUS
 10
114.7554956129
 20
134.5613947173
 30
0.0
 11
17.25
 21
0.0
 31
0.0
 40
0.2553189968
 41
3.0932646554
 42
3.1126030861
  0
ELLIPSE
  5
711
100
AcDbEntity
  8
0
100
AcDbEllipse
 62
7
  6
CONTINUOUS
 10
114.7554956129
 20
134.2067844627
 30
0.0
 11
17.25
 21
-0.0
 31
0.0
 40
0.6808512211
 41
3.0787493559
 42
3.0932646554
  0
ELLIPSE
  5
712
100
AcDbEntity
  8
0
100
AcDbEllipse
 62
7
  6
CONTINUOUS
 10
114.7554956129
 20
133.2847972973
 30
0.0
 11
0.0
 21
26.4255539661
 31
0.0
 40
0.6527772331
 41
1.4982689905
 42
1.5079530291
  0
ELLIPSE
  5
713
100
AcDbEntity
  8
0
100
AcDbEllipse
 62
7
  6
CONTINUOUS
 10
114.7554956129
 20
130.0933198819
 30
0.0
 11
0.0
 21
70.467942299
 31
0.0
 40
0.2447921628
 41
1.4934244581
 42
1.4982689905
  0
ELLIPSE
  5
714
100
AcDbEntity
  8
0
100
AcDbEllipse
 62
7
  6
CONTINUOUS
 10
114.7554956129
 20
118.2209237855
 30
0.0
 11
0.0
 21
104.1705977272
 31
0.0
 40
0.1631938414
 41
1.4479384887
 42
1.4504167975
  0
ELLIPSE
  5
715
100
AcDbEntity
  8
0
100
AcDbEllipse
 62
7
  6
CONTINUOUS
 10
114.7554956129
 20
124.6039922099
 30
0.0
 11
0.0
 21
52.0847514362
 31
0.0
 40
0.3263911132
 41
7.7261830409
 42
7.7311237959
  0
ELLIPSE
  5
716
100
AcDbEntity
  8
0
100
AcDbEllipse
 62
7
  6
CONTINUOUS
 10
114.7554956129
 20
127.9230841288
 30
0.0
 11
-0.0
 21
26.0426494318
 31
0.0
 40
0.6527753654
 41
7.7162921005
 42
7.7261830409
  0
ELLIPSE
  5
717
100
AcDbEntity
  8
0
100
AcDbEllipse
 62
7
  6
CONTINUOUS
 10
114.7554956129
 20
129.9089128599
 30
0.0
 11
17.0
 21
0.0
 31
0.0
 40
0.6808509827
 41
3.0001863864
 42
3.0039031202
  0
ELLIPSE
  5
718
100
AcDbEntity
  8
0
100
AcDbEllipse
 62
7
  6
CONTINUOUS
 10
114.7554956129
 20
141.4123694768
 30
0.0
 11
0.0
 21
44.0422119258
 31
0.0
 40
0.3916697015
 41
-4.453467005
 42
-4.4434584922
  0
ELLIPSE
  5
719
100
AcDbEntity
  8
0
100
AcDbEllipse
 62
7
  6
CONTINUOUS
 10
114.7554956129
 20
117.5827586376
 30
0.0
 11
0.0
 21
44.0422180948
 31
0.0
 40
0.3916696467
 41
1.3018658386
 42
1.3118743515
  0
ELLIPSE
  5
71A
100
AcDbEntity
  8
0
100
AcDbEllipse
 62
7
  6
CONTINUOUS
 10
114.7554956129
 20
122.8450836203
 30
0.0
 11
0.0
 21
23.4893609583
 31
0.0
 40
0.7343750233
 41
7.5950596586
 42
7.6100230706
  0
ELLIPSE
  5
71B
100
AcDbEntity
  8
0
100
AcDbEllipse
 62
7
  6
CONTINUOUS
 10
114.7554956129
 20
125.9656465254
 30
0.0
 11
17.25
 21
-0.0
 31
0.0
 40
0.6127668731
 41
2.8976340902
 42
2.9224515946
  0
ELLIPSE
  5
71C
100
AcDbEntity
  8
0
100
AcDbEllipse
 62
7
  6
CONTINUOUS
 10
114.7554956129
 20
127.497563708
 30
0.0
 11
17.25
 21
-0.0
 31
0.0
 40
0.2042556244
 41
2.9224515946
 42
2.9471326425
  0
ELLIPSE
  5
71D
100
AcDbEntity
  8
0
100
AcDbEllipse
 62
7
  6
CONTINUOUS
 10
114.7554956129
 20
144.7743636342
 30
0.0
 11
0.0
 21
52.0858949416
 31
0.0
 40
0.3263839475
 41
-4.4546426282
 42
-4.4495698727
  0
ELLIPSE
  5
71E
100
AcDbEntity
  8
0
100
AcDbEllipse
 62
7
  6
CONTINUOUS
 10
114.7554956129
 20
137.3982743186
 30
0.0
 11
0.0
 21
23.1489334106
 31
0.0
 40
0.7343750875
 41
-4.469821104
 42
-4.4546426282
  0
ELLIPSE
  5
71F
100
AcDbEntity
  8
0
100
AcDbEllipse
 62
7
  6
CONTINUOUS
 10
114.7554956129
 20
134.3401105427
 30
0.0
 11
17.0
 21
-0.0
 31
0.0
 40
0.6127640144
 41
-2.9241980996
 42
-2.8990247772
  0
ELLIPSE
  5
720
100
AcDbEntity
  8
0
100
AcDbEllipse
 62
7
  6
CONTINUOUS
 10
114.7554956129
 20
132.8422466401
 30
0.0
 11
17.0
 21
-0.0
 31
0.0
 40
0.2042556065
 41
-2.9492320691
 42
-2.9241980996
  0
ELLIPSE
  5
721
100
AcDbEntity
  8
0
100
AcDbEllipse
 62
7
  6
CONTINUOUS
 10
114.7554956129
 20
133.2592677132
 30
0.0
 11
17.0
 21
0.0
 31
0.0
 40
0.2042551568
 41
2.8481852264
 42
2.8736937412
  0
ELLIPSE
  5
722
100
AcDbEntity
  8
0
100
AcDbEllipse
 62
7
  6
CONTINUOUS
 10
114.7554956129
 20
132.8422466401
 30
0.0
 11
17.25
 21
-0.0
 31
0.0
 40
0.2042556065
 41
-2.9520540343
 42
-2.9273982099
  0
ELLIPSE
  5
723
100
AcDbEntity
  8
0
100
AcDbEllipse
 62
7
  6
CONTINUOUS
 10
114.7554956129
 20
134.3401105427
 30
0.0
 11
17.25
 21
0.0
 31
0.0
 40
0.6127640144
 41
-2.9273982099
 42
-2.9026092833
  0
ELLIPSE
  5
724
100
AcDbEntity
  8
0
100
AcDbEllipse
 62
7
  6
CONTINUOUS
 10
114.7554956129
 20
137.3982743186
 30
0.0
 11
0.0
 21
23.489358902
 31
0.0
 40
0.7343750875
 41
-4.4734056101
 42
-4.4584611483
  0
ELLIPSE
  5
725
100
AcDbEntity
  8
0
100
AcDbEllipse
 62
7
  6
CONTINUOUS
 10
114.7554956129
 20
144.7743636342
 30
0.0
 11
0.0
 21
52.8518639849
 31
0.0
 40
0.3263839475
 41
-4.4584611483
 42
-4.453467005
  0
ELLIPSE
  5
726
100
AcDbEntity
  8
0
100
AcDbEllipse
 62
7
  6
CONTINUOUS
 10
114.7554956129
 20
159.6675473892
 30
0.0
 11
0.0
 21
52.850666649
 31
0.0
 40
0.3263913418
 41
-4.0940160625
 42
-4.0880746291
  0
ELLIPSE
  5
727
100
AcDbEntity
  8
0
100
AcDbEllipse
 62
7
  6
CONTINUOUS
 10
114.7554956129
 20
127.497563708
 30
0.0
 11
17.0
 21
-0.0
 31
0.0
 40
0.2042556244
 41
2.919175133
 42
2.9442355059
  0
ELLIPSE
  5
728
100
AcDbEntity
  8
0
100
AcDbEllipse
 62
7
  6
CONTINUOUS
 10
114.7554956129
 20
130.788345271
 30
0.0
 11
17.25
 21
0.0
 31
0.0
 40
0.3404254913
 41
2.976593811
 42
2.9912687049
  0
ELLIPSE
  5
729
100
AcDbEntity
  8
0
100
AcDbEllipse
 62
7
  6
CONTINUOUS
 10
114.7554956129
 20
129.9089128599
 30
0.0
 11
17.25
 21
0.0
 31
0.0
 40
0.6808509827
 41
2.9912687049
 42
3.0059110495
  0
ELLIPSE
  5
72A
100
AcDbEntity
  8
0
100
AcDbEllipse
 62
7
  6
CONTINUOUS
 10
114.7554956129
 20
127.9230841288
 30
0.0
 11
0.0
 21
26.4256295705
 31
0.0
 40
0.6527753654
 41
7.7183000299
 42
7.7280451224
  0
ELLIPSE
  5
72B
100
AcDbEntity
  8
0
100
AcDbEllipse
 62
7
  6
CONTINUOUS
 10
114.7554956129
 20
124.6039922099
 30
0.0
 11
0.0
 21
52.8507036632
 31
0.0
 40
0.3263911132
 41
1.4448598152
 42
1.4497278533
  0
ELLIPSE
  5
72C
100
AcDbEntity
  8
0
100
AcDbEllipse
 62
7
  6
CONTINUOUS
 10
114.7554956129
 20
118.2209237855
 30
0.0
 11
0.0
 21
105.702518282
 31
0.0
 40
0.1631938414
 41
7.7329131605
 42
7.7377782615
  0
ELLIPSE
  5
72D
100
AcDbEntity
  8
0
100
AcDbEllipse
 62
7
  6
CONTINUOUS
 10
114.7554956129
 20
125.9656465254
 30
0.0
 11
17.0
 21
-0.0
 31
0.0
 40
0.6127668731
 41
2.8939718773
 42
2.919175133
  0
ELLIPSE
  5
72E
100
AcDbEntity
  8
0
100
AcDbEllipse
 62
7
  6
CONTINUOUS
 10
114.7554956129
 20
122.8450836203
 30
0.0
 11
0.0
 21
23.1489354372
 31
0.0
 40
0.7343750233
 41
7.5911625263
 42
7.6063608576
  0
ELLIPSE
  5
72F
100
AcDbEntity
  8
0
100
AcDbEllipse
 62
7
  6
CONTINUOUS
 10
114.7554956129
 20
117.5827586376
 30
0.0
 11
0.0
 21
43.403925079
 31
0.0
 40
0.3916696467
 41
1.2978105165
 42
1.3016347217
  0
ELLIPSE
  5
730
100
AcDbEntity
  8
0
100
AcDbEllipse
 62
7
  6
CONTINUOUS
 10
114.7554956129
 20
117.5827586376
 30
0.0
 11
0.0
 21
43.403925079
 31
0.0
 40
0.3916696467
 41
1.3066898261
 42
1.3079772191
  0
ELLIPSE
  5
731
100
AcDbEntity
  8
0
100
AcDbEllipse
 62
7
  6
CONTINUOUS
 10
114.7554956129
 20
141.4123694768
 30
0.0
 11
0.0
 21
43.4039189993
 31
0.0
 40
0.3916697015
 41
-4.4495698727
 42
-4.4394031701
  0
ELLIPSE
  5
732
100
AcDbEntity
  8
0
100
AcDbEllipse
 62
7
  6
CONTINUOUS
 10
114.7554956129
 20
116.3485834043
 30
0.0
 11
0.0
 21
26.0426494318
 31
0.0
 40
0.6527753654
 41
1.069694582
 42
1.0808390005
  0
ELLIPSE
  5
733
100
AcDbEntity
  8
0
100
AcDbEllipse
 62
7
  6
CONTINUOUS
 10
114.7554956129
 20
103.8381803507
 30
0.0
 11
0.0
 21
52.0847149585
 31
0.0
 40
0.3263913418
 41
1.0640968065
 42
1.069694582
  0
ELLIPSE
  5
734
100
AcDbEntity
  8
0
100
AcDbEllipse
 62
7
  6
CONTINUOUS
 10
114.7554956129
 20
163.1568899495
 30
0.0
 11
0.0
 21
69.4462947174
 31
0.0
 40
0.2447934777
 41
-4.2112872356
 42
-4.2056894601
  0
ELLIPSE
  5
735
100
AcDbEntity
  8
0
100
AcDbEllipse
 62
7
  6
CONTINUOUS
 10
114.7554956129
 20
142.3061207983
 30
0.0
 11
0.0
 21
26.0426494318
 31
0.0
 40
0.6527753654
 41
-4.2224316541
 42
-4.2112872356
  0
ELLIPSE
  5
736
100
AcDbEntity
  8
0
100
AcDbEllipse
 62
7
  6
CONTINUOUS
 10
114.7554956129
 20
133.3188460633
 30
0.0
 11
17.0
 21
-0.0
 31
0.0
 40
0.4085112129
 41
-2.6792137528
 42
-2.6516353273
  0
ELLIPSE
  5
737
100
AcDbEntity
  8
0
100
AcDbEllipse
 62
7
  6
CONTINUOUS
 10
114.7554956129
 20
124.4124365148
 30
0.0
 11
17.0
 21
0.0
 31
0.0
 40
0.7659602774
 41
2.6571827474
 42
2.6792137528
  0
ELLIPSE
  5
738
100
AcDbEntity
  8
0
100
AcDbEllipse
 62
7
  6
CONTINUOUS
 10
114.7554956129
 20
118.3487235952
 30
0.0
 11
0.0
 21
26.0423513996
 31
0.0
 40
0.6527828359
 41
1.0752751188
 42
1.0863864206
  0
ELLIPSE
  5
739
100
AcDbEntity
  8
0
100
AcDbEllipse
 62
7
  6
CONTINUOUS
 10
114.7554956129
 20
97.7098282135
 30
0.0
 11
0.0
 21
69.4478599222
 31
0.0
 40
0.2447879606
 41
1.069694582
 42
1.0752751188
  0
ELLIPSE
  5
73A
100
AcDbEntity
  8
0
100
AcDbEllipse
 62
7
  6
CONTINUOUS
 10
114.7554956129
 20
164.6044504381
 30
0.0
 11
0.0
 21
69.4478599222
 31
0.0
 40
0.2447879606
 41
-4.2168677724
 42
-4.2112872356
  0
ELLIPSE
  5
73B
100
AcDbEntity
  8
0
100
AcDbEllipse
 62
7
  6
CONTINUOUS
 10
114.7554956129
 20
139.8379743776
 30
0.0
 11
-0.0
 21
17.3616669432
 31
0.0
 40
0.979168651
 41
-4.2390256545
 42
-4.2168677724
  0
ELLIPSE
  5
73C
100
AcDbEntity
  8
0
100
AcDbEllipse
 62
7
  6
CONTINUOUS
 10
114.7554956129
 20
135.8805355891
 30
0.0
 11
17.0
 21
-0.0
 31
0.0
 40
0.510637263
 41
-2.6901384886
 42
-2.6682293277
  0
ELLIPSE
  5
73D
100
AcDbEntity
  8
0
100
AcDbEllipse
 62
7
  6
CONTINUOUS
 10
114.7554956129
 20
133.1753785525
 30
0.0
 11
17.0
 21
-0.0
 31
0.0
 40
0.1458969572
 41
-2.7279353742
 42
-2.6901384886
  0
ELLIPSE
  5
73E
100
AcDbEntity
  8
0
100
AcDbEllipse
 62
7
  6
CONTINUOUS
 10
114.7554956129
 20
135.6394084299
 30
0.0
 11
17.25
 21
0.0
 31
0.0
 40
0.6808509827
 41
-2.5172783023
 42
-2.499298682
  0
ELLIPSE
  5
73F
100
AcDbEntity
  8
0
100
AcDbEllipse
 62
7
  6
CONTINUOUS
 10
114.7554956129
 20
130.7145899786
 30
0.0
 11
17.25
 21
-0.0
 31
0.0
 40
0.204255678
 41
-2.499298682
 42
-2.4687796686
  0
ELLIPSE
  5
740
100
AcDbEntity
  8
0
100
AcDbEllipse
 62
7
  6
CONTINUOUS
 10
114.7554956129
 20
123.1571390278
 30
0.0
 11
17.25
 21
-0.0
 31
0.0
 40
0.6808511019
 41
2.6593490056
 42
2.6756385872
  0
ELLIPSE
  5
741
100
AcDbEntity
  8
0
100
AcDbEllipse
 62
7
  6
CONTINUOUS
 10
114.7554956129
 20
122.4337026277
 30
0.0
 11
-0.0
 21
26.0426494318
 31
0.0
 40
0.6527753654
 41
1.2153176252
 42
1.2257552917
  0
ELLIPSE
  5
742
100
AcDbEntity
  8
0
100
AcDbEllipse
 62
7
  6
CONTINUOUS
 10
114.7554956129
 20
127.4691970551
 30
0.0
 11
17.0
 21
-0.0
 31
0.0
 40
0.6808509827
 41
9.0535660533
 42
9.0692992591
  0
ELLIPSE
  5
743
100
AcDbEntity
  8
0
100
AcDbEllipse
 62
7
  6
CONTINUOUS
 10
114.7554956129
 20
130.4082073379
 30
0.0
 11
17.0
 21
0.0
 31
0.0
 40
0.2042546715
 41
9.0367039598
 42
9.0535660533
  0
ELLIPSE
  5
744
100
AcDbEntity
  8
0
100
AcDbEllipse
 62
7
  6
CONTINUOUS
 10
114.7554956129
 20
124.4762957591
 30
0.0
 11
17.25
 21
0.0
 31
0.0
 40
0.5106373301
 41
2.6756385872
 42
2.6971534255
  0
ELLIPSE
  5
745
100
AcDbEntity
  8
0
100
AcDbEllipse
 62
7
  6
CONTINUOUS
 10
114.7554956129
 20
131.7528814144
 30
0.0
 11
17.0
 21
0.0
 31
0.0
 40
0.510638791
 41
2.8276368026
 42
2.8481852264
  0
ELLIPSE
  5
746
100
AcDbEntity
  8
0
100
AcDbEllipse
 62
7
  6
CONTINUOUS
 10
114.7554956129
 20
126.3698982767
 30
0.0
 11
17.25
 21
-0.0
 31
0.0
 40
0.2553201148
 41
2.6971534255
 42
2.7184498912
  0
ELLIPSE
  5
747
100
AcDbEntity
  8
0
100
AcDbEllipse
 62
7
  6
CONTINUOUS
 10
114.7554956129
 20
129.0720279961
 30
0.0
 11
-0.0
 21
17.3617181353
 31
0.0
 40
0.9791657639
 41
1.236154005
 42
1.2568404758
  0
ELLIPSE
  5
748
100
AcDbEntity
  8
0
100
AcDbEllipse
 62
7
  6
CONTINUOUS
 10
114.7554956129
 20
123.3699270332
 30
0.0
 11
0.0
 21
34.7233399661
 31
0.0
 40
0.4895842398
 41
1.2257552917
 42
1.236154005
  0
ELLIPSE
  5
749
100
AcDbEntity
  8
0
100
AcDbEllipse
 62
7
  6
CONTINUOUS
 10
114.7554956129
 20
105.7527755055
 30
0.0
 11
0.0
 21
86.8088314393
 31
0.0
 40
0.1958326096
 41
1.2205414334
 42
1.2257552917
  0
ELLIPSE
  5
74A
100
AcDbEntity
  8
0
100
AcDbEllipse
 62
7
  6
CONTINUOUS
 10
114.7554956129
 20
166.6040729027
 30
0.0
 11
0.0
 21
86.8088800769
 31
0.0
 40
0.1958324999
 41
-4.3673479453
 42
-4.362134087
  0
ELLIPSE
  5
74B
100
AcDbEntity
  8
0
100
AcDbEllipse
 62
7
  6
CONTINUOUS
 10
114.7554956129
 20
148.9869028677
 30
0.0
 11
0.0
 21
34.7233338865
 31
0.0
 40
0.4895843255
 41
-4.3777466586
 42
-4.3673479453
  0
ELLIPSE
  5
74C
100
AcDbEntity
  8
0
100
AcDbEllipse
 62
7
  6
CONTINUOUS
 10
114.7554956129
 20
131.4124594939
 30
0.0
 11
17.25
 21
-0.0
 31
0.0
 40
0.2042556065
 41
-2.9471326425
 42
-2.9224515946
  0
ELLIPSE
  5
74D
100
AcDbEntity
  8
0
100
AcDbEllipse
 62
7
  6
CONTINUOUS
 10
114.7554956129
 20
143.2848034023
 30
0.0
 11
-0.0
 21
17.3617166154
 31
0.0
 40
0.9791658496
 41
-4.3984331294
 42
-4.3777466586
  0
ELLIPSE
  5
74E
100
AcDbEntity
  8
0
100
AcDbEllipse
 62
7
  6
CONTINUOUS
 10
114.7554956129
 20
140.6039501014
 30
0.0
 11
17.0
 21
0.0
 31
0.0
 40
0.510638724
 41
-2.8481852264
 42
-2.8276368026
  0
ELLIPSE
  5
74F
100
AcDbEntity
  8
0
100
AcDbEllipse
 62
7
  6
CONTINUOUS
 10
114.7554956129
 20
140.6889632406
 30
0.0
 11
0.0
 21
35.2337695406
 31
0.0
 40
0.4895871269
 41
-4.3776714616
 42
-4.3725520709
  0
ELLIPSE
  5
750
100
AcDbEntity
  8
0
100
AcDbEllipse
 62
7
  6
CONTINUOUS
 10
114.7554956129
 20
132.9443765424
 30
0.0
 11
17.25
 21
0.0
 31
0.0
 40
0.6127668194
 41
-2.9224515946
 42
-2.8976340902
  0
ELLIPSE
  5
751
100
AcDbEntity
  8
0
100
AcDbEllipse
 62
7
  6
CONTINUOUS
 10
114.7554956129
 20
134.6464998435
 30
0.0
 11
0.0
 21
17.6170191765
 31
0.0
 40
0.9791667834
 41
-4.468430417
 42
-4.453467005
  0
ELLIPSE
  5
752
100
AcDbEntity
  8
0
100
AcDbEllipse
 62
7
  6
CONTINUOUS
 10
114.7554956129
 20
134.8167375769
 30
0.0
 11
0.0
 21
17.6170925494
 31
0.0
 40
0.9791627053
 41
-4.3725520709
 42
-4.3622853723
  0
ELLIPSE
  5
753
100
AcDbEntity
  8
0
100
AcDbEllipse
 62
7
  6
CONTINUOUS
 10
114.7554956129
 20
131.7954134491
 30
0.0
 11
17.25
 21
0.0
 31
0.0
 40
0.5106343412
 41
-2.7914890455
 42
-2.7811835937
  0
ELLIPSE
  5
754
100
AcDbEntity
  8
0
100
AcDbEllipse
 62
7
  6
CONTINUOUS
 10
114.7554956129
 20
129.9316092849
 30
0.0
 11
17.25
 21
-0.0
 31
0.0
 40
0.2042556065
 41
-2.7811835937
 42
-2.7552409023
  0
ELLIPSE
  5
755
100
AcDbEntity
  8
0
100
AcDbEllipse
 62
7
  6
CONTINUOUS
 10
114.7554956129
 20
126.8876351769
 30
0.0
 11
0.0
 21
32.2978726029
 31
0.0
 40
0.5340909047
 41
1.5176311698
 42
1.5466393696
  0
ELLIPSE
  5
756
100
AcDbEntity
  8
0
100
AcDbEllipse
 62
7
  6
CONTINUOUS
 10
114.7554956129
 20
139.0975640444
 30
0.0
 11
17.0
 21
-0.0
 31
0.0
 40
0.204255139
 41
-2.8736937412
 42
-2.8481852264
  0
ELLIPSE
  5
757
100
AcDbEntity
  8
0
100
AcDbEllipse
 62
7
  6
CONTINUOUS
 10
114.7554956129
 20
129.9316092849
 30
0.0
 11
17.0
 21
-0.0
 31
0.0
 40
0.2042556065
 41
-2.7756355601
 42
-2.7535186934
  0
ELLIPSE
  5
758
100
AcDbEntity
  8
0
100
AcDbEllipse
 62
7
  6
CONTINUOUS
 10
114.7554956129
 20
131.7954134491
 30
0.0
 11
17.0
 21
-0.0
 31
0.0
 40
0.5106343412
 41
-2.786113952
 42
-2.7756355601
  0
ELLIPSE
  5
759
100
AcDbEntity
  8
0
100
AcDbEllipse
 62
7
  6
CONTINUOUS
 10
114.7554956129
 20
134.8167375769
 30
0.0
 11
0.0
 21
17.3617723676
 31
0.0
 40
0.9791627053
 41
-4.3673479453
 42
-4.3569102788
  0
ELLIPSE
  5
75A
100
AcDbEntity
  8
0
100
AcDbEllipse
 62
7
  6
CONTINUOUS
 10
114.7554956129
 20
140.6889632406
 30
0.0
 11
0.0
 21
34.7231351995
 31
0.0
 40
0.4895871269
 41
-4.3725521106
 42
-4.3673479453
  0
ELLIPSE
  5
75B
100
AcDbEntity
  8
0
100
AcDbEllipse
 62
7
  6
CONTINUOUS
 10
114.7554956129
 20
126.3698982767
 30
0.0
 11
17.0
 21
-0.0
 31
0.0
 40
0.2553201148
 41
2.6901384886
 42
2.7118171811
  0
ELLIPSE
  5
75C
100
AcDbEntity
  8
0
100
AcDbEllipse
 62
7
  6
CONTINUOUS
 10
114.7554956129
 20
124.4762957591
 30
0.0
 11
17.0
 21
-0.0
 31
0.0
 40
0.5106373301
 41
2.6682293277
 42
2.6901384886
  0
ELLIPSE
  5
75D
100
AcDbEntity
  8
0
100
AcDbEllipse
 62
7
  6
CONTINUOUS
 10
114.7554956129
 20
123.1571390278
 30
0.0
 11
17.0
 21
0.0
 31
0.0
 40
0.6808511019
 41
2.6516353273
 42
2.6682293277
  0
ELLIPSE
  5
75E
100
AcDbEntity
  8
0
100
AcDbEllipse
 62
7
  6
CONTINUOUS
 10
114.7554956129
 20
130.7145899786
 30
0.0
 11
17.0
 21
-0.0
 31
0.0
 40
0.204255678
 41
-2.4882511051
 42
-2.4570058877
  0
ELLIPSE
  5
75F
100
AcDbEntity
  8
0
100
AcDbEllipse
 62
7
  6
CONTINUOUS
 10
114.7554956129
 20
135.6394084299
 30
0.0
 11
17.0
 21
-0.0
 31
0.0
 40
0.6808509827
 41
-2.5066426135
 42
-2.4882511051
  0
ELLIPSE
  5
760
100
AcDbEntity
  8
0
100
AcDbEllipse
 62
7
  6
CONTINUOUS
 10
114.7554956129
 20
159.6675473892
 30
0.0
 11
0.0
 21
52.0847149585
 31
0.0
 40
0.3263913418
 41
-4.0835140549
 42
-4.0774389403
  0
ELLIPSE
  5
761
100
AcDbEntity
  8
0
100
AcDbEllipse
 62
7
  6
CONTINUOUS
 10
114.7554956129
 20
130.4082073379
 30
0.0
 11
17.25
 21
0.0
 31
0.0
 40
0.2042546715
 41
2.7500199535
 42
2.7760160161
  0
ELLIPSE
  5
762
100
AcDbEntity
  8
0
100
AcDbEllipse
 62
7
  6
CONTINUOUS
 10
114.7554956129
 20
127.4691970551
 30
0.0
 11
17.25
 21
0.0
 31
0.0
 40
0.6808509827
 41
2.7760160161
 42
2.7914890455
  0
ELLIPSE
  5
763
100
AcDbEntity
  8
0
100
AcDbEllipse
 62
7
  6
CONTINUOUS
 10
114.7554956129
 20
122.4337026277
 30
0.0
 11
0.0
 21
26.4256295705
 31
0.0
 40
0.6527753654
 41
1.2206927187
 42
1.2309594173
  0
ELLIPSE
  5
764
100
AcDbEntity
  8
0
100
AcDbEllipse
 62
7
  6
CONTINUOUS
 10
114.7554956129
 20
126.8876351769
 30
0.0
 11
0.0
 21
31.8297874928
 31
0.0
 40
0.5340909047
 41
7.8134178715
 42
7.8294693567
  0
ELLIPSE
  5
765
100
AcDbEntity
  8
0
100
AcDbEllipse
 62
7
  6
CONTINUOUS
 10
114.7554956129
 20
134.6464998435
 30
0.0
 11
0.0
 21
17.361700058
 31
0.0
 40
0.9791667834
 41
-4.4647682041
 42
-4.4495698727
  0
ELLIPSE
  5
766
100
AcDbEntity
  8
0
100
AcDbEllipse
 62
7
  6
CONTINUOUS
 10
114.7554956129
 20
130.4479190378
 30
0.0
 11
17.0
 21
-0.0
 31
0.0
 40
0.6808509827
 41
-3.0039031202
 42
-2.9975656327
  0
ELLIPSE
  5
767
100
AcDbEntity
  8
0
100
AcDbEllipse
 62
7
  6
CONTINUOUS
 10
114.7554956129
 20
132.4337486033
 30
0.0
 11
0.0
 21
26.0426555115
 31
0.0
 40
0.6527752131
 41
-4.5845903873
 42
-4.574699447
  0
ELLIPSE
  5
768
100
AcDbEntity
  8
0
100
AcDbEllipse
 62
7
  6
CONTINUOUS
 10
114.7554956129
 20
135.7528335486
 30
0.0
 11
0.0
 21
52.0847027992
 31
0.0
 40
0.3263914179
 41
-4.5895311423
 42
-4.5845903873
  0
ELLIPSE
  5
769
100
AcDbEntity
  8
0
100
AcDbEllipse
 62
7
  6
CONTINUOUS
 10
114.7554956129
 20
123.2422931055
 30
0.0
 11
0.0
 21
52.0847271177
 31
0.0
 40
0.3263912656
 41
1.4429977337
 42
1.4479384887
  0
ELLIPSE
  5
76A
100
AcDbEntity
  8
0
100
AcDbEllipse
 62
7
  6
CONTINUOUS
 10
114.7554956129
 20
127.6677691547
 30
0.0
 11
-0.0
 21
17.3617662879
 31
0.0
 40
0.9791630482
 41
7.7162921005
 42
7.7261830409
  0
ELLIPSE
  5
76B
100
AcDbEntity
  8
0
100
AcDbEllipse
 62
7
  6
CONTINUOUS
 10
114.7554956129
 20
128.4621042833
 30
0.0
 11
17.0
 21
0.0
 31
0.0
 40
0.6808509827
 41
9.2807509399
 42
9.2870884273
  0
ELLIPSE
  5
76C
100
AcDbEntity
  8
0
100
AcDbEllipse
 62
7
  6
CONTINUOUS
 10
114.7554956129
 20
132.9443765424
 30
0.0
 11
17.0
 21
-0.0
 31
0.0
 40
0.6127668194
 41
-2.919175133
 42
-2.8939718773
  0
ELLIPSE
  5
76D
100
AcDbEntity
  8
0
100
AcDbEllipse
 62
7
  6
CONTINUOUS
 10
114.7554956129
 20
131.4124594939
 30
0.0
 11
17.0
 21
-0.0
 31
0.0
 40
0.2042556065
 41
-2.9442355059
 42
-2.919175133
  0
ELLIPSE
  5
76E
100
AcDbEntity
  8
0
100
AcDbEllipse
 62
7
  6
CONTINUOUS
 10
114.7554956129
 20
133.1753785525
 30
0.0
 11
17.25
 21
-0.0
 31
0.0
 40
0.1458969572
 41
-2.7342886776
 42
-2.6971534255
  0
ELLIPSE
  5
76F
100
AcDbEntity
  8
0
100
AcDbEllipse
 62
7
  6
CONTINUOUS
 10
114.7554956129
 20
135.8805355891
 30
0.0
 11
17.25
 21
0.0
 31
0.0
 40
0.510637263
 41
-2.6971534255
 42
-2.6756385872
  0
ELLIPSE
  5
770
100
AcDbEntity
  8
0
100
AcDbEllipse
 62
7
  6
CONTINUOUS
 10
114.7554956129
 20
139.8379743776
 30
0.0
 11
0.0
 21
17.6169855747
 31
0.0
 40
0.979168651
 41
-4.246434914
 42
-4.224684689
  0
ELLIPSE
  5
771
100
AcDbEntity
  8
0
100
AcDbEllipse
 62
7
  6
CONTINUOUS
 10
114.7554956129
 20
164.6044504381
 30
0.0
 11
0.0
 21
70.4691519799
 31
0.0
 40
0.2447879606
 41
-4.224684689
 42
-4.2192083078
  0
ELLIPSE
  5
772
100
AcDbEntity
  8
0
100
AcDbEllipse
 62
7
  6
CONTINUOUS
 10
114.7554956129
 20
97.7098282135
 30
0.0
 11
0.0
 21
70.4691519799
 31
0.0
 40
0.2447879606
 41
1.0776156542
 42
1.0830920354
  0
ELLIPSE
  5
773
100
AcDbEntity
  8
0
100
AcDbEllipse
 62
7
  6
CONTINUOUS
 10
114.7554956129
 20
118.3487235952
 30
0.0
 11
0.0
 21
26.4253271555
 31
0.0
 40
0.6527828359
 41
1.0830920354
 42
1.0939977575
  0
ELLIPSE
  5
774
100
AcDbEntity
  8
0
100
AcDbEllipse
 62
7
  6
CONTINUOUS
 10
114.7554956129
 20
139.0975640444
 30
0.0
 11
17.25
 21
-0.0
 31
0.0
 40
0.204255139
 41
-2.8776698055
 42
-2.8525610064
  0
ELLIPSE
  5
775
100
AcDbEntity
  8
0
100
AcDbEllipse
 62
7
  6
CONTINUOUS
 10
114.7554956129
 20
140.6039501014
 30
0.0
 11
17.25
 21
-0.0
 31
0.0
 40
0.510638724
 41
-2.8525610064
 42
-2.8323389525
  0
ELLIPSE
  5
776
100
AcDbEntity
  8
0
100
AcDbEllipse
 62
7
  6
CONTINUOUS
 10
114.7554956129
 20
143.2848034023
 30
0.0
 11
0.0
 21
17.6170359774
 31
0.0
 40
0.9791658496
 41
-4.4031352793
 42
-4.3827816946
  0
ELLIPSE
  5
777
100
AcDbEntity
  8
0
100
AcDbEllipse
 62
7
  6
CONTINUOUS
 10
114.7554956129
 20
148.9869028677
 30
0.0
 11
0.0
 21
35.2339711495
 31
0.0
 40
0.4895843255
 41
-4.3827816946
 42
-4.3725520709
  0
ELLIPSE
  5
778
100
AcDbEntity
  8
0
100
AcDbEllipse
 62
7
  6
CONTINUOUS
 10
114.7554956129
 20
166.6040729027
 30
0.0
 11
0.0
 21
88.0854812545
 31
0.0
 40
0.1958324999
 41
-4.3725520709
 42
-4.3674234561
  0
ELLIPSE
  5
779
100
AcDbEntity
  8
0
100
AcDbEllipse
 62
7
  6
CONTINUOUS
 10
114.7554956129
 20
105.7527755055
 30
0.0
 11
0.0
 21
88.0854319017
 31
0.0
 40
0.1958326096
 41
1.2258308025
 42
1.2309594173
  0
ELLIPSE
  5
77A
100
AcDbEntity
  8
0
100
AcDbEllipse
 62
7
  6
CONTINUOUS
 10
114.7554956129
 20
123.3699270332
 30
0.0
 11
0.0
 21
35.2339773186
 31
0.0
 40
0.4895842398
 41
1.2309594173
 42
1.241189041
  0
ELLIPSE
  5
77B
100
AcDbEntity
  8
0
100
AcDbEllipse
 62
7
  6
CONTINUOUS
 10
114.7554956129
 20
129.0720279961
 30
0.0
 11
-0.0
 21
17.6170375197
 31
0.0
 40
0.9791657639
 41
1.241189041
 42
1.2615426257
  0
ELLIPSE
  5
77C
100
AcDbEntity
  8
0
100
AcDbEllipse
 62
7
  6
CONTINUOUS
 10
114.7554956129
 20
131.7528814144
 30
0.0
 11
17.25
 21
-0.0
 31
0.0
 40
0.510638791
 41
2.8323389525
 42
2.8525610064
  0
ELLIPSE
  5
77D
100
AcDbEntity
  8
0
100
AcDbEllipse
 62
7
  6
CONTINUOUS
 10
114.7554956129
 20
133.2592677132
 30
0.0
 11
17.25
 21
-0.0
 31
0.0
 40
0.2042551568
 41
2.8525610064
 42
2.8776698055
  0
ELLIPSE
  5
77E
100
AcDbEntity
  8
0
100
AcDbEllipse
 62
7
  6
CONTINUOUS
 10
114.7554956129
 20
124.4124365148
 30
0.0
 11
17.25
 21
-0.0
 31
0.0
 40
0.7659602774
 41
2.6647940843
 42
2.6864242662
  0
ELLIPSE
  5
77F
100
AcDbEntity
  8
0
100
AcDbEllipse
 62
7
  6
CONTINUOUS
 10
114.7554956129
 20
133.3188460633
 30
0.0
 11
17.25
 21
0.0
 31
0.0
 40
0.4085112129
 41
-2.6864242662
 42
-2.6593490056
  0
ELLIPSE
  5
780
100
AcDbEntity
  8
0
100
AcDbEllipse
 62
7
  6
CONTINUOUS
 10
114.7554956129
 20
126.1784340363
 30
0.0
 11
0.0
 21
88.0849278737
 31
0.0
 40
0.1958337302
 41
1.4643150194
 42
1.4691722219
  0
ELLIPSE
  5
781
100
AcDbEntity
  8
0
100
AcDbEllipse
 62
7
  6
CONTINUOUS
 10
114.7554956129
 20
131.5401144457
 30
0.0
 11
-0.0
 21
35.2340781239
 31
0.0
 40
0.4895828391
 41
1.4691722219
 42
1.478879503
  0
ELLIPSE
  5
782
100
AcDbEntity
  8
0
100
AcDbEllipse
 62
7
  6
CONTINUOUS
 10
114.7554956129
 20
133.1571399718
 30
0.0
 11
0.0
 21
17.6170123183
 31
0.0
 40
0.9791671646
 41
7.7620648102
 42
7.7814542977
  0
ELLIPSE
  5
783
100
AcDbEntity
  8
0
100
AcDbEllipse
 62
7
  6
CONTINUOUS
 10
114.7554956129
 20
133.7954374916
 30
0.0
 11
17.25
 21
-0.0
 31
0.0
 40
0.5106380606
 41
3.0690653173
 42
3.0884275242
  0
ELLIPSE
  5
784
100
AcDbEntity
  8
0
100
AcDbEllipse
 62
7
  6
CONTINUOUS
 10
114.7554956129
 20
142.3061207983
 30
0.0
 11
0.0
 21
26.4256295705
 31
0.0
 40
0.6527753654
 41
-4.2301453324
 42
-4.2192083078
  0
ELLIPSE
  5
785
100
AcDbEntity
  8
0
100
AcDbEllipse
 62
7
  6
CONTINUOUS
 10
114.7554956129
 20
134.0762882237
 30
0.0
 11
17.25
 21
-0.0
 31
0.0
 40
0.2042553906
 41
3.0884275242
 42
3.1126030861
  0
ELLIPSE
  5
786
100
AcDbEntity
  8
0
100
AcDbEllipse
 62
7
  6
CONTINUOUS
 10
114.7554956129
 20
163.1568899495
 30
0.0
 11
0.0
 21
70.4675637574
 31
0.0
 40
0.2447934777
 41
-4.2192083078
 42
-4.2137156333
  0
ELLIPSE
  5
787
100
AcDbEntity
  8
0
100
AcDbEllipse
 62
7
  6
CONTINUOUS
 10
114.7554956129
 20
103.8381803507
 30
0.0
 11
0.0
 21
52.850666649
 31
0.0
 40
0.3263913418
 41
1.0721229797
 42
1.0776156542
  0
ELLIPSE
  5
788
100
AcDbEntity
  8
0
100
AcDbEllipse
 62
7
  6
CONTINUOUS
 10
114.7554956129
 20
134.7316074021
 30
0.0
 11
17.25
 21
0.0
 31
0.0
 40
0.255319362
 41
3.1319306767
 42
3.1512546305
  0
ELLIPSE
  5
789
100
AcDbEntity
  8
0
100
AcDbEllipse
 62
7
  6
CONTINUOUS
 10
114.7554956129
 20
116.3485834043
 30
0.0
 11
0.0
 21
26.4256295705
 31
0.0
 40
0.6527753654
 41
1.0776156542
 42
1.0885526788
  0
ELLIPSE
  5
78A
100
AcDbEntity
  8
0
100
AcDbEllipse
 62
7
  6
CONTINUOUS
 10
114.7554956129
 20
129.3415366944
 30
0.0
 11
17.25
 21
0.0
 31
0.0
 40
0.3404254913
 41
9.2597791182
 42
9.2744540121
  0
ELLIPSE
  5
78B
100
AcDbEntity
  8
0
100
AcDbEllipse
 62
7
  6
CONTINUOUS
 10
114.7554956129
 20
128.4621042833
 30
0.0
 11
17.25
 21
-0.0
 31
0.0
 40
0.6808509827
 41
2.9912687049
 42
3.0059110495
  0
ELLIPSE
  5
78C
100
AcDbEntity
  8
0
100
AcDbEllipse
 62
7
  6
CONTINUOUS
 10
114.7554956129
 20
127.6677691547
 30
0.0
 11
-0.0
 21
17.6170863803
 31
0.0
 40
0.9791630482
 41
1.4351147227
 42
1.4448598152
  0
ELLIPSE
  5
78D
100
AcDbEntity
  8
0
100
AcDbEllipse
 62
7
  6
CONTINUOUS
 10
114.7554956129
 20
123.2422931055
 30
0.0
 11
0.0
 21
52.8506789871
 31
0.0
 40
0.3263912656
 41
1.4448598152
 42
1.4497278533
  0
ELLIPSE
  5
78E
100
AcDbEntity
  8
0
100
AcDbEllipse
 62
7
  6
CONTINUOUS
 10
114.7554956129
 20
135.7528335486
 30
0.0
 11
0.0
 21
52.850654311
 31
0.0
 40
0.3263914179
 41
-4.5913205069
 42
-4.5864524688
  0
ELLIPSE
  5
78F
100
AcDbEntity
  8
0
100
AcDbEllipse
 62
7
  6
CONTINUOUS
 10
114.7554956129
 20
132.4337486033
 30
0.0
 11
-0.0
 21
26.4256357396
 31
0.0
 40
0.6527752131
 41
-4.5864524688
 42
-4.5767073763
  0
ELLIPSE
  5
790
100
AcDbEntity
  8
0
100
AcDbEllipse
 62
7
  6
CONTINUOUS
 10
114.7554956129
 20
130.4479190378
 30
0.0
 11
17.25
 21
-0.0
 31
0.0
 40
0.6808509827
 41
-3.0059110495
 42
-2.9912687049
  0
ELLIPSE
  5
791
100
AcDbEntity
  8
0
100
AcDbEllipse
 62
7
  6
CONTINUOUS
 10
114.7554956129
 20
129.5684866267
 30
0.0
 11
17.25
 21
-0.0
 31
0.0
 40
0.3404254913
 41
-2.9912687049
 42
-2.976593811
  0
ENDSEC
  0
SECTION
  2
OBJECTS
  0
DICTIONARY
  5
C
100
AcDbDictionary
280
0
281
1
  3
ACAD_GROUP
350
D
  3
ACAD_MLINESTYLE
350
17
  3
ACAD_LAYOUT
350
1A
  3
ACAD_PLOTSETTINGS
350
19
  3
ACAD_PLOTSTYLENAME
350
E
  0
DICTIONARY
  5
D
102
{ACAD_REACTORS
330
C
102
}
100
AcDbDictionary
280
0
281
1
  0
ACDBDICTIONARYWDFLT
  5
E
102
{ACAD_REACTORS
330
C
102
}
100
AcDbDictionary
281
1
  3
Normal
350
F
100
AcDbDictionaryWithDefault
340
F
  0
DICTIONARY
  5
17
102
{ACAD_REACTORS
330
C
102
}
100
AcDbDictionary
280
0
281
1
  3
Standard
350
18
  0
DICTIONARY
  5
19
102
{ACAD_REACTORS
330
C
102
}
100
AcDbDictionary
281
1
  0
DICTIONARY
  5
1A
102
{ACAD_REACTORS
330
C
102
}
100
AcDbDictionary
281
1
  3
Model
350
792
  3
Layout1
350
793
  0
ACDBPLACEHOLDER
  5
F
102
{ACAD_REACTORS
330
E
102
}
  0
MLINESTYLE
  5
18
102
{ACAD_REACTORS
330
17
102
}
100
AcDbMlineStyle
  2
STANDARD
 70
0
  3

 62
256
 51
90.0
 52
90.0
 71
2
 49
0.5
 62
256
  6
BYLAYER
 49
-0.5
 62
256
  6
BYLAYER
  0
LAYOUT
  5
792
102
{ACAD_REACTORS
330
1A
102
}
100
AcDbPlotSettings
  1

  2
none_device
  4
ISO_A4_(297.00_x_210.00_MM)
  6

 40
0.0
 41
0.0
 42
0.0
 43
0.0
 44
297.0
 45
210.0
 46
0.0
 47
0.0
 48
0.0
 49
0.0
140
0.0
141
0.0
142
1.0
143
1.0
 70
1024
 72
1
 73
0
 74
0
  7

 75
0
147
1.0
148
0.0
149
0.0
100
AcDbLayout
  1
Model
 70
0
 71
0
 10
0.0
 20
0.0
 11
297.0
 21
210.0
 12
0.0
 22
0.0
 32
0.0
 14
0.0
 24
0.0
 34
0.0
 15
0.0
 25
0.0
 35
0.0
146
0.0
 13
0.0
 23
0.0
 33
0.0
 16
1.0
 26
0.0
 36
0.0
 17
0.0
 27
1.0
 37
0.0
 76
0
330
20D
345
0
346
0
  0
LAYOUT
  5
793
102
{ACAD_REACTORS
330
1A
102
}
100
AcDbPlotSettings
  1

  2
none_device
  4
ISO_A4_(297.00_x_210.00_MM)
  6

 40
0.0
 41
0.0
 42
0.0
 43
0.0
 44
297.0
 45
210.0
 46
0.0
 47
0.0
 48
0.0
 49
0.0
140
0.0
141
0.0
142
1.0
143
1.0
 70
0
 72
1
 73
0
 74
0
  7

 75
0
147
1.0
148
0.0
149
0.0
100
AcDbLayout
  1
Layout1
 70
0
 71
1
 10
0.0
 20
0.0
 11
297.0
 21
210.0
 12
0.0
 22
0.0
 32
0.0
 14
0.0
 24
0.0
 34
0.0
 15
0.0
 25
0.0
 35
0.0
146
0.0
 13
0.0
 23
0.0
 33
0.0
 16
1.0
 26
0.0
 36
0.0
 17
0.0
 27
1.0
 37
0.0
 76
0
330
20E
345
0
346
0
  0
ENDSEC
  0
EOF
