999
DXF file: 001-m31342-p-20.dxf
999
Pro/ENGINEER 2011490 by Parametric Technology Corporation
  0
SECTION
  2
HEADER
  9
$ACADVER
  1
AC1015
  9
$DWGCODEPAGE
  3
ANSI_1252
  9
$EXTMAX
 10
841.0
 20
594.0
 30
0.0
  9
$EXTMIN
 10
0.0
 20
0.0
 30
0.0
  9
$LIMMIN
 10
0.0
 20
0.0
  9
$LIMMAX
 10
841.0
 20
594.0
  9
$VIEWCTR
 10
420.5
 20
297.0
  9
$VIEWSIZE
 40
594.0
  9
$CLAYER
  8
0
  9
$LTSCALE
 40
46.255
  9
$CELTYPE
  6
BYLAYER
  9
$DIMSCALE
 40
1.0
  9
$DIMASZ
 40
3.5
  9
$DIMEXO
 40
5.25625
  9
$DIMDLI
 40
31.958
  9
$DIMEXE
 40
15.138
  9
$DIMCEN
 40
7.569
  9
$DIMLFAC
 40
1.0
  9
$DIMBLK
  1
_FILLED
  9
$DIMTXT
 40
3.5
  9
$DIMTOL
 70
1
  9
$DIMLIM
 70
0
  9
$DIMTFAC
 40
1.0
  9
$DIMTP
 40
0.005
  9
$DIMTM
 40
0.005
  9
$PDMODE
 70
3
  9
$PDSIZE
 40
0.3125
  9
$HANDSEED
  5
999
  9
$TILEMODE
 70
1
  9
$MEASUREMENT
 70
1
  9
$INSUNITS
 70
4
  0
ENDSEC
  0
SECTION
  2
CLASSES
  0
CLASS
  1
ACDBDICTIONARYWDFLT
  2
AcDbDictionaryWithDefault
  3
AutoCAD 2000
 90
0
280
0
281
0
  0
CLASS
  1
ACDBPLACEHOLDER
  2
AcDbPlaceHolder
  3
AutoCAD 2000
 90
0
280
0
281
0
  0
CLASS
  1
LAYOUT
  2
AcDbLayout
  3
AutoCAD 2000
 90
0
280
0
281
0
  0
ENDSEC
  0
SECTION
  2
TABLES
  0
TABLE
  2
VPORT
  5
8
100
AcDbSymbolTable
 70
2
  0
VPORT
  5
1F4
100
AcDbSymbolTableRecord
100
AcDbViewportTableRecord
  2
*ACTIVE
 70
0
 10
0.0
 20
0.0
 11
1.0
 21
1.0
 12
420.5
 22
297.0
 13
0.0
 23
0.0
 14
1.0
 24
1.0
 15
0.0
 25
0.0
 16
0.0
 26
0.0
 36
1.0
 17
0.0
 27
0.0
 37
0.0
 40
594.0
 41
1.4158249158
 42
50.0
 43
0.0
 44
0.0
 50
0.0
 51
0.0
 71
0
 72
100
 73
1
 74
1
 75
0
 76
0
 77
0
 78
0
  0
ENDTAB
  0
TABLE
  2
LTYPE
  5
5
100
AcDbSymbolTable
 70
6
  0
LTYPE
  5
14
100
AcDbSymbolTableRecord
100
AcDbLinetypeTableRecord
  2
BYBLOCK
 70
0
  3

 72
65
 73
0
 40
0.0
  0
LTYPE
  5
15
100
AcDbSymbolTableRecord
100
AcDbLinetypeTableRecord
  2
BYLAYER
 70
0
  3

 72
65
 73
0
 40
0.0
  0
LTYPE
  5
16
100
AcDbSymbolTableRecord
100
AcDbLinetypeTableRecord
  2
CONTINUOUS
 70
64
  3
Solid line
 72
65
 73
0
 40
0.0
  0
LTYPE
  5
1F5
100
AcDbSymbolTableRecord
100
AcDbLinetypeTableRecord
  2
CENTER
 70
64
  3
____ _ ____ _ ____ _ ____ _ ____ _ ____ _ ____
 72
65
 73
4
 40
0.6
 49
0.375
 74
0
 49
-0.075
 74
0
 49
0.075
 74
0
 49
-0.075
 74
0
  0
LTYPE
  5
1F6
100
AcDbSymbolTableRecord
100
AcDbLinetypeTableRecord
  2
HIDDEN
 70
64
  3
- - - - - - - - - - - - - - - - - - - -
 72
65
 73
2
 40
0.2
 49
0.1
 74
0
 49
-0.1
 74
0
  0
LTYPE
  5
1F7
100
AcDbSymbolTableRecord
100
AcDbLinetypeTableRecord
  2
PHANTOM
 70
64
  3
_____ _ _ _____ _ _ _____ _ _ _____
 72
65
 73
6
 40
0.8
 49
0.45
 74
0
 49
-0.05
 74
0
 49
0.1
 74
0
 49
-0.05
 74
0
 49
0.1
 74
0
 49
-0.05
 74
0
  0
LTYPE
  5
1F8
100
AcDbSymbolTableRecord
100
AcDbLinetypeTableRecord
  2
DOT
 70
64
  3
. . . . . . . . . . . . . . . . . . . .
 72
65
 73
2
 40
0.2
 49
0.1
 74
0
 49
-0.1
 74
0
  0
LTYPE
  5
1F9
100
AcDbSymbolTableRecord
100
AcDbLinetypeTableRecord
  2
DASHED
 70
64
  3
- - - - - - - - - - - - - - - - - - - -
 72
65
 73
2
 40
0.2
 49
0.1
 74
0
 49
-0.1
 74
0
  0
ENDTAB
  0
TABLE
  2
LAYER
  5
2
100
AcDbSymbolTable
 70
36
  0
LAYER
  5
10
100
AcDbSymbolTableRecord
100
AcDbLayerTableRecord
  2
0
 70
0
 62
7
  6
CONTINUOUS
370
-3
390
F
  0
LAYER
  5
1FA
100
AcDbSymbolTableRecord
100
AcDbLayerTableRecord
  2
DEFAULT_1
 70
0
 62
7
  6
CENTER
370
-3
390
F
  0
LAYER
  5
1FB
100
AcDbSymbolTableRecord
100
AcDbLayerTableRecord
  2
DEFAULT_2
 70
0
 62
8
  6
HIDDEN
370
-3
390
F
  0
LAYER
  5
1FC
100
AcDbSymbolTableRecord
100
AcDbLayerTableRecord
  2
DEFAULT_3
 70
0
 62
7
  6
PHANTOM
370
-3
390
F
  0
LAYER
  5
1FD
100
AcDbSymbolTableRecord
100
AcDbLayerTableRecord
  2
AUSFORMSCHRAEGEN
 70
0
 62
7
  6
CONTINUOUS
370
-3
390
F
  0
LAYER
  5
1FE
100
AcDbSymbolTableRecord
100
AcDbLayerTableRecord
  2
BEZUGSACHSEN
 70
0
 62
7
  6
CONTINUOUS
370
-3
390
F
  0
LAYER
  5
1FF
100
AcDbSymbolTableRecord
100
AcDbLayerTableRecord
  2
BEZUGSEBENEN
 70
0
 62
7
  6
CONTINUOUS
370
-3
390
F
  0
LAYER
  5
200
100
AcDbSymbolTableRecord
100
AcDbLayerTableRecord
  2
BG_STARTBEZUEGE
 70
0
 62
7
  6
CONTINUOUS
370
-3
390
F
  0
LAYER
  5
201
100
AcDbSymbolTableRecord
100
AcDbLayerTableRecord
  2
FASEN
 70
0
 62
7
  6
CONTINUOUS
370
-3
390
F
  0
LAYER
  5
202
100
AcDbSymbolTableRecord
100
AcDbLayerTableRecord
  2
HILFEN
 70
0
 62
7
  6
CONTINUOUS
370
-3
390
F
  0
LAYER
  5
203
100
AcDbSymbolTableRecord
100
AcDbLayerTableRecord
  2
KONSTRUKTIONSELEMENTE
 70
0
 62
7
  6
CONTINUOUS
370
-3
390
F
  0
LAYER
  5
204
100
AcDbSymbolTableRecord
100
AcDbLayerTableRecord
  2
NORM
 70
0
 62
7
  6
CONTINUOUS
370
-3
390
F
  0
LAYER
  5
205
100
AcDbSymbolTableRecord
100
AcDbLayerTableRecord
  2
PLATZIERUNG
 70
0
 62
7
  6
CONTINUOUS
370
-3
390
F
  0
LAYER
  5
206
100
AcDbSymbolTableRecord
100
AcDbLayerTableRecord
  2
PLAZIERUNG
 70
0
 62
7
  6
CONTINUOUS
370
-3
390
F
  0
LAYER
  5
207
100
AcDbSymbolTableRecord
100
AcDbLayerTableRecord
  2
RUNDUNGEN
 70
0
 62
7
  6
CONTINUOUS
370
-3
390
F
  0
LAYER
  5
208
100
AcDbSymbolTableRecord
100
AcDbLayerTableRecord
  2
TEIL_STARTBEZUEGE
 70
0
 62
7
  6
CONTINUOUS
370
-3
390
F
  0
LAYER
  5
209
100
AcDbSymbolTableRecord
100
AcDbLayerTableRecord
  2
T_STARTBEZUEGE
 70
0
 62
7
  6
CONTINUOUS
370
-3
390
F
  0
LAYER
  5
20A
100
AcDbSymbolTableRecord
100
AcDbLayerTableRecord
  2
ZEICHNUNGSBEMASSUNGEN
 70
0
 62
7
  6
CONTINUOUS
370
-3
390
F
  0
ENDTAB
  0
TABLE
  2
STYLE
  5
3
100
AcDbSymbolTable
 70
1
  0
STYLE
  5
11
100
AcDbSymbolTableRecord
100
AcDbTextStyleTableRecord
  2
STANDARD
 70
0
 40
0.0
 41
0.7
 50
0.0
 71
0
 42
0.2
  3
txt
  4

  0
STYLE
  5
20B
100
AcDbSymbolTableRecord
100
AcDbTextStyleTableRecord
  2
TEXTSTYLE_1
 70
0
 40
0.0
 41
0.8
 50
0.0
 71
0
 42
0.2
  3
gdt
  4

  0
ENDTAB
  0
TABLE
  2
VIEW
  5
6
100
AcDbSymbolTable
 70
0
  0
ENDTAB
  0
TABLE
  2
UCS
  5
7
100
AcDbSymbolTable
 70
0
  0
ENDTAB
  0
TABLE
  2
APPID
  5
9
100
AcDbSymbolTable
 70
1
  0
APPID
  5
20C
100
AcDbSymbolTableRecord
100
AcDbRegAppTableRecord
  2
ACAD
 70
0
  0
ENDTAB
  0
TABLE
  2
BLOCK_RECORD
  5
1
100
AcDbSymbolTable
 70
0
  0
BLOCK_RECORD
  5
20D
100
AcDbSymbolTableRecord
100
AcDbBlockTableRecord
  2
*Model_Space
  0
BLOCK_RECORD
  5
20E
100
AcDbSymbolTableRecord
100
AcDbBlockTableRecord
  2
*Paper_Space
  0
ENDTAB
  0
TABLE
  2
DIMSTYLE
  5
A
100
AcDbSymbolTable
 70
1
100
AcDbDimStyleTable
 71
0
  0
DIMSTYLE
105
20F
100
AcDbSymbolTableRecord
100
AcDbDimStyleTableRecord
  2
STANDARD
 70
0
  3

  4

 40
1.0
 41
3.5
 42
0.0625
 43
0.38
 44
0.18
 45
0.0
 46
0.0
 47
0.005
 48
0.005
140
3.5
141
0.09
142
0.0
143
25.4
144
1.0
145
0.0
146
1.0
147
0.09
 71
1.0
 72
0.0
 73
0
 74
0
 75
0
 76
0
 77
1
 78
8
170
0
171
2
172
0
173
0
174
0
175
0
176
0
177
0
178
5
270
2
271
3
272
3
273
2
274
2
275
0
280
0
281
0
282
0
283
1
284
8
285
0
286
0
287
3
288
0
340
11
  0
ENDTAB
  0
ENDSEC
  0
SECTION
  2
BLOCKS
  0
BLOCK
  5
20
100
AcDbEntity
  8
0
100
AcDbBlockBegin
  2
*Model_Space
 70
0
 10
0.0
 20
0.0
 30
0.0
  3
*Model_Space
  1

  0
ENDBLK
  5
21
100
AcDbEntity
  8
0
100
AcDbBlockEnd
  0
BLOCK
  5
1C
100
AcDbEntity
  8
0
100
AcDbBlockBegin
  2
*Paper_Space
 70
0
 10
0.0
 20
0.0
 30
0.0
  3
*Paper_Space
  1

  0
ENDBLK
  5
1D
100
AcDbEntity
  8
0
100
AcDbBlockEnd
  0
ENDSEC
  0
SECTION
  2
ENTITIES
  0
MTEXT
  5
210
100
AcDbEntity
  8
0
100
AcDbMText
 62
5
  6
CONTINUOUS
  7
STANDARD
 71
1
 72
1
 10
408.0974894304
 20
356.8900465159
 30
0.0
 11
0.3826834324
 21
0.9238795325
 31
0.0
 44
0.9
  1
VIP 16
 40
8.0
 41
36.7619047619
  0
MTEXT
  5
211
100
AcDbEntity
  8
0
100
AcDbMText
 62
5
  6
CONTINUOUS
  7
STANDARD
 71
2
 72
1
 10
262.2202374445
 20
81.2347580982
 30
0.0
 11
0.0
 21
1.0
 31
0.0
 44
0.9
  1
RUD PP-B\P8t M36
 40
11.5
 41
75.0238095238
  0
MTEXT
  5
212
100
AcDbEntity
  8
0
100
AcDbMText
 62
5
  6
CONTINUOUS
  7
STANDARD
 71
1
 72
1
 10
474.570273631
 20
378.1454744818
 30
0.0
 11
0.3826834324
 21
-0.9238795325
 31
0.0
 44
0.9
  1
CE
 40
8.0
 41
13.9047619048
  0
LINE
  5
213
100
AcDbEntity
  8
0
100
AcDbLine
 62
7
  6
CONTINUOUS
 10
0.0
 20
0.0
 11
0.0
 21
594.0
  0
LINE
  5
214
100
AcDbEntity
  8
0
100
AcDbLine
 62
7
  6
CONTINUOUS
 10
0.0
 20
0.0
 11
841.0
 21
0.0
  0
LINE
  5
215
100
AcDbEntity
  8
0
100
AcDbLine
 62
7
  6
CONTINUOUS
 10
0.0
 20
594.0
 11
841.0
 21
594.0
  0
LINE
  5
216
100
AcDbEntity
  8
0
100
AcDbLine
 62
7
  6
CONTINUOUS
 10
841.0
 20
0.0
 11
841.0
 21
594.0
  0
LINE
  5
217
100
AcDbEntity
  8
FASEN
100
AcDbLine
 62
7
  6
CONTINUOUS
 10
291.2236197586
 20
216.6575259147
 11
261.2236197586
 21
216.6575259147
  0
LINE
  5
218
100
AcDbEntity
  8
FASEN
100
AcDbLine
 62
7
  6
CONTINUOUS
 10
294.2236197586
 20
219.6575259147
 11
258.2236197586
 21
219.6575259147
  0
LINE
  5
219
100
AcDbEntity
  8
BEZUGSACHSEN
100
AcDbLine
 62
7
  6
CONTINUOUS
 10
250.1876419227
 20
519.9368299033
 11
249.4337751256
 21
519.5430010754
  0
LINE
  5
21A
100
AcDbEntity
  8
BEZUGSACHSEN
100
AcDbLine
 62
7
  6
CONTINUOUS
 10
274.6330234835
 20
525.5031976142
 11
274.1479378979
 21
525.2942374424
  0
LINE
  5
21B
100
AcDbEntity
  8
BEZUGSACHSEN
100
AcDbLine
 62
7
  6
CONTINUOUS
 10
263.9061556584
 20
527.093281464
 11
262.9709746536
 21
526.7391113238
  0
LINE
  5
21C
100
AcDbEntity
  8
BEZUGSACHSEN
100
AcDbLine
 62
7
  6
CONTINUOUS
 10
258.606795442
 20
525.0863168858
 11
257.6716144372
 21
524.7321467455
  0
LINE
  5
21D
100
AcDbEntity
  8
BEZUGSACHSEN
100
AcDbLine
 62
7
  6
CONTINUOUS
 10
262.9987927609
 20
518.1951528646
 11
264.2456995782
 21
518.6673792679
  0
LINE
  5
21E
100
AcDbEntity
  8
BEZUGSACHSEN
100
AcDbLine
 62
7
  6
CONTINUOUS
 10
250.1001259869
 20
518.9879660467
 11
250.5954109803
 21
519.1714467108
  0
LINE
  5
21F
100
AcDbEntity
  8
BEZUGSACHSEN
100
AcDbLine
 62
7
  6
CONTINUOUS
 10
285.5626094933
 20
522.0789533632
 11
283.4436197586
 21
521.3654265859
  0
LINE
  5
220
100
AcDbEntity
  8
BEZUGSACHSEN
100
AcDbLine
 62
7
  6
CONTINUOUS
 10
274.0620027015
 20
524.2630250588
 11
274.8793905002
 21
524.4981673363
  0
LINE
  5
221
100
AcDbEntity
  8
BEZUGSACHSEN
100
AcDbLine
 62
7
  6
CONTINUOUS
 10
243.4868907449
 20
513.7193659077
 11
242.8321129786
 21
513.1765186319
  0
LINE
  5
222
100
AcDbEntity
  8
BEZUGSACHSEN
100
AcDbLine
 62
7
  6
CONTINUOUS
 10
249.4337751256
 20
519.5430010754
 11
246.3307905218
 21
517.0188207039
  0
LINE
  5
223
100
AcDbEntity
  8
BEZUGSACHSEN
100
AcDbLine
 62
7
  6
CONTINUOUS
 10
247.6435962622
 20
516.9896563853
 11
250.1001259869
 21
518.9879660467
  0
LINE
  5
224
100
AcDbEntity
  8
BEZUGSACHSEN
100
AcDbLine
 62
7
  6
CONTINUOUS
 10
251.7113050563
 20
517.0073374423
 11
249.2547753316
 21
515.0090277809
  0
LINE
  5
225
100
AcDbEntity
  8
BEZUGSACHSEN
100
AcDbLine
 62
7
  6
CONTINUOUS
 10
249.899246839
 20
514.2167764871
 11
252.2264852919
 21
516.1099117658
  0
LINE
  5
226
100
AcDbEntity
  8
BEZUGSACHSEN
100
AcDbLine
 62
7
  6
CONTINUOUS
 10
243.5998468804
 20
512.7731926464
 11
244.0457783528
 21
513.0562429966
  0
LINE
  5
227
100
AcDbEntity
  8
BEZUGSACHSEN
100
AcDbLine
 62
7
  6
CONTINUOUS
 10
257.5165136398
 20
519.7595829418
 11
255.4901603374
 21
518.6027166118
  0
LINE
  5
228
100
AcDbEntity
  8
BEZUGSACHSEN
100
AcDbLine
 62
7
  6
CONTINUOUS
 10
255.9121176144
 20
517.8636212648
 11
257.9384709168
 21
519.0204875947
  0
LINE
  5
229
100
AcDbEntity
  8
BEZUGSACHSEN
100
AcDbLine
 62
7
  6
CONTINUOUS
 10
290.9636197586
 20
524.1451310338
 11
290.2236197586
 21
523.8687507502
  0
LINE
  5
22A
100
AcDbEntity
  8
BEZUGSACHSEN
100
AcDbLine
 62
7
  6
CONTINUOUS
 10
284.4601800275
 20
521.0044432017
 11
285.7046418189
 21
521.4630536608
  0
LINE
  5
22B
100
AcDbEntity
  8
BEZUGSACHSEN
100
AcDbLine
 62
7
  6
CONTINUOUS
 10
290.5591579673
 20
523.2413879836
 11
291.8036197586
 21
523.6999984427
  0
LINE
  5
22C
100
AcDbEntity
  8
BEZUGSACHSEN
100
AcDbLine
 62
7
  6
CONTINUOUS
 10
298.0024292955
 20
522.9053716169
 11
296.5408170311
 21
522.3730783245
  0
LINE
  5
22D
100
AcDbEntity
  8
BEZUGSACHSEN
100
AcDbLine
 62
7
  6
CONTINUOUS
 10
295.8603154677
 20
521.1936076114
 11
297.3219279704
 21
521.7259013168
  0
LINE
  5
22E
100
AcDbEntity
  8
BEZUGSACHSEN
100
AcDbLine
 62
7
  6
CONTINUOUS
 10
300.7945899567
 20
518.9089320451
 11
301.3735773395
 21
519.1003355012
  0
LINE
  5
22F
100
AcDbEntity
  8
FASEN
100
AcDbLine
 62
7
  6
CONTINUOUS
 10
261.2236197587
 20
216.6575259147
 11
258.2236197587
 21
219.6575259147
  0
LINE
  5
230
100
AcDbEntity
  8
BEZUGSACHSEN
100
AcDbLine
 62
7
  6
CONTINUOUS
 10
251.3791512649
 20
510.8128514961
 11
252.1548974158
 21
511.443896589
  0
LINE
  5
231
100
AcDbEntity
  8
BEZUGSACHSEN
100
AcDbLine
 62
7
  6
CONTINUOUS
 10
300.5917463443
 20
519.7238259141
 11
299.800506634
 21
519.2662668845
  0
LINE
  5
232
100
AcDbEntity
  8
BEZUGSACHSEN
100
AcDbLine
 62
7
  6
CONTINUOUS
 10
301.1384569545
 20
513.1919456875
 11
300.5594694974
 21
513.0005421381
  0
LINE
  5
233
100
AcDbEntity
  8
BEZUGSACHSEN
100
AcDbLine
 62
7
  6
CONTINUOUS
 10
242.8321129786
 20
513.1765186319
 11
240.3259586463
 21
510.0589570105
  0
LINE
  5
234
100
AcDbEntity
  8
BEZUGSACHSEN
100
AcDbLine
 62
7
  6
CONTINUOUS
 10
241.6158081336
 20
510.3051231534
 11
243.5998468804
 21
512.7731926464
  0
LINE
  5
235
100
AcDbEntity
  8
BEZUGSACHSEN
100
AcDbLine
 62
7
  6
CONTINUOUS
 10
245.5897799646
 20
511.1735195603
 11
243.6057412178
 21
508.7054500673
  0
LINE
  5
236
100
AcDbEntity
  8
BEZUGSACHSEN
100
AcDbLine
 62
7
  6
CONTINUOUS
 10
244.4017143028
 20
508.0655809523
 11
246.281330052
 21
510.4037521683
  0
LINE
  5
237
100
AcDbEntity
  8
BEZUGSACHSEN
100
AcDbLine
 62
7
  6
CONTINUOUS
 10
246.561081889
 20
505.046648346
 11
247.187620472
 21
505.8260387513
  0
LINE
  5
238
100
AcDbEntity
  8
BEZUGSACHSEN
100
AcDbLine
 62
7
  6
CONTINUOUS
 10
252.2264852919
 20
516.1099117658
 11
252.7655282533
 21
516.7678243582
  0
LINE
  5
239
100
AcDbEntity
  8
BEZUGSACHSEN
100
AcDbLine
 62
7
  6
CONTINUOUS
 10
274.8793905002
 20
524.4981673363
 11
275.5038898232
 21
525.0595924376
  0
LINE
  5
23A
100
AcDbEntity
  8
BEZUGSACHSEN
100
AcDbLine
 62
7
  6
CONTINUOUS
 10
300.3459054541
 20
518.6136147329
 11
300.7945899567
 21
518.9089320451
  0
LINE
  5
23B
100
AcDbEntity
  8
BEZUGSACHSEN
100
AcDbLine
 62
7
  6
CONTINUOUS
 10
298.6478890642
 20
516.4843729411
 11
299.0965734181
 21
516.7796900669
  0
LINE
  5
23C
100
AcDbEntity
  8
BEZUGSACHSEN
100
AcDbLine
 62
7
  6
CONTINUOUS
 10
301.5871411597
 20
513.4872626268
 11
301.1384569545
 21
513.1919456875
  0
LINE
  5
23D
100
AcDbEntity
  8
BEZUGSACHSEN
100
AcDbLine
 62
7
  6
CONTINUOUS
 10
301.3413004925
 20
512.3770517252
 11
302.1325399798
 21
512.8346104752
  0
LINE
  5
23E
100
AcDbEntity
  8
KONSTRUKTIONSELEMENTE
100
AcDbLine
 62
7
  6
CONTINUOUS
 10
226.2236197586
 20
270.6575259147
 11
326.2236197586
 21
270.6575259147
  0
LINE
  5
23F
100
AcDbEntity
  8
0
100
AcDbLine
 62
7
  6
CONTINUOUS
 10
238.1108100806
 20
280.4022067962
 11
238.6108100806
 21
280.2319940506
  0
LINE
  5
240
100
AcDbEntity
  8
0
100
AcDbLine
 62
7
  6
CONTINUOUS
 10
239.2213066058
 20
280.3189825946
 11
238.9768354844
 21
280.4022067962
  0
LINE
  5
241
100
AcDbEntity
  8
0
100
AcDbLine
 62
7
  6
CONTINUOUS
 10
237.6941430961
 20
277.5085897623
 11
237.2774765883
 21
277.6788025079
  0
LINE
  5
242
100
AcDbEntity
  8
0
100
AcDbLine
 62
7
  6
CONTINUOUS
 10
241.0274765883
 20
276.8277386753
 11
241.4441435729
 21
276.6575259147
  0
LINE
  5
243
100
AcDbEntity
  8
0
100
AcDbLine
 62
7
  6
CONTINUOUS
 10
242.0854892902
 20
276.7493098839
 11
241.8935019921
 21
276.8277386753
  0
LINE
  5
244
100
AcDbEntity
  8
0
100
AcDbLine
 62
7
  6
CONTINUOUS
 10
242.2774765883
 20
281.5936960159
 11
241.8608096038
 21
281.7639087616
  0
LINE
  5
245
100
AcDbEntity
  8
0
100
AcDbLine
 62
7
  6
CONTINUOUS
 10
238.1108100806
 20
283.8064621864
 11
238.5274765883
 21
283.6362494407
  0
LINE
  5
246
100
AcDbEntity
  8
0
100
AcDbLine
 62
7
  6
CONTINUOUS
 10
237.2774765883
 20
276.8277386753
 11
237.6108100806
 21
276.6575259147
  0
LINE
  5
247
100
AcDbEntity
  8
0
100
AcDbLine
 62
7
  6
CONTINUOUS
 10
238.3771560364
 20
276.7084260325
 11
238.1435019921
 21
276.8277386753
  0
LINE
  5
248
100
AcDbEntity
  8
0
100
AcDbLine
 62
7
  6
CONTINUOUS
 10
241.3608096038
 20
277.5085897623
 11
241.1108096038
 21
277.6788025079
  0
LINE
  5
249
100
AcDbEntity
  8
BEZUGSACHSEN
100
AcDbLine
 62
7
  6
CONTINUOUS
 10
251.9917662139
 20
517.4549018711
 11
251.7113050563
 21
517.0073374423
  0
LINE
  5
24A
100
AcDbEntity
  8
BEZUGSACHSEN
100
AcDbLine
 62
7
  6
CONTINUOUS
 10
274.938586426
 20
525.8687534468
 11
274.6330234835
 21
525.5031976142
  0
LINE
  5
24B
100
AcDbEntity
  8
BEZUGSACHSEN
100
AcDbLine
 62
7
  6
CONTINUOUS
 10
299.5788461861
 20
517.9190626141
 11
300.3459054541
 21
518.6136147329
  0
LINE
  5
24C
100
AcDbEntity
  8
BEZUGSACHSEN
100
AcDbLine
 62
7
  6
CONTINUOUS
 10
310.8250596364
 20
511.8308027098
 11
304.1601929628
 21
507.4059239292
  0
LINE
  5
24D
100
AcDbEntity
  8
BEZUGSACHSEN
100
AcDbLine
 62
7
  6
CONTINUOUS
 10
305.5641368517
 20
507.1376937358
 11
307.6912220047
 21
508.5498891208
  0
LINE
  5
24E
100
AcDbEntity
  8
BEZUGSACHSEN
100
AcDbLine
 62
7
  6
CONTINUOUS
 10
308.5420559467
 20
509.1147671956
 11
310.527335542
 21
510.4328163007
  0
LINE
  5
24F
100
AcDbEntity
  8
0
100
AcDbLine
 62
7
  6
CONTINUOUS
 10
235.001437784
 20
459.0614873395
 11
236.0014375456
 21
459.5721255765
  0
LINE
  5
250
100
AcDbEntity
  8
0
100
AcDbLine
 62
7
  6
CONTINUOUS
 10
234.7514373072
 20
460.338082932
 11
234.0014373072
 21
460.0827638135
  0
LINE
  5
251
100
AcDbEntity
  8
0
100
AcDbLine
 62
7
  6
CONTINUOUS
 10
231.7774765883
 20
276.6575259147
 11
232.2774765883
 21
276.6575259147
  0
LINE
  5
252
100
AcDbEntity
  8
0
100
AcDbLine
 62
7
  6
CONTINUOUS
 10
233.4441432153
 20
276.6575259147
 11
234.1108098422
 21
276.6575259147
  0
LINE
  5
253
100
AcDbEntity
  8
0
100
AcDbLine
 62
7
  6
CONTINUOUS
 10
235.2774765883
 20
276.6575259147
 11
235.7774765883
 21
276.6575259147
  0
LINE
  5
254
100
AcDbEntity
  8
0
100
AcDbLine
 62
7
  6
CONTINUOUS
 10
237.6108100806
 20
276.6575259147
 11
238.2774765883
 21
276.6575259147
  0
LINE
  5
255
100
AcDbEntity
  8
0
100
AcDbLine
 62
7
  6
CONTINUOUS
 10
241.4441435729
 20
276.6575259147
 11
241.8608096038
 21
276.6575259147
  0
LINE
  5
256
100
AcDbEntity
  8
0
100
AcDbLine
 62
7
  6
CONTINUOUS
 10
237.2774765883
 20
276.8277386753
 11
238.1435019921
 21
276.8277386753
  0
LINE
  5
257
100
AcDbEntity
  8
0
100
AcDbLine
 62
7
  6
CONTINUOUS
 10
241.0274765883
 20
276.8277386753
 11
241.8935019921
 21
276.8277386753
  0
LINE
  5
258
100
AcDbEntity
  8
0
100
AcDbLine
 62
7
  6
CONTINUOUS
 10
236.9441430961
 20
277.1681642113
 11
237.8101684998
 21
277.1681642113
  0
LINE
  5
259
100
AcDbEntity
  8
0
100
AcDbLine
 62
7
  6
CONTINUOUS
 10
240.6108096038
 20
277.338376957
 11
241.4768350076
 21
277.338376957
  0
LINE
  5
25A
100
AcDbEntity
  8
0
100
AcDbLine
 62
7
  6
CONTINUOUS
 10
233.7774765883
 20
277.5085897623
 11
234.2684675088
 21
277.5085897623
  0
LINE
  5
25B
100
AcDbEntity
  8
0
100
AcDbLine
 62
7
  6
CONTINUOUS
 10
236.6941430961
 20
277.5085897623
 11
237.5601684998
 21
277.5085897623
  0
LINE
  5
25C
100
AcDbEntity
  8
0
100
AcDbLine
 62
7
  6
CONTINUOUS
 10
237.6941430961
 20
277.5085897623
 11
239.0601684998
 21
277.5085897623
  0
LINE
  5
25D
100
AcDbEntity
  8
0
100
AcDbLine
 62
7
  6
CONTINUOUS
 10
241.3608096038
 20
277.5085897623
 11
242.7566435893
 21
277.5085897623
  0
LINE
  5
25E
100
AcDbEntity
  8
0
100
AcDbLine
 62
7
  6
CONTINUOUS
 10
238.6108100806
 20
277.6788025079
 11
239.2496987576
 21
277.6788025079
  0
LINE
  5
25F
100
AcDbEntity
  8
0
100
AcDbLine
 62
7
  6
CONTINUOUS
 10
242.1941435729
 20
277.6788025079
 11
242.8191435838
 21
277.6788025079
  0
LINE
  5
260
100
AcDbEntity
  8
0
100
AcDbLine
 62
7
  6
CONTINUOUS
 10
238.7774765883
 20
277.8490152536
 11
239.3052544191
 21
277.8490152536
  0
LINE
  5
261
100
AcDbEntity
  8
0
100
AcDbLine
 62
7
  6
CONTINUOUS
 10
236.5274765883
 20
278.0192279993
 11
237.0274766175
 21
278.0192279993
  0
LINE
  5
262
100
AcDbEntity
  8
0
100
AcDbLine
 62
7
  6
CONTINUOUS
 10
240.3608096038
 20
278.0192279993
 11
240.8608096038
 21
278.0192279993
  0
LINE
  5
263
100
AcDbEntity
  8
0
100
AcDbLine
 62
7
  6
CONTINUOUS
 10
242.4441435729
 20
278.0192279993
 11
242.9441435729
 21
278.0192279993
  0
LINE
  5
264
100
AcDbEntity
  8
0
100
AcDbLine
 62
7
  6
CONTINUOUS
 10
238.9441430961
 20
278.1894408641
 11
239.3885877654
 21
278.1894408641
  0
LINE
  5
265
100
AcDbEntity
  8
0
100
AcDbLine
 62
7
  6
CONTINUOUS
 10
236.8608100806
 20
278.5298663555
 11
236.4441430961
 21
278.5298663555
  0
LINE
  5
266
100
AcDbEntity
  8
0
100
AcDbLine
 62
7
  6
CONTINUOUS
 10
239.0274765883
 20
278.5298663555
 11
239.4441430961
 21
278.5298663555
  0
LINE
  5
267
100
AcDbEntity
  8
0
100
AcDbLine
 62
7
  6
CONTINUOUS
 10
242.6108096038
 20
278.5298663555
 11
243.0441432008
 21
278.5298663555
  0
LINE
  5
268
100
AcDbEntity
  8
0
100
AcDbLine
 62
7
  6
CONTINUOUS
 10
240.1941435729
 20
278.8702918468
 11
240.6385875935
 21
278.8702918468
  0
LINE
  5
269
100
AcDbEntity
  8
0
100
AcDbLine
 62
7
  6
CONTINUOUS
 10
242.6941435729
 20
279.0405045925
 11
243.1108096038
 21
279.0405045925
  0
LINE
  5
26A
100
AcDbEntity
  8
0
100
AcDbLine
 62
7
  6
CONTINUOUS
 10
239.0274765883
 20
279.2107173381
 11
239.4441430961
 21
279.2107173381
  0
LINE
  5
26B
100
AcDbEntity
  8
0
100
AcDbLine
 62
7
  6
CONTINUOUS
 10
242.6941435729
 20
279.5511428295
 11
243.1108096038
 21
279.5511428295
  0
LINE
  5
26C
100
AcDbEntity
  8
0
100
AcDbLine
 62
7
  6
CONTINUOUS
 10
238.8608100806
 20
279.8915685592
 11
239.3608100806
 21
279.8915685592
  0
LINE
  5
26D
100
AcDbEntity
  8
0
100
AcDbLine
 62
7
  6
CONTINUOUS
 10
240.1108096038
 20
280.0617813049
 11
240.6941435729
 21
280.0617813049
  0
LINE
  5
26E
100
AcDbEntity
  8
0
100
AcDbLine
 62
7
  6
CONTINUOUS
 10
242.6108096038
 20
280.0617813049
 11
243.0441431914
 21
280.0617813049
  0
LINE
  5
26F
100
AcDbEntity
  8
0
100
AcDbLine
 62
7
  6
CONTINUOUS
 10
238.6108100806
 20
280.2319940506
 11
239.2496987576
 21
280.2319940506
  0
LINE
  5
270
100
AcDbEntity
  8
0
100
AcDbLine
 62
7
  6
CONTINUOUS
 10
237.7774765883
 20
280.4022067962
 11
238.9768354844
 21
280.4022067962
  0
LINE
  5
271
100
AcDbEntity
  8
0
100
AcDbLine
 62
7
  6
CONTINUOUS
 10
242.4441435729
 20
280.4022067962
 11
242.9774767791
 21
280.4022067962
  0
LINE
  5
272
100
AcDbEntity
  8
0
100
AcDbLine
 62
7
  6
CONTINUOUS
 10
242.1941435729
 20
280.7426322876
 11
242.8608102396
 21
280.7426322876
  0
LINE
  5
273
100
AcDbEntity
  8
0
100
AcDbLine
 62
7
  6
CONTINUOUS
 10
240.5274765883
 20
280.9128450332
 11
242.7774769062
 21
280.9128450332
  0
LINE
  5
274
100
AcDbEntity
  8
0
100
AcDbLine
 62
7
  6
CONTINUOUS
 10
237.7774765883
 20
281.0830577789
 11
238.9768354844
 21
281.0830577789
  0
LINE
  5
275
100
AcDbEntity
  8
0
100
AcDbLine
 62
7
  6
CONTINUOUS
 10
240.1108096038
 20
281.2532705246
 11
240.5274765883
 21
281.2532705246
  0
LINE
  5
276
100
AcDbEntity
  8
0
100
AcDbLine
 62
7
  6
CONTINUOUS
 10
238.6108100806
 20
281.4234832702
 11
239.1663655832
 21
281.4234832702
  0
LINE
  5
277
100
AcDbEntity
  8
0
100
AcDbLine
 62
7
  6
CONTINUOUS
 10
241.0274765883
 20
281.5936960159
 11
241.8935019921
 21
281.5936960159
  0
LINE
  5
278
100
AcDbEntity
  8
0
100
AcDbLine
 62
7
  6
CONTINUOUS
 10
241.8608096038
 20
281.7639087616
 11
241.4441435729
 21
281.7639087616
  0
LINE
  5
279
100
AcDbEntity
  8
0
100
AcDbLine
 62
7
  6
CONTINUOUS
 10
238.7774765883
 20
281.7639087616
 11
239.2774765883
 21
281.7639087616
  0
LINE
  5
27A
100
AcDbEntity
  8
0
100
AcDbLine
 62
7
  6
CONTINUOUS
 10
238.9441430961
 20
282.4447597442
 11
239.3608100806
 21
282.4447597442
  0
LINE
  5
27B
100
AcDbEntity
  8
0
100
AcDbLine
 62
7
  6
CONTINUOUS
 10
240.1941435729
 20
282.4447597442
 11
240.6385875675
 21
282.4447597442
  0
LINE
  5
27C
100
AcDbEntity
  8
0
100
AcDbLine
 62
7
  6
CONTINUOUS
 10
236.5274765883
 20
282.7851857124
 11
236.9441430961
 21
282.7851857124
  0
LINE
  5
27D
100
AcDbEntity
  8
0
100
AcDbLine
 62
7
  6
CONTINUOUS
 10
238.9441430961
 20
282.7851857124
 11
239.3608100806
 21
282.7851857124
  0
LINE
  5
27E
100
AcDbEntity
  8
0
100
AcDbLine
 62
7
  6
CONTINUOUS
 10
242.5274765883
 20
282.7851857124
 11
242.9441435729
 21
282.7851857124
  0
LINE
  5
27F
100
AcDbEntity
  8
0
100
AcDbLine
 62
7
  6
CONTINUOUS
 10
232.2774765883
 20
282.9553984581
 11
232.8250956012
 21
282.9553984581
  0
LINE
  5
280
100
AcDbEntity
  8
0
100
AcDbLine
 62
7
  6
CONTINUOUS
 10
235.2774765883
 20
282.9553984581
 11
235.7774765883
 21
282.9553984581
  0
LINE
  5
281
100
AcDbEntity
  8
0
100
AcDbLine
 62
7
  6
CONTINUOUS
 10
238.7774765883
 20
283.2958239494
 11
239.2983099614
 21
283.2958239494
  0
LINE
  5
282
100
AcDbEntity
  8
0
100
AcDbLine
 62
7
  6
CONTINUOUS
 10
240.3608096038
 20
283.2958239494
 11
240.8608096038
 21
283.2958239494
  0
LINE
  5
283
100
AcDbEntity
  8
0
100
AcDbLine
 62
7
  6
CONTINUOUS
 10
242.3608096038
 20
283.2958239494
 11
242.8608096038
 21
283.2958239494
  0
LINE
  5
284
100
AcDbEntity
  8
0
100
AcDbLine
 62
7
  6
CONTINUOUS
 10
236.6108100806
 20
283.4660366951
 11
237.2358100806
 21
283.4660366951
  0
LINE
  5
285
100
AcDbEntity
  8
0
100
AcDbLine
 62
7
  6
CONTINUOUS
 10
238.5274765883
 20
283.6362494407
 11
239.1941432153
 21
283.6362494407
  0
LINE
  5
286
100
AcDbEntity
  8
0
100
AcDbLine
 62
7
  6
CONTINUOUS
 10
242.1108096038
 20
283.6362494407
 11
242.7358096038
 21
283.6362494407
  0
LINE
  5
287
100
AcDbEntity
  8
0
100
AcDbLine
 62
7
  6
CONTINUOUS
 10
237.7774765883
 20
283.8064621864
 11
238.9768354844
 21
283.8064621864
  0
LINE
  5
288
100
AcDbEntity
  8
0
100
AcDbLine
 62
7
  6
CONTINUOUS
 10
241.3608096038
 20
283.8064621864
 11
242.6733096038
 21
283.8064621864
  0
LINE
  5
289
100
AcDbEntity
  8
0
100
AcDbLine
 62
7
  6
CONTINUOUS
 10
240.6108096038
 20
283.9766749321
 11
241.4768350076
 21
283.9766749321
  0
LINE
  5
28A
100
AcDbEntity
  8
0
100
AcDbLine
 62
7
  6
CONTINUOUS
 10
236.9441430961
 20
284.1468876777
 11
237.8101684998
 21
284.1468876777
  0
LINE
  5
28B
100
AcDbEntity
  8
0
100
AcDbLine
 62
7
  6
CONTINUOUS
 10
237.2774765883
 20
284.4873131691
 11
238.1435019921
 21
284.4873131691
  0
LINE
  5
28C
100
AcDbEntity
  8
0
100
AcDbLine
 62
7
  6
CONTINUOUS
 10
241.0274765883
 20
284.4873131691
 11
241.8935019921
 21
284.4873131691
  0
LINE
  5
28D
100
AcDbEntity
  8
0
100
AcDbLine
 62
7
  6
CONTINUOUS
 10
241.7774765883
 20
284.6575259147
 11
241.4441435729
 21
284.6575259147
  0
LINE
  5
28E
100
AcDbEntity
  8
0
100
AcDbLine
 62
7
  6
CONTINUOUS
 10
238.0274765883
 20
284.6575259147
 11
237.8608100806
 21
284.6575259147
  0
LINE
  5
28F
100
AcDbEntity
  8
0
100
AcDbLine
 62
7
  6
CONTINUOUS
 10
235.7774765883
 20
284.6575259147
 11
235.0274765883
 21
284.6575259147
  0
LINE
  5
290
100
AcDbEntity
  8
0
100
AcDbLine
 62
7
  6
CONTINUOUS
 10
232.5274765883
 20
284.6575259147
 11
231.7774765883
 21
284.6575259147
  0
LINE
  5
291
100
AcDbEntity
  8
0
100
AcDbLine
 62
7
  6
CONTINUOUS
 10
238.6108100806
 20
284.4873131691
 11
238.0274765883
 21
284.6575259147
  0
LINE
  5
292
100
AcDbEntity
  8
0
100
AcDbLine
 62
7
  6
CONTINUOUS
 10
239.1443034676
 20
283.7380497158
 11
238.9768354844
 21
283.8064621864
  0
LINE
  5
293
100
AcDbEntity
  8
0
100
AcDbLine
 62
7
  6
CONTINUOUS
 10
242.1941435729
 20
284.4873131691
 11
241.7774765883
 21
284.6575259147
  0
LINE
  5
294
100
AcDbEntity
  8
0
100
AcDbLine
 62
7
  6
CONTINUOUS
 10
241.9441435729
 20
280.9128450332
 11
242.1941435729
 21
280.7426322876
  0
LINE
  5
295
100
AcDbEntity
  8
0
100
AcDbLine
 62
7
  6
CONTINUOUS
 10
241.8608096038
 20
283.8064621864
 11
242.1108096038
 21
283.6362494407
  0
LINE
  5
296
100
AcDbEntity
  8
0
100
AcDbLine
 62
7
  6
CONTINUOUS
 10
239.1941430961
 20
280.4022067962
 11
238.7774765883
 21
280.7426322876
  0
LINE
  5
297
100
AcDbEntity
  8
0
100
AcDbLine
 62
7
  6
CONTINUOUS
 10
236.9441430961
 20
277.1681642113
 11
237.2774765883
 21
276.8277386753
  0
LINE
  5
298
100
AcDbEntity
  8
0
100
AcDbLine
 62
7
  6
CONTINUOUS
 10
237.2774765883
 20
277.6788025079
 11
237.1108100806
 21
277.8490152536
  0
LINE
  5
299
100
AcDbEntity
  8
0
100
AcDbLine
 62
7
  6
CONTINUOUS
 10
238.1435019921
 20
276.8277386753
 11
237.8101684998
 21
277.1681642113
  0
LINE
  5
29A
100
AcDbEntity
  8
0
100
AcDbLine
 62
7
  6
CONTINUOUS
 10
238.9441430961
 20
284.1468876777
 11
238.6108100806
 21
284.4873131691
  0
LINE
  5
29B
100
AcDbEntity
  8
0
100
AcDbLine
 62
7
  6
CONTINUOUS
 10
240.6108096038
 20
277.338376957
 11
241.0274765883
 21
276.8277386753
  0
LINE
  5
29C
100
AcDbEntity
  8
0
100
AcDbLine
 62
7
  6
CONTINUOUS
 10
241.8935019921
 20
276.8277386753
 11
241.4768350076
 21
277.338376957
  0
LINE
  5
29D
100
AcDbEntity
  8
0
100
AcDbLine
 62
7
  6
CONTINUOUS
 10
236.6941430961
 20
277.5085897623
 11
236.9441430961
 21
277.1681642113
  0
LINE
  5
29E
100
AcDbEntity
  8
0
100
AcDbLine
 62
7
  6
CONTINUOUS
 10
237.8101684998
 20
277.1681642113
 11
237.5601684998
 21
277.5085897623
  0
LINE
  5
29F
100
AcDbEntity
  8
BEZUGSACHSEN
100
AcDbLine
 62
7
  6
CONTINUOUS
 10
246.281330052
 20
510.4037521683
 11
246.6707834567
 21
511.1598891492
  0
LINE
  5
2A0
100
AcDbEntity
  8
BEZUGSACHSEN
100
AcDbLine
 62
7
  6
CONTINUOUS
 10
275.5038898232
 20
525.0595924376
 11
275.9488665031
 21
525.7776131998
  0
LINE
  5
2A1
100
AcDbEntity
  8
0
100
AcDbLine
 62
7
  6
CONTINUOUS
 10
236.0014375456
 20
459.5721255765
 11
236.7514375456
 21
460.5934020505
  0
LINE
  5
2A2
100
AcDbEntity
  8
0
100
AcDbLine
 62
7
  6
CONTINUOUS
 10
235.2514375456
 20
460.848721169
 11
234.7514373072
 21
460.338082932
  0
LINE
  5
2A3
100
AcDbEntity
  8
BEZUGSACHSEN
100
AcDbLine
 62
7
  6
CONTINUOUS
 10
299.800506634
 20
519.2662668845
 11
298.9273183685
 21
518.4386395438
  0
LINE
  5
2A4
100
AcDbEntity
  8
BEZUGSACHSEN
100
AcDbLine
 62
7
  6
CONTINUOUS
 10
304.4005384415
 20
512.6167481473
 11
303.7727365257
 21
512.0421399069
  0
LINE
  5
2A5
100
AcDbEntity
  8
BEZUGSACHSEN
100
AcDbLine
 62
7
  6
CONTINUOUS
 10
305.3481196728
 20
510.320917536
 11
305.9759215887
 21
510.8955257764
  0
LINE
  5
2A6
100
AcDbEntity
  8
BEZUGSACHSEN
100
AcDbLine
 62
7
  6
CONTINUOUS
 10
311.981124161
 20
506.396655355
 11
311.697512847
 21
506.2083626634
  0
LINE
  5
2A7
100
AcDbEntity
  8
BEZUGSACHSEN
100
AcDbLine
 62
7
  6
CONTINUOUS
 10
309.1450108223
 20
504.5137283069
 11
308.7195938513
 21
504.2312892695
  0
LINE
  5
2A8
100
AcDbEntity
  8
BEZUGSACHSEN
100
AcDbLine
 62
7
  6
CONTINUOUS
 10
309.1308980419
 20
503.3040345895
 11
309.8399263269
 21
503.7747663185
  0
LINE
  5
2A9
100
AcDbEntity
  8
BEZUGSACHSEN
100
AcDbLine
 62
7
  6
CONTINUOUS
 10
312.1088170376
 20
505.2811079834
 11
312.6760400628
 21
505.6576936303
  0
LINE
  5
2AA
100
AcDbEntity
  8
KONSTRUKTIONSELEMENTE
100
AcDbLine
 62
7
  6
CONTINUOUS
 10
226.2236197586
 20
290.6575259147
 11
326.2236197586
 21
290.6575259147
  0
LINE
  5
2AB
100
AcDbEntity
  8
0
100
AcDbLine
 62
7
  6
CONTINUOUS
 10
238.41158407
 20
295.1575259147
 11
237.8309115588
 21
295.1575259147
  0
LINE
  5
2AC
100
AcDbEntity
  8
0
100
AcDbLine
 62
7
  6
CONTINUOUS
 10
233.686136036
 20
295.1575259147
 11
232.804873593
 21
295.1575259147
  0
LINE
  5
2AD
100
AcDbEntity
  8
0
100
AcDbLine
 62
7
  6
CONTINUOUS
 10
234.0365364274
 20
295.4128450556
 11
233.5153067505
 21
295.4128450556
  0
LINE
  5
2AE
100
AcDbEntity
  8
0
100
AcDbLine
 62
7
  6
CONTINUOUS
 10
238.41158407
 20
296.1788024781
 11
237.8309115588
 21
296.1788024781
  0
LINE
  5
2AF
100
AcDbEntity
  8
0
100
AcDbLine
 62
7
  6
CONTINUOUS
 10
234.4272386501
 20
296.1788024781
 11
233.9011969337
 21
296.1788024781
  0
LINE
  5
2B0
100
AcDbEntity
  8
0
100
AcDbLine
 62
7
  6
CONTINUOUS
 10
237.6952216675
 20
296.434121686
 11
237.1251868045
 21
296.434121686
  0
LINE
  5
2B1
100
AcDbEntity
  8
0
100
AcDbLine
 62
7
  6
CONTINUOUS
 10
233.1045984339
 20
296.434121686
 11
232.861770387
 21
296.434121686
  0
LINE
  5
2B2
100
AcDbEntity
  8
0
100
AcDbLine
 62
7
  6
CONTINUOUS
 10
233.1539086246
 20
296.6894408045
 11
232.6432340655
 21
296.6894408045
  0
LINE
  5
2B3
100
AcDbEntity
  8
0
100
AcDbLine
 62
7
  6
CONTINUOUS
 10
237.2909861347
 20
296.944759923
 11
236.7267849374
 21
296.944759923
  0
LINE
  5
2B4
100
AcDbEntity
  8
0
100
AcDbLine
 62
7
  6
CONTINUOUS
 10
234.6814728191
 20
296.944759923
 11
234.1522521514
 21
296.944759923
  0
LINE
  5
2B5
100
AcDbEntity
  8
0
100
AcDbLine
 62
7
  6
CONTINUOUS
 10
232.9570044531
 20
297.2000790415
 11
232.4486268974
 21
297.2000790415
  0
LINE
  5
2B6
100
AcDbEntity
  8
0
100
AcDbLine
 62
7
  6
CONTINUOUS
 10
237.1603692715
 20
297.7107174574
 11
236.598027793
 21
297.7107174574
  0
LINE
  5
2B7
100
AcDbEntity
  8
0
100
AcDbLine
 62
7
  6
CONTINUOUS
 10
234.8593836529
 20
298.2213556944
 11
234.3279155802
 21
298.2213556944
  0
LINE
  5
2B8
100
AcDbEntity
  8
0
100
AcDbLine
 62
7
  6
CONTINUOUS
 10
232.8250310719
 20
298.2213556944
 11
232.3181815989
 21
298.2213556944
  0
LINE
  5
2B9
100
AcDbEntity
  8
0
100
AcDbLine
 62
7
  6
CONTINUOUS
 10
234.8593836529
 20
298.9873130499
 11
234.3279155802
 21
298.9873130499
  0
LINE
  5
2BA
100
AcDbEntity
  8
0
100
AcDbLine
 62
7
  6
CONTINUOUS
 10
232.8250310719
 20
298.9873130499
 11
232.3181815989
 21
298.9873130499
  0
LINE
  5
2BB
100
AcDbEntity
  8
0
100
AcDbLine
 62
7
  6
CONTINUOUS
 10
242.6941435729
 20
281.0830577789
 11
242.2774765883
 21
281.5936960159
  0
LINE
  5
2BC
100
AcDbEntity
  8
0
100
AcDbLine
 62
7
  6
CONTINUOUS
 10
242.6108096038
 20
283.9766749321
 11
242.1941435729
 21
284.4873131691
  0
LINE
  5
2BD
100
AcDbEntity
  8
0
100
AcDbLine
 62
7
  6
CONTINUOUS
 10
238.6108100806
 20
280.2319940506
 11
238.8608100806
 21
279.8915685592
  0
LINE
  5
2BE
100
AcDbEntity
  8
0
100
AcDbLine
 62
7
  6
CONTINUOUS
 10
241.1108096038
 20
277.6788025079
 11
240.8608096038
 21
278.0192279993
  0
LINE
  5
2BF
100
AcDbEntity
  8
0
100
AcDbLine
 62
7
  6
CONTINUOUS
 10
238.5274765883
 20
283.6362494407
 11
238.7774765883
 21
283.2958239494
  0
LINE
  5
2C0
100
AcDbEntity
  8
0
100
AcDbLine
 62
7
  6
CONTINUOUS
 10
242.1941435729
 20
280.7426322876
 11
242.4441435729
 21
280.4022067962
  0
LINE
  5
2C1
100
AcDbEntity
  8
0
100
AcDbLine
 62
7
  6
CONTINUOUS
 10
242.1108096038
 20
283.6362494407
 11
242.3608096038
 21
283.2958239494
  0
LINE
  5
2C2
100
AcDbEntity
  8
0
100
AcDbLine
 62
7
  6
CONTINUOUS
 10
237.1108100806
 20
277.8490152536
 11
236.9441430961
 21
278.1894408641
  0
LINE
  5
2C3
100
AcDbEntity
  8
BEZUGSACHSEN
100
AcDbLine
 62
7
  6
CONTINUOUS
 10
245.7703870753
 20
511.6698596154
 11
245.5897799646
 21
511.1735195603
  0
LINE
  5
2C4
100
AcDbEntity
  8
0
100
AcDbLine
 62
7
  6
CONTINUOUS
 10
235.001437784
 20
440.2529766784
 11
234.5014375456
 21
439.4870193229
  0
LINE
  5
2C5
100
AcDbEntity
  8
BEZUGSACHSEN
100
AcDbLine
 62
7
  6
CONTINUOUS
 10
298.9273183685
 20
518.4386395438
 11
298.1844362629
 21
517.5070963414
  0
LINE
  5
2C6
100
AcDbEntity
  8
BEZUGSACHSEN
100
AcDbLine
 62
7
  6
CONTINUOUS
 10
299.3665941559
 20
517.6529074134
 11
299.5788461861
 21
517.9190626141
  0
LINE
  5
2C7
100
AcDbEntity
  8
BEZUGSACHSEN
100
AcDbLine
 62
7
  6
CONTINUOUS
 10
298.329511019
 20
516.0851401401
 11
298.6478890642
 21
516.4843729411
  0
LINE
  5
2C8
100
AcDbEntity
  8
0
100
AcDbLine
 62
7
  6
CONTINUOUS
 10
235.001437784
 20
437.9551043437
 11
236.0014375456
 21
438.9763809071
  0
LINE
  5
2C9
100
AcDbEntity
  8
0
100
AcDbLine
 62
7
  6
CONTINUOUS
 10
234.5014375456
 20
439.4870193229
 11
233.7514375456
 21
438.9763809071
  0
LINE
  5
2CA
100
AcDbEntity
  8
0
100
AcDbLine
 62
7
  6
CONTINUOUS
 10
234.0014373072
 20
437.4444660396
 11
235.001437784
 21
437.9551043437
  0
LINE
  5
2CB
100
AcDbEntity
  8
0
100
AcDbLine
 62
7
  6
CONTINUOUS
 10
232.1576898924
 20
299.4979512869
 11
231.7264288361
 21
299.4979512869
  0
LINE
  5
2CC
100
AcDbEntity
  8
0
100
AcDbLine
 62
7
  6
CONTINUOUS
 10
232.9570044531
 20
300.0085898815
 11
232.4486268974
 21
300.0085898815
  0
LINE
  5
2CD
100
AcDbEntity
  8
0
100
AcDbLine
 62
7
  6
CONTINUOUS
 10
234.6814728191
 20
300.263909
 11
234.1522521514
 21
300.263909
  0
LINE
  5
2CE
100
AcDbEntity
  8
0
100
AcDbLine
 62
7
  6
CONTINUOUS
 10
233.1539086246
 20
300.5192281185
 11
232.6432340655
 21
300.5192281185
  0
LINE
  5
2CF
100
AcDbEntity
  8
0
100
AcDbLine
 62
7
  6
CONTINUOUS
 10
233.1045984339
 20
300.774547237
 11
232.861770387
 21
300.774547237
  0
LINE
  5
2D0
100
AcDbEntity
  8
0
100
AcDbLine
 62
7
  6
CONTINUOUS
 10
232.3046640879
 20
300.774547237
 11
231.7264288361
 21
300.774547237
  0
LINE
  5
2D1
100
AcDbEntity
  8
0
100
AcDbLine
 62
7
  6
CONTINUOUS
 10
234.3458210372
 20
301.0298663555
 11
233.8207893608
 21
301.0298663555
  0
LINE
  5
2D2
100
AcDbEntity
  8
0
100
AcDbLine
 62
7
  6
CONTINUOUS
 10
234.1879209396
 20
301.285185474
 11
233.6648371726
 21
301.285185474
  0
LINE
  5
2D3
100
AcDbEntity
  8
0
100
AcDbLine
 62
7
  6
CONTINUOUS
 10
234.3458210372
 20
301.5405045925
 11
233.8207893608
 21
301.5405045925
  0
LINE
  5
2D4
100
AcDbEntity
  8
0
100
AcDbLine
 62
7
  6
CONTINUOUS
 10
232.2236197586
 20
301.5405045925
 11
231.7938999756
 21
301.5405045925
  0
LINE
  5
2D5
100
AcDbEntity
  8
0
100
AcDbLine
 62
7
  6
CONTINUOUS
 10
233.1045984339
 20
301.795823711
 11
232.861770387
 21
301.795823711
  0
LINE
  5
2D6
100
AcDbEntity
  8
0
100
AcDbLine
 62
7
  6
CONTINUOUS
 10
233.1539086246
 20
302.0511428295
 11
232.6432340655
 21
302.0511428295
  0
LINE
  5
2D7
100
AcDbEntity
  8
0
100
AcDbLine
 62
7
  6
CONTINUOUS
 10
238.7136210916
 20
302.306461948
 11
236.598027793
 21
302.306461948
  0
LINE
  5
2D8
100
AcDbEntity
  8
0
100
AcDbLine
 62
7
  6
CONTINUOUS
 10
235.9837146424
 20
302.306461948
 11
235.0988097287
 21
302.306461948
  0
LINE
  5
2D9
100
AcDbEntity
  8
0
100
AcDbLine
 62
7
  6
CONTINUOUS
 10
234.5950535189
 20
302.306461948
 11
234.0669177152
 21
302.306461948
  0
LINE
  5
2DA
100
AcDbEntity
  8
0
100
AcDbLine
 62
7
  6
CONTINUOUS
 10
232.2236197586
 20
302.5617810665
 11
231.7580431853
 21
302.5617810665
  0
LINE
  5
2DB
100
AcDbEntity
  8
0
100
AcDbLine
 62
7
  6
CONTINUOUS
 10
232.9570044531
 20
302.817100185
 11
232.4486268974
 21
302.817100185
  0
LINE
  5
2DC
100
AcDbEntity
  8
0
100
AcDbLine
 62
7
  6
CONTINUOUS
 10
238.7136210916
 20
303.327738422
 11
236.598027793
 21
303.327738422
  0
LINE
  5
2DD
100
AcDbEntity
  8
0
100
AcDbLine
 62
7
  6
CONTINUOUS
 10
235.9837146424
 20
303.327738422
 11
235.0988097287
 21
303.327738422
  0
LINE
  5
2DE
100
AcDbEntity
  8
0
100
AcDbLine
 62
7
  6
CONTINUOUS
 10
234.7695789423
 20
303.327738422
 11
234.2392476662
 21
303.327738422
  0
LINE
  5
2DF
100
AcDbEntity
  8
0
100
AcDbLine
 62
7
  6
CONTINUOUS
 10
232.1647104657
 20
303.327738422
 11
231.7489078267
 21
303.327738422
  0
LINE
  5
2E0
100
AcDbEntity
  8
0
100
AcDbLine
 62
7
  6
CONTINUOUS
 10
232.8675358222
 20
303.5830575405
 11
232.3601951966
 21
303.5830575405
  0
LINE
  5
2E1
100
AcDbEntity
  8
0
100
AcDbLine
 62
7
  6
CONTINUOUS
 10
234.7695789423
 20
304.0936957775
 11
234.2392476662
 21
304.0936957775
  0
LINE
  5
2E2
100
AcDbEntity
  8
0
100
AcDbLine
 62
7
  6
CONTINUOUS
 10
232.8675358222
 20
304.0936957775
 11
232.3601951966
 21
304.0936957775
  0
LINE
  5
2E3
100
AcDbEntity
  8
0
100
AcDbLine
 62
7
  6
CONTINUOUS
 10
232.1790409766
 20
304.3490156112
 11
231.7489078267
 21
304.3490156112
  0
LINE
  5
2E4
100
AcDbEntity
  8
0
100
AcDbLine
 62
7
  6
CONTINUOUS
 10
232.9570044531
 20
304.8596538482
 11
232.4486268974
 21
304.8596538482
  0
LINE
  5
2E5
100
AcDbEntity
  8
0
100
AcDbLine
 62
7
  6
CONTINUOUS
 10
232.2236197586
 20
305.1149729667
 11
231.7580431853
 21
305.1149729667
  0
LINE
  5
2E6
100
AcDbEntity
  8
0
100
AcDbLine
 62
7
  6
CONTINUOUS
 10
237.1603692715
 20
305.3702920852
 11
235.9837146424
 21
305.3702920852
  0
LINE
  5
2E7
100
AcDbEntity
  8
0
100
AcDbLine
 62
7
  6
CONTINUOUS
 10
234.5950535189
 20
305.3702920852
 11
234.0669177152
 21
305.3702920852
  0
LINE
  5
2E8
100
AcDbEntity
  8
0
100
AcDbLine
 62
7
  6
CONTINUOUS
 10
233.1539086246
 20
305.6256112037
 11
232.6432340655
 21
305.6256112037
  0
LINE
  5
2E9
100
AcDbEntity
  8
0
100
AcDbLine
 62
7
  6
CONTINUOUS
 10
233.1045984339
 20
305.8809303222
 11
232.861770387
 21
305.8809303222
  0
LINE
  5
2EA
100
AcDbEntity
  8
0
100
AcDbLine
 62
7
  6
CONTINUOUS
 10
234.3458210372
 20
306.1362494407
 11
233.8207893608
 21
306.1362494407
  0
LINE
  5
2EB
100
AcDbEntity
  8
0
100
AcDbLine
 62
7
  6
CONTINUOUS
 10
232.2236197586
 20
306.1362494407
 11
231.7938999756
 21
306.1362494407
  0
LINE
  5
2EC
100
AcDbEntity
  8
0
100
AcDbLine
 62
7
  6
CONTINUOUS
 10
233.9632662741
 20
306.9022067962
 11
233.442929294
 21
306.9022067962
  0
LINE
  5
2ED
100
AcDbEntity
  8
0
100
AcDbLine
 62
7
  6
CONTINUOUS
 10
232.2236197586
 20
306.9022067962
 11
231.8614737706
 21
306.9022067962
  0
LINE
  5
2EE
100
AcDbEntity
  8
0
100
AcDbLine
 62
7
  6
CONTINUOUS
 10
233.6208029504
 20
307.1575259147
 11
232.861770387
 21
307.1575259147
  0
LINE
  5
2EF
100
AcDbEntity
  8
0
100
AcDbLine
 62
7
  6
CONTINUOUS
 10
232.2236197586
 20
307.1575259147
 11
231.9778572497
 21
307.1575259147
  0
LINE
  5
2F0
100
AcDbEntity
  8
0
100
AcDbLine
 62
7
  6
CONTINUOUS
 10
234.0365364274
 20
309.1575259147
 11
231.7264288361
 21
309.1575259147
  0
LINE
  5
2F1
100
AcDbEntity
  8
0
100
AcDbLine
 62
7
  6
CONTINUOUS
 10
234.4272386501
 20
309.4128450556
 11
233.9011969337
 21
309.4128450556
  0
LINE
  5
2F2
100
AcDbEntity
  8
0
100
AcDbLine
 62
7
  6
CONTINUOUS
 10
232.2008983525
 20
309.4128450556
 11
231.7580431665
 21
309.4128450556
  0
LINE
  5
2F3
100
AcDbEntity
  8
0
100
AcDbLine
 62
7
  6
CONTINUOUS
 10
234.7695789423
 20
309.9234833596
 11
234.2392476662
 21
309.9234833596
  0
LINE
  5
2F4
100
AcDbEntity
  8
0
100
AcDbLine
 62
7
  6
CONTINUOUS
 10
232.2008983525
 20
309.9234833596
 11
231.8086729502
 21
309.9234833596
  0
LINE
  5
2F5
100
AcDbEntity
  8
0
100
AcDbLine
 62
7
  6
CONTINUOUS
 10
239.2774765883
 20
283.4660366951
 11
238.9441430961
 21
284.1468876777
  0
LINE
  5
2F6
100
AcDbEntity
  8
0
100
AcDbLine
 62
7
  6
CONTINUOUS
 10
242.4441435729
 20
280.4022067962
 11
242.6108096038
 21
280.0617813049
  0
LINE
  5
2F7
100
AcDbEntity
  8
0
100
AcDbLine
 62
7
  6
CONTINUOUS
 10
242.9441435729
 20
280.5724195419
 11
242.6941435729
 21
281.0830577789
  0
LINE
  5
2F8
100
AcDbEntity
  8
0
100
AcDbLine
 62
7
  6
CONTINUOUS
 10
240.3608096038
 20
278.0192279993
 11
240.6108096038
 21
277.338376957
  0
LINE
  5
2F9
100
AcDbEntity
  8
0
100
AcDbLine
 62
7
  6
CONTINUOUS
 10
241.4768350076
 20
277.338376957
 11
241.4143349911
 21
277.5085897623
  0
LINE
  5
2FA
100
AcDbEntity
  8
0
100
AcDbLine
 62
7
  6
CONTINUOUS
 10
236.5274765883
 20
278.0192279993
 11
236.6941430961
 21
277.5085897623
  0
LINE
  5
2FB
100
AcDbEntity
  8
0
100
AcDbLine
 62
7
  6
CONTINUOUS
 10
237.5601684998
 20
277.5085897623
 11
237.5395570371
 21
277.5717398284
  0
LINE
  5
2FC
100
AcDbEntity
  8
BEZUGSACHSEN
100
AcDbLine
 62
7
  6
CONTINUOUS
 10
252.7655282533
 20
516.7678243582
 11
252.9604568468
 21
517.5846469343
  0
LINE
  5
2FD
100
AcDbEntity
  8
0
100
AcDbLine
 62
7
  6
CONTINUOUS
 10
235.2514375456
 20
441.2742531524
 11
235.001437784
 21
440.2529766784
  0
LINE
  5
2FE
100
AcDbEntity
  8
0
100
AcDbLine
 62
7
  6
CONTINUOUS
 10
235.5014373072
 20
461.6146785245
 11
235.2514375456
 21
460.848721169
  0
LINE
  5
2FF
100
AcDbEntity
  8
0
100
AcDbLine
 62
7
  6
CONTINUOUS
 10
236.7514375456
 20
460.5934020505
 11
237.0014373072
 21
461.359359406
  0
LINE
  5
300
100
AcDbEntity
  8
0
100
AcDbLine
 62
7
  6
CONTINUOUS
 10
236.0014375456
 20
438.9763809071
 11
236.501437784
 21
439.9976575599
  0
LINE
  5
301
100
AcDbEntity
  8
0
100
AcDbLine
 62
7
  6
CONTINUOUS
 10
237.0014373072
 20
423.9763809071
 11
237.5014375456
 21
424.9976575599
  0
LINE
  5
302
100
AcDbEntity
  8
BEZUGSACHSEN
100
AcDbLine
 62
7
  6
CONTINUOUS
 10
296.5408170311
 20
522.3730783245
 11
295.8603154677
 21
521.1936076114
  0
LINE
  5
303
100
AcDbEntity
  8
0
100
AcDbLine
 62
7
  6
CONTINUOUS
 10
236.0014375456
 20
425.2529766784
 11
235.5014373072
 21
424.4870193229
  0
LINE
  5
304
100
AcDbEntity
  8
BEZUGSACHSEN
100
AcDbLine
 62
7
  6
CONTINUOUS
 10
301.905519205
 20
513.8864954279
 11
301.5871411597
 21
513.4872626268
  0
LINE
  5
305
100
AcDbEntity
  8
BEZUGSACHSEN
100
AcDbLine
 62
7
  6
CONTINUOUS
 10
302.1325399798
 20
512.8346104752
 11
302.6631702039
 21
513.4999986633
  0
LINE
  5
306
100
AcDbEntity
  8
0
100
AcDbLine
 62
7
  6
CONTINUOUS
 10
236.0014375456
 20
422.9551043437
 11
237.0014373072
 21
423.9763809071
  0
LINE
  5
307
100
AcDbEntity
  8
0
100
AcDbLine
 62
7
  6
CONTINUOUS
 10
235.5014373072
 20
424.4870193229
 11
234.7514373072
 21
423.9763809071
  0
LINE
  5
308
100
AcDbEntity
  8
0
100
AcDbLine
 62
7
  6
CONTINUOUS
 10
235.001437784
 20
422.4444660396
 11
236.0014375456
 21
422.9551043437
  0
LINE
  5
309
100
AcDbEntity
  8
0
100
AcDbLine
 62
7
  6
CONTINUOUS
 10
233.5153067505
 20
310.6894408045
 11
232.4486268974
 21
310.6894408045
  0
LINE
  5
30A
100
AcDbEntity
  8
0
100
AcDbLine
 62
7
  6
CONTINUOUS
 10
231.7264288361
 20
310.6894408045
 11
231.7236197586
 21
310.6894408045
  0
LINE
  5
30B
100
AcDbEntity
  8
0
100
AcDbLine
 62
7
  6
CONTINUOUS
 10
235.1391028448
 20
310.944759923
 11
234.6040626966
 21
310.944759923
  0
LINE
  5
30C
100
AcDbEntity
  8
0
100
AcDbLine
 62
7
  6
CONTINUOUS
 10
232.2008983525
 20
310.944759923
 11
231.8819069317
 21
310.944759923
  0
LINE
  5
30D
100
AcDbEntity
  8
0
100
AcDbLine
 62
7
  6
CONTINUOUS
 10
235.334287409
 20
311.9660365759
 11
234.7967263197
 21
311.9660365759
  0
LINE
  5
30E
100
AcDbEntity
  8
0
100
AcDbLine
 62
7
  6
CONTINUOUS
 10
232.2008983525
 20
311.9660365759
 11
231.9270341114
 21
311.9660365759
  0
LINE
  5
30F
100
AcDbEntity
  8
0
100
AcDbLine
 62
7
  6
CONTINUOUS
 10
235.4345276938
 20
313.2426321684
 11
234.8956627383
 21
313.2426321684
  0
LINE
  5
310
100
AcDbEntity
  8
0
100
AcDbLine
 62
7
  6
CONTINUOUS
 10
232.2008983525
 20
313.2426321684
 11
231.9517325647
 21
313.2426321684
  0
LINE
  5
311
100
AcDbEntity
  8
0
100
AcDbLine
 62
7
  6
CONTINUOUS
 10
235.4345276938
 20
317.0724193035
 11
234.8956627383
 21
317.0724193035
  0
LINE
  5
312
100
AcDbEntity
  8
0
100
AcDbLine
 62
7
  6
CONTINUOUS
 10
235.334287409
 20
318.3490156112
 11
234.7967263197
 21
318.3490156112
  0
LINE
  5
313
100
AcDbEntity
  8
0
100
AcDbLine
 62
7
  6
CONTINUOUS
 10
235.1391028448
 20
319.3702920852
 11
234.6040626966
 21
319.3702920852
  0
LINE
  5
314
100
AcDbEntity
  8
0
100
AcDbLine
 62
7
  6
CONTINUOUS
 10
233.5153067505
 20
319.6256112037
 11
232.4486268974
 21
319.6256112037
  0
LINE
  5
315
100
AcDbEntity
  8
0
100
AcDbLine
 62
7
  6
CONTINUOUS
 10
234.7695789423
 20
320.3915685592
 11
234.2392476662
 21
320.3915685592
  0
LINE
  5
316
100
AcDbEntity
  8
0
100
AcDbLine
 62
7
  6
CONTINUOUS
 10
234.4272386501
 20
320.9022067962
 11
233.9011969337
 21
320.9022067962
  0
LINE
  5
317
100
AcDbEntity
  8
0
100
AcDbLine
 62
7
  6
CONTINUOUS
 10
234.0365364274
 20
321.1575259147
 11
231.8248585469
 21
321.1575259147
  0
LINE
  5
318
100
AcDbEntity
  8
0
100
AcDbLine
 62
7
  6
CONTINUOUS
 10
242.8608096038
 20
283.2958239494
 11
242.6108096038
 21
283.9766749321
  0
LINE
  5
319
100
AcDbEntity
  8
0
100
AcDbLine
 62
7
  6
CONTINUOUS
 10
239.3608100806
 20
279.8915685592
 11
239.1941430961
 21
280.4022067962
  0
LINE
  5
31A
100
AcDbEntity
  8
0
100
AcDbLine
 62
7
  6
CONTINUOUS
 10
238.7774765883
 20
283.2958239494
 11
238.9441430961
 21
282.7851857124
  0
LINE
  5
31B
100
AcDbEntity
  8
0
100
AcDbLine
 62
7
  6
CONTINUOUS
 10
240.8608096038
 20
278.0192279993
 11
240.6941435729
 21
278.5298663555
  0
LINE
  5
31C
100
AcDbEntity
  8
0
100
AcDbLine
 62
7
  6
CONTINUOUS
 10
242.3608096038
 20
283.2958239494
 11
242.5274765883
 21
282.7851857124
  0
LINE
  5
31D
100
AcDbEntity
  8
0
100
AcDbLine
 62
7
  6
CONTINUOUS
 10
236.9441430961
 20
278.1894408641
 11
236.8608100806
 21
278.5298663555
  0
LINE
  5
31E
100
AcDbEntity
  8
0
100
AcDbLine
 62
7
  6
CONTINUOUS
 10
238.8608100806
 20
279.8915685592
 11
239.0274765883
 21
279.2107173381
  0
LINE
  5
31F
100
AcDbEntity
  8
0
100
AcDbLine
 62
7
  6
CONTINUOUS
 10
232.2774765883
 20
282.9553984581
 11
233.4441432153
 21
276.6575259147
  0
LINE
  5
320
100
AcDbEntity
  8
0
100
AcDbLine
 62
7
  6
CONTINUOUS
 10
234.2104892357
 20
277.1956128343
 11
234.1525109686
 21
277.5085897623
  0
LINE
  5
321
100
AcDbEntity
  8
0
100
AcDbLine
 62
7
  6
CONTINUOUS
 10
233.7774765883
 20
277.5085897623
 11
232.5274765883
 21
284.6575259147
  0
LINE
  5
322
100
AcDbEntity
  8
0
100
AcDbLine
 62
7
  6
CONTINUOUS
 10
236.4441430961
 20
278.5298663555
 11
236.5274765883
 21
278.0192279993
  0
LINE
  5
323
100
AcDbEntity
  8
KONSTRUKTIONSELEMENTE
100
AcDbLine
 62
7
  6
CONTINUOUS
 10
226.2236197586
 20
270.6575259147
 11
226.2236197586
 21
290.6575259147
  0
LINE
  5
324
100
AcDbEntity
  8
0
100
AcDbLine
 62
7
  6
CONTINUOUS
 10
227.7514375456
 20
465.1891468988
 11
227.7514375456
 21
453.1891468988
  0
LINE
  5
325
100
AcDbEntity
  8
0
100
AcDbLine
 62
7
  6
CONTINUOUS
 10
227.7514375456
 20
449.1891468988
 11
227.7514375456
 21
441.2742531524
  0
LINE
  5
326
100
AcDbEntity
  8
0
100
AcDbLine
 62
7
  6
CONTINUOUS
 10
227.7514375456
 20
434.1891468988
 11
227.7514375456
 21
422.1891468988
  0
LINE
  5
327
100
AcDbEntity
  8
0
100
AcDbLine
 62
7
  6
CONTINUOUS
 10
229.2514375456
 20
423.7210617886
 11
229.2514375456
 21
432.6572321878
  0
LINE
  5
328
100
AcDbEntity
  8
0
100
AcDbLine
 62
7
  6
CONTINUOUS
 10
229.2514375456
 20
441.2742531524
 11
229.2514375456
 21
449.1891468988
  0
LINE
  5
329
100
AcDbEntity
  8
0
100
AcDbLine
 62
7
  6
CONTINUOUS
 10
229.2514375456
 20
453.1891468988
 11
229.2514375456
 21
458.5508491025
  0
LINE
  5
32A
100
AcDbEntity
  8
0
100
AcDbLine
 62
7
  6
CONTINUOUS
 10
229.2514375456
 20
460.0827638135
 11
229.2514375456
 21
463.9125513063
  0
LINE
  5
32B
100
AcDbEntity
  8
0
100
AcDbLine
 62
7
  6
CONTINUOUS
 10
231.7236197586
 20
310.6894408045
 11
231.7236197586
 21
309.1575259147
  0
LINE
  5
32C
100
AcDbEntity
  8
0
100
AcDbLine
 62
7
  6
CONTINUOUS
 10
231.7264288361
 20
300.774547237
 11
231.7264288361
 21
299.4979512869
  0
LINE
  5
32D
100
AcDbEntity
  8
0
100
AcDbLine
 62
7
  6
CONTINUOUS
 10
231.7489078267
 20
304.3490156112
 11
231.7489078267
 21
303.327738422
  0
LINE
  5
32E
100
AcDbEntity
  8
0
100
AcDbLine
 62
7
  6
CONTINUOUS
 10
231.7774765883
 20
284.6575259147
 11
231.7774765883
 21
276.6575259147
  0
LINE
  5
32F
100
AcDbEntity
  8
0
100
AcDbLine
 62
7
  6
CONTINUOUS
 10
231.8248585469
 20
321.1575259147
 11
231.8248585469
 21
313.2426321684
  0
LINE
  5
330
100
AcDbEntity
  8
0
100
AcDbLine
 62
7
  6
CONTINUOUS
 10
231.9037597366
 20
300.774547237
 11
231.9037597366
 21
299.4979512869
  0
LINE
  5
331
100
AcDbEntity
  8
0
100
AcDbLine
 62
7
  6
CONTINUOUS
 10
231.9517325647
 20
321.1575259147
 11
231.9517325647
 21
313.2426321684
  0
LINE
  5
332
100
AcDbEntity
  8
0
100
AcDbLine
 62
7
  6
CONTINUOUS
 10
232.1299692923
 20
298.2213556944
 11
232.1299692923
 21
298.9873130499
  0
LINE
  5
333
100
AcDbEntity
  8
0
100
AcDbLine
 62
7
  6
CONTINUOUS
 10
232.1647104657
 20
304.0936957775
 11
232.1647104657
 21
303.327738422
  0
LINE
  5
334
100
AcDbEntity
  8
0
100
AcDbLine
 62
7
  6
CONTINUOUS
 10
232.2008983525
 20
321.1575259147
 11
232.2008983525
 21
309.1575259147
  0
LINE
  5
335
100
AcDbEntity
  8
0
100
AcDbLine
 62
7
  6
CONTINUOUS
 10
232.2236197586
 20
327.6575259147
 11
232.2236197586
 21
321.1575259147
  0
LINE
  5
336
100
AcDbEntity
  8
0
100
AcDbLine
 62
7
  6
CONTINUOUS
 10
232.2236197586
 20
309.1575259147
 11
232.2236197586
 21
305.1197384355
  0
LINE
  5
337
100
AcDbEntity
  8
0
100
AcDbLine
 62
7
  6
CONTINUOUS
 10
232.2236197586
 20
302.5069048669
 11
232.2236197586
 21
300.774547237
  0
LINE
  5
338
100
AcDbEntity
  8
0
100
AcDbLine
 62
7
  6
CONTINUOUS
 10
232.2236197586
 20
296.7898878058
 11
232.2236197586
 21
290.6575259147
  0
LINE
  5
339
100
AcDbEntity
  8
0
100
AcDbLine
 62
7
  6
CONTINUOUS
 10
232.2774765883
 20
276.6575259147
 11
232.2774765883
 21
282.9553984581
  0
LINE
  5
33A
100
AcDbEntity
  8
0
100
AcDbLine
 62
7
  6
CONTINUOUS
 10
232.3181815989
 20
298.9873130499
 11
232.3181815989
 21
298.2213556944
  0
LINE
  5
33B
100
AcDbEntity
  8
0
100
AcDbLine
 62
7
  6
CONTINUOUS
 10
232.3601951966
 20
304.0936957775
 11
232.3601951966
 21
303.5830575405
  0
LINE
  5
33C
100
AcDbEntity
  8
0
100
AcDbLine
 62
7
  6
CONTINUOUS
 10
232.4486268974
 20
319.6256112037
 11
232.4486268974
 21
310.6894408045
  0
LINE
  5
33D
100
AcDbEntity
  8
0
100
AcDbLine
 62
7
  6
CONTINUOUS
 10
236.501437784
 20
439.9976575599
 11
236.7514375456
 21
441.2742531524
  0
LINE
  5
33E
100
AcDbEntity
  8
0
100
AcDbLine
 62
7
  6
CONTINUOUS
 10
237.5014375456
 20
424.9976575599
 11
237.7514373072
 21
426.2742531524
  0
LINE
  5
33F
100
AcDbEntity
  8
0
100
AcDbLine
 62
7
  6
CONTINUOUS
 10
236.2514373072
 20
426.2742531524
 11
236.0014375456
 21
425.2529766784
  0
LINE
  5
340
100
AcDbEntity
  8
BEZUGSACHSEN
100
AcDbLine
 62
7
  6
CONTINUOUS
 10
297.3219279704
 20
521.7259013168
 11
294.0044835338
 21
515.9759827776
  0
LINE
  5
341
100
AcDbEntity
  8
BEZUGSACHSEN
100
AcDbLine
 62
7
  6
CONTINUOUS
 10
294.8706571387
 20
515.4762395574
 11
298.8686029004
 21
522.4056283967
  0
LINE
  5
342
100
AcDbEntity
  8
BEZUGSACHSEN
100
AcDbLine
 62
7
  6
CONTINUOUS
 10
298.1844362629
 20
517.5070963414
 11
297.5718601688
 21
516.471637091
  0
LINE
  5
343
100
AcDbEntity
  8
BEZUGSACHSEN
100
AcDbLine
 62
7
  6
CONTINUOUS
 10
309.478244424
 20
504.9350167465
 11
309.1450108223
 21
504.5137283069
  0
LINE
  5
344
100
AcDbEntity
  8
BEZUGSACHSEN
100
AcDbLine
 62
7
  6
CONTINUOUS
 10
309.8399263269
 20
503.7747663185
 11
310.1731599286
 21
504.1960547581
  0
LINE
  5
345
100
AcDbEntity
  8
BEZUGSACHSEN
100
AcDbLine
 62
7
  6
CONTINUOUS
 10
312.3143579613
 20
506.8179439265
 11
311.981124161
 21
506.396655355
  0
LINE
  5
346
100
AcDbEntity
  8
BEZUGSACHSEN
100
AcDbLine
 62
7
  6
CONTINUOUS
 10
312.6760400628
 20
505.6576936303
 11
313.0092734659
 21
506.0789819381
  0
LINE
  5
347
100
AcDbEntity
  8
RUNDUNGEN
100
AcDbLine
 62
7
  6
CONTINUOUS
 10
316.2236197586
 20
331.6575259147
 11
304.7235888386
 21
331.6575259147
  0
LINE
  5
348
100
AcDbEntity
  8
RUNDUNGEN
100
AcDbLine
 62
7
  6
CONTINUOUS
 10
247.7236398774
 20
331.6575259147
 11
236.2236197586
 21
331.6575259147
  0
LINE
  5
349
100
AcDbEntity
  8
0
100
AcDbLine
 62
7
  6
CONTINUOUS
 10
240.1941435729
 20
278.8702918468
 11
240.3608096038
 21
278.0192279993
  0
LINE
  5
34A
100
AcDbEntity
  8
0
100
AcDbLine
 62
7
  6
CONTINUOUS
 10
243.1108096038
 20
279.7213558136
 11
242.9441435729
 21
280.5724195419
  0
LINE
  5
34B
100
AcDbEntity
  8
0
100
AcDbLine
 62
7
  6
CONTINUOUS
 10
240.6941435729
 20
278.5298663555
 11
240.6108096038
 21
279.0405045925
  0
LINE
  5
34C
100
AcDbEntity
  8
0
100
AcDbLine
 62
7
  6
CONTINUOUS
 10
242.6108096038
 20
280.0617813049
 11
242.6941435729
 21
279.5511428295
  0
LINE
  5
34D
100
AcDbEntity
  8
0
100
AcDbLine
 62
7
  6
CONTINUOUS
 10
242.9441435729
 20
282.7851857124
 11
242.8608096038
 21
283.2958239494
  0
LINE
  5
34E
100
AcDbEntity
  8
0
100
AcDbLine
 62
7
  6
CONTINUOUS
 10
239.4441430961
 20
279.2107173381
 11
239.3608100806
 21
279.8915685592
  0
LINE
  5
34F
100
AcDbEntity
  8
0
100
AcDbLine
 62
7
  6
CONTINUOUS
 10
239.3608100806
 20
282.7851857124
 11
239.2774765883
 21
283.4660366951
  0
LINE
  5
350
100
AcDbEntity
  8
0
100
AcDbLine
 62
7
  6
CONTINUOUS
 10
240.1108096038
 20
280.0617813049
 11
240.1941435729
 21
278.8702918468
  0
LINE
  5
351
100
AcDbEntity
  8
0
100
AcDbLine
 62
7
  6
CONTINUOUS
 10
232.6435019921
 20
282.9553984581
 11
232.6435019921
 21
283.9939593518
  0
LINE
  5
352
100
AcDbEntity
  8
0
100
AcDbLine
 62
7
  6
CONTINUOUS
 10
232.8250310719
 20
298.9873130499
 11
232.8250310719
 21
298.2213556944
  0
LINE
  5
353
100
AcDbEntity
  8
0
100
AcDbLine
 62
7
  6
CONTINUOUS
 10
232.8675358222
 20
304.0936957775
 11
232.8675358222
 21
303.5830575405
  0
LINE
  5
354
100
AcDbEntity
  8
0
100
AcDbLine
 62
7
  6
CONTINUOUS
 10
232.9570044531
 20
319.6256112037
 11
232.9570044531
 21
310.6894408045
  0
LINE
  5
355
100
AcDbEntity
  8
0
100
AcDbLine
 62
7
  6
CONTINUOUS
 10
233.8207893608
 20
304.0936957775
 11
233.8207893608
 21
303.5830575405
  0
LINE
  5
356
100
AcDbEntity
  8
0
100
AcDbLine
 62
7
  6
CONTINUOUS
 10
233.9011969337
 20
298.9873130499
 11
233.9011969337
 21
298.2213556944
  0
LINE
  5
357
100
AcDbEntity
  8
0
100
AcDbLine
 62
7
  6
CONTINUOUS
 10
234.2392476662
 20
304.0936957775
 11
234.2392476662
 21
303.327738422
  0
LINE
  5
358
100
AcDbEntity
  8
0
100
AcDbLine
 62
7
  6
CONTINUOUS
 10
234.3279155802
 20
317.0724193035
 11
234.3279155802
 21
313.2426321684
  0
LINE
  5
359
100
AcDbEntity
  8
0
100
AcDbLine
 62
7
  6
CONTINUOUS
 10
234.3279155802
 20
298.2213556944
 11
234.3279155802
 21
298.9873130499
  0
LINE
  5
35A
100
AcDbEntity
  8
0
100
AcDbLine
 62
7
  6
CONTINUOUS
 10
234.7695789423
 20
304.0936957775
 11
234.7695789423
 21
303.327738422
  0
LINE
  5
35B
100
AcDbEntity
  8
0
100
AcDbLine
 62
7
  6
CONTINUOUS
 10
234.8593836529
 20
298.2213556944
 11
234.8593836529
 21
298.9873130499
  0
LINE
  5
35C
100
AcDbEntity
  8
0
100
AcDbLine
 62
7
  6
CONTINUOUS
 10
234.8956627383
 20
317.0724193035
 11
234.8956627383
 21
313.2426321684
  0
LINE
  5
35D
100
AcDbEntity
  8
0
100
AcDbLine
 62
7
  6
CONTINUOUS
 10
235.0988097287
 20
303.327738422
 11
235.0988097287
 21
302.306461948
  0
LINE
  5
35E
100
AcDbEntity
  8
0
100
AcDbLine
 62
7
  6
CONTINUOUS
 10
235.2514375456
 20
449.1891468988
 11
235.2514375456
 21
441.2742531524
  0
LINE
  5
35F
100
AcDbEntity
  8
0
100
AcDbLine
 62
7
  6
CONTINUOUS
 10
235.2774765883
 20
282.9553984581
 11
235.2774765883
 21
276.6575259147
  0
LINE
  5
360
100
AcDbEntity
  8
0
100
AcDbLine
 62
7
  6
CONTINUOUS
 10
235.4345276938
 20
317.0724193035
 11
235.4345276938
 21
313.2426321684
  0
LINE
  5
361
100
AcDbEntity
  8
0
100
AcDbLine
 62
7
  6
CONTINUOUS
 10
235.5014373072
 20
462.3806365953
 11
235.5014373072
 21
461.6146785245
  0
LINE
  5
362
100
AcDbEntity
  8
0
100
AcDbLine
 62
7
  6
CONTINUOUS
 10
235.7774765883
 20
276.6575259147
 11
235.7774765883
 21
284.6575259147
  0
LINE
  5
363
100
AcDbEntity
  8
0
100
AcDbLine
 62
7
  6
CONTINUOUS
 10
235.9837146424
 20
305.3702920852
 11
235.9837146424
 21
303.327738422
  0
LINE
  5
364
100
AcDbEntity
  8
0
100
AcDbLine
 62
7
  6
CONTINUOUS
 10
235.9837146424
 20
302.306461948
 11
235.9837146424
 21
297.2000790415
  0
LINE
  5
365
100
AcDbEntity
  8
0
100
AcDbLine
 62
7
  6
CONTINUOUS
 10
236.2514373072
 20
430.1040402875
 11
236.2514373072
 21
426.2742531524
  0
LINE
  5
366
100
AcDbEntity
  8
0
100
AcDbLine
 62
7
  6
CONTINUOUS
 10
236.598027793
 20
305.3702920852
 11
236.598027793
 21
303.327738422
  0
LINE
  5
367
100
AcDbEntity
  8
0
100
AcDbLine
 62
7
  6
CONTINUOUS
 10
236.598027793
 20
302.306461948
 11
236.598027793
 21
297.7107174574
  0
LINE
  5
368
100
AcDbEntity
  8
0
100
AcDbLine
 62
7
  6
CONTINUOUS
 10
236.7514375456
 20
441.2742531524
 11
236.7514375456
 21
449.1891468988
  0
LINE
  5
369
100
AcDbEntity
  8
0
100
AcDbLine
 62
7
  6
CONTINUOUS
 10
237.0014373072
 20
461.359359406
 11
237.0014373072
 21
462.3806365953
  0
LINE
  5
36A
100
AcDbEntity
  8
0
100
AcDbLine
 62
7
  6
CONTINUOUS
 10
237.1603692715
 20
305.3702920852
 11
237.1603692715
 21
303.327738422
  0
LINE
  5
36B
100
AcDbEntity
  8
0
100
AcDbLine
 62
7
  6
CONTINUOUS
 10
237.1603692715
 20
302.306461948
 11
237.1603692715
 21
297.7107174574
  0
LINE
  5
36C
100
AcDbEntity
  8
0
100
AcDbLine
 62
7
  6
CONTINUOUS
 10
237.7514373072
 20
426.2742531524
 11
237.7514373072
 21
430.1040402875
  0
LINE
  5
36D
100
AcDbEntity
  8
0
100
AcDbLine
 62
7
  6
CONTINUOUS
 10
237.7774765883
 20
281.0830577789
 11
237.7774765883
 21
280.4022067962
  0
LINE
  5
36E
100
AcDbEntity
  8
0
100
AcDbLine
 62
7
  6
CONTINUOUS
 10
237.8309115588
 20
296.1788024781
 11
237.8309115588
 21
295.1575259147
  0
LINE
  5
36F
100
AcDbEntity
  8
0
100
AcDbLine
 62
7
  6
CONTINUOUS
 10
238.128344461
 20
303.327738422
 11
238.128344461
 21
302.306461948
  0
LINE
  5
370
100
AcDbEntity
  8
0
100
AcDbLine
 62
7
  6
CONTINUOUS
 10
238.41158407
 20
296.1788024781
 11
238.41158407
 21
295.1575259147
  0
LINE
  5
371
100
AcDbEntity
  8
0
100
AcDbLine
 62
7
  6
CONTINUOUS
 10
238.6435019921
 20
280.4022067962
 11
238.6435019921
 21
281.0830577789
  0
LINE
  5
372
100
AcDbEntity
  8
0
100
AcDbLine
 62
7
  6
CONTINUOUS
 10
238.7136210916
 20
303.327738422
 11
238.7136210916
 21
302.306461948
  0
LINE
  5
373
100
AcDbEntity
  8
0
100
AcDbLine
 62
7
  6
CONTINUOUS
 10
238.9441430961
 20
282.7851857124
 11
238.9441430961
 21
282.4447597442
  0
LINE
  5
374
100
AcDbEntity
  8
0
100
AcDbLine
 62
7
  6
CONTINUOUS
 10
239.0274765883
 20
279.2107173381
 11
239.0274765883
 21
278.5298663555
  0
LINE
  5
375
100
AcDbEntity
  8
0
100
AcDbLine
 62
7
  6
CONTINUOUS
 10
239.3608100806
 20
282.4447597442
 11
239.3608100806
 21
282.7851857124
  0
LINE
  5
376
100
AcDbEntity
  8
0
100
AcDbLine
 62
7
  6
CONTINUOUS
 10
239.4441430961
 20
278.5298663555
 11
239.4441430961
 21
279.2107173381
  0
LINE
  5
377
100
AcDbEntity
  8
0
100
AcDbLine
 62
7
  6
CONTINUOUS
 10
240.1108096038
 20
281.2532705246
 11
240.1108096038
 21
280.0617813049
  0
LINE
  5
378
100
AcDbEntity
  8
0
100
AcDbLine
 62
7
  6
CONTINUOUS
 10
240.5274765883
 20
280.9128450332
 11
240.5274765883
 21
281.2532705246
  0
LINE
  5
379
100
AcDbEntity
  8
0
100
AcDbLine
 62
7
  6
CONTINUOUS
 10
240.6108096038
 20
279.0405045925
 11
240.6108096038
 21
279.5511428295
  0
LINE
  5
37A
100
AcDbEntity
  8
0
100
AcDbLine
 62
7
  6
CONTINUOUS
 10
240.9768350076
 20
280.5601988166
 11
240.9768350076
 21
280.9128450332
  0
LINE
  5
37B
100
AcDbEntity
  8
0
100
AcDbLine
 62
7
  6
CONTINUOUS
 10
242.6941435729
 20
279.5511428295
 11
242.6941435729
 21
279.0405045925
  0
LINE
  5
37C
100
AcDbEntity
  8
0
100
AcDbLine
 62
7
  6
CONTINUOUS
 10
243.1108096038
 20
278.8702918468
 11
243.1108096038
 21
279.7213558136
  0
LINE
  5
37D
100
AcDbEntity
  8
BEZUGSACHSEN
100
AcDbLine
 62
7
  6
CONTINUOUS
 10
246.6707834567
 20
511.1598891492
 11
246.6904892033
 21
511.9994171863
  0
LINE
  5
37E
100
AcDbEntity
  8
BEZUGSACHSEN
100
AcDbLine
 62
7
  6
CONTINUOUS
 10
252.0355241818
 20
517.9293337994
 11
251.9917662139
 21
517.4549018711
  0
LINE
  5
37F
100
AcDbEntity
  8
BEZUGSACHSEN
100
AcDbLine
 62
7
  6
CONTINUOUS
 10
275.0646305281
 20
526.3909052399
 11
274.938586426
 21
525.8687534468
  0
LINE
  5
380
100
AcDbEntity
  8
BEZUGSACHSEN
100
AcDbLine
 62
7
  6
CONTINUOUS
 10
275.9488665031
 20
525.7776131998
 11
276.0749106052
 21
526.2997649929
  0
LINE
  5
381
100
AcDbEntity
  8
0
100
AcDbLine
 62
7
  6
CONTINUOUS
 10
227.7514375456
 20
441.2742531524
 11
228.0014375531
 21
439.9976575599
  0
LINE
  5
382
100
AcDbEntity
  8
KONSTRUKTIONSELEMENTE
100
AcDbLine
 62
7
  6
CONTINUOUS
 10
248.281333418
 20
270.6575259147
 11
248.281333418
 21
290.6575259147
  0
LINE
  5
383
100
AcDbEntity
  8
RUNDUNGEN
100
AcDbLine
 62
7
  6
CONTINUOUS
 10
252.7236197586
 20
383.1573526381
 11
252.7236197586
 21
336.6576166197
  0
LINE
  5
384
100
AcDbEntity
  8
KONSTRUKTIONSELEMENTE
100
AcDbLine
 62
7
  6
CONTINUOUS
 10
254.1659060992
 20
270.6575259147
 11
254.1659060992
 21
290.6575259147
  0
LINE
  5
385
100
AcDbEntity
  8
0
100
AcDbLine
 62
7
  6
CONTINUOUS
 10
240.1941435729
 20
282.4447597442
 11
240.1108096038
 21
281.2532705246
  0
LINE
  5
386
100
AcDbEntity
  8
0
100
AcDbLine
 62
7
  6
CONTINUOUS
 10
240.5274765883
 20
281.2532705246
 11
240.6108096038
 21
282.2745469986
  0
LINE
  5
387
100
AcDbEntity
  8
0
100
AcDbLine
 62
7
  6
CONTINUOUS
 10
236.6108100806
 20
283.4660366951
 11
236.5274765883
 21
282.7851857124
  0
LINE
  5
388
100
AcDbEntity
  8
0
100
AcDbLine
 62
7
  6
CONTINUOUS
 10
239.2774765883
 20
281.7639087616
 11
239.3608100806
 21
282.4447597442
  0
LINE
  5
389
100
AcDbEntity
  8
0
100
AcDbLine
 62
7
  6
CONTINUOUS
 10
235.0274765883
 20
284.6575259147
 11
233.7774765883
 21
277.5085897623
  0
LINE
  5
38A
100
AcDbEntity
  8
0
100
AcDbLine
 62
7
  6
CONTINUOUS
 10
235.5958829792
 20
282.9553984581
 11
235.7774765883
 21
283.9939593518
  0
LINE
  5
38B
100
AcDbEntity
  8
0
100
AcDbLine
 62
7
  6
CONTINUOUS
 10
234.1108098422
 20
276.6575259147
 11
235.2774765883
 21
282.9553984581
  0
LINE
  5
38C
100
AcDbEntity
  8
BEZUGSACHSEN
100
AcDbLine
 62
7
  6
CONTINUOUS
 10
298.1414391338
 20
515.5819914774
 11
298.329511019
 21
516.0851401401
  0
LINE
  5
38D
100
AcDbEntity
  8
BEZUGSACHSEN
100
AcDbLine
 62
7
  6
CONTINUOUS
 10
302.0935912388
 20
514.3896442769
 11
301.905519205
 21
513.8864954279
  0
LINE
  5
38E
100
AcDbEntity
  8
BEZUGSACHSEN
100
AcDbLine
 62
7
  6
CONTINUOUS
 10
304.312829435
 20
516.103225187
 11
304.5009013202
 21
516.6063738496
  0
LINE
  5
38F
100
AcDbEntity
  8
0
100
AcDbLine
 62
7
  6
CONTINUOUS
 10
299.7236197586
 20
352.231035203
 11
300.7236197586
 21
352.231035203
  0
LINE
  5
390
100
AcDbEntity
  8
0
100
AcDbLine
 62
7
  6
CONTINUOUS
 10
299.7236197586
 20
353.0875259147
 11
300.7236197586
 21
353.0875259147
  0
LINE
  5
391
100
AcDbEntity
  8
0
100
AcDbLine
 62
7
  6
CONTINUOUS
 10
229.501437486
 20
440.2529766784
 11
229.2514375456
 21
441.2742531524
  0
LINE
  5
392
100
AcDbEntity
  8
0
100
AcDbLine
 62
7
  6
CONTINUOUS
 10
236.0014375456
 20
431.1253167615
 11
236.2514373072
 21
430.1040402875
  0
LINE
  5
393
100
AcDbEntity
  8
0
100
AcDbLine
 62
7
  6
CONTINUOUS
 10
237.7514373072
 20
430.1040402875
 11
237.5014375456
 21
431.3806365953
  0
LINE
  5
394
100
AcDbEntity
  8
BEZUGSACHSEN
100
AcDbLine
 62
7
  6
CONTINUOUS
 10
252.9604568468
 20
517.5846469343
 11
252.9186822507
 21
518.42833701
  0
LINE
  5
395
100
AcDbEntity
  8
0
100
AcDbLine
 62
7
  6
CONTINUOUS
 10
258.2236197586
 20
270.6575259147
 11
258.2236197586
 21
219.6575259147
  0
LINE
  5
396
100
AcDbEntity
  8
FASEN
100
AcDbLine
 62
7
  6
CONTINUOUS
 10
258.2236197586
 20
270.6575259147
 11
258.2236197586
 21
219.6575259147
  0
LINE
  5
397
100
AcDbEntity
  8
0
100
AcDbLine
 62
7
  6
CONTINUOUS
 10
239.3608100806
 20
278.0192279993
 11
239.4441430961
 21
278.5298663555
  0
LINE
  5
398
100
AcDbEntity
  8
0
100
AcDbLine
 62
7
  6
CONTINUOUS
 10
240.6108096038
 20
282.2745469986
 11
240.6941435729
 21
282.7851857124
  0
LINE
  5
399
100
AcDbEntity
  8
0
100
AcDbLine
 62
7
  6
CONTINUOUS
 10
240.6108096038
 20
279.5511428295
 11
240.6941435729
 21
280.0617813049
  0
LINE
  5
39A
100
AcDbEntity
  8
0
100
AcDbLine
 62
7
  6
CONTINUOUS
 10
242.6941435729
 20
279.0405045925
 11
242.6108096038
 21
278.5298663555
  0
LINE
  5
39B
100
AcDbEntity
  8
0
100
AcDbLine
 62
7
  6
CONTINUOUS
 10
240.3608096038
 20
283.2958239494
 11
240.1941435729
 21
282.4447597442
  0
LINE
  5
39C
100
AcDbEntity
  8
0
100
AcDbLine
 62
7
  6
CONTINUOUS
 10
242.9441435729
 20
278.0192279993
 11
243.1108096038
 21
278.8702918468
  0
LINE
  5
39D
100
AcDbEntity
  8
0
100
AcDbLine
 62
7
  6
CONTINUOUS
 10
238.9441430961
 20
282.4447597442
 11
238.7774765883
 21
281.7639087616
  0
LINE
  5
39E
100
AcDbEntity
  8
0
100
AcDbLine
 62
7
  6
CONTINUOUS
 10
239.0274765883
 20
278.5298663555
 11
238.9441430961
 21
278.1894408641
  0
LINE
  5
39F
100
AcDbEntity
  8
BEZUGSACHSEN
100
AcDbLine
 62
7
  6
CONTINUOUS
 10
297.5718601688
 20
516.471637091
 11
297.3018393566
 21
515.5984196513
  0
LINE
  5
3A0
100
AcDbEntity
  8
BEZUGSACHSEN
100
AcDbLine
 62
7
  6
CONTINUOUS
 10
302.6631702039
 20
513.4999986633
 11
302.9331909417
 21
514.3732160098
  0
LINE
  5
3A1
100
AcDbEntity
  8
BEZUGSACHSEN
100
AcDbLine
 62
7
  6
CONTINUOUS
 10
310.1731599286
 20
504.1960547581
 11
310.4638276328
 21
504.9891943085
  0
LINE
  5
3A2
100
AcDbEntity
  8
BEZUGSACHSEN
100
AcDbLine
 62
7
  6
CONTINUOUS
 10
313.0092734659
 20
506.0789819381
 11
313.2999411701
 21
506.8721214884
  0
LINE
  5
3A3
100
AcDbEntity
  8
0
100
AcDbLine
 62
7
  6
CONTINUOUS
 10
299.7236197586
 20
358.6955795155
 11
300.7236197586
 21
358.6955795155
  0
LINE
  5
3A4
100
AcDbEntity
  8
0
100
AcDbLine
 62
7
  6
CONTINUOUS
 10
299.7236197586
 20
359.432046589
 11
300.7236197586
 21
359.432046589
  0
LINE
  5
3A5
100
AcDbEntity
  8
0
100
AcDbLine
 62
7
  6
CONTINUOUS
 10
299.7236197586
 20
360.302046589
 11
300.7236197586
 21
360.302046589
  0
LINE
  5
3A6
100
AcDbEntity
  8
0
100
AcDbLine
 62
7
  6
CONTINUOUS
 10
299.7236197586
 20
362.3075259147
 11
300.7236197586
 21
362.3075259147
  0
LINE
  5
3A7
100
AcDbEntity
  8
0
100
AcDbLine
 62
7
  6
CONTINUOUS
 10
299.7236197586
 20
363.0575259147
 11
300.7236197586
 21
363.0575259147
  0
LINE
  5
3A8
100
AcDbEntity
  8
0
100
AcDbLine
 62
7
  6
CONTINUOUS
 10
299.7236197586
 20
363.8075259147
 11
300.7236197586
 21
363.8075259147
  0
LINE
  5
3A9
100
AcDbEntity
  8
0
100
AcDbLine
 62
7
  6
CONTINUOUS
 10
299.7236197586
 20
364.8075258551
 11
300.7236197586
 21
364.8075258551
  0
LINE
  5
3AA
100
AcDbEntity
  8
0
100
AcDbLine
 62
7
  6
CONTINUOUS
 10
299.7236197586
 20
364.9325259147
 11
300.7236197586
 21
364.9325259147
  0
LINE
  5
3AB
100
AcDbEntity
  8
0
100
AcDbLine
 62
7
  6
CONTINUOUS
 10
299.7236197586
 20
365.1825258551
 11
300.7236197586
 21
365.1825258551
  0
LINE
  5
3AC
100
AcDbEntity
  8
0
100
AcDbLine
 62
7
  6
CONTINUOUS
 10
299.7236197586
 20
365.5575260339
 11
300.7236197586
 21
365.5575260339
  0
LINE
  5
3AD
100
AcDbEntity
  8
0
100
AcDbLine
 62
7
  6
CONTINUOUS
 10
299.7236197586
 20
366.1825257955
 11
300.7236197586
 21
366.1825257955
  0
LINE
  5
3AE
100
AcDbEntity
  8
0
100
AcDbLine
 62
7
  6
CONTINUOUS
 10
299.7236197586
 20
366.8075259147
 11
300.7236197586
 21
366.8075259147
  0
LINE
  5
3AF
100
AcDbEntity
  8
0
100
AcDbLine
 62
7
  6
CONTINUOUS
 10
228.0014375531
 20
439.9976575599
 11
228.5014375456
 21
438.9763809071
  0
LINE
  5
3B0
100
AcDbEntity
  8
0
100
AcDbLine
 62
7
  6
CONTINUOUS
 10
237.5014375456
 20
431.3806365953
 11
237.0014373072
 21
432.4019130693
  0
LINE
  5
3B1
100
AcDbEntity
  8
0
100
AcDbLine
 62
7
  6
CONTINUOUS
 10
233.5014374264
 20
458.5508491025
 11
235.5014373072
 21
453.1891468988
  0
LINE
  5
3B2
100
AcDbEntity
  8
0
100
AcDbLine
 62
7
  6
CONTINUOUS
 10
235.2514375456
 20
463.1465939508
 11
235.5014373072
 21
462.3806365953
  0
LINE
  5
3B3
100
AcDbEntity
  8
0
100
AcDbLine
 62
7
  6
CONTINUOUS
 10
237.0014373072
 20
462.3806365953
 11
236.7514375456
 21
463.1465939508
  0
LINE
  5
3B4
100
AcDbEntity
  8
BEZUGSACHSEN
100
AcDbLine
 62
7
  6
CONTINUOUS
 10
245.7139090076
 20
512.1429462461
 11
245.7703870753
 21
511.6698596154
  0
LINE
  5
3B5
100
AcDbEntity
  8
BEZUGSACHSEN
100
AcDbLine
 62
7
  6
CONTINUOUS
 10
264.2456995782
 20
518.6673792679
 11
263.9061556584
 21
527.093281464
  0
LINE
  5
3B6
100
AcDbEntity
  8
BEZUGSACHSEN
100
AcDbLine
 62
7
  6
CONTINUOUS
 10
262.9709746536
 20
526.7391113238
 11
263.2605404954
 21
519.3863445369
  0
LINE
  5
3B7
100
AcDbEntity
  8
0
100
AcDbLine
 62
7
  6
CONTINUOUS
 10
236.9441430961
 20
282.7851857124
 11
237.1108100806
 21
283.2958239494
  0
LINE
  5
3B8
100
AcDbEntity
  8
0
100
AcDbLine
 62
7
  6
CONTINUOUS
 10
239.1108100806
 20
281.2532705246
 11
239.2774765883
 21
281.7639087616
  0
LINE
  5
3B9
100
AcDbEntity
  8
0
100
AcDbLine
 62
7
  6
CONTINUOUS
 10
240.6941435729
 20
282.7851857124
 11
240.8608096038
 21
283.2958239494
  0
LINE
  5
3BA
100
AcDbEntity
  8
0
100
AcDbLine
 62
7
  6
CONTINUOUS
 10
239.1941430961
 20
277.5085897623
 11
239.3608100806
 21
278.0192279993
  0
LINE
  5
3BB
100
AcDbEntity
  8
0
100
AcDbLine
 62
7
  6
CONTINUOUS
 10
242.6108096038
 20
278.5298663555
 11
242.4441435729
 21
278.0192279993
  0
LINE
  5
3BC
100
AcDbEntity
  8
0
100
AcDbLine
 62
7
  6
CONTINUOUS
 10
240.6108096038
 20
283.9766749321
 11
240.3608096038
 21
283.2958239494
  0
LINE
  5
3BD
100
AcDbEntity
  8
0
100
AcDbLine
 62
7
  6
CONTINUOUS
 10
241.4143350076
 20
283.8064621864
 11
241.4768350076
 21
283.9766749321
  0
LINE
  5
3BE
100
AcDbEntity
  8
0
100
AcDbLine
 62
7
  6
CONTINUOUS
 10
299.7236197586
 20
367.3075257955
 11
300.7236197586
 21
367.3075257955
  0
LINE
  5
3BF
100
AcDbEntity
  8
0
100
AcDbLine
 62
7
  6
CONTINUOUS
 10
299.7236197586
 20
367.9325259147
 11
300.7236197586
 21
367.9325259147
  0
LINE
  5
3C0
100
AcDbEntity
  8
0
100
AcDbLine
 62
7
  6
CONTINUOUS
 10
299.7236197586
 20
368.5575256763
 11
300.7236197586
 21
368.5575256763
  0
LINE
  5
3C1
100
AcDbEntity
  8
0
100
AcDbLine
 62
7
  6
CONTINUOUS
 10
299.7236197586
 20
368.9325256763
 11
300.7236197586
 21
368.9325256763
  0
LINE
  5
3C2
100
AcDbEntity
  8
0
100
AcDbLine
 62
7
  6
CONTINUOUS
 10
299.7236197586
 20
369.0575259147
 11
300.7236197586
 21
369.0575259147
  0
LINE
  5
3C3
100
AcDbEntity
  8
0
100
AcDbLine
 62
7
  6
CONTINUOUS
 10
299.7236197586
 20
369.3075256763
 11
300.7236197586
 21
369.3075256763
  0
LINE
  5
3C4
100
AcDbEntity
  8
0
100
AcDbLine
 62
7
  6
CONTINUOUS
 10
230.0014375456
 20
439.4870193229
 11
229.501437486
 21
440.2529766784
  0
LINE
  5
3C5
100
AcDbEntity
  8
0
100
AcDbLine
 62
7
  6
CONTINUOUS
 10
235.5014373072
 20
431.8912748323
 11
236.0014375456
 21
431.1253167615
  0
LINE
  5
3C6
100
AcDbEntity
  8
0
100
AcDbLine
 62
7
  6
CONTINUOUS
 10
237.251437784
 20
453.1891468988
 11
235.001437784
 21
459.0614873395
  0
LINE
  5
3C7
100
AcDbEntity
  8
BEZUGSACHSEN
100
AcDbLine
 62
7
  6
CONTINUOUS
 10
269.7267503799
 20
528.3606975187
 11
270.3551233123
 21
520.385413984
  0
LINE
  5
3C8
100
AcDbEntity
  8
BEZUGSACHSEN
100
AcDbLine
 62
7
  6
CONTINUOUS
 10
271.3520337541
 20
520.4639606006
 11
271.0712713761
 21
524.0273852092
  0
LINE
  5
3C9
100
AcDbEntity
  8
BEZUGSACHSEN
100
AcDbLine
 62
7
  6
CONTINUOUS
 10
270.9910535645
 20
525.0455063901
 11
270.790508998
 21
527.5908098178
  0
LINE
  5
3CA
100
AcDbEntity
  8
BEZUGSACHSEN
100
AcDbLine
 62
7
  6
CONTINUOUS
 10
275.0245215849
 20
526.8999663057
 11
275.0646305281
 21
526.3909052399
  0
LINE
  5
3CB
100
AcDbEntity
  8
BEZUGSACHSEN
100
AcDbLine
 62
7
  6
CONTINUOUS
 10
276.0749106052
 20
526.2997649929
 11
276.0214320267
 21
526.9785129223
  0
LINE
  5
3CC
100
AcDbEntity
  8
BEZUGSACHSEN
100
AcDbLine
 62
7
  6
CONTINUOUS
 10
298.0836703518
 20
514.9749292384
 11
298.1414391338
 21
515.5819914774
  0
LINE
  5
3CD
100
AcDbEntity
  8
BEZUGSACHSEN
100
AcDbLine
 62
7
  6
CONTINUOUS
 10
309.5774843822
 20
505.4010143349
 11
309.478244424
 21
504.9350167465
  0
LINE
  5
3CE
100
AcDbEntity
  8
BEZUGSACHSEN
100
AcDbLine
 62
7
  6
CONTINUOUS
 10
312.4135979195
 20
507.2839415149
 11
312.3143579613
 21
506.8179439265
  0
LINE
  5
3CF
100
AcDbEntity
  8
0
100
AcDbLine
 62
7
  6
CONTINUOUS
 10
242.6941435729
 20
277.338376957
 11
242.9441435729
 21
278.0192279993
  0
LINE
  5
3D0
100
AcDbEntity
  8
0
100
AcDbLine
 62
7
  6
CONTINUOUS
 10
236.9441430961
 20
284.1468876777
 11
236.6108100806
 21
283.4660366951
  0
LINE
  5
3D1
100
AcDbEntity
  8
0
100
AcDbLine
 62
7
  6
CONTINUOUS
 10
237.610008367
 20
283.7380496185
 11
237.8101684998
 21
284.1468876777
  0
LINE
  5
3D2
100
AcDbEntity
  8
0
100
AcDbLine
 62
7
  6
CONTINUOUS
 10
238.7774765883
 20
281.7639087616
 11
238.6108100806
 21
281.4234832702
  0
LINE
  5
3D3
100
AcDbEntity
  8
0
100
AcDbLine
 62
7
  6
CONTINUOUS
 10
238.9441430961
 20
278.1894408641
 11
238.7774765883
 21
277.8490152536
  0
LINE
  5
3D4
100
AcDbEntity
  8
0
100
AcDbLine
 62
7
  6
CONTINUOUS
 10
240.6941435729
 20
280.0617813049
 11
240.8608096038
 21
280.4022067962
  0
LINE
  5
3D5
100
AcDbEntity
  8
0
100
AcDbLine
 62
7
  6
CONTINUOUS
 10
228.5014375456
 20
438.9763809071
 11
229.501437486
 21
437.9551043437
  0
LINE
  5
3D6
100
AcDbEntity
  8
0
100
AcDbLine
 62
7
  6
CONTINUOUS
 10
237.0014373072
 20
432.4019130693
 11
236.0014375456
 21
433.4231895433
  0
LINE
  5
3D7
100
AcDbEntity
  8
BEZUGSACHSEN
100
AcDbLine
 62
7
  6
CONTINUOUS
 10
246.6904892033
 20
511.9994171863
 11
246.4731097715
 21
512.8156917989
  0
LINE
  5
3D8
100
AcDbEntity
  8
0
100
AcDbLine
 62
7
  6
CONTINUOUS
 10
294.2236197586
 20
270.6575259147
 11
294.2236197586
 21
219.6575259147
  0
LINE
  5
3D9
100
AcDbEntity
  8
FASEN
100
AcDbLine
 62
7
  6
CONTINUOUS
 10
294.2236197586
 20
270.6575259147
 11
294.2236197586
 21
219.6575259147
  0
LINE
  5
3DA
100
AcDbEntity
  8
KONSTRUKTIONSELEMENTE
100
AcDbLine
 62
7
  6
CONTINUOUS
 10
298.281333418
 20
270.6575259147
 11
298.281333418
 21
290.6575259147
  0
LINE
  5
3DB
100
AcDbEntity
  8
RUNDUNGEN
100
AcDbLine
 62
7
  6
CONTINUOUS
 10
299.7236197586
 20
336.6575667103
 11
299.7236197586
 21
383.1573632874
  0
LINE
  5
3DC
100
AcDbEntity
  8
BEZUGSACHSEN
100
AcDbLine
 62
7
  6
CONTINUOUS
 10
297.3018393566
 20
515.5984196513
 11
297.2682507568
 21
514.7543639969
  0
LINE
  5
3DD
100
AcDbEntity
  8
BEZUGSACHSEN
100
AcDbLine
 62
7
  6
CONTINUOUS
 10
304.5009013202
 20
516.6063738496
 11
304.5344898829
 21
517.4504294574
  0
LINE
  5
3DE
100
AcDbEntity
  8
BEZUGSACHSEN
100
AcDbLine
 62
7
  6
CONTINUOUS
 10
303.719070325
 20
517.2298642625
 11
303.6613045998
 21
516.6227997383
  0
LINE
  5
3DF
100
AcDbEntity
  8
0
100
AcDbLine
 62
7
  6
CONTINUOUS
 10
238.7774765883
 20
280.7426322876
 11
239.1108100806
 21
281.2532705246
  0
LINE
  5
3E0
100
AcDbEntity
  8
0
100
AcDbLine
 62
7
  6
CONTINUOUS
 10
237.1108100806
 20
283.2958239494
 11
237.3608100806
 21
283.6362494407
  0
LINE
  5
3E1
100
AcDbEntity
  8
0
100
AcDbLine
 62
7
  6
CONTINUOUS
 10
234.7514373072
 20
432.4019130693
 11
235.5014373072
 21
431.8912748323
  0
LINE
  5
3E2
100
AcDbEntity
  8
0
100
AcDbLine
 62
7
  6
CONTINUOUS
 10
236.7514375456
 20
463.1465939508
 11
236.0014375456
 21
464.1678704248
  0
LINE
  5
3E3
100
AcDbEntity
  8
BEZUGSACHSEN
100
AcDbLine
 62
7
  6
CONTINUOUS
 10
266.3604309127
 20
527.6096625605
 11
268.0813845514
 21
519.7969601744
  0
LINE
  5
3E4
100
AcDbEntity
  8
BEZUGSACHSEN
100
AcDbLine
 62
7
  6
CONTINUOUS
 10
269.0579723497
 20
520.0120793792
 11
267.337018711
 21
527.8247817653
  0
LINE
  5
3E5
100
AcDbEntity
  8
0
100
AcDbLine
 62
7
  6
CONTINUOUS
 10
300.7236197586
 20
369.3075256763
 11
300.7236197586
 21
364.8075258551
  0
LINE
  5
3E6
100
AcDbEntity
  8
0
100
AcDbLine
 62
7
  6
CONTINUOUS
 10
300.7236197586
 20
363.8075259147
 11
300.7236197586
 21
362.3075259147
  0
LINE
  5
3E7
100
AcDbEntity
  8
0
100
AcDbLine
 62
7
  6
CONTINUOUS
 10
300.7236197586
 20
360.302046589
 11
300.7236197586
 21
352.231035203
  0
LINE
  5
3E8
100
AcDbEntity
  8
KONSTRUKTIONSELEMENTE
100
AcDbLine
 62
7
  6
CONTINUOUS
 10
304.1659060992
 20
270.6575259147
 11
304.1659060992
 21
290.6575259147
  0
LINE
  5
3E9
100
AcDbEntity
  8
BEZUGSACHSEN
100
AcDbLine
 62
7
  6
CONTINUOUS
 10
313.2999411701
 20
506.8721214884
 11
313.3566154294
 21
507.7099703194
  0
LINE
  5
3EA
100
AcDbEntity
  8
0
100
AcDbLine
 62
7
  6
CONTINUOUS
 10
240.8608096038
 20
283.2958239494
 11
241.1108096038
 21
283.6362494407
  0
LINE
  5
3EB
100
AcDbEntity
  8
0
100
AcDbLine
 62
7
  6
CONTINUOUS
 10
241.0274765883
 20
281.5936960159
 11
240.5274765883
 21
280.9128450332
  0
LINE
  5
3EC
100
AcDbEntity
  8
0
100
AcDbLine
 62
7
  6
CONTINUOUS
 10
240.8608096038
 20
280.4022067962
 11
241.1108096038
 21
280.7426322876
  0
LINE
  5
3ED
100
AcDbEntity
  8
0
100
AcDbLine
 62
7
  6
CONTINUOUS
 10
241.3935019921
 20
280.9128450332
 11
241.8935019921
 21
281.5936960159
  0
LINE
  5
3EE
100
AcDbEntity
  8
0
100
AcDbLine
 62
7
  6
CONTINUOUS
 10
238.9441430961
 20
277.1681642113
 11
239.1941430961
 21
277.5085897623
  0
LINE
  5
3EF
100
AcDbEntity
  8
0
100
AcDbLine
 62
7
  6
CONTINUOUS
 10
242.4441435729
 20
278.0192279993
 11
242.1941435729
 21
277.6788025079
  0
LINE
  5
3F0
100
AcDbEntity
  8
0
100
AcDbLine
 62
7
  6
CONTINUOUS
 10
241.0274765883
 20
284.4873131691
 11
240.6108096038
 21
283.9766749321
  0
LINE
  5
3F1
100
AcDbEntity
  8
0
100
AcDbLine
 62
7
  6
CONTINUOUS
 10
241.4768350076
 20
283.9766749321
 11
241.8935019921
 21
284.4873131691
  0
LINE
  5
3F2
100
AcDbEntity
  8
0
100
AcDbLine
 62
7
  6
CONTINUOUS
 10
236.0014375456
 20
433.4231895433
 11
235.001437784
 21
433.9338277803
  0
LINE
  5
3F3
100
AcDbEntity
  8
0
100
AcDbLine
 62
7
  6
CONTINUOUS
 10
229.501437486
 20
437.9551043437
 11
230.5014376052
 21
437.4444660396
  0
LINE
  5
3F4
100
AcDbEntity
  8
0
100
AcDbLine
 62
7
  6
CONTINUOUS
 10
230.7514375456
 20
438.9763809071
 11
230.0014375456
 21
439.4870193229
  0
LINE
  5
3F5
100
AcDbEntity
  8
0
100
AcDbLine
 62
7
  6
CONTINUOUS
 10
234.7514373072
 20
463.6572321878
 11
235.2514375456
 21
463.1465939508
  0
LINE
  5
3F6
100
AcDbEntity
  8
BEZUGSACHSEN
100
AcDbLine
 62
7
  6
CONTINUOUS
 10
251.8425796999
 20
518.430633829
 11
252.0355241818
 21
517.9293337994
  0
LINE
  5
3F7
100
AcDbEntity
  8
BEZUGSACHSEN
100
AcDbLine
 62
7
  6
CONTINUOUS
 10
252.9186822507
 20
518.42833701
 11
252.7257377688
 21
518.9296370396
  0
LINE
  5
3F8
100
AcDbEntity
  8
BEZUGSACHSEN
100
AcDbLine
 62
7
  6
CONTINUOUS
 10
302.0452339314
 20
514.8636288224
 11
302.0935912388
 21
514.3896442769
  0
LINE
  5
3F9
100
AcDbEntity
  8
BEZUGSACHSEN
100
AcDbLine
 62
7
  6
CONTINUOUS
 10
302.9331909417
 20
514.3732160098
 11
302.8606534893
 21
515.0841940173
  0
LINE
  5
3FA
100
AcDbEntity
  8
0
100
AcDbLine
 62
7
  6
CONTINUOUS
 10
320.2236197586
 20
327.6575259147
 11
320.2236197586
 21
290.6575259147
  0
LINE
  5
3FB
100
AcDbEntity
  8
0
100
AcDbLine
 62
7
  6
CONTINUOUS
 10
242.2774765883
 20
276.8277386753
 11
242.6941435729
 21
277.338376957
  0
LINE
  5
3FC
100
AcDbEntity
  8
0
100
AcDbLine
 62
7
  6
CONTINUOUS
 10
237.2774765883
 20
284.4873131691
 11
236.9441430961
 21
284.1468876777
  0
LINE
  5
3FD
100
AcDbEntity
  8
0
100
AcDbLine
 62
7
  6
CONTINUOUS
 10
237.8101684998
 20
284.1468876777
 11
238.1435019921
 21
284.4873131691
  0
LINE
  5
3FE
100
AcDbEntity
  8
0
100
AcDbLine
 62
7
  6
CONTINUOUS
 10
238.7774765883
 20
277.8490152536
 11
238.6108100806
 21
277.6788025079
  0
LINE
  5
3FF
100
AcDbEntity
  8
0
100
AcDbLine
 62
7
  6
CONTINUOUS
 10
238.6108100806
 20
276.8277386753
 11
238.9441430961
 21
277.1681642113
  0
LINE
  5
400
100
AcDbEntity
  8
KONSTRUKTIONSELEMENTE
100
AcDbLine
 62
7
  6
CONTINUOUS
 10
224.4154066216
 20
415.1575259147
 11
242.4423971961
 21
415.1575259147
  0
LINE
  5
401
100
AcDbEntity
  8
KONSTRUKTIONSELEMENTE
100
AcDbLine
 62
7
  6
CONTINUOUS
 10
310.0048423212
 20
415.1575259147
 11
328.0318328957
 21
415.1575259147
  0
LINE
  5
402
100
AcDbEntity
  8
0
100
AcDbLine
 62
7
  6
CONTINUOUS
 10
227.7514375456
 20
422.1891468988
 11
233.7514375456
 21
422.1891468988
  0
LINE
  5
403
100
AcDbEntity
  8
0
100
AcDbLine
 62
7
  6
CONTINUOUS
 10
233.7514375456
 20
432.6572321878
 11
234.7514373072
 21
432.4019130693
  0
LINE
  5
404
100
AcDbEntity
  8
0
100
AcDbLine
 62
7
  6
CONTINUOUS
 10
236.0014375456
 20
464.1678704248
 11
235.001437784
 21
464.9338277803
  0
LINE
  5
405
100
AcDbEntity
  8
KONSTRUKTIONSELEMENTE
100
AcDbLine
 62
7
  6
CONTINUOUS
 10
326.2236197586
 20
270.6575259147
 11
326.2236197586
 21
290.6575259147
  0
LINE
  5
406
100
AcDbEntity
  8
0
100
AcDbLine
 62
7
  6
CONTINUOUS
 10
241.1108096038
 20
283.6362494407
 11
241.3608096038
 21
283.8064621864
  0
LINE
  5
407
100
AcDbEntity
  8
0
100
AcDbLine
 62
7
  6
CONTINUOUS
 10
238.6108100806
 20
281.4234832702
 11
238.1108100806
 21
281.0830577789
  0
LINE
  5
408
100
AcDbEntity
  8
0
100
AcDbLine
 62
7
  6
CONTINUOUS
 10
238.9768354844
 20
281.0830577789
 11
239.0179896779
 21
281.111077652
  0
LINE
  5
409
100
AcDbEntity
  8
0
100
AcDbLine
 62
7
  6
CONTINUOUS
 10
234.7514373072
 20
423.9763809071
 11
233.7514375456
 21
423.7210617886
  0
LINE
  5
40A
100
AcDbEntity
  8
0
100
AcDbLine
 62
7
  6
CONTINUOUS
 10
233.7514375456
 20
422.1891468988
 11
235.001437784
 21
422.4444660396
  0
LINE
  5
40B
100
AcDbEntity
  8
0
100
AcDbLine
 62
7
  6
CONTINUOUS
 10
233.7514375456
 20
423.7210617886
 11
229.2514375456
 21
423.7210617886
  0
LINE
  5
40C
100
AcDbEntity
  8
0
100
AcDbLine
 62
7
  6
CONTINUOUS
 10
229.2514375456
 20
432.6572321878
 11
233.7514375456
 21
432.6572321878
  0
LINE
  5
40D
100
AcDbEntity
  8
0
100
AcDbLine
 62
7
  6
CONTINUOUS
 10
233.7514375456
 20
434.1891468988
 11
227.7514375456
 21
434.1891468988
  0
LINE
  5
40E
100
AcDbEntity
  8
0
100
AcDbLine
 62
7
  6
CONTINUOUS
 10
235.001437784
 20
433.9338277803
 11
233.7514375456
 21
434.1891468988
  0
LINE
  5
40F
100
AcDbEntity
  8
0
100
AcDbLine
 62
7
  6
CONTINUOUS
 10
230.5014376052
 20
437.4444660396
 11
231.7514376648
 21
437.1891468988
  0
LINE
  5
410
100
AcDbEntity
  8
0
100
AcDbLine
 62
7
  6
CONTINUOUS
 10
231.7514376648
 20
438.7210617886
 11
230.7514375456
 21
438.9763809071
  0
LINE
  5
411
100
AcDbEntity
  8
BEZUGSACHSEN
100
AcDbLine
 62
7
  6
CONTINUOUS
 10
245.4203454626
 20
512.5927790806
 11
245.7139090076
 21
512.1429462461
  0
LINE
  5
412
100
AcDbEntity
  8
BEZUGSACHSEN
100
AcDbLine
 62
7
  6
CONTINUOUS
 10
246.4731097715
 20
512.8156917989
 11
246.1795462265
 21
513.2655246334
  0
LINE
  5
413
100
AcDbEntity
  8
BEZUGSACHSEN
100
AcDbLine
 62
7
  6
CONTINUOUS
 10
255.4901603374
 20
518.6027166118
 11
255.9121176144
 21
517.8636212648
  0
LINE
  5
414
100
AcDbEntity
  8
BEZUGSACHSEN
100
AcDbLine
 62
7
  6
CONTINUOUS
 10
257.9384709168
 20
519.0204875947
 11
257.5165136398
 21
519.7595829418
  0
LINE
  5
415
100
AcDbEntity
  8
BEZUGSACHSEN
100
AcDbLine
 62
7
  6
CONTINUOUS
 10
274.8182596711
 20
527.3959356935
 11
275.0245215849
 21
526.8999663057
  0
LINE
  5
416
100
AcDbEntity
  8
BEZUGSACHSEN
100
AcDbLine
 62
7
  6
CONTINUOUS
 10
276.0214320267
 20
526.9785129223
 11
275.815170113
 21
527.4744823101
  0
LINE
  5
417
100
AcDbEntity
  8
BEZUGSACHSEN
100
AcDbLine
 62
7
  6
CONTINUOUS
 10
310.4638276328
 20
504.9891943085
 11
310.421261934
 21
505.3610455511
  0
LINE
  5
418
100
AcDbEntity
  8
0
100
AcDbLine
 62
7
  6
CONTINUOUS
 10
241.1108096038
 20
280.7426322876
 11
241.3608096038
 21
280.9128450332
  0
LINE
  5
419
100
AcDbEntity
  8
0
100
AcDbLine
 62
7
  6
CONTINUOUS
 10
242.1941435729
 20
277.6788025079
 11
241.9441435729
 21
277.5085897623
  0
LINE
  5
41A
100
AcDbEntity
  8
0
100
AcDbLine
 62
7
  6
CONTINUOUS
 10
232.7514374264
 20
437.1891468988
 11
234.0014373072
 21
437.4444660396
  0
LINE
  5
41B
100
AcDbEntity
  8
0
100
AcDbLine
 62
7
  6
CONTINUOUS
 10
231.7514376648
 20
437.1891468988
 11
232.7514374264
 21
437.1891468988
  0
LINE
  5
41C
100
AcDbEntity
  8
0
100
AcDbLine
 62
7
  6
CONTINUOUS
 10
232.7514374264
 20
438.7210617886
 11
231.7514376648
 21
438.7210617886
  0
LINE
  5
41D
100
AcDbEntity
  8
0
100
AcDbLine
 62
7
  6
CONTINUOUS
 10
234.0014373072
 20
463.9125513063
 11
234.7514373072
 21
463.6572321878
  0
LINE
  5
41E
100
AcDbEntity
  8
BEZUGSACHSEN
100
AcDbLine
 62
7
  6
CONTINUOUS
 10
246.3307905218
 20
517.0188207039
 11
251.3791512649
 21
510.8128514961
  0
LINE
  5
41F
100
AcDbEntity
  8
BEZUGSACHSEN
100
AcDbLine
 62
7
  6
CONTINUOUS
 10
252.1548974158
 20
511.443896589
 11
249.899246839
 21
514.2167764871
  0
LINE
  5
420
100
AcDbEntity
  8
BEZUGSACHSEN
100
AcDbLine
 62
7
  6
CONTINUOUS
 10
249.2547753316
 20
515.0090277809
 11
247.6435962622
 21
516.9896563853
  0
LINE
  5
421
100
AcDbEntity
  8
BEZUGSACHSEN
100
AcDbLine
 62
7
  6
CONTINUOUS
 10
297.2682507568
 20
514.7543639969
 11
297.6014005013
 21
513.8355542312
  0
LINE
  5
422
100
AcDbEntity
  8
BEZUGSACHSEN
100
AcDbLine
 62
7
  6
CONTINUOUS
 10
298.2623338192
 20
514.3970288313
 11
298.0836703518
 21
514.9749292384
  0
LINE
  5
423
100
AcDbEntity
  8
BEZUGSACHSEN
100
AcDbLine
 62
7
  6
CONTINUOUS
 10
301.866570464
 20
515.4415292295
 11
302.0452339314
 21
514.8636288224
  0
LINE
  5
424
100
AcDbEntity
  8
BEZUGSACHSEN
100
AcDbLine
 62
7
  6
CONTINUOUS
 10
303.5404068576
 20
517.8077646697
 11
303.719070325
 21
517.2298642625
  0
LINE
  5
425
100
AcDbEntity
  8
BEZUGSACHSEN
100
AcDbLine
 62
7
  6
CONTINUOUS
 10
309.4427351154
 20
505.9117148478
 11
309.5774843822
 21
505.4010143349
  0
LINE
  5
426
100
AcDbEntity
  8
BEZUGSACHSEN
100
AcDbLine
 62
7
  6
CONTINUOUS
 10
312.2788486527
 20
507.7946420278
 11
312.4135979195
 21
507.2839415149
  0
LINE
  5
427
100
AcDbEntity
  8
0
100
AcDbLine
 62
7
  6
CONTINUOUS
 10
238.2774765883
 20
276.6575259147
 11
238.6108100806
 21
276.8277386753
  0
LINE
  5
428
100
AcDbEntity
  8
0
100
AcDbLine
 62
7
  6
CONTINUOUS
 10
237.3608100806
 20
283.6362494407
 11
237.7774765883
 21
283.8064621864
  0
LINE
  5
429
100
AcDbEntity
  8
0
100
AcDbLine
 62
7
  6
CONTINUOUS
 10
241.4441435729
 20
284.6575259147
 11
241.0274765883
 21
284.4873131691
  0
LINE
  5
42A
100
AcDbEntity
  8
0
100
AcDbLine
 62
7
  6
CONTINUOUS
 10
241.8935019921
 20
284.4873131691
 11
242.0438227825
 21
284.5487207569
  0
LINE
  5
42B
100
AcDbEntity
  8
0
100
AcDbLine
 62
7
  6
CONTINUOUS
 10
241.4441435729
 20
281.7639087616
 11
241.0274765883
 21
281.5936960159
  0
LINE
  5
42C
100
AcDbEntity
  8
0
100
AcDbLine
 62
7
  6
CONTINUOUS
 10
241.8935019921
 20
281.5936960159
 11
242.0854892902
 21
281.6721248004
  0
LINE
  5
42D
100
AcDbEntity
  8
0
100
AcDbLine
 62
7
  6
CONTINUOUS
 10
238.6108100806
 20
277.6788025079
 11
238.1941430961
 21
277.5085897623
  0
LINE
  5
42E
100
AcDbEntity
  8
0
100
AcDbLine
 62
7
  6
CONTINUOUS
 10
239.0601684998
 20
277.5085897623
 11
239.2147545996
 21
277.5717397729
  0
LINE
  5
42F
100
AcDbEntity
  8
0
100
AcDbLine
 62
7
  6
CONTINUOUS
 10
241.8608096038
 20
276.6575259147
 11
242.2774765883
 21
276.8277386753
  0
LINE
  5
430
100
AcDbEntity
  8
0
100
AcDbLine
 62
7
  6
CONTINUOUS
 10
237.8608100806
 20
284.6575259147
 11
237.2774765883
 21
284.4873131691
  0
LINE
  5
431
100
AcDbEntity
  8
0
100
AcDbLine
 62
7
  6
CONTINUOUS
 10
238.1435019921
 20
284.4873131691
 11
238.3771560364
 21
284.55549183
  0
LINE
  5
432
100
AcDbEntity
  8
0
100
AcDbLine
 62
7
  6
CONTINUOUS
 10
233.7514375456
 20
438.9763809071
 11
232.7514374264
 21
438.7210617886
  0
LINE
  5
433
100
AcDbEntity
  8
0
100
AcDbLine
 62
7
  6
CONTINUOUS
 10
236.7514375456
 20
449.1891468988
 11
235.2514375456
 21
449.1891468988
  0
LINE
  5
434
100
AcDbEntity
  8
0
100
AcDbLine
 62
7
  6
CONTINUOUS
 10
229.2514375456
 20
449.1891468988
 11
227.7514375456
 21
449.1891468988
  0
LINE
  5
435
100
AcDbEntity
  8
0
100
AcDbLine
 62
7
  6
CONTINUOUS
 10
227.7514375456
 20
453.1891468988
 11
229.2514375456
 21
453.1891468988
  0
LINE
  5
436
100
AcDbEntity
  8
0
100
AcDbLine
 62
7
  6
CONTINUOUS
 10
235.5014373072
 20
453.1891468988
 11
237.251437784
 21
453.1891468988
  0
LINE
  5
437
100
AcDbEntity
  8
0
100
AcDbLine
 62
7
  6
CONTINUOUS
 10
235.001437784
 20
464.9338277803
 11
233.7514375456
 21
465.1891468988
  0
LINE
  5
438
100
AcDbEntity
  8
BEZUGSACHSEN
100
AcDbLine
 62
7
  6
CONTINUOUS
 10
263.2605404954
 20
519.3863445369
 11
258.606795442
 21
525.0863168858
  0
LINE
  5
439
100
AcDbEntity
  8
BEZUGSACHSEN
100
AcDbLine
 62
7
  6
CONTINUOUS
 10
257.6716144372
 20
524.7321467455
 11
262.9987927609
 21
518.1951528646
  0
LINE
  5
43A
100
AcDbEntity
  8
BEZUGSACHSEN
100
AcDbLine
 62
7
  6
CONTINUOUS
 10
251.5203436453
 20
518.8267598458
 11
251.8425796999
 21
518.430633829
  0
LINE
  5
43B
100
AcDbEntity
  8
BEZUGSACHSEN
100
AcDbLine
 62
7
  6
CONTINUOUS
 10
252.7257377688
 20
518.9296370396
 11
252.2960897962
 21
519.4578049387
  0
LINE
  5
43C
100
AcDbEntity
  8
BEZUGSACHSEN
100
AcDbLine
 62
7
  6
CONTINUOUS
 10
302.8606534893
 20
515.0841940173
 11
302.5275066994
 21
516.0030013696
  0
LINE
  5
43D
100
AcDbEntity
  8
BEZUGSACHSEN
100
AcDbLine
 62
7
  6
CONTINUOUS
 10
304.5344898829
 20
517.4504294574
 11
304.201343093
 21
518.3692368097
  0
LINE
  5
43E
100
AcDbEntity
  8
0
100
AcDbLine
 62
7
  6
CONTINUOUS
 10
229.2514375456
 20
458.5508491025
 11
233.5014374264
 21
458.5508491025
  0
LINE
  5
43F
100
AcDbEntity
  8
0
100
AcDbLine
 62
7
  6
CONTINUOUS
 10
234.0014373072
 20
460.0827638135
 11
229.2514375456
 21
460.0827638135
  0
LINE
  5
440
100
AcDbEntity
  8
0
100
AcDbLine
 62
7
  6
CONTINUOUS
 10
229.2514375456
 20
463.9125513063
 11
234.0014373072
 21
463.9125513063
  0
LINE
  5
441
100
AcDbEntity
  8
0
100
AcDbLine
 62
7
  6
CONTINUOUS
 10
233.7514375456
 20
465.1891468988
 11
227.7514375456
 21
465.1891468988
  0
LINE
  5
442
100
AcDbEntity
  8
BEZUGSACHSEN
100
AcDbLine
 62
7
  6
CONTINUOUS
 10
240.3259586463
 20
510.0589570105
 11
246.561081889
 21
505.046648346
  0
LINE
  5
443
100
AcDbEntity
  8
BEZUGSACHSEN
100
AcDbLine
 62
7
  6
CONTINUOUS
 10
247.187620472
 20
505.8260387513
 11
244.4017143028
 21
508.0655809523
  0
LINE
  5
444
100
AcDbEntity
  8
BEZUGSACHSEN
100
AcDbLine
 62
7
  6
CONTINUOUS
 10
243.6057412178
 20
508.7054500673
 11
241.6158081336
 21
510.3051231534
  0
LINE
  5
445
100
AcDbEntity
  8
BEZUGSACHSEN
100
AcDbLine
 62
7
  6
CONTINUOUS
 10
245.0223585485
 20
512.9127139368
 11
245.4203454626
 21
512.5927790806
  0
LINE
  5
446
100
AcDbEntity
  8
BEZUGSACHSEN
100
AcDbLine
 62
7
  6
CONTINUOUS
 10
246.1795462265
 20
513.2655246334
 11
245.6488971316
 21
513.6921043421
  0
LINE
  5
447
100
AcDbEntity
  8
BEZUGSACHSEN
100
AcDbLine
 62
7
  6
CONTINUOUS
 10
313.3566154294
 20
507.7099703194
 11
313.0374990267
 21
508.498369373
  0
LINE
  5
448
100
AcDbEntity
  8
KONSTRUKTIONSELEMENTE
100
AcDbLine
 62
7
  6
CONTINUOUS
 10
224.4154066216
 20
470.1575259147
 11
242.4423971961
 21
470.1575259147
  0
LINE
  5
449
100
AcDbEntity
  8
KONSTRUKTIONSELEMENTE
100
AcDbLine
 62
7
  6
CONTINUOUS
 10
310.0048423212
 20
470.1575259147
 11
328.0318328957
 21
470.1575259147
  0
LINE
  5
44A
100
AcDbEntity
  8
BEZUGSACHSEN
100
AcDbLine
 62
7
  6
CONTINUOUS
 10
275.815170113
 20
527.4744823101
 11
275.263236351
 21
528.1139564558
  0
LINE
  5
44B
100
AcDbEntity
  8
BEZUGSACHSEN
100
AcDbLine
 62
7
  6
CONTINUOUS
 10
304.1601929628
 20
507.4059239292
 11
306.3726323531
 21
504.0734905924
  0
LINE
  5
44C
100
AcDbEntity
  8
BEZUGSACHSEN
100
AcDbLine
 62
7
  6
CONTINUOUS
 10
307.3156499624
 20
504.4995194629
 11
305.5641368517
 21
507.1376937358
  0
LINE
  5
44D
100
AcDbEntity
  8
BEZUGSACHSEN
100
AcDbLine
 62
7
  6
CONTINUOUS
 10
307.6912220047
 20
508.5498891208
 11
309.4427351154
 21
505.9117148478
  0
LINE
  5
44E
100
AcDbEntity
  8
BEZUGSACHSEN
100
AcDbLine
 62
7
  6
CONTINUOUS
 10
310.2935690574
 20
506.4765929227
 11
308.5420559467
 21
509.1147671956
  0
LINE
  5
44F
100
AcDbEntity
  8
BEZUGSACHSEN
100
AcDbLine
 62
7
  6
CONTINUOUS
 10
310.527335542
 20
510.4328163007
 11
312.2788486527
 21
507.7946420278
  0
LINE
  5
450
100
AcDbEntity
  8
BEZUGSACHSEN
100
AcDbLine
 62
7
  6
CONTINUOUS
 10
298.5471233018
 20
513.9522060245
 11
298.2623338192
 21
514.3970288313
  0
LINE
  5
451
100
AcDbEntity
  8
BEZUGSACHSEN
100
AcDbLine
 62
7
  6
CONTINUOUS
 10
301.5817809815
 20
515.8863520363
 11
301.866570464
 21
515.4415292295
  0
LINE
  5
452
100
AcDbEntity
  8
BEZUGSACHSEN
100
AcDbLine
 62
7
  6
CONTINUOUS
 10
303.2556173751
 20
518.2525874765
 11
303.5404068576
 21
517.8077646697
  0
LINE
  5
453
100
AcDbEntity
  8
BEZUGSACHSEN
100
AcDbLine
 62
7
  6
CONTINUOUS
 10
308.6132974036
 20
503.1604447564
 11
309.1308980419
 21
503.3040345895
  0
LINE
  5
454
100
AcDbEntity
  8
BEZUGSACHSEN
100
AcDbLine
 62
7
  6
CONTINUOUS
 10
308.7195938513
 20
504.2312892695
 11
308.2019933123
 21
504.0876995024
  0
LINE
  5
455
100
AcDbEntity
  8
BEZUGSACHSEN
100
AcDbLine
 62
7
  6
CONTINUOUS
 10
311.5912164986
 20
505.1375182162
 11
312.1088170376
 21
505.2811079834
  0
LINE
  5
456
100
AcDbEntity
  8
BEZUGSACHSEN
100
AcDbLine
 62
7
  6
CONTINUOUS
 10
251.0688166198
 20
519.1177111099
 11
251.5203436453
 21
518.8267598458
  0
LINE
  5
457
100
AcDbEntity
  8
BEZUGSACHSEN
100
AcDbLine
 62
7
  6
CONTINUOUS
 10
252.2960897962
 20
519.4578049387
 11
251.8445627708
 21
519.7487562028
  0
LINE
  5
458
100
AcDbEntity
  8
BEZUGSACHSEN
100
AcDbLine
 62
7
  6
CONTINUOUS
 10
274.4592181876
 20
527.7091273149
 11
274.8182596711
 21
527.3959356935
  0
LINE
  5
459
100
AcDbEntity
  8
BEZUGSACHSEN
100
AcDbLine
 62
7
  6
CONTINUOUS
 10
306.3726323531
 20
504.0734905924
 11
306.9753600823
 21
503.4733842387
  0
LINE
  5
45A
100
AcDbEntity
  8
BEZUGSACHSEN
100
AcDbLine
 62
7
  6
CONTINUOUS
 10
303.7727365257
 20
512.0421399069
 11
305.3481196728
 21
510.320917536
  0
LINE
  5
45B
100
AcDbEntity
  8
BEZUGSACHSEN
100
AcDbLine
 62
7
  6
CONTINUOUS
 10
305.9759215887
 20
510.8955257764
 11
304.4005384415
 21
512.6167481473
  0
LINE
  5
45C
100
AcDbEntity
  8
BEZUGSACHSEN
100
AcDbLine
 62
7
  6
CONTINUOUS
 10
297.6014005013
 20
513.8355542312
 11
298.1467993121
 21
513.182902068
  0
LINE
  5
45D
100
AcDbEntity
  8
BEZUGSACHSEN
100
AcDbLine
 62
7
  6
CONTINUOUS
 10
302.5275066994
 20
516.0030013696
 11
301.9821048968
 21
516.6556558996
  0
LINE
  5
45E
100
AcDbEntity
  8
BEZUGSACHSEN
100
AcDbLine
 62
7
  6
CONTINUOUS
 10
304.201343093
 20
518.3692368097
 11
303.6559442729
 21
519.0218889613
  0
LINE
  5
45F
100
AcDbEntity
  8
BEZUGSACHSEN
100
AcDbLine
 62
7
  6
CONTINUOUS
 10
313.0374990267
 20
508.498369373
 11
310.8250596364
 21
511.8308027098
  0
LINE
  5
460
100
AcDbEntity
  8
FASEN
100
AcDbLine
 62
7
  6
CONTINUOUS
 10
291.2236197585
 20
216.6575259146
 11
294.2236197585
 21
219.6575259146
  0
LINE
  5
461
100
AcDbEntity
  8
BEZUGSACHSEN
100
AcDbLine
 62
7
  6
CONTINUOUS
 10
311.697512847
 20
506.2083626634
 11
311.179912308
 21
506.0647728963
  0
LINE
  5
462
100
AcDbEntity
  8
BEZUGSACHSEN
100
AcDbLine
 62
7
  6
CONTINUOUS
 10
300.5258808975
 20
512.1564864837
 11
301.3413004925
 21
512.3770517252
  0
LINE
  5
463
100
AcDbEntity
  8
BEZUGSACHSEN
100
AcDbLine
 62
7
  6
CONTINUOUS
 10
244.5199490084
 20
513.1027502173
 11
245.0223585485
 21
512.9127139368
  0
LINE
  5
464
100
AcDbEntity
  8
BEZUGSACHSEN
100
AcDbLine
 62
7
  6
CONTINUOUS
 10
245.6488971316
 20
513.6921043421
 11
245.1464875914
 21
513.8821406226
  0
LINE
  5
465
100
AcDbEntity
  8
BEZUGSACHSEN
100
AcDbLine
 62
7
  6
CONTINUOUS
 10
307.7340105432
 20
504.1771116416
 11
307.3156499624
 21
504.4995194629
  0
LINE
  5
466
100
AcDbEntity
  8
BEZUGSACHSEN
100
AcDbLine
 62
7
  6
CONTINUOUS
 10
310.7119296382
 20
506.1541851014
 11
310.2935690574
 21
506.4765929227
  0
LINE
  5
467
100
AcDbEntity
  8
BEZUGSACHSEN
100
AcDbLine
 62
7
  6
CONTINUOUS
 10
298.1467993121
 20
513.182902068
 11
298.7983241472
 21
512.6633275167
  0
LINE
  5
468
100
AcDbEntity
  8
BEZUGSACHSEN
100
AcDbLine
 62
7
  6
CONTINUOUS
 10
299.459260457
 20
513.22479975
 11
298.5471233018
 21
513.9522060245
  0
LINE
  5
469
100
AcDbEntity
  8
BEZUGSACHSEN
100
AcDbLine
 62
7
  6
CONTINUOUS
 10
300.6696438263
 20
516.6137583108
 11
301.5817809815
 21
515.8863520363
  0
LINE
  5
46A
100
AcDbEntity
  8
BEZUGSACHSEN
100
AcDbLine
 62
7
  6
CONTINUOUS
 10
301.9821048968
 20
516.6556558996
 11
301.3305800617
 21
517.1752304509
  0
LINE
  5
46B
100
AcDbEntity
  8
BEZUGSACHSEN
100
AcDbLine
 62
7
  6
CONTINUOUS
 10
301.4071659022
 20
519.944391109
 11
300.5917463443
 21
519.7238259141
  0
LINE
  5
46C
100
AcDbEntity
  8
BEZUGSACHSEN
100
AcDbLine
 62
7
  6
CONTINUOUS
 10
299.0965734181
 20
516.7796900669
 11
299.5694347859
 21
516.8380159227
  0
LINE
  5
46D
100
AcDbEntity
  8
BEZUGSACHSEN
100
AcDbLine
 62
7
  6
CONTINUOUS
 10
245.1464875914
 20
513.8821406226
 11
244.3025695766
 21
513.9190248299
  0
LINE
  5
46E
100
AcDbEntity
  8
BEZUGSACHSEN
100
AcDbLine
 62
7
  6
CONTINUOUS
 10
307.7695198021
 20
503.2004135073
 11
308.6132974036
 21
503.1604447564
  0
LINE
  5
46F
100
AcDbEntity
  8
BEZUGSACHSEN
100
AcDbLine
 62
7
  6
CONTINUOUS
 10
310.7474389468
 20
505.1774870001
 11
311.5912164986
 21
505.1375182162
  0
LINE
  5
470
100
AcDbEntity
  8
BEZUGSACHSEN
100
AcDbLine
 62
7
  6
CONTINUOUS
 10
308.2019933123
 20
504.0876995024
 11
307.7340105432
 21
504.1771116416
  0
LINE
  5
471
100
AcDbEntity
  8
BEZUGSACHSEN
100
AcDbLine
 62
7
  6
CONTINUOUS
 10
311.179912308
 20
506.0647728963
 11
310.7119296382
 21
506.1541851014
  0
LINE
  5
472
100
AcDbEntity
  8
BEZUGSACHSEN
100
AcDbLine
 62
7
  6
CONTINUOUS
 10
251.8445627708
 20
519.7487562028
 11
251.0270420237
 21
519.9614011856
  0
LINE
  5
473
100
AcDbEntity
  8
BEZUGSACHSEN
100
AcDbLine
 62
7
  6
CONTINUOUS
 10
306.9753600823
 20
503.4733842387
 11
307.7695198021
 21
503.2004135073
  0
LINE
  5
474
100
AcDbEntity
  8
BEZUGSACHSEN
100
AcDbLine
 62
7
  6
CONTINUOUS
 10
299.9563019696
 20
513.0461321439
 11
299.459260457
 21
513.22479975
  0
LINE
  5
475
100
AcDbEntity
  8
BEZUGSACHSEN
100
AcDbLine
 62
7
  6
CONTINUOUS
 10
298.7983241472
 20
512.6633275167
 11
299.5559779892
 21
512.276828199
  0
LINE
  5
476
100
AcDbEntity
  8
BEZUGSACHSEN
100
AcDbLine
 62
7
  6
CONTINUOUS
 10
301.3305800617
 20
517.1752304509
 11
300.5729292114
 21
517.5617274018
  0
LINE
  5
477
100
AcDbEntity
  8
BEZUGSACHSEN
100
AcDbLine
 62
7
  6
CONTINUOUS
 10
291.8036197586
 20
523.6999984427
 11
290.9636197586
 21
524.1451310338
  0
LINE
  5
478
100
AcDbEntity
  8
BEZUGSACHSEN
100
AcDbLine
 62
7
  6
CONTINUOUS
 10
310.421261934
 20
505.3610455511
 11
310.7474389468
 21
505.1774870001
  0
LINE
  5
479
100
AcDbEntity
  8
BEZUGSACHSEN
100
AcDbLine
 62
7
  6
CONTINUOUS
 10
294.0044835338
 20
515.9759827776
 11
294.8706571387
 21
515.4762395574
  0
LINE
  5
47A
100
AcDbEntity
  8
BEZUGSACHSEN
100
AcDbLine
 62
7
  6
CONTINUOUS
 10
275.263236351
 20
528.1139564558
 11
274.5585192163
 21
528.5706525353
  0
LINE
  5
47B
100
AcDbEntity
  8
BEZUGSACHSEN
100
AcDbLine
 62
7
  6
CONTINUOUS
 10
303.6613045998
 20
516.6227997383
 11
304.312829435
 21
516.103225187
  0
LINE
  5
47C
100
AcDbEntity
  8
BEZUGSACHSEN
100
AcDbLine
 62
7
  6
CONTINUOUS
 10
302.4737863799
 20
518.8760778894
 11
303.2556173751
 21
518.2525874765
  0
LINE
  5
47D
100
AcDbEntity
  8
BEZUGSACHSEN
100
AcDbLine
 62
7
  6
CONTINUOUS
 10
303.6559442729
 20
519.0218889613
 11
303.1347226153
 21
519.4375500294
  0
LINE
  5
47E
100
AcDbEntity
  8
BEZUGSACHSEN
100
AcDbLine
 62
7
  6
CONTINUOUS
 10
244.3025695766
 20
513.9190248299
 11
243.4868907449
 21
513.7193659077
  0
LINE
  5
47F
100
AcDbEntity
  8
BEZUGSACHSEN
100
AcDbLine
 62
7
  6
CONTINUOUS
 10
268.0813845514
 20
519.7969601744
 11
269.0579723497
 21
520.0120793792
  0
LINE
  5
480
100
AcDbEntity
  8
BEZUGSACHSEN
100
AcDbLine
 62
7
  6
CONTINUOUS
 10
244.0457783528
 20
513.0562429966
 11
244.5199490084
 21
513.1027502173
  0
LINE
  5
481
100
AcDbEntity
  8
BEZUGSACHSEN
100
AcDbLine
 62
7
  6
CONTINUOUS
 10
270.3551233123
 20
520.385413984
 11
271.3520337541
 21
520.4639606006
  0
LINE
  5
482
100
AcDbEntity
  8
BEZUGSACHSEN
100
AcDbLine
 62
7
  6
CONTINUOUS
 10
271.0712713761
 20
524.0273852092
 11
274.0620027015
 21
524.2630250588
  0
LINE
  5
483
100
AcDbEntity
  8
BEZUGSACHSEN
100
AcDbLine
 62
7
  6
CONTINUOUS
 10
274.1479378979
 20
525.2942374424
 11
270.9910535645
 21
525.0455063901
  0
LINE
  5
484
100
AcDbEntity
  8
BEZUGSACHSEN
100
AcDbLine
 62
7
  6
CONTINUOUS
 10
251.0270420237
 20
519.9614011856
 11
250.1876419227
 21
519.9368299033
  0
LINE
  5
485
100
AcDbEntity
  8
BEZUGSACHSEN
100
AcDbLine
 62
7
  6
CONTINUOUS
 10
300.5594694974
 20
513.0005421381
 11
299.9563019696
 21
513.0461321439
  0
LINE
  5
486
100
AcDbEntity
  8
BEZUGSACHSEN
100
AcDbLine
 62
7
  6
CONTINUOUS
 10
299.5694347859
 20
516.8380159227
 11
300.1726023136
 21
516.7924259169
  0
LINE
  5
487
100
AcDbEntity
  8
BEZUGSACHSEN
100
AcDbLine
 62
7
  6
CONTINUOUS
 10
300.5729292114
 20
517.5617274018
 11
299.3665941559
 21
517.6529074134
  0
LINE
  5
488
100
AcDbEntity
  8
BEZUGSACHSEN
100
AcDbLine
 62
7
  6
CONTINUOUS
 10
301.3735773395
 20
519.1003355012
 11
301.9767448672
 21
519.0547454955
  0
LINE
  5
489
100
AcDbEntity
  8
BEZUGSACHSEN
100
AcDbLine
 62
7
  6
CONTINUOUS
 10
250.5954109803
 20
519.1714467108
 11
251.0688166198
 21
519.1177111099
  0
LINE
  5
48A
100
AcDbEntity
  8
BEZUGSACHSEN
100
AcDbLine
 62
7
  6
CONTINUOUS
 10
299.5559779892
 20
512.276828199
 11
300.5258808975
 21
512.1564864837
  0
LINE
  5
48B
100
AcDbEntity
  8
BEZUGSACHSEN
100
AcDbLine
 62
7
  6
CONTINUOUS
 10
302.377071765
 20
519.8240469803
 11
301.4071659022
 21
519.944391109
  0
LINE
  5
48C
100
AcDbEntity
  8
BEZUGSACHSEN
100
AcDbLine
 62
7
  6
CONTINUOUS
 10
273.9473933314
 20
527.8395408701
 11
274.4592181876
 21
527.7091273149
  0
LINE
  5
48D
100
AcDbEntity
  8
BEZUGSACHSEN
100
AcDbLine
 62
7
  6
CONTINUOUS
 10
283.4436197586
 20
521.3654265859
 11
284.4601800275
 21
521.0044432017
  0
LINE
  5
48E
100
AcDbEntity
  8
BEZUGSACHSEN
100
AcDbLine
 62
7
  6
CONTINUOUS
 10
300.1726023136
 20
516.7924259169
 11
300.6696438263
 21
516.6137583108
  0
LINE
  5
48F
100
AcDbEntity
  8
BEZUGSACHSEN
100
AcDbLine
 62
7
  6
CONTINUOUS
 10
301.9767448672
 20
519.0547454955
 11
302.4737863799
 21
518.8760778894
  0
LINE
  5
490
100
AcDbEntity
  8
BEZUGSACHSEN
100
AcDbLine
 62
7
  6
CONTINUOUS
 10
303.1347226153
 20
519.4375500294
 11
302.377071765
 21
519.8240469803
  0
LINE
  5
491
100
AcDbEntity
  8
BEZUGSACHSEN
100
AcDbLine
 62
7
  6
CONTINUOUS
 10
298.8686029004
 20
522.4056283967
 11
298.0024292955
 21
522.9053716169
  0
LINE
  5
492
100
AcDbEntity
  8
BEZUGSACHSEN
100
AcDbLine
 62
7
  6
CONTINUOUS
 10
267.337018711
 20
527.8247817653
 11
266.3604309127
 21
527.6096625605
  0
LINE
  5
493
100
AcDbEntity
  8
BEZUGSACHSEN
100
AcDbLine
 62
7
  6
CONTINUOUS
 10
270.790508998
 20
527.5908098178
 11
273.9473933314
 21
527.8395408701
  0
LINE
  5
494
100
AcDbEntity
  8
BEZUGSACHSEN
100
AcDbLine
 62
7
  6
CONTINUOUS
 10
273.7143921472
 20
528.6748839849
 11
269.7267503799
 21
528.3606975187
  0
LINE
  5
495
100
AcDbEntity
  8
BEZUGSACHSEN
100
AcDbLine
 62
7
  6
CONTINUOUS
 10
274.5585192163
 20
528.5706525353
 11
273.7143921472
 21
528.6748839849
  0
LINE
  5
496
100
AcDbEntity
  8
FASEN
100
AcDbLine
 62
7
  6
CONTINUOUS
 10
459.9971706379
 20
216.6575259147
 11
429.9975222462
 21
216.6575259147
  0
LINE
  5
497
100
AcDbEntity
  8
FASEN
100
AcDbLine
 62
7
  6
CONTINUOUS
 10
462.9973464421
 20
219.6575259147
 11
426.9973464421
 21
219.6575259147
  0
LINE
  5
498
100
AcDbEntity
  8
FASEN
100
AcDbLine
 62
7
  6
CONTINUOUS
 10
429.9973464421
 20
216.6575259147
 11
426.9973464421
 21
219.6575259147
  0
LINE
  5
499
100
AcDbEntity
  8
0
100
AcDbLine
 62
7
  6
CONTINUOUS
 10
475.479213363
 20
276.6575259147
 11
476.2009017501
 21
276.8277386753
  0
LINE
  5
49A
100
AcDbEntity
  8
0
100
AcDbLine
 62
7
  6
CONTINUOUS
 10
475.7009017501
 20
276.8277386753
 11
474.979213363
 21
276.6575259147
  0
LINE
  5
49B
100
AcDbEntity
  8
0
100
AcDbLine
 62
7
  6
CONTINUOUS
 10
469.8500490643
 20
277.6788025079
 11
469.1283606772
 21
277.5085897623
  0
LINE
  5
49C
100
AcDbEntity
  8
0
100
AcDbLine
 62
7
  6
CONTINUOUS
 10
474.7575266277
 20
281.7639087616
 11
474.0358382407
 21
281.5936960159
  0
LINE
  5
49D
100
AcDbEntity
  8
KONSTRUKTIONSELEMENTE
100
AcDbLine
 62
7
  6
CONTINUOUS
 10
399.9973464421
 20
270.6575259147
 11
489.9973464421
 21
270.6575259147
  0
LINE
  5
49E
100
AcDbEntity
  8
0
100
AcDbLine
 62
7
  6
CONTINUOUS
 10
407.3419018759
 20
273.6575259147
 11
437.6527910083
 21
273.6575259147
  0
LINE
  5
49F
100
AcDbEntity
  8
0
100
AcDbLine
 62
7
  6
CONTINUOUS
 10
432.1519561661
 20
276.1575259147
 11
431.6519561661
 21
276.1575259147
  0
LINE
  5
4A0
100
AcDbEntity
  8
0
100
AcDbLine
 62
7
  6
CONTINUOUS
 10
412.8339462513
 20
276.1575259147
 11
414.3443093428
 21
276.1575259147
  0
LINE
  5
4A1
100
AcDbEntity
  8
0
100
AcDbLine
 62
7
  6
CONTINUOUS
 10
417.7594655547
 20
276.1575259147
 11
419.2698290075
 21
276.1575259147
  0
LINE
  5
4A2
100
AcDbEntity
  8
0
100
AcDbLine
 62
7
  6
CONTINUOUS
 10
420.7905544679
 20
276.1575259147
 11
422.3009179208
 21
276.1575259147
  0
LINE
  5
4A3
100
AcDbEntity
  8
0
100
AcDbLine
 62
7
  6
CONTINUOUS
 10
425.8423695642
 20
276.1575259147
 11
426.847550568
 21
276.1575259147
  0
LINE
  5
4A4
100
AcDbEntity
  8
0
100
AcDbLine
 62
7
  6
CONTINUOUS
 10
432.9097283945
 20
276.3064620802
 11
432.4097283945
 21
276.3064620802
  0
LINE
  5
4A5
100
AcDbEntity
  8
0
100
AcDbLine
 62
7
  6
CONTINUOUS
 10
427.4790279067
 20
276.3064620802
 11
426.9790279067
 21
276.3064620802
  0
LINE
  5
4A6
100
AcDbEntity
  8
0
100
AcDbLine
 62
7
  6
CONTINUOUS
 10
414.9757861395
 20
276.3064620802
 11
414.4757861395
 21
276.3064620802
  0
LINE
  5
4A7
100
AcDbEntity
  8
0
100
AcDbLine
 62
7
  6
CONTINUOUS
 10
415.4809675046
 20
276.6043344243
 11
414.9809675046
 21
276.6043344243
  0
LINE
  5
4A8
100
AcDbEntity
  8
0
100
AcDbLine
 62
7
  6
CONTINUOUS
 10
458.0143682706
 20
276.6575259147
 11
458.8803936744
 21
276.6575259147
  0
LINE
  5
4A9
100
AcDbEntity
  8
0
100
AcDbLine
 62
7
  6
CONTINUOUS
 10
460.9011195478
 20
276.6575259147
 11
462.0558200173
 21
276.6575259147
  0
LINE
  5
4AA
100
AcDbEntity
  8
0
100
AcDbLine
 62
7
  6
CONTINUOUS
 10
464.0765460971
 20
276.6575259147
 11
464.9425715009
 21
276.6575259147
  0
LINE
  5
4AB
100
AcDbEntity
  8
0
100
AcDbLine
 62
7
  6
CONTINUOUS
 10
468.1179982568
 20
276.6575259147
 11
469.2726985198
 21
276.6575259147
  0
LINE
  5
4AC
100
AcDbEntity
  8
0
100
AcDbLine
 62
7
  6
CONTINUOUS
 10
474.7575266277
 20
276.6575259147
 11
475.479213363
 21
276.6575259147
  0
LINE
  5
4AD
100
AcDbEntity
  8
0
100
AcDbLine
 62
7
  6
CONTINUOUS
 10
433.5412057332
 20
276.7532705767
 11
433.0412057332
 21
276.7532705767
  0
LINE
  5
4AE
100
AcDbEntity
  8
0
100
AcDbLine
 62
7
  6
CONTINUOUS
 10
428.1105052454
 20
276.7532705767
 11
427.6105052454
 21
276.7532705767
  0
LINE
  5
4AF
100
AcDbEntity
  8
0
100
AcDbLine
 62
7
  6
CONTINUOUS
 10
476.2009017501
 20
276.8277386753
 11
475.7009017501
 21
276.8277386753
  0
LINE
  5
4B0
100
AcDbEntity
  8
0
100
AcDbLine
 62
7
  6
CONTINUOUS
 10
469.8500490643
 20
276.8277386753
 11
469.3500490643
 21
276.8277386753
  0
LINE
  5
4B1
100
AcDbEntity
  8
0
100
AcDbLine
 62
7
  6
CONTINUOUS
 10
426.4738469029
 20
276.9022067813
 11
425.7160746746
 21
276.9022067813
  0
LINE
  5
4B2
100
AcDbEntity
  8
0
100
AcDbLine
 62
7
  6
CONTINUOUS
 10
431.5204802728
 20
277.0511429338
 11
431.0204802728
 21
277.0511429338
  0
LINE
  5
4B3
100
AcDbEntity
  8
0
100
AcDbLine
 62
7
  6
CONTINUOUS
 10
425.8371885604
 20
277.0511429338
 11
425.3371885604
 21
277.0511429338
  0
LINE
  5
4B4
100
AcDbEntity
  8
0
100
AcDbLine
 62
7
  6
CONTINUOUS
 10
413.8443093428
 20
277.0511429338
 11
412.8339462513
 21
277.0511429338
  0
LINE
  5
4B5
100
AcDbEntity
  8
0
100
AcDbLine
 62
7
  6
CONTINUOUS
 10
470.4273987829
 20
277.1681642113
 11
469.9273987829
 21
277.1681642113
  0
LINE
  5
4B6
100
AcDbEntity
  8
0
100
AcDbLine
 62
7
  6
CONTINUOUS
 10
433.9200918473
 20
277.2000790862
 11
433.4200918473
 21
277.2000790862
  0
LINE
  5
4B7
100
AcDbEntity
  8
0
100
AcDbLine
 62
7
  6
CONTINUOUS
 10
415.9861492311
 20
277.2000790862
 11
415.4861492311
 21
277.2000790862
  0
LINE
  5
4B8
100
AcDbEntity
  8
0
100
AcDbLine
 62
7
  6
CONTINUOUS
 10
412.8287647959
 20
277.2000790862
 11
412.3287647959
 21
277.2000790862
  0
LINE
  5
4B9
100
AcDbEntity
  8
0
100
AcDbLine
 62
7
  6
CONTINUOUS
 10
476.9225901372
 20
277.338376957
 11
476.4225901372
 21
277.338376957
  0
LINE
  5
4BA
100
AcDbEntity
  8
0
100
AcDbLine
 62
7
  6
CONTINUOUS
 10
431.1415941586
 20
277.3490152387
 11
430.6415941586
 21
277.3490152387
  0
LINE
  5
4BB
100
AcDbEntity
  8
0
100
AcDbLine
 62
7
  6
CONTINUOUS
 10
428.4893913595
 20
277.3490152387
 11
427.9893913595
 21
277.3490152387
  0
LINE
  5
4BC
100
AcDbEntity
  8
0
100
AcDbLine
 62
7
  6
CONTINUOUS
 10
425.4583024463
 20
277.3490152387
 11
424.9583024463
 21
277.3490152387
  0
LINE
  5
4BD
100
AcDbEntity
  8
0
100
AcDbLine
 62
7
  6
CONTINUOUS
 10
475.6235520315
 20
277.5085897623
 11
474.1131879592
 21
277.5085897623
  0
LINE
  5
4BE
100
AcDbEntity
  8
0
100
AcDbLine
 62
7
  6
CONTINUOUS
 10
470.8604114848
 20
277.5085897623
 11
470.3604114848
 21
277.5085897623
  0
LINE
  5
4BF
100
AcDbEntity
  8
0
100
AcDbLine
 62
7
  6
CONTINUOUS
 10
469.1283606772
 20
277.5085897623
 11
467.7623352735
 21
277.5085897623
  0
LINE
  5
4C0
100
AcDbEntity
  8
0
100
AcDbLine
 62
7
  6
CONTINUOUS
 10
461.4784698858
 20
277.5085897623
 11
460.9784698858
 21
277.5085897623
  0
LINE
  5
4C1
100
AcDbEntity
  8
0
100
AcDbLine
 62
7
  6
CONTINUOUS
 10
412.4498786817
 20
277.6468876479
 11
411.9498786817
 21
277.6468876479
  0
LINE
  5
4C2
100
AcDbEntity
  8
0
100
AcDbLine
 62
7
  6
CONTINUOUS
 10
474.1801752574
 20
277.6788025079
 11
473.6801752574
 21
277.6788025079
  0
LINE
  5
4C3
100
AcDbEntity
  8
0
100
AcDbLine
 62
7
  6
CONTINUOUS
 10
467.5406477123
 20
277.6788025079
 11
467.0406477123
 21
277.6788025079
  0
LINE
  5
4C4
100
AcDbEntity
  8
0
100
AcDbLine
 62
7
  6
CONTINUOUS
 10
434.1726830719
 20
277.7958238004
 11
433.6726830719
 21
277.7958238004
  0
LINE
  5
4C5
100
AcDbEntity
  8
0
100
AcDbLine
 62
7
  6
CONTINUOUS
 10
425.2057112217
 20
277.7958238004
 11
424.074233883
 21
277.7958238004
  0
LINE
  5
4C6
100
AcDbEntity
  8
0
100
AcDbLine
 62
7
  6
CONTINUOUS
 10
416.2387397329
 20
277.7958238004
 11
415.7387397329
 21
277.7958238004
  0
LINE
  5
4C7
100
AcDbEntity
  8
0
100
AcDbLine
 62
7
  6
CONTINUOUS
 10
467.251972853
 20
277.8490152536
 11
466.751972853
 21
277.8490152536
  0
LINE
  5
4C8
100
AcDbEntity
  8
0
100
AcDbLine
 62
7
  6
CONTINUOUS
 10
477.3556028391
 20
278.0192279993
 11
476.8556028391
 21
278.0192279993
  0
LINE
  5
4C9
100
AcDbEntity
  8
0
100
AcDbLine
 62
7
  6
CONTINUOUS
 10
473.7471625555
 20
278.0192279993
 11
473.2471625555
 21
278.0192279993
  0
LINE
  5
4CA
100
AcDbEntity
  8
0
100
AcDbLine
 62
7
  6
CONTINUOUS
 10
471.14908717
 20
278.0192279993
 11
470.64908717
 21
278.0192279993
  0
LINE
  5
4CB
100
AcDbEntity
  8
0
100
AcDbLine
 62
7
  6
CONTINUOUS
 10
428.7419811387
 20
278.0936961053
 11
428.2419811387
 21
278.0936961053
  0
LINE
  5
4CC
100
AcDbEntity
  8
0
100
AcDbLine
 62
7
  6
CONTINUOUS
 10
412.3235833404
 20
278.0936961053
 11
411.0658111121
 21
278.0936961053
  0
LINE
  5
4CD
100
AcDbEntity
  8
0
100
AcDbLine
 62
7
  6
CONTINUOUS
 10
466.9632971678
 20
278.1894408641
 11
466.4632971678
 21
278.1894408641
  0
LINE
  5
4CE
100
AcDbEntity
  8
0
100
AcDbLine
 62
7
  6
CONTINUOUS
 10
434.2989779615
 20
278.2426322578
 11
433.7989779615
 21
278.2426322578
  0
LINE
  5
4CF
100
AcDbEntity
  8
0
100
AcDbLine
 62
7
  6
CONTINUOUS
 10
430.6364117095
 20
278.2426322578
 11
430.1364117095
 21
278.2426322578
  0
LINE
  5
4D0
100
AcDbEntity
  8
0
100
AcDbLine
 62
7
  6
CONTINUOUS
 10
430.8941839378
 20
276.3064620802
 11
431.6519561661
 21
276.1575259147
  0
LINE
  5
4D1
100
AcDbEntity
  8
0
100
AcDbLine
 62
7
  6
CONTINUOUS
 10
412.2024694546
 20
276.3064620802
 11
412.8339462513
 21
276.1575259147
  0
LINE
  5
4D2
100
AcDbEntity
  8
0
100
AcDbLine
 62
7
  6
CONTINUOUS
 10
425.2108922255
 20
276.3064620802
 11
425.8423695642
 21
276.1575259147
  0
LINE
  5
4D3
100
AcDbEntity
  8
0
100
AcDbLine
 62
7
  6
CONTINUOUS
 10
414.4757861395
 20
280.0298662959
 11
413.8443093428
 21
280.1788024483
  0
LINE
  5
4D4
100
AcDbEntity
  8
0
100
AcDbLine
 62
7
  6
CONTINUOUS
 10
414.9757861395
 20
280.0298662959
 11
414.3443093428
 21
280.1788024483
  0
LINE
  5
4D5
100
AcDbEntity
  8
0
100
AcDbLine
 62
7
  6
CONTINUOUS
 10
431.6519561661
 20
276.9022067813
 11
431.0204802728
 21
277.0511429338
  0
LINE
  5
4D6
100
AcDbEntity
  8
0
100
AcDbLine
 62
7
  6
CONTINUOUS
 10
431.9019564522
 20
276.9611702285
 11
431.5204802728
 21
277.0511429338
  0
LINE
  5
4D7
100
AcDbEntity
  8
0
100
AcDbLine
 62
7
  6
CONTINUOUS
 10
425.0845973359
 20
278.8383770762
 11
425.7160746746
 21
278.6894407151
  0
LINE
  5
4D8
100
AcDbEntity
  8
0
100
AcDbLine
 62
7
  6
CONTINUOUS
 10
412.8339462513
 20
277.0511429338
 11
412.3287647959
 21
277.2000790862
  0
LINE
  5
4D9
100
AcDbEntity
  8
0
100
AcDbLine
 62
7
  6
CONTINUOUS
 10
413.3339462513
 20
277.0511429338
 11
412.8287647959
 21
277.2000790862
  0
LINE
  5
4DA
100
AcDbEntity
  8
0
100
AcDbLine
 62
7
  6
CONTINUOUS
 10
412.5813555688
 20
279.434121686
 11
413.0865371145
 21
279.2851855336
  0
LINE
  5
4DB
100
AcDbEntity
  8
0
100
AcDbLine
 62
7
  6
CONTINUOUS
 10
413.8443093428
 20
279.2851855336
 11
414.3494908886
 21
279.1362493811
  0
LINE
  5
4DC
100
AcDbEntity
  8
0
100
AcDbLine
 62
7
  6
CONTINUOUS
 10
413.0865371145
 20
280.1788024483
 11
412.7076510004
 21
280.3277386008
  0
LINE
  5
4DD
100
AcDbEntity
  8
0
100
AcDbLine
 62
7
  6
CONTINUOUS
 10
413.5865371145
 20
280.1788024483
 11
413.2076510004
 21
280.3277386008
  0
LINE
  5
4DE
100
AcDbEntity
  8
0
100
AcDbLine
 62
7
  6
CONTINUOUS
 10
425.7160746746
 20
276.9022067813
 11
425.3371885604
 21
277.0511429338
  0
LINE
  5
4DF
100
AcDbEntity
  8
0
100
AcDbLine
 62
7
  6
CONTINUOUS
 10
426.2160746746
 20
276.9022067813
 11
425.8371885604
 21
277.0511429338
  0
LINE
  5
4E0
100
AcDbEntity
  8
0
100
AcDbLine
 62
7
  6
CONTINUOUS
 10
413.8443093428
 20
282.263909
 11
414.2231952763
 21
282.1149728475
  0
LINE
  5
4E1
100
AcDbEntity
  8
0
100
AcDbLine
 62
7
  6
CONTINUOUS
 10
412.0761741133
 20
279.731993991
 11
412.5813555688
 21
279.434121686
  0
LINE
  5
4E2
100
AcDbEntity
  8
0
100
AcDbLine
 62
7
  6
CONTINUOUS
 10
414.9809675046
 20
279.731993991
 11
414.4757861395
 21
280.0298662959
  0
LINE
  5
4E3
100
AcDbEntity
  8
0
100
AcDbLine
 62
7
  6
CONTINUOUS
 10
415.4809675046
 20
279.731993991
 11
414.9757861395
 21
280.0298662959
  0
LINE
  5
4E4
100
AcDbEntity
  8
0
100
AcDbLine
 62
7
  6
CONTINUOUS
 10
411.5709926127
 20
276.7532705767
 11
412.2024694546
 21
276.3064620802
  0
LINE
  5
4E5
100
AcDbEntity
  8
0
100
AcDbLine
 62
7
  6
CONTINUOUS
 10
474.7575266277
 20
284.6575259147
 11
474.0358382407
 21
284.4873131691
  0
LINE
  5
4E6
100
AcDbEntity
  8
0
100
AcDbLine
 62
7
  6
CONTINUOUS
 10
467.6849855549
 20
283.6362494407
 11
468.4066731161
 21
283.8064621864
  0
LINE
  5
4E7
100
AcDbEntity
  8
0
100
AcDbLine
 62
7
  6
CONTINUOUS
 10
467.9066731161
 20
283.8064621864
 11
467.1849855549
 21
283.6362494407
  0
LINE
  5
4E8
100
AcDbEntity
  8
0
100
AcDbLine
 62
7
  6
CONTINUOUS
 10
432.2834335048
 20
277.0511429338
 11
431.6519561661
 21
276.9022067813
  0
LINE
  5
4E9
100
AcDbEntity
  8
0
100
AcDbLine
 62
7
  6
CONTINUOUS
 10
426.847550568
 20
276.1575259147
 11
427.4790279067
 21
276.3064620802
  0
LINE
  5
4EA
100
AcDbEntity
  8
0
100
AcDbLine
 62
7
  6
CONTINUOUS
 10
426.347550568
 20
276.1575259147
 11
426.9790279067
 21
276.3064620802
  0
LINE
  5
4EB
100
AcDbEntity
  8
0
100
AcDbLine
 62
7
  6
CONTINUOUS
 10
426.847550568
 20
278.6894407151
 11
427.4790279067
 21
278.8383770762
  0
LINE
  5
4EC
100
AcDbEntity
  8
0
100
AcDbLine
 62
7
  6
CONTINUOUS
 10
426.347550568
 20
278.6894407151
 11
426.9790279067
 21
278.8383770762
  0
LINE
  5
4ED
100
AcDbEntity
  8
0
100
AcDbLine
 62
7
  6
CONTINUOUS
 10
414.3443093428
 20
276.1575259147
 11
414.9757861395
 21
276.3064620802
  0
LINE
  5
4EE
100
AcDbEntity
  8
0
100
AcDbLine
 62
7
  6
CONTINUOUS
 10
413.8443093428
 20
276.1575259147
 11
414.4757861395
 21
276.3064620802
  0
LINE
  5
4EF
100
AcDbEntity
  8
0
100
AcDbLine
 62
7
  6
CONTINUOUS
 10
431.5204802728
 20
282.263909
 11
431.9019564522
 21
282.3538817052
  0
LINE
  5
4F0
100
AcDbEntity
  8
0
100
AcDbLine
 62
7
  6
CONTINUOUS
 10
431.0204802728
 20
282.263909
 11
431.6519561661
 21
282.4128451524
  0
LINE
  5
4F1
100
AcDbEntity
  8
0
100
AcDbLine
 62
7
  6
CONTINUOUS
 10
432.1519561661
 20
276.1575259147
 11
432.9097283945
 21
276.3064620802
  0
LINE
  5
4F2
100
AcDbEntity
  8
0
100
AcDbLine
 62
7
  6
CONTINUOUS
 10
431.6519561661
 20
276.1575259147
 11
432.4097283945
 21
276.3064620802
  0
LINE
  5
4F3
100
AcDbEntity
  8
0
100
AcDbLine
 62
7
  6
CONTINUOUS
 10
431.6519561661
 20
283.1575259147
 11
430.8941839378
 21
283.0085897623
  0
LINE
  5
4F4
100
AcDbEntity
  8
0
100
AcDbLine
 62
7
  6
CONTINUOUS
 10
468.5510109587
 20
284.6575259147
 11
467.5406477123
 21
284.4873131691
  0
LINE
  5
4F5
100
AcDbEntity
  8
0
100
AcDbLine
 62
7
  6
CONTINUOUS
 10
473.4584885221
 20
278.5298663555
 11
472.9584885221
 21
278.5298663555
  0
LINE
  5
4F6
100
AcDbEntity
  8
0
100
AcDbLine
 62
7
  6
CONTINUOUS
 10
471.2934241867
 20
278.5298663555
 11
470.7934241867
 21
278.5298663555
  0
LINE
  5
4F7
100
AcDbEntity
  8
0
100
AcDbLine
 62
7
  6
CONTINUOUS
 10
466.8189601511
 20
278.5298663555
 11
466.097271764
 21
278.5298663555
  0
LINE
  5
4F8
100
AcDbEntity
  8
0
100
AcDbLine
 62
7
  6
CONTINUOUS
 10
416.2387397329
 20
278.5405045627
 11
415.7387397329
 21
278.5405045627
  0
LINE
  5
4F9
100
AcDbEntity
  8
0
100
AcDbLine
 62
7
  6
CONTINUOUS
 10
425.7160746746
 20
278.6894407151
 11
426.847550568
 21
278.6894407151
  0
LINE
  5
4FA
100
AcDbEntity
  8
0
100
AcDbLine
 62
7
  6
CONTINUOUS
 10
427.4790279067
 20
278.8383770762
 11
426.9790279067
 21
278.8383770762
  0
LINE
  5
4FB
100
AcDbEntity
  8
0
100
AcDbLine
 62
7
  6
CONTINUOUS
 10
477.6442768725
 20
278.8702918468
 11
477.1442768725
 21
278.8702918468
  0
LINE
  5
4FC
100
AcDbEntity
  8
0
100
AcDbLine
 62
7
  6
CONTINUOUS
 10
434.4252728511
 20
278.9873132287
 11
433.9252728511
 21
278.9873132287
  0
LINE
  5
4FD
100
AcDbEntity
  8
0
100
AcDbLine
 62
7
  6
CONTINUOUS
 10
473.3141498536
 20
279.0405045925
 11
472.8141498536
 21
279.0405045925
  0
LINE
  5
4FE
100
AcDbEntity
  8
0
100
AcDbLine
 62
7
  6
CONTINUOUS
 10
430.5101168199
 20
279.1362493811
 11
430.0101168199
 21
279.1362493811
  0
LINE
  5
4FF
100
AcDbEntity
  8
0
100
AcDbLine
 62
7
  6
CONTINUOUS
 10
428.8682774737
 20
279.1362493811
 11
428.3682774737
 21
279.1362493811
  0
LINE
  5
500
100
AcDbEntity
  8
0
100
AcDbLine
 62
7
  6
CONTINUOUS
 10
415.9861492311
 20
279.1362493811
 11
415.4861492311
 21
279.1362493811
  0
LINE
  5
501
100
AcDbEntity
  8
0
100
AcDbLine
 62
7
  6
CONTINUOUS
 10
471.2934241867
 20
279.2107173381
 11
470.7934241867
 21
279.2107173381
  0
LINE
  5
502
100
AcDbEntity
  8
0
100
AcDbLine
 62
7
  6
CONTINUOUS
 10
413.0865371145
 20
279.2851855336
 11
413.8443093428
 21
279.2851855336
  0
LINE
  5
503
100
AcDbEntity
  8
0
100
AcDbLine
 62
7
  6
CONTINUOUS
 10
426.4738469029
 20
279.434121686
 11
425.5897783397
 21
279.434121686
  0
LINE
  5
504
100
AcDbEntity
  8
0
100
AcDbLine
 62
7
  6
CONTINUOUS
 10
473.3141498536
 20
279.5511428295
 11
472.8141498536
 21
279.5511428295
  0
LINE
  5
505
100
AcDbEntity
  8
0
100
AcDbLine
 62
7
  6
CONTINUOUS
 10
425.7108922255
 20
279.5830578385
 11
425.2108922255
 21
279.5830578385
  0
LINE
  5
506
100
AcDbEntity
  8
0
100
AcDbLine
 62
7
  6
CONTINUOUS
 10
477.6442768725
 20
279.7213558136
 11
477.1442768725
 21
279.7213558136
  0
LINE
  5
507
100
AcDbEntity
  8
0
100
AcDbLine
 62
7
  6
CONTINUOUS
 10
415.4809675046
 20
279.731993991
 11
414.9809675046
 21
279.731993991
  0
LINE
  5
508
100
AcDbEntity
  8
0
100
AcDbLine
 62
7
  6
CONTINUOUS
 10
425.3320061113
 20
279.8809301434
 11
424.8320061113
 21
279.8809301434
  0
LINE
  5
509
100
AcDbEntity
  8
0
100
AcDbLine
 62
7
  6
CONTINUOUS
 10
471.14908717
 20
279.8915685592
 11
470.64908717
 21
279.8915685592
  0
LINE
  5
50A
100
AcDbEntity
  8
0
100
AcDbLine
 62
7
  6
CONTINUOUS
 10
414.9757861395
 20
280.0298662959
 11
414.4757861395
 21
280.0298662959
  0
LINE
  5
50B
100
AcDbEntity
  8
0
100
AcDbLine
 62
7
  6
CONTINUOUS
 10
473.4584885221
 20
280.0617813049
 11
472.9584885221
 21
280.0617813049
  0
LINE
  5
50C
100
AcDbEntity
  8
0
100
AcDbLine
 62
7
  6
CONTINUOUS
 10
430.5101168199
 20
280.1788024483
 11
430.0101168199
 21
280.1788024483
  0
LINE
  5
50D
100
AcDbEntity
  8
0
100
AcDbLine
 62
7
  6
CONTINUOUS
 10
428.8682774737
 20
280.1788024483
 11
428.3682774737
 21
280.1788024483
  0
LINE
  5
50E
100
AcDbEntity
  8
0
100
AcDbLine
 62
7
  6
CONTINUOUS
 10
414.3443093428
 20
280.1788024483
 11
413.0865371145
 21
280.1788024483
  0
LINE
  5
50F
100
AcDbEntity
  8
0
100
AcDbLine
 62
7
  6
CONTINUOUS
 10
434.4252728511
 20
280.3277386008
 11
433.9252728511
 21
280.3277386008
  0
LINE
  5
510
100
AcDbEntity
  8
0
100
AcDbLine
 62
7
  6
CONTINUOUS
 10
425.0794163321
 20
280.3277386008
 11
424.5794163321
 21
280.3277386008
  0
LINE
  5
511
100
AcDbEntity
  8
0
100
AcDbLine
 62
7
  6
CONTINUOUS
 10
413.2076510004
 20
280.3277386008
 11
412.7076510004
 21
280.3277386008
  0
LINE
  5
512
100
AcDbEntity
  8
0
100
AcDbLine
 62
7
  6
CONTINUOUS
 10
473.7471625555
 20
280.4022067962
 11
473.2471625555
 21
280.4022067962
  0
LINE
  5
513
100
AcDbEntity
  8
0
100
AcDbLine
 62
7
  6
CONTINUOUS
 10
470.8604114848
 20
280.4022067962
 11
470.3604114848
 21
280.4022067962
  0
LINE
  5
514
100
AcDbEntity
  8
0
100
AcDbLine
 62
7
  6
CONTINUOUS
 10
468.4066731161
 20
280.4022067962
 11
468.9840236606
 21
280.4022067962
  0
LINE
  5
515
100
AcDbEntity
  8
0
100
AcDbLine
 62
7
  6
CONTINUOUS
 10
477.3556028391
 20
280.5724195419
 11
476.8556028391
 21
280.5724195419
  0
LINE
  5
516
100
AcDbEntity
  8
0
100
AcDbLine
 62
7
  6
CONTINUOUS
 10
412.8287647959
 20
280.6256109057
 11
412.3287647959
 21
280.6256109057
  0
LINE
  5
517
100
AcDbEntity
  8
0
100
AcDbLine
 62
7
  6
CONTINUOUS
 10
474.1801752574
 20
280.7426322876
 11
473.6801752574
 21
280.7426322876
  0
LINE
  5
518
100
AcDbEntity
  8
0
100
AcDbLine
 62
7
  6
CONTINUOUS
 10
470.1387239236
 20
280.7426322876
 11
469.6387239236
 21
280.7426322876
  0
LINE
  5
519
100
AcDbEntity
  8
0
100
AcDbLine
 62
7
  6
CONTINUOUS
 10
424.9531199972
 20
280.7745470582
 11
424.4531199972
 21
280.7745470582
  0
LINE
  5
51A
100
AcDbEntity
  8
0
100
AcDbLine
 62
7
  6
CONTINUOUS
 10
473.1698128369
 20
280.9128450332
 11
472.6698128369
 21
280.9128450332
  0
LINE
  5
51B
100
AcDbEntity
  8
0
100
AcDbLine
 62
7
  6
CONTINUOUS
 10
474.1131879592
 20
280.9128450332
 11
475.6235520315
 21
280.9128450332
  0
LINE
  5
51C
100
AcDbEntity
  8
0
100
AcDbLine
 62
7
  6
CONTINUOUS
 10
434.2989779615
 20
281.0724193631
 11
433.7989779615
 21
281.0724193631
  0
LINE
  5
51D
100
AcDbEntity
  8
0
100
AcDbLine
 62
7
  6
CONTINUOUS
 10
430.6364117095
 20
281.0724193631
 11
430.1364117095
 21
281.0724193631
  0
LINE
  5
51E
100
AcDbEntity
  8
0
100
AcDbLine
 62
7
  6
CONTINUOUS
 10
424.9531199972
 20
281.0724193631
 11
424.4531199972
 21
281.0724193631
  0
LINE
  5
51F
100
AcDbEntity
  8
0
100
AcDbLine
 62
7
  6
CONTINUOUS
 10
412.7024694546
 20
281.0724193631
 11
412.2024694546
 21
281.0724193631
  0
LINE
  5
520
100
AcDbEntity
  8
0
100
AcDbLine
 62
7
  6
CONTINUOUS
 10
476.9225901372
 20
281.0830577789
 11
476.4225901372
 21
281.0830577789
  0
LINE
  5
521
100
AcDbEntity
  8
0
100
AcDbLine
 62
7
  6
CONTINUOUS
 10
468.9840236606
 20
281.0830577789
 11
468.4066731161
 21
281.0830577789
  0
LINE
  5
522
100
AcDbEntity
  8
0
100
AcDbLine
 62
7
  6
CONTINUOUS
 10
428.7419811387
 20
281.2213555155
 11
428.2419811387
 21
281.2213555155
  0
LINE
  5
523
100
AcDbEntity
  8
0
100
AcDbLine
 62
7
  6
CONTINUOUS
 10
473.1698128369
 20
281.2532705246
 11
472.6698128369
 21
281.2532705246
  0
LINE
  5
524
100
AcDbEntity
  8
0
100
AcDbLine
 62
7
  6
CONTINUOUS
 10
470.7160744681
 20
281.2532705246
 11
470.2160744681
 21
281.2532705246
  0
LINE
  5
525
100
AcDbEntity
  8
0
100
AcDbLine
 62
7
  6
CONTINUOUS
 10
412.7024694546
 20
281.370291668
 11
412.2024694546
 21
281.370291668
  0
LINE
  5
526
100
AcDbEntity
  8
0
100
AcDbLine
 62
7
  6
CONTINUOUS
 10
434.1726830719
 20
281.5192282377
 11
433.6726830719
 21
281.5192282377
  0
LINE
  5
527
100
AcDbEntity
  8
0
100
AcDbLine
 62
7
  6
CONTINUOUS
 10
425.0794163321
 20
281.5192282377
 11
424.5794163321
 21
281.5192282377
  0
LINE
  5
528
100
AcDbEntity
  8
0
100
AcDbLine
 62
7
  6
CONTINUOUS
 10
414.6020813905
 20
281.5192282377
 11
415.8598536188
 21
281.5192282377
  0
LINE
  5
529
100
AcDbEntity
  8
0
100
AcDbLine
 62
7
  6
CONTINUOUS
 10
476.2009017501
 20
281.5936960159
 11
475.7009017501
 21
281.5936960159
  0
LINE
  5
52A
100
AcDbEntity
  8
0
100
AcDbLine
 62
7
  6
CONTINUOUS
 10
475.479213363
 20
281.7639087616
 11
474.7575266277
 21
281.7639087616
  0
LINE
  5
52B
100
AcDbEntity
  8
0
100
AcDbLine
 62
7
  6
CONTINUOUS
 10
471.0047493274
 20
281.7639087616
 11
470.5047493274
 21
281.7639087616
  0
LINE
  5
52C
100
AcDbEntity
  8
0
100
AcDbLine
 62
7
  6
CONTINUOUS
 10
412.8287647959
 20
281.8171005426
 11
412.3287647959
 21
281.8171005426
  0
LINE
  5
52D
100
AcDbEntity
  8
0
100
AcDbLine
 62
7
  6
CONTINUOUS
 10
431.1415941586
 20
281.9660366951
 11
430.6415941586
 21
281.9660366951
  0
LINE
  5
52E
100
AcDbEntity
  8
0
100
AcDbLine
 62
7
  6
CONTINUOUS
 10
428.4893913595
 20
281.9660366951
 11
427.9893913595
 21
281.9660366951
  0
LINE
  5
52F
100
AcDbEntity
  8
0
100
AcDbLine
 62
7
  6
CONTINUOUS
 10
425.3320061113
 20
281.9660366951
 11
424.8320061113
 21
281.9660366951
  0
LINE
  5
530
100
AcDbEntity
  8
0
100
AcDbLine
 62
7
  6
CONTINUOUS
 10
415.7335583678
 20
281.9660366951
 11
415.2335583678
 21
281.9660366951
  0
LINE
  5
531
100
AcDbEntity
  8
0
100
AcDbLine
 62
7
  6
CONTINUOUS
 10
433.9200918473
 20
282.1149728475
 11
433.4200918473
 21
282.1149728475
  0
LINE
  5
532
100
AcDbEntity
  8
0
100
AcDbLine
 62
7
  6
CONTINUOUS
 10
413.2076510004
 20
282.1149728475
 11
412.7076510004
 21
282.1149728475
  0
LINE
  5
533
100
AcDbEntity
  8
0
100
AcDbLine
 62
7
  6
CONTINUOUS
 10
431.5204802728
 20
282.263909
 11
431.0204802728
 21
282.263909
  0
LINE
  5
534
100
AcDbEntity
  8
0
100
AcDbLine
 62
7
  6
CONTINUOUS
 10
425.7108922255
 20
282.263909
 11
425.2108922255
 21
282.263909
  0
LINE
  5
535
100
AcDbEntity
  8
0
100
AcDbLine
 62
7
  6
CONTINUOUS
 10
413.0865371145
 20
282.263909
 11
413.8443093428
 21
282.263909
  0
LINE
  5
536
100
AcDbEntity
  8
0
100
AcDbLine
 62
7
  6
CONTINUOUS
 10
473.3141498536
 20
282.2745469986
 11
472.8141498536
 21
282.2745469986
  0
LINE
  5
537
100
AcDbEntity
  8
0
100
AcDbLine
 62
7
  6
CONTINUOUS
 10
425.5897783397
 20
282.4128451524
 11
426.4738469029
 21
282.4128451524
  0
LINE
  5
538
100
AcDbEntity
  8
0
100
AcDbLine
 62
7
  6
CONTINUOUS
 10
471.14908717
 20
282.4447597442
 11
470.64908717
 21
282.4447597442
  0
LINE
  5
539
100
AcDbEntity
  8
0
100
AcDbLine
 62
7
  6
CONTINUOUS
 10
433.5412057332
 20
282.5617813049
 11
433.0412057332
 21
282.5617813049
  0
LINE
  5
53A
100
AcDbEntity
  8
0
100
AcDbLine
 62
7
  6
CONTINUOUS
 10
428.1105052454
 20
282.5617813049
 11
427.6105052454
 21
282.5617813049
  0
LINE
  5
53B
100
AcDbEntity
  8
0
100
AcDbLine
 62
7
  6
CONTINUOUS
 10
415.3546722537
 20
282.5617813049
 11
414.8546722537
 21
282.5617813049
  0
LINE
  5
53C
100
AcDbEntity
  8
0
100
AcDbLine
 62
7
  6
CONTINUOUS
 10
473.4584885221
 20
282.7851857124
 11
472.9584885221
 21
282.7851857124
  0
LINE
  5
53D
100
AcDbEntity
  8
0
100
AcDbLine
 62
7
  6
CONTINUOUS
 10
471.14908717
 20
282.7851857124
 11
470.64908717
 21
282.7851857124
  0
LINE
  5
53E
100
AcDbEntity
  8
0
100
AcDbLine
 62
7
  6
CONTINUOUS
 10
466.2416096066
 20
282.7851857124
 11
466.9632971678
 21
282.7851857124
  0
LINE
  5
53F
100
AcDbEntity
  8
0
100
AcDbLine
 62
7
  6
CONTINUOUS
 10
476.633914452
 20
282.7851857124
 11
477.3556028391
 21
282.7851857124
  0
LINE
  5
540
100
AcDbEntity
  8
0
100
AcDbLine
 62
7
  6
CONTINUOUS
 10
464.0765460971
 20
282.9553984581
 11
463.5765460971
 21
282.9553984581
  0
LINE
  5
541
100
AcDbEntity
  8
0
100
AcDbLine
 62
7
  6
CONTINUOUS
 10
458.8803936744
 20
282.9553984581
 11
458.3803936744
 21
282.9553984581
  0
LINE
  5
542
100
AcDbEntity
  8
0
100
AcDbLine
 62
7
  6
CONTINUOUS
 10
432.9097283945
 20
283.0085897623
 11
432.4097283945
 21
283.0085897623
  0
LINE
  5
543
100
AcDbEntity
  8
0
100
AcDbLine
 62
7
  6
CONTINUOUS
 10
427.4790279067
 20
283.0085897623
 11
426.9790279067
 21
283.0085897623
  0
LINE
  5
544
100
AcDbEntity
  8
0
100
AcDbLine
 62
7
  6
CONTINUOUS
 10
414.8494908886
 20
283.0085897623
 11
414.3494908886
 21
283.0085897623
  0
LINE
  5
545
100
AcDbEntity
  8
0
100
AcDbLine
 62
7
  6
CONTINUOUS
 10
432.1519561661
 20
283.1575259147
 11
431.6519561661
 21
283.1575259147
  0
LINE
  5
546
100
AcDbEntity
  8
0
100
AcDbLine
 62
7
  6
CONTINUOUS
 10
426.847550568
 20
283.1575259147
 11
425.7160746746
 21
283.1575259147
  0
LINE
  5
547
100
AcDbEntity
  8
0
100
AcDbLine
 62
7
  6
CONTINUOUS
 10
423.311280651
 20
283.1575259147
 11
422.0535084226
 21
283.1575259147
  0
LINE
  5
548
100
AcDbEntity
  8
0
100
AcDbLine
 62
7
  6
CONTINUOUS
 10
420.7853734641
 20
283.1575259147
 11
419.2750100113
 21
283.1575259147
  0
LINE
  5
549
100
AcDbEntity
  8
0
100
AcDbLine
 62
7
  6
CONTINUOUS
 10
418.0068750528
 20
283.1575259147
 11
416.7491028245
 21
283.1575259147
  0
LINE
  5
54A
100
AcDbEntity
  8
0
100
AcDbLine
 62
7
  6
CONTINUOUS
 10
414.2180139112
 20
283.1575259147
 11
413.0865371145
 21
283.1575259147
  0
LINE
  5
54B
100
AcDbEntity
  8
0
100
AcDbLine
 62
7
  6
CONTINUOUS
 10
477.2112641706
 20
283.2958239494
 11
476.7112641706
 21
283.2958239494
  0
LINE
  5
54C
100
AcDbEntity
  8
0
100
AcDbLine
 62
7
  6
CONTINUOUS
 10
473.7471625555
 20
283.2958239494
 11
473.2471625555
 21
283.2958239494
  0
LINE
  5
54D
100
AcDbEntity
  8
0
100
AcDbLine
 62
7
  6
CONTINUOUS
 10
467.251972853
 20
283.2958239494
 11
466.751972853
 21
283.2958239494
  0
LINE
  5
54E
100
AcDbEntity
  8
0
100
AcDbLine
 62
7
  6
CONTINUOUS
 10
471.0047493274
 20
283.4660366951
 11
470.5047493274
 21
283.4660366951
  0
LINE
  5
54F
100
AcDbEntity
  8
0
100
AcDbLine
 62
7
  6
CONTINUOUS
 10
474.1801752574
 20
283.6362494407
 11
473.6801752574
 21
283.6362494407
  0
LINE
  5
550
100
AcDbEntity
  8
0
100
AcDbLine
 62
7
  6
CONTINUOUS
 10
467.6849855549
 20
283.6362494407
 11
467.1849855549
 21
283.6362494407
  0
LINE
  5
551
100
AcDbEntity
  8
0
100
AcDbLine
 62
7
  6
CONTINUOUS
 10
467.9066731161
 20
283.8064621864
 11
468.9840236606
 21
283.8064621864
  0
LINE
  5
552
100
AcDbEntity
  8
0
100
AcDbLine
 62
7
  6
CONTINUOUS
 10
474.1131879592
 20
283.8064621864
 11
475.479213363
 21
283.8064621864
  0
LINE
  5
553
100
AcDbEntity
  8
0
100
AcDbLine
 62
7
  6
CONTINUOUS
 10
476.7782514687
 20
283.9766749321
 11
476.2782514687
 21
283.9766749321
  0
LINE
  5
554
100
AcDbEntity
  8
0
100
AcDbLine
 62
7
  6
CONTINUOUS
 10
470.4273987829
 20
284.1468876777
 11
469.9273987829
 21
284.1468876777
  0
LINE
  5
555
100
AcDbEntity
  8
0
100
AcDbLine
 62
7
  6
CONTINUOUS
 10
476.0565647334
 20
284.4873131691
 11
475.5565647334
 21
284.4873131691
  0
LINE
  5
556
100
AcDbEntity
  8
0
100
AcDbLine
 62
7
  6
CONTINUOUS
 10
469.8500490643
 20
284.4873131691
 11
469.3500490643
 21
284.4873131691
  0
LINE
  5
557
100
AcDbEntity
  8
0
100
AcDbLine
 62
7
  6
CONTINUOUS
 10
475.3348763463
 20
284.6575259147
 11
474.7575266277
 21
284.6575259147
  0
LINE
  5
558
100
AcDbEntity
  8
0
100
AcDbLine
 62
7
  6
CONTINUOUS
 10
468.839685818
 20
284.6575259147
 11
468.5510109587
 21
284.6575259147
  0
LINE
  5
559
100
AcDbEntity
  8
0
100
AcDbLine
 62
7
  6
CONTINUOUS
 10
464.9425715009
 20
284.6575259147
 11
463.6435333952
 21
284.6575259147
  0
LINE
  5
55A
100
AcDbEntity
  8
0
100
AcDbLine
 62
7
  6
CONTINUOUS
 10
459.3134063763
 20
284.6575259147
 11
458.0143682706
 21
284.6575259147
  0
LINE
  5
55B
100
AcDbEntity
  8
0
100
AcDbLine
 62
7
  6
CONTINUOUS
 10
437.6527910083
 20
285.6575259147
 11
407.3419018759
 21
285.6575259147
  0
LINE
  5
55C
100
AcDbEntity
  8
0
100
AcDbLine
 62
7
  6
CONTINUOUS
 10
432.4097283945
 20
283.0085897623
 11
431.6519561661
 21
283.1575259147
  0
LINE
  5
55D
100
AcDbEntity
  8
0
100
AcDbLine
 62
7
  6
CONTINUOUS
 10
432.9097283945
 20
283.0085897623
 11
432.1519561661
 21
283.1575259147
  0
LINE
  5
55E
100
AcDbEntity
  8
0
100
AcDbLine
 62
7
  6
CONTINUOUS
 10
468.9840236606
 20
280.4022067962
 11
469.8500490643
 21
280.2319940506
  0
LINE
  5
55F
100
AcDbEntity
  8
0
100
AcDbLine
 62
7
  6
CONTINUOUS
 10
414.3494908886
 20
283.0085897623
 11
413.7180139112
 21
283.1575259147
  0
LINE
  5
560
100
AcDbEntity
  8
0
100
AcDbLine
 62
7
  6
CONTINUOUS
 10
414.8494908886
 20
283.0085897623
 11
414.2180139112
 21
283.1575259147
  0
LINE
  5
561
100
AcDbEntity
  8
0
100
AcDbLine
 62
7
  6
CONTINUOUS
 10
426.9790279067
 20
283.0085897623
 11
426.347550568
 21
283.1575259147
  0
LINE
  5
562
100
AcDbEntity
  8
0
100
AcDbLine
 62
7
  6
CONTINUOUS
 10
427.4790279067
 20
283.0085897623
 11
426.847550568
 21
283.1575259147
  0
LINE
  5
563
100
AcDbEntity
  8
0
100
AcDbLine
 62
7
  6
CONTINUOUS
 10
431.6519561661
 20
282.4128451524
 11
432.2834335048
 21
282.263909
  0
LINE
  5
564
100
AcDbEntity
  8
0
100
AcDbLine
 62
7
  6
CONTINUOUS
 10
467.0406477123
 20
277.6788025079
 11
467.7623352735
 21
277.5085897623
  0
LINE
  5
565
100
AcDbEntity
  8
0
100
AcDbLine
 62
7
  6
CONTINUOUS
 10
468.2623352735
 20
277.5085897623
 11
467.5406477123
 21
277.6788025079
  0
LINE
  5
566
100
AcDbEntity
  8
0
100
AcDbLine
 62
7
  6
CONTINUOUS
 10
474.0358382407
 20
276.8277386753
 11
474.7575266277
 21
276.6575259147
  0
LINE
  5
567
100
AcDbEntity
  8
0
100
AcDbLine
 62
7
  6
CONTINUOUS
 10
467.5406477123
 20
276.8277386753
 11
468.1179982568
 21
276.6575259147
  0
LINE
  5
568
100
AcDbEntity
  8
0
100
AcDbLine
 62
7
  6
CONTINUOUS
 10
425.5897783397
 20
279.434121686
 11
425.2108922255
 21
279.5830578385
  0
LINE
  5
569
100
AcDbEntity
  8
0
100
AcDbLine
 62
7
  6
CONTINUOUS
 10
426.0897783397
 20
279.434121686
 11
425.7108922255
 21
279.5830578385
  0
LINE
  5
56A
100
AcDbEntity
  8
0
100
AcDbLine
 62
7
  6
CONTINUOUS
 10
426.4738469029
 20
282.4128451524
 11
426.8527330171
 21
282.263909
  0
LINE
  5
56B
100
AcDbEntity
  8
0
100
AcDbLine
 62
7
  6
CONTINUOUS
 10
424.5794163321
 20
276.7532705767
 11
425.2108922255
 21
276.3064620802
  0
LINE
  5
56C
100
AcDbEntity
  8
0
100
AcDbLine
 62
7
  6
CONTINUOUS
 10
424.4531199972
 20
279.2851855336
 11
425.0845973359
 21
278.8383770762
  0
LINE
  5
56D
100
AcDbEntity
  8
0
100
AcDbLine
 62
7
  6
CONTINUOUS
 10
430.2627080445
 20
276.7532705767
 11
430.8941839378
 21
276.3064620802
  0
LINE
  5
56E
100
AcDbEntity
  8
0
100
AcDbLine
 62
7
  6
CONTINUOUS
 10
412.7076510004
 20
280.3277386008
 11
412.3287647959
 21
280.6256109057
  0
LINE
  5
56F
100
AcDbEntity
  8
0
100
AcDbLine
 62
7
  6
CONTINUOUS
 10
414.3494908886
 20
279.1362493811
 11
414.7283770027
 21
278.8383770762
  0
LINE
  5
570
100
AcDbEntity
  8
0
100
AcDbLine
 62
7
  6
CONTINUOUS
 10
413.2076510004
 20
280.3277386008
 11
412.8287647959
 21
280.6256109057
  0
LINE
  5
571
100
AcDbEntity
  8
0
100
AcDbLine
 62
7
  6
CONTINUOUS
 10
425.3371885604
 20
277.0511429338
 11
424.9583024463
 21
277.3490152387
  0
LINE
  5
572
100
AcDbEntity
  8
0
100
AcDbLine
 62
7
  6
CONTINUOUS
 10
425.8371885604
 20
277.0511429338
 11
425.4583024463
 21
277.3490152387
  0
LINE
  5
573
100
AcDbEntity
  8
0
100
AcDbLine
 62
7
  6
CONTINUOUS
 10
425.2108922255
 20
279.5830578385
 11
424.8320061113
 21
279.8809301434
  0
LINE
  5
574
100
AcDbEntity
  8
0
100
AcDbLine
 62
7
  6
CONTINUOUS
 10
425.7108922255
 20
279.5830578385
 11
425.3320061113
 21
279.8809301434
  0
LINE
  5
575
100
AcDbEntity
  8
0
100
AcDbLine
 62
7
  6
CONTINUOUS
 10
414.8546722537
 20
282.5617813049
 11
414.3494908886
 21
283.0085897623
  0
LINE
  5
576
100
AcDbEntity
  8
0
100
AcDbLine
 62
7
  6
CONTINUOUS
 10
415.3546722537
 20
282.5617813049
 11
414.8494908886
 21
283.0085897623
  0
LINE
  5
577
100
AcDbEntity
  8
0
100
AcDbLine
 62
7
  6
CONTINUOUS
 10
412.3287647959
 20
277.2000790862
 11
411.9498786817
 21
277.6468876479
  0
LINE
  5
578
100
AcDbEntity
  8
0
100
AcDbLine
 62
7
  6
CONTINUOUS
 10
412.8287647959
 20
277.2000790862
 11
412.4498786817
 21
277.6468876479
  0
LINE
  5
579
100
AcDbEntity
  8
0
100
AcDbLine
 62
7
  6
CONTINUOUS
 10
411.5709926127
 20
280.3277386008
 11
412.0761741133
 21
279.731993991
  0
LINE
  5
57A
100
AcDbEntity
  8
0
100
AcDbLine
 62
7
  6
CONTINUOUS
 10
456.9973454884
 20
296.6894408045
 11
455.9973464421
 21
296.434121686
  0
LINE
  5
57B
100
AcDbEntity
  8
0
100
AcDbLine
 62
7
  6
CONTINUOUS
 10
425.7160746746
 20
283.1575259147
 11
425.0845973359
 21
283.0085897623
  0
LINE
  5
57C
100
AcDbEntity
  8
0
100
AcDbLine
 62
7
  6
CONTINUOUS
 10
456.2473454884
 20
295.1575259147
 11
457.4973464421
 21
295.4128450556
  0
LINE
  5
57D
100
AcDbEntity
  8
KONSTRUKTIONSELEMENTE
100
AcDbLine
 62
7
  6
CONTINUOUS
 10
399.9973464421
 20
290.6575259147
 11
489.9973464421
 21
290.6575259147
  0
LINE
  5
57E
100
AcDbEntity
  8
0
100
AcDbLine
 62
7
  6
CONTINUOUS
 10
456.2473454884
 20
295.1575259147
 11
454.7473454884
 21
295.1575259147
  0
LINE
  5
57F
100
AcDbEntity
  8
0
100
AcDbLine
 62
7
  6
CONTINUOUS
 10
435.7473464421
 20
295.1575259147
 11
434.2473464421
 21
295.1575259147
  0
LINE
  5
580
100
AcDbEntity
  8
0
100
AcDbLine
 62
7
  6
CONTINUOUS
 10
424.4973464421
 20
295.1575259147
 11
422.9973464421
 21
295.1575259147
  0
LINE
  5
581
100
AcDbEntity
  8
0
100
AcDbLine
 62
7
  6
CONTINUOUS
 10
455.9973464421
 20
296.434121686
 11
454.9973473958
 21
296.434121686
  0
LINE
  5
582
100
AcDbEntity
  8
0
100
AcDbLine
 62
7
  6
CONTINUOUS
 10
448.9973473958
 20
299.4979512869
 11
445.4973464421
 21
299.4979512869
  0
LINE
  5
583
100
AcDbEntity
  8
0
100
AcDbLine
 62
7
  6
CONTINUOUS
 10
440.2473464421
 20
300.5192281185
 11
435.7473464421
 21
300.5192281185
  0
LINE
  5
584
100
AcDbEntity
  8
0
100
AcDbLine
 62
7
  6
CONTINUOUS
 10
428.9973464421
 20
300.5192281185
 11
424.4973464421
 21
300.5192281185
  0
LINE
  5
585
100
AcDbEntity
  8
0
100
AcDbLine
 62
7
  6
CONTINUOUS
 10
468.4453483883
 20
284.639725271
 11
469.3500490643
 21
284.4873131691
  0
LINE
  5
586
100
AcDbEntity
  8
0
100
AcDbLine
 62
7
  6
CONTINUOUS
 10
469.8500490643
 20
284.4873131691
 11
468.839685818
 21
284.6575259147
  0
LINE
  5
587
100
AcDbEntity
  8
0
100
AcDbLine
 62
7
  6
CONTINUOUS
 10
467.4973454884
 20
295.1575259147
 11
465.9973454884
 21
295.4128450556
  0
LINE
  5
588
100
AcDbEntity
  8
0
100
AcDbLine
 62
7
  6
CONTINUOUS
 10
454.7473454884
 20
295.1575259147
 11
453.4973473958
 21
295.4128450556
  0
LINE
  5
589
100
AcDbEntity
  8
0
100
AcDbLine
 62
7
  6
CONTINUOUS
 10
474.979213363
 20
281.7639087616
 11
475.7009017501
 21
281.5936960159
  0
LINE
  5
58A
100
AcDbEntity
  8
0
100
AcDbLine
 62
7
  6
CONTINUOUS
 10
476.2009017501
 20
281.5936960159
 11
475.479213363
 21
281.7639087616
  0
LINE
  5
58B
100
AcDbEntity
  8
0
100
AcDbLine
 62
7
  6
CONTINUOUS
 10
468.9840236606
 20
283.8064621864
 11
469.7057112217
 21
283.6362494407
  0
LINE
  5
58C
100
AcDbEntity
  8
0
100
AcDbLine
 62
7
  6
CONTINUOUS
 10
474.8348763463
 20
284.6575259147
 11
475.5565647334
 21
284.4873131691
  0
LINE
  5
58D
100
AcDbEntity
  8
0
100
AcDbLine
 62
7
  6
CONTINUOUS
 10
476.0565647334
 20
284.4873131691
 11
475.3348763463
 21
284.6575259147
  0
LINE
  5
58E
100
AcDbEntity
  8
0
100
AcDbLine
 62
7
  6
CONTINUOUS
 10
473.6801752574
 20
277.6788025079
 11
474.1131879592
 21
277.5085897623
  0
LINE
  5
58F
100
AcDbEntity
  8
0
100
AcDbLine
 62
7
  6
CONTINUOUS
 10
474.6131879592
 20
277.5085897623
 11
474.1801752574
 21
277.6788025079
  0
LINE
  5
590
100
AcDbEntity
  8
0
100
AcDbLine
 62
7
  6
CONTINUOUS
 10
475.6235520315
 20
280.9128450332
 11
476.0565647334
 21
280.7426322876
  0
LINE
  5
591
100
AcDbEntity
  8
0
100
AcDbLine
 62
7
  6
CONTINUOUS
 10
469.6387239236
 20
280.7426322876
 11
470.3604114848
 21
280.4022067962
  0
LINE
  5
592
100
AcDbEntity
  8
0
100
AcDbLine
 62
7
  6
CONTINUOUS
 10
427.6105052454
 20
282.5617813049
 11
426.9790279067
 21
283.0085897623
  0
LINE
  5
593
100
AcDbEntity
  8
0
100
AcDbLine
 62
7
  6
CONTINUOUS
 10
428.1105052454
 20
282.5617813049
 11
427.4790279067
 21
283.0085897623
  0
LINE
  5
594
100
AcDbEntity
  8
0
100
AcDbLine
 62
7
  6
CONTINUOUS
 10
433.0412057332
 20
282.5617813049
 11
432.4097283945
 21
283.0085897623
  0
LINE
  5
595
100
AcDbEntity
  8
0
100
AcDbLine
 62
7
  6
CONTINUOUS
 10
433.5412057332
 20
282.5617813049
 11
432.9097283945
 21
283.0085897623
  0
LINE
  5
596
100
AcDbEntity
  8
0
100
AcDbLine
 62
7
  6
CONTINUOUS
 10
431.0204802728
 20
277.0511429338
 11
430.6415941586
 21
277.3490152387
  0
LINE
  5
597
100
AcDbEntity
  8
0
100
AcDbLine
 62
7
  6
CONTINUOUS
 10
431.5204802728
 20
277.0511429338
 11
431.1415941586
 21
277.3490152387
  0
LINE
  5
598
100
AcDbEntity
  8
0
100
AcDbLine
 62
7
  6
CONTINUOUS
 10
426.8527330171
 20
282.263909
 11
427.2316191312
 21
281.9660366951
  0
LINE
  5
599
100
AcDbEntity
  8
0
100
AcDbLine
 62
7
  6
CONTINUOUS
 10
432.2834335048
 20
282.263909
 11
432.662319619
 21
281.9660366951
  0
LINE
  5
59A
100
AcDbEntity
  8
0
100
AcDbLine
 62
7
  6
CONTINUOUS
 10
415.4861492311
 20
279.1362493811
 11
414.9809675046
 21
279.731993991
  0
LINE
  5
59B
100
AcDbEntity
  8
0
100
AcDbLine
 62
7
  6
CONTINUOUS
 10
415.9861492311
 20
279.1362493811
 11
415.4809675046
 21
279.731993991
  0
LINE
  5
59C
100
AcDbEntity
  8
0
100
AcDbLine
 62
7
  6
CONTINUOUS
 10
414.2231952763
 20
282.1149728475
 11
414.4757861395
 21
281.8171005426
  0
LINE
  5
59D
100
AcDbEntity
  8
0
100
AcDbLine
 62
7
  6
CONTINUOUS
 10
454.9973473958
 20
300.774547237
 11
453.9973454884
 21
300.5192281185
  0
LINE
  5
59E
100
AcDbEntity
  8
0
100
AcDbLine
 62
7
  6
CONTINUOUS
 10
456.9973454884
 20
302.0511428295
 11
455.9973464421
 21
301.795823711
  0
LINE
  5
59F
100
AcDbEntity
  8
0
100
AcDbLine
 62
7
  6
CONTINUOUS
 10
454.9973473958
 20
305.8809303222
 11
453.9973454884
 21
305.6256112037
  0
LINE
  5
5A0
100
AcDbEntity
  8
0
100
AcDbLine
 62
7
  6
CONTINUOUS
 10
458.4973454884
 20
310.944759923
 11
457.4973464421
 21
310.6894408045
  0
LINE
  5
5A1
100
AcDbEntity
  8
0
100
AcDbLine
 62
7
  6
CONTINUOUS
 10
441.4973459652
 20
300.774547237
 11
440.2473464421
 21
300.5192281185
  0
LINE
  5
5A2
100
AcDbEntity
  8
0
100
AcDbLine
 62
7
  6
CONTINUOUS
 10
430.2473466805
 20
300.774547237
 11
428.9973464421
 21
300.5192281185
  0
LINE
  5
5A3
100
AcDbEntity
  8
0
100
AcDbLine
 62
7
  6
CONTINUOUS
 10
454.9973473958
 20
307.1575259147
 11
453.7473464421
 21
306.9022067962
  0
LINE
  5
5A4
100
AcDbEntity
  8
0
100
AcDbLine
 62
7
  6
CONTINUOUS
 10
458.7473473958
 20
309.4128450556
 11
457.4973464421
 21
309.1575259147
  0
LINE
  5
5A5
100
AcDbEntity
  8
0
100
AcDbLine
 62
7
  6
CONTINUOUS
 10
446.7473459652
 20
309.4128450556
 11
445.4973464421
 21
309.1575259147
  0
LINE
  5
5A6
100
AcDbEntity
  8
0
100
AcDbLine
 62
7
  6
CONTINUOUS
 10
455.9973464421
 20
300.774547237
 11
454.9973473958
 21
300.774547237
  0
LINE
  5
5A7
100
AcDbEntity
  8
0
100
AcDbLine
 62
7
  6
CONTINUOUS
 10
448.9973473958
 20
300.774547237
 11
445.4973464421
 21
300.774547237
  0
LINE
  5
5A8
100
AcDbEntity
  8
0
100
AcDbLine
 62
7
  6
CONTINUOUS
 10
455.9973464421
 20
301.795823711
 11
454.9973473958
 21
301.795823711
  0
LINE
  5
5A9
100
AcDbEntity
  8
0
100
AcDbLine
 62
7
  6
CONTINUOUS
 10
440.4973469189
 20
302.0511428295
 11
435.7473464421
 21
302.0511428295
  0
LINE
  5
5AA
100
AcDbEntity
  8
0
100
AcDbLine
 62
7
  6
CONTINUOUS
 10
429.2473462037
 20
302.0511428295
 11
424.4973464421
 21
302.0511428295
  0
LINE
  5
5AB
100
AcDbEntity
  8
0
100
AcDbLine
 62
7
  6
CONTINUOUS
 10
467.9973464421
 20
302.306461948
 11
465.2473454884
 21
302.306461948
  0
LINE
  5
5AC
100
AcDbEntity
  8
0
100
AcDbLine
 62
7
  6
CONTINUOUS
 10
463.9973473958
 20
302.306461948
 11
461.9973464421
 21
302.306461948
  0
LINE
  5
5AD
100
AcDbEntity
  8
0
100
AcDbLine
 62
7
  6
CONTINUOUS
 10
467.9973464421
 20
303.327738422
 11
465.2473454884
 21
303.327738422
  0
LINE
  5
5AE
100
AcDbEntity
  8
0
100
AcDbLine
 62
7
  6
CONTINUOUS
 10
463.9973473958
 20
303.327738422
 11
461.9973464421
 21
303.327738422
  0
LINE
  5
5AF
100
AcDbEntity
  8
0
100
AcDbLine
 62
7
  6
CONTINUOUS
 10
465.2473454884
 20
305.3702920852
 11
463.9973473958
 21
305.3702920852
  0
LINE
  5
5B0
100
AcDbEntity
  8
0
100
AcDbLine
 62
7
  6
CONTINUOUS
 10
455.9973464421
 20
305.8809303222
 11
454.9973473958
 21
305.8809303222
  0
LINE
  5
5B1
100
AcDbEntity
  8
0
100
AcDbLine
 62
7
  6
CONTINUOUS
 10
440.4973469189
 20
305.8809303222
 11
435.7473464421
 21
305.8809303222
  0
LINE
  5
5B2
100
AcDbEntity
  8
0
100
AcDbLine
 62
7
  6
CONTINUOUS
 10
429.2473462037
 20
305.8809303222
 11
424.4973464421
 21
305.8809303222
  0
LINE
  5
5B3
100
AcDbEntity
  8
0
100
AcDbLine
 62
7
  6
CONTINUOUS
 10
455.9973464421
 20
307.1575259147
 11
454.9973473958
 21
307.1575259147
  0
LINE
  5
5B4
100
AcDbEntity
  8
0
100
AcDbLine
 62
7
  6
CONTINUOUS
 10
440.2473464421
 20
307.1575259147
 11
434.2473464421
 21
307.1575259147
  0
LINE
  5
5B5
100
AcDbEntity
  8
0
100
AcDbLine
 62
7
  6
CONTINUOUS
 10
428.9973464421
 20
307.1575259147
 11
422.9973464421
 21
307.1575259147
  0
LINE
  5
5B6
100
AcDbEntity
  8
0
100
AcDbLine
 62
7
  6
CONTINUOUS
 10
457.4973464421
 20
309.1575259147
 11
451.4973464421
 21
309.1575259147
  0
LINE
  5
5B7
100
AcDbEntity
  8
0
100
AcDbLine
 62
7
  6
CONTINUOUS
 10
445.4973464421
 20
309.1575259147
 11
444.4973459652
 21
309.1575259147
  0
LINE
  5
5B8
100
AcDbEntity
  8
0
100
AcDbLine
 62
7
  6
CONTINUOUS
 10
438.4973466805
 20
309.1575259147
 11
436.7473462037
 21
309.1575259147
  0
LINE
  5
5B9
100
AcDbEntity
  8
0
100
AcDbLine
 62
7
  6
CONTINUOUS
 10
430.4973464421
 20
309.1575259147
 11
428.9973464421
 21
309.1575259147
  0
LINE
  5
5BA
100
AcDbEntity
  8
0
100
AcDbLine
 62
7
  6
CONTINUOUS
 10
457.4973464421
 20
310.6894408045
 11
452.9973464421
 21
310.6894408045
  0
LINE
  5
5BB
100
AcDbEntity
  8
0
100
AcDbLine
 62
7
  6
CONTINUOUS
 10
445.4973464421
 20
310.6894408045
 11
444.4973459652
 21
310.6894408045
  0
LINE
  5
5BC
100
AcDbEntity
  8
0
100
AcDbLine
 62
7
  6
CONTINUOUS
 10
467.4973454884
 20
296.1788024781
 11
466.2473473958
 21
296.434121686
  0
LINE
  5
5BD
100
AcDbEntity
  8
0
100
AcDbLine
 62
7
  6
CONTINUOUS
 10
430.2473466805
 20
306.9022067962
 11
428.9973464421
 21
307.1575259147
  0
LINE
  5
5BE
100
AcDbEntity
  8
0
100
AcDbLine
 62
7
  6
CONTINUOUS
 10
441.4973459652
 20
306.9022067962
 11
440.2473464421
 21
307.1575259147
  0
LINE
  5
5BF
100
AcDbEntity
  8
0
100
AcDbLine
 62
7
  6
CONTINUOUS
 10
444.4973459652
 20
309.1575259147
 11
443.2473464421
 21
309.4128450556
  0
LINE
  5
5C0
100
AcDbEntity
  8
0
100
AcDbLine
 62
7
  6
CONTINUOUS
 10
457.2473473958
 20
306.9022067962
 11
455.9973464421
 21
307.1575259147
  0
LINE
  5
5C1
100
AcDbEntity
  8
0
100
AcDbLine
 62
7
  6
CONTINUOUS
 10
454.9973473958
 20
296.434121686
 11
453.9973454884
 21
296.6894408045
  0
LINE
  5
5C2
100
AcDbEntity
  8
0
100
AcDbLine
 62
7
  6
CONTINUOUS
 10
456.9973454884
 20
300.5192281185
 11
455.9973464421
 21
300.774547237
  0
LINE
  5
5C3
100
AcDbEntity
  8
0
100
AcDbLine
 62
7
  6
CONTINUOUS
 10
454.9973473958
 20
301.795823711
 11
453.9973454884
 21
302.0511428295
  0
LINE
  5
5C4
100
AcDbEntity
  8
0
100
AcDbLine
 62
7
  6
CONTINUOUS
 10
456.9973454884
 20
305.6256112037
 11
455.9973464421
 21
305.8809303222
  0
LINE
  5
5C5
100
AcDbEntity
  8
0
100
AcDbLine
 62
7
  6
CONTINUOUS
 10
429.9973462037
 20
305.6256112037
 11
429.2473462037
 21
305.8809303222
  0
LINE
  5
5C6
100
AcDbEntity
  8
0
100
AcDbLine
 62
7
  6
CONTINUOUS
 10
465.9973454884
 20
295.4128450556
 11
465.2473454884
 21
295.6681641964
  0
LINE
  5
5C7
100
AcDbEntity
  8
0
100
AcDbLine
 62
7
  6
CONTINUOUS
 10
441.2473469189
 20
305.6256112037
 11
440.4973469189
 21
305.8809303222
  0
LINE
  5
5C8
100
AcDbEntity
  8
0
100
AcDbLine
 62
7
  6
CONTINUOUS
 10
475.479213363
 20
283.8064621864
 11
475.9122260649
 21
283.6362494407
  0
LINE
  5
5C9
100
AcDbEntity
  8
0
100
AcDbLine
 62
7
  6
CONTINUOUS
 10
470.8604114848
 20
280.4022067962
 11
470.1387239236
 21
280.7426322876
  0
LINE
  5
5CA
100
AcDbEntity
  8
0
100
AcDbLine
 62
7
  6
CONTINUOUS
 10
453.9973454884
 20
296.6894408045
 11
452.9973464421
 21
297.2000790415
  0
LINE
  5
5CB
100
AcDbEntity
  8
0
100
AcDbLine
 62
7
  6
CONTINUOUS
 10
466.9632971678
 20
277.1681642113
 11
467.5406477123
 21
276.8277386753
  0
LINE
  5
5CC
100
AcDbEntity
  8
0
100
AcDbLine
 62
7
  6
CONTINUOUS
 10
466.751972853
 20
277.8490152536
 11
467.0406477123
 21
277.6788025079
  0
LINE
  5
5CD
100
AcDbEntity
  8
0
100
AcDbLine
 62
7
  6
CONTINUOUS
 10
467.5406477123
 20
277.6788025079
 11
467.251972853
 21
277.8490152536
  0
LINE
  5
5CE
100
AcDbEntity
  8
0
100
AcDbLine
 62
7
  6
CONTINUOUS
 10
469.3500490643
 20
284.4873131691
 11
469.9273987829
 21
284.1468876777
  0
LINE
  5
5CF
100
AcDbEntity
  8
0
100
AcDbLine
 62
7
  6
CONTINUOUS
 10
470.4273987829
 20
284.1468876777
 11
469.8500490643
 21
284.4873131691
  0
LINE
  5
5D0
100
AcDbEntity
  8
0
100
AcDbLine
 62
7
  6
CONTINUOUS
 10
429.8838219303
 20
277.2000790862
 11
430.2627080445
 21
276.7532705767
  0
LINE
  5
5D1
100
AcDbEntity
  8
0
100
AcDbLine
 62
7
  6
CONTINUOUS
 10
433.4200918473
 20
282.1149728475
 11
433.0412057332
 21
282.5617813049
  0
LINE
  5
5D2
100
AcDbEntity
  8
0
100
AcDbLine
 62
7
  6
CONTINUOUS
 10
433.9200918473
 20
282.1149728475
 11
433.5412057332
 21
282.5617813049
  0
LINE
  5
5D3
100
AcDbEntity
  8
0
100
AcDbLine
 62
7
  6
CONTINUOUS
 10
415.2335583678
 20
281.9660366951
 11
414.8546722537
 21
282.5617813049
  0
LINE
  5
5D4
100
AcDbEntity
  8
0
100
AcDbLine
 62
7
  6
CONTINUOUS
 10
415.7335583678
 20
281.9660366951
 11
415.3546722537
 21
282.5617813049
  0
LINE
  5
5D5
100
AcDbEntity
  8
0
100
AcDbLine
 62
7
  6
CONTINUOUS
 10
424.200530218
 20
277.3490152387
 11
424.5794163321
 21
276.7532705767
  0
LINE
  5
5D6
100
AcDbEntity
  8
0
100
AcDbLine
 62
7
  6
CONTINUOUS
 10
424.074233883
 20
279.8809301434
 11
424.4531199972
 21
279.2851855336
  0
LINE
  5
5D7
100
AcDbEntity
  8
0
100
AcDbLine
 62
7
  6
CONTINUOUS
 10
427.9893913595
 20
281.9660366951
 11
427.6105052454
 21
282.5617813049
  0
LINE
  5
5D8
100
AcDbEntity
  8
0
100
AcDbLine
 62
7
  6
CONTINUOUS
 10
414.7283770027
 20
278.8383770762
 11
414.9809675046
 21
278.3915684102
  0
LINE
  5
5D9
100
AcDbEntity
  8
0
100
AcDbLine
 62
7
  6
CONTINUOUS
 10
424.9583024463
 20
277.3490152387
 11
424.7057112217
 21
277.7958238004
  0
LINE
  5
5DA
100
AcDbEntity
  8
0
100
AcDbLine
 62
7
  6
CONTINUOUS
 10
425.4583024463
 20
277.3490152387
 11
425.2057112217
 21
277.7958238004
  0
LINE
  5
5DB
100
AcDbEntity
  8
0
100
AcDbLine
 62
7
  6
CONTINUOUS
 10
424.8320061113
 20
279.8809301434
 11
424.5794163321
 21
280.3277386008
  0
LINE
  5
5DC
100
AcDbEntity
  8
0
100
AcDbLine
 62
7
  6
CONTINUOUS
 10
411.1921064873
 20
277.4979514955
 11
411.5709926127
 21
276.7532705767
  0
LINE
  5
5DD
100
AcDbEntity
  8
0
100
AcDbLine
 62
7
  6
CONTINUOUS
 10
415.7387397329
 20
278.5405045627
 11
415.4861492311
 21
279.1362493811
  0
LINE
  5
5DE
100
AcDbEntity
  8
0
100
AcDbLine
 62
7
  6
CONTINUOUS
 10
414.4757861395
 20
281.8171005426
 11
414.6020813905
 21
281.5192282377
  0
LINE
  5
5DF
100
AcDbEntity
  8
0
100
AcDbLine
 62
7
  6
CONTINUOUS
 10
446.4973469189
 20
310.944759923
 11
445.4973464421
 21
310.6894408045
  0
LINE
  5
5E0
100
AcDbEntity
  8
0
100
AcDbLine
 62
7
  6
CONTINUOUS
 10
434.7473463229
 20
314.5192281185
 11
430.4973464421
 21
314.5192281185
  0
LINE
  5
5E1
100
AcDbEntity
  8
0
100
AcDbLine
 62
7
  6
CONTINUOUS
 10
435.2473462037
 20
316.0511428295
 11
430.4973464421
 21
316.0511428295
  0
LINE
  5
5E2
100
AcDbEntity
  8
0
100
AcDbLine
 62
7
  6
CONTINUOUS
 10
457.4973464421
 20
319.6256112037
 11
452.9973464421
 21
319.6256112037
  0
LINE
  5
5E3
100
AcDbEntity
  8
0
100
AcDbLine
 62
7
  6
CONTINUOUS
 10
435.2473462037
 20
319.8809303222
 11
430.4973464421
 21
319.8809303222
  0
LINE
  5
5E4
100
AcDbEntity
  8
0
100
AcDbLine
 62
7
  6
CONTINUOUS
 10
457.4973464421
 20
321.1575259147
 11
451.4973464421
 21
321.1575259147
  0
LINE
  5
5E5
100
AcDbEntity
  8
0
100
AcDbLine
 62
7
  6
CONTINUOUS
 10
449.4973469189
 20
321.1575259147
 11
447.9973469189
 21
321.1575259147
  0
LINE
  5
5E6
100
AcDbEntity
  8
0
100
AcDbLine
 62
7
  6
CONTINUOUS
 10
441.9973469189
 20
321.1575259147
 11
440.4973462037
 21
321.1575259147
  0
LINE
  5
5E7
100
AcDbEntity
  8
0
100
AcDbLine
 62
7
  6
CONTINUOUS
 10
434.9973464421
 20
321.1575259147
 11
428.9973464421
 21
321.1575259147
  0
LINE
  5
5E8
100
AcDbEntity
  8
0
100
AcDbLine
 62
7
  6
CONTINUOUS
 10
436.2473466805
 20
320.9022067962
 11
434.9973464421
 21
321.1575259147
  0
LINE
  5
5E9
100
AcDbEntity
  8
0
100
AcDbLine
 62
7
  6
CONTINUOUS
 10
444.4973459652
 20
310.6894408045
 11
443.4973469189
 21
310.944759923
  0
LINE
  5
5EA
100
AcDbEntity
  8
0
100
AcDbLine
 62
7
  6
CONTINUOUS
 10
435.9973462037
 20
319.6256112037
 11
435.2473462037
 21
319.8809303222
  0
LINE
  5
5EB
100
AcDbEntity
  8
0
100
AcDbLine
 62
7
  6
CONTINUOUS
 10
452.9973464421
 20
301.285185474
 11
452.4973454884
 21
301.5405045925
  0
LINE
  5
5EC
100
AcDbEntity
  8
0
100
AcDbLine
 62
7
  6
CONTINUOUS
 10
457.9973473958
 20
300.0085898815
 11
456.9973454884
 21
300.5192281185
  0
LINE
  5
5ED
100
AcDbEntity
  8
0
100
AcDbLine
 62
7
  6
CONTINUOUS
 10
458.4973454884
 20
301.0298663555
 11
457.9973473958
 21
301.285185474
  0
LINE
  5
5EE
100
AcDbEntity
  8
0
100
AcDbLine
 62
7
  6
CONTINUOUS
 10
443.2473464421
 20
309.4128450556
 11
442.2473459652
 21
309.9234833596
  0
LINE
  5
5EF
100
AcDbEntity
  8
0
100
AcDbLine
 62
7
  6
CONTINUOUS
 10
453.4973473958
 20
295.4128450556
 11
452.2473464421
 21
296.1788024781
  0
LINE
  5
5F0
100
AcDbEntity
  8
0
100
AcDbLine
 62
7
  6
CONTINUOUS
 10
465.2473454884
 20
295.6681641964
 11
464.4973454884
 21
296.1788024781
  0
LINE
  5
5F1
100
AcDbEntity
  8
0
100
AcDbLine
 62
7
  6
CONTINUOUS
 10
443.4973469189
 20
310.944759923
 11
442.7473469189
 21
311.4553983389
  0
LINE
  5
5F2
100
AcDbEntity
  8
0
100
AcDbLine
 62
7
  6
CONTINUOUS
 10
466.2473473958
 20
296.434121686
 11
465.4973473958
 21
296.944759923
  0
LINE
  5
5F3
100
AcDbEntity
  8
0
100
AcDbLine
 62
7
  6
CONTINUOUS
 10
473.3141498536
 20
277.338376957
 11
474.0358382407
 21
276.8277386753
  0
LINE
  5
5F4
100
AcDbEntity
  8
0
100
AcDbLine
 62
7
  6
CONTINUOUS
 10
475.7009017501
 20
281.5936960159
 11
476.4225901372
 21
281.0830577789
  0
LINE
  5
5F5
100
AcDbEntity
  8
0
100
AcDbLine
 62
7
  6
CONTINUOUS
 10
476.9225901372
 20
281.0830577789
 11
476.2009017501
 21
281.5936960159
  0
LINE
  5
5F6
100
AcDbEntity
  8
0
100
AcDbLine
 62
7
  6
CONTINUOUS
 10
475.5565647334
 20
284.4873131691
 11
476.2782514687
 21
283.9766749321
  0
LINE
  5
5F7
100
AcDbEntity
  8
0
100
AcDbLine
 62
7
  6
CONTINUOUS
 10
476.7782514687
 20
283.9766749321
 11
476.0565647334
 21
284.4873131691
  0
LINE
  5
5F8
100
AcDbEntity
  8
0
100
AcDbLine
 62
7
  6
CONTINUOUS
 10
431.2473464421
 20
306.1362494407
 11
430.2473466805
 21
306.9022067962
  0
LINE
  5
5F9
100
AcDbEntity
  8
0
100
AcDbLine
 62
7
  6
CONTINUOUS
 10
442.4973464421
 20
306.1362494407
 11
441.4973459652
 21
306.9022067962
  0
LINE
  5
5FA
100
AcDbEntity
  8
0
100
AcDbLine
 62
7
  6
CONTINUOUS
 10
466.5302844659
 20
277.5085897623
 11
466.9632971678
 21
277.1681642113
  0
LINE
  5
5FB
100
AcDbEntity
  8
0
100
AcDbLine
 62
7
  6
CONTINUOUS
 10
469.8500490643
 20
280.2319940506
 11
470.2830617662
 21
279.8915685592
  0
LINE
  5
5FC
100
AcDbEntity
  8
0
100
AcDbLine
 62
7
  6
CONTINUOUS
 10
473.2471625555
 20
278.0192279993
 11
473.6801752574
 21
277.6788025079
  0
LINE
  5
5FD
100
AcDbEntity
  8
0
100
AcDbLine
 62
7
  6
CONTINUOUS
 10
474.1801752574
 20
277.6788025079
 11
473.7471625555
 21
278.0192279993
  0
LINE
  5
5FE
100
AcDbEntity
  8
0
100
AcDbLine
 62
7
  6
CONTINUOUS
 10
469.7057112217
 20
283.6362494407
 11
470.1387239236
 21
283.2958239494
  0
LINE
  5
5FF
100
AcDbEntity
  8
0
100
AcDbLine
 62
7
  6
CONTINUOUS
 10
476.0565647334
 20
280.7426322876
 11
476.4895774353
 21
280.4022067962
  0
LINE
  5
600
100
AcDbEntity
  8
0
100
AcDbLine
 62
7
  6
CONTINUOUS
 10
475.9122260649
 20
283.6362494407
 11
476.3452387668
 21
283.2958239494
  0
LINE
  5
601
100
AcDbEntity
  8
0
100
AcDbLine
 62
7
  6
CONTINUOUS
 10
430.4973464421
 20
305.1149729667
 11
429.9973462037
 21
305.6256112037
  0
LINE
  5
602
100
AcDbEntity
  8
0
100
AcDbLine
 62
7
  6
CONTINUOUS
 10
428.4893913595
 20
281.9660366951
 11
428.1105052454
 21
282.5617813049
  0
LINE
  5
603
100
AcDbEntity
  8
0
100
AcDbLine
 62
7
  6
CONTINUOUS
 10
425.3320061113
 20
279.8809301434
 11
425.0794163321
 21
280.3277386008
  0
LINE
  5
604
100
AcDbEntity
  8
0
100
AcDbLine
 62
7
  6
CONTINUOUS
 10
427.2316191312
 20
281.9660366951
 11
427.4842089104
 21
281.5192282377
  0
LINE
  5
605
100
AcDbEntity
  8
0
100
AcDbLine
 62
7
  6
CONTINUOUS
 10
430.6415941586
 20
277.3490152387
 11
430.1364117095
 21
278.2426322578
  0
LINE
  5
606
100
AcDbEntity
  8
0
100
AcDbLine
 62
7
  6
CONTINUOUS
 10
431.1415941586
 20
277.3490152387
 11
430.6364117095
 21
278.2426322578
  0
LINE
  5
607
100
AcDbEntity
  8
0
100
AcDbLine
 62
7
  6
CONTINUOUS
 10
432.662319619
 20
281.9660366951
 11
433.1675006228
 21
281.0724193631
  0
LINE
  5
608
100
AcDbEntity
  8
0
100
AcDbLine
 62
7
  6
CONTINUOUS
 10
416.2387397329
 20
278.5405045627
 11
415.9861492311
 21
279.1362493811
  0
LINE
  5
609
100
AcDbEntity
  8
0
100
AcDbLine
 62
7
  6
CONTINUOUS
 10
411.9498786817
 20
277.6468876479
 11
411.8235833404
 21
278.0936961053
  0
LINE
  5
60A
100
AcDbEntity
  8
0
100
AcDbLine
 62
7
  6
CONTINUOUS
 10
412.4498786817
 20
277.6468876479
 11
412.3235833404
 21
278.0936961053
  0
LINE
  5
60B
100
AcDbEntity
  8
0
100
AcDbLine
 62
7
  6
CONTINUOUS
 10
412.3287647959
 20
280.6256109057
 11
412.2024694546
 21
281.0724193631
  0
LINE
  5
60C
100
AcDbEntity
  8
0
100
AcDbLine
 62
7
  6
CONTINUOUS
 10
412.8287647959
 20
280.6256109057
 11
412.7024694546
 21
281.0724193631
  0
LINE
  5
60D
100
AcDbEntity
  8
0
100
AcDbLine
 62
7
  6
CONTINUOUS
 10
415.3598536188
 20
281.5192282377
 11
415.2335583678
 21
281.9660366951
  0
LINE
  5
60E
100
AcDbEntity
  8
0
100
AcDbLine
 62
7
  6
CONTINUOUS
 10
415.8598536188
 20
281.5192282377
 11
415.7335583678
 21
281.9660366951
  0
LINE
  5
60F
100
AcDbEntity
  8
KONSTRUKTIONSELEMENTE
100
AcDbLine
 62
7
  6
CONTINUOUS
 10
399.9973464421
 20
270.6575259147
 11
399.9973464421
 21
290.6575259147
  0
LINE
  5
610
100
AcDbEntity
  8
0
100
AcDbLine
 62
7
  6
CONTINUOUS
 10
400.9973464421
 20
358.3177799526
 11
400.9973464421
 21
290.6575259147
  0
LINE
  5
611
100
AcDbEntity
  8
RUNDUNGEN
100
AcDbLine
 62
7
  6
CONTINUOUS
 10
409.8030601807
 20
404.951908371
 11
405.7207382649
 21
399.1217484642
  0
LINE
  5
612
100
AcDbEntity
  8
RUNDUNGEN
100
AcDbLine
 62
7
  6
CONTINUOUS
 10
473.0642308435
 20
331.6575259147
 11
416.9304620407
 21
331.6575259147
  0
LINE
  5
613
100
AcDbEntity
  8
0
100
AcDbLine
 62
7
  6
CONTINUOUS
 10
458.7473473958
 20
320.9022067962
 11
457.4973464421
 21
321.1575259147
  0
LINE
  5
614
100
AcDbEntity
  8
0
100
AcDbLine
 62
7
  6
CONTINUOUS
 10
458.4973454884
 20
319.3702920852
 11
457.4973464421
 21
319.6256112037
  0
LINE
  5
615
100
AcDbEntity
  8
0
100
AcDbLine
 62
7
  6
CONTINUOUS
 10
459.7473464421
 20
320.3915685592
 11
458.7473473958
 21
320.9022067962
  0
LINE
  5
616
100
AcDbEntity
  8
0
100
AcDbLine
 62
7
  6
CONTINUOUS
 10
458.4973454884
 20
306.1362494407
 11
457.2473473958
 21
306.9022067962
  0
LINE
  5
617
100
AcDbEntity
  8
0
100
AcDbLine
 62
7
  6
CONTINUOUS
 10
453.9973454884
 20
302.0511428295
 11
452.9973464421
 21
302.817100185
  0
LINE
  5
618
100
AcDbEntity
  8
0
100
AcDbLine
 62
7
  6
CONTINUOUS
 10
459.4973473958
 20
300.263909
 11
458.4973454884
 21
301.0298663555
  0
LINE
  5
619
100
AcDbEntity
  8
0
100
AcDbLine
 62
7
  6
CONTINUOUS
 10
437.2473464421
 20
320.1362494407
 11
436.2473466805
 21
320.9022067962
  0
LINE
  5
61A
100
AcDbEntity
  8
0
100
AcDbLine
 62
7
  6
CONTINUOUS
 10
457.9973473958
 20
304.8596538482
 11
456.9973454884
 21
305.6256112037
  0
LINE
  5
61B
100
AcDbEntity
  8
0
100
AcDbLine
 62
7
  6
CONTINUOUS
 10
441.7473464421
 20
305.1149729667
 11
441.2473469189
 21
305.6256112037
  0
LINE
  5
61C
100
AcDbEntity
  8
0
100
AcDbLine
 62
7
  6
CONTINUOUS
 10
452.2473464421
 20
296.1788024781
 11
451.4973464421
 21
296.944759923
  0
LINE
  5
61D
100
AcDbEntity
  8
0
100
AcDbLine
 62
7
  6
CONTINUOUS
 10
442.2473459652
 20
309.9234833596
 11
441.2473469189
 21
310.944759923
  0
LINE
  5
61E
100
AcDbEntity
  8
0
100
AcDbLine
 62
7
  6
CONTINUOUS
 10
452.4973454884
 20
301.5405045925
 11
451.7473454884
 21
302.306461948
  0
LINE
  5
61F
100
AcDbEntity
  8
0
100
AcDbLine
 62
7
  6
CONTINUOUS
 10
436.4973464421
 20
319.1149729667
 11
435.9973462037
 21
319.6256112037
  0
LINE
  5
620
100
AcDbEntity
  8
0
100
AcDbLine
 62
7
  6
CONTINUOUS
 10
466.4632971678
 20
278.1894408641
 11
466.751972853
 21
277.8490152536
  0
LINE
  5
621
100
AcDbEntity
  8
0
100
AcDbLine
 62
7
  6
CONTINUOUS
 10
467.251972853
 20
277.8490152536
 11
466.9632971678
 21
278.1894408641
  0
LINE
  5
622
100
AcDbEntity
  8
0
100
AcDbLine
 62
7
  6
CONTINUOUS
 10
431.9973464421
 20
305.1149729667
 11
431.2473464421
 21
306.1362494407
  0
LINE
  5
623
100
AcDbEntity
  8
0
100
AcDbLine
 62
7
  6
CONTINUOUS
 10
443.2473464421
 20
305.1149729667
 11
442.4973464421
 21
306.1362494407
  0
LINE
  5
624
100
AcDbEntity
  8
0
100
AcDbLine
 62
7
  6
CONTINUOUS
 10
429.6312307058
 20
277.7958238004
 11
429.8838219303
 21
277.2000790862
  0
LINE
  5
625
100
AcDbEntity
  8
0
100
AcDbLine
 62
7
  6
CONTINUOUS
 10
433.6726830719
 20
281.5192282377
 11
433.4200918473
 21
282.1149728475
  0
LINE
  5
626
100
AcDbEntity
  8
0
100
AcDbLine
 62
7
  6
CONTINUOUS
 10
434.1726830719
 20
281.5192282377
 11
433.9200918473
 21
282.1149728475
  0
LINE
  5
627
100
AcDbEntity
  8
0
100
AcDbLine
 62
7
  6
CONTINUOUS
 10
423.8216441038
 20
280.6256109057
 11
424.074233883
 21
279.8809301434
  0
LINE
  5
628
100
AcDbEntity
  8
0
100
AcDbLine
 62
7
  6
CONTINUOUS
 10
428.2419811387
 20
281.2213555155
 11
427.9893913595
 21
281.9660366951
  0
LINE
  5
629
100
AcDbEntity
  8
0
100
AcDbLine
 62
7
  6
CONTINUOUS
 10
428.7419811387
 20
281.2213555155
 11
428.4893913595
 21
281.9660366951
  0
LINE
  5
62A
100
AcDbEntity
  8
0
100
AcDbLine
 62
7
  6
CONTINUOUS
 10
424.074233883
 20
277.7958238004
 11
424.200530218
 21
277.3490152387
  0
LINE
  5
62B
100
AcDbEntity
  8
0
100
AcDbLine
 62
7
  6
CONTINUOUS
 10
424.5794163321
 20
280.3277386008
 11
424.4531199972
 21
280.7745470582
  0
LINE
  5
62C
100
AcDbEntity
  8
0
100
AcDbLine
 62
7
  6
CONTINUOUS
 10
425.0794163321
 20
280.3277386008
 11
424.9531199972
 21
280.7745470582
  0
LINE
  5
62D
100
AcDbEntity
  8
0
100
AcDbLine
 62
7
  6
CONTINUOUS
 10
411.0658111121
 20
278.0936961053
 11
411.1921064873
 21
277.4979514955
  0
LINE
  5
62E
100
AcDbEntity
  8
0
100
AcDbLine
 62
7
  6
CONTINUOUS
 10
411.4446972263
 20
280.9234832106
 11
411.5709926127
 21
280.3277386008
  0
LINE
  5
62F
100
AcDbEntity
  8
KONSTRUKTIONSELEMENTE
100
AcDbLine
 62
7
  6
CONTINUOUS
 10
403.3948060636
 20
270.6575259147
 11
403.3948060636
 21
290.6575259147
  0
LINE
  5
630
100
AcDbEntity
  8
RUNDUNGEN
100
AcDbLine
 62
7
  6
CONTINUOUS
 10
404.9973464421
 20
367.2749531312
 11
404.9973464421
 21
396.8274427188
  0
LINE
  5
631
100
AcDbEntity
  8
0
100
AcDbLine
 62
7
  6
CONTINUOUS
 10
407.3419018759
 20
285.6575259147
 11
407.3419018759
 21
273.6575259147
  0
LINE
  5
632
100
AcDbEntity
  8
0
100
AcDbLine
 62
7
  6
CONTINUOUS
 10
407.8419018759
 20
285.6575259147
 11
407.8419018759
 21
273.6575259147
  0
LINE
  5
633
100
AcDbEntity
  8
0
100
AcDbLine
 62
7
  6
CONTINUOUS
 10
411.4446972263
 20
281.5192282377
 11
411.4446972263
 21
280.9234832106
  0
LINE
  5
634
100
AcDbEntity
  8
0
100
AcDbLine
 62
7
  6
CONTINUOUS
 10
412.2024694546
 20
281.0724193631
 11
412.2024694546
 21
281.370291668
  0
LINE
  5
635
100
AcDbEntity
  8
0
100
AcDbLine
 62
7
  6
CONTINUOUS
 10
412.7024694546
 20
281.0724193631
 11
412.7024694546
 21
281.370291668
  0
LINE
  5
636
100
AcDbEntity
  8
0
100
AcDbLine
 62
7
  6
CONTINUOUS
 10
459.2473454884
 20
318.8596538482
 11
458.4973454884
 21
319.3702920852
  0
LINE
  5
637
100
AcDbEntity
  8
0
100
AcDbLine
 62
7
  6
CONTINUOUS
 10
459.2473454884
 20
305.3702920852
 11
458.4973454884
 21
306.1362494407
  0
LINE
  5
638
100
AcDbEntity
  8
0
100
AcDbLine
 62
7
  6
CONTINUOUS
 10
469.9273987829
 20
284.1468876777
 11
470.5047493274
 21
283.4660366951
  0
LINE
  5
639
100
AcDbEntity
  8
0
100
AcDbLine
 62
7
  6
CONTINUOUS
 10
471.0047493274
 20
283.4660366951
 11
470.4273987829
 21
284.1468876777
  0
LINE
  5
63A
100
AcDbEntity
  8
0
100
AcDbLine
 62
7
  6
CONTINUOUS
 10
476.4225901372
 20
281.0830577789
 11
476.8556028391
 21
280.5724195419
  0
LINE
  5
63B
100
AcDbEntity
  8
0
100
AcDbLine
 62
7
  6
CONTINUOUS
 10
477.3556028391
 20
280.5724195419
 11
476.9225901372
 21
281.0830577789
  0
LINE
  5
63C
100
AcDbEntity
  8
0
100
AcDbLine
 62
7
  6
CONTINUOUS
 10
476.4895774353
 20
280.4022067962
 11
476.7782514687
 21
280.0617813049
  0
LINE
  5
63D
100
AcDbEntity
  8
0
100
AcDbLine
 62
7
  6
CONTINUOUS
 10
452.9973464421
 20
297.2000790415
 11
452.2473464421
 21
298.2213556944
  0
LINE
  5
63E
100
AcDbEntity
  8
0
100
AcDbLine
 62
7
  6
CONTINUOUS
 10
437.9973464421
 20
319.1149729667
 11
437.2473464421
 21
320.1362494407
  0
LINE
  5
63F
100
AcDbEntity
  8
0
100
AcDbLine
 62
7
  6
CONTINUOUS
 10
458.7473473958
 20
298.9873130499
 11
457.9973473958
 21
300.0085898815
  0
LINE
  5
640
100
AcDbEntity
  8
0
100
AcDbLine
 62
7
  6
CONTINUOUS
 10
442.7473469189
 20
311.4553983389
 11
442.2473459652
 21
312.2213556944
  0
LINE
  5
641
100
AcDbEntity
  8
0
100
AcDbLine
 62
7
  6
CONTINUOUS
 10
452.9973464421
 20
302.817100185
 11
452.4973454884
 21
303.5830575405
  0
LINE
  5
642
100
AcDbEntity
  8
0
100
AcDbLine
 62
7
  6
CONTINUOUS
 10
441.2473469189
 20
310.944759923
 11
440.7473466805
 21
311.9660365759
  0
LINE
  5
643
100
AcDbEntity
  8
0
100
AcDbLine
 62
7
  6
CONTINUOUS
 10
430.7473462037
 20
304.3490156112
 11
430.4973464421
 21
305.1149729667
  0
LINE
  5
644
100
AcDbEntity
  8
0
100
AcDbLine
 62
7
  6
CONTINUOUS
 10
432.2473462037
 20
304.3490156112
 11
431.9973464421
 21
305.1149729667
  0
LINE
  5
645
100
AcDbEntity
  8
0
100
AcDbLine
 62
7
  6
CONTINUOUS
 10
427.4842089104
 20
281.5192282377
 11
427.6105052454
 21
281.0724193631
  0
LINE
  5
646
100
AcDbEntity
  8
0
100
AcDbLine
 62
7
  6
CONTINUOUS
 10
429.5049358162
 20
278.2426322578
 11
429.6312307058
 21
277.7958238004
  0
LINE
  5
647
100
AcDbEntity
  8
0
100
AcDbLine
 62
7
  6
CONTINUOUS
 10
433.7989779615
 20
281.0724193631
 11
433.6726830719
 21
281.5192282377
  0
LINE
  5
648
100
AcDbEntity
  8
0
100
AcDbLine
 62
7
  6
CONTINUOUS
 10
434.2989779615
 20
281.0724193631
 11
434.1726830719
 21
281.5192282377
  0
LINE
  5
649
100
AcDbEntity
  8
0
100
AcDbLine
 62
7
  6
CONTINUOUS
 10
421.2957361943
 20
277.7958238004
 11
420.2853734641
 21
283.1575259147
  0
LINE
  5
64A
100
AcDbEntity
  8
0
100
AcDbLine
 62
7
  6
CONTINUOUS
 10
421.5100219378
 20
279.3120265338
 11
420.7853734641
 21
283.1575259147
  0
LINE
  5
64B
100
AcDbEntity
  8
0
100
AcDbLine
 62
7
  6
CONTINUOUS
 10
419.7801917377
 20
281.8171005426
 11
420.7905544679
 21
276.1575259147
  0
LINE
  5
64C
100
AcDbEntity
  8
0
100
AcDbLine
 62
7
  6
CONTINUOUS
 10
416.7491028245
 20
283.1575259147
 11
417.7594655547
 21
276.1575259147
  0
LINE
  5
64D
100
AcDbEntity
  8
0
100
AcDbLine
 62
7
  6
CONTINUOUS
 10
418.2646472811
 20
277.7958238004
 11
417.5068750528
 21
283.1575259147
  0
LINE
  5
64E
100
AcDbEntity
  8
0
100
AcDbLine
 62
7
  6
CONTINUOUS
 10
418.5503615376
 20
279.3120265338
 11
418.0068750528
 21
283.1575259147
  0
LINE
  5
64F
100
AcDbEntity
  8
0
100
AcDbLine
 62
7
  6
CONTINUOUS
 10
414.9809675046
 20
278.3915684102
 11
414.9809675046
 21
277.9447599528
  0
LINE
  5
650
100
AcDbEntity
  8
0
100
AcDbLine
 62
7
  6
CONTINUOUS
 10
415.7387397329
 20
277.7958238004
 11
415.7387397329
 21
278.5405045627
  0
LINE
  5
651
100
AcDbEntity
  8
0
100
AcDbLine
 62
7
  6
CONTINUOUS
 10
416.2387397329
 20
277.7958238004
 11
416.2387397329
 21
278.5405045627
  0
LINE
  5
652
100
AcDbEntity
  8
0
100
AcDbLine
 62
7
  6
CONTINUOUS
 10
422.9973464421
 20
307.1575259147
 11
422.9973464421
 21
295.1575259147
  0
LINE
  5
653
100
AcDbEntity
  8
0
100
AcDbLine
 62
7
  6
CONTINUOUS
 10
423.8216441038
 20
281.2213555155
 11
423.8216441038
 21
280.6256109057
  0
LINE
  5
654
100
AcDbEntity
  8
RUNDUNGEN
100
AcDbLine
 62
7
  6
CONTINUOUS
 10
404.327473461
 20
365.4254751072
 11
401.6672194232
 21
360.8177799526
  0
LINE
  5
655
100
AcDbEntity
  8
0
100
AcDbLine
 62
7
  6
CONTINUOUS
 10
460.7473454884
 20
319.3702920852
 11
459.7473464421
 21
320.3915685592
  0
LINE
  5
656
100
AcDbEntity
  8
0
100
AcDbLine
 62
7
  6
CONTINUOUS
 10
458.4973454884
 20
304.0936957775
 11
457.9973473958
 21
304.8596538482
  0
LINE
  5
657
100
AcDbEntity
  8
0
100
AcDbLine
 62
7
  6
CONTINUOUS
 10
472.8811371517
 20
278.0192279993
 11
473.3141498536
 21
277.338376957
  0
LINE
  5
658
100
AcDbEntity
  8
0
100
AcDbLine
 62
7
  6
CONTINUOUS
 10
476.2782514687
 20
283.9766749321
 11
476.7112641706
 21
283.2958239494
  0
LINE
  5
659
100
AcDbEntity
  8
0
100
AcDbLine
 62
7
  6
CONTINUOUS
 10
477.2112641706
 20
283.2958239494
 11
476.7782514687
 21
283.9766749321
  0
LINE
  5
65A
100
AcDbEntity
  8
0
100
AcDbLine
 62
7
  6
CONTINUOUS
 10
466.2416096066
 20
278.0192279993
 11
466.5302844659
 21
277.5085897623
  0
LINE
  5
65B
100
AcDbEntity
  8
0
100
AcDbLine
 62
7
  6
CONTINUOUS
 10
470.3604114848
 20
280.4022067962
 11
470.64908717
 21
279.8915685592
  0
LINE
  5
65C
100
AcDbEntity
  8
0
100
AcDbLine
 62
7
  6
CONTINUOUS
 10
471.14908717
 20
279.8915685592
 11
470.8604114848
 21
280.4022067962
  0
LINE
  5
65D
100
AcDbEntity
  8
0
100
AcDbLine
 62
7
  6
CONTINUOUS
 10
470.1387239236
 20
283.2958239494
 11
470.4273987829
 21
282.7851857124
  0
LINE
  5
65E
100
AcDbEntity
  8
0
100
AcDbLine
 62
7
  6
CONTINUOUS
 10
472.9584885221
 20
278.5298663555
 11
473.2471625555
 21
278.0192279993
  0
LINE
  5
65F
100
AcDbEntity
  8
0
100
AcDbLine
 62
7
  6
CONTINUOUS
 10
473.7471625555
 20
278.0192279993
 11
473.4584885221
 21
278.5298663555
  0
LINE
  5
660
100
AcDbEntity
  8
0
100
AcDbLine
 62
7
  6
CONTINUOUS
 10
451.7473454884
 20
302.306461948
 11
451.2473473958
 21
303.327738422
  0
LINE
  5
661
100
AcDbEntity
  8
0
100
AcDbLine
 62
7
  6
CONTINUOUS
 10
451.4973464421
 20
296.944759923
 11
450.9973454884
 21
298.2213556944
  0
LINE
  5
662
100
AcDbEntity
  8
0
100
AcDbLine
 62
7
  6
CONTINUOUS
 10
438.4973466805
 20
309.1575259147
 11
436.2473466805
 21
315.0298663555
  0
LINE
  5
663
100
AcDbEntity
  8
0
100
AcDbLine
 62
7
  6
CONTINUOUS
 10
436.7473462037
 20
309.1575259147
 11
434.7473463229
 21
314.5192281185
  0
LINE
  5
664
100
AcDbEntity
  8
0
100
AcDbLine
 62
7
  6
CONTINUOUS
 10
436.7473462037
 20
318.3490156112
 11
436.4973464421
 21
319.1149729667
  0
LINE
  5
665
100
AcDbEntity
  8
0
100
AcDbLine
 62
7
  6
CONTINUOUS
 10
441.9973469189
 20
304.3490156112
 11
441.7473464421
 21
305.1149729667
  0
LINE
  5
666
100
AcDbEntity
  8
0
100
AcDbLine
 62
7
  6
CONTINUOUS
 10
438.2473462037
 20
318.3490156112
 11
437.9973464421
 21
319.1149729667
  0
LINE
  5
667
100
AcDbEntity
  8
0
100
AcDbLine
 62
7
  6
CONTINUOUS
 10
443.4973469189
 20
304.3490156112
 11
443.2473464421
 21
305.1149729667
  0
LINE
  5
668
100
AcDbEntity
  8
0
100
AcDbLine
 62
7
  6
CONTINUOUS
 10
429.3786394812
 20
278.9873132287
 11
429.5049358162
 21
278.2426322578
  0
LINE
  5
669
100
AcDbEntity
  8
0
100
AcDbLine
 62
7
  6
CONTINUOUS
 10
433.9252728511
 20
280.3277386008
 11
433.7989779615
 21
281.0724193631
  0
LINE
  5
66A
100
AcDbEntity
  8
0
100
AcDbLine
 62
7
  6
CONTINUOUS
 10
434.4252728511
 20
280.3277386008
 11
434.2989779615
 21
281.0724193631
  0
LINE
  5
66B
100
AcDbEntity
  8
0
100
AcDbLine
 62
7
  6
CONTINUOUS
 10
430.1364117095
 20
278.2426322578
 11
430.0101168199
 21
279.1362493811
  0
LINE
  5
66C
100
AcDbEntity
  8
0
100
AcDbLine
 62
7
  6
CONTINUOUS
 10
430.6364117095
 20
278.2426322578
 11
430.5101168199
 21
279.1362493811
  0
LINE
  5
66D
100
AcDbEntity
  8
0
100
AcDbLine
 62
7
  6
CONTINUOUS
 10
433.1675006228
 20
281.0724193631
 11
433.2937969577
 21
280.1788024483
  0
LINE
  5
66E
100
AcDbEntity
  8
0
100
AcDbLine
 62
7
  6
CONTINUOUS
 10
428.3682774737
 20
280.1788024483
 11
428.2419811387
 21
281.2213555155
  0
LINE
  5
66F
100
AcDbEntity
  8
0
100
AcDbLine
 62
7
  6
CONTINUOUS
 10
428.8682774737
 20
280.1788024483
 11
428.7419811387
 21
281.2213555155
  0
LINE
  5
670
100
AcDbEntity
  8
0
100
AcDbLine
 62
7
  6
CONTINUOUS
 10
424.4531199972
 20
280.7745470582
 11
424.4531199972
 21
281.0724193631
  0
LINE
  5
671
100
AcDbEntity
  8
0
100
AcDbLine
 62
7
  6
CONTINUOUS
 10
424.4973464421
 20
305.8809303222
 11
424.4973464421
 21
302.0511428295
  0
LINE
  5
672
100
AcDbEntity
  8
0
100
AcDbLine
 62
7
  6
CONTINUOUS
 10
424.4973464421
 20
300.5192281185
 11
424.4973464421
 21
295.1575259147
  0
LINE
  5
673
100
AcDbEntity
  8
0
100
AcDbLine
 62
7
  6
CONTINUOUS
 10
424.9531199972
 20
280.7745470582
 11
424.9531199972
 21
281.0724193631
  0
LINE
  5
674
100
AcDbEntity
  8
0
100
AcDbLine
 62
7
  6
CONTINUOUS
 10
426.9973464421
 20
270.6575259147
 11
426.9973464421
 21
219.6575259147
  0
LINE
  5
675
100
AcDbEntity
  8
0
100
AcDbLine
 62
7
  6
CONTINUOUS
 10
427.6105052454
 20
281.0724193631
 11
427.6105052454
 21
280.7745470582
  0
LINE
  5
676
100
AcDbEntity
  8
0
100
AcDbLine
 62
7
  6
CONTINUOUS
 10
427.736800135
 20
279.434121686
 11
427.736800135
 21
279.1362493811
  0
LINE
  5
677
100
AcDbEntity
  8
0
100
AcDbLine
 62
7
  6
CONTINUOUS
 10
428.3682774737
 20
279.1362493811
 11
428.3682774737
 21
280.1788024483
  0
LINE
  5
678
100
AcDbEntity
  8
0
100
AcDbLine
 62
7
  6
CONTINUOUS
 10
428.8682774737
 20
279.1362493811
 11
428.8682774737
 21
280.1788024483
  0
LINE
  5
679
100
AcDbEntity
  8
0
100
AcDbLine
 62
7
  6
CONTINUOUS
 10
428.9973464421
 20
321.1575259147
 11
428.9973464421
 21
309.1575259147
  0
LINE
  5
67A
100
AcDbEntity
  8
0
100
AcDbLine
 62
7
  6
CONTINUOUS
 10
429.3786394812
 20
280.3277386008
 11
429.3786394812
 21
278.9873132287
  0
LINE
  5
67B
100
AcDbEntity
  8
0
100
AcDbLine
 62
7
  6
CONTINUOUS
 10
430.0101168199
 20
279.1362493811
 11
430.0101168199
 21
280.1788024483
  0
LINE
  5
67C
100
AcDbEntity
  8
0
100
AcDbLine
 62
7
  6
CONTINUOUS
 10
430.4973464421
 20
319.8809303222
 11
430.4973464421
 21
316.0511428295
  0
LINE
  5
67D
100
AcDbEntity
  8
0
100
AcDbLine
 62
7
  6
CONTINUOUS
 10
430.4973464421
 20
314.5192281185
 11
430.4973464421
 21
309.1575259147
  0
LINE
  5
67E
100
AcDbEntity
  8
0
100
AcDbLine
 62
7
  6
CONTINUOUS
 10
430.5101168199
 20
279.1362493811
 11
430.5101168199
 21
280.1788024483
  0
LINE
  5
67F
100
AcDbEntity
  8
0
100
AcDbLine
 62
7
  6
CONTINUOUS
 10
430.7473462037
 20
304.3490156112
 11
430.7473462037
 21
303.5830575405
  0
LINE
  5
680
100
AcDbEntity
  8
0
100
AcDbLine
 62
7
  6
CONTINUOUS
 10
432.2473462037
 20
304.3490156112
 11
432.2473462037
 21
303.327738422
  0
LINE
  5
681
100
AcDbEntity
  8
KONSTRUKTIONSELEMENTE
100
AcDbLine
 62
7
  6
CONTINUOUS
 10
432.9973464421
 20
524.6575259147
 11
432.9973464421
 21
485.0812493224
  0
LINE
  5
682
100
AcDbEntity
  8
KONSTRUKTIONSELEMENTE
100
AcDbLine
 62
7
  6
CONTINUOUS
 10
432.9973464421
 20
400.2351276087
 11
432.9973464421
 21
360.6575259147
  0
LINE
  5
683
100
AcDbEntity
  8
0
100
AcDbLine
 62
7
  6
CONTINUOUS
 10
433.2937969577
 20
280.1788024483
 11
433.2937969577
 21
279.1362493811
  0
LINE
  5
684
100
AcDbEntity
  8
0
100
AcDbLine
 62
7
  6
CONTINUOUS
 10
433.9252728511
 20
278.9873132287
 11
433.9252728511
 21
280.3277386008
  0
LINE
  5
685
100
AcDbEntity
  8
0
100
AcDbLine
 62
7
  6
CONTINUOUS
 10
434.2473464421
 20
307.1575259147
 11
434.2473464421
 21
295.1575259147
  0
LINE
  5
686
100
AcDbEntity
  8
0
100
AcDbLine
 62
7
  6
CONTINUOUS
 10
434.4252728511
 20
278.9873132287
 11
434.4252728511
 21
280.3277386008
  0
LINE
  5
687
100
AcDbEntity
  8
0
100
AcDbLine
 62
7
  6
CONTINUOUS
 10
422.0535084226
 20
283.1575259147
 11
421.2957361943
 21
277.7958238004
  0
LINE
  5
688
100
AcDbEntity
  8
0
100
AcDbLine
 62
7
  6
CONTINUOUS
 10
411.5709926127
 20
282.1149728475
 11
411.4446972263
 21
281.5192282377
  0
LINE
  5
689
100
AcDbEntity
  8
KONSTRUKTIONSELEMENTE
100
AcDbLine
 62
7
  6
CONTINUOUS
 10
432.9972725396
 20
400.2290468765
 11
436.9973464421
 21
415.1575259147
  0
LINE
  5
68A
100
AcDbEntity
  8
KONSTRUKTIONSELEMENTE
100
AcDbLine
 62
7
  6
CONTINUOUS
 10
456.9974208334
 20
485.0860067773
 11
452.9973464421
 21
470.1575259147
  0
LINE
  5
68B
100
AcDbEntity
  8
0
100
AcDbLine
 62
7
  6
CONTINUOUS
 10
459.7473464421
 20
318.0936957775
 11
459.2473454884
 21
318.8596538482
  0
LINE
  5
68C
100
AcDbEntity
  8
0
100
AcDbLine
 62
7
  6
CONTINUOUS
 10
476.3452387668
 20
283.2958239494
 11
476.633914452
 21
282.7851857124
  0
LINE
  5
68D
100
AcDbEntity
  8
0
100
AcDbLine
 62
7
  6
CONTINUOUS
 10
464.4973454884
 20
296.1788024781
 11
463.9973473958
 21
297.2000790415
  0
LINE
  5
68E
100
AcDbEntity
  8
0
100
AcDbLine
 62
7
  6
CONTINUOUS
 10
461.2473464421
 20
318.3490156112
 11
460.7473454884
 21
319.3702920852
  0
LINE
  5
68F
100
AcDbEntity
  8
0
100
AcDbLine
 62
7
  6
CONTINUOUS
 10
466.3189601511
 20
278.5298663555
 11
466.4632971678
 21
278.1894408641
  0
LINE
  5
690
100
AcDbEntity
  8
0
100
AcDbLine
 62
7
  6
CONTINUOUS
 10
466.9632971678
 20
278.1894408641
 11
466.8189601511
 21
278.5298663555
  0
LINE
  5
691
100
AcDbEntity
  8
0
100
AcDbLine
 62
7
  6
CONTINUOUS
 10
470.2830617662
 20
279.8915685592
 11
470.5717366255
 21
279.2107173381
  0
LINE
  5
692
100
AcDbEntity
  8
0
100
AcDbLine
 62
7
  6
CONTINUOUS
 10
459.9973454884
 20
298.9873130499
 11
459.4973473958
 21
300.263909
  0
LINE
  5
693
100
AcDbEntity
  8
0
100
AcDbLine
 62
7
  6
CONTINUOUS
 10
459.7473464421
 20
304.0936957775
 11
459.2473454884
 21
305.3702920852
  0
LINE
  5
694
100
AcDbEntity
  8
0
100
AcDbLine
 62
7
  6
CONTINUOUS
 10
458.8803936744
 20
282.9553984581
 11
460.9011195478
 21
276.6575259147
  0
LINE
  5
695
100
AcDbEntity
  8
0
100
AcDbLine
 62
7
  6
CONTINUOUS
 10
458.8134063763
 20
284.6575259147
 11
460.9784698858
 21
277.5085897623
  0
LINE
  5
696
100
AcDbEntity
  8
0
100
AcDbLine
 62
7
  6
CONTINUOUS
 10
461.4784698858
 20
277.5085897623
 11
459.3134063763
 21
284.6575259147
  0
LINE
  5
697
100
AcDbEntity
  8
0
100
AcDbLine
 62
7
  6
CONTINUOUS
 10
442.2473459652
 20
312.2213556944
 11
441.9973469189
 21
313.2426321684
  0
LINE
  5
698
100
AcDbEntity
  8
0
100
AcDbLine
 62
7
  6
CONTINUOUS
 10
440.7473466805
 20
311.9660365759
 11
440.4973462037
 21
313.2426321684
  0
LINE
  5
699
100
AcDbEntity
  8
0
100
AcDbLine
 62
7
  6
CONTINUOUS
 10
435.7473464421
 20
305.8809303222
 11
435.7473464421
 21
302.0511428295
  0
LINE
  5
69A
100
AcDbEntity
  8
0
100
AcDbLine
 62
7
  6
CONTINUOUS
 10
435.7473464421
 20
300.5192281185
 11
435.7473464421
 21
295.1575259147
  0
LINE
  5
69B
100
AcDbEntity
  8
0
100
AcDbLine
 62
7
  6
CONTINUOUS
 10
436.7473462037
 20
318.3490156112
 11
436.7473462037
 21
317.5830575405
  0
LINE
  5
69C
100
AcDbEntity
  8
KONSTRUKTIONSELEMENTE
100
AcDbLine
 62
7
  6
CONTINUOUS
 10
436.9973464421
 20
470.1575259147
 11
436.9973464421
 21
415.1575259147
  0
LINE
  5
69D
100
AcDbEntity
  8
0
100
AcDbLine
 62
7
  6
CONTINUOUS
 10
437.6527910083
 20
273.6575259147
 11
437.6527910083
 21
285.6575259147
  0
LINE
  5
69E
100
AcDbEntity
  8
0
100
AcDbLine
 62
7
  6
CONTINUOUS
 10
438.2473462037
 20
318.3490156112
 11
438.2473462037
 21
317.327738422
  0
LINE
  5
69F
100
AcDbEntity
  8
0
100
AcDbLine
 62
7
  6
CONTINUOUS
 10
440.4973462037
 20
321.1575259147
 11
440.4973462037
 21
313.2426321684
  0
LINE
  5
6A0
100
AcDbEntity
  8
KONSTRUKTIONSELEMENTE
100
AcDbLine
 62
7
  6
CONTINUOUS
 10
441.5998868205
 20
270.6575259147
 11
441.5998868205
 21
290.6575259147
  0
LINE
  5
6A1
100
AcDbEntity
  8
0
100
AcDbLine
 62
7
  6
CONTINUOUS
 10
441.9973469189
 20
321.1575259147
 11
441.9973469189
 21
313.2426321684
  0
LINE
  5
6A2
100
AcDbEntity
  8
0
100
AcDbLine
 62
7
  6
CONTINUOUS
 10
441.9973469189
 20
304.3490156112
 11
441.9973469189
 21
303.5830575405
  0
LINE
  5
6A3
100
AcDbEntity
  8
0
100
AcDbLine
 62
7
  6
CONTINUOUS
 10
443.4973469189
 20
304.3490156112
 11
443.4973469189
 21
303.327738422
  0
LINE
  5
6A4
100
AcDbEntity
  8
0
100
AcDbLine
 62
7
  6
CONTINUOUS
 10
445.4973464421
 20
300.774547237
 11
445.4973464421
 21
299.4979512869
  0
LINE
  5
6A5
100
AcDbEntity
  8
0
100
AcDbLine
 62
7
  6
CONTINUOUS
 10
428.2419811387
 20
278.0936961053
 11
428.3682774737
 21
279.1362493811
  0
LINE
  5
6A6
100
AcDbEntity
  8
0
100
AcDbLine
 62
7
  6
CONTINUOUS
 10
428.7419811387
 20
278.0936961053
 11
428.8682774737
 21
279.1362493811
  0
LINE
  5
6A7
100
AcDbEntity
  8
0
100
AcDbLine
 62
7
  6
CONTINUOUS
 10
427.736800135
 20
279.1362493811
 11
427.6105052454
 21
278.2426322578
  0
LINE
  5
6A8
100
AcDbEntity
  8
0
100
AcDbLine
 62
7
  6
CONTINUOUS
 10
430.0101168199
 20
280.1788024483
 11
430.1364117095
 21
281.0724193631
  0
LINE
  5
6A9
100
AcDbEntity
  8
0
100
AcDbLine
 62
7
  6
CONTINUOUS
 10
430.5101168199
 20
280.1788024483
 11
430.6364117095
 21
281.0724193631
  0
LINE
  5
6AA
100
AcDbEntity
  8
0
100
AcDbLine
 62
7
  6
CONTINUOUS
 10
421.8009179208
 20
276.1575259147
 11
422.811280651
 21
283.1575259147
  0
LINE
  5
6AB
100
AcDbEntity
  8
0
100
AcDbLine
 62
7
  6
CONTINUOUS
 10
422.3009179208
 20
276.1575259147
 11
423.311280651
 21
283.1575259147
  0
LINE
  5
6AC
100
AcDbEntity
  8
0
100
AcDbLine
 62
7
  6
CONTINUOUS
 10
429.5049358162
 20
281.0724193631
 11
429.3786394812
 21
280.3277386008
  0
LINE
  5
6AD
100
AcDbEntity
  8
0
100
AcDbLine
 62
7
  6
CONTINUOUS
 10
418.7698290075
 20
276.1575259147
 11
419.7801917377
 21
281.8171005426
  0
LINE
  5
6AE
100
AcDbEntity
  8
0
100
AcDbLine
 62
7
  6
CONTINUOUS
 10
419.2698290075
 20
276.1575259147
 11
420.0301917377
 21
280.4167186652
  0
LINE
  5
6AF
100
AcDbEntity
  8
0
100
AcDbLine
 62
7
  6
CONTINUOUS
 10
419.2750100113
 20
283.1575259147
 11
418.2646472811
 21
277.7958238004
  0
LINE
  5
6B0
100
AcDbEntity
  8
0
100
AcDbLine
 62
7
  6
CONTINUOUS
 10
412.2024694546
 20
281.370291668
 11
412.3287647959
 21
281.8171005426
  0
LINE
  5
6B1
100
AcDbEntity
  8
0
100
AcDbLine
 62
7
  6
CONTINUOUS
 10
412.7024694546
 20
281.370291668
 11
412.8287647959
 21
281.8171005426
  0
LINE
  5
6B2
100
AcDbEntity
  8
0
100
AcDbLine
 62
7
  6
CONTINUOUS
 10
472.5924631183
 20
278.8702918468
 11
472.8811371517
 21
278.0192279993
  0
LINE
  5
6B3
100
AcDbEntity
  8
0
100
AcDbLine
 62
7
  6
CONTINUOUS
 10
476.8556028391
 20
280.5724195419
 11
477.1442768725
 21
279.7213558136
  0
LINE
  5
6B4
100
AcDbEntity
  8
0
100
AcDbLine
 62
7
  6
CONTINUOUS
 10
477.6442768725
 20
279.7213558136
 11
477.3556028391
 21
280.5724195419
  0
LINE
  5
6B5
100
AcDbEntity
  8
0
100
AcDbLine
 62
7
  6
CONTINUOUS
 10
465.4973473958
 20
296.944759923
 11
465.2473454884
 21
297.7107174574
  0
LINE
  5
6B6
100
AcDbEntity
  8
0
100
AcDbLine
 62
7
  6
CONTINUOUS
 10
466.097271764
 20
278.5298663555
 11
466.2416096066
 21
278.0192279993
  0
LINE
  5
6B7
100
AcDbEntity
  8
0
100
AcDbLine
 62
7
  6
CONTINUOUS
 10
472.8141498536
 20
279.0405045925
 11
472.9584885221
 21
278.5298663555
  0
LINE
  5
6B8
100
AcDbEntity
  8
0
100
AcDbLine
 62
7
  6
CONTINUOUS
 10
473.4584885221
 20
278.5298663555
 11
473.3141498536
 21
279.0405045925
  0
LINE
  5
6B9
100
AcDbEntity
  8
0
100
AcDbLine
 62
7
  6
CONTINUOUS
 10
459.9973454884
 20
317.0724193035
 11
459.7473464421
 21
318.0936957775
  0
LINE
  5
6BA
100
AcDbEntity
  8
0
100
AcDbLine
 62
7
  6
CONTINUOUS
 10
447.9973469189
 20
321.1575259147
 11
447.9973469189
 21
313.2426321684
  0
LINE
  5
6BB
100
AcDbEntity
  8
KONSTRUKTIONSELEMENTE
100
AcDbLine
 62
7
  6
CONTINUOUS
 10
448.3948060636
 20
270.6575259147
 11
448.3948060636
 21
290.6575259147
  0
LINE
  5
6BC
100
AcDbEntity
  8
0
100
AcDbLine
 62
7
  6
CONTINUOUS
 10
448.9973473958
 20
300.774547237
 11
448.9973473958
 21
299.4979512869
  0
LINE
  5
6BD
100
AcDbEntity
  8
0
100
AcDbLine
 62
7
  6
CONTINUOUS
 10
449.4973469189
 20
321.1575259147
 11
449.4973469189
 21
313.2426321684
  0
LINE
  5
6BE
100
AcDbEntity
  8
0
100
AcDbLine
 62
7
  6
CONTINUOUS
 10
450.9973454884
 20
298.2213556944
 11
450.9973454884
 21
298.9873130499
  0
LINE
  5
6BF
100
AcDbEntity
  8
0
100
AcDbLine
 62
7
  6
CONTINUOUS
 10
451.2473473958
 20
304.0936957775
 11
451.2473473958
 21
303.327738422
  0
LINE
  5
6C0
100
AcDbEntity
  8
0
100
AcDbLine
 62
7
  6
CONTINUOUS
 10
451.4973464421
 20
321.1575259147
 11
451.4973464421
 21
309.1575259147
  0
LINE
  5
6C1
100
AcDbEntity
  8
0
100
AcDbLine
 62
7
  6
CONTINUOUS
 10
452.2473464421
 20
298.9873130499
 11
452.2473464421
 21
298.2213556944
  0
LINE
  5
6C2
100
AcDbEntity
  8
0
100
AcDbLine
 62
7
  6
CONTINUOUS
 10
452.4973454884
 20
304.0936957775
 11
452.4973454884
 21
303.5830575405
  0
LINE
  5
6C3
100
AcDbEntity
  8
KONSTRUKTIONSELEMENTE
100
AcDbLine
 62
7
  6
CONTINUOUS
 10
452.9973464421
 20
470.1575259147
 11
452.9973464421
 21
415.1575259147
  0
LINE
  5
6C4
100
AcDbEntity
  8
0
100
AcDbLine
 62
7
  6
CONTINUOUS
 10
452.9973464421
 20
319.6256112037
 11
452.9973464421
 21
310.6894408045
  0
LINE
  5
6C5
100
AcDbEntity
  8
0
100
AcDbLine
 62
7
  6
CONTINUOUS
 10
453.9973464421
 20
465.1891468988
 11
453.9973464421
 21
453.1891468988
  0
LINE
  5
6C6
100
AcDbEntity
  8
0
100
AcDbLine
 62
7
  6
CONTINUOUS
 10
453.9973464421
 20
449.1891468988
 11
453.9973464421
 21
437.1891468988
  0
LINE
  5
6C7
100
AcDbEntity
  8
0
100
AcDbLine
 62
7
  6
CONTINUOUS
 10
453.9973464421
 20
434.1891468988
 11
453.9973464421
 21
422.1891468988
  0
LINE
  5
6C8
100
AcDbEntity
  8
KONSTRUKTIONSELEMENTE
100
AcDbLine
 62
7
  6
CONTINUOUS
 10
456.9973464421
 20
521.360570783
 11
456.9973464421
 21
519.9614011856
  0
LINE
  5
6C9
100
AcDbEntity
  8
KONSTRUKTIONSELEMENTE
100
AcDbLine
 62
7
  6
CONTINUOUS
 10
456.9973464421
 20
507.4261508893
 11
456.9973464421
 21
485.0798910288
  0
LINE
  5
6CA
100
AcDbEntity
  8
KONSTRUKTIONSELEMENTE
100
AcDbLine
 62
7
  6
CONTINUOUS
 10
456.9973464421
 20
400.2338007253
 11
456.9973464421
 21
360.6575259147
  0
LINE
  5
6CB
100
AcDbEntity
  8
0
100
AcDbLine
 62
7
  6
CONTINUOUS
 10
433.2937969577
 20
279.1362493811
 11
433.1675006228
 21
278.2426322578
  0
LINE
  5
6CC
100
AcDbEntity
  8
0
100
AcDbLine
 62
7
  6
CONTINUOUS
 10
433.7989779615
 20
278.2426322578
 11
433.9252728511
 21
278.9873132287
  0
LINE
  5
6CD
100
AcDbEntity
  8
0
100
AcDbLine
 62
7
  6
CONTINUOUS
 10
434.2989779615
 20
278.2426322578
 11
434.4252728511
 21
278.9873132287
  0
LINE
  5
6CE
100
AcDbEntity
  8
0
100
AcDbLine
 62
7
  6
CONTINUOUS
 10
424.4531199972
 20
281.0724193631
 11
424.5794163321
 21
281.5192282377
  0
LINE
  5
6CF
100
AcDbEntity
  8
0
100
AcDbLine
 62
7
  6
CONTINUOUS
 10
424.9531199972
 20
281.0724193631
 11
425.0794163321
 21
281.5192282377
  0
LINE
  5
6D0
100
AcDbEntity
  8
0
100
AcDbLine
 62
7
  6
CONTINUOUS
 10
427.6105052454
 20
280.7745470582
 11
427.4842089104
 21
280.3277386008
  0
LINE
  5
6D1
100
AcDbEntity
  8
0
100
AcDbLine
 62
7
  6
CONTINUOUS
 10
427.6105052454
 20
278.2426322578
 11
427.4842089104
 21
277.7958238004
  0
LINE
  5
6D2
100
AcDbEntity
  8
0
100
AcDbLine
 62
7
  6
CONTINUOUS
 10
429.6312307058
 20
281.5192282377
 11
429.5049358162
 21
281.0724193631
  0
LINE
  5
6D3
100
AcDbEntity
  8
0
100
AcDbLine
 62
7
  6
CONTINUOUS
 10
430.7473462037
 20
303.5830575405
 11
430.4973464421
 21
302.817100185
  0
LINE
  5
6D4
100
AcDbEntity
  8
0
100
AcDbLine
 62
7
  6
CONTINUOUS
 10
436.7473462037
 20
317.5830575405
 11
436.4973464421
 21
316.817100185
  0
LINE
  5
6D5
100
AcDbEntity
  8
0
100
AcDbLine
 62
7
  6
CONTINUOUS
 10
432.2473462037
 20
303.327738422
 11
431.9973464421
 21
302.5617810665
  0
LINE
  5
6D6
100
AcDbEntity
  8
0
100
AcDbLine
 62
7
  6
CONTINUOUS
 10
438.2473462037
 20
317.327738422
 11
437.9973464421
 21
316.5617810665
  0
LINE
  5
6D7
100
AcDbEntity
  8
0
100
AcDbLine
 62
7
  6
CONTINUOUS
 10
424.074233883
 20
281.9660366951
 11
423.8216441038
 21
281.2213555155
  0
LINE
  5
6D8
100
AcDbEntity
  8
0
100
AcDbLine
 62
7
  6
CONTINUOUS
 10
415.4861492311
 20
277.2000790862
 11
415.7387397329
 21
277.7958238004
  0
LINE
  5
6D9
100
AcDbEntity
  8
0
100
AcDbLine
 62
7
  6
CONTINUOUS
 10
415.9861492311
 20
277.2000790862
 11
416.2387397329
 21
277.7958238004
  0
LINE
  5
6DA
100
AcDbEntity
  8
0
100
AcDbLine
 62
7
  6
CONTINUOUS
 10
476.7782514687
 20
280.0617813049
 11
476.9225901372
 21
279.5511428295
  0
LINE
  5
6DB
100
AcDbEntity
  8
0
100
AcDbLine
 62
7
  6
CONTINUOUS
 10
476.7112641706
 20
283.2958239494
 11
476.8556028391
 21
282.7851857124
  0
LINE
  5
6DC
100
AcDbEntity
  8
0
100
AcDbLine
 62
7
  6
CONTINUOUS
 10
477.3556028391
 20
282.7851857124
 11
477.2112641706
 21
283.2958239494
  0
LINE
  5
6DD
100
AcDbEntity
  8
0
100
AcDbLine
 62
7
  6
CONTINUOUS
 10
470.64908717
 20
279.8915685592
 11
470.7934241867
 21
279.2107173381
  0
LINE
  5
6DE
100
AcDbEntity
  8
0
100
AcDbLine
 62
7
  6
CONTINUOUS
 10
471.2934241867
 20
279.2107173381
 11
471.14908717
 21
279.8915685592
  0
LINE
  5
6DF
100
AcDbEntity
  8
0
100
AcDbLine
 62
7
  6
CONTINUOUS
 10
470.5047493274
 20
283.4660366951
 11
470.64908717
 21
282.7851857124
  0
LINE
  5
6E0
100
AcDbEntity
  8
0
100
AcDbLine
 62
7
  6
CONTINUOUS
 10
471.14908717
 20
282.7851857124
 11
471.0047493274
 21
283.4660366951
  0
LINE
  5
6E1
100
AcDbEntity
  8
0
100
AcDbLine
 62
7
  6
CONTINUOUS
 10
461.4973454884
 20
317.0724193035
 11
461.2473464421
 21
318.3490156112
  0
LINE
  5
6E2
100
AcDbEntity
  8
BEZUGSACHSEN
100
AcDbLine
 62
7
  6
CONTINUOUS
 10
457.9973464421
 20
528.6748839849
 11
457.9973464421
 21
503.1604447564
  0
LINE
  5
6E3
100
AcDbEntity
  8
0
100
AcDbLine
 62
7
  6
CONTINUOUS
 10
458.0143682706
 20
284.6575259147
 11
458.0143682706
 21
276.6575259147
  0
LINE
  5
6E4
100
AcDbEntity
  8
0
100
AcDbLine
 62
7
  6
CONTINUOUS
 10
458.3803936744
 20
282.9553984581
 11
458.3803936744
 21
276.6575259147
  0
LINE
  5
6E5
100
AcDbEntity
  8
0
100
AcDbLine
 62
7
  6
CONTINUOUS
 10
458.4973454884
 20
304.0936957775
 11
458.4973454884
 21
303.5830575405
  0
LINE
  5
6E6
100
AcDbEntity
  8
0
100
AcDbLine
 62
7
  6
CONTINUOUS
 10
458.7473473958
 20
298.9873130499
 11
458.7473473958
 21
298.2213556944
  0
LINE
  5
6E7
100
AcDbEntity
  8
0
100
AcDbLine
 62
7
  6
CONTINUOUS
 10
458.8803936744
 20
276.6575259147
 11
458.8803936744
 21
282.9553984581
  0
LINE
  5
6E8
100
AcDbEntity
  8
0
100
AcDbLine
 62
7
  6
CONTINUOUS
 10
459.7473464421
 20
304.0936957775
 11
459.7473464421
 21
303.327738422
  0
LINE
  5
6E9
100
AcDbEntity
  8
0
100
AcDbLine
 62
7
  6
CONTINUOUS
 10
459.9973454884
 20
317.0724193035
 11
459.9973454884
 21
313.2426321684
  0
LINE
  5
6EA
100
AcDbEntity
  8
0
100
AcDbLine
 62
7
  6
CONTINUOUS
 10
459.9973454884
 20
298.2213556944
 11
459.9973454884
 21
298.9873130499
  0
LINE
  5
6EB
100
AcDbEntity
  8
0
100
AcDbLine
 62
7
  6
CONTINUOUS
 10
461.4973454884
 20
317.0724193035
 11
461.4973454884
 21
313.2426321684
  0
LINE
  5
6EC
100
AcDbEntity
  8
0
100
AcDbLine
 62
7
  6
CONTINUOUS
 10
461.9973464421
 20
303.327738422
 11
461.9973464421
 21
302.306461948
  0
LINE
  5
6ED
100
AcDbEntity
  8
0
100
AcDbLine
 62
7
  6
CONTINUOUS
 10
462.9973464421
 20
270.6575259147
 11
462.9973464421
 21
219.6575259147
  0
LINE
  5
6EE
100
AcDbEntity
  8
0
100
AcDbLine
 62
7
  6
CONTINUOUS
 10
463.9973473958
 20
305.3702920852
 11
463.9973473958
 21
303.327738422
  0
LINE
  5
6EF
100
AcDbEntity
  8
0
100
AcDbLine
 62
7
  6
CONTINUOUS
 10
463.9973473958
 20
302.306461948
 11
463.9973473958
 21
297.2000790415
  0
LINE
  5
6F0
100
AcDbEntity
  8
0
100
AcDbLine
 62
7
  6
CONTINUOUS
 10
464.0765460971
 20
282.9553984581
 11
464.0765460971
 21
276.6575259147
  0
LINE
  5
6F1
100
AcDbEntity
  8
0
100
AcDbLine
 62
7
  6
CONTINUOUS
 10
464.4425715009
 20
284.6575259147
 11
464.4425715009
 21
276.6575259147
  0
LINE
  5
6F2
100
AcDbEntity
  8
0
100
AcDbLine
 62
7
  6
CONTINUOUS
 10
464.9425715009
 20
276.6575259147
 11
464.9425715009
 21
284.6575259147
  0
LINE
  5
6F3
100
AcDbEntity
  8
0
100
AcDbLine
 62
7
  6
CONTINUOUS
 10
465.2473454884
 20
305.3702920852
 11
465.2473454884
 21
303.327738422
  0
LINE
  5
6F4
100
AcDbEntity
  8
0
100
AcDbLine
 62
7
  6
CONTINUOUS
 10
465.2473454884
 20
302.306461948
 11
465.2473454884
 21
297.7107174574
  0
LINE
  5
6F5
100
AcDbEntity
  8
0
100
AcDbLine
 62
7
  6
CONTINUOUS
 10
467.4973454884
 20
296.1788024781
 11
467.4973454884
 21
295.1575259147
  0
LINE
  5
6F6
100
AcDbEntity
  8
0
100
AcDbLine
 62
7
  6
CONTINUOUS
 10
467.9973464421
 20
303.327738422
 11
467.9973464421
 21
302.306461948
  0
LINE
  5
6F7
100
AcDbEntity
  8
0
100
AcDbLine
 62
7
  6
CONTINUOUS
 10
468.4066731161
 20
281.0830577789
 11
468.4066731161
 21
280.4022067962
  0
LINE
  5
6F8
100
AcDbEntity
  8
0
100
AcDbLine
 62
7
  6
CONTINUOUS
 10
449.4973469189
 20
313.2426321684
 11
449.2473464421
 21
311.9660365759
  0
LINE
  5
6F9
100
AcDbEntity
  8
0
100
AcDbLine
 62
7
  6
CONTINUOUS
 10
447.9973469189
 20
313.2426321684
 11
447.7473464421
 21
312.2213556944
  0
LINE
  5
6FA
100
AcDbEntity
  8
0
100
AcDbLine
 62
7
  6
CONTINUOUS
 10
433.6726830719
 20
277.7958238004
 11
433.7989779615
 21
278.2426322578
  0
LINE
  5
6FB
100
AcDbEntity
  8
0
100
AcDbLine
 62
7
  6
CONTINUOUS
 10
434.1726830719
 20
277.7958238004
 11
434.2989779615
 21
278.2426322578
  0
LINE
  5
6FC
100
AcDbEntity
  8
0
100
AcDbLine
 62
7
  6
CONTINUOUS
 10
441.9973469189
 20
303.5830575405
 11
441.7473464421
 21
302.817100185
  0
LINE
  5
6FD
100
AcDbEntity
  8
0
100
AcDbLine
 62
7
  6
CONTINUOUS
 10
443.4973469189
 20
303.327738422
 11
443.2473464421
 21
302.5617810665
  0
LINE
  5
6FE
100
AcDbEntity
  8
0
100
AcDbLine
 62
7
  6
CONTINUOUS
 10
427.9893913595
 20
277.3490152387
 11
428.2419811387
 21
278.0936961053
  0
LINE
  5
6FF
100
AcDbEntity
  8
0
100
AcDbLine
 62
7
  6
CONTINUOUS
 10
428.4893913595
 20
277.3490152387
 11
428.7419811387
 21
278.0936961053
  0
LINE
  5
700
100
AcDbEntity
  8
0
100
AcDbLine
 62
7
  6
CONTINUOUS
 10
429.8838219303
 20
282.1149728475
 11
429.6312307058
 21
281.5192282377
  0
LINE
  5
701
100
AcDbEntity
  8
0
100
AcDbLine
 62
7
  6
CONTINUOUS
 10
414.9809675046
 20
277.9447599528
 11
414.7283770027
 21
277.4979514955
  0
LINE
  5
702
100
AcDbEntity
  8
KONSTRUKTIONSELEMENTE
100
AcDbLine
 62
7
  6
CONTINUOUS
 10
436.9973464421
 20
470.1575259147
 11
432.9972888464
 21
485.0859440949
  0
LINE
  5
703
100
AcDbEntity
  8
KONSTRUKTIONSELEMENTE
100
AcDbLine
 62
7
  6
CONTINUOUS
 10
452.9973464421
 20
415.1575259147
 11
456.9974040164
 21
400.2291078144
  0
LINE
  5
704
100
AcDbEntity
  8
0
100
AcDbLine
 62
7
  6
CONTINUOUS
 10
472.4481244498
 20
280.0617813049
 11
472.5924631183
 21
278.8702918468
  0
LINE
  5
705
100
AcDbEntity
  8
0
100
AcDbLine
 62
7
  6
CONTINUOUS
 10
470.4273987829
 20
282.7851857124
 11
470.4273987829
 21
282.4447597442
  0
LINE
  5
706
100
AcDbEntity
  8
0
100
AcDbLine
 62
7
  6
CONTINUOUS
 10
470.5717366255
 20
279.2107173381
 11
470.5717366255
 21
278.5298663555
  0
LINE
  5
707
100
AcDbEntity
  8
0
100
AcDbLine
 62
7
  6
CONTINUOUS
 10
470.64908717
 20
282.7851857124
 11
470.64908717
 21
282.4447597442
  0
LINE
  5
708
100
AcDbEntity
  8
0
100
AcDbLine
 62
7
  6
CONTINUOUS
 10
470.7934241867
 20
279.2107173381
 11
470.7934241867
 21
278.5298663555
  0
LINE
  5
709
100
AcDbEntity
  8
0
100
AcDbLine
 62
7
  6
CONTINUOUS
 10
471.14908717
 20
282.4447597442
 11
471.14908717
 21
282.7851857124
  0
LINE
  5
70A
100
AcDbEntity
  8
0
100
AcDbLine
 62
7
  6
CONTINUOUS
 10
471.2934241867
 20
278.5298663555
 11
471.2934241867
 21
279.2107173381
  0
LINE
  5
70B
100
AcDbEntity
  8
0
100
AcDbLine
 62
7
  6
CONTINUOUS
 10
472.4481244498
 20
281.2532705246
 11
472.4481244498
 21
280.0617813049
  0
LINE
  5
70C
100
AcDbEntity
  8
0
100
AcDbLine
 62
7
  6
CONTINUOUS
 10
472.6698128369
 20
281.2532705246
 11
472.6698128369
 21
280.9128450332
  0
LINE
  5
70D
100
AcDbEntity
  8
0
100
AcDbLine
 62
7
  6
CONTINUOUS
 10
472.8141498536
 20
279.5511428295
 11
472.8141498536
 21
279.0405045925
  0
LINE
  5
70E
100
AcDbEntity
  8
0
100
AcDbLine
 62
7
  6
CONTINUOUS
 10
473.1698128369
 20
280.9128450332
 11
473.1698128369
 21
281.2532705246
  0
LINE
  5
70F
100
AcDbEntity
  8
0
100
AcDbLine
 62
7
  6
CONTINUOUS
 10
473.3141498536
 20
279.0405045925
 11
473.3141498536
 21
279.5511428295
  0
LINE
  5
710
100
AcDbEntity
  8
0
100
AcDbLine
 62
7
  6
CONTINUOUS
 10
476.9225901372
 20
279.5511428295
 11
476.9225901372
 21
279.0405045925
  0
LINE
  5
711
100
AcDbEntity
  8
0
100
AcDbLine
 62
7
  6
CONTINUOUS
 10
477.1442768725
 20
279.7213558136
 11
477.1442768725
 21
278.8702918468
  0
LINE
  5
712
100
AcDbEntity
  8
0
100
AcDbLine
 62
7
  6
CONTINUOUS
 10
477.6442768725
 20
278.8702918468
 11
477.6442768725
 21
279.7213558136
  0
LINE
  5
713
100
AcDbEntity
  8
0
100
AcDbLine
 62
7
  6
CONTINUOUS
 10
461.4973454884
 20
313.2426321684
 11
461.2473464421
 21
311.9660365759
  0
LINE
  5
714
100
AcDbEntity
  8
0
100
AcDbLine
 62
7
  6
CONTINUOUS
 10
459.9973454884
 20
313.2426321684
 11
459.7473464421
 21
312.2213556944
  0
LINE
  5
715
100
AcDbEntity
  8
0
100
AcDbLine
 62
7
  6
CONTINUOUS
 10
451.7473454884
 20
305.3702920852
 11
451.2473473958
 21
304.0936957775
  0
LINE
  5
716
100
AcDbEntity
  8
0
100
AcDbLine
 62
7
  6
CONTINUOUS
 10
450.9973454884
 20
298.9873130499
 11
451.4973464421
 21
300.263909
  0
LINE
  5
717
100
AcDbEntity
  8
0
100
AcDbLine
 62
7
  6
CONTINUOUS
 10
433.4200918473
 20
277.2000790862
 11
433.6726830719
 21
277.7958238004
  0
LINE
  5
718
100
AcDbEntity
  8
0
100
AcDbLine
 62
7
  6
CONTINUOUS
 10
433.9200918473
 20
277.2000790862
 11
434.1726830719
 21
277.7958238004
  0
LINE
  5
719
100
AcDbEntity
  8
0
100
AcDbLine
 62
7
  6
CONTINUOUS
 10
449.2473464421
 20
311.9660365759
 11
448.7473469189
 21
310.944759923
  0
LINE
  5
71A
100
AcDbEntity
  8
0
100
AcDbLine
 62
7
  6
CONTINUOUS
 10
424.5794163321
 20
281.5192282377
 11
424.8320061113
 21
281.9660366951
  0
LINE
  5
71B
100
AcDbEntity
  8
0
100
AcDbLine
 62
7
  6
CONTINUOUS
 10
425.0794163321
 20
281.5192282377
 11
425.3320061113
 21
281.9660366951
  0
LINE
  5
71C
100
AcDbEntity
  8
0
100
AcDbLine
 62
7
  6
CONTINUOUS
 10
427.4842089104
 20
280.3277386008
 11
427.2316191312
 21
279.8809301434
  0
LINE
  5
71D
100
AcDbEntity
  8
0
100
AcDbLine
 62
7
  6
CONTINUOUS
 10
427.4842089104
 20
277.7958238004
 11
427.2316191312
 21
277.3490152387
  0
LINE
  5
71E
100
AcDbEntity
  8
0
100
AcDbLine
 62
7
  6
CONTINUOUS
 10
430.1364117095
 20
281.0724193631
 11
430.6415941586
 21
281.9660366951
  0
LINE
  5
71F
100
AcDbEntity
  8
0
100
AcDbLine
 62
7
  6
CONTINUOUS
 10
430.6364117095
 20
281.0724193631
 11
431.1415941586
 21
281.9660366951
  0
LINE
  5
720
100
AcDbEntity
  8
0
100
AcDbLine
 62
7
  6
CONTINUOUS
 10
424.4531199972
 20
282.5617813049
 11
424.074233883
 21
281.9660366951
  0
LINE
  5
721
100
AcDbEntity
  8
0
100
AcDbLine
 62
7
  6
CONTINUOUS
 10
437.9973464421
 20
316.5617810665
 11
437.2473464421
 21
315.5405045925
  0
LINE
  5
722
100
AcDbEntity
  8
0
100
AcDbLine
 62
7
  6
CONTINUOUS
 10
431.9973464421
 20
302.5617810665
 11
431.2473464421
 21
301.5405045925
  0
LINE
  5
723
100
AcDbEntity
  8
0
100
AcDbLine
 62
7
  6
CONTINUOUS
 10
476.9387320994
 20
406.6575259147
 11
463.2935209056
 21
406.6575259147
  0
LINE
  5
724
100
AcDbEntity
  8
0
100
AcDbLine
 62
7
  6
CONTINUOUS
 10
426.7011719786
 20
406.6575259147
 11
413.0559607897
 21
406.6575259147
  0
LINE
  5
725
100
AcDbEntity
  8
RUNDUNGEN
100
AcDbLine
 62
7
  6
CONTINUOUS
 10
488.327473461
 20
360.8177799526
 11
485.6672194232
 21
365.4254751072
  0
LINE
  5
726
100
AcDbEntity
  8
RUNDUNGEN
100
AcDbLine
 62
7
  6
CONTINUOUS
 10
484.9973464421
 20
396.8274427188
 11
484.9973464421
 21
367.2748435142
  0
LINE
  5
727
100
AcDbEntity
  8
KONSTRUKTIONSELEMENTE
100
AcDbLine
 62
7
  6
CONTINUOUS
 10
486.5998868205
 20
270.6575259147
 11
486.5998868205
 21
290.6575259147
  0
LINE
  5
728
100
AcDbEntity
  8
0
100
AcDbLine
 62
7
  6
CONTINUOUS
 10
488.9973464421
 20
358.3177799526
 11
488.9973464421
 21
290.6575259147
  0
LINE
  5
729
100
AcDbEntity
  8
KONSTRUKTIONSELEMENTE
100
AcDbLine
 62
7
  6
CONTINUOUS
 10
489.9973464421
 20
270.6575259147
 11
489.9973464421
 21
290.6575259147
  0
LINE
  5
72A
100
AcDbEntity
  8
0
100
AcDbLine
 62
7
  6
CONTINUOUS
 10
472.5924631183
 20
282.4447597442
 11
472.4481244498
 21
281.2532705246
  0
LINE
  5
72B
100
AcDbEntity
  8
0
100
AcDbLine
 62
7
  6
CONTINUOUS
 10
472.8141498536
 20
282.2745469986
 11
472.6698128369
 21
281.2532705246
  0
LINE
  5
72C
100
AcDbEntity
  8
0
100
AcDbLine
 62
7
  6
CONTINUOUS
 10
473.1698128369
 20
281.2532705246
 11
473.3141498536
 21
282.2745469986
  0
LINE
  5
72D
100
AcDbEntity
  8
0
100
AcDbLine
 62
7
  6
CONTINUOUS
 10
466.3859474492
 20
283.4660366951
 11
466.2416096066
 21
282.7851857124
  0
LINE
  5
72E
100
AcDbEntity
  8
0
100
AcDbLine
 62
7
  6
CONTINUOUS
 10
470.64908717
 20
282.4447597442
 11
470.5047493274
 21
281.7639087616
  0
LINE
  5
72F
100
AcDbEntity
  8
0
100
AcDbLine
 62
7
  6
CONTINUOUS
 10
471.0047493274
 20
281.7639087616
 11
471.14908717
 21
282.4447597442
  0
LINE
  5
730
100
AcDbEntity
  8
0
100
AcDbLine
 62
7
  6
CONTINUOUS
 10
463.6435333952
 20
284.6575259147
 11
461.4784698858
 21
277.5085897623
  0
LINE
  5
731
100
AcDbEntity
  8
0
100
AcDbLine
 62
7
  6
CONTINUOUS
 10
459.4973473958
 20
296.944759923
 11
459.9973454884
 21
298.2213556944
  0
LINE
  5
732
100
AcDbEntity
  8
0
100
AcDbLine
 62
7
  6
CONTINUOUS
 10
461.2473464421
 20
311.9660365759
 11
460.7473454884
 21
310.944759923
  0
LINE
  5
733
100
AcDbEntity
  8
0
100
AcDbLine
 62
7
  6
CONTINUOUS
 10
459.7473464421
 20
303.327738422
 11
459.2473454884
 21
302.306461948
  0
LINE
  5
734
100
AcDbEntity
  8
0
100
AcDbLine
 62
7
  6
CONTINUOUS
 10
433.1675006228
 20
278.2426322578
 11
432.662319619
 21
277.3490152387
  0
LINE
  5
735
100
AcDbEntity
  8
0
100
AcDbLine
 62
7
  6
CONTINUOUS
 10
427.6105052454
 20
276.7532705767
 11
427.9893913595
 21
277.3490152387
  0
LINE
  5
736
100
AcDbEntity
  8
0
100
AcDbLine
 62
7
  6
CONTINUOUS
 10
428.1105052454
 20
276.7532705767
 11
428.4893913595
 21
277.3490152387
  0
LINE
  5
737
100
AcDbEntity
  8
0
100
AcDbLine
 62
7
  6
CONTINUOUS
 10
447.7473464421
 20
312.2213556944
 11
447.2473469189
 21
311.4553983389
  0
LINE
  5
738
100
AcDbEntity
  8
0
100
AcDbLine
 62
7
  6
CONTINUOUS
 10
443.2473464421
 20
302.5617810665
 11
442.4973464421
 21
301.5405045925
  0
LINE
  5
739
100
AcDbEntity
  8
0
100
AcDbLine
 62
7
  6
CONTINUOUS
 10
412.0761741133
 20
282.7107174574
 11
411.5709926127
 21
282.1149728475
  0
LINE
  5
73A
100
AcDbEntity
  8
0
100
AcDbLine
 62
7
  6
CONTINUOUS
 10
414.9809675046
 20
276.6043344243
 11
415.4861492311
 21
277.2000790862
  0
LINE
  5
73B
100
AcDbEntity
  8
0
100
AcDbLine
 62
7
  6
CONTINUOUS
 10
415.4809675046
 20
276.6043344243
 11
415.9861492311
 21
277.2000790862
  0
LINE
  5
73C
100
AcDbEntity
  8
0
100
AcDbLine
 62
7
  6
CONTINUOUS
 10
436.4973464421
 20
316.817100185
 11
435.9973462037
 21
316.306461948
  0
LINE
  5
73D
100
AcDbEntity
  8
0
100
AcDbLine
 62
7
  6
CONTINUOUS
 10
430.4973464421
 20
302.817100185
 11
429.9973462037
 21
302.306461948
  0
LINE
  5
73E
100
AcDbEntity
  8
0
100
AcDbLine
 62
7
  6
CONTINUOUS
 10
452.9973464421
 20
422.1891468988
 11
453.9973464421
 21
422.1891468988
  0
LINE
  5
73F
100
AcDbEntity
  8
RUNDUNGEN
100
AcDbLine
 62
7
  6
CONTINUOUS
 10
480.1916327194
 20
404.9519083483
 11
484.2739546192
 21
399.1217484642
  0
LINE
  5
740
100
AcDbEntity
  8
0
100
AcDbLine
 62
7
  6
CONTINUOUS
 10
470.7934241867
 20
278.5298663555
 11
470.64908717
 21
278.0192279993
  0
LINE
  5
741
100
AcDbEntity
  8
0
100
AcDbLine
 62
7
  6
CONTINUOUS
 10
471.14908717
 20
278.0192279993
 11
471.2934241867
 21
278.5298663555
  0
LINE
  5
742
100
AcDbEntity
  8
0
100
AcDbLine
 62
7
  6
CONTINUOUS
 10
472.9584885221
 20
282.7851857124
 11
472.8141498536
 21
282.2745469986
  0
LINE
  5
743
100
AcDbEntity
  8
0
100
AcDbLine
 62
7
  6
CONTINUOUS
 10
473.3141498536
 20
282.2745469986
 11
473.4584885221
 21
282.7851857124
  0
LINE
  5
744
100
AcDbEntity
  8
0
100
AcDbLine
 62
7
  6
CONTINUOUS
 10
472.9584885221
 20
280.0617813049
 11
472.8141498536
 21
279.5511428295
  0
LINE
  5
745
100
AcDbEntity
  8
0
100
AcDbLine
 62
7
  6
CONTINUOUS
 10
473.3141498536
 20
279.5511428295
 11
473.4584885221
 21
280.0617813049
  0
LINE
  5
746
100
AcDbEntity
  8
0
100
AcDbLine
 62
7
  6
CONTINUOUS
 10
463.5765460971
 20
282.9553984581
 11
461.5558200173
 21
276.6575259147
  0
LINE
  5
747
100
AcDbEntity
  8
0
100
AcDbLine
 62
7
  6
CONTINUOUS
 10
462.0558200173
 20
276.6575259147
 11
464.0765460971
 21
282.9553984581
  0
LINE
  5
748
100
AcDbEntity
  8
0
100
AcDbLine
 62
7
  6
CONTINUOUS
 10
472.8811371517
 20
283.2958239494
 11
472.5924631183
 21
282.4447597442
  0
LINE
  5
749
100
AcDbEntity
  8
0
100
AcDbLine
 62
7
  6
CONTINUOUS
 10
452.9973464421
 20
304.8596538482
 11
452.4973454884
 21
304.0936957775
  0
LINE
  5
74A
100
AcDbEntity
  8
0
100
AcDbLine
 62
7
  6
CONTINUOUS
 10
459.7473464421
 20
312.2213556944
 11
459.2473454884
 21
311.4553983389
  0
LINE
  5
74B
100
AcDbEntity
  8
0
100
AcDbLine
 62
7
  6
CONTINUOUS
 10
458.4973454884
 20
303.5830575405
 11
457.9973473958
 21
302.817100185
  0
LINE
  5
74C
100
AcDbEntity
  8
0
100
AcDbLine
 62
7
  6
CONTINUOUS
 10
452.9973464421
 20
300.0085898815
 11
452.2473464421
 21
298.9873130499
  0
LINE
  5
74D
100
AcDbEntity
  8
0
100
AcDbLine
 62
7
  6
CONTINUOUS
 10
430.2627080445
 20
282.5617813049
 11
429.8838219303
 21
282.1149728475
  0
LINE
  5
74E
100
AcDbEntity
  8
0
100
AcDbLine
 62
7
  6
CONTINUOUS
 10
433.0412057332
 20
276.7532705767
 11
433.4200918473
 21
277.2000790862
  0
LINE
  5
74F
100
AcDbEntity
  8
0
100
AcDbLine
 62
7
  6
CONTINUOUS
 10
433.5412057332
 20
276.7532705767
 11
433.9200918473
 21
277.2000790862
  0
LINE
  5
750
100
AcDbEntity
  8
0
100
AcDbLine
 62
7
  6
CONTINUOUS
 10
448.7473469189
 20
310.944759923
 11
447.7473464421
 21
309.9234833596
  0
LINE
  5
751
100
AcDbEntity
  8
0
100
AcDbLine
 62
7
  6
CONTINUOUS
 10
441.7473464421
 20
302.817100185
 11
441.2473469189
 21
302.306461948
  0
LINE
  5
752
100
AcDbEntity
  8
0
100
AcDbLine
 62
7
  6
CONTINUOUS
 10
452.4973454884
 20
306.1362494407
 11
451.7473454884
 21
305.3702920852
  0
LINE
  5
753
100
AcDbEntity
  8
0
100
AcDbLine
 62
7
  6
CONTINUOUS
 10
412.3287647959
 20
281.8171005426
 11
412.7076510004
 21
282.1149728475
  0
LINE
  5
754
100
AcDbEntity
  8
0
100
AcDbLine
 62
7
  6
CONTINUOUS
 10
412.8287647959
 20
281.8171005426
 11
413.2076510004
 21
282.1149728475
  0
LINE
  5
755
100
AcDbEntity
  8
0
100
AcDbLine
 62
7
  6
CONTINUOUS
 10
431.2473464421
 20
301.5405045925
 11
430.2473466805
 21
300.774547237
  0
LINE
  5
756
100
AcDbEntity
  8
0
100
AcDbLine
 62
7
  6
CONTINUOUS
 10
447.2473469189
 20
311.4553983389
 11
446.4973469189
 21
310.944759923
  0
LINE
  5
757
100
AcDbEntity
  8
0
100
AcDbLine
 62
7
  6
CONTINUOUS
 10
437.2473464421
 20
315.5405045925
 11
436.2473466805
 21
315.0298663555
  0
LINE
  5
758
100
AcDbEntity
  8
0
100
AcDbLine
 62
7
  6
CONTINUOUS
 10
435.9973462037
 20
316.306461948
 11
435.2473462037
 21
316.0511428295
  0
LINE
  5
759
100
AcDbEntity
  8
0
100
AcDbLine
 62
7
  6
CONTINUOUS
 10
476.9225901372
 20
279.0405045925
 11
476.7782514687
 21
278.5298663555
  0
LINE
  5
75A
100
AcDbEntity
  8
0
100
AcDbLine
 62
7
  6
CONTINUOUS
 10
477.1442768725
 20
278.8702918468
 11
476.8556028391
 21
278.0192279993
  0
LINE
  5
75B
100
AcDbEntity
  8
0
100
AcDbLine
 62
7
  6
CONTINUOUS
 10
477.3556028391
 20
278.0192279993
 11
477.6442768725
 21
278.8702918468
  0
LINE
  5
75C
100
AcDbEntity
  8
0
100
AcDbLine
 62
7
  6
CONTINUOUS
 10
470.4273987829
 20
282.4447597442
 11
470.1387239236
 21
281.7639087616
  0
LINE
  5
75D
100
AcDbEntity
  8
0
100
AcDbLine
 62
7
  6
CONTINUOUS
 10
470.5717366255
 20
278.5298663555
 11
470.4273987829
 21
278.1894408641
  0
LINE
  5
75E
100
AcDbEntity
  8
0
100
AcDbLine
 62
7
  6
CONTINUOUS
 10
466.751972853
 20
283.2958239494
 11
466.4632971678
 21
282.7851857124
  0
LINE
  5
75F
100
AcDbEntity
  8
0
100
AcDbLine
 62
7
  6
CONTINUOUS
 10
466.9632971678
 20
282.7851857124
 11
467.251972853
 21
283.2958239494
  0
LINE
  5
760
100
AcDbEntity
  8
0
100
AcDbLine
 62
7
  6
CONTINUOUS
 10
458.7473473958
 20
298.2213556944
 11
457.9973473958
 21
297.2000790415
  0
LINE
  5
761
100
AcDbEntity
  8
0
100
AcDbLine
 62
7
  6
CONTINUOUS
 10
460.7473454884
 20
310.944759923
 11
459.7473464421
 21
309.9234833596
  0
LINE
  5
762
100
AcDbEntity
  8
0
100
AcDbLine
 62
7
  6
CONTINUOUS
 10
458.4973454884
 20
301.5405045925
 11
459.2473454884
 21
302.306461948
  0
LINE
  5
763
100
AcDbEntity
  8
0
100
AcDbLine
 62
7
  6
CONTINUOUS
 10
458.7473473958
 20
296.1788024781
 11
459.4973473958
 21
296.944759923
  0
LINE
  5
764
100
AcDbEntity
  8
0
100
AcDbLine
 62
7
  6
CONTINUOUS
 10
414.7283770027
 20
277.4979514955
 11
414.3494908886
 21
277.2000790862
  0
LINE
  5
765
100
AcDbEntity
  8
0
100
AcDbLine
 62
7
  6
CONTINUOUS
 10
424.8320061113
 20
281.9660366951
 11
425.2108922255
 21
282.263909
  0
LINE
  5
766
100
AcDbEntity
  8
0
100
AcDbLine
 62
7
  6
CONTINUOUS
 10
425.3320061113
 20
281.9660366951
 11
425.7108922255
 21
282.263909
  0
LINE
  5
767
100
AcDbEntity
  8
0
100
AcDbLine
 62
7
  6
CONTINUOUS
 10
427.2316191312
 20
279.8809301434
 11
426.8527330171
 21
279.5830578385
  0
LINE
  5
768
100
AcDbEntity
  8
0
100
AcDbLine
 62
7
  6
CONTINUOUS
 10
430.6415941586
 20
281.9660366951
 11
431.0204802728
 21
282.263909
  0
LINE
  5
769
100
AcDbEntity
  8
0
100
AcDbLine
 62
7
  6
CONTINUOUS
 10
426.9790279067
 20
278.8383770762
 11
427.736800135
 21
279.434121686
  0
LINE
  5
76A
100
AcDbEntity
  8
0
100
AcDbLine
 62
7
  6
CONTINUOUS
 10
431.1415941586
 20
281.9660366951
 11
431.5204802728
 21
282.263909
  0
LINE
  5
76B
100
AcDbEntity
  8
0
100
AcDbLine
 62
7
  6
CONTINUOUS
 10
427.4790279067
 20
278.8383770762
 11
427.7216609682
 21
279.029130093
  0
LINE
  5
76C
100
AcDbEntity
  8
0
100
AcDbLine
 62
7
  6
CONTINUOUS
 10
427.2316191312
 20
277.3490152387
 11
426.8527330171
 21
277.0511429338
  0
LINE
  5
76D
100
AcDbEntity
  8
0
100
AcDbLine
 62
7
  6
CONTINUOUS
 10
442.4973464421
 20
301.5405045925
 11
441.4973459652
 21
300.774547237
  0
LINE
  5
76E
100
AcDbEntity
  8
0
100
AcDbLine
 62
7
  6
CONTINUOUS
 10
453.9973454884
 20
305.6256112037
 11
452.9973464421
 21
304.8596538482
  0
LINE
  5
76F
100
AcDbEntity
  8
0
100
AcDbLine
 62
7
  6
CONTINUOUS
 10
451.4973464421
 20
300.263909
 11
452.4973454884
 21
301.0298663555
  0
LINE
  5
770
100
AcDbEntity
  8
0
100
AcDbLine
 62
7
  6
CONTINUOUS
 10
457.9973473958
 20
302.817100185
 11
456.9973454884
 21
302.0511428295
  0
LINE
  5
771
100
AcDbEntity
  8
0
100
AcDbLine
 62
7
  6
CONTINUOUS
 10
425.0845973359
 20
283.0085897623
 11
424.4531199972
 21
282.5617813049
  0
LINE
  5
772
100
AcDbEntity
  8
0
100
AcDbLine
 62
7
  6
CONTINUOUS
 10
459.2473454884
 20
311.4553983389
 11
458.4973454884
 21
310.944759923
  0
LINE
  5
773
100
AcDbEntity
  8
0
100
AcDbLine
 62
7
  6
CONTINUOUS
 10
453.7473464421
 20
306.9022067962
 11
452.4973454884
 21
306.1362494407
  0
LINE
  5
774
100
AcDbEntity
  8
0
100
AcDbLine
 62
7
  6
CONTINUOUS
 10
412.5813555688
 20
283.0085897623
 11
412.0761741133
 21
282.7107174574
  0
LINE
  5
775
100
AcDbEntity
  8
0
100
AcDbLine
 62
7
  6
CONTINUOUS
 10
447.7473464421
 20
309.9234833596
 11
446.7473459652
 21
309.4128450556
  0
LINE
  5
776
100
AcDbEntity
  8
0
100
AcDbLine
 62
7
  6
CONTINUOUS
 10
459.7473464421
 20
309.9234833596
 11
458.7473473958
 21
309.4128450556
  0
LINE
  5
777
100
AcDbEntity
  8
0
100
AcDbLine
 62
7
  6
CONTINUOUS
 10
429.9973462037
 20
302.306461948
 11
429.2473462037
 21
302.0511428295
  0
LINE
  5
778
100
AcDbEntity
  8
0
100
AcDbLine
 62
7
  6
CONTINUOUS
 10
452.9973464421
 20
434.1891468988
 11
453.9973464421
 21
434.1891468988
  0
LINE
  5
779
100
AcDbEntity
  8
0
100
AcDbLine
 62
7
  6
CONTINUOUS
 10
452.9973464421
 20
437.1891468988
 11
453.9973464421
 21
437.1891468988
  0
LINE
  5
77A
100
AcDbEntity
  8
0
100
AcDbLine
 62
7
  6
CONTINUOUS
 10
452.9973464421
 20
437.4444660396
 11
453.9973464421
 21
437.4444660396
  0
LINE
  5
77B
100
AcDbEntity
  8
0
100
AcDbLine
 62
7
  6
CONTINUOUS
 10
452.9973464421
 20
437.9551043437
 11
453.9973464421
 21
437.9551043437
  0
LINE
  5
77C
100
AcDbEntity
  8
0
100
AcDbLine
 62
7
  6
CONTINUOUS
 10
452.9973464421
 20
438.9763809071
 11
453.9973464421
 21
438.9763809071
  0
LINE
  5
77D
100
AcDbEntity
  8
0
100
AcDbLine
 62
7
  6
CONTINUOUS
 10
452.9973464421
 20
439.9976575599
 11
453.9973464421
 21
439.9976575599
  0
LINE
  5
77E
100
AcDbEntity
  8
0
100
AcDbLine
 62
7
  6
CONTINUOUS
 10
452.9973464421
 20
441.2742531524
 11
453.9973464421
 21
441.2742531524
  0
LINE
  5
77F
100
AcDbEntity
  8
0
100
AcDbLine
 62
7
  6
CONTINUOUS
 10
470.5047493274
 20
281.7639087616
 11
470.2160744681
 21
281.2532705246
  0
LINE
  5
780
100
AcDbEntity
  8
0
100
AcDbLine
 62
7
  6
CONTINUOUS
 10
470.7160744681
 20
281.2532705246
 11
471.0047493274
 21
281.7639087616
  0
LINE
  5
781
100
AcDbEntity
  8
0
100
AcDbLine
 62
7
  6
CONTINUOUS
 10
473.2471625555
 20
283.2958239494
 11
472.9584885221
 21
282.7851857124
  0
LINE
  5
782
100
AcDbEntity
  8
0
100
AcDbLine
 62
7
  6
CONTINUOUS
 10
470.64908717
 20
278.0192279993
 11
470.3604114848
 21
277.5085897623
  0
LINE
  5
783
100
AcDbEntity
  8
0
100
AcDbLine
 62
7
  6
CONTINUOUS
 10
473.4584885221
 20
282.7851857124
 11
473.7471625555
 21
283.2958239494
  0
LINE
  5
784
100
AcDbEntity
  8
0
100
AcDbLine
 62
7
  6
CONTINUOUS
 10
470.8604114848
 20
277.5085897623
 11
471.14908717
 21
278.0192279993
  0
LINE
  5
785
100
AcDbEntity
  8
0
100
AcDbLine
 62
7
  6
CONTINUOUS
 10
476.7782514687
 20
278.5298663555
 11
476.4895774353
 21
278.0192279993
  0
LINE
  5
786
100
AcDbEntity
  8
0
100
AcDbLine
 62
7
  6
CONTINUOUS
 10
473.3141498536
 20
283.9766749321
 11
472.8811371517
 21
283.2958239494
  0
LINE
  5
787
100
AcDbEntity
  8
0
100
AcDbLine
 62
7
  6
CONTINUOUS
 10
466.9632971678
 20
284.1468876777
 11
466.3859474492
 21
283.4660366951
  0
LINE
  5
788
100
AcDbEntity
  8
0
100
AcDbLine
 62
7
  6
CONTINUOUS
 10
432.662319619
 20
277.3490152387
 11
432.2834335048
 21
277.0511429338
  0
LINE
  5
789
100
AcDbEntity
  8
0
100
AcDbLine
 62
7
  6
CONTINUOUS
 10
430.8941839378
 20
283.0085897623
 11
430.2627080445
 21
282.5617813049
  0
LINE
  5
78A
100
AcDbEntity
  8
0
100
AcDbLine
 62
7
  6
CONTINUOUS
 10
426.9790279067
 20
276.3064620802
 11
427.6105052454
 21
276.7532705767
  0
LINE
  5
78B
100
AcDbEntity
  8
0
100
AcDbLine
 62
7
  6
CONTINUOUS
 10
427.4790279067
 20
276.3064620802
 11
428.1105052454
 21
276.7532705767
  0
LINE
  5
78C
100
AcDbEntity
  8
0
100
AcDbLine
 62
7
  6
CONTINUOUS
 10
432.4097283945
 20
276.3064620802
 11
433.0412057332
 21
276.7532705767
  0
LINE
  5
78D
100
AcDbEntity
  8
0
100
AcDbLine
 62
7
  6
CONTINUOUS
 10
432.9097283945
 20
276.3064620802
 11
433.5412057332
 21
276.7532705767
  0
LINE
  5
78E
100
AcDbEntity
  8
0
100
AcDbLine
 62
7
  6
CONTINUOUS
 10
457.4973464421
 20
295.4128450556
 11
458.7473473958
 21
296.1788024781
  0
LINE
  5
78F
100
AcDbEntity
  8
0
100
AcDbLine
 62
7
  6
CONTINUOUS
 10
414.4757861395
 20
276.3064620802
 11
414.9809675046
 21
276.6043344243
  0
LINE
  5
790
100
AcDbEntity
  8
0
100
AcDbLine
 62
7
  6
CONTINUOUS
 10
414.9757861395
 20
276.3064620802
 11
415.4809675046
 21
276.6043344243
  0
LINE
  5
791
100
AcDbEntity
  8
0
100
AcDbLine
 62
7
  6
CONTINUOUS
 10
452.4973454884
 20
301.0298663555
 11
452.9973464421
 21
301.285185474
  0
LINE
  5
792
100
AcDbEntity
  8
0
100
AcDbLine
 62
7
  6
CONTINUOUS
 10
453.9973454884
 20
300.5192281185
 11
452.9973464421
 21
300.0085898815
  0
LINE
  5
793
100
AcDbEntity
  8
0
100
AcDbLine
 62
7
  6
CONTINUOUS
 10
457.9973473958
 20
301.285185474
 11
458.4973454884
 21
301.5405045925
  0
LINE
  5
794
100
AcDbEntity
  8
0
100
AcDbLine
 62
7
  6
CONTINUOUS
 10
457.9973473958
 20
297.2000790415
 11
456.9973454884
 21
296.6894408045
  0
LINE
  5
795
100
AcDbEntity
  8
0
100
AcDbLine
 62
7
  6
CONTINUOUS
 10
412.7076510004
 20
282.1149728475
 11
413.0865371145
 21
282.263909
  0
LINE
  5
796
100
AcDbEntity
  8
0
100
AcDbLine
 62
7
  6
CONTINUOUS
 10
413.2076510004
 20
282.1149728475
 11
413.5865371145
 21
282.263909
  0
LINE
  5
797
100
AcDbEntity
  8
0
100
AcDbLine
 62
7
  6
CONTINUOUS
 10
441.2473469189
 20
302.306461948
 11
440.4973469189
 21
302.0511428295
  0
LINE
  5
798
100
AcDbEntity
  8
0
100
AcDbLine
 62
7
  6
CONTINUOUS
 10
452.9973464421
 20
449.1891468988
 11
453.9973464421
 21
449.1891468988
  0
LINE
  5
799
100
AcDbEntity
  8
0
100
AcDbLine
 62
7
  6
CONTINUOUS
 10
452.9973464421
 20
453.1891468988
 11
453.9973464421
 21
453.1891468988
  0
LINE
  5
79A
100
AcDbEntity
  8
0
100
AcDbLine
 62
7
  6
CONTINUOUS
 10
476.8556028391
 20
278.0192279993
 11
476.4225901372
 21
277.338376957
  0
LINE
  5
79B
100
AcDbEntity
  8
0
100
AcDbLine
 62
7
  6
CONTINUOUS
 10
476.9225901372
 20
277.338376957
 11
477.3556028391
 21
278.0192279993
  0
LINE
  5
79C
100
AcDbEntity
  8
0
100
AcDbLine
 62
7
  6
CONTINUOUS
 10
470.1387239236
 20
281.7639087616
 11
469.8500490643
 21
281.4234832702
  0
LINE
  5
79D
100
AcDbEntity
  8
0
100
AcDbLine
 62
7
  6
CONTINUOUS
 10
470.4273987829
 20
278.1894408641
 11
470.1387239236
 21
277.8490152536
  0
LINE
  5
79E
100
AcDbEntity
  8
0
100
AcDbLine
 62
7
  6
CONTINUOUS
 10
473.2471625555
 20
280.4022067962
 11
472.9584885221
 21
280.0617813049
  0
LINE
  5
79F
100
AcDbEntity
  8
0
100
AcDbLine
 62
7
  6
CONTINUOUS
 10
473.4584885221
 20
280.0617813049
 11
473.7471625555
 21
280.4022067962
  0
LINE
  5
7A0
100
AcDbEntity
  8
0
100
AcDbLine
 62
7
  6
CONTINUOUS
 10
470.2160744681
 20
281.2532705246
 11
469.6387239236
 21
280.7426322876
  0
LINE
  5
7A1
100
AcDbEntity
  8
0
100
AcDbLine
 62
7
  6
CONTINUOUS
 10
470.1387239236
 20
280.7426322876
 11
470.7160744681
 21
281.2532705246
  0
LINE
  5
7A2
100
AcDbEntity
  8
0
100
AcDbLine
 62
7
  6
CONTINUOUS
 10
467.1849855549
 20
283.6362494407
 11
466.751972853
 21
283.2958239494
  0
LINE
  5
7A3
100
AcDbEntity
  8
0
100
AcDbLine
 62
7
  6
CONTINUOUS
 10
467.251972853
 20
283.2958239494
 11
467.6849855549
 21
283.6362494407
  0
LINE
  5
7A4
100
AcDbEntity
  8
0
100
AcDbLine
 62
7
  6
CONTINUOUS
 10
425.2108922255
 20
282.263909
 11
425.5897783397
 21
282.4128451524
  0
LINE
  5
7A5
100
AcDbEntity
  8
0
100
AcDbLine
 62
7
  6
CONTINUOUS
 10
425.7108922255
 20
282.263909
 11
426.0897783397
 21
282.4128451524
  0
LINE
  5
7A6
100
AcDbEntity
  8
0
100
AcDbLine
 62
7
  6
CONTINUOUS
 10
426.8527330171
 20
279.5830578385
 11
426.4738469029
 21
279.434121686
  0
LINE
  5
7A7
100
AcDbEntity
  8
0
100
AcDbLine
 62
7
  6
CONTINUOUS
 10
426.8527330171
 20
277.0511429338
 11
426.4738469029
 21
276.9022067813
  0
LINE
  5
7A8
100
AcDbEntity
  8
0
100
AcDbLine
 62
7
  6
CONTINUOUS
 10
413.0865371145
 20
283.1575259147
 11
412.5813555688
 21
283.0085897623
  0
LINE
  5
7A9
100
AcDbEntity
  8
0
100
AcDbLine
 62
7
  6
CONTINUOUS
 10
414.3494908886
 20
277.2000790862
 11
413.8443093428
 21
277.0511429338
  0
LINE
  5
7AA
100
AcDbEntity
  8
0
100
AcDbLine
 62
7
  6
CONTINUOUS
 10
452.9973464421
 20
465.1891468988
 11
453.9973464421
 21
465.1891468988
  0
LINE
  5
7AB
100
AcDbEntity
  8
0
100
AcDbLine
 62
7
  6
CONTINUOUS
 10
473.6801752574
 20
283.6362494407
 11
473.2471625555
 21
283.2958239494
  0
LINE
  5
7AC
100
AcDbEntity
  8
0
100
AcDbLine
 62
7
  6
CONTINUOUS
 10
473.7471625555
 20
283.2958239494
 11
474.1801752574
 21
283.6362494407
  0
LINE
  5
7AD
100
AcDbEntity
  8
0
100
AcDbLine
 62
7
  6
CONTINUOUS
 10
474.0358382407
 20
281.5936960159
 11
473.1698128369
 21
280.9128450332
  0
LINE
  5
7AE
100
AcDbEntity
  8
0
100
AcDbLine
 62
7
  6
CONTINUOUS
 10
473.6801752574
 20
280.7426322876
 11
473.2471625555
 21
280.4022067962
  0
LINE
  5
7AF
100
AcDbEntity
  8
0
100
AcDbLine
 62
7
  6
CONTINUOUS
 10
473.7471625555
 20
280.4022067962
 11
474.1801752574
 21
280.7426322876
  0
LINE
  5
7B0
100
AcDbEntity
  8
0
100
AcDbLine
 62
7
  6
CONTINUOUS
 10
470.3604114848
 20
277.5085897623
 11
469.9273987829
 21
277.1681642113
  0
LINE
  5
7B1
100
AcDbEntity
  8
0
100
AcDbLine
 62
7
  6
CONTINUOUS
 10
470.4273987829
 20
277.1681642113
 11
470.8604114848
 21
277.5085897623
  0
LINE
  5
7B2
100
AcDbEntity
  8
0
100
AcDbLine
 62
7
  6
CONTINUOUS
 10
476.4895774353
 20
278.0192279993
 11
476.0565647334
 21
277.6788025079
  0
LINE
  5
7B3
100
AcDbEntity
  8
0
100
AcDbLine
 62
7
  6
CONTINUOUS
 10
474.0358382407
 20
284.4873131691
 11
473.3141498536
 21
283.9766749321
  0
LINE
  5
7B4
100
AcDbEntity
  8
0
100
AcDbLine
 62
7
  6
CONTINUOUS
 10
476.4225901372
 20
277.338376957
 11
475.7009017501
 21
276.8277386753
  0
LINE
  5
7B5
100
AcDbEntity
  8
0
100
AcDbLine
 62
7
  6
CONTINUOUS
 10
476.2009017501
 20
276.8277386753
 11
476.9225901372
 21
277.338376957
  0
LINE
  5
7B6
100
AcDbEntity
  8
0
100
AcDbLine
 62
7
  6
CONTINUOUS
 10
467.5406477123
 20
284.4873131691
 11
466.9632971678
 21
284.1468876777
  0
LINE
  5
7B7
100
AcDbEntity
  8
0
100
AcDbLine
 62
7
  6
CONTINUOUS
 10
470.1387239236
 20
277.8490152536
 11
469.8500490643
 21
277.6788025079
  0
LINE
  5
7B8
100
AcDbEntity
  8
0
100
AcDbLine
 62
7
  6
CONTINUOUS
 10
469.9273987829
 20
277.1681642113
 11
469.3500490643
 21
276.8277386753
  0
LINE
  5
7B9
100
AcDbEntity
  8
0
100
AcDbLine
 62
7
  6
CONTINUOUS
 10
469.8500490643
 20
276.8277386753
 11
470.4273987829
 21
277.1681642113
  0
LINE
  5
7BA
100
AcDbEntity
  8
0
100
AcDbLine
 62
7
  6
CONTINUOUS
 10
474.1131879592
 20
283.8064621864
 11
473.6801752574
 21
283.6362494407
  0
LINE
  5
7BB
100
AcDbEntity
  8
0
100
AcDbLine
 62
7
  6
CONTINUOUS
 10
474.1801752574
 20
283.6362494407
 11
474.6131879592
 21
283.8064621864
  0
LINE
  5
7BC
100
AcDbEntity
  8
0
100
AcDbLine
 62
7
  6
CONTINUOUS
 10
469.8500490643
 20
281.4234832702
 11
468.9840236606
 21
281.0830577789
  0
LINE
  5
7BD
100
AcDbEntity
  8
0
100
AcDbLine
 62
7
  6
CONTINUOUS
 10
474.1131879592
 20
280.9128450332
 11
473.6801752574
 21
280.7426322876
  0
LINE
  5
7BE
100
AcDbEntity
  8
0
100
AcDbLine
 62
7
  6
CONTINUOUS
 10
474.1801752574
 20
280.7426322876
 11
474.6131879592
 21
280.9128450332
  0
LINE
  5
7BF
100
AcDbEntity
  8
0
100
AcDbLine
 62
7
  6
CONTINUOUS
 10
476.0565647334
 20
277.6788025079
 11
475.6235520315
 21
277.5085897623
  0
LINE
  5
7C0
100
AcDbEntity
  8
0
100
AcDbLine
 62
7
  6
CONTINUOUS
 10
469.3500490643
 20
276.8277386753
 11
468.7726985198
 21
276.6575259147
  0
LINE
  5
7C1
100
AcDbEntity
  8
0
100
AcDbLine
 62
7
  6
CONTINUOUS
 10
469.2726985198
 20
276.6575259147
 11
469.8500490643
 21
276.8277386753
  0
LINE
  5
7C2
100
AcDbEntity
  8
FASEN
100
AcDbLine
 62
7
  6
CONTINUOUS
 10
459.9973464421
 20
216.6575259147
 11
462.9973464421
 21
219.6575259147
  0
LINE
  5
7C3
100
AcDbEntity
  8
BEZUGSACHSEN
100
AcDbLine
 62
7
  6
CONTINUOUS
 10
456.9973464421
 20
503.1604447564
 11
457.9973464421
 21
503.1604447564
  0
LINE
  5
7C4
100
AcDbEntity
  8
BEZUGSACHSEN
100
AcDbLine
 62
7
  6
CONTINUOUS
 10
456.9973464421
 20
503.2004135073
 11
457.9973464421
 21
503.2004135073
  0
LINE
  5
7C5
100
AcDbEntity
  8
BEZUGSACHSEN
100
AcDbLine
 62
7
  6
CONTINUOUS
 10
456.9973464421
 20
503.4733842387
 11
457.9973464421
 21
503.4733842387
  0
LINE
  5
7C6
100
AcDbEntity
  8
BEZUGSACHSEN
100
AcDbLine
 62
7
  6
CONTINUOUS
 10
456.9973464421
 20
504.0734905924
 11
457.9973464421
 21
504.0734905924
  0
LINE
  5
7C7
100
AcDbEntity
  8
BEZUGSACHSEN
100
AcDbLine
 62
7
  6
CONTINUOUS
 10
456.9973464421
 20
505.046648346
 11
457.9973464421
 21
505.046648346
  0
LINE
  5
7C8
100
AcDbEntity
  8
BEZUGSACHSEN
100
AcDbLine
 62
7
  6
CONTINUOUS
 10
456.2424695877
 20
510.0589570105
 11
457.9973464421
 21
510.0589570105
  0
LINE
  5
7C9
100
AcDbEntity
  8
BEZUGSACHSEN
100
AcDbLine
 62
7
  6
CONTINUOUS
 10
456.2789619372
 20
513.1765186319
 11
457.9973464421
 21
513.1765186319
  0
LINE
  5
7CA
100
AcDbEntity
  8
BEZUGSACHSEN
100
AcDbLine
 62
7
  6
CONTINUOUS
 10
456.3303337896
 20
513.7193659077
 11
457.9973464421
 21
513.7193659077
  0
LINE
  5
7CB
100
AcDbEntity
  8
BEZUGSACHSEN
100
AcDbLine
 62
7
  6
CONTINUOUS
 10
456.4855476568
 20
513.9190248299
 11
457.9973464421
 21
513.9190248299
  0
LINE
  5
7CC
100
AcDbEntity
  8
BEZUGSACHSEN
100
AcDbLine
 62
7
  6
CONTINUOUS
 10
456.2424695814
 20
517.0188207039
 11
457.9973464421
 21
517.0188207039
  0
LINE
  5
7CD
100
AcDbEntity
  8
BEZUGSACHSEN
100
AcDbLine
 62
7
  6
CONTINUOUS
 10
456.278961939
 20
519.5430010754
 11
457.9973464421
 21
519.5430010754
  0
LINE
  5
7CE
100
AcDbEntity
  8
BEZUGSACHSEN
100
AcDbLine
 62
7
  6
CONTINUOUS
 10
456.3303337996
 20
519.9368299033
 11
457.9973464421
 21
519.9368299033
  0
LINE
  5
7CF
100
AcDbEntity
  8
BEZUGSACHSEN
100
AcDbLine
 62
7
  6
CONTINUOUS
 10
456.4855476609
 20
519.9614011856
 11
457.9973464421
 21
519.9614011856
  0
LINE
  5
7D0
100
AcDbEntity
  8
BEZUGSACHSEN
100
AcDbLine
 62
7
  6
CONTINUOUS
 10
456.2356150106
 20
524.7321467455
 11
457.9973464421
 21
524.7321467455
  0
LINE
  5
7D1
100
AcDbEntity
  8
BEZUGSACHSEN
100
AcDbLine
 62
7
  6
CONTINUOUS
 10
456.2596887504
 20
525.0863168858
 11
457.9973464421
 21
525.0863168858
  0
LINE
  5
7D2
100
AcDbEntity
  8
BEZUGSACHSEN
100
AcDbLine
 62
7
  6
CONTINUOUS
 10
456.2596887504
 20
526.7391113238
 11
457.9973464421
 21
526.7391113238
  0
LINE
  5
7D3
100
AcDbEntity
  8
BEZUGSACHSEN
100
AcDbLine
 62
7
  6
CONTINUOUS
 10
456.2356150106
 20
527.093281464
 11
457.9973464421
 21
527.093281464
  0
LINE
  5
7D4
100
AcDbEntity
  8
BEZUGSACHSEN
100
AcDbLine
 62
7
  6
CONTINUOUS
 10
456.2814142951
 20
527.6096625605
 11
457.9973464421
 21
527.6096625605
  0
LINE
  5
7D5
100
AcDbEntity
  8
BEZUGSACHSEN
100
AcDbLine
 62
7
  6
CONTINUOUS
 10
456.2814142951
 20
527.8247817653
 11
457.9973464421
 21
527.8247817653
  0
LINE
  5
7D6
100
AcDbEntity
  8
BEZUGSACHSEN
100
AcDbLine
 62
7
  6
CONTINUOUS
 10
456.2424695689
 20
528.3606975187
 11
457.9973464421
 21
528.3606975187
  0
LINE
  5
7D7
100
AcDbEntity
  8
BEZUGSACHSEN
100
AcDbLine
 62
7
  6
CONTINUOUS
 10
456.2789619427
 20
528.6748839849
 11
457.9973464421
 21
528.6748839849
  0
LINE
  5
7D8
100
AcDbEntity
  8
KONSTRUKTIONSELEMENTE
100
AcDbLine
 62
7
  6
CONTINUOUS
 10
254.1659060992
 20
125.7956854119
 11
248.281333418
 21
122.3982257903
  0
LINE
  5
7D9
100
AcDbEntity
  8
KONSTRUKTIONSELEMENTE
100
AcDbLine
 62
7
  6
CONTINUOUS
 10
248.281333418
 20
39.1931450334
 11
254.1659060992
 21
35.7956854119
  0
LINE
  5
7DA
100
AcDbEntity
  8
KONSTRUKTIONSELEMENTE
100
AcDbLine
 62
7
  6
CONTINUOUS
 10
248.281333418
 20
122.3982257903
 11
230.6973718953
 21
91.9419110346
  0
LINE
  5
7DB
100
AcDbEntity
  8
KONSTRUKTIONSELEMENTE
100
AcDbLine
 62
7
  6
CONTINUOUS
 10
254.1659060992
 20
35.7956854119
 11
298.281333418
 21
35.7956854119
  0
LINE
  5
7DC
100
AcDbEntity
  8
KONSTRUKTIONSELEMENTE
100
AcDbLine
 62
7
  6
CONTINUOUS
 10
230.6973719953
 20
69.649459616
 11
248.281333418
 21
39.1931450334
  0
LINE
  5
7DD
100
AcDbEntity
  8
RUNDUNGEN
100
AcDbLine
 62
7
  6
CONTINUOUS
 10
293.6592156705
 20
40.7956854119
 11
258.7880239962
 21
40.7956854119
  0
LINE
  5
7DE
100
AcDbEntity
  8
BEZUGSACHSEN
100
AcDbLine
 62
7
  6
CONTINUOUS
 10
240.3259586463
 20
69.5505622663
 11
240.3259586463
 21
67.7956854119
  0
LINE
  5
7DF
100
AcDbEntity
  8
BEZUGSACHSEN
100
AcDbLine
 62
7
  6
CONTINUOUS
 10
242.8321129786
 20
69.5140699167
 11
242.8321129786
 21
67.7956854119
  0
LINE
  5
7E0
100
AcDbEntity
  8
BEZUGSACHSEN
100
AcDbLine
 62
7
  6
CONTINUOUS
 10
243.4868907449
 20
69.4626980644
 11
243.4868907449
 21
67.7956854119
  0
LINE
  5
7E1
100
AcDbEntity
  8
BEZUGSACHSEN
100
AcDbLine
 62
7
  6
CONTINUOUS
 10
244.3025695766
 20
69.3074841971
 11
244.3025695766
 21
67.7956854119
  0
LINE
  5
7E2
100
AcDbEntity
  8
BEZUGSACHSEN
100
AcDbLine
 62
7
  6
CONTINUOUS
 10
245.1464875914
 20
69.1314817467
 11
245.1464875914
 21
67.7956854119
  0
LINE
  5
7E3
100
AcDbEntity
  8
BEZUGSACHSEN
100
AcDbLine
 62
7
  6
CONTINUOUS
 10
245.6488971316
 20
69.0223787152
 11
245.6488971316
 21
67.7956854119
  0
LINE
  5
7E4
100
AcDbEntity
  8
BEZUGSACHSEN
100
AcDbLine
 62
7
  6
CONTINUOUS
 10
246.1795462265
 20
68.908626558
 11
246.1795462265
 21
67.7956854119
  0
LINE
  5
7E5
100
AcDbEntity
  8
BEZUGSACHSEN
100
AcDbLine
 62
7
  6
CONTINUOUS
 10
246.3307905218
 20
69.5505622725
 11
246.3307905218
 21
67.7956854119
  0
LINE
  5
7E6
100
AcDbEntity
  8
0
100
AcDbLine
 62
7
  6
CONTINUOUS
 10
299.7236197586
 20
49.4156854119
 11
300.7236197586
 21
49.4156854119
  0
LINE
  5
7E7
100
AcDbEntity
  8
0
100
AcDbLine
 62
7
  6
CONTINUOUS
 10
299.7236197586
 20
49.6856854119
 11
300.7236197586
 21
49.6856854119
  0
LINE
  5
7E8
100
AcDbEntity
  8
0
100
AcDbLine
 62
7
  6
CONTINUOUS
 10
299.7236197586
 20
49.8133449711
 11
300.7236197586
 21
49.8133449711
  0
LINE
  5
7E9
100
AcDbEntity
  8
0
100
AcDbLine
 62
7
  6
CONTINUOUS
 10
299.7236197586
 20
50.1963236489
 11
300.7236197586
 21
50.1963236489
  0
LINE
  5
7EA
100
AcDbEntity
  8
0
100
AcDbLine
 62
7
  6
CONTINUOUS
 10
299.7236197586
 20
50.7069618859
 11
300.7236197586
 21
50.7069618859
  0
LINE
  5
7EB
100
AcDbEntity
  8
0
100
AcDbLine
 62
7
  6
CONTINUOUS
 10
299.7236197586
 20
51.0899405636
 11
300.7236197586
 21
51.0899405636
  0
LINE
  5
7EC
100
AcDbEntity
  8
0
100
AcDbLine
 62
7
  6
CONTINUOUS
 10
299.7236197586
 20
51.472919599
 11
300.7236197586
 21
51.472919599
  0
LINE
  5
7ED
100
AcDbEntity
  8
0
100
AcDbLine
 62
7
  6
CONTINUOUS
 10
299.7236197586
 20
51.8558982767
 11
300.7236197586
 21
51.8558982767
  0
LINE
  5
7EE
100
AcDbEntity
  8
0
100
AcDbLine
 62
7
  6
CONTINUOUS
 10
299.7236197586
 20
51.983557836
 11
300.7236197586
 21
51.983557836
  0
LINE
  5
7EF
100
AcDbEntity
  8
0
100
AcDbLine
 62
7
  6
CONTINUOUS
 10
299.7236197586
 20
52.3665365137
 11
300.7236197586
 21
52.3665365137
  0
LINE
  5
7F0
100
AcDbEntity
  8
BEZUGSACHSEN
100
AcDbLine
 62
7
  6
CONTINUOUS
 10
249.4337751256
 20
69.5140699149
 11
249.4337751256
 21
67.7956854119
  0
LINE
  5
7F1
100
AcDbEntity
  8
BEZUGSACHSEN
100
AcDbLine
 62
7
  6
CONTINUOUS
 10
250.1876419227
 20
69.4626980544
 11
250.1876419227
 21
67.7956854119
  0
LINE
  5
7F2
100
AcDbEntity
  8
BEZUGSACHSEN
100
AcDbLine
 62
7
  6
CONTINUOUS
 10
251.0270420237
 20
69.3074841931
 11
251.0270420237
 21
67.7956854119
  0
LINE
  5
7F3
100
AcDbEntity
  8
BEZUGSACHSEN
100
AcDbLine
 62
7
  6
CONTINUOUS
 10
251.8445627708
 20
69.1314817427
 11
251.8445627708
 21
67.7956854119
  0
LINE
  5
7F4
100
AcDbEntity
  8
BEZUGSACHSEN
100
AcDbLine
 62
7
  6
CONTINUOUS
 10
252.2960897962
 20
69.0223787187
 11
252.2960897962
 21
67.7956854119
  0
LINE
  5
7F5
100
AcDbEntity
  8
RUNDUNGEN
100
AcDbLine
 62
7
  6
CONTINUOUS
 10
252.7236197586
 20
92.7956854119
 11
252.7236197586
 21
115.7206048821
  0
LINE
  5
7F6
100
AcDbEntity
  8
BEZUGSACHSEN
100
AcDbLine
 62
7
  6
CONTINUOUS
 10
252.7257377688
 20
68.9086265605
 11
252.7257377688
 21
67.7956854119
  0
LINE
  5
7F7
100
AcDbEntity
  8
RUNDUNGEN
100
AcDbLine
 62
7
  6
CONTINUOUS
 10
252.7236197586
 20
45.8707659417
 11
252.7236197586
 21
67.7956854119
  0
LINE
  5
7F8
100
AcDbEntity
  8
0
100
AcDbLine
 62
7
  6
CONTINUOUS
 10
299.7236197586
 20
52.7495151915
 11
300.7236197586
 21
52.7495151915
  0
LINE
  5
7F9
100
AcDbEntity
  8
0
100
AcDbLine
 62
7
  6
CONTINUOUS
 10
299.7236197586
 20
53.3878129877
 11
300.7236197586
 21
53.3878129877
  0
LINE
  5
7FA
100
AcDbEntity
  8
0
100
AcDbLine
 62
7
  6
CONTINUOUS
 10
299.7236197586
 20
54.0261109628
 11
300.7236197586
 21
54.0261109628
  0
LINE
  5
7FB
100
AcDbEntity
  8
0
100
AcDbLine
 62
7
  6
CONTINUOUS
 10
299.7236197586
 20
54.6644088485
 11
300.7236197586
 21
54.6644088485
  0
LINE
  5
7FC
100
AcDbEntity
  8
0
100
AcDbLine
 62
7
  6
CONTINUOUS
 10
299.7236197586
 20
55.1750471302
 11
300.7236197586
 21
55.1750471302
  0
LINE
  5
7FD
100
AcDbEntity
  8
0
100
AcDbLine
 62
7
  6
CONTINUOUS
 10
299.7236197586
 20
55.5580258414
 11
300.7236197586
 21
55.5580258414
  0
LINE
  5
7FE
100
AcDbEntity
  8
0
100
AcDbLine
 62
7
  6
CONTINUOUS
 10
299.7236197586
 20
55.6856854119
 11
300.7236197586
 21
55.6856854119
  0
LINE
  5
7FF
100
AcDbEntity
  8
0
100
AcDbLine
 62
7
  6
CONTINUOUS
 10
299.7236197586
 20
55.8556854119
 11
300.7236197586
 21
55.8556854119
  0
LWPOLYLINE
  5
800
100
AcDbEntity
  8
RUNDUNGEN
100
AcDbPolyline
 62
7
  6
CONTINUOUS
 90
8
 70
0
 10
252.7236597428
 20
99.0054752261
 10
252.7279637307
 20
98.8426413162
 10
252.7680466607
 20
98.445274
 10
252.8493438102
 20
98.0541553816
 10
252.9706798337
 20
97.673587328
 10
253.1306217832
 20
97.3068049767
 10
253.3276109882
 20
96.9574091301
 10
253.5594010358
 20
96.628992233
  0
LINE
  5
801
100
AcDbEntity
  8
BEZUGSACHSEN
100
AcDbLine
 62
7
  6
CONTINUOUS
 10
252.9186822507
 20
68.8481617371
 11
252.9186822507
 21
67.7956854119
  0
LINE
  5
802
100
AcDbEntity
  8
BEZUGSACHSEN
100
AcDbLine
 62
7
  6
CONTINUOUS
 10
252.9604568468
 20
68.8026423813
 11
252.9604568468
 21
67.7956854119
  0
LINE
  5
803
100
AcDbEntity
  8
BEZUGSACHSEN
100
AcDbLine
 62
7
  6
CONTINUOUS
 10
255.4901603374
 20
68.7966174574
 11
255.4901603374
 21
67.7956854119
  0
LINE
  5
804
100
AcDbEntity
  8
BEZUGSACHSEN
100
AcDbLine
 62
7
  6
CONTINUOUS
 10
257.5165136398
 20
68.7968170551
 11
257.5165136398
 21
67.7956854119
  0
LINE
  5
805
100
AcDbEntity
  8
0
100
AcDbLine
 62
7
  6
CONTINUOUS
 10
238.7136210916
 20
57.7956854119
 11
238.128344461
 21
57.7956854119
  0
LINE
  5
806
100
AcDbEntity
  8
0
100
AcDbLine
 62
7
  6
CONTINUOUS
 10
237.1603692715
 20
60.5456863655
 11
236.598027793
 21
60.5456863655
  0
LINE
  5
807
100
AcDbEntity
  8
0
100
AcDbLine
 62
7
  6
CONTINUOUS
 10
236.5373505492
 20
61.7956844582
 11
235.9837146424
 21
61.7956844582
  0
LINE
  5
808
100
AcDbEntity
  8
BEZUGSACHSEN
100
AcDbLine
 62
7
  6
CONTINUOUS
 10
257.6716144372
 20
69.5574168434
 11
257.6716144372
 21
67.7956854119
  0
LINE
  5
809
100
AcDbEntity
  8
BEZUGSACHSEN
100
AcDbLine
 62
7
  6
CONTINUOUS
 10
258.606795442
 20
69.5333431035
 11
258.606795442
 21
67.7956854119
  0
LINE
  5
80A
100
AcDbEntity
  8
0
100
AcDbLine
 62
7
  6
CONTINUOUS
 10
235.6403719832
 20
63.7956854119
 11
235.0988097287
 21
63.7956854119
  0
LINE
  5
80B
100
AcDbEntity
  8
0
100
AcDbLine
 62
7
  6
CONTINUOUS
 10
235.4345276938
 20
64.2956863655
 11
234.8956627383
 21
64.2956863655
  0
LINE
  5
80C
100
AcDbEntity
  8
0
100
AcDbLine
 62
7
  6
CONTINUOUS
 10
235.334287409
 20
64.5456854119
 11
234.7967263197
 21
64.5456854119
  0
LINE
  5
80D
100
AcDbEntity
  8
0
100
AcDbLine
 62
7
  6
CONTINUOUS
 10
235.1391028448
 20
65.0456863655
 11
234.6040626966
 21
65.0456863655
  0
LINE
  5
80E
100
AcDbEntity
  8
0
100
AcDbLine
 62
7
  6
CONTINUOUS
 10
234.7695789423
 20
66.0456854119
 11
234.2392476662
 21
66.0456854119
  0
LINE
  5
80F
100
AcDbEntity
  8
BEZUGSACHSEN
100
AcDbLine
 62
7
  6
CONTINUOUS
 10
262.9709746536
 20
69.5333431035
 11
262.9709746536
 21
67.7956854119
  0
LINE
  5
810
100
AcDbEntity
  8
BEZUGSACHSEN
100
AcDbLine
 62
7
  6
CONTINUOUS
 10
263.9061556584
 20
69.5574168434
 11
263.9061556584
 21
67.7956854119
  0
LINE
  5
811
100
AcDbEntity
  8
BEZUGSACHSEN
100
AcDbLine
 62
7
  6
CONTINUOUS
 10
264.2456995782
 20
68.7956854119
 11
264.2456995782
 21
67.7956854119
  0
LINE
  5
812
100
AcDbEntity
  8
BEZUGSACHSEN
100
AcDbLine
 62
7
  6
CONTINUOUS
 10
266.3604309127
 20
69.5116175588
 11
266.3604309127
 21
67.7956854119
  0
LWPOLYLINE
  5
813
100
AcDbEntity
  8
RUNDUNGEN
100
AcDbPolyline
 62
7
  6
CONTINUOUS
 90
8
 70
0
 10
253.5493529135
 20
64.9495157665
 10
253.3201893398
 20
64.622186041
 10
253.1254777718
 20
64.2742056381
 10
252.9674270311
 20
63.9091133966
 10
252.847572946
 20
63.5304499968
 10
252.7673312993
 20
63.1414364641
 10
252.72785003
 20
62.7463441435
 10
252.7236599797
 20
62.5859435252
  0
LINE
  5
814
100
AcDbEntity
  8
0
100
AcDbLine
 62
7
  6
CONTINUOUS
 10
234.4272386501
 20
67.0456844582
 11
233.9011969337
 21
67.0456844582
  0
LINE
  5
815
100
AcDbEntity
  8
BEZUGSACHSEN
100
AcDbLine
 62
7
  6
CONTINUOUS
 10
313.3566154294
 20
67.7956854119
 11
294.0044835338
 21
67.7956854119
  0
LINE
  5
816
100
AcDbEntity
  8
BEZUGSACHSEN
100
AcDbLine
 62
7
  6
CONTINUOUS
 10
291.8036197586
 20
67.7956854119
 11
283.4436197586
 21
67.7956854119
  0
LINE
  5
817
100
AcDbEntity
  8
BEZUGSACHSEN
100
AcDbLine
 62
7
  6
CONTINUOUS
 10
276.0749106052
 20
67.7956854119
 11
269.7267503799
 21
67.7956854119
  0
LINE
  5
818
100
AcDbEntity
  8
BEZUGSACHSEN
100
AcDbLine
 62
7
  6
CONTINUOUS
 10
269.0579723497
 20
67.7956854119
 11
266.3604309127
 21
67.7956854119
  0
LINE
  5
819
100
AcDbEntity
  8
BEZUGSACHSEN
100
AcDbLine
 62
7
  6
CONTINUOUS
 10
264.2456995782
 20
67.7956854119
 11
255.4901603374
 21
67.7956854119
  0
LINE
  5
81A
100
AcDbEntity
  8
BEZUGSACHSEN
100
AcDbLine
 62
7
  6
CONTINUOUS
 10
252.9604568468
 20
67.7956854119
 11
240.3259586463
 21
67.7956854119
  0
LINE
  5
81B
100
AcDbEntity
  8
0
100
AcDbLine
 62
7
  6
CONTINUOUS
 10
234.0365364274
 20
68.2956854119
 11
233.5153067505
 21
68.2956854119
  0
LINE
  5
81C
100
AcDbEntity
  8
KONSTRUKTIONSELEMENTE
100
AcDbLine
 62
7
  6
CONTINUOUS
 10
316.6452577918
 20
68.7956854119
 11
313.3566154294
 21
68.7956854119
  0
LINE
  5
81D
100
AcDbEntity
  8
KONSTRUKTIONSELEMENTE
100
AcDbLine
 62
7
  6
CONTINUOUS
 10
307.3248096591
 20
68.7956854119
 11
304.5344898829
 21
68.7956854119
  0
LINE
  5
81E
100
AcDbEntity
  8
KONSTRUKTIONSELEMENTE
100
AcDbLine
 62
7
  6
CONTINUOUS
 10
295.8603154677
 20
68.7956854119
 11
291.8036197586
 21
68.7956854119
  0
LINE
  5
81F
100
AcDbEntity
  8
KONSTRUKTIONSELEMENTE
100
AcDbLine
 62
7
  6
CONTINUOUS
 10
285.8157380094
 20
68.7956854119
 11
276.0749106052
 21
68.7956854119
  0
LINE
  5
820
100
AcDbEntity
  8
KONSTRUKTIONSELEMENTE
100
AcDbLine
 62
7
  6
CONTINUOUS
 10
269.7267503799
 20
68.7956854119
 11
268.2155921809
 21
68.7956854119
  0
LINE
  5
821
100
AcDbEntity
  8
KONSTRUKTIONSELEMENTE
100
AcDbLine
 62
7
  6
CONTINUOUS
 10
266.3604309127
 20
68.7956854119
 11
264.0767798272
 21
68.7956854119
  0
LINE
  5
822
100
AcDbEntity
  8
KONSTRUKTIONSELEMENTE
100
AcDbLine
 62
7
  6
CONTINUOUS
 10
262.9709746536
 20
68.7956854119
 11
261.3362140118
 21
68.7956854119
  0
LINE
  5
823
100
AcDbEntity
  8
KONSTRUKTIONSELEMENTE
100
AcDbLine
 62
7
  6
CONTINUOUS
 10
257.6716144372
 20
68.7956854119
 11
252.9604568468
 21
68.7956854119
  0
LINE
  5
824
100
AcDbEntity
  8
KONSTRUKTIONSELEMENTE
100
AcDbLine
 62
7
  6
CONTINUOUS
 10
240.3259586463
 20
68.7956854119
 11
235.8017188361
 21
68.7956854119
  0
LINE
  5
825
100
AcDbEntity
  8
BEZUGSACHSEN
100
AcDbLine
 62
7
  6
CONTINUOUS
 10
267.337018711
 20
69.5116175588
 11
267.337018711
 21
67.7956854119
  0
LINE
  5
826
100
AcDbEntity
  8
BEZUGSACHSEN
100
AcDbLine
 62
7
  6
CONTINUOUS
 10
269.0579723497
 20
68.7956854119
 11
269.0579723497
 21
67.7956854119
  0
LINE
  5
827
100
AcDbEntity
  8
BEZUGSACHSEN
100
AcDbLine
 62
7
  6
CONTINUOUS
 10
269.7267503799
 20
69.5505622851
 11
269.7267503799
 21
67.7956854119
  0
LWPOLYLINE
  5
828
100
AcDbEntity
  8
RUNDUNGEN
100
AcDbPolyline
 62
7
  6
CONTINUOUS
 90
3
 70
0
 10
254.0029549756
 20
65.5058882356
 10
253.9861060896
 20
65.4841501502
 10
253.912593337
 20
65.3906512871
  0
LWPOLYLINE
  5
829
100
AcDbEntity
  8
RUNDUNGEN
100
AcDbPolyline
 62
7
  6
CONTINUOUS
 90
3
 70
0
 10
253.912593337
 20
65.3906512871
 10
253.8381943368
 20
65.2982176719
 10
253.7629115153
 20
65.2068812541
  0
LINE
  5
82A
100
AcDbEntity
  8
RUNDUNGEN
100
AcDbLine
 62
7
  6
CONTINUOUS
 10
253.6716517904
 20
65.0990906953
 11
253.5493529135
 21
64.9495157665
  0
LWPOLYLINE
  5
82B
100
AcDbEntity
  8
RUNDUNGEN
100
AcDbPolyline
 62
7
  6
CONTINUOUS
 90
3
 70
0
 10
253.7629115153
 20
65.2068812541
 10
253.686747171
 20
65.11667297
 10
253.6717551662
 20
65.0991727603
  0
LINE
  5
82C
100
AcDbEntity
  8
KONSTRUKTIONSELEMENTE
100
AcDbLine
 62
7
  6
CONTINUOUS
 10
329.6713746806
 20
72.7956854119
 11
328.0318328957
 21
72.7956854119
  0
LINE
  5
82D
100
AcDbEntity
  8
KONSTRUKTIONSELEMENTE
100
AcDbLine
 62
7
  6
CONTINUOUS
 10
224.4154066216
 20
72.7956854119
 11
222.7758648366
 21
72.7956854119
  0
LINE
  5
82E
100
AcDbEntity
  8
RUNDUNGEN
100
AcDbLine
 62
7
  6
CONTINUOUS
 10
253.6715786187
 20
96.4923653493
 11
253.6918728745
 21
96.4686954212
  0
LINE
  5
82F
100
AcDbEntity
  8
RUNDUNGEN
100
AcDbLine
 62
7
  6
CONTINUOUS
 10
253.6918728745
 20
96.4686954212
 11
253.768020377
 21
96.3783601265
  0
LINE
  5
830
100
AcDbEntity
  8
RUNDUNGEN
100
AcDbLine
 62
7
  6
CONTINUOUS
 10
253.768020377
 20
96.3783601265
 11
253.8432841491
 21
96.2868988273
  0
LINE
  5
831
100
AcDbEntity
  8
RUNDUNGEN
100
AcDbLine
 62
7
  6
CONTINUOUS
 10
253.5594010358
 20
96.628992233
 11
253.6715786187
 21
96.4923653493
  0
LWPOLYLINE
  5
832
100
AcDbEntity
  8
RUNDUNGEN
100
AcDbPolyline
 62
7
  6
CONTINUOUS
 90
3
 70
0
 10
253.8432841491
 20
96.2868988273
 10
253.9176620046
 20
96.1943424969
 10
253.9904160644
 20
96.1016602269
  0
LINE
  5
833
100
AcDbEntity
  8
RUNDUNGEN
100
AcDbLine
 62
7
  6
CONTINUOUS
 10
253.9904160644
 20
96.1016602269
 11
254.0029513095
 21
96.0854873216
  0
LINE
  5
834
100
AcDbEntity
  8
BEZUGSACHSEN
100
AcDbLine
 62
7
  6
CONTINUOUS
 10
273.7143921472
 20
69.5140699113
 11
273.7143921472
 21
67.7956854119
  0
LINE
  5
835
100
AcDbEntity
  8
BEZUGSACHSEN
100
AcDbLine
 62
7
  6
CONTINUOUS
 10
274.5585192163
 20
69.4626980343
 11
274.5585192163
 21
67.7956854119
  0
LINE
  5
836
100
AcDbEntity
  8
BEZUGSACHSEN
100
AcDbLine
 62
7
  6
CONTINUOUS
 10
275.263236351
 20
69.307484185
 11
275.263236351
 21
67.7956854119
  0
LINE
  5
837
100
AcDbEntity
  8
BEZUGSACHSEN
100
AcDbLine
 62
7
  6
CONTINUOUS
 10
275.815170113
 20
69.1314817348
 11
275.815170113
 21
67.7956854119
  0
LINE
  5
838
100
AcDbEntity
  8
BEZUGSACHSEN
100
AcDbLine
 62
7
  6
CONTINUOUS
 10
276.0214320267
 20
69.0223787256
 11
276.0214320267
 21
67.7956854119
  0
LINE
  5
839
100
AcDbEntity
  8
BEZUGSACHSEN
100
AcDbLine
 62
7
  6
CONTINUOUS
 10
276.0749106052
 20
68.9086265654
 11
276.0749106052
 21
67.7956854119
  0
LINE
  5
83A
100
AcDbEntity
  8
RUNDUNGEN
100
AcDbLine
 62
7
  6
CONTINUOUS
 10
296.2161009616
 20
93.4795193242
 11
296.2160262465
 21
93.4794721549
  0
LINE
  5
83B
100
AcDbEntity
  8
RUNDUNGEN
100
AcDbLine
 62
7
  6
CONTINUOUS
 10
256.2312226262
 20
93.4794662487
 11
256.2311385556
 21
93.4795193242
  0
LINE
  5
83C
100
AcDbEntity
  8
BEZUGSACHSEN
100
AcDbLine
 62
7
  6
CONTINUOUS
 10
283.4436197586
 20
68.7956854119
 11
283.4436197586
 21
67.7956854119
  0
LINE
  5
83D
100
AcDbEntity
  8
BEZUGSACHSEN
100
AcDbLine
 62
7
  6
CONTINUOUS
 10
285.5486197586
 20
68.7956854119
 11
285.5486197586
 21
67.7956854119
  0
LWPOLYLINE
  5
83E
100
AcDbEntity
  8
RUNDUNGEN
100
AcDbPolyline
 62
7
  6
CONTINUOUS
 90
8
 70
0
 10
298.8978865803
 20
96.6418550249
 10
299.1270501228
 20
96.9691846941
 10
299.3217616974
 20
97.3171650775
 10
299.4798124612
 20
97.6822573479
 10
299.5996665684
 20
98.060920814
 10
299.6799082262
 20
98.4499344048
 10
299.7193894929
 20
98.8450267454
 10
299.7235795285
 20
99.0054248824
  0
LINE
  5
83F
100
AcDbEntity
  8
RUNDUNGEN
100
AcDbLine
 62
7
  6
CONTINUOUS
 10
298.4442828515
 20
96.0854803774
 11
298.4670431772
 21
96.114736963
  0
LINE
  5
840
100
AcDbEntity
  8
RUNDUNGEN
100
AcDbLine
 62
7
  6
CONTINUOUS
 10
298.4670431772
 20
96.114736963
 11
298.5346273322
 21
96.2006958411
  0
LWPOLYLINE
  5
841
100
AcDbEntity
  8
RUNDUNGEN
100
AcDbPolyline
 62
7
  6
CONTINUOUS
 90
3
 70
0
 10
298.5346273322
 20
96.2006958411
 10
298.609024012
 20
96.2931271665
 10
298.6843091188
 20
96.3844669396
  0
LINE
  5
842
100
AcDbEntity
  8
RUNDUNGEN
100
AcDbLine
 62
7
  6
CONTINUOUS
 10
298.7755877217
 20
96.4922801187
 11
298.8978865803
 21
96.6418550249
  0
LWPOLYLINE
  5
843
100
AcDbEntity
  8
RUNDUNGEN
100
AcDbPolyline
 62
7
  6
CONTINUOUS
 90
3
 70
0
 10
298.6843091188
 20
96.3844669396
 10
298.7604804101
 20
96.4746838882
 10
298.7754842955
 20
96.4921979905
  0
LINE
  5
844
100
AcDbEntity
  8
KONSTRUKTIONSELEMENTE
100
AcDbLine
 62
7
  6
CONTINUOUS
 10
329.6713746806
 20
88.7956854119
 11
328.0318328957
 21
88.7956854119
  0
LINE
  5
845
100
AcDbEntity
  8
KONSTRUKTIONSELEMENTE
100
AcDbLine
 62
7
  6
CONTINUOUS
 10
224.4154066216
 20
88.7956854119
 11
222.7758648366
 21
88.7956854119
  0
LINE
  5
846
100
AcDbEntity
  8
RUNDUNGEN
100
AcDbLine
 62
7
  6
CONTINUOUS
 10
298.775660888
 20
65.0990054945
 11
298.7553722724
 21
65.1226688237
  0
LINE
  5
847
100
AcDbEntity
  8
RUNDUNGEN
100
AcDbLine
 62
7
  6
CONTINUOUS
 10
298.7553722724
 20
65.1226688237
 11
298.6792276629
 21
65.2130004694
  0
LINE
  5
848
100
AcDbEntity
  8
RUNDUNGEN
100
AcDbLine
 62
7
  6
CONTINUOUS
 10
298.6792276629
 20
65.2130004694
 11
298.6039647537
 21
65.3044604561
  0
LINE
  5
849
100
AcDbEntity
  8
RUNDUNGEN
100
AcDbLine
 62
7
  6
CONTINUOUS
 10
298.8878383953
 20
64.9623787074
 11
298.775660888
 21
65.0990054945
  0
LINE
  5
84A
100
AcDbEntity
  8
RUNDUNGEN
100
AcDbLine
 62
7
  6
CONTINUOUS
 10
298.6039647537
 20
65.3044604561
 11
298.5295859803
 21
65.397017645
  0
LINE
  5
84B
100
AcDbEntity
  8
RUNDUNGEN
100
AcDbLine
 62
7
  6
CONTINUOUS
 10
298.5295859803
 20
65.397017645
 11
298.4553861623
 21
65.4915537332
  0
LINE
  5
84C
100
AcDbEntity
  8
RUNDUNGEN
100
AcDbLine
 62
7
  6
CONTINUOUS
 10
298.4553861623
 20
65.4915537332
 11
298.4442800551
 21
65.5058940486
  0
LINE
  5
84D
100
AcDbEntity
  8
BEZUGSACHSEN
100
AcDbLine
 62
7
  6
CONTINUOUS
 10
290.2236197586
 20
68.911759036
 11
290.2236197586
 21
67.7956854119
  0
LINE
  5
84E
100
AcDbEntity
  8
BEZUGSACHSEN
100
AcDbLine
 62
7
  6
CONTINUOUS
 10
290.9636197586
 20
68.9955375067
 11
290.9636197586
 21
67.7956854119
  0
LINE
  5
84F
100
AcDbEntity
  8
KONSTRUKTIONSELEMENTE
100
AcDbLine
 62
7
  6
CONTINUOUS
 10
316.6454846926
 20
92.7956854119
 11
235.8019826554
 21
92.7956854119
  0
LINE
  5
850
100
AcDbEntity
  8
BEZUGSACHSEN
100
AcDbLine
 62
7
  6
CONTINUOUS
 10
291.8036197586
 20
68.975979408
 11
291.8036197586
 21
67.7956854119
  0
LINE
  5
851
100
AcDbEntity
  8
BEZUGSACHSEN
100
AcDbLine
 62
7
  6
CONTINUOUS
 10
294.0044835338
 20
68.7956854119
 11
294.0044835338
 21
67.7956854119
  0
LINE
  5
852
100
AcDbEntity
  8
BEZUGSACHSEN
100
AcDbLine
 62
7
  6
CONTINUOUS
 10
295.8603154677
 20
68.89478215
 11
295.8603154677
 21
67.7956854119
  0
LINE
  5
853
100
AcDbEntity
  8
0
100
AcDbLine
 62
7
  6
CONTINUOUS
 10
235.2358166948
 20
96.7956854119
 11
234.6995303646
 21
96.7956854119
  0
LWPOLYLINE
  5
854
100
AcDbEntity
  8
RUNDUNGEN
100
AcDbPolyline
 62
7
  6
CONTINUOUS
 90
8
 70
0
 10
299.7235797693
 20
62.5858969264
 10
299.719275791
 20
62.7487294436
 10
299.6791928596
 20
63.1460968156
 10
299.597895687
 20
63.5372155184
 10
299.4765596273
 20
63.91778365
 10
299.316617644
 20
64.2845660373
 10
299.1196284214
 20
64.6339618694
 10
298.8878383953
 20
64.9623787074
  0
LINE
  5
855
100
AcDbEntity
  8
BEZUGSACHSEN
100
AcDbLine
 62
7
  6
CONTINUOUS
 10
296.5408170311
 20
69.1514494072
 11
296.5408170311
 21
67.7956854119
  0
LINE
  5
856
100
AcDbEntity
  8
BEZUGSACHSEN
100
AcDbLine
 62
7
  6
CONTINUOUS
 10
298.0024292955
 20
69.5105801842
 11
298.0024292955
 21
67.7956854119
  0
LINE
  5
857
100
AcDbEntity
  8
BEZUGSACHSEN
100
AcDbLine
 62
7
  6
CONTINUOUS
 10
298.8686029004
 20
69.5147342199
 11
298.8686029004
 21
67.7956854119
  0
LINE
  5
858
100
AcDbEntity
  8
BEZUGSACHSEN
100
AcDbLine
 62
7
  6
CONTINUOUS
 10
298.9273183685
 20
68.8215595023
 11
298.9273183685
 21
67.7956854119
  0
LINE
  5
859
100
AcDbEntity
  8
RUNDUNGEN
100
AcDbLine
 62
7
  6
CONTINUOUS
 10
299.7236197586
 20
67.7956854119
 11
299.7236197586
 21
45.8707659417
  0
LINE
  5
85A
100
AcDbEntity
  8
BEZUGSACHSEN
100
AcDbLine
 62
7
  6
CONTINUOUS
 10
299.800506634
 20
68.9575220637
 11
299.800506634
 21
67.7956854119
  0
LINE
  5
85B
100
AcDbEntity
  8
BEZUGSACHSEN
100
AcDbLine
 62
7
  6
CONTINUOUS
 10
300.5917463443
 20
69.1250675394
 11
300.5917463443
 21
67.7956854119
  0
LINE
  5
85C
100
AcDbEntity
  8
0
100
AcDbLine
 62
7
  6
CONTINUOUS
 10
300.7236197586
 20
114.8087148064
 11
300.7236197586
 21
113.2729864013
  0
LINE
  5
85D
100
AcDbEntity
  8
0
100
AcDbLine
 62
7
  6
CONTINUOUS
 10
300.7236197586
 20
113.2536061354
 11
300.7236197586
 21
104.8090547658
  0
LINE
  5
85E
100
AcDbEntity
  8
0
100
AcDbLine
 62
7
  6
CONTINUOUS
 10
300.7236197586
 20
55.8555833094
 11
300.7236197586
 21
55.7272158878
  0
LINE
  5
85F
100
AcDbEntity
  8
0
100
AcDbLine
 62
7
  6
CONTINUOUS
 10
300.7236197586
 20
55.6856854119
 11
300.7236197586
 21
49.415823926
  0
LINE
  5
860
100
AcDbEntity
  8
RUNDUNGEN
100
AcDbLine
 62
7
  6
CONTINUOUS
 10
299.7236197586
 20
115.7206048821
 11
299.7236197586
 21
92.7956854119
  0
LINE
  5
861
100
AcDbEntity
  8
0
100
AcDbLine
 62
7
  6
CONTINUOUS
 10
238.1185019921
 20
102.7956854119
 11
237.542228884
 21
102.7956854119
  0
LINE
  5
862
100
AcDbEntity
  8
0
100
AcDbLine
 62
7
  6
CONTINUOUS
 10
299.7236197586
 20
104.8088847861
 11
300.7236197586
 21
104.8088847861
  0
LINE
  5
863
100
AcDbEntity
  8
0
100
AcDbLine
 62
7
  6
CONTINUOUS
 10
299.7236197586
 20
104.8339476006
 11
300.7236197586
 21
104.8339476006
  0
LINE
  5
864
100
AcDbEntity
  8
BEZUGSACHSEN
100
AcDbLine
 62
7
  6
CONTINUOUS
 10
301.4071659022
 20
69.3010412862
 11
301.4071659022
 21
67.7956854119
  0
LINE
  5
865
100
AcDbEntity
  8
BEZUGSACHSEN
100
AcDbLine
 62
7
  6
CONTINUOUS
 10
302.377071765
 20
69.4558992822
 11
302.377071765
 21
67.7956854119
  0
LINE
  5
866
100
AcDbEntity
  8
BEZUGSACHSEN
100
AcDbLine
 62
7
  6
CONTINUOUS
 10
303.1347226153
 20
69.5110411427
 11
303.1347226153
 21
67.7956854119
  0
LINE
  5
867
100
AcDbEntity
  8
BEZUGSACHSEN
100
AcDbLine
 62
7
  6
CONTINUOUS
 10
303.6559442729
 20
69.5110411533
 11
303.6559442729
 21
67.7956854119
  0
LINE
  5
868
100
AcDbEntity
  8
BEZUGSACHSEN
100
AcDbLine
 62
7
  6
CONTINUOUS
 10
304.201343093
 20
69.4558993177
 11
304.201343093
 21
67.7956854119
  0
LINE
  5
869
100
AcDbEntity
  8
BEZUGSACHSEN
100
AcDbLine
 62
7
  6
CONTINUOUS
 10
304.5344898829
 20
69.3010412862
 11
304.5344898829
 21
67.7956854119
  0
LINE
  5
86A
100
AcDbEntity
  8
0
100
AcDbLine
 62
7
  6
CONTINUOUS
 10
299.7236197586
 20
106.344783171
 11
300.7236197586
 21
106.344783171
  0
LINE
  5
86B
100
AcDbEntity
  8
0
100
AcDbLine
 62
7
  6
CONTINUOUS
 10
299.7236197586
 20
109.0480492157
 11
300.7236197586
 21
109.0480492157
  0
LINE
  5
86C
100
AcDbEntity
  8
BEZUGSACHSEN
100
AcDbLine
 62
7
  6
CONTINUOUS
 10
305.9759215887
 20
68.7967506857
 11
305.9759215887
 21
67.7956854119
  0
LINE
  5
86D
100
AcDbEntity
  8
0
100
AcDbLine
 62
7
  6
CONTINUOUS
 10
299.7236197586
 20
110.5588847861
 11
300.7236197586
 21
110.5588847861
  0
LINE
  5
86E
100
AcDbEntity
  8
0
100
AcDbLine
 62
7
  6
CONTINUOUS
 10
299.7236197586
 20
113.2729864013
 11
300.7236197586
 21
113.2729864013
  0
LINE
  5
86F
100
AcDbEntity
  8
0
100
AcDbLine
 62
7
  6
CONTINUOUS
 10
299.7236197586
 20
114.7838219717
 11
300.7236197586
 21
114.7838219717
  0
LINE
  5
870
100
AcDbEntity
  8
0
100
AcDbLine
 62
7
  6
CONTINUOUS
 10
299.7236197586
 20
114.8088847861
 11
300.7236197586
 21
114.8088847861
  0
LINE
  5
871
100
AcDbEntity
  8
BEZUGSACHSEN
100
AcDbLine
 62
7
  6
CONTINUOUS
 10
310.8250596364
 20
69.5505622349
 11
310.8250596364
 21
67.7956854119
  0
LINE
  5
872
100
AcDbEntity
  8
BEZUGSACHSEN
100
AcDbLine
 62
7
  6
CONTINUOUS
 10
313.0374990267
 20
69.5140699258
 11
313.0374990267
 21
67.7956854119
  0
LINE
  5
873
100
AcDbEntity
  8
BEZUGSACHSEN
100
AcDbLine
 62
7
  6
CONTINUOUS
 10
313.3566154294
 20
69.4626980076
 11
313.3566154294
 21
67.7956854119
  0
LINE
  5
874
100
AcDbEntity
  8
RUNDUNGEN
100
AcDbLine
 62
7
  6
CONTINUOUS
 10
258.7880238523
 20
120.7956854119
 11
293.6592155244
 21
120.7956854119
  0
LINE
  5
875
100
AcDbEntity
  8
KONSTRUKTIONSELEMENTE
100
AcDbLine
 62
7
  6
CONTINUOUS
 10
304.1659060992
 20
39.1931450334
 11
321.7498631605
 21
69.6494520616
  0
LINE
  5
876
100
AcDbEntity
  8
KONSTRUKTIONSELEMENTE
100
AcDbLine
 62
7
  6
CONTINUOUS
 10
298.281333418
 20
125.7956854119
 11
254.1659060992
 21
125.7956854119
  0
LINE
  5
877
100
AcDbEntity
  8
KONSTRUKTIONSELEMENTE
100
AcDbLine
 62
7
  6
CONTINUOUS
 10
321.7498631815
 20
91.9419187257
 11
304.1659060992
 21
122.3982257903
  0
LINE
  5
878
100
AcDbEntity
  8
KONSTRUKTIONSELEMENTE
100
AcDbLine
 62
7
  6
CONTINUOUS
 10
298.281333418
 20
35.7956854119
 11
304.1659060992
 21
39.1931450334
  0
LINE
  5
879
100
AcDbEntity
  8
KONSTRUKTIONSELEMENTE
100
AcDbLine
 62
7
  6
CONTINUOUS
 10
304.1659060992
 20
122.3982257903
 11
298.281333418
 21
125.7956854119
  0
ARC
  5
87A
100
AcDbEntity
  8
RUNDUNGEN
100
AcDbCircle
 62
7
  6
CONTINUOUS
 10
247.7236197586
 20
336.6575259147
 40
5.0
100
AcDbArc
 50
270.0002321825
 51
0.001039402
  0
ARC
  5
87B
100
AcDbEntity
  8
RUNDUNGEN
100
AcDbCircle
 62
7
  6
CONTINUOUS
 10
236.2236197586
 20
327.6575259147
 40
4.0
100
AcDbArc
 50
90.0
 51
180.0
  0
ARC
  5
87C
100
AcDbEntity
  8
KONSTRUKTIONSELEMENTE
100
AcDbCircle
 62
7
  6
CONTINUOUS
 10
98.2271310292
 20
442.6575259147
 40
234.5
100
AcDbArc
 50
346.5709883805
 51
13.4290116195
  0
ARC
  5
87D
100
AcDbEntity
  8
KONSTRUKTIONSELEMENTE
100
AcDbCircle
 62
7
  6
CONTINUOUS
 10
98.2271310292
 20
442.6575259147
 40
231.44427191
100
AcDbArc
 50
353.1760456275
 51
6.8239543725
  0
ARC
  5
87E
100
AcDbEntity
  8
KONSTRUKTIONSELEMENTE
100
AcDbCircle
 62
7
  6
CONTINUOUS
 10
98.2271310292
 20
442.6575259147
 40
213.55572809
100
AcDbArc
 50
352.601362855
 51
7.398637145
  0
ARC
  5
87F
100
AcDbEntity
  8
KONSTRUKTIONSELEMENTE
100
AcDbCircle
 62
7
  6
CONTINUOUS
 10
98.2271310292
 20
442.6575259147
 40
210.5
100
AcDbArc
 50
346.5709883805
 51
13.4290116195
  0
ARC
  5
880
100
AcDbEntity
  8
KONSTRUKTIONSELEMENTE
100
AcDbCircle
 62
7
  6
CONTINUOUS
 10
276.2236197586
 20
400.1575259147
 40
51.5
100
AcDbArc
 50
193.4290116195
 51
242.843895484
  0
ARC
  5
881
100
AcDbEntity
  8
KONSTRUKTIONSELEMENTE
100
AcDbCircle
 62
7
  6
CONTINUOUS
 10
276.2236197586
 20
400.1575259147
 40
51.5
100
AcDbArc
 50
298.4107891066
 51
346.5709883805
  0
ARC
  5
882
100
AcDbEntity
  8
KONSTRUKTIONSELEMENTE
100
AcDbCircle
 62
7
  6
CONTINUOUS
 10
276.2236197586
 20
400.1575259147
 40
27.5
100
AcDbArc
 50
193.4290116195
 51
211.8301357483
  0
ARC
  5
883
100
AcDbEntity
  8
KONSTRUKTIONSELEMENTE
100
AcDbCircle
 62
7
  6
CONTINUOUS
 10
276.2236197586
 20
400.1575259147
 40
27.5
100
AcDbArc
 50
328.1698642548
 51
346.5709883805
  0
ARC
  5
884
100
AcDbEntity
  8
RUNDUNGEN
100
AcDbCircle
 62
7
  6
CONTINUOUS
 10
276.2236197586
 20
383.1575259147
 40
23.5
100
AcDbArc
 50
359.9996034953
 51
180.0
  0
ARC
  5
885
100
AcDbEntity
  8
RUNDUNGEN
100
AcDbCircle
 62
7
  6
CONTINUOUS
 10
304.7236197586
 20
336.6575259147
 40
5.0
100
AcDbArc
 50
179.9995325171
 51
269.9996456824
  0
ARC
  5
886
100
AcDbEntity
  8
RUNDUNGEN
100
AcDbCircle
 62
7
  6
CONTINUOUS
 10
316.2236197586
 20
327.6575259147
 40
4.0
100
AcDbArc
 50
0.0
 51
90.0
  0
ARC
  5
887
100
AcDbEntity
  8
KONSTRUKTIONSELEMENTE
100
AcDbCircle
 62
7
  6
CONTINUOUS
 10
454.220108488
 20
442.6575259147
 40
234.5
100
AcDbArc
 50
166.5709883805
 51
193.4290116195
  0
ARC
  5
888
100
AcDbEntity
  8
KONSTRUKTIONSELEMENTE
100
AcDbCircle
 62
7
  6
CONTINUOUS
 10
454.220108488
 20
442.6575259147
 40
231.44427191
100
AcDbArc
 50
173.1760456275
 51
186.8239543725
  0
ARC
  5
889
100
AcDbEntity
  8
KONSTRUKTIONSELEMENTE
100
AcDbCircle
 62
7
  6
CONTINUOUS
 10
454.220108488
 20
442.6575259147
 40
213.55572809
100
AcDbArc
 50
172.601362855
 51
187.398637145
  0
ARC
  5
88A
100
AcDbEntity
  8
KONSTRUKTIONSELEMENTE
100
AcDbCircle
 62
7
  6
CONTINUOUS
 10
454.220108488
 20
442.6575259147
 40
210.5
100
AcDbArc
 50
166.5709883805
 51
193.4290116195
  0
ARC
  5
88B
100
AcDbEntity
  8
KONSTRUKTIONSELEMENTE
100
AcDbCircle
 62
7
  6
CONTINUOUS
 10
276.2236197586
 20
485.1575259147
 40
51.5
100
AcDbArc
 50
13.4290116195
 51
166.5709883805
  0
ARC
  5
88C
100
AcDbEntity
  8
KONSTRUKTIONSELEMENTE
100
AcDbCircle
 62
7
  6
CONTINUOUS
 10
276.2236197586
 20
485.1575259147
 40
27.5
100
AcDbArc
 50
13.4290116195
 51
166.5709883805
  0
ARC
  5
88D
100
AcDbEntity
  8
BEZUGSACHSEN
100
AcDbCircle
 62
7
  6
CONTINUOUS
 10
288.1336197586
 20
522.3475259147
 40
2.585
100
AcDbArc
 50
200.008260062
 51
20.2299077309
  0
ARC
  5
88E
100
AcDbEntity
  8
BEZUGSACHSEN
100
AcDbCircle
 62
7
  6
CONTINUOUS
 10
288.1336197586
 20
522.3475259147
 40
2.585
100
AcDbArc
 50
36.0493290536
 51
185.9635951441
  0
CIRCLE
  5
88F
100
AcDbEntity
  8
BEZUGSACHSEN
100
AcDbCircle
 62
7
  6
CONTINUOUS
 10
288.1336197586
 20
522.3475259147
 40
1.76
  0
ARC
  5
890
100
AcDbEntity
  8
RUNDUNGEN
100
AcDbCircle
 62
7
  6
CONTINUOUS
 10
399.9973464421
 20
367.9254862733
 40
5.000002792
100
AcDbArc
 50
329.9998891883
 51
359.9998720455
  0
ARC
  5
891
100
AcDbEntity
  8
RUNDUNGEN
100
AcDbCircle
 62
7
  6
CONTINUOUS
 10
405.9973485551
 20
358.3177836124
 40
5.0
100
AcDbArc
 50
150.0000484265
 51
180.0000419385
  0
ARC
  5
892
100
AcDbEntity
  8
RUNDUNGEN
100
AcDbCircle
 62
7
  6
CONTINUOUS
 10
413.0795944803
 20
402.6574971176
 40
4.0
100
AcDbArc
 50
90.0003233722
 51
145.0
  0
ARC
  5
893
100
AcDbEntity
  8
RUNDUNGEN
100
AcDbCircle
 62
7
  6
CONTINUOUS
 10
408.9973464421
 20
396.8274427188
 40
4.0
100
AcDbArc
 50
145.0
 51
180.0
  0
ARC
  5
894
100
AcDbEntity
  8
RUNDUNGEN
100
AcDbCircle
 62
7
  6
CONTINUOUS
 10
426.7011719786
 20
402.6575259147
 40
4.0
100
AcDbArc
 50
50.8832562204
 51
90.0
  0
ARC
  5
895
100
AcDbEntity
  8
BEZUGSACHSEN
100
AcDbCircle
 62
7
  6
CONTINUOUS
 10
384.5943540689
 20
512.4566222564
 40
71.6882225754
100
AcDbArc
 50
358.0833431335
 51
0.5753764816
  0
ARC
  5
896
100
AcDbEntity
  8
BEZUGSACHSEN
100
AcDbCircle
 62
7
  6
CONTINUOUS
 10
409.2728524541
 20
518.9602196784
 40
47.0097220059
100
AcDbArc
 50
357.6331361775
 51
0.7103162569
  0
ARC
  5
897
100
AcDbEntity
  8
BEZUGSACHSEN
100
AcDbCircle
 62
7
  6
CONTINUOUS
 10
418.2727586416
 20
517.0470551051
 40
38.202781856
100
AcDbArc
 50
354.1850683446
 51
355.0028644211
  0
ARC
  5
898
100
AcDbEntity
  8
BEZUGSACHSEN
100
AcDbCircle
 62
7
  6
CONTINUOUS
 10
436.1267938443
 20
522.3719572048
 40
20.349763431
100
AcDbArc
 50
352.0090514364
 51
353.1273077865
  0
ARC
  5
899
100
AcDbEntity
  8
RUNDUNGEN
100
AcDbCircle
 62
7
  6
CONTINUOUS
 10
444.9973464421
 20
355.1575259147
 40
18.5
100
AcDbArc
 50
130.4496667344
 51
49.5503288351
  0
ARC
  5
89A
100
AcDbEntity
  8
KONSTRUKTIONSELEMENTE
100
AcDbCircle
 62
7
  6
CONTINUOUS
 10
444.9973464421
 20
360.6575259147
 40
12.0
100
AcDbArc
 50
180.0
 51
360.0
  0
ARC
  5
89B
100
AcDbEntity
  8
0
100
AcDbCircle
 62
7
  6
CONTINUOUS
 10
444.9973464421
 20
425.1575259147
 40
25.0
100
AcDbArc
 50
230.8832562204
 51
243.1315481213
  0
ARC
  5
89C
100
AcDbEntity
  8
0
100
AcDbCircle
 62
7
  6
CONTINUOUS
 10
444.9973464421
 20
425.1575259147
 40
25.0
100
AcDbArc
 50
296.8684518787
 51
309.1167437796
  0
ARC
  5
89D
100
AcDbEntity
  8
RUNDUNGEN
100
AcDbCircle
 62
7
  6
CONTINUOUS
 10
463.2935209056
 20
402.6575259147
 40
4.0
100
AcDbArc
 50
90.0
 51
129.1167437796
  0
ARC
  5
89E
100
AcDbEntity
  8
RUNDUNGEN
100
AcDbCircle
 62
7
  6
CONTINUOUS
 10
489.9973464421
 20
367.9254751072
 40
5.0
100
AcDbArc
 50
180.1897183196
 51
210.0
  0
ARC
  5
89F
100
AcDbEntity
  8
RUNDUNGEN
100
AcDbCircle
 62
7
  6
CONTINUOUS
 10
483.997344344
 20
358.3177835865
 40
5.0
100
AcDbArc
 50
359.9999583583
 51
29.9999519162
  0
ARC
  5
8A0
100
AcDbEntity
  8
RUNDUNGEN
100
AcDbCircle
 62
7
  6
CONTINUOUS
 10
476.915098329
 20
402.6574972245
 40
4.0
100
AcDbArc
 50
35.0
 51
89.9996778505
  0
ARC
  5
8A1
100
AcDbEntity
  8
RUNDUNGEN
100
AcDbCircle
 62
7
  6
CONTINUOUS
 10
480.9973464421
 20
396.8274427188
 40
4.0
100
AcDbArc
 50
0.0
 51
35.0
  0
ARC
  5
8A2
100
AcDbEntity
  8
BEZUGSACHSEN
100
AcDbCircle
 62
7
  6
CONTINUOUS
 10
442.0662760588
 20
525.9522564309
 40
14.2152068032
100
AcDbArc
 50
3.1731172955
 51
4.603965747
  0
ARC
  5
8A3
100
AcDbEntity
  8
BEZUGSACHSEN
100
AcDbCircle
 62
7
  6
CONTINUOUS
 10
442.0662760588
 20
525.8731717786
 40
14.2152068032
100
AcDbArc
 50
355.396034253
 51
356.8268827045
  0
ARC
  5
8A4
100
AcDbEntity
  8
BEZUGSACHSEN
100
AcDbCircle
 62
7
  6
CONTINUOUS
 10
444.2308697792
 20
522.4740715157
 40
12.7625644134
100
AcDbArc
 50
11.8152864904
 51
19.5229011516
  0
ARC
  5
8A5
100
AcDbEntity
  8
KONSTRUKTIONSELEMENTE
100
AcDbCircle
 62
7
  6
CONTINUOUS
 10
444.9973464421
 20
524.6575259147
 40
12.0
100
AcDbArc
 50
19.5984407097
 51
180.0
  0
ARC
  5
8A6
100
AcDbEntity
  8
BEZUGSACHSEN
100
AcDbCircle
 62
7
  6
CONTINUOUS
 10
445.0027304597
 20
524.1722551446
 40
11.9947944087
100
AcDbArc
 50
17.7373134387
 51
17.9504400611
  0
ARC
  5
8A7
100
AcDbEntity
  8
BEZUGSACHSEN
100
AcDbCircle
 62
7
  6
CONTINUOUS
 10
445.0217017879
 20
524.1785466507
 40
11.974807534
100
AcDbArc
 50
17.949777843
 51
20.4411899338
  0
ARC
  5
8A8
100
AcDbEntity
  8
BEZUGSACHSEN
100
AcDbCircle
 62
7
  6
CONTINUOUS
 10
445.4697366145
 20
523.6045992581
 40
11.5296579378
100
AcDbArc
 50
17.6217688074
 51
17.9615736801
  0
ARC
  5
8A9
100
AcDbEntity
  8
BEZUGSACHSEN
100
AcDbCircle
 62
7
  6
CONTINUOUS
 10
445.4772060853
 20
523.6070746017
 40
11.5217891583
100
AcDbArc
 50
17.9613186961
 51
20.3279370104
  0
ARC
  5
8AA
100
AcDbEntity
  8
BEZUGSACHSEN
100
AcDbCircle
 62
7
  6
CONTINUOUS
 10
455.4799720116
 20
525.8109833203
 40
5.9353848685
100
AcDbArc
 50
278.2371037064
 51
279.754125239
  0
ARC
  5
8AB
100
AcDbEntity
  8
BEZUGSACHSEN
100
AcDbCircle
 62
7
  6
CONTINUOUS
 10
450.7067986409
 20
527.7172221629
 40
5.5756532138
100
AcDbArc
 50
358.8946418788
 51
1.1053581212
  0
ARC
  5
8AC
100
AcDbEntity
  8
BEZUGSACHSEN
100
AcDbCircle
 62
7
  6
CONTINUOUS
 10
453.9412298514
 20
515.736804307
 40
3.1269594373
100
AcDbArc
 50
319.8211461416
 51
324.4562147628
  0
ARC
  5
8AD
100
AcDbEntity
  8
RUNDUNGEN
100
AcDbCircle
 62
7
  6
CONTINUOUS
 10
234.2236197586
 20
80.7956854119
 40
25.0
100
AcDbArc
 50
33.6423148658
 51
39.1167437796
  0
ARC
  5
8AE
100
AcDbEntity
  8
RUNDUNGEN
100
AcDbCircle
 62
7
  6
CONTINUOUS
 10
234.2236197586
 20
80.7956854119
 40
25.0
100
AcDbArc
 50
320.8832562204
 51
326.3576851342
  0
ARC
  5
8AF
100
AcDbEntity
  8
KONSTRUKTIONSELEMENTE
100
AcDbCircle
 62
7
  6
CONTINUOUS
 10
235.8020216879
 20
80.3797304857
 40
12.4159515237
100
AcDbArc
 50
89.9900486989
 51
90.1049961071
  0
ARC
  5
8B0
100
AcDbEntity
  8
KONSTRUKTIONSELEMENTE
100
AcDbCircle
 62
7
  6
CONTINUOUS
 10
235.802104304
 20
81.1900961979
 40
12.3944084855
100
AcDbArc
 50
269.8942650934
 51
270.0083000579
  0
ARC
  5
8B1
100
AcDbEntity
  8
KONSTRUKTIONSELEMENTE
100
AcDbCircle
 62
7
  6
CONTINUOUS
 10
231.720108488
 20
80.7956854119
 40
12.0
100
AcDbArc
 50
138.1896851042
 51
221.8103148958
  0
ARC
  5
8B2
100
AcDbEntity
  8
BEZUGSACHSEN
100
AcDbCircle
 62
7
  6
CONTINUOUS
 10
242.25349716
 20
115.8517296234
 40
46.3412721378
100
AcDbArc
 50
267.6161273384
 51
270.7154120786
  0
ARC
  5
8B3
100
AcDbEntity
  8
RUNDUNGEN
100
AcDbCircle
 62
7
  6
CONTINUOUS
 10
248.2236197586
 20
80.7956854119
 40
15.0
100
AcDbArc
 50
53.1350252987
 51
57.7350895893
  0
ARC
  5
8B4
100
AcDbEntity
  8
BEZUGSACHSEN
100
AcDbCircle
 62
7
  6
CONTINUOUS
 10
247.9666326285
 20
80.9066665942
 40
12.1081871568
100
AcDbArc
 50
256.5314114303
 51
258.9644006146
  0
ARC
  5
8B5
100
AcDbEntity
  8
BEZUGSACHSEN
100
AcDbCircle
 62
7
  6
CONTINUOUS
 10
254.4039038132
 20
78.7345298298
 40
9.9382472868
100
AcDbArc
 50
255.0767814033
 51
257.7550744557
  0
ARC
  5
8B6
100
AcDbEntity
  8
BEZUGSACHSEN
100
AcDbCircle
 62
7
  6
CONTINUOUS
 10
247.4902921481
 20
76.3178059991
 40
7.5242271936
100
AcDbArc
 50
255.8341933692
 51
259.9676960398
  0
ARC
  5
8B7
100
AcDbEntity
  8
BEZUGSACHSEN
100
AcDbCircle
 62
7
  6
CONTINUOUS
 10
253.8166063718
 20
73.8971732338
 40
5.1064265609
100
AcDbArc
 50
252.6765695283
 51
257.6650339091
  0
ARC
  5
8B8
100
AcDbEntity
  8
RUNDUNGEN
100
AcDbCircle
 62
7
  6
CONTINUOUS
 10
258.7880328225
 20
44.7956811284
 40
4.0000000003
100
AcDbArc
 50
244.1580076131
 51
269.999584787
  0
ARC
  5
8B9
100
AcDbEntity
  8
RUNDUNGEN
100
AcDbCircle
 62
7
  6
CONTINUOUS
 10
256.7236197586
 20
62.4995109483
 40
4.0
100
AcDbArc
 50
140.8832562204
 51
180.0
  0
ARC
  5
8BA
100
AcDbEntity
  8
RUNDUNGEN
100
AcDbCircle
 62
7
  6
CONTINUOUS
 10
258.3664769015
 20
64.7294957896
 40
4.0
100
AcDbArc
 50
129.9414125317
 51
146.3551390299
  0
ARC
  5
8BB
100
AcDbEntity
  8
RUNDUNGEN
100
AcDbCircle
 62
7
  6
CONTINUOUS
 10
256.7236101876
 20
45.8707694396
 40
3.9999957462
100
AcDbArc
 50
180.000050104
 51
240.8237482715
  0
ARC
  5
8BC
100
AcDbEntity
  8
BEZUGSACHSEN
100
AcDbCircle
 62
7
  6
CONTINUOUS
 10
247.1310676709
 20
72.7827715493
 40
3.9892847069
100
AcDbArc
 50
256.20083456
 51
258.4275233053
  0
ARC
  5
8BD
100
AcDbEntity
  8
BEZUGSACHSEN
100
AcDbCircle
 62
7
  6
CONTINUOUS
 10
253.3954329995
 20
70.7008513833
 40
1.9132593963
100
AcDbArc
 50
249.5109444334
 51
251.0414776444
  0
ARC
  5
8BE
100
AcDbEntity
  8
BEZUGSACHSEN
100
AcDbCircle
 62
7
  6
CONTINUOUS
 10
253.3696213744
 20
70.6237336184
 40
1.8319393001
100
AcDbArc
 50
251.0213719102
 51
255.749960233
  0
ARC
  5
8BF
100
AcDbEntity
  8
BEZUGSACHSEN
100
AcDbCircle
 62
7
  6
CONTINUOUS
 10
247.4886312028
 20
124.6668038797
 40
55.3489586674
100
AcDbArc
 50
265.173990924
 51
265.853886477
  0
ARC
  5
8C0
100
AcDbEntity
  8
BEZUGSACHSEN
100
AcDbCircle
 62
7
  6
CONTINUOUS
 10
255.8485858297
 20
97.7298574107
 40
28.8284336029
100
AcDbArc
 50
258.6754274759
 51
260.3720570499
  0
ARC
  5
8C1
100
AcDbEntity
  8
BEZUGSACHSEN
100
AcDbCircle
 62
7
  6
CONTINUOUS
 10
248.9978295375
 20
96.202863351
 40
27.3021406841
100
AcDbArc
 50
258.3548334829
 51
260.0973850899
  0
ARC
  5
8C2
100
AcDbEntity
  8
BEZUGSACHSEN
100
AcDbCircle
 62
7
  6
CONTINUOUS
 10
248.5199693574
 20
87.418325287
 40
18.5954033539
100
AcDbArc
 50
256.8913720214
 51
259.5478200384
  0
ARC
  5
8C3
100
AcDbEntity
  8
BEZUGSACHSEN
100
AcDbCircle
 62
7
  6
CONTINUOUS
 10
255.1226258438
 20
86.3445551
 40
17.5224311074
100
AcDbArc
 50
256.4830056034
 51
259.2176858196
  0
ARC
  5
8C4
100
AcDbEntity
  8
RUNDUNGEN
100
AcDbCircle
 62
7
  6
CONTINUOUS
 10
258.7880239845
 20
116.7956854119
 40
4.0
100
AcDbArc
 50
90.0000018936
 51
115.8419370084
  0
ARC
  5
8C5
100
AcDbEntity
  8
RUNDUNGEN
100
AcDbCircle
 62
7
  6
CONTINUOUS
 10
258.3664769015
 20
96.8618750342
 40
4.0
100
AcDbArc
 50
213.6448889392
 51
237.7365137202
  0
ARC
  5
8C6
100
AcDbEntity
  8
RUNDUNGEN
100
AcDbCircle
 62
7
  6
CONTINUOUS
 10
256.7236197586
 20
115.7206048821
 40
4.0
100
AcDbArc
 50
119.176395855
 51
180.0
  0
ARC
  5
8C7
100
AcDbEntity
  8
RUNDUNGEN
100
AcDbCircle
 62
7
  6
CONTINUOUS
 10
256.7236197586
 20
99.0918598754
 40
4.0
100
AcDbArc
 50
180.0
 51
219.1167437796
  0
ARC
  5
8C8
100
AcDbEntity
  8
BEZUGSACHSEN
100
AcDbCircle
 62
7
  6
CONTINUOUS
 10
272.7934715047
 20
186.7716560207
 40
117.2612024288
100
AcDbArc
 50
268.5013780335
 51
270.4499818134
  0
ARC
  5
8C9
100
AcDbEntity
  8
BEZUGSACHSEN
100
AcDbCircle
 62
7
  6
CONTINUOUS
 10
266.8487248118
 20
184.3906280321
 40
114.8800482166
100
AcDbArc
 50
269.7564654241
 51
270.2435345759
  0
ARC
  5
8CA
100
AcDbEntity
  8
BEZUGSACHSEN
100
AcDbCircle
 62
7
  6
CONTINUOUS
 10
260.9034340685
 20
168.026399342
 40
98.5147544851
100
AcDbArc
 50
271.2025614647
 51
271.7466411499
  0
ARC
  5
8CB
100
AcDbEntity
  8
BEZUGSACHSEN
100
AcDbCircle
 62
7
  6
CONTINUOUS
 10
260.6743360271
 20
168.026399341
 40
98.5147544841
100
AcDbArc
 50
268.2533588501
 51
268.7974385353
  0
ARC
  5
8CC
100
AcDbEntity
  8
BEZUGSACHSEN
100
AcDbCircle
 62
7
  6
CONTINUOUS
 10
254.7874639784
 20
142.5207922421
 40
73.2027560225
100
AcDbArc
 50
265.8059245065
 51
266.3973469079
  0
ARC
  5
8CD
100
AcDbEntity
  8
BEZUGSACHSEN
100
AcDbCircle
 62
7
  6
CONTINUOUS
 10
248.7172470616
 20
140.5302275759
 40
71.0197723271
100
AcDbArc
 50
268.074344252
 51
270.5780746564
  0
ARC
  5
8CE
100
AcDbEntity
  8
BEZUGSACHSEN
100
AcDbCircle
 62
7
  6
CONTINUOUS
 10
297.9412495027
 20
79.6900348249
 40
10.892367385
100
AcDbArc
 50
279.8281474215
 51
284.0834729629
  0
ARC
  5
8CF
100
AcDbEntity
  8
BEZUGSACHSEN
100
AcDbCircle
 62
7
  6
CONTINUOUS
 10
278.1604151389
 20
77.4394557315
 40
8.6326476913
100
AcDbArc
 50
250.3905338389
 51
254.2362402428
  0
ARC
  5
8D0
100
AcDbEntity
  8
BEZUGSACHSEN
100
AcDbCircle
 62
7
  6
CONTINUOUS
 10
298.3317201955
 20
75.5185583585
 40
6.7234314799
100
AcDbArc
 50
275.0822340309
 51
282.6184717036
  0
ARC
  5
8D1
100
AcDbEntity
  8
BEZUGSACHSEN
100
AcDbCircle
 62
7
  6
CONTINUOUS
 10
298.4322281582
 20
73.5275710708
 40
4.7319825866
100
AcDbArc
 50
275.2914074833
 51
276.0056411724
  0
ARC
  5
8D2
100
AcDbEntity
  8
RUNDUNGEN
100
AcDbCircle
 62
7
  6
CONTINUOUS
 10
293.6592155328
 20
44.7956854119
 40
4.0
100
AcDbArc
 50
270.0000019722
 51
295.8419366856
  0
ARC
  5
8D3
100
AcDbEntity
  8
RUNDUNGEN
100
AcDbCircle
 62
7
  6
CONTINUOUS
 10
295.7236197586
 20
45.8707659417
 40
4.0
100
AcDbArc
 50
299.176395855
 51
360.0
  0
ARC
  5
8D4
100
AcDbEntity
  8
RUNDUNGEN
100
AcDbCircle
 62
7
  6
CONTINUOUS
 10
295.7236197586
 20
62.4995109483
 40
4.0
100
AcDbArc
 50
0.0
 51
39.1167437796
  0
ARC
  5
8D5
100
AcDbEntity
  8
RUNDUNGEN
100
AcDbCircle
 62
7
  6
CONTINUOUS
 10
294.0807626158
 20
64.7294957896
 40
4.0
100
AcDbArc
 50
33.6450003128
 51
49.7067302766
  0
ARC
  5
8D6
100
AcDbEntity
  8
BEZUGSACHSEN
100
AcDbCircle
 62
7
  6
CONTINUOUS
 10
295.0476266736
 20
72.0359900689
 40
3.2446340727
100
AcDbArc
 50
284.5054227334
 51
285.7894761815
  0
ARC
  5
8D7
100
AcDbEntity
  8
BEZUGSACHSEN
100
AcDbCircle
 62
7
  6
CONTINUOUS
 10
277.2073371487
 20
71.5138845423
 40
2.7593427102
100
AcDbArc
 50
239.6999419246
 51
244.5465201044
  0
ARC
  5
8D8
100
AcDbEntity
  8
0
100
AcDbCircle
 62
7
  6
CONTINUOUS
 10
276.2236197586
 20
80.7956854119
 40
44.5
100
AcDbArc
 50
202.4590156109
 51
211.1214551226
  0
ARC
  5
8D9
100
AcDbEntity
  8
0
100
AcDbCircle
 62
7
  6
CONTINUOUS
 10
276.2236197586
 20
80.7956854119
 40
44.5
100
AcDbArc
 50
195.3484703161
 51
201.7641306659
  0
ARC
  5
8DA
100
AcDbEntity
  8
0
100
AcDbCircle
 62
7
  6
CONTINUOUS
 10
276.2236197586
 20
80.7956854119
 40
44.5
100
AcDbArc
 50
150.3709915468
 51
164.6515223345
  0
ARC
  5
8DB
100
AcDbEntity
  8
RUNDUNGEN
100
AcDbCircle
 62
7
  6
CONTINUOUS
 10
276.2236197586
 20
80.7956854119
 40
44.0
100
AcDbArc
 50
195.6415400604
 51
344.3587483084
  0
ARC
  5
8DC
100
AcDbEntity
  8
RUNDUNGEN
100
AcDbCircle
 62
7
  6
CONTINUOUS
 10
276.2236197586
 20
80.7956854119
 40
44.0
100
AcDbArc
 50
15.6412520525
 51
164.3584659463
  0
ARC
  5
8DD
100
AcDbEntity
  8
BEZUGSACHSEN
100
AcDbCircle
 62
7
  6
CONTINUOUS
 10
279.3722831524
 20
89.6412011283
 40
20.7447417518
100
AcDbArc
 50
256.5823576717
 51
258.5754968109
  0
ARC
  5
8DE
100
AcDbEntity
  8
BEZUGSACHSEN
100
AcDbCircle
 62
7
  6
CONTINUOUS
 10
288.0275736848
 20
91.6190667101
 40
22.8132514159
100
AcDbArc
 50
275.5239521041
 51
277.3944276617
  0
ARC
  5
8DF
100
AcDbEntity
  8
BEZUGSACHSEN
100
AcDbCircle
 62
7
  6
CONTINUOUS
 10
297.3673017965
 20
86.0435744767
 40
17.223034565
100
AcDbArc
 50
280.7904147916
 51
283.5657873545
  0
ARC
  5
8E0
100
AcDbEntity
  8
BEZUGSACHSEN
100
AcDbCircle
 62
7
  6
CONTINUOUS
 10
293.2909751882
 20
85.5316978713
 40
16.699521303
100
AcDbArc
 50
281.221759903
 51
286.3874359363
  0
ARC
  5
8E1
100
AcDbEntity
  8
RUNDUNGEN
100
AcDbCircle
 62
7
  6
CONTINUOUS
 10
294.0807626158
 20
96.8618750342
 40
4.0
100
AcDbArc
 50
302.2649104107
 51
326.3576851342
  0
ARC
  5
8E2
100
AcDbEntity
  8
BEZUGSACHSEN
100
AcDbCircle
 62
7
  6
CONTINUOUS
 10
296.3265270544
 20
104.2368581945
 40
35.3033170418
100
AcDbArc
 50
278.2743919339
 51
279.8684968537
  0
ARC
  5
8E3
100
AcDbEntity
  8
RUNDUNGEN
100
AcDbCircle
 62
7
  6
CONTINUOUS
 10
293.6592155328
 20
116.7956854119
 40
4.0
100
AcDbArc
 50
64.1580653705
 51
90.00000012
  0
ARC
  5
8E4
100
AcDbEntity
  8
RUNDUNGEN
100
AcDbCircle
 62
7
  6
CONTINUOUS
 10
295.7236197586
 20
99.0918598754
 40
4.0
100
AcDbArc
 50
320.8832562204
 51
360.0
  0
ARC
  5
8E5
100
AcDbEntity
  8
RUNDUNGEN
100
AcDbCircle
 62
7
  6
CONTINUOUS
 10
295.7236326803
 20
115.7206002243
 40
3.999994257
100
AcDbArc
 50
0.0000667175
 51
60.8237982757
  0
ARC
  5
8E6
100
AcDbEntity
  8
KONSTRUKTIONSELEMENTE
100
AcDbCircle
 62
7
  6
CONTINUOUS
 10
316.6451360514
 20
80.401094454
 40
12.3945886493
100
AcDbArc
 50
89.8941663305
 51
90.0082951389
  0
ARC
  5
8E7
100
AcDbEntity
  8
BEZUGSACHSEN
100
AcDbCircle
 62
7
  6
CONTINUOUS
 10
306.6375362264
 20
74.2611136035
 40
5.3874967579
100
AcDbArc
 50
243.1154707793
 51
247.0232936089
  0
ARC
  5
8E8
100
AcDbEntity
  8
BEZUGSACHSEN
100
AcDbCircle
 62
7
  6
CONTINUOUS
 10
307.6784483448
 20
106.5721709596
 40
37.278785945
100
AcDbArc
 50
263.8055358626
 51
264.6480697565
  0
ARC
  5
8E9
100
AcDbEntity
  8
BEZUGSACHSEN
100
AcDbCircle
 62
7
  6
CONTINUOUS
 10
312.526763053
 20
105.6350367428
 40
36.1245774374
100
AcDbArc
 50
267.2999955698
 51
270.8100853434
  0
ARC
  5
8EA
100
AcDbEntity
  8
0
100
AcDbCircle
 62
7
  6
CONTINUOUS
 10
318.2236197586
 20
80.7956854119
 40
25.0
100
AcDbArc
 50
140.8832562204
 51
146.3576851342
  0
ARC
  5
8EB
100
AcDbEntity
  8
0
100
AcDbCircle
 62
7
  6
CONTINUOUS
 10
318.2236197586
 20
80.7956854119
 40
25.0
100
AcDbArc
 50
213.6423148658
 51
219.1167437796
  0
ARC
  5
8EC
100
AcDbEntity
  8
RUNDUNGEN
100
AcDbCircle
 62
7
  6
CONTINUOUS
 10
318.2236197586
 20
80.7956854119
 40
25.0
100
AcDbArc
 50
213.6423148658
 51
219.1167437796
  0
ARC
  5
8ED
100
AcDbEntity
  8
RUNDUNGEN
100
AcDbCircle
 62
7
  6
CONTINUOUS
 10
318.2236197586
 20
80.7956854119
 40
25.0
100
AcDbArc
 50
140.8832562204
 51
146.3576851342
  0
ARC
  5
8EE
100
AcDbEntity
  8
RUNDUNGEN
100
AcDbCircle
 62
7
  6
CONTINUOUS
 10
304.2236197586
 20
80.7956854119
 40
15.0
100
AcDbArc
 50
122.2649104107
 51
126.8668283075
  0
ARC
  5
8EF
100
AcDbEntity
  8
BEZUGSACHSEN
100
AcDbCircle
 62
7
  6
CONTINUOUS
 10
315.3485234753
 20
82.8530429548
 40
13.5376894435
100
AcDbArc
 50
260.1708739341
 51
261.5388964502
  0
ARC
  5
8F0
100
AcDbEntity
  8
KONSTRUKTIONSELEMENTE
100
AcDbCircle
 62
7
  6
CONTINUOUS
 10
316.6452118618
 20
81.2094537221
 40
12.4137650217
100
AcDbArc
 50
269.9902189362
 51
270.1054113923
  0
ARC
  5
8F1
100
AcDbEntity
  8
KONSTRUKTIONSELEMENTE
100
AcDbCircle
 62
7
  6
CONTINUOUS
 10
320.7271310292
 20
80.7956854119
 40
12.0
100
AcDbArc
 50
318.1896851042
 51
41.8103148958
  0
ARC
  5
8F2
100
AcDbEntity
  8
BEZUGSACHSEN
100
AcDbCircle
 62
7
  6
CONTINUOUS
 10
294.7453476135
 20
213.368473686
 40
144.4224572793
100
AcDbArc
 50
268.4995282705
 51
268.8328667796
  0
ARC
  5
8F3
100
AcDbEntity
  8
BEZUGSACHSEN
100
AcDbCircle
 62
7
  6
CONTINUOUS
 10
279.7038545339
 20
160.9701897924
 40
91.6520350205
100
AcDbArc
 50
266.2530494178
 51
266.7817291355
  0
ARC
  5
8F4
100
AcDbEntity
  8
BEZUGSACHSEN
100
AcDbCircle
 62
7
  6
CONTINUOUS
 10
298.0030466785
 20
159.6884809317
 40
90.1779007497
100
AcDbArc
 50
269.9996077372
 51
270.5499515906
  0
ARC
  5
8F5
100
AcDbEntity
  8
BEZUGSACHSEN
100
AcDbCircle
 62
7
  6
CONTINUOUS
 10
303.3953319528
 20
143.1689005519
 40
73.6583204395
100
AcDbArc
 50
269.7972822865
 51
270.2027200334
  0
ARC
  5
8F6
100
AcDbEntity
  8
BEZUGSACHSEN
100
AcDbCircle
 62
7
  6
CONTINUOUS
 10
297.5722672253
 20
140.7067044744
 40
71.4126276453
100
AcDbArc
 50
273.8579052559
 51
274.4673943806
  0
SPLINE
  5
8F7
100
AcDbEntity
  8
KONSTRUKTIONSELEMENTE
100
AcDbSpline
 62
7
  6
CONTINUOUS
 70
0
 71
3
 72
28
 73
24
 74
0
 42
0.0000001
 43
0.0000001
 44
0.0000000001
 40
0.0
 40
0.0
 40
0.0
 40
0.0
 40
0.1243402228
 40
0.1866273209
 40
0.249009927
 40
0.3115206719
 40
0.3742120005
 40
0.405674978
 40
0.4372357647
 40
0.4689232557
 40
0.5007557081
 40
0.5326745545
 40
0.5486836882
 40
0.5646472554
 40
0.596268604
 40
0.6276729248
 40
0.6589198837
 40
0.6900688418
 40
0.7521756909
 40
0.8141870209
 40
0.8761488855
 40
0.9380827507
 40
1.0
 40
1.0
 40
1.0
 40
1.0
 10
224.4154066216
 20
415.1575259147
 30
0.0
 10
224.9360974972
 20
413.7153197868
 30
0.0
 10
225.7968001626
 20
411.5771226389
 30
0.0
 10
227.1393046036
 20
408.8142875745
 30
0.0
 10
228.2621476192
 20
406.7957700946
 30
0.0
 10
229.523927258
 20
404.8546286094
 30
0.0
 10
230.7228683783
 20
403.3337618993
 30
0.0
 10
231.8032623757
 20
402.219896242
 30
0.0
 10
232.6899199682
 20
401.4565104356
 30
0.0
 10
233.6688054869
 20
400.8037332353
 30
0.0
 10
234.7549668103
 20
400.328972958
 30
0.0
 10
235.7477645777
 20
400.1874656091
 30
0.0
 10
236.5330317478
 20
400.2937442645
 30
0.0
 10
237.2808569103
 20
400.5441554722
 30
0.0
 10
238.1043502224
 20
401.0961926437
 30
0.0
 10
238.8819101549
 20
401.9698005151
 30
0.0
 10
239.5034102097
 20
402.9493898027
 30
0.0
 10
240.1781562052
 20
404.3307841643
 30
0.0
 10
240.8156353032
 20
406.1418456396
 30
0.0
 10
241.3846125732
 20
408.3662244332
 30
0.0
 10
241.8233856105
 20
410.6173925054
 30
0.0
 10
242.1707959676
 20
412.8826822605
 30
0.0
 10
242.3575466285
 20
414.398712198
 30
0.0
 10
242.4423971961
 20
415.1575259147
 30
0.0
  0
SPLINE
  5
8F8
100
AcDbEntity
  8
KONSTRUKTIONSELEMENTE
100
AcDbSpline
 62
7
  6
CONTINUOUS
 70
0
 71
3
 72
28
 73
24
 74
0
 42
0.0000001
 43
0.0000001
 44
0.0000000001
 40
0.0
 40
0.0
 40
0.0
 40
0.0
 40
0.0619172356
 40
0.1238510907
 40
0.1858129542
 40
0.2478242892
 40
0.3099311994
 40
0.3410802227
 40
0.3723272643
 40
0.4037315621
 40
0.4353531508
 40
0.4513167113
 40
0.467325827
 40
0.4992448653
 40
0.5310771413
 40
0.5627646425
 40
0.5943254185
 40
0.6257883542
 40
0.6884796568
 40
0.7509903273
 40
0.8133728837
 40
0.8756599222
 40
1.0
 40
1.0
 40
1.0
 40
1.0
 10
242.4423971961
 20
470.1575259147
 30
0.0
 10
242.3575466478
 20
470.9163394593
 30
0.0
 10
242.1707960638
 20
472.4323691091
 30
0.0
 10
241.8233853491
 20
474.6976584638
 30
0.0
 10
241.3846132959
 20
476.9488266728
 30
0.0
 10
240.8156349248
 20
479.1732059186
 30
0.0
 10
240.1781574901
 20
480.9842697628
 30
0.0
 10
239.5034105587
 20
482.3656663936
 30
0.0
 10
238.881910479
 20
483.3452579283
 30
0.0
 10
238.1043428373
 20
484.2188635925
 30
0.0
 10
237.2808458922
 20
484.7709011555
 30
0.0
 10
236.5330155793
 20
485.0213053669
 30
0.0
 10
235.7477466057
 20
485.1275829832
 30
0.0
 10
234.7549485413
 20
484.9860761404
 30
0.0
 10
233.6687876859
 20
484.5113135538
 30
0.0
 10
232.6899068227
 20
483.8585332206
 30
0.0
 10
231.8032516955
 20
483.095145658
 30
0.0
 10
230.7228570052
 20
481.9812819606
 30
0.0
 10
229.5239222636
 20
480.4604123871
 30
0.0
 10
228.2621407696
 20
478.5192745384
 30
0.0
 10
227.1393021896
 20
476.500757056
 30
0.0
 10
225.7967986969
 20
473.7379251672
 30
0.0
 10
224.9360968873
 20
471.5997303534
 30
0.0
 10
224.4154066216
 20
470.1575259147
 30
0.0
  0
SPLINE
  5
8F9
100
AcDbEntity
  8
KONSTRUKTIONSELEMENTE
100
AcDbSpline
 62
7
  6
CONTINUOUS
 70
0
 71
3
 72
28
 73
24
 74
0
 42
0.0000001
 43
0.0000001
 44
0.0000000001
 40
0.0
 40
0.0
 40
0.0
 40
0.0
 40
0.1243402244
 40
0.1866273236
 40
0.2490099309
 40
0.3115206775
 40
0.3742120078
 40
0.4056749864
 40
0.4372357734
 40
0.4689232616
 40
0.5007557067
 40
0.5326745433
 40
0.5486836797
 40
0.5646472516
 40
0.5962685993
 40
0.6276729207
 40
0.6589198797
 40
0.6900688381
 40
0.7521756878
 40
0.8141870186
 40
0.8761488839
 40
0.93808275
 40
1.0
 40
1.0
 40
1.0
 40
1.0
 10
328.0318328957
 20
470.1575259147
 30
0.0
 10
327.5111420134
 20
471.5997320612
 30
0.0
 10
326.6504393339
 20
473.7379292371
 30
0.0
 10
325.3079348741
 20
476.5007643449
 30
0.0
 10
324.1850918129
 20
478.5192818525
 30
0.0
 10
322.9233121633
 20
480.4604233996
 30
0.0
 10
321.7243709468
 20
481.9812901024
 30
0.0
 10
320.6439769309
 20
483.0951557921
 30
0.0
 10
319.7573193189
 20
483.8585415524
 30
0.0
 10
318.7784338626
 20
484.5113186224
 30
0.0
 10
317.6922727739
 20
484.9860788033
 30
0.0
 10
316.6994751998
 20
485.1275861852
 30
0.0
 10
315.9142080548
 20
485.0213075904
 30
0.0
 10
315.1663827644
 20
484.7708964996
 30
0.0
 10
314.3428894187
 20
484.2188592611
 30
0.0
 10
313.5653294469
 20
483.3452514411
 30
0.0
 10
312.9438293722
 20
482.3656621486
 30
0.0
 10
312.2690833554
 20
480.984267785
 30
0.0
 10
311.6316042447
 20
479.1732062929
 30
0.0
 10
311.0626269595
 20
476.9488274766
 30
0.0
 10
310.6238539181
 20
474.6976593775
 30
0.0
 10
310.276443553
 20
472.4323695959
 30
0.0
 10
310.0896928898
 20
470.9163396404
 30
0.0
 10
310.0048423212
 20
470.1575259147
 30
0.0
  0
SPLINE
  5
8FA
100
AcDbEntity
  8
KONSTRUKTIONSELEMENTE
100
AcDbSpline
 62
7
  6
CONTINUOUS
 70
0
 71
3
 72
28
 73
24
 74
0
 42
0.0000001
 43
0.0000001
 44
0.0000000001
 40
0.0
 40
0.0
 40
0.0
 40
0.0
 40
0.0619172342
 40
0.1238510876
 40
0.1858129483
 40
0.2478242794
 40
0.3099311781
 40
0.3410801903
 40
0.372327214
 40
0.4037315
 40
0.4353530176
 40
0.4513166023
 40
0.467325748
 40
0.4992447939
 40
0.5310771122
 40
0.5627646212
 40
0.5943254014
 40
0.6257883415
 40
0.6884796469
 40
0.7509903215
 40
0.8133728795
 40
0.8756599192
 40
1.0
 40
1.0
 40
1.0
 40
1.0
 10
310.0048423212
 20
415.1575259147
 30
0.0
 10
310.0896928679
 20
414.3987123844
 30
0.0
 10
310.2764434516
 20
412.8826827692
 30
0.0
 10
310.6238541108
 20
410.6173934703
 30
0.0
 10
311.0626262343
 20
408.3662253773
 30
0.0
 10
311.6316044339
 20
406.1418463026
 30
0.0
 10
312.2690819641
 20
404.33078284
 30
0.0
 10
312.9438286558
 20
402.9493866324
 30
0.0
 10
313.565328496
 20
401.9697955823
 30
0.0
 10
314.3428945068
 20
401.0961901686
 30
0.0
 10
315.1663900706
 20
400.5441520662
 30
0.0
 10
315.9142197804
 20
400.2937465835
 30
0.0
 10
316.6994895181
 20
400.1874685462
 30
0.0
 10
317.6922886094
 20
400.3289751113
 30
0.0
 10
318.7784502522
 20
400.803737764
 30
0.0
 10
319.7573318699
 20
401.4565181624
 30
0.0
 10
320.6439872916
 20
402.2199057238
 30
0.0
 10
321.7243819876
 20
403.3337696125
 30
0.0
 10
322.9233171623
 20
404.8546390264
 30
0.0
 10
324.185098501
 20
406.7957771236
 30
0.0
 10
325.3079372956
 20
408.8142945841
 30
0.0
 10
326.6504407854
 20
411.5771265718
 30
0.0
 10
327.5111426161
 20
413.7153214377
 30
0.0
 10
328.0318328957
 20
415.1575259147
 30
0.0
  0
SPLINE
  5
8FB
100
AcDbEntity
  8
BEZUGSACHSEN
100
AcDbSpline
 62
7
  6
CONTINUOUS
 70
0
 71
3
 72
9
 73
5
 74
0
 42
0.0000001
 43
0.0000001
 44
0.0000000001
 40
0.0
 40
0.0
 40
0.0
 40
0.0
 40
0.5112601974
 40
1.0
 40
1.0
 40
1.0
 40
1.0
 10
456.2424695877
 20
510.0589570105
 30
0.0
 10
456.4826745771
 20
509.6539389901
 30
0.0
 10
456.862921953
 20
508.8026130225
 30
0.0
 10
456.9973233285
 20
507.8772353238
 30
0.0
 10
456.9973292951
 20
507.4270868088
 30
0.0
  0
SPLINE
  5
8FC
100
AcDbEntity
  8
BEZUGSACHSEN
100
AcDbSpline
 62
7
  6
CONTINUOUS
 70
0
 71
3
 72
9
 73
5
 74
0
 42
0.0000001
 43
0.0000001
 44
0.0000000001
 40
0.0
 40
0.0
 40
0.0
 40
0.0
 40
0.5047722371
 40
1.0
 40
1.0
 40
1.0
 40
1.0
 10
456.2356150106
 20
524.7321467455
 30
0.0
 10
456.4839484653
 20
524.2020530211
 30
0.0
 10
456.8672588801
 20
523.096659677
 30
0.0
 10
456.997290573
 20
521.9333431117
 30
0.0
 10
456.997329333
 20
521.3590324972
 30
0.0
  0
SPLINE
  5
8FD
100
AcDbEntity
  8
BEZUGSACHSEN
100
AcDbSpline
 62
7
  6
CONTINUOUS
 70
0
 71
3
 72
9
 73
5
 74
0
 42
0.0000001
 43
0.0000001
 44
0.0000000001
 40
0.0
 40
0.0
 40
0.0
 40
0.0
 40
0.7433435734
 40
1.0
 40
1.0
 40
1.0
 40
1.0
 10
456.2789619427
 20
528.6748839849
 30
0.0
 10
456.2865645625
 20
528.5965501913
 30
0.0
 10
456.2796640964
 20
528.4884852841
 30
0.0
 10
456.251094413
 20
528.3864660633
 30
0.0
 10
456.2424695689
 20
528.3606975187
 30
0.0
  0
SPLINE
  5
8FE
100
AcDbEntity
  8
BEZUGSACHSEN
100
AcDbSpline
 62
7
  6
CONTINUOUS
 70
0
 71
3
 72
9
 73
5
 74
0
 42
0.0000001
 43
0.0000001
 44
0.0000000001
 40
0.0
 40
0.0
 40
0.0
 40
0.0
 40
0.5049537649
 40
1.0
 40
1.0
 40
1.0
 40
1.0
 10
456.2424695814
 20
517.0188207039
 30
0.0
 10
456.4757471393
 20
516.5318115887
 30
0.0
 10
456.8424722691
 20
515.5179795032
 30
0.0
 10
456.9840259682
 20
514.4483003468
 30
0.0
 10
456.995592847
 20
513.9190252458
 30
0.0
  0
SPLINE
  5
8FF
100
AcDbEntity
  8
KONSTRUKTIONSELEMENTE
100
AcDbSpline
 62
7
  6
CONTINUOUS
 70
0
 71
3
 72
12
 73
8
 74
0
 42
0.0000001
 43
0.0000001
 44
0.0000000001
 40
0.0
 40
0.0
 40
0.0
 40
0.0
 40
0.1794455768
 40
0.3891670555
 40
0.6469242811
 40
0.8073233006
 40
1.0
 40
1.0
 40
1.0
 40
1.0
 10
328.0318328957
 20
72.7956854119
 30
0.0
 10
327.4436207197
 20
72.3591355734
 30
0.0
 10
326.1084578133
 20
71.4906857
 30
0.0
 10
323.7402384599
 20
70.3106584329
 30
0.0
 10
321.3114375204
 20
69.4610523549
 30
0.0
 10
318.8725113704
 20
68.9295898754
 30
0.0
 10
317.4298613332
 20
68.7955737906
 30
0.0
 10
316.6433420829
 20
68.7956878481
 30
0.0
  0
SPLINE
  5
900
100
AcDbEntity
  8
KONSTRUKTIONSELEMENTE
100
AcDbSpline
 62
7
  6
CONTINUOUS
 70
0
 71
3
 72
12
 73
8
 74
0
 42
0.0000001
 43
0.0000001
 44
0.0000000001
 40
0.0
 40
0.0
 40
0.0
 40
0.0
 40
0.1926781925
 40
0.3530783452
 40
0.6108355881
 40
0.8205559065
 40
1.0
 40
1.0
 40
1.0
 40
1.0
 10
235.8041865357
 20
68.7956890321
 30
0.0
 10
235.0176427012
 20
68.7955515483
 30
0.0
 10
233.5749447425
 20
68.9295552661
 30
0.0
 10
231.135945865
 20
69.4610083993
 30
0.0
 10
228.7070822731
 20
70.3106211468
 30
0.0
 10
226.3388140436
 20
71.4906659273
 30
0.0
 10
225.0036277658
 20
72.3591289176
 30
0.0
 10
224.4154066216
 20
72.7956854119
 30
0.0
  0
SPLINE
  5
901
100
AcDbEntity
  8
KONSTRUKTIONSELEMENTE
100
AcDbSpline
 62
7
  6
CONTINUOUS
 70
0
 71
3
 72
12
 73
8
 74
0
 42
0.0000001
 43
0.0000001
 44
0.0000000001
 40
0.0
 40
0.0
 40
0.0
 40
0.0
 40
0.1926781147
 40
0.3530780708
 40
0.6108352614
 40
0.8205557128
 40
1.0
 40
1.0
 40
1.0
 40
1.0
 10
316.6430977044
 20
92.7956819608
 30
0.0
 10
317.4296383602
 20
92.7958161159
 30
0.0
 10
318.8723294443
 20
92.6618098951
 30
0.0
 10
321.3113173283
 20
92.130355139
 30
0.0
 10
323.7401707727
 20
91.280743534
 30
0.0
 10
326.1084308756
 20
90.100701556
 30
0.0
 10
327.4436132567
 20
89.232240789
 30
0.0
 10
328.0318328957
 20
88.7956854119
 30
0.0
  0
SPLINE
  5
902
100
AcDbEntity
  8
KONSTRUKTIONSELEMENTE
100
AcDbSpline
 62
7
  6
CONTINUOUS
 70
0
 71
3
 72
12
 73
8
 74
0
 42
0.0000001
 43
0.0000001
 44
0.0000000001
 40
0.0
 40
0.0
 40
0.0
 40
0.0
 40
0.1794455571
 40
0.3891670156
 40
0.6469242231
 40
0.8073232446
 40
1.0
 40
1.0
 40
1.0
 40
1.0
 10
224.4154066216
 20
88.7956854119
 30
0.0
 10
225.0036188623
 20
89.2322352983
 30
0.0
 10
226.3387819321
 20
90.1006852635
 30
0.0
 10
228.707001614
 20
91.2807126475
 30
0.0
 10
231.1358029869
 20
92.1303187549
 30
0.0
 10
233.5747298634
 20
92.6617812553
 30
0.0
 10
235.0173804837
 20
92.7957971756
 30
0.0
 10
235.8039001352
 20
92.7956829799
 30
0.0
  0
SPLINE
  5
903
100
AcDbEntity
  8
BEZUGSACHSEN
100
AcDbSpline
 62
7
  6
CONTINUOUS
 70
0
 71
3
 72
13
 73
9
 74
0
 42
0.0000001
 43
0.0000001
 44
0.0000000001
 40
0.0
 40
0.0
 40
0.0
 40
0.0
 40
0.2311658629
 40
0.5248918589
 40
0.6716439629
 40
0.805423995
 40
0.9174086938
 40
1.0
 40
1.0
 40
1.0
 40
1.0
 10
290.2236197586
 20
68.911759036
 30
0.0
 10
289.8857300575
 20
68.956822752
 30
0.0
 10
289.1111903336
 20
69.0032177625
 30
0.0
 10
288.1203861091
 20
68.9739883677
 30
0.0
 10
287.2759417225
 20
68.9101784959
 30
0.0
 10
286.699550797
 20
68.8567536666
 30
0.0
 10
286.2174140378
 20
68.8134166115
 30
0.0
 10
285.930716241
 20
68.7957212747
 30
0.0
 10
285.8089255668
 20
68.7956879592
 30
0.0
  0
SPLINE
  5
904
100
AcDbEntity
  8
BEZUGSACHSEN
100
AcDbSpline
 62
7
  6
CONTINUOUS
 70
0
 71
3
 72
9
 73
5
 74
0
 42
0.0000001
 43
0.0000001
 44
0.0000000001
 40
0.0
 40
0.0
 40
0.0
 40
0.0
 40
0.2058688819
 40
1.0
 40
1.0
 40
1.0
 40
1.0
 10
252.9604568468
 20
68.8026423813
 30
0.0
 10
252.9567658625
 20
68.8047790522
 30
0.0
 10
252.9398929958
 20
68.8169934373
 30
0.0
 10
252.9273783117
 20
68.834196536
 30
0.0
 10
252.9186822507
 20
68.8481617371
 30
0.0
  0
SPLINE
  5
905
100
AcDbEntity
  8
BEZUGSACHSEN
100
AcDbSpline
 62
7
  6
CONTINUOUS
 70
0
 71
3
 72
9
 73
5
 74
0
 42
0.0000001
 43
0.0000001
 44
0.0000000001
 40
0.0
 40
0.0
 40
0.0
 40
0.0
 40
0.5033480354
 40
1.0
 40
1.0
 40
1.0
 40
1.0
 10
310.8250596364
 20
69.5505622349
 30
0.0
 10
310.2734261051
 20
69.3045228306
 30
0.0
 10
309.1248519381
 20
68.9249008133
 30
0.0
 10
307.9214424106
 20
68.7957084997
 30
0.0
 10
307.3254619898
 20
68.7957025589
 30
0.0
  0
SPLINE
  5
906
100
AcDbEntity
  8
BEZUGSACHSEN
100
AcDbSpline
 62
7
  6
CONTINUOUS
 70
0
 71
3
 72
9
 73
5
 74
0
 42
0.0000001
 43
0.0000001
 44
0.0000000001
 40
0.0
 40
0.0
 40
0.0
 40
0.0
 40
0.4899669347
 40
1.0
 40
1.0
 40
1.0
 40
1.0
 10
261.3355724307
 20
68.7956866196
 30
0.0
 10
260.8700498004
 20
68.7956835527
 30
0.0
 10
259.9158119232
 20
68.9246152915
 30
0.0
 10
259.0294859708
 20
69.2963664708
 30
0.0
 10
258.606795442
 20
69.5333431035
 30
0.0
  0
SPLINE
  5
907
100
AcDbEntity
  8
BEZUGSACHSEN
100
AcDbSpline
 62
7
  6
CONTINUOUS
 70
0
 71
3
 72
12
 73
8
 74
0
 42
0.0000001
 43
0.0000001
 44
0.0000000001
 40
0.0
 40
0.0
 40
0.0
 40
0.0
 40
0.0318647904
 40
0.0849147541
 40
0.2735216105
 40
0.578463413
 40
1.0
 40
1.0
 40
1.0
 40
1.0
 10
264.0813617286
 20
68.7957025265
 30
0.0
 10
264.0729190081
 20
68.79571347
 30
0.0
 10
264.0524421238
 20
68.810650631
 30
0.0
 10
264.0201330909
 20
68.8750916101
 30
0.0
 10
263.9827312915
 20
69.0166714611
 30
0.0
 10
263.9420660569
 20
69.2550948328
 30
0.0
 10
263.9184637042
 20
69.4464089682
 30
0.0
 10
263.9061556584
 20
69.5574168434
 30
0.0
  0
SPLINE
  5
908
100
AcDbEntity
  8
BEZUGSACHSEN
100
AcDbSpline
 62
7
  6
CONTINUOUS
 70
0
 71
3
 72
11
 73
7
 74
0
 42
0.0000001
 43
0.0000001
 44
0.0000000001
 40
0.0
 40
0.0
 40
0.0
 40
0.0
 40
0.1935952112
 40
0.4140670143
 40
0.6797309759
 40
1.0
 40
1.0
 40
1.0
 40
1.0
 10
268.2154010613
 20
68.7957046891
 30
0.0
 10
268.1393030015
 20
68.7957055429
 30
0.0
 10
267.9754471961
 20
68.8313350623
 30
0.0
 10
267.7480033369
 20
68.9786252124
 30
0.0
 10
267.5297440655
 20
69.2112061507
 30
0.0
 10
267.4013569809
 20
69.403409082
 30
0.0
 10
267.337018711
 20
69.5116175588
 30
0.0
  0
SPLINE
  5
909
100
AcDbEntity
  8
BEZUGSACHSEN
100
AcDbSpline
 62
7
  6
CONTINUOUS
 70
0
 71
3
 72
9
 73
5
 74
0
 42
0.0000001
 43
0.0000001
 44
0.0000000001
 40
0.0
 40
0.0
 40
0.0
 40
0.0
 40
0.2240841501
 40
1.0
 40
1.0
 40
1.0
 40
1.0
 10
276.0749106052
 20
68.9086265654
 30
0.0
 10
276.0702587197
 20
68.9167869672
 30
0.0
 10
276.0503639825
 20
68.9536970792
 30
0.0
 10
276.0334967685
 20
68.9921741517
 30
0.0
 10
276.0214320267
 20
69.0223787256
 30
0.0
  0
SPLINE
  5
90A
100
AcDbEntity
  8
BEZUGSACHSEN
100
AcDbSpline
 62
7
  6
CONTINUOUS
 70
0
 71
3
 72
9
 73
5
 74
0
 42
0.0000001
 43
0.0000001
 44
0.0000000001
 40
0.0
 40
0.0
 40
0.0
 40
0.0
 40
0.255243415
 40
1.0
 40
1.0
 40
1.0
 40
1.0
 10
296.5408170311
 20
69.1514494072
 30
0.0
 10
296.4909007476
 20
69.1265776109
 30
0.0
 10
296.2932449067
 20
69.0334213193
 30
0.0
 10
296.0870900946
 20
68.9580569135
 30
0.0
 10
295.930502983
 20
68.9137825665
 30
0.0
  0
SPLINE
  5
90B
100
AcDbEntity
  8
RUNDUNGEN
100
AcDbSpline
 62
7
  6
CONTINUOUS
 70
0
 71
3
 72
9
 73
5
 74
0
 42
0.0000001
 43
0.0000001
 44
0.0000000001
 40
0.0
 40
0.0
 40
0.0
 40
0.0
 40
0.4933252081
 40
1.0
 40
1.0
 40
1.0
 40
1.0
 10
299.7235777403
 20
99.0063820282
 30
0.0
 10
299.7215211106
 20
98.5725544328
 30
0.0
 10
299.5624159134
 20
97.6878531327
 30
0.0
 10
299.1159744718
 20
96.9080126563
 30
0.0
 10
298.8335919045
 20
96.5633466848
 30
0.0
  0
LINE
  5
90C
100
AcDbEntity
  8
RUNDUNGEN
100
AcDbLine
 62
7
  6
CONTINUOUS
 10
298.8335919045
 20
96.5633466848
 11
298.8272960208
 21
96.555681653
  0
SPLINE
  5
90D
100
AcDbEntity
  8
RUNDUNGEN
100
AcDbSpline
 62
7
  6
CONTINUOUS
 70
0
 71
3
 72
9
 73
5
 74
0
 42
0.0000001
 43
0.0000001
 44
0.0000000001
 40
0.0
 40
0.0
 40
0.0
 40
0.0
 40
0.4933252189
 40
1.0
 40
1.0
 40
1.0
 40
1.0
 10
252.7236617681
 20
62.5849864877
 30
0.0
 10
252.725718127
 20
63.0188144676
 30
0.0
 10
252.8848230881
 20
63.9035166308
 30
0.0
 10
253.3312647925
 20
64.6833578912
 30
0.0
 10
253.6136476146
 20
65.0280241378
 30
0.0
  0
LINE
  5
90E
100
AcDbEntity
  8
RUNDUNGEN
100
AcDbLine
 62
7
  6
CONTINUOUS
 10
253.6136476146
 20
65.0280241378
 11
253.6199432412
 21
65.0356888566
  0
LINE
  5
90F
100
AcDbEntity
  8
RUNDUNGEN
100
AcDbLine
 62
7
  6
CONTINUOUS
 10
298.8272558367
 20
65.0357378879
 11
298.8335918329
 21
65.028024023
  0
SPLINE
  5
910
100
AcDbEntity
  8
RUNDUNGEN
100
AcDbSpline
 62
7
  6
CONTINUOUS
 70
0
 71
3
 72
9
 73
5
 74
0
 42
0.0000001
 43
0.0000001
 44
0.0000000001
 40
0.0
 40
0.0
 40
0.0
 40
0.0
 40
0.506674859
 40
1.0
 40
1.0
 40
1.0
 40
1.0
 10
298.8335918329
 20
65.028024023
 30
0.0
 10
299.1159768743
 20
64.6833497037
 30
0.0
 10
299.5624283291
 20
63.9034965911
 30
0.0
 10
299.7215268716
 20
63.018776165
 30
0.0
 10
299.7235779632
 20
62.5849408459
 30
0.0
  0
LINE
  5
911
100
AcDbEntity
  8
RUNDUNGEN
100
AcDbLine
 62
7
  6
CONTINUOUS
 10
253.619943501
 20
96.5556817092
 11
253.6136476395
 21
96.5633467156
  0
SPLINE
  5
912
100
AcDbEntity
  8
RUNDUNGEN
100
AcDbSpline
 62
7
  6
CONTINUOUS
 70
0
 71
3
 72
9
 73
5
 74
0
 42
0.0000001
 43
0.0000001
 44
0.0000000001
 40
0.0
 40
0.0
 40
0.0
 40
0.0
 40
0.5066748543
 40
1.0
 40
1.0
 40
1.0
 40
1.0
 10
253.6136476395
 20
96.5633467156
 30
0.0
 10
253.3312598857
 20
96.9080190881
 30
0.0
 10
252.8848121833
 20
97.6878758199
 30
0.0
 10
252.7257124954
 20
98.5725956925
 30
0.0
 10
252.7236615492
 20
99.0064312278
 30
0.0
  0
ELLIPSE
  5
913
100
AcDbEntity
  8
0
100
AcDbEllipse
 62
7
  6
CONTINUOUS
 10
276.2236197586
 20
298.9873128652
 30
0.0
 11
44.5
 21
-0.0
 31
0.0
 40
0.1702127606
 41
-2.6501366248
 42
-2.6114945815
  0
ELLIPSE
  5
914
100
AcDbEntity
  8
0
100
AcDbEllipse
 62
7
  6
CONTINUOUS
 10
276.2236197586
 20
302.5617806748
 30
0.0
 11
44.5
 21
-0.0
 31
0.0
 40
0.3404255211
 41
-2.669157374
 42
-2.6501366248
  0
ELLIPSE
  5
915
100
AcDbEntity
  8
0
100
AcDbEllipse
 62
7
  6
CONTINUOUS
 10
276.2236197586
 20
309.4553971531
 30
0.0
 11
44.5
 21
-0.0
 31
0.0
 40
0.6808510423
 41
-2.6879949813
 42
-2.669157374
  0
ELLIPSE
  5
916
100
AcDbEntity
  8
0
100
AcDbEllipse
 62
7
  6
CONTINUOUS
 10
276.2236197586
 20
336.0087384422
 30
0.0
 11
0.0
 21
90.8939608761
 31
0.0
 40
0.4895814812
 41
-4.2712537261
 42
-4.2587913081
  0
ELLIPSE
  5
917
100
AcDbEntity
  8
0
100
AcDbEllipse
 62
7
  6
CONTINUOUS
 10
276.2236197586
 20
298.9873107291
 30
0.0
 11
44.5
 21
0.0
 31
0.0
 40
0.255319362
 41
2.8685497077
 42
2.8918124279
  0
ELLIPSE
  5
918
100
AcDbEntity
  8
0
100
AcDbEllipse
 62
7
  6
CONTINUOUS
 10
276.2236197586
 20
292.8596728253
 30
0.0
 11
44.5
 21
0.0
 31
0.0
 40
0.7659558946
 41
2.8451343454
 42
2.8685497077
  0
ELLIPSE
  5
919
100
AcDbEntity
  8
0
100
AcDbEllipse
 62
7
  6
CONTINUOUS
 10
276.2236197586
 20
282.9021315115
 30
0.0
 11
0.0
 21
68.1704646891
 31
0.0
 40
0.6527753654
 41
1.262568178
 42
1.2743380186
  0
ELLIPSE
  5
91A
100
AcDbEntity
  8
0
100
AcDbEllipse
 62
7
  6
CONTINUOUS
 10
276.2236197586
 20
324.7746411185
 30
0.0
 11
-0.0
 21
68.1705283471
 31
0.0
 40
0.6527747559
 41
-4.4159306722
 42
-4.4041608316
  0
ELLIPSE
  5
91B
100
AcDbEntity
  8
0
100
AcDbEllipse
 62
7
  6
CONTINUOUS
 10
276.2236197586
 20
314.8170812079
 30
0.0
 11
44.5
 21
0.0
 31
0.0
 40
0.7659558946
 41
-2.8685497077
 42
-2.8451343454
  0
ELLIPSE
  5
91C
100
AcDbEntity
  8
0
100
AcDbEllipse
 62
7
  6
CONTINUOUS
 10
276.2236197586
 20
308.6894433041
 30
0.0
 11
44.5
 21
0.0
 31
0.0
 40
0.255319362
 41
-2.8918124279
 42
-2.8685497077
  0
ELLIPSE
  5
91D
100
AcDbEntity
  8
0
100
AcDbEllipse
 62
7
  6
CONTINUOUS
 10
276.2236197586
 20
293.6256087041
 30
0.0
 11
44.5
 21
-0.0
 31
0.0
 40
0.255319362
 41
2.8685497077
 42
2.8918124279
  0
ELLIPSE
  5
91E
100
AcDbEntity
  8
0
100
AcDbEllipse
 62
7
  6
CONTINUOUS
 10
276.2236197586
 20
290.5617941351
 30
0.0
 11
44.5
 21
-0.0
 31
0.0
 40
0.510637263
 41
2.8451343454
 42
2.8685497077
  0
ELLIPSE
  5
91F
100
AcDbEntity
  8
0
100
AcDbEllipse
 62
7
  6
CONTINUOUS
 10
276.2236197586
 20
279.4979490942
 30
0.0
 11
-0.0
 21
60.5957480669
 31
0.0
 40
0.734374959
 41
1.2566667219
 42
1.2743380186
  0
ELLIPSE
  5
920
100
AcDbEntity
  8
0
100
AcDbEllipse
 62
7
  6
CONTINUOUS
 10
276.2236197586
 20
317.7107229283
 30
0.0
 11
-0.0
 21
60.5957586765
 31
0.0
 40
0.7343748304
 41
-4.4159306722
 42
-4.3982593755
  0
ELLIPSE
  5
921
100
AcDbEntity
  8
0
100
AcDbEllipse
 62
7
  6
CONTINUOUS
 10
276.2236197586
 20
306.6468747879
 30
0.0
 11
44.5
 21
0.0
 31
0.0
 40
0.510637263
 41
-2.8685497077
 42
-2.8451343454
  0
ELLIPSE
  5
922
100
AcDbEntity
  8
0
100
AcDbEllipse
 62
7
  6
CONTINUOUS
 10
276.2236197586
 20
303.5830602189
 30
0.0
 11
44.5
 21
0.0
 31
0.0
 40
0.255319362
 41
-2.8918124279
 42
-2.8685497077
  0
ELLIPSE
  5
923
100
AcDbEntity
  8
0
100
AcDbEllipse
 62
7
  6
CONTINUOUS
 10
276.2236197586
 20
305.3702835783
 30
0.0
 11
44.5
 21
-0.0
 31
0.0
 40
0.510637263
 41
-2.972245067
 42
-2.960834648
  0
ELLIPSE
  5
924
100
AcDbEntity
  8
0
100
AcDbEllipse
 62
7
  6
CONTINUOUS
 10
276.2236197586
 20
309.2000771735
 30
0.0
 11
-0.0
 21
45.446803093
 31
0.0
 40
0.9791667834
 41
-4.560115828
 42
-4.5430413938
  0
ELLIPSE
  5
925
100
AcDbEntity
  8
0
100
AcDbEllipse
 62
7
  6
CONTINUOUS
 10
276.2236197586
 20
316.0937449933
 30
0.0
 11
0.0
 21
90.8939529188
 31
0.0
 40
0.4895815241
 41
-4.5714736209
 42
-4.560115828
  0
ELLIPSE
  5
926
100
AcDbEntity
  8
0
100
AcDbEllipse
 62
7
  6
CONTINUOUS
 10
276.2236197586
 20
288.1361786225
 30
0.0
 11
0.0
 21
113.6175048065
 31
0.0
 40
0.3916649998
 41
1.4185231744
 42
1.4298809673
  0
ELLIPSE
  5
927
100
AcDbEntity
  8
0
100
AcDbEllipse
 62
7
  6
CONTINUOUS
 10
276.2236197586
 20
298.4766768597
 30
0.0
 11
-0.0
 21
45.446803093
 31
0.0
 40
0.9791667834
 41
1.4014487402
 42
1.4185231744
  0
ELLIPSE
  5
928
100
AcDbEntity
  8
0
100
AcDbEllipse
 62
7
  6
CONTINUOUS
 10
276.2236197586
 20
301.5405093984
 30
0.0
 11
44.5
 21
0.0
 31
0.0
 40
0.6127654169
 41
2.943673827
 42
2.972245067
  0
ELLIPSE
  5
929
100
AcDbEntity
  8
0
100
AcDbEllipse
 62
7
  6
CONTINUOUS
 10
276.2236197586
 20
305.1149743303
 30
0.0
 11
44.5
 21
-0.0
 31
0.0
 40
0.204255139
 41
2.9149378768
 42
2.943673827
  0
ELLIPSE
  5
92A
100
AcDbEntity
  8
0
100
AcDbEllipse
 62
7
  6
CONTINUOUS
 10
276.2236197586
 20
297.1490180574
 30
0.0
 11
44.5
 21
-0.0
 31
0.0
 40
0.2042556244
 41
-2.9494003841
 42
-2.9206995616
  0
ELLIPSE
  5
92B
100
AcDbEntity
  8
0
100
AcDbEllipse
 62
7
  6
CONTINUOUS
 10
276.2236197586
 20
300.6213521396
 30
0.0
 11
44.5
 21
-0.0
 31
0.0
 40
0.6127654705
 41
-2.977941811
 42
-2.9494003841
  0
ELLIPSE
  5
92C
100
AcDbEntity
  8
0
100
AcDbEllipse
 62
7
  6
CONTINUOUS
 10
276.2236197586
 20
303.5830577789
 30
0.0
 11
0.0
 21
45.4468083978
 31
0.0
 40
0.9791666691
 41
-4.5657971053
 42
-4.5487381378
  0
ELLIPSE
  5
92D
100
AcDbEntity
  8
0
100
AcDbEllipse
 62
7
  6
CONTINUOUS
 10
276.2236197586
 20
313.5404732963
 30
0.0
 11
0.0
 21
113.61680694
 31
0.0
 40
0.3916674055
 41
-4.577145634
 42
-4.5657971053
  0
ELLIPSE
  5
92E
100
AcDbEntity
  8
0
100
AcDbEllipse
 62
7
  6
CONTINUOUS
 10
276.2236197586
 20
283.6681933021
 30
0.0
 11
-0.0
 21
113.6168228544
 31
0.0
 40
0.3916673507
 41
1.4242044517
 42
1.4355529804
  0
ELLIPSE
  5
92F
100
AcDbEntity
  8
0
100
AcDbEllipse
 62
7
  6
CONTINUOUS
 10
276.2236197586
 20
295.2851814411
 30
0.0
 11
44.5
 21
-0.0
 31
0.0
 40
0.765958086
 41
2.972245067
 42
2.9950007785
  0
ELLIPSE
  5
930
100
AcDbEntity
  8
0
100
AcDbEllipse
 62
7
  6
CONTINUOUS
 10
276.2236197586
 20
297.2000873697
 30
0.0
 11
44.5
 21
0.0
 31
0.0
 40
0.510637263
 41
2.960834648
 42
2.972245067
  0
ELLIPSE
  5
931
100
AcDbEntity
  8
0
100
AcDbEllipse
 62
7
  6
CONTINUOUS
 10
276.2236197586
 20
307.9234723284
 30
0.0
 11
-0.0
 21
136.3401492307
 31
0.0
 40
0.3263895503
 41
-4.6786747394
 42
-4.6730529942
  0
ELLIPSE
  5
932
100
AcDbEntity
  8
0
100
AcDbEllipse
 62
7
  6
CONTINUOUS
 10
276.2236197586
 20
304.9447595058
 30
0.0
 11
-0.0
 21
60.5957374573
 31
0.0
 40
0.7343750875
 41
-4.6730529942
 42
-4.6561796109
  0
ELLIPSE
  5
933
100
AcDbEntity
  8
0
100
AcDbEllipse
 62
7
  6
CONTINUOUS
 10
276.2236197586
 20
303.4553970681
 30
0.0
 11
44.5
 21
-0.0
 31
0.0
 40
0.7659569903
 41
-3.0853832841
 42
-3.0632504102
  0
ELLIPSE
  5
934
100
AcDbEntity
  8
0
100
AcDbEllipse
 62
7
  6
CONTINUOUS
 10
276.2236197586
 20
306.1873128943
 30
0.0
 11
44.5
 21
0.0
 31
0.0
 40
0.2042553727
 41
3.0346473361
 42
3.0628596398
  0
ELLIPSE
  5
935
100
AcDbEntity
  8
0
100
AcDbEllipse
 62
7
  6
CONTINUOUS
 10
276.2236197586
 20
304.2213569651
 30
0.0
 11
44.5
 21
0.0
 31
0.0
 40
0.7659569903
 41
3.0628596398
 42
3.0853832841
  0
ELLIPSE
  5
936
100
AcDbEntity
  8
0
100
AcDbEllipse
 62
7
  6
CONTINUOUS
 10
276.2236197586
 20
302.7319945274
 30
0.0
 11
0.0
 21
60.5957374573
 31
0.0
 40
0.7343750875
 41
1.5145869573
 42
1.5314603407
  0
ELLIPSE
  5
937
100
AcDbEntity
  8
0
100
AcDbEllipse
 62
7
  6
CONTINUOUS
 10
276.2236197586
 20
299.7532817048
 30
0.0
 11
0.0
 21
136.3401492307
 31
0.0
 40
0.3263895503
 41
1.5314603407
 42
1.5370820858
  0
ELLIPSE
  5
938
100
AcDbEntity
  8
0
100
AcDbEllipse
 62
7
  6
CONTINUOUS
 10
276.2236197586
 20
307.4979487796
 30
0.0
 11
44.5
 21
-0.0
 31
0.0
 40
0.255319362
 41
2.8333645048
 42
2.8568620868
  0
ELLIPSE
  5
939
100
AcDbEntity
  8
0
100
AcDbEllipse
 62
7
  6
CONTINUOUS
 10
276.2236197586
 20
301.7532690877
 30
0.0
 11
44.5
 21
-0.0
 31
0.0
 40
0.6808512211
 41
2.8156259882
 42
2.8333645048
  0
ELLIPSE
  5
93A
100
AcDbEntity
  8
0
100
AcDbEllipse
 62
7
  6
CONTINUOUS
 10
276.2236197586
 20
289.625656805
 30
0.0
 11
0.0
 21
68.1700746153
 31
0.0
 40
0.6527791007
 41
1.2329449767
 42
1.2448296614
  0
ELLIPSE
  5
93B
100
AcDbEntity
  8
0
100
AcDbEllipse
 62
7
  6
CONTINUOUS
 10
276.2236197586
 20
251.9658138718
 30
0.0
 11
0.0
 21
181.7879058377
 31
0.0
 40
0.244790762
 41
1.226984126
 42
1.2329449767
  0
ELLIPSE
  5
93C
100
AcDbEntity
  8
0
100
AcDbEllipse
 62
7
  6
CONTINUOUS
 10
276.2236197586
 20
378.3492376001
 30
0.0
 11
0.0
 21
181.7879058377
 31
0.0
 40
0.244790762
 41
-4.3745376303
 42
-4.3685767796
  0
ELLIPSE
  5
93D
100
AcDbEntity
  8
0
100
AcDbEllipse
 62
7
  6
CONTINUOUS
 10
276.2236197586
 20
340.6894157668
 30
0.0
 11
-0.0
 21
68.170138273
 31
0.0
 40
0.6527784911
 41
-4.386422315
 42
-4.3745376303
  0
ELLIPSE
  5
93E
100
AcDbEntity
  8
0
100
AcDbEllipse
 62
7
  6
CONTINUOUS
 10
276.2236197586
 20
328.5617797019
 30
0.0
 11
44.5
 21
0.0
 31
0.0
 40
0.6808509827
 41
-2.8333645048
 42
-2.8156259882
  0
ELLIPSE
  5
93F
100
AcDbEntity
  8
0
100
AcDbEllipse
 62
7
  6
CONTINUOUS
 10
276.2236197586
 20
322.8171032286
 30
0.0
 11
44.5
 21
0.0
 31
0.0
 40
0.255319362
 41
-2.8568620868
 42
-2.8333645048
  0
ELLIPSE
  5
940
100
AcDbEntity
  8
0
100
AcDbEllipse
 62
7
  6
CONTINUOUS
 10
276.2236197586
 20
310.5617813062
 30
0.0
 11
44.5
 21
0.0
 31
0.0
 40
0.2553189968
 41
3.1078783912
 42
3.1303564621
  0
ELLIPSE
  5
941
100
AcDbEntity
  8
0
100
AcDbEllipse
 62
7
  6
CONTINUOUS
 10
276.2236197586
 20
309.9234827668
 30
0.0
 11
44.5
 21
-0.0
 31
0.0
 40
0.6808512211
 41
3.0910092768
 42
3.1078783912
  0
ELLIPSE
  5
942
100
AcDbEntity
  8
0
100
AcDbEllipse
 62
7
  6
CONTINUOUS
 10
276.2236197586
 20
308.0085862215
 30
0.0
 11
-0.0
 21
68.1702696517
 31
0.0
 40
0.6527772331
 41
1.5089591724
 42
1.52021295
  0
ELLIPSE
  5
943
100
AcDbEntity
  8
0
100
AcDbEllipse
 62
7
  6
CONTINUOUS
 10
276.2236197586
 20
300.9873359076
 30
0.0
 11
0.0
 21
181.7868656409
 31
0.0
 40
0.2447921628
 41
1.5033294149
 42
1.5089591724
  0
ELLIPSE
  5
944
100
AcDbEntity
  8
0
100
AcDbEllipse
 62
7
  6
CONTINUOUS
 10
276.2236197586
 20
308.0936966715
 30
0.0
 11
0.0
 21
60.5957480669
 31
0.0
 40
0.734374959
 41
-4.5487381378
 42
-4.5316309748
  0
ELLIPSE
  5
945
100
AcDbEntity
  8
0
100
AcDbEllipse
 62
7
  6
CONTINUOUS
 10
276.2236197586
 20
301.2851888334
 30
0.0
 11
44.5
 21
-0.0
 31
0.0
 40
0.510638724
 41
-2.960834648
 42
-2.9379406858
  0
ELLIPSE
  5
946
100
AcDbEntity
  8
0
100
AcDbEllipse
 62
7
  6
CONTINUOUS
 10
276.2236197586
 20
298.9873082447
 30
0.0
 11
44.5
 21
0.0
 31
0.0
 40
0.2553186315
 41
-2.9379406858
 42
-2.9149378768
  0
ELLIPSE
  5
947
100
AcDbEntity
  8
0
100
AcDbEllipse
 62
7
  6
CONTINUOUS
 10
276.2236197586
 20
323.7107151518
 30
0.0
 11
44.0
 21
0.0
 31
0.0
 40
0.204255139
 41
-2.8535345163
 42
-2.8237689268
  0
ELLIPSE
  5
948
100
AcDbEntity
  8
0
100
AcDbEllipse
 62
7
  6
CONTINUOUS
 10
276.2236197586
 20
292.859655595
 30
0.0
 11
44.0
 21
-0.0
 31
0.0
 40
0.2042551568
 41
2.8535345163
 42
2.8830397782
  0
ELLIPSE
  5
949
100
AcDbEntity
  8
0
100
AcDbEllipse
 62
7
  6
CONTINUOUS
 10
276.2236197586
 20
287.7532766738
 30
0.0
 11
44.0
 21
0.0
 31
0.0
 40
0.6127654705
 41
2.8237689268
 42
2.8535345163
  0
ELLIPSE
  5
94A
100
AcDbEntity
  8
0
100
AcDbEllipse
 62
7
  6
CONTINUOUS
 10
276.2236197586
 20
282.1362483476
 30
0.0
 11
0.0
 21
44.9361701012
 31
0.0
 40
0.9791666691
 41
1.2349742079
 42
1.2529726
  0
ELLIPSE
  5
94B
100
AcDbEntity
  8
0
100
AcDbEllipse
 62
7
  6
CONTINUOUS
 10
276.2236197586
 20
259.9233388945
 30
0.0
 11
0.0
 21
112.3408564219
 31
0.0
 40
0.3916651644
 41
1.2229126027
 42
1.2349742079
  0
ELLIPSE
  5
94C
100
AcDbEntity
  8
0
100
AcDbEllipse
 62
7
  6
CONTINUOUS
 10
276.2236197586
 20
337.2853352141
 30
0.0
 11
-0.0
 21
112.3408721576
 31
0.0
 40
0.3916651095
 41
-4.3765668615
 42
-4.3645052563
  0
ELLIPSE
  5
94D
100
AcDbEntity
  8
0
100
AcDbEllipse
 62
7
  6
CONTINUOUS
 10
276.2236197586
 20
311.3702702015
 30
0.0
 11
44.0
 21
-0.0
 31
0.0
 40
0.7659558946
 41
-2.8297445137
 42
-2.8057705347
  0
ELLIPSE
  5
94E
100
AcDbEntity
  8
0
100
AcDbEllipse
 62
7
  6
CONTINUOUS
 10
276.2236197586
 20
307.9235083651
 30
0.0
 11
44.0
 21
0.0
 31
0.0
 40
0.5106401849
 41
-2.8416613611
 42
-2.8297445137
  0
ELLIPSE
  5
94F
100
AcDbEntity
  8
0
100
AcDbEllipse
 62
7
  6
CONTINUOUS
 10
276.2236197586
 20
309.4043324433
 30
0.0
 11
44.5
 21
-0.0
 31
0.0
 40
0.204255139
 41
-2.8918124279
 42
-2.8627107532
  0
ELLIPSE
  5
950
100
AcDbEntity
  8
0
100
AcDbEllipse
 62
7
  6
CONTINUOUS
 10
276.2236197586
 20
314.4086009183
 30
0.0
 11
44.5
 21
-0.0
 31
0.0
 40
0.6127668194
 41
-2.8627107532
 42
-2.8333645048
  0
ELLIPSE
  5
951
100
AcDbEntity
  8
0
100
AcDbEllipse
 62
7
  6
CONTINUOUS
 10
276.2236197586
 20
319.9234808658
 30
0.0
 11
-0.0
 21
45.446803093
 31
0.0
 40
0.9791667834
 41
-4.4041608316
 42
-4.386422315
  0
ELLIPSE
  5
952
100
AcDbEntity
  8
0
100
AcDbEllipse
 62
7
  6
CONTINUOUS
 10
276.2236197586
 20
341.7532150264
 30
0.0
 11
-0.0
 21
113.6168546832
 31
0.0
 40
0.391667241
 41
-4.386422315
 42
-4.3745376303
  0
ELLIPSE
  5
953
100
AcDbEntity
  8
0
100
AcDbEllipse
 62
7
  6
CONTINUOUS
 10
276.2236197586
 20
273.2001399028
 30
0.0
 11
-0.0
 21
90.8934328204
 31
0.0
 40
0.4895843255
 41
1.2329449767
 42
1.2448296614
  0
ELLIPSE
  5
954
100
AcDbEntity
  8
0
100
AcDbEllipse
 62
7
  6
CONTINUOUS
 10
276.2236197586
 20
287.7532731675
 30
0.0
 11
0.0
 21
45.446803093
 31
0.0
 40
0.9791667834
 41
1.2448296614
 42
1.262568178
  0
ELLIPSE
  5
955
100
AcDbEntity
  8
0
100
AcDbEllipse
 62
7
  6
CONTINUOUS
 10
276.2236197586
 20
294.6468625828
 30
0.0
 11
44.5
 21
-0.0
 31
0.0
 40
0.5106401849
 41
2.8333645048
 42
2.8451343454
  0
ELLIPSE
  5
956
100
AcDbEntity
  8
0
100
AcDbEllipse
 62
7
  6
CONTINUOUS
 10
276.2236197586
 20
307.9235083651
 30
0.0
 11
44.5
 21
0.0
 31
0.0
 40
0.5106401849
 41
-2.8451343454
 42
-2.8333645048
  0
ELLIPSE
  5
957
100
AcDbEntity
  8
0
100
AcDbEllipse
 62
7
  6
CONTINUOUS
 10
276.2236197586
 20
311.3702702015
 30
0.0
 11
44.5
 21
0.0
 31
0.0
 40
0.7659558946
 41
-2.8333645048
 42
-2.809689697
  0
ELLIPSE
  5
958
100
AcDbEntity
  8
0
100
AcDbEllipse
 62
7
  6
CONTINUOUS
 10
276.2236197586
 20
337.2853352141
 30
0.0
 11
-0.0
 21
113.6174729775
 31
0.0
 40
0.3916651095
 41
-4.3804860238
 42
-4.3685767796
  0
ELLIPSE
  5
959
100
AcDbEntity
  8
0
100
AcDbEllipse
 62
7
  6
CONTINUOUS
 10
276.2236197586
 20
259.9233388945
 30
0.0
 11
0.0
 21
113.617457063
 31
0.0
 40
0.3916651644
 41
1.226984126
 42
1.2388933702
  0
ELLIPSE
  5
95A
100
AcDbEntity
  8
0
100
AcDbEllipse
 62
7
  6
CONTINUOUS
 10
276.2236197586
 20
294.6468625828
 30
0.0
 11
44.0
 21
0.0
 31
0.0
 40
0.5106401849
 41
2.8297445137
 42
2.8416613611
  0
ELLIPSE
  5
95B
100
AcDbEntity
  8
0
100
AcDbEllipse
 62
7
  6
CONTINUOUS
 10
276.2236197586
 20
300.7745550382
 30
0.0
 11
44.0
 21
-0.0
 31
0.0
 40
0.204255678
 41
-2.6375669093
 42
-2.6048218399
  0
ELLIPSE
  5
95C
100
AcDbEntity
  8
0
100
AcDbEllipse
 62
7
  6
CONTINUOUS
 10
276.2236197586
 20
282.1362483476
 30
0.0
 11
0.0
 21
45.4468083978
 31
0.0
 40
0.9791666691
 41
1.2388933702
 42
1.2566667219
  0
ELLIPSE
  5
95D
100
AcDbEntity
  8
0
100
AcDbEllipse
 62
7
  6
CONTINUOUS
 10
276.2236197586
 20
310.902205717
 30
0.0
 11
44.0
 21
-0.0
 31
0.0
 40
0.6808509827
 41
-2.6569308797
 42
-2.6375669093
  0
ELLIPSE
  5
95E
100
AcDbEntity
  8
0
100
AcDbEllipse
 62
7
  6
CONTINUOUS
 10
276.2236197586
 20
359.7528014713
 30
0.0
 11
-0.0
 21
134.8074975395
 31
0.0
 40
0.3263913418
 41
-4.2341378282
 42
-4.2277272065
  0
ELLIPSE
  5
95F
100
AcDbEntity
  8
0
100
AcDbEllipse
 62
7
  6
CONTINUOUS
 10
276.2236197586
 20
287.7532766738
 30
0.0
 11
44.5
 21
0.0
 31
0.0
 40
0.6127654705
 41
2.8274630487
 42
2.8568620868
  0
ELLIPSE
  5
960
100
AcDbEntity
  8
0
100
AcDbEllipse
 62
7
  6
CONTINUOUS
 10
276.2236197586
 20
292.859655595
 30
0.0
 11
44.5
 21
0.0
 31
0.0
 40
0.2042551568
 41
2.8568620868
 42
2.886010218
  0
ELLIPSE
  5
961
100
AcDbEntity
  8
0
100
AcDbEllipse
 62
7
  6
CONTINUOUS
 10
276.2236197586
 20
304.3490102696
 30
0.0
 11
44.0
 21
-0.0
 31
0.0
 40
0.2553186315
 41
-2.9355933545
 42
-2.9252160479
  0
ELLIPSE
  5
962
100
AcDbEntity
  8
0
100
AcDbEllipse
 62
7
  6
CONTINUOUS
 10
276.2236197586
 20
308.9447648728
 30
0.0
 11
44.0
 21
-0.0
 31
0.0
 40
0.765958086
 41
-2.9587575166
 42
-2.9355933545
  0
ELLIPSE
  5
963
100
AcDbEntity
  8
0
100
AcDbEllipse
 62
7
  6
CONTINUOUS
 10
276.2236197586
 20
315.0723944978
 30
0.0
 11
-0.0
 21
67.4041187208
 31
0.0
 40
0.6527791007
 41
-4.5410980554
 42
-4.5295538434
  0
ELLIPSE
  5
964
100
AcDbEntity
  8
0
100
AcDbEllipse
 62
7
  6
CONTINUOUS
 10
276.2236197586
 20
292.6043480913
 30
0.0
 11
-0.0
 21
67.4041816632
 31
0.0
 40
0.6527784911
 41
1.3879611898
 42
1.3995054018
  0
ELLIPSE
  5
965
100
AcDbEntity
  8
0
100
AcDbEllipse
 62
7
  6
CONTINUOUS
 10
276.2236197586
 20
298.7319891604
 30
0.0
 11
44.0
 21
0.0
 31
0.0
 40
0.765958086
 41
2.9355933545
 42
2.9587575166
  0
ELLIPSE
  5
966
100
AcDbEntity
  8
0
100
AcDbEllipse
 62
7
  6
CONTINUOUS
 10
276.2236197586
 20
303.3277437636
 30
0.0
 11
44.0
 21
-0.0
 31
0.0
 40
0.2553186315
 41
9.208401355
 42
9.2187786617
  0
ELLIPSE
  5
967
100
AcDbEntity
  8
0
100
AcDbEllipse
 62
7
  6
CONTINUOUS
 10
276.2236197586
 20
298.9873082447
 30
0.0
 11
44.0
 21
-0.0
 31
0.0
 40
0.2553186315
 41
-2.9355933545
 42
-2.9252160479
  0
ELLIPSE
  5
968
100
AcDbEntity
  8
0
100
AcDbEllipse
 62
7
  6
CONTINUOUS
 10
276.2236197586
 20
301.2851888334
 30
0.0
 11
44.0
 21
-0.0
 31
0.0
 40
0.510638724
 41
-2.9587575166
 42
-2.9355933545
  0
ELLIPSE
  5
969
100
AcDbEntity
  8
0
100
AcDbEllipse
 62
7
  6
CONTINUOUS
 10
276.2236197586
 20
308.0936966715
 30
0.0
 11
0.0
 21
59.914896965
 31
0.0
 40
0.734374959
 41
-4.5468613958
 42
-4.5295538434
  0
ELLIPSE
  5
96A
100
AcDbEntity
  8
0
100
AcDbEllipse
 62
7
  6
CONTINUOUS
 10
276.2236197586
 20
289.1149703441
 30
0.0
 11
-0.0
 21
59.9149074554
 31
0.0
 40
0.7343748304
 41
1.3879611898
 42
1.4052687422
  0
ELLIPSE
  5
96B
100
AcDbEntity
  8
0
100
AcDbEllipse
 62
7
  6
CONTINUOUS
 10
276.2236197586
 20
295.9234800896
 30
0.0
 11
44.0
 21
0.0
 31
0.0
 40
0.510638724
 41
2.9355933545
 42
2.9587575166
  0
ELLIPSE
  5
96C
100
AcDbEntity
  8
0
100
AcDbEllipse
 62
7
  6
CONTINUOUS
 10
276.2236197586
 20
298.2213606783
 30
0.0
 11
44.0
 21
0.0
 31
0.0
 40
0.2553186315
 41
9.208401355
 42
9.2187786617
  0
ELLIPSE
  5
96D
100
AcDbEntity
  8
0
100
AcDbEllipse
 62
7
  6
CONTINUOUS
 10
276.2236197586
 20
287.7532731675
 30
0.0
 11
0.0
 21
44.936164856
 31
0.0
 40
0.9791667834
 41
1.2409859672
 42
1.2589481869
  0
ELLIPSE
  5
96E
100
AcDbEntity
  8
0
100
AcDbEllipse
 62
7
  6
CONTINUOUS
 10
276.2236197586
 20
273.2001399028
 30
0.0
 11
0.0
 21
89.8721582944
 31
0.0
 40
0.4895843255
 41
1.228949876
 42
1.2409859672
  0
ELLIPSE
  5
96F
100
AcDbEntity
  8
0
100
AcDbEllipse
 62
7
  6
CONTINUOUS
 10
276.2236197586
 20
341.7532150264
 30
0.0
 11
0.0
 21
112.3402608104
 31
0.0
 40
0.391667241
 41
-4.3825786208
 42
-4.3705425296
  0
ELLIPSE
  5
970
100
AcDbEntity
  8
0
100
AcDbEllipse
 62
7
  6
CONTINUOUS
 10
276.2236197586
 20
319.9234808658
 30
0.0
 11
0.0
 21
44.936164856
 31
0.0
 40
0.9791667834
 41
-4.4005408405
 42
-4.3825786208
  0
ELLIPSE
  5
971
100
AcDbEntity
  8
0
100
AcDbEllipse
 62
7
  6
CONTINUOUS
 10
276.2236197586
 20
359.7528014713
 30
0.0
 11
0.0
 21
136.3394009207
 31
0.0
 40
0.3263913418
 41
-4.2399537008
 42
-4.2336343528
  0
ELLIPSE
  5
972
100
AcDbEntity
  8
0
100
AcDbEllipse
 62
7
  6
CONTINUOUS
 10
276.2236197586
 20
310.902205717
 30
0.0
 11
44.5
 21
-0.0
 31
0.0
 40
0.6808509827
 41
-2.662838026
 42
-2.6437534867
  0
ELLIPSE
  5
973
100
AcDbEntity
  8
0
100
AcDbEllipse
 62
7
  6
CONTINUOUS
 10
276.2236197586
 20
300.7745550382
 30
0.0
 11
44.5
 21
-0.0
 31
0.0
 40
0.204255678
 41
-2.6437534867
 42
-2.6114945815
  0
ELLIPSE
  5
974
100
AcDbEntity
  8
0
100
AcDbEllipse
 62
7
  6
CONTINUOUS
 10
276.2236197586
 20
314.4086009183
 30
0.0
 11
44.0
 21
-0.0
 31
0.0
 40
0.6127668194
 41
-2.8594553192
 42
-2.8297445137
  0
ELLIPSE
  5
975
100
AcDbEntity
  8
0
100
AcDbEllipse
 62
7
  6
CONTINUOUS
 10
276.2236197586
 20
303.3277437636
 30
0.0
 11
44.5
 21
0.0
 31
0.0
 40
0.2553186315
 41
2.9149378768
 42
2.9379406858
  0
ELLIPSE
  5
976
100
AcDbEntity
  8
0
100
AcDbEllipse
 62
7
  6
CONTINUOUS
 10
276.2236197586
 20
298.7319891604
 30
0.0
 11
44.5
 21
-0.0
 31
0.0
 40
0.765958086
 41
2.9379406858
 42
2.960834648
  0
ELLIPSE
  5
977
100
AcDbEntity
  8
0
100
AcDbEllipse
 62
7
  6
CONTINUOUS
 10
276.2236197586
 20
292.6043480913
 30
0.0
 11
0.0
 21
68.170138273
 31
0.0
 40
0.6527784911
 41
1.3900383212
 42
1.4014487402
  0
ELLIPSE
  5
978
100
AcDbEntity
  8
0
100
AcDbEllipse
 62
7
  6
CONTINUOUS
 10
276.2236197586
 20
323.7107151518
 30
0.0
 11
44.5
 21
0.0
 31
0.0
 40
0.204255139
 41
-2.8568620868
 42
-2.8274630487
  0
ELLIPSE
  5
979
100
AcDbEntity
  8
0
100
AcDbEllipse
 62
7
  6
CONTINUOUS
 10
276.2236197586
 20
327.923489738
 30
0.0
 11
44.5
 21
0.0
 31
0.0
 40
0.510638724
 41
-2.8274630487
 42
-2.8037413035
  0
ELLIPSE
  5
97A
100
AcDbEntity
  8
0
100
AcDbEllipse
 62
7
  6
CONTINUOUS
 10
276.2236197586
 20
335.4554109167
 30
0.0
 11
-0.0
 21
45.4468464344
 31
0.0
 40
0.9791658496
 41
-4.3745376303
 42
-4.3506164732
  0
ELLIPSE
  5
97B
100
AcDbEntity
  8
0
100
AcDbEllipse
 62
7
  6
CONTINUOUS
 10
276.2236197586
 20
351.5404377086
 30
0.0
 11
0.0
 21
90.8934328204
 31
0.0
 40
0.4895843255
 41
-4.3506164732
 42
-4.3385751419
  0
ELLIPSE
  5
97C
100
AcDbEntity
  8
0
100
AcDbEllipse
 62
7
  6
CONTINUOUS
 10
276.2236197586
 20
401.3280921553
 30
0.0
 11
0.0
 21
227.2350096131
 31
0.0
 40
0.1958324999
 41
-4.3385751419
 42
-4.3325332414
  0
ELLIPSE
  5
97D
100
AcDbEntity
  8
0
100
AcDbEllipse
 62
7
  6
CONTINUOUS
 10
276.2236197586
 20
228.9870065236
 30
0.0
 11
0.0
 21
227.2348822971
 31
0.0
 40
0.1958326096
 41
1.1909405878
 42
1.1969824883
  0
ELLIPSE
  5
97E
100
AcDbEntity
  8
0
100
AcDbEllipse
 62
7
  6
CONTINUOUS
 10
276.2236197586
 20
278.7746086671
 30
0.0
 11
-0.0
 21
90.8934487349
 31
0.0
 40
0.4895842398
 41
1.1969824883
 42
1.2090238196
  0
ELLIPSE
  5
97F
100
AcDbEntity
  8
0
100
AcDbEllipse
 62
7
  6
CONTINUOUS
 10
276.2236197586
 20
294.8596396834
 30
0.0
 11
-0.0
 21
45.4468504131
 31
0.0
 40
0.9791657639
 41
1.2090238196
 42
1.2329449767
  0
ELLIPSE
  5
980
100
AcDbEntity
  8
0
100
AcDbEllipse
 62
7
  6
CONTINUOUS
 10
276.2236197586
 20
315.0723944978
 30
0.0
 11
0.0
 21
68.1700746153
 31
0.0
 40
0.6527791007
 41
-4.5430413938
 42
-4.5316309748
  0
ELLIPSE
  5
981
100
AcDbEntity
  8
0
100
AcDbEllipse
 62
7
  6
CONTINUOUS
 10
276.2236197586
 20
308.9447648728
 30
0.0
 11
44.5
 21
0.0
 31
0.0
 40
0.765958086
 41
-2.960834648
 42
-2.9379406858
  0
ELLIPSE
  5
982
100
AcDbEntity
  8
0
100
AcDbEllipse
 62
7
  6
CONTINUOUS
 10
276.2236197586
 20
304.3490102696
 30
0.0
 11
44.5
 21
-0.0
 31
0.0
 40
0.2553186315
 41
-2.9379406858
 42
-2.9149378768
  0
ELLIPSE
  5
983
100
AcDbEntity
  8
0
100
AcDbEllipse
 62
7
  6
CONTINUOUS
 10
276.2236197586
 20
309.4043324433
 30
0.0
 11
44.0
 21
-0.0
 31
0.0
 40
0.204255139
 41
-2.8889123984
 42
-2.8594553192
  0
ELLIPSE
  5
984
100
AcDbEntity
  8
0
100
AcDbEllipse
 62
7
  6
CONTINUOUS
 10
276.2236197586
 20
302.3915611918
 30
0.0
 11
44.5
 21
-0.0
 31
0.0
 40
0.510638791
 41
2.8037413035
 42
2.8274630487
  0
ELLIPSE
  5
985
100
AcDbEntity
  8
0
100
AcDbEllipse
 62
7
  6
CONTINUOUS
 10
276.2236197586
 20
306.6043364541
 30
0.0
 11
44.5
 21
-0.0
 31
0.0
 40
0.2042551568
 41
2.8274630487
 42
2.8568620868
  0
ELLIPSE
  5
986
100
AcDbEntity
  8
0
100
AcDbEllipse
 62
7
  6
CONTINUOUS
 10
276.2236197586
 20
306.6043364541
 30
0.0
 11
44.0
 21
0.0
 31
0.0
 40
0.2042551568
 41
2.8237689268
 42
2.8535345163
  0
ELLIPSE
  5
987
100
AcDbEntity
  8
0
100
AcDbEllipse
 62
7
  6
CONTINUOUS
 10
276.2236197586
 20
302.3915611918
 30
0.0
 11
44.0
 21
0.0
 31
0.0
 40
0.510638791
 41
2.7997462028
 42
2.8237689268
  0
ELLIPSE
  5
988
100
AcDbEntity
  8
0
100
AcDbEllipse
 62
7
  6
CONTINUOUS
 10
276.2236197586
 20
290.2639528968
 30
0.0
 11
0.0
 21
227.2335820511
 31
0.0
 40
0.1958337302
 41
1.4694995746
 42
1.47514492
  0
ELLIPSE
  5
989
100
AcDbEntity
  8
0
100
AcDbEllipse
 62
7
  6
CONTINUOUS
 10
276.2236197586
 20
303.2851767482
 30
0.0
 11
-0.0
 21
90.8937087833
 31
0.0
 40
0.4895828391
 41
1.47514492
 42
1.4864265946
  0
ELLIPSE
  5
98A
100
AcDbEntity
  8
0
100
AcDbEllipse
 62
7
  6
CONTINUOUS
 10
276.2236197586
 20
307.1149741495
 30
0.0
 11
-0.0
 21
45.4467854009
 31
0.0
 40
0.9791671646
 41
1.4864265946
 42
1.5089591724
  0
ELLIPSE
  5
98B
100
AcDbEntity
  8
0
100
AcDbEllipse
 62
7
  6
CONTINUOUS
 10
276.2236197586
 20
308.5192286931
 30
0.0
 11
44.5
 21
0.0
 31
0.0
 40
0.5106380606
 41
3.0797554991
 42
3.1022566782
  0
ELLIPSE
  5
98C
100
AcDbEntity
  8
0
100
AcDbEllipse
 62
7
  6
CONTINUOUS
 10
276.2236197586
 20
294.8596396834
 30
0.0
 11
-0.0
 21
44.9362116444
 31
0.0
 40
0.9791657639
 41
1.2047199852
 42
1.228949876
  0
ELLIPSE
  5
98D
100
AcDbEntity
  8
0
100
AcDbEllipse
 62
7
  6
CONTINUOUS
 10
276.2236197586
 20
309.0553982194
 30
0.0
 11
44.5
 21
-0.0
 31
0.0
 40
0.2042553906
 41
3.1022566782
 42
3.1303564621
  0
ELLIPSE
  5
98E
100
AcDbEntity
  8
0
100
AcDbEllipse
 62
7
  6
CONTINUOUS
 10
276.2236197586
 20
278.7746086671
 30
0.0
 11
0.0
 21
89.87217403
 31
0.0
 40
0.4895842398
 41
1.1925211009
 42
1.2047199852
  0
ELLIPSE
  5
98F
100
AcDbEntity
  8
0
100
AcDbEllipse
 62
7
  6
CONTINUOUS
 10
276.2236197586
 20
228.9870065236
 30
0.0
 11
0.0
 21
224.6816813724
 31
0.0
 40
0.1958326096
 41
1.1863995757
 42
1.1925211009
  0
ELLIPSE
  5
990
100
AcDbEntity
  8
0
100
AcDbEllipse
 62
7
  6
CONTINUOUS
 10
276.2236197586
 20
401.3280921553
 30
0.0
 11
0.0
 21
224.6818072579
 31
0.0
 40
0.1958324999
 41
-4.3341137544
 42
-4.3279922293
  0
ELLIPSE
  5
991
100
AcDbEntity
  8
0
100
AcDbEllipse
 62
7
  6
CONTINUOUS
 10
276.2236197586
 20
351.5404377086
 30
0.0
 11
0.0
 21
89.8721582944
 31
0.0
 40
0.4895843255
 41
-4.3463126388
 42
-4.3341137544
  0
ELLIPSE
  5
992
100
AcDbEntity
  8
0
100
AcDbEllipse
 62
7
  6
CONTINUOUS
 10
276.2236197586
 20
335.4554109167
 30
0.0
 11
0.0
 21
44.9362077105
 31
0.0
 40
0.9791658496
 41
-4.3705425296
 42
-4.3463126388
  0
ELLIPSE
  5
993
100
AcDbEntity
  8
0
100
AcDbEllipse
 62
7
  6
CONTINUOUS
 10
276.2236197586
 20
327.923489738
 30
0.0
 11
44.0
 21
-0.0
 31
0.0
 40
0.510638724
 41
-2.8237689268
 42
-2.7997462028
  0
ELLIPSE
  5
994
100
AcDbEntity
  8
0
100
AcDbEllipse
 62
7
  6
CONTINUOUS
 10
276.2236197586
 20
298.2213606783
 30
0.0
 11
44.5
 21
0.0
 31
0.0
 40
0.2553186315
 41
2.9149378768
 42
2.9379406858
  0
ELLIPSE
  5
995
100
AcDbEntity
  8
0
100
AcDbEllipse
 62
7
  6
CONTINUOUS
 10
276.2236197586
 20
295.9234800896
 30
0.0
 11
44.5
 21
0.0
 31
0.0
 40
0.510638724
 41
2.9379406858
 42
2.960834648
  0
ELLIPSE
  5
996
100
AcDbEntity
  8
0
100
AcDbEllipse
 62
7
  6
CONTINUOUS
 10
276.2236197586
 20
289.1149703441
 30
0.0
 11
0.0
 21
60.5957586765
 31
0.0
 40
0.7343748304
 41
1.3900383212
 42
1.4071454842
  0
ENDSEC
  0
SECTION
  2
OBJECTS
  0
DICTIONARY
  5
C
100
AcDbDictionary
280
0
281
1
  3
ACAD_GROUP
350
D
  3
ACAD_MLINESTYLE
350
17
  3
ACAD_LAYOUT
350
1A
  3
ACAD_PLOTSETTINGS
350
19
  3
ACAD_PLOTSTYLENAME
350
E
  0
DICTIONARY
  5
D
102
{ACAD_REACTORS
330
C
102
}
100
AcDbDictionary
280
0
281
1
  0
ACDBDICTIONARYWDFLT
  5
E
102
{ACAD_REACTORS
330
C
102
}
100
AcDbDictionary
281
1
  3
Normal
350
F
100
AcDbDictionaryWithDefault
340
F
  0
DICTIONARY
  5
17
102
{ACAD_REACTORS
330
C
102
}
100
AcDbDictionary
280
0
281
1
  3
Standard
350
18
  0
DICTIONARY
  5
19
102
{ACAD_REACTORS
330
C
102
}
100
AcDbDictionary
281
1
  0
DICTIONARY
  5
1A
102
{ACAD_REACTORS
330
C
102
}
100
AcDbDictionary
281
1
  3
Model
350
997
  3
Layout1
350
998
  0
ACDBPLACEHOLDER
  5
F
102
{ACAD_REACTORS
330
E
102
}
  0
MLINESTYLE
  5
18
102
{ACAD_REACTORS
330
17
102
}
100
AcDbMlineStyle
  2
STANDARD
 70
0
  3

 62
256
 51
90.0
 52
90.0
 71
2
 49
0.5
 62
256
  6
BYLAYER
 49
-0.5
 62
256
  6
BYLAYER
  0
LAYOUT
  5
997
102
{ACAD_REACTORS
330
1A
102
}
100
AcDbPlotSettings
  1

  2
none_device
  4
ISO_A1_(594.00_x_841.00_MM)
  6

 40
0.0
 41
0.0
 42
0.0
 43
0.0
 44
841.0
 45
594.0
 46
0.0
 47
0.0
 48
0.0
 49
0.0
140
0.0
141
0.0
142
1.0
143
1.0
 70
1024
 72
1
 73
0
 74
0
  7

 75
0
147
1.0
148
0.0
149
0.0
100
AcDbLayout
  1
Model
 70
0
 71
0
 10
0.0
 20
0.0
 11
841.0
 21
594.0
 12
0.0
 22
0.0
 32
0.0
 14
0.0
 24
0.0
 34
0.0
 15
0.0
 25
0.0
 35
0.0
146
0.0
 13
0.0
 23
0.0
 33
0.0
 16
1.0
 26
0.0
 36
0.0
 17
0.0
 27
1.0
 37
0.0
 76
0
330
20D
345
0
346
0
  0
LAYOUT
  5
998
102
{ACAD_REACTORS
330
1A
102
}
100
AcDbPlotSettings
  1

  2
none_device
  4
ISO_A1_(594.00_x_841.00_MM)
  6

 40
0.0
 41
0.0
 42
0.0
 43
0.0
 44
841.0
 45
594.0
 46
0.0
 47
0.0
 48
0.0
 49
0.0
140
0.0
141
0.0
142
1.0
143
1.0
 70
0
 72
1
 73
0
 74
0
  7

 75
0
147
1.0
148
0.0
149
0.0
100
AcDbLayout
  1
Layout1
 70
0
 71
1
 10
0.0
 20
0.0
 11
841.0
 21
594.0
 12
0.0
 22
0.0
 32
0.0
 14
0.0
 24
0.0
 34
0.0
 15
0.0
 25
0.0
 35
0.0
146
0.0
 13
0.0
 23
0.0
 33
0.0
 16
1.0
 26
0.0
 36
0.0
 17
0.0
 27
1.0
 37
0.0
 76
0
330
20E
345
0
346
0
  0
ENDSEC
  0
EOF
