999
DXF file: 001-m31395-p-20.dxf
999
Pro/ENGINEER 2011490 by Parametric Technology Corporation
  0
SECTION
  2
HEADER
  9
$ACADVER
  1
AC1015
  9
$DWGCODEPAGE
  3
ANSI_1252
  9
$EXTMAX
 10
841.0
 20
594.0
 30
0.0
  9
$EXTMIN
 10
0.0
 20
0.0
 30
0.0
  9
$LIMMIN
 10
0.0
 20
0.0
  9
$LIMMAX
 10
841.0
 20
594.0
  9
$VIEWCTR
 10
420.5
 20
297.0
  9
$VIEWSIZE
 40
594.0
  9
$CLAYER
  8
0
  9
$LTSCALE
 40
46.255
  9
$CELTYPE
  6
BYLAYER
  9
$DIMSCALE
 40
1.0
  9
$DIMASZ
 40
3.5
  9
$DIMEXO
 40
5.25625
  9
$DIMDLI
 40
31.958
  9
$DIMEXE
 40
15.138
  9
$DIMCEN
 40
7.569
  9
$DIMLFAC
 40
1.0
  9
$DIMBLK
  1
_FILLED
  9
$DIMTXT
 40
3.5
  9
$DIMTOL
 70
1
  9
$DIMLIM
 70
0
  9
$DIMTFAC
 40
1.0
  9
$DIMTP
 40
0.005
  9
$DIMTM
 40
0.005
  9
$PDMODE
 70
3
  9
$PDSIZE
 40
0.3125
  9
$HANDSEED
  5
939
  9
$TILEMODE
 70
1
  9
$MEASUREMENT
 70
1
  9
$INSUNITS
 70
4
  0
ENDSEC
  0
SECTION
  2
CLASSES
  0
CLASS
  1
ACDBDICTIONARYWDFLT
  2
AcDbDictionaryWithDefault
  3
AutoCAD 2000
 90
0
280
0
281
0
  0
CLASS
  1
ACDBPLACEHOLDER
  2
AcDbPlaceHolder
  3
AutoCAD 2000
 90
0
280
0
281
0
  0
CLASS
  1
LAYOUT
  2
AcDbLayout
  3
AutoCAD 2000
 90
0
280
0
281
0
  0
ENDSEC
  0
SECTION
  2
TABLES
  0
TABLE
  2
VPORT
  5
8
100
AcDbSymbolTable
 70
2
  0
VPORT
  5
1F4
100
AcDbSymbolTableRecord
100
AcDbViewportTableRecord
  2
*ACTIVE
 70
0
 10
0.0
 20
0.0
 11
1.0
 21
1.0
 12
420.5
 22
297.0
 13
0.0
 23
0.0
 14
1.0
 24
1.0
 15
0.0
 25
0.0
 16
0.0
 26
0.0
 36
1.0
 17
0.0
 27
0.0
 37
0.0
 40
594.0
 41
1.4158249158
 42
50.0
 43
0.0
 44
0.0
 50
0.0
 51
0.0
 71
0
 72
100
 73
1
 74
1
 75
0
 76
0
 77
0
 78
0
  0
ENDTAB
  0
TABLE
  2
LTYPE
  5
5
100
AcDbSymbolTable
 70
6
  0
LTYPE
  5
14
100
AcDbSymbolTableRecord
100
AcDbLinetypeTableRecord
  2
BYBLOCK
 70
0
  3

 72
65
 73
0
 40
0.0
  0
LTYPE
  5
15
100
AcDbSymbolTableRecord
100
AcDbLinetypeTableRecord
  2
BYLAYER
 70
0
  3

 72
65
 73
0
 40
0.0
  0
LTYPE
  5
16
100
AcDbSymbolTableRecord
100
AcDbLinetypeTableRecord
  2
CONTINUOUS
 70
64
  3
Solid line
 72
65
 73
0
 40
0.0
  0
LTYPE
  5
1F5
100
AcDbSymbolTableRecord
100
AcDbLinetypeTableRecord
  2
CENTER
 70
64
  3
____ _ ____ _ ____ _ ____ _ ____ _ ____ _ ____
 72
65
 73
4
 40
0.6
 49
0.375
 74
0
 49
-0.075
 74
0
 49
0.075
 74
0
 49
-0.075
 74
0
  0
LTYPE
  5
1F6
100
AcDbSymbolTableRecord
100
AcDbLinetypeTableRecord
  2
HIDDEN
 70
64
  3
- - - - - - - - - - - - - - - - - - - -
 72
65
 73
2
 40
0.2
 49
0.1
 74
0
 49
-0.1
 74
0
  0
LTYPE
  5
1F7
100
AcDbSymbolTableRecord
100
AcDbLinetypeTableRecord
  2
PHANTOM
 70
64
  3
_____ _ _ _____ _ _ _____ _ _ _____
 72
65
 73
6
 40
0.8
 49
0.45
 74
0
 49
-0.05
 74
0
 49
0.1
 74
0
 49
-0.05
 74
0
 49
0.1
 74
0
 49
-0.05
 74
0
  0
LTYPE
  5
1F8
100
AcDbSymbolTableRecord
100
AcDbLinetypeTableRecord
  2
DOT
 70
64
  3
. . . . . . . . . . . . . . . . . . . .
 72
65
 73
2
 40
0.2
 49
0.1
 74
0
 49
-0.1
 74
0
  0
LTYPE
  5
1F9
100
AcDbSymbolTableRecord
100
AcDbLinetypeTableRecord
  2
DASHED
 70
64
  3
- - - - - - - - - - - - - - - - - - - -
 72
65
 73
2
 40
0.2
 49
0.1
 74
0
 49
-0.1
 74
0
  0
ENDTAB
  0
TABLE
  2
LAYER
  5
2
100
AcDbSymbolTable
 70
36
  0
LAYER
  5
10
100
AcDbSymbolTableRecord
100
AcDbLayerTableRecord
  2
0
 70
0
 62
7
  6
CONTINUOUS
370
-3
390
F
  0
LAYER
  5
1FA
100
AcDbSymbolTableRecord
100
AcDbLayerTableRecord
  2
DEFAULT_1
 70
0
 62
7
  6
CENTER
370
-3
390
F
  0
LAYER
  5
1FB
100
AcDbSymbolTableRecord
100
AcDbLayerTableRecord
  2
DEFAULT_2
 70
0
 62
8
  6
HIDDEN
370
-3
390
F
  0
LAYER
  5
1FC
100
AcDbSymbolTableRecord
100
AcDbLayerTableRecord
  2
DEFAULT_3
 70
0
 62
7
  6
PHANTOM
370
-3
390
F
  0
LAYER
  5
1FD
100
AcDbSymbolTableRecord
100
AcDbLayerTableRecord
  2
AUSFORMSCHRAEGEN
 70
0
 62
7
  6
CONTINUOUS
370
-3
390
F
  0
LAYER
  5
1FE
100
AcDbSymbolTableRecord
100
AcDbLayerTableRecord
  2
BEZUGSACHSEN
 70
0
 62
7
  6
CONTINUOUS
370
-3
390
F
  0
LAYER
  5
1FF
100
AcDbSymbolTableRecord
100
AcDbLayerTableRecord
  2
BEZUGSEBENEN
 70
0
 62
7
  6
CONTINUOUS
370
-3
390
F
  0
LAYER
  5
200
100
AcDbSymbolTableRecord
100
AcDbLayerTableRecord
  2
BG_STARTBEZUEGE
 70
0
 62
7
  6
CONTINUOUS
370
-3
390
F
  0
LAYER
  5
201
100
AcDbSymbolTableRecord
100
AcDbLayerTableRecord
  2
FASEN
 70
0
 62
7
  6
CONTINUOUS
370
-3
390
F
  0
LAYER
  5
202
100
AcDbSymbolTableRecord
100
AcDbLayerTableRecord
  2
HILFEN
 70
0
 62
7
  6
CONTINUOUS
370
-3
390
F
  0
LAYER
  5
203
100
AcDbSymbolTableRecord
100
AcDbLayerTableRecord
  2
KONSTRUKTIONSELEMENTE
 70
0
 62
7
  6
CONTINUOUS
370
-3
390
F
  0
LAYER
  5
204
100
AcDbSymbolTableRecord
100
AcDbLayerTableRecord
  2
NORM
 70
0
 62
7
  6
CONTINUOUS
370
-3
390
F
  0
LAYER
  5
205
100
AcDbSymbolTableRecord
100
AcDbLayerTableRecord
  2
PLATZIERUNG
 70
0
 62
7
  6
CONTINUOUS
370
-3
390
F
  0
LAYER
  5
206
100
AcDbSymbolTableRecord
100
AcDbLayerTableRecord
  2
PLAZIERUNG
 70
0
 62
7
  6
CONTINUOUS
370
-3
390
F
  0
LAYER
  5
207
100
AcDbSymbolTableRecord
100
AcDbLayerTableRecord
  2
RUNDUNGEN
 70
0
 62
7
  6
CONTINUOUS
370
-3
390
F
  0
LAYER
  5
208
100
AcDbSymbolTableRecord
100
AcDbLayerTableRecord
  2
TEIL_STARTBEZUEGE
 70
0
 62
7
  6
CONTINUOUS
370
-3
390
F
  0
LAYER
  5
209
100
AcDbSymbolTableRecord
100
AcDbLayerTableRecord
  2
T_STARTBEZUEGE
 70
0
 62
7
  6
CONTINUOUS
370
-3
390
F
  0
LAYER
  5
20A
100
AcDbSymbolTableRecord
100
AcDbLayerTableRecord
  2
ZEICHNUNGSBEMASSUNGEN
 70
0
 62
7
  6
CONTINUOUS
370
-3
390
F
  0
ENDTAB
  0
TABLE
  2
STYLE
  5
3
100
AcDbSymbolTable
 70
1
  0
STYLE
  5
11
100
AcDbSymbolTableRecord
100
AcDbTextStyleTableRecord
  2
STANDARD
 70
0
 40
0.0
 41
0.7
 50
0.0
 71
0
 42
0.2
  3
txt
  4

  0
STYLE
  5
20B
100
AcDbSymbolTableRecord
100
AcDbTextStyleTableRecord
  2
TEXTSTYLE_1
 70
0
 40
0.0
 41
0.8
 50
0.0
 71
0
 42
0.2
  3
gdt
  4

  0
ENDTAB
  0
TABLE
  2
VIEW
  5
6
100
AcDbSymbolTable
 70
0
  0
ENDTAB
  0
TABLE
  2
UCS
  5
7
100
AcDbSymbolTable
 70
0
  0
ENDTAB
  0
TABLE
  2
APPID
  5
9
100
AcDbSymbolTable
 70
1
  0
APPID
  5
20C
100
AcDbSymbolTableRecord
100
AcDbRegAppTableRecord
  2
ACAD
 70
0
  0
ENDTAB
  0
TABLE
  2
BLOCK_RECORD
  5
1
100
AcDbSymbolTable
 70
0
  0
BLOCK_RECORD
  5
20D
100
AcDbSymbolTableRecord
100
AcDbBlockTableRecord
  2
*Model_Space
  0
BLOCK_RECORD
  5
20E
100
AcDbSymbolTableRecord
100
AcDbBlockTableRecord
  2
*Paper_Space
  0
ENDTAB
  0
TABLE
  2
DIMSTYLE
  5
A
100
AcDbSymbolTable
 70
1
100
AcDbDimStyleTable
 71
0
  0
DIMSTYLE
105
20F
100
AcDbSymbolTableRecord
100
AcDbDimStyleTableRecord
  2
STANDARD
 70
0
  3

  4

 40
1.0
 41
3.5
 42
0.0625
 43
0.38
 44
0.18
 45
0.0
 46
0.0
 47
0.005
 48
0.005
140
3.5
141
0.09
142
0.0
143
25.4
144
1.0
145
0.0
146
1.0
147
0.09
 71
1.0
 72
0.0
 73
0
 74
0
 75
0
 76
0
 77
1
 78
8
170
0
171
2
172
0
173
0
174
0
175
0
176
0
177
0
178
5
270
2
271
3
272
3
273
2
274
2
275
0
280
0
281
0
282
0
283
1
284
8
285
0
286
0
287
3
288
0
340
11
  0
ENDTAB
  0
ENDSEC
  0
SECTION
  2
BLOCKS
  0
BLOCK
  5
20
100
AcDbEntity
  8
0
100
AcDbBlockBegin
  2
*Model_Space
 70
0
 10
0.0
 20
0.0
 30
0.0
  3
*Model_Space
  1

  0
ENDBLK
  5
21
100
AcDbEntity
  8
0
100
AcDbBlockEnd
  0
BLOCK
  5
1C
100
AcDbEntity
  8
0
100
AcDbBlockBegin
  2
*Paper_Space
 70
0
 10
0.0
 20
0.0
 30
0.0
  3
*Paper_Space
  1

  0
ENDBLK
  5
1D
100
AcDbEntity
  8
0
100
AcDbBlockEnd
  0
ENDSEC
  0
SECTION
  2
ENTITIES
  0
MTEXT
  5
210
100
AcDbEntity
  8
0
100
AcDbMText
 62
5
  6
CONTINUOUS
  7
STANDARD
 71
1
 72
1
 10
434.1057737201
 20
347.2019003317
 30
0.0
 11
0.3826834324
 21
0.9238795325
 31
0.0
 44
0.9
  1
VIP 13
 40
8.0
 41
36.1904761905
  0
MTEXT
  5
211
100
AcDbEntity
  8
0
100
AcDbMText
 62
5
  6
CONTINUOUS
  7
STANDARD
 71
2
 72
1
 10
249.7649701599
 20
97.8373970095
 30
0.0
 11
0.0
 21
1.0
 31
0.0
 44
0.9
  1
RUD PP-B\P5t M30
 40
11.0
 41
71.7619047619
  0
MTEXT
  5
212
100
AcDbEntity
  8
0
100
AcDbMText
 62
5
  6
CONTINUOUS
  7
STANDARD
 71
1
 72
1
 10
494.9758470165
 20
372.5748522324
 30
0.0
 11
0.3826834324
 21
-0.9238795325
 31
0.0
 44
0.9
  1
CE
 40
8.0
 41
13.9047619048
  0
LINE
  5
213
100
AcDbEntity
  8
0
100
AcDbLine
 62
7
  6
CONTINUOUS
 10
0.0
 20
0.0
 11
0.0
 21
594.0
  0
LINE
  5
214
100
AcDbEntity
  8
0
100
AcDbLine
 62
7
  6
CONTINUOUS
 10
0.0
 20
0.0
 11
841.0
 21
0.0
  0
LINE
  5
215
100
AcDbEntity
  8
0
100
AcDbLine
 62
7
  6
CONTINUOUS
 10
0.0
 20
594.0
 11
841.0
 21
594.0
  0
LINE
  5
216
100
AcDbEntity
  8
0
100
AcDbLine
 62
7
  6
CONTINUOUS
 10
841.0
 20
0.0
 11
841.0
 21
594.0
  0
LINE
  5
217
100
AcDbEntity
  8
FASEN
100
AcDbLine
 62
7
  6
CONTINUOUS
 10
276.5768104403
 20
231.7658349241
 11
250.5771028445
 21
231.7658349241
  0
LINE
  5
218
100
AcDbEntity
  8
FASEN
100
AcDbLine
 62
7
  6
CONTINUOUS
 10
278.5769566424
 20
233.7658349241
 11
248.5769566424
 21
233.7658349241
  0
LINE
  5
219
100
AcDbEntity
  8
0
100
AcDbLine
 62
7
  6
CONTINUOUS
 10
236.7006754135
 20
501.4911635353
 11
237.0228058987
 21
501.6587642181
  0
LINE
  5
21A
100
AcDbEntity
  8
0
100
AcDbLine
 62
7
  6
CONTINUOUS
 10
241.2704518616
 20
506.000198869
 11
240.7439290118
 21
505.7458351117
  0
LINE
  5
21B
100
AcDbEntity
  8
0
100
AcDbLine
 62
7
  6
CONTINUOUS
 10
251.5320621907
 20
508.2248810404
 11
250.0334371078
 21
507.6526267633
  0
LINE
  5
21C
100
AcDbEntity
  8
0
100
AcDbLine
 62
7
  6
CONTINUOUS
 10
250.2421620488
 20
507.1060158518
 11
251.7407871317
 21
507.6782701289
  0
LINE
  5
21D
100
AcDbEntity
  8
0
100
AcDbLine
 62
7
  6
CONTINUOUS
 10
263.3393383109
 20
511.0379894214
 11
263.0000960318
 21
510.9084799064
  0
LINE
  5
21E
100
AcDbEntity
  8
0
100
AcDbLine
 62
7
  6
CONTINUOUS
 10
269.4781269111
 20
508.7048444196
 11
267.5069566424
 21
507.9920688783
  0
LINE
  5
21F
100
AcDbEntity
  8
0
100
AcDbLine
 62
7
  6
CONTINUOUS
 10
241.1898480723
 20
505.3500637388
 11
241.53414641
 21
505.4654617157
  0
LINE
  5
220
100
AcDbEntity
  8
0
100
AcDbLine
 62
7
  6
CONTINUOUS
 10
268.8869566424
 20
507.7571726114
 11
269.8290296916
 21
508.0716546928
  0
LINE
  5
221
100
AcDbEntity
  8
0
100
AcDbLine
 62
7
  6
CONTINUOUS
 10
240.7439290118
 20
505.7458351117
 11
238.5572327804
 21
504.0782441571
  0
LINE
  5
222
100
AcDbEntity
  8
0
100
AcDbLine
 62
7
  6
CONTINUOUS
 10
239.458713382
 20
504.0298874339
 11
241.1898480723
 21
505.3500637388
  0
LINE
  5
223
100
AcDbEntity
  8
0
100
AcDbLine
 62
7
  6
CONTINUOUS
 10
242.2542679025
 20
503.9543000926
 11
240.5231332122
 21
502.6341237877
  0
LINE
  5
224
100
AcDbEntity
  8
0
100
AcDbLine
 62
7
  6
CONTINUOUS
 10
240.9489010647
 20
502.0758184334
 11
242.5889232382
 21
503.3265116494
  0
LINE
  5
225
100
AcDbEntity
  8
0
100
AcDbLine
 62
7
  6
CONTINUOUS
 10
241.8924146896
 20
499.7048516944
 11
242.4390887474
 21
500.121749433
  0
LINE
  5
226
100
AcDbEntity
  8
0
100
AcDbLine
 62
7
  6
CONTINUOUS
 10
236.6790649051
 20
502.1459201659
 11
236.1985704341
 21
501.8126745036
  0
LINE
  5
227
100
AcDbEntity
  8
0
100
AcDbLine
 62
7
  6
CONTINUOUS
 10
278.9114188784
 20
510.0583931755
 11
277.954432373
 21
509.5810694928
  0
LINE
  5
228
100
AcDbEntity
  8
0
100
AcDbLine
 62
7
  6
CONTINUOUS
 10
277.5813640234
 20
508.7224455479
 11
278.5383506595
 21
509.1997695313
  0
LINE
  5
229
100
AcDbEntity
  8
0
100
AcDbLine
 62
7
  6
CONTINUOUS
 10
274.6869566424
 20
510.847277287
 11
273.6969566424
 21
510.4495005351
  0
LINE
  5
22A
100
AcDbEntity
  8
0
100
AcDbLine
 62
7
  6
CONTINUOUS
 10
273.898831497
 20
509.7264217611
 11
275.5369566424
 21
510.3846117607
  0
LINE
  5
22B
100
AcDbEntity
  8
FASEN
100
AcDbLine
 62
7
  6
CONTINUOUS
 10
250.5769566424
 20
231.7658349241
 11
248.5769566424
 21
233.7658349241
  0
LINE
  5
22C
100
AcDbEntity
  8
0
100
AcDbLine
 62
7
  6
CONTINUOUS
 10
236.1985704341
 20
501.8126745036
 11
234.2982035117
 21
499.8249356978
  0
LINE
  5
22D
100
AcDbEntity
  8
0
100
AcDbLine
 62
7
  6
CONTINUOUS
 10
235.1962183421
 20
499.9175370597
 11
236.7006754135
 21
501.4911635353
  0
LINE
  5
22E
100
AcDbEntity
  8
0
100
AcDbLine
 62
7
  6
CONTINUOUS
 10
237.9694449497
 20
500.2781632901
 11
236.4649878783
 21
498.7045368145
  0
LINE
  5
22F
100
AcDbEntity
  8
0
100
AcDbLine
 62
7
  6
CONTINUOUS
 10
236.972495598
 20
498.2193368071
 11
238.3977707898
 21
499.7101409114
  0
LINE
  5
230
100
AcDbEntity
  8
0
100
AcDbLine
 62
7
  6
CONTINUOUS
 10
238.2736811233
 20
496.0242018529
 11
238.7487728539
 21
496.5211365544
  0
LINE
  5
231
100
AcDbEntity
  8
0
100
AcDbLine
 62
7
  6
CONTINUOUS
 10
263.4795109925
 20
510.3405199298
 11
263.924704992
 21
510.7081043852
  0
LINE
  5
232
100
AcDbEntity
  8
0
100
AcDbLine
 62
7
  6
CONTINUOUS
 10
280.8991278893
 20
507.7072200751
 11
281.2726395878
 21
507.8976158543
  0
LINE
  5
233
100
AcDbEntity
  8
0
100
AcDbLine
 62
7
  6
CONTINUOUS
 10
282.9586430156
 20
505.3107594815
 11
283.3321592632
 21
505.5011526496
  0
LINE
  5
234
100
AcDbEntity
  8
0
100
AcDbLine
 62
7
  6
CONTINUOUS
 10
281.7764435038
 20
503.0209079442
 11
282.1499552022
 21
503.2113037234
  0
LINE
  5
235
100
AcDbEntity
  8
0
100
AcDbLine
 62
7
  6
CONTINUOUS
 10
242.5889232382
 20
503.3265116494
 11
242.9735234706
 21
503.7669771914
  0
LINE
  5
236
100
AcDbEntity
  8
0
100
AcDbLine
 62
7
  6
CONTINUOUS
 10
263.5597950264
 20
511.2802531222
 11
263.3393383109
 21
511.0379894214
  0
LINE
  5
237
100
AcDbEntity
  8
0
100
AcDbLine
 62
7
  6
CONTINUOUS
 10
283.167667397
 20
506.1352771502
 11
282.7358975414
 21
505.8433926373
  0
LINE
  5
238
100
AcDbEntity
  8
0
100
AcDbLine
 62
7
  6
CONTINUOUS
 10
281.9272097689
 20
503.7439369503
 11
281.7113271157
 21
503.5979933883
  0
LINE
  5
239
100
AcDbEntity
  8
0
100
AcDbLine
 62
7
  6
CONTINUOUS
 10
289.7923697291
 20
500.6910076236
 11
289.4688569809
 21
500.5129227436
  0
LINE
  5
23A
100
AcDbEntity
  8
0
100
AcDbLine
 62
7
  6
CONTINUOUS
 10
289.8909579508
 20
499.9577822235
 11
290.2144706991
 21
500.1358671035
  0
LINE
  5
23B
100
AcDbEntity
  8
0
100
AcDbLine
 62
7
  6
CONTINUOUS
 10
288.1134934704
 20
498.8964551195
 11
287.7899807221
 21
498.7183702395
  0
LINE
  5
23C
100
AcDbEntity
  8
0
100
AcDbLine
 62
7
  6
CONTINUOUS
 10
288.212081636
 20
498.1632296595
 11
288.5355944403
 21
498.3413145994
  0
LINE
  5
23D
100
AcDbEntity
  8
KONSTRUKTIONSELEMENTE
100
AcDbLine
 62
7
  6
CONTINUOUS
 10
216.0769566424
 20
276.7658349241
 11
311.0769566424
 21
276.7658349241
  0
LINE
  5
23E
100
AcDbEntity
  8
0
100
AcDbLine
 62
7
  6
CONTINUOUS
 10
222.0508769816
 20
281.7658349241
 11
222.4883769816
 21
281.7658349241
  0
LINE
  5
23F
100
AcDbEntity
  8
0
100
AcDbLine
 62
7
  6
CONTINUOUS
 10
223.5092102801
 20
281.7658349241
 11
224.0925435787
 21
281.7658349241
  0
LINE
  5
240
100
AcDbEntity
  8
0
100
AcDbLine
 62
7
  6
CONTINUOUS
 10
225.1133769816
 20
281.7658349241
 11
225.5508769816
 21
281.7658349241
  0
LINE
  5
241
100
AcDbEntity
  8
0
100
AcDbLine
 62
7
  6
CONTINUOUS
 10
227.1550437873
 20
281.7658349241
 11
227.7383769816
 21
281.7658349241
  0
LINE
  5
242
100
AcDbEntity
  8
0
100
AcDbLine
 62
7
  6
CONTINUOUS
 10
226.8633769816
 20
281.9147710896
 11
227.7294023853
 21
281.9147710896
  0
LINE
  5
243
100
AcDbEntity
  8
0
100
AcDbLine
 62
7
  6
CONTINUOUS
 10
230.2175433701
 20
281.9147710896
 11
231.0835687739
 21
281.9147710896
  0
LINE
  5
244
100
AcDbEntity
  8
0
100
AcDbLine
 62
7
  6
CONTINUOUS
 10
226.5717101758
 20
282.2126434336
 11
227.4377355796
 21
282.2126434336
  0
LINE
  5
245
100
AcDbEntity
  8
0
100
AcDbLine
 62
7
  6
CONTINUOUS
 10
229.8529605931
 20
282.361579586
 11
230.7189859968
 21
282.361579586
  0
LINE
  5
246
100
AcDbEntity
  8
0
100
AcDbLine
 62
7
  6
CONTINUOUS
 10
223.8008769816
 20
282.5105157907
 11
224.230494037
 21
282.5105157907
  0
LINE
  5
247
100
AcDbEntity
  8
0
100
AcDbLine
 62
7
  6
CONTINUOUS
 10
226.3529601758
 20
282.5105157907
 11
227.2189855796
 21
282.5105157907
  0
LINE
  5
248
100
AcDbEntity
  8
0
100
AcDbLine
 62
7
  6
CONTINUOUS
 10
227.2279601758
 20
282.5105157907
 11
228.5314855796
 21
282.5105157907
  0
LINE
  5
249
100
AcDbEntity
  8
0
100
AcDbLine
 62
7
  6
CONTINUOUS
 10
230.6550433701
 20
282.5105157907
 11
231.5210687739
 21
282.5105157907
  0
LINE
  5
24A
100
AcDbEntity
  8
0
100
AcDbLine
 62
7
  6
CONTINUOUS
 10
228.0300437873
 20
282.6594519431
 11
228.5890713797
 21
282.6594519431
  0
LINE
  5
24B
100
AcDbEntity
  8
0
100
AcDbLine
 62
7
  6
CONTINUOUS
 10
231.0196269816
 20
282.6594519431
 11
231.6029603234
 21
282.6594519431
  0
LINE
  5
24C
100
AcDbEntity
  8
0
100
AcDbLine
 62
7
  6
CONTINUOUS
 10
228.1758769816
 20
282.8083880956
 11
228.6376825835
 21
282.8083880956
  0
LINE
  5
24D
100
AcDbEntity
  8
0
100
AcDbLine
 62
7
  6
CONTINUOUS
 10
229.6342105931
 20
282.8083880956
 11
230.1810855931
 21
282.8083880956
  0
LINE
  5
24E
100
AcDbEntity
  8
0
100
AcDbLine
 62
7
  6
CONTINUOUS
 10
226.2071269816
 20
282.957324248
 11
226.6446270071
 21
282.957324248
  0
LINE
  5
24F
100
AcDbEntity
  8
0
100
AcDbLine
 62
7
  6
CONTINUOUS
 10
231.2383769816
 20
282.957324248
 11
231.7123353781
 21
282.957324248
  0
LINE
  5
250
100
AcDbEntity
  8
0
100
AcDbLine
 62
7
  6
CONTINUOUS
 10
228.3217101758
 20
283.1062605048
 11
228.7105992615
 21
283.1062605048
  0
LINE
  5
251
100
AcDbEntity
  8
0
100
AcDbLine
 62
7
  6
CONTINUOUS
 10
226.4987937873
 20
283.4041328097
 11
226.1342101758
 21
283.4041328097
  0
LINE
  5
252
100
AcDbEntity
  8
0
100
AcDbLine
 62
7
  6
CONTINUOUS
 10
228.3946269816
 20
283.4041328097
 11
228.7592101758
 21
283.4041328097
  0
LINE
  5
253
100
AcDbEntity
  8
0
100
AcDbLine
 62
7
  6
CONTINUOUS
 10
229.4883769816
 20
283.4041328097
 11
229.9258769645
 21
283.4041328097
  0
LINE
  5
254
100
AcDbEntity
  8
0
100
AcDbLine
 62
7
  6
CONTINUOUS
 10
229.4154605931
 20
283.8509412671
 11
229.7800433701
 21
283.8509412671
  0
LINE
  5
255
100
AcDbEntity
  8
0
100
AcDbLine
 62
7
  6
CONTINUOUS
 10
231.5300433701
 20
283.8509412671
 11
231.8946269816
 21
283.8509412671
  0
LINE
  5
256
100
AcDbEntity
  8
0
100
AcDbLine
 62
7
  6
CONTINUOUS
 10
228.3946269816
 20
283.9998774195
 11
228.7592101758
 21
283.9998774195
  0
LINE
  5
257
100
AcDbEntity
  8
0
100
AcDbLine
 62
7
  6
CONTINUOUS
 10
228.2487937873
 20
284.595622238
 11
228.6862937873
 21
284.595622238
  0
LINE
  5
258
100
AcDbEntity
  8
0
100
AcDbLine
 62
7
  6
CONTINUOUS
 10
229.3425433701
 20
284.595622238
 11
229.7192797101
 21
284.595622238
  0
LINE
  5
259
100
AcDbEntity
  8
0
100
AcDbLine
 62
7
  6
CONTINUOUS
 10
231.6029605931
 20
284.7445583905
 11
231.9675433701
 21
284.7445583905
  0
LINE
  5
25A
100
AcDbEntity
  8
0
100
AcDbLine
 62
7
  6
CONTINUOUS
 10
228.0300437873
 20
284.8934945429
 11
228.5890713797
 21
284.8934945429
  0
LINE
  5
25B
100
AcDbEntity
  8
0
100
AcDbLine
 62
7
  6
CONTINUOUS
 10
227.3008769816
 20
285.0424306954
 11
228.4585691911
 21
285.0424306954
  0
LINE
  5
25C
100
AcDbEntity
  8
0
100
AcDbLine
 62
7
  6
CONTINUOUS
 10
227.3008769816
 20
285.6381753052
 11
228.3703215187
 21
285.6381753052
  0
LINE
  5
25D
100
AcDbEntity
  8
0
100
AcDbLine
 62
7
  6
CONTINUOUS
 10
228.0300437873
 20
288.6168987716
 11
227.5196269816
 21
288.7658349241
  0
LINE
  5
25E
100
AcDbEntity
  8
0
100
AcDbLine
 62
7
  6
CONTINUOUS
 10
230.2175433701
 20
281.9147710896
 11
230.6550433701
 21
281.7658349241
  0
LINE
  5
25F
100
AcDbEntity
  8
0
100
AcDbLine
 62
7
  6
CONTINUOUS
 10
227.5925437873
 20
285.0424306954
 11
228.0300437873
 21
284.8934945429
  0
LINE
  5
260
100
AcDbEntity
  8
0
100
AcDbLine
 62
7
  6
CONTINUOUS
 10
228.4585691911
 20
285.0424306954
 11
228.5506965709
 21
285.0110681868
  0
LINE
  5
261
100
AcDbEntity
  8
0
100
AcDbLine
 62
7
  6
CONTINUOUS
 10
231.0925433701
 20
288.6168987716
 11
230.6550433701
 21
288.7658349241
  0
LINE
  5
262
100
AcDbEntity
  8
0
100
AcDbLine
 62
7
  6
CONTINUOUS
 10
227.2279601758
 20
282.5105157907
 11
226.8633769816
 21
282.6594519431
  0
LINE
  5
263
100
AcDbEntity
  8
0
100
AcDbLine
 62
7
  6
CONTINUOUS
 10
230.6550433701
 20
282.5105157907
 11
230.2904605931
 21
282.6594519431
  0
LINE
  5
264
100
AcDbEntity
  8
0
100
AcDbLine
 62
7
  6
CONTINUOUS
 10
227.5925437873
 20
288.0211541618
 11
227.9571269816
 21
287.8722180093
  0
LINE
  5
265
100
AcDbEntity
  8
0
100
AcDbLine
 62
7
  6
CONTINUOUS
 10
230.6550433701
 20
288.0211541618
 11
231.0196269816
 21
287.8722180093
  0
LINE
  5
266
100
AcDbEntity
  8
0
100
AcDbLine
 62
7
  6
CONTINUOUS
 10
226.8633769816
 20
281.9147710896
 11
227.1550437873
 21
281.7658349241
  0
LINE
  5
267
100
AcDbEntity
  8
0
100
AcDbLine
 62
7
  6
CONTINUOUS
 10
227.7294023853
 20
281.9147710896
 11
227.8797230863
 21
281.8380116217
  0
LINE
  5
268
100
AcDbEntity
  8
0
100
AcDbLine
 62
7
  6
CONTINUOUS
 10
228.5404601758
 20
285.0424306954
 11
228.1758769816
 21
285.3403030003
  0
LINE
  5
269
100
AcDbEntity
  8
0
100
AcDbLine
 62
7
  6
CONTINUOUS
 10
226.5717101758
 20
282.2126434336
 11
226.8633769816
 21
281.9147710896
  0
LINE
  5
26A
100
AcDbEntity
  8
0
100
AcDbLine
 62
7
  6
CONTINUOUS
 10
226.8633769816
 20
282.6594519431
 11
226.7175437873
 21
282.8083880956
  0
LINE
  5
26B
100
AcDbEntity
  8
0
100
AcDbLine
 62
7
  6
CONTINUOUS
 10
227.4377355796
 20
282.2126434336
 11
227.7294023853
 21
281.9147710896
  0
LINE
  5
26C
100
AcDbEntity
  8
0
100
AcDbLine
 62
7
  6
CONTINUOUS
 10
238.3977707898
 20
499.7101409114
 11
238.7090960209
 21
500.2051199095
  0
LINE
  5
26D
100
AcDbEntity
  8
0
100
AcDbLine
 62
7
  6
CONTINUOUS
 10
242.4566436226
 20
504.2557998543
 11
242.2542679025
 21
503.9543000926
  0
LINE
  5
26E
100
AcDbEntity
  8
0
100
AcDbLine
 62
7
  6
CONTINUOUS
 10
282.1499552022
 20
503.2113037234
 11
282.4240960534
 21
503.4587360901
  0
LINE
  5
26F
100
AcDbEntity
  8
0
100
AcDbLine
 62
7
  6
CONTINUOUS
 10
225.2144568212
 20
447.1700902546
 11
225.9644566424
 21
447.5530689324
  0
LINE
  5
270
100
AcDbEntity
  8
0
100
AcDbLine
 62
7
  6
CONTINUOUS
 10
225.0269564636
 20
448.127536949
 11
224.4644564636
 21
447.9360476101
  0
LINE
  5
271
100
AcDbEntity
  8
0
100
AcDbLine
 62
7
  6
CONTINUOUS
 10
231.6029605931
 20
285.7871114577
 11
231.9675433701
 21
285.7871114577
  0
LINE
  5
272
100
AcDbEntity
  8
0
100
AcDbLine
 62
7
  6
CONTINUOUS
 10
228.0300437873
 20
285.9360476101
 11
228.5161548521
 21
285.9360476101
  0
LINE
  5
273
100
AcDbEntity
  8
0
100
AcDbLine
 62
7
  6
CONTINUOUS
 10
229.3425433701
 20
285.9360476101
 11
229.719279713
 21
285.9360476101
  0
LINE
  5
274
100
AcDbEntity
  8
0
100
AcDbLine
 62
7
  6
CONTINUOUS
 10
228.1758769816
 20
286.233919915
 11
228.6133769816
 21
286.233919915
  0
LINE
  5
275
100
AcDbEntity
  8
0
100
AcDbLine
 62
7
  6
CONTINUOUS
 10
229.4154605931
 20
286.6807283724
 11
229.7800433701
 21
286.6807283724
  0
LINE
  5
276
100
AcDbEntity
  8
0
100
AcDbLine
 62
7
  6
CONTINUOUS
 10
231.5300433701
 20
286.6807283724
 11
231.8946269816
 21
286.6807283724
  0
LINE
  5
277
100
AcDbEntity
  8
0
100
AcDbLine
 62
7
  6
CONTINUOUS
 10
228.3217101758
 20
286.8296645249
 11
228.6862937873
 21
286.8296645249
  0
LINE
  5
278
100
AcDbEntity
  8
0
100
AcDbLine
 62
7
  6
CONTINUOUS
 10
226.2071269816
 20
287.127537247
 11
226.5717101758
 21
287.127537247
  0
LINE
  5
279
100
AcDbEntity
  8
0
100
AcDbLine
 62
7
  6
CONTINUOUS
 10
228.3217101758
 20
287.127537247
 11
228.6862937873
 21
287.127537247
  0
LINE
  5
27A
100
AcDbEntity
  8
0
100
AcDbLine
 62
7
  6
CONTINUOUS
 10
229.4883769816
 20
287.127537247
 11
229.9258770497
 21
287.127537247
  0
LINE
  5
27B
100
AcDbEntity
  8
0
100
AcDbLine
 62
7
  6
CONTINUOUS
 10
222.4883769816
 20
287.2764733995
 11
222.9675436178
 21
287.2764733995
  0
LINE
  5
27C
100
AcDbEntity
  8
0
100
AcDbLine
 62
7
  6
CONTINUOUS
 10
225.1133769816
 20
287.2764733995
 11
225.5508769816
 21
287.2764733995
  0
LINE
  5
27D
100
AcDbEntity
  8
0
100
AcDbLine
 62
7
  6
CONTINUOUS
 10
228.1758769816
 20
287.5743457044
 11
228.631606183
 21
287.5743457044
  0
LINE
  5
27E
100
AcDbEntity
  8
0
100
AcDbLine
 62
7
  6
CONTINUOUS
 10
231.2383769816
 20
287.5743457044
 11
231.7123353844
 21
287.5743457044
  0
LINE
  5
27F
100
AcDbEntity
  8
0
100
AcDbLine
 62
7
  6
CONTINUOUS
 10
226.2800437873
 20
287.7232818568
 11
226.8269187873
 21
287.7232818568
  0
LINE
  5
280
100
AcDbEntity
  8
0
100
AcDbLine
 62
7
  6
CONTINUOUS
 10
229.6342105931
 20
287.7232818568
 11
230.1810855931
 21
287.7232818568
  0
LINE
  5
281
100
AcDbEntity
  8
0
100
AcDbLine
 62
7
  6
CONTINUOUS
 10
227.9571269816
 20
287.8722180093
 11
228.5404602801
 21
287.8722180093
  0
LINE
  5
282
100
AcDbEntity
  8
0
100
AcDbLine
 62
7
  6
CONTINUOUS
 10
231.0196269816
 20
287.8722180093
 11
231.6029603149
 21
287.8722180093
  0
LINE
  5
283
100
AcDbEntity
  8
0
100
AcDbLine
 62
7
  6
CONTINUOUS
 10
227.3008769816
 20
288.0211541618
 11
228.4585691911
 21
288.0211541618
  0
LINE
  5
284
100
AcDbEntity
  8
0
100
AcDbLine
 62
7
  6
CONTINUOUS
 10
230.6550433701
 20
288.0211541618
 11
231.5210687739
 21
288.0211541618
  0
LINE
  5
285
100
AcDbEntity
  8
0
100
AcDbLine
 62
7
  6
CONTINUOUS
 10
229.8529605931
 20
288.1700903142
 11
230.7189859968
 21
288.1700903142
  0
LINE
  5
286
100
AcDbEntity
  8
0
100
AcDbLine
 62
7
  6
CONTINUOUS
 10
226.5717101758
 20
288.3190264667
 11
227.4377355796
 21
288.3190264667
  0
LINE
  5
287
100
AcDbEntity
  8
0
100
AcDbLine
 62
7
  6
CONTINUOUS
 10
226.8633769816
 20
288.6168987716
 11
227.7294023853
 21
288.6168987716
  0
LINE
  5
288
100
AcDbEntity
  8
0
100
AcDbLine
 62
7
  6
CONTINUOUS
 10
230.2175433701
 20
288.6168987716
 11
231.0835687739
 21
288.6168987716
  0
LINE
  5
289
100
AcDbEntity
  8
0
100
AcDbLine
 62
7
  6
CONTINUOUS
 10
227.5196269816
 20
288.7658349241
 11
227.3737937873
 21
288.7658349241
  0
LINE
  5
28A
100
AcDbEntity
  8
0
100
AcDbLine
 62
7
  6
CONTINUOUS
 10
225.5508769816
 20
288.7658349241
 11
224.8946269816
 21
288.7658349241
  0
LINE
  5
28B
100
AcDbEntity
  8
0
100
AcDbLine
 62
7
  6
CONTINUOUS
 10
222.7071269816
 20
288.7658349241
 11
222.0508769816
 21
288.7658349241
  0
LINE
  5
28C
100
AcDbEntity
  8
KONSTRUKTIONSELEMENTE
100
AcDbLine
 62
7
  6
CONTINUOUS
 10
216.0769566424
 20
293.7658349241
 11
311.0769566424
 21
293.7658349241
  0
LINE
  5
28D
100
AcDbEntity
  8
0
100
AcDbLine
 62
7
  6
CONTINUOUS
 10
226.1647674542
 20
295.6408349241
 11
225.8893008403
 21
295.6408349241
  0
LINE
  5
28E
100
AcDbEntity
  8
0
100
AcDbLine
 62
7
  6
CONTINUOUS
 10
223.3068237082
 20
295.6408349241
 11
222.8189530735
 21
295.6408349241
  0
LINE
  5
28F
100
AcDbEntity
  8
0
100
AcDbLine
 62
7
  6
CONTINUOUS
 10
223.5264026512
 20
295.8323242797
 11
223.2689627082
 21
295.8323242797
  0
LINE
  5
290
100
AcDbEntity
  8
0
100
AcDbLine
 62
7
  6
CONTINUOUS
 10
228.3217101758
 20
288.3190264667
 11
228.0300437873
 21
288.6168987716
  0
LINE
  5
291
100
AcDbEntity
  8
0
100
AcDbLine
 62
7
  6
CONTINUOUS
 10
229.8529605931
 20
282.361579586
 11
230.2175433701
 21
281.9147710896
  0
LINE
  5
292
100
AcDbEntity
  8
0
100
AcDbLine
 62
7
  6
CONTINUOUS
 10
230.7189859968
 20
282.361579586
 11
231.0835687739
 21
281.9147710896
  0
LINE
  5
293
100
AcDbEntity
  8
0
100
AcDbLine
 62
7
  6
CONTINUOUS
 10
231.4571269816
 20
288.1700903142
 11
231.0925433701
 21
288.6168987716
  0
LINE
  5
294
100
AcDbEntity
  8
0
100
AcDbLine
 62
7
  6
CONTINUOUS
 10
226.3529601758
 20
282.5105157907
 11
226.5717101758
 21
282.2126434336
  0
LINE
  5
295
100
AcDbEntity
  8
0
100
AcDbLine
 62
7
  6
CONTINUOUS
 10
227.2189855796
 20
282.5105157907
 11
227.4377355796
 21
282.2126434336
  0
LINE
  5
296
100
AcDbEntity
  8
0
100
AcDbLine
 62
7
  6
CONTINUOUS
 10
228.0300437873
 20
284.8934945429
 11
228.2487937873
 21
284.595622238
  0
LINE
  5
297
100
AcDbEntity
  8
0
100
AcDbLine
 62
7
  6
CONTINUOUS
 10
230.2904605931
 20
282.6594519431
 11
230.0717105931
 21
282.957324248
  0
LINE
  5
298
100
AcDbEntity
  8
0
100
AcDbLine
 62
7
  6
CONTINUOUS
 10
227.9571269816
 20
287.8722180093
 11
228.1758769816
 21
287.5743457044
  0
LINE
  5
299
100
AcDbEntity
  8
0
100
AcDbLine
 62
7
  6
CONTINUOUS
 10
238.1224061951
 20
500.6074973088
 11
237.9694449497
 21
500.2781632901
  0
LINE
  5
29A
100
AcDbEntity
  8
0
100
AcDbLine
 62
7
  6
CONTINUOUS
 10
263.924704992
 20
510.7081043852
 11
264.2511134278
 21
511.1884430262
  0
LINE
  5
29B
100
AcDbEntity
  8
0
100
AcDbLine
 62
7
  6
CONTINUOUS
 10
225.9644566424
 20
447.5530689324
 11
226.5269566424
 21
448.3190262879
  0
LINE
  5
29C
100
AcDbEntity
  8
0
100
AcDbLine
 62
7
  6
CONTINUOUS
 10
280.734631474
 20
508.3413471868
 11
280.4022416048
 21
507.9924209352
  0
LINE
  5
29D
100
AcDbEntity
  8
0
100
AcDbLine
 62
7
  6
CONTINUOUS
 10
283.3321592632
 20
505.5011526496
 11
283.6645491324
 21
505.8500789012
  0
LINE
  5
29E
100
AcDbEntity
  8
0
100
AcDbLine
 62
7
  6
CONTINUOUS
 10
225.4019566424
 20
448.5105156267
 11
225.0269564636
 21
448.127536949
  0
LINE
  5
29F
100
AcDbEntity
  8
0
100
AcDbLine
 62
7
  6
CONTINUOUS
 10
226.1647674542
 20
296.4067923466
 11
225.8893008403
 21
296.4067923466
  0
LINE
  5
2A0
100
AcDbEntity
  8
0
100
AcDbLine
 62
7
  6
CONTINUOUS
 10
223.7692648193
 20
296.4067923466
 11
223.5102643871
 21
296.4067923466
  0
LINE
  5
2A1
100
AcDbEntity
  8
0
100
AcDbLine
 62
7
  6
CONTINUOUS
 10
225.7434916909
 20
296.5982817525
 11
225.4710703486
 21
296.5982817525
  0
LINE
  5
2A2
100
AcDbEntity
  8
0
100
AcDbLine
 62
7
  6
CONTINUOUS
 10
223.0507786023
 20
296.5982817525
 11
222.8189530735
 21
296.5982817525
  0
LINE
  5
2A3
100
AcDbEntity
  8
0
100
AcDbLine
 62
7
  6
CONTINUOUS
 10
222.9360462964
 20
296.7897710914
 11
222.6823225965
 21
296.7897710914
  0
LINE
  5
2A4
100
AcDbEntity
  8
0
100
AcDbLine
 62
7
  6
CONTINUOUS
 10
225.504041699
 20
296.9812604303
 11
225.2333215475
 21
296.9812604303
  0
LINE
  5
2A5
100
AcDbEntity
  8
0
100
AcDbLine
 62
7
  6
CONTINUOUS
 10
223.9263342169
 20
297.1727497692
 11
223.6663144686
 21
297.1727497692
  0
LINE
  5
2A6
100
AcDbEntity
  8
0
100
AcDbLine
 62
7
  6
CONTINUOUS
 10
222.8422969531
 20
297.1727497692
 11
222.5891535786
 21
297.1727497692
  0
LINE
  5
2A7
100
AcDbEntity
  8
0
100
AcDbLine
 62
7
  6
CONTINUOUS
 10
225.4264013884
 20
297.555728581
 11
225.1562283022
 21
297.555728581
  0
LINE
  5
2A8
100
AcDbEntity
  8
0
100
AcDbLine
 62
7
  6
CONTINUOUS
 10
222.7842258713
 20
297.9387072588
 11
222.3792624454
 21
297.9387072588
  0
LINE
  5
2A9
100
AcDbEntity
  8
0
100
AcDbLine
 62
7
  6
CONTINUOUS
 10
224.0358385903
 20
298.1301965976
 11
223.7751034593
 21
298.1301965976
  0
LINE
  5
2AA
100
AcDbEntity
  8
0
100
AcDbLine
 62
7
  6
CONTINUOUS
 10
224.0358385903
 20
298.8961539531
 11
223.7751034593
 21
298.8961539531
  0
LINE
  5
2AB
100
AcDbEntity
  8
0
100
AcDbLine
 62
7
  6
CONTINUOUS
 10
222.4757097636
 20
298.8961539531
 11
222.0861820654
 21
298.8961539531
  0
LINE
  5
2AC
100
AcDbEntity
  8
0
100
AcDbLine
 62
7
  6
CONTINUOUS
 10
222.3792624454
 20
299.6621115769
 11
222.8128200182
 21
299.6621115769
  0
LINE
  5
2AD
100
AcDbEntity
  8
0
100
AcDbLine
 62
7
  6
CONTINUOUS
 10
223.9263342169
 20
299.8536009157
 11
223.6663144686
 21
299.8536009157
  0
LINE
  5
2AE
100
AcDbEntity
  8
0
100
AcDbLine
 62
7
  6
CONTINUOUS
 10
222.3792624454
 20
299.8536009157
 11
222.0861820654
 21
299.8536009157
  0
LINE
  5
2AF
100
AcDbEntity
  8
0
100
AcDbLine
 62
7
  6
CONTINUOUS
 10
222.9360462964
 20
300.2365795935
 11
222.6823225965
 21
300.2365795935
  0
LINE
  5
2B0
100
AcDbEntity
  8
0
100
AcDbLine
 62
7
  6
CONTINUOUS
 10
223.0507786023
 20
300.4280689324
 11
222.8189530735
 21
300.4280689324
  0
LINE
  5
2B1
100
AcDbEntity
  8
0
100
AcDbLine
 62
7
  6
CONTINUOUS
 10
222.3269566424
 20
300.4280689324
 11
222.0997415117
 21
300.4280689324
  0
LINE
  5
2B2
100
AcDbEntity
  8
0
100
AcDbLine
 62
7
  6
CONTINUOUS
 10
223.7692648193
 20
300.6195582712
 11
223.5102643871
 21
300.6195582712
  0
LINE
  5
2B3
100
AcDbEntity
  8
0
100
AcDbLine
 62
7
  6
CONTINUOUS
 10
226.3412211186
 20
301.002536949
 11
225.1562283022
 21
301.002536949
  0
LINE
  5
2B4
100
AcDbEntity
  8
0
100
AcDbLine
 62
7
  6
CONTINUOUS
 10
224.7866552914
 20
301.002536949
 11
224.2490085647
 21
301.002536949
  0
LINE
  5
2B5
100
AcDbEntity
  8
0
100
AcDbLine
 62
7
  6
CONTINUOUS
 10
223.5264026512
 20
301.1940262879
 11
223.2689627082
 21
301.1940262879
  0
LINE
  5
2B6
100
AcDbEntity
  8
0
100
AcDbLine
 62
7
  6
CONTINUOUS
 10
222.3349593126
 20
301.1940262879
 11
222.0849110945
 21
301.1940262879
  0
LINE
  5
2B7
100
AcDbEntity
  8
0
100
AcDbLine
 62
7
  6
CONTINUOUS
 10
222.8189530735
 20
301.3855156267
 11
223.3068237082
 21
301.3855156267
  0
LINE
  5
2B8
100
AcDbEntity
  8
0
100
AcDbLine
 62
7
  6
CONTINUOUS
 10
226.3412211186
 20
301.7684943045
 11
225.1562283022
 21
301.7684943045
  0
LINE
  5
2B9
100
AcDbEntity
  8
0
100
AcDbLine
 62
7
  6
CONTINUOUS
 10
224.7866552914
 20
301.7684943045
 11
224.2490085647
 21
301.7684943045
  0
LINE
  5
2BA
100
AcDbEntity
  8
0
100
AcDbLine
 62
7
  6
CONTINUOUS
 10
222.3316917572
 20
301.7684943045
 11
222.0816632292
 21
301.7684943045
  0
LINE
  5
2BB
100
AcDbEntity
  8
0
100
AcDbLine
 62
7
  6
CONTINUOUS
 10
222.3316917572
 20
302.5344521964
 11
222.0816632292
 21
302.5344521964
  0
LINE
  5
2BC
100
AcDbEntity
  8
0
100
AcDbLine
 62
7
  6
CONTINUOUS
 10
222.3349593126
 20
303.1089202131
 11
222.0849110945
 21
303.1089202131
  0
LINE
  5
2BD
100
AcDbEntity
  8
0
100
AcDbLine
 62
7
  6
CONTINUOUS
 10
225.4264013884
 20
303.3004095519
 11
224.7866552914
 21
303.3004095519
  0
LINE
  5
2BE
100
AcDbEntity
  8
0
100
AcDbLine
 62
7
  6
CONTINUOUS
 10
223.9263342169
 20
303.6833882297
 11
222.503898639
 21
303.6833882297
  0
LINE
  5
2BF
100
AcDbEntity
  8
0
100
AcDbLine
 62
7
  6
CONTINUOUS
 10
222.3269566424
 20
303.8748775686
 11
222.0997415117
 21
303.8748775686
  0
LINE
  5
2C0
100
AcDbEntity
  8
0
100
AcDbLine
 62
7
  6
CONTINUOUS
 10
222.3269566424
 20
304.4493455852
 11
222.1313974897
 21
304.4493455852
  0
LINE
  5
2C1
100
AcDbEntity
  8
0
100
AcDbLine
 62
7
  6
CONTINUOUS
 10
222.3269566424
 20
304.6408349241
 11
222.1901097735
 21
304.6408349241
  0
LINE
  5
2C2
100
AcDbEntity
  8
0
100
AcDbLine
 62
7
  6
CONTINUOUS
 10
222.3792624454
 20
304.6408349241
 11
223.9263342169
 21
304.6408349241
  0
LINE
  5
2C3
100
AcDbEntity
  8
0
100
AcDbLine
 62
7
  6
CONTINUOUS
 10
231.0196269816
 20
287.8722180093
 11
231.2383769816
 21
287.5743457044
  0
LINE
  5
2C4
100
AcDbEntity
  8
0
100
AcDbLine
 62
7
  6
CONTINUOUS
 10
226.7175437873
 20
282.8083880956
 11
226.5717101758
 21
283.1062605048
  0
LINE
  5
2C5
100
AcDbEntity
  8
0
100
AcDbLine
 62
7
  6
CONTINUOUS
 10
229.6342105931
 20
282.8083880956
 11
229.8529605931
 21
282.361579586
  0
LINE
  5
2C6
100
AcDbEntity
  8
0
100
AcDbLine
 62
7
  6
CONTINUOUS
 10
230.6478044284
 20
282.5069717255
 11
230.7189859968
 21
282.361579586
  0
LINE
  5
2C7
100
AcDbEntity
  8
0
100
AcDbLine
 62
7
  6
CONTINUOUS
 10
228.6133769816
 20
287.7232818568
 11
228.3217101758
 21
288.3190264667
  0
LINE
  5
2C8
100
AcDbEntity
  8
0
100
AcDbLine
 62
7
  6
CONTINUOUS
 10
225.2144568212
 20
433.0637072588
 11
224.8394566424
 21
432.4892392421
  0
LINE
  5
2C9
100
AcDbEntity
  8
0
100
AcDbLine
 62
7
  6
CONTINUOUS
 10
288.3177101533
 20
504.314084089
 11
284.5602249959
 21
500.2977044641
  0
LINE
  5
2CA
100
AcDbEntity
  8
0
100
AcDbLine
 62
7
  6
CONTINUOUS
 10
285.5419514041
 20
500.340748132
 11
286.7411488198
 21
501.6225714433
  0
LINE
  5
2CB
100
AcDbEntity
  8
0
100
AcDbLine
 62
7
  6
CONTINUOUS
 10
287.2208277188
 20
502.135300696
 11
288.3400787073
 21
503.3316691917
  0
LINE
  5
2CC
100
AcDbEntity
  8
0
100
AcDbLine
 62
7
  6
CONTINUOUS
 10
289.9522626955
 20
500.8619173745
 11
289.7923697291
 21
500.6910076236
  0
LINE
  5
2CD
100
AcDbEntity
  8
0
100
AcDbLine
 62
7
  6
CONTINUOUS
 10
288.3533329199
 20
499.1528197458
 11
288.1134934704
 21
498.8964551195
  0
LINE
  5
2CE
100
AcDbEntity
  8
0
100
AcDbLine
 62
7
  6
CONTINUOUS
 10
288.5355944403
 20
498.3413145994
 11
288.9353268562
 21
498.7685889766
  0
LINE
  5
2CF
100
AcDbEntity
  8
0
100
AcDbLine
 62
7
  6
CONTINUOUS
 10
290.2144706991
 20
500.1358671035
 11
290.5342568558
 21
500.4776868447
  0
LINE
  5
2D0
100
AcDbEntity
  8
0
100
AcDbLine
 62
7
  6
CONTINUOUS
 10
225.2144568212
 20
431.3403030077
 11
225.9644566424
 21
432.1062604303
  0
LINE
  5
2D1
100
AcDbEntity
  8
0
100
AcDbLine
 62
7
  6
CONTINUOUS
 10
224.8394566424
 20
432.4892392421
 11
224.2769566424
 21
432.1062604303
  0
LINE
  5
2D2
100
AcDbEntity
  8
0
100
AcDbLine
 62
7
  6
CONTINUOUS
 10
224.4644564636
 20
430.9573242797
 11
225.2144568212
 21
431.3403030077
  0
LINE
  5
2D3
100
AcDbEntity
  8
0
100
AcDbLine
 62
7
  6
CONTINUOUS
 10
223.9263340117
 20
309.6408349241
 11
222.6503836732
 21
309.6408349241
  0
LINE
  5
2D4
100
AcDbEntity
  8
0
100
AcDbLine
 62
7
  6
CONTINUOUS
 10
222.3953846107
 20
309.6408349241
 11
222.1087835917
 21
309.6408349241
  0
LINE
  5
2D5
100
AcDbEntity
  8
0
100
AcDbLine
 62
7
  6
CONTINUOUS
 10
224.2073639834
 20
309.8323242797
 11
223.9455003717
 21
309.8323242797
  0
LINE
  5
2D6
100
AcDbEntity
  8
0
100
AcDbLine
 62
7
  6
CONTINUOUS
 10
222.4601736199
 20
309.8323242797
 11
222.2093685314
 21
309.8323242797
  0
LINE
  5
2D7
100
AcDbEntity
  8
0
100
AcDbLine
 62
7
  6
CONTINUOUS
 10
224.4498101358
 20
310.2153030077
 11
224.1863347414
 21
310.2153030077
  0
LINE
  5
2D8
100
AcDbEntity
  8
0
100
AcDbLine
 62
7
  6
CONTINUOUS
 10
222.5274914358
 20
310.2153030077
 11
222.2762775469
 21
310.2153030077
  0
LINE
  5
2D9
100
AcDbEntity
  8
0
100
AcDbLine
 62
7
  6
CONTINUOUS
 10
223.6663142647
 20
310.7897710914
 11
222.8553407609
 21
310.7897710914
  0
LINE
  5
2DA
100
AcDbEntity
  8
0
100
AcDbLine
 62
7
  6
CONTINUOUS
 10
222.1449717153
 20
310.7897710914
 11
222.1087835917
 21
310.7897710914
  0
LINE
  5
2DB
100
AcDbEntity
  8
0
100
AcDbLine
 62
7
  6
CONTINUOUS
 10
224.7082370403
 20
310.9812604303
 11
224.4430217072
 21
310.9812604303
  0
LINE
  5
2DC
100
AcDbEntity
  8
0
100
AcDbLine
 62
7
  6
CONTINUOUS
 10
222.608647667
 20
310.9812604303
 11
222.3569391714
 21
310.9812604303
  0
LINE
  5
2DD
100
AcDbEntity
  8
0
100
AcDbLine
 62
7
  6
CONTINUOUS
 10
222.1947820649
 20
310.9812604303
 11
222.0861820729
 21
310.9812604303
  0
LINE
  5
2DE
100
AcDbEntity
  8
0
100
AcDbLine
 62
7
  6
CONTINUOUS
 10
222.2411085065
 20
311.3642392421
 11
222.0781332431
 21
311.3642392421
  0
LINE
  5
2DF
100
AcDbEntity
  8
0
100
AcDbLine
 62
7
  6
CONTINUOUS
 10
224.8435428534
 20
311.7472179199
 11
224.5774073662
 21
311.7472179199
  0
LINE
  5
2E0
100
AcDbEntity
  8
0
100
AcDbLine
 62
7
  6
CONTINUOUS
 10
222.6544403005
 20
311.7472179199
 11
222.402451864
 21
311.7472179199
  0
LINE
  5
2E1
100
AcDbEntity
  8
0
100
AcDbLine
 62
7
  6
CONTINUOUS
 10
222.2762775469
 20
311.9387072588
 11
222.0770037062
 21
311.9387072588
  0
LINE
  5
2E2
100
AcDbEntity
  8
0
100
AcDbLine
 62
7
  6
CONTINUOUS
 10
224.9127368059
 20
312.7046646143
 11
224.6461282982
 21
312.7046646143
  0
LINE
  5
2E3
100
AcDbEntity
  8
0
100
AcDbLine
 62
7
  6
CONTINUOUS
 10
222.2951507594
 20
312.7046646143
 11
222.0777096591
 21
312.7046646143
  0
LINE
  5
2E4
100
AcDbEntity
  8
0
100
AcDbLine
 62
7
  6
CONTINUOUS
 10
222.6503836732
 20
312.7046646143
 11
222.4265086357
 21
312.7046646143
  0
LINE
  5
2E5
100
AcDbEntity
  8
0
100
AcDbLine
 62
7
  6
CONTINUOUS
 10
224.9127368059
 20
315.5770049656
 11
224.6461282982
 21
315.5770049656
  0
LINE
  5
2E6
100
AcDbEntity
  8
0
100
AcDbLine
 62
7
  6
CONTINUOUS
 10
231.6758769816
 20
287.7232818568
 11
231.4571269816
 21
288.1700903142
  0
LINE
  5
2E7
100
AcDbEntity
  8
0
100
AcDbLine
 62
7
  6
CONTINUOUS
 10
226.2071269816
 20
282.957324248
 11
226.3529601758
 21
282.5105157907
  0
LINE
  5
2E8
100
AcDbEntity
  8
0
100
AcDbLine
 62
7
  6
CONTINUOUS
 10
228.6862937873
 20
284.595622238
 11
228.5404601758
 21
285.0424306954
  0
LINE
  5
2E9
100
AcDbEntity
  8
0
100
AcDbLine
 62
7
  6
CONTINUOUS
 10
228.1758769816
 20
287.5743457044
 11
228.3217101758
 21
287.127537247
  0
LINE
  5
2EA
100
AcDbEntity
  8
0
100
AcDbLine
 62
7
  6
CONTINUOUS
 10
230.0717105931
 20
282.957324248
 11
229.7800433701
 21
283.8509412671
  0
LINE
  5
2EB
100
AcDbEntity
  8
0
100
AcDbLine
 62
7
  6
CONTINUOUS
 10
225.4019566424
 20
433.8296646143
 11
225.2144568212
 21
433.0637072588
  0
LINE
  5
2EC
100
AcDbEntity
  8
0
100
AcDbLine
 62
7
  6
CONTINUOUS
 10
242.9735234706
 20
503.7669771914
 11
243.12508909
 21
504.3240618268
  0
LINE
  5
2ED
100
AcDbEntity
  8
0
100
AcDbLine
 62
7
  6
CONTINUOUS
 10
225.5894564636
 20
449.0849836434
 11
225.4019566424
 21
448.5105156267
  0
LINE
  5
2EE
100
AcDbEntity
  8
0
100
AcDbLine
 62
7
  6
CONTINUOUS
 10
226.5269566424
 20
448.3190262879
 11
226.7144564636
 21
448.8934943045
  0
LINE
  5
2EF
100
AcDbEntity
  8
0
100
AcDbLine
 62
7
  6
CONTINUOUS
 10
225.9644566424
 20
432.1062604303
 11
226.3394568212
 21
432.8722179199
  0
LINE
  5
2F0
100
AcDbEntity
  8
0
100
AcDbLine
 62
7
  6
CONTINUOUS
 10
226.7144564636
 20
420.1062604303
 11
227.0894566424
 21
420.8722179199
  0
LINE
  5
2F1
100
AcDbEntity
  8
0
100
AcDbLine
 62
7
  6
CONTINUOUS
 10
225.9644566424
 20
421.0637072588
 11
225.5894564636
 21
420.4892392421
  0
LINE
  5
2F2
100
AcDbEntity
  8
0
100
AcDbLine
 62
7
  6
CONTINUOUS
 10
284.0452850138
 20
503.8497903512
 11
283.697307682
 21
503.3794060762
  0
LINE
  5
2F3
100
AcDbEntity
  8
0
100
AcDbLine
 62
7
  6
CONTINUOUS
 10
284.9869457673
 20
502.4253673386
 11
285.3349230991
 21
502.8957516135
  0
LINE
  5
2F4
100
AcDbEntity
  8
0
100
AcDbLine
 62
7
  6
CONTINUOUS
 10
225.9644566424
 20
419.3403030077
 11
226.7144564636
 21
420.1062604303
  0
LINE
  5
2F5
100
AcDbEntity
  8
0
100
AcDbLine
 62
7
  6
CONTINUOUS
 10
225.5894564636
 20
420.4892392421
 11
225.0269564636
 21
420.1062604303
  0
LINE
  5
2F6
100
AcDbEntity
  8
0
100
AcDbLine
 62
7
  6
CONTINUOUS
 10
225.2144568212
 20
418.9573242797
 11
225.9644566424
 21
419.3403030077
  0
LINE
  5
2F7
100
AcDbEntity
  8
0
100
AcDbLine
 62
7
  6
CONTINUOUS
 10
224.8435428534
 20
316.5344521964
 11
224.5774073662
 21
316.5344521964
  0
LINE
  5
2F8
100
AcDbEntity
  8
0
100
AcDbLine
 62
7
  6
CONTINUOUS
 10
224.7082370403
 20
317.3004095519
 11
224.4430217072
 21
317.3004095519
  0
LINE
  5
2F9
100
AcDbEntity
  8
0
100
AcDbLine
 62
7
  6
CONTINUOUS
 10
223.6663142647
 20
317.4918988908
 11
222.8553407609
 21
317.4918988908
  0
LINE
  5
2FA
100
AcDbEntity
  8
0
100
AcDbLine
 62
7
  6
CONTINUOUS
 10
224.4498101358
 20
318.0663669074
 11
224.1863347414
 21
318.0663669074
  0
LINE
  5
2FB
100
AcDbEntity
  8
0
100
AcDbLine
 62
7
  6
CONTINUOUS
 10
224.2073639834
 20
318.4493455852
 11
223.9455003717
 21
318.4493455852
  0
LINE
  5
2FC
100
AcDbEntity
  8
0
100
AcDbLine
 62
7
  6
CONTINUOUS
 10
223.9263340117
 20
318.6408349241
 11
222.0777096591
 21
318.6408349241
  0
LINE
  5
2FD
100
AcDbEntity
  8
0
100
AcDbLine
 62
7
  6
CONTINUOUS
 10
231.2383769816
 20
287.5743457044
 11
231.5300433701
 21
286.6807283724
  0
LINE
  5
2FE
100
AcDbEntity
  8
0
100
AcDbLine
 62
7
  6
CONTINUOUS
 10
226.5717101758
 20
283.1062605048
 11
226.4987937873
 21
283.4041328097
  0
LINE
  5
2FF
100
AcDbEntity
  8
0
100
AcDbLine
 62
7
  6
CONTINUOUS
 10
228.2487937873
 20
284.595622238
 11
228.3946269816
 21
283.9998774195
  0
LINE
  5
300
100
AcDbEntity
  8
0
100
AcDbLine
 62
7
  6
CONTINUOUS
 10
229.4883769816
 20
283.4041328097
 11
229.6342105931
 21
282.8083880956
  0
LINE
  5
301
100
AcDbEntity
  8
0
100
AcDbLine
 62
7
  6
CONTINUOUS
 10
231.8217105931
 20
287.127537247
 11
231.6758769816
 21
287.7232818568
  0
LINE
  5
302
100
AcDbEntity
  8
0
100
AcDbLine
 62
7
  6
CONTINUOUS
 10
222.4883769816
 20
287.2764733995
 11
223.5092102801
 21
281.7658349241
  0
LINE
  5
303
100
AcDbEntity
  8
0
100
AcDbLine
 62
7
  6
CONTINUOUS
 10
223.8008769816
 20
282.5105157907
 11
222.7071269816
 21
288.7658349241
  0
LINE
  5
304
100
AcDbEntity
  8
0
100
AcDbLine
 62
7
  6
CONTINUOUS
 10
226.1342101758
 20
283.4041328097
 11
226.2071269816
 21
282.957324248
  0
LINE
  5
305
100
AcDbEntity
  8
0
100
AcDbLine
 62
7
  6
CONTINUOUS
 10
229.3425433701
 20
284.595622238
 11
229.4154605931
 21
283.8509412671
  0
LINE
  5
306
100
AcDbEntity
  8
0
100
AcDbLine
 62
7
  6
CONTINUOUS
 10
231.9675433701
 20
285.9360476101
 11
231.8946269816
 21
286.6807283724
  0
LINE
  5
307
100
AcDbEntity
  8
0
100
AcDbLine
 62
7
  6
CONTINUOUS
 10
229.7800433701
 20
283.8509412671
 11
229.7071269816
 21
284.7445583905
  0
LINE
  5
308
100
AcDbEntity
  8
KONSTRUKTIONSELEMENTE
100
AcDbLine
 62
7
  6
CONTINUOUS
 10
216.0769566424
 20
276.7658349241
 11
216.0769566424
 21
293.7658349241
  0
LINE
  5
309
100
AcDbEntity
  8
0
100
AcDbLine
 62
7
  6
CONTINUOUS
 10
219.7769566424
 20
451.7658349241
 11
219.7769566424
 21
442.7658349241
  0
LINE
  5
30A
100
AcDbEntity
  8
0
100
AcDbLine
 62
7
  6
CONTINUOUS
 10
219.7769566424
 20
439.7658349241
 11
219.7769566424
 21
433.8296646143
  0
LINE
  5
30B
100
AcDbEntity
  8
0
100
AcDbLine
 62
7
  6
CONTINUOUS
 10
219.7769566424
 20
427.7658349241
 11
219.7769566424
 21
418.7658349241
  0
LINE
  5
30C
100
AcDbEntity
  8
0
100
AcDbLine
 62
7
  6
CONTINUOUS
 10
220.9019566424
 20
419.9147710914
 11
220.9019566424
 21
426.6168988908
  0
LINE
  5
30D
100
AcDbEntity
  8
0
100
AcDbLine
 62
7
  6
CONTINUOUS
 10
220.9019566424
 20
433.8296646143
 11
220.9019566424
 21
439.7658349241
  0
LINE
  5
30E
100
AcDbEntity
  8
0
100
AcDbLine
 62
7
  6
CONTINUOUS
 10
220.9019566424
 20
442.7658349241
 11
220.9019566424
 21
446.7871115769
  0
LINE
  5
30F
100
AcDbEntity
  8
0
100
AcDbLine
 62
7
  6
CONTINUOUS
 10
220.9019566424
 20
447.9360476101
 11
220.9019566424
 21
450.8083882297
  0
LINE
  5
310
100
AcDbEntity
  8
0
100
AcDbLine
 62
7
  6
CONTINUOUS
 10
222.0508769816
 20
288.7658349241
 11
222.0508769816
 21
281.7658349241
  0
LINE
  5
311
100
AcDbEntity
  8
0
100
AcDbLine
 62
7
  6
CONTINUOUS
 10
222.0769566424
 20
310.9812604303
 11
222.0769566424
 21
310.1833881877
  0
LINE
  5
312
100
AcDbEntity
  8
0
100
AcDbLine
 62
7
  6
CONTINUOUS
 10
222.0777096591
 20
318.6408349241
 11
222.0777096591
 21
312.7046646143
  0
LINE
  5
313
100
AcDbEntity
  8
0
100
AcDbLine
 62
7
  6
CONTINUOUS
 10
222.0816632292
 20
302.5344521964
 11
222.0816632292
 21
301.7684943045
  0
LINE
  5
314
100
AcDbEntity
  8
0
100
AcDbLine
 62
7
  6
CONTINUOUS
 10
222.0861820654
 20
299.8536009157
 11
222.0861820654
 21
298.8961539531
  0
LINE
  5
315
100
AcDbEntity
  8
0
100
AcDbLine
 62
7
  6
CONTINUOUS
 10
222.2248104467
 20
299.8536009157
 11
222.2248104467
 21
298.8961539531
  0
LINE
  5
316
100
AcDbEntity
  8
0
100
AcDbLine
 62
7
  6
CONTINUOUS
 10
222.2951507594
 20
318.6408349241
 11
222.2951507594
 21
312.7046646143
  0
LINE
  5
317
100
AcDbEntity
  8
0
100
AcDbLine
 62
7
  6
CONTINUOUS
 10
222.3269566424
 20
333.1408349241
 11
222.3269566424
 21
318.6408349241
  0
LINE
  5
318
100
AcDbEntity
  8
0
100
AcDbLine
 62
7
  6
CONTINUOUS
 10
222.3269566424
 20
309.6408349241
 11
222.3269566424
 21
299.8536009157
  0
LINE
  5
319
100
AcDbEntity
  8
0
100
AcDbLine
 62
7
  6
CONTINUOUS
 10
222.3269566424
 20
298.8961539531
 11
222.3269566424
 21
293.7658349241
  0
LINE
  5
31A
100
AcDbEntity
  8
0
100
AcDbLine
 62
7
  6
CONTINUOUS
 10
222.3792624454
 20
304.6408349241
 11
222.3792624454
 21
299.6621115769
  0
LINE
  5
31B
100
AcDbEntity
  8
0
100
AcDbLine
 62
7
  6
CONTINUOUS
 10
222.4265086357
 20
318.6408349241
 11
222.4265086357
 21
312.7046646143
  0
LINE
  5
31C
100
AcDbEntity
  8
0
100
AcDbLine
 62
7
  6
CONTINUOUS
 10
222.4757097636
 20
299.6621115769
 11
222.4757097636
 21
298.8961539531
  0
LINE
  5
31D
100
AcDbEntity
  8
0
100
AcDbLine
 62
7
  6
CONTINUOUS
 10
222.4883769816
 20
281.7658349241
 11
222.4883769816
 21
287.2764733995
  0
LINE
  5
31E
100
AcDbEntity
  8
0
100
AcDbLine
 62
7
  6
CONTINUOUS
 10
222.503898639
 20
303.6833882297
 11
222.503898639
 21
300.6195582712
  0
LINE
  5
31F
100
AcDbEntity
  8
0
100
AcDbLine
 62
7
  6
CONTINUOUS
 10
222.6503836732
 20
318.6408349241
 11
222.6503836732
 21
309.6408349241
  0
LINE
  5
320
100
AcDbEntity
  8
0
100
AcDbLine
 62
7
  6
CONTINUOUS
 10
222.7565133113
 20
303.6833882297
 11
222.7565133113
 21
301.3172885756
  0
LINE
  5
321
100
AcDbEntity
  8
0
100
AcDbLine
 62
7
  6
CONTINUOUS
 10
222.8553407609
 20
317.4918988908
 11
222.8553407609
 21
310.7897710914
  0
LINE
  5
322
100
AcDbEntity
  8
0
100
AcDbLine
 62
7
  6
CONTINUOUS
 10
222.9169023853
 20
287.5660981496
 11
222.9169023853
 21
287.2764733995
  0
LINE
  5
323
100
AcDbEntity
  8
0
100
AcDbLine
 62
7
  6
CONTINUOUS
 10
223.1101492566
 20
317.4918988908
 11
223.1101492566
 21
310.7897710914
  0
LINE
  5
324
100
AcDbEntity
  8
0
100
AcDbLine
 62
7
  6
CONTINUOUS
 10
223.5102643871
 20
298.3216859365
 11
223.5102643871
 21
298.7046646143
  0
LINE
  5
325
100
AcDbEntity
  8
0
100
AcDbLine
 62
7
  6
CONTINUOUS
 10
223.6663144686
 20
304.6408349241
 11
223.6663144686
 21
303.6833882297
  0
LINE
  5
326
100
AcDbEntity
  8
0
100
AcDbLine
 62
7
  6
CONTINUOUS
 10
223.7751034593
 20
298.1301965976
 11
223.7751034593
 21
298.8961539531
  0
LINE
  5
327
100
AcDbEntity
  8
0
100
AcDbLine
 62
7
  6
CONTINUOUS
 10
223.9263342169
 20
304.6408349241
 11
223.9263342169
 21
303.6833882297
  0
LINE
  5
328
100
AcDbEntity
  8
0
100
AcDbLine
 62
7
  6
CONTINUOUS
 10
224.0358385903
 20
298.1301965976
 11
224.0358385903
 21
298.8961539531
  0
LINE
  5
329
100
AcDbEntity
  8
0
100
AcDbLine
 62
7
  6
CONTINUOUS
 10
222.0769566437
 20
311.8429617103
 11
222.0770037062
 21
311.9387072588
  0
LINE
  5
32A
100
AcDbEntity
  8
0
100
AcDbLine
 62
7
  6
CONTINUOUS
 10
226.3394568212
 20
432.8722179199
 11
226.5269566424
 21
433.8296646143
  0
LINE
  5
32B
100
AcDbEntity
  8
0
100
AcDbLine
 62
7
  6
CONTINUOUS
 10
227.0894566424
 20
420.8722179199
 11
227.2769564636
 21
421.8296646143
  0
LINE
  5
32C
100
AcDbEntity
  8
0
100
AcDbLine
 62
7
  6
CONTINUOUS
 10
226.1519564636
 20
421.8296646143
 11
225.9644566424
 21
421.0637072588
  0
LINE
  5
32D
100
AcDbEntity
  8
0
100
AcDbLine
 62
7
  6
CONTINUOUS
 10
277.954432373
 20
509.5810694928
 11
277.5813640234
 21
508.7224455479
  0
LINE
  5
32E
100
AcDbEntity
  8
0
100
AcDbLine
 62
7
  6
CONTINUOUS
 10
281.310359666
 20
506.1219072336
 11
281.0773452341
 21
505.7159418545
  0
LINE
  5
32F
100
AcDbEntity
  8
0
100
AcDbLine
 62
7
  6
CONTINUOUS
 10
283.2841747762
 20
506.3382601241
 11
283.167667397
 21
506.1352771502
  0
LINE
  5
330
100
AcDbEntity
  8
0
100
AcDbLine
 62
7
  6
CONTINUOUS
 10
282.1602242009
 20
504.1499023294
 11
281.9272097689
 21
503.7439369503
  0
LINE
  5
331
100
AcDbEntity
  8
0
100
AcDbLine
 62
7
  6
CONTINUOUS
 10
283.6645491324
 20
505.8500789012
 11
283.7810565115
 21
506.0530618751
  0
LINE
  5
332
100
AcDbEntity
  8
0
100
AcDbLine
 62
7
  6
CONTINUOUS
 10
282.4240960534
 20
503.4587360901
 11
282.6571104853
 21
503.8647014693
  0
LINE
  5
333
100
AcDbEntity
  8
RUNDUNGEN
100
AcDbLine
 62
7
  6
CONTINUOUS
 10
301.8269566424
 20
336.1408349241
 11
287.076955071
 21
336.1408349241
  0
LINE
  5
334
100
AcDbEntity
  8
RUNDUNGEN
100
AcDbLine
 62
7
  6
CONTINUOUS
 10
240.0769571503
 20
336.1408349241
 11
225.3269566424
 21
336.1408349241
  0
LINE
  5
335
100
AcDbEntity
  8
0
100
AcDbLine
 62
7
  6
CONTINUOUS
 10
229.4154605931
 20
283.8509412671
 11
229.4883769816
 21
283.4041328097
  0
LINE
  5
336
100
AcDbEntity
  8
0
100
AcDbLine
 62
7
  6
CONTINUOUS
 10
231.8946269816
 20
286.6807283724
 11
231.8217105931
 21
287.127537247
  0
LINE
  5
337
100
AcDbEntity
  8
0
100
AcDbLine
 62
7
  6
CONTINUOUS
 10
228.7592101758
 20
283.9998774195
 11
228.6862937873
 21
284.595622238
  0
LINE
  5
338
100
AcDbEntity
  8
0
100
AcDbLine
 62
7
  6
CONTINUOUS
 10
228.6862937873
 20
287.127537247
 11
228.6133769816
 21
287.7232818568
  0
LINE
  5
339
100
AcDbEntity
  8
0
100
AcDbLine
 62
7
  6
CONTINUOUS
 10
231.5300433701
 20
286.6807283724
 11
231.6029605931
 21
285.7871114577
  0
LINE
  5
33A
100
AcDbEntity
  8
0
100
AcDbLine
 62
7
  6
CONTINUOUS
 10
224.2490083238
 20
315.5770049656
 11
224.2490083238
 21
312.7046646143
  0
LINE
  5
33B
100
AcDbEntity
  8
0
100
AcDbLine
 62
7
  6
CONTINUOUS
 10
224.2490085647
 20
301.7684943045
 11
224.2490085647
 21
301.002536949
  0
LINE
  5
33C
100
AcDbEntity
  8
0
100
AcDbLine
 62
7
  6
CONTINUOUS
 10
224.6461282982
 20
315.5770049656
 11
224.6461282982
 21
312.7046646143
  0
LINE
  5
33D
100
AcDbEntity
  8
0
100
AcDbLine
 62
7
  6
CONTINUOUS
 10
224.7866552914
 20
303.3004095519
 11
224.7866552914
 21
301.7684943045
  0
LINE
  5
33E
100
AcDbEntity
  8
0
100
AcDbLine
 62
7
  6
CONTINUOUS
 10
224.7866552914
 20
301.002536949
 11
224.7866552914
 21
297.1727497692
  0
LINE
  5
33F
100
AcDbEntity
  8
0
100
AcDbLine
 62
7
  6
CONTINUOUS
 10
224.9127368059
 20
315.5770049656
 11
224.9127368059
 21
312.7046646143
  0
LINE
  5
340
100
AcDbEntity
  8
0
100
AcDbLine
 62
7
  6
CONTINUOUS
 10
225.1133769816
 20
287.2764733995
 11
225.1133769816
 21
281.7658349241
  0
LINE
  5
341
100
AcDbEntity
  8
0
100
AcDbLine
 62
7
  6
CONTINUOUS
 10
225.1562283022
 20
303.3004095519
 11
225.1562283022
 21
301.7684943045
  0
LINE
  5
342
100
AcDbEntity
  8
0
100
AcDbLine
 62
7
  6
CONTINUOUS
 10
225.1562283022
 20
301.002536949
 11
225.1562283022
 21
297.555728581
  0
LINE
  5
343
100
AcDbEntity
  8
0
100
AcDbLine
 62
7
  6
CONTINUOUS
 10
225.4019566424
 20
439.7658349241
 11
225.4019566424
 21
433.8296646143
  0
LINE
  5
344
100
AcDbEntity
  8
0
100
AcDbLine
 62
7
  6
CONTINUOUS
 10
225.4264013884
 20
303.3004095519
 11
225.4264013884
 21
301.7684943045
  0
LINE
  5
345
100
AcDbEntity
  8
0
100
AcDbLine
 62
7
  6
CONTINUOUS
 10
225.4264013884
 20
301.002536949
 11
225.4264013884
 21
297.555728581
  0
LINE
  5
346
100
AcDbEntity
  8
0
100
AcDbLine
 62
7
  6
CONTINUOUS
 10
225.5508769816
 20
281.7658349241
 11
225.5508769816
 21
288.7658349241
  0
LINE
  5
347
100
AcDbEntity
  8
0
100
AcDbLine
 62
7
  6
CONTINUOUS
 10
225.5894564636
 20
449.6594521964
 11
225.5894564636
 21
449.0849836434
  0
LINE
  5
348
100
AcDbEntity
  8
0
100
AcDbLine
 62
7
  6
CONTINUOUS
 10
225.8893008403
 20
296.4067923466
 11
225.8893008403
 21
295.6408349241
  0
LINE
  5
349
100
AcDbEntity
  8
0
100
AcDbLine
 62
7
  6
CONTINUOUS
 10
226.064458725
 20
301.7684943045
 11
226.064458725
 21
301.002536949
  0
LINE
  5
34A
100
AcDbEntity
  8
0
100
AcDbLine
 62
7
  6
CONTINUOUS
 10
226.1519564636
 20
424.7020049656
 11
226.1519564636
 21
421.8296646143
  0
LINE
  5
34B
100
AcDbEntity
  8
0
100
AcDbLine
 62
7
  6
CONTINUOUS
 10
226.1647674542
 20
296.4067923466
 11
226.1647674542
 21
295.6408349241
  0
LINE
  5
34C
100
AcDbEntity
  8
0
100
AcDbLine
 62
7
  6
CONTINUOUS
 10
226.3412211186
 20
301.7684943045
 11
226.3412211186
 21
301.002536949
  0
LINE
  5
34D
100
AcDbEntity
  8
0
100
AcDbLine
 62
7
  6
CONTINUOUS
 10
226.5269566424
 20
433.8296646143
 11
226.5269566424
 21
439.7658349241
  0
LINE
  5
34E
100
AcDbEntity
  8
0
100
AcDbLine
 62
7
  6
CONTINUOUS
 10
226.7144564636
 20
448.8934943045
 11
226.7144564636
 21
449.6594521964
  0
LINE
  5
34F
100
AcDbEntity
  8
0
100
AcDbLine
 62
7
  6
CONTINUOUS
 10
227.2769564636
 20
421.8296646143
 11
227.2769564636
 21
424.7020049656
  0
LINE
  5
350
100
AcDbEntity
  8
0
100
AcDbLine
 62
7
  6
CONTINUOUS
 10
227.3008769816
 20
285.6381753052
 11
227.3008769816
 21
285.0424306954
  0
LINE
  5
351
100
AcDbEntity
  8
0
100
AcDbLine
 62
7
  6
CONTINUOUS
 10
228.1669023853
 20
285.6381753052
 11
228.1669023853
 21
285.0424306954
  0
LINE
  5
352
100
AcDbEntity
  8
0
100
AcDbLine
 62
7
  6
CONTINUOUS
 10
228.3217101758
 20
287.127537247
 11
228.3217101758
 21
286.8296645249
  0
LINE
  5
353
100
AcDbEntity
  8
0
100
AcDbLine
 62
7
  6
CONTINUOUS
 10
228.3946269816
 20
283.9998774195
 11
228.3946269816
 21
283.4041328097
  0
LINE
  5
354
100
AcDbEntity
  8
0
100
AcDbLine
 62
7
  6
CONTINUOUS
 10
228.6862937873
 20
286.8296645249
 11
228.6862937873
 21
287.127537247
  0
LINE
  5
355
100
AcDbEntity
  8
0
100
AcDbLine
 62
7
  6
CONTINUOUS
 10
228.7592101758
 20
283.4041328097
 11
228.7592101758
 21
283.9998774195
  0
LINE
  5
356
100
AcDbEntity
  8
0
100
AcDbLine
 62
7
  6
CONTINUOUS
 10
229.3425433701
 20
285.9360476101
 11
229.3425433701
 21
284.595622238
  0
LINE
  5
357
100
AcDbEntity
  8
0
100
AcDbLine
 62
7
  6
CONTINUOUS
 10
229.7071269816
 20
284.7445583905
 11
229.7071269816
 21
285.7871114577
  0
LINE
  5
358
100
AcDbEntity
  8
0
100
AcDbLine
 62
7
  6
CONTINUOUS
 10
231.6029605931
 20
285.7871114577
 11
231.6029605931
 21
284.7445583905
  0
LINE
  5
359
100
AcDbEntity
  8
0
100
AcDbLine
 62
7
  6
CONTINUOUS
 10
231.9675433701
 20
284.595622238
 11
231.9675433701
 21
285.9360476101
  0
LINE
  5
35A
100
AcDbEntity
  8
0
100
AcDbLine
 62
7
  6
CONTINUOUS
 10
238.7090960209
 20
500.2051199095
 11
238.7720699059
 21
500.7790096352
  0
LINE
  5
35B
100
AcDbEntity
  8
0
100
AcDbLine
 62
7
  6
CONTINUOUS
 10
242.4969455173
 20
504.5808674194
 11
242.4566436226
 21
504.2557998543
  0
LINE
  5
35C
100
AcDbEntity
  8
0
100
AcDbLine
 62
7
  6
CONTINUOUS
 10
263.661468799
 20
511.6352711045
 11
263.5597950264
 21
511.2802531222
  0
LINE
  5
35D
100
AcDbEntity
  8
0
100
AcDbLine
 62
7
  6
CONTINUOUS
 10
264.2511134278
 20
511.1884430262
 11
264.3527872005
 21
511.5434610086
  0
LINE
  5
35E
100
AcDbEntity
  8
0
100
AcDbLine
 62
7
  6
CONTINUOUS
 10
278.5383506595
 20
509.1997695313
 11
276.7196428311
 21
505.0139786645
  0
LINE
  5
35F
100
AcDbEntity
  8
0
100
AcDbLine
 62
7
  6
CONTINUOUS
 10
277.350194645
 20
504.7400066586
 11
279.5419706922
 21
509.7844211696
  0
LINE
  5
360
100
AcDbEntity
  8
0
100
AcDbLine
 62
7
  6
CONTINUOUS
 10
288.5094991827
 20
499.4874642382
 11
288.3533329199
 21
499.1528197458
  0
LINE
  5
361
100
AcDbEntity
  8
0
100
AcDbLine
 62
7
  6
CONTINUOUS
 10
219.7769566424
 20
433.8296646143
 11
219.964456648
 21
432.8722179199
  0
LINE
  5
362
100
AcDbEntity
  8
0
100
AcDbLine
 62
7
  6
CONTINUOUS
 10
238.1116009409
 20
500.9348756241
 11
238.1224061951
 21
500.6074973088
  0
LINE
  5
363
100
AcDbEntity
  8
KONSTRUKTIONSELEMENTE
100
AcDbLine
 62
7
  6
CONTINUOUS
 10
237.4647973207
 20
276.7658349241
 11
237.4647973207
 21
293.7658349241
  0
LINE
  5
364
100
AcDbEntity
  8
KONSTRUKTIONSELEMENTE
100
AcDbLine
 62
7
  6
CONTINUOUS
 10
242.1891159641
 20
276.7658349241
 11
242.1891159641
 21
293.7658349241
  0
LINE
  5
365
100
AcDbEntity
  8
0
100
AcDbLine
 62
7
  6
CONTINUOUS
 10
229.7071269816
 20
285.7871114577
 11
229.7800433701
 21
286.6807283724
  0
LINE
  5
366
100
AcDbEntity
  8
0
100
AcDbLine
 62
7
  6
CONTINUOUS
 10
231.6029605931
 20
284.7445583905
 11
231.5300433701
 21
283.8509412671
  0
LINE
  5
367
100
AcDbEntity
  8
0
100
AcDbLine
 62
7
  6
CONTINUOUS
 10
229.4154605931
 20
286.6807283724
 11
229.3425433701
 21
285.9360476101
  0
LINE
  5
368
100
AcDbEntity
  8
0
100
AcDbLine
 62
7
  6
CONTINUOUS
 10
231.8946269816
 20
283.8509412671
 11
231.9675433701
 21
284.595622238
  0
LINE
  5
369
100
AcDbEntity
  8
0
100
AcDbLine
 62
7
  6
CONTINUOUS
 10
226.2800437873
 20
287.7232818568
 11
226.2071269816
 21
287.127537247
  0
LINE
  5
36A
100
AcDbEntity
  8
0
100
AcDbLine
 62
7
  6
CONTINUOUS
 10
228.6133769816
 20
286.233919915
 11
228.6862937873
 21
286.8296645249
  0
LINE
  5
36B
100
AcDbEntity
  8
0
100
AcDbLine
 62
7
  6
CONTINUOUS
 10
228.6862937873
 20
282.957324248
 11
228.7592101758
 21
283.4041328097
  0
LINE
  5
36C
100
AcDbEntity
  8
0
100
AcDbLine
 62
7
  6
CONTINUOUS
 10
229.4883769816
 20
287.127537247
 11
229.4154605931
 21
286.6807283724
  0
LINE
  5
36D
100
AcDbEntity
  8
0
100
AcDbLine
 62
7
  6
CONTINUOUS
 10
224.8946269816
 20
288.7658349241
 11
223.8008769816
 21
282.5105157907
  0
LINE
  5
36E
100
AcDbEntity
  8
0
100
AcDbLine
 62
7
  6
CONTINUOUS
 10
225.5508769816
 20
287.5660981496
 11
225.5002357491
 21
287.2764733995
  0
LINE
  5
36F
100
AcDbEntity
  8
0
100
AcDbLine
 62
7
  6
CONTINUOUS
 10
224.0925435787
 20
281.7658349241
 11
225.1133769816
 21
287.2764733995
  0
LINE
  5
370
100
AcDbEntity
  8
0
100
AcDbLine
 62
7
  6
CONTINUOUS
 10
288.9353268562
 20
498.7685889766
 11
289.091493119
 21
499.103233469
  0
LINE
  5
371
100
AcDbEntity
  8
0
100
AcDbLine
 62
7
  6
CONTINUOUS
 10
290.1084290703
 20
501.1965619866
 11
289.9522626955
 21
500.8619173745
  0
LINE
  5
372
100
AcDbEntity
  8
0
100
AcDbLine
 62
7
  6
CONTINUOUS
 10
290.5342568558
 20
500.4776868447
 11
290.6904230066
 21
500.8123312174
  0
LINE
  5
373
100
AcDbEntity
  8
0
100
AcDbLine
 62
7
  6
CONTINUOUS
 10
282.0769566424
 20
353.9008349241
 11
282.5769566424
 21
353.9008349241
  0
LINE
  5
374
100
AcDbEntity
  8
0
100
AcDbLine
 62
7
  6
CONTINUOUS
 10
221.0894565977
 20
433.0637072588
 11
220.9019566424
 21
433.8296646143
  0
LINE
  5
375
100
AcDbEntity
  8
0
100
AcDbLine
 62
7
  6
CONTINUOUS
 10
225.9644566424
 20
425.4679623211
 11
226.1519564636
 21
424.7020049656
  0
LINE
  5
376
100
AcDbEntity
  8
0
100
AcDbLine
 62
7
  6
CONTINUOUS
 10
227.2769564636
 20
424.7020049656
 11
227.0894566424
 21
425.6594521964
  0
LINE
  5
377
100
AcDbEntity
  8
0
100
AcDbLine
 62
7
  6
CONTINUOUS
 10
243.12508909
 20
504.3240618268
 11
243.1145808839
 21
504.9047142656
  0
LINE
  5
378
100
AcDbEntity
  8
RUNDUNGEN
100
AcDbLine
 62
7
  6
CONTINUOUS
 10
245.0769566424
 20
377.6408349241
 11
245.0769566424
 21
341.1409057113
  0
LINE
  5
379
100
AcDbEntity
  8
0
100
AcDbLine
 62
7
  6
CONTINUOUS
 10
248.5769566424
 20
276.7658349241
 11
248.5769566424
 21
233.7658349241
  0
LINE
  5
37A
100
AcDbEntity
  8
0
100
AcDbLine
 62
7
  6
CONTINUOUS
 10
255.9655350447
 20
506.8587738812
 11
256.3998739362
 21
512.6399899501
  0
LINE
  5
37B
100
AcDbEntity
  8
0
100
AcDbLine
 62
7
  6
CONTINUOUS
 10
255.7331993921
 20
512.4720575165
 11
255.3495803088
 21
507.4276781394
  0
LINE
  5
37C
100
AcDbEntity
  8
0
100
AcDbLine
 62
7
  6
CONTINUOUS
 10
231.8217105931
 20
283.4041328097
 11
231.8946269816
 21
283.8509412671
  0
LINE
  5
37D
100
AcDbEntity
  8
0
100
AcDbLine
 62
7
  6
CONTINUOUS
 10
278.8465234485
 20
505.5121773221
 11
278.7711402955
 21
505.1506627835
  0
LINE
  5
37E
100
AcDbEntity
  8
0
100
AcDbLine
 62
7
  6
CONTINUOUS
 10
228.3217101758
 20
286.8296645249
 11
228.1758769816
 21
286.233919915
  0
LINE
  5
37F
100
AcDbEntity
  8
0
100
AcDbLine
 62
7
  6
CONTINUOUS
 10
228.3946269816
 20
283.4041328097
 11
228.3217101758
 21
283.1062605048
  0
LINE
  5
380
100
AcDbEntity
  8
0
100
AcDbLine
 62
7
  6
CONTINUOUS
 10
229.6342105931
 20
287.7232818568
 11
229.4883769816
 21
287.127537247
  0
LINE
  5
381
100
AcDbEntity
  8
0
100
AcDbLine
 62
7
  6
CONTINUOUS
 10
282.6571104853
 20
503.8647014693
 11
282.7907450125
 21
504.3277087293
  0
LINE
  5
382
100
AcDbEntity
  8
0
100
AcDbLine
 62
7
  6
CONTINUOUS
 10
283.7810565115
 20
506.0530618751
 11
283.9146955063
 21
506.5160663818
  0
LINE
  5
383
100
AcDbEntity
  8
0
100
AcDbLine
 62
7
  6
CONTINUOUS
 10
282.0769566424
 20
358.7787852803
 11
282.5769566424
 21
358.7787852803
  0
LINE
  5
384
100
AcDbEntity
  8
0
100
AcDbLine
 62
7
  6
CONTINUOUS
 10
282.0769566424
 20
359.4306335462
 11
282.5769566424
 21
359.4306335462
  0
LINE
  5
385
100
AcDbEntity
  8
0
100
AcDbLine
 62
7
  6
CONTINUOUS
 10
282.0769566424
 20
359.9508349241
 11
282.5769566424
 21
359.9508349241
  0
LINE
  5
386
100
AcDbEntity
  8
0
100
AcDbLine
 62
7
  6
CONTINUOUS
 10
282.0769566424
 20
359.9608349241
 11
282.5769566424
 21
359.9608349241
  0
LINE
  5
387
100
AcDbEntity
  8
0
100
AcDbLine
 62
7
  6
CONTINUOUS
 10
282.0769566424
 20
363.1608349241
 11
282.5769566424
 21
363.1608349241
  0
LINE
  5
388
100
AcDbEntity
  8
0
100
AcDbLine
 62
7
  6
CONTINUOUS
 10
282.0769566424
 20
363.9108349241
 11
282.5769566424
 21
363.9108349241
  0
LINE
  5
389
100
AcDbEntity
  8
0
100
AcDbLine
 62
7
  6
CONTINUOUS
 10
282.0769566424
 20
364.6608349241
 11
282.5769566424
 21
364.6608349241
  0
LINE
  5
38A
100
AcDbEntity
  8
0
100
AcDbLine
 62
7
  6
CONTINUOUS
 10
282.0769566424
 20
365.6608348644
 11
282.5769566424
 21
365.6608348644
  0
LINE
  5
38B
100
AcDbEntity
  8
0
100
AcDbLine
 62
7
  6
CONTINUOUS
 10
282.0769566424
 20
365.7858349241
 11
282.5769566424
 21
365.7858349241
  0
LINE
  5
38C
100
AcDbEntity
  8
0
100
AcDbLine
 62
7
  6
CONTINUOUS
 10
282.0769566424
 20
365.9108349837
 11
282.5769566424
 21
365.9108349837
  0
LINE
  5
38D
100
AcDbEntity
  8
0
100
AcDbLine
 62
7
  6
CONTINUOUS
 10
282.0769566424
 20
366.4108350433
 11
282.5769566424
 21
366.4108350433
  0
LINE
  5
38E
100
AcDbEntity
  8
0
100
AcDbLine
 62
7
  6
CONTINUOUS
 10
282.0769566424
 20
366.9108349241
 11
282.5769566424
 21
366.9108349241
  0
LINE
  5
38F
100
AcDbEntity
  8
0
100
AcDbLine
 62
7
  6
CONTINUOUS
 10
219.964456648
 20
432.8722179199
 11
220.3394566424
 21
432.1062604303
  0
LINE
  5
390
100
AcDbEntity
  8
0
100
AcDbLine
 62
7
  6
CONTINUOUS
 10
227.0894566424
 20
425.6594521964
 11
226.7144564636
 21
426.4254095519
  0
LINE
  5
391
100
AcDbEntity
  8
0
100
AcDbLine
 62
7
  6
CONTINUOUS
 10
226.9019568212
 20
442.7658349241
 11
225.2144568212
 21
447.1700902546
  0
LINE
  5
392
100
AcDbEntity
  8
0
100
AcDbLine
 62
7
  6
CONTINUOUS
 10
224.089456553
 20
446.7871115769
 11
225.5894564636
 21
442.7658349241
  0
LINE
  5
393
100
AcDbEntity
  8
0
100
AcDbLine
 62
7
  6
CONTINUOUS
 10
225.4019566424
 20
450.2339202131
 11
225.5894564636
 21
449.6594521964
  0
LINE
  5
394
100
AcDbEntity
  8
0
100
AcDbLine
 62
7
  6
CONTINUOUS
 10
226.7144564636
 20
449.6594521964
 11
226.5269566424
 21
450.2339202131
  0
LINE
  5
395
100
AcDbEntity
  8
0
100
AcDbLine
 62
7
  6
CONTINUOUS
 10
231.6758769816
 20
282.8083880956
 11
231.8217105931
 21
283.4041328097
  0
LINE
  5
396
100
AcDbEntity
  8
0
100
AcDbLine
 62
7
  6
CONTINUOUS
 10
226.5717101758
 20
287.127537247
 11
226.7175437873
 21
287.5743457044
  0
LINE
  5
397
100
AcDbEntity
  8
0
100
AcDbLine
 62
7
  6
CONTINUOUS
 10
228.4675437873
 20
285.7871114577
 11
228.6133769816
 21
286.233919915
  0
LINE
  5
398
100
AcDbEntity
  8
0
100
AcDbLine
 62
7
  6
CONTINUOUS
 10
229.7800433701
 20
286.6807283724
 11
230.0717105931
 21
287.5743457044
  0
LINE
  5
399
100
AcDbEntity
  8
0
100
AcDbLine
 62
7
  6
CONTINUOUS
 10
228.5404601758
 20
282.5105157907
 11
228.6862937873
 21
282.957324248
  0
LINE
  5
39A
100
AcDbEntity
  8
0
100
AcDbLine
 62
7
  6
CONTINUOUS
 10
231.5300433701
 20
283.8509412671
 11
231.2383769816
 21
282.957324248
  0
LINE
  5
39B
100
AcDbEntity
  8
0
100
AcDbLine
 62
7
  6
CONTINUOUS
 10
282.0769566424
 20
367.7858348048
 11
282.5769566424
 21
367.7858348048
  0
LINE
  5
39C
100
AcDbEntity
  8
0
100
AcDbLine
 62
7
  6
CONTINUOUS
 10
282.0769566424
 20
368.0358349241
 11
282.5769566424
 21
368.0358349241
  0
LINE
  5
39D
100
AcDbEntity
  8
0
100
AcDbLine
 62
7
  6
CONTINUOUS
 10
282.0769566424
 20
368.9108348048
 11
282.5769566424
 21
368.9108348048
  0
LINE
  5
39E
100
AcDbEntity
  8
0
100
AcDbLine
 62
7
  6
CONTINUOUS
 10
282.0769566424
 20
369.4108346856
 11
282.5769566424
 21
369.4108346856
  0
LINE
  5
39F
100
AcDbEntity
  8
0
100
AcDbLine
 62
7
  6
CONTINUOUS
 10
282.0769566424
 20
369.9108349241
 11
282.5769566424
 21
369.9108349241
  0
LINE
  5
3A0
100
AcDbEntity
  8
0
100
AcDbLine
 62
7
  6
CONTINUOUS
 10
282.0769566424
 20
370.0358351625
 11
282.5769566424
 21
370.0358351625
  0
LINE
  5
3A1
100
AcDbEntity
  8
0
100
AcDbLine
 62
7
  6
CONTINUOUS
 10
282.0769566424
 20
370.1608346856
 11
282.5769566424
 21
370.1608346856
  0
LINE
  5
3A2
100
AcDbEntity
  8
0
100
AcDbLine
 62
7
  6
CONTINUOUS
 10
225.5894564636
 20
426.0424308742
 11
225.9644566424
 21
425.4679623211
  0
LINE
  5
3A3
100
AcDbEntity
  8
0
100
AcDbLine
 62
7
  6
CONTINUOUS
 10
221.4644566424
 20
432.4892392421
 11
221.0894565977
 21
433.0637072588
  0
LINE
  5
3A4
100
AcDbEntity
  8
0
100
AcDbLine
 62
7
  6
CONTINUOUS
 10
238.7720699059
 20
500.7790096352
 11
238.6712772914
 21
501.3509436576
  0
LINE
  5
3A5
100
AcDbEntity
  8
0
100
AcDbLine
 62
7
  6
CONTINUOUS
 10
260.051867634
 20
513.1426204336
 11
260.2529312025
 21
507.646296804
  0
LINE
  5
3A6
100
AcDbEntity
  8
0
100
AcDbLine
 62
7
  6
CONTINUOUS
 10
260.9399716562
 20
507.6714297501
 11
260.8501347414
 21
510.1272339598
  0
LINE
  5
3A7
100
AcDbEntity
  8
0
100
AcDbLine
 62
7
  6
CONTINUOUS
 10
260.8244670548
 20
510.8288922119
 11
260.7602978265
 21
512.5830381696
  0
LINE
  5
3A8
100
AcDbEntity
  8
0
100
AcDbLine
 62
7
  6
CONTINUOUS
 10
263.6486349437
 20
511.9861005581
 11
263.661468799
 21
511.6352711045
  0
LINE
  5
3A9
100
AcDbEntity
  8
0
100
AcDbLine
 62
7
  6
CONTINUOUS
 10
264.3527872005
 20
511.5434610086
 11
264.3356753974
 21
512.0112335042
  0
LINE
  5
3AA
100
AcDbEntity
  8
0
100
AcDbLine
 62
7
  6
CONTINUOUS
 10
279.3262802288
 20
504.9669533392
 11
279.3434074584
 21
505.2269777675
  0
LINE
  5
3AB
100
AcDbEntity
  8
0
100
AcDbLine
 62
7
  6
CONTINUOUS
 10
282.1944832908
 20
504.669948717
 11
282.1602242009
 21
504.1499023294
  0
LINE
  5
3AC
100
AcDbEntity
  8
0
100
AcDbLine
 62
7
  6
CONTINUOUS
 10
289.091493119
 20
499.103233469
 11
289.1602553252
 21
499.6798957931
  0
LINE
  5
3AD
100
AcDbEntity
  8
0
100
AcDbLine
 62
7
  6
CONTINUOUS
 10
226.5717101758
 20
288.3190264667
 11
226.2800437873
 21
287.7232818568
  0
LINE
  5
3AE
100
AcDbEntity
  8
0
100
AcDbLine
 62
7
  6
CONTINUOUS
 10
227.4377355796
 20
288.3190264667
 11
227.2936376025
 21
288.0246984381
  0
LINE
  5
3AF
100
AcDbEntity
  8
0
100
AcDbLine
 62
7
  6
CONTINUOUS
 10
228.1758769816
 20
286.233919915
 11
228.0300437873
 21
285.9360476101
  0
LINE
  5
3B0
100
AcDbEntity
  8
0
100
AcDbLine
 62
7
  6
CONTINUOUS
 10
229.8529605931
 20
288.1700903142
 11
229.6342105931
 21
287.7232818568
  0
LINE
  5
3B1
100
AcDbEntity
  8
0
100
AcDbLine
 62
7
  6
CONTINUOUS
 10
230.7189859968
 20
288.1700903142
 11
230.6478044425
 21
288.0246982205
  0
LINE
  5
3B2
100
AcDbEntity
  8
0
100
AcDbLine
 62
7
  6
CONTINUOUS
 10
228.3217101758
 20
283.1062605048
 11
228.1758769816
 21
282.8083880956
  0
LINE
  5
3B3
100
AcDbEntity
  8
0
100
AcDbLine
 62
7
  6
CONTINUOUS
 10
220.3394566424
 20
432.1062604303
 11
221.0894565977
 21
431.3403030077
  0
LINE
  5
3B4
100
AcDbEntity
  8
0
100
AcDbLine
 62
7
  6
CONTINUOUS
 10
226.7144564636
 20
426.4254095519
 11
225.9644566424
 21
427.1913669074
  0
LINE
  5
3B5
100
AcDbEntity
  8
0
100
AcDbLine
 62
7
  6
CONTINUOUS
 10
278.5769566424
 20
276.7658349241
 11
278.5769566424
 21
233.7658349241
  0
LINE
  5
3B6
100
AcDbEntity
  8
RUNDUNGEN
100
AcDbLine
 62
7
  6
CONTINUOUS
 10
282.0769566424
 20
341.1408704181
 11
282.0769566424
 21
377.6408349241
  0
LINE
  5
3B7
100
AcDbEntity
  8
0
100
AcDbLine
 62
7
  6
CONTINUOUS
 10
282.5769566424
 20
370.1608346856
 11
282.5769566424
 21
365.6608348644
  0
LINE
  5
3B8
100
AcDbEntity
  8
0
100
AcDbLine
 62
7
  6
CONTINUOUS
 10
282.5769566424
 20
364.6608349241
 11
282.5769566424
 21
363.1608349241
  0
LINE
  5
3B9
100
AcDbEntity
  8
0
100
AcDbLine
 62
7
  6
CONTINUOUS
 10
282.5769566424
 20
359.9508349241
 11
282.5769566424
 21
353.9009558394
  0
LINE
  5
3BA
100
AcDbEntity
  8
KONSTRUKTIONSELEMENTE
100
AcDbLine
 62
7
  6
CONTINUOUS
 10
284.9647973207
 20
276.7658349241
 11
284.9647973207
 21
293.7658349241
  0
LINE
  5
3BB
100
AcDbEntity
  8
0
100
AcDbLine
 62
7
  6
CONTINUOUS
 10
290.6904230066
 20
500.8123312174
 11
290.7591852127
 21
501.3889935415
  0
LINE
  5
3BC
100
AcDbEntity
  8
0
100
AcDbLine
 62
7
  6
CONTINUOUS
 10
231.4571269816
 20
282.361579586
 11
231.6758769816
 21
282.8083880956
  0
LINE
  5
3BD
100
AcDbEntity
  8
0
100
AcDbLine
 62
7
  6
CONTINUOUS
 10
228.1758769816
 20
285.3403030003
 11
228.4675437873
 21
285.7871114577
  0
LINE
  5
3BE
100
AcDbEntity
  8
0
100
AcDbLine
 62
7
  6
CONTINUOUS
 10
225.0269564636
 20
426.4254095519
 11
225.5894564636
 21
426.0424308742
  0
LINE
  5
3BF
100
AcDbEntity
  8
0
100
AcDbLine
 62
7
  6
CONTINUOUS
 10
226.5269566424
 20
450.2339202131
 11
225.9644566424
 21
450.9998775686
  0
LINE
  5
3C0
100
AcDbEntity
  8
0
100
AcDbLine
 62
7
  6
CONTINUOUS
 10
257.9028085819
 20
512.8267414799
 11
258.6651640776
 21
507.3798328063
  0
LINE
  5
3C1
100
AcDbEntity
  8
0
100
AcDbLine
 62
7
  6
CONTINUOUS
 10
259.3460276618
 20
507.4751272433
 11
258.583672166
 21
512.9220359168
  0
LINE
  5
3C2
100
AcDbEntity
  8
0
100
AcDbLine
 62
7
  6
CONTINUOUS
 10
278.7711402955
 20
505.1506627835
 11
278.7951348952
 21
504.7321078829
  0
LINE
  5
3C3
100
AcDbEntity
  8
0
100
AcDbLine
 62
7
  6
CONTINUOUS
 10
282.7907450125
 20
504.3277087293
 11
282.766754962
 21
504.7462610189
  0
LINE
  5
3C4
100
AcDbEntity
  8
0
100
AcDbLine
 62
7
  6
CONTINUOUS
 10
283.2601801765
 20
506.7568150248
 11
283.2841747762
 21
506.3382601241
  0
LINE
  5
3C5
100
AcDbEntity
  8
0
100
AcDbLine
 62
7
  6
CONTINUOUS
 10
288.5020417212
 20
499.8149370651
 11
288.5094991827
 21
499.4874642382
  0
LINE
  5
3C6
100
AcDbEntity
  8
0
100
AcDbLine
 62
7
  6
CONTINUOUS
 10
290.1009716088
 20
501.5240348135
 11
290.1084290703
 21
501.1965619866
  0
LINE
  5
3C7
100
AcDbEntity
  8
KONSTRUKTIONSELEMENTE
100
AcDbLine
 62
7
  6
CONTINUOUS
 10
289.6891159641
 20
276.7658349241
 11
289.6891159641
 21
293.7658349241
  0
LINE
  5
3C8
100
AcDbEntity
  8
0
100
AcDbLine
 62
7
  6
CONTINUOUS
 10
226.7175437873
 20
287.5743457044
 11
226.9362937873
 21
287.8722180093
  0
LINE
  5
3C9
100
AcDbEntity
  8
0
100
AcDbLine
 62
7
  6
CONTINUOUS
 10
230.0717105931
 20
287.5743457044
 11
230.2904605931
 21
287.8722180093
  0
LINE
  5
3CA
100
AcDbEntity
  8
0
100
AcDbLine
 62
7
  6
CONTINUOUS
 10
228.3217101758
 20
282.2126434336
 11
228.5404601758
 21
282.5105157907
  0
LINE
  5
3CB
100
AcDbEntity
  8
0
100
AcDbLine
 62
7
  6
CONTINUOUS
 10
231.2383769816
 20
282.957324248
 11
231.0196269816
 21
282.6594519431
  0
LINE
  5
3CC
100
AcDbEntity
  8
0
100
AcDbLine
 62
7
  6
CONTINUOUS
 10
230.2175433701
 20
288.6168987716
 11
229.8529605931
 21
288.1700903142
  0
LINE
  5
3CD
100
AcDbEntity
  8
0
100
AcDbLine
 62
7
  6
CONTINUOUS
 10
231.0835687739
 20
288.6168987716
 11
230.7189859968
 21
288.1700903142
  0
LINE
  5
3CE
100
AcDbEntity
  8
0
100
AcDbLine
 62
7
  6
CONTINUOUS
 10
225.9644566424
 20
427.1913669074
 11
225.2144568212
 21
427.5743455852
  0
LINE
  5
3CF
100
AcDbEntity
  8
0
100
AcDbLine
 62
7
  6
CONTINUOUS
 10
221.0894565977
 20
431.3403030077
 11
221.8394566871
 21
430.9573242797
  0
LINE
  5
3D0
100
AcDbEntity
  8
0
100
AcDbLine
 62
7
  6
CONTINUOUS
 10
222.0269566424
 20
432.1062604303
 11
221.4644566424
 21
432.4892392421
  0
LINE
  5
3D1
100
AcDbEntity
  8
0
100
AcDbLine
 62
7
  6
CONTINUOUS
 10
225.0269564636
 20
450.6168988908
 11
225.4019566424
 21
450.2339202131
  0
LINE
  5
3D2
100
AcDbEntity
  8
0
100
AcDbLine
 62
7
  6
CONTINUOUS
 10
242.3751741077
 20
504.9295031854
 11
242.4969455173
 21
504.5808674194
  0
LINE
  5
3D3
100
AcDbEntity
  8
0
100
AcDbLine
 62
7
  6
CONTINUOUS
 10
243.1145808839
 20
504.9047142656
 11
242.9928094743
 21
505.2533500317
  0
LINE
  5
3D4
100
AcDbEntity
  8
0
100
AcDbLine
 62
7
  6
CONTINUOUS
 10
304.8269566424
 20
333.1408349241
 11
304.8269566424
 21
293.7658349241
  0
LINE
  5
3D5
100
AcDbEntity
  8
0
100
AcDbLine
 62
7
  6
CONTINUOUS
 10
231.0925433701
 20
281.9147710896
 11
231.4571269816
 21
282.361579586
  0
LINE
  5
3D6
100
AcDbEntity
  8
0
100
AcDbLine
 62
7
  6
CONTINUOUS
 10
226.8633769816
 20
288.6168987716
 11
226.5717101758
 21
288.3190264667
  0
LINE
  5
3D7
100
AcDbEntity
  8
0
100
AcDbLine
 62
7
  6
CONTINUOUS
 10
227.7294023853
 20
288.6168987716
 11
227.4377355796
 21
288.3190264667
  0
LINE
  5
3D8
100
AcDbEntity
  8
0
100
AcDbLine
 62
7
  6
CONTINUOUS
 10
228.1758769816
 20
282.8083880956
 11
228.0300437873
 21
282.6594519431
  0
LINE
  5
3D9
100
AcDbEntity
  8
0
100
AcDbLine
 62
7
  6
CONTINUOUS
 10
228.0300437873
 20
281.9147710896
 11
228.3217101758
 21
282.2126434336
  0
LINE
  5
3DA
100
AcDbEntity
  8
KONSTRUKTIONSELEMENTE
100
AcDbLine
 62
7
  6
CONTINUOUS
 10
215.8027506264
 20
414.7658349241
 11
232.380108909
 21
414.7658349241
  0
LINE
  5
3DB
100
AcDbEntity
  8
KONSTRUKTIONSELEMENTE
100
AcDbLine
 62
7
  6
CONTINUOUS
 10
294.7738043758
 20
414.7658349241
 11
311.3511626584
 21
414.7658349241
  0
LINE
  5
3DC
100
AcDbEntity
  8
0
100
AcDbLine
 62
7
  6
CONTINUOUS
 10
224.2769566424
 20
426.6168988908
 11
225.0269564636
 21
426.4254095519
  0
LINE
  5
3DD
100
AcDbEntity
  8
0
100
AcDbLine
 62
7
  6
CONTINUOUS
 10
225.9644566424
 20
450.9998775686
 11
225.2144568212
 21
451.5743455852
  0
LINE
  5
3DE
100
AcDbEntity
  8
0
100
AcDbLine
 62
7
  6
CONTINUOUS
 10
237.9370289606
 20
501.260297999
 11
238.1116009409
 21
500.9348756241
  0
LINE
  5
3DF
100
AcDbEntity
  8
0
100
AcDbLine
 62
7
  6
CONTINUOUS
 10
238.6712772914
 20
501.3509436576
 11
238.4967053112
 21
501.6763660326
  0
LINE
  5
3E0
100
AcDbEntity
  8
0
100
AcDbLine
 62
7
  6
CONTINUOUS
 10
250.0334371078
 20
507.6526267633
 11
250.2421620488
 21
507.1060158518
  0
LINE
  5
3E1
100
AcDbEntity
  8
0
100
AcDbLine
 62
7
  6
CONTINUOUS
 10
251.7407871317
 20
507.6782701289
 11
251.5320621907
 21
508.2248810404
  0
LINE
  5
3E2
100
AcDbEntity
  8
KONSTRUKTIONSELEMENTE
100
AcDbLine
 62
7
  6
CONTINUOUS
 10
311.0769566424
 20
276.7658349241
 11
311.0769566424
 21
293.7658349241
  0
LINE
  5
3E3
100
AcDbEntity
  8
0
100
AcDbLine
 62
7
  6
CONTINUOUS
 10
225.0269564636
 20
420.1062604303
 11
224.2769566424
 21
419.9147710914
  0
LINE
  5
3E4
100
AcDbEntity
  8
0
100
AcDbLine
 62
7
  6
CONTINUOUS
 10
224.2769566424
 20
418.7658349241
 11
225.2144568212
 21
418.9573242797
  0
LINE
  5
3E5
100
AcDbEntity
  8
0
100
AcDbLine
 62
7
  6
CONTINUOUS
 10
219.7769566424
 20
418.7658349241
 11
224.2769566424
 21
418.7658349241
  0
LINE
  5
3E6
100
AcDbEntity
  8
0
100
AcDbLine
 62
7
  6
CONTINUOUS
 10
224.2769566424
 20
419.9147710914
 11
220.9019566424
 21
419.9147710914
  0
LINE
  5
3E7
100
AcDbEntity
  8
0
100
AcDbLine
 62
7
  6
CONTINUOUS
 10
220.9019566424
 20
426.6168988908
 11
224.2769566424
 21
426.6168988908
  0
LINE
  5
3E8
100
AcDbEntity
  8
0
100
AcDbLine
 62
7
  6
CONTINUOUS
 10
224.2769566424
 20
427.7658349241
 11
219.7769566424
 21
427.7658349241
  0
LINE
  5
3E9
100
AcDbEntity
  8
0
100
AcDbLine
 62
7
  6
CONTINUOUS
 10
225.2144568212
 20
427.5743455852
 11
224.2769566424
 21
427.7658349241
  0
LINE
  5
3EA
100
AcDbEntity
  8
0
100
AcDbLine
 62
7
  6
CONTINUOUS
 10
221.8394566871
 20
430.9573242797
 11
222.7769567318
 21
430.7658349241
  0
LINE
  5
3EB
100
AcDbEntity
  8
0
100
AcDbLine
 62
7
  6
CONTINUOUS
 10
222.7769567318
 20
431.9147710914
 11
222.0269566424
 21
432.1062604303
  0
LINE
  5
3EC
100
AcDbEntity
  8
0
100
AcDbLine
 62
7
  6
CONTINUOUS
 10
263.5212934846
 20
512.3327408279
 11
263.6486349437
 21
511.9861005581
  0
LINE
  5
3ED
100
AcDbEntity
  8
0
100
AcDbLine
 62
7
  6
CONTINUOUS
 10
264.3356753974
 20
512.0112335042
 11
264.2083339383
 21
512.3578737739
  0
LINE
  5
3EE
100
AcDbEntity
  8
0
100
AcDbLine
 62
7
  6
CONTINUOUS
 10
279.4085238465
 20
504.6498923234
 11
279.3262802288
 21
504.9669533392
  0
LINE
  5
3EF
100
AcDbEntity
  8
0
100
AcDbLine
 62
7
  6
CONTINUOUS
 10
283.9146955063
 20
506.5160663818
 11
283.7502036401
 21
507.1501908824
  0
LINE
  5
3F0
100
AcDbEntity
  8
0
100
AcDbLine
 62
7
  6
CONTINUOUS
 10
290.7591852127
 20
501.3889935415
 11
290.6643238067
 21
501.9584843199
  0
LINE
  5
3F1
100
AcDbEntity
  8
0
100
AcDbLine
 62
7
  6
CONTINUOUS
 10
228.0300437873
 20
285.9360476101
 11
227.5925437873
 21
285.6381753052
  0
LINE
  5
3F2
100
AcDbEntity
  8
0
100
AcDbLine
 62
7
  6
CONTINUOUS
 10
223.526956553
 20
430.7658349241
 11
224.4644564636
 21
430.9573242797
  0
LINE
  5
3F3
100
AcDbEntity
  8
0
100
AcDbLine
 62
7
  6
CONTINUOUS
 10
222.7769567318
 20
430.7658349241
 11
223.526956553
 21
430.7658349241
  0
LINE
  5
3F4
100
AcDbEntity
  8
0
100
AcDbLine
 62
7
  6
CONTINUOUS
 10
223.526956553
 20
431.9147710914
 11
222.7769567318
 21
431.9147710914
  0
LINE
  5
3F5
100
AcDbEntity
  8
0
100
AcDbLine
 62
7
  6
CONTINUOUS
 10
224.4644564636
 20
450.8083882297
 11
225.0269564636
 21
450.6168988908
  0
LINE
  5
3F6
100
AcDbEntity
  8
0
100
AcDbLine
 62
7
  6
CONTINUOUS
 10
238.5572327804
 20
504.0782441571
 11
241.8924146896
 21
499.7048516944
  0
LINE
  5
3F7
100
AcDbEntity
  8
0
100
AcDbLine
 62
7
  6
CONTINUOUS
 10
242.4390887474
 20
500.121749433
 11
240.9489010647
 21
502.0758184334
  0
LINE
  5
3F8
100
AcDbEntity
  8
0
100
AcDbLine
 62
7
  6
CONTINUOUS
 10
240.5231332122
 20
502.6341237877
 11
239.458713382
 21
504.0298874339
  0
LINE
  5
3F9
100
AcDbEntity
  8
0
100
AcDbLine
 62
7
  6
CONTINUOUS
 10
242.1622899827
 20
505.2086561232
 11
242.3751741077
 21
504.9295031854
  0
LINE
  5
3FA
100
AcDbEntity
  8
0
100
AcDbLine
 62
7
  6
CONTINUOUS
 10
242.9928094743
 20
505.2533500317
 11
242.7089640405
 21
505.6255538619
  0
LINE
  5
3FB
100
AcDbEntity
  8
0
100
AcDbLine
 62
7
  6
CONTINUOUS
 10
227.7383769816
 20
281.7658349241
 11
228.0300437873
 21
281.9147710896
  0
LINE
  5
3FC
100
AcDbEntity
  8
0
100
AcDbLine
 62
7
  6
CONTINUOUS
 10
226.9362937873
 20
287.8722180093
 11
227.3008769816
 21
288.0211541618
  0
LINE
  5
3FD
100
AcDbEntity
  8
0
100
AcDbLine
 62
7
  6
CONTINUOUS
 10
230.2904605931
 20
287.8722180093
 11
230.6550433701
 21
288.0211541618
  0
LINE
  5
3FE
100
AcDbEntity
  8
0
100
AcDbLine
 62
7
  6
CONTINUOUS
 10
230.6550433701
 20
288.7658349241
 11
230.2175433701
 21
288.6168987716
  0
LINE
  5
3FF
100
AcDbEntity
  8
0
100
AcDbLine
 62
7
  6
CONTINUOUS
 10
224.2769566424
 20
432.1062604303
 11
223.526956553
 21
431.9147710914
  0
LINE
  5
400
100
AcDbEntity
  8
0
100
AcDbLine
 62
7
  6
CONTINUOUS
 10
226.5269566424
 20
439.7658349241
 11
225.4019566424
 21
439.7658349241
  0
LINE
  5
401
100
AcDbEntity
  8
0
100
AcDbLine
 62
7
  6
CONTINUOUS
 10
220.9019566424
 20
439.7658349241
 11
219.7769566424
 21
439.7658349241
  0
LINE
  5
402
100
AcDbEntity
  8
0
100
AcDbLine
 62
7
  6
CONTINUOUS
 10
219.7769566424
 20
442.7658349241
 11
220.9019566424
 21
442.7658349241
  0
LINE
  5
403
100
AcDbEntity
  8
0
100
AcDbLine
 62
7
  6
CONTINUOUS
 10
225.5894564636
 20
442.7658349241
 11
226.9019568212
 21
442.7658349241
  0
LINE
  5
404
100
AcDbEntity
  8
0
100
AcDbLine
 62
7
  6
CONTINUOUS
 10
220.9019566424
 20
446.7871115769
 11
224.089456553
 21
446.7871115769
  0
LINE
  5
405
100
AcDbEntity
  8
0
100
AcDbLine
 62
7
  6
CONTINUOUS
 10
224.4644564636
 20
447.9360476101
 11
220.9019566424
 21
447.9360476101
  0
LINE
  5
406
100
AcDbEntity
  8
0
100
AcDbLine
 62
7
  6
CONTINUOUS
 10
225.2144568212
 20
451.5743455852
 11
224.2769566424
 21
451.7658349241
  0
LINE
  5
407
100
AcDbEntity
  8
0
100
AcDbLine
 62
7
  6
CONTINUOUS
 10
234.2982035117
 20
499.8249356978
 11
238.2736811233
 21
496.0242018529
  0
LINE
  5
408
100
AcDbEntity
  8
0
100
AcDbLine
 62
7
  6
CONTINUOUS
 10
238.7487728539
 20
496.5211365544
 11
236.972495598
 21
498.2193368071
  0
LINE
  5
409
100
AcDbEntity
  8
0
100
AcDbLine
 62
7
  6
CONTINUOUS
 10
236.4649878783
 20
498.7045368145
 11
235.1962183421
 21
499.9175370597
  0
LINE
  5
40A
100
AcDbEntity
  8
0
100
AcDbLine
 62
7
  6
CONTINUOUS
 10
237.6832748638
 20
501.5028982293
 11
237.9370289606
 21
501.260297999
  0
LINE
  5
40B
100
AcDbEntity
  8
0
100
AcDbLine
 62
7
  6
CONTINUOUS
 10
255.3495803088
 20
507.4276781394
 11
252.6220519436
 21
511.6883729331
  0
LINE
  5
40C
100
AcDbEntity
  8
0
100
AcDbLine
 62
7
  6
CONTINUOUS
 10
251.9553773995
 20
511.5204404995
 11
255.0766365003
 21
506.6348641833
  0
LINE
  5
40D
100
AcDbEntity
  8
0
100
AcDbLine
 62
7
  6
CONTINUOUS
 10
278.7951348952
 20
504.7321078829
 11
278.9767585196
 21
504.3580051639
  0
LINE
  5
40E
100
AcDbEntity
  8
0
100
AcDbLine
 62
7
  6
CONTINUOUS
 10
282.0128596459
 20
505.0440514005
 11
282.1944832908
 21
504.669948717
  0
LINE
  5
40F
100
AcDbEntity
  8
0
100
AcDbLine
 62
7
  6
CONTINUOUS
 10
289.1602553252
 20
499.6798957931
 11
289.0728513805
 21
499.9219137446
  0
LINE
  5
410
100
AcDbEntity
  8
0
100
AcDbLine
 62
7
  6
CONTINUOUS
 10
228.0300437873
 20
282.6594519431
 11
227.6654601758
 21
282.5105157907
  0
LINE
  5
411
100
AcDbEntity
  8
0
100
AcDbLine
 62
7
  6
CONTINUOUS
 10
231.0196269816
 20
282.6594519431
 11
230.6550433701
 21
282.5105157907
  0
LINE
  5
412
100
AcDbEntity
  8
0
100
AcDbLine
 62
7
  6
CONTINUOUS
 10
230.6550433701
 20
281.7658349241
 11
231.0925433701
 21
281.9147710896
  0
LINE
  5
413
100
AcDbEntity
  8
0
100
AcDbLine
 62
7
  6
CONTINUOUS
 10
227.3737937873
 20
288.7658349241
 11
226.8633769816
 21
288.6168987716
  0
LINE
  5
414
100
AcDbEntity
  8
0
100
AcDbLine
 62
7
  6
CONTINUOUS
 10
227.8797230863
 20
288.6607613298
 11
227.7294023853
 21
288.6168987716
  0
LINE
  5
415
100
AcDbEntity
  8
0
100
AcDbLine
 62
7
  6
CONTINUOUS
 10
220.9019566424
 20
450.8083882297
 11
224.4644564636
 21
450.8083882297
  0
LINE
  5
416
100
AcDbEntity
  8
0
100
AcDbLine
 62
7
  6
CONTINUOUS
 10
224.2769566424
 20
451.7658349241
 11
219.7769566424
 21
451.7658349241
  0
LINE
  5
417
100
AcDbEntity
  8
KONSTRUKTIONSELEMENTE
100
AcDbLine
 62
7
  6
CONTINUOUS
 10
215.8027506264
 20
454.7658349241
 11
232.380108909
 21
454.7658349241
  0
LINE
  5
418
100
AcDbEntity
  8
KONSTRUKTIONSELEMENTE
100
AcDbLine
 62
7
  6
CONTINUOUS
 10
294.7738043758
 20
454.7658349241
 11
311.3511626584
 21
454.7658349241
  0
LINE
  5
419
100
AcDbEntity
  8
0
100
AcDbLine
 62
7
  6
CONTINUOUS
 10
238.4967053112
 20
501.6763660326
 11
238.1583665944
 21
501.9998329308
  0
LINE
  5
41A
100
AcDbEntity
  8
0
100
AcDbLine
 62
7
  6
CONTINUOUS
 10
278.9767585196
 20
504.3580051639
 11
279.2577575865
 21
503.9268633262
  0
LINE
  5
41B
100
AcDbEntity
  8
0
100
AcDbLine
 62
7
  6
CONTINUOUS
 10
288.3309644779
 20
500.1352347629
 11
288.5020417212
 21
499.8149370651
  0
LINE
  5
41C
100
AcDbEntity
  8
0
100
AcDbLine
 62
7
  6
CONTINUOUS
 10
289.9298943654
 20
501.8443325113
 11
290.1009716088
 21
501.5240348135
  0
LINE
  5
41D
100
AcDbEntity
  8
0
100
AcDbLine
 62
7
  6
CONTINUOUS
 10
283.0785565317
 20
507.1309177082
 11
283.2601801765
 21
506.7568150248
  0
LINE
  5
41E
100
AcDbEntity
  8
0
100
AcDbLine
 62
7
  6
CONTINUOUS
 10
264.2083339383
 20
512.3578737739
 11
263.8477019204
 21
512.8130794689
  0
LINE
  5
41F
100
AcDbEntity
  8
0
100
AcDbLine
 62
7
  6
CONTINUOUS
 10
279.5490256621
 20
504.4343201123
 11
279.4085238465
 21
504.6498923234
  0
LINE
  5
420
100
AcDbEntity
  8
0
100
AcDbLine
 62
7
  6
CONTINUOUS
 10
283.7502036401
 20
507.1501908824
 11
283.4692000089
 21
507.5813353046
  0
LINE
  5
421
100
AcDbEntity
  8
0
100
AcDbLine
 62
7
  6
CONTINUOUS
 10
237.3503391244
 20
501.6626758618
 11
237.6832748638
 21
501.5028982293
  0
LINE
  5
422
100
AcDbEntity
  8
0
100
AcDbLine
 62
7
  6
CONTINUOUS
 10
238.1583665944
 20
501.9998329308
 11
237.825430855
 21
502.1596105632
  0
LINE
  5
423
100
AcDbEntity
  8
0
100
AcDbLine
 62
7
  6
CONTINUOUS
 10
241.8582935397
 20
505.4183257114
 11
242.1622899827
 21
505.2086561232
  0
LINE
  5
424
100
AcDbEntity
  8
0
100
AcDbLine
 62
7
  6
CONTINUOUS
 10
242.7089640405
 20
505.6255538619
 11
242.4049675975
 21
505.83522345
  0
LINE
  5
425
100
AcDbEntity
  8
0
100
AcDbLine
 62
7
  6
CONTINUOUS
 10
263.2837249781
 20
512.5582492951
 11
263.5212934846
 21
512.3327408279
  0
LINE
  5
426
100
AcDbEntity
  8
0
100
AcDbLine
 62
7
  6
CONTINUOUS
 10
279.2577575865
 20
503.9268633262
 11
279.5970102715
 21
503.597212851
  0
LINE
  5
427
100
AcDbEntity
  8
0
100
AcDbLine
 62
7
  6
CONTINUOUS
 10
282.766754962
 20
504.7462610189
 11
282.3863758935
 21
505.2344445686
  0
LINE
  5
428
100
AcDbEntity
  8
0
100
AcDbLine
 62
7
  6
CONTINUOUS
 10
290.6643238067
 20
501.9584843199
 11
290.3258999658
 21
502.4353415103
  0
LINE
  5
429
100
AcDbEntity
  8
FASEN
100
AcDbLine
 62
7
  6
CONTINUOUS
 10
276.5769566424
 20
231.7658349241
 11
278.5769566424
 21
233.7658349241
  0
LINE
  5
42A
100
AcDbEntity
  8
0
100
AcDbLine
 62
7
  6
CONTINUOUS
 10
263.8477019204
 20
512.8130794689
 11
263.3768402344
 21
513.1471532656
  0
LINE
  5
42B
100
AcDbEntity
  8
0
100
AcDbLine
 62
7
  6
CONTINUOUS
 10
281.4748515322
 20
505.487782733
 11
282.0128596459
 21
505.0440514005
  0
LINE
  5
42C
100
AcDbEntity
  8
0
100
AcDbLine
 62
7
  6
CONTINUOUS
 10
279.9876583386
 20
504.0476279074
 11
279.5490256621
 21
504.4343201123
  0
LINE
  5
42D
100
AcDbEntity
  8
0
100
AcDbLine
 62
7
  6
CONTINUOUS
 10
282.6399238552
 20
507.5176099131
 11
283.0785565317
 21
507.1309177082
  0
LINE
  5
42E
100
AcDbEntity
  8
0
100
AcDbLine
 62
7
  6
CONTINUOUS
 10
284.5602249959
 20
500.2977044641
 11
286.5684148083
 21
498.4189618854
  0
LINE
  5
42F
100
AcDbEntity
  8
0
100
AcDbLine
 62
7
  6
CONTINUOUS
 10
287.1317670622
 20
498.8534114516
 11
285.5419514041
 21
500.340748132
  0
LINE
  5
430
100
AcDbEntity
  8
0
100
AcDbLine
 62
7
  6
CONTINUOUS
 10
286.7411488198
 20
501.6225714433
 11
288.3309644779
 21
500.1352347629
  0
LINE
  5
431
100
AcDbEntity
  8
0
100
AcDbLine
 62
7
  6
CONTINUOUS
 10
288.8106433769
 20
500.6479640156
 11
287.2208277188
 21
502.135300696
  0
LINE
  5
432
100
AcDbEntity
  8
0
100
AcDbLine
 62
7
  6
CONTINUOUS
 10
288.3400787073
 20
503.3316691917
 11
289.9298943654
 21
501.8443325113
  0
LINE
  5
433
100
AcDbEntity
  8
0
100
AcDbLine
 62
7
  6
CONTINUOUS
 10
290.3258999658
 20
502.4353415103
 11
288.3177101533
 21
504.314084089
  0
LINE
  5
434
100
AcDbEntity
  8
0
100
AcDbLine
 62
7
  6
CONTINUOUS
 10
281.7113271157
 20
503.5979933883
 11
281.3960644353
 21
503.5090914939
  0
LINE
  5
435
100
AcDbEntity
  8
0
100
AcDbLine
 62
7
  6
CONTINUOUS
 10
282.7358975414
 20
505.8433926373
 11
282.4206349018
 21
505.754490814
  0
LINE
  5
436
100
AcDbEntity
  8
0
100
AcDbLine
 62
7
  6
CONTINUOUS
 10
281.3651567532
 20
508.5191508334
 11
280.734631474
 21
508.3413471868
  0
LINE
  5
437
100
AcDbEntity
  8
0
100
AcDbLine
 62
7
  6
CONTINUOUS
 10
287.6412719487
 20
498.0562529501
 11
288.212081636
 21
498.1632296595
  0
LINE
  5
438
100
AcDbEntity
  8
0
100
AcDbLine
 62
7
  6
CONTINUOUS
 10
289.3201482915
 20
499.850805544
 11
289.8909579508
 21
499.9577822235
  0
LINE
  5
439
100
AcDbEntity
  8
0
100
AcDbLine
 62
7
  6
CONTINUOUS
 10
287.7899807221
 20
498.7183702395
 11
287.4627372719
 21
498.7040235047
  0
LINE
  5
43A
100
AcDbEntity
  8
0
100
AcDbLine
 62
7
  6
CONTINUOUS
 10
289.4688569809
 20
500.5129227436
 11
289.1416135867
 21
500.4985760687
  0
LINE
  5
43B
100
AcDbEntity
  8
0
100
AcDbLine
 62
7
  6
CONTINUOUS
 10
287.0667316226
 20
498.1130144534
 11
287.6412719487
 21
498.0562529501
  0
LINE
  5
43C
100
AcDbEntity
  8
0
100
AcDbLine
 62
7
  6
CONTINUOUS
 10
237.825430855
 20
502.1596105632
 11
237.2495465099
 21
502.2346098842
  0
LINE
  5
43D
100
AcDbEntity
  8
0
100
AcDbLine
 62
7
  6
CONTINUOUS
 10
242.4049675975
 20
505.83522345
 11
241.8477853335
 21
505.9989781502
  0
LINE
  5
43E
100
AcDbEntity
  8
0
100
AcDbLine
 62
7
  6
CONTINUOUS
 10
276.7196428311
 20
505.0139786645
 11
277.350194645
 21
504.7400066586
  0
LINE
  5
43F
100
AcDbEntity
  8
0
100
AcDbLine
 62
7
  6
CONTINUOUS
 10
287.4627372719
 20
498.7040235047
 11
287.1317670622
 21
498.8534114516
  0
LINE
  5
440
100
AcDbEntity
  8
0
100
AcDbLine
 62
7
  6
CONTINUOUS
 10
289.1416135867
 20
500.4985760687
 11
288.8106433769
 21
500.6479640156
  0
LINE
  5
441
100
AcDbEntity
  8
0
100
AcDbLine
 62
7
  6
CONTINUOUS
 10
275.5369566424
 20
510.3846117607
 11
274.6869566424
 21
510.847277287
  0
LINE
  5
442
100
AcDbEntity
  8
0
100
AcDbLine
 62
7
  6
CONTINUOUS
 10
279.5970102715
 20
503.597212851
 11
280.3920274168
 21
503.140891997
  0
LINE
  5
443
100
AcDbEntity
  8
0
100
AcDbLine
 62
7
  6
CONTINUOUS
 10
280.5839200603
 20
503.7053879197
 11
279.9876583386
 21
504.0476279074
  0
LINE
  5
444
100
AcDbEntity
  8
0
100
AcDbLine
 62
7
  6
CONTINUOUS
 10
279.3434074584
 20
505.2269777675
 11
278.8465234485
 21
505.5121773221
  0
LINE
  5
445
100
AcDbEntity
  8
0
100
AcDbLine
 62
7
  6
CONTINUOUS
 10
281.0773452341
 20
505.7159418545
 11
281.4748515322
 21
505.487782733
  0
LINE
  5
446
100
AcDbEntity
  8
0
100
AcDbLine
 62
7
  6
CONTINUOUS
 10
281.7078659641
 20
505.8937481122
 11
281.310359666
 21
506.1219072336
  0
LINE
  5
447
100
AcDbEntity
  8
0
100
AcDbLine
 62
7
  6
CONTINUOUS
 10
280.4022416048
 20
507.9924209352
 11
280.8991278893
 21
507.7072200751
  0
LINE
  5
448
100
AcDbEntity
  8
0
100
AcDbLine
 62
7
  6
CONTINUOUS
 10
282.2424175571
 20
507.7457690346
 11
282.6399238552
 21
507.5176099131
  0
LINE
  5
449
100
AcDbEntity
  8
0
100
AcDbLine
 62
7
  6
CONTINUOUS
 10
282.8318164579
 20
508.0821057647
 11
282.6330610343
 21
508.196186631
  0
LINE
  5
44A
100
AcDbEntity
  8
0
100
AcDbLine
 62
7
  6
CONTINUOUS
 10
286.5684148083
 20
498.4189618854
 11
287.0667316226
 21
498.1130144534
  0
LINE
  5
44B
100
AcDbEntity
  8
0
100
AcDbLine
 62
7
  6
CONTINUOUS
 10
283.697307682
 20
503.3794060762
 11
284.9869457673
 21
502.4253673386
  0
LINE
  5
44C
100
AcDbEntity
  8
0
100
AcDbLine
 62
7
  6
CONTINUOUS
 10
285.3349230991
 20
502.8957516135
 11
284.0452850138
 21
503.8497903512
  0
LINE
  5
44D
100
AcDbEntity
  8
0
100
AcDbLine
 62
7
  6
CONTINUOUS
 10
283.4692000089
 20
507.5813353046
 11
282.8318164579
 21
508.0821057647
  0
LINE
  5
44E
100
AcDbEntity
  8
0
100
AcDbLine
 62
7
  6
CONTINUOUS
 10
255.0766365003
 20
506.6348641833
 11
255.9655350447
 21
506.8587738812
  0
LINE
  5
44F
100
AcDbEntity
  8
0
100
AcDbLine
 62
7
  6
CONTINUOUS
 10
256.3998739362
 20
512.6399899501
 11
255.7331993921
 21
512.4720575165
  0
LINE
  5
450
100
AcDbEntity
  8
0
100
AcDbLine
 62
7
  6
CONTINUOUS
 10
252.6220519436
 20
511.6883729331
 11
251.9553773995
 21
511.5204404995
  0
LINE
  5
451
100
AcDbEntity
  8
0
100
AcDbLine
 62
7
  6
CONTINUOUS
 10
262.9112561025
 20
510.202632798
 11
263.4795109925
 21
510.3405199298
  0
LINE
  5
452
100
AcDbEntity
  8
0
100
AcDbLine
 62
7
  6
CONTINUOUS
 10
237.2495465099
 20
502.2346098842
 11
236.6790649051
 21
502.1459201659
  0
LINE
  5
453
100
AcDbEntity
  8
0
100
AcDbLine
 62
7
  6
CONTINUOUS
 10
258.6651640776
 20
507.3798328063
 11
259.3460276618
 21
507.4751272433
  0
LINE
  5
454
100
AcDbEntity
  8
0
100
AcDbLine
 62
7
  6
CONTINUOUS
 10
282.3863758935
 20
505.2344445686
 11
282.9586430156
 21
505.3107594815
  0
LINE
  5
455
100
AcDbEntity
  8
0
100
AcDbLine
 62
7
  6
CONTINUOUS
 10
281.3618054065
 20
502.9890452129
 11
281.7764435038
 21
503.0209079442
  0
LINE
  5
456
100
AcDbEntity
  8
0
100
AcDbLine
 62
7
  6
CONTINUOUS
 10
281.2726395878
 20
507.8976158543
 11
281.6872776646
 21
507.92947855
  0
LINE
  5
457
100
AcDbEntity
  8
0
100
AcDbLine
 62
7
  6
CONTINUOUS
 10
260.2529312025
 20
507.646296804
 11
260.9399716562
 21
507.6714297501
  0
LINE
  5
458
100
AcDbEntity
  8
0
100
AcDbLine
 62
7
  6
CONTINUOUS
 10
260.8501347414
 20
510.1272339598
 11
262.9112561025
 21
510.202632798
  0
LINE
  5
459
100
AcDbEntity
  8
0
100
AcDbLine
 62
7
  6
CONTINUOUS
 10
237.0228058987
 20
501.6587642181
 11
237.3503391244
 21
501.6626758618
  0
LINE
  5
45A
100
AcDbEntity
  8
0
100
AcDbLine
 62
7
  6
CONTINUOUS
 10
241.8477853335
 20
505.9989781502
 11
241.2704518616
 21
506.000198869
  0
LINE
  5
45B
100
AcDbEntity
  8
0
100
AcDbLine
 62
7
  6
CONTINUOUS
 10
280.847787328
 20
503.0142242292
 11
281.3618054065
 21
502.9890452129
  0
LINE
  5
45C
100
AcDbEntity
  8
0
100
AcDbLine
 62
7
  6
CONTINUOUS
 10
281.3960644353
 20
503.5090914939
 11
281.1390554037
 21
503.5216810154
  0
LINE
  5
45D
100
AcDbEntity
  8
0
100
AcDbLine
 62
7
  6
CONTINUOUS
 10
281.8791702673
 20
508.4939744015
 11
281.3651567532
 21
508.5191508334
  0
LINE
  5
45E
100
AcDbEntity
  8
0
100
AcDbLine
 62
7
  6
CONTINUOUS
 10
241.53414641
 20
505.4654617157
 11
241.8582935397
 21
505.4183257114
  0
LINE
  5
45F
100
AcDbEntity
  8
0
100
AcDbLine
 62
7
  6
CONTINUOUS
 10
267.5069566424
 20
507.9920688783
 11
268.8869566424
 21
507.7571726114
  0
LINE
  5
460
100
AcDbEntity
  8
0
100
AcDbLine
 62
7
  6
CONTINUOUS
 10
282.4206349018
 20
505.754490814
 11
281.7078659641
 21
505.8937481122
  0
LINE
  5
461
100
AcDbEntity
  8
0
100
AcDbLine
 62
7
  6
CONTINUOUS
 10
280.3920274168
 20
503.140891997
 11
280.847787328
 21
503.0142242292
  0
LINE
  5
462
100
AcDbEntity
  8
0
100
AcDbLine
 62
7
  6
CONTINUOUS
 10
289.0728513805
 20
499.9219137446
 11
289.3201482915
 21
499.850805544
  0
LINE
  5
463
100
AcDbEntity
  8
0
100
AcDbLine
 62
7
  6
CONTINUOUS
 10
262.9359268035
 20
512.6626258641
 11
263.2837249781
 21
512.5582492951
  0
LINE
  5
464
100
AcDbEntity
  8
0
100
AcDbLine
 62
7
  6
CONTINUOUS
 10
281.1390554037
 20
503.5216810154
 11
280.5839200603
 21
503.7053879197
  0
LINE
  5
465
100
AcDbEntity
  8
0
100
AcDbLine
 62
7
  6
CONTINUOUS
 10
281.6872776646
 20
507.92947855
 11
282.2424175571
 21
507.7457690346
  0
LINE
  5
466
100
AcDbEntity
  8
0
100
AcDbLine
 62
7
  6
CONTINUOUS
 10
282.6330610343
 20
508.196186631
 11
281.8791702673
 21
508.4939744015
  0
LINE
  5
467
100
AcDbEntity
  8
0
100
AcDbLine
 62
7
  6
CONTINUOUS
 10
279.5419706922
 20
509.7844211696
 11
278.9114188784
 21
510.0583931755
  0
LINE
  5
468
100
AcDbEntity
  8
0
100
AcDbLine
 62
7
  6
CONTINUOUS
 10
258.583672166
 20
512.9220359168
 11
257.9028085819
 21
512.8267414799
  0
LINE
  5
469
100
AcDbEntity
  8
0
100
AcDbLine
 62
7
  6
CONTINUOUS
 10
263.0000960318
 20
510.9084799064
 11
260.8244670548
 21
510.8288922119
  0
LINE
  5
46A
100
AcDbEntity
  8
0
100
AcDbLine
 62
7
  6
CONTINUOUS
 10
260.7602978265
 20
512.5830381696
 11
262.9359268035
 21
512.6626258641
  0
LINE
  5
46B
100
AcDbEntity
  8
0
100
AcDbLine
 62
7
  6
CONTINUOUS
 10
262.8000294488
 20
513.2431522179
 11
260.051867634
 21
513.1426204336
  0
LINE
  5
46C
100
AcDbEntity
  8
0
100
AcDbLine
 62
7
  6
CONTINUOUS
 10
263.3768402344
 20
513.1471532656
 11
262.8000294488
 21
513.2431522179
  0
LINE
  5
46D
100
AcDbEntity
  8
FASEN
100
AcDbLine
 62
7
  6
CONTINUOUS
 10
482.2594241321
 20
231.7658349241
 11
456.2597171342
 21
231.7658349241
  0
LINE
  5
46E
100
AcDbEntity
  8
FASEN
100
AcDbLine
 62
7
  6
CONTINUOUS
 10
484.2595706331
 20
233.7658349241
 11
454.2595706331
 21
233.7658349241
  0
LINE
  5
46F
100
AcDbEntity
  8
FASEN
100
AcDbLine
 62
7
  6
CONTINUOUS
 10
456.2595706331
 20
231.7658349241
 11
454.2595706331
 21
233.7658349241
  0
LINE
  5
470
100
AcDbEntity
  8
KONSTRUKTIONSELEMENTE
100
AcDbLine
 62
7
  6
CONTINUOUS
 10
426.7595706331
 20
276.7658349241
 11
511.7595706331
 21
276.7658349241
  0
LINE
  5
471
100
AcDbEntity
  8
0
100
AcDbLine
 62
7
  6
CONTINUOUS
 10
497.8686215018
 20
282.6594519431
 11
497.2371441631
 21
282.5105157907
  0
LINE
  5
472
100
AcDbEntity
  8
0
100
AcDbLine
 62
7
  6
CONTINUOUS
 10
492.6905115159
 20
282.6594519431
 11
492.0590341772
 21
282.5105157907
  0
LINE
  5
473
100
AcDbEntity
  8
0
100
AcDbLine
 62
7
  6
CONTINUOUS
 10
496.6056682697
 20
287.8722180093
 11
497.2371441631
 21
288.0211541618
  0
LINE
  5
474
100
AcDbEntity
  8
0
100
AcDbLine
 62
7
  6
CONTINUOUS
 10
496.1056682697
 20
287.8722180093
 11
496.7371441631
 21
288.0211541618
  0
LINE
  5
475
100
AcDbEntity
  8
0
100
AcDbLine
 62
7
  6
CONTINUOUS
 10
490.7960809451
 20
287.8722180093
 11
491.4275575612
 21
288.0211541618
  0
LINE
  5
476
100
AcDbEntity
  8
0
100
AcDbLine
 62
7
  6
CONTINUOUS
 10
490.2960809451
 20
287.8722180093
 11
490.9275575612
 21
288.0211541618
  0
LINE
  5
477
100
AcDbEntity
  8
0
100
AcDbLine
 62
7
  6
CONTINUOUS
 10
497.2371441631
 20
281.7658349241
 11
497.9949163914
 21
281.9147710896
  0
LINE
  5
478
100
AcDbEntity
  8
0
100
AcDbLine
 62
7
  6
CONTINUOUS
 10
496.9871441631
 20
281.8149711156
 11
497.4949163914
 21
281.9147710896
  0
LINE
  5
479
100
AcDbEntity
  8
0
100
AcDbLine
 62
7
  6
CONTINUOUS
 10
497.2371441631
 20
288.7658349241
 11
496.4793719348
 21
288.6168987716
  0
LINE
  5
47A
100
AcDbEntity
  8
0
100
AcDbLine
 62
7
  6
CONTINUOUS
 10
491.5538531734
 20
288.7658349241
 11
490.6697853328
 21
288.6168987716
  0
LINE
  5
47B
100
AcDbEntity
  8
0
100
AcDbLine
 62
7
  6
CONTINUOUS
 10
434.1531641726
 20
279.2658349241
 11
461.8659770937
 21
279.2658349241
  0
LINE
  5
47C
100
AcDbEntity
  8
0
100
AcDbLine
 62
7
  6
CONTINUOUS
 10
482.3342908214
 20
281.7658349241
 11
483.0920630497
 21
281.7658349241
  0
LINE
  5
47D
100
AcDbEntity
  8
0
100
AcDbLine
 62
7
  6
CONTINUOUS
 10
484.8601981889
 20
281.7658349241
 11
485.8705610998
 21
281.7658349241
  0
LINE
  5
47E
100
AcDbEntity
  8
0
100
AcDbLine
 62
7
  6
CONTINUOUS
 10
487.6386964196
 20
281.7658349241
 11
488.3964686479
 21
281.7658349241
  0
LINE
  5
47F
100
AcDbEntity
  8
0
100
AcDbLine
 62
7
  6
CONTINUOUS
 10
491.1749670593
 20
281.7658349241
 11
492.1853297895
 21
281.7658349241
  0
LINE
  5
480
100
AcDbEntity
  8
0
100
AcDbLine
 62
7
  6
CONTINUOUS
 10
497.9949163914
 20
281.9147710896
 11
497.4949163914
 21
281.9147710896
  0
LINE
  5
481
100
AcDbEntity
  8
0
100
AcDbLine
 62
7
  6
CONTINUOUS
 10
492.6905115159
 20
281.9147710896
 11
492.1905115159
 21
281.9147710896
  0
LINE
  5
482
100
AcDbEntity
  8
0
100
AcDbLine
 62
7
  6
CONTINUOUS
 10
493.1956925197
 20
282.2126434336
 11
492.6956925197
 21
282.2126434336
  0
LINE
  5
483
100
AcDbEntity
  8
0
100
AcDbLine
 62
7
  6
CONTINUOUS
 10
439.5658228946
 20
282.2658349241
 11
440.9318484017
 21
282.2658349241
  0
LINE
  5
484
100
AcDbEntity
  8
0
100
AcDbLine
 62
7
  6
CONTINUOUS
 10
443.7876965832
 20
282.2658349241
 11
445.1537224
 21
282.2658349241
  0
LINE
  5
485
100
AcDbEntity
  8
0
100
AcDbLine
 62
7
  6
CONTINUOUS
 10
446.3857727946
 20
282.2658349241
 11
447.7517986113
 21
282.2658349241
  0
LINE
  5
486
100
AcDbEntity
  8
0
100
AcDbLine
 62
7
  6
CONTINUOUS
 10
450.6076472575
 20
282.2658349241
 11
451.7571663103
 21
282.2658349241
  0
LINE
  5
487
100
AcDbEntity
  8
0
100
AcDbLine
 62
7
  6
CONTINUOUS
 10
455.3707861524
 20
282.2658349241
 11
456.5203052052
 21
282.2658349241
  0
LINE
  5
488
100
AcDbEntity
  8
0
100
AcDbLine
 62
7
  6
CONTINUOUS
 10
498.6263937301
 20
282.361579586
 11
498.1263937301
 21
282.361579586
  0
LINE
  5
489
100
AcDbEntity
  8
0
100
AcDbLine
 62
7
  6
CONTINUOUS
 10
457.0615714955
 20
282.3934944945
 11
456.5615714955
 21
282.3934944945
  0
LINE
  5
48A
100
AcDbEntity
  8
0
100
AcDbLine
 62
7
  6
CONTINUOUS
 10
452.2984313617
 20
282.3934944945
 11
451.7984313617
 21
282.3934944945
  0
LINE
  5
48B
100
AcDbEntity
  8
0
100
AcDbLine
 62
7
  6
CONTINUOUS
 10
441.4731142274
 20
282.3934944945
 11
440.9731142274
 21
282.3934944945
  0
LINE
  5
48C
100
AcDbEntity
  8
0
100
AcDbLine
 62
7
  6
CONTINUOUS
 10
497.2371441631
 20
282.5105157907
 11
496.7371441631
 21
282.5105157907
  0
LINE
  5
48D
100
AcDbEntity
  8
0
100
AcDbLine
 62
7
  6
CONTINUOUS
 10
493.5745786338
 20
282.5105157907
 11
493.0745786338
 21
282.5105157907
  0
LINE
  5
48E
100
AcDbEntity
  8
0
100
AcDbLine
 62
7
  6
CONTINUOUS
 10
492.0590341772
 20
282.5105157907
 11
490.8012619489
 21
282.5105157907
  0
LINE
  5
48F
100
AcDbEntity
  8
0
100
AcDbLine
 62
7
  6
CONTINUOUS
 10
485.3653797347
 20
282.5105157907
 11
484.8653797347
 21
282.5105157907
  0
LINE
  5
490
100
AcDbEntity
  8
0
100
AcDbLine
 62
7
  6
CONTINUOUS
 10
441.9061268261
 20
282.6488136465
 11
441.4061268261
 21
282.6488136465
  0
LINE
  5
491
100
AcDbEntity
  8
0
100
AcDbLine
 62
7
  6
CONTINUOUS
 10
496.6056682697
 20
282.6594519431
 11
496.1056682697
 21
282.6594519431
  0
LINE
  5
492
100
AcDbEntity
  8
0
100
AcDbLine
 62
7
  6
CONTINUOUS
 10
490.6697853328
 20
282.6594519431
 11
490.1697853328
 21
282.6594519431
  0
LINE
  5
493
100
AcDbEntity
  8
0
100
AcDbLine
 62
7
  6
CONTINUOUS
 10
457.6028377858
 20
282.7764732058
 11
457.1028377858
 21
282.7764732058
  0
LINE
  5
494
100
AcDbEntity
  8
0
100
AcDbLine
 62
7
  6
CONTINUOUS
 10
452.8396976521
 20
282.7764732058
 11
452.3396976521
 21
282.7764732058
  0
LINE
  5
495
100
AcDbEntity
  8
0
100
AcDbLine
 62
7
  6
CONTINUOUS
 10
499.0052798443
 20
282.8083880956
 11
498.5052798443
 21
282.8083880956
  0
LINE
  5
496
100
AcDbEntity
  8
0
100
AcDbLine
 62
7
  6
CONTINUOUS
 10
490.417194831
 20
282.8083880956
 11
489.917194831
 21
282.8083880956
  0
LINE
  5
497
100
AcDbEntity
  8
0
100
AcDbLine
 62
7
  6
CONTINUOUS
 10
456.0203052052
 20
282.9041328097
 11
455.3707861524
 21
282.9041328097
  0
LINE
  5
498
100
AcDbEntity
  8
0
100
AcDbLine
 62
7
  6
CONTINUOUS
 10
451.1489123089
 20
282.9041328097
 11
450.71590002
 21
282.9041328097
  0
LINE
  5
499
100
AcDbEntity
  8
0
100
AcDbLine
 62
7
  6
CONTINUOUS
 10
496.2267821556
 20
282.957324248
 11
495.7267821556
 21
282.957324248
  0
LINE
  5
49A
100
AcDbEntity
  8
0
100
AcDbLine
 62
7
  6
CONTINUOUS
 10
493.8271698584
 20
282.957324248
 11
493.3271698584
 21
282.957324248
  0
LINE
  5
49B
100
AcDbEntity
  8
0
100
AcDbLine
 62
7
  6
CONTINUOUS
 10
455.4377738634
 20
283.031792369
 11
454.9377738634
 21
283.031792369
  0
LINE
  5
49C
100
AcDbEntity
  8
0
100
AcDbLine
 62
7
  6
CONTINUOUS
 10
450.782887731
 20
283.031792369
 11
450.282887731
 21
283.031792369
  0
LINE
  5
49D
100
AcDbEntity
  8
0
100
AcDbLine
 62
7
  6
CONTINUOUS
 10
440.4318484017
 20
283.031792369
 11
439.5658228946
 21
283.031792369
  0
LINE
  5
49E
100
AcDbEntity
  8
0
100
AcDbLine
 62
7
  6
CONTINUOUS
 10
490.1646036064
 20
283.1062605048
 11
489.6646036064
 21
283.1062605048
  0
LINE
  5
49F
100
AcDbEntity
  8
0
100
AcDbLine
 62
7
  6
CONTINUOUS
 10
453.1644571785
 20
283.1594519282
 11
452.6644571785
 21
283.1594519282
  0
LINE
  5
4A0
100
AcDbEntity
  8
0
100
AcDbLine
 62
7
  6
CONTINUOUS
 10
442.3391397344
 20
283.1594519282
 11
441.8391397344
 21
283.1594519282
  0
LINE
  5
4A1
100
AcDbEntity
  8
0
100
AcDbLine
 62
7
  6
CONTINUOUS
 10
439.6328102185
 20
283.1594519282
 11
439.1328102185
 21
283.1594519282
  0
LINE
  5
4A2
100
AcDbEntity
  8
0
100
AcDbLine
 62
7
  6
CONTINUOUS
 10
457.9275973123
 20
283.2871114875
 11
457.4275973123
 21
283.2871114875
  0
LINE
  5
4A3
100
AcDbEntity
  8
0
100
AcDbLine
 62
7
  6
CONTINUOUS
 10
455.113014337
 20
283.2871114875
 11
454.613014337
 21
283.2871114875
  0
LINE
  5
4A4
100
AcDbEntity
  8
0
100
AcDbLine
 62
7
  6
CONTINUOUS
 10
450.3498742032
 20
283.2871114875
 11
449.8498742032
 21
283.2871114875
  0
LINE
  5
4A5
100
AcDbEntity
  8
0
100
AcDbLine
 62
7
  6
CONTINUOUS
 10
499.2578710688
 20
283.4041328097
 11
498.7578710688
 21
283.4041328097
  0
LINE
  5
4A6
100
AcDbEntity
  8
0
100
AcDbLine
 62
7
  6
CONTINUOUS
 10
493.953464748
 20
283.4041328097
 11
493.453464748
 21
283.4041328097
  0
LINE
  5
4A7
100
AcDbEntity
  8
0
100
AcDbLine
 62
7
  6
CONTINUOUS
 10
490.0383087168
 20
283.4041328097
 11
489.4068313781
 21
283.4041328097
  0
LINE
  5
4A8
100
AcDbEntity
  8
0
100
AcDbLine
 62
7
  6
CONTINUOUS
 10
439.3080506921
 20
283.5424306954
 11
438.8080506921
 21
283.5424306954
  0
LINE
  5
4A9
100
AcDbEntity
  8
0
100
AcDbLine
 62
7
  6
CONTINUOUS
 10
442.5556458789
 20
283.6700902546
 11
442.0556458789
 21
283.6700902546
  0
LINE
  5
4AA
100
AcDbEntity
  8
0
100
AcDbLine
 62
7
  6
CONTINUOUS
 10
454.8965075731
 20
283.7977498139
 11
453.7469885203
 21
283.7977498139
  0
LINE
  5
4AB
100
AcDbEntity
  8
0
100
AcDbLine
 62
7
  6
CONTINUOUS
 10
453.3809639424
 20
283.7977498139
 11
452.8809639424
 21
283.7977498139
  0
LINE
  5
4AC
100
AcDbEntity
  8
0
100
AcDbLine
 62
7
  6
CONTINUOUS
 10
450.0251146768
 20
283.7977498139
 11
449.5251146768
 21
283.7977498139
  0
LINE
  5
4AD
100
AcDbEntity
  8
0
100
AcDbLine
 62
7
  6
CONTINUOUS
 10
499.3841659584
 20
283.8509412671
 11
498.8841659584
 21
283.8509412671
  0
LINE
  5
4AE
100
AcDbEntity
  8
0
100
AcDbLine
 62
7
  6
CONTINUOUS
 10
495.7215997065
 20
283.8509412671
 11
495.2215997065
 21
283.8509412671
  0
LINE
  5
4AF
100
AcDbEntity
  8
0
100
AcDbLine
 62
7
  6
CONTINUOUS
 10
458.1441028373
 20
283.9254093731
 11
457.6441028373
 21
283.9254093731
  0
LINE
  5
4B0
100
AcDbEntity
  8
0
100
AcDbLine
 62
7
  6
CONTINUOUS
 10
439.1997975425
 20
283.9254093731
 11
438.0502784896
 21
283.9254093731
  0
LINE
  5
4B1
100
AcDbEntity
  8
0
100
AcDbLine
 62
7
  6
CONTINUOUS
 10
493.953464748
 20
283.9998774195
 11
493.453464748
 21
283.9998774195
  0
LINE
  5
4B2
100
AcDbEntity
  8
0
100
AcDbLine
 62
7
  6
CONTINUOUS
 10
453.3809639424
 20
284.1807284916
 11
452.8809639424
 21
284.1807284916
  0
LINE
  5
4B3
100
AcDbEntity
  8
0
100
AcDbLine
 62
7
  6
CONTINUOUS
 10
450.0251146768
 20
284.1807284916
 11
449.5251146768
 21
284.1807284916
  0
LINE
  5
4B4
100
AcDbEntity
  8
0
100
AcDbLine
 62
7
  6
CONTINUOUS
 10
442.5556458789
 20
284.3083880509
 11
442.0556458789
 21
284.3083880509
  0
LINE
  5
4B5
100
AcDbEntity
  8
0
100
AcDbLine
 62
7
  6
CONTINUOUS
 10
458.1441028373
 20
284.4360476101
 11
457.6441028373
 21
284.4360476101
  0
LINE
  5
4B6
100
AcDbEntity
  8
0
100
AcDbLine
 62
7
  6
CONTINUOUS
 10
499.510460848
 20
284.595622238
 11
499.010460848
 21
284.595622238
  0
LINE
  5
4B7
100
AcDbEntity
  8
0
100
AcDbLine
 62
7
  6
CONTINUOUS
 10
493.8271698584
 20
284.595622238
 11
493.3271698584
 21
284.595622238
  0
LINE
  5
4B8
100
AcDbEntity
  8
0
100
AcDbLine
 62
7
  6
CONTINUOUS
 10
450.3498742032
 20
284.6913669074
 11
449.8498742032
 21
284.6913669074
  0
LINE
  5
4B9
100
AcDbEntity
  8
0
100
AcDbLine
 62
7
  6
CONTINUOUS
 10
495.5953048169
 20
284.7445583905
 11
495.0953048169
 21
284.7445583905
  0
LINE
  5
4BA
100
AcDbEntity
  8
0
100
AcDbLine
 62
7
  6
CONTINUOUS
 10
453.1644571785
 20
284.8190264667
 11
452.6644571785
 21
284.8190264667
  0
LINE
  5
4BB
100
AcDbEntity
  8
0
100
AcDbLine
 62
7
  6
CONTINUOUS
 10
442.3391397344
 20
284.8190264667
 11
441.8391397344
 21
284.8190264667
  0
LINE
  5
4BC
100
AcDbEntity
  8
0
100
AcDbLine
 62
7
  6
CONTINUOUS
 10
450.782887731
 20
284.9466860259
 11
450.282887731
 21
284.9466860259
  0
LINE
  5
4BD
100
AcDbEntity
  8
0
100
AcDbLine
 62
7
  6
CONTINUOUS
 10
439.7823293488
 20
284.9466860259
 11
440.4318484017
 21
284.9466860259
  0
LINE
  5
4BE
100
AcDbEntity
  8
0
100
AcDbLine
 62
7
  6
CONTINUOUS
 10
453.7469885203
 20
284.9466860259
 11
455.0047615745
 21
284.9466860259
  0
LINE
  5
4BF
100
AcDbEntity
  8
0
100
AcDbLine
 62
7
  6
CONTINUOUS
 10
493.5745786338
 20
285.0424306954
 11
493.0745786338
 21
285.0424306954
  0
LINE
  5
4C0
100
AcDbEntity
  8
0
100
AcDbLine
 62
7
  6
CONTINUOUS
 10
491.4275575612
 20
285.0424306954
 11
491.9327392876
 21
285.0424306954
  0
LINE
  5
4C1
100
AcDbEntity
  8
0
100
AcDbLine
 62
7
  6
CONTINUOUS
 10
457.9275973123
 20
285.0743455852
 11
457.4275973123
 21
285.0743455852
  0
LINE
  5
4C2
100
AcDbEntity
  8
0
100
AcDbLine
 62
7
  6
CONTINUOUS
 10
450.71590002
 20
285.0743455852
 11
451.1489123089
 21
285.0743455852
  0
LINE
  5
4C3
100
AcDbEntity
  8
0
100
AcDbLine
 62
7
  6
CONTINUOUS
 10
452.7314448895
 20
285.2020051444
 11
452.2314448895
 21
285.2020051444
  0
LINE
  5
4C4
100
AcDbEntity
  8
0
100
AcDbLine
 62
7
  6
CONTINUOUS
 10
455.4377738634
 20
285.3296647037
 11
454.9377738634
 21
285.3296647037
  0
LINE
  5
4C5
100
AcDbEntity
  8
0
100
AcDbLine
 62
7
  6
CONTINUOUS
 10
452.5149381256
 20
285.3296647037
 11
452.0149381256
 21
285.3296647037
  0
LINE
  5
4C6
100
AcDbEntity
  8
0
100
AcDbLine
 62
7
  6
CONTINUOUS
 10
441.9061268261
 20
285.3296647037
 11
441.4061268261
 21
285.3296647037
  0
LINE
  5
4C7
100
AcDbEntity
  8
0
100
AcDbLine
 62
7
  6
CONTINUOUS
 10
492.9431020178
 20
285.3403030003
 11
492.4431020178
 21
285.3403030003
  0
LINE
  5
4C8
100
AcDbEntity
  8
0
100
AcDbLine
 62
7
  6
CONTINUOUS
 10
452.7314448895
 20
285.4573242629
 11
452.2314448895
 21
285.4573242629
  0
LINE
  5
4C9
100
AcDbEntity
  8
0
100
AcDbLine
 62
7
  6
CONTINUOUS
 10
455.3707861524
 20
285.4573242629
 11
456.0203052052
 21
285.4573242629
  0
LINE
  5
4CA
100
AcDbEntity
  8
0
100
AcDbLine
 62
7
  6
CONTINUOUS
 10
457.6028377858
 20
285.5849838222
 11
457.1028377858
 21
285.5849838222
  0
LINE
  5
4CB
100
AcDbEntity
  8
0
100
AcDbLine
 62
7
  6
CONTINUOUS
 10
451.1489123089
 20
285.5849838222
 11
450.71590002
 21
285.5849838222
  0
LINE
  5
4CC
100
AcDbEntity
  8
0
100
AcDbLine
 62
7
  6
CONTINUOUS
 10
441.4731142274
 20
285.5849838222
 11
440.9731142274
 21
285.5849838222
  0
LINE
  5
4CD
100
AcDbEntity
  8
0
100
AcDbLine
 62
7
  6
CONTINUOUS
 10
491.9327392876
 20
285.6381753052
 11
491.4275575612
 21
285.6381753052
  0
LINE
  5
4CE
100
AcDbEntity
  8
0
100
AcDbLine
 62
7
  6
CONTINUOUS
 10
450.782887731
 20
285.7126433814
 11
450.282887731
 21
285.7126433814
  0
LINE
  5
4CF
100
AcDbEntity
  8
0
100
AcDbLine
 62
7
  6
CONTINUOUS
 10
440.9318484017
 20
285.7126433814
 11
439.7823293488
 21
285.7126433814
  0
LINE
  5
4D0
100
AcDbEntity
  8
0
100
AcDbLine
 62
7
  6
CONTINUOUS
 10
495.5953048169
 20
285.7871114577
 11
495.0953048169
 21
285.7871114577
  0
LINE
  5
4D1
100
AcDbEntity
  8
0
100
AcDbLine
 62
7
  6
CONTINUOUS
 10
493.4482837442
 20
285.7871114577
 11
492.9482837442
 21
285.7871114577
  0
LINE
  5
4D2
100
AcDbEntity
  8
0
100
AcDbLine
 62
7
  6
CONTINUOUS
 10
453.056204416
 20
285.8403029407
 11
452.556204416
 21
285.8403029407
  0
LINE
  5
4D3
100
AcDbEntity
  8
0
100
AcDbLine
 62
7
  6
CONTINUOUS
 10
439.9575698224
 20
285.8403029407
 11
439.4575698224
 21
285.8403029407
  0
LINE
  5
4D4
100
AcDbEntity
  8
0
100
AcDbLine
 62
7
  6
CONTINUOUS
 10
499.510460848
 20
285.9360476101
 11
499.010460848
 21
285.9360476101
  0
LINE
  5
4D5
100
AcDbEntity
  8
0
100
AcDbLine
 62
7
  6
CONTINUOUS
 10
457.0615714955
 20
285.9679624999
 11
456.5615714955
 21
285.9679624999
  0
LINE
  5
4D6
100
AcDbEntity
  8
0
100
AcDbLine
 62
7
  6
CONTINUOUS
 10
456.5203052052
 20
286.0956220592
 11
455.3707861524
 21
286.0956220592
  0
LINE
  5
4D7
100
AcDbEntity
  8
0
100
AcDbLine
 62
7
  6
CONTINUOUS
 10
450.3498742032
 20
286.0956220592
 11
449.8498742032
 21
286.0956220592
  0
LINE
  5
4D8
100
AcDbEntity
  8
0
100
AcDbLine
 62
7
  6
CONTINUOUS
 10
439.6328102185
 20
286.0956220592
 11
439.1328102185
 21
286.0956220592
  0
LINE
  5
4D9
100
AcDbEntity
  8
0
100
AcDbLine
 62
7
  6
CONTINUOUS
 10
493.7008742461
 20
286.233919915
 11
493.2008742461
 21
286.233919915
  0
LINE
  5
4DA
100
AcDbEntity
  8
0
100
AcDbLine
 62
7
  6
CONTINUOUS
 10
453.272709941
 20
286.3509411777
 11
452.772709941
 21
286.3509411777
  0
LINE
  5
4DB
100
AcDbEntity
  8
0
100
AcDbLine
 62
7
  6
CONTINUOUS
 10
450.1333686782
 20
286.4786007369
 11
449.6333686782
 21
286.4786007369
  0
LINE
  5
4DC
100
AcDbEntity
  8
0
100
AcDbLine
 62
7
  6
CONTINUOUS
 10
439.5245570689
 20
286.4786007369
 11
439.0245570689
 21
286.4786007369
  0
LINE
  5
4DD
100
AcDbEntity
  8
0
100
AcDbLine
 62
7
  6
CONTINUOUS
 10
499.3841659584
 20
286.6807283724
 11
498.8841659584
 21
286.6807283724
  0
LINE
  5
4DE
100
AcDbEntity
  8
0
100
AcDbLine
 62
7
  6
CONTINUOUS
 10
495.7215997065
 20
286.6807283724
 11
495.2215997065
 21
286.6807283724
  0
LINE
  5
4DF
100
AcDbEntity
  8
0
100
AcDbLine
 62
7
  6
CONTINUOUS
 10
453.272709941
 20
286.7339198554
 11
452.772709941
 21
286.7339198554
  0
LINE
  5
4E0
100
AcDbEntity
  8
0
100
AcDbLine
 62
7
  6
CONTINUOUS
 10
450.1333686782
 20
286.7339198554
 11
449.6333686782
 21
286.7339198554
  0
LINE
  5
4E1
100
AcDbEntity
  8
0
100
AcDbLine
 62
7
  6
CONTINUOUS
 10
439.5245570689
 20
286.7339198554
 11
439.0245570689
 21
286.7339198554
  0
LINE
  5
4E2
100
AcDbEntity
  8
0
100
AcDbLine
 62
7
  6
CONTINUOUS
 10
493.8271698584
 20
286.8296645249
 11
493.3271698584
 21
286.8296645249
  0
LINE
  5
4E3
100
AcDbEntity
  8
0
100
AcDbLine
 62
7
  6
CONTINUOUS
 10
441.0813672996
 20
286.8615797723
 11
442.2308863525
 21
286.8615797723
  0
LINE
  5
4E4
100
AcDbEntity
  8
0
100
AcDbLine
 62
7
  6
CONTINUOUS
 10
450.3498742032
 20
287.1168988908
 11
449.8498742032
 21
287.1168988908
  0
LINE
  5
4E5
100
AcDbEntity
  8
0
100
AcDbLine
 62
7
  6
CONTINUOUS
 10
439.6328102185
 20
287.1168988908
 11
439.1328102185
 21
287.1168988908
  0
LINE
  5
4E6
100
AcDbEntity
  8
0
100
AcDbLine
 62
7
  6
CONTINUOUS
 10
499.2578710688
 20
287.127537247
 11
498.7578710688
 21
287.127537247
  0
LINE
  5
4E7
100
AcDbEntity
  8
0
100
AcDbLine
 62
7
  6
CONTINUOUS
 10
493.8271698584
 20
287.127537247
 11
493.3271698584
 21
287.127537247
  0
LINE
  5
4E8
100
AcDbEntity
  8
0
100
AcDbLine
 62
7
  6
CONTINUOUS
 10
489.5331269904
 20
287.127537247
 11
490.1646036064
 21
287.127537247
  0
LINE
  5
4E9
100
AcDbEntity
  8
0
100
AcDbLine
 62
7
  6
CONTINUOUS
 10
439.0245570689
 20
282.3934944945
 11
439.5658228946
 21
282.2658349241
  0
LINE
  5
4EA
100
AcDbEntity
  8
0
100
AcDbLine
 62
7
  6
CONTINUOUS
 10
450.0663809671
 20
282.3934944945
 11
450.6076472575
 21
282.2658349241
  0
LINE
  5
4EB
100
AcDbEntity
  8
0
100
AcDbLine
 62
7
  6
CONTINUOUS
 10
440.9731142274
 20
285.5849838222
 11
440.4318484017
 21
285.7126433814
  0
LINE
  5
4EC
100
AcDbEntity
  8
0
100
AcDbLine
 62
7
  6
CONTINUOUS
 10
454.8295211009
 20
282.3934944945
 11
455.3707861524
 21
282.2658349241
  0
LINE
  5
4ED
100
AcDbEntity
  8
0
100
AcDbLine
 62
7
  6
CONTINUOUS
 10
441.4731142274
 20
285.5849838222
 11
440.9318484017
 21
285.7126433814
  0
LINE
  5
4EE
100
AcDbEntity
  8
0
100
AcDbLine
 62
7
  6
CONTINUOUS
 10
440.8648611552
 20
288.1381753648
 11
440.3235951746
 21
288.2658349241
  0
LINE
  5
4EF
100
AcDbEntity
  8
0
100
AcDbLine
 62
7
  6
CONTINUOUS
 10
441.3648611552
 20
288.1381753648
 11
440.8235951746
 21
288.2658349241
  0
LINE
  5
4F0
100
AcDbEntity
  8
0
100
AcDbLine
 62
7
  6
CONTINUOUS
 10
456.5615714955
 20
285.9679624999
 11
456.0203052052
 21
286.0956220592
  0
LINE
  5
4F1
100
AcDbEntity
  8
0
100
AcDbLine
 62
7
  6
CONTINUOUS
 10
457.0615714955
 20
285.9679624999
 11
456.5203052052
 21
286.0956220592
  0
LINE
  5
4F2
100
AcDbEntity
  8
0
100
AcDbLine
 62
7
  6
CONTINUOUS
 10
451.6901785992
 20
288.1381753648
 11
451.1489123089
 21
288.2658349241
  0
LINE
  5
4F3
100
AcDbEntity
  8
0
100
AcDbLine
 62
7
  6
CONTINUOUS
 10
452.1901785992
 20
288.1381753648
 11
451.6489123089
 21
288.2658349241
  0
LINE
  5
4F4
100
AcDbEntity
  8
0
100
AcDbLine
 62
7
  6
CONTINUOUS
 10
439.5658228946
 20
283.031792369
 11
439.1328102185
 21
283.1594519282
  0
LINE
  5
4F5
100
AcDbEntity
  8
0
100
AcDbLine
 62
7
  6
CONTINUOUS
 10
440.0658228946
 20
283.031792369
 11
439.6328102185
 21
283.1594519282
  0
LINE
  5
4F6
100
AcDbEntity
  8
0
100
AcDbLine
 62
7
  6
CONTINUOUS
 10
439.3493165953
 20
285.0743455852
 11
439.7823293488
 21
284.9466860259
  0
LINE
  5
4F7
100
AcDbEntity
  8
0
100
AcDbLine
 62
7
  6
CONTINUOUS
 10
440.4318484017
 20
284.9466860259
 11
440.8648611552
 21
284.8190264667
  0
LINE
  5
4F8
100
AcDbEntity
  8
0
100
AcDbLine
 62
7
  6
CONTINUOUS
 10
450.71590002
 20
282.9041328097
 11
450.282887731
 21
283.031792369
  0
LINE
  5
4F9
100
AcDbEntity
  8
0
100
AcDbLine
 62
7
  6
CONTINUOUS
 10
451.154269102
 20
282.922302677
 11
450.782887731
 21
283.031792369
  0
LINE
  5
4FA
100
AcDbEntity
  8
0
100
AcDbLine
 62
7
  6
CONTINUOUS
 10
455.3707861524
 20
282.9041328097
 11
454.9377738634
 21
283.031792369
  0
LINE
  5
4FB
100
AcDbEntity
  8
0
100
AcDbLine
 62
7
  6
CONTINUOUS
 10
455.8707861524
 20
282.9041328097
 11
455.4377738634
 21
283.031792369
  0
LINE
  5
4FC
100
AcDbEntity
  8
0
100
AcDbLine
 62
7
  6
CONTINUOUS
 10
451.1489123089
 20
285.0743455852
 11
451.5819258367
 21
284.9466860259
  0
LINE
  5
4FD
100
AcDbEntity
  8
0
100
AcDbLine
 62
7
  6
CONTINUOUS
 10
450.71590002
 20
285.5849838222
 11
450.282887731
 21
285.7126433814
  0
LINE
  5
4FE
100
AcDbEntity
  8
0
100
AcDbLine
 62
7
  6
CONTINUOUS
 10
451.154269102
 20
285.6031536895
 11
450.782887731
 21
285.7126433814
  0
LINE
  5
4FF
100
AcDbEntity
  8
0
100
AcDbLine
 62
7
  6
CONTINUOUS
 10
456.0203052052
 20
285.4573242629
 11
456.453318733
 21
285.3296647037
  0
LINE
  5
500
100
AcDbEntity
  8
0
100
AcDbLine
 62
7
  6
CONTINUOUS
 10
451.1489123089
 20
287.6275371278
 11
451.5819258367
 21
287.4998775686
  0
LINE
  5
501
100
AcDbEntity
  8
0
100
AcDbLine
 62
7
  6
CONTINUOUS
 10
439.7823293488
 20
285.7126433814
 11
439.4575698224
 21
285.8403029407
  0
LINE
  5
502
100
AcDbEntity
  8
0
100
AcDbLine
 62
7
  6
CONTINUOUS
 10
440.2823293488
 20
285.7126433814
 11
439.9575698224
 21
285.8403029407
  0
LINE
  5
503
100
AcDbEntity
  8
0
100
AcDbLine
 62
7
  6
CONTINUOUS
 10
440.4318484017
 20
287.4998775686
 11
440.7566077732
 21
287.3722180093
  0
LINE
  5
504
100
AcDbEntity
  8
0
100
AcDbLine
 62
7
  6
CONTINUOUS
 10
438.9163039192
 20
285.3296647037
 11
439.3493165953
 21
285.0743455852
  0
LINE
  5
505
100
AcDbEntity
  8
0
100
AcDbLine
 62
7
  6
CONTINUOUS
 10
441.4061268261
 20
285.3296647037
 11
440.9731142274
 21
285.5849838222
  0
LINE
  5
506
100
AcDbEntity
  8
0
100
AcDbLine
 62
7
  6
CONTINUOUS
 10
441.9061268261
 20
285.3296647037
 11
441.4731142274
 21
285.5849838222
  0
LINE
  5
507
100
AcDbEntity
  8
0
100
AcDbLine
 62
7
  6
CONTINUOUS
 10
450.282887731
 20
283.031792369
 11
449.8498742032
 21
283.2871114875
  0
LINE
  5
508
100
AcDbEntity
  8
0
100
AcDbLine
 62
7
  6
CONTINUOUS
 10
450.782887731
 20
283.031792369
 11
450.3498742032
 21
283.2871114875
  0
LINE
  5
509
100
AcDbEntity
  8
0
100
AcDbLine
 62
7
  6
CONTINUOUS
 10
438.4832912044
 20
282.7764732058
 11
439.0245570689
 21
282.3934944945
  0
LINE
  5
50A
100
AcDbEntity
  8
0
100
AcDbLine
 62
7
  6
CONTINUOUS
 10
439.4575698224
 20
285.8403029407
 11
439.1328102185
 21
286.0956220592
  0
LINE
  5
50B
100
AcDbEntity
  8
0
100
AcDbLine
 62
7
  6
CONTINUOUS
 10
440.8648611552
 20
284.8190264667
 11
441.1896206816
 21
284.5637073482
  0
LINE
  5
50C
100
AcDbEntity
  8
0
100
AcDbLine
 62
7
  6
CONTINUOUS
 10
439.9575698224
 20
285.8403029407
 11
439.6328102185
 21
286.0956220592
  0
LINE
  5
50D
100
AcDbEntity
  8
0
100
AcDbLine
 62
7
  6
CONTINUOUS
 10
478.9470713484
 20
296.7897710914
 11
478.1970699179
 21
296.5982817525
  0
LINE
  5
50E
100
AcDbEntity
  8
0
100
AcDbLine
 62
7
  6
CONTINUOUS
 10
456.5203052052
 20
282.2658349241
 11
457.0615714955
 21
282.3934944945
  0
LINE
  5
50F
100
AcDbEntity
  8
0
100
AcDbLine
 62
7
  6
CONTINUOUS
 10
456.0203052052
 20
282.2658349241
 11
456.5615714955
 21
282.3934944945
  0
LINE
  5
510
100
AcDbEntity
  8
0
100
AcDbLine
 62
7
  6
CONTINUOUS
 10
451.7571663103
 20
282.2658349241
 11
452.2984313617
 21
282.3934944945
  0
LINE
  5
511
100
AcDbEntity
  8
0
100
AcDbLine
 62
7
  6
CONTINUOUS
 10
451.2571663103
 20
282.2658349241
 11
451.7984313617
 21
282.3934944945
  0
LINE
  5
512
100
AcDbEntity
  8
0
100
AcDbLine
 62
7
  6
CONTINUOUS
 10
440.9318484017
 20
282.2658349241
 11
441.4731142274
 21
282.3934944945
  0
LINE
  5
513
100
AcDbEntity
  8
0
100
AcDbLine
 62
7
  6
CONTINUOUS
 10
440.4318484017
 20
282.2658349241
 11
440.9731142274
 21
282.3934944945
  0
LINE
  5
514
100
AcDbEntity
  8
0
100
AcDbLine
 62
7
  6
CONTINUOUS
 10
455.3707861524
 20
286.0956220592
 11
454.8295211009
 21
285.9679624999
  0
LINE
  5
515
100
AcDbEntity
  8
0
100
AcDbLine
 62
7
  6
CONTINUOUS
 10
450.71590002
 20
288.2658349241
 11
450.1746337297
 21
288.1381753648
  0
LINE
  5
516
100
AcDbEntity
  8
0
100
AcDbLine
 62
7
  6
CONTINUOUS
 10
479.1345706331
 20
295.8323242797
 11
478.1970699179
 21
295.6408349241
  0
LINE
  5
517
100
AcDbEntity
  8
0
100
AcDbLine
 62
7
  6
CONTINUOUS
 10
442.1226332802
 20
287.2445584501
 11
441.6226332802
 21
287.2445584501
  0
LINE
  5
518
100
AcDbEntity
  8
0
100
AcDbLine
 62
7
  6
CONTINUOUS
 10
487.6386964196
 20
287.2764733995
 11
487.1386964196
 21
287.2764733995
  0
LINE
  5
519
100
AcDbEntity
  8
0
100
AcDbLine
 62
7
  6
CONTINUOUS
 10
483.0920630497
 20
287.2764733995
 11
482.5920630497
 21
287.2764733995
  0
LINE
  5
51A
100
AcDbEntity
  8
0
100
AcDbLine
 62
7
  6
CONTINUOUS
 10
453.056204416
 20
287.3722180093
 11
452.556204416
 21
287.3722180093
  0
LINE
  5
51B
100
AcDbEntity
  8
0
100
AcDbLine
 62
7
  6
CONTINUOUS
 10
439.9575698224
 20
287.3722180093
 11
439.4575698224
 21
287.3722180093
  0
LINE
  5
51C
100
AcDbEntity
  8
0
100
AcDbLine
 62
7
  6
CONTINUOUS
 10
450.782887731
 20
287.4998775686
 11
450.282887731
 21
287.4998775686
  0
LINE
  5
51D
100
AcDbEntity
  8
0
100
AcDbLine
 62
7
  6
CONTINUOUS
 10
439.7823293488
 20
287.4998775686
 11
440.4318484017
 21
287.4998775686
  0
LINE
  5
51E
100
AcDbEntity
  8
0
100
AcDbLine
 62
7
  6
CONTINUOUS
 10
496.2267821556
 20
287.5743457044
 11
495.7267821556
 21
287.5743457044
  0
LINE
  5
51F
100
AcDbEntity
  8
0
100
AcDbLine
 62
7
  6
CONTINUOUS
 10
490.417194831
 20
287.5743457044
 11
489.917194831
 21
287.5743457044
  0
LINE
  5
520
100
AcDbEntity
  8
0
100
AcDbLine
 62
7
  6
CONTINUOUS
 10
450.71590002
 20
287.6275371278
 11
451.1489123089
 21
287.6275371278
  0
LINE
  5
521
100
AcDbEntity
  8
0
100
AcDbLine
 62
7
  6
CONTINUOUS
 10
454.2882548106
 20
287.6275371278
 11
457.9275973123
 21
287.6275371278
  0
LINE
  5
522
100
AcDbEntity
  8
0
100
AcDbLine
 62
7
  6
CONTINUOUS
 10
499.0052798443
 20
287.7232818568
 11
498.5052798443
 21
287.7232818568
  0
LINE
  5
523
100
AcDbEntity
  8
0
100
AcDbLine
 62
7
  6
CONTINUOUS
 10
493.7008742461
 20
287.7232818568
 11
493.2008742461
 21
287.7232818568
  0
LINE
  5
524
100
AcDbEntity
  8
0
100
AcDbLine
 62
7
  6
CONTINUOUS
 10
452.7314448895
 20
287.7551966871
 11
452.2314448895
 21
287.7551966871
  0
LINE
  5
525
100
AcDbEntity
  8
0
100
AcDbLine
 62
7
  6
CONTINUOUS
 10
441.7978737538
 20
287.7551966871
 11
441.2978737538
 21
287.7551966871
  0
LINE
  5
526
100
AcDbEntity
  8
0
100
AcDbLine
 62
7
  6
CONTINUOUS
 10
496.6056682697
 20
287.8722180093
 11
496.1056682697
 21
287.8722180093
  0
LINE
  5
527
100
AcDbEntity
  8
0
100
AcDbLine
 62
7
  6
CONTINUOUS
 10
490.7960809451
 20
287.8722180093
 11
490.2960809451
 21
287.8722180093
  0
LINE
  5
528
100
AcDbEntity
  8
0
100
AcDbLine
 62
7
  6
CONTINUOUS
 10
497.2371441631
 20
288.0211541618
 11
496.7371441631
 21
288.0211541618
  0
LINE
  5
529
100
AcDbEntity
  8
0
100
AcDbLine
 62
7
  6
CONTINUOUS
 10
490.9275575612
 20
288.0211541618
 11
491.9327392876
 21
288.0211541618
  0
LINE
  5
52A
100
AcDbEntity
  8
0
100
AcDbLine
 62
7
  6
CONTINUOUS
 10
452.1901785992
 20
288.1381753648
 11
451.6901785992
 21
288.1381753648
  0
LINE
  5
52B
100
AcDbEntity
  8
0
100
AcDbLine
 62
7
  6
CONTINUOUS
 10
441.3648611552
 20
288.1381753648
 11
440.8648611552
 21
288.1381753648
  0
LINE
  5
52C
100
AcDbEntity
  8
0
100
AcDbLine
 62
7
  6
CONTINUOUS
 10
498.6263937301
 20
288.1700903142
 11
498.1263937301
 21
288.1700903142
  0
LINE
  5
52D
100
AcDbEntity
  8
0
100
AcDbLine
 62
7
  6
CONTINUOUS
 10
457.9275973123
 20
288.2658349241
 11
453.7469885203
 21
288.2658349241
  0
LINE
  5
52E
100
AcDbEntity
  8
0
100
AcDbLine
 62
7
  6
CONTINUOUS
 10
451.6489123089
 20
288.2658349241
 11
450.71590002
 21
288.2658349241
  0
LINE
  5
52F
100
AcDbEntity
  8
0
100
AcDbLine
 62
7
  6
CONTINUOUS
 10
448.6178238086
 20
288.2658349241
 11
447.4683047558
 21
288.2658349241
  0
LINE
  5
530
100
AcDbEntity
  8
0
100
AcDbLine
 62
7
  6
CONTINUOUS
 10
446.4527605056
 20
288.2658349241
 11
445.0867346889
 21
288.2658349241
  0
LINE
  5
531
100
AcDbEntity
  8
0
100
AcDbLine
 62
7
  6
CONTINUOUS
 10
444.0711904388
 20
288.2658349241
 11
442.9216713859
 21
288.2658349241
  0
LINE
  5
532
100
AcDbEntity
  8
0
100
AcDbLine
 62
7
  6
CONTINUOUS
 10
440.8235951746
 20
288.2658349241
 11
439.7823293488
 21
288.2658349241
  0
LINE
  5
533
100
AcDbEntity
  8
0
100
AcDbLine
 62
7
  6
CONTINUOUS
 10
493.1956925197
 20
288.3190264667
 11
492.6956925197
 21
288.3190264667
  0
LINE
  5
534
100
AcDbEntity
  8
0
100
AcDbLine
 62
7
  6
CONTINUOUS
 10
497.9949163914
 20
288.6168987716
 11
497.4949163914
 21
288.6168987716
  0
LINE
  5
535
100
AcDbEntity
  8
0
100
AcDbLine
 62
7
  6
CONTINUOUS
 10
492.6905115159
 20
288.6168987716
 11
492.1905115159
 21
288.6168987716
  0
LINE
  5
536
100
AcDbEntity
  8
0
100
AcDbLine
 62
7
  6
CONTINUOUS
 10
491.8064436753
 20
288.7658349241
 11
491.5538531734
 21
288.7658349241
  0
LINE
  5
537
100
AcDbEntity
  8
0
100
AcDbLine
 62
7
  6
CONTINUOUS
 10
488.3964686479
 20
288.7658349241
 11
487.2598103054
 21
288.7658349241
  0
LINE
  5
538
100
AcDbEntity
  8
0
100
AcDbLine
 62
7
  6
CONTINUOUS
 10
483.4709491639
 20
288.7658349241
 11
482.3342908214
 21
288.7658349241
  0
LINE
  5
539
100
AcDbEntity
  8
0
100
AcDbLine
 62
7
  6
CONTINUOUS
 10
461.8659770937
 20
291.2658349241
 11
434.1531641726
 21
291.2658349241
  0
LINE
  5
53A
100
AcDbEntity
  8
KONSTRUKTIONSELEMENTE
100
AcDbLine
 62
7
  6
CONTINUOUS
 10
426.7595706331
 20
293.7658349241
 11
511.7595706331
 21
293.7658349241
  0
LINE
  5
53B
100
AcDbEntity
  8
0
100
AcDbLine
 62
7
  6
CONTINUOUS
 10
478.1970699179
 20
295.6408349241
 11
477.0720699179
 21
295.6408349241
  0
LINE
  5
53C
100
AcDbEntity
  8
0
100
AcDbLine
 62
7
  6
CONTINUOUS
 10
462.8220706331
 20
295.6408349241
 11
461.6970706331
 21
295.6408349241
  0
LINE
  5
53D
100
AcDbEntity
  8
0
100
AcDbLine
 62
7
  6
CONTINUOUS
 10
454.3845706331
 20
295.6408349241
 11
453.2595706331
 21
295.6408349241
  0
LINE
  5
53E
100
AcDbEntity
  8
0
100
AcDbLine
 62
7
  6
CONTINUOUS
 10
478.1970699179
 20
296.5982817525
 11
477.0720699179
 21
296.5982817525
  0
LINE
  5
53F
100
AcDbEntity
  8
0
100
AcDbLine
 62
7
  6
CONTINUOUS
 10
492.1905115159
 20
288.6168987716
 11
491.4301484244
 21
288.7449947707
  0
LINE
  5
540
100
AcDbEntity
  8
0
100
AcDbLine
 62
7
  6
CONTINUOUS
 10
492.6905115159
 20
288.6168987716
 11
491.8064436753
 21
288.7658349241
  0
LINE
  5
541
100
AcDbEntity
  8
0
100
AcDbLine
 62
7
  6
CONTINUOUS
 10
496.4793719348
 20
281.9147710896
 11
497.2371441631
 21
281.7658349241
  0
LINE
  5
542
100
AcDbEntity
  8
0
100
AcDbLine
 62
7
  6
CONTINUOUS
 10
491.9327392876
 20
285.0424306954
 11
492.6905115159
 21
284.8934945429
  0
LINE
  5
543
100
AcDbEntity
  8
0
100
AcDbLine
 62
7
  6
CONTINUOUS
 10
497.4949163914
 20
288.6168987716
 11
496.9871441631
 21
288.7166987368
  0
LINE
  5
544
100
AcDbEntity
  8
0
100
AcDbLine
 62
7
  6
CONTINUOUS
 10
497.9949163914
 20
288.6168987716
 11
497.2371441631
 21
288.7658349241
  0
LINE
  5
545
100
AcDbEntity
  8
0
100
AcDbLine
 62
7
  6
CONTINUOUS
 10
490.8012619489
 20
282.5105157907
 11
490.1697853328
 21
282.6594519431
  0
LINE
  5
546
100
AcDbEntity
  8
0
100
AcDbLine
 62
7
  6
CONTINUOUS
 10
491.3012619489
 20
282.5105157907
 11
490.6697853328
 21
282.6594519431
  0
LINE
  5
547
100
AcDbEntity
  8
0
100
AcDbLine
 62
7
  6
CONTINUOUS
 10
496.7371441631
 20
282.5105157907
 11
496.1056682697
 21
282.6594519431
  0
LINE
  5
548
100
AcDbEntity
  8
0
100
AcDbLine
 62
7
  6
CONTINUOUS
 10
497.2371441631
 20
282.5105157907
 11
496.6056682697
 21
282.6594519431
  0
LINE
  5
549
100
AcDbEntity
  8
0
100
AcDbLine
 62
7
  6
CONTINUOUS
 10
491.9327392876
 20
288.0211541618
 11
492.5642159036
 21
287.8722180093
  0
LINE
  5
54A
100
AcDbEntity
  8
0
100
AcDbLine
 62
7
  6
CONTINUOUS
 10
497.2371441631
 20
288.0211541618
 11
497.8686215018
 21
287.8722180093
  0
LINE
  5
54B
100
AcDbEntity
  8
0
100
AcDbLine
 62
7
  6
CONTINUOUS
 10
490.6697853328
 20
281.9147710896
 11
491.1749670593
 21
281.7658349241
  0
LINE
  5
54C
100
AcDbEntity
  8
0
100
AcDbLine
 62
7
  6
CONTINUOUS
 10
449.6333686782
 20
285.4573242629
 11
449.8498742032
 21
285.3296647037
  0
LINE
  5
54D
100
AcDbEntity
  8
0
100
AcDbLine
 62
7
  6
CONTINUOUS
 10
451.5819258367
 20
284.9466860259
 11
452.0149381256
 21
284.6913669074
  0
LINE
  5
54E
100
AcDbEntity
  8
0
100
AcDbLine
 62
7
  6
CONTINUOUS
 10
452.2314448895
 20
285.2020051444
 11
452.0149381256
 21
285.3296647037
  0
LINE
  5
54F
100
AcDbEntity
  8
0
100
AcDbLine
 62
7
  6
CONTINUOUS
 10
452.7314448895
 20
285.2020051444
 11
452.5149381256
 21
285.3296647037
  0
LINE
  5
550
100
AcDbEntity
  8
0
100
AcDbLine
 62
7
  6
CONTINUOUS
 10
449.5251146768
 20
282.7764732058
 11
450.0663809671
 21
282.3934944945
  0
LINE
  5
551
100
AcDbEntity
  8
0
100
AcDbLine
 62
7
  6
CONTINUOUS
 10
454.2882548106
 20
282.7764732058
 11
454.8295211009
 21
282.3934944945
  0
LINE
  5
552
100
AcDbEntity
  8
0
100
AcDbLine
 62
7
  6
CONTINUOUS
 10
452.2314448895
 20
287.7551966871
 11
451.6901785992
 21
288.1381753648
  0
LINE
  5
553
100
AcDbEntity
  8
0
100
AcDbLine
 62
7
  6
CONTINUOUS
 10
452.7314448895
 20
287.7551966871
 11
452.1901785992
 21
288.1381753648
  0
LINE
  5
554
100
AcDbEntity
  8
0
100
AcDbLine
 62
7
  6
CONTINUOUS
 10
457.1028377858
 20
285.5849838222
 11
456.5615714955
 21
285.9679624999
  0
LINE
  5
555
100
AcDbEntity
  8
0
100
AcDbLine
 62
7
  6
CONTINUOUS
 10
457.6028377858
 20
285.5849838222
 11
457.0615714955
 21
285.9679624999
  0
LINE
  5
556
100
AcDbEntity
  8
0
100
AcDbLine
 62
7
  6
CONTINUOUS
 10
454.9377738634
 20
283.031792369
 11
454.613014337
 21
283.2871114875
  0
LINE
  5
557
100
AcDbEntity
  8
0
100
AcDbLine
 62
7
  6
CONTINUOUS
 10
455.4377738634
 20
283.031792369
 11
455.113014337
 21
283.2871114875
  0
LINE
  5
558
100
AcDbEntity
  8
0
100
AcDbLine
 62
7
  6
CONTINUOUS
 10
456.453318733
 20
285.3296647037
 11
456.7780782594
 21
285.0743455852
  0
LINE
  5
559
100
AcDbEntity
  8
0
100
AcDbLine
 62
7
  6
CONTINUOUS
 10
441.2978737538
 20
287.7551966871
 11
440.8648611552
 21
288.1381753648
  0
LINE
  5
55A
100
AcDbEntity
  8
0
100
AcDbLine
 62
7
  6
CONTINUOUS
 10
441.7978737538
 20
287.7551966871
 11
441.3648611552
 21
288.1381753648
  0
LINE
  5
55B
100
AcDbEntity
  8
0
100
AcDbLine
 62
7
  6
CONTINUOUS
 10
450.282887731
 20
285.7126433814
 11
449.8498742032
 21
286.0956220592
  0
LINE
  5
55C
100
AcDbEntity
  8
0
100
AcDbLine
 62
7
  6
CONTINUOUS
 10
450.782887731
 20
285.7126433814
 11
450.3498742032
 21
286.0956220592
  0
LINE
  5
55D
100
AcDbEntity
  8
0
100
AcDbLine
 62
7
  6
CONTINUOUS
 10
452.6644571785
 20
284.8190264667
 11
452.2314448895
 21
285.2020051444
  0
LINE
  5
55E
100
AcDbEntity
  8
0
100
AcDbLine
 62
7
  6
CONTINUOUS
 10
453.1644571785
 20
284.8190264667
 11
452.7314448895
 21
285.2020051444
  0
LINE
  5
55F
100
AcDbEntity
  8
0
100
AcDbLine
 62
7
  6
CONTINUOUS
 10
439.1328102185
 20
283.1594519282
 11
438.8080506921
 21
283.5424306954
  0
LINE
  5
560
100
AcDbEntity
  8
0
100
AcDbLine
 62
7
  6
CONTINUOUS
 10
439.6328102185
 20
283.1594519282
 11
439.3080506921
 21
283.5424306954
  0
LINE
  5
561
100
AcDbEntity
  8
0
100
AcDbLine
 62
7
  6
CONTINUOUS
 10
438.4832912044
 20
285.8403029407
 11
438.9163039192
 21
285.3296647037
  0
LINE
  5
562
100
AcDbEntity
  8
0
100
AcDbLine
 62
7
  6
CONTINUOUS
 10
441.8391397344
 20
284.8190264667
 11
441.4061268261
 21
285.3296647037
  0
LINE
  5
563
100
AcDbEntity
  8
0
100
AcDbLine
 62
7
  6
CONTINUOUS
 10
442.3391397344
 20
284.8190264667
 11
441.9061268261
 21
285.3296647037
  0
LINE
  5
564
100
AcDbEntity
  8
0
100
AcDbLine
 62
7
  6
CONTINUOUS
 10
440.7566077732
 20
287.3722180093
 11
440.9731142274
 21
287.1168988908
  0
LINE
  5
565
100
AcDbEntity
  8
0
100
AcDbLine
 62
7
  6
CONTINUOUS
 10
477.0720699179
 20
300.4280689324
 11
476.3220706331
 21
300.2365795935
  0
LINE
  5
566
100
AcDbEntity
  8
0
100
AcDbLine
 62
7
  6
CONTINUOUS
 10
476.1345713484
 20
301.1940262879
 11
477.0720699179
 21
301.3855156267
  0
LINE
  5
567
100
AcDbEntity
  8
0
100
AcDbLine
 62
7
  6
CONTINUOUS
 10
467.1345702755
 20
299.8536009157
 11
466.1970706331
 21
299.6621115769
  0
LINE
  5
568
100
AcDbEntity
  8
0
100
AcDbLine
 62
7
  6
CONTINUOUS
 10
458.697070812
 20
299.8536009157
 11
457.7595706331
 21
299.6621115769
  0
LINE
  5
569
100
AcDbEntity
  8
0
100
AcDbLine
 62
7
  6
CONTINUOUS
 10
475.3845699179
 20
297.9387072588
 11
474.2595699179
 21
297.9387072588
  0
LINE
  5
56A
100
AcDbEntity
  8
0
100
AcDbLine
 62
7
  6
CONTINUOUS
 10
472.7595713484
 20
298.8961539531
 11
470.1345706331
 21
298.8961539531
  0
LINE
  5
56B
100
AcDbEntity
  8
0
100
AcDbLine
 62
7
  6
CONTINUOUS
 10
466.1970706331
 20
299.6621115769
 11
462.8220706331
 21
299.6621115769
  0
LINE
  5
56C
100
AcDbEntity
  8
0
100
AcDbLine
 62
7
  6
CONTINUOUS
 10
457.7595706331
 20
299.6621115769
 11
454.3845706331
 21
299.6621115769
  0
LINE
  5
56D
100
AcDbEntity
  8
0
100
AcDbLine
 62
7
  6
CONTINUOUS
 10
474.2595699179
 20
299.6621115769
 11
475.5720713484
 21
299.6621115769
  0
LINE
  5
56E
100
AcDbEntity
  8
0
100
AcDbLine
 62
7
  6
CONTINUOUS
 10
472.7595713484
 20
299.8536009157
 11
470.1345706331
 21
299.8536009157
  0
LINE
  5
56F
100
AcDbEntity
  8
0
100
AcDbLine
 62
7
  6
CONTINUOUS
 10
478.1970699179
 20
300.4280689324
 11
477.0720699179
 21
300.4280689324
  0
LINE
  5
570
100
AcDbEntity
  8
0
100
AcDbLine
 62
7
  6
CONTINUOUS
 10
466.3845709908
 20
300.8110476101
 11
462.8220706331
 21
300.8110476101
  0
LINE
  5
571
100
AcDbEntity
  8
0
100
AcDbLine
 62
7
  6
CONTINUOUS
 10
457.9470704543
 20
300.8110476101
 11
454.3845706331
 21
300.8110476101
  0
LINE
  5
572
100
AcDbEntity
  8
0
100
AcDbLine
 62
7
  6
CONTINUOUS
 10
487.0095706331
 20
301.002536949
 11
484.9470699179
 21
301.002536949
  0
LINE
  5
573
100
AcDbEntity
  8
0
100
AcDbLine
 62
7
  6
CONTINUOUS
 10
484.0095713484
 20
301.002536949
 11
482.5095706331
 21
301.002536949
  0
LINE
  5
574
100
AcDbEntity
  8
0
100
AcDbLine
 62
7
  6
CONTINUOUS
 10
477.0720699179
 20
301.3855156267
 11
478.1970699179
 21
301.3855156267
  0
LINE
  5
575
100
AcDbEntity
  8
0
100
AcDbLine
 62
7
  6
CONTINUOUS
 10
487.0095706331
 20
301.7684943045
 11
484.9470699179
 21
301.7684943045
  0
LINE
  5
576
100
AcDbEntity
  8
0
100
AcDbLine
 62
7
  6
CONTINUOUS
 10
484.0095713484
 20
301.7684943045
 11
482.5095706331
 21
301.7684943045
  0
LINE
  5
577
100
AcDbEntity
  8
0
100
AcDbLine
 62
7
  6
CONTINUOUS
 10
484.9470699179
 20
303.3004095519
 11
484.0095713484
 21
303.3004095519
  0
LINE
  5
578
100
AcDbEntity
  8
0
100
AcDbLine
 62
7
  6
CONTINUOUS
 10
480.6345713484
 20
303.6833882297
 11
475.1970706331
 21
303.6833882297
  0
LINE
  5
579
100
AcDbEntity
  8
0
100
AcDbLine
 62
7
  6
CONTINUOUS
 10
466.3845709908
 20
303.6833882297
 11
462.8220706331
 21
303.6833882297
  0
LINE
  5
57A
100
AcDbEntity
  8
0
100
AcDbLine
 62
7
  6
CONTINUOUS
 10
457.9470704543
 20
303.6833882297
 11
454.3845706331
 21
303.6833882297
  0
LINE
  5
57B
100
AcDbEntity
  8
0
100
AcDbLine
 62
7
  6
CONTINUOUS
 10
466.1970706331
 20
304.6408349241
 11
461.6970706331
 21
304.6408349241
  0
LINE
  5
57C
100
AcDbEntity
  8
0
100
AcDbLine
 62
7
  6
CONTINUOUS
 10
457.7595706331
 20
304.6408349241
 11
453.2595706331
 21
304.6408349241
  0
LINE
  5
57D
100
AcDbEntity
  8
0
100
AcDbLine
 62
7
  6
CONTINUOUS
 10
474.2595699179
 20
304.6408349241
 11
480.6345713484
 21
304.6408349241
  0
LINE
  5
57E
100
AcDbEntity
  8
0
100
AcDbLine
 62
7
  6
CONTINUOUS
 10
485.5095699179
 20
295.8323242797
 11
486.6345699179
 21
295.6408349241
  0
LINE
  5
57F
100
AcDbEntity
  8
0
100
AcDbLine
 62
7
  6
CONTINUOUS
 10
477.0720699179
 20
295.6408349241
 11
476.1345713484
 21
295.8323242797
  0
LINE
  5
580
100
AcDbEntity
  8
0
100
AcDbLine
 62
7
  6
CONTINUOUS
 10
486.6345699179
 20
296.4067923466
 11
485.6970713484
 21
296.5982817525
  0
LINE
  5
581
100
AcDbEntity
  8
0
100
AcDbLine
 62
7
  6
CONTINUOUS
 10
458.697070812
 20
304.4493455852
 11
457.7595706331
 21
304.6408349241
  0
LINE
  5
582
100
AcDbEntity
  8
0
100
AcDbLine
 62
7
  6
CONTINUOUS
 10
478.1970699179
 20
301.3855156267
 11
479.1345706331
 21
301.1940262879
  0
LINE
  5
583
100
AcDbEntity
  8
0
100
AcDbLine
 62
7
  6
CONTINUOUS
 10
467.1345702755
 20
304.4493455852
 11
466.1970706331
 21
304.6408349241
  0
LINE
  5
584
100
AcDbEntity
  8
0
100
AcDbLine
 62
7
  6
CONTINUOUS
 10
477.0720699179
 20
296.5982817525
 11
476.3220706331
 21
296.7897710914
  0
LINE
  5
585
100
AcDbEntity
  8
0
100
AcDbLine
 62
7
  6
CONTINUOUS
 10
478.9470713484
 20
300.2365795935
 11
478.1970699179
 21
300.4280689324
  0
LINE
  5
586
100
AcDbEntity
  8
0
100
AcDbLine
 62
7
  6
CONTINUOUS
 10
458.5095704543
 20
303.4918988908
 11
457.9470704543
 21
303.6833882297
  0
LINE
  5
587
100
AcDbEntity
  8
0
100
AcDbLine
 62
7
  6
CONTINUOUS
 10
484.9470699179
 20
296.0238136353
 11
485.5095699179
 21
295.8323242797
  0
LINE
  5
588
100
AcDbEntity
  8
0
100
AcDbLine
 62
7
  6
CONTINUOUS
 10
466.9470709908
 20
303.4918988908
 11
466.3845709908
 21
303.6833882297
  0
LINE
  5
589
100
AcDbEntity
  8
0
100
AcDbLine
 62
7
  6
CONTINUOUS
 10
493.0745786338
 20
285.0424306954
 11
492.4431020178
 21
285.3403030003
  0
LINE
  5
58A
100
AcDbEntity
  8
0
100
AcDbLine
 62
7
  6
CONTINUOUS
 10
493.5745786338
 20
285.0424306954
 11
492.9431020178
 21
285.3403030003
  0
LINE
  5
58B
100
AcDbEntity
  8
0
100
AcDbLine
 62
7
  6
CONTINUOUS
 10
490.1646036064
 20
282.2126434336
 11
490.6697853328
 21
281.9147710896
  0
LINE
  5
58C
100
AcDbEntity
  8
0
100
AcDbLine
 62
7
  6
CONTINUOUS
 10
490.1697853328
 20
282.6594519431
 11
489.917194831
 21
282.8083880956
  0
LINE
  5
58D
100
AcDbEntity
  8
0
100
AcDbLine
 62
7
  6
CONTINUOUS
 10
490.6697853328
 20
282.6594519431
 11
490.417194831
 21
282.8083880956
  0
LINE
  5
58E
100
AcDbEntity
  8
0
100
AcDbLine
 62
7
  6
CONTINUOUS
 10
451.5819258367
 20
287.4998775686
 11
452.0149381256
 21
287.1168988908
  0
LINE
  5
58F
100
AcDbEntity
  8
0
100
AcDbLine
 62
7
  6
CONTINUOUS
 10
449.2003551504
 20
283.1594519282
 11
449.5251146768
 21
282.7764732058
  0
LINE
  5
590
100
AcDbEntity
  8
0
100
AcDbLine
 62
7
  6
CONTINUOUS
 10
449.3086091518
 20
285.8403029407
 11
449.6333686782
 21
285.4573242629
  0
LINE
  5
591
100
AcDbEntity
  8
0
100
AcDbLine
 62
7
  6
CONTINUOUS
 10
452.556204416
 20
287.3722180093
 11
452.2314448895
 21
287.7551966871
  0
LINE
  5
592
100
AcDbEntity
  8
0
100
AcDbLine
 62
7
  6
CONTINUOUS
 10
453.056204416
 20
287.3722180093
 11
452.7314448895
 21
287.7551966871
  0
LINE
  5
593
100
AcDbEntity
  8
0
100
AcDbLine
 62
7
  6
CONTINUOUS
 10
441.6226332802
 20
287.2445584501
 11
441.2978737538
 21
287.7551966871
  0
LINE
  5
594
100
AcDbEntity
  8
0
100
AcDbLine
 62
7
  6
CONTINUOUS
 10
442.1226332802
 20
287.2445584501
 11
441.7978737538
 21
287.7551966871
  0
LINE
  5
595
100
AcDbEntity
  8
0
100
AcDbLine
 62
7
  6
CONTINUOUS
 10
441.1896206816
 20
284.5637073482
 11
441.4061268261
 21
284.1807284916
  0
LINE
  5
596
100
AcDbEntity
  8
0
100
AcDbLine
 62
7
  6
CONTINUOUS
 10
438.1585316683
 20
283.4147711361
 11
438.4832912044
 21
282.7764732058
  0
LINE
  5
597
100
AcDbEntity
  8
0
100
AcDbLine
 62
7
  6
CONTINUOUS
 10
481.3845699179
 20
310.9812604303
 11
480.6345706331
 21
310.7897710914
  0
LINE
  5
598
100
AcDbEntity
  8
0
100
AcDbLine
 62
7
  6
CONTINUOUS
 10
472.3845709908
 20
310.9812604303
 11
471.6345706331
 21
310.7897710914
  0
LINE
  5
599
100
AcDbEntity
  8
0
100
AcDbLine
 62
7
  6
CONTINUOUS
 10
481.5720713484
 20
309.8323242797
 11
480.6345706331
 21
309.6408349241
  0
LINE
  5
59A
100
AcDbEntity
  8
0
100
AcDbLine
 62
7
  6
CONTINUOUS
 10
472.5720702755
 20
309.8323242797
 11
471.6345706331
 21
309.6408349241
  0
LINE
  5
59B
100
AcDbEntity
  8
0
100
AcDbLine
 62
7
  6
CONTINUOUS
 10
480.6345706331
 20
309.6408349241
 11
476.1345706331
 21
309.6408349241
  0
LINE
  5
59C
100
AcDbEntity
  8
0
100
AcDbLine
 62
7
  6
CONTINUOUS
 10
471.6345706331
 20
309.6408349241
 11
470.8845702755
 21
309.6408349241
  0
LINE
  5
59D
100
AcDbEntity
  8
0
100
AcDbLine
 62
7
  6
CONTINUOUS
 10
466.384570812
 20
309.6408349241
 11
465.0720704543
 21
309.6408349241
  0
LINE
  5
59E
100
AcDbEntity
  8
0
100
AcDbLine
 62
7
  6
CONTINUOUS
 10
460.3845706331
 20
309.6408349241
 11
459.2595706331
 21
309.6408349241
  0
LINE
  5
59F
100
AcDbEntity
  8
0
100
AcDbLine
 62
7
  6
CONTINUOUS
 10
480.6345706331
 20
310.7897710914
 11
477.2595706331
 21
310.7897710914
  0
LINE
  5
5A0
100
AcDbEntity
  8
0
100
AcDbLine
 62
7
  6
CONTINUOUS
 10
471.6345706331
 20
310.7897710914
 11
470.8845702755
 21
310.7897710914
  0
LINE
  5
5A1
100
AcDbEntity
  8
0
100
AcDbLine
 62
7
  6
CONTINUOUS
 10
463.5720705437
 20
313.6621115769
 11
460.3845706331
 21
313.6621115769
  0
LINE
  5
5A2
100
AcDbEntity
  8
0
100
AcDbLine
 62
7
  6
CONTINUOUS
 10
463.9470704543
 20
314.8110476101
 11
460.3845706331
 21
314.8110476101
  0
LINE
  5
5A3
100
AcDbEntity
  8
0
100
AcDbLine
 62
7
  6
CONTINUOUS
 10
470.8845702755
 20
309.6408349241
 11
469.9470706331
 21
309.8323242797
  0
LINE
  5
5A4
100
AcDbEntity
  8
0
100
AcDbLine
 62
7
  6
CONTINUOUS
 10
470.8845702755
 20
310.7897710914
 11
470.1345709908
 21
310.9812604303
  0
LINE
  5
5A5
100
AcDbEntity
  8
0
100
AcDbLine
 62
7
  6
CONTINUOUS
 10
492.6956925197
 20
288.3190264667
 11
492.1905115159
 21
288.6168987716
  0
LINE
  5
5A6
100
AcDbEntity
  8
0
100
AcDbLine
 62
7
  6
CONTINUOUS
 10
493.1956925197
 20
288.3190264667
 11
492.6905115159
 21
288.6168987716
  0
LINE
  5
5A7
100
AcDbEntity
  8
0
100
AcDbLine
 62
7
  6
CONTINUOUS
 10
475.1970706331
 20
296.4067923466
 11
476.1345713484
 21
295.8323242797
  0
LINE
  5
5A8
100
AcDbEntity
  8
0
100
AcDbLine
 62
7
  6
CONTINUOUS
 10
476.3220706331
 20
296.7897710914
 11
475.7595706331
 21
297.1727497692
  0
LINE
  5
5A9
100
AcDbEntity
  8
0
100
AcDbLine
 62
7
  6
CONTINUOUS
 10
495.8478960414
 20
282.361579586
 11
496.4793719348
 21
281.9147710896
  0
LINE
  5
5AA
100
AcDbEntity
  8
0
100
AcDbLine
 62
7
  6
CONTINUOUS
 10
459.4470706331
 20
303.8748775686
 11
458.697070812
 21
304.4493455852
  0
LINE
  5
5AB
100
AcDbEntity
  8
0
100
AcDbLine
 62
7
  6
CONTINUOUS
 10
489.7857174923
 20
282.5105157907
 11
490.1646036064
 21
282.2126434336
  0
LINE
  5
5AC
100
AcDbEntity
  8
0
100
AcDbLine
 62
7
  6
CONTINUOUS
 10
449.8498742032
 20
283.2871114875
 11
449.5251146768
 21
283.7977498139
  0
LINE
  5
5AD
100
AcDbEntity
  8
0
100
AcDbLine
 62
7
  6
CONTINUOUS
 10
450.3498742032
 20
283.2871114875
 11
450.0251146768
 21
283.7977498139
  0
LINE
  5
5AE
100
AcDbEntity
  8
0
100
AcDbLine
 62
7
  6
CONTINUOUS
 10
452.0149381256
 20
284.6913669074
 11
452.3396976521
 21
284.1807284916
  0
LINE
  5
5AF
100
AcDbEntity
  8
0
100
AcDbLine
 62
7
  6
CONTINUOUS
 10
453.9634952842
 20
283.2871114875
 11
454.2882548106
 21
282.7764732058
  0
LINE
  5
5B0
100
AcDbEntity
  8
0
100
AcDbLine
 62
7
  6
CONTINUOUS
 10
457.4275973123
 20
285.0743455852
 11
457.1028377858
 21
285.5849838222
  0
LINE
  5
5B1
100
AcDbEntity
  8
0
100
AcDbLine
 62
7
  6
CONTINUOUS
 10
449.8498742032
 20
286.0956220592
 11
449.6333686782
 21
286.4786007369
  0
LINE
  5
5B2
100
AcDbEntity
  8
0
100
AcDbLine
 62
7
  6
CONTINUOUS
 10
450.3498742032
 20
286.0956220592
 11
450.1333686782
 21
286.4786007369
  0
LINE
  5
5B3
100
AcDbEntity
  8
0
100
AcDbLine
 62
7
  6
CONTINUOUS
 10
442.0556458789
 20
284.3083880509
 11
441.8391397344
 21
284.8190264667
  0
LINE
  5
5B4
100
AcDbEntity
  8
0
100
AcDbLine
 62
7
  6
CONTINUOUS
 10
440.9731142274
 20
287.1168988908
 11
441.0813672996
 21
286.8615797723
  0
LINE
  5
5B5
100
AcDbEntity
  8
0
100
AcDbLine
 62
7
  6
CONTINUOUS
 10
442.5556458789
 20
284.3083880509
 11
442.3391397344
 21
284.8190264667
  0
LINE
  5
5B6
100
AcDbEntity
  8
0
100
AcDbLine
 62
7
  6
CONTINUOUS
 10
480.6345706331
 20
317.4918988908
 11
477.2595706331
 21
317.4918988908
  0
LINE
  5
5B7
100
AcDbEntity
  8
0
100
AcDbLine
 62
7
  6
CONTINUOUS
 10
463.9470704543
 20
317.6833882297
 11
460.3845706331
 21
317.6833882297
  0
LINE
  5
5B8
100
AcDbEntity
  8
0
100
AcDbLine
 62
7
  6
CONTINUOUS
 10
480.6345706331
 20
318.6408349241
 11
476.1345706331
 21
318.6408349241
  0
LINE
  5
5B9
100
AcDbEntity
  8
0
100
AcDbLine
 62
7
  6
CONTINUOUS
 10
474.6345709908
 20
318.6408349241
 11
473.5095709908
 21
318.6408349241
  0
LINE
  5
5BA
100
AcDbEntity
  8
0
100
AcDbLine
 62
7
  6
CONTINUOUS
 10
469.0095709908
 20
318.6408349241
 11
467.8845704543
 21
318.6408349241
  0
LINE
  5
5BB
100
AcDbEntity
  8
0
100
AcDbLine
 62
7
  6
CONTINUOUS
 10
463.7595706331
 20
318.6408349241
 11
459.2595706331
 21
318.6408349241
  0
LINE
  5
5BC
100
AcDbEntity
  8
0
100
AcDbLine
 62
7
  6
CONTINUOUS
 10
464.697070812
 20
318.4493455852
 11
463.7595706331
 21
318.6408349241
  0
LINE
  5
5BD
100
AcDbEntity
  8
0
100
AcDbLine
 62
7
  6
CONTINUOUS
 10
481.5720713484
 20
318.4493455852
 11
480.6345706331
 21
318.6408349241
  0
LINE
  5
5BE
100
AcDbEntity
  8
0
100
AcDbLine
 62
7
  6
CONTINUOUS
 10
481.3845699179
 20
317.3004095519
 11
480.6345706331
 21
317.4918988908
  0
LINE
  5
5BF
100
AcDbEntity
  8
0
100
AcDbLine
 62
7
  6
CONTINUOUS
 10
464.5095704543
 20
317.4918988908
 11
463.9470704543
 21
317.6833882297
  0
LINE
  5
5C0
100
AcDbEntity
  8
0
100
AcDbLine
 62
7
  6
CONTINUOUS
 10
469.9470706331
 20
309.8323242797
 11
469.1970702755
 21
310.2153030077
  0
LINE
  5
5C1
100
AcDbEntity
  8
0
100
AcDbLine
 62
7
  6
CONTINUOUS
 10
480.0720713484
 20
300.6195582712
 11
479.1345706331
 21
301.1940262879
  0
LINE
  5
5C2
100
AcDbEntity
  8
0
100
AcDbLine
 62
7
  6
CONTINUOUS
 10
484.9470699179
 20
296.0238136353
 11
484.3845699179
 21
296.4067923466
  0
LINE
  5
5C3
100
AcDbEntity
  8
0
100
AcDbLine
 62
7
  6
CONTINUOUS
 10
479.5095713484
 20
299.8536009157
 11
478.9470713484
 21
300.2365795935
  0
LINE
  5
5C4
100
AcDbEntity
  8
0
100
AcDbLine
 62
7
  6
CONTINUOUS
 10
485.6970713484
 20
296.5982817525
 11
485.1345713484
 21
296.9812604303
  0
LINE
  5
5C5
100
AcDbEntity
  8
0
100
AcDbLine
 62
7
  6
CONTINUOUS
 10
470.1345709908
 20
310.9812604303
 11
469.5720709908
 21
311.3642392421
  0
LINE
  5
5C6
100
AcDbEntity
  8
0
100
AcDbLine
 62
7
  6
CONTINUOUS
 10
498.1263937301
 20
288.1700903142
 11
497.4949163914
 21
288.6168987716
  0
LINE
  5
5C7
100
AcDbEntity
  8
0
100
AcDbLine
 62
7
  6
CONTINUOUS
 10
498.6263937301
 20
288.1700903142
 11
497.9949163914
 21
288.6168987716
  0
LINE
  5
5C8
100
AcDbEntity
  8
0
100
AcDbLine
 62
7
  6
CONTINUOUS
 10
467.8845706331
 20
303.8748775686
 11
467.1345702755
 21
304.4493455852
  0
LINE
  5
5C9
100
AcDbEntity
  8
0
100
AcDbLine
 62
7
  6
CONTINUOUS
 10
492.6905115159
 20
284.8934945429
 11
493.0693976301
 21
284.595622238
  0
LINE
  5
5CA
100
AcDbEntity
  8
0
100
AcDbLine
 62
7
  6
CONTINUOUS
 10
496.1056682697
 20
282.6594519431
 11
495.7267821556
 21
282.957324248
  0
LINE
  5
5CB
100
AcDbEntity
  8
0
100
AcDbLine
 62
7
  6
CONTINUOUS
 10
496.6056682697
 20
282.6594519431
 11
496.2267821556
 21
282.957324248
  0
LINE
  5
5CC
100
AcDbEntity
  8
0
100
AcDbLine
 62
7
  6
CONTINUOUS
 10
492.5642159036
 20
287.8722180093
 11
492.9431020178
 21
287.5743457044
  0
LINE
  5
5CD
100
AcDbEntity
  8
0
100
AcDbLine
 62
7
  6
CONTINUOUS
 10
497.8686215018
 20
287.8722180093
 11
498.247507616
 21
287.5743457044
  0
LINE
  5
5CE
100
AcDbEntity
  8
0
100
AcDbLine
 62
7
  6
CONTINUOUS
 10
458.8845706331
 20
303.1089202131
 11
458.5095704543
 21
303.4918988908
  0
LINE
  5
5CF
100
AcDbEntity
  8
0
100
AcDbLine
 62
7
  6
CONTINUOUS
 10
467.3220706331
 20
303.1089202131
 11
466.9470709908
 21
303.4918988908
  0
LINE
  5
5D0
100
AcDbEntity
  8
0
100
AcDbLine
 62
7
  6
CONTINUOUS
 10
460.0095706331
 20
303.1089202131
 11
459.4470706331
 21
303.8748775686
  0
LINE
  5
5D1
100
AcDbEntity
  8
0
100
AcDbLine
 62
7
  6
CONTINUOUS
 10
457.9275973123
 20
285.0743455852
 11
457.6028377858
 21
285.5849838222
  0
LINE
  5
5D2
100
AcDbEntity
  8
0
100
AcDbLine
 62
7
  6
CONTINUOUS
 10
452.0149381256
 20
287.1168988908
 11
452.2314448895
 21
286.7339198554
  0
LINE
  5
5D3
100
AcDbEntity
  8
0
100
AcDbLine
 62
7
  6
CONTINUOUS
 10
456.7780782594
 20
285.0743455852
 11
456.9945837845
 21
284.6913669074
  0
LINE
  5
5D4
100
AcDbEntity
  8
0
100
AcDbLine
 62
7
  6
CONTINUOUS
 10
449.0921023879
 20
286.3509411777
 11
449.3086091518
 21
285.8403029407
  0
LINE
  5
5D5
100
AcDbEntity
  8
0
100
AcDbLine
 62
7
  6
CONTINUOUS
 10
453.7469885203
 20
283.7977498139
 11
453.9634952842
 21
283.2871114875
  0
LINE
  5
5D6
100
AcDbEntity
  8
0
100
AcDbLine
 62
7
  6
CONTINUOUS
 10
454.613014337
 20
283.2871114875
 11
454.3965075731
 21
283.7977498139
  0
LINE
  5
5D7
100
AcDbEntity
  8
0
100
AcDbLine
 62
7
  6
CONTINUOUS
 10
455.113014337
 20
283.2871114875
 11
454.8965075731
 21
283.7977498139
  0
LINE
  5
5D8
100
AcDbEntity
  8
0
100
AcDbLine
 62
7
  6
CONTINUOUS
 10
448.9838496254
 20
283.7977498139
 11
449.2003551504
 21
283.1594519282
  0
LINE
  5
5D9
100
AcDbEntity
  8
0
100
AcDbLine
 62
7
  6
CONTINUOUS
 10
438.8080506921
 20
283.5424306954
 11
438.6997975425
 21
283.9254093731
  0
LINE
  5
5DA
100
AcDbEntity
  8
0
100
AcDbLine
 62
7
  6
CONTINUOUS
 10
439.3080506921
 20
283.5424306954
 11
439.1997975425
 21
283.9254093731
  0
LINE
  5
5DB
100
AcDbEntity
  8
0
100
AcDbLine
 62
7
  6
CONTINUOUS
 10
439.1328102185
 20
286.0956220592
 11
439.0245570689
 21
286.4786007369
  0
LINE
  5
5DC
100
AcDbEntity
  8
0
100
AcDbLine
 62
7
  6
CONTINUOUS
 10
439.6328102185
 20
286.0956220592
 11
439.5245570689
 21
286.4786007369
  0
LINE
  5
5DD
100
AcDbEntity
  8
0
100
AcDbLine
 62
7
  6
CONTINUOUS
 10
441.7308863525
 20
286.8615797723
 11
441.6226332802
 21
287.2445584501
  0
LINE
  5
5DE
100
AcDbEntity
  8
0
100
AcDbLine
 62
7
  6
CONTINUOUS
 10
442.2308863525
 20
286.8615797723
 11
442.1226332802
 21
287.2445584501
  0
LINE
  5
5DF
100
AcDbEntity
  8
0
100
AcDbLine
 62
7
  6
CONTINUOUS
 10
438.0502784896
 20
283.9254093731
 11
438.1585316683
 21
283.4147711361
  0
LINE
  5
5E0
100
AcDbEntity
  8
0
100
AcDbLine
 62
7
  6
CONTINUOUS
 10
438.375038016
 20
286.3509411777
 11
438.4832912044
 21
285.8403029407
  0
LINE
  5
5E1
100
AcDbEntity
  8
KONSTRUKTIONSELEMENTE
100
AcDbLine
 62
7
  6
CONTINUOUS
 10
426.7595706331
 20
276.7658349241
 11
426.7595706331
 21
293.7658349241
  0
LINE
  5
5E2
100
AcDbEntity
  8
0
100
AcDbLine
 62
7
  6
CONTINUOUS
 10
428.0095706331
 20
352.3369873468
 11
428.0095706331
 21
293.7658349241
  0
LINE
  5
5E3
100
AcDbEntity
  8
KONSTRUKTIONSELEMENTE
100
AcDbLine
 62
7
  6
CONTINUOUS
 10
429.4871572736
 20
276.7658349241
 11
429.4871572736
 21
293.7658349241
  0
LINE
  5
5E4
100
AcDbEntity
  8
RUNDUNGEN
100
AcDbLine
 62
7
  6
CONTINUOUS
 10
499.4392409428
 20
336.1408349241
 11
439.0799003235
 21
336.1408349241
  0
LINE
  5
5E5
100
AcDbEntity
  8
0
100
AcDbLine
 62
7
  6
CONTINUOUS
 10
482.3220706331
 20
318.0663669074
 11
481.5720713484
 21
318.4493455852
  0
LINE
  5
5E6
100
AcDbEntity
  8
0
100
AcDbLine
 62
7
  6
CONTINUOUS
 10
481.9470699179
 20
316.9174308742
 11
481.3845699179
 21
317.3004095519
  0
LINE
  5
5E7
100
AcDbEntity
  8
0
100
AcDbLine
 62
7
  6
CONTINUOUS
 10
465.4470706331
 20
317.8748775686
 11
464.697070812
 21
318.4493455852
  0
LINE
  5
5E8
100
AcDbEntity
  8
0
100
AcDbLine
 62
7
  6
CONTINUOUS
 10
469.1970702755
 20
310.2153030077
 11
468.4470709908
 21
310.9812604303
  0
LINE
  5
5E9
100
AcDbEntity
  8
0
100
AcDbLine
 62
7
  6
CONTINUOUS
 10
464.8845706331
 20
317.1089202131
 11
464.5095704543
 21
317.4918988908
  0
LINE
  5
5EA
100
AcDbEntity
  8
0
100
AcDbLine
 62
7
  6
CONTINUOUS
 10
489.917194831
 20
282.8083880956
 11
489.6646036064
 21
283.1062605048
  0
LINE
  5
5EB
100
AcDbEntity
  8
0
100
AcDbLine
 62
7
  6
CONTINUOUS
 10
490.417194831
 20
282.8083880956
 11
490.1646036064
 21
283.1062605048
  0
LINE
  5
5EC
100
AcDbEntity
  8
0
100
AcDbLine
 62
7
  6
CONTINUOUS
 10
495.4690099273
 20
282.8083880956
 11
495.8478960414
 21
282.361579586
  0
LINE
  5
5ED
100
AcDbEntity
  8
0
100
AcDbLine
 62
7
  6
CONTINUOUS
 10
493.2008742461
 20
287.7232818568
 11
492.6956925197
 21
288.3190264667
  0
LINE
  5
5EE
100
AcDbEntity
  8
0
100
AcDbLine
 62
7
  6
CONTINUOUS
 10
468.4470706331
 20
303.1089202131
 11
467.8845706331
 21
303.8748775686
  0
LINE
  5
5EF
100
AcDbEntity
  8
0
100
AcDbLine
 62
7
  6
CONTINUOUS
 10
474.6345706331
 20
297.1727497692
 11
475.1970706331
 21
296.4067923466
  0
LINE
  5
5F0
100
AcDbEntity
  8
0
100
AcDbLine
 62
7
  6
CONTINUOUS
 10
452.8809639424
 20
284.1807284916
 11
452.6644571785
 21
284.8190264667
  0
LINE
  5
5F1
100
AcDbEntity
  8
0
100
AcDbLine
 62
7
  6
CONTINUOUS
 10
453.3809639424
 20
284.1807284916
 11
453.1644571785
 21
284.8190264667
  0
LINE
  5
5F2
100
AcDbEntity
  8
0
100
AcDbLine
 62
7
  6
CONTINUOUS
 10
452.772709941
 20
286.7339198554
 11
452.556204416
 21
287.3722180093
  0
LINE
  5
5F3
100
AcDbEntity
  8
0
100
AcDbLine
 62
7
  6
CONTINUOUS
 10
453.272709941
 20
286.7339198554
 11
453.056204416
 21
287.3722180093
  0
LINE
  5
5F4
100
AcDbEntity
  8
0
100
AcDbLine
 62
7
  6
CONTINUOUS
 10
457.6441028373
 20
284.4360476101
 11
457.4275973123
 21
285.0743455852
  0
LINE
  5
5F5
100
AcDbEntity
  8
0
100
AcDbLine
 62
7
  6
CONTINUOUS
 10
458.1441028373
 20
284.4360476101
 11
457.9275973123
 21
285.0743455852
  0
LINE
  5
5F6
100
AcDbEntity
  8
0
100
AcDbLine
 62
7
  6
CONTINUOUS
 10
446.8187857029
 20
283.6700902546
 11
445.9527605056
 21
288.2658349241
  0
LINE
  5
5F7
100
AcDbEntity
  8
0
100
AcDbLine
 62
7
  6
CONTINUOUS
 10
445.5197475973
 20
287.1168988908
 11
446.3857727946
 21
282.2658349241
  0
LINE
  5
5F8
100
AcDbEntity
  8
0
100
AcDbLine
 62
7
  6
CONTINUOUS
 10
434.1531641726
 20
291.2658349241
 11
434.1531641726
 21
279.2658349241
  0
LINE
  5
5F9
100
AcDbEntity
  8
0
100
AcDbLine
 62
7
  6
CONTINUOUS
 10
434.6531641726
 20
291.2658349241
 11
434.6531641726
 21
279.2658349241
  0
LINE
  5
5FA
100
AcDbEntity
  8
RUNDUNGEN
100
AcDbLine
 62
7
  6
CONTINUOUS
 10
437.0095706331
 20
369.6671143657
 11
437.0095706331
 21
386.1373814894
  0
LINE
  5
5FB
100
AcDbEntity
  8
0
100
AcDbLine
 62
7
  6
CONTINUOUS
 10
438.375038016
 20
286.8615797723
 11
438.375038016
 21
286.3509411777
  0
LINE
  5
5FC
100
AcDbEntity
  8
0
100
AcDbLine
 62
7
  6
CONTINUOUS
 10
439.0245570689
 20
286.4786007369
 11
439.0245570689
 21
286.7339198554
  0
LINE
  5
5FD
100
AcDbEntity
  8
0
100
AcDbLine
 62
7
  6
CONTINUOUS
 10
439.5245570689
 20
286.4786007369
 11
439.5245570689
 21
286.7339198554
  0
LINE
  5
5FE
100
AcDbEntity
  8
RUNDUNGEN
100
AcDbLine
 62
7
  6
CONTINUOUS
 10
443.5880332694
 20
395.0691986727
 11
437.7114373038
 21
388.0657443184
  0
LINE
  5
5FF
100
AcDbEntity
  8
0
100
AcDbLine
 62
7
  6
CONTINUOUS
 10
483.0720699179
 20
317.3004095519
 11
482.3220706331
 21
318.0663669074
  0
LINE
  5
600
100
AcDbEntity
  8
0
100
AcDbLine
 62
7
  6
CONTINUOUS
 10
493.7008742461
 20
287.7232818568
 11
493.1956925197
 21
288.3190264667
  0
LINE
  5
601
100
AcDbEntity
  8
0
100
AcDbLine
 62
7
  6
CONTINUOUS
 10
498.5052798443
 20
287.7232818568
 11
498.1263937301
 21
288.1700903142
  0
LINE
  5
602
100
AcDbEntity
  8
0
100
AcDbLine
 62
7
  6
CONTINUOUS
 10
499.0052798443
 20
287.7232818568
 11
498.6263937301
 21
288.1700903142
  0
LINE
  5
603
100
AcDbEntity
  8
0
100
AcDbLine
 62
7
  6
CONTINUOUS
 10
466.0095706331
 20
317.1089202131
 11
465.4470706331
 21
317.8748775686
  0
LINE
  5
604
100
AcDbEntity
  8
0
100
AcDbLine
 62
7
  6
CONTINUOUS
 10
480.6345713484
 20
299.8536009157
 11
480.0720713484
 21
300.6195582712
  0
LINE
  5
605
100
AcDbEntity
  8
0
100
AcDbLine
 62
7
  6
CONTINUOUS
 10
469.5720709908
 20
311.3642392421
 11
469.1970702755
 21
311.9387072588
  0
LINE
  5
606
100
AcDbEntity
  8
0
100
AcDbLine
 62
7
  6
CONTINUOUS
 10
479.8845699179
 20
299.2791328991
 11
479.5095713484
 21
299.8536009157
  0
LINE
  5
607
100
AcDbEntity
  8
0
100
AcDbLine
 62
7
  6
CONTINUOUS
 10
474.2595699179
 20
297.9387072588
 11
474.6345706331
 21
297.1727497692
  0
LINE
  5
608
100
AcDbEntity
  8
0
100
AcDbLine
 62
7
  6
CONTINUOUS
 10
468.4470709908
 20
310.9812604303
 11
468.072070812
 21
311.7472179199
  0
LINE
  5
609
100
AcDbEntity
  8
0
100
AcDbLine
 62
7
  6
CONTINUOUS
 10
475.7595706331
 20
297.1727497692
 11
475.3845699179
 21
297.9387072588
  0
LINE
  5
60A
100
AcDbEntity
  8
0
100
AcDbLine
 62
7
  6
CONTINUOUS
 10
459.0720704543
 20
302.5344521964
 11
458.8845706331
 21
303.1089202131
  0
LINE
  5
60B
100
AcDbEntity
  8
0
100
AcDbLine
 62
7
  6
CONTINUOUS
 10
460.1970704543
 20
302.5344521964
 11
460.0095706331
 21
303.1089202131
  0
LINE
  5
60C
100
AcDbEntity
  8
0
100
AcDbLine
 62
7
  6
CONTINUOUS
 10
456.9945837845
 20
284.6913669074
 11
457.1028377858
 21
284.3083880509
  0
LINE
  5
60D
100
AcDbEntity
  8
0
100
AcDbLine
 62
7
  6
CONTINUOUS
 10
447.0330714464
 20
285.1862929881
 11
446.4527605056
 21
288.2658349241
  0
LINE
  5
60E
100
AcDbEntity
  8
0
100
AcDbLine
 62
7
  6
CONTINUOUS
 10
442.9216713859
 20
288.2658349241
 11
443.7876965832
 21
282.2658349241
  0
LINE
  5
60F
100
AcDbEntity
  8
0
100
AcDbLine
 62
7
  6
CONTINUOUS
 10
444.2207094916
 20
283.6700902546
 11
443.5711904388
 21
288.2658349241
  0
LINE
  5
610
100
AcDbEntity
  8
0
100
AcDbLine
 62
7
  6
CONTINUOUS
 10
444.5064237481
 20
285.1862929881
 11
444.0711904388
 21
288.2658349241
  0
LINE
  5
611
100
AcDbEntity
  8
0
100
AcDbLine
 62
7
  6
CONTINUOUS
 10
441.4061268261
 20
284.1807284916
 11
441.4061268261
 21
283.7977498139
  0
LINE
  5
612
100
AcDbEntity
  8
0
100
AcDbLine
 62
7
  6
CONTINUOUS
 10
442.0556458789
 20
283.6700902546
 11
442.0556458789
 21
284.3083880509
  0
LINE
  5
613
100
AcDbEntity
  8
0
100
AcDbLine
 62
7
  6
CONTINUOUS
 10
442.5556458789
 20
283.6700902546
 11
442.5556458789
 21
284.3083880509
  0
LINE
  5
614
100
AcDbEntity
  8
0
100
AcDbLine
 62
7
  6
CONTINUOUS
 10
448.9838496254
 20
284.1807284916
 11
448.9838496254
 21
283.7977498139
  0
LINE
  5
615
100
AcDbEntity
  8
0
100
AcDbLine
 62
7
  6
CONTINUOUS
 10
449.0921023879
 20
286.7339198554
 11
449.0921023879
 21
286.3509411777
  0
LINE
  5
616
100
AcDbEntity
  8
0
100
AcDbLine
 62
7
  6
CONTINUOUS
 10
449.5251146768
 20
283.7977498139
 11
449.5251146768
 21
284.1807284916
  0
LINE
  5
617
100
AcDbEntity
  8
0
100
AcDbLine
 62
7
  6
CONTINUOUS
 10
449.6333686782
 20
286.4786007369
 11
449.6333686782
 21
286.7339198554
  0
LINE
  5
618
100
AcDbEntity
  8
0
100
AcDbLine
 62
7
  6
CONTINUOUS
 10
450.0251146768
 20
283.7977498139
 11
450.0251146768
 21
284.1807284916
  0
LINE
  5
619
100
AcDbEntity
  8
0
100
AcDbLine
 62
7
  6
CONTINUOUS
 10
450.1333686782
 20
286.4786007369
 11
450.1333686782
 21
286.7339198554
  0
LINE
  5
61A
100
AcDbEntity
  8
RUNDUNGEN
100
AcDbLine
 62
7
  6
CONTINUOUS
 10
428.4114944218
 20
353.8369873468
 11
436.5406595464
 21
367.9171143657
  0
LINE
  5
61B
100
AcDbEntity
  8
0
100
AcDbLine
 62
7
  6
CONTINUOUS
 10
482.3220706331
 20
316.3429623211
 11
481.9470699179
 21
316.9174308742
  0
LINE
  5
61C
100
AcDbEntity
  8
0
100
AcDbLine
 62
7
  6
CONTINUOUS
 10
489.5331269904
 20
282.957324248
 11
489.7857174923
 21
282.5105157907
  0
LINE
  5
61D
100
AcDbEntity
  8
0
100
AcDbLine
 62
7
  6
CONTINUOUS
 10
493.3271698584
 20
284.595622238
 11
493.0745786338
 21
285.0424306954
  0
LINE
  5
61E
100
AcDbEntity
  8
0
100
AcDbLine
 62
7
  6
CONTINUOUS
 10
493.8271698584
 20
284.595622238
 11
493.5745786338
 21
285.0424306954
  0
LINE
  5
61F
100
AcDbEntity
  8
0
100
AcDbLine
 62
7
  6
CONTINUOUS
 10
492.9431020178
 20
287.5743457044
 11
493.1956925197
 21
287.127537247
  0
LINE
  5
620
100
AcDbEntity
  8
0
100
AcDbLine
 62
7
  6
CONTINUOUS
 10
495.7267821556
 20
282.957324248
 11
495.2215997065
 21
283.8509412671
  0
LINE
  5
621
100
AcDbEntity
  8
0
100
AcDbLine
 62
7
  6
CONTINUOUS
 10
496.2267821556
 20
282.957324248
 11
495.7215997065
 21
283.8509412671
  0
LINE
  5
622
100
AcDbEntity
  8
0
100
AcDbLine
 62
7
  6
CONTINUOUS
 10
484.3845699179
 20
296.4067923466
 11
484.0095713484
 21
297.1727497692
  0
LINE
  5
623
100
AcDbEntity
  8
0
100
AcDbLine
 62
7
  6
CONTINUOUS
 10
466.384570812
 20
309.6408349241
 11
464.697070812
 21
314.0450902546
  0
LINE
  5
624
100
AcDbEntity
  8
0
100
AcDbLine
 62
7
  6
CONTINUOUS
 10
465.0720704543
 20
309.6408349241
 11
463.5720705437
 21
313.6621115769
  0
LINE
  5
625
100
AcDbEntity
  8
0
100
AcDbLine
 62
7
  6
CONTINUOUS
 10
467.5095709908
 20
302.5344521964
 11
467.3220706331
 21
303.1089202131
  0
LINE
  5
626
100
AcDbEntity
  8
0
100
AcDbLine
 62
7
  6
CONTINUOUS
 10
468.6345709908
 20
302.5344521964
 11
468.4470706331
 21
303.1089202131
  0
LINE
  5
627
100
AcDbEntity
  8
0
100
AcDbLine
 62
7
  6
CONTINUOUS
 10
465.0720704543
 20
316.5344521964
 11
464.8845706331
 21
317.1089202131
  0
LINE
  5
628
100
AcDbEntity
  8
0
100
AcDbLine
 62
7
  6
CONTINUOUS
 10
466.1970704543
 20
316.5344521964
 11
466.0095706331
 21
317.1089202131
  0
LINE
  5
629
100
AcDbEntity
  8
0
100
AcDbLine
 62
7
  6
CONTINUOUS
 10
452.2314448895
 20
286.7339198554
 11
452.2314448895
 21
286.4786007369
  0
LINE
  5
62A
100
AcDbEntity
  8
0
100
AcDbLine
 62
7
  6
CONTINUOUS
 10
452.3396976521
 20
284.1807284916
 11
452.3396976521
 21
283.7977498139
  0
LINE
  5
62B
100
AcDbEntity
  8
0
100
AcDbLine
 62
7
  6
CONTINUOUS
 10
452.772709941
 20
286.3509411777
 11
452.772709941
 21
286.7339198554
  0
LINE
  5
62C
100
AcDbEntity
  8
0
100
AcDbLine
 62
7
  6
CONTINUOUS
 10
452.8809639424
 20
283.7977498139
 11
452.8809639424
 21
284.1807284916
  0
LINE
  5
62D
100
AcDbEntity
  8
0
100
AcDbLine
 62
7
  6
CONTINUOUS
 10
453.2595706331
 20
304.6408349241
 11
453.2595706331
 21
295.6408349241
  0
LINE
  5
62E
100
AcDbEntity
  8
0
100
AcDbLine
 62
7
  6
CONTINUOUS
 10
453.272709941
 20
286.3509411777
 11
453.272709941
 21
286.7339198554
  0
LINE
  5
62F
100
AcDbEntity
  8
0
100
AcDbLine
 62
7
  6
CONTINUOUS
 10
453.3809639424
 20
283.7977498139
 11
453.3809639424
 21
284.1807284916
  0
LINE
  5
630
100
AcDbEntity
  8
0
100
AcDbLine
 62
7
  6
CONTINUOUS
 10
453.7469885203
 20
288.2658349241
 11
453.7469885203
 21
284.9466860259
  0
LINE
  5
631
100
AcDbEntity
  8
0
100
AcDbLine
 62
7
  6
CONTINUOUS
 10
454.2595706331
 20
276.7658349241
 11
454.2595706331
 21
233.7658349241
  0
LINE
  5
632
100
AcDbEntity
  8
0
100
AcDbLine
 62
7
  6
CONTINUOUS
 10
454.2882548106
 20
285.5849838222
 11
454.2882548106
 21
287.6275371278
  0
LINE
  5
633
100
AcDbEntity
  8
0
100
AcDbLine
 62
7
  6
CONTINUOUS
 10
454.3845706331
 20
303.6833882297
 11
454.3845706331
 21
300.8110476101
  0
LINE
  5
634
100
AcDbEntity
  8
0
100
AcDbLine
 62
7
  6
CONTINUOUS
 10
454.3845706331
 20
299.6621115769
 11
454.3845706331
 21
295.6408349241
  0
LINE
  5
635
100
AcDbEntity
  8
0
100
AcDbLine
 62
7
  6
CONTINUOUS
 10
454.7882548106
 20
285.9387641006
 11
454.7882548106
 21
287.6275371278
  0
LINE
  5
636
100
AcDbEntity
  8
0
100
AcDbLine
 62
7
  6
CONTINUOUS
 10
457.1028377858
 20
284.3083880509
 11
457.1028377858
 21
284.0530689324
  0
LINE
  5
637
100
AcDbEntity
  8
0
100
AcDbLine
 62
7
  6
CONTINUOUS
 10
457.4275973123
 20
287.6275371278
 11
457.4275973123
 21
288.2658349241
  0
LINE
  5
638
100
AcDbEntity
  8
0
100
AcDbLine
 62
7
  6
CONTINUOUS
 10
457.6441028373
 20
283.9254093731
 11
457.6441028373
 21
284.4360476101
  0
LINE
  5
639
100
AcDbEntity
  8
0
100
AcDbLine
 62
7
  6
CONTINUOUS
 10
457.9275973123
 20
287.6275371278
 11
457.9275973123
 21
288.2658349241
  0
LINE
  5
63A
100
AcDbEntity
  8
0
100
AcDbLine
 62
7
  6
CONTINUOUS
 10
458.1441028373
 20
283.9254093731
 11
458.1441028373
 21
284.4360476101
  0
LINE
  5
63B
100
AcDbEntity
  8
KONSTRUKTIONSELEMENTE
100
AcDbLine
 62
7
  6
CONTINUOUS
 10
458.7595706331
 20
510.2658349241
 11
458.7595706331
 21
469.6789175476
  0
LINE
  5
63C
100
AcDbEntity
  8
KONSTRUKTIONSELEMENTE
100
AcDbLine
 62
7
  6
CONTINUOUS
 10
458.7595706331
 20
399.8527400219
 11
458.7595706331
 21
359.2658349241
  0
LINE
  5
63D
100
AcDbEntity
  8
0
100
AcDbLine
 62
7
  6
CONTINUOUS
 10
459.0720704543
 20
302.5344521964
 11
459.0720704543
 21
301.9599836434
  0
LINE
  5
63E
100
AcDbEntity
  8
0
100
AcDbLine
 62
7
  6
CONTINUOUS
 10
459.2595706331
 20
318.6408349241
 11
459.2595706331
 21
309.6408349241
  0
LINE
  5
63F
100
AcDbEntity
  8
0
100
AcDbLine
 62
7
  6
CONTINUOUS
 10
460.1970704543
 20
302.5344521964
 11
460.1970704543
 21
301.7684943045
  0
LINE
  5
640
100
AcDbEntity
  8
0
100
AcDbLine
 62
7
  6
CONTINUOUS
 10
460.3845706331
 20
317.6833882297
 11
460.3845706331
 21
314.8110476101
  0
LINE
  5
641
100
AcDbEntity
  8
0
100
AcDbLine
 62
7
  6
CONTINUOUS
 10
460.3845706331
 20
313.6621115769
 11
460.3845706331
 21
309.6408349241
  0
LINE
  5
642
100
AcDbEntity
  8
0
100
AcDbLine
 62
7
  6
CONTINUOUS
 10
447.4683047558
 20
288.2658349241
 11
446.8187857029
 21
283.6700902546
  0
LINE
  5
643
100
AcDbEntity
  8
0
100
AcDbLine
 62
7
  6
CONTINUOUS
 10
438.4832912044
 20
287.3722180093
 11
438.375038016
 21
286.8615797723
  0
LINE
  5
644
100
AcDbEntity
  8
KONSTRUKTIONSELEMENTE
100
AcDbLine
 62
7
  6
CONTINUOUS
 10
458.7594922161
 20
399.8373390375
 11
462.7595706331
 21
414.7658349241
  0
LINE
  5
645
100
AcDbEntity
  8
KONSTRUKTIONSELEMENTE
100
AcDbLine
 62
7
  6
CONTINUOUS
 10
479.7596494301
 20
469.6943322287
 11
475.7595706331
 21
454.7658349241
  0
LINE
  5
646
100
AcDbEntity
  8
0
100
AcDbLine
 62
7
  6
CONTINUOUS
 10
498.247507616
 20
287.5743457044
 11
498.7526886197
 21
286.6807283724
  0
LINE
  5
647
100
AcDbEntity
  8
0
100
AcDbLine
 62
7
  6
CONTINUOUS
 10
483.4470706331
 20
316.5344521964
 11
483.0720699179
 21
317.3004095519
  0
LINE
  5
648
100
AcDbEntity
  8
0
100
AcDbLine
 62
7
  6
CONTINUOUS
 10
489.6646036064
 20
283.1062605048
 11
489.5383087168
 21
283.4041328097
  0
LINE
  5
649
100
AcDbEntity
  8
0
100
AcDbLine
 62
7
  6
CONTINUOUS
 10
490.1646036064
 20
283.1062605048
 11
490.0383087168
 21
283.4041328097
  0
LINE
  5
64A
100
AcDbEntity
  8
0
100
AcDbLine
 62
7
  6
CONTINUOUS
 10
493.0693976301
 20
284.595622238
 11
493.3219881319
 21
283.9998774195
  0
LINE
  5
64B
100
AcDbEntity
  8
0
100
AcDbLine
 62
7
  6
CONTINUOUS
 10
495.2164187027
 20
283.4041328097
 11
495.4690099273
 21
282.8083880956
  0
LINE
  5
64C
100
AcDbEntity
  8
0
100
AcDbLine
 62
7
  6
CONTINUOUS
 10
481.0095699179
 20
298.8961539531
 11
480.6345713484
 21
299.8536009157
  0
LINE
  5
64D
100
AcDbEntity
  8
0
100
AcDbLine
 62
7
  6
CONTINUOUS
 10
480.0720713484
 20
298.7046646143
 11
479.8845699179
 21
299.2791328991
  0
LINE
  5
64E
100
AcDbEntity
  8
0
100
AcDbLine
 62
7
  6
CONTINUOUS
 10
485.1345713484
 20
296.9812604303
 11
484.9470699179
 21
297.555728581
  0
LINE
  5
64F
100
AcDbEntity
  8
0
100
AcDbLine
 62
7
  6
CONTINUOUS
 10
483.0920630497
 20
287.2764733995
 11
484.8601981889
 21
281.7658349241
  0
LINE
  5
650
100
AcDbEntity
  8
0
100
AcDbLine
 62
7
  6
CONTINUOUS
 10
484.8653797347
 20
282.5105157907
 11
482.9709491639
 21
288.7658349241
  0
LINE
  5
651
100
AcDbEntity
  8
0
100
AcDbLine
 62
7
  6
CONTINUOUS
 10
485.3653797347
 20
282.5105157907
 11
483.4709491639
 21
288.7658349241
  0
LINE
  5
652
100
AcDbEntity
  8
0
100
AcDbLine
 62
7
  6
CONTINUOUS
 10
469.1970702755
 20
311.9387072588
 11
469.0095709908
 21
312.7046646143
  0
LINE
  5
653
100
AcDbEntity
  8
0
100
AcDbLine
 62
7
  6
CONTINUOUS
 10
468.072070812
 20
311.7472179199
 11
467.8845704543
 21
312.7046646143
  0
LINE
  5
654
100
AcDbEntity
  8
0
100
AcDbLine
 62
7
  6
CONTINUOUS
 10
461.6970706331
 20
304.6408349241
 11
461.6970706331
 21
295.6408349241
  0
LINE
  5
655
100
AcDbEntity
  8
0
100
AcDbLine
 62
7
  6
CONTINUOUS
 10
461.8659770937
 20
279.2658349241
 11
461.8659770937
 21
291.2658349241
  0
LINE
  5
656
100
AcDbEntity
  8
KONSTRUKTIONSELEMENTE
100
AcDbLine
 62
7
  6
CONTINUOUS
 10
462.7595706331
 20
454.7658349241
 11
462.7595706331
 21
414.7658349241
  0
LINE
  5
657
100
AcDbEntity
  8
0
100
AcDbLine
 62
7
  6
CONTINUOUS
 10
462.8220706331
 20
303.6833882297
 11
462.8220706331
 21
300.8110476101
  0
LINE
  5
658
100
AcDbEntity
  8
0
100
AcDbLine
 62
7
  6
CONTINUOUS
 10
462.8220706331
 20
299.6621115769
 11
462.8220706331
 21
295.6408349241
  0
LINE
  5
659
100
AcDbEntity
  8
0
100
AcDbLine
 62
7
  6
CONTINUOUS
 10
465.0720704543
 20
316.5344521964
 11
465.0720704543
 21
315.9599836434
  0
LINE
  5
65A
100
AcDbEntity
  8
0
100
AcDbLine
 62
7
  6
CONTINUOUS
 10
466.1970704543
 20
316.5344521964
 11
466.1970704543
 21
315.7684943045
  0
LINE
  5
65B
100
AcDbEntity
  8
KONSTRUKTIONSELEMENTE
100
AcDbLine
 62
7
  6
CONTINUOUS
 10
466.5319839927
 20
276.7658349241
 11
466.5319839927
 21
293.7658349241
  0
LINE
  5
65C
100
AcDbEntity
  8
0
100
AcDbLine
 62
7
  6
CONTINUOUS
 10
467.5095709908
 20
302.5344521964
 11
467.5095709908
 21
301.9599836434
  0
LINE
  5
65D
100
AcDbEntity
  8
0
100
AcDbLine
 62
7
  6
CONTINUOUS
 10
467.8845704543
 20
318.6408349241
 11
467.8845704543
 21
312.7046646143
  0
LINE
  5
65E
100
AcDbEntity
  8
0
100
AcDbLine
 62
7
  6
CONTINUOUS
 10
468.6345709908
 20
302.5344521964
 11
468.6345709908
 21
301.7684943045
  0
LINE
  5
65F
100
AcDbEntity
  8
0
100
AcDbLine
 62
7
  6
CONTINUOUS
 10
469.0095709908
 20
318.6408349241
 11
469.0095709908
 21
312.7046646143
  0
LINE
  5
660
100
AcDbEntity
  8
0
100
AcDbLine
 62
7
  6
CONTINUOUS
 10
470.1345706331
 20
299.8536009157
 11
470.1345706331
 21
298.8961539531
  0
LINE
  5
661
100
AcDbEntity
  8
0
100
AcDbLine
 62
7
  6
CONTINUOUS
 10
447.2517986113
 20
282.2658349241
 11
448.1178238086
 21
288.2658349241
  0
LINE
  5
662
100
AcDbEntity
  8
0
100
AcDbLine
 62
7
  6
CONTINUOUS
 10
447.7517986113
 20
282.2658349241
 11
448.6178238086
 21
288.2658349241
  0
LINE
  5
663
100
AcDbEntity
  8
0
100
AcDbLine
 62
7
  6
CONTINUOUS
 10
444.6537224
 20
282.2658349241
 11
445.5197475973
 21
287.1168988908
  0
LINE
  5
664
100
AcDbEntity
  8
0
100
AcDbLine
 62
7
  6
CONTINUOUS
 10
445.1537224
 20
282.2658349241
 11
445.7697475973
 21
285.7165170134
  0
LINE
  5
665
100
AcDbEntity
  8
0
100
AcDbLine
 62
7
  6
CONTINUOUS
 10
445.0867346889
 20
288.2658349241
 11
444.2207094916
 21
283.6700902546
  0
LINE
  5
666
100
AcDbEntity
  8
0
100
AcDbLine
 62
7
  6
CONTINUOUS
 10
439.0245570689
 20
286.7339198554
 11
439.1328102185
 21
287.1168988908
  0
LINE
  5
667
100
AcDbEntity
  8
0
100
AcDbLine
 62
7
  6
CONTINUOUS
 10
439.5245570689
 20
286.7339198554
 11
439.6328102185
 21
287.1168988908
  0
LINE
  5
668
100
AcDbEntity
  8
0
100
AcDbLine
 62
7
  6
CONTINUOUS
 10
498.7578710688
 20
287.127537247
 11
498.5052798443
 21
287.7232818568
  0
LINE
  5
669
100
AcDbEntity
  8
0
100
AcDbLine
 62
7
  6
CONTINUOUS
 10
499.2578710688
 20
287.127537247
 11
499.0052798443
 21
287.7232818568
  0
LINE
  5
66A
100
AcDbEntity
  8
0
100
AcDbLine
 62
7
  6
CONTINUOUS
 10
489.4068313781
 20
283.4041328097
 11
489.5331269904
 21
282.957324248
  0
LINE
  5
66B
100
AcDbEntity
  8
0
100
AcDbLine
 62
7
  6
CONTINUOUS
 10
495.0901238131
 20
283.8509412671
 11
495.2164187027
 21
283.4041328097
  0
LINE
  5
66C
100
AcDbEntity
  8
0
100
AcDbLine
 62
7
  6
CONTINUOUS
 10
482.5095699179
 20
315.5770049656
 11
482.3220706331
 21
316.3429623211
  0
LINE
  5
66D
100
AcDbEntity
  8
0
100
AcDbLine
 62
7
  6
CONTINUOUS
 10
479.7593607526
 20
507.6526267633
 11
479.7595704589
 21
507.590574487
  0
LINE
  5
66E
100
AcDbEntity
  8
KONSTRUKTIONSELEMENTE
100
AcDbLine
 62
7
  6
CONTINUOUS
 10
471.9871572736
 20
276.7658349241
 11
471.9871572736
 21
293.7658349241
  0
LINE
  5
66F
100
AcDbEntity
  8
0
100
AcDbLine
 62
7
  6
CONTINUOUS
 10
472.7595713484
 20
299.8536009157
 11
472.7595713484
 21
298.8961539531
  0
LINE
  5
670
100
AcDbEntity
  8
0
100
AcDbLine
 62
7
  6
CONTINUOUS
 10
473.5095709908
 20
318.6408349241
 11
473.5095709908
 21
312.7046646143
  0
LINE
  5
671
100
AcDbEntity
  8
0
100
AcDbLine
 62
7
  6
CONTINUOUS
 10
474.2595699179
 20
304.6408349241
 11
474.2595699179
 21
299.6621115769
  0
LINE
  5
672
100
AcDbEntity
  8
0
100
AcDbLine
 62
7
  6
CONTINUOUS
 10
474.6345709908
 20
318.6408349241
 11
474.6345709908
 21
312.7046646143
  0
LINE
  5
673
100
AcDbEntity
  8
0
100
AcDbLine
 62
7
  6
CONTINUOUS
 10
475.1970706331
 20
303.6833882297
 11
475.1970706331
 21
300.6195582712
  0
LINE
  5
674
100
AcDbEntity
  8
KONSTRUKTIONSELEMENTE
100
AcDbLine
 62
7
  6
CONTINUOUS
 10
475.7595706331
 20
454.7658349241
 11
475.7595706331
 21
414.7658349241
  0
LINE
  5
675
100
AcDbEntity
  8
0
100
AcDbLine
 62
7
  6
CONTINUOUS
 10
476.1345706331
 20
318.6408349241
 11
476.1345706331
 21
309.6408349241
  0
LINE
  5
676
100
AcDbEntity
  8
0
100
AcDbLine
 62
7
  6
CONTINUOUS
 10
476.2595706331
 20
451.7658349241
 11
476.2595706331
 21
442.7658349241
  0
LINE
  5
677
100
AcDbEntity
  8
0
100
AcDbLine
 62
7
  6
CONTINUOUS
 10
476.2595706331
 20
439.7658349241
 11
476.2595706331
 21
430.7658349241
  0
LINE
  5
678
100
AcDbEntity
  8
0
100
AcDbLine
 62
7
  6
CONTINUOUS
 10
476.2595706331
 20
427.7658349241
 11
476.2595706331
 21
418.7658349241
  0
LINE
  5
679
100
AcDbEntity
  8
0
100
AcDbLine
 62
7
  6
CONTINUOUS
 10
477.2595706331
 20
317.4918988908
 11
477.2595706331
 21
310.7897710914
  0
LINE
  5
67A
100
AcDbEntity
  8
KONSTRUKTIONSELEMENTE
100
AcDbLine
 62
7
  6
CONTINUOUS
 10
479.7595706331
 20
508.8527822362
 11
479.7595706331
 21
508.2248810404
  0
LINE
  5
67B
100
AcDbEntity
  8
KONSTRUKTIONSELEMENTE
100
AcDbLine
 62
7
  6
CONTINUOUS
 10
479.7595706331
 20
507.5905810224
 11
479.7595706331
 21
506.000198869
  0
LINE
  5
67C
100
AcDbEntity
  8
KONSTRUKTIONSELEMENTE
100
AcDbLine
 62
7
  6
CONTINUOUS
 10
479.7595706331
 20
497.7217020644
 11
479.7595706331
 21
469.6789238008
  0
LINE
  5
67D
100
AcDbEntity
  8
KONSTRUKTIONSELEMENTE
100
AcDbLine
 62
7
  6
CONTINUOUS
 10
479.7595706331
 20
399.8527527876
 11
479.7595706331
 21
359.2658349241
  0
LINE
  5
67E
100
AcDbEntity
  8
0
100
AcDbLine
 62
7
  6
CONTINUOUS
 10
480.0720713484
 20
298.3216859365
 11
480.0720713484
 21
298.7046646143
  0
LINE
  5
67F
100
AcDbEntity
  8
0
100
AcDbLine
 62
7
  6
CONTINUOUS
 10
480.2595706331
 20
513.2431522179
 11
480.2595706331
 21
496.0242018529
  0
LINE
  5
680
100
AcDbEntity
  8
0
100
AcDbLine
 62
7
  6
CONTINUOUS
 10
480.6345713484
 20
304.6408349241
 11
480.6345713484
 21
303.6833882297
  0
LINE
  5
681
100
AcDbEntity
  8
0
100
AcDbLine
 62
7
  6
CONTINUOUS
 10
449.3086091518
 20
287.3722180093
 11
449.0921023879
 21
286.7339198554
  0
LINE
  5
682
100
AcDbEntity
  8
0
100
AcDbLine
 62
7
  6
CONTINUOUS
 10
449.2003551504
 20
284.8190264667
 11
448.9838496254
 21
284.1807284916
  0
LINE
  5
683
100
AcDbEntity
  8
0
100
AcDbLine
 62
7
  6
CONTINUOUS
 10
441.8391397344
 20
283.1594519282
 11
442.0556458789
 21
283.6700902546
  0
LINE
  5
684
100
AcDbEntity
  8
0
100
AcDbLine
 62
7
  6
CONTINUOUS
 10
498.8841659584
 20
286.6807283724
 11
498.7578710688
 21
287.127537247
  0
LINE
  5
685
100
AcDbEntity
  8
0
100
AcDbLine
 62
7
  6
CONTINUOUS
 10
499.3841659584
 20
286.6807283724
 11
499.2578710688
 21
287.127537247
  0
LINE
  5
686
100
AcDbEntity
  8
0
100
AcDbLine
 62
7
  6
CONTINUOUS
 10
493.453464748
 20
283.9998774195
 11
493.3271698584
 21
284.595622238
  0
LINE
  5
687
100
AcDbEntity
  8
0
100
AcDbLine
 62
7
  6
CONTINUOUS
 10
493.953464748
 20
283.9998774195
 11
493.8271698584
 21
284.595622238
  0
LINE
  5
688
100
AcDbEntity
  8
0
100
AcDbLine
 62
7
  6
CONTINUOUS
 10
493.3271698584
 20
287.127537247
 11
493.2008742461
 21
287.7232818568
  0
LINE
  5
689
100
AcDbEntity
  8
0
100
AcDbLine
 62
7
  6
CONTINUOUS
 10
493.8271698584
 20
287.127537247
 11
493.7008742461
 21
287.7232818568
  0
LINE
  5
68A
100
AcDbEntity
  8
0
100
AcDbLine
 62
7
  6
CONTINUOUS
 10
483.6345699179
 20
315.5770049656
 11
483.4470706331
 21
316.5344521964
  0
LINE
  5
68B
100
AcDbEntity
  8
0
100
AcDbLine
 62
7
  6
CONTINUOUS
 10
494.9638274782
 20
284.595622238
 11
495.0901238131
 21
283.8509412671
  0
LINE
  5
68C
100
AcDbEntity
  8
0
100
AcDbLine
 62
7
  6
CONTINUOUS
 10
481.0095699179
 20
298.1301965976
 11
481.0095699179
 21
298.8961539531
  0
LINE
  5
68D
100
AcDbEntity
  8
0
100
AcDbLine
 62
7
  6
CONTINUOUS
 10
482.3342908214
 20
288.7658349241
 11
482.3342908214
 21
281.7658349241
  0
LINE
  5
68E
100
AcDbEntity
  8
0
100
AcDbLine
 62
7
  6
CONTINUOUS
 10
482.5095699179
 20
315.5770049656
 11
482.5095699179
 21
312.7046646143
  0
LINE
  5
68F
100
AcDbEntity
  8
0
100
AcDbLine
 62
7
  6
CONTINUOUS
 10
482.5095706331
 20
301.7684943045
 11
482.5095706331
 21
301.002536949
  0
LINE
  5
690
100
AcDbEntity
  8
0
100
AcDbLine
 62
7
  6
CONTINUOUS
 10
482.5920630497
 20
281.7658349241
 11
482.5920630497
 21
287.2764733995
  0
LINE
  5
691
100
AcDbEntity
  8
0
100
AcDbLine
 62
7
  6
CONTINUOUS
 10
483.0920630497
 20
281.7658349241
 11
483.0920630497
 21
287.2764733995
  0
LINE
  5
692
100
AcDbEntity
  8
0
100
AcDbLine
 62
7
  6
CONTINUOUS
 10
483.6345699179
 20
315.5770049656
 11
483.6345699179
 21
312.7046646143
  0
LINE
  5
693
100
AcDbEntity
  8
0
100
AcDbLine
 62
7
  6
CONTINUOUS
 10
484.0095713484
 20
303.3004095519
 11
484.0095713484
 21
301.7684943045
  0
LINE
  5
694
100
AcDbEntity
  8
0
100
AcDbLine
 62
7
  6
CONTINUOUS
 10
484.0095713484
 20
301.002536949
 11
484.0095713484
 21
297.1727497692
  0
LINE
  5
695
100
AcDbEntity
  8
0
100
AcDbLine
 62
7
  6
CONTINUOUS
 10
484.2595706331
 20
276.7658349241
 11
484.2595706331
 21
233.7658349241
  0
LINE
  5
696
100
AcDbEntity
  8
0
100
AcDbLine
 62
7
  6
CONTINUOUS
 10
484.9470699179
 20
303.3004095519
 11
484.9470699179
 21
301.7684943045
  0
LINE
  5
697
100
AcDbEntity
  8
0
100
AcDbLine
 62
7
  6
CONTINUOUS
 10
484.9470699179
 20
301.002536949
 11
484.9470699179
 21
297.555728581
  0
LINE
  5
698
100
AcDbEntity
  8
0
100
AcDbLine
 62
7
  6
CONTINUOUS
 10
486.6345699179
 20
296.4067923466
 11
486.6345699179
 21
295.6408349241
  0
LINE
  5
699
100
AcDbEntity
  8
0
100
AcDbLine
 62
7
  6
CONTINUOUS
 10
487.0095706331
 20
301.7684943045
 11
487.0095706331
 21
301.002536949
  0
LINE
  5
69A
100
AcDbEntity
  8
0
100
AcDbLine
 62
7
  6
CONTINUOUS
 10
487.6386964196
 20
287.2764733995
 11
487.6386964196
 21
281.7658349241
  0
LINE
  5
69B
100
AcDbEntity
  8
0
100
AcDbLine
 62
7
  6
CONTINUOUS
 10
487.8964686479
 20
281.7658349241
 11
487.8964686479
 21
288.7658349241
  0
LINE
  5
69C
100
AcDbEntity
  8
0
100
AcDbLine
 62
7
  6
CONTINUOUS
 10
488.3964686479
 20
281.7658349241
 11
488.3964686479
 21
288.7658349241
  0
LINE
  5
69D
100
AcDbEntity
  8
0
100
AcDbLine
 62
7
  6
CONTINUOUS
 10
474.6345709908
 20
312.7046646143
 11
474.4470706331
 21
311.7472179199
  0
LINE
  5
69E
100
AcDbEntity
  8
0
100
AcDbLine
 62
7
  6
CONTINUOUS
 10
473.5095709908
 20
312.7046646143
 11
473.3220706331
 21
311.9387072588
  0
LINE
  5
69F
100
AcDbEntity
  8
0
100
AcDbLine
 62
7
  6
CONTINUOUS
 10
457.1028377858
 20
284.0530689324
 11
456.9945837845
 21
283.6700902546
  0
LINE
  5
6A0
100
AcDbEntity
  8
0
100
AcDbLine
 62
7
  6
CONTINUOUS
 10
459.0720704543
 20
301.9599836434
 11
458.8845706331
 21
301.3855156267
  0
LINE
  5
6A1
100
AcDbEntity
  8
0
100
AcDbLine
 62
7
  6
CONTINUOUS
 10
460.1970704543
 20
301.7684943045
 11
460.0095706331
 21
301.1940262879
  0
LINE
  5
6A2
100
AcDbEntity
  8
0
100
AcDbLine
 62
7
  6
CONTINUOUS
 10
465.0720704543
 20
315.9599836434
 11
464.8845706331
 21
315.3855156267
  0
LINE
  5
6A3
100
AcDbEntity
  8
0
100
AcDbLine
 62
7
  6
CONTINUOUS
 10
466.1970704543
 20
315.7684943045
 11
466.0095706331
 21
315.1940262879
  0
LINE
  5
6A4
100
AcDbEntity
  8
0
100
AcDbLine
 62
7
  6
CONTINUOUS
 10
467.5095709908
 20
301.9599836434
 11
467.3220706331
 21
301.3855156267
  0
LINE
  5
6A5
100
AcDbEntity
  8
0
100
AcDbLine
 62
7
  6
CONTINUOUS
 10
452.6644571785
 20
283.1594519282
 11
452.8809639424
 21
283.7977498139
  0
LINE
  5
6A6
100
AcDbEntity
  8
0
100
AcDbLine
 62
7
  6
CONTINUOUS
 10
453.1644571785
 20
283.1594519282
 11
453.3809639424
 21
283.7977498139
  0
LINE
  5
6A7
100
AcDbEntity
  8
0
100
AcDbLine
 62
7
  6
CONTINUOUS
 10
457.4275973123
 20
283.2871114875
 11
457.6441028373
 21
283.9254093731
  0
LINE
  5
6A8
100
AcDbEntity
  8
0
100
AcDbLine
 62
7
  6
CONTINUOUS
 10
457.9275973123
 20
283.2871114875
 11
458.1441028373
 21
283.9254093731
  0
LINE
  5
6A9
100
AcDbEntity
  8
0
100
AcDbLine
 62
7
  6
CONTINUOUS
 10
442.3391397344
 20
283.1594519282
 11
442.5556458789
 21
283.6700902546
  0
LINE
  5
6AA
100
AcDbEntity
  8
0
100
AcDbLine
 62
7
  6
CONTINUOUS
 10
452.556204416
 20
285.8403029407
 11
452.772709941
 21
286.3509411777
  0
LINE
  5
6AB
100
AcDbEntity
  8
0
100
AcDbLine
 62
7
  6
CONTINUOUS
 10
453.056204416
 20
285.8403029407
 11
453.272709941
 21
286.3509411777
  0
LINE
  5
6AC
100
AcDbEntity
  8
0
100
AcDbLine
 62
7
  6
CONTINUOUS
 10
441.4061268261
 20
283.7977498139
 11
441.1896206816
 21
283.4147711361
  0
LINE
  5
6AD
100
AcDbEntity
  8
0
100
AcDbLine
 62
7
  6
CONTINUOUS
 10
492.6349200392
 20
396.1408349241
 11
484.9040584803
 21
396.1408349241
  0
LINE
  5
6AE
100
AcDbEntity
  8
0
100
AcDbLine
 62
7
  6
CONTINUOUS
 10
453.7918623349
 20
396.1408349241
 11
445.8850078911
 21
396.1408349241
  0
LINE
  5
6AF
100
AcDbEntity
  8
KONSTRUKTIONSELEMENTE
100
AcDbLine
 62
7
  6
CONTINUOUS
 10
462.7595706331
 20
454.7658349241
 11
458.7594911045
 21
469.6943349593
  0
LINE
  5
6B0
100
AcDbEntity
  8
KONSTRUKTIONSELEMENTE
100
AcDbLine
 62
7
  6
CONTINUOUS
 10
475.7595706331
 20
414.7658349241
 11
479.7596501607
 21
399.8373348929
  0
LINE
  5
6B1
100
AcDbEntity
  8
0
100
AcDbLine
 62
7
  6
CONTINUOUS
 10
499.010460848
 20
285.9360476101
 11
498.8841659584
 21
286.6807283724
  0
LINE
  5
6B2
100
AcDbEntity
  8
0
100
AcDbLine
 62
7
  6
CONTINUOUS
 10
499.510460848
 20
285.9360476101
 11
499.3841659584
 21
286.6807283724
  0
LINE
  5
6B3
100
AcDbEntity
  8
0
100
AcDbLine
 62
7
  6
CONTINUOUS
 10
495.2215997065
 20
283.8509412671
 11
495.0953048169
 21
284.7445583905
  0
LINE
  5
6B4
100
AcDbEntity
  8
0
100
AcDbLine
 62
7
  6
CONTINUOUS
 10
495.7215997065
 20
283.8509412671
 11
495.5953048169
 21
284.7445583905
  0
LINE
  5
6B5
100
AcDbEntity
  8
0
100
AcDbLine
 62
7
  6
CONTINUOUS
 10
498.7526886197
 20
286.6807283724
 11
498.8789849547
 21
285.7871114577
  0
LINE
  5
6B6
100
AcDbEntity
  8
0
100
AcDbLine
 62
7
  6
CONTINUOUS
 10
491.4275575612
 20
285.6381753052
 11
491.4275575612
 21
285.0424306954
  0
LINE
  5
6B7
100
AcDbEntity
  8
0
100
AcDbLine
 62
7
  6
CONTINUOUS
 10
493.1956925197
 20
287.127537247
 11
493.1956925197
 21
286.8296645249
  0
LINE
  5
6B8
100
AcDbEntity
  8
0
100
AcDbLine
 62
7
  6
CONTINUOUS
 10
493.3219881319
 20
283.9998774195
 11
493.3219881319
 21
283.4041328097
  0
LINE
  5
6B9
100
AcDbEntity
  8
0
100
AcDbLine
 62
7
  6
CONTINUOUS
 10
493.3271698584
 20
286.8296645249
 11
493.3271698584
 21
287.127537247
  0
LINE
  5
6BA
100
AcDbEntity
  8
0
100
AcDbLine
 62
7
  6
CONTINUOUS
 10
493.453464748
 20
283.4041328097
 11
493.453464748
 21
283.9998774195
  0
LINE
  5
6BB
100
AcDbEntity
  8
0
100
AcDbLine
 62
7
  6
CONTINUOUS
 10
493.8271698584
 20
286.8296645249
 11
493.8271698584
 21
287.127537247
  0
LINE
  5
6BC
100
AcDbEntity
  8
0
100
AcDbLine
 62
7
  6
CONTINUOUS
 10
493.953464748
 20
283.4041328097
 11
493.953464748
 21
283.9998774195
  0
LINE
  5
6BD
100
AcDbEntity
  8
0
100
AcDbLine
 62
7
  6
CONTINUOUS
 10
494.9638274782
 20
285.9360476101
 11
494.9638274782
 21
284.595622238
  0
LINE
  5
6BE
100
AcDbEntity
  8
0
100
AcDbLine
 62
7
  6
CONTINUOUS
 10
495.0953048169
 20
284.7445583905
 11
495.0953048169
 21
285.7871114577
  0
LINE
  5
6BF
100
AcDbEntity
  8
0
100
AcDbLine
 62
7
  6
CONTINUOUS
 10
495.5953048169
 20
284.7445583905
 11
495.5953048169
 21
285.7871114577
  0
LINE
  5
6C0
100
AcDbEntity
  8
0
100
AcDbLine
 62
7
  6
CONTINUOUS
 10
498.8789849547
 20
285.7871114577
 11
498.8789849547
 21
284.7445583905
  0
LINE
  5
6C1
100
AcDbEntity
  8
0
100
AcDbLine
 62
7
  6
CONTINUOUS
 10
499.010460848
 20
284.595622238
 11
499.010460848
 21
285.9360476101
  0
LINE
  5
6C2
100
AcDbEntity
  8
0
100
AcDbLine
 62
7
  6
CONTINUOUS
 10
499.510460848
 20
284.595622238
 11
499.510460848
 21
285.9360476101
  0
LINE
  5
6C3
100
AcDbEntity
  8
0
100
AcDbLine
 62
7
  6
CONTINUOUS
 10
483.6345699179
 20
312.7046646143
 11
483.4470706331
 21
311.7472179199
  0
LINE
  5
6C4
100
AcDbEntity
  8
0
100
AcDbLine
 62
7
  6
CONTINUOUS
 10
482.5095699179
 20
312.7046646143
 11
482.3220706331
 21
311.9387072588
  0
LINE
  5
6C5
100
AcDbEntity
  8
0
100
AcDbLine
 62
7
  6
CONTINUOUS
 10
468.6345709908
 20
301.7684943045
 11
468.4470706331
 21
301.1940262879
  0
LINE
  5
6C6
100
AcDbEntity
  8
0
100
AcDbLine
 62
7
  6
CONTINUOUS
 10
449.6333686782
 20
286.7339198554
 11
449.8498742032
 21
287.1168988908
  0
LINE
  5
6C7
100
AcDbEntity
  8
0
100
AcDbLine
 62
7
  6
CONTINUOUS
 10
450.1333686782
 20
286.7339198554
 11
450.3498742032
 21
287.1168988908
  0
LINE
  5
6C8
100
AcDbEntity
  8
0
100
AcDbLine
 62
7
  6
CONTINUOUS
 10
452.2314448895
 20
286.4786007369
 11
452.0149381256
 21
286.0956220592
  0
LINE
  5
6C9
100
AcDbEntity
  8
RUNDUNGEN
100
AcDbLine
 62
7
  6
CONTINUOUS
 10
501.9784817199
 20
367.9171143657
 11
510.1076468445
 21
353.8369873468
  0
LINE
  5
6CA
100
AcDbEntity
  8
RUNDUNGEN
100
AcDbLine
 62
7
  6
CONTINUOUS
 10
501.5095706331
 20
386.1373814894
 11
501.5095706331
 21
369.6671143657
  0
LINE
  5
6CB
100
AcDbEntity
  8
KONSTRUKTIONSELEMENTE
100
AcDbLine
 62
7
  6
CONTINUOUS
 10
509.0319839927
 20
276.7658349241
 11
509.0319839927
 21
293.7658349241
  0
LINE
  5
6CC
100
AcDbEntity
  8
0
100
AcDbLine
 62
7
  6
CONTINUOUS
 10
510.5095706331
 20
352.3369873468
 11
510.5095706331
 21
293.7658349241
  0
LINE
  5
6CD
100
AcDbEntity
  8
0
100
AcDbLine
 62
7
  6
CONTINUOUS
 10
495.0953048169
 20
285.7871114577
 11
495.2215997065
 21
286.6807283724
  0
LINE
  5
6CE
100
AcDbEntity
  8
0
100
AcDbLine
 62
7
  6
CONTINUOUS
 10
495.5953048169
 20
285.7871114577
 11
495.7215997065
 21
286.6807283724
  0
LINE
  5
6CF
100
AcDbEntity
  8
0
100
AcDbLine
 62
7
  6
CONTINUOUS
 10
495.0901238131
 20
286.6807283724
 11
494.9638274782
 21
285.9360476101
  0
LINE
  5
6D0
100
AcDbEntity
  8
0
100
AcDbLine
 62
7
  6
CONTINUOUS
 10
489.6594226027
 20
287.7232818568
 11
489.5331269904
 21
287.127537247
  0
LINE
  5
6D1
100
AcDbEntity
  8
0
100
AcDbLine
 62
7
  6
CONTINUOUS
 10
479.8845699179
 20
297.7472179199
 11
480.0720713484
 21
298.3216859365
  0
LINE
  5
6D2
100
AcDbEntity
  8
0
100
AcDbLine
 62
7
  6
CONTINUOUS
 10
480.6345713484
 20
297.1727497692
 11
481.0095699179
 21
298.1301965976
  0
LINE
  5
6D3
100
AcDbEntity
  8
0
100
AcDbLine
 62
7
  6
CONTINUOUS
 10
474.4470706331
 20
311.7472179199
 11
474.0720709908
 21
310.9812604303
  0
LINE
  5
6D4
100
AcDbEntity
  8
0
100
AcDbLine
 62
7
  6
CONTINUOUS
 10
483.4470706331
 20
311.7472179199
 11
483.0720699179
 21
310.9812604303
  0
LINE
  5
6D5
100
AcDbEntity
  8
0
100
AcDbLine
 62
7
  6
CONTINUOUS
 10
456.9945837845
 20
283.6700902546
 11
456.7780782594
 21
283.2871114875
  0
LINE
  5
6D6
100
AcDbEntity
  8
0
100
AcDbLine
 62
7
  6
CONTINUOUS
 10
449.5251146768
 20
284.1807284916
 11
449.8498742032
 21
284.6913669074
  0
LINE
  5
6D7
100
AcDbEntity
  8
0
100
AcDbLine
 62
7
  6
CONTINUOUS
 10
450.0251146768
 20
284.1807284916
 11
450.3498742032
 21
284.6913669074
  0
LINE
  5
6D8
100
AcDbEntity
  8
0
100
AcDbLine
 62
7
  6
CONTINUOUS
 10
452.3396976521
 20
283.7977498139
 11
452.0149381256
 21
283.2871114875
  0
LINE
  5
6D9
100
AcDbEntity
  8
0
100
AcDbLine
 62
7
  6
CONTINUOUS
 10
457.1028377858
 20
282.7764732058
 11
457.4275973123
 21
283.2871114875
  0
LINE
  5
6DA
100
AcDbEntity
  8
0
100
AcDbLine
 62
7
  6
CONTINUOUS
 10
457.6028377858
 20
282.7764732058
 11
457.9275973123
 21
283.2871114875
  0
LINE
  5
6DB
100
AcDbEntity
  8
0
100
AcDbLine
 62
7
  6
CONTINUOUS
 10
473.3220706331
 20
311.9387072588
 11
472.9470709908
 21
311.3642392421
  0
LINE
  5
6DC
100
AcDbEntity
  8
0
100
AcDbLine
 62
7
  6
CONTINUOUS
 10
466.0095706331
 20
315.1940262879
 11
465.4470706331
 21
314.4280689324
  0
LINE
  5
6DD
100
AcDbEntity
  8
0
100
AcDbLine
 62
7
  6
CONTINUOUS
 10
460.0095706331
 20
301.1940262879
 11
459.4470706331
 21
300.4280689324
  0
LINE
  5
6DE
100
AcDbEntity
  8
0
100
AcDbLine
 62
7
  6
CONTINUOUS
 10
438.9163039192
 20
287.8828562463
 11
438.4832912044
 21
287.3722180093
  0
LINE
  5
6DF
100
AcDbEntity
  8
0
100
AcDbLine
 62
7
  6
CONTINUOUS
 10
441.4061268261
 20
282.6488136465
 11
441.8391397344
 21
283.1594519282
  0
LINE
  5
6E0
100
AcDbEntity
  8
0
100
AcDbLine
 62
7
  6
CONTINUOUS
 10
441.9061268261
 20
282.6488136465
 11
442.3391397344
 21
283.1594519282
  0
LINE
  5
6E1
100
AcDbEntity
  8
0
100
AcDbLine
 62
7
  6
CONTINUOUS
 10
464.8845706331
 20
315.3855156267
 11
464.5095704543
 21
315.002536949
  0
LINE
  5
6E2
100
AcDbEntity
  8
RUNDUNGEN
100
AcDbLine
 62
7
  6
CONTINUOUS
 10
494.9311075492
 20
395.0691992063
 11
500.8077039625
 21
388.0657443184
  0
LINE
  5
6E3
100
AcDbEntity
  8
KONSTRUKTIONSELEMENTE
100
AcDbLine
 62
7
  6
CONTINUOUS
 10
511.7595706331
 20
276.7658349241
 11
511.7595706331
 21
293.7658349241
  0
LINE
  5
6E4
100
AcDbEntity
  8
0
100
AcDbLine
 62
7
  6
CONTINUOUS
 10
498.8789849547
 20
284.7445583905
 11
498.7526886197
 21
283.8509412671
  0
LINE
  5
6E5
100
AcDbEntity
  8
0
100
AcDbLine
 62
7
  6
CONTINUOUS
 10
498.8841659584
 20
283.8509412671
 11
499.010460848
 21
284.595622238
  0
LINE
  5
6E6
100
AcDbEntity
  8
0
100
AcDbLine
 62
7
  6
CONTINUOUS
 10
499.3841659584
 20
283.8509412671
 11
499.510460848
 21
284.595622238
  0
LINE
  5
6E7
100
AcDbEntity
  8
0
100
AcDbLine
 62
7
  6
CONTINUOUS
 10
493.2008742461
 20
286.233919915
 11
493.3271698584
 21
286.8296645249
  0
LINE
  5
6E8
100
AcDbEntity
  8
0
100
AcDbLine
 62
7
  6
CONTINUOUS
 10
493.7008742461
 20
286.233919915
 11
493.8271698584
 21
286.8296645249
  0
LINE
  5
6E9
100
AcDbEntity
  8
0
100
AcDbLine
 62
7
  6
CONTINUOUS
 10
493.3271698584
 20
282.957324248
 11
493.453464748
 21
283.4041328097
  0
LINE
  5
6EA
100
AcDbEntity
  8
0
100
AcDbLine
 62
7
  6
CONTINUOUS
 10
493.8271698584
 20
282.957324248
 11
493.953464748
 21
283.4041328097
  0
LINE
  5
6EB
100
AcDbEntity
  8
0
100
AcDbLine
 62
7
  6
CONTINUOUS
 10
495.2164187027
 20
287.127537247
 11
495.0901238131
 21
286.6807283724
  0
LINE
  5
6EC
100
AcDbEntity
  8
0
100
AcDbLine
 62
7
  6
CONTINUOUS
 10
487.2598103054
 20
288.7658349241
 11
485.3653797347
 21
282.5105157907
  0
LINE
  5
6ED
100
AcDbEntity
  8
0
100
AcDbLine
 62
7
  6
CONTINUOUS
 10
485.3705610998
 20
281.7658349241
 11
487.1386964196
 21
287.2764733995
  0
LINE
  5
6EE
100
AcDbEntity
  8
0
100
AcDbLine
 62
7
  6
CONTINUOUS
 10
485.8705610998
 20
281.7658349241
 11
487.6386964196
 21
287.2764733995
  0
LINE
  5
6EF
100
AcDbEntity
  8
0
100
AcDbLine
 62
7
  6
CONTINUOUS
 10
482.3220706331
 20
311.9387072588
 11
481.9470699179
 21
311.3642392421
  0
LINE
  5
6F0
100
AcDbEntity
  8
0
100
AcDbLine
 62
7
  6
CONTINUOUS
 10
468.4470706331
 20
301.1940262879
 11
467.8845706331
 21
300.4280689324
  0
LINE
  5
6F1
100
AcDbEntity
  8
0
100
AcDbLine
 62
7
  6
CONTINUOUS
 10
449.6333686782
 20
287.7551966871
 11
449.3086091518
 21
287.3722180093
  0
LINE
  5
6F2
100
AcDbEntity
  8
0
100
AcDbLine
 62
7
  6
CONTINUOUS
 10
452.2314448895
 20
285.4573242629
 11
452.556204416
 21
285.8403029407
  0
LINE
  5
6F3
100
AcDbEntity
  8
0
100
AcDbLine
 62
7
  6
CONTINUOUS
 10
452.7314448895
 20
285.4573242629
 11
453.056204416
 21
285.8403029407
  0
LINE
  5
6F4
100
AcDbEntity
  8
0
100
AcDbLine
 62
7
  6
CONTINUOUS
 10
452.3396976521
 20
282.7764732058
 11
452.6644571785
 21
283.1594519282
  0
LINE
  5
6F5
100
AcDbEntity
  8
0
100
AcDbLine
 62
7
  6
CONTINUOUS
 10
452.8396976521
 20
282.7764732058
 11
453.1644571785
 21
283.1594519282
  0
LINE
  5
6F6
100
AcDbEntity
  8
0
100
AcDbLine
 62
7
  6
CONTINUOUS
 10
458.8845706331
 20
301.3855156267
 11
458.5095704543
 21
301.002536949
  0
LINE
  5
6F7
100
AcDbEntity
  8
0
100
AcDbLine
 62
7
  6
CONTINUOUS
 10
474.0720709908
 20
310.9812604303
 11
473.3220706331
 21
310.2153030077
  0
LINE
  5
6F8
100
AcDbEntity
  8
0
100
AcDbLine
 62
7
  6
CONTINUOUS
 10
467.3220706331
 20
301.3855156267
 11
466.9470709908
 21
301.002536949
  0
LINE
  5
6F9
100
AcDbEntity
  8
0
100
AcDbLine
 62
7
  6
CONTINUOUS
 10
439.1328102185
 20
287.1168988908
 11
439.4575698224
 21
287.3722180093
  0
LINE
  5
6FA
100
AcDbEntity
  8
0
100
AcDbLine
 62
7
  6
CONTINUOUS
 10
475.7595706331
 20
418.7658349241
 11
476.2595706331
 21
418.7658349241
  0
LINE
  5
6FB
100
AcDbEntity
  8
0
100
AcDbLine
 62
7
  6
CONTINUOUS
 10
475.7595706331
 20
427.7658349241
 11
476.2595706331
 21
427.7658349241
  0
LINE
  5
6FC
100
AcDbEntity
  8
0
100
AcDbLine
 62
7
  6
CONTINUOUS
 10
498.7578710688
 20
283.4041328097
 11
498.8841659584
 21
283.8509412671
  0
LINE
  5
6FD
100
AcDbEntity
  8
0
100
AcDbLine
 62
7
  6
CONTINUOUS
 10
499.2578710688
 20
283.4041328097
 11
499.3841659584
 21
283.8509412671
  0
LINE
  5
6FE
100
AcDbEntity
  8
0
100
AcDbLine
 62
7
  6
CONTINUOUS
 10
493.1956925197
 20
286.8296645249
 11
492.9431020178
 21
286.233919915
  0
LINE
  5
6FF
100
AcDbEntity
  8
0
100
AcDbLine
 62
7
  6
CONTINUOUS
 10
493.3219881319
 20
283.4041328097
 11
493.1956925197
 21
283.1062605048
  0
LINE
  5
700
100
AcDbEntity
  8
0
100
AcDbLine
 62
7
  6
CONTINUOUS
 10
495.4690099273
 20
287.7232818568
 11
495.2164187027
 21
287.127537247
  0
LINE
  5
701
100
AcDbEntity
  8
0
100
AcDbLine
 62
7
  6
CONTINUOUS
 10
479.8845699179
 20
297.7472179199
 11
479.5095713484
 21
297.1727497692
  0
LINE
  5
702
100
AcDbEntity
  8
0
100
AcDbLine
 62
7
  6
CONTINUOUS
 10
480.0720713484
 20
296.4067923466
 11
480.6345713484
 21
297.1727497692
  0
LINE
  5
703
100
AcDbEntity
  8
0
100
AcDbLine
 62
7
  6
CONTINUOUS
 10
483.0720699179
 20
310.9812604303
 11
482.3220706331
 21
310.2153030077
  0
LINE
  5
704
100
AcDbEntity
  8
0
100
AcDbLine
 62
7
  6
CONTINUOUS
 10
449.8498742032
 20
287.1168988908
 11
450.282887731
 21
287.4998775686
  0
LINE
  5
705
100
AcDbEntity
  8
0
100
AcDbLine
 62
7
  6
CONTINUOUS
 10
450.3498742032
 20
287.1168988908
 11
450.782887731
 21
287.4998775686
  0
LINE
  5
706
100
AcDbEntity
  8
0
100
AcDbLine
 62
7
  6
CONTINUOUS
 10
449.6333686782
 20
285.2020051444
 11
449.2003551504
 21
284.8190264667
  0
LINE
  5
707
100
AcDbEntity
  8
0
100
AcDbLine
 62
7
  6
CONTINUOUS
 10
452.0149381256
 20
286.0956220592
 11
451.5819258367
 21
285.7126433814
  0
LINE
  5
708
100
AcDbEntity
  8
0
100
AcDbLine
 62
7
  6
CONTINUOUS
 10
454.5047615745
 20
284.9466860259
 11
454.9377738634
 21
285.3296647037
  0
LINE
  5
709
100
AcDbEntity
  8
0
100
AcDbLine
 62
7
  6
CONTINUOUS
 10
455.0047615745
 20
284.9466860259
 11
455.4377738634
 21
285.3296647037
  0
LINE
  5
70A
100
AcDbEntity
  8
0
100
AcDbLine
 62
7
  6
CONTINUOUS
 10
439.6328102185
 20
287.1168988908
 11
439.9575698224
 21
287.3722180093
  0
LINE
  5
70B
100
AcDbEntity
  8
0
100
AcDbLine
 62
7
  6
CONTINUOUS
 10
441.1896206816
 20
283.4147711361
 11
440.8648611552
 21
283.1594519282
  0
LINE
  5
70C
100
AcDbEntity
  8
0
100
AcDbLine
 62
7
  6
CONTINUOUS
 10
459.4470706331
 20
300.4280689324
 11
458.697070812
 21
299.8536009157
  0
LINE
  5
70D
100
AcDbEntity
  8
0
100
AcDbLine
 62
7
  6
CONTINUOUS
 10
467.8845706331
 20
300.4280689324
 11
467.1345702755
 21
299.8536009157
  0
LINE
  5
70E
100
AcDbEntity
  8
0
100
AcDbLine
 62
7
  6
CONTINUOUS
 10
450.1746337297
 20
288.1381753648
 11
449.6333686782
 21
287.7551966871
  0
LINE
  5
70F
100
AcDbEntity
  8
0
100
AcDbLine
 62
7
  6
CONTINUOUS
 10
472.9470709908
 20
311.3642392421
 11
472.3845709908
 21
310.9812604303
  0
LINE
  5
710
100
AcDbEntity
  8
0
100
AcDbLine
 62
7
  6
CONTINUOUS
 10
481.9470699179
 20
311.3642392421
 11
481.3845699179
 21
310.9812604303
  0
LINE
  5
711
100
AcDbEntity
  8
0
100
AcDbLine
 62
7
  6
CONTINUOUS
 10
439.3493165953
 20
288.1381753648
 11
438.9163039192
 21
287.8828562463
  0
LINE
  5
712
100
AcDbEntity
  8
0
100
AcDbLine
 62
7
  6
CONTINUOUS
 10
465.4470706331
 20
314.4280689324
 11
464.697070812
 21
314.0450902546
  0
LINE
  5
713
100
AcDbEntity
  8
0
100
AcDbLine
 62
7
  6
CONTINUOUS
 10
473.3220706331
 20
310.2153030077
 11
472.5720702755
 21
309.8323242797
  0
LINE
  5
714
100
AcDbEntity
  8
0
100
AcDbLine
 62
7
  6
CONTINUOUS
 10
464.5095704543
 20
315.002536949
 11
463.9470704543
 21
314.8110476101
  0
LINE
  5
715
100
AcDbEntity
  8
0
100
AcDbLine
 62
7
  6
CONTINUOUS
 10
475.7595706331
 20
430.7658349241
 11
476.2595706331
 21
430.7658349241
  0
LINE
  5
716
100
AcDbEntity
  8
0
100
AcDbLine
 62
7
  6
CONTINUOUS
 10
475.7595706331
 20
430.9573242797
 11
476.2595706331
 21
430.9573242797
  0
LINE
  5
717
100
AcDbEntity
  8
0
100
AcDbLine
 62
7
  6
CONTINUOUS
 10
475.7595706331
 20
431.3403030077
 11
476.2595706331
 21
431.3403030077
  0
LINE
  5
718
100
AcDbEntity
  8
0
100
AcDbLine
 62
7
  6
CONTINUOUS
 10
475.7595706331
 20
432.1062604303
 11
476.2595706331
 21
432.1062604303
  0
LINE
  5
719
100
AcDbEntity
  8
0
100
AcDbLine
 62
7
  6
CONTINUOUS
 10
475.7595706331
 20
432.8722179199
 11
476.2595706331
 21
432.8722179199
  0
LINE
  5
71A
100
AcDbEntity
  8
0
100
AcDbLine
 62
7
  6
CONTINUOUS
 10
475.7595706331
 20
433.8296646143
 11
476.2595706331
 21
433.8296646143
  0
LINE
  5
71B
100
AcDbEntity
  8
0
100
AcDbLine
 62
7
  6
CONTINUOUS
 10
498.5052798443
 20
282.8083880956
 11
498.7578710688
 21
283.4041328097
  0
LINE
  5
71C
100
AcDbEntity
  8
0
100
AcDbLine
 62
7
  6
CONTINUOUS
 10
499.0052798443
 20
282.8083880956
 11
499.2578710688
 21
283.4041328097
  0
LINE
  5
71D
100
AcDbEntity
  8
0
100
AcDbLine
 62
7
  6
CONTINUOUS
 10
489.6646036064
 20
287.127537247
 11
489.917194831
 21
287.5743457044
  0
LINE
  5
71E
100
AcDbEntity
  8
0
100
AcDbLine
 62
7
  6
CONTINUOUS
 10
490.1646036064
 20
287.127537247
 11
490.417194831
 21
287.5743457044
  0
LINE
  5
71F
100
AcDbEntity
  8
0
100
AcDbLine
 62
7
  6
CONTINUOUS
 10
492.9482837442
 20
285.7871114577
 11
493.2008742461
 21
286.233919915
  0
LINE
  5
720
100
AcDbEntity
  8
0
100
AcDbLine
 62
7
  6
CONTINUOUS
 10
493.4482837442
 20
285.7871114577
 11
493.7008742461
 21
286.233919915
  0
LINE
  5
721
100
AcDbEntity
  8
0
100
AcDbLine
 62
7
  6
CONTINUOUS
 10
495.2215997065
 20
286.6807283724
 11
495.7267821556
 21
287.5743457044
  0
LINE
  5
722
100
AcDbEntity
  8
0
100
AcDbLine
 62
7
  6
CONTINUOUS
 10
493.0745786338
 20
282.5105157907
 11
493.3271698584
 21
282.957324248
  0
LINE
  5
723
100
AcDbEntity
  8
0
100
AcDbLine
 62
7
  6
CONTINUOUS
 10
495.7215997065
 20
286.6807283724
 11
496.2267821556
 21
287.5743457044
  0
LINE
  5
724
100
AcDbEntity
  8
0
100
AcDbLine
 62
7
  6
CONTINUOUS
 10
493.5745786338
 20
282.5105157907
 11
493.8271698584
 21
282.957324248
  0
LINE
  5
725
100
AcDbEntity
  8
0
100
AcDbLine
 62
7
  6
CONTINUOUS
 10
498.7526886197
 20
283.8509412671
 11
498.247507616
 21
282.957324248
  0
LINE
  5
726
100
AcDbEntity
  8
0
100
AcDbLine
 62
7
  6
CONTINUOUS
 10
456.7780782594
 20
283.2871114875
 11
456.453318733
 21
283.031792369
  0
LINE
  5
727
100
AcDbEntity
  8
0
100
AcDbLine
 62
7
  6
CONTINUOUS
 10
476.3220706331
 20
300.2365795935
 11
475.5720713484
 21
299.6621115769
  0
LINE
  5
728
100
AcDbEntity
  8
0
100
AcDbLine
 62
7
  6
CONTINUOUS
 10
454.8295211009
 20
285.9679624999
 11
454.2882548106
 21
285.5849838222
  0
LINE
  5
729
100
AcDbEntity
  8
0
100
AcDbLine
 62
7
  6
CONTINUOUS
 10
451.7984313617
 20
282.3934944945
 11
452.3396976521
 21
282.7764732058
  0
LINE
  5
72A
100
AcDbEntity
  8
0
100
AcDbLine
 62
7
  6
CONTINUOUS
 10
452.2984313617
 20
282.3934944945
 11
452.8396976521
 21
282.7764732058
  0
LINE
  5
72B
100
AcDbEntity
  8
0
100
AcDbLine
 62
7
  6
CONTINUOUS
 10
456.5615714955
 20
282.3934944945
 11
457.1028377858
 21
282.7764732058
  0
LINE
  5
72C
100
AcDbEntity
  8
0
100
AcDbLine
 62
7
  6
CONTINUOUS
 10
457.0615714955
 20
282.3934944945
 11
457.6028377858
 21
282.7764732058
  0
LINE
  5
72D
100
AcDbEntity
  8
0
100
AcDbLine
 62
7
  6
CONTINUOUS
 10
479.5095713484
 20
297.1727497692
 11
478.9470713484
 21
296.7897710914
  0
LINE
  5
72E
100
AcDbEntity
  8
0
100
AcDbLine
 62
7
  6
CONTINUOUS
 10
475.1970706331
 20
300.6195582712
 11
476.1345713484
 21
301.1940262879
  0
LINE
  5
72F
100
AcDbEntity
  8
0
100
AcDbLine
 62
7
  6
CONTINUOUS
 10
440.9731142274
 20
282.3934944945
 11
441.4061268261
 21
282.6488136465
  0
LINE
  5
730
100
AcDbEntity
  8
0
100
AcDbLine
 62
7
  6
CONTINUOUS
 10
441.4731142274
 20
282.3934944945
 11
441.9061268261
 21
282.6488136465
  0
LINE
  5
731
100
AcDbEntity
  8
0
100
AcDbLine
 62
7
  6
CONTINUOUS
 10
449.8498742032
 20
285.3296647037
 11
449.6333686782
 21
285.2020051444
  0
LINE
  5
732
100
AcDbEntity
  8
0
100
AcDbLine
 62
7
  6
CONTINUOUS
 10
449.8498742032
 20
284.6913669074
 11
450.282887731
 21
284.9466860259
  0
LINE
  5
733
100
AcDbEntity
  8
0
100
AcDbLine
 62
7
  6
CONTINUOUS
 10
450.3498742032
 20
284.6913669074
 11
450.782887731
 21
284.9466860259
  0
LINE
  5
734
100
AcDbEntity
  8
0
100
AcDbLine
 62
7
  6
CONTINUOUS
 10
452.0149381256
 20
285.3296647037
 11
452.2314448895
 21
285.4573242629
  0
LINE
  5
735
100
AcDbEntity
  8
0
100
AcDbLine
 62
7
  6
CONTINUOUS
 10
452.5149381256
 20
285.3296647037
 11
452.7314448895
 21
285.4573242629
  0
LINE
  5
736
100
AcDbEntity
  8
0
100
AcDbLine
 62
7
  6
CONTINUOUS
 10
452.0149381256
 20
283.2871114875
 11
451.5819258367
 21
283.031792369
  0
LINE
  5
737
100
AcDbEntity
  8
0
100
AcDbLine
 62
7
  6
CONTINUOUS
 10
482.3220706331
 20
310.2153030077
 11
481.5720713484
 21
309.8323242797
  0
LINE
  5
738
100
AcDbEntity
  8
0
100
AcDbLine
 62
7
  6
CONTINUOUS
 10
458.5095704543
 20
301.002536949
 11
457.9470704543
 21
300.8110476101
  0
LINE
  5
739
100
AcDbEntity
  8
0
100
AcDbLine
 62
7
  6
CONTINUOUS
 10
466.9470709908
 20
301.002536949
 11
466.3845709908
 21
300.8110476101
  0
LINE
  5
73A
100
AcDbEntity
  8
0
100
AcDbLine
 62
7
  6
CONTINUOUS
 10
475.7595706331
 20
439.7658349241
 11
476.2595706331
 21
439.7658349241
  0
LINE
  5
73B
100
AcDbEntity
  8
0
100
AcDbLine
 62
7
  6
CONTINUOUS
 10
475.7595706331
 20
442.7658349241
 11
476.2595706331
 21
442.7658349241
  0
LINE
  5
73C
100
AcDbEntity
  8
0
100
AcDbLine
 62
7
  6
CONTINUOUS
 10
490.1646036064
 20
288.3190264667
 11
489.6594226027
 21
287.7232818568
  0
LINE
  5
73D
100
AcDbEntity
  8
0
100
AcDbLine
 62
7
  6
CONTINUOUS
 10
492.9431020178
 20
286.233919915
 11
492.6905115159
 21
285.9360476101
  0
LINE
  5
73E
100
AcDbEntity
  8
0
100
AcDbLine
 62
7
  6
CONTINUOUS
 10
495.8478960414
 20
288.1700903142
 11
495.4690099273
 21
287.7232818568
  0
LINE
  5
73F
100
AcDbEntity
  8
0
100
AcDbLine
 62
7
  6
CONTINUOUS
 10
493.1956925197
 20
283.1062605048
 11
492.9431020178
 21
282.8083880956
  0
LINE
  5
740
100
AcDbEntity
  8
0
100
AcDbLine
 62
7
  6
CONTINUOUS
 10
480.0720713484
 20
296.4067923466
 11
479.1345706331
 21
295.8323242797
  0
LINE
  5
741
100
AcDbEntity
  8
0
100
AcDbLine
 62
7
  6
CONTINUOUS
 10
439.4575698224
 20
287.3722180093
 11
439.7823293488
 21
287.4998775686
  0
LINE
  5
742
100
AcDbEntity
  8
0
100
AcDbLine
 62
7
  6
CONTINUOUS
 10
439.9575698224
 20
287.3722180093
 11
440.2823293488
 21
287.4998775686
  0
LINE
  5
743
100
AcDbEntity
  8
0
100
AcDbLine
 62
7
  6
CONTINUOUS
 10
439.7823293488
 20
288.2658349241
 11
439.3493165953
 21
288.1381753648
  0
LINE
  5
744
100
AcDbEntity
  8
0
100
AcDbLine
 62
7
  6
CONTINUOUS
 10
450.282887731
 20
287.4998775686
 11
450.71590002
 21
287.6275371278
  0
LINE
  5
745
100
AcDbEntity
  8
0
100
AcDbLine
 62
7
  6
CONTINUOUS
 10
450.782887731
 20
287.4998775686
 11
451.154269102
 21
287.6093672605
  0
LINE
  5
746
100
AcDbEntity
  8
0
100
AcDbLine
 62
7
  6
CONTINUOUS
 10
440.8648611552
 20
283.1594519282
 11
440.4318484017
 21
283.031792369
  0
LINE
  5
747
100
AcDbEntity
  8
0
100
AcDbLine
 62
7
  6
CONTINUOUS
 10
475.7595706331
 20
451.7658349241
 11
476.2595706331
 21
451.7658349241
  0
LINE
  5
748
100
AcDbEntity
  8
0
100
AcDbLine
 62
7
  6
CONTINUOUS
 10
498.1263937301
 20
282.361579586
 11
498.5052798443
 21
282.8083880956
  0
LINE
  5
749
100
AcDbEntity
  8
0
100
AcDbLine
 62
7
  6
CONTINUOUS
 10
498.6263937301
 20
282.361579586
 11
499.0052798443
 21
282.8083880956
  0
LINE
  5
74A
100
AcDbEntity
  8
0
100
AcDbLine
 62
7
  6
CONTINUOUS
 10
492.4431020178
 20
285.3403030003
 11
492.9482837442
 21
285.7871114577
  0
LINE
  5
74B
100
AcDbEntity
  8
0
100
AcDbLine
 62
7
  6
CONTINUOUS
 10
492.9431020178
 20
285.3403030003
 11
493.4482837442
 21
285.7871114577
  0
LINE
  5
74C
100
AcDbEntity
  8
0
100
AcDbLine
 62
7
  6
CONTINUOUS
 10
489.917194831
 20
287.5743457044
 11
490.2960809451
 21
287.8722180093
  0
LINE
  5
74D
100
AcDbEntity
  8
0
100
AcDbLine
 62
7
  6
CONTINUOUS
 10
490.417194831
 20
287.5743457044
 11
490.7960809451
 21
287.8722180093
  0
LINE
  5
74E
100
AcDbEntity
  8
0
100
AcDbLine
 62
7
  6
CONTINUOUS
 10
495.7267821556
 20
287.5743457044
 11
496.1056682697
 21
287.8722180093
  0
LINE
  5
74F
100
AcDbEntity
  8
0
100
AcDbLine
 62
7
  6
CONTINUOUS
 10
496.2267821556
 20
287.5743457044
 11
496.6056682697
 21
287.8722180093
  0
LINE
  5
750
100
AcDbEntity
  8
0
100
AcDbLine
 62
7
  6
CONTINUOUS
 10
492.6956925197
 20
282.2126434336
 11
493.0745786338
 21
282.5105157907
  0
LINE
  5
751
100
AcDbEntity
  8
0
100
AcDbLine
 62
7
  6
CONTINUOUS
 10
493.1956925197
 20
282.2126434336
 11
493.5745786338
 21
282.5105157907
  0
LINE
  5
752
100
AcDbEntity
  8
0
100
AcDbLine
 62
7
  6
CONTINUOUS
 10
498.247507616
 20
282.957324248
 11
497.8686215018
 21
282.6594519431
  0
LINE
  5
753
100
AcDbEntity
  8
0
100
AcDbLine
 62
7
  6
CONTINUOUS
 10
496.4793719348
 20
288.6168987716
 11
495.8478960414
 21
288.1700903142
  0
LINE
  5
754
100
AcDbEntity
  8
0
100
AcDbLine
 62
7
  6
CONTINUOUS
 10
490.6697853328
 20
288.6168987716
 11
490.1646036064
 21
288.3190264667
  0
LINE
  5
755
100
AcDbEntity
  8
0
100
AcDbLine
 62
7
  6
CONTINUOUS
 10
451.5819258367
 20
285.7126433814
 11
451.1489123089
 21
285.5849838222
  0
LINE
  5
756
100
AcDbEntity
  8
0
100
AcDbLine
 62
7
  6
CONTINUOUS
 10
450.282887731
 20
284.9466860259
 11
450.71590002
 21
285.0743455852
  0
LINE
  5
757
100
AcDbEntity
  8
0
100
AcDbLine
 62
7
  6
CONTINUOUS
 10
450.782887731
 20
284.9466860259
 11
451.154269102
 21
285.0561757179
  0
LINE
  5
758
100
AcDbEntity
  8
0
100
AcDbLine
 62
7
  6
CONTINUOUS
 10
454.9377738634
 20
285.3296647037
 11
455.3707861524
 21
285.4573242629
  0
LINE
  5
759
100
AcDbEntity
  8
0
100
AcDbLine
 62
7
  6
CONTINUOUS
 10
455.4377738634
 20
285.3296647037
 11
455.8707861524
 21
285.4573242629
  0
LINE
  5
75A
100
AcDbEntity
  8
0
100
AcDbLine
 62
7
  6
CONTINUOUS
 10
451.5819258367
 20
283.031792369
 11
451.1489123089
 21
282.9041328097
  0
LINE
  5
75B
100
AcDbEntity
  8
0
100
AcDbLine
 62
7
  6
CONTINUOUS
 10
456.453318733
 20
283.031792369
 11
456.0203052052
 21
282.9041328097
  0
LINE
  5
75C
100
AcDbEntity
  8
0
100
AcDbLine
 62
7
  6
CONTINUOUS
 10
497.4949163914
 20
281.9147710896
 11
498.1263937301
 21
282.361579586
  0
LINE
  5
75D
100
AcDbEntity
  8
0
100
AcDbLine
 62
7
  6
CONTINUOUS
 10
497.9949163914
 20
281.9147710896
 11
498.6263937301
 21
282.361579586
  0
LINE
  5
75E
100
AcDbEntity
  8
0
100
AcDbLine
 62
7
  6
CONTINUOUS
 10
492.9431020178
 20
282.8083880956
 11
492.6905115159
 21
282.6594519431
  0
LINE
  5
75F
100
AcDbEntity
  8
0
100
AcDbLine
 62
7
  6
CONTINUOUS
 10
492.1905115159
 20
281.9147710896
 11
492.6956925197
 21
282.2126434336
  0
LINE
  5
760
100
AcDbEntity
  8
0
100
AcDbLine
 62
7
  6
CONTINUOUS
 10
492.6905115159
 20
281.9147710896
 11
493.1956925197
 21
282.2126434336
  0
LINE
  5
761
100
AcDbEntity
  8
0
100
AcDbLine
 62
7
  6
CONTINUOUS
 10
492.6905115159
 20
285.9360476101
 11
491.9327392876
 21
285.6381753052
  0
LINE
  5
762
100
AcDbEntity
  8
0
100
AcDbLine
 62
7
  6
CONTINUOUS
 10
491.6853297895
 20
281.7658349241
 11
492.1905115159
 21
281.9147710896
  0
LINE
  5
763
100
AcDbEntity
  8
0
100
AcDbLine
 62
7
  6
CONTINUOUS
 10
492.1853297895
 20
281.7658349241
 11
492.6905115159
 21
281.9147710896
  0
LINE
  5
764
100
AcDbEntity
  8
FASEN
100
AcDbLine
 62
7
  6
CONTINUOUS
 10
482.2595706331
 20
231.7658349241
 11
484.2595706331
 21
233.7658349241
  0
LINE
  5
765
100
AcDbEntity
  8
0
100
AcDbLine
 62
7
  6
CONTINUOUS
 10
479.7595706331
 20
496.0242018529
 11
480.2595706331
 21
496.0242018529
  0
LINE
  5
766
100
AcDbEntity
  8
0
100
AcDbLine
 62
7
  6
CONTINUOUS
 10
479.3103650809
 20
499.8249356978
 11
480.2595706331
 21
499.8249356978
  0
LINE
  5
767
100
AcDbEntity
  8
0
100
AcDbLine
 62
7
  6
CONTINUOUS
 10
479.3262889682
 20
501.8126745036
 11
480.2595706331
 21
501.8126745036
  0
LINE
  5
768
100
AcDbEntity
  8
0
100
AcDbLine
 62
7
  6
CONTINUOUS
 10
479.356352188
 20
502.1459201659
 11
480.2595706331
 21
502.1459201659
  0
LINE
  5
769
100
AcDbEntity
  8
0
100
AcDbLine
 62
7
  6
CONTINUOUS
 10
479.4456708021
 20
502.2346098842
 11
480.2595706331
 21
502.2346098842
  0
LINE
  5
76A
100
AcDbEntity
  8
0
100
AcDbLine
 62
7
  6
CONTINUOUS
 10
479.3103650782
 20
504.0782441571
 11
480.2595706331
 21
504.0782441571
  0
LINE
  5
76B
100
AcDbEntity
  8
0
100
AcDbLine
 62
7
  6
CONTINUOUS
 10
479.326288969
 20
505.7458351117
 11
480.2595706331
 21
505.7458351117
  0
LINE
  5
76C
100
AcDbEntity
  8
0
100
AcDbLine
 62
7
  6
CONTINUOUS
 10
479.3563521924
 20
506.000198869
 11
480.2595706331
 21
506.000198869
  0
LINE
  5
76D
100
AcDbEntity
  8
0
100
AcDbLine
 62
7
  6
CONTINUOUS
 10
479.7595706331
 20
506.6348641833
 11
480.2595706331
 21
506.6348641833
  0
LINE
  5
76E
100
AcDbEntity
  8
0
100
AcDbLine
 62
7
  6
CONTINUOUS
 10
479.7595706331
 20
507.1060158518
 11
480.2595706331
 21
507.1060158518
  0
LINE
  5
76F
100
AcDbEntity
  8
0
100
AcDbLine
 62
7
  6
CONTINUOUS
 10
479.7593607526
 20
507.6526267633
 11
480.2595706331
 21
507.6526267633
  0
LINE
  5
770
100
AcDbEntity
  8
0
100
AcDbLine
 62
7
  6
CONTINUOUS
 10
479.7593932346
 20
508.2248810404
 11
480.2595706331
 21
508.2248810404
  0
LINE
  5
771
100
AcDbEntity
  8
0
100
AcDbLine
 62
7
  6
CONTINUOUS
 10
479.3073864327
 20
511.5204404995
 11
480.2595706331
 21
511.5204404995
  0
LINE
  5
772
100
AcDbEntity
  8
0
100
AcDbLine
 62
7
  6
CONTINUOUS
 10
479.3178648183
 20
511.6883729331
 11
480.2595706331
 21
511.6883729331
  0
LINE
  5
773
100
AcDbEntity
  8
0
100
AcDbLine
 62
7
  6
CONTINUOUS
 10
479.3178648183
 20
512.4720575165
 11
480.2595706331
 21
512.4720575165
  0
LINE
  5
774
100
AcDbEntity
  8
0
100
AcDbLine
 62
7
  6
CONTINUOUS
 10
479.3073864327
 20
512.6399899501
 11
480.2595706331
 21
512.6399899501
  0
LINE
  5
775
100
AcDbEntity
  8
0
100
AcDbLine
 62
7
  6
CONTINUOUS
 10
479.3273631849
 20
512.8267414799
 11
480.2595706331
 21
512.8267414799
  0
LINE
  5
776
100
AcDbEntity
  8
0
100
AcDbLine
 62
7
  6
CONTINUOUS
 10
479.3273631849
 20
512.9220359168
 11
480.2595706331
 21
512.9220359168
  0
LINE
  5
777
100
AcDbEntity
  8
0
100
AcDbLine
 62
7
  6
CONTINUOUS
 10
479.3103650728
 20
513.1426204336
 11
480.2595706331
 21
513.1426204336
  0
LINE
  5
778
100
AcDbEntity
  8
0
100
AcDbLine
 62
7
  6
CONTINUOUS
 10
479.3262889706
 20
513.2431522179
 11
480.2595706331
 21
513.2431522179
  0
LINE
  5
779
100
AcDbEntity
  8
KONSTRUKTIONSELEMENTE
100
AcDbLine
 62
7
  6
CONTINUOUS
 10
242.1891159641
 20
139.7418467781
 11
237.4647973207
 21
137.0142601376
  0
LINE
  5
77A
100
AcDbEntity
  8
KONSTRUKTIONSELEMENTE
100
AcDbLine
 62
7
  6
CONTINUOUS
 10
237.4647973207
 20
57.4694334186
 11
242.1891159641
 21
54.7418467781
  0
LINE
  5
77B
100
AcDbEntity
  8
KONSTRUKTIONSELEMENTE
100
AcDbLine
 62
7
  6
CONTINUOUS
 10
237.4647973207
 20
137.0142601376
 11
219.6632030629
 21
106.1809944274
  0
LINE
  5
77C
100
AcDbEntity
  8
KONSTRUKTIONSELEMENTE
100
AcDbLine
 62
7
  6
CONTINUOUS
 10
242.1891159641
 20
54.7418467781
 11
284.9647973207
 21
54.7418467781
  0
LINE
  5
77D
100
AcDbEntity
  8
KONSTRUKTIONSELEMENTE
100
AcDbLine
 62
7
  6
CONTINUOUS
 10
219.6632029042
 20
88.3026994037
 11
237.4647973207
 21
57.4694334186
  0
LINE
  5
77E
100
AcDbEntity
  8
RUNDUNGEN
100
AcDbLine
 62
7
  6
CONTINUOUS
 10
279.0769566424
 20
64.9918467781
 11
248.0769566424
 21
64.9918467781
  0
LINE
  5
77F
100
AcDbEntity
  8
0
100
AcDbLine
 62
7
  6
CONTINUOUS
 10
234.2982035117
 20
87.1910523303
 11
234.2982035117
 21
86.2418467781
  0
LINE
  5
780
100
AcDbEntity
  8
0
100
AcDbLine
 62
7
  6
CONTINUOUS
 10
236.1985704341
 20
87.175128443
 11
236.1985704341
 21
86.2418467781
  0
LINE
  5
781
100
AcDbEntity
  8
0
100
AcDbLine
 62
7
  6
CONTINUOUS
 10
236.6790649051
 20
87.1450652233
 11
236.6790649051
 21
86.2418467781
  0
LINE
  5
782
100
AcDbEntity
  8
0
100
AcDbLine
 62
7
  6
CONTINUOUS
 10
237.2495465099
 20
87.0557466091
 11
237.2495465099
 21
86.2418467781
  0
LINE
  5
783
100
AcDbEntity
  8
0
100
AcDbLine
 62
7
  6
CONTINUOUS
 10
282.0769566424
 20
70.6566505342
 11
282.5769566424
 21
70.6566505342
  0
LINE
  5
784
100
AcDbEntity
  8
0
100
AcDbLine
 62
7
  6
CONTINUOUS
 10
282.0769566424
 20
71.1250419586
 11
282.5769566424
 21
71.1250419586
  0
LINE
  5
785
100
AcDbEntity
  8
0
100
AcDbLine
 62
7
  6
CONTINUOUS
 10
282.0769566424
 20
71.1718467781
 11
282.5769566424
 21
71.1718467781
  0
LINE
  5
786
100
AcDbEntity
  8
0
100
AcDbLine
 62
7
  6
CONTINUOUS
 10
282.0769566424
 20
71.2995063373
 11
282.5769566424
 21
71.2995063373
  0
LINE
  5
787
100
AcDbEntity
  8
0
100
AcDbLine
 62
7
  6
CONTINUOUS
 10
237.825430855
 20
86.9534473794
 11
237.825430855
 21
86.2418467781
  0
LINE
  5
788
100
AcDbEntity
  8
0
100
AcDbLine
 62
7
  6
CONTINUOUS
 10
238.1583665944
 20
86.8892359669
 11
238.1583665944
 21
86.2418467781
  0
LINE
  5
789
100
AcDbEntity
  8
0
100
AcDbLine
 62
7
  6
CONTINUOUS
 10
238.4967053112
 20
86.820872877
 11
238.4967053112
 21
86.2418467781
  0
LINE
  5
78A
100
AcDbEntity
  8
0
100
AcDbLine
 62
7
  6
CONTINUOUS
 10
238.5572327804
 20
87.191052333
 11
238.5572327804
 21
86.2418467781
  0
LINE
  5
78B
100
AcDbEntity
  8
0
100
AcDbLine
 62
7
  6
CONTINUOUS
 10
240.7439290118
 20
87.1751284422
 11
240.7439290118
 21
86.2418467781
  0
LINE
  5
78C
100
AcDbEntity
  8
0
100
AcDbLine
 62
7
  6
CONTINUOUS
 10
241.2704518616
 20
87.1450652189
 11
241.2704518616
 21
86.2418467781
  0
LINE
  5
78D
100
AcDbEntity
  8
0
100
AcDbLine
 62
7
  6
CONTINUOUS
 10
241.8477853335
 20
87.0557466073
 11
241.8477853335
 21
86.2418467781
  0
LINE
  5
78E
100
AcDbEntity
  8
0
100
AcDbLine
 62
7
  6
CONTINUOUS
 10
282.0769566424
 20
71.5548254558
 11
282.5769566424
 21
71.5548254558
  0
LINE
  5
78F
100
AcDbEntity
  8
0
100
AcDbLine
 62
7
  6
CONTINUOUS
 10
282.0769566424
 20
72.0654636928
 11
282.5769566424
 21
72.0654636928
  0
LINE
  5
790
100
AcDbEntity
  8
0
100
AcDbLine
 62
7
  6
CONTINUOUS
 10
282.0769566424
 20
72.5761019298
 11
282.5769566424
 21
72.5761019298
  0
LINE
  5
791
100
AcDbEntity
  8
0
100
AcDbLine
 62
7
  6
CONTINUOUS
 10
282.0769566424
 20
72.831421406
 11
282.5769566424
 21
72.831421406
  0
LINE
  5
792
100
AcDbEntity
  8
0
100
AcDbLine
 62
7
  6
CONTINUOUS
 10
282.0769566424
 20
73.342059643
 11
282.5769566424
 21
73.342059643
  0
LINE
  5
793
100
AcDbEntity
  8
0
100
AcDbLine
 62
7
  6
CONTINUOUS
 10
282.0769566424
 20
73.7250383207
 11
282.5769566424
 21
73.7250383207
  0
LINE
  5
794
100
AcDbEntity
  8
0
100
AcDbLine
 62
7
  6
CONTINUOUS
 10
282.0769566424
 20
74.1080169985
 11
282.5769566424
 21
74.1080169985
  0
LINE
  5
795
100
AcDbEntity
  8
0
100
AcDbLine
 62
7
  6
CONTINUOUS
 10
282.0769566424
 20
74.363336117
 11
282.5769566424
 21
74.363336117
  0
LINE
  5
796
100
AcDbEntity
  8
0
100
AcDbLine
 62
7
  6
CONTINUOUS
 10
282.0769566424
 20
74.7463147947
 11
282.5769566424
 21
74.7463147947
  0
LINE
  5
797
100
AcDbEntity
  8
0
100
AcDbLine
 62
7
  6
CONTINUOUS
 10
282.0769566424
 20
75.2569532105
 11
282.5769566424
 21
75.2569532105
  0
LWPOLYLINE
  5
798
100
AcDbEntity
  8
RUNDUNGEN
100
AcDbPolyline
 62
7
  6
CONTINUOUS
 90
10
 70
0
 10
245.076950547
 20
112.4344908759
 10
245.0773931937
 20
112.3897245473
 10
245.0881829011
 20
112.1973070889
 10
245.1118599498
 20
112.014431192
 10
245.1463743528
 20
111.8418328315
 10
245.1899035363
 20
111.6793786465
 10
245.2406034706
 20
111.5272797262
 10
245.2970651415
 20
111.38464738
 10
245.3578461621
 20
111.2511155635
 10
245.4218933988
 20
111.1256808714
  0
LINE
  5
799
100
AcDbEntity
  8
0
100
AcDbLine
 62
7
  6
CONTINUOUS
 10
242.4049675975
 20
86.9534473776
 11
242.4049675975
 21
86.2418467781
  0
LINE
  5
79A
100
AcDbEntity
  8
0
100
AcDbLine
 62
7
  6
CONTINUOUS
 10
242.7089640405
 20
86.8892359685
 11
242.7089640405
 21
86.2418467781
  0
LINE
  5
79B
100
AcDbEntity
  8
0
100
AcDbLine
 62
7
  6
CONTINUOUS
 10
242.9928094743
 20
86.8208728782
 11
242.9928094743
 21
86.2418467781
  0
LINE
  5
79C
100
AcDbEntity
  8
0
100
AcDbLine
 62
7
  6
CONTINUOUS
 10
243.1145808839
 20
86.7830110941
 11
243.1145808839
 21
86.2418467781
  0
LINE
  5
79D
100
AcDbEntity
  8
0
100
AcDbLine
 62
7
  6
CONTINUOUS
 10
243.12508909
 20
86.7512363628
 11
243.12508909
 21
86.2418467781
  0
LINE
  5
79E
100
AcDbEntity
  8
RUNDUNGEN
100
AcDbLine
 62
7
  6
CONTINUOUS
 10
245.0769566424
 20
62.2731073197
 11
245.0769566424
 21
84.0793770894
  0
LINE
  5
79F
100
AcDbEntity
  8
RUNDUNGEN
100
AcDbLine
 62
7
  6
CONTINUOUS
 10
245.0769566424
 20
110.4043167947
 11
245.0769566424
 21
132.2105828253
  0
LINE
  5
7A0
100
AcDbEntity
  8
0
100
AcDbLine
 62
7
  6
CONTINUOUS
 10
282.0769566424
 20
75.7675914475
 11
282.5769566424
 21
75.7675914475
  0
LINE
  5
7A1
100
AcDbEntity
  8
0
100
AcDbLine
 62
7
  6
CONTINUOUS
 10
282.0769566424
 20
76.1505702147
 11
282.5769566424
 21
76.1505702147
  0
LINE
  5
7A2
100
AcDbEntity
  8
0
100
AcDbLine
 62
7
  6
CONTINUOUS
 10
282.0769566424
 20
76.5335488924
 11
282.5769566424
 21
76.5335488924
  0
LINE
  5
7A3
100
AcDbEntity
  8
0
100
AcDbLine
 62
7
  6
CONTINUOUS
 10
282.0769566424
 20
76.7888680556
 11
282.5769566424
 21
76.7888680556
  0
LINE
  5
7A4
100
AcDbEntity
  8
0
100
AcDbLine
 62
7
  6
CONTINUOUS
 10
282.0769566424
 20
77.0441872077
 11
282.5769566424
 21
77.0441872077
  0
LINE
  5
7A5
100
AcDbEntity
  8
0
100
AcDbLine
 62
7
  6
CONTINUOUS
 10
282.0769566424
 20
77.1718467781
 11
282.5769566424
 21
77.1718467781
  0
LINE
  5
7A6
100
AcDbEntity
  8
0
100
AcDbLine
 62
7
  6
CONTINUOUS
 10
226.3412211186
 20
79.4918467781
 11
226.064458725
 21
79.4918467781
  0
LINE
  5
7A7
100
AcDbEntity
  8
0
100
AcDbLine
 62
7
  6
CONTINUOUS
 10
250.0334371078
 20
86.7420566587
 11
250.0334371078
 21
86.2418467781
  0
LINE
  5
7A8
100
AcDbEntity
  8
0
100
AcDbLine
 62
7
  6
CONTINUOUS
 10
225.4264013884
 20
81.5543474934
 11
225.1562283022
 21
81.5543474934
  0
LINE
  5
7A9
100
AcDbEntity
  8
0
100
AcDbLine
 62
7
  6
CONTINUOUS
 10
225.0542363478
 20
82.4918460628
 11
224.7866552914
 21
82.4918460628
  0
LINE
  5
7AA
100
AcDbEntity
  8
0
100
AcDbLine
 62
7
  6
CONTINUOUS
 10
224.9127368059
 20
82.8668474934
 11
224.6461282982
 21
82.8668474934
  0
LINE
  5
7AB
100
AcDbEntity
  8
0
100
AcDbLine
 62
7
  6
CONTINUOUS
 10
224.8435428534
 20
83.0543467781
 11
224.5774073662
 21
83.0543467781
  0
LINE
  5
7AC
100
AcDbEntity
  8
0
100
AcDbLine
 62
7
  6
CONTINUOUS
 10
224.7082370403
 20
83.4293474934
 11
224.4430217072
 21
83.4293474934
  0
LINE
  5
7AD
100
AcDbEntity
  8
0
100
AcDbLine
 62
7
  6
CONTINUOUS
 10
224.4498101358
 20
84.1793467781
 11
224.1863347414
 21
84.1793467781
  0
LINE
  5
7AE
100
AcDbEntity
  8
0
100
AcDbLine
 62
7
  6
CONTINUOUS
 10
251.5320621907
 20
86.7420241767
 11
251.5320621907
 21
86.2418467781
  0
LINE
  5
7AF
100
AcDbEntity
  8
0
100
AcDbLine
 62
7
  6
CONTINUOUS
 10
251.7407871317
 20
86.7418467781
 11
251.7407871317
 21
86.2418467781
  0
LINE
  5
7B0
100
AcDbEntity
  8
0
100
AcDbLine
 62
7
  6
CONTINUOUS
 10
251.9553773995
 20
87.1940309786
 11
251.9553773995
 21
86.2418467781
  0
LINE
  5
7B1
100
AcDbEntity
  8
0
100
AcDbLine
 62
7
  6
CONTINUOUS
 10
252.6220519436
 20
87.1835525929
 11
252.6220519436
 21
86.2418467781
  0
LINE
  5
7B2
100
AcDbEntity
  8
0
100
AcDbLine
 62
7
  6
CONTINUOUS
 10
284.0452850138
 20
86.7420444788
 11
284.0069473389
 21
86.7418469531
  0
LINE
  5
7B3
100
AcDbEntity
  8
0
100
AcDbLine
 62
7
  6
CONTINUOUS
 10
224.2073639834
 20
84.9293460628
 11
223.9455003717
 21
84.9293460628
  0
LINE
  5
7B4
100
AcDbEntity
  8
0
100
AcDbLine
 62
7
  6
CONTINUOUS
 10
223.9263340117
 20
85.8668467781
 11
223.6663142647
 21
85.8668467781
  0
LINE
  5
7B5
100
AcDbEntity
  8
0
100
AcDbLine
 62
7
  6
CONTINUOUS
 10
290.7591852127
 20
86.2418467781
 11
279.5490256621
 21
86.2418467781
  0
LINE
  5
7B6
100
AcDbEntity
  8
0
100
AcDbLine
 62
7
  6
CONTINUOUS
 10
279.5419706922
 20
86.2418467781
 11
276.7196428311
 21
86.2418467781
  0
LINE
  5
7B7
100
AcDbEntity
  8
0
100
AcDbLine
 62
7
  6
CONTINUOUS
 10
275.5369566424
 20
86.2418467781
 11
267.5069566424
 21
86.2418467781
  0
LINE
  5
7B8
100
AcDbEntity
  8
0
100
AcDbLine
 62
7
  6
CONTINUOUS
 10
264.3527872005
 20
86.2418467781
 11
260.051867634
 21
86.2418467781
  0
LINE
  5
7B9
100
AcDbEntity
  8
0
100
AcDbLine
 62
7
  6
CONTINUOUS
 10
259.3460276618
 20
86.2418467781
 11
257.9028085819
 21
86.2418467781
  0
LINE
  5
7BA
100
AcDbEntity
  8
0
100
AcDbLine
 62
7
  6
CONTINUOUS
 10
256.3998739362
 20
86.2418467781
 11
251.9553773995
 21
86.2418467781
  0
LINE
  5
7BB
100
AcDbEntity
  8
0
100
AcDbLine
 62
7
  6
CONTINUOUS
 10
251.7407871317
 20
86.2418467781
 11
250.0334371078
 21
86.2418467781
  0
LINE
  5
7BC
100
AcDbEntity
  8
0
100
AcDbLine
 62
7
  6
CONTINUOUS
 10
243.12508909
 20
86.2418467781
 11
234.2982035117
 21
86.2418467781
  0
LINE
  5
7BD
100
AcDbEntity
  8
KONSTRUKTIONSELEMENTE
100
AcDbLine
 62
7
  6
CONTINUOUS
 10
300.9744924596
 20
86.7418467781
 11
290.7591852127
 21
86.7418467781
  0
LINE
  5
7BE
100
AcDbEntity
  8
KONSTRUKTIONSELEMENTE
100
AcDbLine
 62
7
  6
CONTINUOUS
 10
286.238406199
 20
86.7418467781
 11
285.3349230991
 21
86.7418467781
  0
LINE
  5
7BF
100
AcDbEntity
  8
KONSTRUKTIONSELEMENTE
100
AcDbLine
 62
7
  6
CONTINUOUS
 10
284.0069460572
 20
86.7418467781
 11
283.9146955063
 21
86.7418467781
  0
LINE
  5
7C0
100
AcDbEntity
  8
KONSTRUKTIONSELEMENTE
100
AcDbLine
 62
7
  6
CONTINUOUS
 10
280.4022416048
 20
86.7418467781
 11
279.5419706922
 21
86.7418467781
  0
LINE
  5
7C1
100
AcDbEntity
  8
KONSTRUKTIONSELEMENTE
100
AcDbLine
 62
7
  6
CONTINUOUS
 10
277.5813640234
 20
86.7418467781
 11
275.5369566424
 21
86.7418467781
  0
LINE
  5
7C2
100
AcDbEntity
  8
KONSTRUKTIONSELEMENTE
100
AcDbLine
 62
7
  6
CONTINUOUS
 10
269.3724841055
 20
86.7418467781
 11
264.3527872005
 21
86.7418467781
  0
LINE
  5
7C3
100
AcDbEntity
  8
KONSTRUKTIONSELEMENTE
100
AcDbLine
 62
7
  6
CONTINUOUS
 10
260.051867634
 20
86.7418467781
 11
258.9969905669
 21
86.7418467781
  0
LINE
  5
7C4
100
AcDbEntity
  8
KONSTRUKTIONSELEMENTE
100
AcDbLine
 62
7
  6
CONTINUOUS
 10
257.9028085819
 20
86.7418467781
 11
256.3998739362
 21
86.7418467781
  0
LINE
  5
7C5
100
AcDbEntity
  8
KONSTRUKTIONSELEMENTE
100
AcDbLine
 62
7
  6
CONTINUOUS
 10
255.4945068827
 20
86.7418467781
 11
254.3190951016
 21
86.7418467781
  0
LINE
  5
7C6
100
AcDbEntity
  8
KONSTRUKTIONSELEMENTE
100
AcDbLine
 62
7
  6
CONTINUOUS
 10
251.9553773995
 20
86.7418467781
 11
251.5538466039
 21
86.7418467781
  0
LINE
  5
7C7
100
AcDbEntity
  8
KONSTRUKTIONSELEMENTE
100
AcDbLine
 62
7
  6
CONTINUOUS
 10
250.0334371078
 20
86.7418467781
 11
243.12508909
 21
86.7418467781
  0
LINE
  5
7C8
100
AcDbEntity
  8
KONSTRUKTIONSELEMENTE
100
AcDbLine
 62
7
  6
CONTINUOUS
 10
234.2982035117
 20
86.7418467781
 11
226.1793521803
 21
86.7418467781
  0
LINE
  5
7C9
100
AcDbEntity
  8
0
100
AcDbLine
 62
7
  6
CONTINUOUS
 10
251.5538436087
 20
86.7418469902
 11
251.5320621907
 21
86.7420241767
  0
LWPOLYLINE
  5
7CA
100
AcDbEntity
  8
RUNDUNGEN
100
AcDbPolyline
 62
7
  6
CONTINUOUS
 90
3
 70
0
 10
245.488747619
 20
111.0066722202
 10
245.5577348765
 20
110.8932688109
 10
245.5696274633
 20
110.874501991
  0
LINE
  5
7CB
100
AcDbEntity
  8
RUNDUNGEN
100
AcDbLine
 62
7
  6
CONTINUOUS
 10
245.4218933988
 20
111.1256808714
 11
245.488747619
 21
111.0066722202
  0
LINE
  5
7CC
100
AcDbEntity
  8
0
100
AcDbLine
 62
7
  6
CONTINUOUS
 10
255.3495803088
 20
86.7418467781
 11
255.3495803088
 21
86.2418467781
  0
LINE
  5
7CD
100
AcDbEntity
  8
0
100
AcDbLine
 62
7
  6
CONTINUOUS
 10
255.7331993921
 20
87.1835525929
 11
255.7331993921
 21
86.2418467781
  0
LINE
  5
7CE
100
AcDbEntity
  8
0
100
AcDbLine
 62
7
  6
CONTINUOUS
 10
256.3998739362
 20
87.1940309786
 11
256.3998739362
 21
86.2418467781
  0
LINE
  5
7CF
100
AcDbEntity
  8
0
100
AcDbLine
 62
7
  6
CONTINUOUS
 10
257.9028085819
 20
87.1740542263
 11
257.9028085819
 21
86.2418467781
  0
LINE
  5
7D0
100
AcDbEntity
  8
0
100
AcDbLine
 62
7
  6
CONTINUOUS
 10
258.583672166
 20
87.1740542263
 11
258.583672166
 21
86.2418467781
  0
LINE
  5
7D1
100
AcDbEntity
  8
0
100
AcDbLine
 62
7
  6
CONTINUOUS
 10
259.3460276618
 20
86.7418467781
 11
259.3460276618
 21
86.2418467781
  0
LWPOLYLINE
  5
7D2
100
AcDbEntity
  8
RUNDUNGEN
100
AcDbPolyline
 62
7
  6
CONTINUOUS
 90
13
 70
0
 10
245.596335923
 20
83.6274371756
 10
245.529697718
 20
83.5187930487
 10
245.4677889581
 20
83.4096825764
 10
245.4071518322
 20
83.293097943
 10
245.3488241508
 20
83.1691775226
 10
245.293555359
 20
83.0374561194
 10
245.2425067063
 20
82.8984369997
 10
245.1965276959
 20
82.7519460074
 10
245.15669878
 20
82.598598788
 10
245.1238916954
 20
82.4384142082
 10
245.0990619179
 20
82.2718550662
 10
245.0831301029
 20
82.0994380527
 10
245.0769507095
 20
81.904991627
  0
LINE
  5
7D3
100
AcDbEntity
  8
RUNDUNGEN
100
AcDbLine
 62
7
  6
CONTINUOUS
 10
245.5963382948
 20
83.6274356784
 11
245.5964140117
 21
83.6275546643
  0
LINE
  5
7D4
100
AcDbEntity
  8
RUNDUNGEN
100
AcDbLine
 62
7
  6
CONTINUOUS
 10
247.3889822436
 20
85.8478131495
 11
247.3882067988
 21
85.8465988509
  0
LINE
  5
7D5
100
AcDbEntity
  8
RUNDUNGEN
100
AcDbLine
 62
7
  6
CONTINUOUS
 10
247.3895720756
 20
85.8486034957
 11
247.2437336994
 21
85.6262159502
  0
LINE
  5
7D6
100
AcDbEntity
  8
RUNDUNGEN
100
AcDbLine
 62
7
  6
CONTINUOUS
 10
245.7154396053
 20
83.8021121839
 11
245.5964140117
 21
83.6275546643
  0
LWPOLYLINE
  5
7D7
100
AcDbEntity
  8
RUNDUNGEN
100
AcDbPolyline
 62
7
  6
CONTINUOUS
 90
6
 70
0
 10
247.2437336994
 20
85.6262159502
 10
247.0230245192
 20
85.3118029762
 10
246.7904206012
 20
85.0070574342
 10
246.5460706797
 20
84.7138531245
 10
246.2901228837
 20
84.4338338125
 10
246.0909093043
 20
84.2336274944
  0
LINE
  5
7D8
100
AcDbEntity
  8
RUNDUNGEN
100
AcDbLine
 62
7
  6
CONTINUOUS
 10
245.8395273451
 20
83.9618151299
 11
245.7154396053
 21
83.8021121839
  0
LINE
  5
7D9
100
AcDbEntity
  8
KONSTRUKTIONSELEMENTE
100
AcDbLine
 62
7
  6
CONTINUOUS
 10
312.3231678936
 20
90.7418467781
 11
311.3511626584
 21
90.7418467781
  0
LINE
  5
7DA
100
AcDbEntity
  8
KONSTRUKTIONSELEMENTE
100
AcDbLine
 62
7
  6
CONTINUOUS
 10
215.8027506264
 20
90.7418467781
 11
214.8307453912
 21
90.7418467781
  0
LWPOLYLINE
  5
7DB
100
AcDbEntity
  8
RUNDUNGEN
100
AcDbPolyline
 62
7
  6
CONTINUOUS
 90
3
 70
0
 10
245.6998905716
 20
110.6856302785
 10
245.8290221486
 20
110.5236025043
 10
245.9690055025
 20
110.3698035896
  0
LINE
  5
7DC
100
AcDbEntity
  8
RUNDUNGEN
100
AcDbLine
 62
7
  6
CONTINUOUS
 10
247.2435159742
 20
108.8578095641
 11
247.3890482455
 21
108.6359126498
  0
LWPOLYLINE
  5
7DD
100
AcDbEntity
  8
RUNDUNGEN
100
AcDbPolyline
 62
7
  6
CONTINUOUS
 90
3
 70
0
 10
245.5694809132
 20
110.8747301827
 10
245.5820505019
 20
110.8551625312
 10
245.6998905716
 20
110.6856302785
  0
LINE
  5
7DE
100
AcDbEntity
  8
RUNDUNGEN
100
AcDbLine
 62
7
  6
CONTINUOUS
 10
247.3891222131
 20
108.6357936991
 11
247.3892149664
 21
108.6356483599
  0
LINE
  5
7DF
100
AcDbEntity
  8
0
100
AcDbLine
 62
7
  6
CONTINUOUS
 10
260.051867634
 20
87.1910523385
 11
260.051867634
 21
86.2418467781
  0
LINE
  5
7E0
100
AcDbEntity
  8
0
100
AcDbLine
 62
7
  6
CONTINUOUS
 10
262.8000294488
 20
87.1751284406
 11
262.8000294488
 21
86.2418467781
  0
LINE
  5
7E1
100
AcDbEntity
  8
0
100
AcDbLine
 62
7
  6
CONTINUOUS
 10
263.3768402344
 20
87.1450652101
 11
263.3768402344
 21
86.2418467781
  0
LINE
  5
7E2
100
AcDbEntity
  8
0
100
AcDbLine
 62
7
  6
CONTINUOUS
 10
263.8477019204
 20
87.0557466037
 11
263.8477019204
 21
86.2418467781
  0
LWPOLYLINE
  5
7E3
100
AcDbEntity
  8
RUNDUNGEN
100
AcDbPolyline
 62
7
  6
CONTINUOUS
 90
3
 70
0
 10
246.0908780066
 20
84.2335719638
 10
245.9733096114
 20
84.1139453831
 10
245.8395273451
 20
83.9618151299
  0
LWPOLYLINE
  5
7E4
100
AcDbEntity
  8
RUNDUNGEN
100
AcDbPolyline
 62
7
  6
CONTINUOUS
 90
5
 70
0
 10
247.9935378246
 20
86.5006793354
 10
247.8223757447
 20
86.359614079
 10
247.6643885293
 20
86.2039397618
 10
247.5208184967
 20
86.0348811931
 10
247.3879667584
 20
85.8462222736
  0
LINE
  5
7E5
100
AcDbEntity
  8
RUNDUNGEN
100
AcDbLine
 62
7
  6
CONTINUOUS
 10
278.9773869264
 20
107.8576697191
 11
279.1603770733
 21
107.983015184
  0
LINE
  5
7E6
100
AcDbEntity
  8
RUNDUNGEN
100
AcDbLine
 62
7
  6
CONTINUOUS
 10
248.1765279395
 20
86.62602482
 11
247.9935378246
 21
86.5006793354
  0
LINE
  5
7E7
100
AcDbEntity
  8
RUNDUNGEN
100
AcDbLine
 62
7
  6
CONTINUOUS
 10
278.9766183468
 20
107.8571910675
 11
278.9773199271
 21
107.8576272594
  0
LWPOLYLINE
  5
7E8
100
AcDbEntity
  8
RUNDUNGEN
100
AcDbPolyline
 62
7
  6
CONTINUOUS
 90
6
 70
0
 10
245.9690055025
 20
110.3698035896
 10
246.2627177054
 20
110.0782994543
 10
246.5264649245
 20
109.7922386074
 10
246.7779758882
 20
109.4922062908
 10
247.0170472094
 20
109.1800603359
 10
247.2435159742
 20
108.8578095641
  0
LINE
  5
7E9
100
AcDbEntity
  8
0
100
AcDbLine
 62
7
  6
CONTINUOUS
 10
264.2083339383
 20
86.9534473741
 11
264.2083339383
 21
86.2418467781
  0
LINE
  5
7EA
100
AcDbEntity
  8
0
100
AcDbLine
 62
7
  6
CONTINUOUS
 10
264.3356753974
 20
86.8892359717
 11
264.3356753974
 21
86.2418467781
  0
LINE
  5
7EB
100
AcDbEntity
  8
0
100
AcDbLine
 62
7
  6
CONTINUOUS
 10
264.3527872005
 20
86.8208728805
 11
264.3527872005
 21
86.2418467781
  0
LINE
  5
7EC
100
AcDbEntity
  8
0
100
AcDbLine
 62
7
  6
CONTINUOUS
 10
267.5069566424
 20
86.7418467781
 11
267.5069566424
 21
86.2418467781
  0
LINE
  5
7ED
100
AcDbEntity
  8
RUNDUNGEN
100
AcDbLine
 62
7
  6
CONTINUOUS
 10
281.1961554367
 20
110.3814473132
 11
281.3326623197
 21
110.5327649794
  0
LWPOLYLINE
  5
7EE
100
AcDbEntity
  8
RUNDUNGEN
100
AcDbPolyline
 62
7
  6
CONTINUOUS
 90
5
 70
0
 10
279.1603770733
 20
107.983015184
 10
279.3315391863
 20
108.1240804241
 10
279.4895264355
 20
108.2797547282
 10
279.6330965023
 20
108.4488132869
 10
279.7659492199
 20
108.6374736803
  0
LINE
  5
7EF
100
AcDbEntity
  8
RUNDUNGEN
100
AcDbLine
 62
7
  6
CONTINUOUS
 10
248.1772968395
 20
86.6265036709
 11
248.1765951154
 21
86.6260673896
  0
LINE
  5
7F0
100
AcDbEntity
  8
RUNDUNGEN
100
AcDbLine
 62
7
  6
CONTINUOUS
 10
281.0629932615
 20
84.2336238751
 11
281.0631212451
 21
84.2335000159
  0
LWPOLYLINE
  5
7F1
100
AcDbEntity
  8
RUNDUNGEN
100
AcDbPolyline
 62
7
  6
CONTINUOUS
 90
6
 70
0
 10
281.0630039459
 20
84.2336373676
 10
280.8586860011
 20
84.43915915
 10
280.6028681325
 20
84.7195587781
 10
280.3585638177
 20
85.0132576921
 10
280.1259877215
 20
85.318506078
 10
279.9053069831
 20
85.6334385641
  0
LINE
  5
7F2
100
AcDbEntity
  8
0
100
AcDbLine
 62
7
  6
CONTINUOUS
 10
269.3419566424
 20
86.7472975634
 11
269.3419566424
 21
86.2418467781
  0
LWPOLYLINE
  5
7F3
100
AcDbEntity
  8
RUNDUNGEN
100
AcDbPolyline
 62
7
  6
CONTINUOUS
 90
11
 70
0
 10
281.6670982436
 20
111.0099740782
 10
281.734492492
 20
111.1302929645
 10
281.7988703764
 20
111.2569234506
 10
281.8597663333
 20
111.3915148679
 10
281.9161745347
 20
111.5351545165
 10
281.9666565378
 20
111.6882154817
 10
282.0098151612
 20
111.8516099585
 10
282.0437999917
 20
112.0251213462
 10
282.0667913841
 20
112.2089450108
 10
282.0767246391
 20
112.4024252601
 10
282.0769624685
 20
112.4342833288
  0
LINE
  5
7F4
100
AcDbEntity
  8
RUNDUNGEN
100
AcDbLine
 62
7
  6
CONTINUOUS
 10
281.5973101627
 20
110.8950660494
 11
281.6670982436
 21
111.0099740782
  0
LINE
  5
7F5
100
AcDbEntity
  8
RUNDUNGEN
100
AcDbLine
 62
7
  6
CONTINUOUS
 10
281.5843046641
 20
110.8745320646
 11
281.5973101627
 21
110.8950660494
  0
LINE
  5
7F6
100
AcDbEntity
  8
RUNDUNGEN
100
AcDbLine
 62
7
  6
CONTINUOUS
 10
279.7649360313
 20
108.6358863899
 11
279.7657087358
 21
108.6370964067
  0
LINE
  5
7F7
100
AcDbEntity
  8
RUNDUNGEN
100
AcDbLine
 62
7
  6
CONTINUOUS
 10
279.7643467195
 20
108.635096879
 11
279.9153048457
 21
108.8650739012
  0
LINE
  5
7F8
100
AcDbEntity
  8
RUNDUNGEN
100
AcDbLine
 62
7
  6
CONTINUOUS
 10
281.4587453806
 20
110.6919908638
 11
281.5844388802
 21
110.8747474186
  0
LWPOLYLINE
  5
7F9
100
AcDbEntity
  8
RUNDUNGEN
100
AcDbPolyline
 62
7
  6
CONTINUOUS
 90
6
 70
0
 10
279.9153048457
 20
108.8650739012
 10
280.1418119957
 20
109.1867948997
 10
280.3809185648
 20
109.4984307492
 10
280.6324783693
 20
109.7979580761
 10
280.8963459371
 20
110.0836021448
 10
281.1961554367
 20
110.3814473132
  0
LINE
  5
7FA
100
AcDbEntity
  8
RUNDUNGEN
100
AcDbLine
 62
7
  6
CONTINUOUS
 10
281.3326623197
 20
110.5327649794
 11
281.4587453806
 21
110.6919908638
  0
LINE
  5
7FB
100
AcDbEntity
  8
KONSTRUKTIONSELEMENTE
100
AcDbLine
 62
7
  6
CONTINUOUS
 10
312.3231678936
 20
103.7418467781
 11
311.3511626584
 21
103.7418467781
  0
LINE
  5
7FC
100
AcDbEntity
  8
KONSTRUKTIONSELEMENTE
100
AcDbLine
 62
7
  6
CONTINUOUS
 10
215.8027506264
 20
103.7418467781
 11
214.8307453912
 21
103.7418467781
  0
LWPOLYLINE
  5
7FD
100
AcDbEntity
  8
RUNDUNGEN
100
AcDbPolyline
 62
7
  6
CONTINUOUS
 90
4
 70
0
 10
281.5572208134
 20
83.6280016076
 10
281.4903166222
 20
83.7289956378
 10
281.2992215093
 20
83.9800310639
 10
281.0632277706
 20
84.2333969089
  0
LINE
  5
7FE
100
AcDbEntity
  8
RUNDUNGEN
100
AcDbLine
 62
7
  6
CONTINUOUS
 10
279.9053069831
 20
85.6334385641
 11
279.7648626874
 21
85.8477805459
  0
LINE
  5
7FF
100
AcDbEntity
  8
RUNDUNGEN
100
AcDbLine
 62
7
  6
CONTINUOUS
 10
279.7647887114
 20
85.8478995111
 11
279.7647008366
 21
85.8480372058
  0
LINE
  5
800
100
AcDbEntity
  8
RUNDUNGEN
100
AcDbLine
 62
7
  6
CONTINUOUS
 10
281.5572208134
 20
83.6280016076
 11
281.5575426298
 21
83.6274961836
  0
LINE
  5
801
100
AcDbEntity
  8
0
100
AcDbLine
 62
7
  6
CONTINUOUS
 10
273.6969566424
 20
86.8630758567
 11
273.6969566424
 21
86.2418467781
  0
LINE
  5
802
100
AcDbEntity
  8
0
100
AcDbLine
 62
7
  6
CONTINUOUS
 10
274.6869566424
 20
86.9864491305
 11
274.6869566424
 21
86.2418467781
  0
LINE
  5
803
100
AcDbEntity
  8
0
100
AcDbLine
 62
7
  6
CONTINUOUS
 10
275.5369566424
 20
86.948538266
 11
275.5369566424
 21
86.2418467781
  0
LINE
  5
804
100
AcDbEntity
  8
0
100
AcDbLine
 62
7
  6
CONTINUOUS
 10
276.7196428311
 20
86.7418467781
 11
276.7196428311
 21
86.2418467781
  0
LINE
  5
805
100
AcDbEntity
  8
KONSTRUKTIONSELEMENTE
100
AcDbLine
 62
7
  6
CONTINUOUS
 10
300.974564818
 20
107.7418467781
 11
226.1793510601
 21
107.7418467781
  0
LINE
  5
806
100
AcDbEntity
  8
0
100
AcDbLine
 62
7
  6
CONTINUOUS
 10
223.7022015017
 20
107.8043465993
 11
223.4436338604
 21
107.8043465993
  0
LINE
  5
807
100
AcDbEntity
  8
0
100
AcDbLine
 62
7
  6
CONTINUOUS
 10
223.9624075474
 20
108.7418467781
 11
223.7021525677
 21
108.7418467781
  0
LINE
  5
808
100
AcDbEntity
  8
0
100
AcDbLine
 62
7
  6
CONTINUOUS
 10
277.5813640234
 20
86.8142701124
 11
277.5813640234
 21
86.2418467781
  0
LINE
  5
809
100
AcDbEntity
  8
0
100
AcDbLine
 62
7
  6
CONTINUOUS
 10
277.954432373
 20
86.9679202774
 11
277.954432373
 21
86.2418467781
  0
LINE
  5
80A
100
AcDbEntity
  8
0
100
AcDbLine
 62
7
  6
CONTINUOUS
 10
278.9114188784
 20
87.1735996615
 11
278.9114188784
 21
86.2418467781
  0
LINE
  5
80B
100
AcDbEntity
  8
0
100
AcDbLine
 62
7
  6
CONTINUOUS
 10
279.5419706922
 20
87.1754193398
 11
279.5419706922
 21
86.2418467781
  0
LINE
  5
80C
100
AcDbEntity
  8
0
100
AcDbLine
 62
7
  6
CONTINUOUS
 10
279.9876583386
 20
86.7418467781
 11
279.9876583386
 21
86.2418467781
  0
LINE
  5
80D
100
AcDbEntity
  8
0
100
AcDbLine
 62
7
  6
CONTINUOUS
 10
280.4022416048
 20
86.887651113
 11
280.4022416048
 21
86.2418467781
  0
LINE
  5
80E
100
AcDbEntity
  8
0
100
AcDbLine
 62
7
  6
CONTINUOUS
 10
280.734631474
 20
86.9760785203
 11
280.734631474
 21
86.2418467781
  0
LINE
  5
80F
100
AcDbEntity
  8
0
100
AcDbLine
 62
7
  6
CONTINUOUS
 10
281.3651567532
 20
87.0827244337
 11
281.3651567532
 21
86.2418467781
  0
LINE
  5
810
100
AcDbEntity
  8
0
100
AcDbLine
 62
7
  6
CONTINUOUS
 10
225.5564029905
 20
113.2418467781
 11
225.2853126453
 21
113.2418467781
  0
LWPOLYLINE
  5
811
100
AcDbEntity
  8
RUNDUNGEN
100
AcDbPolyline
 62
7
  6
CONTINUOUS
 90
14
 70
0
 10
282.076959926
 20
81.9048146579
 10
282.0768229706
 20
81.9345355263
 10
282.0700260739
 20
82.1109069151
 10
282.0535783914
 20
82.2822335032
 10
282.0283638498
 20
82.4476962789
 10
281.9952970706
 20
82.6067862146
 10
281.9553312278
 20
82.7590660074
 10
281.909323675
 20
82.9045291018
 10
281.8583427593
 20
83.0425584117
 10
281.8032396579
 20
83.1733207623
 10
281.7451505974
 20
83.2963412038
 10
281.6848250703
 20
83.4120664449
 10
281.6232899299
 20
83.520359769
 10
281.5575403068
 20
83.6274947524
  0
LINE
  5
812
100
AcDbEntity
  8
0
100
AcDbLine
 62
7
  6
CONTINUOUS
 10
281.8791702673
 20
87.1428105416
 11
281.8791702673
 21
86.2418467781
  0
LINE
  5
813
100
AcDbEntity
  8
RUNDUNGEN
100
AcDbLine
 62
7
  6
CONTINUOUS
 10
282.0769566424
 20
62.2731105933
 11
282.0769566424
 21
84.079400197
  0
LINE
  5
814
100
AcDbEntity
  8
0
100
AcDbLine
 62
7
  6
CONTINUOUS
 10
282.0769566424
 20
67.9918467781
 11
282.0769566424
 21
81.5973589309
  0
LINE
  5
815
100
AcDbEntity
  8
0
100
AcDbLine
 62
7
  6
CONTINUOUS
 10
282.0769566424
 20
112.7095550764
 11
282.0769566424
 21
126.4918467781
  0
LINE
  5
816
100
AcDbEntity
  8
RUNDUNGEN
100
AcDbLine
 62
7
  6
CONTINUOUS
 10
282.0769566424
 20
110.4042933592
 11
282.0769566424
 21
132.2105857472
  0
LINE
  5
817
100
AcDbEntity
  8
0
100
AcDbLine
 62
7
  6
CONTINUOUS
 10
282.5769566424
 20
126.0402562332
 11
282.5769566424
 21
124.8117965265
  0
LINE
  5
818
100
AcDbEntity
  8
0
100
AcDbLine
 62
7
  6
CONTINUOUS
 10
282.5769566424
 20
124.7657672432
 11
282.5769566424
 21
118.0407742356
  0
LINE
  5
819
100
AcDbEntity
  8
0
100
AcDbLine
 62
7
  6
CONTINUOUS
 10
282.5769566424
 20
77.1718467781
 11
282.5769566424
 21
70.6566505342
  0
LINE
  5
81A
100
AcDbEntity
  8
0
100
AcDbLine
 62
7
  6
CONTINUOUS
 10
282.6330610343
 20
87.173650159
 11
282.6330610343
 21
86.2418467781
  0
LINE
  5
81B
100
AcDbEntity
  8
0
100
AcDbLine
 62
7
  6
CONTINUOUS
 10
282.8318164579
 20
87.1736501567
 11
282.8318164579
 21
86.2418467781
  0
LINE
  5
81C
100
AcDbEntity
  8
0
100
AcDbLine
 62
7
  6
CONTINUOUS
 10
283.4692000089
 20
87.1428105238
 11
283.4692000089
 21
86.2418467781
  0
LINE
  5
81D
100
AcDbEntity
  8
0
100
AcDbLine
 62
7
  6
CONTINUOUS
 10
283.7502036401
 20
87.0827244584
 11
283.7502036401
 21
86.2418467781
  0
LINE
  5
81E
100
AcDbEntity
  8
0
100
AcDbLine
 62
7
  6
CONTINUOUS
 10
283.9146955063
 20
86.9760784929
 11
283.9146955063
 21
86.2418467781
  0
LINE
  5
81F
100
AcDbEntity
  8
0
100
AcDbLine
 62
7
  6
CONTINUOUS
 10
284.0452850138
 20
86.7420444788
 11
284.0452850138
 21
86.2418467781
  0
LINE
  5
820
100
AcDbEntity
  8
0
100
AcDbLine
 62
7
  6
CONTINUOUS
 10
285.3349230991
 20
86.742033622
 11
285.3349230991
 21
86.2418467781
  0
LINE
  5
821
100
AcDbEntity
  8
0
100
AcDbLine
 62
7
  6
CONTINUOUS
 10
282.0769566424
 20
118.0405152344
 11
282.5769566424
 21
118.0405152344
  0
LINE
  5
822
100
AcDbEntity
  8
0
100
AcDbLine
 62
7
  6
CONTINUOUS
 10
282.0769566424
 20
118.060565486
 11
282.5769566424
 21
118.060565486
  0
LINE
  5
823
100
AcDbEntity
  8
0
100
AcDbLine
 62
7
  6
CONTINUOUS
 10
282.0769566424
 20
119.2692339423
 11
282.5769566424
 21
119.2692339423
  0
LINE
  5
824
100
AcDbEntity
  8
0
100
AcDbLine
 62
7
  6
CONTINUOUS
 10
288.3177101533
 20
87.1910523167
 11
288.3177101533
 21
86.2418467781
  0
LINE
  5
825
100
AcDbEntity
  8
0
100
AcDbLine
 62
7
  6
CONTINUOUS
 10
290.3258999658
 20
87.175128447
 11
290.3258999658
 21
86.2418467781
  0
LINE
  5
826
100
AcDbEntity
  8
0
100
AcDbLine
 62
7
  6
CONTINUOUS
 10
290.6643238067
 20
87.1450651984
 11
290.6643238067
 21
86.2418467781
  0
LINE
  5
827
100
AcDbEntity
  8
0
100
AcDbLine
 62
7
  6
CONTINUOUS
 10
282.0769566424
 20
121.4318467781
 11
282.5769566424
 21
121.4318467781
  0
LINE
  5
828
100
AcDbEntity
  8
0
100
AcDbLine
 62
7
  6
CONTINUOUS
 10
282.0769566424
 20
122.6405152344
 11
282.5769566424
 21
122.6405152344
  0
LINE
  5
829
100
AcDbEntity
  8
0
100
AcDbLine
 62
7
  6
CONTINUOUS
 10
290.7591852127
 20
87.0557466181
 11
290.7591852127
 21
86.2418467781
  0
LINE
  5
82A
100
AcDbEntity
  8
0
100
AcDbLine
 62
7
  6
CONTINUOUS
 10
282.0769566424
 20
124.8117965265
 11
282.5769566424
 21
124.8117965265
  0
LINE
  5
82B
100
AcDbEntity
  8
0
100
AcDbLine
 62
7
  6
CONTINUOUS
 10
282.0769566424
 20
126.0204649828
 11
282.5769566424
 21
126.0204649828
  0
LINE
  5
82C
100
AcDbEntity
  8
0
100
AcDbLine
 62
7
  6
CONTINUOUS
 10
282.0769566424
 20
126.0405152344
 11
282.5769566424
 21
126.0405152344
  0
LINE
  5
82D
100
AcDbEntity
  8
RUNDUNGEN
100
AcDbLine
 62
7
  6
CONTINUOUS
 10
248.0769566424
 20
129.4918467781
 11
279.0769566424
 21
129.4918467781
  0
LINE
  5
82E
100
AcDbEntity
  8
KONSTRUKTIONSELEMENTE
100
AcDbLine
 62
7
  6
CONTINUOUS
 10
289.6891159641
 20
57.4694334186
 11
307.4907157071
 21
88.3027086294
  0
LINE
  5
82F
100
AcDbEntity
  8
KONSTRUKTIONSELEMENTE
100
AcDbLine
 62
7
  6
CONTINUOUS
 10
284.9647973207
 20
139.7418467781
 11
242.1891159641
 21
139.7418467781
  0
LINE
  5
830
100
AcDbEntity
  8
KONSTRUKTIONSELEMENTE
100
AcDbLine
 62
7
  6
CONTINUOUS
 10
307.4907453635
 20
106.1809335602
 11
289.6891159641
 21
137.0142601376
  0
LINE
  5
831
100
AcDbEntity
  8
KONSTRUKTIONSELEMENTE
100
AcDbLine
 62
7
  6
CONTINUOUS
 10
284.9647973207
 20
54.7418467781
 11
289.6891159641
 21
57.4694334186
  0
LINE
  5
832
100
AcDbEntity
  8
KONSTRUKTIONSELEMENTE
100
AcDbLine
 62
7
  6
CONTINUOUS
 10
289.6891159641
 20
137.0142601376
 11
284.9647973207
 21
139.7418467781
  0
ARC
  5
833
100
AcDbEntity
  8
RUNDUNGEN
100
AcDbCircle
 62
7
  6
CONTINUOUS
 10
240.0769566424
 20
341.1408349241
 40
5.0
100
AcDbArc
 50
270.0000058206
 51
0.0008111621
  0
ARC
  5
834
100
AcDbEntity
  8
RUNDUNGEN
100
AcDbCircle
 62
7
  6
CONTINUOUS
 10
225.3269566424
 20
333.1408349241
 40
3.0
100
AcDbArc
 50
90.0
 51
180.0
  0
ARC
  5
835
100
AcDbEntity
  8
KONSTRUKTIONSELEMENTE
100
AcDbCircle
 62
7
  6
CONTINUOUS
 10
106.0769566424
 20
434.7658349241
 40
208.5
100
AcDbArc
 50
345.7499673022
 51
14.2500326978
  0
ARC
  5
836
100
AcDbEntity
  8
KONSTRUKTIONSELEMENTE
100
AcDbCircle
 62
7
  6
CONTINUOUS
 10
106.0769566424
 20
434.7658349241
 40
206.2462112512
100
AcDbArc
 50
354.4351988057
 51
5.5648011943
  0
ARC
  5
837
100
AcDbEntity
  8
KONSTRUKTIONSELEMENTE
100
AcDbCircle
 62
7
  6
CONTINUOUS
 10
106.0769566424
 20
434.7658349241
 40
189.7537887488
100
AcDbArc
 50
353.9498022263
 51
6.0501977737
  0
ARC
  5
838
100
AcDbEntity
  8
KONSTRUKTIONSELEMENTE
100
AcDbCircle
 62
7
  6
CONTINUOUS
 10
106.0769566424
 20
434.7658349241
 40
187.5
100
AcDbArc
 50
345.7499673022
 51
14.2500326978
  0
ARC
  5
839
100
AcDbEntity
  8
KONSTRUKTIONSELEMENTE
100
AcDbCircle
 62
7
  6
CONTINUOUS
 10
263.5769566424
 20
394.7658349241
 40
46.0
100
AcDbArc
 50
194.2500326978
 51
246.2809701756
  0
ARC
  5
83A
100
AcDbEntity
  8
KONSTRUKTIONSELEMENTE
100
AcDbCircle
 62
7
  6
CONTINUOUS
 10
263.5769566424
 20
394.7658349241
 40
46.0
100
AcDbArc
 50
293.7190298244
 51
345.7499673022
  0
ARC
  5
83B
100
AcDbEntity
  8
KONSTRUKTIONSELEMENTE
100
AcDbCircle
 62
7
  6
CONTINUOUS
 10
263.5769566424
 20
394.7658349241
 40
25.0
100
AcDbArc
 50
194.2500326978
 51
222.286911595
  0
ARC
  5
83C
100
AcDbEntity
  8
KONSTRUKTIONSELEMENTE
100
AcDbCircle
 62
7
  6
CONTINUOUS
 10
263.5769566424
 20
394.7658349241
 40
25.0
100
AcDbArc
 50
317.6999235153
 51
345.7499673022
  0
ARC
  5
83D
100
AcDbEntity
  8
RUNDUNGEN
100
AcDbCircle
 62
7
  6
CONTINUOUS
 10
263.5769566424
 20
377.6408349241
 40
18.5
100
AcDbArc
 50
0.0
 51
180.0
  0
ARC
  5
83E
100
AcDbEntity
  8
RUNDUNGEN
100
AcDbCircle
 62
7
  6
CONTINUOUS
 10
287.0769566424
 20
341.1408349241
 40
5.0
100
AcDbArc
 50
179.9995932686
 51
269.9999819927
  0
ARC
  5
83F
100
AcDbEntity
  8
RUNDUNGEN
100
AcDbCircle
 62
7
  6
CONTINUOUS
 10
301.8269566424
 20
333.1408349241
 40
3.0
100
AcDbArc
 50
0.0
 51
90.0
  0
ARC
  5
840
100
AcDbEntity
  8
KONSTRUKTIONSELEMENTE
100
AcDbCircle
 62
7
  6
CONTINUOUS
 10
421.0769566424
 20
434.7658349241
 40
208.5
100
AcDbArc
 50
165.7499673022
 51
194.2500326978
  0
ARC
  5
841
100
AcDbEntity
  8
KONSTRUKTIONSELEMENTE
100
AcDbCircle
 62
7
  6
CONTINUOUS
 10
421.0769566424
 20
434.7658349241
 40
206.2462112512
100
AcDbArc
 50
174.4351988057
 51
185.5648011943
  0
ARC
  5
842
100
AcDbEntity
  8
KONSTRUKTIONSELEMENTE
100
AcDbCircle
 62
7
  6
CONTINUOUS
 10
421.0769566424
 20
434.7658349241
 40
189.7537887488
100
AcDbArc
 50
173.9498022263
 51
186.0501977737
  0
ARC
  5
843
100
AcDbEntity
  8
KONSTRUKTIONSELEMENTE
100
AcDbCircle
 62
7
  6
CONTINUOUS
 10
421.0769566424
 20
434.7658349241
 40
187.5
100
AcDbArc
 50
165.7499673022
 51
194.2500326978
  0
ARC
  5
844
100
AcDbEntity
  8
KONSTRUKTIONSELEMENTE
100
AcDbCircle
 62
7
  6
CONTINUOUS
 10
263.5769566424
 20
474.7658349241
 40
46.0
100
AcDbArc
 50
14.2500326978
 51
165.7499673022
  0
ARC
  5
845
100
AcDbEntity
  8
KONSTRUKTIONSELEMENTE
100
AcDbCircle
 62
7
  6
CONTINUOUS
 10
263.5769566424
 20
474.7658349241
 40
25.0
100
AcDbArc
 50
14.2500326978
 51
165.7499673022
  0
ARC
  5
846
100
AcDbEntity
  8
0
100
AcDbCircle
 62
7
  6
CONTINUOUS
 10
271.6269566424
 20
509.4818616561
 40
2.285
100
AcDbArc
 50
218.1089220474
 51
6.1440493103
  0
ARC
  5
847
100
AcDbEntity
  8
0
100
AcDbCircle
 62
7
  6
CONTINUOUS
 10
271.6269566424
 20
509.4818616561
 40
2.285
100
AcDbArc
 50
25.0541325892
 51
199.88
  0
CIRCLE
  5
848
100
AcDbEntity
  8
0
100
AcDbCircle
 62
7
  6
CONTINUOUS
 10
271.6269566424
 20
509.4818616561
 40
1.56
  0
ARC
  5
849
100
AcDbEntity
  8
0
100
AcDbCircle
 62
7
  6
CONTINUOUS
 10
412.4334350201
 20
501.3546237296
 40
66.8944221877
100
AcDbArc
 50
358.6896918235
 51
0.3923283943
  0
ARC
  5
84A
100
AcDbEntity
  8
0
100
AcDbCircle
 62
7
  6
CONTINUOUS
 10
432.2411234326
 20
505.3615816803
 40
47.0867334214
100
AcDbArc
 50
358.4382240021
 51
0.4675700063
  0
ARC
  5
84B
100
AcDbEntity
  8
0
100
AcDbCircle
 62
7
  6
CONTINUOUS
 10
448.7209816907
 20
504.7416618013
 40
30.7451427081
100
AcDbArc
 50
354.5333316338
 51
355.1568838944
  0
ARC
  5
84C
100
AcDbEntity
  8
0
100
AcDbCircle
 62
7
  6
CONTINUOUS
 10
469.2595706331
 20
412.6408349241
 40
22.0
100
AcDbArc
 50
230.8513123577
 51
241.4780828273
  0
ARC
  5
84D
100
AcDbEntity
  8
0
100
AcDbCircle
 62
7
  6
CONTINUOUS
 10
469.2595706331
 20
412.6408349241
 40
22.0
100
AcDbArc
 50
298.5244961666
 51
308.7394245979
  0
ARC
  5
84E
100
AcDbEntity
  8
0
100
AcDbCircle
 62
7
  6
CONTINUOUS
 10
461.3980322111
 20
507.9937321868
 40
18.0686311501
100
AcDbArc
 50
352.853382843
 51
353.6655932583
  0
ARC
  5
84F
100
AcDbEntity
  8
RUNDUNGEN
100
AcDbCircle
 62
7
  6
CONTINUOUS
 10
469.2595706331
 20
354.1408349241
 40
15.0
100
AcDbArc
 50
134.4271104093
 51
45.5699546854
  0
ARC
  5
850
100
AcDbEntity
  8
0
100
AcDbCircle
 62
7
  6
CONTINUOUS
 10
468.5277181792
 20
509.3603568774
 40
11.2299387973
100
AcDbArc
 50
11.9656386062
 51
12.1726590124
  0
ARC
  5
851
100
AcDbEntity
  8
0
100
AcDbCircle
 62
7
  6
CONTINUOUS
 10
468.5676927944
 20
509.3693615463
 40
11.1889642429
100
AcDbArc
 50
12.1707477895
 51
16.0991058272
  0
ARC
  5
852
100
AcDbEntity
  8
0
100
AcDbCircle
 62
7
  6
CONTINUOUS
 10
469.2477230865
 20
510.1032903297
 40
10.5116264785
100
AcDbArc
 50
15.6244952973
 51
16.8064671126
  0
ARC
  5
853
100
AcDbEntity
  8
KONSTRUKTIONSELEMENTE
100
AcDbCircle
 62
7
  6
CONTINUOUS
 10
469.2595706331
 20
510.2658349241
 40
10.5
100
AcDbArc
 50
16.4759724714
 51
180.0
  0
ARC
  5
854
100
AcDbEntity
  8
KONSTRUKTIONSELEMENTE
100
AcDbCircle
 62
7
  6
CONTINUOUS
 10
469.2595706331
 20
359.2658349241
 40
10.5
100
AcDbArc
 50
180.0
 51
360.0
  0
ARC
  5
855
100
AcDbEntity
  8
0
100
AcDbCircle
 62
7
  6
CONTINUOUS
 10
469.4407551337
 20
509.8704526294
 40
10.3191405905
100
AcDbArc
 50
15.6793278892
 51
16.6476917691
  0
ARC
  5
856
100
AcDbEntity
  8
0
100
AcDbCircle
 62
7
  6
CONTINUOUS
 10
471.6492295505
 20
508.8501848635
 40
8.1103410529
100
AcDbArc
 50
0.0156494652
 51
19.2227050672
  0
ARC
  5
857
100
AcDbEntity
  8
0
100
AcDbCircle
 62
7
  6
CONTINUOUS
 10
471.9008360788
 20
512.0935544672
 40
7.4266802733
100
AcDbArc
 50
2.921362684
 51
4.2194848227
  0
ARC
  5
858
100
AcDbEntity
  8
0
100
AcDbCircle
 62
7
  6
CONTINUOUS
 10
471.9008360788
 20
512.0668759825
 40
7.4266802733
100
AcDbArc
 50
355.7805151773
 51
357.078637316
  0
ARC
  5
859
100
AcDbEntity
  8
RUNDUNGEN
100
AcDbCircle
 62
7
  6
CONTINUOUS
 10
433.5095706331
 20
369.6671143657
 40
3.5
100
AcDbArc
 50
330.0
 51
360.0
  0
ARC
  5
85A
100
AcDbEntity
  8
RUNDUNGEN
100
AcDbCircle
 62
7
  6
CONTINUOUS
 10
505.0095706331
 20
369.6671143657
 40
3.5
100
AcDbArc
 50
180.0
 51
210.0
  0
ARC
  5
85B
100
AcDbEntity
  8
RUNDUNGEN
100
AcDbCircle
 62
7
  6
CONTINUOUS
 10
445.8861657654
 20
393.1408348505
 40
3.0
100
AcDbArc
 50
90.0000013153
 51
139.9999999999
  0
ARC
  5
85C
100
AcDbEntity
  8
RUNDUNGEN
100
AcDbCircle
 62
7
  6
CONTINUOUS
 10
492.6329756043
 20
393.1408347272
 40
3.0
100
AcDbArc
 50
40.0000000004
 51
89.9999964842
  0
ARC
  5
85D
100
AcDbEntity
  8
RUNDUNGEN
100
AcDbCircle
 62
7
  6
CONTINUOUS
 10
484.9040584803
 20
393.1408349241
 40
3.0
100
AcDbArc
 50
90.0
 51
128.7394245979
  0
ARC
  5
85E
100
AcDbEntity
  8
RUNDUNGEN
100
AcDbCircle
 62
7
  6
CONTINUOUS
 10
440.0095706331
 20
386.1373814894
 40
3.0
100
AcDbArc
 50
140.0
 51
180.0
  0
ARC
  5
85F
100
AcDbEntity
  8
RUNDUNGEN
100
AcDbCircle
 62
7
  6
CONTINUOUS
 10
498.5095706331
 20
386.1373814894
 40
3.0
100
AcDbArc
 50
0.0
 51
40.0
  0
ARC
  5
860
100
AcDbEntity
  8
RUNDUNGEN
100
AcDbCircle
 62
7
  6
CONTINUOUS
 10
507.5095682145
 20
352.3369915359
 40
3.0
100
AcDbArc
 50
359.9999199934
 51
29.9999076162
  0
ARC
  5
861
100
AcDbEntity
  8
RUNDUNGEN
100
AcDbCircle
 62
7
  6
CONTINUOUS
 10
431.0095730286
 20
352.3369914958
 40
3.0
100
AcDbArc
 50
150.0000915004
 51
180.0000792416
  0
ARC
  5
862
100
AcDbEntity
  8
RUNDUNGEN
100
AcDbCircle
 62
7
  6
CONTINUOUS
 10
453.7918623349
 20
393.6408349241
 40
2.5
100
AcDbArc
 50
50.8513123577
 51
90.0
  0
ARC
  5
863
100
AcDbEntity
  8
0
100
AcDbCircle
 62
7
  6
CONTINUOUS
 10
476.8306082152
 20
512.8743886983
 40
2.49720957
100
AcDbArc
 50
358.906719633
 51
1.093280367
  0
ARC
  5
864
100
AcDbEntity
  8
KONSTRUKTIONSELEMENTE
100
AcDbCircle
 62
7
  6
CONTINUOUS
 10
226.1826003905
 20
96.7942991695
 40
10.9475337591
100
AcDbArc
 50
89.9885290634
 51
90.2378678427
  0
ARC
  5
865
100
AcDbEntity
  8
RUNDUNGEN
100
AcDbCircle
 62
7
  6
CONTINUOUS
 10
228.5769566424
 20
97.2418467781
 40
22.0
100
AcDbArc
 50
31.3069722275
 51
39.1486876423
  0
ARC
  5
866
100
AcDbEntity
  8
RUNDUNGEN
100
AcDbCircle
 62
7
  6
CONTINUOUS
 10
228.5769566424
 20
97.2418467781
 40
22.0
100
AcDbArc
 50
321.2605754021
 51
328.6930277725
  0
ARC
  5
867
100
AcDbEntity
  8
KONSTRUKTIONSELEMENTE
100
AcDbCircle
 62
7
  6
CONTINUOUS
 10
226.1825674087
 20
97.6907106051
 40
10.948849778
100
AcDbArc
 50
269.7626309713
 51
270.0119243001
  0
ARC
  5
868
100
AcDbEntity
  8
KONSTRUKTIONSELEMENTE
100
AcDbCircle
 62
7
  6
CONTINUOUS
 10
223.0769566424
 20
97.2418467781
 40
10.5
100
AcDbArc
 50
141.7533801217
 51
218.2466198783
  0
ARC
  5
869
100
AcDbEntity
  8
0
100
AcDbCircle
 62
7
  6
CONTINUOUS
 10
239.8446025975
 20
96.5275987216
 40
9.7847548998
100
AcDbArc
 50
258.0909377637
 51
260.0765085735
  0
ARC
  5
86A
100
AcDbEntity
  8
0
100
AcDbCircle
 62
7
  6
CONTINUOUS
 10
244.260753733
 20
94.9875945793
 40
8.2456936299
100
AcDbArc
 50
256.9935199489
 51
259.1525958196
  0
ARC
  5
86B
100
AcDbEntity
  8
0
100
AcDbCircle
 62
7
  6
CONTINUOUS
 10
239.4486594738
 20
92.4036551933
 40
5.6633625276
100
AcDbArc
 50
256.8305581808
 51
260.323218412
  0
ARC
  5
86C
100
AcDbEntity
  8
0
100
AcDbCircle
 62
7
  6
CONTINUOUS
 10
243.8108632717
 20
90.8398381413
 40
4.1013948168
100
AcDbArc
 50
254.4151870998
 51
257.4787183811
  0
ARC
  5
86D
100
AcDbEntity
  8
0
100
AcDbCircle
 62
7
  6
CONTINUOUS
 10
243.7966267534
 20
90.7776727762
 40
4.0376215339
100
AcDbArc
 50
257.4846829344
 51
258.5167250801
  0
ARC
  5
86E
100
AcDbEntity
  8
0
100
AcDbCircle
 62
7
  6
CONTINUOUS
 10
254.3215229214
 20
90.1345403166
 40
3.3926944144
100
AcDbArc
 50
258.2641831488
 51
269.9588141332
  0
ARC
  5
86F
100
AcDbEntity
  8
RUNDUNGEN
100
AcDbCircle
 62
7
  6
CONTINUOUS
 10
248.0769566424
 20
62.2731107415
 40
3.0
100
AcDbArc
 50
180.0000517236
 51
246.0943149491
  0
ARC
  5
870
100
AcDbEntity
  8
RUNDUNGEN
100
AcDbCircle
 62
7
  6
CONTINUOUS
 10
248.0769566424
 20
67.9918467781
 40
3.0
100
AcDbArc
 50
180.0
 51
270.0
  0
ARC
  5
871
100
AcDbEntity
  8
RUNDUNGEN
100
AcDbCircle
 62
7
  6
CONTINUOUS
 10
248.0769566424
 20
81.5973589309
 40
3.0
100
AcDbArc
 50
141.2605754021
 51
180.0
  0
ARC
  5
872
100
AcDbEntity
  8
0
100
AcDbCircle
 62
7
  6
CONTINUOUS
 10
239.1509077139
 20
89.4128269999
 40
2.6732390389
100
AcDbArc
 50
255.834550426
 51
256.7953750915
  0
ARC
  5
873
100
AcDbEntity
  8
0
100
AcDbCircle
 62
7
  6
CONTINUOUS
 10
239.1472705587
 20
89.3974477261
 40
2.6574355526
100
AcDbArc
 50
256.7959768744
 51
257.1714424644
  0
ARC
  5
874
100
AcDbEntity
  8
RUNDUNGEN
100
AcDbCircle
 62
7
  6
CONTINUOUS
 10
249.5096485046
 20
84.5110806118
 40
2.4999999916
100
AcDbArc
 50
121.9275116606
 51
148.6930113691
  0
ARC
  5
875
100
AcDbEntity
  8
0
100
AcDbCircle
 62
7
  6
CONTINUOUS
 10
243.4626505419
 20
88.1172278917
 40
1.3788716219
100
AcDbArc
 50
250.0778424181
 51
255.3785992111
  0
ARC
  5
876
100
AcDbEntity
  8
0
100
AcDbCircle
 62
7
  6
CONTINUOUS
 10
245.5240162424
 20
112.7285262227
 40
25.9346541692
100
AcDbArc
 50
260.5602230953
 51
261.8508902264
  0
ARC
  5
877
100
AcDbEntity
  8
0
100
AcDbCircle
 62
7
  6
CONTINUOUS
 10
240.8843669851
 20
112.1379959962
 40
25.3442528831
100
AcDbArc
 50
260.4488957061
 51
261.7543238301
  0
ARC
  5
878
100
AcDbEntity
  8
0
100
AcDbCircle
 62
7
  6
CONTINUOUS
 10
240.3405052157
 20
102.7839273527
 40
16.0290266462
100
AcDbArc
 50
258.8817170818
 51
260.9725587086
  0
ARC
  5
879
100
AcDbEntity
  8
0
100
AcDbCircle
 62
7
  6
CONTINUOUS
 10
244.8440468038
 20
101.8066411186
 40
15.052125155
100
AcDbArc
 50
258.5180607851
 51
260.6745483026
  0
ARC
  5
87A
100
AcDbEntity
  8
RUNDUNGEN
100
AcDbCircle
 62
7
  6
CONTINUOUS
 10
241.5769566424
 20
97.2418467781
 40
12.5
100
AcDbArc
 50
57.1491463651
 51
58.1275704689
  0
ARC
  5
87B
100
AcDbEntity
  8
RUNDUNGEN
100
AcDbCircle
 62
7
  6
CONTINUOUS
 10
241.5769566424
 20
97.2418467781
 40
12.5
100
AcDbArc
 50
301.8722583998
 51
302.8410273286
  0
ARC
  5
87C
100
AcDbEntity
  8
RUNDUNGEN
100
AcDbCircle
 62
7
  6
CONTINUOUS
 10
248.0769566424
 20
126.4918467781
 40
3.0
100
AcDbArc
 50
90.0
 51
180.0
  0
ARC
  5
87D
100
AcDbEntity
  8
RUNDUNGEN
100
AcDbCircle
 62
7
  6
CONTINUOUS
 10
248.0769566424
 20
132.2105828147
 40
3.0
100
AcDbArc
 50
113.9054283119
 51
179.9999997994
  0
ARC
  5
87E
100
AcDbEntity
  8
RUNDUNGEN
100
AcDbCircle
 62
7
  6
CONTINUOUS
 10
247.5769566424
 20
112.7095550764
 40
2.5
100
AcDbArc
 50
180.0
 51
219.1486876423
  0
ARC
  5
87F
100
AcDbEntity
  8
RUNDUNGEN
100
AcDbCircle
 62
7
  6
CONTINUOUS
 10
249.5096489501
 20
109.9726123777
 40
2.5
100
AcDbArc
 50
211.3069722275
 51
238.0724728042
  0
ARC
  5
880
100
AcDbEntity
  8
RUNDUNGEN
100
AcDbCircle
 62
7
  6
CONTINUOUS
 10
249.4964744495
 20
109.9808118977
 40
2.4999998081
100
AcDbArc
 50
212.5504964493
 51
238.1317460926
  0
ARC
  5
881
100
AcDbEntity
  8
0
100
AcDbCircle
 62
7
  6
CONTINUOUS
 10
262.1667058024
 20
215.0237006183
 40
127.8501408161
100
AcDbArc
 50
269.052196367
 51
270.2838238596
  0
ARC
  5
882
100
AcDbEntity
  8
0
100
AcDbCircle
 62
7
  6
CONTINUOUS
 10
258.2432403739
 20
214.6188975654
 40
127.4452980205
100
AcDbArc
 50
269.8469513713
 51
270.1530486287
  0
ARC
  5
883
100
AcDbEntity
  8
0
100
AcDbCircle
 62
7
  6
CONTINUOUS
 10
254.2373171924
 20
203.5706560006
 40
116.3967160326
100
AcDbArc
 50
270.7363618072
 51
271.064570446
  0
ARC
  5
884
100
AcDbEntity
  8
0
100
AcDbCircle
 62
7
  6
CONTINUOUS
 10
254.1179341434
 20
203.5706560005
 40
116.3967160325
100
AcDbArc
 50
268.935429554
 51
269.2636381928
  0
ARC
  5
885
100
AcDbEntity
  8
0
100
AcDbCircle
 62
7
  6
CONTINUOUS
 10
240.2400185551
 20
168.1256893435
 40
80.9521292862
100
AcDbArc
 50
268.8088828697
 51
270.3566568185
  0
ARC
  5
886
100
AcDbEntity
  8
0
100
AcDbCircle
 62
7
  6
CONTINUOUS
 10
245.3505159999
 20
163.2284587652
 40
76.1927141982
100
AcDbArc
 50
266.5338017046
 51
266.9303846716
  0
ARC
  5
887
100
AcDbEntity
  8
0
100
AcDbCircle
 62
7
  6
CONTINUOUS
 10
240.4050405848
 20
150.5514500756
 40
63.5157660333
100
AcDbArc
 50
266.2026827028
 51
266.6369717982
  0
ARC
  5
888
100
AcDbEntity
  8
0
100
AcDbCircle
 62
7
  6
CONTINUOUS
 10
235.7606593256
 20
148.3180015222
 40
61.1444412397
100
AcDbArc
 50
268.629465975
 51
270.41035084
  0
ARC
  5
889
100
AcDbEntity
  8
0
100
AcDbCircle
 62
7
  6
CONTINUOUS
 10
265.8668102509
 20
93.4868294319
 40
6.7405952848
100
AcDbArc
 50
252.5697524311
 51
255.7565196065
  0
ARC
  5
88A
100
AcDbEntity
  8
0
100
AcDbCircle
 62
7
  6
CONTINUOUS
 10
279.1064615937
 20
92.4272838962
 40
5.6891631379
100
AcDbArc
 50
283.1653970729
 51
286.629870571
  0
ARC
  5
88B
100
AcDbEntity
  8
RUNDUNGEN
100
AcDbCircle
 62
7
  6
CONTINUOUS
 10
279.0769566424
 20
67.9918467781
 40
3.0
100
AcDbArc
 50
270.0
 51
360.0
  0
ARC
  5
88C
100
AcDbEntity
  8
RUNDUNGEN
100
AcDbCircle
 62
7
  6
CONTINUOUS
 10
279.0769566424
 20
62.2731107415
 40
3.0
100
AcDbArc
 50
293.9053769945
 51
359.9999971712
  0
ARC
  5
88D
100
AcDbEntity
  8
RUNDUNGEN
100
AcDbCircle
 62
7
  6
CONTINUOUS
 10
279.0769566424
 20
81.5973589309
 40
3.0
100
AcDbArc
 50
0.0
 51
38.7394245979
  0
ARC
  5
88E
100
AcDbEntity
  8
RUNDUNGEN
100
AcDbCircle
 62
7
  6
CONTINUOUS
 10
277.6442643347
 20
84.5110811785
 40
2.5
100
AcDbArc
 50
31.3069722275
 51
43.8382572042
  0
ARC
  5
88F
100
AcDbEntity
  8
RUNDUNGEN
100
AcDbCircle
 62
7
  6
CONTINUOUS
 10
277.6574345284
 20
84.5028842931
 40
2.4999998446
100
AcDbArc
 50
32.5502064668
 51
44.1106515718
  0
ARC
  5
890
100
AcDbEntity
  8
0
100
AcDbCircle
 62
7
  6
CONTINUOUS
 10
265.1289708635
 20
88.6208424112
 40
1.9046728217
100
AcDbArc
 50
241.0951170537
 51
245.386211085
  0
ARC
  5
891
100
AcDbEntity
  8
0
100
AcDbCircle
 62
7
  6
CONTINUOUS
 10
277.0476592593
 20
88.6154836061
 40
1.8786193934
100
AcDbArc
 50
286.504708696
 51
288.5047686587
  0
ARC
  5
892
100
AcDbEntity
  8
0
100
AcDbCircle
 62
7
  6
CONTINUOUS
 10
263.5769566424
 20
97.2418467781
 40
41.5
100
AcDbArc
 50
157.3225971215
 51
165.8059856008
  0
ARC
  5
893
100
AcDbEntity
  8
0
100
AcDbCircle
 62
7
  6
CONTINUOUS
 10
263.5769566424
 20
97.2418467781
 40
41.5
100
AcDbArc
 50
194.1947017753
 51
205.3223719953
  0
ARC
  5
894
100
AcDbEntity
  8
RUNDUNGEN
100
AcDbCircle
 62
7
  6
CONTINUOUS
 10
263.5769566424
 20
97.2418467781
 40
41.25
100
AcDbArc
 50
194.3725111457
 51
345.6274154363
  0
ARC
  5
895
100
AcDbEntity
  8
RUNDUNGEN
100
AcDbCircle
 62
7
  6
CONTINUOUS
 10
263.5769566424
 20
97.2418467781
 40
41.25
100
AcDbArc
 50
14.3724046629
 51
165.627487525
  0
ARC
  5
896
100
AcDbEntity
  8
0
100
AcDbCircle
 62
7
  6
CONTINUOUS
 10
266.88410897
 20
104.348582624
 40
17.5573900507
100
AcDbArc
 50
258.4770601749
 51
260.0410928556
  0
ARC
  5
897
100
AcDbEntity
  8
0
100
AcDbCircle
 62
7
  6
CONTINUOUS
 10
271.5781976467
 20
107.8986843632
 40
21.142042591
100
AcDbArc
 50
275.7515763149
 51
278.4555195331
  0
ARC
  5
898
100
AcDbEntity
  8
0
100
AcDbCircle
 62
7
  6
CONTINUOUS
 10
277.9370372124
 20
105.4336225417
 40
18.6683546397
100
AcDbArc
 50
278.618672623
 51
280.5814236841
  0
ARC
  5
899
100
AcDbEntity
  8
0
100
AcDbCircle
 62
7
  6
CONTINUOUS
 10
275.5848336937
 20
100.3223824197
 40
13.5630622284
100
AcDbArc
 50
280.0617655172
 51
284.1976724088
  0
ARC
  5
89A
100
AcDbEntity
  8
RUNDUNGEN
100
AcDbCircle
 62
7
  6
CONTINUOUS
 10
279.5769566424
 20
112.7095550764
 40
2.5
100
AcDbArc
 50
320.8513123577
 51
360.0
  0
ARC
  5
89B
100
AcDbEntity
  8
RUNDUNGEN
100
AcDbCircle
 62
7
  6
CONTINUOUS
 10
277.6442647337
 20
109.9726128835
 40
2.4999999924
100
AcDbArc
 50
301.9275133047
 51
328.6930131171
  0
ARC
  5
89C
100
AcDbEntity
  8
0
100
AcDbCircle
 62
7
  6
CONTINUOUS
 10
276.9400275796
 20
127.1666372967
 40
40.3274328294
100
AcDbArc
 50
276.299751448
 51
277.0350212469
  0
ARC
  5
89D
100
AcDbEntity
  8
RUNDUNGEN
100
AcDbCircle
 62
7
  6
CONTINUOUS
 10
279.0769566424
 20
126.4918467781
 40
3.0
100
AcDbArc
 50
0.0
 51
90.0
  0
ARC
  5
89E
100
AcDbEntity
  8
RUNDUNGEN
100
AcDbCircle
 62
7
  6
CONTINUOUS
 10
279.0769566424
 20
132.2105828147
 40
3.0
100
AcDbArc
 50
0.0000449366
 51
66.0943170742
  0
ARC
  5
89F
100
AcDbEntity
  8
KONSTRUKTIONSELEMENTE
100
AcDbCircle
 62
7
  6
CONTINUOUS
 10
300.9707764623
 20
96.631302896
 40
11.1105297616
100
AcDbArc
 50
88.9184943524
 51
90.0088164205
  0
ARC
  5
8A0
100
AcDbEntity
  8
0
100
AcDbCircle
 62
7
  6
CONTINUOUS
 10
291.9118514608
 20
88.3749770427
 40
1.7518585538
100
AcDbArc
 50
224.5926057741
 51
228.8549425329
  0
ARC
  5
8A1
100
AcDbEntity
  8
0
100
AcDbCircle
 62
7
  6
CONTINUOUS
 10
293.2997355074
 20
118.7319176033
 40
31.6966029675
100
AcDbArc
 50
264.6164831542
 51
265.2306407045
  0
ARC
  5
8A2
100
AcDbEntity
  8
0
100
AcDbCircle
 62
7
  6
CONTINUOUS
 10
298.5769566424
 20
97.2418467781
 40
22.0
100
AcDbArc
 50
140.8513123577
 51
148.6930277725
  0
ARC
  5
8A3
100
AcDbEntity
  8
0
100
AcDbCircle
 62
7
  6
CONTINUOUS
 10
298.5769566424
 20
97.2418467781
 40
22.0
100
AcDbArc
 50
211.3069722275
 51
218.7394245979
  0
ARC
  5
8A4
100
AcDbEntity
  8
RUNDUNGEN
100
AcDbCircle
 62
7
  6
CONTINUOUS
 10
298.5769566424
 20
97.2418467781
 40
22.0
100
AcDbArc
 50
140.8513123577
 51
148.6930277725
  0
ARC
  5
8A5
100
AcDbEntity
  8
RUNDUNGEN
100
AcDbCircle
 62
7
  6
CONTINUOUS
 10
298.5769566424
 20
97.2418467781
 40
22.0
100
AcDbArc
 50
211.3069722275
 51
218.7394245979
  0
ARC
  5
8A6
100
AcDbEntity
  8
0
100
AcDbCircle
 62
7
  6
CONTINUOUS
 10
286.2504394367
 20
99.462666814
 40
12.6298912017
100
AcDbArc
 50
257.2785808415
 51
258.5822050336
  0
ARC
  5
8A7
100
AcDbEntity
  8
RUNDUNGEN
100
AcDbCircle
 62
7
  6
CONTINUOUS
 10
285.5769566424
 20
97.2418467781
 40
12.5
100
AcDbArc
 50
121.8722481371
 51
122.8556722675
  0
ARC
  5
8A8
100
AcDbEntity
  8
KONSTRUKTIONSELEMENTE
100
AcDbCircle
 62
7
  6
CONTINUOUS
 10
300.971330305
 20
97.6950613517
 40
10.9532006166
100
AcDbArc
 50
269.9887648584
 51
270.259506113
  0
ARC
  5
8A9
100
AcDbEntity
  8
KONSTRUKTIONSELEMENTE
100
AcDbCircle
 62
7
  6
CONTINUOUS
 10
304.0769566424
 20
97.2418467781
 40
10.5
100
AcDbArc
 50
321.7533801217
 51
38.2466198783
  0
ARC
  5
8AA
100
AcDbEntity
  8
0
100
AcDbCircle
 62
7
  6
CONTINUOUS
 10
278.9117431166
 20
196.3110279108
 40
109.1374282497
100
AcDbArc
 50
269.999829779
 51
270.330863403
  0
ARC
  5
8AB
100
AcDbEntity
  8
0
100
AcDbCircle
 62
7
  6
CONTINUOUS
 10
282.7324398833
 20
184.9595231545
 40
97.7859234944
100
AcDbArc
 50
269.9417708664
 51
270.0582278009
  0
ARC
  5
8AC
100
AcDbEntity
  8
0
100
AcDbCircle
 62
7
  6
CONTINUOUS
 10
278.4330407217
 20
180.6153202185
 40
93.5360137815
100
AcDbArc
 50
272.1114153487
 51
272.5736009891
  0
ARC
  5
8AD
100
AcDbEntity
  8
0
100
AcDbCircle
 62
7
  6
CONTINUOUS
 10
267.8440124016
 20
178.403398993
 40
91.3676042808
100
AcDbArc
 50
266.8353561101
 51
267.1975603787
  0
ARC
  5
8AE
100
AcDbEntity
  8
0
100
AcDbCircle
 62
7
  6
CONTINUOUS
 10
278.9789996885
 20
173.6705173638
 40
86.7902605076
100
AcDbArc
 50
267.1653927921
 51
267.7270920325
  0
ARC
  5
8AF
100
AcDbEntity
  8
0
100
AcDbCircle
 62
7
  6
CONTINUOUS
 10
289.8631345778
 20
155.4511964142
 40
68.2776362279
100
AcDbArc
 50
268.7030327302
 51
270.3883366224
  0
ARC
  5
8B0
100
AcDbEntity
  8
0
100
AcDbCircle
 62
7
  6
CONTINUOUS
 10
286.3849274498
 20
154.0061598955
 40
66.9268926196
100
AcDbArc
 50
266.9567686771
 51
267.5030699758
  0
SPLINE
  5
8B1
100
AcDbEntity
  8
KONSTRUKTIONSELEMENTE
100
AcDbSpline
 62
7
  6
CONTINUOUS
 70
0
 71
3
 72
29
 73
25
 74
0
 42
0.0000001
 43
0.0000001
 44
0.0000000001
 40
0.0
 40
0.0
 40
0.0
 40
0.0
 40
0.1243195193
 40
0.1865893196
 40
0.2489490313
 40
0.3114305932
 40
0.3740880325
 40
0.4055343724
 40
0.4370814946
 40
0.4687619987
 40
0.5005991404
 40
0.5166157544
 40
0.5326486963
 40
0.548656119
 40
0.5646007006
 40
0.5961607686
 40
0.6275180627
 40
0.6587390602
 40
0.6898784274
 40
0.752001901
 40
0.8140471284
 40
0.8760514823
 40
0.9380326721
 40
1.0
 40
1.0
 40
1.0
 40
1.0
 10
215.8027506264
 20
414.7658349241
 30
0.0
 10
216.2459426105
 20
413.3345176742
 30
0.0
 10
216.9918618694
 20
411.2091715051
 30
0.0
 10
218.1836256264
 20
408.4544277853
 30
0.0
 10
219.1940645789
 20
406.4365632777
 30
0.0
 10
220.3444574696
 20
404.4892299279
 30
0.0
 10
221.4522288079
 20
402.9554750331
 30
0.0
 10
222.4632220598
 20
401.8259707424
 30
0.0
 10
223.3017334482
 20
401.0485909468
 30
0.0
 10
224.2382629923
 20
400.3819848918
 30
0.0
 10
225.1225797871
 20
399.9833956875
 30
0.0
 10
225.8817921696
 20
399.8345981617
 30
0.0
 10
226.4649542084
 20
399.8311796237
 30
0.0
 10
227.0356033942
 20
399.9493159902
 30
0.0
 10
227.7416262786
 20
400.2575128602
 30
0.0
 10
228.4910594025
 20
400.8680045329
 30
0.0
 10
229.1838761814
 20
401.7729823405
 30
0.0
 10
229.7353855286
 20
402.7618278113
 30
0.0
 10
230.3345171674
 20
404.139029792
 30
0.0
 10
230.9027195008
 20
405.9268265395
 30
0.0
 10
231.4135210601
 20
408.1128102728
 30
0.0
 10
231.8107080358
 20
410.3202623256
 30
0.0
 10
232.1283067786
 20
412.5391476561
 30
0.0
 10
232.3010878329
 20
414.0231654339
 30
0.0
 10
232.380108909
 20
414.7658349241
 30
0.0
  0
SPLINE
  5
8B2
100
AcDbEntity
  8
KONSTRUKTIONSELEMENTE
100
AcDbSpline
 62
7
  6
CONTINUOUS
 70
0
 71
3
 72
29
 73
25
 74
0
 42
0.0000001
 43
0.0000001
 44
0.0000000001
 40
0.0
 40
0.0
 40
0.0
 40
0.0
 40
0.0619672996
 40
0.1239484619
 40
0.1859527902
 40
0.247997989
 40
0.3101214409
 40
0.3412607942
 40
0.3724817589
 40
0.403838998
 40
0.435398976
 40
0.4513437269
 40
0.4673513489
 40
0.4833843849
 40
0.4994010288
 40
0.5312383923
 40
0.5629188621
 40
0.5944659628
 40
0.6259122929
 40
0.6885697074
 40
0.7510512096
 40
0.8134108703
 40
0.8756806166
 40
1.0
 40
1.0
 40
1.0
 40
1.0
 10
232.380108909
 20
454.7658349241
 30
0.0
 10
232.3010878711
 20
455.5085040555
 30
0.0
 10
232.1283069153
 20
456.9925211308
 30
0.0
 10
231.8107082082
 20
459.2114054061
 30
0.0
 10
231.4135219765
 20
461.4188565444
 30
0.0
 10
230.9027200984
 20
463.6048391882
 30
0.0
 10
230.3345191118
 20
465.3926354648
 30
0.0
 10
229.7353884881
 20
466.7698369535
 30
0.0
 10
229.18387978
 20
467.7586813875
 30
0.0
 10
228.4910648775
 20
468.6636576399
 30
0.0
 10
227.7416341692
 20
469.274152385
 30
0.0
 10
227.0356088891
 20
469.5823525165
 30
0.0
 10
226.4649539526
 20
469.7004898288
 30
0.0
 10
225.8817881593
 20
469.6970689887
 30
0.0
 10
225.1225712645
 20
469.5482726771
 30
0.0
 10
224.2382543127
 20
469.1496764981
 30
0.0
 10
223.3017226478
 20
468.4830708639
 30
0.0
 10
222.4632125534
 20
467.7056905681
 30
0.0
 10
221.4522210497
 20
466.5761857235
 30
0.0
 10
220.3444533189
 20
465.0424297751
 30
0.0
 10
219.1940591472
 20
463.0950992292
 30
0.0
 10
218.1836227246
 20
461.0772356515
 30
0.0
 10
216.9918608202
 20
458.3224944461
 30
0.0
 10
216.2459421145
 20
456.1971505719
 30
0.0
 10
215.8027506264
 20
454.7658349241
 30
0.0
  0
SPLINE
  5
8B3
100
AcDbEntity
  8
KONSTRUKTIONSELEMENTE
100
AcDbSpline
 62
7
  6
CONTINUOUS
 70
0
 71
3
 72
29
 73
25
 74
0
 42
0.0000001
 43
0.0000001
 44
0.0000000001
 40
0.0
 40
0.0
 40
0.0
 40
0.0
 40
0.1243195417
 40
0.1865893565
 40
0.2489490769
 40
0.3114306261
 40
0.3740880559
 40
0.4055343776
 40
0.4370814319
 40
0.4687617726
 40
0.5005989701
 40
0.5166153519
 40
0.5326480161
 40
0.548655141
 40
0.5645996816
 40
0.5961601699
 40
0.6275176464
 40
0.6587386787
 40
0.6898781285
 40
0.7520017181
 40
0.8140469959
 40
0.8760514023
 40
0.9380326342
 40
1.0
 40
1.0
 40
1.0
 40
1.0
 10
311.3511626584
 20
454.7658349241
 30
0.0
 10
310.9079706299
 20
456.1971523171
 30
0.0
 10
310.1620511157
 20
458.3224986919
 30
0.0
 10
308.9702873082
 20
461.077242677
 30
0.0
 10
307.9598492158
 20
463.0951076364
 30
0.0
 10
306.8094541701
 20
465.0424392301
 30
0.0
 10
305.7016847938
 20
466.5761947826
 30
0.0
 10
304.6906928347
 20
467.7056982979
 30
0.0
 10
303.8521837052
 20
468.4830768027
 30
0.0
 10
302.9156529143
 20
469.1496750999
 30
0.0
 10
302.0313442295
 20
469.5482748957
 30
0.0
 10
301.2721357126
 20
469.6970624885
 30
0.0
 10
300.688983977
 20
469.7004886461
 30
0.0
 10
300.1183416157
 20
469.5823589672
 30
0.0
 10
299.4123083013
 20
469.2741826737
 30
0.0
 10
298.6628742724
 20
468.6636771609
 30
0.0
 10
297.9700466605
 20
467.7587005526
 30
0.0
 10
297.4185300133
 20
466.7698542276
 30
0.0
 10
296.8193979232
 20
465.3926495224
 30
0.0
 10
296.2511973763
 20
463.6048492663
 30
0.0
 10
295.7403917781
 20
461.4188640076
 30
0.0
 10
295.3432061825
 20
459.211410049
 30
0.0
 10
295.0256065956
 20
456.992523443
 30
0.0
 10
294.852825494
 20
455.5085048092
 30
0.0
 10
294.7738043758
 20
454.7658349241
 30
0.0
  0
SPLINE
  5
8B4
100
AcDbEntity
  8
KONSTRUKTIONSELEMENTE
100
AcDbSpline
 62
7
  6
CONTINUOUS
 70
0
 71
3
 72
29
 73
25
 74
0
 42
0.0000001
 43
0.0000001
 44
0.0000000001
 40
0.0
 40
0.0
 40
0.0
 40
0.0
 40
0.0619673151
 40
0.1239484924
 40
0.1859528343
 40
0.2479980475
 40
0.3101215053
 40
0.3412608592
 40
0.3724818319
 40
0.4038390531
 40
0.4353989918
 40
0.4513437082
 40
0.4673513384
 40
0.4833843356
 40
0.4994009457
 40
0.531238115
 40
0.5629186158
 40
0.5944657403
 40
0.6259120876
 40
0.6885695364
 40
0.7510510835
 40
0.8134107772
 40
0.875680553
 40
1.0
 40
1.0
 40
1.0
 40
1.0
 10
294.7738043758
 20
414.7658349241
 30
0.0
 10
294.8528254351
 20
414.0231655922
 30
0.0
 10
295.025606448
 20
412.5391481259
 30
0.0
 10
295.3432051703
 20
410.3202632666
 30
0.0
 10
295.7403918344
 20
408.1128116447
 30
0.0
 10
296.2511934581
 20
405.9268284685
 30
0.0
 10
296.8193951875
 20
404.1390321064
 30
0.0
 10
297.4185263764
 20
402.761830635
 30
0.0
 10
297.9700346946
 20
401.7729862008
 30
0.0
 10
298.6628491599
 20
400.8680099353
 30
0.0
 10
299.4122806314
 20
400.2575183504
 30
0.0
 10
300.1183043839
 20
399.949316811
 30
0.0
 10
300.6889585701
 20
399.8311797411
 30
0.0
 10
301.272123661
 20
399.8345989434
 30
0.0
 10
302.0313370137
 20
399.9833965991
 30
0.0
 10
302.9156533681
 20
400.3819874783
 30
0.0
 10
303.8521832257
 20
401.048593444
 30
0.0
 10
304.690694449
 20
401.8259735837
 30
0.0
 10
305.7016875163
 20
402.9554783403
 30
0.0
 10
306.8094575552
 20
404.4892341554
 30
0.0
 10
307.959851282
 20
406.4365666302
 30
0.0
 10
308.9702891071
 20
408.4544309545
 30
0.0
 10
310.1620519178
 20
411.2091735193
 30
0.0
 10
310.9079709353
 20
413.3345185172
 30
0.0
 10
311.3511626584
 20
414.7658349241
 30
0.0
  0
SPLINE
  5
8B5
100
AcDbEntity
  8
0
100
AcDbSpline
 62
7
  6
CONTINUOUS
 70
0
 71
3
 72
9
 73
5
 74
0
 42
0.0000001
 43
0.0000001
 44
0.0000000001
 40
0.0
 40
0.0
 40
0.0
 40
0.0
 40
0.743199109
 40
1.0
 40
1.0
 40
1.0
 40
1.0
 10
479.4456708021
 20
502.2346098842
 30
0.0
 10
479.4243976254
 20
502.2118051461
 30
0.0
 10
479.3948470385
 20
502.1819690662
 30
0.0
 10
479.364269355
 20
502.1532305431
 30
0.0
 10
479.356352188
 20
502.1459201659
 30
0.0
  0
LINE
  5
8B6
100
AcDbEntity
  8
0
100
AcDbLine
 62
7
  6
CONTINUOUS
 10
479.7593932346
 20
508.2248810404
 11
479.7594164967
 21
508.1295010436
  0
LINE
  5
8B7
100
AcDbEntity
  8
0
100
AcDbLine
 62
7
  6
CONTINUOUS
 10
479.7594164967
 20
508.1295010436
 11
479.7593607526
 21
507.6526267633
  0
LINE
  5
8B8
100
AcDbEntity
  8
0
100
AcDbLine
 62
7
  6
CONTINUOUS
 10
479.3759134387
 20
512.6592322875
 11
479.3811905923
 21
512.6403634126
  0
SPLINE
  5
8B9
100
AcDbEntity
  8
0
100
AcDbSpline
 62
7
  6
CONTINUOUS
 70
0
 71
3
 72
9
 73
5
 74
0
 42
0.0000001
 43
0.0000001
 44
0.0000000001
 40
0.0
 40
0.0
 40
0.0
 40
0.0
 40
0.2526158912
 40
1.0
 40
1.0
 40
1.0
 40
1.0
 10
479.3103650782
 20
504.0782441571
 30
0.0
 10
479.3669987091
 20
503.929050049
 30
0.0
 10
479.5714394192
 20
503.3311702001
 30
0.0
 10
479.6938180934
 20
502.7050308346
 30
0.0
 10
479.7346087694
 20
502.2346617659
 30
0.0
  0
SPLINE
  5
8BA
100
AcDbEntity
  8
0
100
AcDbSpline
 62
7
  6
CONTINUOUS
 70
0
 71
3
 72
9
 73
5
 74
0
 42
0.0000001
 43
0.0000001
 44
0.0000000001
 40
0.0
 40
0.0
 40
0.0
 40
0.0
 40
0.737911552
 40
1.0
 40
1.0
 40
1.0
 40
1.0
 10
479.3262889706
 20
513.2431522179
 30
0.0
 10
479.3296102948
 20
513.2181480918
 30
0.0
 10
479.3263563421
 20
513.1827007424
 30
0.0
 10
479.314074322
 20
513.1507753592
 30
0.0
 10
479.3103650728
 20
513.1426204336
 30
0.0
  0
LINE
  5
8BB
100
AcDbEntity
  8
0
100
AcDbLine
 62
7
  6
CONTINUOUS
 10
479.3709187844
 20
512.9344032003
 11
479.3742731549
 21
512.9223815598
  0
SPLINE
  5
8BC
100
AcDbEntity
  8
0
100
AcDbSpline
 62
7
  6
CONTINUOUS
 70
0
 71
3
 72
9
 73
5
 74
0
 42
0.0000001
 43
0.0000001
 44
0.0000000001
 40
0.0
 40
0.0
 40
0.0
 40
0.0
 40
0.505608273
 40
1.0
 40
1.0
 40
1.0
 40
1.0
 10
479.3103650809
 20
499.8249356978
 30
0.0
 10
479.4562190179
 20
499.4910141613
 30
0.0
 10
479.68207757
 20
498.8008546459
 30
0.0
 10
479.7595692937
 20
498.0781730771
 30
0.0
 10
479.7595701818
 20
497.7218709709
 30
0.0
  0
SPLINE
  5
8BD
100
AcDbEntity
  8
KONSTRUKTIONSELEMENTE
100
AcDbSpline
 62
7
  6
CONTINUOUS
 70
0
 71
3
 72
12
 73
8
 74
0
 42
0.0000001
 43
0.0000001
 44
0.0000000001
 40
0.0
 40
0.0
 40
0.0
 40
0.0
 40
0.1747599324
 40
0.3809461722
 40
0.6375970899
 40
0.7999986465
 40
1.0
 40
1.0
 40
1.0
 40
1.0
 10
311.3511626584
 20
90.7418467781
 30
0.0
 10
310.8522129041
 20
90.3100759724
 30
0.0
 10
309.6938837378
 20
89.4486971922
 30
0.0
 10
307.5842876408
 20
88.2764320258
 30
0.0
 10
305.3701254583
 20
87.4261359102
 30
0.0
 10
303.0941518141
 20
86.8816727516
 30
0.0
 10
301.7242244922
 20
86.7417079847
 30
0.0
 10
300.9690909838
 20
86.7418598607
 30
0.0
  0
SPLINE
  5
8BE
100
AcDbEntity
  8
KONSTRUKTIONSELEMENTE
100
AcDbSpline
 62
7
  6
CONTINUOUS
 70
0
 71
3
 72
12
 73
8
 74
0
 42
0.0000001
 43
0.0000001
 44
0.0000000001
 40
0.0
 40
0.0
 40
0.0
 40
0.0
 40
0.2000027799
 40
0.3624039401
 40
0.6190542732
 40
0.8252402172
 40
1.0
 40
1.0
 40
1.0
 40
1.0
 10
226.1847814065
 20
86.7418608537
 30
0.0
 10
225.4296452384
 20
86.7417076454
 30
0.0
 10
224.0597194116
 20
86.8816816775
 30
0.0
 10
221.7837537175
 20
87.4261467486
 30
0.0
 10
219.5696055181
 20
88.2764422503
 30
0.0
 10
217.4600214519
 20
89.4487028253
 30
0.0
 10
216.3016981526
 20
90.3100779005
 30
0.0
 10
215.8027506264
 20
90.7418467781
 30
0.0
  0
SPLINE
  5
8BF
100
AcDbEntity
  8
KONSTRUKTIONSELEMENTE
100
AcDbSpline
 62
7
  6
CONTINUOUS
 70
0
 71
3
 72
12
 73
8
 74
0
 42
0.0000001
 43
0.0000001
 44
0.0000000001
 40
0.0
 40
0.0
 40
0.0
 40
0.0
 40
0.2000018243
 40
0.3624029096
 40
0.6190535121
 40
0.8252398234
 40
1.0
 40
1.0
 40
1.0
 40
1.0
 10
300.9691839079
 20
107.74183261
 30
0.0
 10
301.7243130096
 20
107.7419837653
 30
0.0
 10
303.09422787
 20
107.6020038842
 30
0.0
 10
305.3701797947
 20
107.0575406907
 30
0.0
 10
307.5843189465
 20
106.2072457157
 30
0.0
 10
309.6938961225
 20
105.0349876678
 30
0.0
 10
310.8522162934
 20
104.1736146508
 30
0.0
 10
311.3511626584
 20
103.7418467781
 30
0.0
  0
SPLINE
  5
8C0
100
AcDbEntity
  8
KONSTRUKTIONSELEMENTE
100
AcDbSpline
 62
7
  6
CONTINUOUS
 70
0
 71
3
 72
12
 73
8
 74
0
 42
0.0000001
 43
0.0000001
 44
0.0000000001
 40
0.0
 40
0.0
 40
0.0
 40
0.0
 40
0.1747596007
 40
0.3809454499
 40
0.6375960072
 40
0.7999976373
 40
1.0
 40
1.0
 40
1.0
 40
1.0
 10
215.8027506264
 20
103.7418467781
 30
0.0
 10
216.3017004411
 20
104.1736176361
 30
0.0
 10
217.4600297933
 20
105.0349965286
 30
0.0
 10
219.5696264827
 20
106.2072618249
 30
0.0
 10
221.7837906714
 20
107.0575604401
 30
0.0
 10
224.0597721686
 20
107.6020195894
 30
0.0
 10
225.4297066002
 20
107.7419922991
 30
0.0
 10
226.184845442
 20
107.7418324942
 30
0.0
  0
SPLINE
  5
8C1
100
AcDbEntity
  8
0
100
AcDbSpline
 62
7
  6
CONTINUOUS
 70
0
 71
3
 72
9
 73
5
 74
0
 42
0.0000001
 43
0.0000001
 44
0.0000000001
 40
0.0
 40
0.0
 40
0.0
 40
0.0
 40
0.1906464647
 40
1.0
 40
1.0
 40
1.0
 40
1.0
 10
243.12508909
 20
86.7512363628
 30
0.0
 10
243.1241161799
 20
86.7531306782
 30
0.0
 10
243.1196210039
 20
86.7633755212
 30
0.0
 10
243.1167182282
 20
86.7742267743
 30
0.0
 10
243.1145808839
 20
86.7830110941
 30
0.0
  0
SPLINE
  5
8C2
100
AcDbEntity
  8
0
100
AcDbSpline
 62
7
  6
CONTINUOUS
 70
0
 71
3
 72
9
 73
5
 74
0
 42
0.0000001
 43
0.0000001
 44
0.0000000001
 40
0.0
 40
0.0
 40
0.0
 40
0.0
 40
0.2448445858
 40
1.0
 40
1.0
 40
1.0
 40
1.0
 10
283.9146955063
 20
86.9760784929
 30
0.0
 10
283.9008614897
 20
86.9841231858
 30
0.0
 10
283.8447667808
 20
87.0176751734
 30
0.0
 10
283.7903228184
 20
87.0539745305
 30
0.0
 10
283.7502036401
 20
87.0827244584
 30
0.0
  0
SPLINE
  5
8C3
100
AcDbEntity
  8
0
100
AcDbSpline
 62
7
  6
CONTINUOUS
 70
0
 71
3
 72
12
 73
8
 74
0
 42
0.0000001
 43
0.0000001
 44
0.0000000001
 40
0.0
 40
0.0
 40
0.0
 40
0.0
 40
0.0795734965
 40
0.1858702619
 40
0.4548668411
 40
0.7480876645
 40
1.0
 40
1.0
 40
1.0
 40
1.0
 10
273.6969566424
 20
86.8630758567
 30
0.0
 10
273.6021335979
 20
86.8890245506
 30
0.0
 10
273.3769791034
 20
86.9360232247
 30
0.0
 10
272.8198786923
 20
87.0119891152
 30
0.0
 10
271.9922085694
 20
87.041361978
 30
0.0
 10
270.9873029211
 20
86.9759178936
 30
0.0
 10
270.3198903423
 20
86.8832275514
 30
0.0
 10
270.0123627626
 20
86.8353887705
 30
0.0
  0
SPLINE
  5
8C4
100
AcDbEntity
  8
0
100
AcDbSpline
 62
7
  6
CONTINUOUS
 70
0
 71
3
 72
11
 73
7
 74
0
 42
0.0000001
 43
0.0000001
 44
0.0000000001
 40
0.0
 40
0.0
 40
0.0
 40
0.0
 40
0.3701449044
 40
0.6655709294
 40
0.8775821907
 40
1.0
 40
1.0
 40
1.0
 40
1.0
 10
270.0123627626
 20
86.8353887705
 30
0.0
 10
269.932339234
 20
86.8229403649
 30
0.0
 10
269.7885397549
 20
86.8000998839
 30
0.0
 10
269.5988739777
 20
86.769699122
 30
0.0
 10
269.4625541907
 20
86.750533221
 30
0.0
 10
269.3896520056
 20
86.7418309436
 30
0.0
 10
269.362867571
 20
86.7418534737
 30
0.0
  0
LINE
  5
8C5
100
AcDbEntity
  8
0
100
AcDbLine
 62
7
  6
CONTINUOUS
 10
285.3349230991
 20
86.742033622
 11
285.2976681922
 21
86.7420279154
  0
LINE
  5
8C6
100
AcDbEntity
  8
0
100
AcDbLine
 62
7
  6
CONTINUOUS
 10
285.2976681922
 20
86.7420279154
 11
284.0452850138
 21
86.7420444788
  0
LINE
  5
8C7
100
AcDbEntity
  8
0
100
AcDbLine
 62
7
  6
CONTINUOUS
 10
251.5320621907
 20
86.7420241767
 11
250.0571177822
 21
86.7420525849
  0
LINE
  5
8C8
100
AcDbEntity
  8
0
100
AcDbLine
 62
7
  6
CONTINUOUS
 10
250.0571177822
 20
86.7420525849
 11
250.0334371078
 21
86.7420566587
  0
SPLINE
  5
8C9
100
AcDbEntity
  8
0
100
AcDbSpline
 62
7
  6
CONTINUOUS
 70
0
 71
3
 72
9
 73
5
 74
0
 42
0.0000001
 43
0.0000001
 44
0.0000000001
 40
0.0
 40
0.0
 40
0.0
 40
0.0
 40
0.5058495975
 40
1.0
 40
1.0
 40
1.0
 40
1.0
 10
288.3177101533
 20
87.1910523167
 30
0.0
 10
287.9878380607
 20
87.0453087211
 30
0.0
 10
287.3058113332
 20
86.8194315574
 30
0.0
 10
286.5908695131
 20
86.7418481177
 30
0.0
 10
286.2385763093
 20
86.7418472294
 30
0.0
  0
SPLINE
  5
8CA
100
AcDbEntity
  8
0
100
AcDbSpline
 62
7
  6
CONTINUOUS
 70
0
 71
3
 72
11
 73
7
 74
0
 42
0.0000001
 43
0.0000001
 44
0.0000000001
 40
0.0
 40
0.0
 40
0.0
 40
0.0
 40
0.387431744
 40
0.6761023674
 40
0.8725580946
 40
1.0
 40
1.0
 40
1.0
 40
1.0
 10
255.7331993921
 20
87.1835525929
 30
0.0
 10
255.7160579834
 20
87.1184849162
 30
0.0
 10
255.6834356055
 20
87.0055236711
 30
0.0
 10
255.625180519
 20
86.8651289366
 30
0.0
 10
255.5700558519
 20
86.7736194705
 30
0.0
 10
255.5166500384
 20
86.7418466529
 30
0.0
 10
255.4945164138
 20
86.7418467776
 30
0.0
  0
SPLINE
  5
8CB
100
AcDbEntity
  8
0
100
AcDbSpline
 62
7
  6
CONTINUOUS
 70
0
 71
3
 72
9
 73
5
 74
0
 42
0.0000001
 43
0.0000001
 44
0.0000000001
 40
0.0
 40
0.0
 40
0.0
 40
0.0
 40
0.2440449254
 40
1.0
 40
1.0
 40
1.0
 40
1.0
 10
253.631450949
 20
86.8127672866
 30
0.0
 10
253.5456269308
 20
86.8305590853
 30
0.0
 10
253.1967584022
 20
86.9167275037
 30
0.0
 10
252.8615569012
 20
87.0556838987
 30
0.0
 10
252.6220519436
 20
87.1835525929
 30
0.0
  0
SPLINE
  5
8CC
100
AcDbEntity
  8
0
100
AcDbSpline
 62
7
  6
CONTINUOUS
 70
0
 71
3
 72
11
 73
7
 74
0
 42
0.0000001
 43
0.0000001
 44
0.0000000001
 40
0.0
 40
0.0
 40
0.0
 40
0.0
 40
0.1732314329
 40
0.3849727613
 40
0.6573227463
 40
1.0
 40
1.0
 40
1.0
 40
1.0
 10
258.9969459309
 20
86.7418471774
 30
0.0
 10
258.9608978752
 20
86.7418494844
 30
0.0
 10
258.8804523579
 20
86.7654598633
 30
0.0
 10
258.7749463549
 20
86.8558891934
 30
0.0
 10
258.6732609048
 20
86.9956689668
 30
0.0
 10
258.6139015902
 20
87.1094704543
 30
0.0
 10
258.583672166
 20
87.1740542263
 30
0.0
  0
SPLINE
  5
8CD
100
AcDbEntity
  8
0
100
AcDbSpline
 62
7
  6
CONTINUOUS
 70
0
 71
3
 72
9
 73
5
 74
0
 42
0.0000001
 43
0.0000001
 44
0.0000000001
 40
0.0
 40
0.0
 40
0.0
 40
0.0
 40
0.2229612963
 40
1.0
 40
1.0
 40
1.0
 40
1.0
 10
264.3527872005
 20
86.8208728805
 30
0.0
 10
264.3512968724
 20
86.8258946507
 30
0.0
 10
264.3449099224
 20
86.8485059914
 30
0.0
 10
264.3395336325
 20
86.8713926009
 30
0.0
 10
264.3356753974
 20
86.8892359717
 30
0.0
  0
SPLINE
  5
8CE
100
AcDbEntity
  8
0
100
AcDbSpline
 62
7
  6
CONTINUOUS
 70
0
 71
3
 72
9
 73
5
 74
0
 42
0.0000001
 43
0.0000001
 44
0.0000000001
 40
0.0
 40
0.0
 40
0.0
 40
0.0
 40
0.255676017
 40
1.0
 40
1.0
 40
1.0
 40
1.0
 10
277.954432373
 20
86.9679202774
 30
0.0
 10
277.9289425526
 20
86.9544303812
 30
0.0
 10
277.8282546277
 20
86.9035779984
 30
0.0
 10
277.7235206207
 20
86.8606343403
 30
0.0
 10
277.6439022137
 20
86.8339940146
 30
0.0
  0
ELLIPSE
  5
8CF
100
AcDbEntity
  8
0
100
AcDbEllipse
 62
7
  6
CONTINUOUS
 10
263.5769566424
 20
298.5982815172
 30
0.0
 11
41.5
 21
-0.0
 31
0.0
 40
0.1702127606
 41
-2.7392595102
 42
-2.7096072081
  0
ELLIPSE
  5
8D0
100
AcDbEntity
  8
0
100
AcDbEllipse
 62
7
  6
CONTINUOUS
 10
263.5769566424
 20
301.3642387547
 30
0.0
 11
41.5
 21
-0.0
 31
0.0
 40
0.3404255211
 41
-2.7539445979
 42
-2.7392595102
  0
ELLIPSE
  5
8D1
100
AcDbEntity
  8
0
100
AcDbEllipse
 62
7
  6
CONTINUOUS
 10
263.5769566424
 20
306.704663874
 30
0.0
 11
41.5
 21
-0.0
 31
0.0
 40
0.6808510423
 41
-2.7685421488
 42
-2.7539445979
  0
ELLIPSE
  5
8D2
100
AcDbEntity
  8
0
100
AcDbEllipse
 62
7
  6
CONTINUOUS
 10
263.5769566424
 20
327.3005247789
 30
0.0
 11
0.0
 21
84.7662781204
 31
0.0
 40
0.4895814812
 41
-4.3490237897
 42
-4.3393384756
  0
ELLIPSE
  5
8D3
100
AcDbEntity
  8
0
100
AcDbEllipse
 62
7
  6
CONTINUOUS
 10
263.5769566424
 20
296.9812636084
 30
0.0
 11
41.5
 21
0.0
 31
0.0
 40
0.6127654169
 41
2.9751627276
 42
2.9980277054
  0
ELLIPSE
  5
8D4
100
AcDbEntity
  8
0
100
AcDbEllipse
 62
7
  6
CONTINUOUS
 10
263.5769566424
 20
299.7897688473
 30
0.0
 11
41.5
 21
-0.0
 31
0.0
 40
0.2042556065
 41
2.9522096206
 42
2.9751627276
  0
ELLIPSE
  5
8D5
100
AcDbEntity
  8
0
100
AcDbEllipse
 62
7
  6
CONTINUOUS
 10
263.5769566424
 20
297.2365818432
 30
0.0
 11
41.5
 21
0.0
 31
0.0
 40
0.2042556244
 41
-2.9751627276
 42
-2.9522096206
  0
ELLIPSE
  5
8D6
100
AcDbEntity
  8
0
100
AcDbEllipse
 62
7
  6
CONTINUOUS
 10
263.5769566424
 20
300.0450873279
 30
0.0
 11
41.5
 21
-0.0
 31
0.0
 40
0.6127654705
 41
-2.9980277054
 42
-2.9751627276
  0
ELLIPSE
  5
8D7
100
AcDbEntity
  8
0
100
AcDbEllipse
 62
7
  6
CONTINUOUS
 10
263.5769566424
 20
304.4918984736
 30
0.0
 11
0.0
 21
56.5106365085
 31
0.0
 40
0.7343750233
 41
1.7006792696
 42
1.714361275
  0
ELLIPSE
  5
8D8
100
AcDbEntity
  8
0
100
AcDbEllipse
 62
7
  6
CONTINUOUS
 10
263.5769566424
 20
308.1514528467
 30
0.0
 11
0.0
 21
84.7658005055
 31
0.0
 40
0.4895842398
 41
-4.5916136656
 42
-4.5825060376
  0
ELLIPSE
  5
8D9
100
AcDbEntity
  8
0
100
AcDbEllipse
 62
7
  6
CONTINUOUS
 10
263.5769566424
 20
294.316371666
 30
0.0
 11
41.5
 21
0.0
 31
0.0
 40
0.2553186315
 41
2.9059851462
 42
2.9245307254
  0
ELLIPSE
  5
8DA
100
AcDbEntity
  8
0
100
AcDbEllipse
 62
7
  6
CONTINUOUS
 10
263.5769566424
 20
290.1940267099
 30
0.0
 11
41.5
 21
-0.0
 31
0.0
 40
0.6808509827
 41
2.8920219673
 42
2.9059851462
  0
ELLIPSE
  5
8DB
100
AcDbEntity
  8
0
100
AcDbEllipse
 62
7
  6
CONTINUOUS
 10
263.5769566424
 20
281.4705593209
 30
0.0
 11
-0.0
 21
63.5747178663
 31
0.0
 40
0.6527752131
 41
1.3118893838
 42
1.3212256405
  0
ELLIPSE
  5
8DC
100
AcDbEntity
  8
0
100
AcDbEllipse
 62
7
  6
CONTINUOUS
 10
263.5769566424
 20
265.1942808618
 30
0.0
 11
0.0
 21
127.147950951
 31
0.0
 40
0.3263914179
 41
1.3072125849
 42
1.3118893838
  0
ELLIPSE
  5
8DD
100
AcDbEntity
  8
0
100
AcDbEllipse
 62
7
  6
CONTINUOUS
 10
263.5769566424
 20
331.8320851563
 30
0.0
 11
0.0
 21
127.1480103168
 31
0.0
 40
0.3263912656
 41
-4.4534820374
 42
-4.4488052384
  0
ELLIPSE
  5
8DE
100
AcDbEntity
  8
0
100
AcDbEllipse
 62
7
  6
CONTINUOUS
 10
263.5769566424
 20
315.5557876983
 30
0.0
 11
0.0
 21
63.5747030247
 31
0.0
 40
0.6527753654
 41
-4.4628182941
 42
-4.4534820374
  0
ELLIPSE
  5
8DF
100
AcDbEntity
  8
0
100
AcDbEllipse
 62
7
  6
CONTINUOUS
 10
263.5769566424
 20
306.8323239751
 30
0.0
 11
41.5
 21
-0.0
 31
0.0
 40
0.6808509827
 41
-2.9059851462
 42
-2.8920219673
  0
ELLIPSE
  5
8E0
100
AcDbEntity
  8
0
100
AcDbEllipse
 62
7
  6
CONTINUOUS
 10
263.5769566424
 20
302.7099790189
 30
0.0
 11
41.5
 21
0.0
 31
0.0
 40
0.2553186315
 41
-2.9245307254
 42
-2.9059851462
  0
ELLIPSE
  5
8E1
100
AcDbEntity
  8
0
100
AcDbEllipse
 62
7
  6
CONTINUOUS
 10
263.5769566424
 20
303.6833829452
 30
0.0
 11
0.0
 21
127.148678496
 31
0.0
 40
0.3263895503
 41
-4.6973281787
 42
-4.6928094162
  0
ELLIPSE
  5
8E2
100
AcDbEntity
  8
0
100
AcDbEllipse
 62
7
  6
CONTINUOUS
 10
263.5769566424
 20
302.3004091347
 30
0.0
 11
0.0
 21
56.5106315613
 31
0.0
 40
0.7343750875
 41
-4.6928094162
 42
-4.6792503853
  0
ELLIPSE
  5
8E3
100
AcDbEntity
  8
0
100
AcDbEllipse
 62
7
  6
CONTINUOUS
 10
263.5769566424
 20
301.481259794
 30
0.0
 11
41.5
 21
0.0
 31
0.0
 40
0.7659569903
 41
-3.1084540585
 42
-3.0903654233
  0
ELLIPSE
  5
8E4
100
AcDbEntity
  8
0
100
AcDbEllipse
 62
7
  6
CONTINUOUS
 10
263.5769566424
 20
304.0153028451
 30
0.0
 11
41.5
 21
-0.0
 31
0.0
 40
0.2042553727
 41
3.0677303301
 42
3.0903654233
  0
ELLIPSE
  5
8E5
100
AcDbEntity
  8
0
100
AcDbEllipse
 62
7
  6
CONTINUOUS
 10
263.5769566424
 20
302.8216867069
 30
0.0
 11
41.5
 21
0.0
 31
0.0
 40
0.7659569903
 41
3.0903654233
 42
3.1084540585
  0
ELLIPSE
  5
8E6
100
AcDbEntity
  8
0
100
AcDbEllipse
 62
7
  6
CONTINUOUS
 10
263.5769566424
 20
302.0025373662
 30
0.0
 11
-0.0
 21
56.5106315613
 31
0.0
 40
0.7343750875
 41
1.5376577317
 42
1.5512167626
  0
ELLIPSE
  5
8E7
100
AcDbEntity
  8
0
100
AcDbEllipse
 62
7
  6
CONTINUOUS
 10
263.5769566424
 20
300.6195635558
 30
0.0
 11
0.0
 21
127.148678496
 31
0.0
 40
0.3263895503
 41
1.5512167626
 42
1.5557355251
  0
ELLIPSE
  5
8E8
100
AcDbEntity
  8
0
100
AcDbEllipse
 62
7
  6
CONTINUOUS
 10
263.5769566424
 20
307.8855133488
 30
0.0
 11
41.5
 21
0.0
 31
0.0
 40
0.255319362
 41
2.8450989987
 42
2.8639426762
  0
ELLIPSE
  5
8E9
100
AcDbEntity
  8
0
100
AcDbEllipse
 62
7
  6
CONTINUOUS
 10
263.5769566424
 20
302.7259398616
 30
0.0
 11
41.5
 21
0.0
 31
0.0
 40
0.6808512211
 41
2.8308950911
 42
2.8450989987
  0
ELLIPSE
  5
8EA
100
AcDbEntity
  8
0
100
AcDbEllipse
 62
7
  6
CONTINUOUS
 10
263.5769566424
 20
291.9281095135
 30
0.0
 11
-0.0
 21
63.574339248
 31
0.0
 40
0.6527791007
 41
1.250593551
 42
1.2600987643
  0
ELLIPSE
  5
8EB
100
AcDbEntity
  8
0
100
AcDbEllipse
 62
7
  6
CONTINUOUS
 10
263.5769566424
 20
258.5768079328
 30
0.0
 11
-0.0
 21
169.5325413992
 31
0.0
 40
0.244790762
 41
1.2458297721
 42
1.250593551
  0
ELLIPSE
  5
8EC
100
AcDbEntity
  8
0
100
AcDbEllipse
 62
7
  6
CONTINUOUS
 10
263.5769566424
 20
369.7048616471
 30
0.0
 11
0.0
 21
169.5325413992
 31
0.0
 40
0.244790762
 41
-4.3921862046
 42
-4.3874224257
  0
ELLIPSE
  5
8ED
100
AcDbEntity
  8
0
100
AcDbEllipse
 62
7
  6
CONTINUOUS
 10
263.5769566424
 20
336.3535787524
 30
0.0
 11
0.0
 21
63.5743986141
 31
0.0
 40
0.6527784911
 41
-4.4016914179
 42
-4.3921862046
  0
ELLIPSE
  5
8EE
100
AcDbEntity
  8
0
100
AcDbEllipse
 62
7
  6
CONTINUOUS
 10
263.5769566424
 20
325.5557272298
 30
0.0
 11
41.5
 21
0.0
 31
0.0
 40
0.6808509827
 41
-2.8450989987
 42
-2.8308950911
  0
ELLIPSE
  5
8EF
100
AcDbEntity
  8
0
100
AcDbEllipse
 62
7
  6
CONTINUOUS
 10
263.5769566424
 20
320.3961566335
 30
0.0
 11
41.5
 21
-0.0
 31
0.0
 40
0.255319362
 41
-2.8639426762
 42
-2.8450989987
  0
ELLIPSE
  5
8F0
100
AcDbEntity
  8
0
100
AcDbEllipse
 62
7
  6
CONTINUOUS
 10
263.5769566424
 20
309.9727498607
 30
0.0
 11
41.5
 21
0.0
 31
0.0
 40
0.2042553906
 41
-3.1250256307
 42
-3.1024260227
  0
ELLIPSE
  5
8F1
100
AcDbEntity
  8
0
100
AcDbEllipse
 62
7
  6
CONTINUOUS
 10
263.5769566424
 20
310.1833879463
 30
0.0
 11
41.5
 21
0.0
 31
0.0
 40
0.5106380606
 41
-3.1415926113
 42
-3.1250256307
  0
ELLIPSE
  5
8F2
100
AcDbEntity
  8
0
100
AcDbEllipse
 62
7
  6
CONTINUOUS
 10
263.5769566424
 20
311.6833857054
 30
0.0
 11
0.0
 21
169.5325413992
 31
0.0
 40
0.244790762
 41
1.5647722026
 42
1.5692902935
  0
ELLIPSE
  5
8F3
100
AcDbEntity
  8
0
100
AcDbEllipse
 62
7
  6
CONTINUOUS
 10
263.5769566424
 20
310.1833884741
 30
0.0
 11
41.5
 21
0.0
 31
0.0
 40
0.2553189968
 41
3.0662200949
 42
3.0843324529
  0
ELLIPSE
  5
8F4
100
AcDbEntity
  8
0
100
AcDbEllipse
 62
7
  6
CONTINUOUS
 10
263.5769566424
 20
308.8536001209
 30
0.0
 11
41.5
 21
-0.0
 31
0.0
 40
0.6808512211
 41
3.0526198827
 42
3.0662200949
  0
ELLIPSE
  5
8F5
100
AcDbEntity
  8
0
100
AcDbEllipse
 62
7
  6
CONTINUOUS
 10
263.5769566424
 20
305.7152978102
 30
0.0
 11
-0.0
 21
63.5745211358
 31
0.0
 40
0.6527772331
 41
1.4727477373
 42
1.4818235559
  0
ELLIPSE
  5
8F6
100
AcDbEntity
  8
0
100
AcDbEllipse
 62
7
  6
CONTINUOUS
 10
263.5769566424
 20
295.3429962101
 30
0.0
 11
0.0
 21
169.531571328
 31
0.0
 40
0.2447921628
 41
1.4682068219
 42
1.4727477373
  0
ELLIPSE
  5
8F7
100
AcDbEntity
  8
0
100
AcDbEllipse
 62
7
  6
CONTINUOUS
 10
263.5769566424
 20
281.6833875835
 30
0.0
 11
0.0
 21
56.1702109873
 31
0.0
 40
0.7343750233
 41
1.2914185615
 42
1.3055766923
  0
ELLIPSE
  5
8F8
100
AcDbEntity
  8
0
100
AcDbEllipse
 62
7
  6
CONTINUOUS
 10
263.5769566424
 20
310.4493209327
 30
0.0
 11
-0.0
 21
84.7658005055
 31
0.0
 40
0.4895842398
 41
-4.5642574902
 42
-4.5551149099
  0
ELLIPSE
  5
8F9
100
AcDbEntity
  8
0
100
AcDbEllipse
 62
7
  6
CONTINUOUS
 10
263.5769566424
 20
301.5982811565
 30
0.0
 11
41.5
 21
-0.0
 31
0.0
 40
0.6808509827
 41
-2.9843185831
 42
-2.9705795892
  0
ELLIPSE
  5
8FA
100
AcDbEntity
  8
0
100
AcDbEllipse
 62
7
  6
CONTINUOUS
 10
263.5769566424
 20
298.5929640855
 30
0.0
 11
41.5
 21
0.0
 31
0.0
 40
0.255319362
 41
-2.9705795892
 42
-2.9522096206
  0
ELLIPSE
  5
8FB
100
AcDbEntity
  8
0
100
AcDbEllipse
 62
7
  6
CONTINUOUS
 10
263.5769566424
 20
268.1300833566
 30
0.0
 11
0.0
 21
105.3195528955
 31
0.0
 40
0.3916651644
 41
1.2819479837
 42
1.2914185615
  0
ELLIPSE
  5
8FC
100
AcDbEntity
  8
0
100
AcDbEllipse
 62
7
  6
CONTINUOUS
 10
263.5769566424
 20
328.8962713963
 30
0.0
 11
0.0
 21
105.3195676477
 31
0.0
 40
0.3916651095
 41
-4.433011215
 42
-4.4235406373
  0
ELLIPSE
  5
8FD
100
AcDbEntity
  8
0
100
AcDbEllipse
 62
7
  6
CONTINUOUS
 10
263.5769566424
 20
315.3429617454
 30
0.0
 11
-0.0
 21
56.1702060699
 31
0.0
 40
0.7343750875
 41
-4.4471693459
 42
-4.433011215
  0
ELLIPSE
  5
8FE
100
AcDbEntity
  8
0
100
AcDbEllipse
 62
7
  6
CONTINUOUS
 10
263.5769566424
 20
307.2450847797
 30
0.0
 11
41.25
 21
-0.0
 31
0.0
 40
0.6127654169
 41
-2.8998510617
 42
-2.8763730191
  0
ELLIPSE
  5
8FF
100
AcDbEntity
  8
0
100
AcDbEllipse
 62
7
  6
CONTINUOUS
 10
263.5769566424
 20
303.2110457851
 30
0.0
 11
41.25
 21
-0.0
 31
0.0
 40
0.204255139
 41
-2.9231939434
 42
-2.8998510617
  0
ELLIPSE
  5
900
100
AcDbEntity
  8
0
100
AcDbEllipse
 62
7
  6
CONTINUOUS
 10
263.5769566424
 20
345.5131168737
 30
0.0
 11
0.0
 21
84.255148401
 31
0.0
 40
0.4895843255
 41
-4.370944571
 42
-4.361279945
  0
ELLIPSE
  5
901
100
AcDbEntity
  8
0
100
AcDbEllipse
 62
7
  6
CONTINUOUS
 10
263.5769566424
 20
331.4068035715
 30
0.0
 11
0.0
 21
42.1276947286
 31
0.0
 40
0.9791658496
 41
-4.3901757484
 42
-4.370944571
  0
ELLIPSE
  5
902
100
AcDbEntity
  8
0
100
AcDbEllipse
 62
7
  6
CONTINUOUS
 10
263.5769566424
 20
324.7365852395
 30
0.0
 11
41.25
 21
0.0
 31
0.0
 40
0.510638724
 41
-2.8384878959
 42
-2.8193794216
  0
ELLIPSE
  5
903
100
AcDbEntity
  8
0
100
AcDbEllipse
 62
7
  6
CONTINUOUS
 10
263.5769566424
 20
320.9642371298
 30
0.0
 11
41.25
 21
0.0
 31
0.0
 40
0.204255139
 41
-2.8622149063
 42
-2.8384878959
  0
ELLIPSE
  5
904
100
AcDbEntity
  8
0
100
AcDbEllipse
 62
7
  6
CONTINUOUS
 10
263.5769566424
 20
299.9557346057
 30
0.0
 11
41.25
 21
0.0
 31
0.0
 40
0.204255678
 41
-2.7317283593
 42
-2.7068113039
  0
ELLIPSE
  5
905
100
AcDbEntity
  8
0
100
AcDbEllipse
 62
7
  6
CONTINUOUS
 10
263.5769566424
 20
307.7897702671
 30
0.0
 11
41.25
 21
-0.0
 31
0.0
 40
0.6808509827
 41
-2.7465489766
 42
-2.7317283593
  0
ELLIPSE
  5
906
100
AcDbEntity
  8
0
100
AcDbEllipse
 62
7
  6
CONTINUOUS
 10
263.5769566424
 20
345.6191949726
 30
0.0
 11
0.0
 21
126.3820289433
 31
0.0
 40
0.3263913418
 41
-4.3222650755
 42
-4.3173453034
  0
ELLIPSE
  5
907
100
AcDbEntity
  8
0
100
AcDbEllipse
 62
7
  6
CONTINUOUS
 10
263.5769566424
 20
298.4333865994
 30
0.0
 11
41.5
 21
-0.0
 31
0.0
 40
0.255319362
 41
2.9522096206
 42
2.9705795892
  0
ELLIPSE
  5
908
100
AcDbEntity
  8
0
100
AcDbEllipse
 62
7
  6
CONTINUOUS
 10
263.5769566424
 20
294.8270006113
 30
0.0
 11
41.5
 21
0.0
 31
0.0
 40
0.765958086
 41
2.9705795892
 42
2.9888914551
  0
ELLIPSE
  5
909
100
AcDbEntity
  8
0
100
AcDbEllipse
 62
7
  6
CONTINUOUS
 10
263.5769566424
 20
294.8270006113
 30
0.0
 11
41.25
 21
-0.0
 31
0.0
 40
0.765958086
 41
2.9695328282
 42
2.9879586653
  0
ELLIPSE
  5
90A
100
AcDbEntity
  8
0
100
AcDbEllipse
 62
7
  6
CONTINUOUS
 10
263.5769566424
 20
298.4333865994
 30
0.0
 11
41.25
 21
-0.0
 31
0.0
 40
0.255319362
 41
9.2355912543
 42
9.2527181354
  0
ELLIPSE
  5
90B
100
AcDbEntity
  8
0
100
AcDbEllipse
 62
7
  6
CONTINUOUS
 10
263.5769566424
 20
309.1557283714
 30
0.0
 11
41.25
 21
-0.0
 31
0.0
 40
0.2042553906
 41
3.0612030739
 42
3.0839850382
  0
ELLIPSE
  5
90C
100
AcDbEntity
  8
0
100
AcDbEllipse
 62
7
  6
CONTINUOUS
 10
263.5769566424
 20
308.1408358867
 30
0.0
 11
41.25
 21
-0.0
 31
0.0
 40
0.5106380606
 41
3.0429479011
 42
3.0612030739
  0
ELLIPSE
  5
90D
100
AcDbEntity
  8
0
100
AcDbEllipse
 62
7
  6
CONTINUOUS
 10
263.5769566424
 20
306.0663689473
 30
0.0
 11
-0.0
 21
42.1276381525
 31
0.0
 40
0.9791671646
 41
1.4538633566
 42
1.4721515743
  0
ELLIPSE
  5
90E
100
AcDbEntity
  8
0
100
AcDbEllipse
 62
7
  6
CONTINUOUS
 10
263.5769566424
 20
345.6191949726
 30
0.0
 11
-0.0
 21
127.1479806339
 31
0.0
 40
0.3263913418
 41
-4.3247409247
 42
-4.3198558179
  0
ELLIPSE
  5
90F
100
AcDbEntity
  8
0
100
AcDbEllipse
 62
7
  6
CONTINUOUS
 10
263.5769566424
 20
307.7897702671
 30
0.0
 11
41.5
 21
-0.0
 31
0.0
 40
0.6808509827
 41
-2.7490594911
 42
-2.7343441642
  0
ELLIPSE
  5
910
100
AcDbEntity
  8
0
100
AcDbEllipse
 62
7
  6
CONTINUOUS
 10
263.5769566424
 20
299.9557346057
 30
0.0
 11
41.5
 21
-0.0
 31
0.0
 40
0.204255678
 41
-2.7343441642
 42
-2.7096072081
  0
ELLIPSE
  5
911
100
AcDbEntity
  8
0
100
AcDbEllipse
 62
7
  6
CONTINUOUS
 10
263.5769566424
 20
301.1514625421
 30
0.0
 11
0.0
 21
84.2554042093
 31
0.0
 40
0.4895828391
 41
1.4454940782
 42
1.4538633566
  0
ELLIPSE
  5
912
100
AcDbEntity
  8
0
100
AcDbEllipse
 62
7
  6
CONTINUOUS
 10
263.5769566424
 20
307.3174325149
 30
0.0
 11
41.25
 21
-0.0
 31
0.0
 40
0.2042551568
 41
2.8384878959
 42
2.8622149063
  0
ELLIPSE
  5
913
100
AcDbEntity
  8
0
100
AcDbEllipse
 62
7
  6
CONTINUOUS
 10
263.5769566424
 20
298.5929640855
 30
0.0
 11
41.25
 21
-0.0
 31
0.0
 40
0.255319362
 41
-2.9695328282
 42
-2.9524059471
  0
ELLIPSE
  5
914
100
AcDbEntity
  8
0
100
AcDbEllipse
 62
7
  6
CONTINUOUS
 10
263.5769566424
 20
301.5982811565
 30
0.0
 11
41.25
 21
-0.0
 31
0.0
 40
0.6808509827
 41
-2.983357396
 42
-2.9695328282
  0
ELLIPSE
  5
915
100
AcDbEntity
  8
0
100
AcDbEllipse
 62
7
  6
CONTINUOUS
 10
263.5769566424
 20
310.4493209327
 30
0.0
 11
-0.0
 21
84.2551631531
 31
0.0
 40
0.4895842398
 41
-4.5633530377
 42
-4.5541537228
  0
ELLIPSE
  5
916
100
AcDbEntity
  8
0
100
AcDbEllipse
 62
7
  6
CONTINUOUS
 10
263.5769566424
 20
303.5450837998
 30
0.0
 11
41.25
 21
-0.0
 31
0.0
 40
0.510638791
 41
2.8193794216
 42
2.8384878959
  0
ELLIPSE
  5
917
100
AcDbEntity
  8
0
100
AcDbEllipse
 62
7
  6
CONTINUOUS
 10
263.5769566424
 20
320.9642371298
 30
0.0
 11
41.5
 21
-0.0
 31
0.0
 40
0.204255139
 41
-2.8639426762
 42
-2.8403713266
  0
ELLIPSE
  5
918
100
AcDbEntity
  8
0
100
AcDbEllipse
 62
7
  6
CONTINUOUS
 10
263.5769566424
 20
324.7365852395
 30
0.0
 11
41.5
 21
-0.0
 31
0.0
 40
0.510638724
 41
-2.8403713266
 42
-2.8213898778
  0
ELLIPSE
  5
919
100
AcDbEntity
  8
0
100
AcDbEllipse
 62
7
  6
CONTINUOUS
 10
263.5769566424
 20
331.4068035715
 30
0.0
 11
0.0
 21
42.3830140906
 31
0.0
 40
0.9791658496
 41
-4.3921862046
 42
-4.373084499
  0
ELLIPSE
  5
91A
100
AcDbEntity
  8
0
100
AcDbEllipse
 62
7
  6
CONTINUOUS
 10
263.5769566424
 20
345.5131168737
 30
0.0
 11
0.0
 21
84.765785664
 31
0.0
 40
0.4895843255
 41
-4.373084499
 42
-4.3634855969
  0
ELLIPSE
  5
91B
100
AcDbEntity
  8
0
100
AcDbEllipse
 62
7
  6
CONTINUOUS
 10
263.5769566424
 20
388.9815690253
 30
0.0
 11
0.0
 21
211.9157954819
 31
0.0
 40
0.1958324999
 41
-4.3634855969
 42
-4.3586736371
  0
ELLIPSE
  5
91C
100
AcDbEntity
  8
0
100
AcDbEllipse
 62
7
  6
CONTINUOUS
 10
263.5769566424
 20
239.3001416819
 30
0.0
 11
0.0
 21
211.915676749
 31
0.0
 40
0.1958326096
 41
1.2170809835
 42
1.2218929433
  0
ELLIPSE
  5
91D
100
AcDbEntity
  8
0
100
AcDbEllipse
 62
7
  6
CONTINUOUS
 10
263.5769566424
 20
282.7685481688
 30
0.0
 11
-0.0
 21
84.7658005055
 31
0.0
 40
0.4895842398
 41
1.2218929433
 42
1.2314918455
  0
ELLIPSE
  5
91E
100
AcDbEntity
  8
0
100
AcDbEllipse
 62
7
  6
CONTINUOUS
 10
263.5769566424
 20
296.8748651758
 30
0.0
 11
0.0
 21
42.3830178009
 31
0.0
 40
0.9791657639
 41
1.2314918455
 42
1.250593551
  0
ELLIPSE
  5
91F
100
AcDbEntity
  8
0
100
AcDbEllipse
 62
7
  6
CONTINUOUS
 10
263.5769566424
 20
303.5450837998
 30
0.0
 11
41.5
 21
-0.0
 31
0.0
 40
0.510638791
 41
2.8213898778
 42
2.8403713266
  0
ELLIPSE
  5
920
100
AcDbEntity
  8
0
100
AcDbEllipse
 62
7
  6
CONTINUOUS
 10
263.5769566424
 20
307.3174325149
 30
0.0
 11
41.5
 21
-0.0
 31
0.0
 40
0.2042551568
 41
2.8403713266
 42
2.8639426762
  0
ELLIPSE
  5
921
100
AcDbEntity
  8
0
100
AcDbEllipse
 62
7
  6
CONTINUOUS
 10
263.5769566424
 20
303.2110457851
 30
0.0
 11
41.5
 21
-0.0
 31
0.0
 40
0.204255139
 41
-2.9245307254
 42
-2.901336112
  0
ELLIPSE
  5
922
100
AcDbEntity
  8
0
100
AcDbEllipse
 62
7
  6
CONTINUOUS
 10
263.5769566424
 20
307.2450847797
 30
0.0
 11
41.5
 21
-0.0
 31
0.0
 40
0.6127654169
 41
-2.901336112
 42
-2.8780089116
  0
ELLIPSE
  5
923
100
AcDbEntity
  8
0
100
AcDbEllipse
 62
7
  6
CONTINUOUS
 10
263.5769566424
 20
315.3429617454
 30
0.0
 11
0.0
 21
56.5106315613
 31
0.0
 40
0.7343750875
 41
-4.4488052384
 42
-4.4347389851
  0
ELLIPSE
  5
924
100
AcDbEntity
  8
0
100
AcDbEllipse
 62
7
  6
CONTINUOUS
 10
263.5769566424
 20
285.2579098999
 30
0.0
 11
0.0
 21
211.91446416
 31
0.0
 40
0.1958337302
 41
1.4409133753
 42
1.4454684956
  0
ELLIPSE
  5
925
100
AcDbEntity
  8
0
100
AcDbEllipse
 62
7
  6
CONTINUOUS
 10
263.5769566424
 20
301.1514625421
 30
0.0
 11
-0.0
 21
84.7660430227
 31
0.0
 40
0.4895828391
 41
1.4454684956
 42
1.454570971
  0
ELLIPSE
  5
926
100
AcDbEntity
  8
0
100
AcDbEllipse
 62
7
  6
CONTINUOUS
 10
263.5769566424
 20
306.0663689473
 30
0.0
 11
-0.0
 21
42.3829571716
 31
0.0
 40
0.9791671646
 41
1.454570971
 42
1.4727477373
  0
ELLIPSE
  5
927
100
AcDbEntity
  8
0
100
AcDbEllipse
 62
7
  6
CONTINUOUS
 10
263.5769566424
 20
308.1408358867
 30
0.0
 11
41.5
 21
-0.0
 31
0.0
 40
0.5106380606
 41
3.043544064
 42
3.0616883849
  0
ELLIPSE
  5
928
100
AcDbEntity
  8
0
100
AcDbEllipse
 62
7
  6
CONTINUOUS
 10
263.5769566424
 20
328.8962713963
 30
0.0
 11
0.0
 21
105.9578680577
 31
0.0
 40
0.3916651095
 41
-4.4347389851
 42
-4.4253302769
  0
ELLIPSE
  5
929
100
AcDbEntity
  8
0
100
AcDbEllipse
 62
7
  6
CONTINUOUS
 10
263.5769566424
 20
309.1557283714
 30
0.0
 11
41.5
 21
-0.0
 31
0.0
 40
0.2042553906
 41
3.0616883849
 42
3.0843324529
  0
ELLIPSE
  5
92A
100
AcDbEntity
  8
0
100
AcDbEllipse
 62
7
  6
CONTINUOUS
 10
263.5769566424
 20
268.1300833566
 30
0.0
 11
0.0
 21
105.9578532161
 31
0.0
 40
0.3916651644
 41
1.2837376233
 42
1.2931463315
  0
ELLIPSE
  5
92B
100
AcDbEntity
  8
0
100
AcDbEllipse
 62
7
  6
CONTINUOUS
 10
263.5769566424
 20
311.8429622241
 30
0.0
 11
-0.0
 21
63.574339248
 31
0.0
 40
0.6527791007
 41
-4.7123889723
 42
-4.7048587801
  0
ELLIPSE
  5
92C
100
AcDbEntity
  8
0
100
AcDbEllipse
 62
7
  6
CONTINUOUS
 10
263.5769566424
 20
311.5770054922
 30
0.0
 11
41.5
 21
0.0
 31
0.0
 40
0.6808512211
 41
-3.1340624533
 42
-3.1205067451
  0
ELLIPSE
  5
92D
100
AcDbEntity
  8
0
100
AcDbEllipse
 62
7
  6
CONTINUOUS
 10
263.5769566424
 20
311.2046649633
 30
0.0
 11
41.5
 21
0.0
 31
0.0
 40
0.255319362
 41
-3.1205067451
 42
-3.1024260227
  0
ELLIPSE
  5
92E
100
AcDbEntity
  8
0
100
AcDbEllipse
 62
7
  6
CONTINUOUS
 10
263.5769566424
 20
281.6833875835
 30
0.0
 11
0.0
 21
56.5106365085
 31
0.0
 40
0.7343750233
 41
1.2931463315
 42
1.3072125849
  0
ELLIPSE
  5
92F
100
AcDbEntity
  8
0
100
AcDbEllipse
 62
7
  6
CONTINUOUS
 10
263.5769566424
 20
289.7812652581
 30
0.0
 11
41.5
 21
-0.0
 31
0.0
 40
0.6127654705
 41
2.8780089116
 42
2.901336112
  0
ELLIPSE
  5
930
100
AcDbEntity
  8
0
100
AcDbEllipse
 62
7
  6
CONTINUOUS
 10
263.5769566424
 20
296.8748651758
 30
0.0
 11
-0.0
 21
42.1276984166
 31
0.0
 40
0.9791657639
 41
1.2293519174
 42
1.2485830948
  0
ELLIPSE
  5
931
100
AcDbEntity
  8
0
100
AcDbEllipse
 62
7
  6
CONTINUOUS
 10
263.5769566424
 20
293.8153046058
 30
0.0
 11
41.5
 21
-0.0
 31
0.0
 40
0.2042551568
 41
2.901336112
 42
2.9245307254
  0
ELLIPSE
  5
932
100
AcDbEntity
  8
0
100
AcDbEllipse
 62
7
  6
CONTINUOUS
 10
263.5769566424
 20
282.7685481688
 30
0.0
 11
-0.0
 21
84.2551631531
 31
0.0
 40
0.4895842398
 41
1.2196872914
 42
1.2293519174
  0
ELLIPSE
  5
933
100
AcDbEntity
  8
0
100
AcDbEllipse
 62
7
  6
CONTINUOUS
 10
263.5769566424
 20
239.3001416819
 30
0.0
 11
0.0
 21
210.6390762866
 31
0.0
 40
0.1958326096
 41
1.21484221
 42
1.2196872914
  0
ELLIPSE
  5
934
100
AcDbEntity
  8
0
100
AcDbEllipse
 62
7
  6
CONTINUOUS
 10
263.5769566424
 20
388.9815690253
 30
0.0
 11
0.0
 21
210.6391943043
 31
0.0
 40
0.1958324999
 41
-4.361279945
 42
-4.3564348636
  0
ELLIPSE
  5
935
100
AcDbEntity
  8
0
100
AcDbEllipse
 62
7
  6
CONTINUOUS
 10
263.5769566424
 20
293.8153046058
 30
0.0
 11
41.25
 21
-0.0
 31
0.0
 40
0.2042551568
 41
2.8998510617
 42
2.9231939434
  0
ELLIPSE
  5
936
100
AcDbEntity
  8
0
100
AcDbEllipse
 62
7
  6
CONTINUOUS
 10
263.5769566424
 20
289.7812652581
 30
0.0
 11
41.25
 21
0.0
 31
0.0
 40
0.6127654705
 41
2.8763730191
 42
2.8998510617
  0
ENDSEC
  0
SECTION
  2
OBJECTS
  0
DICTIONARY
  5
C
100
AcDbDictionary
280
0
281
1
  3
ACAD_GROUP
350
D
  3
ACAD_MLINESTYLE
350
17
  3
ACAD_LAYOUT
350
1A
  3
ACAD_PLOTSETTINGS
350
19
  3
ACAD_PLOTSTYLENAME
350
E
  0
DICTIONARY
  5
D
102
{ACAD_REACTORS
330
C
102
}
100
AcDbDictionary
280
0
281
1
  0
ACDBDICTIONARYWDFLT
  5
E
102
{ACAD_REACTORS
330
C
102
}
100
AcDbDictionary
281
1
  3
Normal
350
F
100
AcDbDictionaryWithDefault
340
F
  0
DICTIONARY
  5
17
102
{ACAD_REACTORS
330
C
102
}
100
AcDbDictionary
280
0
281
1
  3
Standard
350
18
  0
DICTIONARY
  5
19
102
{ACAD_REACTORS
330
C
102
}
100
AcDbDictionary
281
1
  0
DICTIONARY
  5
1A
102
{ACAD_REACTORS
330
C
102
}
100
AcDbDictionary
281
1
  3
Model
350
937
  3
Layout1
350
938
  0
ACDBPLACEHOLDER
  5
F
102
{ACAD_REACTORS
330
E
102
}
  0
MLINESTYLE
  5
18
102
{ACAD_REACTORS
330
17
102
}
100
AcDbMlineStyle
  2
STANDARD
 70
0
  3

 62
256
 51
90.0
 52
90.0
 71
2
 49
0.5
 62
256
  6
BYLAYER
 49
-0.5
 62
256
  6
BYLAYER
  0
LAYOUT
  5
937
102
{ACAD_REACTORS
330
1A
102
}
100
AcDbPlotSettings
  1

  2
none_device
  4
ISO_A1_(594.00_x_841.00_MM)
  6

 40
0.0
 41
0.0
 42
0.0
 43
0.0
 44
841.0
 45
594.0
 46
0.0
 47
0.0
 48
0.0
 49
0.0
140
0.0
141
0.0
142
1.0
143
1.0
 70
1024
 72
1
 73
0
 74
0
  7

 75
0
147
1.0
148
0.0
149
0.0
100
AcDbLayout
  1
Model
 70
0
 71
0
 10
0.0
 20
0.0
 11
841.0
 21
594.0
 12
0.0
 22
0.0
 32
0.0
 14
0.0
 24
0.0
 34
0.0
 15
0.0
 25
0.0
 35
0.0
146
0.0
 13
0.0
 23
0.0
 33
0.0
 16
1.0
 26
0.0
 36
0.0
 17
0.0
 27
1.0
 37
0.0
 76
0
330
20D
345
0
346
0
  0
LAYOUT
  5
938
102
{ACAD_REACTORS
330
1A
102
}
100
AcDbPlotSettings
  1

  2
none_device
  4
ISO_A1_(594.00_x_841.00_MM)
  6

 40
0.0
 41
0.0
 42
0.0
 43
0.0
 44
841.0
 45
594.0
 46
0.0
 47
0.0
 48
0.0
 49
0.0
140
0.0
141
0.0
142
1.0
143
1.0
 70
0
 72
1
 73
0
 74
0
  7

 75
0
147
1.0
148
0.0
149
0.0
100
AcDbLayout
  1
Layout1
 70
0
 71
1
 10
0.0
 20
0.0
 11
841.0
 21
594.0
 12
0.0
 22
0.0
 32
0.0
 14
0.0
 24
0.0
 34
0.0
 15
0.0
 25
0.0
 35
0.0
146
0.0
 13
0.0
 23
0.0
 33
0.0
 16
1.0
 26
0.0
 36
0.0
 17
0.0
 27
1.0
 37
0.0
 76
0
330
20E
345
0
346
0
  0
ENDSEC
  0
EOF
