999
DXF file: 001-m31341-p-20.dxf
999
Pro/ENGINEER 2011490 by Parametric Technology Corporation
  0
SECTION
  2
HEADER
  9
$ACADVER
  1
AC1015
  9
$DWGCODEPAGE
  3
ANSI_1252
  9
$EXTMAX
 10
594.0
 20
420.0
 30
0.0
  9
$EXTMIN
 10
0.0
 20
0.0
 30
0.0
  9
$LIMMIN
 10
0.0
 20
0.0
  9
$LIMMAX
 10
594.0
 20
420.0
  9
$VIEWCTR
 10
297.0
 20
210.0
  9
$VIEWSIZE
 40
420.0
  9
$CLAYER
  8
0
  9
$LTSCALE
 40
32.67
  9
$CELTYPE
  6
BYLAYER
  9
$DIMSCALE
 40
1.0
  9
$DIMASZ
 40
3.5
  9
$DIMEXO
 40
3.7125
  9
$DIMDLI
 40
22.572
  9
$DIMEXE
 40
10.692
  9
$DIMCEN
 40
5.346
  9
$DIMLFAC
 40
1.0
  9
$DIMBLK
  1
_FILLED
  9
$DIMTXT
 40
3.5
  9
$DIMTOL
 70
1
  9
$DIMLIM
 70
0
  9
$DIMTFAC
 40
1.0
  9
$DIMTP
 40
0.005
  9
$DIMTM
 40
0.005
  9
$PDMODE
 70
3
  9
$PDSIZE
 40
0.3125
  9
$HANDSEED
  5
700
  9
$TILEMODE
 70
1
  9
$MEASUREMENT
 70
1
  9
$INSUNITS
 70
4
  0
ENDSEC
  0
SECTION
  2
CLASSES
  0
CLASS
  1
ACDBDICTIONARYWDFLT
  2
AcDbDictionaryWithDefault
  3
AutoCAD 2000
 90
0
280
0
281
0
  0
CLASS
  1
ACDBPLACEHOLDER
  2
AcDbPlaceHolder
  3
AutoCAD 2000
 90
0
280
0
281
0
  0
CLASS
  1
LAYOUT
  2
AcDbLayout
  3
AutoCAD 2000
 90
0
280
0
281
0
  0
ENDSEC
  0
SECTION
  2
TABLES
  0
TABLE
  2
VPORT
  5
8
100
AcDbSymbolTable
 70
2
  0
VPORT
  5
1F4
100
AcDbSymbolTableRecord
100
AcDbViewportTableRecord
  2
*ACTIVE
 70
0
 10
0.0
 20
0.0
 11
1.0
 21
1.0
 12
297.0
 22
210.0
 13
0.0
 23
0.0
 14
1.0
 24
1.0
 15
0.0
 25
0.0
 16
0.0
 26
0.0
 36
1.0
 17
0.0
 27
0.0
 37
0.0
 40
420.0
 41
1.4142857143
 42
50.0
 43
0.0
 44
0.0
 50
0.0
 51
0.0
 71
0
 72
100
 73
1
 74
1
 75
0
 76
0
 77
0
 78
0
  0
ENDTAB
  0
TABLE
  2
LTYPE
  5
5
100
AcDbSymbolTable
 70
6
  0
LTYPE
  5
14
100
AcDbSymbolTableRecord
100
AcDbLinetypeTableRecord
  2
BYBLOCK
 70
0
  3

 72
65
 73
0
 40
0.0
  0
LTYPE
  5
15
100
AcDbSymbolTableRecord
100
AcDbLinetypeTableRecord
  2
BYLAYER
 70
0
  3

 72
65
 73
0
 40
0.0
  0
LTYPE
  5
16
100
AcDbSymbolTableRecord
100
AcDbLinetypeTableRecord
  2
CONTINUOUS
 70
64
  3
Solid line
 72
65
 73
0
 40
0.0
  0
LTYPE
  5
1F5
100
AcDbSymbolTableRecord
100
AcDbLinetypeTableRecord
  2
CENTER
 70
64
  3
____ _ ____ _ ____ _ ____ _ ____ _ ____ _ ____
 72
65
 73
4
 40
0.6
 49
0.375
 74
0
 49
-0.075
 74
0
 49
0.075
 74
0
 49
-0.075
 74
0
  0
LTYPE
  5
1F6
100
AcDbSymbolTableRecord
100
AcDbLinetypeTableRecord
  2
HIDDEN
 70
64
  3
- - - - - - - - - - - - - - - - - - - -
 72
65
 73
2
 40
0.2
 49
0.1
 74
0
 49
-0.1
 74
0
  0
LTYPE
  5
1F7
100
AcDbSymbolTableRecord
100
AcDbLinetypeTableRecord
  2
PHANTOM
 70
64
  3
_____ _ _ _____ _ _ _____ _ _ _____
 72
65
 73
6
 40
0.8
 49
0.45
 74
0
 49
-0.05
 74
0
 49
0.1
 74
0
 49
-0.05
 74
0
 49
0.1
 74
0
 49
-0.05
 74
0
  0
LTYPE
  5
1F8
100
AcDbSymbolTableRecord
100
AcDbLinetypeTableRecord
  2
DOT
 70
64
  3
. . . . . . . . . . . . . . . . . . . .
 72
65
 73
2
 40
0.2
 49
0.1
 74
0
 49
-0.1
 74
0
  0
LTYPE
  5
1F9
100
AcDbSymbolTableRecord
100
AcDbLinetypeTableRecord
  2
DASHED
 70
64
  3
- - - - - - - - - - - - - - - - - - - -
 72
65
 73
2
 40
0.2
 49
0.1
 74
0
 49
-0.1
 74
0
  0
ENDTAB
  0
TABLE
  2
LAYER
  5
2
100
AcDbSymbolTable
 70
36
  0
LAYER
  5
10
100
AcDbSymbolTableRecord
100
AcDbLayerTableRecord
  2
0
 70
0
 62
7
  6
CONTINUOUS
370
-3
390
F
  0
LAYER
  5
1FA
100
AcDbSymbolTableRecord
100
AcDbLayerTableRecord
  2
DEFAULT_1
 70
0
 62
7
  6
CENTER
370
-3
390
F
  0
LAYER
  5
1FB
100
AcDbSymbolTableRecord
100
AcDbLayerTableRecord
  2
DEFAULT_2
 70
0
 62
8
  6
HIDDEN
370
-3
390
F
  0
LAYER
  5
1FC
100
AcDbSymbolTableRecord
100
AcDbLayerTableRecord
  2
DEFAULT_3
 70
0
 62
7
  6
PHANTOM
370
-3
390
F
  0
LAYER
  5
1FD
100
AcDbSymbolTableRecord
100
AcDbLayerTableRecord
  2
AUSFORMSCHRAEGEN
 70
0
 62
7
  6
CONTINUOUS
370
-3
390
F
  0
LAYER
  5
1FE
100
AcDbSymbolTableRecord
100
AcDbLayerTableRecord
  2
BEZUGSACHSEN
 70
0
 62
7
  6
CONTINUOUS
370
-3
390
F
  0
LAYER
  5
1FF
100
AcDbSymbolTableRecord
100
AcDbLayerTableRecord
  2
BEZUGSEBENEN
 70
0
 62
7
  6
CONTINUOUS
370
-3
390
F
  0
LAYER
  5
200
100
AcDbSymbolTableRecord
100
AcDbLayerTableRecord
  2
BG_STARTBEZUEGE
 70
0
 62
7
  6
CONTINUOUS
370
-3
390
F
  0
LAYER
  5
201
100
AcDbSymbolTableRecord
100
AcDbLayerTableRecord
  2
FASEN
 70
0
 62
7
  6
CONTINUOUS
370
-3
390
F
  0
LAYER
  5
202
100
AcDbSymbolTableRecord
100
AcDbLayerTableRecord
  2
HILFEN
 70
0
 62
7
  6
CONTINUOUS
370
-3
390
F
  0
LAYER
  5
203
100
AcDbSymbolTableRecord
100
AcDbLayerTableRecord
  2
KONSTRUKTIONSELEMENTE
 70
0
 62
7
  6
CONTINUOUS
370
-3
390
F
  0
LAYER
  5
204
100
AcDbSymbolTableRecord
100
AcDbLayerTableRecord
  2
NORM
 70
0
 62
7
  6
CONTINUOUS
370
-3
390
F
  0
LAYER
  5
205
100
AcDbSymbolTableRecord
100
AcDbLayerTableRecord
  2
PLATZIERUNG
 70
0
 62
7
  6
CONTINUOUS
370
-3
390
F
  0
LAYER
  5
206
100
AcDbSymbolTableRecord
100
AcDbLayerTableRecord
  2
PLAZIERUNG
 70
0
 62
7
  6
CONTINUOUS
370
-3
390
F
  0
LAYER
  5
207
100
AcDbSymbolTableRecord
100
AcDbLayerTableRecord
  2
RUNDUNGEN
 70
0
 62
7
  6
CONTINUOUS
370
-3
390
F
  0
LAYER
  5
208
100
AcDbSymbolTableRecord
100
AcDbLayerTableRecord
  2
TEIL_STARTBEZUEGE
 70
0
 62
7
  6
CONTINUOUS
370
-3
390
F
  0
LAYER
  5
209
100
AcDbSymbolTableRecord
100
AcDbLayerTableRecord
  2
T_STARTBEZUEGE
 70
0
 62
7
  6
CONTINUOUS
370
-3
390
F
  0
LAYER
  5
20A
100
AcDbSymbolTableRecord
100
AcDbLayerTableRecord
  2
ZEICHNUNGSBEMASSUNGEN
 70
0
 62
7
  6
CONTINUOUS
370
-3
390
F
  0
ENDTAB
  0
TABLE
  2
STYLE
  5
3
100
AcDbSymbolTable
 70
1
  0
STYLE
  5
11
100
AcDbSymbolTableRecord
100
AcDbTextStyleTableRecord
  2
STANDARD
 70
0
 40
0.0
 41
0.7
 50
0.0
 71
0
 42
0.2
  3
txt
  4

  0
STYLE
  5
20B
100
AcDbSymbolTableRecord
100
AcDbTextStyleTableRecord
  2
TEXTSTYLE_1
 70
0
 40
0.0
 41
0.8
 50
0.0
 71
0
 42
0.2
  3
gdt
  4

  0
ENDTAB
  0
TABLE
  2
VIEW
  5
6
100
AcDbSymbolTable
 70
0
  0
ENDTAB
  0
TABLE
  2
UCS
  5
7
100
AcDbSymbolTable
 70
0
  0
ENDTAB
  0
TABLE
  2
APPID
  5
9
100
AcDbSymbolTable
 70
1
  0
APPID
  5
20C
100
AcDbSymbolTableRecord
100
AcDbRegAppTableRecord
  2
ACAD
 70
0
  0
ENDTAB
  0
TABLE
  2
BLOCK_RECORD
  5
1
100
AcDbSymbolTable
 70
0
  0
BLOCK_RECORD
  5
20D
100
AcDbSymbolTableRecord
100
AcDbBlockTableRecord
  2
*Model_Space
  0
BLOCK_RECORD
  5
20E
100
AcDbSymbolTableRecord
100
AcDbBlockTableRecord
  2
*Paper_Space
  0
ENDTAB
  0
TABLE
  2
DIMSTYLE
  5
A
100
AcDbSymbolTable
 70
1
100
AcDbDimStyleTable
 71
0
  0
DIMSTYLE
105
20F
100
AcDbSymbolTableRecord
100
AcDbDimStyleTableRecord
  2
STANDARD
 70
0
  3

  4

 40
1.0
 41
3.5
 42
0.0625
 43
0.38
 44
0.18
 45
0.0
 46
0.0
 47
0.005
 48
0.005
140
3.5
141
0.09
142
0.0
143
25.4
144
1.0
145
0.0
146
1.0
147
0.09
 71
1.0
 72
0.0
 73
0
 74
0
 75
0
 76
0
 77
1
 78
8
170
0
171
2
172
0
173
0
174
0
175
0
176
0
177
0
178
5
270
2
271
3
272
3
273
2
274
2
275
0
280
0
281
0
282
0
283
1
284
8
285
0
286
0
287
3
288
0
340
11
  0
ENDTAB
  0
ENDSEC
  0
SECTION
  2
BLOCKS
  0
BLOCK
  5
20
100
AcDbEntity
  8
0
100
AcDbBlockBegin
  2
*Model_Space
 70
0
 10
0.0
 20
0.0
 30
0.0
  3
*Model_Space
  1

  0
ENDBLK
  5
21
100
AcDbEntity
  8
0
100
AcDbBlockEnd
  0
BLOCK
  5
1C
100
AcDbEntity
  8
0
100
AcDbBlockBegin
  2
*Paper_Space
 70
0
 10
0.0
 20
0.0
 30
0.0
  3
*Paper_Space
  1

  0
ENDBLK
  5
1D
100
AcDbEntity
  8
0
100
AcDbBlockEnd
  0
ENDSEC
  0
SECTION
  2
ENTITIES
  0
MTEXT
  5
210
100
AcDbEntity
  8
0
100
AcDbMText
 62
5
  6
CONTINUOUS
  7
STANDARD
 71
1
 72
1
 10
296.8012591474
 20
236.2709889865
 30
0.0
 11
0.3826834324
 21
0.9238795325
 31
0.0
 44
0.9
  1
VIP 10
 40
8.0
 41
36.7619047619
  0
MTEXT
  5
211
100
AcDbEntity
  8
0
100
AcDbMText
 62
5
  6
CONTINUOUS
  7
STANDARD
 71
2
 72
1
 10
200.7370661187
 20
54.9430499431
 30
0.0
 11
0.0
 21
1.0
 31
0.0
 44
0.9
  1
RUD PP-B\P4t M24
 40
9.0
 41
58.7142857143
  0
MTEXT
  5
212
100
AcDbEntity
  8
0
100
AcDbMText
 62
5
  6
CONTINUOUS
  7
STANDARD
 71
1
 72
1
 10
348.4346072527
 20
264.5309863234
 30
0.0
 11
0.3826834324
 21
-0.9238795325
 31
0.0
 44
0.9
  1
CE
 40
8.0
 41
13.9047619048
  0
LINE
  5
213
100
AcDbEntity
  8
0
100
AcDbLine
 62
7
  6
CONTINUOUS
 10
0.0
 20
0.0
 11
0.0
 21
420.0
  0
LINE
  5
214
100
AcDbEntity
  8
0
100
AcDbLine
 62
7
  6
CONTINUOUS
 10
0.0
 20
0.0
 11
594.0
 21
0.0
  0
LINE
  5
215
100
AcDbEntity
  8
0
100
AcDbLine
 62
7
  6
CONTINUOUS
 10
0.0
 20
420.0
 11
594.0
 21
420.0
  0
LINE
  5
216
100
AcDbEntity
  8
0
100
AcDbLine
 62
7
  6
CONTINUOUS
 10
594.0
 20
0.0
 11
594.0
 21
420.0
  0
LINE
  5
217
100
AcDbEntity
  8
FASEN
100
AcDbLine
 62
7
  6
CONTINUOUS
 10
222.4166778873
 20
147.6395481341
 11
202.4166778873
 21
147.6395481341
  0
LINE
  5
218
100
AcDbEntity
  8
FASEN
100
AcDbLine
 62
7
  6
CONTINUOUS
 10
224.4166778873
 20
149.6395481341
 11
200.4166778873
 21
149.6395481341
  0
LINE
  5
219
100
AcDbEntity
  8
0
100
AcDbLine
 62
7
  6
CONTINUOUS
 10
195.604856437
 20
361.1363760822
 11
195.0235531734
 21
360.8736811491
  0
LINE
  5
21A
100
AcDbEntity
  8
0
100
AcDbLine
 62
7
  6
CONTINUOUS
 10
201.1855378734
 20
364.155223649
 11
198.4195996751
 21
362.9935068663
  0
LINE
  5
21B
100
AcDbEntity
  8
0
100
AcDbLine
 62
7
  6
CONTINUOUS
 10
199.3582579788
 20
362.6954386431
 11
201.5479592723
 21
363.6151311885
  0
LINE
  5
21C
100
AcDbEntity
  8
0
100
AcDbLine
 62
7
  6
CONTINUOUS
 10
202.289480673
 20
361.8496386022
 11
200.0997793796
 21
360.9299460569
  0
LINE
  5
21D
100
AcDbEntity
  8
0
100
AcDbLine
 62
7
  6
CONTINUOUS
 10
200.3963878845
 20
360.2237491543
 11
202.4708415332
 21
361.0950367414
  0
LINE
  5
21E
100
AcDbEntity
  8
0
100
AcDbLine
 62
7
  6
CONTINUOUS
 10
200.7430332406
 20
357.4616304698
 11
201.4345177902
 21
357.7520596654
  0
LINE
  5
21F
100
AcDbEntity
  8
0
100
AcDbLine
 62
7
  6
CONTINUOUS
 10
195.498799537
 20
360.4296204091
 11
195.8774969227
 21
360.5458540234
  0
LINE
  5
220
100
AcDbEntity
  8
0
100
AcDbLine
 62
7
  6
CONTINUOUS
 10
195.0235531734
 20
360.8736811491
 11
192.5922837988
 21
359.1161461628
  0
LINE
  5
221
100
AcDbEntity
  8
0
100
AcDbLine
 62
7
  6
CONTINUOUS
 10
193.574044712
 20
359.0382386147
 11
195.498799537
 21
360.4296204091
  0
LINE
  5
222
100
AcDbEntity
  8
0
100
AcDbLine
 62
7
  6
CONTINUOUS
 10
196.6206304551
 20
358.8777462354
 11
194.6958756302
 21
357.486364441
  0
LINE
  5
223
100
AcDbEntity
  8
0
100
AcDbLine
 62
7
  6
CONTINUOUS
 10
195.1446079136
 20
356.8656148874
 11
196.9680599445
 21
358.1837661272
  0
LINE
  5
224
100
AcDbEntity
  8
0
100
AcDbLine
 62
7
  6
CONTINUOUS
 10
196.1073537715
 20
354.2536074136
 11
196.7151711152
 21
354.6929911602
  0
LINE
  5
225
100
AcDbEntity
  8
0
100
AcDbLine
 62
7
  6
CONTINUOUS
 10
202.4708415332
 20
361.0950367414
 11
202.9976436872
 21
361.4547604625
  0
LINE
  5
226
100
AcDbEntity
  8
0
100
AcDbLine
 62
7
  6
CONTINUOUS
 10
229.4427047848
 20
357.7300746427
 11
230.0387532507
 21
357.9447898853
  0
LINE
  5
227
100
AcDbEntity
  8
FASEN
100
AcDbLine
 62
7
  6
CONTINUOUS
 10
202.4166778873
 20
147.6395481341
 11
200.4166778873
 21
149.6395481341
  0
LINE
  5
228
100
AcDbEntity
  8
0
100
AcDbLine
 62
7
  6
CONTINUOUS
 10
196.9680599445
 20
358.1837661272
 11
197.3997857803
 21
358.6533775781
  0
LINE
  5
229
100
AcDbEntity
  8
0
100
AcDbLine
 62
7
  6
CONTINUOUS
 10
202.585788197
 20
362.1125526838
 11
202.289480673
 21
361.8496386022
  0
LINE
  5
22A
100
AcDbEntity
  8
0
100
AcDbLine
 62
7
  6
CONTINUOUS
 10
227.9475988358
 20
355.5048509254
 11
228.5436473266
 21
355.7195662051
  0
LINE
  5
22B
100
AcDbEntity
  8
0
100
AcDbLine
 62
7
  6
CONTINUOUS
 10
196.849750413
 20
359.2008963676
 11
196.6206304551
 21
358.8777462354
  0
LINE
  5
22C
100
AcDbEntity
  8
0
100
AcDbLine
 62
7
  6
CONTINUOUS
 10
215.4176008301
 20
366.1363358621
 11
212.1460982531
 21
362.9460757739
  0
LINE
  5
22D
100
AcDbEntity
  8
0
100
AcDbLine
 62
7
  6
CONTINUOUS
 10
213.0181742501
 20
362.8746081519
 11
215.3341856978
 21
365.1184716511
  0
LINE
  5
22E
100
AcDbEntity
  8
KONSTRUKTIONSELEMENTE
100
AcDbLine
 62
7
  6
CONTINUOUS
 10
173.4166317334
 20
183.6395481341
 11
251.4166317334
 21
183.6395481341
  0
LINE
  5
22F
100
AcDbEntity
  8
0
100
AcDbLine
 62
7
  6
CONTINUOUS
 10
177.5891986913
 20
187.1395481341
 11
177.9651078554
 21
187.1395481341
  0
LINE
  5
230
100
AcDbEntity
  8
0
100
AcDbLine
 62
7
  6
CONTINUOUS
 10
178.8422292085
 20
187.1395481341
 11
179.3434413975
 21
187.1395481341
  0
LINE
  5
231
100
AcDbEntity
  8
0
100
AcDbLine
 62
7
  6
CONTINUOUS
 10
180.2205628402
 20
187.1395481341
 11
180.5964720044
 21
187.1395481341
  0
LINE
  5
232
100
AcDbEntity
  8
0
100
AcDbLine
 62
7
  6
CONTINUOUS
 10
181.0976841037
 20
187.1395481341
 11
183.3531390885
 21
187.1395481341
  0
LINE
  5
233
100
AcDbEntity
  8
0
100
AcDbLine
 62
7
  6
CONTINUOUS
 10
185.3579878444
 20
187.1395481341
 11
185.7338970085
 21
187.1395481341
  0
LINE
  5
234
100
AcDbEntity
  8
0
100
AcDbLine
 62
7
  6
CONTINUOUS
 10
183.3531390885
 20
187.7778460198
 11
181.5988965615
 21
187.7778460198
  0
LINE
  5
235
100
AcDbEntity
  8
0
100
AcDbLine
 62
7
  6
CONTINUOUS
 10
179.0928353478
 20
187.7778460198
 11
179.4619713208
 21
187.7778460198
  0
LINE
  5
236
100
AcDbEntity
  8
0
100
AcDbLine
 62
7
  6
CONTINUOUS
 10
181.0976841037
 20
187.7778460198
 11
181.5303463021
 21
187.7778460198
  0
LINE
  5
237
100
AcDbEntity
  8
0
100
AcDbLine
 62
7
  6
CONTINUOUS
 10
183.8543511879
 20
188.9267821424
 11
186.3604127601
 21
188.9267821424
  0
LINE
  5
238
100
AcDbEntity
  8
0
100
AcDbLine
 62
7
  6
CONTINUOUS
 10
182.7892753423
 20
193.0118885748
 11
182.4133661782
 21
193.1395481341
  0
LINE
  5
239
100
AcDbEntity
  8
0
100
AcDbLine
 62
7
  6
CONTINUOUS
 10
182.3507148898
 20
192.5012503378
 11
182.6639724071
 21
192.3735907786
  0
LINE
  5
23A
100
AcDbEntity
  8
0
100
AcDbLine
 62
7
  6
CONTINUOUS
 10
182.7833770882
 20
192.5012503378
 11
183.0966346055
 21
192.3735907786
  0
LINE
  5
23B
100
AcDbEntity
  8
0
100
AcDbLine
 62
7
  6
CONTINUOUS
 10
229.8047587386
 20
358.7172028482
 11
229.4874159366
 21
358.4690265962
  0
LINE
  5
23C
100
AcDbEntity
  8
0
100
AcDbLine
 62
7
  6
CONTINUOUS
 10
230.0387532507
 20
357.9447898853
 11
230.3560960527
 21
358.1929661372
  0
LINE
  5
23D
100
AcDbEntity
  8
0
100
AcDbLine
 62
7
  6
CONTINUOUS
 10
228.3096528643
 20
356.4919792422
 11
227.9923100623
 21
356.2438029903
  0
LINE
  5
23E
100
AcDbEntity
  8
0
100
AcDbLine
 62
7
  6
CONTINUOUS
 10
228.5436473266
 20
355.7195662051
 11
228.8609901785
 21
355.9677425313
  0
LINE
  5
23F
100
AcDbEntity
  8
0
100
AcDbLine
 62
7
  6
CONTINUOUS
 10
183.3458446931
 20
315.6250800579
 11
183.9291778873
 21
315.9229523628
  0
LINE
  5
240
100
AcDbEntity
  8
0
100
AcDbLine
 62
7
  6
CONTINUOUS
 10
183.2000110816
 20
316.3697608202
 11
182.7625110816
 21
316.2208246677
  0
LINE
  5
241
100
AcDbEntity
  8
0
100
AcDbLine
 62
7
  6
CONTINUOUS
 10
183.8543511879
 20
189.6927396767
 11
184.2870133863
 21
189.6927396767
  0
LINE
  5
242
100
AcDbEntity
  8
0
100
AcDbLine
 62
7
  6
CONTINUOUS
 10
184.2929123573
 20
189.6927396767
 11
186.3604127601
 21
189.6927396767
  0
LINE
  5
243
100
AcDbEntity
  8
0
100
AcDbLine
 62
7
  6
CONTINUOUS
 10
182.8519269892
 20
190.9693352692
 11
183.2845891876
 21
190.9693352692
  0
LINE
  5
244
100
AcDbEntity
  8
0
100
AcDbLine
 62
7
  6
CONTINUOUS
 10
182.9772299244
 20
191.4799735062
 11
183.3531390885
 21
191.4799735062
  0
LINE
  5
245
100
AcDbEntity
  8
0
100
AcDbLine
 62
7
  6
CONTINUOUS
 10
181.1603357506
 20
191.7352929823
 11
181.4735932678
 21
191.7352929823
  0
LINE
  5
246
100
AcDbEntity
  8
0
100
AcDbLine
 62
7
  6
CONTINUOUS
 10
182.9772299244
 20
191.7352929823
 11
183.3531390885
 21
191.7352929823
  0
LINE
  5
247
100
AcDbEntity
  8
0
100
AcDbLine
 62
7
  6
CONTINUOUS
 10
177.9651078554
 20
191.8629525416
 11
178.3768178662
 21
191.8629525416
  0
LINE
  5
248
100
AcDbEntity
  8
0
100
AcDbLine
 62
7
  6
CONTINUOUS
 10
180.2205628402
 20
191.8629525416
 11
180.5964720044
 21
191.8629525416
  0
LINE
  5
249
100
AcDbEntity
  8
0
100
AcDbLine
 62
7
  6
CONTINUOUS
 10
182.8519269892
 20
192.1182716601
 11
183.2845891876
 21
192.1182716601
  0
LINE
  5
24A
100
AcDbEntity
  8
0
100
AcDbLine
 62
7
  6
CONTINUOUS
 10
185.3579878444
 20
192.1182716601
 11
185.7338970085
 21
192.1182716601
  0
LINE
  5
24B
100
AcDbEntity
  8
0
100
AcDbLine
 62
7
  6
CONTINUOUS
 10
181.2229873974
 20
192.2459312193
 11
181.6556495958
 21
192.2459312193
  0
LINE
  5
24C
100
AcDbEntity
  8
0
100
AcDbLine
 62
7
  6
CONTINUOUS
 10
182.6639724071
 20
192.3735907786
 11
183.0966346055
 21
192.3735907786
  0
LINE
  5
24D
100
AcDbEntity
  8
0
100
AcDbLine
 62
7
  6
CONTINUOUS
 10
182.1001086609
 20
192.5012503378
 11
182.7833770882
 21
192.5012503378
  0
LINE
  5
24E
100
AcDbEntity
  8
0
100
AcDbLine
 62
7
  6
CONTINUOUS
 10
181.4735932678
 20
192.7565694563
 11
181.9062554662
 21
192.7565694563
  0
LINE
  5
24F
100
AcDbEntity
  8
0
100
AcDbLine
 62
7
  6
CONTINUOUS
 10
181.7241994968
 20
193.0118885748
 11
182.1568616952
 21
193.0118885748
  0
LINE
  5
250
100
AcDbEntity
  8
0
100
AcDbLine
 62
7
  6
CONTINUOUS
 10
185.7338970085
 20
193.1395481341
 11
185.3579878444
 21
193.1395481341
  0
LINE
  5
251
100
AcDbEntity
  8
0
100
AcDbLine
 62
7
  6
CONTINUOUS
 10
182.4133661782
 20
193.1395481341
 11
182.1627603077
 21
193.1395481341
  0
LINE
  5
252
100
AcDbEntity
  8
0
100
AcDbLine
 62
7
  6
CONTINUOUS
 10
180.5964720044
 20
193.1395481341
 11
180.0326082582
 21
193.1395481341
  0
LINE
  5
253
100
AcDbEntity
  8
0
100
AcDbLine
 62
7
  6
CONTINUOUS
 10
178.1530624375
 20
193.1395481341
 11
177.5891986913
 21
193.1395481341
  0
LINE
  5
254
100
AcDbEntity
  8
KONSTRUKTIONSELEMENTE
100
AcDbLine
 62
7
  6
CONTINUOUS
 10
173.4166317334
 20
196.6395481341
 11
251.4166317334
 21
196.6395481341
  0
LINE
  5
255
100
AcDbEntity
  8
0
100
AcDbLine
 62
7
  6
CONTINUOUS
 10
183.0398815712
 20
192.7565694563
 11
182.7892753423
 21
193.0118885748
  0
LINE
  5
256
100
AcDbEntity
  8
0
100
AcDbLine
 62
7
  6
CONTINUOUS
 10
182.6639724071
 20
192.3735907786
 11
182.8519269892
 21
192.1182716601
  0
LINE
  5
257
100
AcDbEntity
  8
0
100
AcDbLine
 62
7
  6
CONTINUOUS
 10
183.0966346055
 20
192.3735907786
 11
183.2845891876
 21
192.1182716601
  0
LINE
  5
258
100
AcDbEntity
  8
0
100
AcDbLine
 62
7
  6
CONTINUOUS
 10
202.9976436872
 20
361.4547604625
 11
203.3103293543
 21
362.00147847
  0
LINE
  5
259
100
AcDbEntity
  8
0
100
AcDbLine
 62
7
  6
CONTINUOUS
 10
183.9291778873
 20
315.9229523628
 11
184.3666778873
 21
316.5186969726
  0
LINE
  5
25A
100
AcDbEntity
  8
0
100
AcDbLine
 62
7
  6
CONTINUOUS
 10
183.4916778873
 20
316.6676331251
 11
183.2000110816
 21
316.3697608202
  0
LINE
  5
25B
100
AcDbEntity
  8
0
100
AcDbLine
 62
7
  6
CONTINUOUS
 10
183.0541778873
 20
305.5399737148
 11
182.6166778873
 21
305.2421013056
  0
LINE
  5
25C
100
AcDbEntity
  8
0
100
AcDbLine
 62
7
  6
CONTINUOUS
 10
181.1847458668
 20
198.6395481341
 11
180.9127721337
 21
198.6395481341
  0
LINE
  5
25D
100
AcDbEntity
  8
0
100
AcDbLine
 62
7
  6
CONTINUOUS
 10
179.1850686528
 20
198.6395481341
 11
178.7417612957
 21
198.6395481341
  0
LINE
  5
25E
100
AcDbEntity
  8
0
100
AcDbLine
 62
7
  6
CONTINUOUS
 10
181.1847458668
 20
199.2778459862
 11
180.9127721337
 21
199.2778459862
  0
LINE
  5
25F
100
AcDbEntity
  8
0
100
AcDbLine
 62
7
  6
CONTINUOUS
 10
180.8600726209
 20
199.4374204912
 11
180.5908733266
 21
199.4374204912
  0
LINE
  5
260
100
AcDbEntity
  8
0
100
AcDbLine
 62
7
  6
CONTINUOUS
 10
180.6760911922
 20
199.7565693893
 11
180.4084392018
 21
199.7565693893
  0
LINE
  5
261
100
AcDbEntity
  8
0
100
AcDbLine
 62
7
  6
CONTINUOUS
 10
180.6165362352
 20
200.2352928482
 11
180.3493813206
 21
200.2352928482
  0
LINE
  5
262
100
AcDbEntity
  8
0
100
AcDbLine
 62
7
  6
CONTINUOUS
 10
179.5618838753
 20
200.8735906445
 11
178.9293317351
 21
200.8735906445
  0
LINE
  5
263
100
AcDbEntity
  8
0
100
AcDbLine
 62
7
  6
CONTINUOUS
 10
178.7417612957
 20
200.8735906445
 11
178.2580405758
 21
200.8735906445
  0
LINE
  5
264
100
AcDbEntity
  8
0
100
AcDbLine
 62
7
  6
CONTINUOUS
 10
178.2580405758
 20
201.3523139917
 11
178.1666779759
 21
201.3523139917
  0
LINE
  5
265
100
AcDbEntity
  8
0
100
AcDbLine
 62
7
  6
CONTINUOUS
 10
178.7417612957
 20
201.8310375624
 11
178.355740486
 21
201.8310375624
  0
LINE
  5
266
100
AcDbEntity
  8
0
100
AcDbLine
 62
7
  6
CONTINUOUS
 10
178.9293317351
 20
201.8310375624
 11
179.5618838753
 21
201.8310375624
  0
LINE
  5
267
100
AcDbEntity
  8
0
100
AcDbLine
 62
7
  6
CONTINUOUS
 10
178.2809495027
 20
202.1501864605
 11
178.1666779759
 21
202.1501864605
  0
LINE
  5
268
100
AcDbEntity
  8
0
100
AcDbLine
 62
7
  6
CONTINUOUS
 10
178.3165230837
 20
202.6289098077
 11
178.2823499497
 21
202.6289098077
  0
LINE
  5
269
100
AcDbEntity
  8
0
100
AcDbLine
 62
7
  6
CONTINUOUS
 10
181.3210589613
 20
203.1076331549
 11
180.3493813206
 21
203.1076331549
  0
LINE
  5
26A
100
AcDbEntity
  8
0
100
AcDbLine
 62
7
  6
CONTINUOUS
 10
180.0670256481
 20
203.1076331549
 11
179.659045007
 21
203.1076331549
  0
LINE
  5
26B
100
AcDbEntity
  8
0
100
AcDbLine
 62
7
  6
CONTINUOUS
 10
178.3726535922
 20
203.2672076039
 11
178.2469641639
 21
203.2672076039
  0
LINE
  5
26C
100
AcDbEntity
  8
0
100
AcDbLine
 62
7
  6
CONTINUOUS
 10
181.3210589613
 20
203.7459309511
 11
180.3493813206
 21
203.7459309511
  0
LINE
  5
26D
100
AcDbEntity
  8
0
100
AcDbLine
 62
7
  6
CONTINUOUS
 10
180.0670256481
 20
203.7459309511
 11
179.659045007
 21
203.7459309511
  0
LINE
  5
26E
100
AcDbEntity
  8
0
100
AcDbLine
 62
7
  6
CONTINUOUS
 10
178.4166778873
 20
203.7459309511
 11
178.236605549
 21
203.7459309511
  0
LINE
  5
26F
100
AcDbEntity
  8
0
100
AcDbLine
 62
7
  6
CONTINUOUS
 10
178.4166778873
 20
204.3842291944
 11
178.236605549
 21
204.3842291944
  0
LINE
  5
270
100
AcDbEntity
  8
0
100
AcDbLine
 62
7
  6
CONTINUOUS
 10
178.4166778873
 20
204.8629525416
 11
178.2469641639
 21
204.8629525416
  0
LINE
  5
271
100
AcDbEntity
  8
0
100
AcDbLine
 62
7
  6
CONTINUOUS
 10
180.6165362352
 20
205.0225269907
 11
180.0670256481
 21
205.0225269907
  0
LINE
  5
272
100
AcDbEntity
  8
0
100
AcDbLine
 62
7
  6
CONTINUOUS
 10
183.2904878002
 20
192.2459312193
 11
183.0398815712
 21
192.7565694563
  0
LINE
  5
273
100
AcDbEntity
  8
0
100
AcDbLine
 62
7
  6
CONTINUOUS
 10
202.7174133254
 20
362.444761291
 11
202.585788197
 21
362.1125526838
  0
LINE
  5
274
100
AcDbEntity
  8
0
100
AcDbLine
 62
7
  6
CONTINUOUS
 10
183.3458446931
 20
305.9867821722
 11
183.0541778873
 21
305.5399737148
  0
LINE
  5
275
100
AcDbEntity
  8
0
100
AcDbLine
 62
7
  6
CONTINUOUS
 10
183.3458446931
 20
304.6463566436
 11
183.9291778873
 21
305.2421013056
  0
LINE
  5
276
100
AcDbEntity
  8
0
100
AcDbLine
 62
7
  6
CONTINUOUS
 10
183.6375110816
 20
297.5399737148
 11
183.2000110816
 21
297.2421013056
  0
LINE
  5
277
100
AcDbEntity
  8
0
100
AcDbLine
 62
7
  6
CONTINUOUS
 10
182.7625110816
 20
304.3484842996
 11
183.3458446931
 21
304.6463566436
  0
LINE
  5
278
100
AcDbEntity
  8
0
100
AcDbLine
 62
7
  6
CONTINUOUS
 10
178.4166778873
 20
205.5012503378
 11
178.2823499497
 21
205.5012503378
  0
LINE
  5
279
100
AcDbEntity
  8
0
100
AcDbLine
 62
7
  6
CONTINUOUS
 10
178.4166778873
 20
205.979973685
 11
178.3396168095
 21
205.979973685
  0
LINE
  5
27A
100
AcDbEntity
  8
0
100
AcDbLine
 62
7
  6
CONTINUOUS
 10
178.7417612957
 20
206.1395481341
 11
179.1850686528
 21
206.1395481341
  0
LINE
  5
27B
100
AcDbEntity
  8
0
100
AcDbLine
 62
7
  6
CONTINUOUS
 10
179.3264248851
 20
209.6395481341
 11
178.1681035557
 21
209.6395481341
  0
LINE
  5
27C
100
AcDbEntity
  8
0
100
AcDbLine
 62
7
  6
CONTINUOUS
 10
179.5206682404
 20
209.7991225971
 11
179.2623425646
 21
209.7991225971
  0
LINE
  5
27D
100
AcDbEntity
  8
0
100
AcDbLine
 62
7
  6
CONTINUOUS
 10
178.4084642655
 20
209.7991225971
 11
178.1841464064
 21
209.7991225971
  0
LINE
  5
27E
100
AcDbEntity
  8
0
100
AcDbLine
 62
7
  6
CONTINUOUS
 10
179.6903177408
 20
210.1182715372
 11
179.4306634503
 21
210.1182715372
  0
LINE
  5
27F
100
AcDbEntity
  8
0
100
AcDbLine
 62
7
  6
CONTINUOUS
 10
178.4084642655
 20
210.1182715372
 11
178.2098306424
 21
210.1182715372
  0
LINE
  5
280
100
AcDbEntity
  8
0
100
AcDbLine
 62
7
  6
CONTINUOUS
 10
179.0696038965
 20
210.5969949402
 11
178.5336068931
 21
210.5969949402
  0
LINE
  5
281
100
AcDbEntity
  8
0
100
AcDbLine
 62
7
  6
CONTINUOUS
 10
178.1681035557
 20
210.5969949402
 11
178.1666778873
 21
210.5969949402
  0
LINE
  5
282
100
AcDbEntity
  8
0
100
AcDbLine
 62
7
  6
CONTINUOUS
 10
179.8728520878
 20
210.7565693893
 11
179.6117529877
 21
210.7565693893
  0
LINE
  5
283
100
AcDbEntity
  8
0
100
AcDbLine
 62
7
  6
CONTINUOUS
 10
178.4084642655
 20
210.7565693893
 11
178.2469641844
 21
210.7565693893
  0
LINE
  5
284
100
AcDbEntity
  8
0
100
AcDbLine
 62
7
  6
CONTINUOUS
 10
179.9690187123
 20
211.3948672973
 11
179.7071519669
 21
211.3948672973
  0
LINE
  5
285
100
AcDbEntity
  8
0
100
AcDbLine
 62
7
  6
CONTINUOUS
 10
178.4084642655
 20
211.3948672973
 11
178.269835633
 21
211.3948672973
  0
LINE
  5
286
100
AcDbEntity
  8
0
100
AcDbLine
 62
7
  6
CONTINUOUS
 10
180.0183391021
 20
212.1927395426
 11
179.7560769124
 21
212.1927395426
  0
LINE
  5
287
100
AcDbEntity
  8
0
100
AcDbLine
 62
7
  6
CONTINUOUS
 10
178.4084642655
 20
212.1927395426
 11
178.2823499743
 21
212.1927395426
  0
LINE
  5
288
100
AcDbEntity
  8
0
100
AcDbLine
 62
7
  6
CONTINUOUS
 10
182.8519269892
 20
192.1182716601
 11
182.9772299244
 21
191.7352929823
  0
LINE
  5
289
100
AcDbEntity
  8
0
100
AcDbLine
 62
7
  6
CONTINUOUS
 10
183.2845891876
 20
192.1182716601
 11
183.3190874238
 21
192.0128304836
  0
LINE
  5
28A
100
AcDbEntity
  8
KONSTRUKTIONSELEMENTE
100
AcDbLine
 62
7
  6
CONTINUOUS
 10
173.4166317334
 20
183.6395481341
 11
173.4166317334
 21
196.6395481341
  0
LINE
  5
28B
100
AcDbEntity
  8
0
100
AcDbLine
 62
7
  6
CONTINUOUS
 10
183.4916778873
 20
306.582526782
 11
183.3458446931
 21
305.9867821722
  0
LINE
  5
28C
100
AcDbEntity
  8
0
100
AcDbLine
 62
7
  6
CONTINUOUS
 10
197.3997857803
 20
358.6533775781
 11
197.5806311044
 21
359.2566747828
  0
LINE
  5
28D
100
AcDbEntity
  8
0
100
AcDbLine
 62
7
  6
CONTINUOUS
 10
183.6375110816
 20
317.1144415824
 11
183.4916778873
 21
316.6676331251
  0
LINE
  5
28E
100
AcDbEntity
  8
0
100
AcDbLine
 62
7
  6
CONTINUOUS
 10
184.3666778873
 20
316.5186969726
 11
184.5125110816
 21
316.96550543
  0
LINE
  5
28F
100
AcDbEntity
  8
0
100
AcDbLine
 62
7
  6
CONTINUOUS
 10
183.9291778873
 20
305.2421013056
 11
184.2208446931
 21
305.8378460198
  0
LINE
  5
290
100
AcDbEntity
  8
0
100
AcDbLine
 62
7
  6
CONTINUOUS
 10
184.5125110816
 20
297.2421013056
 11
184.8041778873
 21
297.8378460198
  0
LINE
  5
291
100
AcDbEntity
  8
0
100
AcDbLine
 62
7
  6
CONTINUOUS
 10
183.9291778873
 20
297.9867821722
 11
183.6375110816
 21
297.5399737148
  0
LINE
  5
292
100
AcDbEntity
  8
0
100
AcDbLine
 62
7
  6
CONTINUOUS
 10
227.5850757222
 20
362.3617667092
 11
224.2388862089
 21
357.3815040916
  0
LINE
  5
293
100
AcDbEntity
  8
0
100
AcDbLine
 62
7
  6
CONTINUOUS
 10
225.2885921644
 20
357.5990086073
 11
226.3565250101
 21
359.1884541568
  0
LINE
  5
294
100
AcDbEntity
  8
0
100
AcDbLine
 62
7
  6
CONTINUOUS
 10
226.7836980885
 20
359.8242322875
 11
227.780435471
 21
361.3077148894
  0
LINE
  5
295
100
AcDbEntity
  8
0
100
AcDbLine
 62
7
  6
CONTINUOUS
 10
229.9471497647
 20
358.9291288917
 11
229.8047587386
 21
358.7172028482
  0
LINE
  5
296
100
AcDbEntity
  8
0
100
AcDbLine
 62
7
  6
CONTINUOUS
 10
228.5232394036
 20
356.8098683076
 11
228.3096528643
 21
356.4919792422
  0
LINE
  5
297
100
AcDbEntity
  8
0
100
AcDbLine
 62
7
  6
CONTINUOUS
 10
228.8609901785
 20
355.9677425313
 11
229.2169677438
 21
356.4975576402
  0
LINE
  5
298
100
AcDbEntity
  8
0
100
AcDbLine
 62
7
  6
CONTINUOUS
 10
230.3560960527
 20
358.1929661372
 11
230.6408783045
 21
358.6168185212
  0
LINE
  5
299
100
AcDbEntity
  8
0
100
AcDbLine
 62
7
  6
CONTINUOUS
 10
183.9291778873
 20
296.6463566436
 11
184.5125110816
 21
297.2421013056
  0
LINE
  5
29A
100
AcDbEntity
  8
0
100
AcDbLine
 62
7
  6
CONTINUOUS
 10
183.3458446931
 20
296.3484842996
 11
183.9291778873
 21
296.6463566436
  0
LINE
  5
29B
100
AcDbEntity
  8
0
100
AcDbLine
 62
7
  6
CONTINUOUS
 10
180.0183391021
 20
214.5863565021
 11
179.7560769124
 21
214.5863565021
  0
LINE
  5
29C
100
AcDbEntity
  8
0
100
AcDbLine
 62
7
  6
CONTINUOUS
 10
179.9690187123
 20
215.3842291944
 11
179.7071519669
 21
215.3842291944
  0
LINE
  5
29D
100
AcDbEntity
  8
0
100
AcDbLine
 62
7
  6
CONTINUOUS
 10
179.8728520878
 20
216.0225269907
 11
179.6117529877
 21
216.0225269907
  0
LINE
  5
29E
100
AcDbEntity
  8
0
100
AcDbLine
 62
7
  6
CONTINUOUS
 10
179.0696038965
 20
216.1821014397
 11
178.5336068931
 21
216.1821014397
  0
LINE
  5
29F
100
AcDbEntity
  8
0
100
AcDbLine
 62
7
  6
CONTINUOUS
 10
179.6903177408
 20
216.6608247869
 11
179.4306634503
 21
216.6608247869
  0
LINE
  5
2A0
100
AcDbEntity
  8
0
100
AcDbLine
 62
7
  6
CONTINUOUS
 10
179.5206682404
 20
216.979973685
 11
179.2623425646
 21
216.979973685
  0
LINE
  5
2A1
100
AcDbEntity
  8
0
100
AcDbLine
 62
7
  6
CONTINUOUS
 10
179.3264248851
 20
217.1395481341
 11
178.2180394074
 21
217.1395481341
  0
LINE
  5
2A2
100
AcDbEntity
  8
0
100
AcDbLine
 62
7
  6
CONTINUOUS
 10
177.9651078554
 20
191.8629525416
 11
178.8422292085
 21
187.1395481341
  0
LINE
  5
2A3
100
AcDbEntity
  8
0
100
AcDbLine
 62
7
  6
CONTINUOUS
 10
179.1563614957
 20
187.7778460198
 11
179.2748914069
 21
187.1395481341
  0
LINE
  5
2A4
100
AcDbEntity
  8
0
100
AcDbLine
 62
7
  6
CONTINUOUS
 10
179.0928353478
 20
187.7778460198
 11
178.1530624375
 21
193.1395481341
  0
LINE
  5
2A5
100
AcDbEntity
  8
0
100
AcDbLine
 62
7
  6
CONTINUOUS
 10
177.5891986913
 20
193.1395481341
 11
177.5891986913
 21
187.1395481341
  0
LINE
  5
2A6
100
AcDbEntity
  8
0
100
AcDbLine
 62
7
  6
CONTINUOUS
 10
177.9651078554
 20
187.1395481341
 11
177.9651078554
 21
191.8629525416
  0
LINE
  5
2A7
100
AcDbEntity
  8
0
100
AcDbLine
 62
7
  6
CONTINUOUS
 10
178.0218608897
 20
193.1395481341
 11
178.0218608897
 21
191.8629525416
  0
LINE
  5
2A8
100
AcDbEntity
  8
0
100
AcDbLine
 62
7
  6
CONTINUOUS
 10
178.1666778873
 20
210.5969949402
 11
178.1666778873
 21
209.7991225971
  0
LINE
  5
2A9
100
AcDbEntity
  8
0
100
AcDbLine
 62
7
  6
CONTINUOUS
 10
178.1666778873
 20
202.1501864605
 11
178.1666778873
 21
201.3523139917
  0
LINE
  5
2AA
100
AcDbEntity
  8
0
100
AcDbLine
 62
7
  6
CONTINUOUS
 10
178.1894957288
 20
202.1501864605
 11
178.1894957288
 21
201.3523139917
  0
LINE
  5
2AB
100
AcDbEntity
  8
0
100
AcDbLine
 62
7
  6
CONTINUOUS
 10
178.2180394074
 20
217.1395481341
 11
178.2180394074
 21
212.1927395426
  0
LINE
  5
2AC
100
AcDbEntity
  8
0
100
AcDbLine
 62
7
  6
CONTINUOUS
 10
178.236605549
 20
204.3842291944
 11
178.236605549
 21
203.7459309511
  0
LINE
  5
2AD
100
AcDbEntity
  8
0
100
AcDbLine
 62
7
  6
CONTINUOUS
 10
178.2580405758
 20
201.8310375624
 11
178.2580405758
 21
200.8735906445
  0
LINE
  5
2AE
100
AcDbEntity
  8
0
100
AcDbLine
 62
7
  6
CONTINUOUS
 10
178.2823499743
 20
217.1395481341
 11
178.2823499743
 21
212.1927395426
  0
LINE
  5
2AF
100
AcDbEntity
  8
0
100
AcDbLine
 62
7
  6
CONTINUOUS
 10
178.4084642655
 20
217.1395481341
 11
178.4084642655
 21
209.6395481341
  0
LINE
  5
2B0
100
AcDbEntity
  8
0
100
AcDbLine
 62
7
  6
CONTINUOUS
 10
178.4166778873
 20
229.6395481341
 11
178.4166778873
 21
217.1395481341
  0
LINE
  5
2B1
100
AcDbEntity
  8
0
100
AcDbLine
 62
7
  6
CONTINUOUS
 10
178.4166778873
 20
209.6395481341
 11
178.4166778873
 21
203.691009797
  0
LINE
  5
2B2
100
AcDbEntity
  8
0
100
AcDbLine
 62
7
  6
CONTINUOUS
 10
178.4166778873
 20
200.8735906445
 11
178.4166778873
 21
196.6395481341
  0
LINE
  5
2B3
100
AcDbEntity
  8
0
100
AcDbLine
 62
7
  6
CONTINUOUS
 10
178.5336068931
 20
216.1821014397
 11
178.5336068931
 21
210.5969949402
  0
LINE
  5
2B4
100
AcDbEntity
  8
0
100
AcDbLine
 62
7
  6
CONTINUOUS
 10
178.7417612957
 20
204.8629525416
 11
178.7417612957
 21
201.8310375624
  0
LINE
  5
2B5
100
AcDbEntity
  8
0
100
AcDbLine
 62
7
  6
CONTINUOUS
 10
178.7417612957
 20
198.6395481341
 11
178.7417612957
 21
200.8735906445
  0
LINE
  5
2B6
100
AcDbEntity
  8
0
100
AcDbLine
 62
7
  6
CONTINUOUS
 10
178.7863344457
 20
216.1821014397
 11
178.7863344457
 21
210.5969949402
  0
LINE
  5
2B7
100
AcDbEntity
  8
0
100
AcDbLine
 62
7
  6
CONTINUOUS
 10
178.9293317351
 20
206.1395481341
 11
178.9293317351
 21
201.8310375624
  0
LINE
  5
2B8
100
AcDbEntity
  8
0
100
AcDbLine
 62
7
  6
CONTINUOUS
 10
178.9293317351
 20
200.8735906445
 11
178.9293317351
 21
198.6395481341
  0
LINE
  5
2B9
100
AcDbEntity
  8
0
100
AcDbLine
 62
7
  6
CONTINUOUS
 10
179.1166778873
 20
319.1995481341
 11
179.1166778873
 21
312.1995481341
  0
LINE
  5
2BA
100
AcDbEntity
  8
0
100
AcDbLine
 62
7
  6
CONTINUOUS
 10
179.1166778873
 20
311.1995481341
 11
179.1166778873
 21
306.582526782
  0
LINE
  5
2BB
100
AcDbEntity
  8
0
100
AcDbLine
 62
7
  6
CONTINUOUS
 10
179.1166778873
 20
303.1995481341
 11
179.1166778873
 21
296.1995481341
  0
LINE
  5
2BC
100
AcDbEntity
  8
0
100
AcDbLine
 62
7
  6
CONTINUOUS
 10
179.1850686528
 20
206.1395481341
 11
179.1850686528
 21
201.8310375624
  0
LINE
  5
2BD
100
AcDbEntity
  8
0
100
AcDbLine
 62
7
  6
CONTINUOUS
 10
179.1850686528
 20
200.8735906445
 11
179.1850686528
 21
198.6395481341
  0
LINE
  5
2BE
100
AcDbEntity
  8
0
100
AcDbLine
 62
7
  6
CONTINUOUS
 10
179.3032366652
 20
201.8310375624
 11
179.3032366652
 21
200.8735906445
  0
LINE
  5
2BF
100
AcDbEntity
  8
0
100
AcDbLine
 62
7
  6
CONTINUOUS
 10
179.4747306744
 20
214.5863565021
 11
179.4747306744
 21
212.1927395426
  0
LINE
  5
2C0
100
AcDbEntity
  8
0
100
AcDbLine
 62
7
  6
CONTINUOUS
 10
179.5618838753
 20
201.8310375624
 11
179.5618838753
 21
200.8735906445
  0
LINE
  5
2C1
100
AcDbEntity
  8
0
100
AcDbLine
 62
7
  6
CONTINUOUS
 10
179.659045007
 20
203.7459309511
 11
179.659045007
 21
203.1076331549
  0
LINE
  5
2C2
100
AcDbEntity
  8
0
100
AcDbLine
 62
7
  6
CONTINUOUS
 10
179.7560769124
 20
214.5863565021
 11
179.7560769124
 21
212.1927395426
  0
LINE
  5
2C3
100
AcDbEntity
  8
0
100
AcDbLine
 62
7
  6
CONTINUOUS
 10
179.9916778873
 20
297.0931651532
 11
179.9916778873
 21
302.3059312193
  0
LINE
  5
2C4
100
AcDbEntity
  8
0
100
AcDbLine
 62
7
  6
CONTINUOUS
 10
179.9916778873
 20
306.582526782
 11
179.9916778873
 21
311.1995481341
  0
LINE
  5
2C5
100
AcDbEntity
  8
0
100
AcDbLine
 62
7
  6
CONTINUOUS
 10
179.9916778873
 20
312.1995481341
 11
179.9916778873
 21
315.3272077529
  0
LINE
  5
2C6
100
AcDbEntity
  8
0
100
AcDbLine
 62
7
  6
CONTINUOUS
 10
179.9916778873
 20
316.2208246677
 11
179.9916778873
 21
318.4548673718
  0
LINE
  5
2C7
100
AcDbEntity
  8
0
100
AcDbLine
 62
7
  6
CONTINUOUS
 10
180.0183391021
 20
214.5863565021
 11
180.0183391021
 21
212.1927395426
  0
LINE
  5
2C8
100
AcDbEntity
  8
0
100
AcDbLine
 62
7
  6
CONTINUOUS
 10
180.0670256481
 20
205.0225269907
 11
180.0670256481
 21
203.7459309511
  0
LINE
  5
2C9
100
AcDbEntity
  8
0
100
AcDbLine
 62
7
  6
CONTINUOUS
 10
180.0670256481
 20
203.1076331549
 11
180.0670256481
 21
199.9161438384
  0
LINE
  5
2CA
100
AcDbEntity
  8
0
100
AcDbLine
 62
7
  6
CONTINUOUS
 10
180.2205628402
 20
191.8629525416
 11
180.2205628402
 21
187.1395481341
  0
LINE
  5
2CB
100
AcDbEntity
  8
0
100
AcDbLine
 62
7
  6
CONTINUOUS
 10
180.3493813206
 20
205.0225269907
 11
180.3493813206
 21
203.7459309511
  0
LINE
  5
2CC
100
AcDbEntity
  8
0
100
AcDbLine
 62
7
  6
CONTINUOUS
 10
180.3493813206
 20
203.1076331549
 11
180.3493813206
 21
200.2352928482
  0
LINE
  5
2CD
100
AcDbEntity
  8
0
100
AcDbLine
 62
7
  6
CONTINUOUS
 10
180.5964720044
 20
187.1395481341
 11
180.5964720044
 21
193.1395481341
  0
LINE
  5
2CE
100
AcDbEntity
  8
0
100
AcDbLine
 62
7
  6
CONTINUOUS
 10
180.6165362352
 20
205.0225269907
 11
180.6165362352
 21
203.7459309511
  0
LINE
  5
2CF
100
AcDbEntity
  8
0
100
AcDbLine
 62
7
  6
CONTINUOUS
 10
180.6165362352
 20
203.1076331549
 11
180.6165362352
 21
200.2352928482
  0
LINE
  5
2D0
100
AcDbEntity
  8
0
100
AcDbLine
 62
7
  6
CONTINUOUS
 10
180.9127721337
 20
199.2778459862
 11
180.9127721337
 21
198.6395481341
  0
LINE
  5
2D1
100
AcDbEntity
  8
0
100
AcDbLine
 62
7
  6
CONTINUOUS
 10
181.0479033433
 20
203.7459309511
 11
181.0479033433
 21
203.1076331549
  0
LINE
  5
2D2
100
AcDbEntity
  8
0
100
AcDbLine
 62
7
  6
CONTINUOUS
 10
181.0976841037
 20
187.7778460198
 11
181.0976841037
 21
187.1395481341
  0
LINE
  5
2D3
100
AcDbEntity
  8
0
100
AcDbLine
 62
7
  6
CONTINUOUS
 10
181.1847458668
 20
199.2778459862
 11
181.1847458668
 21
198.6395481341
  0
LINE
  5
2D4
100
AcDbEntity
  8
0
100
AcDbLine
 62
7
  6
CONTINUOUS
 10
181.3210589613
 20
203.7459309511
 11
181.3210589613
 21
203.1076331549
  0
LINE
  5
2D5
100
AcDbEntity
  8
0
100
AcDbLine
 62
7
  6
CONTINUOUS
 10
181.5303463021
 20
187.7778460198
 11
181.5303463021
 21
187.1395481341
  0
LINE
  5
2D6
100
AcDbEntity
  8
0
100
AcDbLine
 62
7
  6
CONTINUOUS
 10
184.2208446931
 20
305.8378460198
 11
184.3666778873
 21
306.582526782
  0
LINE
  5
2D7
100
AcDbEntity
  8
0
100
AcDbLine
 62
7
  6
CONTINUOUS
 10
184.8041778873
 20
297.8378460198
 11
184.9500110816
 21
298.582526782
  0
LINE
  5
2D8
100
AcDbEntity
  8
0
100
AcDbLine
 62
7
  6
CONTINUOUS
 10
203.3103293543
 20
362.00147847
 11
203.4583326258
 21
362.6174910029
  0
LINE
  5
2D9
100
AcDbEntity
  8
0
100
AcDbLine
 62
7
  6
CONTINUOUS
 10
184.0750110816
 20
298.582526782
 11
183.9291778873
 21
297.9867821722
  0
LINE
  5
2DA
100
AcDbEntity
  8
0
100
AcDbLine
 62
7
  6
CONTINUOUS
 10
222.8623638158
 20
361.0408731023
 11
222.59914773
 21
360.4593736637
  0
LINE
  5
2DB
100
AcDbEntity
  8
0
100
AcDbLine
 62
7
  6
CONTINUOUS
 10
183.3531390885
 20
191.7352929823
 11
183.2904878002
 21
192.2459312193
  0
LINE
  5
2DC
100
AcDbEntity
  8
0
100
AcDbLine
 62
7
  6
CONTINUOUS
 10
182.9772299244
 20
191.7352929823
 11
182.9772299244
 21
191.4799735062
  0
LINE
  5
2DD
100
AcDbEntity
  8
0
100
AcDbLine
 62
7
  6
CONTINUOUS
 10
183.3531390885
 20
187.1395481341
 11
183.3531390885
 21
187.7778460198
  0
LINE
  5
2DE
100
AcDbEntity
  8
0
100
AcDbLine
 62
7
  6
CONTINUOUS
 10
183.3531390885
 20
191.4799735062
 11
183.3531390885
 21
191.7352929823
  0
LINE
  5
2DF
100
AcDbEntity
  8
0
100
AcDbLine
 62
7
  6
CONTINUOUS
 10
183.4916778873
 20
311.1995481341
 11
183.4916778873
 21
306.582526782
  0
LINE
  5
2E0
100
AcDbEntity
  8
0
100
AcDbLine
 62
7
  6
CONTINUOUS
 10
183.6375110816
 20
317.5612504571
 11
183.6375110816
 21
317.1144415824
  0
LINE
  5
2E1
100
AcDbEntity
  8
0
100
AcDbLine
 62
7
  6
CONTINUOUS
 10
183.8543511879
 20
189.6927396767
 11
183.8543511879
 21
188.9267821424
  0
LINE
  5
2E2
100
AcDbEntity
  8
0
100
AcDbLine
 62
7
  6
CONTINUOUS
 10
184.0750110816
 20
300.8165692775
 11
184.0750110816
 21
298.582526782
  0
LINE
  5
2E3
100
AcDbEntity
  8
0
100
AcDbLine
 62
7
  6
CONTINUOUS
 10
184.2870133863
 20
189.6927396767
 11
184.2870133863
 21
188.9267821424
  0
LINE
  5
2E4
100
AcDbEntity
  8
0
100
AcDbLine
 62
7
  6
CONTINUOUS
 10
184.3666778873
 20
306.582526782
 11
184.3666778873
 21
311.1995481341
  0
LINE
  5
2E5
100
AcDbEntity
  8
0
100
AcDbLine
 62
7
  6
CONTINUOUS
 10
184.5125110816
 20
316.96550543
 11
184.5125110816
 21
317.5612504571
  0
LINE
  5
2E6
100
AcDbEntity
  8
0
100
AcDbLine
 62
7
  6
CONTINUOUS
 10
184.9500110816
 20
298.582526782
 11
184.9500110816
 21
300.8165692775
  0
LINE
  5
2E7
100
AcDbEntity
  8
0
100
AcDbLine
 62
7
  6
CONTINUOUS
 10
185.3579878444
 20
192.1182716601
 11
185.3579878444
 21
189.6927396767
  0
LINE
  5
2E8
100
AcDbEntity
  8
0
100
AcDbLine
 62
7
  6
CONTINUOUS
 10
185.3579878444
 20
188.9267821424
 11
185.3579878444
 21
187.1395481341
  0
LINE
  5
2E9
100
AcDbEntity
  8
0
100
AcDbLine
 62
7
  6
CONTINUOUS
 10
185.7338970085
 20
187.1395481341
 11
185.7338970085
 21
188.9267821424
  0
LINE
  5
2EA
100
AcDbEntity
  8
0
100
AcDbLine
 62
7
  6
CONTINUOUS
 10
185.7338970085
 20
189.6927396767
 11
185.7338970085
 21
193.1395481341
  0
LINE
  5
2EB
100
AcDbEntity
  8
0
100
AcDbLine
 62
7
  6
CONTINUOUS
 10
186.3604127601
 20
188.9267821424
 11
186.3604127601
 21
189.6927396767
  0
LINE
  5
2EC
100
AcDbEntity
  8
0
100
AcDbLine
 62
7
  6
CONTINUOUS
 10
181.2229873974
 20
192.2459312193
 11
181.1603357506
 21
191.7352929823
  0
LINE
  5
2ED
100
AcDbEntity
  8
0
100
AcDbLine
 62
7
  6
CONTINUOUS
 10
196.902778863
 20
359.5542742041
 11
196.849750413
 21
359.2008963676
  0
LINE
  5
2EE
100
AcDbEntity
  8
0
100
AcDbLine
 62
7
  6
CONTINUOUS
 10
219.0448004915
 20
363.6297199811
 11
218.9013824194
 21
363.1396356356
  0
LINE
  5
2EF
100
AcDbEntity
  8
0
100
AcDbLine
 62
7
  6
CONTINUOUS
 10
224.1934268387
 20
359.7377222247
 11
224.4566429245
 21
360.3192216634
  0
LINE
  5
2F0
100
AcDbEntity
  8
RUNDUNGEN
100
AcDbLine
 62
7
  6
CONTINUOUS
 10
243.4166778873
 20
232.6395481341
 11
232.4166731211
 21
232.6395481341
  0
LINE
  5
2F1
100
AcDbEntity
  8
RUNDUNGEN
100
AcDbLine
 62
7
  6
CONTINUOUS
 10
192.416677999
 20
232.6395481341
 11
181.4166778873
 21
232.6395481341
  0
LINE
  5
2F2
100
AcDbEntity
  8
0
100
AcDbLine
 62
7
  6
CONTINUOUS
 10
179.1166778873
 20
306.582526782
 11
179.262511225
 21
305.8378460198
  0
LINE
  5
2F3
100
AcDbEntity
  8
KONSTRUKTIONSELEMENTE
100
AcDbLine
 62
7
  6
CONTINUOUS
 10
190.8440162556
 20
183.6395481341
 11
190.8440162556
 21
196.6395481341
  0
LINE
  5
2F4
100
AcDbEntity
  8
KONSTRUKTIONSELEMENTE
100
AcDbLine
 62
7
  6
CONTINUOUS
 10
195.030796447
 20
183.6395481341
 11
195.030796447
 21
196.6395481341
  0
LINE
  5
2F5
100
AcDbEntity
  8
RUNDUNGEN
100
AcDbLine
 62
7
  6
CONTINUOUS
 10
197.4166778873
 20
266.6395481341
 11
197.4166778873
 21
237.6396322861
  0
LINE
  5
2F6
100
AcDbEntity
  8
0
100
AcDbLine
 62
7
  6
CONTINUOUS
 10
197.5806311044
 20
359.2566747828
 11
197.5853849206
 21
359.8901996918
  0
LINE
  5
2F7
100
AcDbEntity
  8
0
100
AcDbLine
 62
7
  6
CONTINUOUS
 10
181.6556495958
 20
192.2459312193
 11
181.6482047274
 21
192.1852522961
  0
LINE
  5
2F8
100
AcDbEntity
  8
0
100
AcDbLine
 62
7
  6
CONTINUOUS
 10
183.2904878002
 20
190.9693352692
 11
183.3531390885
 21
191.4799735062
  0
LINE
  5
2F9
100
AcDbEntity
  8
0
100
AcDbLine
 62
7
  6
CONTINUOUS
 10
180.0326082582
 20
193.1395481341
 11
179.0928353478
 21
187.7778460198
  0
LINE
  5
2FA
100
AcDbEntity
  8
0
100
AcDbLine
 62
7
  6
CONTINUOUS
 10
180.4652704565
 20
193.1395481341
 11
180.2408905334
 21
191.859389603
  0
LINE
  5
2FB
100
AcDbEntity
  8
0
100
AcDbLine
 62
7
  6
CONTINUOUS
 10
179.3434413975
 20
187.1395481341
 11
180.2205628402
 21
191.8629525416
  0
LINE
  5
2FC
100
AcDbEntity
  8
0
100
AcDbLine
 62
7
  6
CONTINUOUS
 10
220.2913844452
 20
364.3290288585
 11
220.0045482006
 21
363.3488598243
  0
LINE
  5
2FD
100
AcDbEntity
  8
0
100
AcDbLine
 62
7
  6
CONTINUOUS
 10
219.8611301285
 20
362.8587754788
 11
219.1440396927
 21
360.408353494
  0
LINE
  5
2FE
100
AcDbEntity
  8
0
100
AcDbLine
 62
7
  6
CONTINUOUS
 10
219.8155934746
 20
360.4778574514
 11
220.4609748492
 21
362.6832371777
  0
LINE
  5
2FF
100
AcDbEntity
  8
0
100
AcDbLine
 62
7
  6
CONTINUOUS
 10
220.6043929213
 20
363.1733215232
 11
220.8912291659
 21
364.1534905574
  0
LINE
  5
300
100
AcDbEntity
  8
0
100
AcDbLine
 62
7
  6
CONTINUOUS
 10
220.5367654465
 20
358.9366784384
 11
220.6801835312
 21
359.4267628268
  0
LINE
  5
301
100
AcDbEntity
  8
0
100
AcDbLine
 62
7
  6
CONTINUOUS
 10
221.7806282924
 20
362.2970543617
 11
221.9240463645
 21
362.7871387071
  0
LINE
  5
302
100
AcDbEntity
  8
0
100
AcDbLine
 62
7
  6
CONTINUOUS
 10
227.4166778873
 20
242.4895481341
 11
227.9166778873
 21
242.4895481341
  0
LINE
  5
303
100
AcDbEntity
  8
0
100
AcDbLine
 62
7
  6
CONTINUOUS
 10
227.4166778873
 20
243.1145481341
 11
227.9166778873
 21
243.1145481341
  0
LINE
  5
304
100
AcDbEntity
  8
0
100
AcDbLine
 62
7
  6
CONTINUOUS
 10
227.4166778873
 20
244.5728814178
 11
227.9166778873
 21
244.5728814178
  0
LINE
  5
305
100
AcDbEntity
  8
0
100
AcDbLine
 62
7
  6
CONTINUOUS
 10
180.1375111859
 20
305.9867821722
 11
179.9916778873
 21
306.582526782
  0
LINE
  5
306
100
AcDbEntity
  8
0
100
AcDbLine
 62
7
  6
CONTINUOUS
 10
183.9291778873
 20
301.4123138874
 11
184.0750110816
 21
300.8165692775
  0
LINE
  5
307
100
AcDbEntity
  8
0
100
AcDbLine
 62
7
  6
CONTINUOUS
 10
184.9500110816
 20
300.8165692775
 11
184.8041778873
 21
301.5612504571
  0
LINE
  5
308
100
AcDbEntity
  8
0
100
AcDbLine
 62
7
  6
CONTINUOUS
 10
200.4166778873
 20
183.6395481341
 11
200.4166778873
 21
149.6395481341
  0
LINE
  5
309
100
AcDbEntity
  8
0
100
AcDbLine
 62
7
  6
CONTINUOUS
 10
212.1460982531
 20
362.9460757739
 11
212.0835368893
 21
362.1826774374
  0
LINE
  5
30A
100
AcDbEntity
  8
0
100
AcDbLine
 62
7
  6
CONTINUOUS
 10
182.9772299244
 20
191.4799735062
 11
182.8519269892
 21
190.9693352692
  0
LINE
  5
30B
100
AcDbEntity
  8
0
100
AcDbLine
 62
7
  6
CONTINUOUS
 10
228.6330697797
 20
357.1974703348
 11
228.5232394036
 21
356.8098683076
  0
LINE
  5
30C
100
AcDbEntity
  8
0
100
AcDbLine
 62
7
  6
CONTINUOUS
 10
229.2169677438
 20
356.4975576402
 11
229.32679812
 21
356.8851596674
  0
LINE
  5
30D
100
AcDbEntity
  8
0
100
AcDbLine
 62
7
  6
CONTINUOUS
 10
230.0569802406
 20
359.3167310673
 11
229.9471497647
 21
358.9291288917
  0
LINE
  5
30E
100
AcDbEntity
  8
0
100
AcDbLine
 62
7
  6
CONTINUOUS
 10
230.6408783045
 20
358.6168185212
 11
230.7507085809
 21
359.0044204
  0
LINE
  5
30F
100
AcDbEntity
  8
0
100
AcDbLine
 62
7
  6
CONTINUOUS
 10
181.4735932678
 20
191.7352929823
 11
181.5988965615
 21
192.1182716601
  0
LINE
  5
310
100
AcDbEntity
  8
0
100
AcDbLine
 62
7
  6
CONTINUOUS
 10
227.4166778873
 20
246.0312147014
 11
227.9166778873
 21
246.0312147014
  0
LINE
  5
311
100
AcDbEntity
  8
0
100
AcDbLine
 62
7
  6
CONTINUOUS
 10
227.4166778873
 20
246.6562147014
 11
227.9166778873
 21
246.6562147014
  0
LINE
  5
312
100
AcDbEntity
  8
0
100
AcDbLine
 62
7
  6
CONTINUOUS
 10
227.4166778873
 20
247.4895481341
 11
227.9166778873
 21
247.4895481341
  0
LINE
  5
313
100
AcDbEntity
  8
0
100
AcDbLine
 62
7
  6
CONTINUOUS
 10
227.4166778873
 20
248.1145481341
 11
227.9166778873
 21
248.1145481341
  0
LINE
  5
314
100
AcDbEntity
  8
0
100
AcDbLine
 62
7
  6
CONTINUOUS
 10
227.4166778873
 20
248.9478812687
 11
227.9166778873
 21
248.9478812687
  0
LINE
  5
315
100
AcDbEntity
  8
0
100
AcDbLine
 62
7
  6
CONTINUOUS
 10
227.4166778873
 20
251.4478812687
 11
227.9166778873
 21
251.4478812687
  0
LINE
  5
316
100
AcDbEntity
  8
0
100
AcDbLine
 62
7
  6
CONTINUOUS
 10
227.4166778873
 20
251.9687149994
 11
227.9166778873
 21
251.9687149994
  0
LINE
  5
317
100
AcDbEntity
  8
0
100
AcDbLine
 62
7
  6
CONTINUOUS
 10
227.4166778873
 20
252.3853812687
 11
227.9166778873
 21
252.3853812687
  0
LINE
  5
318
100
AcDbEntity
  8
0
100
AcDbLine
 62
7
  6
CONTINUOUS
 10
227.4166778873
 20
252.6978818648
 11
227.9166778873
 21
252.6978818648
  0
LINE
  5
319
100
AcDbEntity
  8
0
100
AcDbLine
 62
7
  6
CONTINUOUS
 10
179.262511225
 20
305.8378460198
 11
179.5541778873
 21
305.2421013056
  0
LINE
  5
31A
100
AcDbEntity
  8
0
100
AcDbLine
 62
7
  6
CONTINUOUS
 10
184.6583446931
 20
312.1995481341
 11
183.3458446931
 21
315.6250800579
  0
LINE
  5
31B
100
AcDbEntity
  8
0
100
AcDbLine
 62
7
  6
CONTINUOUS
 10
182.4708444844
 20
315.3272077529
 11
183.6375110816
 21
312.1995481341
  0
LINE
  5
31C
100
AcDbEntity
  8
0
100
AcDbLine
 62
7
  6
CONTINUOUS
 10
183.4916778873
 20
318.0080589144
 11
183.6375110816
 21
317.5612504571
  0
LINE
  5
31D
100
AcDbEntity
  8
0
100
AcDbLine
 62
7
  6
CONTINUOUS
 10
184.5125110816
 20
317.5612504571
 11
184.3666778873
 21
318.0080589144
  0
LINE
  5
31E
100
AcDbEntity
  8
0
100
AcDbLine
 62
7
  6
CONTINUOUS
 10
202.6843567177
 20
362.8462647005
 11
202.7174133254
 21
362.444761291
  0
LINE
  5
31F
100
AcDbEntity
  8
0
100
AcDbLine
 62
7
  6
CONTINUOUS
 10
203.4583326258
 20
362.6174910029
 11
203.4252760181
 21
363.0189944124
  0
LINE
  5
320
100
AcDbEntity
  8
0
100
AcDbLine
 62
7
  6
CONTINUOUS
 10
215.3341856978
 20
365.1184716511
 11
215.1360747294
 21
362.7010437936
  0
LINE
  5
321
100
AcDbEntity
  8
0
100
AcDbLine
 62
7
  6
CONTINUOUS
 10
215.0735133655
 20
361.9376454571
 11
214.9275368694
 21
360.1563829096
  0
LINE
  5
322
100
AcDbEntity
  8
0
100
AcDbLine
 62
7
  6
CONTINUOUS
 10
215.6750309885
 20
360.0951249145
 11
215.8210074846
 21
361.876387462
  0
LINE
  5
323
100
AcDbEntity
  8
0
100
AcDbLine
 62
7
  6
CONTINUOUS
 10
215.8835688484
 20
362.6397857985
 11
216.1650949491
 21
366.0750778671
  0
LINE
  5
324
100
AcDbEntity
  8
0
100
AcDbLine
 62
7
  6
CONTINUOUS
 10
217.0668305411
 20
361.7742908425
 11
217.129391905
 21
362.537689179
  0
LINE
  5
325
100
AcDbEntity
  8
0
100
AcDbLine
 62
7
  6
CONTINUOUS
 10
183.1651845064
 20
190.5863565915
 11
183.2904878002
 21
190.9693352692
  0
LINE
  5
326
100
AcDbEntity
  8
0
100
AcDbLine
 62
7
  6
CONTINUOUS
 10
227.4166778873
 20
252.8020481341
 11
227.9166778873
 21
252.8020481341
  0
LINE
  5
327
100
AcDbEntity
  8
0
100
AcDbLine
 62
7
  6
CONTINUOUS
 10
227.4166778873
 20
258.6353818648
 11
227.9166778873
 21
258.6353818648
  0
LINE
  5
328
100
AcDbEntity
  8
0
100
AcDbLine
 62
7
  6
CONTINUOUS
 10
227.4166778873
 20
259.2603818648
 11
227.9166778873
 21
259.2603818648
  0
LINE
  5
329
100
AcDbEntity
  8
0
100
AcDbLine
 62
7
  6
CONTINUOUS
 10
227.4166778873
 20
259.8853818648
 11
227.9166778873
 21
259.8853818648
  0
LINE
  5
32A
100
AcDbEntity
  8
0
100
AcDbLine
 62
7
  6
CONTINUOUS
 10
180.4291778873
 20
305.5399737148
 11
180.1375111859
 21
305.9867821722
  0
LINE
  5
32B
100
AcDbEntity
  8
0
100
AcDbLine
 62
7
  6
CONTINUOUS
 10
183.6375110816
 20
301.859122762
 11
183.9291778873
 21
301.4123138874
  0
LINE
  5
32C
100
AcDbEntity
  8
0
100
AcDbLine
 62
7
  6
CONTINUOUS
 10
184.8041778873
 20
301.5612504571
 11
184.5125110816
 21
302.1569950669
  0
LINE
  5
32D
100
AcDbEntity
  8
0
100
AcDbLine
 62
7
  6
CONTINUOUS
 10
185.3579878444
 20
193.1395481341
 11
183.8543511879
 21
189.6927396767
  0
LINE
  5
32E
100
AcDbEntity
  8
0
100
AcDbLine
 62
7
  6
CONTINUOUS
 10
185.7338970085
 20
193.0094523177
 11
184.2870133863
 21
189.6927396767
  0
LINE
  5
32F
100
AcDbEntity
  8
0
100
AcDbLine
 62
7
  6
CONTINUOUS
 10
184.2929123573
 20
189.6927396767
 11
185.3579878444
 21
192.1182716601
  0
LINE
  5
330
100
AcDbEntity
  8
0
100
AcDbLine
 62
7
  6
CONTINUOUS
 10
181.4735932678
 20
192.7565694563
 11
181.2229873974
 21
192.2459312193
  0
LINE
  5
331
100
AcDbEntity
  8
0
100
AcDbLine
 62
7
  6
CONTINUOUS
 10
181.9062554662
 20
192.7565694563
 11
181.6556495958
 21
192.2459312193
  0
LINE
  5
332
100
AcDbEntity
  8
0
100
AcDbLine
 62
7
  6
CONTINUOUS
 10
182.8519269892
 20
190.9693352692
 11
181.0976841037
 21
187.7778460198
  0
LINE
  5
333
100
AcDbEntity
  8
0
100
AcDbLine
 62
7
  6
CONTINUOUS
 10
183.2845891876
 20
190.9693352692
 11
181.5303463021
 21
187.7778460198
  0
LINE
  5
334
100
AcDbEntity
  8
0
100
AcDbLine
 62
7
  6
CONTINUOUS
 10
181.5988965615
 20
187.7778460198
 11
183.1651845064
 21
190.5863565915
  0
LINE
  5
335
100
AcDbEntity
  8
0
100
AcDbLine
 62
7
  6
CONTINUOUS
 10
227.4166778873
 20
260.7187144034
 11
227.9166778873
 21
260.7187144034
  0
LINE
  5
336
100
AcDbEntity
  8
0
100
AcDbLine
 62
7
  6
CONTINUOUS
 10
227.4166778873
 20
260.8228818648
 11
227.9166778873
 21
260.8228818648
  0
LINE
  5
337
100
AcDbEntity
  8
0
100
AcDbLine
 62
7
  6
CONTINUOUS
 10
227.4166778873
 20
260.9270481341
 11
227.9166778873
 21
260.9270481341
  0
LINE
  5
338
100
AcDbEntity
  8
0
100
AcDbLine
 62
7
  6
CONTINUOUS
 10
227.4166778873
 20
261.1353818648
 11
227.9166778873
 21
261.1353818648
  0
LINE
  5
339
100
AcDbEntity
  8
0
100
AcDbLine
 62
7
  6
CONTINUOUS
 10
227.4166778873
 20
261.4478818648
 11
227.9166778873
 21
261.4478818648
  0
LINE
  5
33A
100
AcDbEntity
  8
0
100
AcDbLine
 62
7
  6
CONTINUOUS
 10
227.4166778873
 20
261.9687144034
 11
227.9166778873
 21
261.9687144034
  0
LINE
  5
33B
100
AcDbEntity
  8
0
100
AcDbLine
 62
7
  6
CONTINUOUS
 10
227.4166778873
 20
262.5937155955
 11
227.9166778873
 21
262.5937155955
  0
LINE
  5
33C
100
AcDbEntity
  8
0
100
AcDbLine
 62
7
  6
CONTINUOUS
 10
227.4166778873
 20
263.2187155955
 11
227.9166778873
 21
263.2187155955
  0
LINE
  5
33D
100
AcDbEntity
  8
0
100
AcDbLine
 62
7
  6
CONTINUOUS
 10
227.4166778873
 20
263.7395481341
 11
227.9166778873
 21
263.7395481341
  0
LINE
  5
33E
100
AcDbEntity
  8
0
100
AcDbLine
 62
7
  6
CONTINUOUS
 10
227.4166778873
 20
264.0520481341
 11
227.9166778873
 21
264.0520481341
  0
LINE
  5
33F
100
AcDbEntity
  8
0
100
AcDbLine
 62
7
  6
CONTINUOUS
 10
227.4166778873
 20
264.2603806727
 11
227.9166778873
 21
264.2603806727
  0
LINE
  5
340
100
AcDbEntity
  8
0
100
AcDbLine
 62
7
  6
CONTINUOUS
 10
227.4166778873
 20
264.3645481341
 11
227.9166778873
 21
264.3645481341
  0
LINE
  5
341
100
AcDbEntity
  8
0
100
AcDbLine
 62
7
  6
CONTINUOUS
 10
227.4166778873
 20
264.4687155955
 11
227.9166778873
 21
264.4687155955
  0
LINE
  5
342
100
AcDbEntity
  8
0
100
AcDbLine
 62
7
  6
CONTINUOUS
 10
179.5541778873
 20
305.2421013056
 11
180.1375111859
 21
304.6463566436
  0
LINE
  5
343
100
AcDbEntity
  8
0
100
AcDbLine
 62
7
  6
CONTINUOUS
 10
219.8279966429
 20
360.0751870891
 11
219.8155934746
 21
360.4778574514
  0
LINE
  5
344
100
AcDbEntity
  8
0
100
AcDbLine
 62
7
  6
CONTINUOUS
 10
224.4166778873
 20
183.6395481341
 11
224.4166778873
 21
149.6395481341
  0
LINE
  5
345
100
AcDbEntity
  8
RUNDUNGEN
100
AcDbLine
 62
7
  6
CONTINUOUS
 10
227.4166778873
 20
237.6395481341
 11
227.4166778873
 21
266.6395481341
  0
LINE
  5
346
100
AcDbEntity
  8
0
100
AcDbLine
 62
7
  6
CONTINUOUS
 10
227.9166778873
 20
264.4687155955
 11
227.9166778873
 21
260.7187144034
  0
LINE
  5
347
100
AcDbEntity
  8
0
100
AcDbLine
 62
7
  6
CONTINUOUS
 10
227.9166778873
 20
259.8853818648
 11
227.9166778873
 21
258.6353818648
  0
LINE
  5
348
100
AcDbEntity
  8
0
100
AcDbLine
 62
7
  6
CONTINUOUS
 10
227.9166778873
 20
252.8020481341
 11
227.9166778873
 21
248.9478812687
  0
LINE
  5
349
100
AcDbEntity
  8
0
100
AcDbLine
 62
7
  6
CONTINUOUS
 10
227.9166778873
 20
248.1145481341
 11
227.9166778873
 21
247.4895481341
  0
LINE
  5
34A
100
AcDbEntity
  8
0
100
AcDbLine
 62
7
  6
CONTINUOUS
 10
227.9166778873
 20
246.6562147014
 11
227.9166778873
 21
242.4895481341
  0
LINE
  5
34B
100
AcDbEntity
  8
0
100
AcDbLine
 62
7
  6
CONTINUOUS
 10
181.5988965615
 20
192.1182716601
 11
181.7868511436
 21
192.3735907786
  0
LINE
  5
34C
100
AcDbEntity
  8
0
100
AcDbLine
 62
7
  6
CONTINUOUS
 10
184.5125110816
 20
302.1569950669
 11
183.9291778873
 21
302.7527396767
  0
LINE
  5
34D
100
AcDbEntity
  8
0
100
AcDbLine
 62
7
  6
CONTINUOUS
 10
184.3666778873
 20
318.0080589144
 11
183.9291778873
 21
318.6038035243
  0
LINE
  5
34E
100
AcDbEntity
  8
0
100
AcDbLine
 62
7
  6
CONTINUOUS
 10
196.7797155153
 20
359.9378795355
 11
196.902778863
 21
359.5542742041
  0
LINE
  5
34F
100
AcDbEntity
  8
0
100
AcDbLine
 62
7
  6
CONTINUOUS
 10
197.5853849206
 20
359.8901996918
 11
197.4623215728
 21
360.2738050232
  0
LINE
  5
350
100
AcDbEntity
  8
0
100
AcDbLine
 62
7
  6
CONTINUOUS
 10
229.32679812
 20
356.8851596674
 11
229.3003137587
 21
357.5181485991
  0
LINE
  5
351
100
AcDbEntity
  8
0
100
AcDbLine
 62
7
  6
CONTINUOUS
 10
230.7507085809
 20
359.0044204
 11
230.7242242196
 21
359.6374093317
  0
LINE
  5
352
100
AcDbEntity
  8
KONSTRUKTIONSELEMENTE
100
AcDbLine
 62
7
  6
CONTINUOUS
 10
229.8025593277
 20
183.6395481341
 11
229.8025593277
 21
196.6395481341
  0
LINE
  5
353
100
AcDbEntity
  8
KONSTRUKTIONSELEMENTE
100
AcDbLine
 62
7
  6
CONTINUOUS
 10
233.989339519
 20
183.6395481341
 11
233.989339519
 21
196.6395481341
  0
LINE
  5
354
100
AcDbEntity
  8
0
100
AcDbLine
 62
7
  6
CONTINUOUS
 10
181.7241994968
 20
193.0118885748
 11
181.4735932678
 21
192.7565694563
  0
LINE
  5
355
100
AcDbEntity
  8
0
100
AcDbLine
 62
7
  6
CONTINUOUS
 10
183.2000110816
 20
302.1569950669
 11
183.6375110816
 21
301.859122762
  0
LINE
  5
356
100
AcDbEntity
  8
0
100
AcDbLine
 62
7
  6
CONTINUOUS
 10
180.8666778873
 20
305.2421013056
 11
180.4291778873
 21
305.5399737148
  0
LINE
  5
357
100
AcDbEntity
  8
0
100
AcDbLine
 62
7
  6
CONTINUOUS
 10
183.2000110816
 20
318.3059312193
 11
183.4916778873
 21
318.0080589144
  0
LINE
  5
358
100
AcDbEntity
  8
0
100
AcDbLine
 62
7
  6
CONTINUOUS
 10
219.1440396927
 20
360.408353494
 11
219.2405605947
 21
359.8480534638
  0
LINE
  5
359
100
AcDbEntity
  8
0
100
AcDbLine
 62
7
  6
CONTINUOUS
 10
182.1568616952
 20
193.0118885748
 11
181.9062554662
 21
192.7565694563
  0
LINE
  5
35A
100
AcDbEntity
  8
KONSTRUKTIONSELEMENTE
100
AcDbLine
 62
7
  6
CONTINUOUS
 10
176.493456429
 20
290.6395481341
 11
189.0426437225
 21
290.6395481341
  0
LINE
  5
35B
100
AcDbEntity
  8
KONSTRUKTIONSELEMENTE
100
AcDbLine
 62
7
  6
CONTINUOUS
 10
235.7907120521
 20
290.6395481341
 11
248.3398993456
 21
290.6395481341
  0
LINE
  5
35C
100
AcDbEntity
  8
0
100
AcDbLine
 62
7
  6
CONTINUOUS
 10
180.1375111859
 20
304.6463566436
 11
180.7208445887
 21
304.3484842996
  0
LINE
  5
35D
100
AcDbEntity
  8
0
100
AcDbLine
 62
7
  6
CONTINUOUS
 10
183.9291778873
 20
302.7527396767
 11
183.3458446931
 21
303.0506119816
  0
LINE
  5
35E
100
AcDbEntity
  8
0
100
AcDbLine
 62
7
  6
CONTINUOUS
 10
183.9291778873
 20
318.6038035243
 11
183.3458446931
 21
319.0506119816
  0
LINE
  5
35F
100
AcDbEntity
  8
0
100
AcDbLine
 62
7
  6
CONTINUOUS
 10
198.4195996751
 20
362.9935068663
 11
200.7430332406
 21
357.4616304698
  0
LINE
  5
360
100
AcDbEntity
  8
0
100
AcDbLine
 62
7
  6
CONTINUOUS
 10
201.4345177902
 20
357.7520596654
 11
200.3963878845
 21
360.2237491543
  0
LINE
  5
361
100
AcDbEntity
  8
0
100
AcDbLine
 62
7
  6
CONTINUOUS
 10
200.0997793796
 20
360.9299460569
 11
199.3582579788
 21
362.6954386431
  0
LINE
  5
362
100
AcDbEntity
  8
0
100
AcDbLine
 62
7
  6
CONTINUOUS
 10
202.5360523267
 20
363.1993634816
 11
202.6843567177
 21
362.8462647005
  0
LINE
  5
363
100
AcDbEntity
  8
0
100
AcDbLine
 62
7
  6
CONTINUOUS
 10
203.4252760181
 20
363.0189944124
 11
203.2275368763
 21
363.4897926772
  0
LINE
  5
364
100
AcDbEntity
  8
0
100
AcDbLine
 62
7
  6
CONTINUOUS
 10
246.4166778873
 20
229.6395481341
 11
246.4166778873
 21
196.6395481341
  0
LINE
  5
365
100
AcDbEntity
  8
KONSTRUKTIONSELEMENTE
100
AcDbLine
 62
7
  6
CONTINUOUS
 10
251.4166317334
 20
183.6395481341
 11
251.4166317334
 21
196.6395481341
  0
LINE
  5
366
100
AcDbEntity
  8
0
100
AcDbLine
 62
7
  6
CONTINUOUS
 10
179.1166778873
 20
296.1995481341
 11
182.6166778873
 21
296.1995481341
  0
LINE
  5
367
100
AcDbEntity
  8
0
100
AcDbLine
 62
7
  6
CONTINUOUS
 10
182.6166778873
 20
297.0931651532
 11
179.9916778873
 21
297.0931651532
  0
LINE
  5
368
100
AcDbEntity
  8
0
100
AcDbLine
 62
7
  6
CONTINUOUS
 10
183.3458446931
 20
303.0506119816
 11
182.6166778873
 21
303.1995481341
  0
LINE
  5
369
100
AcDbEntity
  8
0
100
AcDbLine
 62
7
  6
CONTINUOUS
 10
180.7208445887
 20
304.3484842996
 11
181.4500112902
 21
304.1995481341
  0
LINE
  5
36A
100
AcDbEntity
  8
0
100
AcDbLine
 62
7
  6
CONTINUOUS
 10
182.6166778873
 20
302.3059312193
 11
183.2000110816
 21
302.1569950669
  0
LINE
  5
36B
100
AcDbEntity
  8
0
100
AcDbLine
 62
7
  6
CONTINUOUS
 10
181.4500112902
 20
305.0931651532
 11
180.8666778873
 21
305.2421013056
  0
LINE
  5
36C
100
AcDbEntity
  8
0
100
AcDbLine
 62
7
  6
CONTINUOUS
 10
228.567950655
 20
357.5488204095
 11
228.6330697797
 21
357.1974703348
  0
LINE
  5
36D
100
AcDbEntity
  8
0
100
AcDbLine
 62
7
  6
CONTINUOUS
 10
229.9918611159
 20
359.6680811421
 11
230.0569802406
 21
359.3167310673
  0
LINE
  5
36E
100
AcDbEntity
  8
0
100
AcDbLine
 62
7
  6
CONTINUOUS
 10
183.2000110816
 20
297.2421013056
 11
182.6166778873
 21
297.0931651532
  0
LINE
  5
36F
100
AcDbEntity
  8
0
100
AcDbLine
 62
7
  6
CONTINUOUS
 10
182.6166778873
 20
296.1995481341
 11
183.3458446931
 21
296.3484842996
  0
LINE
  5
370
100
AcDbEntity
  8
0
100
AcDbLine
 62
7
  6
CONTINUOUS
 10
179.9916778873
 20
302.3059312193
 11
182.6166778873
 21
302.3059312193
  0
LINE
  5
371
100
AcDbEntity
  8
0
100
AcDbLine
 62
7
  6
CONTINUOUS
 10
182.6166778873
 20
303.1995481341
 11
179.1166778873
 21
303.1995481341
  0
LINE
  5
372
100
AcDbEntity
  8
0
100
AcDbLine
 62
7
  6
CONTINUOUS
 10
181.4500112902
 20
304.1995481341
 11
182.0333444844
 21
304.1995481341
  0
LINE
  5
373
100
AcDbEntity
  8
0
100
AcDbLine
 62
7
  6
CONTINUOUS
 10
182.0333444844
 20
305.0931651532
 11
181.4500112902
 21
305.0931651532
  0
LINE
  5
374
100
AcDbEntity
  8
0
100
AcDbLine
 62
7
  6
CONTINUOUS
 10
182.7625110816
 20
318.4548673718
 11
183.2000110816
 21
318.3059312193
  0
LINE
  5
375
100
AcDbEntity
  8
0
100
AcDbLine
 62
7
  6
CONTINUOUS
 10
192.5922837988
 20
359.1161461628
 11
196.1073537715
 21
354.2536074136
  0
LINE
  5
376
100
AcDbEntity
  8
0
100
AcDbLine
 62
7
  6
CONTINUOUS
 10
196.7151711152
 20
354.6929911602
 11
195.1446079136
 21
356.8656148874
  0
LINE
  5
377
100
AcDbEntity
  8
0
100
AcDbLine
 62
7
  6
CONTINUOUS
 10
194.6958756302
 20
357.486364441
 11
193.574044712
 21
359.0382386147
  0
LINE
  5
378
100
AcDbEntity
  8
0
100
AcDbLine
 62
7
  6
CONTINUOUS
 10
196.555349164
 20
360.2482546021
 11
196.7797155153
 21
359.9378795355
  0
LINE
  5
379
100
AcDbEntity
  8
0
100
AcDbLine
 62
7
  6
CONTINUOUS
 10
197.4623215728
 20
360.2738050232
 11
197.1631665077
 21
360.6876383487
  0
LINE
  5
37A
100
AcDbEntity
  8
0
100
AcDbLine
 62
7
  6
CONTINUOUS
 10
181.7868511436
 20
192.3735907786
 11
182.1001086609
 21
192.5012503378
  0
LINE
  5
37B
100
AcDbEntity
  8
0
100
AcDbLine
 62
7
  6
CONTINUOUS
 10
182.1627603077
 20
193.1395481341
 11
181.7241994968
 21
193.0118885748
  0
LINE
  5
37C
100
AcDbEntity
  8
0
100
AcDbLine
 62
7
  6
CONTINUOUS
 10
182.4973921634
 20
193.1110127291
 11
182.1568616952
 21
193.0118885748
  0
LINE
  5
37D
100
AcDbEntity
  8
0
100
AcDbLine
 62
7
  6
CONTINUOUS
 10
182.6166778873
 20
305.2421013056
 11
182.0333444844
 21
305.0931651532
  0
LINE
  5
37E
100
AcDbEntity
  8
0
100
AcDbLine
 62
7
  6
CONTINUOUS
 10
182.0333444844
 20
304.1995481341
 11
182.7625110816
 21
304.3484842996
  0
LINE
  5
37F
100
AcDbEntity
  8
0
100
AcDbLine
 62
7
  6
CONTINUOUS
 10
184.3666778873
 20
311.1995481341
 11
183.4916778873
 21
311.1995481341
  0
LINE
  5
380
100
AcDbEntity
  8
0
100
AcDbLine
 62
7
  6
CONTINUOUS
 10
179.9916778873
 20
311.1995481341
 11
179.1166778873
 21
311.1995481341
  0
LINE
  5
381
100
AcDbEntity
  8
0
100
AcDbLine
 62
7
  6
CONTINUOUS
 10
179.1166778873
 20
312.1995481341
 11
179.9916778873
 21
312.1995481341
  0
LINE
  5
382
100
AcDbEntity
  8
0
100
AcDbLine
 62
7
  6
CONTINUOUS
 10
183.6375110816
 20
312.1995481341
 11
184.6583446931
 21
312.1995481341
  0
LINE
  5
383
100
AcDbEntity
  8
0
100
AcDbLine
 62
7
  6
CONTINUOUS
 10
179.9916778873
 20
315.3272077529
 11
182.4708444844
 21
315.3272077529
  0
LINE
  5
384
100
AcDbEntity
  8
0
100
AcDbLine
 62
7
  6
CONTINUOUS
 10
183.3458446931
 20
319.0506119816
 11
182.6166778873
 21
319.1995481341
  0
LINE
  5
385
100
AcDbEntity
  8
0
100
AcDbLine
 62
7
  6
CONTINUOUS
 10
230.7242242196
 20
359.6374093317
 11
230.5227880824
 21
360.234148055
  0
LINE
  5
386
100
AcDbEntity
  8
0
100
AcDbLine
 62
7
  6
CONTINUOUS
 10
182.7625110816
 20
316.2208246677
 11
179.9916778873
 21
316.2208246677
  0
LINE
  5
387
100
AcDbEntity
  8
0
100
AcDbLine
 62
7
  6
CONTINUOUS
 10
179.9916778873
 20
318.4548673718
 11
182.7625110816
 21
318.4548673718
  0
LINE
  5
388
100
AcDbEntity
  8
0
100
AcDbLine
 62
7
  6
CONTINUOUS
 10
182.6166778873
 20
319.1995481341
 11
179.1166778873
 21
319.1995481341
  0
LINE
  5
389
100
AcDbEntity
  8
0
100
AcDbLine
 62
7
  6
CONTINUOUS
 10
202.2725004295
 20
363.5040569746
 11
202.5360523267
 21
363.1993634816
  0
LINE
  5
38A
100
AcDbEntity
  8
0
100
AcDbLine
 62
7
  6
CONTINUOUS
 10
203.2275368763
 20
363.4897926772
 11
202.9639849791
 21
363.7944861703
  0
LINE
  5
38B
100
AcDbEntity
  8
0
100
AcDbLine
 62
7
  6
CONTINUOUS
 10
229.3003137587
 20
357.5181485991
 11
229.1639991209
 21
357.7635356521
  0
LINE
  5
38C
100
AcDbEntity
  8
KONSTRUKTIONSELEMENTE
100
AcDbLine
 62
7
  6
CONTINUOUS
 10
176.493456429
 20
325.6395481341
 11
189.0426437225
 21
325.6395481341
  0
LINE
  5
38D
100
AcDbEntity
  8
KONSTRUKTIONSELEMENTE
100
AcDbLine
 62
7
  6
CONTINUOUS
 10
235.7907120521
 20
325.6395481341
 11
248.3398993456
 21
325.6395481341
  0
LINE
  5
38E
100
AcDbEntity
  8
0
100
AcDbLine
 62
7
  6
CONTINUOUS
 10
196.2296802283
 20
360.4853988243
 11
196.555349164
 21
360.2482546021
  0
LINE
  5
38F
100
AcDbEntity
  8
0
100
AcDbLine
 62
7
  6
CONTINUOUS
 10
219.2405605947
 20
359.8480534638
 11
219.5287572865
 21
359.4976886103
  0
LINE
  5
390
100
AcDbEntity
  8
0
100
AcDbLine
 62
7
  6
CONTINUOUS
 10
220.116193341
 20
359.7248222572
 11
219.8279966429
 21
360.0751870891
  0
LINE
  5
391
100
AcDbEntity
  8
0
100
AcDbLine
 62
7
  6
CONTINUOUS
 10
228.3278797545
 20
357.8639202759
 11
228.567950655
 21
357.5488204095
  0
LINE
  5
392
100
AcDbEntity
  8
0
100
AcDbLine
 62
7
  6
CONTINUOUS
 10
197.1631665077
 20
360.6876383487
 11
196.837497572
 21
360.9247825709
  0
LINE
  5
393
100
AcDbEntity
  8
0
100
AcDbLine
 62
7
  6
CONTINUOUS
 10
229.7517902154
 20
359.9831810085
 11
229.9918611159
 21
359.6680811421
  0
LINE
  5
394
100
AcDbEntity
  8
FASEN
100
AcDbLine
 62
7
  6
CONTINUOUS
 10
222.4166778873
 20
147.6395481341
 11
224.4166778873
 21
149.6395481341
  0
LINE
  5
395
100
AcDbEntity
  8
0
100
AcDbLine
 62
7
  6
CONTINUOUS
 10
202.9639849791
 20
363.7944861703
 11
202.420503701
 21
364.1200695075
  0
LINE
  5
396
100
AcDbEntity
  8
0
100
AcDbLine
 62
7
  6
CONTINUOUS
 10
224.2388862089
 20
357.3815040916
 11
226.7290175177
 21
355.7084093349
  0
LINE
  5
397
100
AcDbEntity
  8
0
100
AcDbLine
 62
7
  6
CONTINUOUS
 10
219.5287572865
 20
359.4976886103
 11
219.8528084994
 21
359.269844854
  0
LINE
  5
398
100
AcDbEntity
  8
0
100
AcDbLine
 62
7
  6
CONTINUOUS
 10
230.5227880824
 20
360.234148055
 11
230.075207031
 21
360.6886719526
  0
LINE
  5
399
100
AcDbEntity
  8
0
100
AcDbLine
 62
7
  6
CONTINUOUS
 10
227.9923100623
 20
356.2438029903
 11
227.6424088355
 21
356.1713009037
  0
LINE
  5
39A
100
AcDbEntity
  8
0
100
AcDbLine
 62
7
  6
CONTINUOUS
 10
229.4874159366
 20
358.4690265962
 11
229.1375147596
 21
358.3965245838
  0
LINE
  5
39B
100
AcDbEntity
  8
0
100
AcDbLine
 62
7
  6
CONTINUOUS
 10
227.3189896015
 20
355.4658114902
 11
227.9475988358
 21
355.5048509254
  0
LINE
  5
39C
100
AcDbEntity
  8
0
100
AcDbLine
 62
7
  6
CONTINUOUS
 10
196.837497572
 20
360.9247825709
 11
196.2344340445
 21
361.1189237333
  0
LINE
  5
39D
100
AcDbEntity
  8
0
100
AcDbLine
 62
7
  6
CONTINUOUS
 10
226.7290175177
 20
355.7084093349
 11
227.3189896015
 21
355.4658114902
  0
LINE
  5
39E
100
AcDbEntity
  8
0
100
AcDbLine
 62
7
  6
CONTINUOUS
 10
201.9431362979
 20
363.6426463026
 11
202.2725004295
 21
363.5040569746
  0
LINE
  5
39F
100
AcDbEntity
  8
0
100
AcDbLine
 62
7
  6
CONTINUOUS
 10
219.8528084994
 20
359.269844854
 11
220.5367654465
 21
358.9366784384
  0
LINE
  5
3A0
100
AcDbEntity
  8
0
100
AcDbLine
 62
7
  6
CONTINUOUS
 10
220.6801835312
 20
359.4267628268
 11
220.116193341
 21
359.7248222572
  0
LINE
  5
3A1
100
AcDbEntity
  8
0
100
AcDbLine
 62
7
  6
CONTINUOUS
 10
227.2599469088
 20
356.2744747265
 11
225.2885921644
 21
357.5990086073
  0
LINE
  5
3A2
100
AcDbEntity
  8
0
100
AcDbLine
 62
7
  6
CONTINUOUS
 10
226.3565250101
 20
359.1884541568
 11
228.3278797545
 21
357.8639202759
  0
LINE
  5
3A3
100
AcDbEntity
  8
0
100
AcDbLine
 62
7
  6
CONTINUOUS
 10
228.7550528329
 20
358.4996984066
 11
226.7836980885
 21
359.8242322875
  0
LINE
  5
3A4
100
AcDbEntity
  8
0
100
AcDbLine
 62
7
  6
CONTINUOUS
 10
227.780435471
 20
361.3077148894
 11
229.7517902154
 21
359.9831810085
  0
LINE
  5
3A5
100
AcDbEntity
  8
0
100
AcDbLine
 62
7
  6
CONTINUOUS
 10
230.075207031
 20
360.6886719526
 11
227.5850757222
 21
362.3617667092
  0
LINE
  5
3A6
100
AcDbEntity
  8
0
100
AcDbLine
 62
7
  6
CONTINUOUS
 10
196.2344340445
 20
361.1189237333
 11
195.604856437
 21
361.1363760822
  0
LINE
  5
3A7
100
AcDbEntity
  8
0
100
AcDbLine
 62
7
  6
CONTINUOUS
 10
214.9275368694
 20
360.1563829096
 11
215.6750309885
 21
360.0951249145
  0
LINE
  5
3A8
100
AcDbEntity
  8
0
100
AcDbLine
 62
7
  6
CONTINUOUS
 10
212.0835368893
 20
362.1826774374
 11
215.0735133655
 21
361.9376454571
  0
LINE
  5
3A9
100
AcDbEntity
  8
0
100
AcDbLine
 62
7
  6
CONTINUOUS
 10
215.8210074846
 20
361.876387462
 11
217.0668305411
 21
361.7742908425
  0
LINE
  5
3AA
100
AcDbEntity
  8
0
100
AcDbLine
 62
7
  6
CONTINUOUS
 10
217.129391905
 20
362.537689179
 11
215.8835688484
 21
362.6397857985
  0
LINE
  5
3AB
100
AcDbEntity
  8
0
100
AcDbLine
 62
7
  6
CONTINUOUS
 10
215.1360747294
 20
362.7010437936
 11
213.0181742501
 21
362.8746081519
  0
LINE
  5
3AC
100
AcDbEntity
  8
0
100
AcDbLine
 62
7
  6
CONTINUOUS
 10
229.1639991209
 20
357.7635356521
 11
229.4427047848
 21
357.7300746427
  0
LINE
  5
3AD
100
AcDbEntity
  8
0
100
AcDbLine
 62
7
  6
CONTINUOUS
 10
195.8774969227
 20
360.5458540234
 11
196.2296802283
 21
360.4853988243
  0
LINE
  5
3AE
100
AcDbEntity
  8
0
100
AcDbLine
 62
7
  6
CONTINUOUS
 10
202.420503701
 20
364.1200695075
 11
201.8112095291
 21
364.2795484027
  0
LINE
  5
3AF
100
AcDbEntity
  8
0
100
AcDbLine
 62
7
  6
CONTINUOUS
 10
227.6424088355
 20
356.1713009037
 11
227.2599469088
 21
356.2744747265
  0
LINE
  5
3B0
100
AcDbEntity
  8
0
100
AcDbLine
 62
7
  6
CONTINUOUS
 10
229.1375147596
 20
358.3965245838
 11
228.7550528329
 21
358.4996984066
  0
LINE
  5
3B1
100
AcDbEntity
  8
0
100
AcDbLine
 62
7
  6
CONTINUOUS
 10
218.9013824194
 20
363.1396356356
 11
219.8611301285
 21
362.8587754788
  0
LINE
  5
3B2
100
AcDbEntity
  8
0
100
AcDbLine
 62
7
  6
CONTINUOUS
 10
220.4609748492
 20
362.6832371777
 11
221.7806282924
 21
362.2970543617
  0
LINE
  5
3B3
100
AcDbEntity
  8
0
100
AcDbLine
 62
7
  6
CONTINUOUS
 10
221.9240463645
 20
362.7871387071
 11
220.6043929213
 21
363.1733215232
  0
LINE
  5
3B4
100
AcDbEntity
  8
0
100
AcDbLine
 62
7
  6
CONTINUOUS
 10
220.0045482006
 20
363.3488598243
 11
219.0448004915
 21
363.6297199811
  0
LINE
  5
3B5
100
AcDbEntity
  8
0
100
AcDbLine
 62
7
  6
CONTINUOUS
 10
220.8912291659
 20
364.1534905574
 11
220.2913844452
 21
364.3290288585
  0
LINE
  5
3B6
100
AcDbEntity
  8
0
100
AcDbLine
 62
7
  6
CONTINUOUS
 10
222.59914773
 20
360.4593736637
 11
224.1934268387
 21
359.7377222247
  0
LINE
  5
3B7
100
AcDbEntity
  8
0
100
AcDbLine
 62
7
  6
CONTINUOUS
 10
224.4566429245
 20
360.3192216634
 11
222.8623638158
 21
361.0408731023
  0
LINE
  5
3B8
100
AcDbEntity
  8
0
100
AcDbLine
 62
7
  6
CONTINUOUS
 10
201.8112095291
 20
364.2795484027
 11
201.1855378734
 21
364.155223649
  0
LINE
  5
3B9
100
AcDbEntity
  8
0
100
AcDbLine
 62
7
  6
CONTINUOUS
 10
201.5479592723
 20
363.6151311885
 11
201.9431362979
 21
363.6426463026
  0
LINE
  5
3BA
100
AcDbEntity
  8
0
100
AcDbLine
 62
7
  6
CONTINUOUS
 10
216.1650949491
 20
366.0750778671
 11
215.4176008301
 21
366.1363358621
  0
LINE
  5
3BB
100
AcDbEntity
  8
FASEN
100
AcDbLine
 62
7
  6
CONTINUOUS
 10
338.1364576442
 20
147.6395481341
 11
318.1364576442
 21
147.6395481341
  0
LINE
  5
3BC
100
AcDbEntity
  8
FASEN
100
AcDbLine
 62
7
  6
CONTINUOUS
 10
340.1364576442
 20
149.6395481341
 11
316.1364576442
 21
149.6395481341
  0
LINE
  5
3BD
100
AcDbEntity
  8
FASEN
100
AcDbLine
 62
7
  6
CONTINUOUS
 10
318.1364576447
 20
147.6395481336
 11
316.1364576447
 21
149.6395481335
  0
LINE
  5
3BE
100
AcDbEntity
  8
0
100
AcDbLine
 62
7
  6
CONTINUOUS
 10
345.0858921068
 20
192.3735907786
 11
345.6267196485
 21
192.5012503378
  0
LINE
  5
3BF
100
AcDbEntity
  8
KONSTRUKTIONSELEMENTE
100
AcDbLine
 62
7
  6
CONTINUOUS
 10
293.1361365933
 20
183.6395481341
 11
363.1361365933
 21
183.6395481341
  0
LINE
  5
3C0
100
AcDbEntity
  8
0
100
AcDbLine
 62
7
  6
CONTINUOUS
 10
299.7771923529
 20
185.1395481341
 11
321.4100708734
 21
185.1395481341
  0
LINE
  5
3C1
100
AcDbEntity
  8
0
100
AcDbLine
 62
7
  6
CONTINUOUS
 10
337.8388000774
 20
187.1395481341
 11
338.487793375
 21
187.1395481341
  0
LINE
  5
3C2
100
AcDbEntity
  8
0
100
AcDbLine
 62
7
  6
CONTINUOUS
 10
340.0021110178
 20
187.1395481341
 11
340.867435363
 21
187.1395481341
  0
LINE
  5
3C3
100
AcDbEntity
  8
0
100
AcDbLine
 62
7
  6
CONTINUOUS
 10
342.3817531606
 20
187.1395481341
 11
343.0307464582
 21
187.1395481341
  0
LINE
  5
3C4
100
AcDbEntity
  8
0
100
AcDbLine
 62
7
  6
CONTINUOUS
 10
343.8960706486
 20
187.1395481341
 11
347.7900304342
 21
187.1395481341
  0
LINE
  5
3C5
100
AcDbEntity
  8
0
100
AcDbLine
 62
7
  6
CONTINUOUS
 10
351.251327815
 20
187.1395481341
 11
351.9003211126
 21
187.1395481341
  0
LINE
  5
3C6
100
AcDbEntity
  8
0
100
AcDbLine
 62
7
  6
CONTINUOUS
 10
317.3251284956
 20
187.3395481341
 11
316.823900297
 21
187.3395481341
  0
LINE
  5
3C7
100
AcDbEntity
  8
0
100
AcDbLine
 62
7
  6
CONTINUOUS
 10
303.9307049876
 20
187.3395481341
 11
305.1241853813
 21
187.3395481341
  0
LINE
  5
3C8
100
AcDbEntity
  8
0
100
AcDbLine
 62
7
  6
CONTINUOUS
 10
307.305433913
 20
187.3395481341
 11
308.4989145543
 21
187.3395481341
  0
LINE
  5
3C9
100
AcDbEntity
  8
0
100
AcDbLine
 62
7
  6
CONTINUOUS
 10
309.382190251
 20
187.3395481341
 11
310.5756708923
 21
187.3395481341
  0
LINE
  5
3CA
100
AcDbEntity
  8
0
100
AcDbLine
 62
7
  6
CONTINUOUS
 10
312.3242618948
 20
187.3395481341
 11
313.3446791779
 21
187.3395481341
  0
LINE
  5
3CB
100
AcDbEntity
  8
0
100
AcDbLine
 62
7
  6
CONTINUOUS
 10
317.8443175801
 20
187.4416757904
 11
317.3430893815
 21
187.4416757904
  0
LINE
  5
3CC
100
AcDbEntity
  8
0
100
AcDbLine
 62
7
  6
CONTINUOUS
 10
305.5568429105
 20
187.4416757904
 11
305.0556147119
 21
187.4416757904
  0
LINE
  5
3CD
100
AcDbEntity
  8
0
100
AcDbLine
 62
7
  6
CONTINUOUS
 10
305.9029688843
 20
187.6459311121
 11
305.4017406857
 21
187.6459311121
  0
LINE
  5
3CE
100
AcDbEntity
  8
0
100
AcDbLine
 62
7
  6
CONTINUOUS
 10
318.2769754806
 20
187.7480587595
 11
317.775747282
 21
187.7480587595
  0
LINE
  5
3CF
100
AcDbEntity
  8
0
100
AcDbLine
 62
7
  6
CONTINUOUS
 10
347.7900304342
 20
187.7778460198
 11
344.5107893486
 21
187.7778460198
  0
LINE
  5
3D0
100
AcDbEntity
  8
0
100
AcDbLine
 62
7
  6
CONTINUOUS
 10
340.4347732678
 20
187.7778460198
 11
340.1841671584
 21
187.7778460198
  0
LINE
  5
3D1
100
AcDbEntity
  8
0
100
AcDbLine
 62
7
  6
CONTINUOUS
 10
316.8924715853
 20
187.95231409
 11
316.3912433868
 21
187.95231409
  0
LINE
  5
3D2
100
AcDbEntity
  8
0
100
AcDbLine
 62
7
  6
CONTINUOUS
 10
304.6229571828
 20
187.95231409
 11
303.9307049876
 21
187.95231409
  0
LINE
  5
3D3
100
AcDbEntity
  8
0
100
AcDbLine
 62
7
  6
CONTINUOUS
 10
318.5365700228
 20
188.0544417374
 11
318.0353418242
 21
188.0544417374
  0
LINE
  5
3D4
100
AcDbEntity
  8
0
100
AcDbLine
 62
7
  6
CONTINUOUS
 10
306.2490951057
 20
188.0544417374
 11
305.7478669071
 21
188.0544417374
  0
LINE
  5
3D5
100
AcDbEntity
  8
0
100
AcDbLine
 62
7
  6
CONTINUOUS
 10
304.0858071505
 20
188.0544417374
 11
303.5845789519
 21
188.0544417374
  0
LINE
  5
3D6
100
AcDbEntity
  8
0
100
AcDbLine
 62
7
  6
CONTINUOUS
 10
316.6328770431
 20
188.1565693848
 11
316.1316488445
 21
188.1565693848
  0
LINE
  5
3D7
100
AcDbEntity
  8
0
100
AcDbLine
 62
7
  6
CONTINUOUS
 10
303.8262126082
 20
188.3608247511
 11
303.3249844096
 21
188.3608247511
  0
LINE
  5
3D8
100
AcDbEntity
  8
0
100
AcDbLine
 62
7
  6
CONTINUOUS
 10
318.7096333811
 20
188.4629523985
 11
318.2084051825
 21
188.4629523985
  0
LINE
  5
3D9
100
AcDbEntity
  8
0
100
AcDbLine
 62
7
  6
CONTINUOUS
 10
306.4221579688
 20
188.4629523985
 11
305.9209297702
 21
188.4629523985
  0
LINE
  5
3DA
100
AcDbEntity
  8
0
100
AcDbLine
 62
7
  6
CONTINUOUS
 10
303.7396811148
 20
188.6672076933
 11
302.7192638317
 21
188.6672076933
  0
LINE
  5
3DB
100
AcDbEntity
  8
0
100
AcDbLine
 62
7
  6
CONTINUOUS
 10
318.7961645651
 20
188.7693353407
 11
318.2949363665
 21
188.7693353407
  0
LINE
  5
3DC
100
AcDbEntity
  8
0
100
AcDbLine
 62
7
  6
CONTINUOUS
 10
316.2867503266
 20
188.7693353407
 11
315.785522128
 21
188.7693353407
  0
LINE
  5
3DD
100
AcDbEntity
  8
0
100
AcDbLine
 62
7
  6
CONTINUOUS
 10
348.6553546247
 20
188.9267821424
 11
351.251327815
 21
188.9267821424
  0
LINE
  5
3DE
100
AcDbEntity
  8
0
100
AcDbLine
 62
7
  6
CONTINUOUS
 10
351.6497150032
 20
188.9267821424
 11
352.9819774338
 21
188.9267821424
  0
LINE
  5
3DF
100
AcDbEntity
  8
0
100
AcDbLine
 62
7
  6
CONTINUOUS
 10
306.4221579688
 20
188.9735906355
 11
305.9209297702
 21
188.9735906355
  0
LINE
  5
3E0
100
AcDbEntity
  8
0
100
AcDbLine
 62
7
  6
CONTINUOUS
 10
318.8826957491
 20
189.2799737208
 11
318.3814675505
 21
189.2799737208
  0
LINE
  5
3E1
100
AcDbEntity
  8
0
100
AcDbLine
 62
7
  6
CONTINUOUS
 10
316.2002191426
 20
189.3821013682
 11
315.698990944
 21
189.3821013682
  0
LINE
  5
3E2
100
AcDbEntity
  8
0
100
AcDbLine
 62
7
  6
CONTINUOUS
 10
306.2490951057
 20
189.3821013682
 11
305.7478669071
 21
189.3821013682
  0
LINE
  5
3E3
100
AcDbEntity
  8
0
100
AcDbLine
 62
7
  6
CONTINUOUS
 10
304.1037680983
 20
189.4842290156
 11
304.6229571828
 21
189.4842290156
  0
LINE
  5
3E4
100
AcDbEntity
  8
0
100
AcDbLine
 62
7
  6
CONTINUOUS
 10
352.9819774338
 20
189.6927396767
 11
351.6497150032
 21
189.6927396767
  0
LINE
  5
3E5
100
AcDbEntity
  8
0
100
AcDbLine
 62
7
  6
CONTINUOUS
 10
351.251327815
 20
189.6927396767
 11
349.1619081877
 21
189.6927396767
  0
LINE
  5
3E6
100
AcDbEntity
  8
0
100
AcDbLine
 62
7
  6
CONTINUOUS
 10
305.9029688843
 20
189.7906119578
 11
305.4017406857
 21
189.7906119578
  0
LINE
  5
3E7
100
AcDbEntity
  8
0
100
AcDbLine
 62
7
  6
CONTINUOUS
 10
305.5568429105
 20
189.9948672526
 11
305.0556147119
 21
189.9948672526
  0
LINE
  5
3E8
100
AcDbEntity
  8
0
100
AcDbLine
 62
7
  6
CONTINUOUS
 10
316.2002191426
 20
190.0969949
 11
315.698990944
 21
190.0969949
  0
LINE
  5
3E9
100
AcDbEntity
  8
0
100
AcDbLine
 62
7
  6
CONTINUOUS
 10
305.1241853813
 20
190.0969949
 11
304.1037680983
 21
190.0969949
  0
LINE
  5
3EA
100
AcDbEntity
  8
0
100
AcDbLine
 62
7
  6
CONTINUOUS
 10
318.8826957491
 20
190.1991225474
 11
318.3814675505
 21
190.1991225474
  0
LINE
  5
3EB
100
AcDbEntity
  8
0
100
AcDbLine
 62
7
  6
CONTINUOUS
 10
304.3454017546
 20
190.1991225474
 11
303.844173556
 21
190.1991225474
  0
LINE
  5
3EC
100
AcDbEntity
  8
0
100
AcDbLine
 62
7
  6
CONTINUOUS
 10
316.3047112125
 20
187.4416757904
 11
316.823900297
 21
187.3395481341
  0
LINE
  5
3ED
100
AcDbEntity
  8
0
100
AcDbLine
 62
7
  6
CONTINUOUS
 10
303.4980474584
 20
187.4416757904
 11
303.9307049876
 21
187.3395481341
  0
LINE
  5
3EE
100
AcDbEntity
  8
0
100
AcDbLine
 62
7
  6
CONTINUOUS
 10
305.0556147119
 20
189.9948672526
 11
304.6229571828
 21
190.0969949
  0
LINE
  5
3EF
100
AcDbEntity
  8
0
100
AcDbLine
 62
7
  6
CONTINUOUS
 10
305.5568429105
 20
189.9948672526
 11
305.1241853813
 21
190.0969949
  0
LINE
  5
3F0
100
AcDbEntity
  8
0
100
AcDbLine
 62
7
  6
CONTINUOUS
 10
316.823900297
 20
187.8501864426
 11
316.3912433868
 21
187.95231409
  0
LINE
  5
3F1
100
AcDbEntity
  8
0
100
AcDbLine
 62
7
  6
CONTINUOUS
 10
317.0745146831
 20
187.9093432444
 11
316.8924715853
 21
187.95231409
  0
LINE
  5
3F2
100
AcDbEntity
  8
0
100
AcDbLine
 62
7
  6
CONTINUOUS
 10
304.9690832803
 20
192.0374204867
 11
304.5364256274
 21
192.1395481341
  0
LINE
  5
3F3
100
AcDbEntity
  8
0
100
AcDbLine
 62
7
  6
CONTINUOUS
 10
305.4703114789
 20
192.0374204867
 11
305.037653826
 21
192.1395481341
  0
LINE
  5
3F4
100
AcDbEntity
  8
0
100
AcDbLine
 62
7
  6
CONTINUOUS
 10
303.9307049876
 20
187.95231409
 11
303.5845789519
 21
188.0544417374
  0
LINE
  5
3F5
100
AcDbEntity
  8
0
100
AcDbLine
 62
7
  6
CONTINUOUS
 10
304.4319331862
 20
187.95231409
 11
304.0858071505
 21
188.0544417374
  0
LINE
  5
3F6
100
AcDbEntity
  8
0
100
AcDbLine
 62
7
  6
CONTINUOUS
 10
303.7576420007
 20
189.586356663
 11
304.1037680983
 21
189.4842290156
  0
LINE
  5
3F7
100
AcDbEntity
  8
0
100
AcDbLine
 62
7
  6
CONTINUOUS
 10
304.6229571828
 20
189.4842290156
 11
304.9690832803
 21
189.3821013682
  0
LINE
  5
3F8
100
AcDbEntity
  8
0
100
AcDbLine
 62
7
  6
CONTINUOUS
 10
304.1037680983
 20
190.0969949
 11
303.844173556
 21
190.1991225474
  0
LINE
  5
3F9
100
AcDbEntity
  8
0
100
AcDbLine
 62
7
  6
CONTINUOUS
 10
304.6049962969
 20
190.0969949
 11
304.3454017546
 21
190.1991225474
  0
LINE
  5
3FA
100
AcDbEntity
  8
0
100
AcDbLine
 62
7
  6
CONTINUOUS
 10
304.6229571828
 20
191.5267822497
 11
304.8825516012
 21
191.4246546023
  0
LINE
  5
3FB
100
AcDbEntity
  8
0
100
AcDbLine
 62
7
  6
CONTINUOUS
 10
303.411515965
 20
189.7906119578
 11
303.7576420007
 21
189.586356663
  0
LINE
  5
3FC
100
AcDbEntity
  8
0
100
AcDbLine
 62
7
  6
CONTINUOUS
 10
305.4017406857
 20
189.7906119578
 11
305.0556147119
 21
189.9948672526
  0
LINE
  5
3FD
100
AcDbEntity
  8
0
100
AcDbLine
 62
7
  6
CONTINUOUS
 10
305.9029688843
 20
189.7906119578
 11
305.5568429105
 21
189.9948672526
  0
LINE
  5
3FE
100
AcDbEntity
  8
0
100
AcDbLine
 62
7
  6
CONTINUOUS
 10
303.0653898983
 20
187.7480587595
 11
303.4980474584
 21
187.4416757904
  0
LINE
  5
3FF
100
AcDbEntity
  8
0
100
AcDbLine
 62
7
  6
CONTINUOUS
 10
303.844173556
 20
190.1991225474
 11
303.5845789519
 21
190.4033778422
  0
LINE
  5
400
100
AcDbEntity
  8
0
100
AcDbLine
 62
7
  6
CONTINUOUS
 10
304.9690832803
 20
189.3821013682
 11
305.2286778226
 21
189.1778460734
  0
LINE
  5
401
100
AcDbEntity
  8
0
100
AcDbLine
 62
7
  6
CONTINUOUS
 10
344.8352859974
 20
192.3735907786
 11
345.3761135391
 21
192.5012503378
  0
LINE
  5
402
100
AcDbEntity
  8
0
100
AcDbLine
 62
7
  6
CONTINUOUS
 10
317.2565581975
 20
187.95231409
 11
316.823900297
 21
187.8501864426
  0
LINE
  5
403
100
AcDbEntity
  8
0
100
AcDbLine
 62
7
  6
CONTINUOUS
 10
305.1241853813
 20
187.3395481341
 11
305.5568429105
 21
187.4416757904
  0
LINE
  5
404
100
AcDbEntity
  8
0
100
AcDbLine
 62
7
  6
CONTINUOUS
 10
304.6229571828
 20
187.3395481341
 11
305.0556147119
 21
187.4416757904
  0
LINE
  5
405
100
AcDbEntity
  8
0
100
AcDbLine
 62
7
  6
CONTINUOUS
 10
316.8924715853
 20
191.5267822497
 11
317.0745146831
 21
191.5697530953
  0
LINE
  5
406
100
AcDbEntity
  8
0
100
AcDbLine
 62
7
  6
CONTINUOUS
 10
316.3912433868
 20
191.5267822497
 11
316.823900297
 21
191.6289098971
  0
LINE
  5
407
100
AcDbEntity
  8
0
100
AcDbLine
 62
7
  6
CONTINUOUS
 10
317.3251284956
 20
187.3395481341
 11
317.8443175801
 21
187.4416757904
  0
LINE
  5
408
100
AcDbEntity
  8
0
100
AcDbLine
 62
7
  6
CONTINUOUS
 10
316.823900297
 20
187.3395481341
 11
317.3430893815
 21
187.4416757904
  0
LINE
  5
409
100
AcDbEntity
  8
0
100
AcDbLine
 62
7
  6
CONTINUOUS
 10
316.823900297
 20
192.1395481341
 11
316.3047112125
 21
192.0374204867
  0
LINE
  5
40A
100
AcDbEntity
  8
0
100
AcDbLine
 62
7
  6
CONTINUOUS
 10
345.7348854044
 20
193.1395481341
 11
344.9777263509
 21
193.0118885748
  0
LINE
  5
40B
100
AcDbEntity
  8
0
100
AcDbLine
 62
7
  6
CONTINUOUS
 10
304.0858071505
 20
190.4033778422
 11
303.5845789519
 21
190.4033778422
  0
LINE
  5
40C
100
AcDbEntity
  8
0
100
AcDbLine
 62
7
  6
CONTINUOUS
 10
347.4655337854
 20
190.5863565915
 11
347.214927676
 21
190.5863565915
  0
LINE
  5
40D
100
AcDbEntity
  8
0
100
AcDbLine
 62
7
  6
CONTINUOUS
 10
318.7961645651
 20
190.7097607844
 11
318.2949363665
 21
190.7097607844
  0
LINE
  5
40E
100
AcDbEntity
  8
0
100
AcDbLine
 62
7
  6
CONTINUOUS
 10
316.2867503266
 20
190.7097607844
 11
315.785522128
 21
190.7097607844
  0
LINE
  5
40F
100
AcDbEntity
  8
0
100
AcDbLine
 62
7
  6
CONTINUOUS
 10
303.999275657
 20
190.7097607844
 11
303.4980474584
 21
190.7097607844
  0
LINE
  5
410
100
AcDbEntity
  8
0
100
AcDbLine
 62
7
  6
CONTINUOUS
 10
303.999275657
 20
190.9140160792
 11
303.4980474584
 21
190.9140160792
  0
LINE
  5
411
100
AcDbEntity
  8
0
100
AcDbLine
 62
7
  6
CONTINUOUS
 10
347.6818652972
 20
190.9693352692
 11
347.4312591878
 21
190.9693352692
  0
LINE
  5
412
100
AcDbEntity
  8
0
100
AcDbLine
 62
7
  6
CONTINUOUS
 10
318.7096333811
 20
191.0161440127
 11
318.2084051825
 21
191.0161440127
  0
LINE
  5
413
100
AcDbEntity
  8
0
100
AcDbLine
 62
7
  6
CONTINUOUS
 10
305.1421461435
 20
191.0161440127
 11
306.1625634266
 21
191.0161440127
  0
LINE
  5
414
100
AcDbEntity
  8
0
100
AcDbLine
 62
7
  6
CONTINUOUS
 10
304.0858071505
 20
191.2203993075
 11
303.5845789519
 21
191.2203993075
  0
LINE
  5
415
100
AcDbEntity
  8
0
100
AcDbLine
 62
7
  6
CONTINUOUS
 10
316.6328770431
 20
191.3225269549
 11
316.1316488445
 21
191.3225269549
  0
LINE
  5
416
100
AcDbEntity
  8
0
100
AcDbLine
 62
7
  6
CONTINUOUS
 10
306.076031995
 20
191.3225269549
 11
305.5748037964
 21
191.3225269549
  0
LINE
  5
417
100
AcDbEntity
  8
0
100
AcDbLine
 62
7
  6
CONTINUOUS
 10
318.5365700228
 20
191.4246546023
 11
318.0353418242
 21
191.4246546023
  0
LINE
  5
418
100
AcDbEntity
  8
0
100
AcDbLine
 62
7
  6
CONTINUOUS
 10
304.3454017546
 20
191.4246546023
 11
303.844173556
 21
191.4246546023
  0
LINE
  5
419
100
AcDbEntity
  8
0
100
AcDbLine
 62
7
  6
CONTINUOUS
 10
347.7900304342
 20
191.4799735062
 11
347.5394243248
 21
191.4799735062
  0
LINE
  5
41A
100
AcDbEntity
  8
0
100
AcDbLine
 62
7
  6
CONTINUOUS
 10
316.8924715853
 20
191.5267822497
 11
316.3912433868
 21
191.5267822497
  0
LINE
  5
41B
100
AcDbEntity
  8
0
100
AcDbLine
 62
7
  6
CONTINUOUS
 10
304.1037680983
 20
191.5267822497
 11
304.6229571828
 21
191.5267822497
  0
LINE
  5
41C
100
AcDbEntity
  8
0
100
AcDbLine
 62
7
  6
CONTINUOUS
 10
315.0753097896
 20
191.6289098971
 11
314.574081591
 21
191.6289098971
  0
LINE
  5
41D
100
AcDbEntity
  8
0
100
AcDbLine
 62
7
  6
CONTINUOUS
 10
311.4589470841
 20
191.6289098971
 11
314.0548925065
 21
191.6289098971
  0
LINE
  5
41E
100
AcDbEntity
  8
0
100
AcDbLine
 62
7
  6
CONTINUOUS
 10
318.2769754806
 20
191.7310375445
 11
317.775747282
 21
191.7310375445
  0
LINE
  5
41F
100
AcDbEntity
  8
0
100
AcDbLine
 62
7
  6
CONTINUOUS
 10
305.8164374527
 20
191.7310375445
 11
305.3152092542
 21
191.7310375445
  0
LINE
  5
420
100
AcDbEntity
  8
0
100
AcDbLine
 62
7
  6
CONTINUOUS
 10
347.7900304342
 20
191.7352929823
 11
347.5394243248
 21
191.7352929823
  0
LINE
  5
421
100
AcDbEntity
  8
0
100
AcDbLine
 62
7
  6
CONTINUOUS
 10
344.0042364045
 20
191.7352929823
 11
344.5450639462
 21
191.7352929823
  0
LINE
  5
422
100
AcDbEntity
  8
0
100
AcDbLine
 62
7
  6
CONTINUOUS
 10
342.3817531606
 20
191.8629525416
 11
342.1311470511
 21
191.8629525416
  0
LINE
  5
423
100
AcDbEntity
  8
0
100
AcDbLine
 62
7
  6
CONTINUOUS
 10
338.487793375
 20
191.8629525416
 11
338.2371872656
 21
191.8629525416
  0
LINE
  5
424
100
AcDbEntity
  8
0
100
AcDbLine
 62
7
  6
CONTINUOUS
 10
317.8443175801
 20
192.0374204867
 11
317.3430893815
 21
192.0374204867
  0
LINE
  5
425
100
AcDbEntity
  8
0
100
AcDbLine
 62
7
  6
CONTINUOUS
 10
305.4703114789
 20
192.0374204867
 11
304.9690832803
 21
192.0374204867
  0
LINE
  5
426
100
AcDbEntity
  8
0
100
AcDbLine
 62
7
  6
CONTINUOUS
 10
351.251327815
 20
192.1182716601
 11
351.0007217056
 21
192.1182716601
  0
LINE
  5
427
100
AcDbEntity
  8
0
100
AcDbLine
 62
7
  6
CONTINUOUS
 10
344.761395458
 20
192.1182716601
 11
344.5107893486
 21
192.1182716601
  0
LINE
  5
428
100
AcDbEntity
  8
0
100
AcDbLine
 62
7
  6
CONTINUOUS
 10
317.3251284956
 20
192.1395481341
 11
316.823900297
 21
192.1395481341
  0
LINE
  5
429
100
AcDbEntity
  8
0
100
AcDbLine
 62
7
  6
CONTINUOUS
 10
315.0753097896
 20
192.1395481341
 11
311.4589470841
 21
192.1395481341
  0
LINE
  5
42A
100
AcDbEntity
  8
0
100
AcDbLine
 62
7
  6
CONTINUOUS
 10
311.2679228399
 20
192.1395481341
 11
310.2475055568
 21
192.1395481341
  0
LINE
  5
42B
100
AcDbEntity
  8
0
100
AcDbLine
 62
7
  6
CONTINUOUS
 10
309.5372927233
 20
192.1395481341
 11
308.343812082
 21
192.1395481341
  0
LINE
  5
42C
100
AcDbEntity
  8
0
100
AcDbLine
 62
7
  6
CONTINUOUS
 10
307.6335992485
 20
192.1395481341
 11
306.6131819654
 21
192.1395481341
  0
LINE
  5
42D
100
AcDbEntity
  8
0
100
AcDbLine
 62
7
  6
CONTINUOUS
 10
305.037653826
 20
192.1395481341
 11
304.1037680983
 21
192.1395481341
  0
LINE
  5
42E
100
AcDbEntity
  8
0
100
AcDbLine
 62
7
  6
CONTINUOUS
 10
347.6818652972
 20
192.2459312193
 11
347.4312591878
 21
192.2459312193
  0
LINE
  5
42F
100
AcDbEntity
  8
0
100
AcDbLine
 62
7
  6
CONTINUOUS
 10
345.0858921068
 20
192.3735907786
 11
344.8352859974
 21
192.3735907786
  0
LINE
  5
430
100
AcDbEntity
  8
0
100
AcDbLine
 62
7
  6
CONTINUOUS
 10
345.3761135391
 20
192.5012503378
 11
346.0593820532
 21
192.5012503378
  0
LINE
  5
431
100
AcDbEntity
  8
0
100
AcDbLine
 62
7
  6
CONTINUOUS
 10
347.2492028925
 20
192.7565694563
 11
346.9985967831
 21
192.7565694563
  0
LINE
  5
432
100
AcDbEntity
  8
0
100
AcDbLine
 62
7
  6
CONTINUOUS
 10
346.8165404878
 20
193.0118885748
 11
346.5659343784
 21
193.0118885748
  0
LINE
  5
433
100
AcDbEntity
  8
0
100
AcDbLine
 62
7
  6
CONTINUOUS
 10
351.9003211126
 20
193.1395481341
 11
351.251327815
 21
193.1395481341
  0
LINE
  5
434
100
AcDbEntity
  8
0
100
AcDbLine
 62
7
  6
CONTINUOUS
 10
346.1675471902
 20
193.1395481341
 11
345.7348854044
 21
193.1395481341
  0
LINE
  5
435
100
AcDbEntity
  8
0
100
AcDbLine
 62
7
  6
CONTINUOUS
 10
343.0307464582
 20
193.1395481341
 11
342.0572565118
 21
193.1395481341
  0
LINE
  5
436
100
AcDbEntity
  8
0
100
AcDbLine
 62
7
  6
CONTINUOUS
 10
338.8122900238
 20
193.1395481341
 11
337.8388000774
 21
193.1395481341
  0
LINE
  5
437
100
AcDbEntity
  8
0
100
AcDbLine
 62
7
  6
CONTINUOUS
 10
321.4100708734
 20
194.1859584278
 11
299.7771923529
 21
194.1859584278
  0
LINE
  5
438
100
AcDbEntity
  8
KONSTRUKTIONSELEMENTE
100
AcDbLine
 62
7
  6
CONTINUOUS
 10
293.1361365933
 20
196.6395481341
 11
363.1361365933
 21
196.6395481341
  0
LINE
  5
439
100
AcDbEntity
  8
0
100
AcDbLine
 62
7
  6
CONTINUOUS
 10
317.3430893815
 20
192.0374204867
 11
316.823900297
 21
192.1395481341
  0
LINE
  5
43A
100
AcDbEntity
  8
0
100
AcDbLine
 62
7
  6
CONTINUOUS
 10
317.8443175801
 20
192.0374204867
 11
317.3251284956
 21
192.1395481341
  0
LINE
  5
43B
100
AcDbEntity
  8
0
100
AcDbLine
 62
7
  6
CONTINUOUS
 10
346.5659343784
 20
193.0118885748
 11
345.9169410808
 21
193.1395481341
  0
LINE
  5
43C
100
AcDbEntity
  8
0
100
AcDbLine
 62
7
  6
CONTINUOUS
 10
346.8165404878
 20
193.0118885748
 11
346.1675471902
 21
193.1395481341
  0
LINE
  5
43D
100
AcDbEntity
  8
0
100
AcDbLine
 62
7
  6
CONTINUOUS
 10
316.823900297
 20
191.6289098971
 11
317.2565581975
 21
191.5267822497
  0
LINE
  5
43E
100
AcDbEntity
  8
0
100
AcDbLine
 62
7
  6
CONTINUOUS
 10
315.8720543023
 20
187.7480587595
 11
316.3047112125
 21
187.4416757904
  0
LINE
  5
43F
100
AcDbEntity
  8
0
100
AcDbLine
 62
7
  6
CONTINUOUS
 10
304.3454017546
 20
190.1991225474
 11
304.0858071505
 21
190.4033778422
  0
LINE
  5
440
100
AcDbEntity
  8
0
100
AcDbLine
 62
7
  6
CONTINUOUS
 10
316.3912433868
 20
187.95231409
 11
316.1316488445
 21
188.1565693848
  0
LINE
  5
441
100
AcDbEntity
  8
0
100
AcDbLine
 62
7
  6
CONTINUOUS
 10
316.8924715853
 20
187.95231409
 11
316.6328770431
 21
188.1565693848
  0
LINE
  5
442
100
AcDbEntity
  8
0
100
AcDbLine
 62
7
  6
CONTINUOUS
 10
305.3152092542
 20
191.7310375445
 11
304.9690832803
 21
192.0374204867
  0
LINE
  5
443
100
AcDbEntity
  8
0
100
AcDbLine
 62
7
  6
CONTINUOUS
 10
305.8164374527
 20
191.7310375445
 11
305.4703114789
 21
192.0374204867
  0
LINE
  5
444
100
AcDbEntity
  8
0
100
AcDbLine
 62
7
  6
CONTINUOUS
 10
303.5845789519
 20
188.0544417374
 11
303.3249844096
 21
188.3608247511
  0
LINE
  5
445
100
AcDbEntity
  8
0
100
AcDbLine
 62
7
  6
CONTINUOUS
 10
304.0858071505
 20
188.0544417374
 11
303.8262126082
 21
188.3608247511
  0
LINE
  5
446
100
AcDbEntity
  8
0
100
AcDbLine
 62
7
  6
CONTINUOUS
 10
303.0653898983
 20
190.1991225474
 11
303.411515965
 21
189.7906119578
  0
LINE
  5
447
100
AcDbEntity
  8
0
100
AcDbLine
 62
7
  6
CONTINUOUS
 10
305.7478669071
 20
189.3821013682
 11
305.4017406857
 21
189.7906119578
  0
LINE
  5
448
100
AcDbEntity
  8
0
100
AcDbLine
 62
7
  6
CONTINUOUS
 10
306.2490951057
 20
189.3821013682
 11
305.9029688843
 21
189.7906119578
  0
LINE
  5
449
100
AcDbEntity
  8
0
100
AcDbLine
 62
7
  6
CONTINUOUS
 10
304.8825516012
 20
191.4246546023
 11
305.0556147119
 21
191.2203993075
  0
LINE
  5
44A
100
AcDbEntity
  8
0
100
AcDbLine
 62
7
  6
CONTINUOUS
 10
324.6989573462
 20
202.1501864605
 11
323.9177076442
 21
201.9906120114
  0
LINE
  5
44B
100
AcDbEntity
  8
0
100
AcDbLine
 62
7
  6
CONTINUOUS
 10
317.6677077932
 20
202.1501864605
 11
316.8864576442
 21
201.9906120114
  0
LINE
  5
44C
100
AcDbEntity
  8
0
100
AcDbLine
 62
7
  6
CONTINUOUS
 10
335.3239570481
 20
198.6395481341
 11
334.3864570481
 21
198.6395481341
  0
LINE
  5
44D
100
AcDbEntity
  8
0
100
AcDbLine
 62
7
  6
CONTINUOUS
 10
321.1052076442
 20
198.6395481341
 11
320.1677076442
 21
198.6395481341
  0
LINE
  5
44E
100
AcDbEntity
  8
0
100
AcDbLine
 62
7
  6
CONTINUOUS
 10
314.0739576442
 20
198.6395481341
 11
313.1364576442
 21
198.6395481341
  0
LINE
  5
44F
100
AcDbEntity
  8
0
100
AcDbLine
 62
7
  6
CONTINUOUS
 10
336.8864582402
 20
200.8735906445
 11
335.3239570481
 21
200.8735906445
  0
LINE
  5
450
100
AcDbEntity
  8
0
100
AcDbLine
 62
7
  6
CONTINUOUS
 10
334.3864570481
 20
200.8735906445
 11
330.6364570481
 21
200.8735906445
  0
LINE
  5
451
100
AcDbEntity
  8
0
100
AcDbLine
 62
7
  6
CONTINUOUS
 10
329.3864582402
 20
201.3523139917
 11
327.1989576442
 21
201.3523139917
  0
LINE
  5
452
100
AcDbEntity
  8
0
100
AcDbLine
 62
7
  6
CONTINUOUS
 10
334.3864570481
 20
201.8310375624
 11
331.7302082402
 21
201.8310375624
  0
LINE
  5
453
100
AcDbEntity
  8
0
100
AcDbLine
 62
7
  6
CONTINUOUS
 10
335.3239570481
 20
201.8310375624
 11
336.8864582402
 21
201.8310375624
  0
LINE
  5
454
100
AcDbEntity
  8
0
100
AcDbLine
 62
7
  6
CONTINUOUS
 10
323.9177076442
 20
201.9906120114
 11
321.1052076442
 21
201.9906120114
  0
LINE
  5
455
100
AcDbEntity
  8
0
100
AcDbLine
 62
7
  6
CONTINUOUS
 10
316.8864576442
 20
201.9906120114
 11
314.0739576442
 21
201.9906120114
  0
LINE
  5
456
100
AcDbEntity
  8
0
100
AcDbLine
 62
7
  6
CONTINUOUS
 10
329.3864582402
 20
202.1501864605
 11
327.1989576442
 21
202.1501864605
  0
LINE
  5
457
100
AcDbEntity
  8
0
100
AcDbLine
 62
7
  6
CONTINUOUS
 10
324.0739579422
 20
202.9480587058
 11
321.1052076442
 21
202.9480587058
  0
LINE
  5
458
100
AcDbEntity
  8
0
100
AcDbLine
 62
7
  6
CONTINUOUS
 10
317.0427074952
 20
202.9480587058
 11
314.0739576442
 21
202.9480587058
  0
LINE
  5
459
100
AcDbEntity
  8
0
100
AcDbLine
 62
7
  6
CONTINUOUS
 10
341.8864570481
 20
203.1076331549
 11
340.1677082402
 21
203.1076331549
  0
LINE
  5
45A
100
AcDbEntity
  8
0
100
AcDbLine
 62
7
  6
CONTINUOUS
 10
339.3864576442
 20
203.1076331549
 11
338.1364570481
 21
203.1076331549
  0
LINE
  5
45B
100
AcDbEntity
  8
0
100
AcDbLine
 62
7
  6
CONTINUOUS
 10
341.8864570481
 20
203.7459309511
 11
340.1677082402
 21
203.7459309511
  0
LINE
  5
45C
100
AcDbEntity
  8
0
100
AcDbLine
 62
7
  6
CONTINUOUS
 10
339.3864576442
 20
203.7459309511
 11
338.1364570481
 21
203.7459309511
  0
LINE
  5
45D
100
AcDbEntity
  8
0
100
AcDbLine
 62
7
  6
CONTINUOUS
 10
340.1677082402
 20
205.0225269907
 11
339.3864576442
 21
205.0225269907
  0
LINE
  5
45E
100
AcDbEntity
  8
0
100
AcDbLine
 62
7
  6
CONTINUOUS
 10
324.0739579422
 20
205.3416758888
 11
321.1052076442
 21
205.3416758888
  0
LINE
  5
45F
100
AcDbEntity
  8
0
100
AcDbLine
 62
7
  6
CONTINUOUS
 10
317.0427074952
 20
205.3416758888
 11
314.0739576442
 21
205.3416758888
  0
LINE
  5
460
100
AcDbEntity
  8
0
100
AcDbLine
 62
7
  6
CONTINUOUS
 10
341.5739582402
 20
198.6395481341
 11
340.6364582402
 21
198.7991225971
  0
LINE
  5
461
100
AcDbEntity
  8
0
100
AcDbLine
 62
7
  6
CONTINUOUS
 10
341.5739582402
 20
199.2778459862
 11
340.7927076442
 21
199.4374204912
  0
LINE
  5
462
100
AcDbEntity
  8
0
100
AcDbLine
 62
7
  6
CONTINUOUS
 10
317.6677077932
 20
205.979973685
 11
316.8864576442
 21
206.1395481341
  0
LINE
  5
463
100
AcDbEntity
  8
0
100
AcDbLine
 62
7
  6
CONTINUOUS
 10
346.0593820532
 20
192.5012503378
 11
346.6002095949
 21
192.3735907786
  0
LINE
  5
464
100
AcDbEntity
  8
0
100
AcDbLine
 62
7
  6
CONTINUOUS
 10
317.5114574952
 20
205.1821014397
 11
317.0427074952
 21
205.3416758888
  0
LINE
  5
465
100
AcDbEntity
  8
0
100
AcDbLine
 62
7
  6
CONTINUOUS
 10
317.775747282
 20
191.7310375445
 11
317.3430893815
 21
192.0374204867
  0
LINE
  5
466
100
AcDbEntity
  8
0
100
AcDbLine
 62
7
  6
CONTINUOUS
 10
318.2769754806
 20
191.7310375445
 11
317.8443175801
 21
192.0374204867
  0
LINE
  5
467
100
AcDbEntity
  8
0
100
AcDbLine
 62
7
  6
CONTINUOUS
 10
317.2565581975
 20
191.5267822497
 11
317.5161527397
 21
191.3225269549
  0
LINE
  5
468
100
AcDbEntity
  8
0
100
AcDbLine
 62
7
  6
CONTINUOUS
 10
315.61245976
 20
188.0544417374
 11
315.8720543023
 21
187.7480587595
  0
LINE
  5
469
100
AcDbEntity
  8
0
100
AcDbLine
 62
7
  6
CONTINUOUS
 10
305.5748037964
 20
191.3225269549
 11
305.3152092542
 21
191.7310375445
  0
LINE
  5
46A
100
AcDbEntity
  8
0
100
AcDbLine
 62
7
  6
CONTINUOUS
 10
306.076031995
 20
191.3225269549
 11
305.8164374527
 21
191.7310375445
  0
LINE
  5
46B
100
AcDbEntity
  8
0
100
AcDbLine
 62
7
  6
CONTINUOUS
 10
305.2286778226
 20
189.1778460734
 11
305.4017406857
 21
188.8714629881
  0
LINE
  5
46C
100
AcDbEntity
  8
0
100
AcDbLine
 62
7
  6
CONTINUOUS
 10
302.8057953483
 20
188.2586971037
 11
303.0653898983
 21
187.7480587595
  0
LINE
  5
46D
100
AcDbEntity
  8
0
100
AcDbLine
 62
7
  6
CONTINUOUS
 10
336.5739570481
 20
210.7565693893
 11
335.9489576442
 21
210.5969949402
  0
LINE
  5
46E
100
AcDbEntity
  8
0
100
AcDbLine
 62
7
  6
CONTINUOUS
 10
329.0739579422
 20
210.7565693893
 11
328.4489576442
 21
210.5969949402
  0
LINE
  5
46F
100
AcDbEntity
  8
0
100
AcDbLine
 62
7
  6
CONTINUOUS
 10
336.7302082402
 20
209.7991225971
 11
335.9489576442
 21
209.6395481341
  0
LINE
  5
470
100
AcDbEntity
  8
0
100
AcDbLine
 62
7
  6
CONTINUOUS
 10
329.2302073462
 20
209.7991225971
 11
328.4489576442
 21
209.6395481341
  0
LINE
  5
471
100
AcDbEntity
  8
0
100
AcDbLine
 62
7
  6
CONTINUOUS
 10
323.9177076442
 20
206.1395481341
 11
320.1677076442
 21
206.1395481341
  0
LINE
  5
472
100
AcDbEntity
  8
0
100
AcDbLine
 62
7
  6
CONTINUOUS
 10
316.8864576442
 20
206.1395481341
 11
313.1364576442
 21
206.1395481341
  0
LINE
  5
473
100
AcDbEntity
  8
0
100
AcDbLine
 62
7
  6
CONTINUOUS
 10
334.3864570481
 20
206.1395481341
 11
335.3239570481
 21
206.1395481341
  0
LINE
  5
474
100
AcDbEntity
  8
0
100
AcDbLine
 62
7
  6
CONTINUOUS
 10
335.9489576442
 20
209.6395481341
 11
332.1989576442
 21
209.6395481341
  0
LINE
  5
475
100
AcDbEntity
  8
0
100
AcDbLine
 62
7
  6
CONTINUOUS
 10
328.4489576442
 20
209.6395481341
 11
327.8239573462
 21
209.6395481341
  0
LINE
  5
476
100
AcDbEntity
  8
0
100
AcDbLine
 62
7
  6
CONTINUOUS
 10
324.0739577932
 20
209.6395481341
 11
322.9802074952
 21
209.6395481341
  0
LINE
  5
477
100
AcDbEntity
  8
0
100
AcDbLine
 62
7
  6
CONTINUOUS
 10
319.0739576442
 20
209.6395481341
 11
318.1364576442
 21
209.6395481341
  0
LINE
  5
478
100
AcDbEntity
  8
0
100
AcDbLine
 62
7
  6
CONTINUOUS
 10
335.9489576442
 20
210.5969949402
 11
333.1364576442
 21
210.5969949402
  0
LINE
  5
479
100
AcDbEntity
  8
0
100
AcDbLine
 62
7
  6
CONTINUOUS
 10
328.4489576442
 20
210.5969949402
 11
327.8239573462
 21
210.5969949402
  0
LINE
  5
47A
100
AcDbEntity
  8
0
100
AcDbLine
 62
7
  6
CONTINUOUS
 10
321.7302075697
 20
212.9906120114
 11
319.0739576442
 21
212.9906120114
  0
LINE
  5
47B
100
AcDbEntity
  8
0
100
AcDbLine
 62
7
  6
CONTINUOUS
 10
324.6989573462
 20
205.979973685
 11
323.9177076442
 21
206.1395481341
  0
LINE
  5
47C
100
AcDbEntity
  8
0
100
AcDbLine
 62
7
  6
CONTINUOUS
 10
327.8239573462
 20
209.6395481341
 11
327.0427076442
 21
209.7991225971
  0
LINE
  5
47D
100
AcDbEntity
  8
0
100
AcDbLine
 62
7
  6
CONTINUOUS
 10
327.8239573462
 20
210.5969949402
 11
327.1989579422
 21
210.7565693893
  0
LINE
  5
47E
100
AcDbEntity
  8
0
100
AcDbLine
 62
7
  6
CONTINUOUS
 10
340.6364582402
 20
198.7991225971
 11
340.1677082402
 21
198.9586970602
  0
LINE
  5
47F
100
AcDbEntity
  8
0
100
AcDbLine
 62
7
  6
CONTINUOUS
 10
324.5427079422
 20
205.1821014397
 11
324.0739579422
 21
205.3416758888
  0
LINE
  5
480
100
AcDbEntity
  8
0
100
AcDbLine
 62
7
  6
CONTINUOUS
 10
346.9985967831
 20
192.7565694563
 11
346.5659343784
 21
193.0118885748
  0
LINE
  5
481
100
AcDbEntity
  8
0
100
AcDbLine
 62
7
  6
CONTINUOUS
 10
347.2492028925
 20
192.7565694563
 11
346.8165404878
 21
193.0118885748
  0
LINE
  5
482
100
AcDbEntity
  8
0
100
AcDbLine
 62
7
  6
CONTINUOUS
 10
318.2927076442
 20
205.5012503378
 11
317.6677077932
 21
205.979973685
  0
LINE
  5
483
100
AcDbEntity
  8
0
100
AcDbLine
 62
7
  6
CONTINUOUS
 10
318.0353418242
 20
191.4246546023
 11
317.775747282
 21
191.7310375445
  0
LINE
  5
484
100
AcDbEntity
  8
0
100
AcDbLine
 62
7
  6
CONTINUOUS
 10
318.5365700228
 20
191.4246546023
 11
318.2769754806
 21
191.7310375445
  0
LINE
  5
485
100
AcDbEntity
  8
0
100
AcDbLine
 62
7
  6
CONTINUOUS
 10
305.9209297702
 20
188.9735906355
 11
305.7478669071
 21
189.3821013682
  0
LINE
  5
486
100
AcDbEntity
  8
0
100
AcDbLine
 62
7
  6
CONTINUOUS
 10
305.0556147119
 20
191.2203993075
 11
305.1421461435
 21
191.0161440127
  0
LINE
  5
487
100
AcDbEntity
  8
0
100
AcDbLine
 62
7
  6
CONTINUOUS
 10
306.4221579688
 20
188.9735906355
 11
306.2490951057
 21
189.3821013682
  0
LINE
  5
488
100
AcDbEntity
  8
0
100
AcDbLine
 62
7
  6
CONTINUOUS
 10
322.0427074952
 20
213.9480587058
 11
319.0739576442
 21
213.9480587058
  0
LINE
  5
489
100
AcDbEntity
  8
0
100
AcDbLine
 62
7
  6
CONTINUOUS
 10
335.9489576442
 20
216.1821014397
 11
333.1364576442
 21
216.1821014397
  0
LINE
  5
48A
100
AcDbEntity
  8
0
100
AcDbLine
 62
7
  6
CONTINUOUS
 10
322.0427074952
 20
216.3416758888
 11
319.0739576442
 21
216.3416758888
  0
LINE
  5
48B
100
AcDbEntity
  8
0
100
AcDbLine
 62
7
  6
CONTINUOUS
 10
335.9489576442
 20
217.1395481341
 11
332.1989576442
 21
217.1395481341
  0
LINE
  5
48C
100
AcDbEntity
  8
0
100
AcDbLine
 62
7
  6
CONTINUOUS
 10
330.9489579422
 20
217.1395481341
 11
330.0114579422
 21
217.1395481341
  0
LINE
  5
48D
100
AcDbEntity
  8
0
100
AcDbLine
 62
7
  6
CONTINUOUS
 10
326.2614579422
 20
217.1395481341
 11
325.3239574952
 21
217.1395481341
  0
LINE
  5
48E
100
AcDbEntity
  8
0
100
AcDbLine
 62
7
  6
CONTINUOUS
 10
321.8864576442
 20
217.1395481341
 11
318.1364576442
 21
217.1395481341
  0
LINE
  5
48F
100
AcDbEntity
  8
0
100
AcDbLine
 62
7
  6
CONTINUOUS
 10
322.6677077932
 20
216.979973685
 11
321.8864576442
 21
217.1395481341
  0
LINE
  5
490
100
AcDbEntity
  8
0
100
AcDbLine
 62
7
  6
CONTINUOUS
 10
336.7302082402
 20
216.979973685
 11
335.9489576442
 21
217.1395481341
  0
LINE
  5
491
100
AcDbEntity
  8
0
100
AcDbLine
 62
7
  6
CONTINUOUS
 10
336.5739570481
 20
216.0225269907
 11
335.9489576442
 21
216.1821014397
  0
LINE
  5
492
100
AcDbEntity
  8
0
100
AcDbLine
 62
7
  6
CONTINUOUS
 10
322.5114574952
 20
216.1821014397
 11
322.0427074952
 21
216.3416758888
  0
LINE
  5
493
100
AcDbEntity
  8
0
100
AcDbLine
 62
7
  6
CONTINUOUS
 10
327.0427076442
 20
209.7991225971
 11
326.4177073462
 21
210.1182715372
  0
LINE
  5
494
100
AcDbEntity
  8
0
100
AcDbLine
 62
7
  6
CONTINUOUS
 10
340.1677082402
 20
198.9586970602
 11
339.6989582402
 21
199.2778459862
  0
LINE
  5
495
100
AcDbEntity
  8
0
100
AcDbLine
 62
7
  6
CONTINUOUS
 10
340.7927076442
 20
199.4374204912
 11
340.3239576442
 21
199.7565693893
  0
LINE
  5
496
100
AcDbEntity
  8
0
100
AcDbLine
 62
7
  6
CONTINUOUS
 10
327.1989579422
 20
210.7565693893
 11
326.7302079422
 21
211.0757183992
  0
LINE
  5
497
100
AcDbEntity
  8
0
100
AcDbLine
 62
7
  6
CONTINUOUS
 10
325.3239576442
 20
205.5012503378
 11
324.6989573462
 21
205.979973685
  0
LINE
  5
498
100
AcDbEntity
  8
0
100
AcDbLine
 62
7
  6
CONTINUOUS
 10
346.6002095949
 20
192.3735907786
 11
346.9247062437
 21
192.1182716601
  0
LINE
  5
499
100
AcDbEntity
  8
0
100
AcDbLine
 62
7
  6
CONTINUOUS
 10
317.8239576442
 20
204.8629525416
 11
317.5114574952
 21
205.1821014397
  0
LINE
  5
49A
100
AcDbEntity
  8
0
100
AcDbLine
 62
7
  6
CONTINUOUS
 10
324.8552076442
 20
204.8629525416
 11
324.5427079422
 21
205.1821014397
  0
LINE
  5
49B
100
AcDbEntity
  8
0
100
AcDbLine
 62
7
  6
CONTINUOUS
 10
318.7614576442
 20
204.8629525416
 11
318.2927076442
 21
205.5012503378
  0
LINE
  5
49C
100
AcDbEntity
  8
0
100
AcDbLine
 62
7
  6
CONTINUOUS
 10
316.1316488445
 20
188.1565693848
 11
315.785522128
 21
188.7693353407
  0
LINE
  5
49D
100
AcDbEntity
  8
0
100
AcDbLine
 62
7
  6
CONTINUOUS
 10
316.6328770431
 20
188.1565693848
 11
316.2867503266
 21
188.7693353407
  0
LINE
  5
49E
100
AcDbEntity
  8
0
100
AcDbLine
 62
7
  6
CONTINUOUS
 10
317.5161527397
 20
191.3225269549
 11
317.862278466
 21
190.7097607844
  0
LINE
  5
49F
100
AcDbEntity
  8
0
100
AcDbLine
 62
7
  6
CONTINUOUS
 10
315.4393964018
 20
188.4629523985
 11
315.61245976
 21
188.0544417374
  0
LINE
  5
4A0
100
AcDbEntity
  8
0
100
AcDbLine
 62
7
  6
CONTINUOUS
 10
303.3249844096
 20
188.3608247511
 11
303.2384529162
 21
188.6672076933
  0
LINE
  5
4A1
100
AcDbEntity
  8
0
100
AcDbLine
 62
7
  6
CONTINUOUS
 10
303.8262126082
 20
188.3608247511
 11
303.7396811148
 21
188.6672076933
  0
LINE
  5
4A2
100
AcDbEntity
  8
0
100
AcDbLine
 62
7
  6
CONTINUOUS
 10
303.5845789519
 20
190.4033778422
 11
303.4980474584
 21
190.7097607844
  0
LINE
  5
4A3
100
AcDbEntity
  8
0
100
AcDbLine
 62
7
  6
CONTINUOUS
 10
304.0858071505
 20
190.4033778422
 11
303.999275657
 21
190.7097607844
  0
LINE
  5
4A4
100
AcDbEntity
  8
0
100
AcDbLine
 62
7
  6
CONTINUOUS
 10
305.661335228
 20
191.0161440127
 11
305.5748037964
 21
191.3225269549
  0
LINE
  5
4A5
100
AcDbEntity
  8
0
100
AcDbLine
 62
7
  6
CONTINUOUS
 10
306.1625634266
 20
191.0161440127
 11
306.076031995
 21
191.3225269549
  0
LINE
  5
4A6
100
AcDbEntity
  8
0
100
AcDbLine
 62
7
  6
CONTINUOUS
 10
302.7192638317
 20
188.6672076933
 11
302.8057953483
 21
188.2586971037
  0
LINE
  5
4A7
100
AcDbEntity
  8
0
100
AcDbLine
 62
7
  6
CONTINUOUS
 10
302.9788583739
 20
190.607633137
 11
303.0653898983
 21
190.1991225474
  0
LINE
  5
4A8
100
AcDbEntity
  8
KONSTRUKTIONSELEMENTE
100
AcDbLine
 62
7
  6
CONTINUOUS
 10
293.1361365933
 20
183.6395481341
 11
293.1361365933
 21
196.6395481341
  0
LINE
  5
4A9
100
AcDbEntity
  8
0
100
AcDbLine
 62
7
  6
CONTINUOUS
 10
294.1364576442
 20
245.3357005568
 11
294.1364576442
 21
196.6395481341
  0
LINE
  5
4AA
100
AcDbEntity
  8
KONSTRUKTIONSELEMENTE
100
AcDbLine
 62
7
  6
CONTINUOUS
 10
295.5493651663
 20
183.6395481341
 11
295.5493651663
 21
196.6395481341
  0
LINE
  5
4AB
100
AcDbEntity
  8
RUNDUNGEN
100
AcDbLine
 62
7
  6
CONTINUOUS
 10
304.7818980816
 20
280.5680733099
 11
301.0722798717
 21
276.1471224812
  0
LINE
  5
4AC
100
AcDbEntity
  8
0
100
AcDbLine
 62
7
  6
CONTINUOUS
 10
337.3552076442
 20
216.6608247869
 11
336.7302082402
 21
216.979973685
  0
LINE
  5
4AD
100
AcDbEntity
  8
0
100
AcDbLine
 62
7
  6
CONTINUOUS
 10
337.0427070481
 20
215.7033780925
 11
336.5739570481
 21
216.0225269907
  0
LINE
  5
4AE
100
AcDbEntity
  8
0
100
AcDbLine
 62
7
  6
CONTINUOUS
 10
323.2927076442
 20
216.5012503378
 11
322.6677077932
 21
216.979973685
  0
LINE
  5
4AF
100
AcDbEntity
  8
0
100
AcDbLine
 62
7
  6
CONTINUOUS
 10
326.4177073462
 20
210.1182715372
 11
325.7927079422
 21
210.7565693893
  0
LINE
  5
4B0
100
AcDbEntity
  8
0
100
AcDbLine
 62
7
  6
CONTINUOUS
 10
322.8239576442
 20
215.8629525416
 11
322.5114574952
 21
216.1821014397
  0
LINE
  5
4B1
100
AcDbEntity
  8
0
100
AcDbLine
 62
7
  6
CONTINUOUS
 10
325.7927076442
 20
204.8629525416
 11
325.3239576442
 21
205.5012503378
  0
LINE
  5
4B2
100
AcDbEntity
  8
0
100
AcDbLine
 62
7
  6
CONTINUOUS
 10
318.2084051825
 20
191.0161440127
 11
318.0353418242
 21
191.4246546023
  0
LINE
  5
4B3
100
AcDbEntity
  8
0
100
AcDbLine
 62
7
  6
CONTINUOUS
 10
318.7096333811
 20
191.0161440127
 11
318.5365700228
 21
191.4246546023
  0
LINE
  5
4B4
100
AcDbEntity
  8
0
100
AcDbLine
 62
7
  6
CONTINUOUS
 10
315.3528652178
 20
188.7693353407
 11
315.4393964018
 21
188.4629523985
  0
LINE
  5
4B5
100
AcDbEntity
  8
0
100
AcDbLine
 62
7
  6
CONTINUOUS
 10
309.7283164723
 20
188.4629523985
 11
309.0360645247
 21
192.1395481341
  0
LINE
  5
4B6
100
AcDbEntity
  8
0
100
AcDbLine
 62
7
  6
CONTINUOUS
 10
309.9431285867
 20
189.9841271059
 11
309.5372927233
 21
192.1395481341
  0
LINE
  5
4B7
100
AcDbEntity
  8
0
100
AcDbLine
 62
7
  6
CONTINUOUS
 10
308.6899383034
 20
191.2203993075
 11
309.382190251
 21
187.3395481341
  0
LINE
  5
4B8
100
AcDbEntity
  8
0
100
AcDbLine
 62
7
  6
CONTINUOUS
 10
306.6131819654
 20
192.1395481341
 11
307.305433913
 21
187.3395481341
  0
LINE
  5
4B9
100
AcDbEntity
  8
0
100
AcDbLine
 62
7
  6
CONTINUOUS
 10
299.7771923529
 20
194.1859584278
 11
299.7771923529
 21
185.1395481341
  0
LINE
  5
4BA
100
AcDbEntity
  8
RUNDUNGEN
100
AcDbLine
 62
7
  6
CONTINUOUS
 10
300.1364576442
 20
257.469675153
 11
300.1364576442
 21
273.5760203005
  0
LINE
  5
4BB
100
AcDbEntity
  8
0
100
AcDbLine
 62
7
  6
CONTINUOUS
 10
300.2784205515
 20
194.1859584278
 11
300.2784205515
 21
185.1395481341
  0
LINE
  5
4BC
100
AcDbEntity
  8
0
100
AcDbLine
 62
7
  6
CONTINUOUS
 10
302.9788583739
 20
191.0161440127
 11
302.9788583739
 21
190.607633137
  0
LINE
  5
4BD
100
AcDbEntity
  8
0
100
AcDbLine
 62
7
  6
CONTINUOUS
 10
303.4980474584
 20
190.7097607844
 11
303.4980474584
 21
190.9140160792
  0
LINE
  5
4BE
100
AcDbEntity
  8
0
100
AcDbLine
 62
7
  6
CONTINUOUS
 10
303.999275657
 20
190.7097607844
 11
303.999275657
 21
190.9140160792
  0
LINE
  5
4BF
100
AcDbEntity
  8
0
100
AcDbLine
 62
7
  6
CONTINUOUS
 10
305.4017406857
 20
188.8714629881
 11
305.4017406857
 21
188.5650800459
  0
LINE
  5
4C0
100
AcDbEntity
  8
RUNDUNGEN
100
AcDbLine
 62
7
  6
CONTINUOUS
 10
294.5383814328
 20
246.8357005568
 11
299.6675465574
 21
255.719675153
  0
LINE
  5
4C1
100
AcDbEntity
  8
RUNDUNGEN
100
AcDbLine
 62
7
  6
CONTINUOUS
 10
351.8218963157
 20
232.6395481341
 11
304.4510186439
 21
232.6395481341
  0
LINE
  5
4C2
100
AcDbEntity
  8
0
100
AcDbLine
 62
7
  6
CONTINUOUS
 10
337.9802070481
 20
216.0225269907
 11
337.3552076442
 21
216.6608247869
  0
LINE
  5
4C3
100
AcDbEntity
  8
0
100
AcDbLine
 62
7
  6
CONTINUOUS
 10
347.4312591878
 20
192.2459312193
 11
346.9985967831
 21
192.7565694563
  0
LINE
  5
4C4
100
AcDbEntity
  8
0
100
AcDbLine
 62
7
  6
CONTINUOUS
 10
347.6818652972
 20
192.2459312193
 11
347.2492028925
 21
192.7565694563
  0
LINE
  5
4C5
100
AcDbEntity
  8
0
100
AcDbLine
 62
7
  6
CONTINUOUS
 10
323.7614576442
 20
215.8629525416
 11
323.2927076442
 21
216.5012503378
  0
LINE
  5
4C6
100
AcDbEntity
  8
0
100
AcDbLine
 62
7
  6
CONTINUOUS
 10
326.7302079422
 20
211.0757183992
 11
326.4177073462
 21
211.5544417464
  0
LINE
  5
4C7
100
AcDbEntity
  8
0
100
AcDbLine
 62
7
  6
CONTINUOUS
 10
325.7927079422
 20
210.7565693893
 11
325.4802077932
 21
211.3948672973
  0
LINE
  5
4C8
100
AcDbEntity
  8
0
100
AcDbLine
 62
7
  6
CONTINUOUS
 10
317.9802074952
 20
204.3842291944
 11
317.8239576442
 21
204.8629525416
  0
LINE
  5
4C9
100
AcDbEntity
  8
0
100
AcDbLine
 62
7
  6
CONTINUOUS
 10
318.9177074952
 20
204.3842291944
 11
318.7614576442
 21
204.8629525416
  0
LINE
  5
4CA
100
AcDbEntity
  8
0
100
AcDbLine
 62
7
  6
CONTINUOUS
 10
318.2949363665
 20
190.7097607844
 11
318.2084051825
 21
191.0161440127
  0
LINE
  5
4CB
100
AcDbEntity
  8
0
100
AcDbLine
 62
7
  6
CONTINUOUS
 10
318.7961645651
 20
190.7097607844
 11
318.7096333811
 21
191.0161440127
  0
LINE
  5
4CC
100
AcDbEntity
  8
0
100
AcDbLine
 62
7
  6
CONTINUOUS
 10
315.2663330435
 20
189.2799737208
 11
315.3528652178
 21
188.7693353407
  0
LINE
  5
4CD
100
AcDbEntity
  8
0
100
AcDbLine
 62
7
  6
CONTINUOUS
 10
307.6515601344
 20
188.4629523985
 11
307.1323710499
 21
192.1395481341
  0
LINE
  5
4CE
100
AcDbEntity
  8
0
100
AcDbLine
 62
7
  6
CONTINUOUS
 10
307.9379762186
 20
189.9841271059
 11
307.6335992485
 21
192.1395481341
  0
LINE
  5
4CF
100
AcDbEntity
  8
0
100
AcDbLine
 62
7
  6
CONTINUOUS
 10
305.9209297702
 20
188.4629523985
 11
305.9209297702
 21
188.9735906355
  0
LINE
  5
4D0
100
AcDbEntity
  8
0
100
AcDbLine
 62
7
  6
CONTINUOUS
 10
306.4221579688
 20
188.4629523985
 11
306.4221579688
 21
188.9735906355
  0
LINE
  5
4D1
100
AcDbEntity
  8
0
100
AcDbLine
 62
7
  6
CONTINUOUS
 10
311.4589470841
 20
192.1395481341
 11
311.4589470841
 21
191.6289098971
  0
LINE
  5
4D2
100
AcDbEntity
  8
0
100
AcDbLine
 62
7
  6
CONTINUOUS
 10
313.1364576442
 20
206.1395481341
 11
313.1364576442
 21
198.6395481341
  0
LINE
  5
4D3
100
AcDbEntity
  8
0
100
AcDbLine
 62
7
  6
CONTINUOUS
 10
337.3552076442
 20
215.2246542983
 11
337.0427070481
 21
215.7033780925
  0
LINE
  5
4D4
100
AcDbEntity
  8
0
100
AcDbLine
 62
7
  6
CONTINUOUS
 10
346.9247062437
 20
192.1182716601
 11
347.1410371366
 21
191.7352929823
  0
LINE
  5
4D5
100
AcDbEntity
  8
0
100
AcDbLine
 62
7
  6
CONTINUOUS
 10
339.6989582402
 20
199.2778459862
 11
339.3864576442
 21
199.9161438384
  0
LINE
  5
4D6
100
AcDbEntity
  8
0
100
AcDbLine
 62
7
  6
CONTINUOUS
 10
324.0739577932
 20
209.6395481341
 11
322.6677077932
 21
213.3097609096
  0
LINE
  5
4D7
100
AcDbEntity
  8
0
100
AcDbLine
 62
7
  6
CONTINUOUS
 10
322.9802074952
 20
209.6395481341
 11
321.7302075697
 21
212.9906120114
  0
LINE
  5
4D8
100
AcDbEntity
  8
0
100
AcDbLine
 62
7
  6
CONTINUOUS
 10
325.0114579422
 20
204.3842291944
 11
324.8552076442
 21
204.8629525416
  0
LINE
  5
4D9
100
AcDbEntity
  8
0
100
AcDbLine
 62
7
  6
CONTINUOUS
 10
325.9489579422
 20
204.3842291944
 11
325.7927076442
 21
204.8629525416
  0
LINE
  5
4DA
100
AcDbEntity
  8
0
100
AcDbLine
 62
7
  6
CONTINUOUS
 10
322.9802074952
 20
215.3842291944
 11
322.8239576442
 21
215.8629525416
  0
LINE
  5
4DB
100
AcDbEntity
  8
0
100
AcDbLine
 62
7
  6
CONTINUOUS
 10
323.9177074952
 20
215.3842291944
 11
323.7614576442
 21
215.8629525416
  0
LINE
  5
4DC
100
AcDbEntity
  8
0
100
AcDbLine
 62
7
  6
CONTINUOUS
 10
318.3814675505
 20
190.1991225474
 11
318.2949363665
 21
190.7097607844
  0
LINE
  5
4DD
100
AcDbEntity
  8
0
100
AcDbLine
 62
7
  6
CONTINUOUS
 10
318.8826957491
 20
190.1991225474
 11
318.7961645651
 21
190.7097607844
  0
LINE
  5
4DE
100
AcDbEntity
  8
0
100
AcDbLine
 62
7
  6
CONTINUOUS
 10
315.785522128
 20
188.7693353407
 11
315.698990944
 21
189.3821013682
  0
LINE
  5
4DF
100
AcDbEntity
  8
0
100
AcDbLine
 62
7
  6
CONTINUOUS
 10
316.2867503266
 20
188.7693353407
 11
316.2002191426
 21
189.3821013682
  0
LINE
  5
4E0
100
AcDbEntity
  8
0
100
AcDbLine
 62
7
  6
CONTINUOUS
 10
317.862278466
 20
190.7097607844
 11
317.9488106402
 21
190.0969949
  0
LINE
  5
4E1
100
AcDbEntity
  8
0
100
AcDbLine
 62
7
  6
CONTINUOUS
 10
314.0739576442
 20
205.3416758888
 11
314.0739576442
 21
202.9480587058
  0
LINE
  5
4E2
100
AcDbEntity
  8
0
100
AcDbLine
 62
7
  6
CONTINUOUS
 10
314.0739576442
 20
201.9906120114
 11
314.0739576442
 21
198.6395481341
  0
LINE
  5
4E3
100
AcDbEntity
  8
0
100
AcDbLine
 62
7
  6
CONTINUOUS
 10
314.574081591
 20
191.6289098971
 11
314.574081591
 21
192.1395481341
  0
LINE
  5
4E4
100
AcDbEntity
  8
0
100
AcDbLine
 62
7
  6
CONTINUOUS
 10
315.0753097896
 20
191.6289098971
 11
315.0753097896
 21
192.1395481341
  0
LINE
  5
4E5
100
AcDbEntity
  8
0
100
AcDbLine
 62
7
  6
CONTINUOUS
 10
315.2663330435
 20
190.1991225474
 11
315.2663330435
 21
189.2799737208
  0
LINE
  5
4E6
100
AcDbEntity
  8
0
100
AcDbLine
 62
7
  6
CONTINUOUS
 10
315.698990944
 20
189.3821013682
 11
315.698990944
 21
190.0969949
  0
LINE
  5
4E7
100
AcDbEntity
  8
0
100
AcDbLine
 62
7
  6
CONTINUOUS
 10
316.1364576442
 20
183.6395481341
 11
316.1364576442
 21
149.6395481341
  0
LINE
  5
4E8
100
AcDbEntity
  8
FASEN
100
AcDbLine
 62
7
  6
CONTINUOUS
 10
316.1364576442
 20
183.6395481341
 11
316.1364576442
 21
149.6395481341
  0
LINE
  5
4E9
100
AcDbEntity
  8
0
100
AcDbLine
 62
7
  6
CONTINUOUS
 10
316.2002191426
 20
189.3821013682
 11
316.2002191426
 21
190.0969949
  0
LINE
  5
4EA
100
AcDbEntity
  8
0
100
AcDbLine
 62
7
  6
CONTINUOUS
 10
317.9488106402
 20
190.0969949
 11
317.9488106402
 21
189.3821013682
  0
LINE
  5
4EB
100
AcDbEntity
  8
0
100
AcDbLine
 62
7
  6
CONTINUOUS
 10
317.9802074952
 20
204.3842291944
 11
317.9802074952
 21
203.9055054002
  0
LINE
  5
4EC
100
AcDbEntity
  8
0
100
AcDbLine
 62
7
  6
CONTINUOUS
 10
318.1364576442
 20
217.1395481341
 11
318.1364576442
 21
209.6395481341
  0
LINE
  5
4ED
100
AcDbEntity
  8
0
100
AcDbLine
 62
7
  6
CONTINUOUS
 10
318.3814675505
 20
189.2799737208
 11
318.3814675505
 21
190.1991225474
  0
LINE
  5
4EE
100
AcDbEntity
  8
0
100
AcDbLine
 62
7
  6
CONTINUOUS
 10
318.8826957491
 20
189.2799737208
 11
318.8826957491
 21
190.1991225474
  0
LINE
  5
4EF
100
AcDbEntity
  8
0
100
AcDbLine
 62
7
  6
CONTINUOUS
 10
318.9177074952
 20
204.3842291944
 11
318.9177074952
 21
203.7459309511
  0
LINE
  5
4F0
100
AcDbEntity
  8
0
100
AcDbLine
 62
7
  6
CONTINUOUS
 10
319.0739576442
 20
216.3416758888
 11
319.0739576442
 21
213.9480587058
  0
LINE
  5
4F1
100
AcDbEntity
  8
0
100
AcDbLine
 62
7
  6
CONTINUOUS
 10
319.0739576442
 20
212.9906120114
 11
319.0739576442
 21
209.6395481341
  0
LINE
  5
4F2
100
AcDbEntity
  8
KONSTRUKTIONSELEMENTE
100
AcDbLine
 62
7
  6
CONTINUOUS
 10
320.1364576442
 20
363.5884690948
 11
320.1364576442
 21
336.8233018908
  0
LINE
  5
4F3
100
AcDbEntity
  8
KONSTRUKTIONSELEMENTE
100
AcDbLine
 62
7
  6
CONTINUOUS
 10
320.1364576442
 20
279.4564153801
 11
320.1364576442
 21
252.6395481341
  0
LINE
  5
4F4
100
AcDbEntity
  8
0
100
AcDbLine
 62
7
  6
CONTINUOUS
 10
320.1677076442
 20
206.1395481341
 11
320.1677076442
 21
198.6395481341
  0
LINE
  5
4F5
100
AcDbEntity
  8
0
100
AcDbLine
 62
7
  6
CONTINUOUS
 10
321.1052076442
 20
205.3416758888
 11
321.1052076442
 21
202.9480587058
  0
LINE
  5
4F6
100
AcDbEntity
  8
0
100
AcDbLine
 62
7
  6
CONTINUOUS
 10
321.1052076442
 20
201.9906120114
 11
321.1052076442
 21
198.6395481341
  0
LINE
  5
4F7
100
AcDbEntity
  8
0
100
AcDbLine
 62
7
  6
CONTINUOUS
 10
310.2475055568
 20
192.1395481341
 11
309.7283164723
 21
188.4629523985
  0
LINE
  5
4F8
100
AcDbEntity
  8
0
100
AcDbLine
 62
7
  6
CONTINUOUS
 10
310.0744426937
 20
187.3395481341
 11
310.7666946413
 21
192.1395481341
  0
LINE
  5
4F9
100
AcDbEntity
  8
0
100
AcDbLine
 62
7
  6
CONTINUOUS
 10
310.5756708923
 20
187.3395481341
 11
311.2679228399
 21
192.1395481341
  0
LINE
  5
4FA
100
AcDbEntity
  8
0
100
AcDbLine
 62
7
  6
CONTINUOUS
 10
307.9976863557
 20
187.3395481341
 11
308.6899383034
 21
191.2203993075
  0
LINE
  5
4FB
100
AcDbEntity
  8
0
100
AcDbLine
 62
7
  6
CONTINUOUS
 10
308.343812082
 20
192.1395481341
 11
307.6515601344
 21
188.4629523985
  0
LINE
  5
4FC
100
AcDbEntity
  8
0
100
AcDbLine
 62
7
  6
CONTINUOUS
 10
303.0653898983
 20
191.4246546023
 11
302.9788583739
 21
191.0161440127
  0
LINE
  5
4FD
100
AcDbEntity
  8
KONSTRUKTIONSELEMENTE
100
AcDbLine
 62
7
  6
CONTINUOUS
 10
320.1362951887
 20
279.4427894191
 11
323.1364576442
 21
290.6395481341
  0
LINE
  5
4FE
100
AcDbEntity
  8
KONSTRUKTIONSELEMENTE
100
AcDbLine
 62
7
  6
CONTINUOUS
 10
336.1366288173
 20
336.8363393837
 11
333.1364576442
 21
325.6395481341
  0
LINE
  5
4FF
100
AcDbEntity
  8
0
100
AcDbLine
 62
7
  6
CONTINUOUS
 10
338.2927076442
 20
215.3842291944
 11
337.9802070481
 21
216.0225269907
  0
LINE
  5
500
100
AcDbEntity
  8
0
100
AcDbLine
 62
7
  6
CONTINUOUS
 10
340.3239576442
 20
199.7565693893
 11
340.1677082402
 21
200.2352928482
  0
LINE
  5
501
100
AcDbEntity
  8
0
100
AcDbLine
 62
7
  6
CONTINUOUS
 10
338.487793375
 20
191.8629525416
 11
340.0021110178
 21
187.1395481341
  0
LINE
  5
502
100
AcDbEntity
  8
0
100
AcDbLine
 62
7
  6
CONTINUOUS
 10
340.1841671584
 20
187.7778460198
 11
338.5616839144
 21
193.1395481341
  0
LINE
  5
503
100
AcDbEntity
  8
0
100
AcDbLine
 62
7
  6
CONTINUOUS
 10
340.4347732678
 20
187.7778460198
 11
338.8122900238
 21
193.1395481341
  0
LINE
  5
504
100
AcDbEntity
  8
0
100
AcDbLine
 62
7
  6
CONTINUOUS
 10
326.4177073462
 20
211.5544417464
 11
326.2614579422
 21
212.1927395426
  0
LINE
  5
505
100
AcDbEntity
  8
0
100
AcDbLine
 62
7
  6
CONTINUOUS
 10
325.4802077932
 20
211.3948672973
 11
325.3239574952
 21
212.1927395426
  0
LINE
  5
506
100
AcDbEntity
  8
0
100
AcDbLine
 62
7
  6
CONTINUOUS
 10
321.4100708734
 20
185.1395481341
 11
321.4100708734
 21
194.1859584278
  0
LINE
  5
507
100
AcDbEntity
  8
0
100
AcDbLine
 62
7
  6
CONTINUOUS
 10
322.9802074952
 20
215.3842291944
 11
322.9802074952
 21
214.9055054002
  0
LINE
  5
508
100
AcDbEntity
  8
KONSTRUKTIONSELEMENTE
100
AcDbLine
 62
7
  6
CONTINUOUS
 10
323.1364576442
 20
325.6395481341
 11
323.1364576442
 21
290.6395481341
  0
LINE
  5
509
100
AcDbEntity
  8
0
100
AcDbLine
 62
7
  6
CONTINUOUS
 10
323.9177074952
 20
215.3842291944
 11
323.9177074952
 21
214.7459309511
  0
LINE
  5
50A
100
AcDbEntity
  8
0
100
AcDbLine
 62
7
  6
CONTINUOUS
 10
325.0114579422
 20
204.3842291944
 11
325.0114579422
 21
203.9055054002
  0
LINE
  5
50B
100
AcDbEntity
  8
0
100
AcDbLine
 62
7
  6
CONTINUOUS
 10
325.3239574952
 20
217.1395481341
 11
325.3239574952
 21
212.1927395426
  0
LINE
  5
50C
100
AcDbEntity
  8
KONSTRUKTIONSELEMENTE
100
AcDbLine
 62
7
  6
CONTINUOUS
 10
325.63789806
 20
183.6395481341
 11
325.63789806
 21
196.6395481341
  0
LINE
  5
50D
100
AcDbEntity
  8
0
100
AcDbLine
 62
7
  6
CONTINUOUS
 10
325.9489579422
 20
204.3842291944
 11
325.9489579422
 21
203.7459309511
  0
LINE
  5
50E
100
AcDbEntity
  8
0
100
AcDbLine
 62
7
  6
CONTINUOUS
 10
326.2614579422
 20
217.1395481341
 11
326.2614579422
 21
212.1927395426
  0
LINE
  5
50F
100
AcDbEntity
  8
0
100
AcDbLine
 62
7
  6
CONTINUOUS
 10
327.1989576442
 20
202.1501864605
 11
327.1989576442
 21
201.3523139917
  0
LINE
  5
510
100
AcDbEntity
  8
0
100
AcDbLine
 62
7
  6
CONTINUOUS
 10
315.698990944
 20
190.0969949
 11
315.785522128
 21
190.7097607844
  0
LINE
  5
511
100
AcDbEntity
  8
0
100
AcDbLine
 62
7
  6
CONTINUOUS
 10
316.2002191426
 20
190.0969949
 11
316.2867503266
 21
190.7097607844
  0
LINE
  5
512
100
AcDbEntity
  8
0
100
AcDbLine
 62
7
  6
CONTINUOUS
 10
317.9488106402
 20
189.3821013682
 11
317.862278466
 21
188.7693353407
  0
LINE
  5
513
100
AcDbEntity
  8
0
100
AcDbLine
 62
7
  6
CONTINUOUS
 10
315.3528652178
 20
190.7097607844
 11
315.2663330435
 21
190.1991225474
  0
LINE
  5
514
100
AcDbEntity
  8
0
100
AcDbLine
 62
7
  6
CONTINUOUS
 10
308.4989145543
 20
187.3395481341
 11
308.9405524027
 21
189.8154252591
  0
LINE
  5
515
100
AcDbEntity
  8
0
100
AcDbLine
 62
7
  6
CONTINUOUS
 10
303.4980474584
 20
190.9140160792
 11
303.5845789519
 21
191.2203993075
  0
LINE
  5
516
100
AcDbEntity
  8
0
100
AcDbLine
 62
7
  6
CONTINUOUS
 10
303.999275657
 20
190.9140160792
 11
304.0858071505
 21
191.2203993075
  0
LINE
  5
517
100
AcDbEntity
  8
RUNDUNGEN
100
AcDbLine
 62
7
  6
CONTINUOUS
 10
320.1364576442
 20
257.9104231451
 11
319.6076912518
 21
257.4507735328
  0
LINE
  5
518
100
AcDbEntity
  8
0
100
AcDbLine
 62
7
  6
CONTINUOUS
 10
337.5114570481
 20
214.5863565021
 11
337.3552076442
 21
215.2246542983
  0
LINE
  5
519
100
AcDbEntity
  8
0
100
AcDbLine
 62
7
  6
CONTINUOUS
 10
329.3864582402
 20
202.1501864605
 11
329.3864582402
 21
201.3523139917
  0
LINE
  5
51A
100
AcDbEntity
  8
0
100
AcDbLine
 62
7
  6
CONTINUOUS
 10
330.0114579422
 20
217.1395481341
 11
330.0114579422
 21
212.1927395426
  0
LINE
  5
51B
100
AcDbEntity
  8
KONSTRUKTIONSELEMENTE
100
AcDbLine
 62
7
  6
CONTINUOUS
 10
330.6350172284
 20
183.6395481341
 11
330.6350172284
 21
196.6395481341
  0
LINE
  5
51C
100
AcDbEntity
  8
0
100
AcDbLine
 62
7
  6
CONTINUOUS
 10
330.6364570481
 20
201.8310375624
 11
330.6364570481
 21
200.8735906445
  0
LINE
  5
51D
100
AcDbEntity
  8
0
100
AcDbLine
 62
7
  6
CONTINUOUS
 10
330.9489579422
 20
217.1395481341
 11
330.9489579422
 21
212.1927395426
  0
LINE
  5
51E
100
AcDbEntity
  8
0
100
AcDbLine
 62
7
  6
CONTINUOUS
 10
332.1989576442
 20
217.1395481341
 11
332.1989576442
 21
209.6395481341
  0
LINE
  5
51F
100
AcDbEntity
  8
KONSTRUKTIONSELEMENTE
100
AcDbLine
 62
7
  6
CONTINUOUS
 10
333.1364576442
 20
325.6395481341
 11
333.1364576442
 21
290.6395481341
  0
LINE
  5
520
100
AcDbEntity
  8
0
100
AcDbLine
 62
7
  6
CONTINUOUS
 10
333.1364576442
 20
216.1821014397
 11
333.1364576442
 21
210.5969949402
  0
LINE
  5
521
100
AcDbEntity
  8
0
100
AcDbLine
 62
7
  6
CONTINUOUS
 10
333.6364576442
 20
319.1995481341
 11
333.6364576442
 21
312.1995481341
  0
LINE
  5
522
100
AcDbEntity
  8
0
100
AcDbLine
 62
7
  6
CONTINUOUS
 10
333.6364576442
 20
311.1995481341
 11
333.6364576442
 21
304.1995481341
  0
LINE
  5
523
100
AcDbEntity
  8
0
100
AcDbLine
 62
7
  6
CONTINUOUS
 10
333.6364576442
 20
303.1995481341
 11
333.6364576442
 21
296.1995481341
  0
LINE
  5
524
100
AcDbEntity
  8
0
100
AcDbLine
 62
7
  6
CONTINUOUS
 10
334.3864570481
 20
204.8629525416
 11
334.3864570481
 21
201.8310375624
  0
LINE
  5
525
100
AcDbEntity
  8
0
100
AcDbLine
 62
7
  6
CONTINUOUS
 10
334.3864570481
 20
198.6395481341
 11
334.3864570481
 21
200.8735906445
  0
LINE
  5
526
100
AcDbEntity
  8
0
100
AcDbLine
 62
7
  6
CONTINUOUS
 10
335.3239570481
 20
206.1395481341
 11
335.3239570481
 21
201.8310375624
  0
LINE
  5
527
100
AcDbEntity
  8
0
100
AcDbLine
 62
7
  6
CONTINUOUS
 10
335.3239570481
 20
200.8735906445
 11
335.3239570481
 21
198.6395481341
  0
LINE
  5
528
100
AcDbEntity
  8
KONSTRUKTIONSELEMENTE
100
AcDbLine
 62
7
  6
CONTINUOUS
 10
336.1364576442
 20
356.8985315007
 11
336.1364576442
 21
336.8227179722
  0
LINE
  5
529
100
AcDbEntity
  8
KONSTRUKTIONSELEMENTE
100
AcDbLine
 62
7
  6
CONTINUOUS
 10
336.1364576442
 20
279.4557914424
 11
336.1364576442
 21
252.6395481341
  0
LINE
  5
52A
100
AcDbEntity
  8
0
100
AcDbLine
 62
7
  6
CONTINUOUS
 10
336.6364576442
 20
366.1363358621
 11
336.6364576442
 21
354.2536074136
  0
LINE
  5
52B
100
AcDbEntity
  8
0
100
AcDbLine
 62
7
  6
CONTINUOUS
 10
336.8864582402
 20
201.8310375624
 11
336.8864582402
 21
200.8735906445
  0
LINE
  5
52C
100
AcDbEntity
  8
0
100
AcDbLine
 62
7
  6
CONTINUOUS
 10
318.2949363665
 20
188.7693353407
 11
318.3814675505
 21
189.2799737208
  0
LINE
  5
52D
100
AcDbEntity
  8
0
100
AcDbLine
 62
7
  6
CONTINUOUS
 10
318.7961645651
 20
188.7693353407
 11
318.8826957491
 21
189.2799737208
  0
LINE
  5
52E
100
AcDbEntity
  8
0
100
AcDbLine
 62
7
  6
CONTINUOUS
 10
315.4393964018
 20
191.0161440127
 11
315.3528652178
 21
190.7097607844
  0
LINE
  5
52F
100
AcDbEntity
  8
0
100
AcDbLine
 62
7
  6
CONTINUOUS
 10
317.9802074952
 20
203.9055054002
 11
317.8239576442
 21
203.426782053
  0
LINE
  5
530
100
AcDbEntity
  8
0
100
AcDbLine
 62
7
  6
CONTINUOUS
 10
318.9177074952
 20
203.7459309511
 11
318.7614576442
 21
203.2672076039
  0
LINE
  5
531
100
AcDbEntity
  8
0
100
AcDbLine
 62
7
  6
CONTINUOUS
 10
305.7478669071
 20
188.0544417374
 11
305.9209297702
 21
188.4629523985
  0
LINE
  5
532
100
AcDbEntity
  8
0
100
AcDbLine
 62
7
  6
CONTINUOUS
 10
306.2490951057
 20
188.0544417374
 11
306.4221579688
 21
188.4629523985
  0
LINE
  5
533
100
AcDbEntity
  8
RUNDUNGEN
100
AcDbLine
 62
7
  6
CONTINUOUS
 10
336.665223873
 20
257.450773675
 11
336.1364576442
 21
257.9104231451
  0
LINE
  5
534
100
AcDbEntity
  8
0
100
AcDbLine
 62
7
  6
CONTINUOUS
 10
347.5394243248
 20
191.7352929823
 11
347.4312591878
 21
192.2459312193
  0
LINE
  5
535
100
AcDbEntity
  8
0
100
AcDbLine
 62
7
  6
CONTINUOUS
 10
347.7900304342
 20
191.7352929823
 11
347.6818652972
 21
192.2459312193
  0
LINE
  5
536
100
AcDbEntity
  8
0
100
AcDbLine
 62
7
  6
CONTINUOUS
 10
338.4489570481
 20
214.5863565021
 11
338.2927076442
 21
215.3842291944
  0
LINE
  5
537
100
AcDbEntity
  8
0
100
AcDbLine
 62
7
  6
CONTINUOUS
 10
337.5114570481
 20
214.5863565021
 11
337.5114570481
 21
212.1927395426
  0
LINE
  5
538
100
AcDbEntity
  8
0
100
AcDbLine
 62
7
  6
CONTINUOUS
 10
337.8388000774
 20
193.1395481341
 11
337.8388000774
 21
187.1395481341
  0
LINE
  5
539
100
AcDbEntity
  8
0
100
AcDbLine
 62
7
  6
CONTINUOUS
 10
338.1364570481
 20
203.7459309511
 11
338.1364570481
 21
203.1076331549
  0
LINE
  5
53A
100
AcDbEntity
  8
0
100
AcDbLine
 62
7
  6
CONTINUOUS
 10
338.2371872656
 20
187.1395481341
 11
338.2371872656
 21
191.8629525416
  0
LINE
  5
53B
100
AcDbEntity
  8
0
100
AcDbLine
 62
7
  6
CONTINUOUS
 10
338.4489570481
 20
214.5863565021
 11
338.4489570481
 21
212.1927395426
  0
LINE
  5
53C
100
AcDbEntity
  8
0
100
AcDbLine
 62
7
  6
CONTINUOUS
 10
338.487793375
 20
187.1395481341
 11
338.487793375
 21
191.8629525416
  0
LINE
  5
53D
100
AcDbEntity
  8
0
100
AcDbLine
 62
7
  6
CONTINUOUS
 10
339.3864576442
 20
205.0225269907
 11
339.3864576442
 21
203.7459309511
  0
LINE
  5
53E
100
AcDbEntity
  8
0
100
AcDbLine
 62
7
  6
CONTINUOUS
 10
339.3864576442
 20
203.1076331549
 11
339.3864576442
 21
199.9161438384
  0
LINE
  5
53F
100
AcDbEntity
  8
0
100
AcDbLine
 62
7
  6
CONTINUOUS
 10
340.1364576442
 20
183.6395481341
 11
340.1364576442
 21
149.6395481341
  0
LINE
  5
540
100
AcDbEntity
  8
FASEN
100
AcDbLine
 62
7
  6
CONTINUOUS
 10
340.1364576442
 20
183.6395481341
 11
340.1364576442
 21
149.6395481341
  0
LINE
  5
541
100
AcDbEntity
  8
0
100
AcDbLine
 62
7
  6
CONTINUOUS
 10
340.1677082402
 20
205.0225269907
 11
340.1677082402
 21
203.7459309511
  0
LINE
  5
542
100
AcDbEntity
  8
0
100
AcDbLine
 62
7
  6
CONTINUOUS
 10
340.1677082402
 20
203.1076331549
 11
340.1677082402
 21
200.2352928482
  0
LINE
  5
543
100
AcDbEntity
  8
0
100
AcDbLine
 62
7
  6
CONTINUOUS
 10
341.5739582402
 20
199.2778459862
 11
341.5739582402
 21
198.6395481341
  0
LINE
  5
544
100
AcDbEntity
  8
0
100
AcDbLine
 62
7
  6
CONTINUOUS
 10
341.8864570481
 20
203.7459309511
 11
341.8864570481
 21
203.1076331549
  0
LINE
  5
545
100
AcDbEntity
  8
0
100
AcDbLine
 62
7
  6
CONTINUOUS
 10
342.3817531606
 20
191.8629525416
 11
342.3817531606
 21
187.1395481341
  0
LINE
  5
546
100
AcDbEntity
  8
0
100
AcDbLine
 62
7
  6
CONTINUOUS
 10
342.7801403487
 20
187.1395481341
 11
342.7801403487
 21
193.1395481341
  0
LINE
  5
547
100
AcDbEntity
  8
0
100
AcDbLine
 62
7
  6
CONTINUOUS
 10
343.0307464582
 20
187.1395481341
 11
343.0307464582
 21
193.1395481341
  0
LINE
  5
548
100
AcDbEntity
  8
0
100
AcDbLine
 62
7
  6
CONTINUOUS
 10
343.8960706486
 20
187.7778460198
 11
343.8960706486
 21
187.1395481341
  0
LINE
  5
549
100
AcDbEntity
  8
0
100
AcDbLine
 62
7
  6
CONTINUOUS
 10
330.9489579422
 20
212.1927395426
 11
330.7927076442
 21
211.3948672973
  0
LINE
  5
54A
100
AcDbEntity
  8
0
100
AcDbLine
 62
7
  6
CONTINUOUS
 10
330.0114579422
 20
212.1927395426
 11
329.8552076442
 21
211.5544417464
  0
LINE
  5
54B
100
AcDbEntity
  8
0
100
AcDbLine
 62
7
  6
CONTINUOUS
 10
318.2084051825
 20
188.4629523985
 11
318.2949363665
 21
188.7693353407
  0
LINE
  5
54C
100
AcDbEntity
  8
0
100
AcDbLine
 62
7
  6
CONTINUOUS
 10
318.7096333811
 20
188.4629523985
 11
318.7961645651
 21
188.7693353407
  0
LINE
  5
54D
100
AcDbEntity
  8
0
100
AcDbLine
 62
7
  6
CONTINUOUS
 10
322.9802074952
 20
214.9055054002
 11
322.8239576442
 21
214.426782053
  0
LINE
  5
54E
100
AcDbEntity
  8
0
100
AcDbLine
 62
7
  6
CONTINUOUS
 10
323.9177074952
 20
214.7459309511
 11
323.7614576442
 21
214.2672076039
  0
LINE
  5
54F
100
AcDbEntity
  8
0
100
AcDbLine
 62
7
  6
CONTINUOUS
 10
325.0114579422
 20
203.9055054002
 11
324.8552076442
 21
203.426782053
  0
LINE
  5
550
100
AcDbEntity
  8
0
100
AcDbLine
 62
7
  6
CONTINUOUS
 10
325.9489579422
 20
203.7459309511
 11
325.7927076442
 21
203.2672076039
  0
LINE
  5
551
100
AcDbEntity
  8
0
100
AcDbLine
 62
7
  6
CONTINUOUS
 10
314.0548925065
 20
191.6289098971
 11
312.3242618948
 21
187.3395481341
  0
LINE
  5
552
100
AcDbEntity
  8
0
100
AcDbLine
 62
7
  6
CONTINUOUS
 10
312.8434509793
 20
187.3395481341
 11
314.574081591
 21
191.6289098971
  0
LINE
  5
553
100
AcDbEntity
  8
0
100
AcDbLine
 62
7
  6
CONTINUOUS
 10
313.3446791779
 20
187.3395481341
 11
315.0753097896
 21
191.6289098971
  0
LINE
  5
554
100
AcDbEntity
  8
0
100
AcDbLine
 62
7
  6
CONTINUOUS
 10
315.61245976
 20
191.4246546023
 11
315.4393964018
 21
191.0161440127
  0
LINE
  5
555
100
AcDbEntity
  8
0
100
AcDbLine
 62
7
  6
CONTINUOUS
 10
305.4017406857
 20
188.5650800459
 11
305.2286778226
 21
188.2586971037
  0
LINE
  5
556
100
AcDbEntity
  8
KONSTRUKTIONSELEMENTE
100
AcDbLine
 62
7
  6
CONTINUOUS
 10
323.1364576442
 20
325.6395481341
 11
320.1362946986
 21
336.8363086781
  0
LINE
  5
557
100
AcDbEntity
  8
KONSTRUKTIONSELEMENTE
100
AcDbLine
 62
7
  6
CONTINUOUS
 10
333.1364576442
 20
290.6395481341
 11
336.1366205412
 21
279.4427877714
  0
LINE
  5
558
100
AcDbEntity
  8
0
100
AcDbLine
 62
7
  6
CONTINUOUS
 10
347.1410371366
 20
191.7352929823
 11
347.1410371366
 21
191.4799735062
  0
LINE
  5
559
100
AcDbEntity
  8
0
100
AcDbLine
 62
7
  6
CONTINUOUS
 10
347.5394243248
 20
187.1395481341
 11
347.5394243248
 21
187.7778460198
  0
LINE
  5
55A
100
AcDbEntity
  8
0
100
AcDbLine
 62
7
  6
CONTINUOUS
 10
347.5394243248
 20
191.4799735062
 11
347.5394243248
 21
191.7352929823
  0
LINE
  5
55B
100
AcDbEntity
  8
0
100
AcDbLine
 62
7
  6
CONTINUOUS
 10
347.7900304342
 20
187.1395481341
 11
347.7900304342
 21
187.7778460198
  0
LINE
  5
55C
100
AcDbEntity
  8
0
100
AcDbLine
 62
7
  6
CONTINUOUS
 10
347.7900304342
 20
191.4799735062
 11
347.7900304342
 21
191.7352929823
  0
LINE
  5
55D
100
AcDbEntity
  8
0
100
AcDbLine
 62
7
  6
CONTINUOUS
 10
348.6553546247
 20
189.6927396767
 11
348.6553546247
 21
188.9267821424
  0
LINE
  5
55E
100
AcDbEntity
  8
0
100
AcDbLine
 62
7
  6
CONTINUOUS
 10
351.251327815
 20
192.1182716601
 11
351.251327815
 21
189.6927396767
  0
LINE
  5
55F
100
AcDbEntity
  8
0
100
AcDbLine
 62
7
  6
CONTINUOUS
 10
351.251327815
 20
188.9267821424
 11
351.251327815
 21
187.1395481341
  0
LINE
  5
560
100
AcDbEntity
  8
0
100
AcDbLine
 62
7
  6
CONTINUOUS
 10
351.6497150032
 20
187.1395481341
 11
351.6497150032
 21
188.9267821424
  0
LINE
  5
561
100
AcDbEntity
  8
0
100
AcDbLine
 62
7
  6
CONTINUOUS
 10
351.6497150032
 20
189.6927396767
 11
351.6497150032
 21
193.1395481341
  0
LINE
  5
562
100
AcDbEntity
  8
0
100
AcDbLine
 62
7
  6
CONTINUOUS
 10
351.9003211126
 20
187.1395481341
 11
351.9003211126
 21
188.9267821424
  0
LINE
  5
563
100
AcDbEntity
  8
0
100
AcDbLine
 62
7
  6
CONTINUOUS
 10
351.9003211126
 20
189.6927396767
 11
351.9003211126
 21
193.1395481341
  0
LINE
  5
564
100
AcDbEntity
  8
0
100
AcDbLine
 62
7
  6
CONTINUOUS
 10
338.4489570481
 20
212.1927395426
 11
338.2927076442
 21
211.3948672973
  0
LINE
  5
565
100
AcDbEntity
  8
0
100
AcDbLine
 62
7
  6
CONTINUOUS
 10
337.5114570481
 20
212.1927395426
 11
337.3552076442
 21
211.5544417464
  0
LINE
  5
566
100
AcDbEntity
  8
0
100
AcDbLine
 62
7
  6
CONTINUOUS
 10
318.0353418242
 20
188.0544417374
 11
318.2084051825
 21
188.4629523985
  0
LINE
  5
567
100
AcDbEntity
  8
0
100
AcDbLine
 62
7
  6
CONTINUOUS
 10
318.5365700228
 20
188.0544417374
 11
318.7096333811
 21
188.4629523985
  0
LINE
  5
568
100
AcDbEntity
  8
0
100
AcDbLine
 62
7
  6
CONTINUOUS
 10
330.7927076442
 20
211.3948672973
 11
330.4802079422
 21
210.7565693893
  0
LINE
  5
569
100
AcDbEntity
  8
0
100
AcDbLine
 62
7
  6
CONTINUOUS
 10
315.785522128
 20
190.7097607844
 11
316.1316488445
 21
191.3225269549
  0
LINE
  5
56A
100
AcDbEntity
  8
0
100
AcDbLine
 62
7
  6
CONTINUOUS
 10
316.2867503266
 20
190.7097607844
 11
316.6328770431
 21
191.3225269549
  0
LINE
  5
56B
100
AcDbEntity
  8
0
100
AcDbLine
 62
7
  6
CONTINUOUS
 10
323.7614576442
 20
214.2672076039
 11
323.2927076442
 21
213.6289098077
  0
LINE
  5
56C
100
AcDbEntity
  8
0
100
AcDbLine
 62
7
  6
CONTINUOUS
 10
349.2137468913
 20
281.6395481341
 11
341.7044346489
 21
281.6395481341
  0
LINE
  5
56D
100
AcDbEntity
  8
0
100
AcDbLine
 62
7
  6
CONTINUOUS
 10
314.5684806395
 20
281.6395481341
 11
307.0591682414
 21
281.6395481341
  0
LINE
  5
56E
100
AcDbEntity
  8
RUNDUNGEN
100
AcDbLine
 62
7
  6
CONTINUOUS
 10
356.605368731
 20
255.719675153
 11
361.7345338555
 21
246.8357005568
  0
LINE
  5
56F
100
AcDbEntity
  8
0
100
AcDbLine
 62
7
  6
CONTINUOUS
 10
352.7313713244
 20
188.9267821424
 11
352.7313713244
 21
189.6927396767
  0
LINE
  5
570
100
AcDbEntity
  8
0
100
AcDbLine
 62
7
  6
CONTINUOUS
 10
352.9819774338
 20
188.9267821424
 11
352.9819774338
 21
189.6927396767
  0
LINE
  5
571
100
AcDbEntity
  8
RUNDUNGEN
100
AcDbLine
 62
7
  6
CONTINUOUS
 10
356.1364576442
 20
273.5760193265
 11
356.1364576442
 21
257.469675153
  0
LINE
  5
572
100
AcDbEntity
  8
0
100
AcDbLine
 62
7
  6
CONTINUOUS
 10
344.1124021604
 20
192.2459312193
 11
344.0042364045
 21
191.7352929823
  0
LINE
  5
573
100
AcDbEntity
  8
0
100
AcDbLine
 62
7
  6
CONTINUOUS
 10
338.2927076442
 20
211.3948672973
 11
337.9802070481
 21
210.7565693893
  0
LINE
  5
574
100
AcDbEntity
  8
0
100
AcDbLine
 62
7
  6
CONTINUOUS
 10
317.862278466
 20
188.7693353407
 11
317.5161527397
 21
188.1565693848
  0
LINE
  5
575
100
AcDbEntity
  8
0
100
AcDbLine
 62
7
  6
CONTINUOUS
 10
329.8552076442
 20
211.5544417464
 11
329.5427079422
 21
211.0757183992
  0
LINE
  5
576
100
AcDbEntity
  8
0
100
AcDbLine
 62
7
  6
CONTINUOUS
 10
318.7614576442
 20
203.2672076039
 11
318.2927076442
 21
202.6289098077
  0
LINE
  5
577
100
AcDbEntity
  8
0
100
AcDbLine
 62
7
  6
CONTINUOUS
 10
325.7927076442
 20
203.2672076039
 11
325.3239576442
 21
202.6289098077
  0
LINE
  5
578
100
AcDbEntity
  8
0
100
AcDbLine
 62
7
  6
CONTINUOUS
 10
303.411515965
 20
191.8331651919
 11
303.0653898983
 21
191.4246546023
  0
LINE
  5
579
100
AcDbEntity
  8
0
100
AcDbLine
 62
7
  6
CONTINUOUS
 10
305.4017406857
 20
187.6459311121
 11
305.7478669071
 21
188.0544417374
  0
LINE
  5
57A
100
AcDbEntity
  8
0
100
AcDbLine
 62
7
  6
CONTINUOUS
 10
305.9029688843
 20
187.6459311121
 11
306.2490951057
 21
188.0544417374
  0
LINE
  5
57B
100
AcDbEntity
  8
0
100
AcDbLine
 62
7
  6
CONTINUOUS
 10
322.8239576442
 20
214.426782053
 11
322.5114574952
 21
214.1076331549
  0
LINE
  5
57C
100
AcDbEntity
  8
0
100
AcDbLine
 62
7
  6
CONTINUOUS
 10
317.8239576442
 20
203.426782053
 11
317.5114574952
 21
203.1076331549
  0
LINE
  5
57D
100
AcDbEntity
  8
RUNDUNGEN
100
AcDbLine
 62
7
  6
CONTINUOUS
 10
351.4910172403
 20
280.56807327
 11
355.2006354167
 21
276.1471224812
  0
LINE
  5
57E
100
AcDbEntity
  8
KONSTRUKTIONSELEMENTE
100
AcDbLine
 62
7
  6
CONTINUOUS
 10
360.7227533853
 20
183.6395481341
 11
360.7227533853
 21
196.6395481341
  0
LINE
  5
57F
100
AcDbEntity
  8
0
100
AcDbLine
 62
7
  6
CONTINUOUS
 10
362.1364576442
 20
245.3357005568
 11
362.1364576442
 21
196.6395481341
  0
LINE
  5
580
100
AcDbEntity
  8
KONSTRUKTIONSELEMENTE
100
AcDbLine
 62
7
  6
CONTINUOUS
 10
363.1361365933
 20
183.6395481341
 11
363.1361365933
 21
196.6395481341
  0
LINE
  5
581
100
AcDbEntity
  8
0
100
AcDbLine
 62
7
  6
CONTINUOUS
 10
347.4312591878
 20
190.9693352692
 11
347.5394243248
 21
191.4799735062
  0
LINE
  5
582
100
AcDbEntity
  8
0
100
AcDbLine
 62
7
  6
CONTINUOUS
 10
347.6818652972
 20
190.9693352692
 11
347.7900304342
 21
191.4799735062
  0
LINE
  5
583
100
AcDbEntity
  8
0
100
AcDbLine
 62
7
  6
CONTINUOUS
 10
342.0572565118
 20
193.1395481341
 11
340.4347732678
 21
187.7778460198
  0
LINE
  5
584
100
AcDbEntity
  8
0
100
AcDbLine
 62
7
  6
CONTINUOUS
 10
340.6168292536
 20
187.1395481341
 11
342.1311470511
 21
191.8629525416
  0
LINE
  5
585
100
AcDbEntity
  8
0
100
AcDbLine
 62
7
  6
CONTINUOUS
 10
340.867435363
 20
187.1395481341
 11
342.3817531606
 21
191.8629525416
  0
LINE
  5
586
100
AcDbEntity
  8
0
100
AcDbLine
 62
7
  6
CONTINUOUS
 10
337.3552076442
 20
211.5544417464
 11
337.0427070481
 21
211.0757183992
  0
LINE
  5
587
100
AcDbEntity
  8
0
100
AcDbLine
 62
7
  6
CONTINUOUS
 10
315.8720543023
 20
191.7310375445
 11
315.61245976
 21
191.4246546023
  0
LINE
  5
588
100
AcDbEntity
  8
0
100
AcDbLine
 62
7
  6
CONTINUOUS
 10
317.775747282
 20
187.7480587595
 11
318.0353418242
 21
188.0544417374
  0
LINE
  5
589
100
AcDbEntity
  8
0
100
AcDbLine
 62
7
  6
CONTINUOUS
 10
318.2769754806
 20
187.7480587595
 11
318.5365700228
 21
188.0544417374
  0
LINE
  5
58A
100
AcDbEntity
  8
0
100
AcDbLine
 62
7
  6
CONTINUOUS
 10
334.3864570481
 20
206.1395481341
 11
330.6364570481
 21
201.8310375624
  0
LINE
  5
58B
100
AcDbEntity
  8
0
100
AcDbLine
 62
7
  6
CONTINUOUS
 10
330.4802079422
 20
210.7565693893
 11
329.8552076442
 21
210.1182715372
  0
LINE
  5
58C
100
AcDbEntity
  8
0
100
AcDbLine
 62
7
  6
CONTINUOUS
 10
324.8552076442
 20
203.426782053
 11
324.5427079422
 21
203.1076331549
  0
LINE
  5
58D
100
AcDbEntity
  8
0
100
AcDbLine
 62
7
  6
CONTINUOUS
 10
303.5845789519
 20
191.2203993075
 11
303.844173556
 21
191.4246546023
  0
LINE
  5
58E
100
AcDbEntity
  8
0
100
AcDbLine
 62
7
  6
CONTINUOUS
 10
304.0858071505
 20
191.2203993075
 11
304.3454017546
 21
191.4246546023
  0
LINE
  5
58F
100
AcDbEntity
  8
0
100
AcDbLine
 62
7
  6
CONTINUOUS
 10
318.2927076442
 20
202.6289098077
 11
317.6677077932
 21
202.1501864605
  0
LINE
  5
590
100
AcDbEntity
  8
0
100
AcDbLine
 62
7
  6
CONTINUOUS
 10
323.2927076442
 20
213.6289098077
 11
322.6677077932
 21
213.3097609096
  0
LINE
  5
591
100
AcDbEntity
  8
0
100
AcDbLine
 62
7
  6
CONTINUOUS
 10
333.1364576442
 20
296.1995481341
 11
333.6364576442
 21
296.1995481341
  0
LINE
  5
592
100
AcDbEntity
  8
0
100
AcDbLine
 62
7
  6
CONTINUOUS
 10
347.1410371366
 20
191.4799735062
 11
346.9247062437
 21
190.9693352692
  0
LINE
  5
593
100
AcDbEntity
  8
0
100
AcDbLine
 62
7
  6
CONTINUOUS
 10
344.2944578368
 20
191.7352929823
 11
344.5107893486
 21
192.1182716601
  0
LINE
  5
594
100
AcDbEntity
  8
0
100
AcDbLine
 62
7
  6
CONTINUOUS
 10
344.5450639462
 20
191.7352929823
 11
344.761395458
 21
192.1182716601
  0
LINE
  5
595
100
AcDbEntity
  8
0
100
AcDbLine
 62
7
  6
CONTINUOUS
 10
334.3864570481
 20
204.8629525416
 11
331.7302082402
 21
201.8310375624
  0
LINE
  5
596
100
AcDbEntity
  8
0
100
AcDbLine
 62
7
  6
CONTINUOUS
 10
337.9802070481
 20
210.7565693893
 11
337.3552076442
 21
210.1182715372
  0
LINE
  5
597
100
AcDbEntity
  8
0
100
AcDbLine
 62
7
  6
CONTINUOUS
 10
305.2286778226
 20
188.2586971037
 11
304.9690832803
 21
188.0544417374
  0
LINE
  5
598
100
AcDbEntity
  8
0
100
AcDbLine
 62
7
  6
CONTINUOUS
 10
316.1316488445
 20
191.3225269549
 11
316.3912433868
 21
191.5267822497
  0
LINE
  5
599
100
AcDbEntity
  8
0
100
AcDbLine
 62
7
  6
CONTINUOUS
 10
316.6328770431
 20
191.3225269549
 11
316.8924715853
 21
191.5267822497
  0
LINE
  5
59A
100
AcDbEntity
  8
0
100
AcDbLine
 62
7
  6
CONTINUOUS
 10
325.3239576442
 20
202.6289098077
 11
324.6989573462
 21
202.1501864605
  0
LINE
  5
59B
100
AcDbEntity
  8
0
100
AcDbLine
 62
7
  6
CONTINUOUS
 10
329.5427079422
 20
211.0757183992
 11
329.0739579422
 21
210.7565693893
  0
LINE
  5
59C
100
AcDbEntity
  8
0
100
AcDbLine
 62
7
  6
CONTINUOUS
 10
337.0427070481
 20
211.0757183992
 11
336.5739570481
 21
210.7565693893
  0
LINE
  5
59D
100
AcDbEntity
  8
0
100
AcDbLine
 62
7
  6
CONTINUOUS
 10
303.7576420007
 20
192.0374204867
 11
303.411515965
 21
191.8331651919
  0
LINE
  5
59E
100
AcDbEntity
  8
0
100
AcDbLine
 62
7
  6
CONTINUOUS
 10
329.8552076442
 20
210.1182715372
 11
329.2302073462
 21
209.7991225971
  0
LINE
  5
59F
100
AcDbEntity
  8
0
100
AcDbLine
 62
7
  6
CONTINUOUS
 10
322.5114574952
 20
214.1076331549
 11
322.0427074952
 21
213.9480587058
  0
LINE
  5
5A0
100
AcDbEntity
  8
0
100
AcDbLine
 62
7
  6
CONTINUOUS
 10
333.1364576442
 20
303.1995481341
 11
333.6364576442
 21
303.1995481341
  0
LINE
  5
5A1
100
AcDbEntity
  8
0
100
AcDbLine
 62
7
  6
CONTINUOUS
 10
333.1364576442
 20
304.1995481341
 11
333.6364576442
 21
304.1995481341
  0
LINE
  5
5A2
100
AcDbEntity
  8
0
100
AcDbLine
 62
7
  6
CONTINUOUS
 10
333.1364576442
 20
304.3484842996
 11
333.6364576442
 21
304.3484842996
  0
LINE
  5
5A3
100
AcDbEntity
  8
0
100
AcDbLine
 62
7
  6
CONTINUOUS
 10
333.1364576442
 20
304.6463566436
 11
333.6364576442
 21
304.6463566436
  0
LINE
  5
5A4
100
AcDbEntity
  8
0
100
AcDbLine
 62
7
  6
CONTINUOUS
 10
333.1364576442
 20
305.2421013056
 11
333.6364576442
 21
305.2421013056
  0
LINE
  5
5A5
100
AcDbEntity
  8
0
100
AcDbLine
 62
7
  6
CONTINUOUS
 10
333.1364576442
 20
305.8378460198
 11
333.6364576442
 21
305.8378460198
  0
LINE
  5
5A6
100
AcDbEntity
  8
0
100
AcDbLine
 62
7
  6
CONTINUOUS
 10
333.1364576442
 20
306.582526782
 11
333.6364576442
 21
306.582526782
  0
LINE
  5
5A7
100
AcDbEntity
  8
0
100
AcDbLine
 62
7
  6
CONTINUOUS
 10
347.214927676
 20
190.5863565915
 11
347.4312591878
 21
190.9693352692
  0
LINE
  5
5A8
100
AcDbEntity
  8
0
100
AcDbLine
 62
7
  6
CONTINUOUS
 10
347.4655337854
 20
190.5863565915
 11
347.6818652972
 21
190.9693352692
  0
LINE
  5
5A9
100
AcDbEntity
  8
0
100
AcDbLine
 62
7
  6
CONTINUOUS
 10
344.5450639462
 20
192.7565694563
 11
344.1124021604
 21
192.2459312193
  0
LINE
  5
5AA
100
AcDbEntity
  8
0
100
AcDbLine
 62
7
  6
CONTINUOUS
 10
317.5161527397
 20
188.1565693848
 11
317.2565581975
 21
187.95231409
  0
LINE
  5
5AB
100
AcDbEntity
  8
0
100
AcDbLine
 62
7
  6
CONTINUOUS
 10
316.3047112125
 20
192.0374204867
 11
315.8720543023
 21
191.7310375445
  0
LINE
  5
5AC
100
AcDbEntity
  8
0
100
AcDbLine
 62
7
  6
CONTINUOUS
 10
317.3430893815
 20
187.4416757904
 11
317.775747282
 21
187.7480587595
  0
LINE
  5
5AD
100
AcDbEntity
  8
0
100
AcDbLine
 62
7
  6
CONTINUOUS
 10
317.8443175801
 20
187.4416757904
 11
318.2769754806
 21
187.7480587595
  0
LINE
  5
5AE
100
AcDbEntity
  8
0
100
AcDbLine
 62
7
  6
CONTINUOUS
 10
305.0556147119
 20
187.4416757904
 11
305.4017406857
 21
187.6459311121
  0
LINE
  5
5AF
100
AcDbEntity
  8
0
100
AcDbLine
 62
7
  6
CONTINUOUS
 10
305.5568429105
 20
187.4416757904
 11
305.9029688843
 21
187.6459311121
  0
LINE
  5
5B0
100
AcDbEntity
  8
0
100
AcDbLine
 62
7
  6
CONTINUOUS
 10
337.3552076442
 20
210.1182715372
 11
336.7302082402
 21
209.7991225971
  0
LINE
  5
5B1
100
AcDbEntity
  8
0
100
AcDbLine
 62
7
  6
CONTINUOUS
 10
303.844173556
 20
191.4246546023
 11
304.1037680983
 21
191.5267822497
  0
LINE
  5
5B2
100
AcDbEntity
  8
0
100
AcDbLine
 62
7
  6
CONTINUOUS
 10
304.3454017546
 20
191.4246546023
 11
304.6049962969
 21
191.5267822497
  0
LINE
  5
5B3
100
AcDbEntity
  8
0
100
AcDbLine
 62
7
  6
CONTINUOUS
 10
317.5114574952
 20
203.1076331549
 11
317.0427074952
 21
202.9480587058
  0
LINE
  5
5B4
100
AcDbEntity
  8
0
100
AcDbLine
 62
7
  6
CONTINUOUS
 10
324.5427079422
 20
203.1076331549
 11
324.0739579422
 21
202.9480587058
  0
LINE
  5
5B5
100
AcDbEntity
  8
0
100
AcDbLine
 62
7
  6
CONTINUOUS
 10
333.1364576442
 20
311.1995481341
 11
333.6364576442
 21
311.1995481341
  0
LINE
  5
5B6
100
AcDbEntity
  8
0
100
AcDbLine
 62
7
  6
CONTINUOUS
 10
333.1364576442
 20
312.1995481341
 11
333.6364576442
 21
312.1995481341
  0
LINE
  5
5B7
100
AcDbEntity
  8
0
100
AcDbLine
 62
7
  6
CONTINUOUS
 10
351.251327815
 20
193.1395481341
 11
348.6553546247
 21
189.6927396767
  0
LINE
  5
5B8
100
AcDbEntity
  8
0
100
AcDbLine
 62
7
  6
CONTINUOUS
 10
349.1619081877
 20
189.6927396767
 11
351.0007217056
 21
192.1182716601
  0
LINE
  5
5B9
100
AcDbEntity
  8
0
100
AcDbLine
 62
7
  6
CONTINUOUS
 10
349.4125142971
 20
189.6927396767
 11
351.251327815
 21
192.1182716601
  0
LINE
  5
5BA
100
AcDbEntity
  8
0
100
AcDbLine
 62
7
  6
CONTINUOUS
 10
346.9247062437
 20
190.9693352692
 11
343.8960706486
 21
187.7778460198
  0
LINE
  5
5BB
100
AcDbEntity
  8
0
100
AcDbLine
 62
7
  6
CONTINUOUS
 10
344.5107893486
 20
187.7778460198
 11
347.214927676
 21
190.5863565915
  0
LINE
  5
5BC
100
AcDbEntity
  8
0
100
AcDbLine
 62
7
  6
CONTINUOUS
 10
344.761395458
 20
187.7778460198
 11
347.4655337854
 21
190.5863565915
  0
LINE
  5
5BD
100
AcDbEntity
  8
0
100
AcDbLine
 62
7
  6
CONTINUOUS
 10
344.5107893486
 20
192.1182716601
 11
344.8352859974
 21
192.3735907786
  0
LINE
  5
5BE
100
AcDbEntity
  8
0
100
AcDbLine
 62
7
  6
CONTINUOUS
 10
344.761395458
 20
192.1182716601
 11
345.0858921068
 21
192.3735907786
  0
LINE
  5
5BF
100
AcDbEntity
  8
0
100
AcDbLine
 62
7
  6
CONTINUOUS
 10
304.1037680983
 20
192.1395481341
 11
303.7576420007
 21
192.0374204867
  0
LINE
  5
5C0
100
AcDbEntity
  8
0
100
AcDbLine
 62
7
  6
CONTINUOUS
 10
304.9690832803
 20
188.0544417374
 11
304.6229571828
 21
187.95231409
  0
LINE
  5
5C1
100
AcDbEntity
  8
0
100
AcDbLine
 62
7
  6
CONTINUOUS
 10
333.1364576442
 20
319.1995481341
 11
333.6364576442
 21
319.1995481341
  0
LINE
  5
5C2
100
AcDbEntity
  8
0
100
AcDbLine
 62
7
  6
CONTINUOUS
 10
344.9777263509
 20
193.0118885748
 11
344.5450639462
 21
192.7565694563
  0
LINE
  5
5C3
100
AcDbEntity
  8
FASEN
100
AcDbLine
 62
7
  6
CONTINUOUS
 10
338.1364576439
 20
147.6395481338
 11
340.1364576439
 21
149.6395481338
  0
LINE
  5
5C4
100
AcDbEntity
  8
0
100
AcDbLine
 62
7
  6
CONTINUOUS
 10
336.1364576442
 20
354.2536074136
 11
336.6364576442
 21
354.2536074136
  0
LINE
  5
5C5
100
AcDbEntity
  8
0
100
AcDbLine
 62
7
  6
CONTINUOUS
 10
335.6572751841
 20
359.1161461628
 11
336.6364576442
 21
359.1161461628
  0
LINE
  5
5C6
100
AcDbEntity
  8
0
100
AcDbLine
 62
7
  6
CONTINUOUS
 10
335.6856046616
 20
360.8736811491
 11
336.6364576442
 21
360.8736811491
  0
LINE
  5
5C7
100
AcDbEntity
  8
0
100
AcDbLine
 62
7
  6
CONTINUOUS
 10
335.7223375506
 20
361.1363760822
 11
336.6364576442
 21
361.1363760822
  0
LINE
  5
5C8
100
AcDbEntity
  8
0
100
AcDbLine
 62
7
  6
CONTINUOUS
 10
335.6572751792
 20
362.9935068663
 11
336.6364576442
 21
362.9935068663
  0
LINE
  5
5C9
100
AcDbEntity
  8
0
100
AcDbLine
 62
7
  6
CONTINUOUS
 10
335.685604663
 20
364.155223649
 11
336.6364576442
 21
364.155223649
  0
LINE
  5
5CA
100
AcDbEntity
  8
0
100
AcDbLine
 62
7
  6
CONTINUOUS
 10
335.7223375583
 20
364.2795484027
 11
336.6364576442
 21
364.2795484027
  0
LINE
  5
5CB
100
AcDbEntity
  8
0
100
AcDbLine
 62
7
  6
CONTINUOUS
 10
335.7294727594
 20
366.1363358621
 11
336.6364576442
 21
366.1363358621
  0
LINE
  5
5CC
100
AcDbEntity
  8
KONSTRUKTIONSELEMENTE
100
AcDbLine
 62
7
  6
CONTINUOUS
 10
173.4166317334
 20
56.5625064097
 11
173.4166317334
 21
51.5653872413
  0
LINE
  5
5CD
100
AcDbEntity
  8
KONSTRUKTIONSELEMENTE
100
AcDbLine
 62
7
  6
CONTINUOUS
 10
195.0320891278
 20
89.0642678764
 11
190.8452198041
 21
86.6510393034
  0
LINE
  5
5CE
100
AcDbEntity
  8
KONSTRUKTIONSELEMENTE
100
AcDbLine
 62
7
  6
CONTINUOUS
 10
190.8440162556
 20
21.4776510845
 11
195.030796447
 21
19.0642678764
  0
LINE
  5
5CF
100
AcDbEntity
  8
KONSTRUKTIONSELEMENTE
100
AcDbLine
 62
7
  6
CONTINUOUS
 10
190.8452198041
 20
86.6510393034
 11
173.4166317334
 21
56.5625064097
  0
LINE
  5
5D0
100
AcDbEntity
  8
KONSTRUKTIONSELEMENTE
100
AcDbLine
 62
7
  6
CONTINUOUS
 10
195.030796447
 20
19.0642678764
 11
229.8025593277
 21
19.0642678764
  0
LINE
  5
5D1
100
AcDbEntity
  8
KONSTRUKTIONSELEMENTE
100
AcDbLine
 62
7
  6
CONTINUOUS
 10
173.4166317334
 20
51.5653872413
 11
190.8440162556
 21
21.4776510845
  0
LINE
  5
5D2
100
AcDbEntity
  8
RUNDUNGEN
100
AcDbLine
 62
7
  6
CONTINUOUS
 10
224.4166778873
 20
26.0639468255
 11
200.4166778873
 21
26.0639468255
  0
LINE
  5
5D3
100
AcDbEntity
  8
0
100
AcDbLine
 62
7
  6
CONTINUOUS
 10
227.4166778873
 20
31.2939468255
 11
227.9166778873
 21
31.2939468255
  0
LINE
  5
5D4
100
AcDbEntity
  8
0
100
AcDbLine
 62
7
  6
CONTINUOUS
 10
227.4166778873
 20
31.4003297916
 11
227.9166778873
 21
31.4003297916
  0
LINE
  5
5D5
100
AcDbEntity
  8
0
100
AcDbLine
 62
7
  6
CONTINUOUS
 10
227.4166778873
 20
31.7194786897
 11
227.9166778873
 21
31.7194786897
  0
LINE
  5
5D6
100
AcDbEntity
  8
0
100
AcDbLine
 62
7
  6
CONTINUOUS
 10
227.4166778873
 20
32.0386275878
 11
227.9166778873
 21
32.0386275878
  0
LINE
  5
5D7
100
AcDbEntity
  8
0
100
AcDbLine
 62
7
  6
CONTINUOUS
 10
227.4166778873
 20
32.464159452
 11
227.9166778873
 21
32.464159452
  0
LINE
  5
5D8
100
AcDbEntity
  8
0
100
AcDbLine
 62
7
  6
CONTINUOUS
 10
227.4166778873
 20
32.7833086481
 11
227.9166778873
 21
32.7833086481
  0
LINE
  5
5D9
100
AcDbEntity
  8
0
100
AcDbLine
 62
7
  6
CONTINUOUS
 10
227.4166778873
 20
33.3152234783
 11
227.9166778873
 21
33.3152234783
  0
LINE
  5
5DA
100
AcDbEntity
  8
0
100
AcDbLine
 62
7
  6
CONTINUOUS
 10
192.5922837988
 20
46.5431292856
 11
192.5922837988
 21
45.5639468255
  0
LINE
  5
5DB
100
AcDbEntity
  8
0
100
AcDbLine
 62
7
  6
CONTINUOUS
 10
195.0235531734
 20
46.5147998081
 11
195.0235531734
 21
45.5639468255
  0
LINE
  5
5DC
100
AcDbEntity
  8
0
100
AcDbLine
 62
7
  6
CONTINUOUS
 10
227.4166778873
 20
34.2726701727
 11
227.9166778873
 21
34.2726701727
  0
LINE
  5
5DD
100
AcDbEntity
  8
0
100
AcDbLine
 62
7
  6
CONTINUOUS
 10
227.4166778873
 20
34.8045851519
 11
227.9166778873
 21
34.8045851519
  0
LINE
  5
5DE
100
AcDbEntity
  8
0
100
AcDbLine
 62
7
  6
CONTINUOUS
 10
227.4166778873
 20
35.1237340501
 11
227.9166778873
 21
35.1237340501
  0
LINE
  5
5DF
100
AcDbEntity
  8
0
100
AcDbLine
 62
7
  6
CONTINUOUS
 10
227.4166778873
 20
35.5492659887
 11
227.9166778873
 21
35.5492659887
  0
LINE
  5
5E0
100
AcDbEntity
  8
0
100
AcDbLine
 62
7
  6
CONTINUOUS
 10
227.4166778873
 20
35.8684149241
 11
227.9166778873
 21
35.8684149241
  0
LINE
  5
5E1
100
AcDbEntity
  8
0
100
AcDbLine
 62
7
  6
CONTINUOUS
 10
227.4166778873
 20
36.1875638502
 11
227.9166778873
 21
36.1875638502
  0
LINE
  5
5E2
100
AcDbEntity
  8
0
100
AcDbLine
 62
7
  6
CONTINUOUS
 10
227.4166778873
 20
36.2939468255
 11
227.9166778873
 21
36.2939468255
  0
LWPOLYLINE
  5
5E3
100
AcDbEntity
  8
RUNDUNGEN
100
AcDbPolyline
 62
7
  6
CONTINUOUS
 90
7
 70
0
 10
197.4166782012
 20
67.316117519
 10
197.4192513688
 20
67.1855605123
 10
197.4494624604
 20
66.8477240971
 10
197.5142084789
 20
66.5094110648
 10
197.6133940577
 20
66.1752464989
 10
197.7464833873
 20
65.848747051
 10
197.9124469098
 20
65.5333937422
  0
LINE
  5
5E4
100
AcDbEntity
  8
0
100
AcDbLine
 62
7
  6
CONTINUOUS
 10
195.604856437
 20
46.4780669191
 11
195.604856437
 21
45.5639468255
  0
LINE
  5
5E5
100
AcDbEntity
  8
0
100
AcDbLine
 62
7
  6
CONTINUOUS
 10
196.2344340445
 20
46.367786335
 11
196.2344340445
 21
45.5639468255
  0
LINE
  5
5E6
100
AcDbEntity
  8
0
100
AcDbLine
 62
7
  6
CONTINUOUS
 10
196.837497572
 20
46.2465262981
 11
196.837497572
 21
45.5639468255
  0
LINE
  5
5E7
100
AcDbEntity
  8
0
100
AcDbLine
 62
7
  6
CONTINUOUS
 10
197.1631665077
 20
46.1747825824
 11
197.1631665077
 21
45.5639468255
  0
LINE
  5
5E8
100
AcDbEntity
  8
RUNDUNGEN
100
AcDbLine
 62
7
  6
CONTINUOUS
 10
197.4166778873
 20
25.4807223247
 11
197.4166778873
 21
42.2211166376
  0
LINE
  5
5E9
100
AcDbEntity
  8
RUNDUNGEN
100
AcDbLine
 62
7
  6
CONTINUOUS
 10
197.4166778873
 20
65.9067788745
 11
197.4166778873
 21
82.6471582274
  0
LINE
  5
5EA
100
AcDbEntity
  8
0
100
AcDbLine
 62
7
  6
CONTINUOUS
 10
197.4623215728
 20
46.1058809919
 11
197.4623215728
 21
45.5639468255
  0
LINE
  5
5EB
100
AcDbEntity
  8
0
100
AcDbLine
 62
7
  6
CONTINUOUS
 10
197.5853849206
 20
46.0753195334
 11
197.5853849206
 21
45.5639468255
  0
LINE
  5
5EC
100
AcDbEntity
  8
0
100
AcDbLine
 62
7
  6
CONTINUOUS
 10
198.4195996751
 20
46.5431292905
 11
198.4195996751
 21
45.5639468255
  0
LINE
  5
5ED
100
AcDbEntity
  8
0
100
AcDbLine
 62
7
  6
CONTINUOUS
 10
181.3210589613
 20
40.3139474216
 11
181.0479033433
 21
40.3139474216
  0
LINE
  5
5EE
100
AcDbEntity
  8
0
100
AcDbLine
 62
7
  6
CONTINUOUS
 10
201.1855378734
 20
46.5147998067
 11
201.1855378734
 21
45.5639468255
  0
LINE
  5
5EF
100
AcDbEntity
  8
0
100
AcDbLine
 62
7
  6
CONTINUOUS
 10
201.8112095291
 20
46.4780669114
 11
201.8112095291
 21
45.5639468255
  0
LINE
  5
5F0
100
AcDbEntity
  8
0
100
AcDbLine
 62
7
  6
CONTINUOUS
 10
180.6165362352
 20
42.0326962295
 11
180.3493813206
 21
42.0326962295
  0
LINE
  5
5F1
100
AcDbEntity
  8
0
100
AcDbLine
 62
7
  6
CONTINUOUS
 10
180.3318294382
 20
42.8139468255
 11
180.0670256481
 21
42.8139468255
  0
LINE
  5
5F2
100
AcDbEntity
  8
0
100
AcDbLine
 62
7
  6
CONTINUOUS
 10
180.0183391021
 20
43.7514474216
 11
179.7560769124
 21
43.7514474216
  0
LINE
  5
5F3
100
AcDbEntity
  8
0
100
AcDbLine
 62
7
  6
CONTINUOUS
 10
179.9690187123
 20
43.9076968255
 11
179.7071519669
 21
43.9076968255
  0
LINE
  5
5F4
100
AcDbEntity
  8
0
100
AcDbLine
 62
7
  6
CONTINUOUS
 10
202.420503701
 20
46.3677863319
 11
202.420503701
 21
45.5639468255
  0
LINE
  5
5F5
100
AcDbEntity
  8
0
100
AcDbLine
 62
7
  6
CONTINUOUS
 10
202.9639849791
 20
46.2465262952
 11
202.9639849791
 21
45.5639468255
  0
LINE
  5
5F6
100
AcDbEntity
  8
0
100
AcDbLine
 62
7
  6
CONTINUOUS
 10
203.2275368763
 20
46.1747825848
 11
203.2275368763
 21
45.5639468255
  0
LINE
  5
5F7
100
AcDbEntity
  8
0
100
AcDbLine
 62
7
  6
CONTINUOUS
 10
203.4252760181
 20
46.1058809934
 11
203.4252760181
 21
45.5639468255
  0
LINE
  5
5F8
100
AcDbEntity
  8
0
100
AcDbLine
 62
7
  6
CONTINUOUS
 10
203.4583326258
 20
46.0753195326
 11
203.4583326258
 21
45.5639468255
  0
LWPOLYLINE
  5
5F9
100
AcDbEntity
  8
RUNDUNGEN
100
AcDbPolyline
 62
7
  6
CONTINUOUS
 90
7
 70
0
 10
197.9039589084
 20
42.58002768
 10
197.7393250466
 20
42.2636848662
 10
197.6076871549
 20
41.9362786076
 10
197.5100755873
 20
41.6013195273
 10
197.4470190891
 20
41.2623677061
 10
197.4185873136
 20
40.9241003685
 10
197.4166781449
 20
40.8118187146
  0
LINE
  5
5FA
100
AcDbEntity
  8
RUNDUNGEN
100
AcDbLine
 62
7
  6
CONTINUOUS
 10
199.058266037
 20
44.329929888
 11
198.9613861776
 21
44.1543815305
  0
LWPOLYLINE
  5
5FB
100
AcDbEntity
  8
RUNDUNGEN
100
AcDbPolyline
 62
7
  6
CONTINUOUS
 90
6
 70
0
 10
198.9613861776
 20
44.1543815305
 10
198.8088077578
 20
43.8933531707
 10
198.6511910615
 20
43.6421400521
 10
198.4888261982
 20
43.4014504101
 10
198.322041916
 20
43.1719396573
 10
198.2099197497
 20
43.0271215718
  0
LINE
  5
5FC
100
AcDbEntity
  8
0
100
AcDbLine
 62
7
  6
CONTINUOUS
 10
179.8728520878
 20
44.2201974216
 11
179.6117529877
 21
44.2201974216
  0
LINE
  5
5FD
100
AcDbEntity
  8
0
100
AcDbLine
 62
7
  6
CONTINUOUS
 10
179.6903177408
 20
44.8451968255
 11
179.4306634503
 21
44.8451968255
  0
LINE
  5
5FE
100
AcDbEntity
  8
0
100
AcDbLine
 62
7
  6
CONTINUOUS
 10
179.5206682404
 20
45.4701962295
 11
179.2623425646
 21
45.4701962295
  0
LINE
  5
5FF
100
AcDbEntity
  8
0
100
AcDbLine
 62
7
  6
CONTINUOUS
 10
230.7507085809
 20
45.5639468255
 11
222.59914773
 21
45.5639468255
  0
LINE
  5
600
100
AcDbEntity
  8
0
100
AcDbLine
 62
7
  6
CONTINUOUS
 10
221.9240463645
 20
45.5639468255
 11
218.9013824194
 21
45.5639468255
  0
LINE
  5
601
100
AcDbEntity
  8
0
100
AcDbLine
 62
7
  6
CONTINUOUS
 10
217.129391905
 20
45.5639468255
 11
212.0835368893
 21
45.5639468255
  0
LINE
  5
602
100
AcDbEntity
  8
0
100
AcDbLine
 62
7
  6
CONTINUOUS
 10
203.4583326258
 20
45.5639468255
 11
198.4195996751
 21
45.5639468255
  0
LINE
  5
603
100
AcDbEntity
  8
0
100
AcDbLine
 62
7
  6
CONTINUOUS
 10
197.5853849206
 20
45.5639468255
 11
192.5922837988
 21
45.5639468255
  0
LINE
  5
604
100
AcDbEntity
  8
KONSTRUKTIONSELEMENTE
100
AcDbLine
 62
7
  6
CONTINUOUS
 10
240.622948679
 20
46.0639468255
 11
230.7507085809
 21
46.0639468255
  0
LINE
  5
605
100
AcDbEntity
  8
KONSTRUKTIONSELEMENTE
100
AcDbLine
 62
7
  6
CONTINUOUS
 10
226.0586331703
 20
46.0639468255
 11
221.9240463645
 21
46.0639468255
  0
LINE
  5
606
100
AcDbEntity
  8
KONSTRUKTIONSELEMENTE
100
AcDbLine
 62
7
  6
CONTINUOUS
 10
218.9013824194
 20
46.0639468255
 11
216.1650949491
 21
46.0639468255
  0
LINE
  5
607
100
AcDbEntity
  8
KONSTRUKTIONSELEMENTE
100
AcDbLine
 62
7
  6
CONTINUOUS
 10
212.8356478213
 20
46.0639468255
 11
203.4583326258
 21
46.0639468255
  0
LINE
  5
608
100
AcDbEntity
  8
KONSTRUKTIONSELEMENTE
100
AcDbLine
 62
7
  6
CONTINUOUS
 10
198.4195996751
 20
46.0639468255
 11
197.581202244
 21
46.0639468255
  0
LINE
  5
609
100
AcDbEntity
  8
KONSTRUKTIONSELEMENTE
100
AcDbLine
 62
7
  6
CONTINUOUS
 10
192.5922837988
 20
46.0639468255
 11
184.2102645122
 21
46.0639468255
  0
LINE
  5
60A
100
AcDbEntity
  8
0
100
AcDbLine
 62
7
  6
CONTINUOUS
 10
179.3264248851
 20
46.2514468255
 11
179.0696038965
 21
46.2514468255
  0
LWPOLYLINE
  5
60B
100
AcDbEntity
  8
RUNDUNGEN
100
AcDbPolyline
 62
7
  6
CONTINUOUS
 90
3
 70
0
 10
198.8135303291
 20
64.2267317977
 10
198.9660068718
 20
63.9653184522
 10
199.0583398196
 20
63.7978271166
  0
LINE
  5
60C
100
AcDbEntity
  8
RUNDUNGEN
100
AcDbLine
 62
7
  6
CONTINUOUS
 10
198.0998054655
 20
42.8815193332
 11
197.9039589084
 21
42.58002768
  0
LINE
  5
60D
100
AcDbEntity
  8
RUNDUNGEN
100
AcDbLine
 62
7
  6
CONTINUOUS
 10
198.2098760783
 20
43.0270674706
 11
198.0998054655
 21
42.8815193332
  0
LINE
  5
60E
100
AcDbEntity
  8
RUNDUNGEN
100
AcDbLine
 62
7
  6
CONTINUOUS
 10
198.2099197497
 20
43.0271215718
 11
198.2098770989
 21
43.0270678784
  0
LINE
  5
60F
100
AcDbEntity
  8
KONSTRUKTIONSELEMENTE
100
AcDbLine
 62
7
  6
CONTINUOUS
 10
249.1616758857
 20
49.0639468255
 11
248.3398993456
 21
49.0639468255
  0
LINE
  5
610
100
AcDbEntity
  8
KONSTRUKTIONSELEMENTE
100
AcDbLine
 62
7
  6
CONTINUOUS
 10
176.493456429
 20
49.0639468255
 11
175.6716798889
 21
49.0639468255
  0
LINE
  5
611
100
AcDbEntity
  8
RUNDUNGEN
100
AcDbLine
 62
7
  6
CONTINUOUS
 10
198.2099226653
 20
65.1007684024
 11
198.2098735108
 21
65.100830283
  0
LWPOLYLINE
  5
612
100
AcDbEntity
  8
RUNDUNGEN
100
AcDbPolyline
 62
7
  6
CONTINUOUS
 90
5
 70
0
 10
198.2099239035
 20
65.1007689239
 10
198.3269187251
 20
64.9494892505
 10
198.4936666962
 20
64.7195196515
 10
198.65598302
 20
64.4783773989
 10
198.8135303291
 20
64.2267317977
  0
LINE
  5
613
100
AcDbEntity
  8
RUNDUNGEN
100
AcDbLine
 62
7
  6
CONTINUOUS
 10
198.1095177897
 20
65.2329362513
 11
198.2098735108
 21
65.100830283
  0
LINE
  5
614
100
AcDbEntity
  8
RUNDUNGEN
100
AcDbLine
 62
7
  6
CONTINUOUS
 10
197.9124469098
 20
65.5333937422
 11
198.1095177897
 21
65.2329362513
  0
LINE
  5
615
100
AcDbEntity
  8
0
100
AcDbLine
 62
7
  6
CONTINUOUS
 10
212.0835368893
 20
46.0639468255
 11
212.0835368893
 21
45.5639468255
  0
LINE
  5
616
100
AcDbEntity
  8
0
100
AcDbLine
 62
7
  6
CONTINUOUS
 10
212.1460982531
 20
46.0639468255
 11
212.1460982531
 21
45.5639468255
  0
LINE
  5
617
100
AcDbEntity
  8
0
100
AcDbLine
 62
7
  6
CONTINUOUS
 10
215.4176008301
 20
46.5135266848
 11
215.4176008301
 21
45.5639468255
  0
LINE
  5
618
100
AcDbEntity
  8
0
100
AcDbLine
 62
7
  6
CONTINUOUS
 10
216.1650949491
 20
46.5210575656
 11
216.1650949491
 21
45.5639468255
  0
LINE
  5
619
100
AcDbEntity
  8
0
100
AcDbLine
 62
7
  6
CONTINUOUS
 10
217.129391905
 20
46.0639468255
 11
217.129391905
 21
45.5639468255
  0
LINE
  5
61A
100
AcDbEntity
  8
0
100
AcDbLine
 62
7
  6
CONTINUOUS
 10
218.9013824194
 20
46.0679900425
 11
218.9013824194
 21
45.5639468255
  0
LINE
  5
61B
100
AcDbEntity
  8
0
100
AcDbLine
 62
7
  6
CONTINUOUS
 10
219.0448004915
 20
46.1005347927
 11
219.0448004915
 21
45.5639468255
  0
LINE
  5
61C
100
AcDbEntity
  8
RUNDUNGEN
100
AcDbLine
 62
7
  6
CONTINUOUS
 10
225.7749729358
 20
63.7977472285
 11
225.8718899814
 21
63.973372184
  0
LWPOLYLINE
  5
61D
100
AcDbEntity
  8
RUNDUNGEN
100
AcDbPolyline
 62
7
  6
CONTINUOUS
 90
6
 70
0
 10
225.8718899814
 20
63.973372184
 10
226.0244153269
 20
64.2343209898
 10
226.1820205009
 20
64.4855313602
 10
226.3444034461
 20
64.7262625036
 10
226.5112268264
 20
64.9558417682
 10
226.6234309737
 20
65.1007675511
  0
LINE
  5
61E
100
AcDbEntity
  8
RUNDUNGEN
100
AcDbLine
 62
7
  6
CONTINUOUS
 10
226.7335506132
 20
65.2463751965
 11
226.9293963004
 21
65.547865675
  0
LINE
  5
61F
100
AcDbEntity
  8
RUNDUNGEN
100
AcDbLine
 62
7
  6
CONTINUOUS
 10
226.6234805445
 20
65.1008275354
 11
226.7335506132
 21
65.2463751965
  0
LINE
  5
620
100
AcDbEntity
  8
RUNDUNGEN
100
AcDbLine
 62
7
  6
CONTINUOUS
 10
226.6234309737
 20
65.1007675511
 11
226.6234790636
 21
65.1008280913
  0
LINE
  5
621
100
AcDbEntity
  8
KONSTRUKTIONSELEMENTE
100
AcDbLine
 62
7
  6
CONTINUOUS
 10
249.1616758857
 20
59.0639468255
 11
248.3398993456
 21
59.0639468255
  0
LINE
  5
622
100
AcDbEntity
  8
KONSTRUKTIONSELEMENTE
100
AcDbLine
 62
7
  6
CONTINUOUS
 10
176.493456429
 20
59.0639468255
 11
175.6716798889
 21
59.0639468255
  0
LINE
  5
623
100
AcDbEntity
  8
RUNDUNGEN
100
AcDbLine
 62
7
  6
CONTINUOUS
 10
226.6234386916
 20
43.0271181751
 11
226.623483087
 21
43.0270622853
  0
LWPOLYLINE
  5
624
100
AcDbEntity
  8
RUNDUNGEN
100
AcDbPolyline
 62
7
  6
CONTINUOUS
 90
5
 70
0
 10
226.6234387408
 20
43.0271185317
 10
226.5065048893
 20
43.178318076
 10
226.3397815661
 20
43.4082410738
 10
226.1774783955
 20
43.6493527792
 10
226.0199250777
 20
43.9009965811
  0
LINE
  5
625
100
AcDbEntity
  8
RUNDUNGEN
100
AcDbLine
 62
7
  6
CONTINUOUS
 10
226.7238388035
 20
42.8949561719
 11
226.623483087
 21
43.0270622853
  0
LINE
  5
626
100
AcDbEntity
  8
RUNDUNGEN
100
AcDbLine
 62
7
  6
CONTINUOUS
 10
226.9209096609
 20
42.5944982481
 11
226.7238388035
 21
42.8949561719
  0
LWPOLYLINE
  5
627
100
AcDbEntity
  8
RUNDUNGEN
100
AcDbPolyline
 62
7
  6
CONTINUOUS
 90
3
 70
0
 10
226.0199250777
 20
43.9009965811
 10
225.8674097146
 20
44.1624682862
 10
225.7751030206
 20
44.3299056808
  0
LINE
  5
628
100
AcDbEntity
  8
0
100
AcDbLine
 62
7
  6
CONTINUOUS
 10
220.0045482006
 20
46.0972730086
 11
220.0045482006
 21
45.5639468255
  0
LINE
  5
629
100
AcDbEntity
  8
0
100
AcDbLine
 62
7
  6
CONTINUOUS
 10
220.2913844452
 20
46.2578304946
 11
220.2913844452
 21
45.5639468255
  0
LINE
  5
62A
100
AcDbEntity
  8
0
100
AcDbLine
 62
7
  6
CONTINUOUS
 10
220.8912291659
 20
46.2569481249
 11
220.8912291659
 21
45.5639468255
  0
LINE
  5
62B
100
AcDbEntity
  8
0
100
AcDbLine
 62
7
  6
CONTINUOUS
 10
221.9240463645
 20
46.1005347927
 11
221.9240463645
 21
45.5639468255
  0
LINE
  5
62C
100
AcDbEntity
  8
0
100
AcDbLine
 62
7
  6
CONTINUOUS
 10
222.59914773
 20
46.0639468255
 11
222.59914773
 21
45.5639468255
  0
LINE
  5
62D
100
AcDbEntity
  8
0
100
AcDbLine
 62
7
  6
CONTINUOUS
 10
222.8623638158
 20
46.0639468255
 11
222.8623638158
 21
45.5639468255
  0
LWPOLYLINE
  5
62E
100
AcDbEntity
  8
RUNDUNGEN
100
AcDbPolyline
 62
7
  6
CONTINUOUS
 90
7
 70
0
 10
226.9293963004
 20
65.547865675
 10
227.0940304837
 20
65.8642090037
 10
227.2256690203
 20
66.1916168218
 10
227.3232809345
 20
66.5265776406
 10
227.3863373144
 20
66.8655306092
 10
227.4147686438
 20
67.2037972527
 10
227.4166776842
 20
67.3160759129
  0
LINE
  5
62F
100
AcDbEntity
  8
KONSTRUKTIONSELEMENTE
100
AcDbLine
 62
7
  6
CONTINUOUS
 10
240.6231132662
 20
62.0639468255
 11
184.2103584976
 21
62.0639468255
  0
LINE
  5
630
100
AcDbEntity
  8
0
100
AcDbLine
 62
7
  6
CONTINUOUS
 10
179.9205242688
 20
64.0639468255
 11
179.659045189
 21
64.0639468255
  0
LINE
  5
631
100
AcDbEntity
  8
0
100
AcDbLine
 62
7
  6
CONTINUOUS
 10
180.0684897378
 20
64.5326966765
 11
179.8058242254
 21
64.5326966765
  0
LINE
  5
632
100
AcDbEntity
  8
0
100
AcDbLine
 62
7
  6
CONTINUOUS
 10
224.4566429245
 20
46.0639468255
 11
224.4566429245
 21
45.5639468255
  0
LINE
  5
633
100
AcDbEntity
  8
0
100
AcDbLine
 62
7
  6
CONTINUOUS
 10
180.3318294382
 20
65.3139468255
 11
180.0670256481
 21
65.3139468255
  0
LWPOLYLINE
  5
634
100
AcDbEntity
  8
RUNDUNGEN
100
AcDbPolyline
 62
7
  6
CONTINUOUS
 90
7
 70
0
 10
227.4166776594
 20
40.8117750477
 10
227.4141045052
 20
40.9423323796
 10
227.3838933208
 20
41.2801695356
 10
227.3191472086
 20
41.6184825459
 10
227.219961713
 20
41.9526466176
 10
227.0868727904
 20
42.2791452608
 10
226.9209096609
 20
42.5944982481
  0
LINE
  5
635
100
AcDbEntity
  8
RUNDUNGEN
100
AcDbLine
 62
7
  6
CONTINUOUS
 10
227.4166778873
 20
25.480735013
 11
227.4166778873
 21
42.2212404969
  0
LINE
  5
636
100
AcDbEntity
  8
RUNDUNGEN
100
AcDbLine
 62
7
  6
CONTINUOUS
 10
227.4166778873
 20
65.9066661079
 11
227.4166778873
 21
82.6471703382
  0
LINE
  5
637
100
AcDbEntity
  8
0
100
AcDbLine
 62
7
  6
CONTINUOUS
 10
227.5850757222
 20
46.5431293003
 11
227.5850757222
 21
45.5639468255
  0
LINE
  5
638
100
AcDbEntity
  8
0
100
AcDbLine
 62
7
  6
CONTINUOUS
 10
227.9166778873
 20
77.8462725593
 11
227.9166778873
 21
76.9251139079
  0
LINE
  5
639
100
AcDbEntity
  8
0
100
AcDbLine
 62
7
  6
CONTINUOUS
 10
227.9166778873
 20
76.8486564546
 11
227.9166778873
 21
71.8470333182
  0
LINE
  5
63A
100
AcDbEntity
  8
0
100
AcDbLine
 62
7
  6
CONTINUOUS
 10
227.9166778873
 20
36.2939468255
 11
227.9166778873
 21
31.2939468255
  0
LINE
  5
63B
100
AcDbEntity
  8
0
100
AcDbLine
 62
7
  6
CONTINUOUS
 10
230.075207031
 20
46.5147998039
 11
230.075207031
 21
45.5639468255
  0
LINE
  5
63C
100
AcDbEntity
  8
0
100
AcDbLine
 62
7
  6
CONTINUOUS
 10
181.9043852825
 20
69.0639468255
 11
181.6260543145
 21
69.0639468255
  0
LINE
  5
63D
100
AcDbEntity
  8
0
100
AcDbLine
 62
7
  6
CONTINUOUS
 10
227.4166778873
 20
71.8466529388
 11
227.9166778873
 21
71.8466529388
  0
LINE
  5
63E
100
AcDbEntity
  8
0
100
AcDbLine
 62
7
  6
CONTINUOUS
 10
227.4166778873
 20
71.8616906275
 11
227.9166778873
 21
71.8616906275
  0
LINE
  5
63F
100
AcDbEntity
  8
0
100
AcDbLine
 62
7
  6
CONTINUOUS
 10
230.5227880824
 20
46.4780668959
 11
230.5227880824
 21
45.5639468255
  0
LINE
  5
640
100
AcDbEntity
  8
0
100
AcDbLine
 62
7
  6
CONTINUOUS
 10
230.7242242196
 20
46.3677863258
 11
230.7242242196
 21
45.5639468255
  0
LINE
  5
641
100
AcDbEntity
  8
0
100
AcDbLine
 62
7
  6
CONTINUOUS
 10
230.7507085809
 20
46.2465262895
 11
230.7507085809
 21
45.5639468255
  0
LINE
  5
642
100
AcDbEntity
  8
0
100
AcDbLine
 62
7
  6
CONTINUOUS
 10
227.4166778873
 20
72.7681919697
 11
227.9166778873
 21
72.7681919697
  0
LINE
  5
643
100
AcDbEntity
  8
0
100
AcDbLine
 62
7
  6
CONTINUOUS
 10
227.4166778873
 20
74.3901515965
 11
227.9166778873
 21
74.3901515965
  0
LINE
  5
644
100
AcDbEntity
  8
0
100
AcDbLine
 62
7
  6
CONTINUOUS
 10
227.4166778873
 20
75.2966529388
 11
227.9166778873
 21
75.2966529388
  0
LINE
  5
645
100
AcDbEntity
  8
0
100
AcDbLine
 62
7
  6
CONTINUOUS
 10
227.4166778873
 20
76.9251139079
 11
227.9166778873
 21
76.9251139079
  0
LINE
  5
646
100
AcDbEntity
  8
0
100
AcDbLine
 62
7
  6
CONTINUOUS
 10
227.4166778873
 20
77.8316152501
 11
227.9166778873
 21
77.8316152501
  0
LINE
  5
647
100
AcDbEntity
  8
0
100
AcDbLine
 62
7
  6
CONTINUOUS
 10
227.4166778873
 20
77.8466529388
 11
227.9166778873
 21
77.8466529388
  0
LINE
  5
648
100
AcDbEntity
  8
RUNDUNGEN
100
AcDbLine
 62
7
  6
CONTINUOUS
 10
200.4166778873
 20
82.0639468255
 11
224.4166778873
 21
82.0639468255
  0
LINE
  5
649
100
AcDbEntity
  8
KONSTRUKTIONSELEMENTE
100
AcDbLine
 62
7
  6
CONTINUOUS
 10
233.989339519
 20
21.4776510845
 11
251.4166317334
 21
51.5639468255
  0
LINE
  5
64A
100
AcDbEntity
  8
KONSTRUKTIONSELEMENTE
100
AcDbLine
 62
7
  6
CONTINUOUS
 10
229.8012666468
 20
89.0642678764
 11
195.0320891278
 21
89.0642678764
  0
LINE
  5
64B
100
AcDbEntity
  8
KONSTRUKTIONSELEMENTE
100
AcDbLine
 62
7
  6
CONTINUOUS
 10
251.4166317334
 20
56.5639468255
 11
233.990543038
 21
86.6494457853
  0
LINE
  5
64C
100
AcDbEntity
  8
KONSTRUKTIONSELEMENTE
100
AcDbLine
 62
7
  6
CONTINUOUS
 10
251.4166317334
 20
51.5639468255
 11
251.4166317334
 21
56.5639468255
  0
LINE
  5
64D
100
AcDbEntity
  8
KONSTRUKTIONSELEMENTE
100
AcDbLine
 62
7
  6
CONTINUOUS
 10
229.8025593277
 20
19.0642678764
 11
233.989339519
 21
21.4776510845
  0
LINE
  5
64E
100
AcDbEntity
  8
KONSTRUKTIONSELEMENTE
100
AcDbLine
 62
7
  6
CONTINUOUS
 10
233.990543038
 20
86.6494457853
 11
229.8012666468
 21
89.0642678764
  0
ARC
  5
64F
100
AcDbEntity
  8
RUNDUNGEN
100
AcDbCircle
 62
7
  6
CONTINUOUS
 10
192.4166778873
 20
237.6395481341
 40
5.0
100
AcDbArc
 50
270.0000012795
 51
0.0009643109
  0
ARC
  5
650
100
AcDbEntity
  8
RUNDUNGEN
100
AcDbCircle
 62
7
  6
CONTINUOUS
 10
181.4166778873
 20
229.6395481341
 40
3.0
100
AcDbArc
 50
90.0
 51
180.0
  0
ARC
  5
651
100
AcDbEntity
  8
KONSTRUKTIONSELEMENTE
100
AcDbCircle
 62
7
  6
CONTINUOUS
 10
62.4166778873
 20
308.1395481341
 40
188.5
100
AcDbArc
 50
349.6111421845
 51
10.3888578155
  0
ARC
  5
652
100
AcDbEntity
  8
KONSTRUKTIONSELEMENTE
100
AcDbCircle
 62
7
  6
CONTINUOUS
 10
62.4166778873
 20
308.1395481341
 40
186.7449979984
100
AcDbArc
 50
354.6228840716
 51
5.3771159284
  0
ARC
  5
653
100
AcDbEntity
  8
KONSTRUKTIONSELEMENTE
100
AcDbCircle
 62
7
  6
CONTINUOUS
 10
62.4166778873
 20
308.1395481341
 40
174.2550020016
100
AcDbArc
 50
354.2362097364
 51
5.7637902636
  0
ARC
  5
654
100
AcDbEntity
  8
KONSTRUKTIONSELEMENTE
100
AcDbCircle
 62
7
  6
CONTINUOUS
 10
62.4166778873
 20
308.1395481341
 40
172.5
100
AcDbArc
 50
349.6111421845
 51
10.3888578155
  0
ARC
  5
655
100
AcDbEntity
  8
KONSTRUKTIONSELEMENTE
100
AcDbCircle
 62
7
  6
CONTINUOUS
 10
212.4166778873
 20
280.6395481341
 40
36.0
100
AcDbArc
 50
190.3888578155
 51
245.3706192843
  0
ARC
  5
656
100
AcDbEntity
  8
KONSTRUKTIONSELEMENTE
100
AcDbCircle
 62
7
  6
CONTINUOUS
 10
212.4166778873
 20
280.6395481341
 40
36.0
100
AcDbArc
 50
295.3339329114
 51
349.6111421845
  0
ARC
  5
657
100
AcDbEntity
  8
KONSTRUKTIONSELEMENTE
100
AcDbCircle
 62
7
  6
CONTINUOUS
 10
212.4166778873
 20
280.6395481341
 40
20.0
100
AcDbArc
 50
190.3888578155
 51
221.5283444984
  0
ARC
  5
658
100
AcDbEntity
  8
KONSTRUKTIONSELEMENTE
100
AcDbCircle
 62
7
  6
CONTINUOUS
 10
212.4166778873
 20
280.6395481341
 40
20.0
100
AcDbArc
 50
318.4716554994
 51
349.6111421845
  0
ARC
  5
659
100
AcDbEntity
  8
RUNDUNGEN
100
AcDbCircle
 62
7
  6
CONTINUOUS
 10
212.4166778873
 20
266.6395481341
 40
15.0
100
AcDbArc
 50
0.0
 51
180.0
  0
ARC
  5
65A
100
AcDbEntity
  8
RUNDUNGEN
100
AcDbCircle
 62
7
  6
CONTINUOUS
 10
232.4166778873
 20
237.6395481341
 40
5.0
100
AcDbArc
 50
179.9995223166
 51
269.9999453828
  0
ARC
  5
65B
100
AcDbEntity
  8
RUNDUNGEN
100
AcDbCircle
 62
7
  6
CONTINUOUS
 10
243.4166778873
 20
229.6395481341
 40
3.0
100
AcDbArc
 50
0.0
 51
90.0
  0
ARC
  5
65C
100
AcDbEntity
  8
KONSTRUKTIONSELEMENTE
100
AcDbCircle
 62
7
  6
CONTINUOUS
 10
362.4166778873
 20
308.1395481341
 40
188.5
100
AcDbArc
 50
169.6111421845
 51
190.3888578155
  0
ARC
  5
65D
100
AcDbEntity
  8
KONSTRUKTIONSELEMENTE
100
AcDbCircle
 62
7
  6
CONTINUOUS
 10
362.4166778873
 20
308.1395481341
 40
186.7449979984
100
AcDbArc
 50
174.6228840716
 51
185.3771159284
  0
ARC
  5
65E
100
AcDbEntity
  8
KONSTRUKTIONSELEMENTE
100
AcDbCircle
 62
7
  6
CONTINUOUS
 10
362.4166778873
 20
308.1395481341
 40
174.2550020016
100
AcDbArc
 50
174.2362097364
 51
185.7637902636
  0
ARC
  5
65F
100
AcDbEntity
  8
KONSTRUKTIONSELEMENTE
100
AcDbCircle
 62
7
  6
CONTINUOUS
 10
362.4166778873
 20
308.1395481341
 40
172.5
100
AcDbArc
 50
169.6111421845
 51
190.3888578155
  0
ARC
  5
660
100
AcDbEntity
  8
KONSTRUKTIONSELEMENTE
100
AcDbCircle
 62
7
  6
CONTINUOUS
 10
212.4166778873
 20
335.6395481341
 40
36.0
100
AcDbArc
 50
10.3888578155
 51
169.6111421845
  0
ARC
  5
661
100
AcDbEntity
  8
KONSTRUKTIONSELEMENTE
100
AcDbCircle
 62
7
  6
CONTINUOUS
 10
212.4166778873
 20
335.6395481341
 40
20.0
100
AcDbArc
 50
10.3888578155
 51
169.6111421845
  0
ARC
  5
662
100
AcDbEntity
  8
RUNDUNGEN
100
AcDbCircle
 62
7
  6
CONTINUOUS
 10
314.5684806395
 20
277.6395481341
 40
4.0
100
AcDbArc
 50
56.372243968
 51
90.0
  0
ARC
  5
663
100
AcDbEntity
  8
RUNDUNGEN
100
AcDbCircle
 62
7
  6
CONTINUOUS
 10
304.1364576442
 20
273.5759720424
 40
4.0
100
AcDbArc
 50
140.0
 51
179.9993083717
  0
ARC
  5
664
100
AcDbEntity
  8
RUNDUNGEN
100
AcDbCircle
 62
7
  6
CONTINUOUS
 10
296.6364576442
 20
257.469675153
 40
3.5
100
AcDbArc
 50
330.0
 51
360.0
  0
ARC
  5
665
100
AcDbEntity
  8
RUNDUNGEN
100
AcDbCircle
 62
7
  6
CONTINUOUS
 10
307.0798682615
 20
278.6395160469
 40
3.0
100
AcDbArc
 50
90.000785739
 51
140.0
  0
ARC
  5
666
100
AcDbEntity
  8
RUNDUNGEN
100
AcDbCircle
 62
7
  6
CONTINUOUS
 10
297.1364614006
 20
245.335707063
 40
3.0
100
AcDbArc
 50
150.0001434822
 51
180.000124259
  0
ARC
  5
667
100
AcDbEntity
  8
0
100
AcDbCircle
 62
7
  6
CONTINUOUS
 10
306.3703194154
 20
360.4672146001
 40
29.3181030102
100
AcDbArc
 50
357.3586986753
 51
0.7943748574
  0
ARC
  5
668
100
AcDbEntity
  8
0
100
AcDbCircle
 62
7
  6
CONTINUOUS
 10
322.861242414
 20
363.8867531715
 40
12.8271720769
100
AcDbArc
 50
356.006859685
 51
1.1992782559
  0
ARC
  5
669
100
AcDbEntity
  8
0
100
AcDbCircle
 62
7
  6
CONTINUOUS
 10
324.2188581405
 20
362.6110031774
 40
11.5976102542
100
AcDbArc
 50
351.3846634911
 51
352.6951124937
  0
ARC
  5
66A
100
AcDbEntity
  8
0
100
AcDbCircle
 62
7
  6
CONTINUOUS
 10
328.1364576442
 20
298.0395481341
 40
20.5
100
AcDbArc
 50
236.372243968
 51
247.0139807653
  0
ARC
  5
66B
100
AcDbEntity
  8
0
100
AcDbCircle
 62
7
  6
CONTINUOUS
 10
328.1364576442
 20
298.0395481341
 40
20.5
100
AcDbArc
 50
292.9860192347
 51
303.627756032
  0
ARC
  5
66C
100
AcDbEntity
  8
RUNDUNGEN
100
AcDbCircle
 62
7
  6
CONTINUOUS
 10
328.1364576442
 20
247.6395481341
 40
13.0
100
AcDbArc
 50
130.999994251
 51
49.0000067043
  0
ARC
  5
66D
100
AcDbEntity
  8
KONSTRUKTIONSELEMENTE
100
AcDbCircle
 62
7
  6
CONTINUOUS
 10
328.1364576442
 20
252.6395481341
 40
8.0
100
AcDbArc
 50
180.0
 51
360.0
  0
ARC
  5
66E
100
AcDbEntity
  8
RUNDUNGEN
100
AcDbCircle
 62
7
  6
CONTINUOUS
 10
341.7044346489
 20
277.6395481341
 40
4.0
100
AcDbArc
 50
90.0
 51
123.627756032
  0
ARC
  5
66F
100
AcDbEntity
  8
RUNDUNGEN
100
AcDbCircle
 62
7
  6
CONTINUOUS
 10
352.1364576442
 20
273.5759720424
 40
4.0
100
AcDbArc
 50
0.0006772944
 51
40.0
  0
ARC
  5
670
100
AcDbEntity
  8
RUNDUNGEN
100
AcDbCircle
 62
7
  6
CONTINUOUS
 10
359.6364576442
 20
257.469675153
 40
3.5
100
AcDbArc
 50
180.0
 51
210.0
  0
ARC
  5
671
100
AcDbEntity
  8
RUNDUNGEN
100
AcDbCircle
 62
7
  6
CONTINUOUS
 10
349.1930469048
 20
278.6395161925
 40
3.0
100
AcDbArc
 50
40.0
 51
89.9992179341
  0
ARC
  5
672
100
AcDbEntity
  8
RUNDUNGEN
100
AcDbCircle
 62
7
  6
CONTINUOUS
 10
359.1364538474
 20
245.3357071331
 40
3.0
100
AcDbArc
 50
359.9998744016
 51
29.9998549712
  0
ARC
  5
673
100
AcDbEntity
  8
KONSTRUKTIONSELEMENTE
100
AcDbCircle
 62
7
  6
CONTINUOUS
 10
328.1364576442
 20
363.6395481341
 40
8.0
100
AcDbArc
 50
4.5894872244
 51
180.0
  0
ARC
  5
674
100
AcDbEntity
  8
0
100
AcDbCircle
 62
7
  6
CONTINUOUS
 10
329.1923761434
 20
360.4557913804
 40
6.9451363867
100
AcDbArc
 50
5.628042016
 51
21.431870439
  0
ARC
  5
675
100
AcDbEntity
  8
0
100
AcDbCircle
 62
7
  6
CONTINUOUS
 10
332.9599969298
 20
365.0281185103
 40
2.8619718646
100
AcDbArc
 50
342.2419739398
 51
344.83750327
  0
ARC
  5
676
100
AcDbEntity
  8
0
100
AcDbCircle
 62
7
  6
CONTINUOUS
 10
181.0166778873
 20
54.0639468255
 40
20.5
100
AcDbArc
 50
26.5147631727
 51
33.627756032
  0
ARC
  5
677
100
AcDbEntity
  8
0
100
AcDbCircle
 62
7
  6
CONTINUOUS
 10
181.0166778873
 20
54.0639468255
 40
20.5
100
AcDbArc
 50
326.372243968
 51
333.4852368273
  0
ARC
  5
678
100
AcDbEntity
  8
RUNDUNGEN
100
AcDbCircle
 62
7
  6
CONTINUOUS
 10
181.0166778873
 20
54.0639468255
 40
20.5
100
AcDbArc
 50
326.372243968
 51
333.4852368273
  0
ARC
  5
679
100
AcDbEntity
  8
RUNDUNGEN
100
AcDbCircle
 62
7
  6
CONTINUOUS
 10
181.0166778873
 20
54.0639468255
 40
20.5
100
AcDbArc
 50
26.5147631727
 51
33.627756032
  0
ARC
  5
67A
100
AcDbEntity
  8
KONSTRUKTIONSELEMENTE
100
AcDbCircle
 62
7
  6
CONTINUOUS
 10
184.211249595
 20
53.8134734823
 40
8.2504522337
100
AcDbArc
 50
89.8204304402
 51
89.979861647
  0
ARC
  5
67B
100
AcDbEntity
  8
KONSTRUKTIONSELEMENTE
100
AcDbCircle
 62
7
  6
CONTINUOUS
 10
184.2111607186
 20
54.3079697282
 40
8.2440032371
100
AcDbArc
 50
270.0205304949
 51
270.1604612983
  0
ARC
  5
67C
100
AcDbEntity
  8
KONSTRUKTIONSELEMENTE
100
AcDbCircle
 62
7
  6
CONTINUOUS
 10
181.9166778873
 20
54.0639468255
 40
8.0
100
AcDbArc
 50
141.3178125465
 51
218.6821874535
  0
ARC
  5
67D
100
AcDbEntity
  8
0
100
AcDbCircle
 62
7
  6
CONTINUOUS
 10
199.3293894602
 20
65.888715865
 40
19.7647524331
100
AcDbArc
 50
259.1380554528
 51
260.9909983459
  0
ARC
  5
67E
100
AcDbEntity
  8
0
100
AcDbCircle
 62
7
  6
CONTINUOUS
 10
198.804672646
 20
57.5901344788
 40
11.5129155443
100
AcDbArc
 50
257.1001078763
 51
260.1617793635
  0
ARC
  5
67F
100
AcDbEntity
  8
RUNDUNGEN
100
AcDbCircle
 62
7
  6
CONTINUOUS
 10
194.9166778873
 20
54.0639468255
 40
9.75
100
AcDbArc
 50
55.1583669
 51
56.9496976744
  0
ARC
  5
680
100
AcDbEntity
  8
0
100
AcDbCircle
 62
7
  6
CONTINUOUS
 10
198.3275174925
 20
52.2351970768
 40
6.1712508505
100
AcDbArc
 50
256.028137259
 51
259.1246235518
  0
ARC
  5
681
100
AcDbEntity
  8
0
100
AcDbCircle
 62
7
  6
CONTINUOUS
 10
197.9648502811
 20
48.9716290541
 40
2.9094753923
100
AcDbArc
 50
254.0056609476
 51
260.0539142406
  0
ARC
  5
682
100
AcDbEntity
  8
0
100
AcDbCircle
 62
7
  6
CONTINUOUS
 10
197.7393243158
 20
46.952102685
 40
0.8904053423
100
AcDbArc
 50
251.8746256225
 51
253.9414854585
  0
ARC
  5
683
100
AcDbEntity
  8
0
100
AcDbCircle
 62
7
  6
CONTINUOUS
 10
197.7277512909
 20
46.9103870363
 40
0.8471162364
100
AcDbArc
 50
253.9132205459
 51
260.3249564519
  0
ARC
  5
684
100
AcDbEntity
  8
RUNDUNGEN
100
AcDbCircle
 62
7
  6
CONTINUOUS
 10
201.4166778873
 20
40.4959698208
 40
4.0
100
AcDbArc
 50
146.372243968
 51
180.0
  0
ARC
  5
685
100
AcDbEntity
  8
RUNDUNGEN
100
AcDbCircle
 62
7
  6
CONTINUOUS
 10
200.4166778873
 20
29.0639468255
 40
3.0
100
AcDbArc
 50
180.0
 51
270.0
  0
ARC
  5
686
100
AcDbEntity
  8
RUNDUNGEN
100
AcDbCircle
 62
7
  6
CONTINUOUS
 10
200.4166778873
 20
25.4807349696
 40
3.0
100
AcDbArc
 50
180.0002727126
 51
247.2255845963
  0
ARC
  5
687
100
AcDbEntity
  8
RUNDUNGEN
100
AcDbCircle
 62
7
  6
CONTINUOUS
 10
201.5975232111
 20
43.7960937997
 40
2.5
100
AcDbArc
 50
134.9465739017
 51
153.4852459565
  0
ARC
  5
688
100
AcDbEntity
  8
0
100
AcDbCircle
 62
7
  6
CONTINUOUS
 10
205.4224264051
 20
64.6915439246
 40
18.5680271498
100
AcDbArc
 50
258.7853152917
 51
260.6960646648
  0
ARC
  5
689
100
AcDbEntity
  8
0
100
AcDbCircle
 62
7
  6
CONTINUOUS
 10
204.7552896919
 20
55.5536199863
 40
9.4779093449
100
AcDbArc
 50
255.738976311
 51
259.1056929668
  0
ARC
  5
68A
100
AcDbEntity
  8
0
100
AcDbCircle
 62
7
  6
CONTINUOUS
 10
204.1960774162
 20
50.2526881788
 40
4.1913464199
100
AcDbArc
 50
252.9047544077
 51
256.6392766673
  0
ARC
  5
68B
100
AcDbEntity
  8
RUNDUNGEN
100
AcDbCircle
 62
7
  6
CONTINUOUS
 10
201.4166778873
 20
67.6319238302
 40
4.0
100
AcDbArc
 50
180.0
 51
213.6277560321
  0
ARC
  5
68C
100
AcDbEntity
  8
RUNDUNGEN
100
AcDbCircle
 62
7
  6
CONTINUOUS
 10
201.5975232111
 20
64.3317998514
 40
2.5
100
AcDbArc
 50
206.5147518671
 51
236.9497031841
  0
ARC
  5
68D
100
AcDbEntity
  8
0
100
AcDbCircle
 62
7
  6
CONTINUOUS
 10
203.8118332833
 20
47.5236723307
 40
1.4700019857
100
AcDbArc
 50
246.5792639051
 51
248.6562177943
  0
ARC
  5
68E
100
AcDbEntity
  8
0
100
AcDbCircle
 62
7
  6
CONTINUOUS
 10
203.7783303094
 20
47.4352033618
 40
1.3754073185
100
AcDbArc
 50
248.6147971133
 51
255.1262087771
  0
ARC
  5
68F
100
AcDbEntity
  8
0
100
AcDbCircle
 62
7
  6
CONTINUOUS
 10
200.5456359855
 20
119.0780445341
 40
72.5660661728
100
AcDbArc
 50
268.3211114013
 51
270.5052520358
  0
ARC
  5
690
100
AcDbEntity
  8
0
100
AcDbCircle
 62
7
  6
CONTINUOUS
 10
205.262720306
 20
110.6145746294
 40
64.2293122251
100
AcDbArc
 50
266.3605010057
 51
266.9195948918
  0
ARC
  5
691
100
AcDbEntity
  8
0
100
AcDbCircle
 62
7
  6
CONTINUOUS
 10
194.4611157955
 20
102.5871327655
 40
56.0751536698
100
AcDbArc
 50
268.0901342101
 51
270.5746899693
  0
ARC
  5
692
100
AcDbEntity
  8
0
100
AcDbCircle
 62
7
  6
CONTINUOUS
 10
198.8135184409
 20
101.8735760445
 40
55.488358627
100
AcDbArc
 50
266.0835350991
 51
266.6849730963
  0
ARC
  5
693
100
AcDbEntity
  8
RUNDUNGEN
100
AcDbCircle
 62
7
  6
CONTINUOUS
 10
200.4166778873
 20
82.6471586814
 40
3.0
100
AcDbArc
 50
112.7738285743
 51
180.0000086729
  0
ARC
  5
694
100
AcDbEntity
  8
RUNDUNGEN
100
AcDbCircle
 62
7
  6
CONTINUOUS
 10
200.4166778873
 20
79.0639468255
 40
3.0
100
AcDbArc
 50
90.0
 51
180.0
  0
ARC
  5
695
100
AcDbEntity
  8
0
100
AcDbCircle
 62
7
  6
CONTINUOUS
 10
212.8601781959
 20
53.8614509302
 40
7.7974962841
100
AcDbArc
 50
270.0070863109
 51
276.6717868841
  0
ARC
  5
696
100
AcDbEntity
  8
0
100
AcDbCircle
 62
7
  6
CONTINUOUS
 10
212.8960285621
 20
53.4994451511
 40
7.4337796592
100
AcDbArc
 50
276.7215067548
 51
277.7799971426
  0
ARC
  5
697
100
AcDbEntity
  8
0
100
AcDbCircle
 62
7
  6
CONTINUOUS
 10
212.4166778873
 20
54.0639468255
 40
34.25
100
AcDbArc
 50
191.0316625626
 51
203.6694716835
  0
ARC
  5
698
100
AcDbEntity
  8
0
100
AcDbCircle
 62
7
  6
CONTINUOUS
 10
212.4166778873
 20
54.0639468255
 40
34.25
100
AcDbArc
 50
154.0264485215
 51
168.9680849498
  0
ARC
  5
699
100
AcDbEntity
  8
RUNDUNGEN
100
AcDbCircle
 62
7
  6
CONTINUOUS
 10
212.4166778873
 20
54.0639468255
 40
34.0
100
AcDbArc
 50
191.3710499014
 51
348.6288056476
  0
ARC
  5
69A
100
AcDbEntity
  8
RUNDUNGEN
100
AcDbCircle
 62
7
  6
CONTINUOUS
 10
212.4166778873
 20
54.0639468255
 40
34.0
100
AcDbArc
 50
11.3711946007
 51
168.6289535976
  0
ARC
  5
69B
100
AcDbEntity
  8
RUNDUNGEN
100
AcDbCircle
 62
7
  6
CONTINUOUS
 10
223.4166778873
 20
40.4959698208
 40
4.0
100
AcDbArc
 50
0.0
 51
33.6277560321
  0
ARC
  5
69C
100
AcDbEntity
  8
RUNDUNGEN
100
AcDbCircle
 62
7
  6
CONTINUOUS
 10
224.4166778873
 20
29.0639468255
 40
3.0
100
AcDbArc
 50
270.0
 51
360.0
  0
ARC
  5
69D
100
AcDbEntity
  8
RUNDUNGEN
100
AcDbCircle
 62
7
  6
CONTINUOUS
 10
224.4166778873
 20
25.4807349696
 40
3.0
100
AcDbArc
 50
292.7737374794
 51
0.0000008318
  0
ARC
  5
69E
100
AcDbEntity
  8
RUNDUNGEN
100
AcDbCircle
 62
7
  6
CONTINUOUS
 10
223.2358325636
 20
43.7960937997
 40
2.5
100
AcDbArc
 50
26.5147531771
 51
45.0534260032
  0
ARC
  5
69F
100
AcDbEntity
  8
RUNDUNGEN
100
AcDbCircle
 62
7
  6
CONTINUOUS
 10
223.4166778873
 20
67.6319238302
 40
4.0
100
AcDbArc
 50
326.372243968
 51
360.0
  0
ARC
  5
6A0
100
AcDbEntity
  8
RUNDUNGEN
100
AcDbCircle
 62
7
  6
CONTINUOUS
 10
224.4166778873
 20
79.0639468255
 40
3.0
100
AcDbArc
 50
0.0
 51
90.0
  0
ARC
  5
6A1
100
AcDbEntity
  8
RUNDUNGEN
100
AcDbCircle
 62
7
  6
CONTINUOUS
 10
224.4166778873
 20
82.6471586814
 40
3.0
100
AcDbArc
 50
0.0002567035
 51
67.2255747682
  0
ARC
  5
6A2
100
AcDbEntity
  8
RUNDUNGEN
100
AcDbCircle
 62
7
  6
CONTINUOUS
 10
223.2358325636
 20
64.3317998514
 40
2.5
100
AcDbArc
 50
303.0503005002
 51
333.4852483237
  0
ARC
  5
6A3
100
AcDbEntity
  8
0
100
AcDbCircle
 62
7
  6
CONTINUOUS
 10
220.7711398439
 20
168.5098865395
 40
122.2529973966
100
AcDbArc
 50
269.775154551
 51
270.0562817483
  0
ARC
  5
6A4
100
AcDbEntity
  8
0
100
AcDbCircle
 62
7
  6
CONTINUOUS
 10
214.9276066836
 20
132.2498230547
 40
85.7376965489
100
AcDbArc
 50
270.327449308
 51
270.8270028201
  0
ARC
  5
6A5
100
AcDbEntity
  8
0
100
AcDbCircle
 62
7
  6
CONTINUOUS
 10
233.0007325117
 20
79.4163800282
 40
33.0313893228
100
AcDbArc
 50
264.9187670449
 51
265.6977509982
  0
ARC
  5
6A6
100
AcDbEntity
  8
0
100
AcDbCircle
 62
7
  6
CONTINUOUS
 10
243.8166778873
 20
54.0639468255
 40
20.5
100
AcDbArc
 50
146.372243968
 51
153.4852368273
  0
ARC
  5
6A7
100
AcDbEntity
  8
0
100
AcDbCircle
 62
7
  6
CONTINUOUS
 10
243.8166778873
 20
54.0639468255
 40
20.5
100
AcDbArc
 50
206.5147631727
 51
213.627756032
  0
ARC
  5
6A8
100
AcDbEntity
  8
RUNDUNGEN
100
AcDbCircle
 62
7
  6
CONTINUOUS
 10
243.8166778873
 20
54.0639468255
 40
20.5
100
AcDbArc
 50
146.372243968
 51
153.4852368273
  0
ARC
  5
6A9
100
AcDbEntity
  8
RUNDUNGEN
100
AcDbCircle
 62
7
  6
CONTINUOUS
 10
243.8166778873
 20
54.0639468255
 40
20.5
100
AcDbArc
 50
206.5147631727
 51
213.627756032
  0
ARC
  5
6AA
100
AcDbEntity
  8
RUNDUNGEN
100
AcDbCircle
 62
7
  6
CONTINUOUS
 10
229.9166778873
 20
54.0639468255
 40
9.75
100
AcDbArc
 50
123.0503023256
 51
124.8516083574
  0
ARC
  5
6AB
100
AcDbEntity
  8
KONSTRUKTIONSELEMENTE
100
AcDbCircle
 62
7
  6
CONTINUOUS
 10
240.6220992843
 20
54.3153599893
 40
8.2513918518
100
AcDbArc
 50
269.8212452552
 51
269.9800028474
  0
ARC
  5
6AC
100
AcDbEntity
  8
KONSTRUKTIONSELEMENTE
100
AcDbCircle
 62
7
  6
CONTINUOUS
 10
240.6222252556
 20
53.8236653814
 40
8.240262536
100
AcDbArc
 50
90.0208030787
 51
90.1559426914
  0
ARC
  5
6AD
100
AcDbEntity
  8
KONSTRUKTIONSELEMENTE
100
AcDbCircle
 62
7
  6
CONTINUOUS
 10
242.9166778873
 20
54.0639468255
 40
8.0
100
AcDbArc
 50
321.3178125465
 51
38.6821874535
  0
ARC
  5
6AE
100
AcDbEntity
  8
0
100
AcDbCircle
 62
7
  6
CONTINUOUS
 10
231.9949986622
 20
48.9280655789
 40
2.858303262
100
AcDbArc
 50
238.9982327277
 51
243.6028587035
  0
ARC
  5
6AF
100
AcDbEntity
  8
0
100
AcDbCircle
 62
7
  6
CONTINUOUS
 10
229.4991451116
 20
105.3336508952
 40
58.8216719504
100
AcDbArc
 50
268.1352542821
 51
270.5611272725
  0
ARC
  5
6B0
100
AcDbEntity
  8
0
100
AcDbCircle
 62
7
  6
CONTINUOUS
 10
220.5218804022
 20
317.2529649457
 40
271.1560555238
100
AcDbArc
 50
270.0780441104
 51
270.2962815996
  0
ARC
  5
6B1
100
AcDbEntity
  8
0
100
AcDbCircle
 62
7
  6
CONTINUOUS
 10
220.4190874948
 20
310.6721852972
 40
264.5752197682
100
AcDbArc
 50
269.7023863411
 51
269.8409114675
  0
SPLINE
  5
6B2
100
AcDbEntity
  8
KONSTRUKTIONSELEMENTE
100
AcDbSpline
 62
7
  6
CONTINUOUS
 70
0
 71
3
 72
29
 73
25
 74
0
 42
0.0000001
 43
0.0000001
 44
0.0000000001
 40
0.0
 40
0.0
 40
0.0
 40
0.0
 40
0.1242957269
 40
0.1865493679
 40
0.2488908544
 40
0.3113533813
 40
0.3739918454
 40
0.4054320599
 40
0.436977266
 40
0.4686633976
 40
0.5005169272
 40
0.5165457988
 40
0.532589265
 40
0.5485998986
 40
0.5645467213
 40
0.5961252003
 40
0.6274951423
 40
0.6587268513
 40
0.6898746192
 40
0.7520090499
 40
0.8140582095
 40
0.8760618649
 40
0.9380390316
 40
1.0
 40
1.0
 40
1.0
 40
1.0
 10
176.493456429
 20
290.6395481341
 30
0.0
 10
176.8261465861
 20
289.5649819104
 30
0.0
 10
177.3833581196
 20
287.968648535
 30
0.0
 10
178.2703663841
 20
285.8973571917
 30
0.0
 10
179.0217534403
 20
284.379082227
 30
0.0
 10
179.8776432135
 20
282.9128063517
 30
0.0
 10
180.7039182428
 20
281.7575103568
 30
0.0
 10
181.4607608218
 20
280.9075681663
 30
0.0
 10
182.0905860642
 20
280.3239289042
 30
0.0
 10
182.7966493929
 20
279.8265866884
 30
0.0
 10
183.4655876202
 20
279.5359796455
 30
0.0
 10
184.0384037182
 20
279.4362210221
 30
0.0
 10
184.4764998796
 20
279.4443567398
 30
0.0
 10
184.9028808076
 20
279.5426537255
 30
0.0
 10
185.4294021923
 20
279.7819704089
 30
0.0
 10
185.9903227613
 20
280.2413360419
 30
0.0
 10
186.5163772342
 20
280.916458082
 30
0.0
 10
186.9402199751
 20
281.6536964092
 30
0.0
 10
187.4057076019
 20
282.6811520326
 30
0.0
 10
187.8536129503
 20
284.0168744695
 30
0.0
 10
188.2614634002
 20
285.6526340295
 30
0.0
 10
188.58151623
 20
287.3061497905
 30
0.0
 10
188.8387446816
 20
288.9694299817
 30
0.0
 10
188.97875348
 20
290.0824466478
 30
0.0
 10
189.0426437225
 20
290.6395481341
 30
0.0
  0
SPLINE
  5
6B3
100
AcDbEntity
  8
KONSTRUKTIONSELEMENTE
100
AcDbSpline
 62
7
  6
CONTINUOUS
 70
0
 71
3
 72
29
 73
25
 74
0
 42
0.0000001
 43
0.0000001
 44
0.0000000001
 40
0.0
 40
0.0
 40
0.0
 40
0.0
 40
0.0619609614
 40
0.1239381236
 40
0.1859417785
 40
0.2479909529
 40
0.3101253964
 40
0.341273176
 40
0.3725049086
 40
0.4038749865
 40
0.4354539379
 40
0.4514005652
 40
0.4674114169
 40
0.4834549544
 40
0.4994833793
 40
0.531337011
 40
0.5630230922
 40
0.5945682275
 40
0.6260083906
 40
0.6886468156
 40
0.7511093082
 40
0.8134507656
 40
0.8757043684
 40
1.0
 40
1.0
 40
1.0
 40
1.0
 10
189.0426437225
 20
325.6395481341
 30
0.0
 10
188.9787534932
 20
326.196649506
 30
0.0
 10
188.8387447127
 20
327.309665961
 30
0.0
 10
188.5815163352
 20
328.9729459086
 30
0.0
 10
188.2614631474
 20
330.6264614958
 30
0.0
 10
187.8536141475
 20
332.2622215533
 30
0.0
 10
187.4057071605
 20
333.5979436946
 30
0.0
 10
186.9402187033
 20
334.625399359
 30
0.0
 10
186.5163742455
 20
335.3626382414
 30
0.0
 10
185.990316885
 20
336.0377655678
 30
0.0
 10
185.4293883565
 20
336.4971282476
 30
0.0
 10
184.9028642158
 20
336.7364463224
 30
0.0
 10
184.4764836725
 20
336.8347540436
 30
0.0
 10
184.038388069
 20
336.8428694597
 30
0.0
 10
183.4655756437
 20
336.7431123936
 30
0.0
 10
182.7966421352
 20
336.4525010561
 30
0.0
 10
182.0905799443
 20
335.9551587948
 30
0.0
 10
181.4607562026
 20
335.371520149
 30
0.0
 10
180.7039136355
 20
334.5215801383
 30
0.0
 10
179.8776395943
 20
333.3662848609
 30
0.0
 10
179.0217505258
 20
331.9000098511
 30
0.0
 10
178.270365273
 20
330.3817351859
 30
0.0
 10
177.3833574891
 20
328.3104455
 30
0.0
 10
176.8261463
 20
326.7141134339
 30
0.0
 10
176.493456429
 20
325.6395481341
 30
0.0
  0
SPLINE
  5
6B4
100
AcDbEntity
  8
KONSTRUKTIONSELEMENTE
100
AcDbSpline
 62
7
  6
CONTINUOUS
 70
0
 71
3
 72
29
 73
25
 74
0
 42
0.0000001
 43
0.0000001
 44
0.0000000001
 40
0.0
 40
0.0
 40
0.0
 40
0.0
 40
0.1242957445
 40
0.1865493943
 40
0.2488908904
 40
0.3113534332
 40
0.3739919232
 40
0.4054321679
 40
0.4369774174
 40
0.4686635945
 40
0.5005171128
 40
0.5165462186
 40
0.5325895929
 40
0.5486001323
 40
0.5645470549
 40
0.5961253133
 40
0.6274951879
 40
0.6587268803
 40
0.6898746404
 40
0.7520090613
 40
0.8140582123
 40
0.8760618654
 40
0.9380390314
 40
1.0
 40
1.0
 40
1.0
 40
1.0
 10
248.3398993456
 20
325.6395481341
 30
0.0
 10
248.0072091283
 20
326.7141145524
 30
0.0
 10
247.4499975048
 20
328.3104482169
 30
0.0
 10
246.5629891334
 20
330.3817399761
 30
0.0
 10
245.8116016057
 20
331.9000151267
 30
0.0
 10
244.9557115232
 20
333.3662914519
 30
0.0
 10
244.1294359722
 20
334.5215878973
 30
0.0
 10
243.3725931779
 20
335.3715311913
 30
0.0
 10
242.7427670673
 20
335.9551710968
 30
0.0
 10
242.0367027641
 20
336.4525136085
 30
0.0
 10
241.3677615722
 20
336.7431193219
 30
0.0
 10
240.79494358
 20
336.8428772828
 30
0.0
 10
240.3568473735
 20
336.8347334661
 30
0.0
 10
239.9304667942
 20
336.7364404896
 30
0.0
 10
239.403946668
 20
336.4971243821
 30
0.0
 10
238.8430299084
 20
336.0377571222
 30
0.0
 10
238.3169768761
 20
335.3626376267
 30
0.0
 10
237.8931350581
 20
334.6253996093
 30
0.0
 10
237.4276478854
 20
333.5979441015
 30
0.0
 10
236.9797432268
 20
332.2622216282
 30
0.0
 10
236.5718922351
 20
330.6264623443
 30
0.0
 10
236.2518395643
 20
328.9729465781
 30
0.0
 10
235.9946110974
 20
327.3096663524
 30
0.0
 10
235.8546022974
 20
326.1966496446
 30
0.0
 10
235.7907120521
 20
325.6395481341
 30
0.0
  0
SPLINE
  5
6B5
100
AcDbEntity
  8
KONSTRUKTIONSELEMENTE
100
AcDbSpline
 62
7
  6
CONTINUOUS
 70
0
 71
3
 72
29
 73
25
 74
0
 42
0.0000001
 43
0.0000001
 44
0.0000000001
 40
0.0
 40
0.0
 40
0.0
 40
0.0
 40
0.0619609622
 40
0.1239381254
 40
0.185941782
 40
0.2479909602
 40
0.310125408
 40
0.3412731917
 40
0.3725049311
 40
0.4038750432
 40
0.4354540775
 40
0.4514006495
 40
0.4674115315
 40
0.4834551163
 40
0.4994834482
 40
0.5313370719
 40
0.5630231374
 40
0.5945682587
 40
0.6260084122
 40
0.6886468301
 40
0.7511093181
 40
0.813450773
 40
0.8757043734
 40
1.0
 40
1.0
 40
1.0
 40
1.0
 10
235.7907120521
 20
290.6395481341
 30
0.0
 10
235.8546022813
 20
290.0824467632
 30
0.0
 10
235.9946110634
 20
288.969430308
 30
0.0
 10
236.2518394392
 20
287.3061503496
 30
0.0
 10
236.5718926929
 20
285.6526347435
 30
0.0
 10
236.9797415056
 20
284.0168745618
 30
0.0
 10
237.427648767
 20
282.6811524229
 30
0.0
 10
237.8931373998
 20
281.653696674
 30
0.0
 10
238.3169822952
 20
280.9164576662
 30
0.0
 10
238.843040182
 20
280.2413290866
 30
0.0
 10
239.4039705722
 20
279.7819680061
 30
0.0
 10
239.9304944306
 20
279.5426484486
 30
0.0
 10
240.3568753288
 20
279.4443403217
 30
0.0
 10
240.7949708334
 20
279.4362278005
 30
0.0
 10
241.3677826649
 20
279.5359844426
 30
0.0
 10
242.0367148091
 20
279.8265966453
 30
0.0
 10
242.7427766034
 20
280.3239386221
 30
0.0
 10
243.3726000791
 20
280.9075770593
 30
0.0
 10
244.1294426206
 20
281.7575166842
 30
0.0
 10
244.9557164651
 20
282.9128118638
 30
0.0
 10
245.8116054842
 20
284.3790867201
 30
0.0
 10
246.5629905656
 20
285.8973613509
 30
0.0
 10
247.4499983292
 20
287.9686509106
 30
0.0
 10
248.0072094925
 20
289.5649828921
 30
0.0
 10
248.3398993456
 20
290.6395481341
 30
0.0
  0
SPLINE
  5
6B6
100
AcDbEntity
  8
0
100
AcDbSpline
 62
7
  6
CONTINUOUS
 70
0
 71
3
 72
9
 73
5
 74
0
 42
0.0000001
 43
0.0000001
 44
0.0000000001
 40
0.0
 40
0.0
 40
0.0
 40
0.0
 40
0.5037548259
 40
1.0
 40
1.0
 40
1.0
 40
1.0
 10
335.6572751841
 20
359.1161461628
 30
0.0
 10
335.8133376286
 20
358.7663613604
 30
0.0
 10
336.0543160108
 20
358.038781928
 30
0.0
 10
336.1364730063
 20
357.2762789119
 30
0.0
 10
336.1364433461
 20
356.8989679896
 30
0.0
  0
SPLINE
  5
6B7
100
AcDbEntity
  8
KONSTRUKTIONSELEMENTE
100
AcDbSpline
 62
7
  6
CONTINUOUS
 70
0
 71
3
 72
12
 73
8
 74
0
 42
0.0000001
 43
0.0000001
 44
0.0000000001
 40
0.0
 40
0.0
 40
0.0
 40
0.0
 40
0.1750266493
 40
0.3806317371
 40
0.636479198
 40
0.7990263459
 40
1.0
 40
1.0
 40
1.0
 40
1.0
 10
248.3398993456
 20
49.0639468255
 30
0.0
 10
247.967786701
 20
48.7418991909
 30
0.0
 10
247.1084280219
 20
48.0980161221
 30
0.0
 10
245.5455434668
 20
47.217074688
 30
0.0
 10
243.9028996365
 20
46.5767812527
 30
0.0
 10
242.207781466
 20
46.1676800326
 30
0.0
 10
241.1843092046
 20
46.0637609175
 30
0.0
 10
240.6192339364
 20
46.0639662887
 30
0.0
  0
LINE
  5
6B8
100
AcDbEntity
  8
KONSTRUKTIONSELEMENTE
100
AcDbLine
 62
7
  6
CONTINUOUS
 10
184.2141494686
 20
62.0639252064
 11
184.2015820166
 21
62.0639200812
  0
SPLINE
  5
6B9
100
AcDbEntity
  8
KONSTRUKTIONSELEMENTE
100
AcDbSpline
 62
7
  6
CONTINUOUS
 70
0
 71
3
 72
12
 73
8
 74
0
 42
0.0000001
 43
0.0000001
 44
0.0000000001
 40
0.0
 40
0.0
 40
0.0
 40
0.0
 40
0.2009735767
 40
0.3635207843
 40
0.6193684503
 40
0.8249734592
 40
1.0
 40
1.0
 40
1.0
 40
1.0
 10
184.2141498735
 20
46.0639683533
 30
0.0
 10
183.6490729549
 20
46.0637689343
 30
0.0
 10
182.6255967331
 20
46.1676720874
 30
0.0
 10
180.9304718329
 20
46.5767769847
 30
0.0
 10
179.2878212228
 20
47.2170691061
 30
0.0
 10
177.7249314923
 20
48.0980139641
 30
0.0
 10
176.8655700716
 20
48.7418983272
 30
0.0
 10
176.493456429
 20
49.0639468255
 30
0.0
  0
SPLINE
  5
6BA
100
AcDbEntity
  8
KONSTRUKTIONSELEMENTE
100
AcDbSpline
 62
7
  6
CONTINUOUS
 70
0
 71
3
 72
12
 73
8
 74
0
 42
0.0000001
 43
0.0000001
 44
0.0000000001
 40
0.0
 40
0.0
 40
0.0
 40
0.0
 40
0.2009733446
 40
0.3635204368
 40
0.6193681702
 40
0.8249733115
 40
1.0
 40
1.0
 40
1.0
 40
1.0
 10
240.6192199468
 20
62.0639249362
 30
0.0
 10
241.184295274
 20
62.0641222286
 30
0.0
 10
242.2077686781
 20
61.9602202797
 30
0.0
 10
243.9028897221
 20
61.551114457
 30
0.0
 10
245.5455376107
 20
60.910823096
 30
0.0
 10
247.1084254088
 20
60.0298788377
 30
0.0
 10
247.9677860075
 20
59.3859950604
 30
0.0
 10
248.3398993456
 20
59.0639468255
 30
0.0
  0
LINE
  5
6BB
100
AcDbEntity
  8
KONSTRUKTIONSELEMENTE
100
AcDbLine
 62
7
  6
CONTINUOUS
 10
184.200761764
 20
46.0639730239
 11
184.2141147488
 21
46.0639670204
  0
SPLINE
  5
6BC
100
AcDbEntity
  8
KONSTRUKTIONSELEMENTE
100
AcDbSpline
 62
7
  6
CONTINUOUS
 70
0
 71
3
 72
12
 73
8
 74
0
 42
0.0000001
 43
0.0000001
 44
0.0000000001
 40
0.0
 40
0.0
 40
0.0
 40
0.0
 40
0.1750267767
 40
0.380631989
 40
0.6364795502
 40
0.7990266002
 40
1.0
 40
1.0
 40
1.0
 40
1.0
 10
176.493456429
 20
59.0639468255
 30
0.0
 10
176.8655690407
 20
59.3859944317
 30
0.0
 10
177.7249276164
 20
60.0298773326
 30
0.0
 10
179.2878116507
 20
60.9108188485
 30
0.0
 10
180.9304544541
 20
61.5511114341
 30
0.0
 10
182.6255704345
 20
61.9602139615
 30
0.0
 10
183.6490408769
 20
62.0641293809
 30
0.0
 10
184.2141149697
 20
62.0639266245
 30
0.0
  0
SPLINE
  5
6BD
100
AcDbEntity
  8
0
100
AcDbSpline
 62
7
  6
CONTINUOUS
 70
0
 71
3
 72
9
 73
5
 74
0
 42
0.0000001
 43
0.0000001
 44
0.0000000001
 40
0.0
 40
0.0
 40
0.0
 40
0.0
 40
0.2262850768
 40
1.0
 40
1.0
 40
1.0
 40
1.0
 10
230.7507085809
 20
46.2465262895
 30
0.0
 10
230.7484125156
 20
46.2556032248
 30
0.0
 10
230.7386499281
 20
46.2958132604
 30
0.0
 10
230.7302476583
 20
46.3363446522
 30
0.0
 10
230.7242242196
 20
46.3677863258
 30
0.0
  0
SPLINE
  5
6BE
100
AcDbEntity
  8
0
100
AcDbSpline
 62
7
  6
CONTINUOUS
 70
0
 71
3
 72
9
 73
5
 74
0
 42
0.0000001
 43
0.0000001
 44
0.0000000001
 40
0.0
 40
0.0
 40
0.0
 40
0.0
 40
0.5150286689
 40
1.0
 40
1.0
 40
1.0
 40
1.0
 10
227.5850757222
 20
46.5431293003
 30
0.0
 10
227.3522520222
 20
46.3921778798
 30
0.0
 10
226.8622528124
 20
46.1509074053
 30
0.0
 10
226.3205920995
 20
46.0639312768
 30
0.0
 10
226.0593092748
 20
46.0639611236
 30
0.0
  0
SPLINE
  5
6BF
100
AcDbEntity
  8
0
100
AcDbSpline
 62
7
  6
CONTINUOUS
 70
0
 71
3
 72
9
 73
5
 74
0
 42
0.0000001
 43
0.0000001
 44
0.0000000001
 40
0.0
 40
0.0
 40
0.0
 40
0.0
 40
0.2243322996
 40
1.0
 40
1.0
 40
1.0
 40
1.0
 10
203.4583326258
 20
46.0753195326
 30
0.0
 10
203.4554798571
 20
46.0771228138
 30
0.0
 10
203.443197192
 20
46.0858516467
 30
0.0
 10
203.4326798371
 20
46.0968611284
 30
0.0
 10
203.4252760181
 20
46.1058809934
 30
0.0
  0
SPLINE
  5
6C0
100
AcDbEntity
  8
0
100
AcDbSpline
 62
7
  6
CONTINUOUS
 70
0
 71
3
 72
9
 73
5
 74
0
 42
0.0000001
 43
0.0000001
 44
0.0000000001
 40
0.0
 40
0.0
 40
0.0
 40
0.0
 40
0.2528048098
 40
1.0
 40
1.0
 40
1.0
 40
1.0
 10
215.4176008301
 20
46.5135266848
 30
0.0
 10
215.2941700701
 20
46.4673456346
 30
0.0
 10
214.8006899702
 20
46.2988650244
 30
0.0
 10
214.2882633408
 20
46.186827179
 30
0.0
 10
213.9023369247
 20
46.1340922404
 30
0.0
  0
SPLINE
  5
6C1
100
AcDbEntity
  8
0
100
AcDbSpline
 62
7
  6
CONTINUOUS
 70
0
 71
3
 72
9
 73
5
 74
0
 42
0.0000001
 43
0.0000001
 44
0.0000000001
 40
0.0
 40
0.0
 40
0.0
 40
0.0
 40
0.2681556626
 40
1.0
 40
1.0
 40
1.0
 40
1.0
 10
220.2913844452
 20
46.2578304946
 30
0.0
 10
220.2683559553
 20
46.2394455744
 30
0.0
 10
220.1801404306
 20
46.1740097873
 30
0.0
 10
220.0810099015
 20
46.1221965989
 30
0.0
 10
220.0045482006
 20
46.0972730086
 30
0.0
  0
LINE
  5
6C2
100
AcDbEntity
  8
0
100
AcDbLine
 62
7
  6
CONTINUOUS
 10
220.0045482006
 20
46.0972730086
 11
219.8444850521
 21
46.0975837916
  0
LINE
  5
6C3
100
AcDbEntity
  8
0
100
AcDbLine
 62
7
  6
CONTINUOUS
 10
219.8444850521
 20
46.0975837916
 11
219.6844639377
 21
46.0979854143
  0
SPLINE
  5
6C4
100
AcDbEntity
  8
0
100
AcDbSpline
 62
7
  6
CONTINUOUS
 70
0
 71
3
 72
9
 73
5
 74
0
 42
0.0000001
 43
0.0000001
 44
0.0000000001
 40
0.0
 40
0.0
 40
0.0
 40
0.0
 40
0.2547323113
 40
1.0
 40
1.0
 40
1.0
 40
1.0
 10
219.0448004915
 20
46.1005347927
 30
0.0
 10
219.0329693907
 20
46.0964976314
 30
0.0
 10
218.98613266
 20
46.0818302616
 30
0.0
 10
218.9377246768
 20
46.0720997097
 30
0.0
 10
218.9013824194
 20
46.0679900425
 30
0.0
  0
ELLIPSE
  5
6C5
100
AcDbEntity
  8
0
100
AcDbEllipse
 62
7
  6
CONTINUOUS
 10
212.4166778873
 20
200.9267822057
 30
0.0
 11
34.25
 21
-0.0
 31
0.0
 40
0.1702127606
 41
-2.7679990324
 42
-2.7384230453
  0
ELLIPSE
  5
6C6
100
AcDbEntity
  8
0
100
AcDbEllipse
 62
7
  6
CONTINUOUS
 10
212.4166778873
 20
203.0544418142
 30
0.0
 11
34.25
 21
0.0
 31
0.0
 40
0.3404255211
 41
-2.7826575616
 42
-2.7679990324
  0
ELLIPSE
  5
6C7
100
AcDbEntity
  8
0
100
AcDbEllipse
 62
7
  6
CONTINUOUS
 10
212.4166778873
 20
207.1501865683
 30
0.0
 11
34.25
 21
0.0
 31
0.0
 40
0.6808510423
 41
-2.797235906
 42
-2.7826575616
  0
ELLIPSE
  5
6C8
100
AcDbEntity
  8
0
100
AcDbEllipse
 62
7
  6
CONTINUOUS
 10
212.4166778873
 20
222.8948226866
 30
0.0
 11
0.0
 21
69.9573111603
 31
0.0
 40
0.4895842826
 41
-4.3777087564
 42
-4.3680322328
  0
ELLIPSE
  5
6C9
100
AcDbEntity
  8
0
100
AcDbEllipse
 62
7
  6
CONTINUOUS
 10
212.4166778873
 20
198.9586978661
 30
0.0
 11
0.0
 21
39.3510632217
 31
0.0
 40
0.8703703838
 41
7.6704716548
 42
7.7809239781
  0
ELLIPSE
  5
6CA
100
AcDbEntity
  8
0
100
AcDbEllipse
 62
7
  6
CONTINUOUS
 10
212.4166778873
 20
210.4480441154
 30
0.0
 11
0.0
 21
104.9359575539
 31
0.0
 40
0.3263895503
 41
-4.6484768739
 42
-4.6439048033
  0
ELLIPSE
  5
6CB
100
AcDbEntity
  8
0
100
AcDbEllipse
 62
7
  6
CONTINUOUS
 10
212.4166778873
 20
206.4586965852
 30
0.0
 11
0.0
 21
46.6382923126
 31
0.0
 40
0.7343750875
 41
-4.6439048033
 42
-4.630179623
  0
ELLIPSE
  5
6CC
100
AcDbEntity
  8
0
100
AcDbEllipse
 62
7
  6
CONTINUOUS
 10
212.4166778873
 20
204.7831638428
 30
0.0
 11
34.25
 21
0.0
 31
0.0
 40
0.7659569903
 41
-3.0593832962
 42
-3.0525424349
  0
ELLIPSE
  5
6CD
100
AcDbEntity
  8
0
100
AcDbEllipse
 62
7
  6
CONTINUOUS
 10
212.4166778873
 20
205.2778457804
 30
0.0
 11
34.25
 21
0.0
 31
0.0
 40
0.2042553727
 41
3.0207282746
 42
3.0410584148
  0
ELLIPSE
  5
6CE
100
AcDbEntity
  8
0
100
AcDbEllipse
 62
7
  6
CONTINUOUS
 10
212.4166778873
 20
203.3469963027
 30
0.0
 11
34.25
 21
-0.0
 31
0.0
 40
0.7659569903
 41
3.0410584148
 42
3.0593832962
  0
ELLIPSE
  5
6CF
100
AcDbEntity
  8
0
100
AcDbEllipse
 62
7
  6
CONTINUOUS
 10
212.4166778873
 20
201.6714635603
 30
0.0
 11
-0.0
 21
46.6382923126
 31
0.0
 40
0.7343750875
 41
1.4885869694
 42
1.5023121497
  0
ELLIPSE
  5
6D0
100
AcDbEntity
  8
0
100
AcDbEllipse
 62
7
  6
CONTINUOUS
 10
212.4166778873
 20
197.6821160301
 30
0.0
 11
0.0
 21
104.9359575539
 31
0.0
 40
0.3263895503
 41
1.5023121497
 42
1.5068842203
  0
ELLIPSE
  5
6D1
100
AcDbEntity
  8
0
100
AcDbEllipse
 62
7
  6
CONTINUOUS
 10
212.4166778873
 20
208.6023124247
 30
0.0
 11
34.25
 21
0.0
 31
0.0
 40
0.255319362
 41
2.8926799197
 42
2.9114646137
  0
ELLIPSE
  5
6D2
100
AcDbEntity
  8
0
100
AcDbEllipse
 62
7
  6
CONTINUOUS
 10
212.4166778873
 20
205.0118876172
 30
0.0
 11
34.25
 21
-0.0
 31
0.0
 40
0.6808512211
 41
2.8785326723
 42
2.8926799197
  0
ELLIPSE
  5
6D3
100
AcDbEntity
  8
0
100
AcDbEllipse
 62
7
  6
CONTINUOUS
 10
212.4166778873
 20
197.4321299405
 30
0.0
 11
0.0
 21
52.467978777
 31
0.0
 40
0.6527791007
 41
1.2982749831
 42
1.3077363455
  0
ELLIPSE
  5
6D4
100
AcDbEntity
  8
0
100
AcDbEllipse
 62
7
  6
CONTINUOUS
 10
212.4166778873
 20
173.8947281072
 30
0.0
 11
-0.0
 21
139.9154106728
 31
0.0
 40
0.244790762
 41
1.2935349879
 42
1.2982749831
  0
ELLIPSE
  5
6D5
100
AcDbEntity
  8
0
100
AcDbEllipse
 62
7
  6
CONTINUOUS
 10
212.4166778873
 20
252.8843679374
 30
0.0
 11
0.0
 21
139.9154106728
 31
0.0
 40
0.244790762
 41
-4.4398676367
 42
-4.4351276415
  0
ELLIPSE
  5
6D6
100
AcDbEntity
  8
0
100
AcDbEllipse
 62
7
  6
CONTINUOUS
 10
212.4166778873
 20
229.3469792917
 30
0.0
 11
0.0
 21
52.4680277719
 31
0.0
 40
0.6527784911
 41
-4.4493289991
 42
-4.4398676367
  0
ELLIPSE
  5
6D7
100
AcDbEntity
  8
0
100
AcDbEllipse
 62
7
  6
CONTINUOUS
 10
212.4166778873
 20
221.7672067511
 30
0.0
 11
34.25
 21
-0.0
 31
0.0
 40
0.6808509827
 41
-2.8926799197
 42
-2.8785326723
  0
ELLIPSE
  5
6D8
100
AcDbEntity
  8
0
100
AcDbEllipse
 62
7
  6
CONTINUOUS
 10
212.4166778873
 20
218.1767839553
 30
0.0
 11
34.25
 21
-0.0
 31
0.0
 40
0.255319362
 41
-2.9114646137
 42
-2.8926799197
  0
ELLIPSE
  5
6D9
100
AcDbEntity
  8
0
100
AcDbEllipse
 62
7
  6
CONTINUOUS
 10
212.4166778873
 20
210.5172077537
 30
0.0
 11
34.25
 21
0.0
 31
0.0
 40
0.2553189968
 41
3.1142169629
 42
3.1324684394
  0
ELLIPSE
  5
6DA
100
AcDbEntity
  8
0
100
AcDbEllipse
 62
7
  6
CONTINUOUS
 10
212.4166778873
 20
210.1182711666
 30
0.0
 11
34.25
 21
0.0
 31
0.0
 40
0.6808512211
 41
3.100522706
 42
3.1142169629
  0
ELLIPSE
  5
6DB
100
AcDbEntity
  8
0
100
AcDbEllipse
 62
7
  6
CONTINUOUS
 10
212.4166778873
 20
208.9214608258
 30
0.0
 11
0.0
 21
52.4681288892
 31
0.0
 40
0.6527772331
 41
1.5205927589
 42
1.5297263792
  0
ELLIPSE
  5
6DC
100
AcDbEntity
  8
0
100
AcDbEllipse
 62
7
  6
CONTINUOUS
 10
212.4166778873
 20
204.5331793796
 30
0.0
 11
-0.0
 21
139.9146100719
 31
0.0
 40
0.2447921628
 41
1.516024411
 42
1.5205927589
  0
ELLIPSE
  5
6DD
100
AcDbEntity
  8
0
100
AcDbEllipse
 62
7
  6
CONTINUOUS
 10
212.4166778873
 20
197.7290324222
 30
0.0
 11
-0.0
 21
38.8085291508
 31
0.0
 40
0.8760960733
 41
1.4327341389
 42
1.4645479301
  0
ELLIPSE
  5
6DE
100
AcDbEntity
  8
0
100
AcDbEllipse
 62
7
  6
CONTINUOUS
 10
212.4166778873
 20
202.0225254989
 30
0.0
 11
34.0
 21
0.0
 31
0.0
 40
0.2042552105
 41
-2.7601685074
 42
-2.735284657
  0
ELLIPSE
  5
6DF
100
AcDbEntity
  8
0
100
AcDbEllipse
 62
7
  6
CONTINUOUS
 10
212.4166778873
 20
208.0544407405
 30
0.0
 11
34.0
 21
0.0
 31
0.0
 40
0.6808509827
 41
-2.7749793202
 42
-2.7601685074
  0
ELLIPSE
  5
6E0
100
AcDbEntity
  8
0
100
AcDbEllipse
 62
7
  6
CONTINUOUS
 10
212.4166778873
 20
237.09714163
 30
0.0
 11
-0.0
 21
104.170622046
 31
0.0
 40
0.3263876065
 41
-4.3506937237
 42
-4.345775647
  0
ELLIPSE
  5
6E1
100
AcDbEntity
  8
0
100
AcDbEllipse
 62
7
  6
CONTINUOUS
 10
212.4166778873
 20
208.0438047212
 30
0.0
 11
34.0
 21
0.0
 31
0.0
 40
0.2042551568
 41
2.8860635469
 42
2.9097416296
  0
ELLIPSE
  5
6E2
100
AcDbEntity
  8
0
100
AcDbEllipse
 62
7
  6
CONTINUOUS
 10
212.4166778873
 20
205.4108201823
 30
0.0
 11
34.0
 21
0.0
 31
0.0
 40
0.510638791
 41
2.8670157585
 42
2.8860635469
  0
ELLIPSE
  5
6E3
100
AcDbEntity
  8
0
100
AcDbEllipse
 62
7
  6
CONTINUOUS
 10
212.4166778873
 20
200.7033692395
 30
0.0
 11
0.0
 21
34.7234362707
 31
0.0
 40
0.9791657639
 41
1.2770688718
 42
1.2962194317
  0
ELLIPSE
  5
6E4
100
AcDbEntity
  8
0
100
AcDbEllipse
 62
7
  6
CONTINUOUS
 10
212.4166778873
 20
190.6502248543
 30
0.0
 11
-0.0
 21
69.4466799323
 31
0.0
 40
0.4895842398
 41
1.2674522831
 42
1.2770688718
  0
ELLIPSE
  5
6E5
100
AcDbEntity
  8
0
100
AcDbEllipse
 62
7
  6
CONTINUOUS
 10
212.4166778873
 20
237.09714163
 30
0.0
 11
-0.0
 21
104.9365825022
 31
0.0
 40
0.3263876065
 41
-4.3534538884
 42
-4.3485768603
  0
ELLIPSE
  5
6E6
100
AcDbEntity
  8
0
100
AcDbEllipse
 62
7
  6
CONTINUOUS
 10
212.4166778873
 20
208.0544407405
 30
0.0
 11
34.25
 21
0.0
 31
0.0
 40
0.6808509827
 41
-2.7777805335
 42
-2.7630942767
  0
ELLIPSE
  5
6E7
100
AcDbEntity
  8
0
100
AcDbEllipse
 62
7
  6
CONTINUOUS
 10
212.4166778873
 20
218.7352914073
 30
0.0
 11
34.25
 21
-0.0
 31
0.0
 40
0.204255139
 41
-2.9114646137
 42
-2.8879699339
  0
ELLIPSE
  5
6E8
100
AcDbEntity
  8
0
100
AcDbEllipse
 62
7
  6
CONTINUOUS
 10
212.4166778873
 20
221.3682755236
 30
0.0
 11
34.25
 21
0.0
 31
0.0
 40
0.510638724
 41
-2.8879699339
 42
-2.8690713099
  0
ELLIPSE
  5
6E9
100
AcDbEntity
  8
0
100
AcDbEllipse
 62
7
  6
CONTINUOUS
 10
212.4166778873
 20
226.0757262603
 30
0.0
 11
0.0
 21
34.9787525928
 31
0.0
 40
0.9791658496
 41
-4.4398676367
 42
-4.4208686496
  0
ELLIPSE
  5
6EA
100
AcDbEntity
  8
0
100
AcDbEllipse
 62
7
  6
CONTINUOUS
 10
212.4166778873
 20
236.1288680053
 30
0.0
 11
-0.0
 21
69.957305036
 31
0.0
 40
0.4895843255
 41
-4.4208686496
 42
-4.4113288238
  0
ELLIPSE
  5
6EB
100
AcDbEntity
  8
0
100
AcDbEllipse
 62
7
  6
CONTINUOUS
 10
212.4166778873
 20
267.2461520345
 30
0.0
 11
0.0
 21
174.8943613314
 31
0.0
 40
0.1958324999
 41
-4.4113288238
 42
-4.40654838
  0
ELLIPSE
  5
6EC
100
AcDbEntity
  8
0
100
AcDbEllipse
 62
7
  6
CONTINUOUS
 10
212.4166778873
 20
159.5329735146
 30
0.0
 11
0.0
 21
174.894263341
 31
0.0
 40
0.1958326096
 41
1.2649557264
 42
1.2697361702
  0
ELLIPSE
  5
6ED
100
AcDbEntity
  8
0
100
AcDbEllipse
 62
7
  6
CONTINUOUS
 10
212.4166778873
 20
190.6502248543
 30
0.0
 11
-0.0
 21
69.9573172847
 31
0.0
 40
0.4895842398
 41
1.2697361702
 42
1.279275996
  0
ELLIPSE
  5
6EE
100
AcDbEntity
  8
0
100
AcDbEllipse
 62
7
  6
CONTINUOUS
 10
212.4166778873
 20
200.7033692395
 30
0.0
 11
0.0
 21
34.978755655
 31
0.0
 40
0.9791657639
 41
1.279275996
 42
1.2982749831
  0
ELLIPSE
  5
6EF
100
AcDbEntity
  8
0
100
AcDbEllipse
 62
7
  6
CONTINUOUS
 10
212.4166778873
 20
205.4108201823
 30
0.0
 11
34.25
 21
0.0
 31
0.0
 40
0.510638791
 41
2.8690713099
 42
2.8879699339
  0
ELLIPSE
  5
6F0
100
AcDbEntity
  8
0
100
AcDbEllipse
 62
7
  6
CONTINUOUS
 10
212.4166778873
 20
208.0438047212
 30
0.0
 11
34.25
 21
-0.0
 31
0.0
 40
0.2042551568
 41
2.8879699339
 42
2.9114646137
  0
ELLIPSE
  5
6F1
100
AcDbEntity
  8
0
100
AcDbEllipse
 62
7
  6
CONTINUOUS
 10
212.4166778873
 20
202.0225254989
 30
0.0
 11
34.25
 21
-0.0
 31
0.0
 40
0.2042552105
 41
-2.7630942767
 42
-2.7384230453
  0
ELLIPSE
  5
6F2
100
AcDbEntity
  8
0
100
AcDbEllipse
 62
7
  6
CONTINUOUS
 10
212.4166778873
 20
159.5329735146
 30
0.0
 11
0.0
 21
173.6176628787
 31
0.0
 40
0.1958326096
 41
1.2626332008
 42
1.2674522831
  0
ELLIPSE
  5
6F3
100
AcDbEntity
  8
0
100
AcDbEllipse
 62
7
  6
CONTINUOUS
 10
212.4166778873
 20
197.7290324222
 30
0.0
 11
-0.0
 21
39.0938859828
 31
0.0
 40
0.8760960733
 41
1.3872863476
 42
1.4656758064
  0
ELLIPSE
  5
6F4
100
AcDbEntity
  8
0
100
AcDbEllipse
 62
7
  6
CONTINUOUS
 10
212.4166778873
 20
197.8310649979
 30
0.0
 11
0.0
 21
174.8932625899
 31
0.0
 40
0.1958337302
 41
1.4885869607
 42
1.4931636258
  0
ELLIPSE
  5
6F5
100
AcDbEntity
  8
0
100
AcDbEllipse
 62
7
  6
CONTINUOUS
 10
212.4166778873
 20
205.969329905
 30
0.0
 11
-0.0
 21
69.9575174344
 31
0.0
 40
0.4895828391
 41
1.4931636258
 42
1.502312141
  0
ELLIPSE
  5
6F6
100
AcDbEntity
  8
0
100
AcDbEllipse
 62
7
  6
CONTINUOUS
 10
212.4166778873
 20
208.3629532808
 30
0.0
 11
0.0
 21
34.9787056175
 31
0.0
 40
0.9791671646
 41
1.502312141
 42
1.5205927589
  0
ELLIPSE
  5
6F7
100
AcDbEntity
  8
0
100
AcDbEllipse
 62
7
  6
CONTINUOUS
 10
212.4166778873
 20
209.2406123706
 30
0.0
 11
34.25
 21
-0.0
 31
0.0
 40
0.5106380606
 41
3.0913890857
 42
3.1096529255
  0
ELLIPSE
  5
6F8
100
AcDbEntity
  8
0
100
AcDbEllipse
 62
7
  6
CONTINUOUS
 10
212.4166778873
 20
267.2461520345
 30
0.0
 11
0.0
 21
173.6177601538
 31
0.0
 40
0.1958324999
 41
-4.4090449367
 42
-4.4042258544
  0
ELLIPSE
  5
6F9
100
AcDbEntity
  8
0
100
AcDbEllipse
 62
7
  6
CONTINUOUS
 10
212.4166778873
 20
209.5757183245
 30
0.0
 11
34.25
 21
0.0
 31
0.0
 40
0.2042553906
 41
3.1096529255
 42
3.1324684394
  0
ELLIPSE
  5
6FA
100
AcDbEntity
  8
0
100
AcDbEllipse
 62
7
  6
CONTINUOUS
 10
212.4166778873
 20
236.1288680053
 30
0.0
 11
0.0
 21
69.4466677729
 31
0.0
 40
0.4895843255
 41
-4.4186615254
 42
-4.4090449367
  0
ELLIPSE
  5
6FB
100
AcDbEntity
  8
0
100
AcDbEllipse
 62
7
  6
CONTINUOUS
 10
212.4166778873
 20
226.0757262603
 30
0.0
 11
0.0
 21
34.7234332308
 31
0.0
 40
0.9791658496
 41
-4.4378120852
 42
-4.4186615254
  0
ELLIPSE
  5
6FC
100
AcDbEntity
  8
0
100
AcDbEllipse
 62
7
  6
CONTINUOUS
 10
212.4166778873
 20
221.3682755236
 30
0.0
 11
34.0
 21
-0.0
 31
0.0
 40
0.510638724
 41
-2.8860635469
 42
-2.8670157585
  0
ELLIPSE
  5
6FD
100
AcDbEntity
  8
0
100
AcDbEllipse
 62
7
  6
CONTINUOUS
 10
212.4166778873
 20
218.7352914073
 30
0.0
 11
34.0
 21
-0.0
 31
0.0
 40
0.204255139
 41
-2.9097416296
 42
-2.8860635469
  0
ENDSEC
  0
SECTION
  2
OBJECTS
  0
DICTIONARY
  5
C
100
AcDbDictionary
280
0
281
1
  3
ACAD_GROUP
350
D
  3
ACAD_MLINESTYLE
350
17
  3
ACAD_LAYOUT
350
1A
  3
ACAD_PLOTSETTINGS
350
19
  3
ACAD_PLOTSTYLENAME
350
E
  0
DICTIONARY
  5
D
102
{ACAD_REACTORS
330
C
102
}
100
AcDbDictionary
280
0
281
1
  0
ACDBDICTIONARYWDFLT
  5
E
102
{ACAD_REACTORS
330
C
102
}
100
AcDbDictionary
281
1
  3
Normal
350
F
100
AcDbDictionaryWithDefault
340
F
  0
DICTIONARY
  5
17
102
{ACAD_REACTORS
330
C
102
}
100
AcDbDictionary
280
0
281
1
  3
Standard
350
18
  0
DICTIONARY
  5
19
102
{ACAD_REACTORS
330
C
102
}
100
AcDbDictionary
281
1
  0
DICTIONARY
  5
1A
102
{ACAD_REACTORS
330
C
102
}
100
AcDbDictionary
281
1
  3
Model
350
6FE
  3
Layout1
350
6FF
  0
ACDBPLACEHOLDER
  5
F
102
{ACAD_REACTORS
330
E
102
}
  0
MLINESTYLE
  5
18
102
{ACAD_REACTORS
330
17
102
}
100
AcDbMlineStyle
  2
STANDARD
 70
0
  3

 62
256
 51
90.0
 52
90.0
 71
2
 49
0.5
 62
256
  6
BYLAYER
 49
-0.5
 62
256
  6
BYLAYER
  0
LAYOUT
  5
6FE
102
{ACAD_REACTORS
330
1A
102
}
100
AcDbPlotSettings
  1

  2
none_device
  4
ISO_A2_(594.00_x_420.00_MM)
  6

 40
0.0
 41
0.0
 42
0.0
 43
0.0
 44
594.0
 45
420.0
 46
0.0
 47
0.0
 48
0.0
 49
0.0
140
0.0
141
0.0
142
1.0
143
1.0
 70
1024
 72
1
 73
0
 74
0
  7

 75
0
147
1.0
148
0.0
149
0.0
100
AcDbLayout
  1
Model
 70
0
 71
0
 10
0.0
 20
0.0
 11
594.0
 21
420.0
 12
0.0
 22
0.0
 32
0.0
 14
0.0
 24
0.0
 34
0.0
 15
0.0
 25
0.0
 35
0.0
146
0.0
 13
0.0
 23
0.0
 33
0.0
 16
1.0
 26
0.0
 36
0.0
 17
0.0
 27
1.0
 37
0.0
 76
0
330
20D
345
0
346
0
  0
LAYOUT
  5
6FF
102
{ACAD_REACTORS
330
1A
102
}
100
AcDbPlotSettings
  1

  2
none_device
  4
ISO_A2_(594.00_x_420.00_MM)
  6

 40
0.0
 41
0.0
 42
0.0
 43
0.0
 44
594.0
 45
420.0
 46
0.0
 47
0.0
 48
0.0
 49
0.0
140
0.0
141
0.0
142
1.0
143
1.0
 70
0
 72
1
 73
0
 74
0
  7

 75
0
147
1.0
148
0.0
149
0.0
100
AcDbLayout
  1
Layout1
 70
0
 71
1
 10
0.0
 20
0.0
 11
594.0
 21
420.0
 12
0.0
 22
0.0
 32
0.0
 14
0.0
 24
0.0
 34
0.0
 15
0.0
 25
0.0
 35
0.0
146
0.0
 13
0.0
 23
0.0
 33
0.0
 16
1.0
 26
0.0
 36
0.0
 17
0.0
 27
1.0
 37
0.0
 76
0
330
20E
345
0
346
0
  0
ENDSEC
  0
EOF
