999
DXF file: 001-m31347-p-20.dxf
999
Pro/ENGINEER 2011490 by Parametric Technology Corporation
  0
SECTION
  2
HEADER
  9
$ACADVER
  1
AC1015
  9
$DWGCODEPAGE
  3
ANSI_1252
  9
$EXTMAX
 10
594.0
 20
420.0
 30
0.0
  9
$EXTMIN
 10
0.0
 20
0.0
 30
0.0
  9
$LIMMIN
 10
0.0
 20
0.0
  9
$LIMMAX
 10
594.0
 20
420.0
  9
$VIEWCTR
 10
297.0
 20
210.0
  9
$VIEWSIZE
 40
420.0
  9
$CLAYER
  8
0
  9
$LTSCALE
 40
32.67
  9
$CELTYPE
  6
BYLAYER
  9
$DIMSCALE
 40
1.0
  9
$DIMASZ
 40
3.5
  9
$DIMEXO
 40
3.7125
  9
$DIMDLI
 40
22.572
  9
$DIMEXE
 40
10.692
  9
$DIMCEN
 40
5.346
  9
$DIMLFAC
 40
1.0
  9
$DIMBLK
  1
_FILLED
  9
$DIMTXT
 40
3.5
  9
$DIMTOL
 70
1
  9
$DIMLIM
 70
0
  9
$DIMTFAC
 40
1.0
  9
$DIMTP
 40
0.005
  9
$DIMTM
 40
0.005
  9
$PDMODE
 70
3
  9
$PDSIZE
 40
0.3125
  9
$HANDSEED
  5
88B
  9
$TILEMODE
 70
1
  9
$MEASUREMENT
 70
1
  9
$INSUNITS
 70
4
  0
ENDSEC
  0
SECTION
  2
CLASSES
  0
CLASS
  1
ACDBDICTIONARYWDFLT
  2
AcDbDictionaryWithDefault
  3
AutoCAD 2000
 90
0
280
0
281
0
  0
CLASS
  1
ACDBPLACEHOLDER
  2
AcDbPlaceHolder
  3
AutoCAD 2000
 90
0
280
0
281
0
  0
CLASS
  1
LAYOUT
  2
AcDbLayout
  3
AutoCAD 2000
 90
0
280
0
281
0
  0
ENDSEC
  0
SECTION
  2
TABLES
  0
TABLE
  2
VPORT
  5
8
100
AcDbSymbolTable
 70
2
  0
VPORT
  5
1F4
100
AcDbSymbolTableRecord
100
AcDbViewportTableRecord
  2
*ACTIVE
 70
0
 10
0.0
 20
0.0
 11
1.0
 21
1.0
 12
297.0
 22
210.0
 13
0.0
 23
0.0
 14
1.0
 24
1.0
 15
0.0
 25
0.0
 16
0.0
 26
0.0
 36
1.0
 17
0.0
 27
0.0
 37
0.0
 40
420.0
 41
1.4142857143
 42
50.0
 43
0.0
 44
0.0
 50
0.0
 51
0.0
 71
0
 72
100
 73
1
 74
1
 75
0
 76
0
 77
0
 78
0
  0
ENDTAB
  0
TABLE
  2
LTYPE
  5
5
100
AcDbSymbolTable
 70
6
  0
LTYPE
  5
14
100
AcDbSymbolTableRecord
100
AcDbLinetypeTableRecord
  2
BYBLOCK
 70
0
  3

 72
65
 73
0
 40
0.0
  0
LTYPE
  5
15
100
AcDbSymbolTableRecord
100
AcDbLinetypeTableRecord
  2
BYLAYER
 70
0
  3

 72
65
 73
0
 40
0.0
  0
LTYPE
  5
16
100
AcDbSymbolTableRecord
100
AcDbLinetypeTableRecord
  2
CONTINUOUS
 70
64
  3
Solid line
 72
65
 73
0
 40
0.0
  0
LTYPE
  5
1F5
100
AcDbSymbolTableRecord
100
AcDbLinetypeTableRecord
  2
CENTER
 70
64
  3
____ _ ____ _ ____ _ ____ _ ____ _ ____ _ ____
 72
65
 73
4
 40
0.6
 49
0.375
 74
0
 49
-0.075
 74
0
 49
0.075
 74
0
 49
-0.075
 74
0
  0
LTYPE
  5
1F6
100
AcDbSymbolTableRecord
100
AcDbLinetypeTableRecord
  2
HIDDEN
 70
64
  3
- - - - - - - - - - - - - - - - - - - -
 72
65
 73
2
 40
0.2
 49
0.1
 74
0
 49
-0.1
 74
0
  0
LTYPE
  5
1F7
100
AcDbSymbolTableRecord
100
AcDbLinetypeTableRecord
  2
PHANTOM
 70
64
  3
_____ _ _ _____ _ _ _____ _ _ _____
 72
65
 73
6
 40
0.8
 49
0.45
 74
0
 49
-0.05
 74
0
 49
0.1
 74
0
 49
-0.05
 74
0
 49
0.1
 74
0
 49
-0.05
 74
0
  0
LTYPE
  5
1F8
100
AcDbSymbolTableRecord
100
AcDbLinetypeTableRecord
  2
DOT
 70
64
  3
. . . . . . . . . . . . . . . . . . . .
 72
65
 73
2
 40
0.2
 49
0.1
 74
0
 49
-0.1
 74
0
  0
LTYPE
  5
1F9
100
AcDbSymbolTableRecord
100
AcDbLinetypeTableRecord
  2
DASHED
 70
64
  3
- - - - - - - - - - - - - - - - - - - -
 72
65
 73
2
 40
0.2
 49
0.1
 74
0
 49
-0.1
 74
0
  0
ENDTAB
  0
TABLE
  2
LAYER
  5
2
100
AcDbSymbolTable
 70
36
  0
LAYER
  5
10
100
AcDbSymbolTableRecord
100
AcDbLayerTableRecord
  2
0
 70
0
 62
7
  6
CONTINUOUS
370
-3
390
F
  0
LAYER
  5
1FA
100
AcDbSymbolTableRecord
100
AcDbLayerTableRecord
  2
DEFAULT_1
 70
0
 62
7
  6
CENTER
370
-3
390
F
  0
LAYER
  5
1FB
100
AcDbSymbolTableRecord
100
AcDbLayerTableRecord
  2
DEFAULT_2
 70
0
 62
8
  6
HIDDEN
370
-3
390
F
  0
LAYER
  5
1FC
100
AcDbSymbolTableRecord
100
AcDbLayerTableRecord
  2
DEFAULT_3
 70
0
 62
7
  6
PHANTOM
370
-3
390
F
  0
LAYER
  5
1FD
100
AcDbSymbolTableRecord
100
AcDbLayerTableRecord
  2
AUSFORMSCHRAEGEN
 70
0
 62
7
  6
CONTINUOUS
370
-3
390
F
  0
LAYER
  5
1FE
100
AcDbSymbolTableRecord
100
AcDbLayerTableRecord
  2
BEZUGSACHSEN
 70
0
 62
7
  6
CONTINUOUS
370
-3
390
F
  0
LAYER
  5
1FF
100
AcDbSymbolTableRecord
100
AcDbLayerTableRecord
  2
BEZUGSEBENEN
 70
0
 62
7
  6
CONTINUOUS
370
-3
390
F
  0
LAYER
  5
200
100
AcDbSymbolTableRecord
100
AcDbLayerTableRecord
  2
BG_STARTBEZUEGE
 70
0
 62
7
  6
CONTINUOUS
370
-3
390
F
  0
LAYER
  5
201
100
AcDbSymbolTableRecord
100
AcDbLayerTableRecord
  2
FASEN
 70
0
 62
7
  6
CONTINUOUS
370
-3
390
F
  0
LAYER
  5
202
100
AcDbSymbolTableRecord
100
AcDbLayerTableRecord
  2
HILFEN
 70
0
 62
7
  6
CONTINUOUS
370
-3
390
F
  0
LAYER
  5
203
100
AcDbSymbolTableRecord
100
AcDbLayerTableRecord
  2
KONSTRUKTIONSELEMENTE
 70
0
 62
7
  6
CONTINUOUS
370
-3
390
F
  0
LAYER
  5
204
100
AcDbSymbolTableRecord
100
AcDbLayerTableRecord
  2
NORM
 70
0
 62
7
  6
CONTINUOUS
370
-3
390
F
  0
LAYER
  5
205
100
AcDbSymbolTableRecord
100
AcDbLayerTableRecord
  2
PLATZIERUNG
 70
0
 62
7
  6
CONTINUOUS
370
-3
390
F
  0
LAYER
  5
206
100
AcDbSymbolTableRecord
100
AcDbLayerTableRecord
  2
PLAZIERUNG
 70
0
 62
7
  6
CONTINUOUS
370
-3
390
F
  0
LAYER
  5
207
100
AcDbSymbolTableRecord
100
AcDbLayerTableRecord
  2
RUNDUNGEN
 70
0
 62
7
  6
CONTINUOUS
370
-3
390
F
  0
LAYER
  5
208
100
AcDbSymbolTableRecord
100
AcDbLayerTableRecord
  2
TEIL_STARTBEZUEGE
 70
0
 62
7
  6
CONTINUOUS
370
-3
390
F
  0
LAYER
  5
209
100
AcDbSymbolTableRecord
100
AcDbLayerTableRecord
  2
T_STARTBEZUEGE
 70
0
 62
7
  6
CONTINUOUS
370
-3
390
F
  0
LAYER
  5
20A
100
AcDbSymbolTableRecord
100
AcDbLayerTableRecord
  2
ZEICHNUNGSBEMASSUNGEN
 70
0
 62
7
  6
CONTINUOUS
370
-3
390
F
  0
ENDTAB
  0
TABLE
  2
STYLE
  5
3
100
AcDbSymbolTable
 70
1
  0
STYLE
  5
11
100
AcDbSymbolTableRecord
100
AcDbTextStyleTableRecord
  2
STANDARD
 70
0
 40
0.0
 41
0.7
 50
0.0
 71
0
 42
0.2
  3
txt
  4

  0
STYLE
  5
20B
100
AcDbSymbolTableRecord
100
AcDbTextStyleTableRecord
  2
TEXTSTYLE_1
 70
0
 40
0.0
 41
0.8
 50
0.0
 71
0
 42
0.2
  3
gdt
  4

  0
ENDTAB
  0
TABLE
  2
VIEW
  5
6
100
AcDbSymbolTable
 70
0
  0
ENDTAB
  0
TABLE
  2
UCS
  5
7
100
AcDbSymbolTable
 70
0
  0
ENDTAB
  0
TABLE
  2
APPID
  5
9
100
AcDbSymbolTable
 70
1
  0
APPID
  5
20C
100
AcDbSymbolTableRecord
100
AcDbRegAppTableRecord
  2
ACAD
 70
0
  0
ENDTAB
  0
TABLE
  2
BLOCK_RECORD
  5
1
100
AcDbSymbolTable
 70
0
  0
BLOCK_RECORD
  5
20D
100
AcDbSymbolTableRecord
100
AcDbBlockTableRecord
  2
*Model_Space
  0
BLOCK_RECORD
  5
20E
100
AcDbSymbolTableRecord
100
AcDbBlockTableRecord
  2
*Paper_Space
  0
ENDTAB
  0
TABLE
  2
DIMSTYLE
  5
A
100
AcDbSymbolTable
 70
1
100
AcDbDimStyleTable
 71
0
  0
DIMSTYLE
105
20F
100
AcDbSymbolTableRecord
100
AcDbDimStyleTableRecord
  2
STANDARD
 70
0
  3

  4

 40
1.0
 41
3.5
 42
0.0625
 43
0.38
 44
0.18
 45
0.0
 46
0.0
 47
0.005
 48
0.005
140
3.5
141
0.09
142
0.0
143
25.4
144
1.0
145
0.0
146
1.0
147
0.09
 71
1.0
 72
0.0
 73
0
 74
0
 75
0
 76
0
 77
1
 78
8
170
0
171
2
172
0
173
0
174
0
175
0
176
0
177
0
178
5
270
2
271
3
272
3
273
2
274
2
275
0
280
0
281
0
282
0
283
1
284
8
285
0
286
0
287
3
288
0
340
11
  0
ENDTAB
  0
ENDSEC
  0
SECTION
  2
BLOCKS
  0
BLOCK
  5
20
100
AcDbEntity
  8
0
100
AcDbBlockBegin
  2
*Model_Space
 70
0
 10
0.0
 20
0.0
 30
0.0
  3
*Model_Space
  1

  0
ENDBLK
  5
21
100
AcDbEntity
  8
0
100
AcDbBlockEnd
  0
BLOCK
  5
1C
100
AcDbEntity
  8
0
100
AcDbBlockBegin
  2
*Paper_Space
 70
0
 10
0.0
 20
0.0
 30
0.0
  3
*Paper_Space
  1

  0
ENDBLK
  5
1D
100
AcDbEntity
  8
0
100
AcDbBlockEnd
  0
ENDSEC
  0
SECTION
  2
ENTITIES
  0
MTEXT
  5
210
100
AcDbEntity
  8
0
100
AcDbMText
 62
5
  6
CONTINUOUS
  7
STANDARD
 71
1
 72
1
 10
282.3702166956
 20
251.7088514157
 30
0.0
 11
0.3826834324
 21
0.9238795325
 31
0.0
 44
0.9
  1
VIP 8
 40
8.0
 41
32.1904761905
  0
MTEXT
  5
211
100
AcDbEntity
  8
0
100
AcDbMText
 62
5
  6
CONTINUOUS
  7
STANDARD
 71
2
 72
1
 10
177.8013954569
 20
74.8721896464
 30
0.0
 11
0.0
 21
1.0
 31
0.0
 44
0.9
  1
RUD PP-B\P2,5t M20
 40
7.0
 41
45.6666666667
  0
MTEXT
  5
212
100
AcDbEntity
  8
0
100
AcDbMText
 62
5
  6
CONTINUOUS
  7
STANDARD
 71
1
 72
1
 10
326.0617225886
 20
269.804937062
 30
0.0
 11
0.3826834324
 21
-0.9238795325
 31
0.0
 44
0.9
  1
CE
 40
8.0
 41
13.9047619048
  0
LINE
  5
213
100
AcDbEntity
  8
0
100
AcDbLine
 62
7
  6
CONTINUOUS
 10
0.0
 20
0.0
 11
0.0
 21
420.0
  0
LINE
  5
214
100
AcDbEntity
  8
0
100
AcDbLine
 62
7
  6
CONTINUOUS
 10
0.0
 20
0.0
 11
594.0
 21
0.0
  0
LINE
  5
215
100
AcDbEntity
  8
0
100
AcDbLine
 62
7
  6
CONTINUOUS
 10
0.0
 20
420.0
 11
594.0
 21
420.0
  0
LINE
  5
216
100
AcDbEntity
  8
0
100
AcDbLine
 62
7
  6
CONTINUOUS
 10
594.0
 20
0.0
 11
594.0
 21
420.0
  0
LINE
  5
217
100
AcDbEntity
  8
FASEN
100
AcDbLine
 62
7
  6
CONTINUOUS
 10
195.3027076827
 20
179.3827536135
 11
178.302707683
 21
179.3827536135
  0
LINE
  5
218
100
AcDbEntity
  8
FASEN
100
AcDbLine
 62
7
  6
CONTINUOUS
 10
196.8027076828
 20
180.8827536135
 11
176.8027076828
 21
180.8827536135
  0
LINE
  5
219
100
AcDbEntity
  8
0
100
AcDbLine
 62
7
  6
CONTINUOUS
 10
175.6638628087
 20
352.2197543309
 11
173.6363892179
 21
351.2441258983
  0
LINE
  5
21A
100
AcDbEntity
  8
0
100
AcDbLine
 62
7
  6
CONTINUOUS
 10
174.3508381084
 20
351.0566556981
 11
175.9559215289
 21
351.8290282848
  0
LINE
  5
21B
100
AcDbEntity
  8
0
100
AcDbLine
 62
7
  6
CONTINUOUS
 10
176.5786631237
 20
350.5348961181
 11
174.9735797032
 21
349.7625235314
  0
LINE
  5
21C
100
AcDbEntity
  8
0
100
AcDbLine
 62
7
  6
CONTINUOUS
 10
175.2226762946
 20
349.2448707615
 11
176.7432814877
 21
349.9765920859
  0
LINE
  5
21D
100
AcDbEntity
  8
0
100
AcDbLine
 62
7
  6
CONTINUOUS
 10
171.7120474134
 20
349.8878321039
 11
171.2784852365
 21
349.6855512923
  0
LINE
  5
21E
100
AcDbEntity
  8
0
100
AcDbLine
 62
7
  6
CONTINUOUS
 10
191.199672032
 20
352.541632882
 11
190.6820039945
 21
352.3565624033
  0
LINE
  5
21F
100
AcDbEntity
  8
0
100
AcDbLine
 62
7
  6
CONTINUOUS
 10
171.6389227872
 20
349.3568419056
 11
171.9218704837
 21
349.4474465702
  0
LINE
  5
220
100
AcDbEntity
  8
0
100
AcDbLine
 62
7
  6
CONTINUOUS
 10
176.7432814877
 20
349.9765920859
 11
177.1241555594
 21
350.2661233935
  0
LINE
  5
221
100
AcDbEntity
  8
0
100
AcDbLine
 62
7
  6
CONTINUOUS
 10
171.2784852365
 20
349.6855512923
 11
169.4711123334
 21
348.3454381668
  0
LINE
  5
222
100
AcDbEntity
  8
0
100
AcDbLine
 62
7
  6
CONTINUOUS
 10
170.2080859774
 20
348.2959190678
 11
171.6389227872
 21
349.3568419056
  0
LINE
  5
223
100
AcDbEntity
  8
0
100
AcDbLine
 62
7
  6
CONTINUOUS
 10
172.4943142017
 20
348.2031995491
 11
171.0634773919
 21
347.1422767113
  0
LINE
  5
224
100
AcDbEntity
  8
0
100
AcDbLine
 62
7
  6
CONTINUOUS
 10
171.4056338938
 20
346.6808198549
 11
172.7611635711
 21
347.685904699
  0
LINE
  5
225
100
AcDbEntity
  8
0
100
AcDbLine
 62
7
  6
CONTINUOUS
 10
172.1513385844
 20
344.7306923606
 11
172.6031818101
 21
345.065720642
  0
LINE
  5
226
100
AcDbEntity
  8
0
100
AcDbLine
 62
7
  6
CONTINUOUS
 10
184.483700987
 20
354.4565606575
 11
184.120629373
 21
354.2433192408
  0
LINE
  5
227
100
AcDbEntity
  8
0
100
AcDbLine
 62
7
  6
CONTINUOUS
 10
175.587646083
 20
347.1891787166
 11
176.0945144807
 21
347.4330858248
  0
LINE
  5
228
100
AcDbEntity
  8
0
100
AcDbLine
 62
7
  6
CONTINUOUS
 10
190.7674151401
 20
351.8495734826
 11
191.1933202991
 21
352.0538578386
  0
LINE
  5
229
100
AcDbEntity
  8
0
100
AcDbLine
 62
7
  6
CONTINUOUS
 10
192.4392896721
 20
350.2278328547
 11
192.1247652732
 21
350.0980479098
  0
LINE
  5
22A
100
AcDbEntity
  8
0
100
AcDbLine
 62
7
  6
CONTINUOUS
 10
192.1184135283
 20
349.610272809
 11
192.636081571
 21
349.7953433122
  0
LINE
  5
22B
100
AcDbEntity
  8
0
100
AcDbLine
 62
7
  6
CONTINUOUS
 10
202.2576936455
 20
347.1387173572
 11
202.7093054247
 21
347.2864367905
  0
LINE
  5
22C
100
AcDbEntity
  8
FASEN
100
AcDbLine
 62
7
  6
CONTINUOUS
 10
178.3027076841
 20
179.3827536121
 11
176.8027076844
 21
180.8827536119
  0
LINE
  5
22D
100
AcDbEntity
  8
0
100
AcDbLine
 62
7
  6
CONTINUOUS
 10
172.7611635711
 20
347.685904699
 11
173.0806735807
 21
348.0420044628
  0
LINE
  5
22E
100
AcDbEntity
  8
0
100
AcDbLine
 62
7
  6
CONTINUOUS
 10
176.790581224
 20
350.7431251338
 11
176.5786631237
 21
350.5348961181
  0
LINE
  5
22F
100
AcDbEntity
  8
0
100
AcDbLine
 62
7
  6
CONTINUOUS
 10
184.3359972157
 20
353.7764690297
 11
184.6054819022
 21
353.984189354
  0
LINE
  5
230
100
AcDbEntity
  8
0
100
AcDbLine
 62
7
  6
CONTINUOUS
 10
201.0874042915
 20
345.5037588951
 11
201.5390160902
 21
345.6514783557
  0
LINE
  5
231
100
AcDbEntity
  8
0
100
AcDbLine
 62
7
  6
CONTINUOUS
 10
172.6632097309
 20
348.4476231658
 11
172.4943142017
 21
348.2031995491
  0
LINE
  5
232
100
AcDbEntity
  8
0
100
AcDbLine
 62
7
  6
CONTINUOUS
 10
184.120629373
 20
354.2433192408
 11
183.7688349258
 21
353.8389208403
  0
LINE
  5
233
100
AcDbEntity
  8
0
100
AcDbLine
 62
7
  6
CONTINUOUS
 10
186.2584894561
 20
353.0266845638
 11
183.7790104452
 21
350.482630909
  0
LINE
  5
234
100
AcDbEntity
  8
0
100
AcDbLine
 62
7
  6
CONTINUOUS
 10
184.5277090776
 20
350.5267998384
 11
186.7433419853
 21
352.767554677
  0
LINE
  5
235
100
AcDbEntity
  8
KONSTRUKTIONSELEMENTE
100
AcDbLine
 62
7
  6
CONTINUOUS
 10
156.5080045256
 20
209.3827536135
 11
217.09741084
 21
209.3827536135
  0
LINE
  5
236
100
AcDbEntity
  8
0
100
AcDbLine
 62
7
  6
CONTINUOUS
 10
158.8396575001
 20
211.8827536135
 11
159.1834075001
 21
211.8827536135
  0
LINE
  5
237
100
AcDbEntity
  8
0
100
AcDbLine
 62
7
  6
CONTINUOUS
 10
159.9854908061
 20
211.8827536135
 11
160.4438241121
 21
211.8827536135
  0
LINE
  5
238
100
AcDbEntity
  8
0
100
AcDbLine
 62
7
  6
CONTINUOUS
 10
161.2459075001
 20
211.8827536135
 11
161.5896575001
 21
211.8827536135
  0
LINE
  5
239
100
AcDbEntity
  8
0
100
AcDbLine
 62
7
  6
CONTINUOUS
 10
162.0479907242
 20
211.8827536135
 11
164.1104907242
 21
211.8827536135
  0
LINE
  5
23A
100
AcDbEntity
  8
0
100
AcDbLine
 62
7
  6
CONTINUOUS
 10
165.2563239482
 20
211.9997748864
 11
165.6893366501
 21
211.9997748864
  0
LINE
  5
23B
100
AcDbEntity
  8
0
100
AcDbLine
 62
7
  6
CONTINUOUS
 10
164.969866052
 20
212.350838705
 11
165.4028787539
 21
212.350838705
  0
LINE
  5
23C
100
AcDbEntity
  8
0
100
AcDbLine
 62
7
  6
CONTINUOUS
 10
164.1104907242
 20
212.4678600087
 11
162.5063242761
 21
212.4678600087
  0
LINE
  5
23D
100
AcDbEntity
  8
0
100
AcDbLine
 62
7
  6
CONTINUOUS
 10
160.2146575001
 20
212.4678600087
 11
160.5522137579
 21
212.4678600087
  0
LINE
  5
23E
100
AcDbEntity
  8
0
100
AcDbLine
 62
7
  6
CONTINUOUS
 10
162.0479907242
 20
212.4678600087
 11
162.4810034261
 21
212.4678600087
  0
LINE
  5
23F
100
AcDbEntity
  8
0
100
AcDbLine
 62
7
  6
CONTINUOUS
 10
165.6000739482
 20
212.4678600087
 11
166.0330866501
 21
212.4678600087
  0
LINE
  5
240
100
AcDbEntity
  8
0
100
AcDbLine
 62
7
  6
CONTINUOUS
 10
165.2563239482
 20
211.9997748864
 11
165.6000739482
 21
211.8827536135
  0
LINE
  5
241
100
AcDbEntity
  8
0
100
AcDbLine
 62
7
  6
CONTINUOUS
 10
165.6893366501
 20
211.9997748864
 11
165.8165802992
 21
211.9564579008
  0
LINE
  5
242
100
AcDbEntity
  8
0
100
AcDbLine
 62
7
  6
CONTINUOUS
 10
165.6000739482
 20
212.4678600087
 11
165.313616052
 21
212.5848812713
  0
LINE
  5
243
100
AcDbEntity
  8
0
100
AcDbLine
 62
7
  6
CONTINUOUS
 10
163.1938242761
 20
216.7976473002
 11
163.4802825001
 21
216.6806260376
  0
LINE
  5
244
100
AcDbEntity
  8
0
100
AcDbLine
 62
7
  6
CONTINUOUS
 10
163.6268369779
 20
216.7976473002
 11
163.913295202
 21
216.6806260376
  0
LINE
  5
245
100
AcDbEntity
  8
0
100
AcDbLine
 62
7
  6
CONTINUOUS
 10
161.5193079918
 20
316.4042428927
 11
161.3109745591
 21
316.1914769607
  0
LINE
  5
246
100
AcDbEntity
  8
0
100
AcDbLine
 62
7
  6
CONTINUOUS
 10
192.6816753886
 20
350.470543712
 11
192.4392896721
 21
350.2278328547
  0
LINE
  5
247
100
AcDbEntity
  8
0
100
AcDbLine
 62
7
  6
CONTINUOUS
 10
192.636081571
 20
349.7953433122
 11
192.9898501411
 21
350.1125531081
  0
LINE
  5
248
100
AcDbEntity
  8
0
100
AcDbLine
 62
7
  6
CONTINUOUS
 10
202.551052326
 20
347.8706923136
 11
202.307634388
 21
347.6916943259
  0
LINE
  5
249
100
AcDbEntity
  8
0
100
AcDbLine
 62
7
  6
CONTINUOUS
 10
202.7093054247
 20
347.2864367905
 11
202.9527233627
 21
347.4654347782
  0
LINE
  5
24A
100
AcDbEntity
  8
0
100
AcDbLine
 62
7
  6
CONTINUOUS
 10
201.3807630305
 20
346.2357339333
 11
201.1373450925
 21
346.0567359456
  0
LINE
  5
24B
100
AcDbEntity
  8
0
100
AcDbLine
 62
7
  6
CONTINUOUS
 10
201.5390160902
 20
345.6514783557
 11
201.7824340672
 21
345.8304763979
  0
LINE
  5
24C
100
AcDbEntity
  8
0
100
AcDbLine
 62
7
  6
CONTINUOUS
 10
161.4151414245
 20
315.6595621305
 11
161.8318079918
 21
315.8723280625
  0
LINE
  5
24D
100
AcDbEntity
  8
0
100
AcDbLine
 62
7
  6
CONTINUOUS
 10
161.3109745591
 20
316.1914769607
 11
160.9984745591
 21
316.0850939946
  0
LINE
  5
24E
100
AcDbEntity
  8
0
100
AcDbLine
 62
7
  6
CONTINUOUS
 10
165.8865325001
 20
212.5848812713
 11
166.319545202
 21
212.5848812713
  0
LINE
  5
24F
100
AcDbEntity
  8
0
100
AcDbLine
 62
7
  6
CONTINUOUS
 10
164.797991052
 20
212.701902534
 11
165.2310037539
 21
212.701902534
  0
LINE
  5
250
100
AcDbEntity
  8
0
100
AcDbLine
 62
7
  6
CONTINUOUS
 10
166.0584075001
 20
212.8189237966
 11
166.4308033831
 21
212.8189237966
  0
LINE
  5
251
100
AcDbEntity
  8
0
100
AcDbLine
 62
7
  6
CONTINUOUS
 10
164.6834075001
 20
213.1699876665
 11
165.0271574867
 21
213.1699876665
  0
LINE
  5
252
100
AcDbEntity
  8
0
100
AcDbLine
 62
7
  6
CONTINUOUS
 10
164.626116052
 20
213.5210514544
 11
164.9125739482
 21
213.5210514544
  0
LINE
  5
253
100
AcDbEntity
  8
0
100
AcDbLine
 62
7
  6
CONTINUOUS
 10
166.2875739482
 20
213.5210514544
 11
166.5740325001
 21
213.5210514544
  0
LINE
  5
254
100
AcDbEntity
  8
0
100
AcDbLine
 62
7
  6
CONTINUOUS
 10
164.5688239482
 20
214.1061579316
 11
164.8648310726
 21
214.1061579316
  0
LINE
  5
255
100
AcDbEntity
  8
0
100
AcDbLine
 62
7
  6
CONTINUOUS
 10
166.344866052
 20
214.2231791942
 11
166.6313239482
 21
214.2231791942
  0
LINE
  5
256
100
AcDbEntity
  8
0
100
AcDbLine
 62
7
  6
CONTINUOUS
 10
166.344866052
 20
215.0423280327
 11
166.6313239482
 21
215.0423280327
  0
LINE
  5
257
100
AcDbEntity
  8
0
100
AcDbLine
 62
7
  6
CONTINUOUS
 10
164.5688239482
 20
215.1593492954
 11
164.8648310748
 21
215.1593492954
  0
LINE
  5
258
100
AcDbEntity
  8
0
100
AcDbLine
 62
7
  6
CONTINUOUS
 10
163.6521575001
 20
215.3933918207
 11
164.0531992761
 21
215.3933918207
  0
LINE
  5
259
100
AcDbEntity
  8
0
100
AcDbLine
 62
7
  6
CONTINUOUS
 10
164.626116052
 20
215.7444556086
 11
164.9125739482
 21
215.7444556086
  0
LINE
  5
25A
100
AcDbEntity
  8
0
100
AcDbLine
 62
7
  6
CONTINUOUS
 10
166.2875739482
 20
215.7444556086
 11
166.5740325001
 21
215.7444556086
  0
LINE
  5
25B
100
AcDbEntity
  8
0
100
AcDbLine
 62
7
  6
CONTINUOUS
 10
163.7667407242
 20
215.8614768713
 11
164.1104907242
 21
215.8614768713
  0
LINE
  5
25C
100
AcDbEntity
  8
0
100
AcDbLine
 62
7
  6
CONTINUOUS
 10
162.1052825001
 20
216.0955197244
 11
162.3917407242
 21
216.0955197244
  0
LINE
  5
25D
100
AcDbEntity
  8
0
100
AcDbLine
 62
7
  6
CONTINUOUS
 10
163.7667407242
 20
216.0955197244
 11
164.1104907242
 21
216.0955197244
  0
LINE
  5
25E
100
AcDbEntity
  8
0
100
AcDbLine
 62
7
  6
CONTINUOUS
 10
164.6834075001
 20
216.0955197244
 11
165.0271575536
 21
216.0955197244
  0
LINE
  5
25F
100
AcDbEntity
  8
0
100
AcDbLine
 62
7
  6
CONTINUOUS
 10
159.1834075001
 20
216.212540987
 11
159.5598955715
 21
216.212540987
  0
LINE
  5
260
100
AcDbEntity
  8
0
100
AcDbLine
 62
7
  6
CONTINUOUS
 10
161.2459075001
 20
216.212540987
 11
161.5896575001
 21
216.212540987
  0
LINE
  5
261
100
AcDbEntity
  8
0
100
AcDbLine
 62
7
  6
CONTINUOUS
 10
163.6521575001
 20
216.4465835123
 11
164.0675221381
 21
216.4465835123
  0
LINE
  5
262
100
AcDbEntity
  8
0
100
AcDbLine
 62
7
  6
CONTINUOUS
 10
166.0584075001
 20
216.4465835123
 11
166.4308033881
 21
216.4465835123
  0
LINE
  5
263
100
AcDbEntity
  8
0
100
AcDbLine
 62
7
  6
CONTINUOUS
 10
162.1625742761
 20
216.563604775
 11
162.5955869779
 21
216.563604775
  0
LINE
  5
264
100
AcDbEntity
  8
0
100
AcDbLine
 62
7
  6
CONTINUOUS
 10
164.797991052
 20
216.563604775
 11
165.2310037539
 21
216.563604775
  0
LINE
  5
265
100
AcDbEntity
  8
0
100
AcDbLine
 62
7
  6
CONTINUOUS
 10
163.4802825001
 20
216.6806260376
 11
163.913295202
 21
216.6806260376
  0
LINE
  5
266
100
AcDbEntity
  8
0
100
AcDbLine
 62
7
  6
CONTINUOUS
 10
165.8865325001
 20
216.6806260376
 11
166.319545202
 21
216.6806260376
  0
LINE
  5
267
100
AcDbEntity
  8
0
100
AcDbLine
 62
7
  6
CONTINUOUS
 10
162.9646575001
 20
216.7976473002
 11
163.6268369779
 21
216.7976473002
  0
LINE
  5
268
100
AcDbEntity
  8
0
100
AcDbLine
 62
7
  6
CONTINUOUS
 10
165.6000739482
 20
216.7976473002
 11
166.0330866501
 21
216.7976473002
  0
LINE
  5
269
100
AcDbEntity
  8
0
100
AcDbLine
 62
7
  6
CONTINUOUS
 10
164.969866052
 20
216.9146685629
 11
165.4028787539
 21
216.9146685629
  0
LINE
  5
26A
100
AcDbEntity
  8
0
100
AcDbLine
 62
7
  6
CONTINUOUS
 10
162.3917407242
 20
217.0316898255
 11
162.8247534261
 21
217.0316898255
  0
LINE
  5
26B
100
AcDbEntity
  8
0
100
AcDbLine
 62
7
  6
CONTINUOUS
 10
162.6209075001
 20
217.2657323508
 11
163.053920202
 21
217.2657323508
  0
LINE
  5
26C
100
AcDbEntity
  8
0
100
AcDbLine
 62
7
  6
CONTINUOUS
 10
165.2563239482
 20
217.2657323508
 11
165.6893366501
 21
217.2657323508
  0
LINE
  5
26D
100
AcDbEntity
  8
0
100
AcDbLine
 62
7
  6
CONTINUOUS
 10
163.2511157242
 20
217.3827536135
 11
163.0219492761
 21
217.3827536135
  0
LINE
  5
26E
100
AcDbEntity
  8
0
100
AcDbLine
 62
7
  6
CONTINUOUS
 10
161.5896575001
 20
217.3827536135
 11
161.0740325001
 21
217.3827536135
  0
LINE
  5
26F
100
AcDbEntity
  8
0
100
AcDbLine
 62
7
  6
CONTINUOUS
 10
159.3552825001
 20
217.3827536135
 11
158.8396575001
 21
217.3827536135
  0
LINE
  5
270
100
AcDbEntity
  8
0
100
AcDbLine
 62
7
  6
CONTINUOUS
 10
163.5948657242
 20
217.2657323508
 11
163.2511157242
 21
217.3827536135
  0
LINE
  5
271
100
AcDbEntity
  8
0
100
AcDbLine
 62
7
  6
CONTINUOUS
 10
165.9438239482
 20
217.2657323508
 11
165.6000739482
 21
217.3827536135
  0
LINE
  5
272
100
AcDbEntity
  8
0
100
AcDbLine
 62
7
  6
CONTINUOUS
 10
165.6000739482
 20
216.7976473002
 11
165.8865325001
 21
216.6806260376
  0
LINE
  5
273
100
AcDbEntity
  8
0
100
AcDbLine
 62
7
  6
CONTINUOUS
 10
166.0330866501
 20
216.7976473002
 11
166.319545202
 21
216.6806260376
  0
LINE
  5
274
100
AcDbEntity
  8
0
100
AcDbLine
 62
7
  6
CONTINUOUS
 10
163.8240325001
 20
217.0316898255
 11
163.5948657242
 21
217.2657323508
  0
LINE
  5
275
100
AcDbEntity
  8
0
100
AcDbLine
 62
7
  6
CONTINUOUS
 10
164.969866052
 20
212.350838705
 11
165.2563239482
 21
211.9997748864
  0
LINE
  5
276
100
AcDbEntity
  8
0
100
AcDbLine
 62
7
  6
CONTINUOUS
 10
165.4028787539
 20
212.350838705
 11
165.6893366501
 21
211.9997748864
  0
LINE
  5
277
100
AcDbEntity
  8
0
100
AcDbLine
 62
7
  6
CONTINUOUS
 10
165.313616052
 20
212.5848812713
 11
165.141741052
 21
212.8189237966
  0
LINE
  5
278
100
AcDbEntity
  8
0
100
AcDbLine
 62
7
  6
CONTINUOUS
 10
177.1241555594
 20
350.2661233935
 11
177.33751969
 21
350.6875545948
  0
LINE
  5
279
100
AcDbEntity
  8
0
100
AcDbLine
 62
7
  6
CONTINUOUS
 10
184.1657380399
 20
353.478691306
 11
184.3359972157
 21
353.7764690297
  0
LINE
  5
27A
100
AcDbEntity
  8
0
100
AcDbLine
 62
7
  6
CONTINUOUS
 10
161.8318079918
 20
315.8723280625
 11
162.1443079918
 21
316.2978599267
  0
LINE
  5
27B
100
AcDbEntity
  8
0
100
AcDbLine
 62
7
  6
CONTINUOUS
 10
161.4151414245
 20
306.5319025489
 11
161.8318079918
 21
306.9574344503
  0
LINE
  5
27C
100
AcDbEntity
  8
0
100
AcDbLine
 62
7
  6
CONTINUOUS
 10
161.2068079918
 20
307.1702004569
 11
160.8943079918
 21
306.9574344503
  0
LINE
  5
27D
100
AcDbEntity
  8
0
100
AcDbLine
 62
7
  6
CONTINUOUS
 10
160.9984745591
 20
306.3191365888
 11
161.4151414245
 21
306.5319025489
  0
LINE
  5
27E
100
AcDbEntity
  8
KONSTRUKTIONSELEMENTE
100
AcDbLine
 62
7
  6
CONTINUOUS
 10
156.5080045256
 20
220.3827536135
 11
217.09741084
 21
220.3827536135
  0
LINE
  5
27F
100
AcDbEntity
  8
0
100
AcDbLine
 62
7
  6
CONTINUOUS
 10
160.5768776979
 20
222.4529663815
 11
160.2358698017
 21
222.4529663815
  0
LINE
  5
280
100
AcDbEntity
  8
0
100
AcDbLine
 62
7
  6
CONTINUOUS
 10
164.7107510299
 20
223.2827536135
 11
164.411480634
 21
223.2827536135
  0
LINE
  5
281
100
AcDbEntity
  8
0
100
AcDbLine
 62
7
  6
CONTINUOUS
 10
161.7170561484
 20
223.2827536135
 11
161.1936762559
 21
223.2827536135
  0
LINE
  5
282
100
AcDbEntity
  8
0
100
AcDbLine
 62
7
  6
CONTINUOUS
 10
160.2918718747
 20
223.2827536135
 11
160.0527301828
 21
223.2827536135
  0
LINE
  5
283
100
AcDbEntity
  8
0
100
AcDbLine
 62
7
  6
CONTINUOUS
 10
161.9578963847
 20
223.4210514814
 11
161.6914124466
 21
223.4210514814
  0
LINE
  5
284
100
AcDbEntity
  8
0
100
AcDbLine
 62
7
  6
CONTINUOUS
 10
164.7107510299
 20
223.8359450853
 11
164.411480634
 21
223.8359450853
  0
LINE
  5
285
100
AcDbEntity
  8
0
100
AcDbLine
 62
7
  6
CONTINUOUS
 10
162.2197358713
 20
223.8359450853
 11
161.9504441423
 21
223.8359450853
  0
LINE
  5
286
100
AcDbEntity
  8
0
100
AcDbLine
 62
7
  6
CONTINUOUS
 10
164.2768345721
 20
223.9742429896
 11
163.983254153
 21
223.9742429896
  0
LINE
  5
287
100
AcDbEntity
  8
0
100
AcDbLine
 62
7
  6
CONTINUOUS
 10
161.4531038811
 20
223.9742429896
 11
161.1936762559
 21
223.9742429896
  0
LINE
  5
288
100
AcDbEntity
  8
0
100
AcDbLine
 62
7
  6
CONTINUOUS
 10
160.7075813966
 20
223.9742429896
 11
160.0531072087
 21
223.9742429896
  0
LINE
  5
289
100
AcDbEntity
  8
0
100
AcDbLine
 62
7
  6
CONTINUOUS
 10
161.2960449503
 20
224.1125408455
 11
161.0364051978
 21
224.1125408455
  0
LINE
  5
28A
100
AcDbEntity
  8
0
100
AcDbLine
 62
7
  6
CONTINUOUS
 10
164.0301130715
 20
224.2508387013
 11
163.7396730748
 21
224.2508387013
  0
LINE
  5
28B
100
AcDbEntity
  8
0
100
AcDbLine
 62
7
  6
CONTINUOUS
 10
162.3871982619
 20
224.3891365572
 11
162.1160797178
 21
224.3891365572
  0
LINE
  5
28C
100
AcDbEntity
  8
0
100
AcDbLine
 62
7
  6
CONTINUOUS
 10
161.1850448613
 20
224.3891365572
 11
160.9265188514
 21
224.3891365572
  0
LINE
  5
28D
100
AcDbEntity
  8
0
100
AcDbLine
 62
7
  6
CONTINUOUS
 10
163.9500704645
 20
224.6657323657
 11
163.6606350048
 21
224.6657323657
  0
LINE
  5
28E
100
AcDbEntity
  8
0
100
AcDbLine
 62
7
  6
CONTINUOUS
 10
161.1148801851
 20
224.9423280774
 11
160.6665975754
 21
224.9423280774
  0
LINE
  5
28F
100
AcDbEntity
  8
0
100
AcDbLine
 62
7
  6
CONTINUOUS
 10
162.5032547813
 20
225.0806259333
 11
162.2308556705
 21
225.0806259333
  0
LINE
  5
290
100
AcDbEntity
  8
0
100
AcDbLine
 62
7
  6
CONTINUOUS
 10
166.2302825001
 20
216.9146685629
 11
165.9438239482
 21
217.2657323508
  0
LINE
  5
291
100
AcDbEntity
  8
0
100
AcDbLine
 62
7
  6
CONTINUOUS
 10
163.4802825001
 20
216.6806260376
 11
163.6521575001
 21
216.4465835123
  0
LINE
  5
292
100
AcDbEntity
  8
0
100
AcDbLine
 62
7
  6
CONTINUOUS
 10
163.913295202
 20
216.6806260376
 11
164.0639925415
 21
216.4754211743
  0
LINE
  5
293
100
AcDbEntity
  8
0
100
AcDbLine
 62
7
  6
CONTINUOUS
 10
165.8865325001
 20
216.6806260376
 11
166.0584075001
 21
216.4465835123
  0
LINE
  5
294
100
AcDbEntity
  8
0
100
AcDbLine
 62
7
  6
CONTINUOUS
 10
166.319545202
 20
216.6806260376
 11
166.3955070963
 21
216.5771885768
  0
LINE
  5
295
100
AcDbEntity
  8
0
100
AcDbLine
 62
7
  6
CONTINUOUS
 10
164.797991052
 20
212.701902534
 11
164.969866052
 21
212.350838705
  0
LINE
  5
296
100
AcDbEntity
  8
0
100
AcDbLine
 62
7
  6
CONTINUOUS
 10
165.2376541553
 20
212.6883187353
 11
165.4028787539
 21
212.350838705
  0
LINE
  5
297
100
AcDbEntity
  8
0
100
AcDbLine
 62
7
  6
CONTINUOUS
 10
161.6234745591
 20
316.7233917909
 11
161.5193079918
 21
316.4042428927
  0
LINE
  5
298
100
AcDbEntity
  8
0
100
AcDbLine
 62
7
  6
CONTINUOUS
 10
162.1443079918
 20
316.2978599267
 11
162.2484745591
 21
316.6170088248
  0
LINE
  5
299
100
AcDbEntity
  8
0
100
AcDbLine
 62
7
  6
CONTINUOUS
 10
161.8318079918
 20
306.9574344503
 11
162.0401414245
 21
307.3829663889
  0
LINE
  5
29A
100
AcDbEntity
  8
0
100
AcDbLine
 62
7
  6
CONTINUOUS
 10
186.7433419853
 20
352.767554677
 11
186.9136011611
 21
353.0653324007
  0
LINE
  5
29B
100
AcDbEntity
  8
0
100
AcDbLine
 62
7
  6
CONTINUOUS
 10
188.5248699988
 20
350.5561985433
 11
187.8858822334
 21
349.5475790824
  0
LINE
  5
29C
100
AcDbEntity
  8
0
100
AcDbLine
 62
7
  6
CONTINUOUS
 10
188.3533430918
 20
349.5128481477
 11
188.9923319271
 21
350.5214675291
  0
LINE
  5
29D
100
AcDbEntity
  8
0
100
AcDbLine
 62
7
  6
CONTINUOUS
 10
161.4151414245
 20
307.489349355
 11
161.2068079918
 21
307.1702004569
  0
LINE
  5
29E
100
AcDbEntity
  8
0
100
AcDbLine
 62
7
  6
CONTINUOUS
 10
161.8318079918
 20
300.489349355
 11
161.6234745591
 21
300.1702004569
  0
LINE
  5
29F
100
AcDbEntity
  8
0
100
AcDbLine
 62
7
  6
CONTINUOUS
 10
192.9898501411
 20
350.1125531081
 11
193.271480022
 21
350.5426887836
  0
LINE
  5
2A0
100
AcDbEntity
  8
0
100
AcDbLine
 62
7
  6
CONTINUOUS
 10
161.8318079918
 20
299.5319025489
 11
162.2484745591
 21
299.9574344503
  0
LINE
  5
2A1
100
AcDbEntity
  8
0
100
AcDbLine
 62
7
  6
CONTINUOUS
 10
161.6234745591
 20
300.1702004569
 11
161.3109745591
 21
299.9574344503
  0
LINE
  5
2A2
100
AcDbEntity
  8
0
100
AcDbLine
 62
7
  6
CONTINUOUS
 10
161.4151414245
 20
299.3191365888
 11
161.8318079918
 21
299.5319025489
  0
LINE
  5
2A3
100
AcDbEntity
  8
0
100
AcDbLine
 62
7
  6
CONTINUOUS
 10
162.5032547813
 20
225.6338173567
 11
162.2308556705
 21
225.6338173567
  0
LINE
  5
2A4
100
AcDbEntity
  8
0
100
AcDbLine
 62
7
  6
CONTINUOUS
 10
161.1495813151
 20
226.1870089738
 11
160.6665975754
 21
226.1870089738
  0
LINE
  5
2A5
100
AcDbEntity
  8
0
100
AcDbLine
 62
7
  6
CONTINUOUS
 10
162.3871982619
 20
226.3253068297
 11
162.1160797178
 21
226.3253068297
  0
LINE
  5
2A6
100
AcDbEntity
  8
0
100
AcDbLine
 62
7
  6
CONTINUOUS
 10
161.2960449503
 20
226.6019025414
 11
161.0364051978
 21
226.6019025414
  0
LINE
  5
2A7
100
AcDbEntity
  8
0
100
AcDbLine
 62
7
  6
CONTINUOUS
 10
161.4531038811
 20
226.7402003973
 11
161.1936762559
 21
226.7402003973
  0
LINE
  5
2A8
100
AcDbEntity
  8
0
100
AcDbLine
 62
7
  6
CONTINUOUS
 10
162.2197358713
 20
226.8784982531
 11
161.9504441423
 21
226.8784982531
  0
LINE
  5
2A9
100
AcDbEntity
  8
0
100
AcDbLine
 62
7
  6
CONTINUOUS
 10
160.3532197101
 20
227.016796109
 11
160.1027467462
 21
227.016796109
  0
LINE
  5
2AA
100
AcDbEntity
  8
0
100
AcDbLine
 62
7
  6
CONTINUOUS
 10
164.8925796381
 20
227.1550939648
 11
163.6606350048
 21
227.1550939648
  0
LINE
  5
2AB
100
AcDbEntity
  8
0
100
AcDbLine
 62
7
  6
CONTINUOUS
 10
163.2811103132
 20
227.1550939648
 11
162.7258653662
 21
227.1550939648
  0
LINE
  5
2AC
100
AcDbEntity
  8
0
100
AcDbLine
 62
7
  6
CONTINUOUS
 10
161.9578963847
 20
227.2933918207
 11
161.6914124466
 21
227.2933918207
  0
LINE
  5
2AD
100
AcDbEntity
  8
0
100
AcDbLine
 62
7
  6
CONTINUOUS
 10
161.7170561484
 20
227.4316896765
 11
161.1936762559
 21
227.4316896765
  0
LINE
  5
2AE
100
AcDbEntity
  8
0
100
AcDbLine
 62
7
  6
CONTINUOUS
 10
160.3713586643
 20
227.4316896765
 11
160.1207154233
 21
227.4316896765
  0
LINE
  5
2AF
100
AcDbEntity
  8
0
100
AcDbLine
 62
7
  6
CONTINUOUS
 10
164.8925796381
 20
227.7082853882
 11
163.6606350048
 21
227.7082853882
  0
LINE
  5
2B0
100
AcDbEntity
  8
0
100
AcDbLine
 62
7
  6
CONTINUOUS
 10
163.2811103132
 20
227.7082853882
 11
162.7258653662
 21
227.7082853882
  0
LINE
  5
2B1
100
AcDbEntity
  8
0
100
AcDbLine
 62
7
  6
CONTINUOUS
 10
160.3814738106
 20
227.9848810999
 11
160.1307355148
 21
227.9848810999
  0
LINE
  5
2B2
100
AcDbEntity
  8
0
100
AcDbLine
 62
7
  6
CONTINUOUS
 10
160.3814738106
 20
228.2614771991
 11
160.1307355148
 21
228.2614771991
  0
LINE
  5
2B3
100
AcDbEntity
  8
0
100
AcDbLine
 62
7
  6
CONTINUOUS
 10
163.9500704645
 20
228.8146686225
 11
163.2811103132
 21
228.8146686225
  0
LINE
  5
2B4
100
AcDbEntity
  8
0
100
AcDbLine
 62
7
  6
CONTINUOUS
 10
160.3713586643
 20
228.8146686225
 11
160.1207154233
 21
228.8146686225
  0
LINE
  5
2B5
100
AcDbEntity
  8
0
100
AcDbLine
 62
7
  6
CONTINUOUS
 10
162.3871982619
 20
229.0912643342
 11
160.8234491291
 21
229.0912643342
  0
LINE
  5
2B6
100
AcDbEntity
  8
0
100
AcDbLine
 62
7
  6
CONTINUOUS
 10
160.3378647602
 20
229.3678600459
 11
160.087535759
 21
229.3678600459
  0
LINE
  5
2B7
100
AcDbEntity
  8
0
100
AcDbLine
 62
7
  6
CONTINUOUS
 10
160.3154879531
 20
229.6444557576
 11
160.0653684545
 21
229.6444557576
  0
LINE
  5
2B8
100
AcDbEntity
  8
0
100
AcDbLine
 62
7
  6
CONTINUOUS
 10
162.3871982619
 20
229.7827536135
 11
160.6665975754
 21
229.7827536135
  0
LINE
  5
2B9
100
AcDbEntity
  8
0
100
AcDbLine
 62
7
  6
CONTINUOUS
 10
160.3027097299
 20
229.7827536135
 11
160.0527097108
 21
229.7827536135
  0
LINE
  5
2BA
100
AcDbEntity
  8
0
100
AcDbLine
 62
7
  6
CONTINUOUS
 10
164.0531992761
 20
216.563604775
 11
163.8240325001
 21
217.0316898255
  0
LINE
  5
2BB
100
AcDbEntity
  8
0
100
AcDbLine
 62
7
  6
CONTINUOUS
 10
166.4021575001
 20
216.563604775
 11
166.2302825001
 21
216.9146685629
  0
LINE
  5
2BC
100
AcDbEntity
  8
0
100
AcDbLine
 62
7
  6
CONTINUOUS
 10
163.6521575001
 20
216.4465835123
 11
163.7667407242
 21
216.0955197244
  0
LINE
  5
2BD
100
AcDbEntity
  8
0
100
AcDbLine
 62
7
  6
CONTINUOUS
 10
165.141741052
 20
212.8189237966
 11
164.9125739482
 21
213.5210514544
  0
LINE
  5
2BE
100
AcDbEntity
  8
0
100
AcDbLine
 62
7
  6
CONTINUOUS
 10
162.0401414245
 20
307.3829663889
 11
162.1443079918
 21
307.9148812192
  0
LINE
  5
2BF
100
AcDbEntity
  8
0
100
AcDbLine
 62
7
  6
CONTINUOUS
 10
161.5193079918
 20
307.9148812192
 11
161.4151414245
 21
307.489349355
  0
LINE
  5
2C0
100
AcDbEntity
  8
0
100
AcDbLine
 62
7
  6
CONTINUOUS
 10
161.9359745591
 20
300.9148812192
 11
161.8318079918
 21
300.489349355
  0
LINE
  5
2C1
100
AcDbEntity
  8
0
100
AcDbLine
 62
7
  6
CONTINUOUS
 10
173.0806735807
 20
348.0420044628
 11
173.2108240752
 21
348.4960850253
  0
LINE
  5
2C2
100
AcDbEntity
  8
0
100
AcDbLine
 62
7
  6
CONTINUOUS
 10
176.8765049983
 20
350.996978349
 11
176.790581224
 21
350.7431251338
  0
LINE
  5
2C3
100
AcDbEntity
  8
0
100
AcDbLine
 62
7
  6
CONTINUOUS
 10
186.4231100485
 20
353.4200407794
 11
186.2584894561
 21
353.0266845638
  0
LINE
  5
2C4
100
AcDbEntity
  8
0
100
AcDbLine
 62
7
  6
CONTINUOUS
 10
162.2484745591
 20
299.9574344503
 11
162.4568079918
 21
300.3829663889
  0
LINE
  5
2C5
100
AcDbEntity
  8
0
100
AcDbLine
 62
7
  6
CONTINUOUS
 10
192.8323024134
 20
350.7324675015
 11
192.6816753886
 21
350.470543712
  0
LINE
  5
2C6
100
AcDbEntity
  8
0
100
AcDbLine
 62
7
  6
CONTINUOUS
 10
200.9680160562
 20
350.6522440902
 11
198.3487970193
 21
346.9930513326
  0
LINE
  5
2C7
100
AcDbEntity
  8
0
100
AcDbLine
 62
7
  6
CONTINUOUS
 10
199.1405645008
 20
347.1327799422
 11
199.9764854875
 21
348.3006074424
  0
LINE
  5
2C8
100
AcDbEntity
  8
0
100
AcDbLine
 62
7
  6
CONTINUOUS
 10
200.3108538353
 20
348.767738377
 11
201.091046803
 21
349.8577107759
  0
LINE
  5
2C9
100
AcDbEntity
  8
0
100
AcDbLine
 62
7
  6
CONTINUOUS
 10
202.6625084419
 20
348.0264026251
 11
202.551052326
 21
347.8706923136
  0
LINE
  5
2CA
100
AcDbEntity
  8
0
100
AcDbLine
 62
7
  6
CONTINUOUS
 10
201.5479472044
 20
346.4692994006
 11
201.3807630305
 21
346.2357339333
  0
LINE
  5
2CB
100
AcDbEntity
  8
0
100
AcDbLine
 62
7
  6
CONTINUOUS
 10
201.7824340672
 20
345.8304763979
 11
202.0610743571
 21
346.2197521768
  0
LINE
  5
2CC
100
AcDbEntity
  8
0
100
AcDbLine
 62
7
  6
CONTINUOUS
 10
202.9527233627
 20
347.4654347782
 11
203.1756357507
 21
347.7768556194
  0
LINE
  5
2CD
100
AcDbEntity
  8
0
100
AcDbLine
 62
7
  6
CONTINUOUS
 10
160.8665631399
 20
232.7827536135
 11
160.0738170633
 21
232.7827536135
  0
LINE
  5
2CE
100
AcDbEntity
  8
0
100
AcDbLine
 62
7
  6
CONTINUOUS
 10
161.017792241
 20
232.9210514814
 11
160.7609265543
 21
232.9210514814
  0
LINE
  5
2CF
100
AcDbEntity
  8
0
100
AcDbLine
 62
7
  6
CONTINUOUS
 10
160.1422998887
 20
232.9210514814
 11
160.0554843915
 21
232.9210514814
  0
LINE
  5
2D0
100
AcDbEntity
  8
0
100
AcDbLine
 62
7
  6
CONTINUOUS
 10
161.1522820345
 20
233.1976472295
 11
160.8940829424
 21
233.1976472295
  0
LINE
  5
2D1
100
AcDbEntity
  8
0
100
AcDbLine
 62
7
  6
CONTINUOUS
 10
160.1422998887
 20
233.1976472295
 11
160.0531640243
 21
233.1976472295
  0
LINE
  5
2D2
100
AcDbEntity
  8
0
100
AcDbLine
 62
7
  6
CONTINUOUS
 10
160.6111805462
 20
233.6125408455
 11
160.2214642958
 21
233.6125408455
  0
LINE
  5
2D3
100
AcDbEntity
  8
0
100
AcDbLine
 62
7
  6
CONTINUOUS
 10
161.298982404
 20
233.7508387013
 11
161.0393130482
 21
233.7508387013
  0
LINE
  5
2D4
100
AcDbEntity
  8
0
100
AcDbLine
 62
7
  6
CONTINUOUS
 10
160.1422998887
 20
233.7508387013
 11
160.0618136819
 21
233.7508387013
  0
LINE
  5
2D5
100
AcDbEntity
  8
0
100
AcDbLine
 62
7
  6
CONTINUOUS
 10
161.3769771439
 20
234.3040302216
 11
161.1165193039
 21
234.3040302216
  0
LINE
  5
2D6
100
AcDbEntity
  8
0
100
AcDbLine
 62
7
  6
CONTINUOUS
 10
160.1422998887
 20
234.3040302216
 11
160.0702550561
 21
234.3040302216
  0
LINE
  5
2D7
100
AcDbEntity
  8
0
100
AcDbLine
 62
7
  6
CONTINUOUS
 10
161.41714767
 20
234.9955195009
 11
161.1562818663
 21
234.9955195009
  0
LINE
  5
2D8
100
AcDbEntity
  8
0
100
AcDbLine
 62
7
  6
CONTINUOUS
 10
160.1422998887
 20
234.9955195009
 11
160.0755058951
 21
234.9955195009
  0
LINE
  5
2D9
100
AcDbEntity
  8
0
100
AcDbLine
 62
7
  6
CONTINUOUS
 10
161.41714767
 20
237.0699875324
 11
161.1562818663
 21
237.0699875324
  0
LINE
  5
2DA
100
AcDbEntity
  8
0
100
AcDbLine
 62
7
  6
CONTINUOUS
 10
161.3769771439
 20
237.7614771991
 11
161.1165193039
 21
237.7614771991
  0
LINE
  5
2DB
100
AcDbEntity
  8
0
100
AcDbLine
 62
7
  6
CONTINUOUS
 10
166.0584075001
 20
216.4465835123
 11
166.2875739482
 21
215.7444556086
  0
LINE
  5
2DC
100
AcDbEntity
  8
0
100
AcDbLine
 62
7
  6
CONTINUOUS
 10
164.6834075001
 20
213.1699876665
 11
164.797991052
 21
212.701902534
  0
LINE
  5
2DD
100
AcDbEntity
  8
0
100
AcDbLine
 62
7
  6
CONTINUOUS
 10
166.516741052
 20
216.0955197244
 11
166.4021575001
 21
216.563604775
  0
LINE
  5
2DE
100
AcDbEntity
  8
0
100
AcDbLine
 62
7
  6
CONTINUOUS
 10
159.1834075001
 20
216.212540987
 11
159.9854908061
 21
211.8827536135
  0
LINE
  5
2DF
100
AcDbEntity
  8
0
100
AcDbLine
 62
7
  6
CONTINUOUS
 10
160.3101138733
 20
212.4678600087
 11
160.418503508
 21
211.8827536135
  0
LINE
  5
2E0
100
AcDbEntity
  8
0
100
AcDbLine
 62
7
  6
CONTINUOUS
 10
160.2146575001
 20
212.4678600087
 11
159.3552825001
 21
217.3827536135
  0
LINE
  5
2E1
100
AcDbEntity
  8
0
100
AcDbLine
 62
7
  6
CONTINUOUS
 10
164.5688239482
 20
214.1061579316
 11
164.626116052
 21
213.5210514544
  0
LINE
  5
2E2
100
AcDbEntity
  8
0
100
AcDbLine
 62
7
  6
CONTINUOUS
 10
166.6313239482
 20
215.1593492954
 11
166.5740325001
 21
215.7444556086
  0
LINE
  5
2E3
100
AcDbEntity
  8
0
100
AcDbLine
 62
7
  6
CONTINUOUS
 10
164.9125739482
 20
213.5210514544
 11
164.8552825001
 21
214.2231791942
  0
LINE
  5
2E4
100
AcDbEntity
  8
0
100
AcDbLine
 62
7
  6
CONTINUOUS
 10
166.2875739482
 20
215.7444556086
 11
166.344866052
 21
215.0423280327
  0
LINE
  5
2E5
100
AcDbEntity
  8
KONSTRUKTIONSELEMENTE
100
AcDbLine
 62
7
  6
CONTINUOUS
 10
156.5080045256
 20
209.3827536135
 11
156.5080045256
 21
220.3827536135
  0
LINE
  5
2E6
100
AcDbEntity
  8
0
100
AcDbLine
 62
7
  6
CONTINUOUS
 10
158.3943079918
 20
318.2127536135
 11
158.3943079918
 21
313.2127536135
  0
LINE
  5
2E7
100
AcDbEntity
  8
0
100
AcDbLine
 62
7
  6
CONTINUOUS
 10
158.3943079918
 20
311.2127536135
 11
158.3943079918
 21
307.9148812192
  0
LINE
  5
2E8
100
AcDbEntity
  8
0
100
AcDbLine
 62
7
  6
CONTINUOUS
 10
158.3943079918
 20
304.2127536135
 11
158.3943079918
 21
299.2127536135
  0
LINE
  5
2E9
100
AcDbEntity
  8
0
100
AcDbLine
 62
7
  6
CONTINUOUS
 10
158.8396575001
 20
217.3827536135
 11
158.8396575001
 21
211.8827536135
  0
LINE
  5
2EA
100
AcDbEntity
  8
0
100
AcDbLine
 62
7
  6
CONTINUOUS
 10
159.0193079918
 20
299.8510514842
 11
159.0193079918
 21
303.5744558172
  0
LINE
  5
2EB
100
AcDbEntity
  8
0
100
AcDbLine
 62
7
  6
CONTINUOUS
 10
159.0193079918
 20
307.9148812192
 11
159.0193079918
 21
311.2127536135
  0
LINE
  5
2EC
100
AcDbEntity
  8
0
100
AcDbLine
 62
7
  6
CONTINUOUS
 10
159.0193079918
 20
313.2127536135
 11
159.0193079918
 21
315.4467961984
  0
LINE
  5
2ED
100
AcDbEntity
  8
0
100
AcDbLine
 62
7
  6
CONTINUOUS
 10
159.0193079918
 20
316.0850939946
 11
159.0193079918
 21
317.6808387833
  0
LINE
  5
2EE
100
AcDbEntity
  8
0
100
AcDbLine
 62
7
  6
CONTINUOUS
 10
159.1834075001
 20
211.8827536135
 11
159.1834075001
 21
216.212540987
  0
LINE
  5
2EF
100
AcDbEntity
  8
0
100
AcDbLine
 62
7
  6
CONTINUOUS
 10
159.272670202
 20
217.3827536135
 11
159.272670202
 21
216.212540987
  0
LINE
  5
2F0
100
AcDbEntity
  8
0
100
AcDbLine
 62
7
  6
CONTINUOUS
 10
160.0527076828
 20
234.2029662554
 11
160.0527076828
 21
233.7508387013
  0
LINE
  5
2F1
100
AcDbEntity
  8
0
100
AcDbLine
 62
7
  6
CONTINUOUS
 10
160.0527076828
 20
229.6444557576
 11
160.0527076828
 21
229.0657325543
  0
LINE
  5
2F2
100
AcDbEntity
  8
0
100
AcDbLine
 62
7
  6
CONTINUOUS
 10
160.0527076828
 20
223.9742429896
 11
160.0527076828
 21
223.2827536135
  0
LINE
  5
2F3
100
AcDbEntity
  8
0
100
AcDbLine
 62
7
  6
CONTINUOUS
 10
160.054297816
 20
239.2827536135
 11
160.054297816
 21
234.9955195009
  0
LINE
  5
2F4
100
AcDbEntity
  8
0
100
AcDbLine
 62
7
  6
CONTINUOUS
 10
160.0755058951
 20
239.2827536135
 11
160.0755058951
 21
234.9955195009
  0
LINE
  5
2F5
100
AcDbEntity
  8
0
100
AcDbLine
 62
7
  6
CONTINUOUS
 10
160.0809627814
 20
227.9848810999
 11
160.0809627814
 21
228.2614771991
  0
LINE
  5
2F6
100
AcDbEntity
  8
0
100
AcDbLine
 62
7
  6
CONTINUOUS
 10
160.1307355148
 20
228.2614771991
 11
160.1307355148
 21
227.9848810999
  0
LINE
  5
2F7
100
AcDbEntity
  8
0
100
AcDbLine
 62
7
  6
CONTINUOUS
 10
160.1307355148
 20
223.9742429896
 11
160.1307355148
 21
223.2827536135
  0
LINE
  5
2F8
100
AcDbEntity
  8
0
100
AcDbLine
 62
7
  6
CONTINUOUS
 10
160.1422998887
 20
239.2827536135
 11
160.1422998887
 21
232.7827536135
  0
LINE
  5
2F9
100
AcDbEntity
  8
0
100
AcDbLine
 62
7
  6
CONTINUOUS
 10
160.2214642958
 20
238.4529664784
 11
160.2214642958
 21
233.6125408455
  0
LINE
  5
2FA
100
AcDbEntity
  8
0
100
AcDbLine
 62
7
  6
CONTINUOUS
 10
160.3027076828
 20
244.7827536135
 11
160.3027076828
 21
239.2827536135
  0
LINE
  5
2FB
100
AcDbEntity
  8
0
100
AcDbLine
 62
7
  6
CONTINUOUS
 10
160.3027076828
 20
232.7827536135
 11
160.3027076828
 21
229.7827536135
  0
LINE
  5
2FC
100
AcDbEntity
  8
0
100
AcDbLine
 62
7
  6
CONTINUOUS
 10
160.3027076828
 20
225.5469774792
 11
160.3027076828
 21
223.9742429896
  0
LINE
  5
2FD
100
AcDbEntity
  8
0
100
AcDbLine
 62
7
  6
CONTINUOUS
 10
160.3027076828
 20
222.4529663815
 11
160.3027076828
 21
220.3827536135
  0
LINE
  5
2FE
100
AcDbEntity
  8
0
100
AcDbLine
 62
7
  6
CONTINUOUS
 10
160.3814738106
 20
228.2614771991
 11
160.3814738106
 21
227.9848810999
  0
LINE
  5
2FF
100
AcDbEntity
  8
0
100
AcDbLine
 62
7
  6
CONTINUOUS
 10
160.4730665914
 20
238.4529664784
 11
160.4730665914
 21
233.6125408455
  0
LINE
  5
300
100
AcDbEntity
  8
0
100
AcDbLine
 62
7
  6
CONTINUOUS
 10
160.6665975754
 20
229.7827536135
 11
160.6665975754
 21
226.1870089738
  0
LINE
  5
301
100
AcDbEntity
  8
0
100
AcDbLine
 62
7
  6
CONTINUOUS
 10
160.8234491291
 20
229.0912643342
 11
160.8234491291
 21
226.8784982531
  0
LINE
  5
302
100
AcDbEntity
  8
0
100
AcDbLine
 62
7
  6
CONTINUOUS
 10
160.9292508031
 20
237.0699875324
 11
160.9292508031
 21
234.9955195009
  0
LINE
  5
303
100
AcDbEntity
  8
0
100
AcDbLine
 62
7
  6
CONTINUOUS
 10
161.0809391783
 20
229.0912643342
 11
161.0809391783
 21
227.3531927432
  0
LINE
  5
304
100
AcDbEntity
  8
0
100
AcDbLine
 62
7
  6
CONTINUOUS
 10
161.1562818663
 20
237.0699875324
 11
161.1562818663
 21
234.9955195009
  0
LINE
  5
305
100
AcDbEntity
  8
0
100
AcDbLine
 62
7
  6
CONTINUOUS
 10
161.2459075001
 20
216.212540987
 11
161.2459075001
 21
211.8827536135
  0
LINE
  5
306
100
AcDbEntity
  8
0
100
AcDbLine
 62
7
  6
CONTINUOUS
 10
161.41714767
 20
237.0699875324
 11
161.41714767
 21
234.9955195009
  0
LINE
  5
307
100
AcDbEntity
  8
0
100
AcDbLine
 62
7
  6
CONTINUOUS
 10
161.5193079918
 20
311.2127536135
 11
161.5193079918
 21
307.9148812192
  0
LINE
  5
308
100
AcDbEntity
  8
0
100
AcDbLine
 62
7
  6
CONTINUOUS
 10
161.5896575001
 20
211.8827536135
 11
161.5896575001
 21
217.3827536135
  0
LINE
  5
309
100
AcDbEntity
  8
0
100
AcDbLine
 62
7
  6
CONTINUOUS
 10
161.6234745591
 20
317.042540987
 11
161.6234745591
 21
316.7233917909
  0
LINE
  5
30A
100
AcDbEntity
  8
0
100
AcDbLine
 62
7
  6
CONTINUOUS
 10
161.9359745591
 20
302.5106258588
 11
161.9359745591
 21
300.9148812192
  0
LINE
  5
30B
100
AcDbEntity
  8
0
100
AcDbLine
 62
7
  6
CONTINUOUS
 10
161.9504441423
 20
225.4955195009
 11
161.9504441423
 21
225.2189237891
  0
LINE
  5
30C
100
AcDbEntity
  8
0
100
AcDbLine
 62
7
  6
CONTINUOUS
 10
162.0479907242
 20
212.4678600087
 11
162.0479907242
 21
211.8827536135
  0
LINE
  5
30D
100
AcDbEntity
  8
0
100
AcDbLine
 62
7
  6
CONTINUOUS
 10
162.1160797178
 20
229.7827536135
 11
162.1160797178
 21
229.0912643342
  0
LINE
  5
30E
100
AcDbEntity
  8
0
100
AcDbLine
 62
7
  6
CONTINUOUS
 10
162.1443079918
 20
307.9148812192
 11
162.1443079918
 21
311.2127536135
  0
LINE
  5
30F
100
AcDbEntity
  8
0
100
AcDbLine
 62
7
  6
CONTINUOUS
 10
172.699772044
 20
348.713118265
 11
172.6632097309
 21
348.4476231658
  0
LINE
  5
310
100
AcDbEntity
  8
0
100
AcDbLine
 62
7
  6
CONTINUOUS
 10
162.4568079918
 20
300.3829663889
 11
162.5609745591
 21
300.9148812192
  0
LINE
  5
311
100
AcDbEntity
  8
0
100
AcDbLine
 62
7
  6
CONTINUOUS
 10
197.4808328536
 20
349.7961430239
 11
197.2587538673
 21
349.3720474034
  0
LINE
  5
312
100
AcDbEntity
  8
0
100
AcDbLine
 62
7
  6
CONTINUOUS
 10
198.4214818729
 20
348.763181279
 11
198.6435608592
 21
349.1872768996
  0
LINE
  5
313
100
AcDbEntity
  8
0
100
AcDbLine
 62
7
  6
CONTINUOUS
 10
161.298982404
 20
238.3146686225
 11
161.0393130482
 21
238.3146686225
  0
LINE
  5
314
100
AcDbEntity
  8
0
100
AcDbLine
 62
7
  6
CONTINUOUS
 10
160.6111805462
 20
238.4529664784
 11
160.2214642958
 21
238.4529664784
  0
LINE
  5
315
100
AcDbEntity
  8
0
100
AcDbLine
 62
7
  6
CONTINUOUS
 10
161.1522820345
 20
238.8678600459
 11
160.8940829424
 21
238.8678600459
  0
LINE
  5
316
100
AcDbEntity
  8
0
100
AcDbLine
 62
7
  6
CONTINUOUS
 10
161.017792241
 20
239.1444557576
 11
160.7609265543
 21
239.1444557576
  0
LINE
  5
317
100
AcDbEntity
  8
0
100
AcDbLine
 62
7
  6
CONTINUOUS
 10
160.0572852771
 20
239.2827536135
 11
160.054297816
 21
239.2827536135
  0
LINE
  5
318
100
AcDbEntity
  8
0
100
AcDbLine
 62
7
  6
CONTINUOUS
 10
160.8665631399
 20
239.2827536135
 11
160.0755058951
 21
239.2827536135
  0
LINE
  5
319
100
AcDbEntity
  8
0
100
AcDbLine
 62
7
  6
CONTINUOUS
 10
164.626116052
 20
213.5210514544
 11
164.6834075001
 21
213.1699876665
  0
LINE
  5
31A
100
AcDbEntity
  8
0
100
AcDbLine
 62
7
  6
CONTINUOUS
 10
166.5740325001
 20
215.7444556086
 11
166.516741052
 21
216.0955197244
  0
LINE
  5
31B
100
AcDbEntity
  8
0
100
AcDbLine
 62
7
  6
CONTINUOUS
 10
164.1104907242
 20
216.0955197244
 11
164.0531992761
 21
216.563604775
  0
LINE
  5
31C
100
AcDbEntity
  8
0
100
AcDbLine
 62
7
  6
CONTINUOUS
 10
162.2308556705
 20
225.6338173567
 11
162.2308556705
 21
225.0806259333
  0
LINE
  5
31D
100
AcDbEntity
  8
0
100
AcDbLine
 62
7
  6
CONTINUOUS
 10
162.2484745591
 20
316.6170088248
 11
162.2484745591
 21
317.042540987
  0
LINE
  5
31E
100
AcDbEntity
  8
0
100
AcDbLine
 62
7
  6
CONTINUOUS
 10
162.3871982619
 20
229.7827536135
 11
162.3871982619
 21
229.0912643342
  0
LINE
  5
31F
100
AcDbEntity
  8
0
100
AcDbLine
 62
7
  6
CONTINUOUS
 10
162.4810034261
 20
212.4678600087
 11
162.4810034261
 21
211.8827536135
  0
LINE
  5
320
100
AcDbEntity
  8
0
100
AcDbLine
 62
7
  6
CONTINUOUS
 10
162.5032547813
 20
225.6338173567
 11
162.5032547813
 21
225.0806259333
  0
LINE
  5
321
100
AcDbEntity
  8
0
100
AcDbLine
 62
7
  6
CONTINUOUS
 10
162.5609745591
 20
300.9148812192
 11
162.5609745591
 21
302.5106258588
  0
LINE
  5
322
100
AcDbEntity
  8
0
100
AcDbLine
 62
7
  6
CONTINUOUS
 10
162.7258653662
 20
227.7082853882
 11
162.7258653662
 21
227.1550939648
  0
LINE
  5
323
100
AcDbEntity
  8
0
100
AcDbLine
 62
7
  6
CONTINUOUS
 10
163.2811103132
 20
228.8146686225
 11
163.2811103132
 21
227.7082853882
  0
LINE
  5
324
100
AcDbEntity
  8
0
100
AcDbLine
 62
7
  6
CONTINUOUS
 10
163.2811103132
 20
227.1550939648
 11
163.2811103132
 21
224.3891365572
  0
LINE
  5
325
100
AcDbEntity
  8
0
100
AcDbLine
 62
7
  6
CONTINUOUS
 10
163.6606350048
 20
228.8146686225
 11
163.6606350048
 21
227.7082853882
  0
LINE
  5
326
100
AcDbEntity
  8
0
100
AcDbLine
 62
7
  6
CONTINUOUS
 10
163.6606350048
 20
227.1550939648
 11
163.6606350048
 21
224.6657323657
  0
LINE
  5
327
100
AcDbEntity
  8
0
100
AcDbLine
 62
7
  6
CONTINUOUS
 10
163.7667407242
 20
216.0955197244
 11
163.7667407242
 21
215.8614768713
  0
LINE
  5
328
100
AcDbEntity
  8
0
100
AcDbLine
 62
7
  6
CONTINUOUS
 10
163.9500704645
 20
228.8146686225
 11
163.9500704645
 21
227.7082853882
  0
LINE
  5
329
100
AcDbEntity
  8
0
100
AcDbLine
 62
7
  6
CONTINUOUS
 10
163.9500704645
 20
227.1550939648
 11
163.9500704645
 21
224.6657323657
  0
LINE
  5
32A
100
AcDbEntity
  8
0
100
AcDbLine
 62
7
  6
CONTINUOUS
 10
164.1104907242
 20
211.8827536135
 11
164.1104907242
 21
212.4678600087
  0
LINE
  5
32B
100
AcDbEntity
  8
0
100
AcDbLine
 62
7
  6
CONTINUOUS
 10
164.1104907242
 20
215.8614768713
 11
164.1104907242
 21
216.0955197244
  0
LINE
  5
32C
100
AcDbEntity
  8
0
100
AcDbLine
 62
7
  6
CONTINUOUS
 10
164.411480634
 20
223.8359450853
 11
164.411480634
 21
223.2827536135
  0
LINE
  5
32D
100
AcDbEntity
  8
0
100
AcDbLine
 62
7
  6
CONTINUOUS
 10
164.5688239482
 20
215.1593492954
 11
164.5688239482
 21
214.1061579316
  0
LINE
  5
32E
100
AcDbEntity
  8
0
100
AcDbLine
 62
7
  6
CONTINUOUS
 10
164.5908592469
 20
227.7082853882
 11
164.5908592469
 21
227.1550939648
  0
LINE
  5
32F
100
AcDbEntity
  8
0
100
AcDbLine
 62
7
  6
CONTINUOUS
 10
164.7107510299
 20
223.8359450853
 11
164.7107510299
 21
223.2827536135
  0
LINE
  5
330
100
AcDbEntity
  8
0
100
AcDbLine
 62
7
  6
CONTINUOUS
 10
164.8552825001
 20
214.2231791942
 11
164.8552825001
 21
215.0423280327
  0
LINE
  5
331
100
AcDbEntity
  8
0
100
AcDbLine
 62
7
  6
CONTINUOUS
 10
164.8925796381
 20
227.7082853882
 11
164.8925796381
 21
227.1550939648
  0
LINE
  5
332
100
AcDbEntity
  8
0
100
AcDbLine
 62
7
  6
CONTINUOUS
 10
166.344866052
 20
215.0423280327
 11
166.344866052
 21
214.2231791942
  0
LINE
  5
333
100
AcDbEntity
  8
0
100
AcDbLine
 62
7
  6
CONTINUOUS
 10
166.6313239482
 20
214.1061579316
 11
166.6313239482
 21
215.1593492954
  0
LINE
  5
334
100
AcDbEntity
  8
0
100
AcDbLine
 62
7
  6
CONTINUOUS
 10
183.7688349258
 20
353.8389208403
 11
183.6978012608
 21
353.4510857173
  0
LINE
  5
335
100
AcDbEntity
  8
0
100
AcDbLine
 62
7
  6
CONTINUOUS
 10
177.33751969
 20
350.6875545948
 11
177.4248894946
 21
351.1546099955
  0
LINE
  5
336
100
AcDbEntity
  8
0
100
AcDbLine
 62
7
  6
CONTINUOUS
 10
194.8258865755
 20
351.9283472979
 11
194.6886659393
 21
351.5707956728
  0
LINE
  5
337
100
AcDbEntity
  8
0
100
AcDbLine
 62
7
  6
CONTINUOUS
 10
195.8005346289
 20
352.3747265079
 11
195.5260932603
 21
351.6596230073
  0
LINE
  5
338
100
AcDbEntity
  8
0
100
AcDbLine
 62
7
  6
CONTINUOUS
 10
195.3888726241
 20
351.3020713822
 11
194.7027693709
 21
349.514313069
  0
LINE
  5
339
100
AcDbEntity
  8
0
100
AcDbLine
 62
7
  6
CONTINUOUS
 10
195.2090073885
 20
349.5251368392
 11
195.8265002996
 21
351.1341192773
  0
LINE
  5
33A
100
AcDbEntity
  8
0
100
AcDbLine
 62
7
  6
CONTINUOUS
 10
195.9637209359
 20
351.4916709024
 11
196.2381623044
 21
352.2067744029
  0
LINE
  5
33B
100
AcDbEntity
  8
0
100
AcDbLine
 62
7
  6
CONTINUOUS
 10
195.6536867678
 20
348.328943401
 11
195.7909074161
 21
348.6864950574
  0
LINE
  5
33C
100
AcDbEntity
  8
0
100
AcDbLine
 62
7
  6
CONTINUOUS
 10
196.7892819871
 20
350.7646243388
 11
196.9265026233
 21
351.1221759639
  0
LINE
  5
33D
100
AcDbEntity
  8
RUNDUNGEN
100
AcDbLine
 62
7
  6
CONTINUOUS
 10
210.8027076828
 20
247.2827536135
 11
204.3025641421
 21
247.2827536135
  0
LINE
  5
33E
100
AcDbEntity
  8
RUNDUNGEN
100
AcDbLine
 62
7
  6
CONTINUOUS
 10
169.3028671661
 20
247.2827536135
 11
162.8027076828
 21
247.2827536135
  0
LINE
  5
33F
100
AcDbEntity
  8
0
100
AcDbLine
 62
7
  6
CONTINUOUS
 10
158.3943079918
 20
307.9148812192
 11
158.4984746616
 21
307.3829663889
  0
LINE
  5
340
100
AcDbEntity
  8
0
100
AcDbLine
 62
7
  6
CONTINUOUS
 10
173.2108240752
 20
348.4960850253
 11
173.2086413534
 21
348.9712370703
  0
LINE
  5
341
100
AcDbEntity
  8
KONSTRUKTIONSELEMENTE
100
AcDbLine
 62
7
  6
CONTINUOUS
 10
169.4660136319
 20
209.3827536135
 11
169.4660136319
 21
220.3827536135
  0
LINE
  5
342
100
AcDbEntity
  8
KONSTRUKTIONSELEMENTE
100
AcDbLine
 62
7
  6
CONTINUOUS
 10
173.8446985765
 20
209.3827536135
 11
173.8446985765
 21
220.3827536135
  0
LINE
  5
343
100
AcDbEntity
  8
RUNDUNGEN
100
AcDbLine
 62
7
  6
CONTINUOUS
 10
174.3027076828
 20
275.2827536135
 11
174.3027076828
 21
252.2827536135
  0
LINE
  5
344
100
AcDbEntity
  8
0
100
AcDbLine
 62
7
  6
CONTINUOUS
 10
164.8552825001
 20
215.0423280327
 11
164.9125739482
 21
215.7444556086
  0
LINE
  5
345
100
AcDbEntity
  8
0
100
AcDbLine
 62
7
  6
CONTINUOUS
 10
166.344866052
 20
214.2231791942
 11
166.2875739482
 21
213.5210514544
  0
LINE
  5
346
100
AcDbEntity
  8
0
100
AcDbLine
 62
7
  6
CONTINUOUS
 10
164.626116052
 20
215.7444556086
 11
164.5688239482
 21
215.1593492954
  0
LINE
  5
347
100
AcDbEntity
  8
0
100
AcDbLine
 62
7
  6
CONTINUOUS
 10
166.5740325001
 20
213.5210514544
 11
166.6313239482
 21
214.1061579316
  0
LINE
  5
348
100
AcDbEntity
  8
0
100
AcDbLine
 62
7
  6
CONTINUOUS
 10
162.1625742761
 20
216.563604775
 11
162.1052825001
 21
216.0955197244
  0
LINE
  5
349
100
AcDbEntity
  8
0
100
AcDbLine
 62
7
  6
CONTINUOUS
 10
164.0531992761
 20
215.3933918207
 11
164.1104907242
 21
215.8614768713
  0
LINE
  5
34A
100
AcDbEntity
  8
0
100
AcDbLine
 62
7
  6
CONTINUOUS
 10
164.6834075001
 20
216.0955197244
 11
164.626116052
 21
215.7444556086
  0
LINE
  5
34B
100
AcDbEntity
  8
0
100
AcDbLine
 62
7
  6
CONTINUOUS
 10
161.0740325001
 20
217.3827536135
 11
160.2146575001
 21
212.4678600087
  0
LINE
  5
34C
100
AcDbEntity
  8
0
100
AcDbLine
 62
7
  6
CONTINUOUS
 10
161.507045202
 20
217.3827536135
 11
161.3024321307
 21
216.212540987
  0
LINE
  5
34D
100
AcDbEntity
  8
0
100
AcDbLine
 62
7
  6
CONTINUOUS
 10
186.9136011611
 20
353.0653324007
 11
186.9846337551
 21
353.4531674605
  0
LINE
  5
34E
100
AcDbEntity
  8
0
100
AcDbLine
 62
7
  6
CONTINUOUS
 10
160.4438241121
 20
211.8827536135
 11
161.2459075001
 21
216.212540987
  0
LINE
  5
34F
100
AcDbEntity
  8
0
100
AcDbLine
 62
7
  6
CONTINUOUS
 10
190.6352680844
 20
354.4205895655
 11
190.1250938928
 21
351.9840666668
  0
LINE
  5
350
100
AcDbEntity
  8
0
100
AcDbLine
 62
7
  6
CONTINUOUS
 10
190.6820039945
 20
352.3565624033
 11
190.9959573643
 21
353.8559612112
  0
LINE
  5
351
100
AcDbEntity
  8
0
100
AcDbLine
 62
7
  6
CONTINUOUS
 10
199.3027076828
 20
256.0827536135
 11
199.8027076828
 21
256.0827536135
  0
LINE
  5
352
100
AcDbEntity
  8
0
100
AcDbLine
 62
7
  6
CONTINUOUS
 10
199.3027076828
 20
256.5827536135
 11
199.8027076828
 21
256.5827536135
  0
LINE
  5
353
100
AcDbEntity
  8
0
100
AcDbLine
 62
7
  6
CONTINUOUS
 10
159.1234746336
 20
307.489349355
 11
159.0193079918
 21
307.9148812192
  0
LINE
  5
354
100
AcDbEntity
  8
0
100
AcDbLine
 62
7
  6
CONTINUOUS
 10
161.8318079918
 20
302.936157723
 11
161.9359745591
 21
302.5106258588
  0
LINE
  5
355
100
AcDbEntity
  8
0
100
AcDbLine
 62
7
  6
CONTINUOUS
 10
162.5609745591
 20
302.5106258588
 11
162.4568079918
 21
303.042540987
  0
LINE
  5
356
100
AcDbEntity
  8
0
100
AcDbLine
 62
7
  6
CONTINUOUS
 10
176.8027076828
 20
209.3827536135
 11
176.8027076828
 21
180.8827536135
  0
LINE
  5
357
100
AcDbEntity
  8
FASEN
100
AcDbLine
 62
7
  6
CONTINUOUS
 10
176.8027076828
 20
209.3827536135
 11
176.8027076828
 21
180.8827536135
  0
LINE
  5
358
100
AcDbEntity
  8
0
100
AcDbLine
 62
7
  6
CONTINUOUS
 10
166.516741052
 20
213.1699876665
 11
166.5740325001
 21
213.5210514544
  0
LINE
  5
359
100
AcDbEntity
  8
0
100
AcDbLine
 62
7
  6
CONTINUOUS
 10
192.8715465777
 20
350.9198923197
 11
192.8323024134
 21
350.7324675015
  0
LINE
  5
35A
100
AcDbEntity
  8
0
100
AcDbLine
 62
7
  6
CONTINUOUS
 10
193.6570010313
 20
353.2987754765
 11
193.7551114422
 21
353.7673375219
  0
LINE
  5
35B
100
AcDbEntity
  8
0
100
AcDbLine
 62
7
  6
CONTINUOUS
 10
193.271480022
 20
350.5426887836
 11
193.3499683507
 21
350.9175384199
  0
LINE
  5
35C
100
AcDbEntity
  8
0
100
AcDbLine
 62
7
  6
CONTINUOUS
 10
163.7667407242
 20
215.8614768713
 11
163.6521575001
 21
215.3933918207
  0
LINE
  5
35D
100
AcDbEntity
  8
0
100
AcDbLine
 62
7
  6
CONTINUOUS
 10
164.797991052
 20
216.563604775
 11
164.6834075001
 21
216.0955197244
  0
LINE
  5
35E
100
AcDbEntity
  8
0
100
AcDbLine
 62
7
  6
CONTINUOUS
 10
166.4021575001
 20
212.701902534
 11
166.516741052
 21
213.1699876665
  0
LINE
  5
35F
100
AcDbEntity
  8
0
100
AcDbLine
 62
7
  6
CONTINUOUS
 10
201.6388976923
 20
346.7574324566
 11
201.5479472044
 21
346.4692994006
  0
LINE
  5
360
100
AcDbEntity
  8
0
100
AcDbLine
 62
7
  6
CONTINUOUS
 10
202.0610743571
 20
346.2197521768
 11
202.152024845
 21
346.5078852328
  0
LINE
  5
361
100
AcDbEntity
  8
0
100
AcDbLine
 62
7
  6
CONTINUOUS
 10
202.7534590079
 20
348.3145357902
 11
202.6625084419
 21
348.0264026251
  0
LINE
  5
362
100
AcDbEntity
  8
0
100
AcDbLine
 62
7
  6
CONTINUOUS
 10
203.1756357507
 20
347.7768556194
 11
203.2665861605
 21
348.0649885663
  0
LINE
  5
363
100
AcDbEntity
  8
0
100
AcDbLine
 62
7
  6
CONTINUOUS
 10
162.3917407242
 20
216.0955197244
 11
162.5063242761
 21
216.4465835123
  0
LINE
  5
364
100
AcDbEntity
  8
0
100
AcDbLine
 62
7
  6
CONTINUOUS
 10
199.3027076828
 20
257.7494202404
 11
199.8027076828
 21
257.7494202404
  0
LINE
  5
365
100
AcDbEntity
  8
0
100
AcDbLine
 62
7
  6
CONTINUOUS
 10
199.3027076828
 20
258.9160868673
 11
199.8027076828
 21
258.9160868673
  0
LINE
  5
366
100
AcDbEntity
  8
0
100
AcDbLine
 62
7
  6
CONTINUOUS
 10
199.3027076828
 20
259.4160868673
 11
199.8027076828
 21
259.4160868673
  0
LINE
  5
367
100
AcDbEntity
  8
0
100
AcDbLine
 62
7
  6
CONTINUOUS
 10
199.3027076828
 20
260.0827536135
 11
199.8027076828
 21
260.0827536135
  0
LINE
  5
368
100
AcDbEntity
  8
0
100
AcDbLine
 62
7
  6
CONTINUOUS
 10
199.3027076828
 20
260.5827536135
 11
199.8027076828
 21
260.5827536135
  0
LINE
  5
369
100
AcDbEntity
  8
0
100
AcDbLine
 62
7
  6
CONTINUOUS
 10
199.3027076828
 20
261.2494201212
 11
199.8027076828
 21
261.2494201212
  0
LINE
  5
36A
100
AcDbEntity
  8
0
100
AcDbLine
 62
7
  6
CONTINUOUS
 10
199.3027076828
 20
263.2494201212
 11
199.8027076828
 21
263.2494201212
  0
LINE
  5
36B
100
AcDbEntity
  8
0
100
AcDbLine
 62
7
  6
CONTINUOUS
 10
158.4984746616
 20
307.3829663889
 11
158.7068079918
 21
306.9574344503
  0
LINE
  5
36C
100
AcDbEntity
  8
0
100
AcDbLine
 62
7
  6
CONTINUOUS
 10
162.4568079918
 20
303.042540987
 11
162.2484745591
 21
303.4680728512
  0
LINE
  5
36D
100
AcDbEntity
  8
0
100
AcDbLine
 62
7
  6
CONTINUOUS
 10
162.3526414245
 20
313.2127536135
 11
161.4151414245
 21
315.6595621305
  0
LINE
  5
36E
100
AcDbEntity
  8
0
100
AcDbLine
 62
7
  6
CONTINUOUS
 10
160.7901412754
 20
315.4467961984
 11
161.6234745591
 21
313.2127536135
  0
LINE
  5
36F
100
AcDbEntity
  8
0
100
AcDbLine
 62
7
  6
CONTINUOUS
 10
161.5193079918
 20
317.3616898851
 11
161.6234745591
 21
317.042540987
  0
LINE
  5
370
100
AcDbEntity
  8
0
100
AcDbLine
 62
7
  6
CONTINUOUS
 10
162.2484745591
 20
317.042540987
 11
162.1443079918
 21
317.3616898851
  0
LINE
  5
371
100
AcDbEntity
  8
0
100
AcDbLine
 62
7
  6
CONTINUOUS
 10
163.9386157242
 20
215.0423280327
 11
164.0531992761
 21
215.3933918207
  0
LINE
  5
372
100
AcDbEntity
  8
0
100
AcDbLine
 62
7
  6
CONTINUOUS
 10
164.9125739482
 20
215.7444556086
 11
165.141741052
 21
216.4465835123
  0
LINE
  5
373
100
AcDbEntity
  8
0
100
AcDbLine
 62
7
  6
CONTINUOUS
 10
166.2875739482
 20
213.5210514544
 11
166.0584075001
 21
212.8189237966
  0
LINE
  5
374
100
AcDbEntity
  8
0
100
AcDbLine
 62
7
  6
CONTINUOUS
 10
199.3027076828
 20
263.6660871058
 11
199.8027076828
 21
263.6660871058
  0
LINE
  5
375
100
AcDbEntity
  8
0
100
AcDbLine
 62
7
  6
CONTINUOUS
 10
199.3027076828
 20
263.9994201212
 11
199.8027076828
 21
263.9994201212
  0
LINE
  5
376
100
AcDbEntity
  8
0
100
AcDbLine
 62
7
  6
CONTINUOUS
 10
199.3027076828
 20
264.249420598
 11
199.8027076828
 21
264.249420598
  0
LINE
  5
377
100
AcDbEntity
  8
0
100
AcDbLine
 62
7
  6
CONTINUOUS
 10
199.3027076828
 20
264.3327536135
 11
199.8027076828
 21
264.3327536135
  0
LINE
  5
378
100
AcDbEntity
  8
0
100
AcDbLine
 62
7
  6
CONTINUOUS
 10
199.3027076828
 20
268.999420598
 11
199.8027076828
 21
268.999420598
  0
LINE
  5
379
100
AcDbEntity
  8
0
100
AcDbLine
 62
7
  6
CONTINUOUS
 10
199.3027076828
 20
269.0827536135
 11
199.8027076828
 21
269.0827536135
  0
LINE
  5
37A
100
AcDbEntity
  8
0
100
AcDbLine
 62
7
  6
CONTINUOUS
 10
199.3027076828
 20
269.249420598
 11
199.8027076828
 21
269.249420598
  0
LINE
  5
37B
100
AcDbEntity
  8
0
100
AcDbLine
 62
7
  6
CONTINUOUS
 10
199.3027076828
 20
269.499420598
 11
199.8027076828
 21
269.499420598
  0
LINE
  5
37C
100
AcDbEntity
  8
0
100
AcDbLine
 62
7
  6
CONTINUOUS
 10
161.6234745591
 20
303.2553069191
 11
161.8318079918
 21
302.936157723
  0
LINE
  5
37D
100
AcDbEntity
  8
0
100
AcDbLine
 62
7
  6
CONTINUOUS
 10
159.3318079918
 20
307.1702004569
 11
159.1234746336
 21
307.489349355
  0
LINE
  5
37E
100
AcDbEntity
  8
0
100
AcDbLine
 62
7
  6
CONTINUOUS
 10
183.7790104452
 20
350.482630909
 11
183.807203366
 21
350.0047383829
  0
LINE
  5
37F
100
AcDbEntity
  8
0
100
AcDbLine
 62
7
  6
CONTINUOUS
 10
186.411832866
 20
353.6111980308
 11
186.4231100485
 21
353.4200407794
  0
LINE
  5
380
100
AcDbEntity
  8
0
100
AcDbLine
 62
7
  6
CONTINUOUS
 10
187.1763456051
 20
350.2034984701
 11
187.1481526844
 21
350.6813909962
  0
LINE
  5
381
100
AcDbEntity
  8
0
100
AcDbLine
 62
7
  6
CONTINUOUS
 10
186.9846337551
 20
353.4531674605
 11
186.9733565725
 21
353.644324712
  0
LINE
  5
382
100
AcDbEntity
  8
0
100
AcDbLine
 62
7
  6
CONTINUOUS
 10
195.1936182238
 20
349.2233823292
 11
195.2090073885
 21
349.5251368392
  0
LINE
  5
383
100
AcDbEntity
  8
0
100
AcDbLine
 62
7
  6
CONTINUOUS
 10
162.3917407242
 20
217.0316898255
 11
162.1625742761
 21
216.563604775
  0
LINE
  5
384
100
AcDbEntity
  8
0
100
AcDbLine
 62
7
  6
CONTINUOUS
 10
162.8247534261
 20
217.0316898255
 11
162.6022373627
 21
216.5771885509
  0
LINE
  5
385
100
AcDbEntity
  8
0
100
AcDbLine
 62
7
  6
CONTINUOUS
 10
164.969866052
 20
216.9146685629
 11
164.797991052
 21
216.563604775
  0
LINE
  5
386
100
AcDbEntity
  8
0
100
AcDbLine
 62
7
  6
CONTINUOUS
 10
165.4028787539
 20
216.9146685629
 11
165.2376541577
 21
216.5771885768
  0
LINE
  5
387
100
AcDbEntity
  8
0
100
AcDbLine
 62
7
  6
CONTINUOUS
 10
166.2302825001
 20
212.350838705
 11
166.4021575001
 21
212.701902534
  0
LINE
  5
388
100
AcDbEntity
  8
0
100
AcDbLine
 62
7
  6
CONTINUOUS
 10
163.6521575001
 20
215.3933918207
 11
162.0479907242
 21
212.4678600087
  0
LINE
  5
389
100
AcDbEntity
  8
0
100
AcDbLine
 62
7
  6
CONTINUOUS
 10
164.0061829851
 20
215.2493421998
 11
162.4810034261
 21
212.4678600087
  0
LINE
  5
38A
100
AcDbEntity
  8
0
100
AcDbLine
 62
7
  6
CONTINUOUS
 10
162.5063242761
 20
212.4678600087
 11
163.9386157242
 21
215.0423280327
  0
LINE
  5
38B
100
AcDbEntity
  8
0
100
AcDbLine
 62
7
  6
CONTINUOUS
 10
199.3027076828
 20
269.9160866289
 11
199.8027076828
 21
269.9160866289
  0
LINE
  5
38C
100
AcDbEntity
  8
0
100
AcDbLine
 62
7
  6
CONTINUOUS
 10
199.3027076828
 20
270.3327536135
 11
199.8027076828
 21
270.3327536135
  0
LINE
  5
38D
100
AcDbEntity
  8
0
100
AcDbLine
 62
7
  6
CONTINUOUS
 10
199.3027076828
 20
270.6660866289
 11
199.8027076828
 21
270.6660866289
  0
LINE
  5
38E
100
AcDbEntity
  8
0
100
AcDbLine
 62
7
  6
CONTINUOUS
 10
199.3027076828
 20
271.0827536135
 11
199.8027076828
 21
271.0827536135
  0
LINE
  5
38F
100
AcDbEntity
  8
0
100
AcDbLine
 62
7
  6
CONTINUOUS
 10
199.3027076828
 20
271.499420598
 11
199.8027076828
 21
271.499420598
  0
LINE
  5
390
100
AcDbEntity
  8
0
100
AcDbLine
 62
7
  6
CONTINUOUS
 10
199.3027076828
 20
271.749420598
 11
199.8027076828
 21
271.749420598
  0
LINE
  5
391
100
AcDbEntity
  8
0
100
AcDbLine
 62
7
  6
CONTINUOUS
 10
199.3027076828
 20
271.9160866289
 11
199.8027076828
 21
271.9160866289
  0
LINE
  5
392
100
AcDbEntity
  8
0
100
AcDbLine
 62
7
  6
CONTINUOUS
 10
199.3027076828
 20
271.999420598
 11
199.8027076828
 21
271.999420598
  0
LINE
  5
393
100
AcDbEntity
  8
0
100
AcDbLine
 62
7
  6
CONTINUOUS
 10
158.7068079918
 20
306.9574344503
 11
159.1234746336
 21
306.5319025489
  0
LINE
  5
394
100
AcDbEntity
  8
0
100
AcDbLine
 62
7
  6
CONTINUOUS
 10
162.2484745591
 20
303.4680728512
 11
161.8318079918
 21
303.8936047153
  0
LINE
  5
395
100
AcDbEntity
  8
0
100
AcDbLine
 62
7
  6
CONTINUOUS
 10
176.83643493
 20
351.2964559962
 11
176.8765049983
 21
350.996978349
  0
LINE
  5
396
100
AcDbEntity
  8
0
100
AcDbLine
 62
7
  6
CONTINUOUS
 10
177.4248894946
 20
351.1546099955
 11
177.3848194263
 21
351.4540876427
  0
LINE
  5
397
100
AcDbEntity
  8
0
100
AcDbLine
 62
7
  6
CONTINUOUS
 10
196.8027076828
 20
209.3827536135
 11
196.8027076828
 21
180.8827536135
  0
LINE
  5
398
100
AcDbEntity
  8
FASEN
100
AcDbLine
 62
7
  6
CONTINUOUS
 10
196.8027076828
 20
209.3827536135
 11
196.8027076828
 21
180.8827536135
  0
LINE
  5
399
100
AcDbEntity
  8
RUNDUNGEN
100
AcDbLine
 62
7
  6
CONTINUOUS
 10
199.3027076828
 20
252.2827536135
 11
199.3027076828
 21
275.2827536135
  0
LINE
  5
39A
100
AcDbEntity
  8
KONSTRUKTIONSELEMENTE
100
AcDbLine
 62
7
  6
CONTINUOUS
 10
199.7607167891
 20
209.3827536135
 11
199.7607167891
 21
220.3827536135
  0
LINE
  5
39B
100
AcDbEntity
  8
0
100
AcDbLine
 62
7
  6
CONTINUOUS
 10
199.8027076828
 20
271.999420598
 11
199.8027076828
 21
268.999420598
  0
LINE
  5
39C
100
AcDbEntity
  8
0
100
AcDbLine
 62
7
  6
CONTINUOUS
 10
199.8027076828
 20
264.3327536135
 11
199.8027076828
 21
261.2494201212
  0
LINE
  5
39D
100
AcDbEntity
  8
0
100
AcDbLine
 62
7
  6
CONTINUOUS
 10
199.8027076828
 20
260.5827536135
 11
199.8027076828
 21
260.0827536135
  0
LINE
  5
39E
100
AcDbEntity
  8
0
100
AcDbLine
 62
7
  6
CONTINUOUS
 10
199.8027076828
 20
259.4160868673
 11
199.8027076828
 21
256.0827536135
  0
LINE
  5
39F
100
AcDbEntity
  8
0
100
AcDbLine
 62
7
  6
CONTINUOUS
 10
162.5063242761
 20
216.4465835123
 11
162.6781992761
 21
216.6806260376
  0
LINE
  5
3A0
100
AcDbEntity
  8
0
100
AcDbLine
 62
7
  6
CONTINUOUS
 10
162.1443079918
 20
317.3616898851
 11
161.8318079918
 21
317.7872217493
  0
LINE
  5
3A1
100
AcDbEntity
  8
0
100
AcDbLine
 62
7
  6
CONTINUOUS
 10
172.6040009256
 20
348.9996846869
 11
172.699772044
 21
348.713118265
  0
LINE
  5
3A2
100
AcDbEntity
  8
0
100
AcDbLine
 62
7
  6
CONTINUOUS
 10
173.2086413534
 20
348.9712370703
 11
173.112870235
 21
349.2578034922
  0
LINE
  5
3A3
100
AcDbEntity
  8
0
100
AcDbLine
 62
7
  6
CONTINUOUS
 10
192.8386520735
 20
351.2202431159
 11
192.8715465777
 21
350.9198923197
  0
LINE
  5
3A4
100
AcDbEntity
  8
0
100
AcDbLine
 62
7
  6
CONTINUOUS
 10
194.7027693709
 20
349.514313069
 11
194.7405993922
 21
349.0895807244
  0
LINE
  5
3A5
100
AcDbEntity
  8
0
100
AcDbLine
 62
7
  6
CONTINUOUS
 10
202.152024845
 20
346.5078852328
 11
202.1462375295
 21
346.9830070457
  0
LINE
  5
3A6
100
AcDbEntity
  8
0
100
AcDbLine
 62
7
  6
CONTINUOUS
 10
203.2665861605
 20
348.0649885663
 11
203.2607988451
 21
348.5401103792
  0
LINE
  5
3A7
100
AcDbEntity
  8
KONSTRUKTIONSELEMENTE
100
AcDbLine
 62
7
  6
CONTINUOUS
 10
204.1394017337
 20
209.3827536135
 11
204.1394017337
 21
220.3827536135
  0
LINE
  5
3A8
100
AcDbEntity
  8
0
100
AcDbLine
 62
7
  6
CONTINUOUS
 10
165.141741052
 20
216.4465835123
 11
165.313616052
 21
216.6806260376
  0
LINE
  5
3A9
100
AcDbEntity
  8
0
100
AcDbLine
 62
7
  6
CONTINUOUS
 10
166.0584075001
 20
212.8189237966
 11
165.8865325001
 21
212.5848812713
  0
LINE
  5
3AA
100
AcDbEntity
  8
0
100
AcDbLine
 62
7
  6
CONTINUOUS
 10
166.3955070987
 20
212.6883187353
 11
166.319545202
 21
212.5848812713
  0
LINE
  5
3AB
100
AcDbEntity
  8
0
100
AcDbLine
 62
7
  6
CONTINUOUS
 10
165.2563239482
 20
217.2657323508
 11
164.969866052
 21
216.9146685629
  0
LINE
  5
3AC
100
AcDbEntity
  8
0
100
AcDbLine
 62
7
  6
CONTINUOUS
 10
165.6893366501
 20
217.2657323508
 11
165.4028787539
 21
216.9146685629
  0
LINE
  5
3AD
100
AcDbEntity
  8
0
100
AcDbLine
 62
7
  6
CONTINUOUS
 10
165.9438239482
 20
211.9997748864
 11
166.2302825001
 21
212.350838705
  0
LINE
  5
3AE
100
AcDbEntity
  8
0
100
AcDbLine
 62
7
  6
CONTINUOUS
 10
162.6209075001
 20
217.2657323508
 11
162.3917407242
 21
217.0316898255
  0
LINE
  5
3AF
100
AcDbEntity
  8
0
100
AcDbLine
 62
7
  6
CONTINUOUS
 10
163.053920202
 20
217.2657323508
 11
162.8247534261
 21
217.0316898255
  0
LINE
  5
3B0
100
AcDbEntity
  8
0
100
AcDbLine
 62
7
  6
CONTINUOUS
 10
161.8318079918
 20
303.8936047153
 11
161.4151414245
 21
304.1063706474
  0
LINE
  5
3B1
100
AcDbEntity
  8
0
100
AcDbLine
 62
7
  6
CONTINUOUS
 10
161.3109745591
 20
303.4680728512
 11
161.6234745591
 21
303.2553069191
  0
LINE
  5
3B2
100
AcDbEntity
  8
0
100
AcDbLine
 62
7
  6
CONTINUOUS
 10
159.6443079918
 20
306.9574344503
 11
159.3318079918
 21
307.1702004569
  0
LINE
  5
3B3
100
AcDbEntity
  8
0
100
AcDbLine
 62
7
  6
CONTINUOUS
 10
161.3109745591
 20
317.5744558172
 11
161.5193079918
 21
317.3616898851
  0
LINE
  5
3B4
100
AcDbEntity
  8
KONSTRUKTIONSELEMENTE
100
AcDbLine
 62
7
  6
CONTINUOUS
 10
156.1747579265
 20
292.8827536135
 11
166.5302554222
 21
292.8827536135
  0
LINE
  5
3B5
100
AcDbEntity
  8
KONSTRUKTIONSELEMENTE
100
AcDbLine
 62
7
  6
CONTINUOUS
 10
207.0751599434
 20
292.8827536135
 11
217.4306574391
 21
292.8827536135
  0
LINE
  5
3B6
100
AcDbEntity
  8
0
100
AcDbLine
 62
7
  6
CONTINUOUS
 10
159.1234746336
 20
306.5319025489
 11
159.54014135
 21
306.3191365888
  0
LINE
  5
3B7
100
AcDbEntity
  8
0
100
AcDbLine
 62
7
  6
CONTINUOUS
 10
161.8318079918
 20
317.7872217493
 11
161.4151414245
 21
318.1063706474
  0
LINE
  5
3B8
100
AcDbEntity
  8
0
100
AcDbLine
 62
7
  6
CONTINUOUS
 10
173.6363892179
 20
351.2441258983
 11
175.587646083
 21
347.1891787166
  0
LINE
  5
3B9
100
AcDbEntity
  8
0
100
AcDbLine
 62
7
  6
CONTINUOUS
 10
176.0945144807
 20
347.4330858248
 11
175.2226762946
 21
349.2448707615
  0
LINE
  5
3BA
100
AcDbEntity
  8
0
100
AcDbLine
 62
7
  6
CONTINUOUS
 10
174.9735797032
 20
349.7625235314
 11
174.3508381084
 21
351.0566556981
  0
LINE
  5
3BB
100
AcDbEntity
  8
0
100
AcDbLine
 62
7
  6
CONTINUOUS
 10
186.9733565725
 20
353.644324712
 11
186.8572153117
 21
354.0211175869
  0
LINE
  5
3BC
100
AcDbEntity
  8
0
100
AcDbLine
 62
7
  6
CONTINUOUS
 10
189.9484951257
 20
351.1406548537
 11
190.0535262395
 21
350.7273787162
  0
LINE
  5
3BD
100
AcDbEntity
  8
0
100
AcDbLine
 62
7
  6
CONTINUOUS
 10
190.6040867085
 20
350.6120989696
 11
190.4990555947
 21
351.0253751072
  0
LINE
  5
3BE
100
AcDbEntity
  8
0
100
AcDbLine
 62
7
  6
CONTINUOUS
 10
193.3499683507
 20
350.9175384199
 11
193.2645593328
 21
351.4245270322
  0
LINE
  5
3BF
100
AcDbEntity
  8
0
100
AcDbLine
 62
7
  6
CONTINUOUS
 10
213.3027076828
 20
244.7827536135
 11
213.3027076828
 21
220.3827536135
  0
LINE
  5
3C0
100
AcDbEntity
  8
KONSTRUKTIONSELEMENTE
100
AcDbLine
 62
7
  6
CONTINUOUS
 10
217.09741084
 20
209.3827536135
 11
217.09741084
 21
220.3827536135
  0
LINE
  5
3C1
100
AcDbEntity
  8
0
100
AcDbLine
 62
7
  6
CONTINUOUS
 10
158.3943079918
 20
299.2127536135
 11
160.8943079918
 21
299.2127536135
  0
LINE
  5
3C2
100
AcDbEntity
  8
0
100
AcDbLine
 62
7
  6
CONTINUOUS
 10
160.8943079918
 20
299.8510514842
 11
159.0193079918
 21
299.8510514842
  0
LINE
  5
3C3
100
AcDbEntity
  8
0
100
AcDbLine
 62
7
  6
CONTINUOUS
 10
161.4151414245
 20
304.1063706474
 11
160.8943079918
 21
304.2127536135
  0
LINE
  5
3C4
100
AcDbEntity
  8
0
100
AcDbLine
 62
7
  6
CONTINUOUS
 10
159.54014135
 20
306.3191365888
 11
160.0609747081
 21
306.2127536135
  0
LINE
  5
3C5
100
AcDbEntity
  8
0
100
AcDbLine
 62
7
  6
CONTINUOUS
 10
160.8943079918
 20
303.5744558172
 11
161.3109745591
 21
303.4680728512
  0
LINE
  5
3C6
100
AcDbEntity
  8
0
100
AcDbLine
 62
7
  6
CONTINUOUS
 10
160.0609747081
 20
306.8510514842
 11
159.6443079918
 21
306.9574344503
  0
LINE
  5
3C7
100
AcDbEntity
  8
0
100
AcDbLine
 62
7
  6
CONTINUOUS
 10
176.711886518
 20
351.5552826229
 11
176.83643493
 21
351.2964559962
  0
LINE
  5
3C8
100
AcDbEntity
  8
0
100
AcDbLine
 62
7
  6
CONTINUOUS
 10
177.3848194263
 20
351.4540876427
 11
177.2187549158
 21
351.7991897311
  0
LINE
  5
3C9
100
AcDbEntity
  8
0
100
AcDbLine
 62
7
  6
CONTINUOUS
 10
201.597888025
 20
347.0222764784
 11
201.6388976923
 21
346.7574324566
  0
LINE
  5
3CA
100
AcDbEntity
  8
0
100
AcDbLine
 62
7
  6
CONTINUOUS
 10
202.7124493405
 20
348.5793798119
 11
202.7534590079
 21
348.3145357902
  0
LINE
  5
3CB
100
AcDbEntity
  8
0
100
AcDbLine
 62
7
  6
CONTINUOUS
 10
161.3109745591
 20
299.9574344503
 11
160.8943079918
 21
299.8510514842
  0
LINE
  5
3CC
100
AcDbEntity
  8
0
100
AcDbLine
 62
7
  6
CONTINUOUS
 10
160.8943079918
 20
299.2127536135
 11
161.4151414245
 21
299.3191365888
  0
LINE
  5
3CD
100
AcDbEntity
  8
0
100
AcDbLine
 62
7
  6
CONTINUOUS
 10
159.0193079918
 20
303.5744558172
 11
160.8943079918
 21
303.5744558172
  0
LINE
  5
3CE
100
AcDbEntity
  8
0
100
AcDbLine
 62
7
  6
CONTINUOUS
 10
160.8943079918
 20
304.2127536135
 11
158.3943079918
 21
304.2127536135
  0
LINE
  5
3CF
100
AcDbEntity
  8
0
100
AcDbLine
 62
7
  6
CONTINUOUS
 10
160.0609747081
 20
306.2127536135
 11
160.4776412754
 21
306.2127536135
  0
LINE
  5
3D0
100
AcDbEntity
  8
0
100
AcDbLine
 62
7
  6
CONTINUOUS
 10
160.4776412754
 20
306.8510514842
 11
160.0609747081
 21
306.8510514842
  0
LINE
  5
3D1
100
AcDbEntity
  8
0
100
AcDbLine
 62
7
  6
CONTINUOUS
 10
160.9984745591
 20
317.6808387833
 11
161.3109745591
 21
317.5744558172
  0
LINE
  5
3D2
100
AcDbEntity
  8
0
100
AcDbLine
 62
7
  6
CONTINUOUS
 10
169.4711123334
 20
348.3454381668
 11
172.1513385844
 21
344.7306923606
  0
LINE
  5
3D3
100
AcDbEntity
  8
0
100
AcDbLine
 62
7
  6
CONTINUOUS
 10
172.6031818101
 20
345.065720642
 11
171.4056338938
 21
346.6808198549
  0
LINE
  5
3D4
100
AcDbEntity
  8
0
100
AcDbLine
 62
7
  6
CONTINUOUS
 10
171.0634773919
 20
347.1422767113
 11
170.2080859774
 21
348.2959190678
  0
LINE
  5
3D5
100
AcDbEntity
  8
0
100
AcDbLine
 62
7
  6
CONTINUOUS
 10
172.4329225149
 20
349.2304133305
 11
172.6040009256
 21
348.9996846869
  0
LINE
  5
3D6
100
AcDbEntity
  8
0
100
AcDbLine
 62
7
  6
CONTINUOUS
 10
173.112870235
 20
349.2578034922
 11
172.8847657406
 21
349.5654416119
  0
LINE
  5
3D7
100
AcDbEntity
  8
0
100
AcDbLine
 62
7
  6
CONTINUOUS
 10
190.0535262395
 20
350.7273787162
 11
190.2503181384
 21
350.2948891737
  0
LINE
  5
3D8
100
AcDbEntity
  8
0
100
AcDbLine
 62
7
  6
CONTINUOUS
 10
192.7139988638
 20
351.5398067788
 11
192.8386520735
 21
351.2202431159
  0
LINE
  5
3D9
100
AcDbEntity
  8
0
100
AcDbLine
 62
7
  6
CONTINUOUS
 10
203.2607988451
 20
348.5401103792
 11
203.1230514524
 21
348.991943267
  0
LINE
  5
3DA
100
AcDbEntity
  8
0
100
AcDbLine
 62
7
  6
CONTINUOUS
 10
162.6781992761
 20
216.6806260376
 11
162.9646575001
 21
216.7976473002
  0
LINE
  5
3DB
100
AcDbEntity
  8
0
100
AcDbLine
 62
7
  6
CONTINUOUS
 10
165.313616052
 20
216.6806260376
 11
165.6000739482
 21
216.7976473002
  0
LINE
  5
3DC
100
AcDbEntity
  8
0
100
AcDbLine
 62
7
  6
CONTINUOUS
 10
165.8865325001
 20
212.5848812713
 11
165.6000739482
 21
212.4678600087
  0
LINE
  5
3DD
100
AcDbEntity
  8
0
100
AcDbLine
 62
7
  6
CONTINUOUS
 10
166.319545202
 20
212.5848812713
 11
166.0330866501
 21
212.4678600087
  0
LINE
  5
3DE
100
AcDbEntity
  8
0
100
AcDbLine
 62
7
  6
CONTINUOUS
 10
165.6000739482
 20
217.3827536135
 11
165.2563239482
 21
217.2657323508
  0
LINE
  5
3DF
100
AcDbEntity
  8
0
100
AcDbLine
 62
7
  6
CONTINUOUS
 10
165.8165802992
 20
217.3090493326
 11
165.6893366501
 21
217.2657323508
  0
LINE
  5
3E0
100
AcDbEntity
  8
0
100
AcDbLine
 62
7
  6
CONTINUOUS
 10
163.0219492761
 20
217.3827536135
 11
162.6209075001
 21
217.2657323508
  0
LINE
  5
3E1
100
AcDbEntity
  8
0
100
AcDbLine
 62
7
  6
CONTINUOUS
 10
163.3451985967
 20
217.3507254054
 11
163.053920202
 21
217.2657323508
  0
LINE
  5
3E2
100
AcDbEntity
  8
0
100
AcDbLine
 62
7
  6
CONTINUOUS
 10
160.8943079918
 20
306.9574344503
 11
160.4776412754
 21
306.8510514842
  0
LINE
  5
3E3
100
AcDbEntity
  8
0
100
AcDbLine
 62
7
  6
CONTINUOUS
 10
160.4776412754
 20
306.2127536135
 11
160.9984745591
 21
306.3191365888
  0
LINE
  5
3E4
100
AcDbEntity
  8
0
100
AcDbLine
 62
7
  6
CONTINUOUS
 10
162.1443079918
 20
311.2127536135
 11
161.5193079918
 21
311.2127536135
  0
LINE
  5
3E5
100
AcDbEntity
  8
0
100
AcDbLine
 62
7
  6
CONTINUOUS
 10
159.0193079918
 20
311.2127536135
 11
158.3943079918
 21
311.2127536135
  0
LINE
  5
3E6
100
AcDbEntity
  8
0
100
AcDbLine
 62
7
  6
CONTINUOUS
 10
158.3943079918
 20
313.2127536135
 11
159.0193079918
 21
313.2127536135
  0
LINE
  5
3E7
100
AcDbEntity
  8
0
100
AcDbLine
 62
7
  6
CONTINUOUS
 10
161.6234745591
 20
313.2127536135
 11
162.3526414245
 21
313.2127536135
  0
LINE
  5
3E8
100
AcDbEntity
  8
0
100
AcDbLine
 62
7
  6
CONTINUOUS
 10
161.4151414245
 20
318.1063706474
 11
160.8943079918
 21
318.2127536135
  0
LINE
  5
3E9
100
AcDbEntity
  8
0
100
AcDbLine
 62
7
  6
CONTINUOUS
 10
193.2645593328
 20
351.4245270322
 11
193.067767427
 21
351.8570165418
  0
LINE
  5
3EA
100
AcDbEntity
  8
0
100
AcDbLine
 62
7
  6
CONTINUOUS
 10
165.6000739482
 20
211.8827536135
 11
165.9438239482
 21
211.9997748864
  0
LINE
  5
3EB
100
AcDbEntity
  8
0
100
AcDbLine
 62
7
  6
CONTINUOUS
 10
159.0193079918
 20
315.4467961984
 11
160.7901412754
 21
315.4467961984
  0
LINE
  5
3EC
100
AcDbEntity
  8
0
100
AcDbLine
 62
7
  6
CONTINUOUS
 10
160.9984745591
 20
316.0850939946
 11
159.0193079918
 21
316.0850939946
  0
LINE
  5
3ED
100
AcDbEntity
  8
0
100
AcDbLine
 62
7
  6
CONTINUOUS
 10
159.0193079918
 20
317.6808387833
 11
160.9984745591
 21
317.6808387833
  0
LINE
  5
3EE
100
AcDbEntity
  8
0
100
AcDbLine
 62
7
  6
CONTINUOUS
 10
160.8943079918
 20
318.2127536135
 11
158.3943079918
 21
318.2127536135
  0
LINE
  5
3EF
100
AcDbEntity
  8
0
100
AcDbLine
 62
7
  6
CONTINUOUS
 10
176.5028599949
 20
351.7734577457
 11
176.711886518
 21
351.5552826229
  0
LINE
  5
3F0
100
AcDbEntity
  8
0
100
AcDbLine
 62
7
  6
CONTINUOUS
 10
177.2187549158
 20
351.7991897311
 11
177.0097283926
 21
352.0173648538
  0
LINE
  5
3F1
100
AcDbEntity
  8
0
100
AcDbLine
 62
7
  6
CONTINUOUS
 10
186.2077421901
 20
353.8868912582
 11
186.411832866
 21
353.6111980308
  0
LINE
  5
3F2
100
AcDbEntity
  8
0
100
AcDbLine
 62
7
  6
CONTINUOUS
 10
202.1462375295
 20
346.9830070457
 11
202.0494998042
 21
347.1699959116
  0
LINE
  5
3F3
100
AcDbEntity
  8
KONSTRUKTIONSELEMENTE
100
AcDbLine
 62
7
  6
CONTINUOUS
 10
156.1747579265
 20
322.8827536135
 11
166.5302554222
 21
322.8827536135
  0
LINE
  5
3F4
100
AcDbEntity
  8
KONSTRUKTIONSELEMENTE
100
AcDbLine
 62
7
  6
CONTINUOUS
 10
207.0751599434
 20
322.8827536135
 11
217.4306574391
 21
322.8827536135
  0
LINE
  5
3F5
100
AcDbEntity
  8
0
100
AcDbLine
 62
7
  6
CONTINUOUS
 10
172.1865371314
 20
349.4053037651
 11
172.4329225149
 21
349.2304133305
  0
LINE
  5
3F6
100
AcDbEntity
  8
0
100
AcDbLine
 62
7
  6
CONTINUOUS
 10
172.8847657406
 20
349.5654416119
 11
172.6383803572
 21
349.7403320465
  0
LINE
  5
3F7
100
AcDbEntity
  8
0
100
AcDbLine
 62
7
  6
CONTINUOUS
 10
201.4249165356
 20
347.2638328239
 11
201.597888025
 21
347.0222764784
  0
LINE
  5
3F8
100
AcDbEntity
  8
0
100
AcDbLine
 62
7
  6
CONTINUOUS
 10
194.7405993922
 20
349.0895807244
 11
194.934566074
 21
348.8100334794
  0
LINE
  5
3F9
100
AcDbEntity
  8
0
100
AcDbLine
 62
7
  6
CONTINUOUS
 10
195.3875849116
 20
348.9438350999
 11
195.1936182238
 21
349.2233823292
  0
LINE
  5
3FA
100
AcDbEntity
  8
0
100
AcDbLine
 62
7
  6
CONTINUOUS
 10
186.8572153117
 20
354.0211175869
 11
186.4603111265
 21
354.381347058
  0
LINE
  5
3FB
100
AcDbEntity
  8
0
100
AcDbLine
 62
7
  6
CONTINUOUS
 10
190.2503181384
 20
350.2948891737
 11
190.6502536778
 21
349.9176851732
  0
LINE
  5
3FC
100
AcDbEntity
  8
0
100
AcDbLine
 62
7
  6
CONTINUOUS
 10
190.8401227787
 20
350.3670342782
 11
190.6040867085
 21
350.6120989696
  0
LINE
  5
3FD
100
AcDbEntity
  8
0
100
AcDbLine
 62
7
  6
CONTINUOUS
 10
192.4779627936
 20
351.7848714702
 11
192.7139988638
 21
351.5398067788
  0
LINE
  5
3FE
100
AcDbEntity
  8
0
100
AcDbLine
 62
7
  6
CONTINUOUS
 10
202.5394778512
 20
348.8209361575
 11
202.7124493405
 21
348.5793798119
  0
LINE
  5
3FF
100
AcDbEntity
  8
FASEN
100
AcDbLine
 62
7
  6
CONTINUOUS
 10
195.302707682
 20
179.3827536127
 11
196.8027076819
 21
180.8827536126
  0
LINE
  5
400
100
AcDbEntity
  8
0
100
AcDbLine
 62
7
  6
CONTINUOUS
 10
177.0097283926
 20
352.0173648538
 11
176.5902297995
 21
352.2405131464
  0
LINE
  5
401
100
AcDbEntity
  8
0
100
AcDbLine
 62
7
  6
CONTINUOUS
 10
198.3487970193
 20
346.9930513326
 11
200.178393398
 21
345.6834418142
  0
LINE
  5
402
100
AcDbEntity
  8
0
100
AcDbLine
 62
7
  6
CONTINUOUS
 10
200.588995549
 20
346.0960053238
 11
199.1405645008
 21
347.1327799422
  0
LINE
  5
403
100
AcDbEntity
  8
0
100
AcDbLine
 62
7
  6
CONTINUOUS
 10
194.934566074
 20
348.8100334794
 11
195.1628379179
 21
348.6198741486
  0
LINE
  5
404
100
AcDbEntity
  8
0
100
AcDbLine
 62
7
  6
CONTINUOUS
 10
193.067767427
 20
351.8570165418
 11
192.6678318825
 21
352.2342205177
  0
LINE
  5
405
100
AcDbEntity
  8
0
100
AcDbLine
 62
7
  6
CONTINUOUS
 10
203.1230514524
 20
348.991943267
 11
202.7976124349
 21
349.3426345717
  0
LINE
  5
406
100
AcDbEntity
  8
0
100
AcDbLine
 62
7
  6
CONTINUOUS
 10
201.1373450925
 20
346.0567359456
 11
200.8734231543
 21
346.0101592897
  0
LINE
  5
407
100
AcDbEntity
  8
0
100
AcDbLine
 62
7
  6
CONTINUOUS
 10
202.307634388
 20
347.6916943259
 11
202.0437124888
 21
347.6451177245
  0
LINE
  5
408
100
AcDbEntity
  8
0
100
AcDbLine
 62
7
  6
CONTINUOUS
 10
200.6152885364
 20
345.4884608278
 11
201.0874042915
 21
345.5037588951
  0
LINE
  5
409
100
AcDbEntity
  8
0
100
AcDbLine
 62
7
  6
CONTINUOUS
 10
172.6383803572
 20
349.7403320465
 11
172.1843544097
 21
349.8804558101
  0
LINE
  5
40A
100
AcDbEntity
  8
0
100
AcDbLine
 62
7
  6
CONTINUOUS
 10
176.2508718264
 20
351.8647063772
 11
176.5028599949
 21
351.7734577457
  0
LINE
  5
40B
100
AcDbEntity
  8
0
100
AcDbLine
 62
7
  6
CONTINUOUS
 10
190.6502536778
 20
349.9176851732
 11
191.0894312846
 21
349.7279064471
  0
LINE
  5
40C
100
AcDbEntity
  8
0
100
AcDbLine
 62
7
  6
CONTINUOUS
 10
200.178393398
 20
345.6834418142
 11
200.6152885364
 21
345.4884608278
  0
LINE
  5
40D
100
AcDbEntity
  8
0
100
AcDbLine
 62
7
  6
CONTINUOUS
 10
191.1875417093
 20
350.1964685582
 11
190.8401227787
 21
350.3670342782
  0
LINE
  5
40E
100
AcDbEntity
  8
0
100
AcDbLine
 62
7
  6
CONTINUOUS
 10
192.1305438631
 20
351.9554371902
 11
192.4779627936
 21
351.7848714702
  0
LINE
  5
40F
100
AcDbEntity
  8
0
100
AcDbLine
 62
7
  6
CONTINUOUS
 10
197.2587538673
 20
349.3720474034
 11
198.4214818729
 21
348.763181279
  0
LINE
  5
410
100
AcDbEntity
  8
0
100
AcDbLine
 62
7
  6
CONTINUOUS
 10
198.6435608592
 20
349.1872768996
 11
197.4808328536
 21
349.7961430239
  0
LINE
  5
411
100
AcDbEntity
  8
0
100
AcDbLine
 62
7
  6
CONTINUOUS
 10
195.1628379179
 20
348.6198741486
 11
195.6536867678
 21
348.328943401
  0
LINE
  5
412
100
AcDbEntity
  8
0
100
AcDbLine
 62
7
  6
CONTINUOUS
 10
185.9157031701
 20
354.0614849013
 11
186.2077421901
 21
353.8868912582
  0
LINE
  5
413
100
AcDbEntity
  8
0
100
AcDbLine
 62
7
  6
CONTINUOUS
 10
195.7909074161
 20
348.6864950574
 11
195.3875849116
 21
348.9438350999
  0
LINE
  5
414
100
AcDbEntity
  8
0
100
AcDbLine
 62
7
  6
CONTINUOUS
 10
199.9764854875
 20
348.3006074424
 11
201.4249165356
 21
347.2638328239
  0
LINE
  5
415
100
AcDbEntity
  8
0
100
AcDbLine
 62
7
  6
CONTINUOUS
 10
201.7592848834
 20
347.7309637586
 11
200.3108538353
 21
348.767738377
  0
LINE
  5
416
100
AcDbEntity
  8
0
100
AcDbLine
 62
7
  6
CONTINUOUS
 10
201.091046803
 20
349.8577107759
 11
202.5394778512
 21
348.8209361575
  0
LINE
  5
417
100
AcDbEntity
  8
0
100
AcDbLine
 62
7
  6
CONTINUOUS
 10
202.7976124349
 20
349.3426345717
 11
200.9680160562
 21
350.6522440902
  0
LINE
  5
418
100
AcDbEntity
  8
0
100
AcDbLine
 62
7
  6
CONTINUOUS
 10
184.6054819022
 20
353.984189354
 11
185.0677790269
 21
354.1073733713
  0
LINE
  5
419
100
AcDbEntity
  8
0
100
AcDbLine
 62
7
  6
CONTINUOUS
 10
176.1277690776
 20
352.3367347151
 11
175.6638628087
 21
352.2197543309
  0
LINE
  5
41A
100
AcDbEntity
  8
0
100
AcDbLine
 62
7
  6
CONTINUOUS
 10
183.807203366
 20
350.0047383829
 11
187.1763456051
 21
350.2034984701
  0
LINE
  5
41B
100
AcDbEntity
  8
0
100
AcDbLine
 62
7
  6
CONTINUOUS
 10
187.1481526844
 20
350.6813909962
 11
184.5277090776
 21
350.5267998384
  0
LINE
  5
41C
100
AcDbEntity
  8
0
100
AcDbLine
 62
7
  6
CONTINUOUS
 10
192.1247652732
 20
350.0980479098
 11
191.7381021783
 21
350.0811888116
  0
LINE
  5
41D
100
AcDbEntity
  8
0
100
AcDbLine
 62
7
  6
CONTINUOUS
 10
191.1933202991
 20
352.0538578386
 11
191.579983394
 21
352.0707169368
  0
LINE
  5
41E
100
AcDbEntity
  8
0
100
AcDbLine
 62
7
  6
CONTINUOUS
 10
191.6399917536
 20
349.6126267006
 11
192.1184135283
 21
349.610272809
  0
LINE
  5
41F
100
AcDbEntity
  8
0
100
AcDbLine
 62
7
  6
CONTINUOUS
 10
172.1843544097
 20
349.8804558101
 11
171.7120474134
 21
349.8878321039
  0
LINE
  5
420
100
AcDbEntity
  8
0
100
AcDbLine
 62
7
  6
CONTINUOUS
 10
187.8858822334
 20
349.5475790824
 11
188.3533430918
 21
349.5128481477
  0
LINE
  5
421
100
AcDbEntity
  8
0
100
AcDbLine
 62
7
  6
CONTINUOUS
 10
188.9923319271
 20
350.5214675291
 11
188.5248699988
 21
350.5561985433
  0
LINE
  5
422
100
AcDbEntity
  8
0
100
AcDbLine
 62
7
  6
CONTINUOUS
 10
202.0494998042
 20
347.1699959116
 11
202.2576936455
 21
347.1387173572
  0
LINE
  5
423
100
AcDbEntity
  8
0
100
AcDbLine
 62
7
  6
CONTINUOUS
 10
171.9218704837
 20
349.4474465702
 11
172.1865371314
 21
349.4053037651
  0
LINE
  5
424
100
AcDbEntity
  8
0
100
AcDbLine
 62
7
  6
CONTINUOUS
 10
176.5902297995
 20
352.2405131464
 11
176.1277690776
 21
352.3367347151
  0
LINE
  5
425
100
AcDbEntity
  8
0
100
AcDbLine
 62
7
  6
CONTINUOUS
 10
191.0894312846
 20
349.7279064471
 11
191.6399917536
 21
349.6126267006
  0
LINE
  5
426
100
AcDbEntity
  8
0
100
AcDbLine
 62
7
  6
CONTINUOUS
 10
191.7381021783
 20
350.0811888116
 11
191.1875417093
 21
350.1964685582
  0
LINE
  5
427
100
AcDbEntity
  8
0
100
AcDbLine
 62
7
  6
CONTINUOUS
 10
190.4990555947
 20
351.0253751072
 11
189.9484951257
 21
351.1406548537
  0
LINE
  5
428
100
AcDbEntity
  8
0
100
AcDbLine
 62
7
  6
CONTINUOUS
 10
190.1250938928
 20
351.9840666668
 11
190.7674151401
 21
351.8495734826
  0
LINE
  5
429
100
AcDbEntity
  8
0
100
AcDbLine
 62
7
  6
CONTINUOUS
 10
191.579983394
 20
352.0707169368
 11
192.1305438631
 21
351.9554371902
  0
LINE
  5
42A
100
AcDbEntity
  8
0
100
AcDbLine
 62
7
  6
CONTINUOUS
 10
192.2286542739
 20
352.4239992357
 11
191.6780938049
 21
352.5392789822
  0
LINE
  5
42B
100
AcDbEntity
  8
0
100
AcDbLine
 62
7
  6
CONTINUOUS
 10
200.8734231543
 20
346.0101592897
 11
200.588995549
 21
346.0960053238
  0
LINE
  5
42C
100
AcDbEntity
  8
0
100
AcDbLine
 62
7
  6
CONTINUOUS
 10
202.0437124888
 20
347.6451177245
 11
201.7592848834
 21
347.7309637586
  0
LINE
  5
42D
100
AcDbEntity
  8
0
100
AcDbLine
 62
7
  6
CONTINUOUS
 10
194.6886659393
 20
351.5707956728
 11
195.3888726241
 21
351.3020713822
  0
LINE
  5
42E
100
AcDbEntity
  8
0
100
AcDbLine
 62
7
  6
CONTINUOUS
 10
195.8265002996
 20
351.1341192773
 11
196.7892819871
 21
350.7646243388
  0
LINE
  5
42F
100
AcDbEntity
  8
0
100
AcDbLine
 62
7
  6
CONTINUOUS
 10
196.9265026233
 20
351.1221759639
 11
195.9637209359
 21
351.4916709024
  0
LINE
  5
430
100
AcDbEntity
  8
0
100
AcDbLine
 62
7
  6
CONTINUOUS
 10
195.5260932603
 20
351.6596230073
 11
194.8258865755
 21
351.9283472979
  0
LINE
  5
431
100
AcDbEntity
  8
0
100
AcDbLine
 62
7
  6
CONTINUOUS
 10
196.2381623044
 20
352.2067744029
 11
195.8005346289
 21
352.3747265079
  0
LINE
  5
432
100
AcDbEntity
  8
0
100
AcDbLine
 62
7
  6
CONTINUOUS
 10
192.6678318825
 20
352.2342205177
 11
192.2286542739
 21
352.4239992357
  0
LINE
  5
433
100
AcDbEntity
  8
0
100
AcDbLine
 62
7
  6
CONTINUOUS
 10
186.4603111265
 20
354.381347058
 11
186.0746851791
 21
354.5504196086
  0
LINE
  5
434
100
AcDbEntity
  8
0
100
AcDbLine
 62
7
  6
CONTINUOUS
 10
185.1331741086
 20
354.5907869862
 11
184.483700987
 21
354.4565606575
  0
LINE
  5
435
100
AcDbEntity
  8
0
100
AcDbLine
 62
7
  6
CONTINUOUS
 10
175.9559215289
 20
351.8290282848
 11
176.2508718264
 21
351.8647063772
  0
LINE
  5
436
100
AcDbEntity
  8
0
100
AcDbLine
 62
7
  6
CONTINUOUS
 10
183.6978012608
 20
353.4510857173
 11
184.1657380399
 21
353.478691306
  0
LINE
  5
437
100
AcDbEntity
  8
0
100
AcDbLine
 62
7
  6
CONTINUOUS
 10
185.0677790269
 20
354.1073733713
 11
185.4421288786
 21
354.1294578676
  0
LINE
  5
438
100
AcDbEntity
  8
0
100
AcDbLine
 62
7
  6
CONTINUOUS
 10
185.5075228893
 20
354.6128714193
 11
185.1331741086
 21
354.5907869862
  0
LINE
  5
439
100
AcDbEntity
  8
0
100
AcDbLine
 62
7
  6
CONTINUOUS
 10
191.6780938049
 20
352.5392789822
 11
191.199672032
 21
352.541632882
  0
LINE
  5
43A
100
AcDbEntity
  8
0
100
AcDbLine
 62
7
  6
CONTINUOUS
 10
186.0746851791
 20
354.5504196086
 11
185.5075228893
 21
354.6128714193
  0
LINE
  5
43B
100
AcDbEntity
  8
0
100
AcDbLine
 62
7
  6
CONTINUOUS
 10
185.4421288786
 20
354.1294578676
 11
185.9157031701
 21
354.0614849013
  0
LINE
  5
43C
100
AcDbEntity
  8
0
100
AcDbLine
 62
7
  6
CONTINUOUS
 10
190.9959573643
 20
353.8559612112
 11
193.6570010313
 21
353.2987754765
  0
LINE
  5
43D
100
AcDbEntity
  8
0
100
AcDbLine
 62
7
  6
CONTINUOUS
 10
193.7551114422
 20
353.7673375219
 11
190.6352680844
 21
354.4205895655
  0
LINE
  5
43E
100
AcDbEntity
  8
FASEN
100
AcDbLine
 62
7
  6
CONTINUOUS
 10
316.8677994871
 20
179.3827536135
 11
299.8677994871
 21
179.3827536135
  0
LINE
  5
43F
100
AcDbEntity
  8
FASEN
100
AcDbLine
 62
7
  6
CONTINUOUS
 10
318.3677994871
 20
180.8827536135
 11
298.3677994871
 21
180.8827536135
  0
LINE
  5
440
100
AcDbEntity
  8
FASEN
100
AcDbLine
 62
7
  6
CONTINUOUS
 10
299.8677994871
 20
179.3827536135
 11
298.3677994871
 21
180.8827536135
  0
LINE
  5
441
100
AcDbEntity
  8
0
100
AcDbLine
 62
7
  6
CONTINUOUS
 10
327.1399213707
 20
212.5848812713
 11
326.6437606045
 21
212.4678600087
  0
LINE
  5
442
100
AcDbEntity
  8
0
100
AcDbLine
 62
7
  6
CONTINUOUS
 10
326.6437606045
 20
211.8827536135
 11
327.2391530696
 21
211.9997748864
  0
LINE
  5
443
100
AcDbEntity
  8
0
100
AcDbLine
 62
7
  6
CONTINUOUS
 10
326.5187606045
 20
211.9073217093
 11
326.9891530696
 21
211.9997748864
  0
LINE
  5
444
100
AcDbEntity
  8
KONSTRUKTIONSELEMENTE
100
AcDbLine
 62
7
  6
CONTINUOUS
 10
280.8677994871
 20
209.3827536135
 11
335.8677994871
 21
209.3827536135
  0
LINE
  5
445
100
AcDbEntity
  8
0
100
AcDbLine
 62
7
  6
CONTINUOUS
 10
285.9575454493
 20
210.3827536135
 11
303.2780535249
 21
210.3827536135
  0
LINE
  5
446
100
AcDbEntity
  8
0
100
AcDbLine
 62
7
  6
CONTINUOUS
 10
289.1329718954
 20
211.3827536135
 11
289.9603222334
 21
211.3827536135
  0
LINE
  5
447
100
AcDbEntity
  8
0
100
AcDbLine
 62
7
  6
CONTINUOUS
 10
291.9475543544
 20
211.3827536135
 11
292.7749048989
 21
211.3827536135
  0
LINE
  5
448
100
AcDbEntity
  8
0
100
AcDbLine
 62
7
  6
CONTINUOUS
 10
293.679605162
 20
211.3827536135
 11
294.5069557065
 21
211.3827536135
  0
LINE
  5
449
100
AcDbEntity
  8
0
100
AcDbLine
 62
7
  6
CONTINUOUS
 10
296.4941881373
 20
211.3827536135
 11
297.1772008392
 21
211.3827536135
  0
LINE
  5
44A
100
AcDbEntity
  8
0
100
AcDbLine
 62
7
  6
CONTINUOUS
 10
299.6696140672
 20
211.3827536135
 11
300.3526267691
 21
211.3827536135
  0
LINE
  5
44B
100
AcDbEntity
  8
0
100
AcDbLine
 62
7
  6
CONTINUOUS
 10
300.7134709626
 20
211.4678599938
 11
300.4634709626
 21
211.4678599938
  0
LINE
  5
44C
100
AcDbEntity
  8
0
100
AcDbLine
 62
7
  6
CONTINUOUS
 10
297.5380442068
 20
211.4678599938
 11
297.2880442068
 21
211.4678599938
  0
LINE
  5
44D
100
AcDbEntity
  8
0
100
AcDbLine
 62
7
  6
CONTINUOUS
 10
290.3211661172
 20
211.4678599938
 11
290.0711661172
 21
211.4678599938
  0
LINE
  5
44E
100
AcDbEntity
  8
0
100
AcDbLine
 62
7
  6
CONTINUOUS
 10
290.609841183
 20
211.6380727618
 11
290.359841183
 21
211.6380727618
  0
LINE
  5
44F
100
AcDbEntity
  8
0
100
AcDbLine
 62
7
  6
CONTINUOUS
 10
301.0743151562
 20
211.7231791346
 11
300.8243151562
 21
211.7231791346
  0
LINE
  5
450
100
AcDbEntity
  8
0
100
AcDbLine
 62
7
  6
CONTINUOUS
 10
297.8988884003
 20
211.7231791346
 11
297.6488884003
 21
211.7231791346
  0
LINE
  5
451
100
AcDbEntity
  8
0
100
AcDbLine
 62
7
  6
CONTINUOUS
 10
300.1026267691
 20
211.8082855372
 11
299.6696140672
 21
211.8082855372
  0
LINE
  5
452
100
AcDbEntity
  8
0
100
AcDbLine
 62
7
  6
CONTINUOUS
 10
296.9272008392
 20
211.8082855372
 11
296.4941881373
 21
211.8082855372
  0
LINE
  5
453
100
AcDbEntity
  8
0
100
AcDbLine
 62
7
  6
CONTINUOUS
 10
314.9343758361
 20
211.8827536135
 11
315.5297683012
 21
211.8827536135
  0
LINE
  5
454
100
AcDbEntity
  8
0
100
AcDbLine
 62
7
  6
CONTINUOUS
 10
316.9190173391
 20
211.8827536135
 11
317.7128739119
 21
211.8827536135
  0
LINE
  5
455
100
AcDbEntity
  8
0
100
AcDbLine
 62
7
  6
CONTINUOUS
 10
319.1021230918
 20
211.8827536135
 11
319.6975155569
 21
211.8827536135
  0
LINE
  5
456
100
AcDbEntity
  8
0
100
AcDbLine
 62
7
  6
CONTINUOUS
 10
320.4913719878
 20
211.8827536135
 11
324.0637267784
 21
211.8827536135
  0
LINE
  5
457
100
AcDbEntity
  8
0
100
AcDbLine
 62
7
  6
CONTINUOUS
 10
299.6309392079
 20
211.8933919101
 11
299.3809392079
 21
211.8933919101
  0
LINE
  5
458
100
AcDbEntity
  8
0
100
AcDbLine
 62
7
  6
CONTINUOUS
 10
296.4555124521
 20
211.8933919101
 11
296.2055124521
 21
211.8933919101
  0
LINE
  5
459
100
AcDbEntity
  8
0
100
AcDbLine
 62
7
  6
CONTINUOUS
 10
289.7103222334
 20
211.8933919101
 11
289.1329718954
 21
211.8933919101
  0
LINE
  5
45A
100
AcDbEntity
  8
0
100
AcDbLine
 62
7
  6
CONTINUOUS
 10
290.8985164552
 20
211.9784982829
 11
290.6485164552
 21
211.9784982829
  0
LINE
  5
45B
100
AcDbEntity
  8
0
100
AcDbLine
 62
7
  6
CONTINUOUS
 10
289.094296778
 20
211.9784982829
 11
288.844296778
 21
211.9784982829
  0
LINE
  5
45C
100
AcDbEntity
  8
0
100
AcDbLine
 62
7
  6
CONTINUOUS
 10
327.2391530696
 20
211.9997748864
 11
326.9891530696
 21
211.9997748864
  0
LINE
  5
45D
100
AcDbEntity
  8
0
100
AcDbLine
 62
7
  6
CONTINUOUS
 10
301.2908215071
 20
212.0636046557
 11
301.0408215071
 21
212.0636046557
  0
LINE
  5
45E
100
AcDbEntity
  8
0
100
AcDbLine
 62
7
  6
CONTINUOUS
 10
299.414432857
 20
212.0636046557
 11
299.164432857
 21
212.0636046557
  0
LINE
  5
45F
100
AcDbEntity
  8
0
100
AcDbLine
 62
7
  6
CONTINUOUS
 10
298.1153947513
 20
212.0636046557
 11
297.8653947513
 21
212.0636046557
  0
LINE
  5
460
100
AcDbEntity
  8
0
100
AcDbLine
 62
7
  6
CONTINUOUS
 10
296.2390061011
 20
212.0636046557
 11
295.9890061011
 21
212.0636046557
  0
LINE
  5
461
100
AcDbEntity
  8
0
100
AcDbLine
 62
7
  6
CONTINUOUS
 10
288.877790427
 20
212.233817461
 11
288.627790427
 21
212.233817461
  0
LINE
  5
462
100
AcDbEntity
  8
0
100
AcDbLine
 62
7
  6
CONTINUOUS
 10
291.0428538849
 20
212.3189238338
 11
290.7928538849
 21
212.3189238338
  0
LINE
  5
463
100
AcDbEntity
  8
0
100
AcDbLine
 62
7
  6
CONTINUOUS
 10
327.7353138358
 20
212.350838705
 11
327.4853138358
 21
212.350838705
  0
LINE
  5
464
100
AcDbEntity
  8
0
100
AcDbLine
 62
7
  6
CONTINUOUS
 10
299.2700950144
 20
212.4040302067
 11
298.5870823125
 21
212.4040302067
  0
LINE
  5
465
100
AcDbEntity
  8
0
100
AcDbLine
 62
7
  6
CONTINUOUS
 10
296.0946690844
 20
212.4040302067
 11
295.4116563825
 21
212.4040302067
  0
LINE
  5
466
100
AcDbEntity
  8
0
100
AcDbLine
 62
7
  6
CONTINUOUS
 10
326.6437606045
 20
212.4678600087
 11
326.3937606045
 21
212.4678600087
  0
LINE
  5
467
100
AcDbEntity
  8
0
100
AcDbLine
 62
7
  6
CONTINUOUS
 10
324.0637267784
 20
212.4678600087
 11
321.0352289864
 21
212.4678600087
  0
LINE
  5
468
100
AcDbEntity
  8
0
100
AcDbLine
 62
7
  6
CONTINUOUS
 10
317.3159456965
 20
212.4678600087
 11
317.0659456965
 21
212.4678600087
  0
LINE
  5
469
100
AcDbEntity
  8
0
100
AcDbLine
 62
7
  6
CONTINUOUS
 10
301.4351585238
 20
212.4891365795
 11
301.1851585238
 21
212.4891365795
  0
LINE
  5
46A
100
AcDbEntity
  8
0
100
AcDbLine
 62
7
  6
CONTINUOUS
 10
298.2597325939
 20
212.4891365795
 11
298.0097325939
 21
212.4891365795
  0
LINE
  5
46B
100
AcDbEntity
  8
0
100
AcDbLine
 62
7
  6
CONTINUOUS
 10
288.8056216606
 20
212.4891365795
 11
288.1226089587
 21
212.4891365795
  0
LINE
  5
46C
100
AcDbEntity
  8
0
100
AcDbLine
 62
7
  6
CONTINUOUS
 10
326.147600974
 20
212.5848812713
 11
325.897600974
 21
212.5848812713
  0
LINE
  5
46D
100
AcDbEntity
  8
0
100
AcDbLine
 62
7
  6
CONTINUOUS
 10
328.0330100683
 20
212.701902534
 11
327.7830100683
 21
212.701902534
  0
LINE
  5
46E
100
AcDbEntity
  8
0
100
AcDbLine
 62
7
  6
CONTINUOUS
 10
291.0428538849
 20
212.744455698
 11
290.7928538849
 21
212.744455698
  0
LINE
  5
46F
100
AcDbEntity
  8
0
100
AcDbLine
 62
7
  6
CONTINUOUS
 10
325.8499047415
 20
212.8189237966
 11
325.5999047415
 21
212.8189237966
  0
LINE
  5
470
100
AcDbEntity
  8
0
100
AcDbLine
 62
7
  6
CONTINUOUS
 10
301.4351585238
 20
212.8295620708
 11
301.1851585238
 21
212.8295620708
  0
LINE
  5
471
100
AcDbEntity
  8
0
100
AcDbLine
 62
7
  6
CONTINUOUS
 10
298.2597325939
 20
212.8295620708
 11
298.0097325939
 21
212.8295620708
  0
LINE
  5
472
100
AcDbEntity
  8
0
100
AcDbLine
 62
7
  6
CONTINUOUS
 10
290.8985164552
 20
213.0848813086
 11
290.6485164552
 21
213.0848813086
  0
LINE
  5
473
100
AcDbEntity
  8
0
100
AcDbLine
 62
7
  6
CONTINUOUS
 10
328.2314746019
 20
213.1699876665
 11
327.9814746019
 21
213.1699876665
  0
LINE
  5
474
100
AcDbEntity
  8
0
100
AcDbLine
 62
7
  6
CONTINUOUS
 10
289.2773095315
 20
213.1699876814
 11
289.7103222334
 21
213.1699876814
  0
LINE
  5
475
100
AcDbEntity
  8
0
100
AcDbLine
 62
7
  6
CONTINUOUS
 10
295.4116563825
 20
213.1699876814
 11
296.1668375928
 21
213.1699876814
  0
LINE
  5
476
100
AcDbEntity
  8
0
100
AcDbLine
 62
7
  6
CONTINUOUS
 10
298.5870823125
 20
213.1699876814
 11
299.3422643486
 21
213.1699876814
  0
LINE
  5
477
100
AcDbEntity
  8
0
100
AcDbLine
 62
7
  6
CONTINUOUS
 10
301.2908215071
 20
213.2550940542
 11
301.0408215071
 21
213.2550940542
  0
LINE
  5
478
100
AcDbEntity
  8
0
100
AcDbLine
 62
7
  6
CONTINUOUS
 10
298.1153947513
 20
213.2550940542
 11
297.8653947513
 21
213.2550940542
  0
LINE
  5
479
100
AcDbEntity
  8
0
100
AcDbLine
 62
7
  6
CONTINUOUS
 10
299.6309392079
 20
213.4253067999
 11
299.3809392079
 21
213.4253067999
  0
LINE
  5
47A
100
AcDbEntity
  8
0
100
AcDbLine
 62
7
  6
CONTINUOUS
 10
296.4555124521
 20
213.4253067999
 11
296.2055124521
 21
213.4253067999
  0
LINE
  5
47B
100
AcDbEntity
  8
0
100
AcDbLine
 62
7
  6
CONTINUOUS
 10
290.609841183
 20
213.4253067999
 11
290.359841183
 21
213.4253067999
  0
LINE
  5
47C
100
AcDbEntity
  8
0
100
AcDbLine
 62
7
  6
CONTINUOUS
 10
296.4941881373
 20
213.5104131727
 11
296.9272008392
 21
213.5104131727
  0
LINE
  5
47D
100
AcDbEntity
  8
0
100
AcDbLine
 62
7
  6
CONTINUOUS
 10
299.6696140672
 20
213.5104131727
 11
300.1026267691
 21
213.5104131727
  0
LINE
  5
47E
100
AcDbEntity
  8
0
100
AcDbLine
 62
7
  6
CONTINUOUS
 10
328.3307063009
 20
213.5210514544
 11
328.0807063009
 21
213.5210514544
  0
LINE
  5
47F
100
AcDbEntity
  8
0
100
AcDbLine
 62
7
  6
CONTINUOUS
 10
325.4529756743
 20
213.5210514544
 11
325.2029756743
 21
213.5210514544
  0
LINE
  5
480
100
AcDbEntity
  8
0
100
AcDbLine
 62
7
  6
CONTINUOUS
 10
288.7721280116
 20
211.4678599938
 11
289.1329718954
 21
211.3827536135
  0
LINE
  5
481
100
AcDbEntity
  8
0
100
AcDbLine
 62
7
  6
CONTINUOUS
 10
296.1333439437
 20
211.4678599938
 11
296.4941881373
 21
211.3827536135
  0
LINE
  5
482
100
AcDbEntity
  8
0
100
AcDbLine
 62
7
  6
CONTINUOUS
 10
290.0711661172
 20
213.5955195456
 11
289.7103222334
 21
213.6806259184
  0
LINE
  5
483
100
AcDbEntity
  8
0
100
AcDbLine
 62
7
  6
CONTINUOUS
 10
299.3087706996
 20
211.4678599938
 11
299.6696140672
 21
211.3827536135
  0
LINE
  5
484
100
AcDbEntity
  8
0
100
AcDbLine
 62
7
  6
CONTINUOUS
 10
290.3211661172
 20
213.5955195456
 11
289.9603222334
 21
213.6806259184
  0
LINE
  5
485
100
AcDbEntity
  8
0
100
AcDbLine
 62
7
  6
CONTINUOUS
 10
289.9989974024
 20
215.2976472406
 11
289.6381534153
 21
215.3827536135
  0
LINE
  5
486
100
AcDbEntity
  8
0
100
AcDbLine
 62
7
  6
CONTINUOUS
 10
290.2489974024
 20
215.2976472406
 11
289.8881534153
 21
215.3827536135
  0
LINE
  5
487
100
AcDbEntity
  8
0
100
AcDbLine
 62
7
  6
CONTINUOUS
 10
297.2880442068
 20
213.8508386641
 11
296.9272008392
 21
213.9359450369
  0
LINE
  5
488
100
AcDbEntity
  8
0
100
AcDbLine
 62
7
  6
CONTINUOUS
 10
297.5380442068
 20
213.8508386641
 11
297.1772008392
 21
213.9359450369
  0
LINE
  5
489
100
AcDbEntity
  8
0
100
AcDbLine
 62
7
  6
CONTINUOUS
 10
300.4634709626
 20
213.8508386641
 11
300.1026267691
 21
213.9359450369
  0
LINE
  5
48A
100
AcDbEntity
  8
0
100
AcDbLine
 62
7
  6
CONTINUOUS
 10
289.1329718954
 20
211.8933919101
 11
288.844296778
 21
211.9784982829
  0
LINE
  5
48B
100
AcDbEntity
  8
0
100
AcDbLine
 62
7
  6
CONTINUOUS
 10
289.3829718954
 20
211.8933919101
 11
289.094296778
 21
211.9784982829
  0
LINE
  5
48C
100
AcDbEntity
  8
0
100
AcDbLine
 62
7
  6
CONTINUOUS
 10
288.9886343625
 20
213.2550940542
 11
289.2773095315
 21
213.1699876814
  0
LINE
  5
48D
100
AcDbEntity
  8
0
100
AcDbLine
 62
7
  6
CONTINUOUS
 10
289.7103222334
 20
213.1699876814
 11
289.9989974024
 21
213.0848813086
  0
LINE
  5
48E
100
AcDbEntity
  8
0
100
AcDbLine
 62
7
  6
CONTINUOUS
 10
296.4941881373
 20
211.8082855372
 11
296.2055124521
 21
211.8933919101
  0
LINE
  5
48F
100
AcDbEntity
  8
0
100
AcDbLine
 62
7
  6
CONTINUOUS
 10
296.7441881373
 20
211.8082855372
 11
296.4555124521
 21
211.8933919101
  0
LINE
  5
490
100
AcDbEntity
  8
0
100
AcDbLine
 62
7
  6
CONTINUOUS
 10
299.6696140672
 20
211.8082855372
 11
299.3809392079
 21
211.8933919101
  0
LINE
  5
491
100
AcDbEntity
  8
0
100
AcDbLine
 62
7
  6
CONTINUOUS
 10
299.9196140672
 20
211.8082855372
 11
299.6309392079
 21
211.8933919101
  0
LINE
  5
492
100
AcDbEntity
  8
0
100
AcDbLine
 62
7
  6
CONTINUOUS
 10
296.9272008392
 20
213.5104131727
 11
297.2158756985
 21
213.4253067999
  0
LINE
  5
493
100
AcDbEntity
  8
0
100
AcDbLine
 62
7
  6
CONTINUOUS
 10
300.1026267691
 20
213.5104131727
 11
300.3913024543
 21
213.4253067999
  0
LINE
  5
494
100
AcDbEntity
  8
0
100
AcDbLine
 62
7
  6
CONTINUOUS
 10
289.2773095315
 20
213.6806259184
 11
289.0608031806
 21
213.7657322912
  0
LINE
  5
495
100
AcDbEntity
  8
0
100
AcDbLine
 62
7
  6
CONTINUOUS
 10
289.5273095315
 20
213.6806259184
 11
289.3108031806
 21
213.7657322912
  0
LINE
  5
496
100
AcDbEntity
  8
0
100
AcDbLine
 62
7
  6
CONTINUOUS
 10
289.7103222334
 20
214.8721153765
 11
289.9268284811
 21
214.7870090036
  0
LINE
  5
497
100
AcDbEntity
  8
0
100
AcDbLine
 62
7
  6
CONTINUOUS
 10
288.6999592451
 20
213.4253067999
 11
288.9886343625
 21
213.2550940542
  0
LINE
  5
498
100
AcDbEntity
  8
0
100
AcDbLine
 62
7
  6
CONTINUOUS
 10
290.359841183
 20
213.4253067999
 11
290.0711661172
 21
213.5955195456
  0
LINE
  5
499
100
AcDbEntity
  8
0
100
AcDbLine
 62
7
  6
CONTINUOUS
 10
290.609841183
 20
213.4253067999
 11
290.3211661172
 21
213.5955195456
  0
LINE
  5
49A
100
AcDbEntity
  8
0
100
AcDbLine
 62
7
  6
CONTINUOUS
 10
288.4112841019
 20
211.7231791346
 11
288.7721280116
 21
211.4678599938
  0
LINE
  5
49B
100
AcDbEntity
  8
0
100
AcDbLine
 62
7
  6
CONTINUOUS
 10
326.147600974
 20
216.6806260376
 11
326.6437606045
 21
216.7976473002
  0
LINE
  5
49C
100
AcDbEntity
  8
0
100
AcDbLine
 62
7
  6
CONTINUOUS
 10
325.897600974
 20
216.6806260376
 11
326.3937606045
 21
216.7976473002
  0
LINE
  5
49D
100
AcDbEntity
  8
0
100
AcDbLine
 62
7
  6
CONTINUOUS
 10
300.3526267691
 20
211.3827536135
 11
300.7134709626
 21
211.4678599938
  0
LINE
  5
49E
100
AcDbEntity
  8
0
100
AcDbLine
 62
7
  6
CONTINUOUS
 10
300.1026267691
 20
211.3827536135
 11
300.4634709626
 21
211.4678599938
  0
LINE
  5
49F
100
AcDbEntity
  8
0
100
AcDbLine
 62
7
  6
CONTINUOUS
 10
321.582925219
 20
216.6806260376
 11
322.0790854173
 21
216.7976473002
  0
LINE
  5
4A0
100
AcDbEntity
  8
0
100
AcDbLine
 62
7
  6
CONTINUOUS
 10
321.332925219
 20
216.6806260376
 11
321.8290854173
 21
216.7976473002
  0
LINE
  5
4A1
100
AcDbEntity
  8
0
100
AcDbLine
 62
7
  6
CONTINUOUS
 10
297.1772008392
 20
211.3827536135
 11
297.5380442068
 21
211.4678599938
  0
LINE
  5
4A2
100
AcDbEntity
  8
0
100
AcDbLine
 62
7
  6
CONTINUOUS
 10
296.9272008392
 20
211.3827536135
 11
297.2880442068
 21
211.4678599938
  0
LINE
  5
4A3
100
AcDbEntity
  8
0
100
AcDbLine
 62
7
  6
CONTINUOUS
 10
289.9603222334
 20
211.3827536135
 11
290.3211661172
 21
211.4678599938
  0
LINE
  5
4A4
100
AcDbEntity
  8
0
100
AcDbLine
 62
7
  6
CONTINUOUS
 10
289.7103222334
 20
211.3827536135
 11
290.0711661172
 21
211.4678599938
  0
LINE
  5
4A5
100
AcDbEntity
  8
0
100
AcDbLine
 62
7
  6
CONTINUOUS
 10
299.6696140672
 20
213.9359450369
 11
299.3087706996
 21
213.8508386641
  0
LINE
  5
4A6
100
AcDbEntity
  8
0
100
AcDbLine
 62
7
  6
CONTINUOUS
 10
296.4941881373
 20
213.9359450369
 11
296.1333439437
 21
213.8508386641
  0
LINE
  5
4A7
100
AcDbEntity
  8
0
100
AcDbLine
 62
7
  6
CONTINUOUS
 10
326.6437606045
 20
217.3827536135
 11
326.0483681394
 21
217.2657323508
  0
LINE
  5
4A8
100
AcDbEntity
  8
0
100
AcDbLine
 62
7
  6
CONTINUOUS
 10
322.1783176841
 20
217.3827536135
 11
321.4836929522
 21
217.2657323508
  0
LINE
  5
4A9
100
AcDbEntity
  8
0
100
AcDbLine
 62
7
  6
CONTINUOUS
 10
301.0743151562
 20
213.5955195456
 11
300.8243151562
 21
213.5955195456
  0
LINE
  5
4AA
100
AcDbEntity
  8
0
100
AcDbLine
 62
7
  6
CONTINUOUS
 10
297.8988884003
 20
213.5955195456
 11
297.6488884003
 21
213.5955195456
  0
LINE
  5
4AB
100
AcDbEntity
  8
0
100
AcDbLine
 62
7
  6
CONTINUOUS
 10
290.3211661172
 20
213.5955195456
 11
290.0711661172
 21
213.5955195456
  0
LINE
  5
4AC
100
AcDbEntity
  8
0
100
AcDbLine
 62
7
  6
CONTINUOUS
 10
289.9603222334
 20
213.6806259184
 11
289.2773095315
 21
213.6806259184
  0
LINE
  5
4AD
100
AcDbEntity
  8
0
100
AcDbLine
 62
7
  6
CONTINUOUS
 10
289.3108031806
 20
213.7657322912
 11
289.0608031806
 21
213.7657322912
  0
LINE
  5
4AE
100
AcDbEntity
  8
0
100
AcDbLine
 62
7
  6
CONTINUOUS
 10
300.7134709626
 20
213.8508386641
 11
300.4634709626
 21
213.8508386641
  0
LINE
  5
4AF
100
AcDbEntity
  8
0
100
AcDbLine
 62
7
  6
CONTINUOUS
 10
297.5380442068
 20
213.8508386641
 11
297.2880442068
 21
213.8508386641
  0
LINE
  5
4B0
100
AcDbEntity
  8
0
100
AcDbLine
 62
7
  6
CONTINUOUS
 10
300.3526267691
 20
213.9359450369
 11
299.6696140672
 21
213.9359450369
  0
LINE
  5
4B1
100
AcDbEntity
  8
0
100
AcDbLine
 62
7
  6
CONTINUOUS
 10
297.1772008392
 20
213.9359450369
 11
296.4941881373
 21
213.9359450369
  0
LINE
  5
4B2
100
AcDbEntity
  8
0
100
AcDbLine
 62
7
  6
CONTINUOUS
 10
289.094296778
 20
213.9359450369
 11
288.844296778
 21
213.9359450369
  0
LINE
  5
4B3
100
AcDbEntity
  8
0
100
AcDbLine
 62
7
  6
CONTINUOUS
 10
328.4299379998
 20
214.1061579316
 11
328.1799379998
 21
214.1061579316
  0
LINE
  5
4B4
100
AcDbEntity
  8
0
100
AcDbLine
 62
7
  6
CONTINUOUS
 10
289.0221280116
 20
214.1912641554
 11
288.7721280116
 21
214.1912641554
  0
LINE
  5
4B5
100
AcDbEntity
  8
0
100
AcDbLine
 62
7
  6
CONTINUOUS
 10
325.3537439754
 20
214.2231791942
 11
325.1037439754
 21
214.2231791942
  0
LINE
  5
4B6
100
AcDbEntity
  8
0
100
AcDbLine
 62
7
  6
CONTINUOUS
 10
289.0221280116
 20
214.3614769011
 11
288.7721280116
 21
214.3614769011
  0
LINE
  5
4B7
100
AcDbEntity
  8
0
100
AcDbLine
 62
7
  6
CONTINUOUS
 10
290.1433348321
 20
214.4465835123
 11
290.8263475339
 21
214.4465835123
  0
LINE
  5
4B8
100
AcDbEntity
  8
0
100
AcDbLine
 62
7
  6
CONTINUOUS
 10
289.094296778
 20
214.616796258
 11
288.844296778
 21
214.616796258
  0
LINE
  5
4B9
100
AcDbEntity
  8
0
100
AcDbLine
 62
7
  6
CONTINUOUS
 10
290.7541788191
 20
214.7019026308
 11
290.5041788191
 21
214.7019026308
  0
LINE
  5
4BA
100
AcDbEntity
  8
0
100
AcDbLine
 62
7
  6
CONTINUOUS
 10
289.3108031806
 20
214.7870090036
 11
289.0608031806
 21
214.7870090036
  0
LINE
  5
4BB
100
AcDbEntity
  8
0
100
AcDbLine
 62
7
  6
CONTINUOUS
 10
289.2773095315
 20
214.8721153765
 11
289.7103222334
 21
214.8721153765
  0
LINE
  5
4BC
100
AcDbEntity
  8
0
100
AcDbLine
 62
7
  6
CONTINUOUS
 10
295.7724997502
 20
214.9572217493
 11
298.1153947513
 21
214.9572217493
  0
LINE
  5
4BD
100
AcDbEntity
  8
0
100
AcDbLine
 62
7
  6
CONTINUOUS
 10
298.947926506
 20
214.9572217493
 11
301.2908215071
 21
214.9572217493
  0
LINE
  5
4BE
100
AcDbEntity
  8
0
100
AcDbLine
 62
7
  6
CONTINUOUS
 10
325.3537439754
 20
215.0423280327
 11
325.1037439754
 21
215.0423280327
  0
LINE
  5
4BF
100
AcDbEntity
  8
0
100
AcDbLine
 62
7
  6
CONTINUOUS
 10
323.7660305458
 20
215.0423280327
 11
323.5160305458
 21
215.0423280327
  0
LINE
  5
4C0
100
AcDbEntity
  8
0
100
AcDbLine
 62
7
  6
CONTINUOUS
 10
290.5376724682
 20
215.0423281221
 11
290.2876724682
 21
215.0423281221
  0
LINE
  5
4C1
100
AcDbEntity
  8
0
100
AcDbLine
 62
7
  6
CONTINUOUS
 10
328.4299379998
 20
215.1593492954
 11
328.1799379998
 21
215.1593492954
  0
LINE
  5
4C2
100
AcDbEntity
  8
0
100
AcDbLine
 62
7
  6
CONTINUOUS
 10
290.2489974024
 20
215.2976472406
 11
289.9989974024
 21
215.2976472406
  0
LINE
  5
4C3
100
AcDbEntity
  8
0
100
AcDbLine
 62
7
  6
CONTINUOUS
 10
301.2908215071
 20
215.3827536135
 11
298.5870823125
 21
215.3827536135
  0
LINE
  5
4C4
100
AcDbEntity
  8
0
100
AcDbLine
 62
7
  6
CONTINUOUS
 10
298.1153947513
 20
215.3827536135
 11
295.4116563825
 21
215.3827536135
  0
LINE
  5
4C5
100
AcDbEntity
  8
0
100
AcDbLine
 62
7
  6
CONTINUOUS
 10
295.084305838
 20
215.3827536135
 11
294.4012931362
 21
215.3827536135
  0
LINE
  5
4C6
100
AcDbEntity
  8
0
100
AcDbLine
 62
7
  6
CONTINUOUS
 10
293.6409303027
 20
215.3827536135
 11
292.8135797582
 21
215.3827536135
  0
LINE
  5
4C7
100
AcDbEntity
  8
0
100
AcDbLine
 62
7
  6
CONTINUOUS
 10
292.0532169248
 20
215.3827536135
 11
291.3702042229
 21
215.3827536135
  0
LINE
  5
4C8
100
AcDbEntity
  8
0
100
AcDbLine
 62
7
  6
CONTINUOUS
 10
289.8881534153
 20
215.3827536135
 11
289.2773095315
 21
215.3827536135
  0
LINE
  5
4C9
100
AcDbEntity
  8
0
100
AcDbLine
 62
7
  6
CONTINUOUS
 10
323.9644950794
 20
215.3933918207
 11
323.7144950794
 21
215.3933918207
  0
LINE
  5
4CA
100
AcDbEntity
  8
0
100
AcDbLine
 62
7
  6
CONTINUOUS
 10
328.3307063009
 20
215.7444556086
 11
328.0807063009
 21
215.7444556086
  0
LINE
  5
4CB
100
AcDbEntity
  8
0
100
AcDbLine
 62
7
  6
CONTINUOUS
 10
325.4529756743
 20
215.7444556086
 11
325.2029756743
 21
215.7444556086
  0
LINE
  5
4CC
100
AcDbEntity
  8
0
100
AcDbLine
 62
7
  6
CONTINUOUS
 10
324.0637267784
 20
215.8614768713
 11
323.8137267784
 21
215.8614768713
  0
LINE
  5
4CD
100
AcDbEntity
  8
0
100
AcDbLine
 62
7
  6
CONTINUOUS
 10
328.2314746019
 20
216.0955197244
 11
327.9814746019
 21
216.0955197244
  0
LINE
  5
4CE
100
AcDbEntity
  8
0
100
AcDbLine
 62
7
  6
CONTINUOUS
 10
324.0637267784
 20
216.0955197244
 11
323.8137267784
 21
216.0955197244
  0
LINE
  5
4CF
100
AcDbEntity
  8
0
100
AcDbLine
 62
7
  6
CONTINUOUS
 10
320.5906042545
 20
216.0955197244
 11
321.0867644529
 21
216.0955197244
  0
LINE
  5
4D0
100
AcDbEntity
  8
0
100
AcDbLine
 62
7
  6
CONTINUOUS
 10
319.1021230918
 20
216.212540987
 11
318.8521230918
 21
216.212540987
  0
LINE
  5
4D1
100
AcDbEntity
  8
0
100
AcDbLine
 62
7
  6
CONTINUOUS
 10
315.5297683012
 20
216.212540987
 11
315.2797683012
 21
216.212540987
  0
LINE
  5
4D2
100
AcDbEntity
  8
0
100
AcDbLine
 62
7
  6
CONTINUOUS
 10
303.2780535249
 20
216.3827536135
 11
285.9575454493
 21
216.3827536135
  0
LINE
  5
4D3
100
AcDbEntity
  8
0
100
AcDbLine
 62
7
  6
CONTINUOUS
 10
325.8499047415
 20
216.4465835123
 11
325.5999047415
 21
216.4465835123
  0
LINE
  5
4D4
100
AcDbEntity
  8
0
100
AcDbLine
 62
7
  6
CONTINUOUS
 10
321.2852289864
 20
216.4465835123
 11
321.0352289864
 21
216.4465835123
  0
LINE
  5
4D5
100
AcDbEntity
  8
0
100
AcDbLine
 62
7
  6
CONTINUOUS
 10
328.0330100683
 20
216.563604775
 11
327.7830100683
 21
216.563604775
  0
LINE
  5
4D6
100
AcDbEntity
  8
0
100
AcDbLine
 62
7
  6
CONTINUOUS
 10
323.9644950794
 20
216.563604775
 11
323.7144950794
 21
216.563604775
  0
LINE
  5
4D7
100
AcDbEntity
  8
0
100
AcDbLine
 62
7
  6
CONTINUOUS
 10
326.147600974
 20
216.6806260376
 11
325.897600974
 21
216.6806260376
  0
LINE
  5
4D8
100
AcDbEntity
  8
0
100
AcDbLine
 62
7
  6
CONTINUOUS
 10
321.582925219
 20
216.6806260376
 11
321.332925219
 21
216.6806260376
  0
LINE
  5
4D9
100
AcDbEntity
  8
0
100
AcDbLine
 62
7
  6
CONTINUOUS
 10
326.6437606045
 20
216.7976473002
 11
326.3937606045
 21
216.7976473002
  0
LINE
  5
4DA
100
AcDbEntity
  8
0
100
AcDbLine
 62
7
  6
CONTINUOUS
 10
321.8290854173
 20
216.7976473002
 11
322.4760139166
 21
216.7976473002
  0
LINE
  5
4DB
100
AcDbEntity
  8
0
100
AcDbLine
 62
7
  6
CONTINUOUS
 10
327.7353138358
 20
216.9146685629
 11
327.4853138358
 21
216.9146685629
  0
LINE
  5
4DC
100
AcDbEntity
  8
0
100
AcDbLine
 62
7
  6
CONTINUOUS
 10
323.5675665801
 20
217.0316898255
 11
323.3175665801
 21
217.0316898255
  0
LINE
  5
4DD
100
AcDbEntity
  8
0
100
AcDbLine
 62
7
  6
CONTINUOUS
 10
327.2391530696
 20
217.2657323508
 11
326.9891530696
 21
217.2657323508
  0
LINE
  5
4DE
100
AcDbEntity
  8
0
100
AcDbLine
 62
7
  6
CONTINUOUS
 10
323.1706380807
 20
217.2657323508
 11
322.9206380807
 21
217.2657323508
  0
LINE
  5
4DF
100
AcDbEntity
  8
0
100
AcDbLine
 62
7
  6
CONTINUOUS
 10
322.5752456156
 20
217.3827536135
 11
322.1783176841
 21
217.3827536135
  0
LINE
  5
4E0
100
AcDbEntity
  8
0
100
AcDbLine
 62
7
  6
CONTINUOUS
 10
319.6975155569
 20
217.3827536135
 11
318.8044268592
 21
217.3827536135
  0
LINE
  5
4E1
100
AcDbEntity
  8
0
100
AcDbLine
 62
7
  6
CONTINUOUS
 10
315.8274645337
 20
217.3827536135
 11
314.9343758361
 21
217.3827536135
  0
LINE
  5
4E2
100
AcDbEntity
  8
0
100
AcDbLine
 62
7
  6
CONTINUOUS
 10
326.0483681394
 20
211.9997748864
 11
326.6437606045
 21
211.8827536135
  0
LINE
  5
4E3
100
AcDbEntity
  8
0
100
AcDbLine
 62
7
  6
CONTINUOUS
 10
300.7134709626
 20
213.8508386641
 11
300.3526267691
 21
213.9359450369
  0
LINE
  5
4E4
100
AcDbEntity
  8
0
100
AcDbLine
 62
7
  6
CONTINUOUS
 10
326.3937606045
 20
212.4678600087
 11
325.897600974
 21
212.5848812713
  0
LINE
  5
4E5
100
AcDbEntity
  8
0
100
AcDbLine
 62
7
  6
CONTINUOUS
 10
326.6437606045
 20
212.4678600087
 11
326.147600974
 21
212.5848812713
  0
LINE
  5
4E6
100
AcDbEntity
  8
0
100
AcDbLine
 62
7
  6
CONTINUOUS
 10
295.7724997502
 20
211.7231791346
 11
296.1333439437
 21
211.4678599938
  0
LINE
  5
4E7
100
AcDbEntity
  8
0
100
AcDbLine
 62
7
  6
CONTINUOUS
 10
298.947926506
 20
211.7231791346
 11
299.3087706996
 21
211.4678599938
  0
LINE
  5
4E8
100
AcDbEntity
  8
0
100
AcDbLine
 62
7
  6
CONTINUOUS
 10
297.6488884003
 20
213.5955195456
 11
297.2880442068
 21
213.8508386641
  0
LINE
  5
4E9
100
AcDbEntity
  8
0
100
AcDbLine
 62
7
  6
CONTINUOUS
 10
297.8988884003
 20
213.5955195456
 11
297.5380442068
 21
213.8508386641
  0
LINE
  5
4EA
100
AcDbEntity
  8
0
100
AcDbLine
 62
7
  6
CONTINUOUS
 10
300.8243151562
 20
213.5955195456
 11
300.4634709626
 21
213.8508386641
  0
LINE
  5
4EB
100
AcDbEntity
  8
0
100
AcDbLine
 62
7
  6
CONTINUOUS
 10
301.0743151562
 20
213.5955195456
 11
300.7134709626
 21
213.8508386641
  0
LINE
  5
4EC
100
AcDbEntity
  8
0
100
AcDbLine
 62
7
  6
CONTINUOUS
 10
289.0608031806
 20
213.7657322912
 11
288.844296778
 21
213.9359450369
  0
LINE
  5
4ED
100
AcDbEntity
  8
0
100
AcDbLine
 62
7
  6
CONTINUOUS
 10
289.9989974024
 20
213.0848813086
 11
290.2155037534
 21
212.9146685629
  0
LINE
  5
4EE
100
AcDbEntity
  8
0
100
AcDbLine
 62
7
  6
CONTINUOUS
 10
289.3108031806
 20
213.7657322912
 11
289.094296778
 21
213.9359450369
  0
LINE
  5
4EF
100
AcDbEntity
  8
0
100
AcDbLine
 62
7
  6
CONTINUOUS
 10
296.2055124521
 20
211.8933919101
 11
295.9890061011
 21
212.0636046557
  0
LINE
  5
4F0
100
AcDbEntity
  8
0
100
AcDbLine
 62
7
  6
CONTINUOUS
 10
296.4555124521
 20
211.8933919101
 11
296.2390061011
 21
212.0636046557
  0
LINE
  5
4F1
100
AcDbEntity
  8
0
100
AcDbLine
 62
7
  6
CONTINUOUS
 10
297.2158756985
 20
213.4253067999
 11
297.4323820494
 21
213.2550940542
  0
LINE
  5
4F2
100
AcDbEntity
  8
0
100
AcDbLine
 62
7
  6
CONTINUOUS
 10
299.3809392079
 20
211.8933919101
 11
299.164432857
 21
212.0636046557
  0
LINE
  5
4F3
100
AcDbEntity
  8
0
100
AcDbLine
 62
7
  6
CONTINUOUS
 10
299.6309392079
 20
211.8933919101
 11
299.414432857
 21
212.0636046557
  0
LINE
  5
4F4
100
AcDbEntity
  8
0
100
AcDbLine
 62
7
  6
CONTINUOUS
 10
290.2876724682
 20
215.0423281221
 11
289.9989974024
 21
215.2976472406
  0
LINE
  5
4F5
100
AcDbEntity
  8
0
100
AcDbLine
 62
7
  6
CONTINUOUS
 10
290.5376724682
 20
215.0423281221
 11
290.2489974024
 21
215.2976472406
  0
LINE
  5
4F6
100
AcDbEntity
  8
0
100
AcDbLine
 62
7
  6
CONTINUOUS
 10
288.844296778
 20
211.9784982829
 11
288.627790427
 21
212.233817461
  0
LINE
  5
4F7
100
AcDbEntity
  8
0
100
AcDbLine
 62
7
  6
CONTINUOUS
 10
289.094296778
 20
211.9784982829
 11
288.877790427
 21
212.233817461
  0
LINE
  5
4F8
100
AcDbEntity
  8
0
100
AcDbLine
 62
7
  6
CONTINUOUS
 10
288.4112841019
 20
213.7657322912
 11
288.6999592451
 21
213.4253067999
  0
LINE
  5
4F9
100
AcDbEntity
  8
0
100
AcDbLine
 62
7
  6
CONTINUOUS
 10
290.6485164552
 20
213.0848813086
 11
290.359841183
 21
213.4253067999
  0
LINE
  5
4FA
100
AcDbEntity
  8
0
100
AcDbLine
 62
7
  6
CONTINUOUS
 10
290.8985164552
 20
213.0848813086
 11
290.609841183
 21
213.4253067999
  0
LINE
  5
4FB
100
AcDbEntity
  8
0
100
AcDbLine
 62
7
  6
CONTINUOUS
 10
317.4511317873
 20
224.1125408455
 11
316.9094671869
 21
223.9742429896
  0
LINE
  5
4FC
100
AcDbEntity
  8
0
100
AcDbLine
 62
7
  6
CONTINUOUS
 10
317.5865494871
 20
223.4210514814
 11
316.9094671869
 21
223.2827536135
  0
LINE
  5
4FD
100
AcDbEntity
  8
KONSTRUKTIONSELEMENTE
100
AcDbLine
 62
7
  6
CONTINUOUS
 10
280.8677994871
 20
220.3827536135
 11
335.8677994871
 21
220.3827536135
  0
LINE
  5
4FE
100
AcDbEntity
  8
0
100
AcDbLine
 62
7
  6
CONTINUOUS
 10
312.169883337
 20
222.4529663815
 11
311.4927994871
 21
222.4529663815
  0
LINE
  5
4FF
100
AcDbEntity
  8
0
100
AcDbLine
 62
7
  6
CONTINUOUS
 10
316.9094671869
 20
223.2827536135
 11
316.0969656372
 21
223.2827536135
  0
LINE
  5
500
100
AcDbEntity
  8
0
100
AcDbLine
 62
7
  6
CONTINUOUS
 10
310.4094656372
 20
223.2827536135
 11
305.5344656372
 21
223.2827536135
  0
LINE
  5
501
100
AcDbEntity
  8
0
100
AcDbLine
 62
7
  6
CONTINUOUS
 10
297.2740494871
 20
223.2827536135
 11
296.4615494871
 21
223.2827536135
  0
LINE
  5
502
100
AcDbEntity
  8
0
100
AcDbLine
 62
7
  6
CONTINUOUS
 10
291.1802994871
 20
223.2827536135
 11
290.3677994871
 21
223.2827536135
  0
LINE
  5
503
100
AcDbEntity
  8
0
100
AcDbLine
 62
7
  6
CONTINUOUS
 10
316.9094671869
 20
223.9742429896
 11
316.0969656372
 21
223.9742429896
  0
LINE
  5
504
100
AcDbEntity
  8
0
100
AcDbLine
 62
7
  6
CONTINUOUS
 10
312.982383337
 20
223.9742429896
 11
312.3052994871
 21
223.9742429896
  0
LINE
  5
505
100
AcDbEntity
  8
0
100
AcDbLine
 62
7
  6
CONTINUOUS
 10
310.4094656372
 20
223.9742429896
 11
306.6177994871
 21
223.9742429896
  0
LINE
  5
506
100
AcDbEntity
  8
0
100
AcDbLine
 62
7
  6
CONTINUOUS
 10
314.8782156372
 20
224.9423280774
 11
314.0657156372
 21
224.9423280774
  0
LINE
  5
507
100
AcDbEntity
  8
0
100
AcDbLine
 62
7
  6
CONTINUOUS
 10
304.451133337
 20
225.6338173567
 11
302.5552994871
 21
225.6338173567
  0
LINE
  5
508
100
AcDbEntity
  8
0
100
AcDbLine
 62
7
  6
CONTINUOUS
 10
322.9206380807
 20
217.2657323508
 11
322.3252456156
 21
217.3827536135
  0
LINE
  5
509
100
AcDbEntity
  8
0
100
AcDbLine
 62
7
  6
CONTINUOUS
 10
323.1706380807
 20
217.2657323508
 11
322.5752456156
 21
217.3827536135
  0
LINE
  5
50A
100
AcDbEntity
  8
0
100
AcDbLine
 62
7
  6
CONTINUOUS
 10
326.9891530696
 20
217.2657323508
 11
326.5187606045
 21
217.3581855198
  0
LINE
  5
50B
100
AcDbEntity
  8
0
100
AcDbLine
 62
7
  6
CONTINUOUS
 10
327.2391530696
 20
217.2657323508
 11
326.6437606045
 21
217.3827536135
  0
LINE
  5
50C
100
AcDbEntity
  8
0
100
AcDbLine
 62
7
  6
CONTINUOUS
 10
316.0969656372
 20
223.2827536135
 11
315.419883337
 21
223.4210514814
  0
LINE
  5
50D
100
AcDbEntity
  8
0
100
AcDbLine
 62
7
  6
CONTINUOUS
 10
322.4760139166
 20
216.7976473002
 11
322.9721741149
 21
216.6806260376
  0
LINE
  5
50E
100
AcDbEntity
  8
0
100
AcDbLine
 62
7
  6
CONTINUOUS
 10
326.6437606045
 20
216.7976473002
 11
327.1399213707
 21
216.6806260376
  0
LINE
  5
50F
100
AcDbEntity
  8
0
100
AcDbLine
 62
7
  6
CONTINUOUS
 10
300.3913024543
 20
213.4253067999
 11
300.6078088052
 21
213.2550940542
  0
LINE
  5
510
100
AcDbEntity
  8
0
100
AcDbLine
 62
7
  6
CONTINUOUS
 10
289.9268284811
 20
214.7870090036
 11
290.0711661172
 21
214.616796258
  0
LINE
  5
511
100
AcDbEntity
  8
0
100
AcDbLine
 62
7
  6
CONTINUOUS
 10
290.5041788191
 20
214.7019026308
 11
290.2876724682
 21
215.0423281221
  0
LINE
  5
512
100
AcDbEntity
  8
0
100
AcDbLine
 62
7
  6
CONTINUOUS
 10
290.7541788191
 20
214.7019026308
 11
290.5376724682
 21
215.0423281221
  0
LINE
  5
513
100
AcDbEntity
  8
0
100
AcDbLine
 62
7
  6
CONTINUOUS
 10
290.2155037534
 20
212.9146685629
 11
290.359841183
 21
212.6593493252
  0
LINE
  5
514
100
AcDbEntity
  8
0
100
AcDbLine
 62
7
  6
CONTINUOUS
 10
288.1947777445
 20
212.1487110882
 11
288.4112841019
 21
211.7231791346
  0
LINE
  5
515
100
AcDbEntity
  8
0
100
AcDbLine
 62
7
  6
CONTINUOUS
 10
316.0969656372
 20
226.7402003973
 11
315.5552994871
 21
226.6019025414
  0
LINE
  5
516
100
AcDbEntity
  8
0
100
AcDbLine
 62
7
  6
CONTINUOUS
 10
316.0969656372
 20
227.4316896765
 11
315.419883337
 21
227.2933918207
  0
LINE
  5
517
100
AcDbEntity
  8
0
100
AcDbLine
 62
7
  6
CONTINUOUS
 10
300.3886325621
 20
226.3253068297
 11
299.7115494871
 21
226.1870089738
  0
LINE
  5
518
100
AcDbEntity
  8
0
100
AcDbLine
 62
7
  6
CONTINUOUS
 10
294.2948829496
 20
226.3253068297
 11
293.6177994871
 21
226.1870089738
  0
LINE
  5
519
100
AcDbEntity
  8
0
100
AcDbLine
 62
7
  6
CONTINUOUS
 10
307.701133337
 20
229.0912643342
 11
307.0240494871
 21
228.9529664784
  0
LINE
  5
51A
100
AcDbEntity
  8
0
100
AcDbLine
 62
7
  6
CONTINUOUS
 10
307.8365494871
 20
229.7827536135
 11
306.888633337
 21
229.6444557576
  0
LINE
  5
51B
100
AcDbEntity
  8
0
100
AcDbLine
 62
7
  6
CONTINUOUS
 10
315.013633337
 20
226.1870089738
 11
314.0657156372
 21
226.1870089738
  0
LINE
  5
51C
100
AcDbEntity
  8
0
100
AcDbLine
 62
7
  6
CONTINUOUS
 10
299.7115494871
 20
226.1870089738
 11
297.2740494871
 21
226.1870089738
  0
LINE
  5
51D
100
AcDbEntity
  8
0
100
AcDbLine
 62
7
  6
CONTINUOUS
 10
293.6177994871
 20
226.1870089738
 11
291.1802994871
 21
226.1870089738
  0
LINE
  5
51E
100
AcDbEntity
  8
0
100
AcDbLine
 62
7
  6
CONTINUOUS
 10
304.451133337
 20
226.3253068297
 11
302.5552994871
 21
226.3253068297
  0
LINE
  5
51F
100
AcDbEntity
  8
0
100
AcDbLine
 62
7
  6
CONTINUOUS
 10
316.9094671869
 20
226.7402003973
 11
316.0969656372
 21
226.7402003973
  0
LINE
  5
520
100
AcDbEntity
  8
0
100
AcDbLine
 62
7
  6
CONTINUOUS
 10
299.8469664121
 20
227.016796109
 11
297.2740494871
 21
227.016796109
  0
LINE
  5
521
100
AcDbEntity
  8
0
100
AcDbLine
 62
7
  6
CONTINUOUS
 10
293.7532160246
 20
227.016796109
 11
291.1802994871
 21
227.016796109
  0
LINE
  5
522
100
AcDbEntity
  8
0
100
AcDbLine
 62
7
  6
CONTINUOUS
 10
323.2740494871
 20
227.1550939648
 11
321.7844671869
 21
227.1550939648
  0
LINE
  5
523
100
AcDbEntity
  8
0
100
AcDbLine
 62
7
  6
CONTINUOUS
 10
321.1073817873
 20
227.1550939648
 11
320.0240494871
 21
227.1550939648
  0
LINE
  5
524
100
AcDbEntity
  8
0
100
AcDbLine
 62
7
  6
CONTINUOUS
 10
316.9094671869
 20
227.4316896765
 11
316.0969656372
 21
227.4316896765
  0
LINE
  5
525
100
AcDbEntity
  8
0
100
AcDbLine
 62
7
  6
CONTINUOUS
 10
323.2740494871
 20
227.7082853882
 11
321.7844671869
 21
227.7082853882
  0
LINE
  5
526
100
AcDbEntity
  8
0
100
AcDbLine
 62
7
  6
CONTINUOUS
 10
321.1073817873
 20
227.7082853882
 11
320.0240494871
 21
227.7082853882
  0
LINE
  5
527
100
AcDbEntity
  8
0
100
AcDbLine
 62
7
  6
CONTINUOUS
 10
306.3469656372
 20
228.2614771991
 11
305.669883337
 21
228.2614771991
  0
LINE
  5
528
100
AcDbEntity
  8
0
100
AcDbLine
 62
7
  6
CONTINUOUS
 10
321.7844671869
 20
228.8146686225
 11
321.1073817873
 21
228.8146686225
  0
LINE
  5
529
100
AcDbEntity
  8
0
100
AcDbLine
 62
7
  6
CONTINUOUS
 10
318.6698817873
 20
229.0912643342
 11
314.7427994871
 21
229.0912643342
  0
LINE
  5
52A
100
AcDbEntity
  8
0
100
AcDbLine
 62
7
  6
CONTINUOUS
 10
308.2427994871
 20
229.0912643342
 11
307.701133337
 21
229.0912643342
  0
LINE
  5
52B
100
AcDbEntity
  8
0
100
AcDbLine
 62
7
  6
CONTINUOUS
 10
299.8469664121
 20
229.0912643342
 11
297.2740494871
 21
229.0912643342
  0
LINE
  5
52C
100
AcDbEntity
  8
0
100
AcDbLine
 62
7
  6
CONTINUOUS
 10
293.7532160246
 20
229.0912643342
 11
291.1802994871
 21
229.0912643342
  0
LINE
  5
52D
100
AcDbEntity
  8
0
100
AcDbLine
 62
7
  6
CONTINUOUS
 10
318.6698817873
 20
229.7827536135
 11
314.0657156372
 21
229.7827536135
  0
LINE
  5
52E
100
AcDbEntity
  8
0
100
AcDbLine
 62
7
  6
CONTINUOUS
 10
308.3782156372
 20
229.7827536135
 11
307.8365494871
 21
229.7827536135
  0
LINE
  5
52F
100
AcDbEntity
  8
0
100
AcDbLine
 62
7
  6
CONTINUOUS
 10
299.7115494871
 20
229.7827536135
 11
296.4615494871
 21
229.7827536135
  0
LINE
  5
530
100
AcDbEntity
  8
0
100
AcDbLine
 62
7
  6
CONTINUOUS
 10
293.6177994871
 20
229.7827536135
 11
290.3677994871
 21
229.7827536135
  0
LINE
  5
531
100
AcDbEntity
  8
0
100
AcDbLine
 62
7
  6
CONTINUOUS
 10
323.0032171869
 20
223.2827536135
 11
322.1907171869
 21
223.4210514814
  0
LINE
  5
532
100
AcDbEntity
  8
0
100
AcDbLine
 62
7
  6
CONTINUOUS
 10
309.1907156372
 20
229.6444557576
 11
308.3782156372
 21
229.7827536135
  0
LINE
  5
533
100
AcDbEntity
  8
0
100
AcDbLine
 62
7
  6
CONTINUOUS
 10
294.2948829496
 20
229.6444557576
 11
293.6177994871
 21
229.7827536135
  0
LINE
  5
534
100
AcDbEntity
  8
0
100
AcDbLine
 62
7
  6
CONTINUOUS
 10
323.0032171869
 20
223.8359450853
 11
322.3261317873
 21
223.9742429896
  0
LINE
  5
535
100
AcDbEntity
  8
0
100
AcDbLine
 62
7
  6
CONTINUOUS
 10
300.3886325621
 20
229.6444557576
 11
299.7115494871
 21
229.7827536135
  0
LINE
  5
536
100
AcDbEntity
  8
0
100
AcDbLine
 62
7
  6
CONTINUOUS
 10
308.919883337
 20
228.9529664784
 11
308.2427994871
 21
229.0912643342
  0
LINE
  5
537
100
AcDbEntity
  8
0
100
AcDbLine
 62
7
  6
CONTINUOUS
 10
317.5865494871
 20
227.2933918207
 11
316.9094671869
 21
227.4316896765
  0
LINE
  5
538
100
AcDbEntity
  8
0
100
AcDbLine
 62
7
  6
CONTINUOUS
 10
316.0969656372
 20
223.9742429896
 11
315.5552994871
 21
224.1125408455
  0
LINE
  5
539
100
AcDbEntity
  8
0
100
AcDbLine
 62
7
  6
CONTINUOUS
 10
317.4511317873
 20
226.6019025414
 11
316.9094671869
 21
226.7402003973
  0
LINE
  5
53A
100
AcDbEntity
  8
0
100
AcDbLine
 62
7
  6
CONTINUOUS
 10
294.1594660246
 20
228.9529664784
 11
293.7532160246
 21
229.0912643342
  0
LINE
  5
53B
100
AcDbEntity
  8
0
100
AcDbLine
 62
7
  6
CONTINUOUS
 10
300.2532164121
 20
228.9529664784
 11
299.8469664121
 21
229.0912643342
  0
LINE
  5
53C
100
AcDbEntity
  8
0
100
AcDbLine
 62
7
  6
CONTINUOUS
 10
322.1907171869
 20
223.4210514814
 11
321.7844671869
 21
223.5593493494
  0
LINE
  5
53D
100
AcDbEntity
  8
0
100
AcDbLine
 62
7
  6
CONTINUOUS
 10
323.3175665801
 20
217.0316898255
 11
322.9206380807
 21
217.2657323508
  0
LINE
  5
53E
100
AcDbEntity
  8
0
100
AcDbLine
 62
7
  6
CONTINUOUS
 10
323.5675665801
 20
217.0316898255
 11
323.1706380807
 21
217.2657323508
  0
LINE
  5
53F
100
AcDbEntity
  8
0
100
AcDbLine
 62
7
  6
CONTINUOUS
 10
294.8365494871
 20
229.2295621901
 11
294.2948829496
 21
229.6444557576
  0
LINE
  5
540
100
AcDbEntity
  8
0
100
AcDbLine
 62
7
  6
CONTINUOUS
 10
294.4302994871
 20
228.6763707666
 11
294.1594660246
 21
228.9529664784
  0
LINE
  5
541
100
AcDbEntity
  8
0
100
AcDbLine
 62
7
  6
CONTINUOUS
 10
295.5559933992
 20
212.0636046557
 11
295.7724997502
 21
211.7231791346
  0
LINE
  5
542
100
AcDbEntity
  8
0
100
AcDbLine
 62
7
  6
CONTINUOUS
 10
297.8653947513
 20
213.2550940542
 11
297.6488884003
 21
213.5955195456
  0
LINE
  5
543
100
AcDbEntity
  8
0
100
AcDbLine
 62
7
  6
CONTINUOUS
 10
298.7314201551
 20
212.0636046557
 11
298.947926506
 21
211.7231791346
  0
LINE
  5
544
100
AcDbEntity
  8
0
100
AcDbLine
 62
7
  6
CONTINUOUS
 10
298.1153947513
 20
213.2550940542
 11
297.8988884003
 21
213.5955195456
  0
LINE
  5
545
100
AcDbEntity
  8
0
100
AcDbLine
 62
7
  6
CONTINUOUS
 10
297.4323820494
 20
213.2550940542
 11
297.576719892
 21
212.9997749357
  0
LINE
  5
546
100
AcDbEntity
  8
0
100
AcDbLine
 62
7
  6
CONTINUOUS
 10
290.7928538849
 20
212.744455698
 11
290.6485164552
 21
213.0848813086
  0
LINE
  5
547
100
AcDbEntity
  8
0
100
AcDbLine
 62
7
  6
CONTINUOUS
 10
290.0711661172
 20
214.616796258
 11
290.1433348321
 21
214.4465835123
  0
LINE
  5
548
100
AcDbEntity
  8
0
100
AcDbLine
 62
7
  6
CONTINUOUS
 10
291.0428538849
 20
212.744455698
 11
290.8985164552
 21
213.0848813086
  0
LINE
  5
549
100
AcDbEntity
  8
0
100
AcDbLine
 62
7
  6
CONTINUOUS
 10
314.3469656372
 20
233.7508387013
 11
313.8052994871
 21
233.6125408455
  0
LINE
  5
54A
100
AcDbEntity
  8
0
100
AcDbLine
 62
7
  6
CONTINUOUS
 10
307.8469664121
 20
233.7508387013
 11
307.3052994871
 21
233.6125408455
  0
LINE
  5
54B
100
AcDbEntity
  8
0
100
AcDbLine
 62
7
  6
CONTINUOUS
 10
314.482383337
 20
232.9210514814
 11
313.8052994871
 21
232.7827536135
  0
LINE
  5
54C
100
AcDbEntity
  8
0
100
AcDbLine
 62
7
  6
CONTINUOUS
 10
307.9823825621
 20
232.9210514814
 11
307.3052994871
 21
232.7827536135
  0
LINE
  5
54D
100
AcDbEntity
  8
0
100
AcDbLine
 62
7
  6
CONTINUOUS
 10
313.8052994871
 20
232.7827536135
 11
310.5552994871
 21
232.7827536135
  0
LINE
  5
54E
100
AcDbEntity
  8
0
100
AcDbLine
 62
7
  6
CONTINUOUS
 10
307.3052994871
 20
232.7827536135
 11
306.7636325621
 21
232.7827536135
  0
LINE
  5
54F
100
AcDbEntity
  8
0
100
AcDbLine
 62
7
  6
CONTINUOUS
 10
303.5136329496
 20
232.7827536135
 11
302.5657160246
 21
232.7827536135
  0
LINE
  5
550
100
AcDbEntity
  8
0
100
AcDbLine
 62
7
  6
CONTINUOUS
 10
299.1802994871
 20
232.7827536135
 11
298.3677994871
 21
232.7827536135
  0
LINE
  5
551
100
AcDbEntity
  8
0
100
AcDbLine
 62
7
  6
CONTINUOUS
 10
313.8052994871
 20
233.6125408455
 11
311.3677994871
 21
233.6125408455
  0
LINE
  5
552
100
AcDbEntity
  8
0
100
AcDbLine
 62
7
  6
CONTINUOUS
 10
307.3052994871
 20
233.6125408455
 11
306.7636325621
 21
233.6125408455
  0
LINE
  5
553
100
AcDbEntity
  8
0
100
AcDbLine
 62
7
  6
CONTINUOUS
 10
301.4823827559
 20
235.6870089738
 11
299.1802994871
 21
235.6870089738
  0
LINE
  5
554
100
AcDbEntity
  8
0
100
AcDbLine
 62
7
  6
CONTINUOUS
 10
301.7532160246
 20
236.516796109
 11
299.1802994871
 21
236.516796109
  0
LINE
  5
555
100
AcDbEntity
  8
0
100
AcDbLine
 62
7
  6
CONTINUOUS
 10
313.8052994871
 20
238.4529664784
 11
311.3677994871
 21
238.4529664784
  0
LINE
  5
556
100
AcDbEntity
  8
0
100
AcDbLine
 62
7
  6
CONTINUOUS
 10
306.7636325621
 20
232.7827536135
 11
306.0865494871
 21
232.9210514814
  0
LINE
  5
557
100
AcDbEntity
  8
0
100
AcDbLine
 62
7
  6
CONTINUOUS
 10
306.7636325621
 20
233.6125408455
 11
306.2219664121
 21
233.7508387013
  0
LINE
  5
558
100
AcDbEntity
  8
0
100
AcDbLine
 62
7
  6
CONTINUOUS
 10
302.1594660246
 20
238.4529664784
 11
301.7532160246
 21
238.5912643342
  0
LINE
  5
559
100
AcDbEntity
  8
0
100
AcDbLine
 62
7
  6
CONTINUOUS
 10
309.732383337
 20
229.3678600459
 11
309.1907156372
 21
229.6444557576
  0
LINE
  5
55A
100
AcDbEntity
  8
0
100
AcDbLine
 62
7
  6
CONTINUOUS
 10
306.0865494871
 20
232.9210514814
 11
305.5448825621
 21
233.1976472295
  0
LINE
  5
55B
100
AcDbEntity
  8
0
100
AcDbLine
 62
7
  6
CONTINUOUS
 10
315.419883337
 20
223.4210514814
 11
314.7427994871
 21
223.8359450853
  0
LINE
  5
55C
100
AcDbEntity
  8
0
100
AcDbLine
 62
7
  6
CONTINUOUS
 10
318.2636317873
 20
226.8784982531
 11
317.5865494871
 21
227.2933918207
  0
LINE
  5
55D
100
AcDbEntity
  8
0
100
AcDbLine
 62
7
  6
CONTINUOUS
 10
315.5552994871
 20
224.1125408455
 11
315.1490494871
 21
224.3891365572
  0
LINE
  5
55E
100
AcDbEntity
  8
0
100
AcDbLine
 62
7
  6
CONTINUOUS
 10
309.326133337
 20
228.6763707666
 11
308.919883337
 21
228.9529664784
  0
LINE
  5
55F
100
AcDbEntity
  8
0
100
AcDbLine
 62
7
  6
CONTINUOUS
 10
325.5522085089
 20
212.350838705
 11
326.0483681394
 21
211.9997748864
  0
LINE
  5
560
100
AcDbEntity
  8
0
100
AcDbLine
 62
7
  6
CONTINUOUS
 10
327.4853138358
 20
216.9146685629
 11
326.9891530696
 21
217.2657323508
  0
LINE
  5
561
100
AcDbEntity
  8
0
100
AcDbLine
 62
7
  6
CONTINUOUS
 10
327.7353138358
 20
216.9146685629
 11
327.2391530696
 21
217.2657323508
  0
LINE
  5
562
100
AcDbEntity
  8
0
100
AcDbLine
 62
7
  6
CONTINUOUS
 10
300.9302994871
 20
229.2295621901
 11
300.3886325621
 21
229.6444557576
  0
LINE
  5
563
100
AcDbEntity
  8
0
100
AcDbLine
 62
7
  6
CONTINUOUS
 10
325.897600974
 20
212.5848812713
 11
325.5999047415
 21
212.8189237966
  0
LINE
  5
564
100
AcDbEntity
  8
0
100
AcDbLine
 62
7
  6
CONTINUOUS
 10
326.147600974
 20
212.5848812713
 11
325.8499047415
 21
212.8189237966
  0
LINE
  5
565
100
AcDbEntity
  8
0
100
AcDbLine
 62
7
  6
CONTINUOUS
 10
322.9721741149
 20
216.6806260376
 11
323.2698703475
 21
216.4465835123
  0
LINE
  5
566
100
AcDbEntity
  8
0
100
AcDbLine
 62
7
  6
CONTINUOUS
 10
300.5240494871
 20
228.6763707666
 11
300.2532164121
 21
228.9529664784
  0
LINE
  5
567
100
AcDbEntity
  8
0
100
AcDbLine
 62
7
  6
CONTINUOUS
 10
295.2427994871
 20
228.6763707666
 11
294.8365494871
 21
229.2295621901
  0
LINE
  5
568
100
AcDbEntity
  8
0
100
AcDbLine
 62
7
  6
CONTINUOUS
 10
301.0408215071
 20
213.2550940542
 11
300.8243151562
 21
213.5955195456
  0
LINE
  5
569
100
AcDbEntity
  8
0
100
AcDbLine
 62
7
  6
CONTINUOUS
 10
301.2908215071
 20
213.2550940542
 11
301.0743151562
 21
213.5955195456
  0
LINE
  5
56A
100
AcDbEntity
  8
0
100
AcDbLine
 62
7
  6
CONTINUOUS
 10
300.6078088052
 20
213.2550940542
 11
300.7521458219
 21
212.9997749357
  0
LINE
  5
56B
100
AcDbEntity
  8
0
100
AcDbLine
 62
7
  6
CONTINUOUS
 10
295.4116563825
 20
212.4040302067
 11
295.5559933992
 21
212.0636046557
  0
LINE
  5
56C
100
AcDbEntity
  8
0
100
AcDbLine
 62
7
  6
CONTINUOUS
 10
295.9890061011
 20
212.0636046557
 11
295.8446690844
 21
212.4040302067
  0
LINE
  5
56D
100
AcDbEntity
  8
0
100
AcDbLine
 62
7
  6
CONTINUOUS
 10
296.2390061011
 20
212.0636046557
 11
296.0946690844
 21
212.4040302067
  0
LINE
  5
56E
100
AcDbEntity
  8
0
100
AcDbLine
 62
7
  6
CONTINUOUS
 10
298.5870823125
 20
212.4040302067
 11
298.7314201551
 21
212.0636046557
  0
LINE
  5
56F
100
AcDbEntity
  8
0
100
AcDbLine
 62
7
  6
CONTINUOUS
 10
299.164432857
 20
212.0636046557
 11
299.0200950144
 21
212.4040302067
  0
LINE
  5
570
100
AcDbEntity
  8
0
100
AcDbLine
 62
7
  6
CONTINUOUS
 10
299.414432857
 20
212.0636046557
 11
299.2700950144
 21
212.4040302067
  0
LINE
  5
571
100
AcDbEntity
  8
0
100
AcDbLine
 62
7
  6
CONTINUOUS
 10
288.627790427
 20
212.233817461
 11
288.5556216606
 21
212.4891365795
  0
LINE
  5
572
100
AcDbEntity
  8
0
100
AcDbLine
 62
7
  6
CONTINUOUS
 10
288.877790427
 20
212.233817461
 11
288.8056216606
 21
212.4891365795
  0
LINE
  5
573
100
AcDbEntity
  8
0
100
AcDbLine
 62
7
  6
CONTINUOUS
 10
288.844296778
 20
213.9359450369
 11
288.7721280116
 21
214.1912641554
  0
LINE
  5
574
100
AcDbEntity
  8
0
100
AcDbLine
 62
7
  6
CONTINUOUS
 10
289.094296778
 20
213.9359450369
 11
289.0221280116
 21
214.1912641554
  0
LINE
  5
575
100
AcDbEntity
  8
0
100
AcDbLine
 62
7
  6
CONTINUOUS
 10
290.5763475339
 20
214.4465835123
 11
290.5041788191
 21
214.7019026308
  0
LINE
  5
576
100
AcDbEntity
  8
0
100
AcDbLine
 62
7
  6
CONTINUOUS
 10
290.8263475339
 20
214.4465835123
 11
290.7541788191
 21
214.7019026308
  0
LINE
  5
577
100
AcDbEntity
  8
0
100
AcDbLine
 62
7
  6
CONTINUOUS
 10
288.1226089587
 20
212.4891365795
 11
288.1947777445
 21
212.1487110882
  0
LINE
  5
578
100
AcDbEntity
  8
0
100
AcDbLine
 62
7
  6
CONTINUOUS
 10
288.3391153097
 20
214.1061577826
 11
288.4112841019
 21
213.7657322912
  0
LINE
  5
579
100
AcDbEntity
  8
KONSTRUKTIONSELEMENTE
100
AcDbLine
 62
7
  6
CONTINUOUS
 10
280.8677994871
 20
209.3827536135
 11
280.8677994871
 21
220.3827536135
  0
LINE
  5
57A
100
AcDbEntity
  8
0
100
AcDbLine
 62
7
  6
CONTINUOUS
 10
281.8677994871
 20
261.9789060362
 11
281.8677994871
 21
220.3827536135
  0
LINE
  5
57B
100
AcDbEntity
  8
KONSTRUKTIONSELEMENTE
100
AcDbLine
 62
7
  6
CONTINUOUS
 10
283.3958344185
 20
209.3827536135
 11
283.3958344185
 21
220.3827536135
  0
LINE
  5
57C
100
AcDbEntity
  8
RUNDUNGEN
100
AcDbLine
 62
7
  6
CONTINUOUS
 10
289.118635518
 20
286.8899347619
 11
286.3034544515
 21
283.5349326121
  0
LINE
  5
57D
100
AcDbEntity
  8
0
100
AcDbLine
 62
7
  6
CONTINUOUS
 10
301.7532160246
 20
238.5912643342
 11
299.1802994871
 21
238.5912643342
  0
LINE
  5
57E
100
AcDbEntity
  8
0
100
AcDbLine
 62
7
  6
CONTINUOUS
 10
313.8052994871
 20
239.2827536135
 11
310.5552994871
 21
239.2827536135
  0
LINE
  5
57F
100
AcDbEntity
  8
0
100
AcDbLine
 62
7
  6
CONTINUOUS
 10
309.4719664121
 20
239.2827536135
 11
308.6594664121
 21
239.2827536135
  0
LINE
  5
580
100
AcDbEntity
  8
0
100
AcDbLine
 62
7
  6
CONTINUOUS
 10
305.4094664121
 20
239.2827536135
 11
304.5969660246
 21
239.2827536135
  0
LINE
  5
581
100
AcDbEntity
  8
0
100
AcDbLine
 62
7
  6
CONTINUOUS
 10
301.6177994871
 20
239.2827536135
 11
298.3677994871
 21
239.2827536135
  0
LINE
  5
582
100
AcDbEntity
  8
0
100
AcDbLine
 62
7
  6
CONTINUOUS
 10
302.2948829496
 20
239.1444557576
 11
301.6177994871
 21
239.2827536135
  0
LINE
  5
583
100
AcDbEntity
  8
0
100
AcDbLine
 62
7
  6
CONTINUOUS
 10
314.482383337
 20
239.1444557576
 11
313.8052994871
 21
239.2827536135
  0
LINE
  5
584
100
AcDbEntity
  8
0
100
AcDbLine
 62
7
  6
CONTINUOUS
 10
314.3469656372
 20
238.3146686225
 11
313.8052994871
 21
238.4529664784
  0
LINE
  5
585
100
AcDbEntity
  8
0
100
AcDbLine
 62
7
  6
CONTINUOUS
 10
306.2219664121
 20
233.7508387013
 11
305.8157164121
 21
234.0274345099
  0
LINE
  5
586
100
AcDbEntity
  8
0
100
AcDbLine
 62
7
  6
CONTINUOUS
 10
321.7844671869
 20
223.5593493494
 11
321.3782171869
 21
223.8359450853
  0
LINE
  5
587
100
AcDbEntity
  8
0
100
AcDbLine
 62
7
  6
CONTINUOUS
 10
317.8573817873
 20
226.3253068297
 11
317.4511317873
 21
226.6019025414
  0
LINE
  5
588
100
AcDbEntity
  8
0
100
AcDbLine
 62
7
  6
CONTINUOUS
 10
322.3261317873
 20
223.9742429896
 11
321.9198817873
 21
224.2508387013
  0
LINE
  5
589
100
AcDbEntity
  8
0
100
AcDbLine
 62
7
  6
CONTINUOUS
 10
302.8365494871
 20
238.7295621901
 11
302.2948829496
 21
239.1444557576
  0
LINE
  5
58A
100
AcDbEntity
  8
0
100
AcDbLine
 62
7
  6
CONTINUOUS
 10
327.1399213707
 20
216.6806260376
 11
327.4376176032
 21
216.4465835123
  0
LINE
  5
58B
100
AcDbEntity
  8
0
100
AcDbLine
 62
7
  6
CONTINUOUS
 10
305.5448825621
 20
233.1976472295
 11
305.0032164121
 21
233.7508387013
  0
LINE
  5
58C
100
AcDbEntity
  8
0
100
AcDbLine
 62
7
  6
CONTINUOUS
 10
310.2740494871
 20
228.8146686225
 11
309.732383337
 21
229.3678600459
  0
LINE
  5
58D
100
AcDbEntity
  8
0
100
AcDbLine
 62
7
  6
CONTINUOUS
 10
302.4302994871
 20
238.1763707666
 11
302.1594660246
 21
238.4529664784
  0
LINE
  5
58E
100
AcDbEntity
  8
0
100
AcDbLine
 62
7
  6
CONTINUOUS
 10
301.3365494871
 20
228.6763707666
 11
300.9302994871
 21
229.2295621901
  0
LINE
  5
58F
100
AcDbEntity
  8
0
100
AcDbLine
 62
7
  6
CONTINUOUS
 10
298.0097325939
 20
212.8295620708
 11
297.8653947513
 21
213.2550940542
  0
LINE
  5
590
100
AcDbEntity
  8
0
100
AcDbLine
 62
7
  6
CONTINUOUS
 10
298.2597325939
 20
212.8295620708
 11
298.1153947513
 21
213.2550940542
  0
LINE
  5
591
100
AcDbEntity
  8
0
100
AcDbLine
 62
7
  6
CONTINUOUS
 10
301.1851585238
 20
212.8295620708
 11
301.0408215071
 21
213.2550940542
  0
LINE
  5
592
100
AcDbEntity
  8
0
100
AcDbLine
 62
7
  6
CONTINUOUS
 10
301.4351585238
 20
212.8295620708
 11
301.2908215071
 21
213.2550940542
  0
LINE
  5
593
100
AcDbEntity
  8
0
100
AcDbLine
 62
7
  6
CONTINUOUS
 10
294.5657160246
 20
228.2614771991
 11
294.4302994871
 21
228.6763707666
  0
LINE
  5
594
100
AcDbEntity
  8
0
100
AcDbLine
 62
7
  6
CONTINUOUS
 10
295.3782160246
 20
228.2614771991
 11
295.2427994871
 21
228.6763707666
  0
LINE
  5
595
100
AcDbEntity
  8
0
100
AcDbLine
 62
7
  6
CONTINUOUS
 10
297.576719892
 20
212.9997749357
 11
297.6488884003
 21
212.744455698
  0
LINE
  5
596
100
AcDbEntity
  8
0
100
AcDbLine
 62
7
  6
CONTINUOUS
 10
293.9682804343
 20
212.3189238338
 11
293.3909303027
 21
215.3827536135
  0
LINE
  5
597
100
AcDbEntity
  8
0
100
AcDbLine
 62
7
  6
CONTINUOUS
 10
294.075423306
 20
213.0770252006
 11
293.6409303027
 21
215.3827536135
  0
LINE
  5
598
100
AcDbEntity
  8
0
100
AcDbLine
 62
7
  6
CONTINUOUS
 10
293.1022550305
 20
214.616796258
 11
293.679605162
 21
211.3827536135
  0
LINE
  5
599
100
AcDbEntity
  8
0
100
AcDbLine
 62
7
  6
CONTINUOUS
 10
291.3702042229
 20
215.3827536135
 11
291.9475543544
 21
211.3827536135
  0
LINE
  5
59A
100
AcDbEntity
  8
RUNDUNGEN
100
AcDbLine
 62
7
  6
CONTINUOUS
 10
285.3677994871
 20
269.7827536135
 11
285.3677994871
 21
280.9639956845
  0
LINE
  5
59B
100
AcDbEntity
  8
0
100
AcDbLine
 62
7
  6
CONTINUOUS
 10
285.9575454493
 20
216.3827536135
 11
285.9575454493
 21
210.3827536135
  0
LINE
  5
59C
100
AcDbEntity
  8
0
100
AcDbLine
 62
7
  6
CONTINUOUS
 10
286.2075454493
 20
216.3827536135
 11
286.2075454493
 21
210.3827536135
  0
LINE
  5
59D
100
AcDbEntity
  8
0
100
AcDbLine
 62
7
  6
CONTINUOUS
 10
288.3391153097
 20
214.4465835123
 11
288.3391153097
 21
214.1061577826
  0
LINE
  5
59E
100
AcDbEntity
  8
0
100
AcDbLine
 62
7
  6
CONTINUOUS
 10
288.7721280116
 20
214.1912641554
 11
288.7721280116
 21
214.3614769011
  0
LINE
  5
59F
100
AcDbEntity
  8
0
100
AcDbLine
 62
7
  6
CONTINUOUS
 10
289.0221280116
 20
214.1912641554
 11
289.0221280116
 21
214.3614769011
  0
LINE
  5
5A0
100
AcDbEntity
  8
0
100
AcDbLine
 62
7
  6
CONTINUOUS
 10
290.359841183
 20
212.6593493252
 11
290.359841183
 21
212.4040302067
  0
LINE
  5
5A1
100
AcDbEntity
  8
0
100
AcDbLine
 62
7
  6
CONTINUOUS
 10
290.3677994871
 20
229.7827536135
 11
290.3677994871
 21
223.2827536135
  0
LINE
  5
5A2
100
AcDbEntity
  8
RUNDUNGEN
100
AcDbLine
 62
7
  6
CONTINUOUS
 10
282.2697232757
 20
263.4789060362
 11
284.8988884003
 21
268.0327536135
  0
LINE
  5
5A3
100
AcDbEntity
  8
RUNDUNGEN
100
AcDbLine
 62
7
  6
CONTINUOUS
 10
324.7920650773
 20
247.2827536135
 11
291.9435319808
 21
247.2827536135
  0
LINE
  5
5A4
100
AcDbEntity
  8
0
100
AcDbLine
 62
7
  6
CONTINUOUS
 10
315.0240494871
 20
238.8678600459
 11
314.482383337
 21
239.1444557576
  0
LINE
  5
5A5
100
AcDbEntity
  8
0
100
AcDbLine
 62
7
  6
CONTINUOUS
 10
314.7532156372
 20
238.0380729108
 11
314.3469656372
 21
238.3146686225
  0
LINE
  5
5A6
100
AcDbEntity
  8
0
100
AcDbLine
 62
7
  6
CONTINUOUS
 10
325.2545122764
 20
212.701902534
 11
325.5522085089
 21
212.350838705
  0
LINE
  5
5A7
100
AcDbEntity
  8
0
100
AcDbLine
 62
7
  6
CONTINUOUS
 10
323.7144950794
 20
216.563604775
 11
323.3175665801
 21
217.0316898255
  0
LINE
  5
5A8
100
AcDbEntity
  8
0
100
AcDbLine
 62
7
  6
CONTINUOUS
 10
323.9644950794
 20
216.563604775
 11
323.5675665801
 21
217.0316898255
  0
LINE
  5
5A9
100
AcDbEntity
  8
0
100
AcDbLine
 62
7
  6
CONTINUOUS
 10
327.7830100683
 20
216.563604775
 11
327.4853138358
 21
216.9146685629
  0
LINE
  5
5AA
100
AcDbEntity
  8
0
100
AcDbLine
 62
7
  6
CONTINUOUS
 10
328.0330100683
 20
216.563604775
 11
327.7353138358
 21
216.9146685629
  0
LINE
  5
5AB
100
AcDbEntity
  8
0
100
AcDbLine
 62
7
  6
CONTINUOUS
 10
303.2427994871
 20
238.1763707666
 11
302.8365494871
 21
238.7295621901
  0
LINE
  5
5AC
100
AcDbEntity
  8
0
100
AcDbLine
 62
7
  6
CONTINUOUS
 10
314.7427994871
 20
223.8359450853
 11
314.3365494871
 21
224.3891365572
  0
LINE
  5
5AD
100
AcDbEntity
  8
0
100
AcDbLine
 62
7
  6
CONTINUOUS
 10
305.8157164121
 20
234.0274345099
 11
305.5448825621
 21
234.4423280774
  0
LINE
  5
5AE
100
AcDbEntity
  8
0
100
AcDbLine
 62
7
  6
CONTINUOUS
 10
309.5969656372
 20
228.2614771991
 11
309.326133337
 21
228.6763707666
  0
LINE
  5
5AF
100
AcDbEntity
  8
0
100
AcDbLine
 62
7
  6
CONTINUOUS
 10
305.0032164121
 20
233.7508387013
 11
304.7323829496
 21
234.3040302216
  0
LINE
  5
5B0
100
AcDbEntity
  8
0
100
AcDbLine
 62
7
  6
CONTINUOUS
 10
302.5657160246
 20
232.7827536135
 11
301.4823827559
 21
235.6870089738
  0
LINE
  5
5B1
100
AcDbEntity
  8
0
100
AcDbLine
 62
7
  6
CONTINUOUS
 10
300.6594664121
 20
228.2614771991
 11
300.5240494871
 21
228.6763707666
  0
LINE
  5
5B2
100
AcDbEntity
  8
0
100
AcDbLine
 62
7
  6
CONTINUOUS
 10
301.4719664121
 20
228.2614771991
 11
301.3365494871
 21
228.6763707666
  0
LINE
  5
5B3
100
AcDbEntity
  8
0
100
AcDbLine
 62
7
  6
CONTINUOUS
 10
300.7521458219
 20
212.9997749357
 11
300.8243151562
 21
212.744455698
  0
LINE
  5
5B4
100
AcDbEntity
  8
0
100
AcDbLine
 62
7
  6
CONTINUOUS
 10
292.2362296267
 20
212.3189238338
 11
291.8032169248
 21
215.3827536135
  0
LINE
  5
5B5
100
AcDbEntity
  8
0
100
AcDbLine
 62
7
  6
CONTINUOUS
 10
292.3790867549
 20
213.0770252006
 11
292.0532169248
 21
215.3827536135
  0
LINE
  5
5B6
100
AcDbEntity
  8
0
100
AcDbLine
 62
7
  6
CONTINUOUS
 10
290.7928538849
 20
212.3189238338
 11
290.7928538849
 21
212.744455698
  0
LINE
  5
5B7
100
AcDbEntity
  8
0
100
AcDbLine
 62
7
  6
CONTINUOUS
 10
291.0428538849
 20
212.3189238338
 11
291.0428538849
 21
212.744455698
  0
LINE
  5
5B8
100
AcDbEntity
  8
0
100
AcDbLine
 62
7
  6
CONTINUOUS
 10
291.1802994871
 20
229.0912643342
 11
291.1802994871
 21
227.016796109
  0
LINE
  5
5B9
100
AcDbEntity
  8
0
100
AcDbLine
 62
7
  6
CONTINUOUS
 10
291.1802994871
 20
226.1870089738
 11
291.1802994871
 21
223.2827536135
  0
LINE
  5
5BA
100
AcDbEntity
  8
0
100
AcDbLine
 62
7
  6
CONTINUOUS
 10
294.5657160246
 20
228.2614771991
 11
294.5657160246
 21
227.8465832441
  0
LINE
  5
5BB
100
AcDbEntity
  8
0
100
AcDbLine
 62
7
  6
CONTINUOUS
 10
295.3782160246
 20
228.2614771991
 11
295.3782160246
 21
227.7082853882
  0
LINE
  5
5BC
100
AcDbEntity
  8
0
100
AcDbLine
 62
7
  6
CONTINUOUS
 10
295.4116563825
 20
215.3827536135
 11
295.4116563825
 21
213.1699876814
  0
LINE
  5
5BD
100
AcDbEntity
  8
0
100
AcDbLine
 62
7
  6
CONTINUOUS
 10
295.7724997502
 20
213.5955195456
 11
295.7724997502
 21
214.9572217493
  0
LINE
  5
5BE
100
AcDbEntity
  8
0
100
AcDbLine
 62
7
  6
CONTINUOUS
 10
296.0224997502
 20
213.7724096848
 11
296.0224997502
 21
214.9572217493
  0
LINE
  5
5BF
100
AcDbEntity
  8
0
100
AcDbLine
 62
7
  6
CONTINUOUS
 10
296.4615494871
 20
229.7827536135
 11
296.4615494871
 21
223.2827536135
  0
LINE
  5
5C0
100
AcDbEntity
  8
0
100
AcDbLine
 62
7
  6
CONTINUOUS
 10
315.5657156372
 20
238.3146686225
 11
315.0240494871
 21
238.8678600459
  0
LINE
  5
5C1
100
AcDbEntity
  8
0
100
AcDbLine
 62
7
  6
CONTINUOUS
 10
318.6698817873
 20
226.3253068297
 11
318.2636317873
 21
226.8784982531
  0
LINE
  5
5C2
100
AcDbEntity
  8
0
100
AcDbLine
 62
7
  6
CONTINUOUS
 10
318.1282171869
 20
225.9104132621
 11
317.8573817873
 21
226.3253068297
  0
LINE
  5
5C3
100
AcDbEntity
  8
0
100
AcDbLine
 62
7
  6
CONTINUOUS
 10
323.2698703475
 20
216.4465835123
 11
323.4683343133
 21
216.0955197244
  0
LINE
  5
5C4
100
AcDbEntity
  8
0
100
AcDbLine
 62
7
  6
CONTINUOUS
 10
325.5999047415
 20
212.8189237966
 11
325.2029756743
 21
213.5210514544
  0
LINE
  5
5C5
100
AcDbEntity
  8
0
100
AcDbLine
 62
7
  6
CONTINUOUS
 10
325.8499047415
 20
212.8189237966
 11
325.4529756743
 21
213.5210514544
  0
LINE
  5
5C6
100
AcDbEntity
  8
0
100
AcDbLine
 62
7
  6
CONTINUOUS
 10
314.3365494871
 20
224.3891365572
 11
314.0657156372
 21
224.9423280774
  0
LINE
  5
5C7
100
AcDbEntity
  8
0
100
AcDbLine
 62
7
  6
CONTINUOUS
 10
315.1490494871
 20
224.3891365572
 11
314.8782156372
 21
224.9423280774
  0
LINE
  5
5C8
100
AcDbEntity
  8
0
100
AcDbLine
 62
7
  6
CONTINUOUS
 10
303.5136329496
 20
232.7827536135
 11
302.2948829496
 21
235.9636046855
  0
LINE
  5
5C9
100
AcDbEntity
  8
0
100
AcDbLine
 62
7
  6
CONTINUOUS
 10
302.5657160246
 20
237.7614771991
 11
302.4302994871
 21
238.1763707666
  0
LINE
  5
5CA
100
AcDbEntity
  8
0
100
AcDbLine
 62
7
  6
CONTINUOUS
 10
303.3782160246
 20
237.7614771991
 11
303.2427994871
 21
238.1763707666
  0
LINE
  5
5CB
100
AcDbEntity
  8
0
100
AcDbLine
 62
7
  6
CONTINUOUS
 10
297.2740494871
 20
229.0912643342
 11
297.2740494871
 21
227.016796109
  0
LINE
  5
5CC
100
AcDbEntity
  8
0
100
AcDbLine
 62
7
  6
CONTINUOUS
 10
297.2740494871
 20
226.1870089738
 11
297.2740494871
 21
223.2827536135
  0
LINE
  5
5CD
100
AcDbEntity
  8
0
100
AcDbLine
 62
7
  6
CONTINUOUS
 10
297.6488884003
 20
212.744455698
 11
297.6488884003
 21
212.5742429523
  0
LINE
  5
5CE
100
AcDbEntity
  8
0
100
AcDbLine
 62
7
  6
CONTINUOUS
 10
297.8653947513
 20
214.9572217493
 11
297.8653947513
 21
215.3827536135
  0
LINE
  5
5CF
100
AcDbEntity
  8
0
100
AcDbLine
 62
7
  6
CONTINUOUS
 10
298.0097325939
 20
212.4891365795
 11
298.0097325939
 21
212.8295620708
  0
LINE
  5
5D0
100
AcDbEntity
  8
0
100
AcDbLine
 62
7
  6
CONTINUOUS
 10
298.1153947513
 20
214.9572217493
 11
298.1153947513
 21
215.3827536135
  0
LINE
  5
5D1
100
AcDbEntity
  8
0
100
AcDbLine
 62
7
  6
CONTINUOUS
 10
298.2597325939
 20
212.4891365795
 11
298.2597325939
 21
212.8295620708
  0
LINE
  5
5D2
100
AcDbEntity
  8
0
100
AcDbLine
 62
7
  6
CONTINUOUS
 10
298.3677994871
 20
239.2827536135
 11
298.3677994871
 21
232.7827536135
  0
LINE
  5
5D3
100
AcDbEntity
  8
0
100
AcDbLine
 62
7
  6
CONTINUOUS
 10
298.3677994871
 20
209.3827536135
 11
298.3677994871
 21
180.8827536135
  0
LINE
  5
5D4
100
AcDbEntity
  8
0
100
AcDbLine
 62
7
  6
CONTINUOUS
 10
298.5870823125
 20
215.3827536135
 11
298.5870823125
 21
213.1699876814
  0
LINE
  5
5D5
100
AcDbEntity
  8
0
100
AcDbLine
 62
7
  6
CONTINUOUS
 10
298.947926506
 20
213.5955195456
 11
298.947926506
 21
214.9572217493
  0
LINE
  5
5D6
100
AcDbEntity
  8
0
100
AcDbLine
 62
7
  6
CONTINUOUS
 10
299.1802994871
 20
238.5912643342
 11
299.1802994871
 21
236.516796109
  0
LINE
  5
5D7
100
AcDbEntity
  8
0
100
AcDbLine
 62
7
  6
CONTINUOUS
 10
299.1802994871
 20
235.6870089738
 11
299.1802994871
 21
232.7827536135
  0
LINE
  5
5D8
100
AcDbEntity
  8
0
100
AcDbLine
 62
7
  6
CONTINUOUS
 10
299.197926506
 20
213.7724096848
 11
299.197926506
 21
214.9572217493
  0
LINE
  5
5D9
100
AcDbEntity
  8
0
100
AcDbLine
 62
7
  6
CONTINUOUS
 10
300.6594664121
 20
228.2614771991
 11
300.6594664121
 21
227.8465832441
  0
LINE
  5
5DA
100
AcDbEntity
  8
0
100
AcDbLine
 62
7
  6
CONTINUOUS
 10
300.8243151562
 20
212.744455698
 11
300.8243151562
 21
212.5742429523
  0
LINE
  5
5DB
100
AcDbEntity
  8
0
100
AcDbLine
 62
7
  6
CONTINUOUS
 10
301.0408215071
 20
214.9572217493
 11
301.0408215071
 21
215.3827536135
  0
LINE
  5
5DC
100
AcDbEntity
  8
0
100
AcDbLine
 62
7
  6
CONTINUOUS
 10
301.1851585238
 20
212.4891365795
 11
301.1851585238
 21
212.8295620708
  0
LINE
  5
5DD
100
AcDbEntity
  8
0
100
AcDbLine
 62
7
  6
CONTINUOUS
 10
301.2908215071
 20
214.9572217493
 11
301.2908215071
 21
215.3827536135
  0
LINE
  5
5DE
100
AcDbEntity
  8
0
100
AcDbLine
 62
7
  6
CONTINUOUS
 10
301.4351585238
 20
212.4891365795
 11
301.4351585238
 21
212.8295620708
  0
LINE
  5
5DF
100
AcDbEntity
  8
0
100
AcDbLine
 62
7
  6
CONTINUOUS
 10
301.4719664121
 20
228.2614771991
 11
301.4719664121
 21
227.7082853882
  0
LINE
  5
5E0
100
AcDbEntity
  8
KONSTRUKTIONSELEMENTE
100
AcDbLine
 62
7
  6
CONTINUOUS
 10
301.8677994871
 20
351.8827536135
 11
301.8677994871
 21
332.1997431396
  0
LINE
  5
5E1
100
AcDbEntity
  8
KONSTRUKTIONSELEMENTE
100
AcDbLine
 62
7
  6
CONTINUOUS
 10
301.8677994871
 20
283.5662751575
 11
301.8677994871
 21
263.8827536135
  0
LINE
  5
5E2
100
AcDbEntity
  8
0
100
AcDbLine
 62
7
  6
CONTINUOUS
 10
302.5552994871
 20
226.3253068297
 11
302.5552994871
 21
225.6338173567
  0
LINE
  5
5E3
100
AcDbEntity
  8
0
100
AcDbLine
 62
7
  6
CONTINUOUS
 10
302.5657160246
 20
237.7614771991
 11
302.5657160246
 21
237.3465832441
  0
LINE
  5
5E4
100
AcDbEntity
  8
0
100
AcDbLine
 62
7
  6
CONTINUOUS
 10
294.4012931362
 20
215.3827536135
 11
293.9682804343
 21
212.3189238338
  0
LINE
  5
5E5
100
AcDbEntity
  8
0
100
AcDbLine
 62
7
  6
CONTINUOUS
 10
294.2569557065
 20
211.3827536135
 11
294.834305838
 21
215.3827536135
  0
LINE
  5
5E6
100
AcDbEntity
  8
0
100
AcDbLine
 62
7
  6
CONTINUOUS
 10
294.5069557065
 20
211.3827536135
 11
295.084305838
 21
215.3827536135
  0
LINE
  5
5E7
100
AcDbEntity
  8
0
100
AcDbLine
 62
7
  6
CONTINUOUS
 10
292.5249048989
 20
211.3827536135
 11
293.1022550305
 21
214.616796258
  0
LINE
  5
5E8
100
AcDbEntity
  8
0
100
AcDbLine
 62
7
  6
CONTINUOUS
 10
288.4112841019
 20
214.7870090036
 11
288.3391153097
 21
214.4465835123
  0
LINE
  5
5E9
100
AcDbEntity
  8
KONSTRUKTIONSELEMENTE
100
AcDbLine
 62
7
  6
CONTINUOUS
 10
314.8678941276
 20
332.2132338356
 11
312.3677994871
 21
322.8827536135
  0
LINE
  5
5EA
100
AcDbEntity
  8
KONSTRUKTIONSELEMENTE
100
AcDbLine
 62
7
  6
CONTINUOUS
 10
301.8677051587
 20
283.552274556
 11
304.3677994871
 21
292.8827536135
  0
LINE
  5
5EB
100
AcDbEntity
  8
0
100
AcDbLine
 62
7
  6
CONTINUOUS
 10
315.0240494871
 20
237.6231789558
 11
314.7532156372
 21
238.0380729108
  0
LINE
  5
5EC
100
AcDbEntity
  8
0
100
AcDbLine
 62
7
  6
CONTINUOUS
 10
327.4376176032
 20
216.4465835123
 11
327.8345455347
 21
215.7444556086
  0
LINE
  5
5ED
100
AcDbEntity
  8
0
100
AcDbLine
 62
7
  6
CONTINUOUS
 10
321.3782171869
 20
223.8359450853
 11
321.1073817873
 21
224.3891365572
  0
LINE
  5
5EE
100
AcDbEntity
  8
0
100
AcDbLine
 62
7
  6
CONTINUOUS
 10
315.8365494871
 20
237.7614771991
 11
315.5657156372
 21
238.3146686225
  0
LINE
  5
5EF
100
AcDbEntity
  8
0
100
AcDbLine
 62
7
  6
CONTINUOUS
 10
325.0560477428
 20
213.1699876665
 11
325.2545122764
 21
212.701902534
  0
LINE
  5
5F0
100
AcDbEntity
  8
0
100
AcDbLine
 62
7
  6
CONTINUOUS
 10
318.9407171869
 20
225.6338173567
 11
318.6698817873
 21
226.3253068297
  0
LINE
  5
5F1
100
AcDbEntity
  8
0
100
AcDbLine
 62
7
  6
CONTINUOUS
 10
315.5297683012
 20
216.212540987
 11
316.9190173391
 21
211.8827536135
  0
LINE
  5
5F2
100
AcDbEntity
  8
0
100
AcDbLine
 62
7
  6
CONTINUOUS
 10
317.0659456965
 20
212.4678600087
 11
315.5774645337
 21
217.3827536135
  0
LINE
  5
5F3
100
AcDbEntity
  8
0
100
AcDbLine
 62
7
  6
CONTINUOUS
 10
317.3159456965
 20
212.4678600087
 11
315.8274645337
 21
217.3827536135
  0
LINE
  5
5F4
100
AcDbEntity
  8
0
100
AcDbLine
 62
7
  6
CONTINUOUS
 10
305.5448825621
 20
234.4423280774
 11
305.4094664121
 21
234.9955195009
  0
LINE
  5
5F5
100
AcDbEntity
  8
0
100
AcDbLine
 62
7
  6
CONTINUOUS
 10
310.4094656372
 20
228.2614771991
 11
310.2740494871
 21
228.8146686225
  0
LINE
  5
5F6
100
AcDbEntity
  8
0
100
AcDbLine
 62
7
  6
CONTINUOUS
 10
304.7323829496
 20
234.3040302216
 11
304.5969660246
 21
234.9955195009
  0
LINE
  5
5F7
100
AcDbEntity
  8
0
100
AcDbLine
 62
7
  6
CONTINUOUS
 10
303.2780535249
 20
210.3827536135
 11
303.2780535249
 21
216.3827536135
  0
LINE
  5
5F8
100
AcDbEntity
  8
0
100
AcDbLine
 62
7
  6
CONTINUOUS
 10
303.3782160246
 20
237.7614771991
 11
303.3782160246
 21
237.2082853882
  0
LINE
  5
5F9
100
AcDbEntity
  8
KONSTRUKTIONSELEMENTE
100
AcDbLine
 62
7
  6
CONTINUOUS
 10
304.3677994871
 20
322.8827536135
 11
304.3677994871
 21
292.8827536135
  0
LINE
  5
5FA
100
AcDbEntity
  8
0
100
AcDbLine
 62
7
  6
CONTINUOUS
 10
304.451133337
 20
226.3253068297
 11
304.451133337
 21
225.6338173567
  0
LINE
  5
5FB
100
AcDbEntity
  8
0
100
AcDbLine
 62
7
  6
CONTINUOUS
 10
304.5969660246
 20
239.2827536135
 11
304.5969660246
 21
234.9955195009
  0
LINE
  5
5FC
100
AcDbEntity
  8
0
100
AcDbLine
 62
7
  6
CONTINUOUS
 10
305.4094664121
 20
239.2827536135
 11
305.4094664121
 21
234.9955195009
  0
LINE
  5
5FD
100
AcDbEntity
  8
0
100
AcDbLine
 62
7
  6
CONTINUOUS
 10
305.5344656372
 20
223.9742429896
 11
305.5344656372
 21
223.2827536135
  0
LINE
  5
5FE
100
AcDbEntity
  8
KONSTRUKTIONSELEMENTE
100
AcDbLine
 62
7
  6
CONTINUOUS
 10
305.8397645557
 20
209.3827536135
 11
305.8397645557
 21
220.3827536135
  0
LINE
  5
5FF
100
AcDbEntity
  8
0
100
AcDbLine
 62
7
  6
CONTINUOUS
 10
308.6594664121
 20
239.2827536135
 11
308.6594664121
 21
234.9955195009
  0
LINE
  5
600
100
AcDbEntity
  8
0
100
AcDbLine
 62
7
  6
CONTINUOUS
 10
292.7749048989
 20
211.3827536135
 11
293.2272550305
 21
213.9166053193
  0
LINE
  5
601
100
AcDbEntity
  8
0
100
AcDbLine
 62
7
  6
CONTINUOUS
 10
292.8135797582
 20
215.3827536135
 11
292.2362296267
 21
212.3189238338
  0
LINE
  5
602
100
AcDbEntity
  8
0
100
AcDbLine
 62
7
  6
CONTINUOUS
 10
288.7721280116
 20
214.3614769011
 11
288.844296778
 21
214.616796258
  0
LINE
  5
603
100
AcDbEntity
  8
0
100
AcDbLine
 62
7
  6
CONTINUOUS
 10
289.0221280116
 20
214.3614769011
 11
289.094296778
 21
214.616796258
  0
LINE
  5
604
100
AcDbEntity
  8
0
100
AcDbLine
 62
7
  6
CONTINUOUS
 10
294.5657160246
 20
227.8465832441
 11
294.4302994871
 21
227.4316896765
  0
LINE
  5
605
100
AcDbEntity
  8
0
100
AcDbLine
 62
7
  6
CONTINUOUS
 10
295.3782160246
 20
227.7082853882
 11
295.2427994871
 21
227.2933918207
  0
LINE
  5
606
100
AcDbEntity
  8
RUNDUNGEN
100
AcDbLine
 62
7
  6
CONTINUOUS
 10
301.8677994871
 20
267.0085377657
 11
300.9363512323
 21
265.9740596771
  0
LINE
  5
607
100
AcDbEntity
  8
0
100
AcDbLine
 62
7
  6
CONTINUOUS
 10
327.9814746019
 20
216.0955197244
 11
327.7830100683
 21
216.563604775
  0
LINE
  5
608
100
AcDbEntity
  8
0
100
AcDbLine
 62
7
  6
CONTINUOUS
 10
328.2314746019
 20
216.0955197244
 11
328.0330100683
 21
216.563604775
  0
LINE
  5
609
100
AcDbEntity
  8
0
100
AcDbLine
 62
7
  6
CONTINUOUS
 10
318.2636317873
 20
225.4955195009
 11
318.1282171869
 21
225.9104132621
  0
LINE
  5
60A
100
AcDbEntity
  8
0
100
AcDbLine
 62
7
  6
CONTINUOUS
 10
321.9198817873
 20
224.2508387013
 11
321.7844671869
 21
224.6657323657
  0
LINE
  5
60B
100
AcDbEntity
  8
0
100
AcDbLine
 62
7
  6
CONTINUOUS
 10
315.1594656372
 20
237.0699875324
 11
315.0240494871
 21
237.6231789558
  0
LINE
  5
60C
100
AcDbEntity
  8
0
100
AcDbLine
 62
7
  6
CONTINUOUS
 10
309.4719664121
 20
239.2827536135
 11
309.4719664121
 21
234.9955195009
  0
LINE
  5
60D
100
AcDbEntity
  8
0
100
AcDbLine
 62
7
  6
CONTINUOUS
 10
309.5969656372
 20
227.9848810999
 11
309.5969656372
 21
228.2614771991
  0
LINE
  5
60E
100
AcDbEntity
  8
0
100
AcDbLine
 62
7
  6
CONTINUOUS
 10
310.4094656372
 20
228.2614771991
 11
310.4094656372
 21
227.9848810999
  0
LINE
  5
60F
100
AcDbEntity
  8
0
100
AcDbLine
 62
7
  6
CONTINUOUS
 10
310.4094656372
 20
223.9742429896
 11
310.4094656372
 21
223.2827536135
  0
LINE
  5
610
100
AcDbEntity
  8
0
100
AcDbLine
 62
7
  6
CONTINUOUS
 10
310.5552994871
 20
239.2827536135
 11
310.5552994871
 21
232.7827536135
  0
LINE
  5
611
100
AcDbEntity
  8
KONSTRUKTIONSELEMENTE
100
AcDbLine
 62
7
  6
CONTINUOUS
 10
310.8958344185
 20
209.3827536135
 11
310.8958344185
 21
220.3827536135
  0
LINE
  5
612
100
AcDbEntity
  8
0
100
AcDbLine
 62
7
  6
CONTINUOUS
 10
311.3677994871
 20
238.4529664784
 11
311.3677994871
 21
233.6125408455
  0
LINE
  5
613
100
AcDbEntity
  8
KONSTRUKTIONSELEMENTE
100
AcDbLine
 62
7
  6
CONTINUOUS
 10
312.3677994871
 20
322.8827536135
 11
312.3677994871
 21
292.8827536135
  0
LINE
  5
614
100
AcDbEntity
  8
0
100
AcDbLine
 62
7
  6
CONTINUOUS
 10
312.8677994871
 20
318.2127536135
 11
312.8677994871
 21
313.2127536135
  0
LINE
  5
615
100
AcDbEntity
  8
0
100
AcDbLine
 62
7
  6
CONTINUOUS
 10
312.8677994871
 20
311.2127536135
 11
312.8677994871
 21
306.2127536135
  0
LINE
  5
616
100
AcDbEntity
  8
0
100
AcDbLine
 62
7
  6
CONTINUOUS
 10
312.8677994871
 20
304.2127536135
 11
312.8677994871
 21
299.2127536135
  0
LINE
  5
617
100
AcDbEntity
  8
0
100
AcDbLine
 62
7
  6
CONTINUOUS
 10
314.0657156372
 20
229.7827536135
 11
314.0657156372
 21
226.1870089738
  0
LINE
  5
618
100
AcDbEntity
  8
0
100
AcDbLine
 62
7
  6
CONTINUOUS
 10
314.7427994871
 20
229.0912643342
 11
314.7427994871
 21
226.8784982531
  0
LINE
  5
619
100
AcDbEntity
  8
KONSTRUKTIONSELEMENTE
100
AcDbLine
 62
7
  6
CONTINUOUS
 10
314.8677994871
 20
346.0778915626
 11
314.8677994871
 21
332.1992577306
  0
LINE
  5
61A
100
AcDbEntity
  8
KONSTRUKTIONSELEMENTE
100
AcDbLine
 62
7
  6
CONTINUOUS
 10
314.8677994871
 20
283.5657544408
 11
314.8677994871
 21
263.8827536135
  0
LINE
  5
61B
100
AcDbEntity
  8
0
100
AcDbLine
 62
7
  6
CONTINUOUS
 10
314.9343758361
 20
217.3827536135
 11
314.9343758361
 21
211.8827536135
  0
LINE
  5
61C
100
AcDbEntity
  8
0
100
AcDbLine
 62
7
  6
CONTINUOUS
 10
315.1594656372
 20
237.0699875324
 11
315.1594656372
 21
234.9955195009
  0
LINE
  5
61D
100
AcDbEntity
  8
0
100
AcDbLine
 62
7
  6
CONTINUOUS
 10
315.2797683012
 20
211.8827536135
 11
315.2797683012
 21
216.212540987
  0
LINE
  5
61E
100
AcDbEntity
  8
0
100
AcDbLine
 62
7
  6
CONTINUOUS
 10
315.3677994871
 20
354.6128714193
 11
315.3677994871
 21
344.7306923606
  0
LINE
  5
61F
100
AcDbEntity
  8
0
100
AcDbLine
 62
7
  6
CONTINUOUS
 10
305.8052994871
 20
228.8146686225
 11
305.669883337
 21
228.2614771991
  0
LINE
  5
620
100
AcDbEntity
  8
0
100
AcDbLine
 62
7
  6
CONTINUOUS
 10
297.6488884003
 20
212.5742429523
 11
297.576719892
 21
212.3189238338
  0
LINE
  5
621
100
AcDbEntity
  8
0
100
AcDbLine
 62
7
  6
CONTINUOUS
 10
302.5657160246
 20
237.3465832441
 11
302.4302994871
 21
236.9316896765
  0
LINE
  5
622
100
AcDbEntity
  8
0
100
AcDbLine
 62
7
  6
CONTINUOUS
 10
303.3782160246
 20
237.2082853882
 11
303.2427994871
 21
236.7933918207
  0
LINE
  5
623
100
AcDbEntity
  8
0
100
AcDbLine
 62
7
  6
CONTINUOUS
 10
300.6594664121
 20
227.8465832441
 11
300.5240494871
 21
227.4316896765
  0
LINE
  5
624
100
AcDbEntity
  8
0
100
AcDbLine
 62
7
  6
CONTINUOUS
 10
301.4719664121
 20
227.7082853882
 11
301.3365494871
 21
227.2933918207
  0
LINE
  5
625
100
AcDbEntity
  8
0
100
AcDbLine
 62
7
  6
CONTINUOUS
 10
290.6485164552
 20
211.9784982829
 11
290.7928538849
 21
212.3189238338
  0
LINE
  5
626
100
AcDbEntity
  8
0
100
AcDbLine
 62
7
  6
CONTINUOUS
 10
290.8985164552
 20
211.9784982829
 11
291.0428538849
 21
212.3189238338
  0
LINE
  5
627
100
AcDbEntity
  8
RUNDUNGEN
100
AcDbLine
 62
7
  6
CONTINUOUS
 10
315.7992477419
 20
265.9740596771
 11
314.8677994871
 21
267.0085377657
  0
LINE
  5
628
100
AcDbEntity
  8
0
100
AcDbLine
 62
7
  6
CONTINUOUS
 10
324.9568160438
 20
213.5210514544
 11
325.0560477428
 21
213.1699876665
  0
LINE
  5
629
100
AcDbEntity
  8
0
100
AcDbLine
 62
7
  6
CONTINUOUS
 10
328.0807063009
 20
215.7444556086
 11
327.9814746019
 21
216.0955197244
  0
LINE
  5
62A
100
AcDbEntity
  8
0
100
AcDbLine
 62
7
  6
CONTINUOUS
 10
328.3307063009
 20
215.7444556086
 11
328.2314746019
 21
216.0955197244
  0
LINE
  5
62B
100
AcDbEntity
  8
0
100
AcDbLine
 62
7
  6
CONTINUOUS
 10
323.8137267784
 20
216.0955197244
 11
323.7144950794
 21
216.563604775
  0
LINE
  5
62C
100
AcDbEntity
  8
0
100
AcDbLine
 62
7
  6
CONTINUOUS
 10
324.0637267784
 20
216.0955197244
 11
323.9644950794
 21
216.563604775
  0
LINE
  5
62D
100
AcDbEntity
  8
0
100
AcDbLine
 62
7
  6
CONTINUOUS
 10
315.9719656372
 20
237.0699875324
 11
315.8365494871
 21
237.7614771991
  0
LINE
  5
62E
100
AcDbEntity
  8
0
100
AcDbLine
 62
7
  6
CONTINUOUS
 10
315.5297683012
 20
211.8827536135
 11
315.5297683012
 21
216.212540987
  0
LINE
  5
62F
100
AcDbEntity
  8
0
100
AcDbLine
 62
7
  6
CONTINUOUS
 10
315.9719656372
 20
237.0699875324
 11
315.9719656372
 21
234.9955195009
  0
LINE
  5
630
100
AcDbEntity
  8
0
100
AcDbLine
 62
7
  6
CONTINUOUS
 10
318.2636317873
 20
225.4955195009
 11
318.2636317873
 21
225.2189237891
  0
LINE
  5
631
100
AcDbEntity
  8
0
100
AcDbLine
 62
7
  6
CONTINUOUS
 10
318.3677994871
 20
209.3827536135
 11
318.3677994871
 21
180.8827536135
  0
LINE
  5
632
100
AcDbEntity
  8
0
100
AcDbLine
 62
7
  6
CONTINUOUS
 10
318.6698817873
 20
229.7827536135
 11
318.6698817873
 21
229.0912643342
  0
LINE
  5
633
100
AcDbEntity
  8
0
100
AcDbLine
 62
7
  6
CONTINUOUS
 10
318.9407171869
 20
225.6338173567
 11
318.9407171869
 21
225.0806259333
  0
LINE
  5
634
100
AcDbEntity
  8
0
100
AcDbLine
 62
7
  6
CONTINUOUS
 10
319.1021230918
 20
216.212540987
 11
319.1021230918
 21
211.8827536135
  0
LINE
  5
635
100
AcDbEntity
  8
0
100
AcDbLine
 62
7
  6
CONTINUOUS
 10
319.4475155569
 20
211.8827536135
 11
319.4475155569
 21
217.3827536135
  0
LINE
  5
636
100
AcDbEntity
  8
0
100
AcDbLine
 62
7
  6
CONTINUOUS
 10
319.6975155569
 20
211.8827536135
 11
319.6975155569
 21
217.3827536135
  0
LINE
  5
637
100
AcDbEntity
  8
0
100
AcDbLine
 62
7
  6
CONTINUOUS
 10
320.0240494871
 20
227.7082853882
 11
320.0240494871
 21
227.1550939648
  0
LINE
  5
638
100
AcDbEntity
  8
0
100
AcDbLine
 62
7
  6
CONTINUOUS
 10
320.4913719878
 20
212.4678600087
 11
320.4913719878
 21
211.8827536135
  0
LINE
  5
639
100
AcDbEntity
  8
0
100
AcDbLine
 62
7
  6
CONTINUOUS
 10
321.1073817873
 20
228.8146686225
 11
321.1073817873
 21
227.7082853882
  0
LINE
  5
63A
100
AcDbEntity
  8
0
100
AcDbLine
 62
7
  6
CONTINUOUS
 10
321.1073817873
 20
227.1550939648
 11
321.1073817873
 21
224.3891365572
  0
LINE
  5
63B
100
AcDbEntity
  8
0
100
AcDbLine
 62
7
  6
CONTINUOUS
 10
309.4719664121
 20
234.9955195009
 11
309.3365494871
 21
234.3040302216
  0
LINE
  5
63C
100
AcDbEntity
  8
0
100
AcDbLine
 62
7
  6
CONTINUOUS
 10
308.6594664121
 20
234.9955195009
 11
308.5240494871
 21
234.4423280774
  0
LINE
  5
63D
100
AcDbEntity
  8
0
100
AcDbLine
 62
7
  6
CONTINUOUS
 10
310.4094656372
 20
227.9848810999
 11
310.2740494871
 21
227.4316896765
  0
LINE
  5
63E
100
AcDbEntity
  8
0
100
AcDbLine
 62
7
  6
CONTINUOUS
 10
300.8243151562
 20
212.5742429523
 11
300.7521458219
 21
212.3189238338
  0
LINE
  5
63F
100
AcDbEntity
  8
0
100
AcDbLine
 62
7
  6
CONTINUOUS
 10
297.8653947513
 20
212.0636046557
 11
298.0097325939
 21
212.4891365795
  0
LINE
  5
640
100
AcDbEntity
  8
0
100
AcDbLine
 62
7
  6
CONTINUOUS
 10
298.1153947513
 20
212.0636046557
 11
298.2597325939
 21
212.4891365795
  0
LINE
  5
641
100
AcDbEntity
  8
0
100
AcDbLine
 62
7
  6
CONTINUOUS
 10
301.0408215071
 20
212.0636046557
 11
301.1851585238
 21
212.4891365795
  0
LINE
  5
642
100
AcDbEntity
  8
0
100
AcDbLine
 62
7
  6
CONTINUOUS
 10
301.2908215071
 20
212.0636046557
 11
301.4351585238
 21
212.4891365795
  0
LINE
  5
643
100
AcDbEntity
  8
0
100
AcDbLine
 62
7
  6
CONTINUOUS
 10
290.359841183
 20
212.4040302067
 11
290.2155037534
 21
212.1487110882
  0
LINE
  5
644
100
AcDbEntity
  8
KONSTRUKTIONSELEMENTE
100
AcDbLine
 62
7
  6
CONTINUOUS
 10
312.3677994871
 20
292.8827536135
 11
314.8678992399
 21
283.552254312
  0
LINE
  5
645
100
AcDbEntity
  8
KONSTRUKTIONSELEMENTE
100
AcDbLine
 62
7
  6
CONTINUOUS
 10
304.3677994871
 20
322.8827536135
 11
301.867699754
 21
332.2132528414
  0
LINE
  5
646
100
AcDbEntity
  8
0
100
AcDbLine
 62
7
  6
CONTINUOUS
 10
324.8575832092
 20
214.1061579316
 11
324.9568160438
 21
213.5210514544
  0
LINE
  5
647
100
AcDbEntity
  8
0
100
AcDbLine
 62
7
  6
CONTINUOUS
 10
328.1799379998
 20
215.1593492954
 11
328.0807063009
 21
215.7444556086
  0
LINE
  5
648
100
AcDbEntity
  8
0
100
AcDbLine
 62
7
  6
CONTINUOUS
 10
328.4299379998
 20
215.1593492954
 11
328.3307063009
 21
215.7444556086
  0
LINE
  5
649
100
AcDbEntity
  8
0
100
AcDbLine
 62
7
  6
CONTINUOUS
 10
325.2029756743
 20
213.5210514544
 11
325.1037439754
 21
214.2231791942
  0
LINE
  5
64A
100
AcDbEntity
  8
0
100
AcDbLine
 62
7
  6
CONTINUOUS
 10
325.4529756743
 20
213.5210514544
 11
325.3537439754
 21
214.2231791942
  0
LINE
  5
64B
100
AcDbEntity
  8
0
100
AcDbLine
 62
7
  6
CONTINUOUS
 10
327.8345455347
 20
215.7444556086
 11
327.9337783693
 21
215.0423280327
  0
LINE
  5
64C
100
AcDbEntity
  8
0
100
AcDbLine
 62
7
  6
CONTINUOUS
 10
321.7844671869
 20
228.8146686225
 11
321.7844671869
 21
227.7082853882
  0
LINE
  5
64D
100
AcDbEntity
  8
0
100
AcDbLine
 62
7
  6
CONTINUOUS
 10
321.7844671869
 20
227.1550939648
 11
321.7844671869
 21
224.6657323657
  0
LINE
  5
64E
100
AcDbEntity
  8
0
100
AcDbLine
 62
7
  6
CONTINUOUS
 10
323.0032171869
 20
223.8359450853
 11
323.0032171869
 21
223.2827536135
  0
LINE
  5
64F
100
AcDbEntity
  8
0
100
AcDbLine
 62
7
  6
CONTINUOUS
 10
323.2740494871
 20
227.7082853882
 11
323.2740494871
 21
227.1550939648
  0
LINE
  5
650
100
AcDbEntity
  8
0
100
AcDbLine
 62
7
  6
CONTINUOUS
 10
323.4683343133
 20
216.0955197244
 11
323.4683343133
 21
215.8614768713
  0
LINE
  5
651
100
AcDbEntity
  8
0
100
AcDbLine
 62
7
  6
CONTINUOUS
 10
323.8137267784
 20
211.8827536135
 11
323.8137267784
 21
212.4678600087
  0
LINE
  5
652
100
AcDbEntity
  8
0
100
AcDbLine
 62
7
  6
CONTINUOUS
 10
323.8137267784
 20
215.8614768713
 11
323.8137267784
 21
216.0955197244
  0
LINE
  5
653
100
AcDbEntity
  8
0
100
AcDbLine
 62
7
  6
CONTINUOUS
 10
324.0637267784
 20
211.8827536135
 11
324.0637267784
 21
212.4678600087
  0
LINE
  5
654
100
AcDbEntity
  8
0
100
AcDbLine
 62
7
  6
CONTINUOUS
 10
324.0637267784
 20
215.8614768713
 11
324.0637267784
 21
216.0955197244
  0
LINE
  5
655
100
AcDbEntity
  8
0
100
AcDbLine
 62
7
  6
CONTINUOUS
 10
324.8575832092
 20
215.1593492954
 11
324.8575832092
 21
214.1061579316
  0
LINE
  5
656
100
AcDbEntity
  8
0
100
AcDbLine
 62
7
  6
CONTINUOUS
 10
325.1037439754
 20
214.2231791942
 11
325.1037439754
 21
215.0423280327
  0
LINE
  5
657
100
AcDbEntity
  8
0
100
AcDbLine
 62
7
  6
CONTINUOUS
 10
325.3537439754
 20
214.2231791942
 11
325.3537439754
 21
215.0423280327
  0
LINE
  5
658
100
AcDbEntity
  8
0
100
AcDbLine
 62
7
  6
CONTINUOUS
 10
315.9719656372
 20
234.9955195009
 11
315.8365494871
 21
234.3040302216
  0
LINE
  5
659
100
AcDbEntity
  8
0
100
AcDbLine
 62
7
  6
CONTINUOUS
 10
315.1594656372
 20
234.9955195009
 11
315.0240494871
 21
234.4423280774
  0
LINE
  5
65A
100
AcDbEntity
  8
0
100
AcDbLine
 62
7
  6
CONTINUOUS
 10
309.3365494871
 20
234.3040302216
 11
309.0657164121
 21
233.7508387013
  0
LINE
  5
65B
100
AcDbEntity
  8
0
100
AcDbLine
 62
7
  6
CONTINUOUS
 10
309.326133337
 20
227.4316896765
 11
309.5969656372
 21
227.9848810999
  0
LINE
  5
65C
100
AcDbEntity
  8
0
100
AcDbLine
 62
7
  6
CONTINUOUS
 10
297.576719892
 20
212.3189238338
 11
297.4323820494
 21
212.0636046557
  0
LINE
  5
65D
100
AcDbEntity
  8
0
100
AcDbLine
 62
7
  6
CONTINUOUS
 10
308.5240494871
 20
234.4423280774
 11
308.2532164121
 21
234.0274345099
  0
LINE
  5
65E
100
AcDbEntity
  8
0
100
AcDbLine
 62
7
  6
CONTINUOUS
 10
295.2427994871
 20
227.2933918207
 11
294.8365494871
 21
226.7402003973
  0
LINE
  5
65F
100
AcDbEntity
  8
0
100
AcDbLine
 62
7
  6
CONTINUOUS
 10
303.2427994871
 20
236.7933918207
 11
302.8365494871
 21
236.2402003973
  0
LINE
  5
660
100
AcDbEntity
  8
0
100
AcDbLine
 62
7
  6
CONTINUOUS
 10
301.3365494871
 20
227.2933918207
 11
300.9302994871
 21
226.7402003973
  0
LINE
  5
661
100
AcDbEntity
  8
0
100
AcDbLine
 62
7
  6
CONTINUOUS
 10
302.4302994871
 20
236.9316896765
 11
302.1594660246
 21
236.6550939648
  0
LINE
  5
662
100
AcDbEntity
  8
0
100
AcDbLine
 62
7
  6
CONTINUOUS
 10
294.4302994871
 20
227.4316896765
 11
294.1594660246
 21
227.1550939648
  0
LINE
  5
663
100
AcDbEntity
  8
0
100
AcDbLine
 62
7
  6
CONTINUOUS
 10
325.7240345018
 20
287.7827536135
 11
320.1257755034
 21
287.7827536135
  0
LINE
  5
664
100
AcDbEntity
  8
0
100
AcDbLine
 62
7
  6
CONTINUOUS
 10
296.6098234708
 20
287.7827536135
 11
291.0115644905
 21
287.7827536135
  0
LINE
  5
665
100
AcDbEntity
  8
0
100
AcDbLine
 62
7
  6
CONTINUOUS
 10
327.9337783693
 20
215.0423280327
 11
327.9337783693
 21
214.2231791942
  0
LINE
  5
666
100
AcDbEntity
  8
0
100
AcDbLine
 62
7
  6
CONTINUOUS
 10
328.1799379998
 20
214.1061579316
 11
328.1799379998
 21
215.1593492954
  0
LINE
  5
667
100
AcDbEntity
  8
0
100
AcDbLine
 62
7
  6
CONTINUOUS
 10
328.4299379998
 20
214.1061579316
 11
328.4299379998
 21
215.1593492954
  0
LINE
  5
668
100
AcDbEntity
  8
RUNDUNGEN
100
AcDbLine
 62
7
  6
CONTINUOUS
 10
331.3677994871
 20
280.9639940709
 11
331.3677994871
 21
269.7827536135
  0
LINE
  5
669
100
AcDbEntity
  8
KONSTRUKTIONSELEMENTE
100
AcDbLine
 62
7
  6
CONTINUOUS
 10
333.3397645557
 20
209.3827536135
 11
333.3397645557
 21
220.3827536135
  0
LINE
  5
66A
100
AcDbEntity
  8
0
100
AcDbLine
 62
7
  6
CONTINUOUS
 10
325.1037439754
 20
215.0423280327
 11
325.2029756743
 21
215.7444556086
  0
LINE
  5
66B
100
AcDbEntity
  8
0
100
AcDbLine
 62
7
  6
CONTINUOUS
 10
325.3537439754
 20
215.0423280327
 11
325.4529756743
 21
215.7444556086
  0
LINE
  5
66C
100
AcDbEntity
  8
0
100
AcDbLine
 62
7
  6
CONTINUOUS
 10
324.9568160438
 20
215.7444556086
 11
324.8575832092
 21
215.1593492954
  0
LINE
  5
66D
100
AcDbEntity
  8
0
100
AcDbLine
 62
7
  6
CONTINUOUS
 10
320.6898365213
 20
216.563604775
 11
320.5906042545
 21
216.0955197244
  0
LINE
  5
66E
100
AcDbEntity
  8
0
100
AcDbLine
 62
7
  6
CONTINUOUS
 10
318.8044268592
 20
217.3827536135
 11
317.3159456965
 21
212.4678600087
  0
LINE
  5
66F
100
AcDbEntity
  8
0
100
AcDbLine
 62
7
  6
CONTINUOUS
 10
318.2636317873
 20
225.2189237891
 11
318.1282171869
 21
224.8040302216
  0
LINE
  5
670
100
AcDbEntity
  8
0
100
AcDbLine
 62
7
  6
CONTINUOUS
 10
315.8365494871
 20
234.3040302216
 11
315.5657156372
 21
233.7508387013
  0
LINE
  5
671
100
AcDbEntity
  8
0
100
AcDbLine
 62
7
  6
CONTINUOUS
 10
312.3052994871
 20
223.9742429896
 11
311.4927994871
 21
222.4529663815
  0
LINE
  5
672
100
AcDbEntity
  8
0
100
AcDbLine
 62
7
  6
CONTINUOUS
 10
312.982383337
 20
223.9742429896
 11
312.169883337
 21
222.4529663815
  0
LINE
  5
673
100
AcDbEntity
  8
0
100
AcDbLine
 62
7
  6
CONTINUOUS
 10
300.7521458219
 20
212.3189238338
 11
300.6078088052
 21
212.0636046557
  0
LINE
  5
674
100
AcDbEntity
  8
0
100
AcDbLine
 62
7
  6
CONTINUOUS
 10
297.6488884003
 20
211.7231791346
 11
297.8653947513
 21
212.0636046557
  0
LINE
  5
675
100
AcDbEntity
  8
0
100
AcDbLine
 62
7
  6
CONTINUOUS
 10
297.8988884003
 20
211.7231791346
 11
298.1153947513
 21
212.0636046557
  0
LINE
  5
676
100
AcDbEntity
  8
0
100
AcDbLine
 62
7
  6
CONTINUOUS
 10
300.8243151562
 20
211.7231791346
 11
301.0408215071
 21
212.0636046557
  0
LINE
  5
677
100
AcDbEntity
  8
0
100
AcDbLine
 62
7
  6
CONTINUOUS
 10
301.0743151562
 20
211.7231791346
 11
301.2908215071
 21
212.0636046557
  0
LINE
  5
678
100
AcDbEntity
  8
0
100
AcDbLine
 62
7
  6
CONTINUOUS
 10
306.6177994871
 20
228.6763707666
 11
306.3469656372
 21
228.2614771991
  0
LINE
  5
679
100
AcDbEntity
  8
0
100
AcDbLine
 62
7
  6
CONTINUOUS
 10
310.2740494871
 20
227.4316896765
 11
310.0032156372
 21
227.016796109
  0
LINE
  5
67A
100
AcDbEntity
  8
0
100
AcDbLine
 62
7
  6
CONTINUOUS
 10
315.0240494871
 20
234.4423280774
 11
314.7532156372
 21
234.0274345099
  0
LINE
  5
67B
100
AcDbEntity
  8
0
100
AcDbLine
 62
7
  6
CONTINUOUS
 10
288.6999592451
 20
215.127434495
 11
288.4112841019
 21
214.7870090036
  0
LINE
  5
67C
100
AcDbEntity
  8
0
100
AcDbLine
 62
7
  6
CONTINUOUS
 10
290.359841183
 20
211.6380727618
 11
290.6485164552
 21
211.9784982829
  0
LINE
  5
67D
100
AcDbEntity
  8
0
100
AcDbLine
 62
7
  6
CONTINUOUS
 10
290.609841183
 20
211.6380727618
 11
290.8985164552
 21
211.9784982829
  0
LINE
  5
67E
100
AcDbEntity
  8
0
100
AcDbLine
 62
7
  6
CONTINUOUS
 10
300.5240494871
 20
227.4316896765
 11
300.2532164121
 21
227.1550939648
  0
LINE
  5
67F
100
AcDbEntity
  8
0
100
AcDbLine
 62
7
  6
CONTINUOUS
 10
309.0657164121
 20
233.7508387013
 11
308.5240494871
 21
233.1976472295
  0
LINE
  5
680
100
AcDbEntity
  8
0
100
AcDbLine
 62
7
  6
CONTINUOUS
 10
294.8365494871
 20
226.7402003973
 11
294.2948829496
 21
226.3253068297
  0
LINE
  5
681
100
AcDbEntity
  8
RUNDUNGEN
100
AcDbLine
 62
7
  6
CONTINUOUS
 10
334.4658756985
 20
263.4789060362
 11
331.8367105739
 21
268.0327536135
  0
LINE
  5
682
100
AcDbEntity
  8
0
100
AcDbLine
 62
7
  6
CONTINUOUS
 10
334.8677994871
 20
261.9789060362
 11
334.8677994871
 21
220.3827536135
  0
LINE
  5
683
100
AcDbEntity
  8
KONSTRUKTIONSELEMENTE
100
AcDbLine
 62
7
  6
CONTINUOUS
 10
335.8677994871
 20
209.3827536135
 11
335.8677994871
 21
220.3827536135
  0
LINE
  5
684
100
AcDbEntity
  8
0
100
AcDbLine
 62
7
  6
CONTINUOUS
 10
327.9337783693
 20
214.2231791942
 11
327.8345455347
 21
213.5210514544
  0
LINE
  5
685
100
AcDbEntity
  8
0
100
AcDbLine
 62
7
  6
CONTINUOUS
 10
328.0807063009
 20
213.5210514544
 11
328.1799379998
 21
214.1061579316
  0
LINE
  5
686
100
AcDbEntity
  8
0
100
AcDbLine
 62
7
  6
CONTINUOUS
 10
328.3307063009
 20
213.5210514544
 11
328.4299379998
 21
214.1061579316
  0
LINE
  5
687
100
AcDbEntity
  8
0
100
AcDbLine
 62
7
  6
CONTINUOUS
 10
323.7144950794
 20
215.3933918207
 11
323.8137267784
 21
215.8614768713
  0
LINE
  5
688
100
AcDbEntity
  8
0
100
AcDbLine
 62
7
  6
CONTINUOUS
 10
323.9644950794
 20
215.3933918207
 11
324.0637267784
 21
215.8614768713
  0
LINE
  5
689
100
AcDbEntity
  8
0
100
AcDbLine
 62
7
  6
CONTINUOUS
 10
325.0560477428
 20
216.0955197244
 11
324.9568160438
 21
215.7444556086
  0
LINE
  5
68A
100
AcDbEntity
  8
0
100
AcDbLine
 62
7
  6
CONTINUOUS
 10
317.4628739119
 20
211.8827536135
 11
318.8521230918
 21
216.212540987
  0
LINE
  5
68B
100
AcDbEntity
  8
0
100
AcDbLine
 62
7
  6
CONTINUOUS
 10
317.7128739119
 20
211.8827536135
 11
319.1021230918
 21
216.212540987
  0
LINE
  5
68C
100
AcDbEntity
  8
0
100
AcDbLine
 62
7
  6
CONTINUOUS
 10
318.9407171869
 20
225.0806259333
 11
318.6698817873
 21
224.3891365572
  0
LINE
  5
68D
100
AcDbEntity
  8
0
100
AcDbLine
 62
7
  6
CONTINUOUS
 10
306.3469656372
 20
229.3678600459
 11
305.8052994871
 21
228.8146686225
  0
LINE
  5
68E
100
AcDbEntity
  8
0
100
AcDbLine
 62
7
  6
CONTINUOUS
 10
315.5657156372
 20
233.7508387013
 11
315.0240494871
 21
233.1976472295
  0
LINE
  5
68F
100
AcDbEntity
  8
0
100
AcDbLine
 62
7
  6
CONTINUOUS
 10
305.5344656372
 20
223.9742429896
 11
309.326133337
 21
227.4316896765
  0
LINE
  5
690
100
AcDbEntity
  8
0
100
AcDbLine
 62
7
  6
CONTINUOUS
 10
288.844296778
 20
214.616796258
 11
289.0608031806
 21
214.7870090036
  0
LINE
  5
691
100
AcDbEntity
  8
0
100
AcDbLine
 62
7
  6
CONTINUOUS
 10
289.094296778
 20
214.616796258
 11
289.3108031806
 21
214.7870090036
  0
LINE
  5
692
100
AcDbEntity
  8
0
100
AcDbLine
 62
7
  6
CONTINUOUS
 10
300.9302994871
 20
226.7402003973
 11
300.3886325621
 21
226.3253068297
  0
LINE
  5
693
100
AcDbEntity
  8
0
100
AcDbLine
 62
7
  6
CONTINUOUS
 10
308.2532164121
 20
234.0274345099
 11
307.8469664121
 21
233.7508387013
  0
LINE
  5
694
100
AcDbEntity
  8
0
100
AcDbLine
 62
7
  6
CONTINUOUS
 10
302.8365494871
 20
236.2402003973
 11
302.2948829496
 21
235.9636046855
  0
LINE
  5
695
100
AcDbEntity
  8
0
100
AcDbLine
 62
7
  6
CONTINUOUS
 10
308.5240494871
 20
233.1976472295
 11
307.9823825621
 21
232.9210514814
  0
LINE
  5
696
100
AcDbEntity
  8
0
100
AcDbLine
 62
7
  6
CONTINUOUS
 10
302.1594660246
 20
236.6550939648
 11
301.7532160246
 21
236.516796109
  0
LINE
  5
697
100
AcDbEntity
  8
0
100
AcDbLine
 62
7
  6
CONTINUOUS
 10
312.3677994871
 20
299.2127536135
 11
312.8677994871
 21
299.2127536135
  0
LINE
  5
698
100
AcDbEntity
  8
RUNDUNGEN
100
AcDbLine
 62
7
  6
CONTINUOUS
 10
327.6169635222
 20
286.8899346832
 11
330.4319772596
 21
283.5351319485
  0
LINE
  5
699
100
AcDbEntity
  8
0
100
AcDbLine
 62
7
  6
CONTINUOUS
 10
327.9814746019
 20
213.1699876665
 11
328.0807063009
 21
213.5210514544
  0
LINE
  5
69A
100
AcDbEntity
  8
0
100
AcDbLine
 62
7
  6
CONTINUOUS
 10
328.2314746019
 20
213.1699876665
 11
328.3307063009
 21
213.5210514544
  0
LINE
  5
69B
100
AcDbEntity
  8
0
100
AcDbLine
 62
7
  6
CONTINUOUS
 10
323.4683343133
 20
215.8614768713
 11
323.2698703475
 21
215.3933918207
  0
LINE
  5
69C
100
AcDbEntity
  8
0
100
AcDbLine
 62
7
  6
CONTINUOUS
 10
325.2545122764
 20
216.563604775
 11
325.0560477428
 21
216.0955197244
  0
LINE
  5
69D
100
AcDbEntity
  8
0
100
AcDbLine
 62
7
  6
CONTINUOUS
 10
320.8367644529
 20
216.0955197244
 11
321.0352289864
 21
216.4465835123
  0
LINE
  5
69E
100
AcDbEntity
  8
0
100
AcDbLine
 62
7
  6
CONTINUOUS
 10
321.0867644529
 20
216.0955197244
 11
321.2852289864
 21
216.4465835123
  0
LINE
  5
69F
100
AcDbEntity
  8
0
100
AcDbLine
 62
7
  6
CONTINUOUS
 10
318.1282171869
 20
224.8040302216
 11
317.8573817873
 21
224.3891365572
  0
LINE
  5
6A0
100
AcDbEntity
  8
0
100
AcDbLine
 62
7
  6
CONTINUOUS
 10
318.6698817873
 20
224.3891365572
 11
318.2636317873
 21
223.8359450853
  0
LINE
  5
6A1
100
AcDbEntity
  8
0
100
AcDbLine
 62
7
  6
CONTINUOUS
 10
310.0032156372
 20
227.016796109
 11
306.6177994871
 21
223.9742429896
  0
LINE
  5
6A2
100
AcDbEntity
  8
0
100
AcDbLine
 62
7
  6
CONTINUOUS
 10
295.9168375928
 20
213.1699876814
 11
296.2055124521
 21
213.4253067999
  0
LINE
  5
6A3
100
AcDbEntity
  8
0
100
AcDbLine
 62
7
  6
CONTINUOUS
 10
296.1668375928
 20
213.1699876814
 11
296.4555124521
 21
213.4253067999
  0
LINE
  5
6A4
100
AcDbEntity
  8
0
100
AcDbLine
 62
7
  6
CONTINUOUS
 10
299.0922643486
 20
213.1699876814
 11
299.3809392079
 21
213.4253067999
  0
LINE
  5
6A5
100
AcDbEntity
  8
0
100
AcDbLine
 62
7
  6
CONTINUOUS
 10
299.3422643486
 20
213.1699876814
 11
299.6309392079
 21
213.4253067999
  0
LINE
  5
6A6
100
AcDbEntity
  8
0
100
AcDbLine
 62
7
  6
CONTINUOUS
 10
290.2155037534
 20
212.1487110882
 11
289.9989974024
 21
211.9784982829
  0
LINE
  5
6A7
100
AcDbEntity
  8
0
100
AcDbLine
 62
7
  6
CONTINUOUS
 10
297.4323820494
 20
212.0636046557
 11
297.2158756985
 21
211.8933919101
  0
LINE
  5
6A8
100
AcDbEntity
  8
0
100
AcDbLine
 62
7
  6
CONTINUOUS
 10
315.5552994871
 20
226.6019025414
 11
315.013633337
 21
226.1870089738
  0
LINE
  5
6A9
100
AcDbEntity
  8
0
100
AcDbLine
 62
7
  6
CONTINUOUS
 10
296.1333439437
 20
213.8508386641
 11
295.7724997502
 21
213.5955195456
  0
LINE
  5
6AA
100
AcDbEntity
  8
0
100
AcDbLine
 62
7
  6
CONTINUOUS
 10
307.0240494871
 20
228.9529664784
 11
306.6177994871
 21
228.6763707666
  0
LINE
  5
6AB
100
AcDbEntity
  8
0
100
AcDbLine
 62
7
  6
CONTINUOUS
 10
314.7532156372
 20
234.0274345099
 11
314.3469656372
 21
233.7508387013
  0
LINE
  5
6AC
100
AcDbEntity
  8
0
100
AcDbLine
 62
7
  6
CONTINUOUS
 10
288.9886343625
 20
215.2976472406
 11
288.6999592451
 21
215.127434495
  0
LINE
  5
6AD
100
AcDbEntity
  8
0
100
AcDbLine
 62
7
  6
CONTINUOUS
 10
306.888633337
 20
229.6444557576
 11
306.3469656372
 21
229.3678600459
  0
LINE
  5
6AE
100
AcDbEntity
  8
0
100
AcDbLine
 62
7
  6
CONTINUOUS
 10
315.0240494871
 20
233.1976472295
 11
314.482383337
 21
232.9210514814
  0
LINE
  5
6AF
100
AcDbEntity
  8
0
100
AcDbLine
 62
7
  6
CONTINUOUS
 10
294.1594660246
 20
227.1550939648
 11
293.7532160246
 21
227.016796109
  0
LINE
  5
6B0
100
AcDbEntity
  8
0
100
AcDbLine
 62
7
  6
CONTINUOUS
 10
300.2532164121
 20
227.1550939648
 11
299.8469664121
 21
227.016796109
  0
LINE
  5
6B1
100
AcDbEntity
  8
0
100
AcDbLine
 62
7
  6
CONTINUOUS
 10
312.3677994871
 20
304.2127536135
 11
312.8677994871
 21
304.2127536135
  0
LINE
  5
6B2
100
AcDbEntity
  8
0
100
AcDbLine
 62
7
  6
CONTINUOUS
 10
312.3677994871
 20
306.2127536135
 11
312.8677994871
 21
306.2127536135
  0
LINE
  5
6B3
100
AcDbEntity
  8
0
100
AcDbLine
 62
7
  6
CONTINUOUS
 10
312.3677994871
 20
306.3191365888
 11
312.8677994871
 21
306.3191365888
  0
LINE
  5
6B4
100
AcDbEntity
  8
0
100
AcDbLine
 62
7
  6
CONTINUOUS
 10
312.3677994871
 20
306.5319025489
 11
312.8677994871
 21
306.5319025489
  0
LINE
  5
6B5
100
AcDbEntity
  8
0
100
AcDbLine
 62
7
  6
CONTINUOUS
 10
312.3677994871
 20
306.9574344503
 11
312.8677994871
 21
306.9574344503
  0
LINE
  5
6B6
100
AcDbEntity
  8
0
100
AcDbLine
 62
7
  6
CONTINUOUS
 10
327.7830100683
 20
212.701902534
 11
327.9814746019
 21
213.1699876665
  0
LINE
  5
6B7
100
AcDbEntity
  8
0
100
AcDbLine
 62
7
  6
CONTINUOUS
 10
328.0330100683
 20
212.701902534
 11
328.2314746019
 21
213.1699876665
  0
LINE
  5
6B8
100
AcDbEntity
  8
0
100
AcDbLine
 62
7
  6
CONTINUOUS
 10
323.5160305458
 20
215.0423280327
 11
323.7144950794
 21
215.3933918207
  0
LINE
  5
6B9
100
AcDbEntity
  8
0
100
AcDbLine
 62
7
  6
CONTINUOUS
 10
323.7660305458
 20
215.0423280327
 11
323.9644950794
 21
215.3933918207
  0
LINE
  5
6BA
100
AcDbEntity
  8
0
100
AcDbLine
 62
7
  6
CONTINUOUS
 10
325.2029756743
 20
215.7444556086
 11
325.5999047415
 21
216.4465835123
  0
LINE
  5
6BB
100
AcDbEntity
  8
0
100
AcDbLine
 62
7
  6
CONTINUOUS
 10
325.4529756743
 20
215.7444556086
 11
325.8499047415
 21
216.4465835123
  0
LINE
  5
6BC
100
AcDbEntity
  8
0
100
AcDbLine
 62
7
  6
CONTINUOUS
 10
327.8345455347
 20
213.5210514544
 11
327.4376176032
 21
212.8189237966
  0
LINE
  5
6BD
100
AcDbEntity
  8
0
100
AcDbLine
 62
7
  6
CONTINUOUS
 10
321.0867644529
 20
217.0316898255
 11
320.6898365213
 21
216.563604775
  0
LINE
  5
6BE
100
AcDbEntity
  8
0
100
AcDbLine
 62
7
  6
CONTINUOUS
 10
300.6078088052
 20
212.0636046557
 11
300.3913024543
 21
211.8933919101
  0
LINE
  5
6BF
100
AcDbEntity
  8
0
100
AcDbLine
 62
7
  6
CONTINUOUS
 10
299.3087706996
 20
213.8508386641
 11
298.947926506
 21
213.5955195456
  0
LINE
  5
6C0
100
AcDbEntity
  8
0
100
AcDbLine
 62
7
  6
CONTINUOUS
 10
297.2880442068
 20
211.4678599938
 11
297.6488884003
 21
211.7231791346
  0
LINE
  5
6C1
100
AcDbEntity
  8
0
100
AcDbLine
 62
7
  6
CONTINUOUS
 10
297.5380442068
 20
211.4678599938
 11
297.8988884003
 21
211.7231791346
  0
LINE
  5
6C2
100
AcDbEntity
  8
0
100
AcDbLine
 62
7
  6
CONTINUOUS
 10
300.4634709626
 20
211.4678599938
 11
300.8243151562
 21
211.7231791346
  0
LINE
  5
6C3
100
AcDbEntity
  8
0
100
AcDbLine
 62
7
  6
CONTINUOUS
 10
300.7134709626
 20
211.4678599938
 11
301.0743151562
 21
211.7231791346
  0
LINE
  5
6C4
100
AcDbEntity
  8
0
100
AcDbLine
 62
7
  6
CONTINUOUS
 10
317.8573817873
 20
224.3891365572
 11
317.4511317873
 21
224.1125408455
  0
LINE
  5
6C5
100
AcDbEntity
  8
0
100
AcDbLine
 62
7
  6
CONTINUOUS
 10
315.419883337
 20
227.2933918207
 11
314.7427994871
 21
226.8784982531
  0
LINE
  5
6C6
100
AcDbEntity
  8
0
100
AcDbLine
 62
7
  6
CONTINUOUS
 10
318.2636317873
 20
223.8359450853
 11
317.5865494871
 21
223.4210514814
  0
LINE
  5
6C7
100
AcDbEntity
  8
0
100
AcDbLine
 62
7
  6
CONTINUOUS
 10
290.0711661172
 20
211.4678599938
 11
290.359841183
 21
211.6380727618
  0
LINE
  5
6C8
100
AcDbEntity
  8
0
100
AcDbLine
 62
7
  6
CONTINUOUS
 10
290.3211661172
 20
211.4678599938
 11
290.609841183
 21
211.6380727618
  0
LINE
  5
6C9
100
AcDbEntity
  8
0
100
AcDbLine
 62
7
  6
CONTINUOUS
 10
289.0608031806
 20
214.7870090036
 11
289.2773095315
 21
214.8721153765
  0
LINE
  5
6CA
100
AcDbEntity
  8
0
100
AcDbLine
 62
7
  6
CONTINUOUS
 10
289.3108031806
 20
214.7870090036
 11
289.5273095315
 21
214.8721153765
  0
LINE
  5
6CB
100
AcDbEntity
  8
0
100
AcDbLine
 62
7
  6
CONTINUOUS
 10
312.3677994871
 20
307.3829663889
 11
312.8677994871
 21
307.3829663889
  0
LINE
  5
6CC
100
AcDbEntity
  8
0
100
AcDbLine
 62
7
  6
CONTINUOUS
 10
312.3677994871
 20
307.9148812192
 11
312.8677994871
 21
307.9148812192
  0
LINE
  5
6CD
100
AcDbEntity
  8
0
100
AcDbLine
 62
7
  6
CONTINUOUS
 10
312.3677994871
 20
311.2127536135
 11
312.8677994871
 21
311.2127536135
  0
LINE
  5
6CE
100
AcDbEntity
  8
0
100
AcDbLine
 62
7
  6
CONTINUOUS
 10
312.3677994871
 20
313.2127536135
 11
312.8677994871
 21
313.2127536135
  0
LINE
  5
6CF
100
AcDbEntity
  8
0
100
AcDbLine
 62
7
  6
CONTINUOUS
 10
325.5522085089
 20
216.9146685629
 11
325.2545122764
 21
216.563604775
  0
LINE
  5
6D0
100
AcDbEntity
  8
0
100
AcDbLine
 62
7
  6
CONTINUOUS
 10
323.2698703475
 20
215.3933918207
 11
320.4913719878
 21
212.4678600087
  0
LINE
  5
6D1
100
AcDbEntity
  8
0
100
AcDbLine
 62
7
  6
CONTINUOUS
 10
321.0352289864
 20
212.4678600087
 11
323.5160305458
 21
215.0423280327
  0
LINE
  5
6D2
100
AcDbEntity
  8
0
100
AcDbLine
 62
7
  6
CONTINUOUS
 10
321.2852289864
 20
212.4678600087
 11
323.7660305458
 21
215.0423280327
  0
LINE
  5
6D3
100
AcDbEntity
  8
0
100
AcDbLine
 62
7
  6
CONTINUOUS
 10
321.0352289864
 20
216.4465835123
 11
321.332925219
 21
216.6806260376
  0
LINE
  5
6D4
100
AcDbEntity
  8
0
100
AcDbLine
 62
7
  6
CONTINUOUS
 10
321.2852289864
 20
216.4465835123
 11
321.582925219
 21
216.6806260376
  0
LINE
  5
6D5
100
AcDbEntity
  8
0
100
AcDbLine
 62
7
  6
CONTINUOUS
 10
289.2773095315
 20
215.3827536135
 11
288.9886343625
 21
215.2976472406
  0
LINE
  5
6D6
100
AcDbEntity
  8
0
100
AcDbLine
 62
7
  6
CONTINUOUS
 10
289.9989974024
 20
211.9784982829
 11
289.7103222334
 21
211.8933919101
  0
LINE
  5
6D7
100
AcDbEntity
  8
0
100
AcDbLine
 62
7
  6
CONTINUOUS
 10
296.2055124521
 20
213.4253067999
 11
296.4941881373
 21
213.5104131727
  0
LINE
  5
6D8
100
AcDbEntity
  8
0
100
AcDbLine
 62
7
  6
CONTINUOUS
 10
296.4555124521
 20
213.4253067999
 11
296.7441881373
 21
213.5104131727
  0
LINE
  5
6D9
100
AcDbEntity
  8
0
100
AcDbLine
 62
7
  6
CONTINUOUS
 10
299.3809392079
 20
213.4253067999
 11
299.6696140672
 21
213.5104131727
  0
LINE
  5
6DA
100
AcDbEntity
  8
0
100
AcDbLine
 62
7
  6
CONTINUOUS
 10
299.6309392079
 20
213.4253067999
 11
299.9196140672
 21
213.5104131727
  0
LINE
  5
6DB
100
AcDbEntity
  8
0
100
AcDbLine
 62
7
  6
CONTINUOUS
 10
312.3677994871
 20
318.2127536135
 11
312.8677994871
 21
318.2127536135
  0
LINE
  5
6DC
100
AcDbEntity
  8
0
100
AcDbLine
 62
7
  6
CONTINUOUS
 10
327.4853138358
 20
212.350838705
 11
327.7830100683
 21
212.701902534
  0
LINE
  5
6DD
100
AcDbEntity
  8
0
100
AcDbLine
 62
7
  6
CONTINUOUS
 10
327.7353138358
 20
212.350838705
 11
328.0330100683
 21
212.701902534
  0
LINE
  5
6DE
100
AcDbEntity
  8
0
100
AcDbLine
 62
7
  6
CONTINUOUS
 10
325.5999047415
 20
216.4465835123
 11
325.897600974
 21
216.6806260376
  0
LINE
  5
6DF
100
AcDbEntity
  8
0
100
AcDbLine
 62
7
  6
CONTINUOUS
 10
325.8499047415
 20
216.4465835123
 11
326.147600974
 21
216.6806260376
  0
LINE
  5
6E0
100
AcDbEntity
  8
0
100
AcDbLine
 62
7
  6
CONTINUOUS
 10
327.4376176032
 20
212.8189237966
 11
327.1399213707
 21
212.5848812713
  0
LINE
  5
6E1
100
AcDbEntity
  8
0
100
AcDbLine
 62
7
  6
CONTINUOUS
 10
326.0483681394
 20
217.2657323508
 11
325.5522085089
 21
216.9146685629
  0
LINE
  5
6E2
100
AcDbEntity
  8
0
100
AcDbLine
 62
7
  6
CONTINUOUS
 10
321.4836929522
 20
217.2657323508
 11
321.0867644529
 21
217.0316898255
  0
LINE
  5
6E3
100
AcDbEntity
  8
0
100
AcDbLine
 62
7
  6
CONTINUOUS
 10
297.2158756985
 20
211.8933919101
 11
296.9272008392
 21
211.8082855372
  0
LINE
  5
6E4
100
AcDbEntity
  8
0
100
AcDbLine
 62
7
  6
CONTINUOUS
 10
300.3913024543
 20
211.8933919101
 11
300.1026267691
 21
211.8082855372
  0
LINE
  5
6E5
100
AcDbEntity
  8
0
100
AcDbLine
 62
7
  6
CONTINUOUS
 10
326.9891530696
 20
211.9997748864
 11
327.4853138358
 21
212.350838705
  0
LINE
  5
6E6
100
AcDbEntity
  8
0
100
AcDbLine
 62
7
  6
CONTINUOUS
 10
327.2391530696
 20
211.9997748864
 11
327.7353138358
 21
212.350838705
  0
LINE
  5
6E7
100
AcDbEntity
  8
FASEN
100
AcDbLine
 62
7
  6
CONTINUOUS
 10
316.8677994871
 20
179.3827536135
 11
318.3677994871
 21
180.8827536135
  0
LINE
  5
6E8
100
AcDbEntity
  8
0
100
AcDbLine
 62
7
  6
CONTINUOUS
 10
314.8677994871
 20
344.7306923606
 11
315.3677994871
 21
344.7306923606
  0
LINE
  5
6E9
100
AcDbEntity
  8
0
100
AcDbLine
 62
7
  6
CONTINUOUS
 10
314.226069269
 20
348.3454381668
 11
315.3677994871
 21
348.3454381668
  0
LINE
  5
6EA
100
AcDbEntity
  8
0
100
AcDbLine
 62
7
  6
CONTINUOUS
 10
314.2503972454
 20
349.6855512923
 11
315.3677994871
 21
349.6855512923
  0
LINE
  5
6EB
100
AcDbEntity
  8
0
100
AcDbLine
 62
7
  6
CONTINUOUS
 10
314.2884942091
 20
349.8878321039
 11
315.3677994871
 21
349.8878321039
  0
LINE
  5
6EC
100
AcDbEntity
  8
0
100
AcDbLine
 62
7
  6
CONTINUOUS
 10
314.2260692648
 20
351.2441258983
 11
315.3677994871
 21
351.2441258983
  0
LINE
  5
6ED
100
AcDbEntity
  8
0
100
AcDbLine
 62
7
  6
CONTINUOUS
 10
314.2503972466
 20
352.2197543309
 11
315.3677994871
 21
352.2197543309
  0
LINE
  5
6EE
100
AcDbEntity
  8
0
100
AcDbLine
 62
7
  6
CONTINUOUS
 10
314.2884942159
 20
352.3367347151
 11
315.3677994871
 21
352.3367347151
  0
LINE
  5
6EF
100
AcDbEntity
  8
0
100
AcDbLine
 62
7
  6
CONTINUOUS
 10
314.7652923066
 20
353.0266845638
 11
315.3677994871
 21
353.0266845638
  0
LINE
  5
6F0
100
AcDbEntity
  8
0
100
AcDbLine
 62
7
  6
CONTINUOUS
 10
314.6827077631
 20
353.4200407794
 11
315.3677994871
 21
353.4200407794
  0
LINE
  5
6F1
100
AcDbEntity
  8
0
100
AcDbLine
 62
7
  6
CONTINUOUS
 10
314.6260646999
 20
353.4510857173
 11
315.3677994871
 21
353.4510857173
  0
LINE
  5
6F2
100
AcDbEntity
  8
0
100
AcDbLine
 62
7
  6
CONTINUOUS
 10
314.5079018368
 20
353.8389208403
 11
315.3677994871
 21
353.8389208403
  0
LINE
  5
6F3
100
AcDbEntity
  8
0
100
AcDbLine
 62
7
  6
CONTINUOUS
 10
314.3691902742
 20
354.2433192408
 11
315.3677994871
 21
354.2433192408
  0
LINE
  5
6F4
100
AcDbEntity
  8
0
100
AcDbLine
 62
7
  6
CONTINUOUS
 10
314.2919398603
 20
354.4565606575
 11
315.3677994871
 21
354.4565606575
  0
LINE
  5
6F5
100
AcDbEntity
  8
0
100
AcDbLine
 62
7
  6
CONTINUOUS
 10
314.2526523729
 20
354.5907869862
 11
315.3677994871
 21
354.5907869862
  0
LINE
  5
6F6
100
AcDbEntity
  8
0
100
AcDbLine
 62
7
  6
CONTINUOUS
 10
314.2520360207
 20
354.6128714193
 11
315.3677994871
 21
354.6128714193
  0
LINE
  5
6F7
100
AcDbEntity
  8
KONSTRUKTIONSELEMENTE
100
AcDbLine
 62
7
  6
CONTINUOUS
 10
173.8446985765
 20
101.8559088893
 11
169.4660136319
 21
99.3278739578
  0
LINE
  5
6F8
100
AcDbEntity
  8
KONSTRUKTIONSELEMENTE
100
AcDbLine
 62
7
  6
CONTINUOUS
 10
169.4660136319
 20
49.3839438207
 11
173.8446985765
 21
46.8559088893
  0
LINE
  5
6F9
100
AcDbEntity
  8
KONSTRUKTIONSELEMENTE
100
AcDbLine
 62
7
  6
CONTINUOUS
 10
169.4660136319
 20
99.3278739578
 11
158.0158961249
 21
79.4956886831
  0
LINE
  5
6FA
100
AcDbEntity
  8
KONSTRUKTIONSELEMENTE
100
AcDbLine
 62
7
  6
CONTINUOUS
 10
173.8446985765
 20
46.8559088893
 11
199.7607167891
 21
46.8559088893
  0
LINE
  5
6FB
100
AcDbEntity
  8
KONSTRUKTIONSELEMENTE
100
AcDbLine
 62
7
  6
CONTINUOUS
 10
158.0158964807
 20
69.2161284791
 11
169.4660136319
 21
49.3839438207
  0
LINE
  5
6FC
100
AcDbEntity
  8
RUNDUNGEN
100
AcDbLine
 62
7
  6
CONTINUOUS
 10
196.8027076828
 20
51.3559088893
 11
176.8027076828
 21
51.3559088893
  0
LINE
  5
6FD
100
AcDbEntity
  8
0
100
AcDbLine
 62
7
  6
CONTINUOUS
 10
169.4711123334
 20
68.4976391074
 11
169.4711123334
 21
67.3559088893
  0
LINE
  5
6FE
100
AcDbEntity
  8
0
100
AcDbLine
 62
7
  6
CONTINUOUS
 10
199.3027076828
 20
55.9959088893
 11
199.8027076828
 21
55.9959088893
  0
LINE
  5
6FF
100
AcDbEntity
  8
0
100
AcDbLine
 62
7
  6
CONTINUOUS
 10
199.3027076828
 20
56.0810152621
 11
199.8027076828
 21
56.0810152621
  0
LINE
  5
700
100
AcDbEntity
  8
0
100
AcDbLine
 62
7
  6
CONTINUOUS
 10
199.3027076828
 20
56.3363343806
 11
199.8027076828
 21
56.3363343806
  0
LINE
  5
701
100
AcDbEntity
  8
0
100
AcDbLine
 62
7
  6
CONTINUOUS
 10
199.3027076828
 20
56.5916534991
 11
199.8027076828
 21
56.5916534991
  0
LINE
  5
702
100
AcDbEntity
  8
0
100
AcDbLine
 62
7
  6
CONTINUOUS
 10
199.3027076828
 20
57.0171856017
 11
199.8027076828
 21
57.0171856017
  0
LINE
  5
703
100
AcDbEntity
  8
0
100
AcDbLine
 62
7
  6
CONTINUOUS
 10
199.3027076828
 20
57.2725047202
 11
199.8027076828
 21
57.2725047202
  0
LINE
  5
704
100
AcDbEntity
  8
0
100
AcDbLine
 62
7
  6
CONTINUOUS
 10
171.2784852365
 20
68.4733111309
 11
171.2784852365
 21
67.3559088893
  0
LINE
  5
705
100
AcDbEntity
  8
0
100
AcDbLine
 62
7
  6
CONTINUOUS
 10
171.7120474134
 20
68.4352141672
 11
171.7120474134
 21
67.3559088893
  0
LINE
  5
706
100
AcDbEntity
  8
0
100
AcDbLine
 62
7
  6
CONTINUOUS
 10
172.1843544097
 20
68.3200057088
 11
172.1843544097
 21
67.3559088893
  0
LINE
  5
707
100
AcDbEntity
  8
0
100
AcDbLine
 62
7
  6
CONTINUOUS
 10
172.6383803572
 20
68.1862376437
 11
172.6383803572
 21
67.3559088893
  0
LINE
  5
708
100
AcDbEntity
  8
0
100
AcDbLine
 62
7
  6
CONTINUOUS
 10
199.3027076828
 20
57.6129302115
 11
199.8027076828
 21
57.6129302115
  0
LINE
  5
709
100
AcDbEntity
  8
0
100
AcDbLine
 62
7
  6
CONTINUOUS
 10
199.3027076828
 20
57.86824933
 11
199.8027076828
 21
57.86824933
  0
LINE
  5
70A
100
AcDbEntity
  8
0
100
AcDbLine
 62
7
  6
CONTINUOUS
 10
199.3027076828
 20
57.9533557028
 11
199.8027076828
 21
57.9533557028
  0
LINE
  5
70B
100
AcDbEntity
  8
0
100
AcDbLine
 62
7
  6
CONTINUOUS
 10
199.3027076828
 20
58.0384620757
 11
199.8027076828
 21
58.0384620757
  0
LINE
  5
70C
100
AcDbEntity
  8
0
100
AcDbLine
 62
7
  6
CONTINUOUS
 10
199.3027076828
 20
58.2937811942
 11
199.8027076828
 21
58.2937811942
  0
LINE
  5
70D
100
AcDbEntity
  8
0
100
AcDbLine
 62
7
  6
CONTINUOUS
 10
199.3027076828
 20
58.7193131775
 11
199.8027076828
 21
58.7193131775
  0
LINE
  5
70E
100
AcDbEntity
  8
0
100
AcDbLine
 62
7
  6
CONTINUOUS
 10
199.3027076828
 20
58.974632296
 11
199.8027076828
 21
58.974632296
  0
LINE
  5
70F
100
AcDbEntity
  8
0
100
AcDbLine
 62
7
  6
CONTINUOUS
 10
199.3027076828
 20
59.4001642198
 11
199.8027076828
 21
59.4001642198
  0
LINE
  5
710
100
AcDbEntity
  8
0
100
AcDbLine
 62
7
  6
CONTINUOUS
 10
164.8925796381
 20
59.4496588893
 11
164.5908592469
 21
59.4496588893
  0
LINE
  5
711
100
AcDbEntity
  8
0
100
AcDbLine
 62
7
  6
CONTINUOUS
 10
199.3027076828
 20
59.6554833681
 11
199.8027076828
 21
59.6554833681
  0
LINE
  5
712
100
AcDbEntity
  8
0
100
AcDbLine
 62
7
  6
CONTINUOUS
 10
199.3027076828
 20
59.910802509
 11
199.8027076828
 21
59.910802509
  0
LINE
  5
713
100
AcDbEntity
  8
0
100
AcDbLine
 62
7
  6
CONTINUOUS
 10
199.3027076828
 20
59.9959088893
 11
199.8027076828
 21
59.9959088893
  0
LWPOLYLINE
  5
714
100
AcDbEntity
  8
RUNDUNGEN
100
AcDbPolyline
 62
7
  6
CONTINUOUS
 90
5
 70
0
 10
174.3026959719
 20
85.5474478411
 10
174.3044336545
 20
85.4629655645
 10
174.3299760186
 20
85.2068744595
 10
174.3852220399
 20
84.9567249072
 10
174.4694408039
 20
84.7141282743
  0
LINE
  5
715
100
AcDbEntity
  8
0
100
AcDbLine
 62
7
  6
CONTINUOUS
 10
172.8847657406
 20
68.1001998779
 11
172.8847657406
 21
67.3559088893
  0
LINE
  5
716
100
AcDbEntity
  8
0
100
AcDbLine
 62
7
  6
CONTINUOUS
 10
173.112870235
 20
68.0047758817
 11
173.112870235
 21
67.3559088893
  0
LINE
  5
717
100
AcDbEntity
  8
0
100
AcDbLine
 62
7
  6
CONTINUOUS
 10
173.2086413534
 20
67.9480026452
 11
173.2086413534
 21
67.3559088893
  0
LINE
  5
718
100
AcDbEntity
  8
0
100
AcDbLine
 62
7
  6
CONTINUOUS
 10
173.6363892179
 20
68.4976391116
 11
173.6363892179
 21
67.3559088893
  0
LINE
  5
719
100
AcDbEntity
  8
RUNDUNGEN
100
AcDbLine
 62
7
  6
CONTINUOUS
 10
174.3027076828
 20
52.5384757849
 11
174.3027076828
 21
64.6090737218
  0
LINE
  5
71A
100
AcDbEntity
  8
RUNDUNGEN
100
AcDbLine
 62
7
  6
CONTINUOUS
 10
174.3027076828
 20
84.1027457883
 11
174.3027076828
 21
96.1733354664
  0
LINE
  5
71B
100
AcDbEntity
  8
0
100
AcDbLine
 62
7
  6
CONTINUOUS
 10
174.3027076828
 20
86.1138849056
 11
174.3027076828
 21
94.8559088893
  0
LINE
  5
71C
100
AcDbEntity
  8
0
100
AcDbLine
 62
7
  6
CONTINUOUS
 10
175.6638628087
 20
68.4733111297
 11
175.6638628087
 21
67.3559088893
  0
LINE
  5
71D
100
AcDbEntity
  8
0
100
AcDbLine
 62
7
  6
CONTINUOUS
 10
163.9500704645
 20
60.9392411894
 11
163.6606350048
 21
60.9392411894
  0
LINE
  5
71E
100
AcDbEntity
  8
0
100
AcDbLine
 62
7
  6
CONTINUOUS
 10
163.5658179852
 20
61.6163265891
 11
163.2811103132
 21
61.6163265891
  0
LINE
  5
71F
100
AcDbEntity
  8
0
100
AcDbLine
 62
7
  6
CONTINUOUS
 10
163.0039296483
 20
62.6996588893
 11
162.7258653662
 21
62.6996588893
  0
LINE
  5
720
100
AcDbEntity
  8
0
100
AcDbLine
 62
7
  6
CONTINUOUS
 10
176.1277690776
 20
68.4352141605
 11
176.1277690776
 21
67.3559088893
  0
LINE
  5
721
100
AcDbEntity
  8
0
100
AcDbLine
 62
7
  6
CONTINUOUS
 10
176.5902297995
 20
68.3200057061
 11
176.5902297995
 21
67.3559088893
  0
LINE
  5
722
100
AcDbEntity
  8
0
100
AcDbLine
 62
7
  6
CONTINUOUS
 10
177.0097283926
 20
68.1862376409
 11
177.0097283926
 21
67.3559088893
  0
LINE
  5
723
100
AcDbEntity
  8
0
100
AcDbLine
 62
7
  6
CONTINUOUS
 10
177.2187549158
 20
68.1001998805
 11
177.2187549158
 21
67.3559088893
  0
LINE
  5
724
100
AcDbEntity
  8
0
100
AcDbLine
 62
7
  6
CONTINUOUS
 10
177.3848194263
 20
68.0047758837
 11
177.3848194263
 21
67.3559088893
  0
LINE
  5
725
100
AcDbEntity
  8
0
100
AcDbLine
 62
7
  6
CONTINUOUS
 10
177.4248894946
 20
67.9480026437
 11
177.4248894946
 21
67.3559088893
  0
LINE
  5
726
100
AcDbEntity
  8
0
100
AcDbLine
 62
7
  6
CONTINUOUS
 10
162.5032547813
 20
63.7829911894
 11
162.2308556705
 21
63.7829911894
  0
LINE
  5
727
100
AcDbEntity
  8
0
100
AcDbLine
 62
7
  6
CONTINUOUS
 10
162.3871982619
 20
64.0538265891
 11
162.1160797178
 21
64.0538265891
  0
LWPOLYLINE
  5
728
100
AcDbEntity
  8
RUNDUNGEN
100
AcDbPolyline
 62
7
  6
CONTINUOUS
 90
6
 70
0
 10
174.5796406135
 20
64.2261124881
 10
174.4676676008
 20
63.9933915806
 10
174.3842403584
 20
63.7516141104
 10
174.3295766119
 20
63.5024371631
 10
174.3043811141
 20
63.2475305078
 10
174.3026959793
 20
63.164348408
  0
LINE
  5
729
100
AcDbEntity
  8
RUNDUNGEN
100
AcDbLine
 62
7
  6
CONTINUOUS
 10
175.991690996
 20
66.2603037137
 11
175.8578863369
 21
65.9893940803
  0
LWPOLYLINE
  5
72A
100
AcDbEntity
  8
RUNDUNGEN
100
AcDbPolyline
 62
7
  6
CONTINUOUS
 90
6
 70
0
 10
175.8578863369
 20
65.9893940803
 10
175.6763418491
 20
65.6606250697
 10
175.4920456106
 20
65.368307728
 10
175.3085647626
 20
65.1153809323
 10
175.130204066
 20
64.9038398918
 10
174.8869926059
 20
64.6541578386
  0
LINE
  5
72B
100
AcDbEntity
  8
0
100
AcDbLine
 62
7
  6
CONTINUOUS
 10
161.41714767
 20
66.7517427392
 11
161.1562818663
 21
66.7517427392
  0
LINE
  5
72C
100
AcDbEntity
  8
0
100
AcDbLine
 62
7
  6
CONTINUOUS
 10
161.3769771439
 20
66.8871588893
 11
161.1165193039
 21
66.8871588893
  0
LINE
  5
72D
100
AcDbEntity
  8
0
100
AcDbLine
 62
7
  6
CONTINUOUS
 10
161.298982404
 20
67.1579927392
 11
161.0393130482
 21
67.1579927392
  0
LINE
  5
72E
100
AcDbEntity
  8
0
100
AcDbLine
 62
7
  6
CONTINUOUS
 10
203.2665861605
 20
67.3559088893
 11
197.2587538673
 21
67.3559088893
  0
LINE
  5
72F
100
AcDbEntity
  8
0
100
AcDbLine
 62
7
  6
CONTINUOUS
 10
196.9265026233
 20
67.3559088893
 11
194.6886659393
 21
67.3559088893
  0
LINE
  5
730
100
AcDbEntity
  8
0
100
AcDbLine
 62
7
  6
CONTINUOUS
 10
193.7551114422
 20
67.3559088893
 11
189.9484951257
 21
67.3559088893
  0
LINE
  5
731
100
AcDbEntity
  8
0
100
AcDbLine
 62
7
  6
CONTINUOUS
 10
188.9923319271
 20
67.3559088893
 11
187.8858822334
 21
67.3559088893
  0
LINE
  5
732
100
AcDbEntity
  8
0
100
AcDbLine
 62
7
  6
CONTINUOUS
 10
187.1763456051
 20
67.3559088893
 11
183.6978012608
 21
67.3559088893
  0
LINE
  5
733
100
AcDbEntity
  8
0
100
AcDbLine
 62
7
  6
CONTINUOUS
 10
177.4248894946
 20
67.3559088893
 11
173.6363892179
 21
67.3559088893
  0
LINE
  5
734
100
AcDbEntity
  8
0
100
AcDbLine
 62
7
  6
CONTINUOUS
 10
173.2086413534
 20
67.3559088893
 11
169.4711123334
 21
67.3559088893
  0
LINE
  5
735
100
AcDbEntity
  8
0
100
AcDbLine
 62
7
  6
CONTINUOUS
 10
161.1522820345
 20
67.6996588893
 11
160.8940829424
 21
67.6996588893
  0
LINE
  5
736
100
AcDbEntity
  8
KONSTRUKTIONSELEMENTE
100
AcDbLine
 62
7
  6
CONTINUOUS
 10
210.46022547
 20
67.8559088893
 11
203.2665861605
 21
67.8559088893
  0
LINE
  5
737
100
AcDbEntity
  8
KONSTRUKTIONSELEMENTE
100
AcDbLine
 62
7
  6
CONTINUOUS
 10
199.3249113334
 20
67.8559088893
 11
198.6435608592
 21
67.8559088893
  0
LINE
  5
738
100
AcDbEntity
  8
KONSTRUKTIONSELEMENTE
100
AcDbLine
 62
7
  6
CONTINUOUS
 10
197.3060353581
 20
67.8559088893
 11
196.9265026233
 21
67.8559088893
  0
LINE
  5
739
100
AcDbEntity
  8
KONSTRUKTIONSELEMENTE
100
AcDbLine
 62
7
  6
CONTINUOUS
 10
194.6886659393
 20
67.8559088893
 11
193.7551114422
 21
67.8559088893
  0
LINE
  5
73A
100
AcDbEntity
  8
KONSTRUKTIONSELEMENTE
100
AcDbLine
 62
7
  6
CONTINUOUS
 10
190.1250938928
 20
67.8559088893
 11
186.9846337551
 21
67.8559088893
  0
LINE
  5
73B
100
AcDbEntity
  8
KONSTRUKTIONSELEMENTE
100
AcDbLine
 62
7
  6
CONTINUOUS
 10
183.6978012608
 20
67.8559088893
 11
177.4248894946
 21
67.8559088893
  0
LINE
  5
73C
100
AcDbEntity
  8
KONSTRUKTIONSELEMENTE
100
AcDbLine
 62
7
  6
CONTINUOUS
 10
173.6363892179
 20
67.8559088893
 11
173.2108240752
 21
67.8559088893
  0
LINE
  5
73D
100
AcDbEntity
  8
KONSTRUKTIONSELEMENTE
100
AcDbLine
 62
7
  6
CONTINUOUS
 10
169.4711123334
 20
67.8559088893
 11
163.1450782254
 21
67.8559088893
  0
LWPOLYLINE
  5
73E
100
AcDbEntity
  8
RUNDUNGEN
100
AcDbPolyline
 62
7
  6
CONTINUOUS
 90
3
 70
0
 10
175.6801124878
 20
83.0447899044
 10
175.8616685815
 20
82.7151126062
 10
175.9915978752
 20
82.4517116751
  0
LINE
  5
73F
100
AcDbEntity
  8
RUNDUNGEN
100
AcDbLine
 62
7
  6
CONTINUOUS
 10
174.4694408039
 20
84.7141282743
 11
174.5824232159
 21
84.4807038994
  0
LINE
  5
740
100
AcDbEntity
  8
0
100
AcDbLine
 62
7
  6
CONTINUOUS
 10
183.6978012608
 20
68.0976436765
 11
183.6978012608
 21
67.3559088893
  0
LINE
  5
741
100
AcDbEntity
  8
0
100
AcDbLine
 62
7
  6
CONTINUOUS
 10
183.7688349258
 20
68.2158065396
 11
183.7688349258
 21
67.3559088893
  0
LINE
  5
742
100
AcDbEntity
  8
0
100
AcDbLine
 62
7
  6
CONTINUOUS
 10
184.120629373
 20
68.3545181021
 11
184.120629373
 21
67.3559088893
  0
LINE
  5
743
100
AcDbEntity
  8
RUNDUNGEN
100
AcDbLine
 62
7
  6
CONTINUOUS
 10
174.7194939565
 20
64.4469782285
 11
174.5796406135
 21
64.2261124881
  0
LINE
  5
744
100
AcDbEntity
  8
RUNDUNGEN
100
AcDbLine
 62
7
  6
CONTINUOUS
 10
174.8869926059
 20
64.6541578386
 11
174.7194939565
 21
64.4469782285
  0
LINE
  5
745
100
AcDbEntity
  8
KONSTRUKTIONSELEMENTE
100
AcDbLine
 62
7
  6
CONTINUOUS
 10
218.4665161416
 20
70.3559088893
 11
217.4306574391
 21
70.3559088893
  0
LINE
  5
746
100
AcDbEntity
  8
KONSTRUKTIONSELEMENTE
100
AcDbLine
 62
7
  6
CONTINUOUS
 10
156.1747579265
 20
70.3559088893
 11
155.138899224
 21
70.3559088893
  0
LINE
  5
747
100
AcDbEntity
  8
RUNDUNGEN
100
AcDbLine
 62
7
  6
CONTINUOUS
 10
174.7235194268
 20
84.2592426702
 11
174.8925625647
 21
84.0515510741
  0
LINE
  5
748
100
AcDbEntity
  8
RUNDUNGEN
100
AcDbLine
 62
7
  6
CONTINUOUS
 10
174.5824232159
 20
84.4807038994
 11
174.7235194268
 21
84.2592426702
  0
LINE
  5
749
100
AcDbEntity
  8
0
100
AcDbLine
 62
7
  6
CONTINUOUS
 10
184.483700987
 20
68.4317685161
 11
184.483700987
 21
67.3559088893
  0
LINE
  5
74A
100
AcDbEntity
  8
0
100
AcDbLine
 62
7
  6
CONTINUOUS
 10
185.1331741086
 20
68.4710560035
 11
185.1331741086
 21
67.3559088893
  0
LINE
  5
74B
100
AcDbEntity
  8
0
100
AcDbLine
 62
7
  6
CONTINUOUS
 10
185.5075228893
 20
68.4716723556
 11
185.5075228893
 21
67.3559088893
  0
LINE
  5
74C
100
AcDbEntity
  8
0
100
AcDbLine
 62
7
  6
CONTINUOUS
 10
186.0746851791
 20
68.4330337643
 11
186.0746851791
 21
67.3559088893
  0
LINE
  5
74D
100
AcDbEntity
  8
0
100
AcDbLine
 62
7
  6
CONTINUOUS
 10
186.4603111265
 20
68.3562445604
 11
186.4603111265
 21
67.3559088893
  0
LINE
  5
74E
100
AcDbEntity
  8
0
100
AcDbLine
 62
7
  6
CONTINUOUS
 10
186.8572153117
 20
68.2177368119
 11
186.8572153117
 21
67.3559088893
  0
LINE
  5
74F
100
AcDbEntity
  8
0
100
AcDbLine
 62
7
  6
CONTINUOUS
 10
186.9733565725
 20
68.0993223058
 11
186.9733565725
 21
67.3559088893
  0
LINE
  5
750
100
AcDbEntity
  8
0
100
AcDbLine
 62
7
  6
CONTINUOUS
 10
186.9846337551
 20
68.0486299761
 11
186.9846337551
 21
67.3559088893
  0
LINE
  5
751
100
AcDbEntity
  8
0
100
AcDbLine
 62
7
  6
CONTINUOUS
 10
187.1481526844
 20
67.8559088893
 11
187.1481526844
 21
67.3559088893
  0
LINE
  5
752
100
AcDbEntity
  8
0
100
AcDbLine
 62
7
  6
CONTINUOUS
 10
187.1763456051
 20
67.8559088893
 11
187.1763456051
 21
67.3559088893
  0
LINE
  5
753
100
AcDbEntity
  8
RUNDUNGEN
100
AcDbLine
 62
7
  6
CONTINUOUS
 10
174.9995279001
 20
64.7696930868
 11
174.9985313466
 21
64.7687366503
  0
LINE
  5
754
100
AcDbEntity
  8
RUNDUNGEN
100
AcDbLine
 62
7
  6
CONTINUOUS
 10
174.999487587
 20
83.942122933
 11
174.9984007295
 21
83.9431661071
  0
LWPOLYLINE
  5
755
100
AcDbEntity
  8
RUNDUNGEN
100
AcDbPolyline
 62
7
  6
CONTINUOUS
 90
5
 70
0
 10
174.8925625647
 20
84.0515510741
 10
175.1336772373
 20
83.8041736167
 10
175.3121937947
 20
83.5917863346
 10
175.4957694506
 20
83.3379927796
 10
175.6801124878
 20
83.0447899044
  0
LINE
  5
756
100
AcDbEntity
  8
0
100
AcDbLine
 62
7
  6
CONTINUOUS
 10
187.8858822334
 20
67.8559088893
 11
187.8858822334
 21
67.3559088893
  0
LINE
  5
757
100
AcDbEntity
  8
0
100
AcDbLine
 62
7
  6
CONTINUOUS
 10
188.5248699988
 20
67.8559088893
 11
188.5248699988
 21
67.3559088893
  0
LINE
  5
758
100
AcDbEntity
  8
0
100
AcDbLine
 62
7
  6
CONTINUOUS
 10
188.9923319271
 20
67.8559088893
 11
188.9923319271
 21
67.3559088893
  0
LINE
  5
759
100
AcDbEntity
  8
0
100
AcDbLine
 62
7
  6
CONTINUOUS
 10
189.9484951257
 20
67.8559088893
 11
189.9484951257
 21
67.3559088893
  0
LINE
  5
75A
100
AcDbEntity
  8
RUNDUNGEN
100
AcDbLine
 62
7
  6
CONTINUOUS
 10
198.718420798
 20
84.057657512
 11
198.8859198935
 21
84.2648371417
  0
LINE
  5
75B
100
AcDbEntity
  8
RUNDUNGEN
100
AcDbLine
 62
7
  6
CONTINUOUS
 10
198.6058871531
 20
83.9421244266
 11
198.606883156
 21
83.9430803341
  0
LINE
  5
75C
100
AcDbEntity
  8
RUNDUNGEN
100
AcDbLine
 62
7
  6
CONTINUOUS
 10
198.6059256805
 20
64.7696968291
 11
198.607012345
 21
64.7686538435
  0
LWPOLYLINE
  5
75D
100
AcDbEntity
  8
RUNDUNGEN
100
AcDbPolyline
 62
7
  6
CONTINUOUS
 90
5
 70
0
 10
198.7128503749
 20
64.6602693882
 10
198.4717555635
 20
64.9076250685
 10
198.2932524052
 20
65.1199915668
 10
198.109681294
 20
65.3737726507
 10
197.925334149
 20
65.6669746939
  0
LINE
  5
75E
100
AcDbEntity
  8
RUNDUNGEN
100
AcDbLine
 62
7
  6
CONTINUOUS
 10
198.881894121
 20
64.4525777522
 11
198.7128503749
 21
64.6602693882
  0
LINE
  5
75F
100
AcDbEntity
  8
0
100
AcDbLine
 62
7
  6
CONTINUOUS
 10
190.1250938928
 20
67.8642522334
 11
190.1250938928
 21
67.3559088893
  0
LINE
  5
760
100
AcDbEntity
  8
0
100
AcDbLine
 62
7
  6
CONTINUOUS
 10
190.6352680844
 20
68.4962022798
 11
190.6352680844
 21
67.3559088893
  0
LINE
  5
761
100
AcDbEntity
  8
RUNDUNGEN
100
AcDbLine
 62
7
  6
CONTINUOUS
 10
197.6137205493
 20
82.4515058015
 11
197.7475368908
 21
82.7224389743
  0
LWPOLYLINE
  5
762
100
AcDbEntity
  8
RUNDUNGEN
100
AcDbPolyline
 62
7
  6
CONTINUOUS
 90
6
 70
0
 10
197.7475368908
 20
82.7224389743
 10
197.9290855699
 20
83.0512131426
 10
198.1133834631
 20
83.3435301884
 10
198.2968627914
 20
83.5964524746
 10
198.4752185011
 20
83.8079857712
 10
198.718420798
 20
84.057657512
  0
LINE
  5
763
100
AcDbEntity
  8
RUNDUNGEN
100
AcDbLine
 62
7
  6
CONTINUOUS
 10
198.8859198935
 20
84.2648371417
 11
199.0257737474
 21
84.4857032371
  0
LINE
  5
764
100
AcDbEntity
  8
KONSTRUKTIONSELEMENTE
100
AcDbLine
 62
7
  6
CONTINUOUS
 10
218.4665161416
 20
78.3559088893
 11
217.4306574391
 21
78.3559088893
  0
LINE
  5
765
100
AcDbEntity
  8
KONSTRUKTIONSELEMENTE
100
AcDbLine
 62
7
  6
CONTINUOUS
 10
156.1747579265
 20
78.3559088893
 11
155.138899224
 21
78.3559088893
  0
LINE
  5
766
100
AcDbEntity
  8
RUNDUNGEN
100
AcDbLine
 62
7
  6
CONTINUOUS
 10
199.0229909142
 20
64.2311162597
 11
198.881894121
 21
64.4525777522
  0
LINE
  5
767
100
AcDbEntity
  8
RUNDUNGEN
100
AcDbLine
 62
7
  6
CONTINUOUS
 10
197.925334149
 20
65.6669746939
 11
197.7437661806
 21
65.9966675533
  0
LINE
  5
768
100
AcDbEntity
  8
RUNDUNGEN
100
AcDbLine
 62
7
  6
CONTINUOUS
 10
197.7437661806
 20
65.9966675533
 11
197.613813539
 21
66.2601145351
  0
LINE
  5
769
100
AcDbEntity
  8
0
100
AcDbLine
 62
7
  6
CONTINUOUS
 10
193.7551114422
 20
68.4908637593
 11
193.7551114422
 21
67.3559088893
  0
LINE
  5
76A
100
AcDbEntity
  8
0
100
AcDbLine
 62
7
  6
CONTINUOUS
 10
194.6886659393
 20
67.9281225689
 11
194.6886659393
 21
67.3559088893
  0
LINE
  5
76B
100
AcDbEntity
  8
0
100
AcDbLine
 62
7
  6
CONTINUOUS
 10
194.8258865755
 20
67.9973931925
 11
194.8258865755
 21
67.3559088893
  0
LINE
  5
76C
100
AcDbEntity
  8
0
100
AcDbLine
 62
7
  6
CONTINUOUS
 10
195.5260932603
 20
67.9927244362
 11
195.5260932603
 21
67.3559088893
  0
LWPOLYLINE
  5
76D
100
AcDbEntity
  8
RUNDUNGEN
100
AcDbPolyline
 62
7
  6
CONTINUOUS
 90
6
 70
0
 10
199.0257737474
 20
84.4857032371
 10
199.1377472289
 20
84.7184247302
 10
199.2211748518
 20
84.9602029783
 10
199.275838797
 20
85.2093806607
 10
199.3010343142
 20
85.4642878092
 10
199.3027194319
 20
85.5474683347
  0
LINE
  5
76E
100
AcDbEntity
  8
KONSTRUKTIONSELEMENTE
100
AcDbLine
 62
7
  6
CONTINUOUS
 10
210.460343542
 20
80.8559088893
 11
163.1451949569
 21
80.8559088893
  0
LINE
  5
76F
100
AcDbEntity
  8
0
100
AcDbLine
 62
7
  6
CONTINUOUS
 10
161.176793065
 20
81.1059088893
 11
160.9183494717
 21
81.1059088893
  0
LINE
  5
770
100
AcDbEntity
  8
RUNDUNGEN
100
AcDbLine
 62
7
  6
CONTINUOUS
 10
199.1359738362
 20
63.9976914347
 11
199.0229909142
 21
64.2311162597
  0
LINE
  5
771
100
AcDbEntity
  8
0
100
AcDbLine
 62
7
  6
CONTINUOUS
 10
195.8005346289
 20
68.2019249479
 11
195.8005346289
 21
67.3559088893
  0
LINE
  5
772
100
AcDbEntity
  8
0
100
AcDbLine
 62
7
  6
CONTINUOUS
 10
196.2381623044
 20
68.2010664913
 11
196.2381623044
 21
67.3559088893
  0
LINE
  5
773
100
AcDbEntity
  8
0
100
AcDbLine
 62
7
  6
CONTINUOUS
 10
196.9265026233
 20
67.9973931925
 11
196.9265026233
 21
67.3559088893
  0
LINE
  5
774
100
AcDbEntity
  8
0
100
AcDbLine
 62
7
  6
CONTINUOUS
 10
197.2587538673
 20
67.8567078528
 11
197.2587538673
 21
67.3559088893
  0
LINE
  5
775
100
AcDbEntity
  8
0
100
AcDbLine
 62
7
  6
CONTINUOUS
 10
197.4808328536
 20
67.8668283072
 11
197.4808328536
 21
67.3559088893
  0
LINE
  5
776
100
AcDbEntity
  8
0
100
AcDbLine
 62
7
  6
CONTINUOUS
 10
198.6435608592
 20
67.8666735301
 11
198.6435608592
 21
67.3559088893
  0
LINE
  5
777
100
AcDbEntity
  8
0
100
AcDbLine
 62
7
  6
CONTINUOUS
 10
162.2619252992
 20
84.3559088893
 11
161.992175645
 21
84.3559088893
  0
LWPOLYLINE
  5
778
100
AcDbEntity
  8
RUNDUNGEN
100
AcDbPolyline
 62
7
  6
CONTINUOUS
 90
5
 70
0
 10
199.3027193778
 20
63.1643709028
 10
199.3009816994
 20
63.2488522258
 10
199.2754392543
 20
63.5049439874
 10
199.2201929958
 20
63.755094204
 10
199.1359738362
 20
63.9976914347
  0
LINE
  5
779
100
AcDbEntity
  8
RUNDUNGEN
100
AcDbLine
 62
7
  6
CONTINUOUS
 10
199.3027076828
 20
52.53848466
 11
199.3027076828
 21
64.6091145444
  0
LINE
  5
77A
100
AcDbEntity
  8
RUNDUNGEN
100
AcDbLine
 62
7
  6
CONTINUOUS
 10
199.3027076828
 20
84.1027032341
 11
199.3027076828
 21
96.1733440662
  0
LINE
  5
77B
100
AcDbEntity
  8
0
100
AcDbLine
 62
7
  6
CONTINUOUS
 10
199.8027076828
 20
94.1840456009
 11
199.8027076828
 21
93.4165475863
  0
LINE
  5
77C
100
AcDbEntity
  8
0
100
AcDbLine
 62
7
  6
CONTINUOUS
 10
199.8027076828
 20
93.3532976642
 11
199.8027076828
 21
89.1849479566
  0
LINE
  5
77D
100
AcDbEntity
  8
0
100
AcDbLine
 62
7
  6
CONTINUOUS
 10
199.8027076828
 20
59.9959088893
 11
199.8027076828
 21
55.9959088893
  0
LINE
  5
77E
100
AcDbEntity
  8
0
100
AcDbLine
 62
7
  6
CONTINUOUS
 10
200.9680160562
 20
68.4976391199
 11
200.9680160562
 21
67.3559088893
  0
LINE
  5
77F
100
AcDbEntity
  8
0
100
AcDbLine
 62
7
  6
CONTINUOUS
 10
163.1280121
 20
86.2621588893
 11
162.8485074052
 21
86.2621588893
  0
LINE
  5
780
100
AcDbEntity
  8
0
100
AcDbLine
 62
7
  6
CONTINUOUS
 10
163.7046401993
 20
87.3454923517
 11
163.418242295
 21
87.3454923517
  0
LINE
  5
781
100
AcDbEntity
  8
0
100
AcDbLine
 62
7
  6
CONTINUOUS
 10
163.7813181722
 20
87.4809088893
 11
163.4939780949
 21
87.4809088893
  0
LINE
  5
782
100
AcDbEntity
  8
0
100
AcDbLine
 62
7
  6
CONTINUOUS
 10
164.0177285642
 20
87.8871588893
 11
163.7274444462
 21
87.8871588893
  0
LINE
  5
783
100
AcDbEntity
  8
0
100
AcDbLine
 62
7
  6
CONTINUOUS
 10
164.3482421998
 20
88.4288254268
 11
164.0537402309
 21
88.4288254268
  0
LINE
  5
784
100
AcDbEntity
  8
0
100
AcDbLine
 62
7
  6
CONTINUOUS
 10
202.7976124349
 20
68.4733111273
 11
202.7976124349
 21
67.3559088893
  0
LINE
  5
785
100
AcDbEntity
  8
0
100
AcDbLine
 62
7
  6
CONTINUOUS
 10
203.1230514524
 20
68.4352141829
 11
203.1230514524
 21
67.3559088893
  0
LINE
  5
786
100
AcDbEntity
  8
0
100
AcDbLine
 62
7
  6
CONTINUOUS
 10
203.2607988451
 20
68.3200057005
 11
203.2607988451
 21
67.3559088893
  0
LINE
  5
787
100
AcDbEntity
  8
0
100
AcDbLine
 62
7
  6
CONTINUOUS
 10
203.2665861605
 20
68.1862376353
 11
203.2665861605
 21
67.3559088893
  0
LINE
  5
788
100
AcDbEntity
  8
0
100
AcDbLine
 62
7
  6
CONTINUOUS
 10
164.7870882275
 20
89.1059088893
 11
164.4867940784
 21
89.1059088893
  0
LINE
  5
789
100
AcDbEntity
  8
0
100
AcDbLine
 62
7
  6
CONTINUOUS
 10
199.3027076828
 20
89.1844967787
 11
199.8027076828
 21
89.1844967787
  0
LINE
  5
78A
100
AcDbEntity
  8
0
100
AcDbLine
 62
7
  6
CONTINUOUS
 10
199.3027076828
 20
89.1970281859
 11
199.8027076828
 21
89.1970281859
  0
LINE
  5
78B
100
AcDbEntity
  8
0
100
AcDbLine
 62
7
  6
CONTINUOUS
 10
199.3027076828
 20
89.9524459711
 11
199.8027076828
 21
89.9524459711
  0
LINE
  5
78C
100
AcDbEntity
  8
0
100
AcDbLine
 62
7
  6
CONTINUOUS
 10
199.3027076828
 20
91.3090789935
 11
199.8027076828
 21
91.3090789935
  0
LINE
  5
78D
100
AcDbEntity
  8
0
100
AcDbLine
 62
7
  6
CONTINUOUS
 10
199.3027076828
 20
92.0644967787
 11
199.8027076828
 21
92.0644967787
  0
LINE
  5
78E
100
AcDbEntity
  8
0
100
AcDbLine
 62
7
  6
CONTINUOUS
 10
167.354057344
 20
92.3559088893
 11
167.0147694375
 21
92.3559088893
  0
LINE
  5
78F
100
AcDbEntity
  8
0
100
AcDbLine
 62
7
  6
CONTINUOUS
 10
199.3027076828
 20
93.4165475863
 11
199.8027076828
 21
93.4165475863
  0
LINE
  5
790
100
AcDbEntity
  8
0
100
AcDbLine
 62
7
  6
CONTINUOUS
 10
199.3027076828
 20
94.1719653715
 11
199.8027076828
 21
94.1719653715
  0
LINE
  5
791
100
AcDbEntity
  8
0
100
AcDbLine
 62
7
  6
CONTINUOUS
 10
199.3027076828
 20
94.1844967787
 11
199.8027076828
 21
94.1844967787
  0
LINE
  5
792
100
AcDbEntity
  8
RUNDUNGEN
100
AcDbLine
 62
7
  6
CONTINUOUS
 10
176.8027076828
 20
97.3559088893
 11
196.8027076828
 21
97.3559088893
  0
LINE
  5
793
100
AcDbEntity
  8
KONSTRUKTIONSELEMENTE
100
AcDbLine
 62
7
  6
CONTINUOUS
 10
204.1394017337
 20
49.3839438207
 11
215.5895105166
 21
69.2161139849
  0
LINE
  5
794
100
AcDbEntity
  8
KONSTRUKTIONSELEMENTE
100
AcDbLine
 62
7
  6
CONTINUOUS
 10
199.7607167891
 20
101.8559088893
 11
173.8446985765
 21
101.8559088893
  0
LINE
  5
795
100
AcDbEntity
  8
KONSTRUKTIONSELEMENTE
100
AcDbLine
 62
7
  6
CONTINUOUS
 10
215.5895106537
 20
79.4957035563
 11
204.1394017337
 21
99.3278739578
  0
LINE
  5
796
100
AcDbEntity
  8
KONSTRUKTIONSELEMENTE
100
AcDbLine
 62
7
  6
CONTINUOUS
 10
199.7607167891
 20
46.8559088893
 11
204.1394017337
 21
49.3839438207
  0
LINE
  5
797
100
AcDbEntity
  8
KONSTRUKTIONSELEMENTE
100
AcDbLine
 62
7
  6
CONTINUOUS
 10
204.1394017337
 20
99.3278739578
 11
199.7607167891
 21
101.8559088893
  0
ARC
  5
798
100
AcDbEntity
  8
RUNDUNGEN
100
AcDbCircle
 62
7
  6
CONTINUOUS
 10
169.3027076828
 20
252.2827536135
 40
5.0
100
AcDbArc
 50
270.0018452386
 51
360.0
  0
ARC
  5
799
100
AcDbEntity
  8
RUNDUNGEN
100
AcDbCircle
 62
7
  6
CONTINUOUS
 10
162.8027076828
 20
244.7827536135
 40
2.5
100
AcDbArc
 50
90.0
 51
180.0
  0
ARC
  5
79A
100
AcDbEntity
  8
KONSTRUKTIONSELEMENTE
100
AcDbCircle
 62
7
  6
CONTINUOUS
 10
109.3430407587
 20
307.8827536135
 40
110.5
100
AcDbArc
 50
345.5224878141
 51
14.4775121859
  0
ARC
  5
79B
100
AcDbEntity
  8
KONSTRUKTIONSELEMENTE
100
AcDbCircle
 62
7
  6
CONTINUOUS
 10
109.3430407587
 20
307.8827536135
 40
109.123475383
100
AcDbArc
 50
352.0991659289
 51
7.9008340711
  0
ARC
  5
79C
100
AcDbEntity
  8
KONSTRUKTIONSELEMENTE
100
AcDbCircle
 62
7
  6
CONTINUOUS
 10
109.3430407587
 20
307.8827536135
 40
98.876524617
100
AcDbArc
 50
351.2742902858
 51
8.7257097142
  0
ARC
  5
79D
100
AcDbEntity
  8
KONSTRUKTIONSELEMENTE
100
AcDbCircle
 62
7
  6
CONTINUOUS
 10
109.3430407587
 20
307.8827536135
 40
97.5
100
AcDbArc
 50
345.5224878141
 51
14.4775121859
  0
ARC
  5
79E
100
AcDbEntity
  8
RUNDUNGEN
100
AcDbCircle
 62
7
  6
CONTINUOUS
 10
186.8027076828
 20
275.2827536135
 40
12.5
100
AcDbArc
 50
0.0
 51
180.0
  0
ARC
  5
79F
100
AcDbEntity
  8
RUNDUNGEN
100
AcDbCircle
 62
7
  6
CONTINUOUS
 10
204.3027076828
 20
252.2827536135
 40
5.0
100
AcDbArc
 50
180.0
 51
269.9983551441
  0
ARC
  5
7A0
100
AcDbEntity
  8
RUNDUNGEN
100
AcDbCircle
 62
7
  6
CONTINUOUS
 10
210.8027076828
 20
244.7827536135
 40
2.5
100
AcDbArc
 50
0.0
 51
90.0
  0
ARC
  5
7A1
100
AcDbEntity
  8
KONSTRUKTIONSELEMENTE
100
AcDbCircle
 62
7
  6
CONTINUOUS
 10
264.262374607
 20
307.8827536135
 40
110.5
100
AcDbArc
 50
165.5224878141
 51
194.4775121859
  0
ARC
  5
7A2
100
AcDbEntity
  8
KONSTRUKTIONSELEMENTE
100
AcDbCircle
 62
7
  6
CONTINUOUS
 10
264.262374607
 20
307.8827536135
 40
109.123475383
100
AcDbArc
 50
172.0991659289
 51
187.9008340711
  0
ARC
  5
7A3
100
AcDbEntity
  8
KONSTRUKTIONSELEMENTE
100
AcDbCircle
 62
7
  6
CONTINUOUS
 10
264.262374607
 20
307.8827536135
 40
98.876524617
100
AcDbArc
 50
171.2742902858
 51
188.7257097142
  0
ARC
  5
7A4
100
AcDbEntity
  8
KONSTRUKTIONSELEMENTE
100
AcDbCircle
 62
7
  6
CONTINUOUS
 10
264.262374607
 20
307.8827536135
 40
97.5
100
AcDbArc
 50
165.5224878141
 51
194.4775121859
  0
ARC
  5
7A5
100
AcDbEntity
  8
KONSTRUKTIONSELEMENTE
100
AcDbCircle
 62
7
  6
CONTINUOUS
 10
186.8027076828
 20
287.8827536135
 40
30.5
100
AcDbArc
 50
294.2064305507
 51
294.2301563398
  0
ARC
  5
7A6
100
AcDbEntity
  8
KONSTRUKTIONSELEMENTE
100
AcDbCircle
 62
7
  6
CONTINUOUS
 10
186.8027076828
 20
287.8827536135
 40
30.5
100
AcDbArc
 50
194.4775121859
 51
245.7918054698
  0
ARC
  5
7A7
100
AcDbEntity
  8
KONSTRUKTIONSELEMENTE
100
AcDbCircle
 62
7
  6
CONTINUOUS
 10
186.8027076828
 20
287.8827536135
 40
30.5
100
AcDbArc
 50
295.22950135
 51
345.5224878141
  0
ARC
  5
7A8
100
AcDbEntity
  8
KONSTRUKTIONSELEMENTE
100
AcDbCircle
 62
7
  6
CONTINUOUS
 10
186.8027076828
 20
327.8827536135
 40
30.5
100
AcDbArc
 50
14.4775121859
 51
165.5224878141
  0
ARC
  5
7A9
100
AcDbEntity
  8
KONSTRUKTIONSELEMENTE
100
AcDbCircle
 62
7
  6
CONTINUOUS
 10
186.8027076828
 20
327.8827536135
 40
17.5
100
AcDbArc
 50
14.4775121859
 51
165.5224878141
  0
ARC
  5
7AA
100
AcDbEntity
  8
KONSTRUKTIONSELEMENTE
100
AcDbCircle
 62
7
  6
CONTINUOUS
 10
186.8027076828
 20
287.8827536135
 40
17.5
100
AcDbArc
 50
194.4775121859
 51
224.4756931306
  0
ARC
  5
7AB
100
AcDbEntity
  8
KONSTRUKTIONSELEMENTE
100
AcDbCircle
 62
7
  6
CONTINUOUS
 10
186.8027076828
 20
287.8827536135
 40
17.5
100
AcDbArc
 50
315.5243075197
 51
345.5224878141
  0
ARC
  5
7AC
100
AcDbEntity
  8
RUNDUNGEN
100
AcDbCircle
 62
7
  6
CONTINUOUS
 10
289.3677994871
 20
280.9639815097
 40
4.0
100
AcDbArc
 50
140.0037374998
 51
179.9997921047
  0
ARC
  5
7AD
100
AcDbEntity
  8
RUNDUNGEN
100
AcDbCircle
 62
7
  6
CONTINUOUS
 10
281.8677994871
 20
269.7827536135
 40
3.5
100
AcDbArc
 50
330.0
 51
360.0
  0
ARC
  5
7AE
100
AcDbEntity
  8
RUNDUNGEN
100
AcDbCircle
 62
7
  6
CONTINUOUS
 10
284.8678042631
 20
261.9789143084
 40
3.0
100
AcDbArc
 50
150.0001824283
 51
180.0001579872
  0
ARC
  5
7AF
100
AcDbEntity
  8
RUNDUNGEN
100
AcDbCircle
 62
7
  6
CONTINUOUS
 10
296.6098234708
 20
285.2827536135
 40
2.5
100
AcDbArc
 50
56.8465915844
 51
90.0
  0
ARC
  5
7B0
100
AcDbEntity
  8
RUNDUNGEN
100
AcDbCircle
 62
7
  6
CONTINUOUS
 10
291.0335312899
 20
285.2827091103
 40
2.5
100
AcDbArc
 50
90.0013403835
 51
140.0
  0
ARC
  5
7B1
100
AcDbEntity
  8
0
100
AcDbCircle
 62
7
  6
CONTINUOUS
 10
294.3437955016
 20
349.3766518618
 40
19.9089982632
100
AcDbArc
 50
357.030958424
 51
0.8890122754
  0
ARC
  5
7B2
100
AcDbEntity
  8
0
100
AcDbCircle
 62
7
  6
CONTINUOUS
 10
303.6880976752
 20
351.9950151729
 40
10.5646902427
100
AcDbArc
 50
355.9242447233
 51
1.2189260937
  0
ARC
  5
7B3
100
AcDbEntity
  8
0
100
AcDbCircle
 62
7
  6
CONTINUOUS
 10
306.1767737412
 20
351.310841362
 40
8.2355913145
100
AcDbArc
 50
348.6179906498
 51
350.0500557871
  0
ARC
  5
7B4
100
AcDbEntity
  8
0
100
AcDbCircle
 62
7
  6
CONTINUOUS
 10
307.7201773763
 20
351.7366712185
 40
7.1058185189
100
AcDbArc
 50
17.2084567942
 51
20.6562177937
  0
ARC
  5
7B5
100
AcDbEntity
  8
0
100
AcDbCircle
 62
7
  6
CONTINUOUS
 10
308.0702453436
 20
351.6656231036
 40
6.7946040486
100
AcDbArc
 50
15.2348768256
 51
18.6542420928
  0
ARC
  5
7B6
100
AcDbEntity
  8
0
100
AcDbCircle
 62
7
  6
CONTINUOUS
 10
308.1255042723
 20
351.8638875095
 40
6.7408369013
100
AcDbArc
 50
4.0230329589
 51
9.933229467
  0
ARC
  5
7B7
100
AcDbEntity
  8
0
100
AcDbCircle
 62
7
  6
CONTINUOUS
 10
308.3330068982
 20
351.8815833126
 40
6.5334181291
100
AcDbArc
 50
10.0942733314
 51
13.6196315585
  0
ARC
  5
7B8
100
AcDbEntity
  8
0
100
AcDbCircle
 62
7
  6
CONTINUOUS
 10
308.3677994871
 20
303.2827536135
 40
19.0
100
AcDbArc
 50
236.8465915844
 51
251.4608334722
  0
ARC
  5
7B9
100
AcDbEntity
  8
0
100
AcDbCircle
 62
7
  6
CONTINUOUS
 10
308.3677994871
 20
303.2827536135
 40
19.0
100
AcDbArc
 50
288.5391665278
 51
303.1534084156
  0
ARC
  5
7BA
100
AcDbEntity
  8
RUNDUNGEN
100
AcDbCircle
 62
7
  6
CONTINUOUS
 10
308.3677994871
 20
259.2827536135
 40
10.0
100
AcDbArc
 50
138.0
 51
42.0
  0
ARC
  5
7BB
100
AcDbEntity
  8
KONSTRUKTIONSELEMENTE
100
AcDbCircle
 62
7
  6
CONTINUOUS
 10
308.3677994871
 20
263.8827536135
 40
6.5
100
AcDbArc
 50
180.0
 51
360.0
  0
ARC
  5
7BC
100
AcDbEntity
  8
RUNDUNGEN
100
AcDbCircle
 62
7
  6
CONTINUOUS
 10
327.3677994871
 20
280.9639815097
 40
4.0
100
AcDbArc
 50
0.0001746461
 51
40.0
  0
ARC
  5
7BD
100
AcDbEntity
  8
RUNDUNGEN
100
AcDbCircle
 62
7
  6
CONTINUOUS
 10
334.8677994871
 20
269.7827536135
 40
3.5
100
AcDbArc
 50
180.0
 51
210.0
  0
ARC
  5
7BE
100
AcDbEntity
  8
RUNDUNGEN
100
AcDbCircle
 62
7
  6
CONTINUOUS
 10
331.8677947477
 20
261.9789142451
 40
3.0
100
AcDbArc
 50
359.9998432218
 51
29.9998189678
  0
ARC
  5
7BF
100
AcDbEntity
  8
RUNDUNGEN
100
AcDbCircle
 62
7
  6
CONTINUOUS
 10
320.1257755034
 20
285.2827536135
 40
2.5
100
AcDbArc
 50
90.0
 51
123.1534084156
  0
ARC
  5
7C0
100
AcDbEntity
  8
RUNDUNGEN
100
AcDbCircle
 62
7
  6
CONTINUOUS
 10
325.702067462
 20
285.2827093752
 40
2.5
100
AcDbArc
 50
40.0
 51
89.9986678936
  0
ARC
  5
7C1
100
AcDbEntity
  8
KONSTRUKTIONSELEMENTE
100
AcDbCircle
 62
7
  6
CONTINUOUS
 10
308.3677994871
 20
351.8827536135
 40
6.5
100
AcDbArc
 50
24.8906509874
 51
180.0
  0
ARC
  5
7C2
100
AcDbEntity
  8
0
100
AcDbCircle
 62
7
  6
CONTINUOUS
 10
308.3776580078
 20
351.8811582891
 40
6.4901318735
100
AcDbArc
 50
13.7160992953
 51
13.9984784709
  0
ARC
  5
7C3
100
AcDbEntity
  8
0
100
AcDbCircle
 62
7
  6
CONTINUOUS
 10
308.4150604042
 20
352.2069454468
 40
6.2927323745
100
AcDbArc
 50
18.8812167507
 51
20.9463846633
  0
ARC
  5
7C4
100
AcDbEntity
  8
0
100
AcDbCircle
 62
7
  6
CONTINUOUS
 10
311.3780357798
 20
353.2198891986
 40
3.0415012987
100
AcDbArc
 50
340.8022633424
 51
343.1200143353
  0
ARC
  5
7C5
100
AcDbEntity
  8
0
100
AcDbCircle
 62
7
  6
CONTINUOUS
 10
312.0851102941
 20
353.8834936409
 40
2.2800224867
100
AcDbArc
 50
14.556980709
 51
18.0720866127
  0
ARC
  5
7C6
100
AcDbEntity
  8
0
100
AcDbCircle
 62
7
  6
CONTINUOUS
 10
314.0542360687
 20
354.5963002235
 40
0.1984928854
100
AcDbArc
 50
358.408376911
 51
4.788917085
  0
ARC
  5
7C7
100
AcDbEntity
  8
RUNDUNGEN
100
AcDbCircle
 62
7
  6
CONTINUOUS
 10
158.8027076828
 20
74.3559088893
 40
19.0
100
AcDbArc
 50
22.5001987364
 51
33.1534084156
  0
ARC
  5
7C8
100
AcDbEntity
  8
RUNDUNGEN
100
AcDbCircle
 62
7
  6
CONTINUOUS
 10
158.8027076828
 20
74.3559088893
 40
19.0
100
AcDbArc
 50
326.8465915844
 51
337.4998012636
  0
ARC
  5
7C9
100
AcDbEntity
  8
KONSTRUKTIONSELEMENTE
100
AcDbCircle
 62
7
  6
CONTINUOUS
 10
163.1481691803
 20
73.7550633327
 40
7.1008195822
100
AcDbArc
 50
89.9885755638
 51
91.244726748
  0
ARC
  5
7CA
100
AcDbEntity
  8
KONSTRUKTIONSELEMENTE
100
AcDbCircle
 62
7
  6
CONTINUOUS
 10
163.1479939597
 20
74.9437124596
 40
7.0877784622
100
AcDbArc
 50
268.757445212
 51
270.0128145716
  0
ARC
  5
7CB
100
AcDbEntity
  8
KONSTRUKTIONSELEMENTE
100
AcDbCircle
 62
7
  6
CONTINUOUS
 10
163.1477313166
 20
73.9234872826
 40
6.9323957389
100
AcDbArc
 50
89.8556648435
 51
89.9846790906
  0
ARC
  5
7CC
100
AcDbEntity
  8
KONSTRUKTIONSELEMENTE
100
AcDbCircle
 62
7
  6
CONTINUOUS
 10
163.1475891905
 20
74.7861581927
 40
6.9302243038
100
AcDbArc
 50
270.0164523412
 51
270.1379775245
  0
ARC
  5
7CD
100
AcDbEntity
  8
KONSTRUKTIONSELEMENTE
100
AcDbCircle
 62
7
  6
CONTINUOUS
 10
160.262374607
 20
74.3559088893
 40
6.5
100
AcDbArc
 50
142.0201275551
 51
217.9798724449
  0
ARC
  5
7CE
100
AcDbEntity
  8
0
100
AcDbCircle
 62
7
  6
CONTINUOUS
 10
170.8617441852
 20
104.6616003106
 40
36.1906886762
100
AcDbArc
 50
267.7978601939
 51
270.6597838278
  0
ARC
  5
7CF
100
AcDbEntity
  8
RUNDUNGEN
100
AcDbCircle
 62
7
  6
CONTINUOUS
 10
176.8027076828
 20
53.8559088893
 40
2.5
100
AcDbArc
 50
180.0
 51
270.0
  0
ARC
  5
7D0
100
AcDbEntity
  8
RUNDUNGEN
100
AcDbCircle
 62
7
  6
CONTINUOUS
 10
176.8027076828
 20
62.5979328729
 40
2.5
100
AcDbArc
 50
146.8465915844
 51
180.0
  0
ARC
  5
7D1
100
AcDbEntity
  8
RUNDUNGEN
100
AcDbCircle
 62
7
  6
CONTINUOUS
 10
176.8026798894
 20
52.5384900822
 40
2.4999907355
100
AcDbArc
 50
180.0001242696
 51
245.3749792201
  0
ARC
  5
7D2
100
AcDbEntity
  8
RUNDUNGEN
100
AcDbCircle
 62
7
  6
CONTINUOUS
 10
178.0193743495
 20
66.396026841
 40
1.8
100
AcDbArc
 50
147.753192731
 51
157.4998630115
  0
ARC
  5
7D3
100
AcDbEntity
  8
0
100
AcDbCircle
 62
7
  6
CONTINUOUS
 10
180.9311677632
 20
84.2365985167
 40
16.1991710792
100
AcDbArc
 50
281.3551779167
 51
282.6681213731
  0
ARC
  5
7D4
100
AcDbEntity
  8
0
100
AcDbCircle
 62
7
  6
CONTINUOUS
 10
175.3683451156
 20
82.3987856266
 40
14.4343285535
100
AcDbArc
 50
255.326786898
 51
257.2566278546
  0
ARC
  5
7D5
100
AcDbEntity
  8
0
100
AcDbCircle
 62
7
  6
CONTINUOUS
 10
179.7159589912
 20
81.8528531006
 40
13.8891375392
100
AcDbArc
 50
255.028114178
 51
256.9942714469
  0
ARC
  5
7D6
100
AcDbEntity
  8
0
100
AcDbCircle
 62
7
  6
CONTINUOUS
 10
174.9322476697
 20
76.809312267
 40
8.9229615715
100
AcDbArc
 50
252.0638148409
 51
255.1034466454
  0
ARC
  5
7D7
100
AcDbEntity
  8
0
100
AcDbCircle
 62
7
  6
CONTINUOUS
 10
179.1611313603
 20
75.6577294286
 40
7.7750706918
100
AcDbArc
 50
250.6911861876
 51
253.9363375854
  0
ARC
  5
7D8
100
AcDbEntity
  8
0
100
AcDbCircle
 62
7
  6
CONTINUOUS
 10
174.4598674731
 20
73.0066054303
 40
5.1530341462
100
AcDbArc
 50
249.2997720695
 51
252.2018288888
  0
ARC
  5
7D9
100
AcDbEntity
  8
0
100
AcDbCircle
 62
7
  6
CONTINUOUS
 10
178.6160491178
 20
71.7918213177
 40
3.9472141977
100
AcDbArc
 50
245.9865876664
 51
249.2681354352
  0
ARC
  5
7DA
100
AcDbEntity
  8
0
100
AcDbCircle
 62
7
  6
CONTINUOUS
 10
174.0383516202
 20
70.5374214714
 40
2.6964438576
100
AcDbArc
 50
244.6708670325
 51
249.9266449632
  0
ARC
  5
7DB
100
AcDbEntity
  8
RUNDUNGEN
100
AcDbCircle
 62
7
  6
CONTINUOUS
 10
176.8027076828
 20
86.1138849056
 40
2.5
100
AcDbArc
 50
180.0
 51
213.1534084157
  0
ARC
  5
7DC
100
AcDbEntity
  8
RUNDUNGEN
100
AcDbCircle
 62
7
  6
CONTINUOUS
 10
178.0193743495
 20
82.3157909375
 40
1.8
100
AcDbArc
 50
202.5001232247
 51
234.3146652873
  0
ARC
  5
7DD
100
AcDbEntity
  8
0
100
AcDbCircle
 62
7
  6
CONTINUOUS
 10
187.9221433497
 20
69.1395043883
 40
1.4078974086
100
AcDbArc
 50
225.9960873156
 51
227.6309533312
  0
ARC
  5
7DE
100
AcDbEntity
  8
0
100
AcDbCircle
 62
7
  6
CONTINUOUS
 10
186.8027076828
 20
74.3559088893
 40
26.75
100
AcDbArc
 50
205.8328784155
 51
213.8653457931
  0
ARC
  5
7DF
100
AcDbEntity
  8
0
100
AcDbCircle
 62
7
  6
CONTINUOUS
 10
186.8027076828
 20
74.3559088893
 40
26.75
100
AcDbArc
 50
137.7089324571
 51
150.9487402983
  0
ARC
  5
7E0
100
AcDbEntity
  8
0
100
AcDbCircle
 62
7
  6
CONTINUOUS
 10
186.8027076828
 20
74.3559088893
 40
26.75
100
AcDbArc
 50
193.3411032104
 51
203.2815206619
  0
ARC
  5
7E1
100
AcDbEntity
  8
0
100
AcDbCircle
 62
7
  6
CONTINUOUS
 10
186.8027076828
 20
74.3559088893
 40
26.75
100
AcDbArc
 50
153.5706816676
 51
166.6588365991
  0
ARC
  5
7E2
100
AcDbEntity
  8
RUNDUNGEN
100
AcDbCircle
 62
7
  6
CONTINUOUS
 10
186.8027076828
 20
74.3559088893
 40
26.5
100
AcDbArc
 50
193.6329610016
 51
346.3672830926
  0
ARC
  5
7E3
100
AcDbEntity
  8
RUNDUNGEN
100
AcDbCircle
 62
7
  6
CONTINUOUS
 10
186.8027076828
 20
74.3559088893
 40
26.5
100
AcDbArc
 50
13.6327210257
 51
166.3670259401
  0
ARC
  5
7E4
100
AcDbEntity
  8
0
100
AcDbCircle
 62
7
  6
CONTINUOUS
 10
181.8720382131
 20
73.5418417498
 40
5.6537146046
100
AcDbArc
 50
289.6026815841
 51
293.4356753026
  0
ARC
  5
7E5
100
AcDbEntity
  8
0
100
AcDbCircle
 62
7
  6
CONTINUOUS
 10
185.2267729628
 20
125.3055741621
 40
56.834595231
100
AcDbArc
 50
269.9056415953
 51
270.2830292226
  0
ARC
  5
7E6
100
AcDbEntity
  8
0
100
AcDbCircle
 62
7
  6
CONTINUOUS
 10
181.9459778658
 20
115.7715833633
 40
47.4077853143
100
AcDbArc
 50
273.0684908048
 51
273.8548676028
  0
ARC
  5
7E7
100
AcDbEntity
  8
0
100
AcDbCircle
 62
7
  6
CONTINUOUS
 10
175.1963328526
 20
114.0058947446
 40
45.5349838575
100
AcDbArc
 50
268.0367692951
 51
270.5882941355
  0
ARC
  5
7E8
100
AcDbEntity
  8
0
100
AcDbCircle
 62
7
  6
CONTINUOUS
 10
179.2940384611
 20
109.8343713685
 40
41.5200611674
100
AcDbArc
 50
264.984119747
 51
265.626447516
  0
ARC
  5
7E9
100
AcDbEntity
  8
0
100
AcDbCircle
 62
7
  6
CONTINUOUS
 10
174.6742994904
 20
104.6332229901
 40
36.31901403
100
AcDbArc
 50
264.6350296315
 51
265.3216437679
  0
ARC
  5
7EA
100
AcDbEntity
  8
RUNDUNGEN
100
AcDbCircle
 62
7
  6
CONTINUOUS
 10
176.8027076828
 20
94.8559088893
 40
2.5
100
AcDbArc
 50
90.0
 51
180.0
  0
ARC
  5
7EB
100
AcDbEntity
  8
RUNDUNGEN
100
AcDbCircle
 62
7
  6
CONTINUOUS
 10
176.8027076828
 20
96.1733324595
 40
2.5
100
AcDbArc
 50
114.6237416071
 51
179.9999310867
  0
ARC
  5
7EC
100
AcDbEntity
  8
0
100
AcDbCircle
 62
7
  6
CONTINUOUS
 10
188.9380935217
 20
74.8185800463
 40
6.9210682363
100
AcDbArc
 50
249.0222257769
 51
252.5028396847
  0
ARC
  5
7ED
100
AcDbEntity
  8
0
100
AcDbCircle
 62
7
  6
CONTINUOUS
 10
188.9215119545
 20
68.5061148196
 40
1.9901732441
100
AcDbArc
 50
191.794410311
 51
193.2895282673
  0
ARC
  5
7EE
100
AcDbEntity
  8
RUNDUNGEN
100
AcDbCircle
 62
7
  6
CONTINUOUS
 10
195.5860410161
 20
66.396026841
 40
1.8
100
AcDbArc
 50
22.5001224707
 51
41.8963525552
  0
ARC
  5
7EF
100
AcDbEntity
  8
0
100
AcDbCircle
 62
7
  6
CONTINUOUS
 10
189.8398767306
 20
86.3346854426
 40
18.2933266583
100
AcDbArc
 50
258.1223057039
 51
259.3538459262
  0
ARC
  5
7F0
100
AcDbEntity
  8
RUNDUNGEN
100
AcDbCircle
 62
7
  6
CONTINUOUS
 10
195.5860410161
 20
82.3157909375
 40
1.8
100
AcDbArc
 50
305.6853347127
 51
337.4998635246
  0
ARC
  5
7F1
100
AcDbEntity
  8
RUNDUNGEN
100
AcDbCircle
 62
7
  6
CONTINUOUS
 10
196.8027076828
 20
62.5979328729
 40
2.5
100
AcDbArc
 50
0.0
 51
33.1534084157
  0
ARC
  5
7F2
100
AcDbEntity
  8
RUNDUNGEN
100
AcDbCircle
 62
7
  6
CONTINUOUS
 10
196.8027076828
 20
53.8559088893
 40
2.5
100
AcDbArc
 50
270.0
 51
360.0
  0
ARC
  5
7F3
100
AcDbEntity
  8
RUNDUNGEN
100
AcDbCircle
 62
7
  6
CONTINUOUS
 10
196.8027076828
 20
52.5384837795
 40
2.5
100
AcDbArc
 50
294.6237019276
 51
359.9999487353
  0
ARC
  5
7F4
100
AcDbEntity
  8
0
100
AcDbCircle
 62
7
  6
CONTINUOUS
 10
197.305699778
 20
69.26582026
 40
1.4099113724
100
AcDbArc
 50
270.0146859401
 51
277.1354635645
  0
ARC
  5
7F5
100
AcDbEntity
  8
0
100
AcDbCircle
 62
7
  6
CONTINUOUS
 10
202.3757433607
 20
105.5564056627
 40
37.0854941161
100
AcDbArc
 50
267.8245883663
 51
270.6517868881
  0
ARC
  5
7F6
100
AcDbEntity
  8
RUNDUNGEN
100
AcDbCircle
 62
7
  6
CONTINUOUS
 10
196.8027076828
 20
86.1138849056
 40
2.5
100
AcDbArc
 50
326.8465915844
 51
360.0
  0
ARC
  5
7F7
100
AcDbEntity
  8
RUNDUNGEN
100
AcDbCircle
 62
7
  6
CONTINUOUS
 10
196.8027076828
 20
94.8559088893
 40
2.5
100
AcDbArc
 50
0.0
 51
90.0
  0
ARC
  5
7F8
100
AcDbEntity
  8
RUNDUNGEN
100
AcDbCircle
 62
7
  6
CONTINUOUS
 10
196.8027508542
 20
96.173325581
 40
2.4999856095
100
AcDbArc
 50
0.0001727517
 51
65.3749659526
  0
ARC
  5
7F9
100
AcDbEntity
  8
0
100
AcDbCircle
 62
7
  6
CONTINUOUS
 10
195.864893452
 20
171.314836824
 40
103.3226678607
100
AcDbArc
 50
269.4238271863
 51
269.8121239388
  0
ARC
  5
7FA
100
AcDbEntity
  8
0
100
AcDbCircle
 62
7
  6
CONTINUOUS
 10
195.8877563603
 20
171.282871826
 40
103.2907018582
100
AcDbArc
 50
270.1943720406
 51
270.5762065608
  0
ARC
  5
7FB
100
AcDbEntity
  8
0
100
AcDbCircle
 62
7
  6
CONTINUOUS
 10
196.1505875787
 20
135.1051333572
 40
66.9041241818
100
AcDbArc
 50
269.70021806
 51
270.0749978222
  0
ARC
  5
7FC
100
AcDbEntity
  8
0
100
AcDbCircle
 62
7
  6
CONTINUOUS
 10
192.2869570868
 20
122.1225626384
 40
53.6517902951
100
AcDbArc
 50
268.2358507903
 51
271.5680660345
  0
ARC
  5
7FD
100
AcDbEntity
  8
0
100
AcDbCircle
 62
7
  6
CONTINUOUS
 10
188.9650774389
 20
115.041992216
 40
46.6984943586
100
AcDbArc
 50
265.7539374366
 51
266.4514230749
  0
ARC
  5
7FE
100
AcDbEntity
  8
0
100
AcDbCircle
 62
7
  6
CONTINUOUS
 10
205.3607639496
 20
88.9596928416
 40
20.6461032989
100
AcDbArc
 50
262.8685019728
 51
263.7778167565
  0
ARC
  5
7FF
100
AcDbEntity
  8
0
100
AcDbCircle
 62
7
  6
CONTINUOUS
 10
214.8027076828
 20
74.3559088893
 40
19.0
100
AcDbArc
 50
146.8465915844
 51
157.4998012636
  0
ARC
  5
800
100
AcDbEntity
  8
0
100
AcDbCircle
 62
7
  6
CONTINUOUS
 10
214.8027076828
 20
74.3559088893
 40
19.0
100
AcDbArc
 50
202.5001987364
 51
213.1534084156
  0
ARC
  5
801
100
AcDbEntity
  8
RUNDUNGEN
100
AcDbCircle
 62
7
  6
CONTINUOUS
 10
214.8027076828
 20
74.3559088893
 40
19.0
100
AcDbArc
 50
202.5001987364
 51
213.1534084156
  0
ARC
  5
802
100
AcDbEntity
  8
RUNDUNGEN
100
AcDbCircle
 62
7
  6
CONTINUOUS
 10
214.8027076828
 20
74.3559088893
 40
19.0
100
AcDbArc
 50
146.8465915844
 51
157.4998012636
  0
ARC
  5
803
100
AcDbEntity
  8
0
100
AcDbCircle
 62
7
  6
CONTINUOUS
 10
218.4074608248
 20
68.9082987037
 40
15.1580822595
100
AcDbArc
 50
182.2242374191
 51
182.7303397034
  0
ARC
  5
804
100
AcDbEntity
  8
KONSTRUKTIONSELEMENTE
100
AcDbCircle
 62
7
  6
CONTINUOUS
 10
210.4572559751
 20
74.9561420668
 40
7.1002072304
100
AcDbArc
 50
269.9884844466
 51
271.2451818296
  0
ARC
  5
805
100
AcDbEntity
  8
KONSTRUKTIONSELEMENTE
100
AcDbCircle
 62
7
  6
CONTINUOUS
 10
210.4574033168
 20
73.7664835582
 40
7.0894001658
100
AcDbArc
 50
88.7510198228
 51
90.0126591572
  0
ARC
  5
806
100
AcDbEntity
  8
KONSTRUKTIONSELEMENTE
100
AcDbCircle
 62
7
  6
CONTINUOUS
 10
210.4576922786
 20
74.7882858115
 40
6.9323510821
100
AcDbArc
 50
269.8561357231
 51
269.9845995733
  0
ARC
  5
807
100
AcDbEntity
  8
KONSTRUKTIONSELEMENTE
100
AcDbCircle
 62
7
  6
CONTINUOUS
 10
210.4578142676
 20
73.9255327312
 40
6.9303511019
100
AcDbArc
 50
90.0163471629
 51
90.1389402976
  0
ARC
  5
808
100
AcDbEntity
  8
KONSTRUKTIONSELEMENTE
100
AcDbCircle
 62
7
  6
CONTINUOUS
 10
213.3430407587
 20
74.3559088893
 40
6.5
100
AcDbArc
 50
322.0201275551
 51
37.9798724449
  0
ARC
  5
809
100
AcDbEntity
  8
0
100
AcDbCircle
 62
7
  6
CONTINUOUS
 10
204.7806163829
 20
70.2771061486
 40
2.4779199971
100
AcDbArc
 50
228.0151565145
 51
232.1683041864
  0
ARC
  5
80A
100
AcDbEntity
  8
0
100
AcDbCircle
 62
7
  6
CONTINUOUS
 10
198.1062184648
 20
398.5691940659
 40
330.7029570862
100
AcDbArc
 50
269.8916490564
 51
270.0930970354
  0
SPLINE
  5
80B
100
AcDbEntity
  8
KONSTRUKTIONSELEMENTE
100
AcDbSpline
 62
7
  6
CONTINUOUS
 70
0
 71
3
 72
28
 73
24
 74
0
 42
0.0000001
 43
0.0000001
 44
0.0000000001
 40
0.0
 40
0.0
 40
0.0
 40
0.0
 40
0.1243933624
 40
0.1867093551
 40
0.2491199468
 40
0.3116549516
 40
0.3743616964
 40
0.4058238113
 40
0.4373768951
 40
0.46904995
 40
0.5008724944
 40
0.5328149749
 40
0.5488545161
 40
0.5648498681
 40
0.5964523131
 40
0.6278122427
 40
0.6590116496
 40
0.6901204104
 40
0.7521765872
 40
0.814165384
 40
0.8761233417
 40
0.9380657257
 40
1.0
 40
1.0
 40
1.0
 40
1.0
 10
156.1747579265
 20
292.8827536135
 30
0.0
 10
156.486003054
 20
291.993416822
 30
0.0
 10
157.0049512688
 20
290.6753354566
 30
0.0
 10
157.8194910916
 20
288.9725081764
 30
0.0
 10
158.5017425624
 20
287.7278749998
 30
0.0
 10
159.26753985
 20
286.5290665092
 30
0.0
 10
159.9922831715
 20
285.5858784339
 30
0.0
 10
160.6420064117
 20
284.888607747
 30
0.0
 10
161.1731589235
 20
284.4051025548
 30
0.0
 10
161.7580919914
 20
283.9816858035
 30
0.0
 10
162.4078443134
 20
283.6554621388
 30
0.0
 10
163.0117603263
 20
283.529608698
 30
0.0
 10
163.4979210708
 20
283.5738786162
 30
0.0
 10
163.9608147273
 20
283.7213620336
 30
0.0
 10
164.4579171536
 20
284.0793329025
 30
0.0
 10
164.8972741949
 20
284.6475830716
 30
0.0
 10
165.2306276673
 20
285.2763532458
 30
0.0
 10
165.5760184562
 20
286.1541050107
 30
0.0
 10
165.880687682
 20
287.2922420435
 30
0.0
 10
166.1322797965
 20
288.6791294751
 30
0.0
 10
166.3108208196
 20
290.0762927353
 30
0.0
 10
166.4400973458
 20
291.4781330796
 30
0.0
 10
166.5030160734
 20
292.4144187558
 30
0.0
 10
166.5302554222
 20
292.8827536135
 30
0.0
  0
SPLINE
  5
80C
100
AcDbEntity
  8
KONSTRUKTIONSELEMENTE
100
AcDbSpline
 62
7
  6
CONTINUOUS
 70
0
 71
3
 72
28
 73
24
 74
0
 42
0.0000001
 43
0.0000001
 44
0.0000000001
 40
0.0
 40
0.0
 40
0.0
 40
0.0
 40
0.0619343165
 40
0.1238767485
 40
0.1858347694
 40
0.2478236425
 40
0.3098799396
 40
0.3409887502
 40
0.3721882543
 40
0.4035483238
 40
0.4351503936
 40
0.451145969
 40
0.4671850679
 40
0.4991278302
 40
0.5309502837
 40
0.5626232167
 40
0.5941762332
 40
0.6256383025
 40
0.6883450177
 40
0.7508800184
 40
0.8132906191
 40
0.8756066219
 40
1.0
 40
1.0
 40
1.0
 40
1.0
 10
166.5302554222
 20
322.8827536135
 30
0.0
 10
166.5030160555
 20
323.3510887775
 30
0.0
 10
166.4400972966
 20
324.2873751182
 30
0.0
 10
166.3108201572
 20
325.689216515
 30
0.0
 10
166.1322795594
 20
327.0863812637
 30
0.0
 10
165.8806871754
 20
328.473270445
 30
0.0
 10
165.5760185639
 20
329.6114099978
 30
0.0
 10
165.2306239543
 20
330.4891618841
 30
0.0
 10
164.8972702778
 20
331.1179358155
 30
0.0
 10
164.4579092098
 20
331.6861769588
 30
0.0
 10
163.9608162296
 20
332.0441692534
 30
0.0
 10
163.4979158622
 20
332.1916175902
 30
0.0
 10
163.0117576916
 20
332.2358983481
 30
0.0
 10
162.4078422663
 20
332.1100380151
 30
0.0
 10
161.7580899835
 20
331.7838164329
 30
0.0
 10
161.1731580786
 20
331.360400964
 30
0.0
 10
160.642006849
 20
330.8768972353
 30
0.0
 10
159.9922832822
 20
330.1796283272
 30
0.0
 10
159.2675397673
 20
329.2364411534
 30
0.0
 10
158.5017425754
 20
328.037632849
 30
0.0
 10
157.8194915505
 20
326.7929993451
 30
0.0
 10
157.004951419
 20
325.0901719905
 30
0.0
 10
156.4860030846
 20
323.7720904925
 30
0.0
 10
156.1747579265
 20
322.8827536135
 30
0.0
  0
SPLINE
  5
80D
100
AcDbEntity
  8
KONSTRUKTIONSELEMENTE
100
AcDbSpline
 62
7
  6
CONTINUOUS
 70
0
 71
3
 72
28
 73
24
 74
0
 42
0.0000001
 43
0.0000001
 44
0.0000000001
 40
0.0
 40
0.0
 40
0.0
 40
0.0
 40
0.1243933603
 40
0.186709352
 40
0.2491199426
 40
0.3116549456
 40
0.3743616871
 40
0.4058237985
 40
0.4373768772
 40
0.4690499231
 40
0.5008724555
 40
0.5328149376
 40
0.5488544396
 40
0.5648498087
 40
0.5964522463
 40
0.6278122166
 40
0.6590116344
 40
0.6901204015
 40
0.7521765836
 40
0.814165382
 40
0.8761233408
 40
0.9380657253
 40
1.0
 40
1.0
 40
1.0
 40
1.0
 10
217.4306574391
 20
322.8827536135
 30
0.0
 10
217.1194123166
 20
323.7720903906
 30
0.0
 10
216.6004641078
 20
325.0901717351
 30
0.0
 10
215.7859242917
 20
326.7929989851
 30
0.0
 10
215.1036728622
 20
328.0376321526
 30
0.0
 10
214.3378756097
 20
329.236440613
 30
0.0
 10
213.6131323046
 20
330.1796286216
 30
0.0
 10
212.9634090853
 20
330.8768992093
 30
0.0
 10
212.4322566812
 20
331.3604043085
 30
0.0
 10
211.8473237629
 20
331.7838209851
 30
0.0
 10
211.197571621
 20
332.1100444435
 30
0.0
 10
210.5936559532
 20
332.2358984933
 30
0.0
 10
210.107495552
 20
332.1916280695
 30
0.0
 10
209.6446012934
 20
332.0441472332
 30
0.0
 10
209.1474989605
 20
331.6861749514
 30
0.0
 10
208.7081414073
 20
331.1179250232
 30
0.0
 10
208.3747878305
 20
330.4891543163
 30
0.0
 10
208.0293968738
 20
329.6114024661
 30
0.0
 10
207.724727709
 20
328.4732652877
 30
0.0
 10
207.473135564
 20
327.0863778087
 30
0.0
 10
207.2945945583
 20
325.6892145173
 30
0.0
 10
207.1653180196
 20
324.2873741591
 30
0.0
 10
207.1023992925
 20
323.3510884746
 30
0.0
 10
207.0751599434
 20
322.8827536135
 30
0.0
  0
SPLINE
  5
80E
100
AcDbEntity
  8
KONSTRUKTIONSELEMENTE
100
AcDbSpline
 62
7
  6
CONTINUOUS
 70
0
 71
3
 72
28
 73
24
 74
0
 42
0.0000001
 43
0.0000001
 44
0.0000000001
 40
0.0
 40
0.0
 40
0.0
 40
0.0
 40
0.0619343164
 40
0.1238767484
 40
0.1858347692
 40
0.2478236423
 40
0.3098799396
 40
0.3409887502
 40
0.3721882544
 40
0.403548324
 40
0.4351503929
 40
0.4511459686
 40
0.4671850679
 40
0.4991278316
 40
0.5309502853
 40
0.5626232182
 40
0.5941762343
 40
0.6256383032
 40
0.6883450181
 40
0.7508800187
 40
0.8132906193
 40
0.875606622
 40
1.0
 40
1.0
 40
1.0
 40
1.0
 10
207.0751599434
 20
292.8827536135
 30
0.0
 10
207.10239931
 20
292.4144184499
 30
0.0
 10
207.1653180689
 20
291.4781321102
 30
0.0
 10
207.2945952084
 20
290.0762907147
 30
0.0
 10
207.4731358053
 20
288.6791259667
 30
0.0
 10
207.7247281888
 20
287.2922367856
 30
0.0
 10
208.0293967981
 20
286.1540972314
 30
0.0
 10
208.3747914108
 20
285.2763453457
 30
0.0
 10
208.7081450843
 20
284.6475714093
 30
0.0
 10
209.1475061542
 20
284.0793302781
 30
0.0
 10
209.6445991163
 20
283.7213379602
 30
0.0
 10
210.1074994914
 20
283.5738896478
 30
0.0
 10
210.5936576767
 20
283.5296088927
 30
0.0
 10
211.1975731191
 20
283.6554692249
 30
0.0
 10
211.8473254095
 20
283.9816908179
 30
0.0
 10
212.4322573079
 20
284.4051062896
 30
0.0
 10
212.9634085322
 20
284.8886100135
 30
0.0
 10
213.6131320953
 20
285.5858789135
 30
0.0
 10
214.3378756043
 20
286.5290660838
 30
0.0
 10
215.1036727939
 20
287.7278743841
 30
0.0
 10
215.7859238172
 20
288.9725078858
 30
0.0
 10
216.6004639476
 20
290.6753352385
 30
0.0
 10
217.1194122812
 20
291.9934167352
 30
0.0
 10
217.4306574391
 20
292.8827536135
 30
0.0
  0
SPLINE
  5
80F
100
AcDbEntity
  8
0
100
AcDbSpline
 62
7
  6
CONTINUOUS
 70
0
 71
3
 72
9
 73
5
 74
0
 42
0.0000001
 43
0.0000001
 44
0.0000000001
 40
0.0
 40
0.0
 40
0.0
 40
0.0
 40
0.2519100891
 40
1.0
 40
1.0
 40
1.0
 40
1.0
 10
314.2260692648
 20
351.2441258983
 30
0.0
 10
314.2832977197
 20
351.136625707
 30
0.0
 10
314.4966388712
 20
350.7026754757
 30
0.0
 10
314.6528879985
 20
350.2405511531
 30
0.0
 10
314.7334939203
 20
349.8879893506
 30
0.0
  0
SPLINE
  5
810
100
AcDbEntity
  8
0
100
AcDbSpline
 62
7
  6
CONTINUOUS
 70
0
 71
3
 72
9
 73
5
 74
0
 42
0.0000001
 43
0.0000001
 44
0.0000000001
 40
0.0
 40
0.0
 40
0.0
 40
0.0
 40
0.5064110229
 40
1.0
 40
1.0
 40
1.0
 40
1.0
 10
314.226069269
 20
348.3454381668
 30
0.0
 10
314.4319346668
 20
348.0007128853
 30
0.0
 10
314.7555103041
 20
347.2656040317
 30
0.0
 10
314.8678339636
 20
346.4689734304
 30
0.0
 10
314.8677991844
 20
346.0776224003
 30
0.0
  0
SPLINE
  5
811
100
AcDbEntity
  8
KONSTRUKTIONSELEMENTE
100
AcDbSpline
 62
7
  6
CONTINUOUS
 70
0
 71
3
 72
12
 73
8
 74
0
 42
0.0000001
 43
0.0000001
 44
0.0000000001
 40
0.0
 40
0.0
 40
0.0
 40
0.0
 40
0.1789379674
 40
0.3891661165
 40
0.6470934671
 40
0.8068229484
 40
1.0
 40
1.0
 40
1.0
 40
1.0
 10
217.4306574391
 20
70.3559088893
 30
0.0
 10
217.0746103692
 20
70.0833103235
 30
0.0
 10
216.2592102771
 20
69.5429466457
 30
0.0
 10
214.8076076984
 20
68.8129110474
 30
0.0
 10
213.319188867
 20
68.2843411394
 30
0.0
 10
211.8249116727
 20
67.9460318723
 30
0.0
 10
210.9399385959
 20
67.8557954361
 30
0.0
 10
210.4558365616
 20
67.8559342148
 30
0.0
  0
SPLINE
  5
812
100
AcDbEntity
  8
KONSTRUKTIONSELEMENTE
100
AcDbSpline
 62
7
  6
CONTINUOUS
 70
0
 71
3
 72
12
 73
8
 74
0
 42
0.0000001
 43
0.0000001
 44
0.0000000001
 40
0.0
 40
0.0
 40
0.0
 40
0.0
 40
0.1931776518
 40
0.3529067932
 40
0.6108340341
 40
0.8210621011
 40
1.0
 40
1.0
 40
1.0
 40
1.0
 10
163.1495865075
 20
67.8559349767
 30
0.0
 10
162.6654824845
 20
67.8558043497
 30
0.0
 10
161.7805077915
 20
67.9460286273
 30
0.0
 10
160.2862285587
 20
68.2843420232
 30
0.0
 10
158.7978092923
 20
68.8129098337
 30
0.0
 10
157.3462058569
 20
69.5429463051
 30
0.0
 10
156.5308052149
 20
70.0833101562
 30
0.0
 10
156.1747579265
 20
70.3559088893
 30
0.0
  0
SPLINE
  5
813
100
AcDbEntity
  8
KONSTRUKTIONSELEMENTE
100
AcDbSpline
 62
7
  6
CONTINUOUS
 70
0
 71
3
 72
12
 73
8
 74
0
 42
0.0000001
 43
0.0000001
 44
0.0000000001
 40
0.0
 40
0.0
 40
0.0
 40
0.0
 40
0.1931776304
 40
0.3529067465
 40
0.6108339962
 40
0.8210620814
 40
1.0
 40
1.0
 40
1.0
 40
1.0
 10
210.4558304077
 20
80.8558827706
 30
0.0
 10
210.9399342771
 20
80.8560127
 30
0.0
 10
211.8249086473
 20
80.7657891229
 30
0.0
 10
213.3191874632
 20
80.4274754457
 30
0.0
 10
214.8076064116
 20
79.8989078189
 30
0.0
 10
216.2592096352
 20
79.1688713857
 30
0.0
 10
217.0746101851
 20
78.6285075959
 30
0.0
 10
217.4306574391
 20
78.3559088893
 30
0.0
  0
SPLINE
  5
814
100
AcDbEntity
  8
KONSTRUKTIONSELEMENTE
100
AcDbSpline
 62
7
  6
CONTINUOUS
 70
0
 71
3
 72
12
 73
8
 74
0
 42
0.0000001
 43
0.0000001
 44
0.0000000001
 40
0.0
 40
0.0
 40
0.0
 40
0.0
 40
0.1789379624
 40
0.3891661055
 40
0.647093449
 40
0.8068229391
 40
1.0
 40
1.0
 40
1.0
 40
1.0
 10
156.1747579265
 20
78.3559088893
 30
0.0
 10
156.5308049857
 20
78.6285074468
 30
0.0
 10
157.3462050508
 20
79.1688711154
 30
0.0
 10
158.7978075854
 20
79.8989066719
 30
0.0
 10
160.2862263951
 20
80.4274766792
 30
0.0
 10
161.7805036043
 20
80.7657857653
 30
0.0
 10
162.6654767254
 20
80.8560227979
 30
0.0
 10
163.1495787819
 20
80.8558835911
 30
0.0
  0
SPLINE
  5
815
100
AcDbEntity
  8
0
100
AcDbSpline
 62
7
  6
CONTINUOUS
 70
0
 71
3
 72
8
 73
4
 74
0
 42
0.0000001
 43
0.0000001
 44
0.0000000001
 40
0.0
 40
0.0
 40
0.0
 40
0.0
 40
1.0
 40
1.0
 40
1.0
 40
1.0
 10
173.2086413534
 20
67.9480026452
 30
0.0
 10
173.1757168644
 20
67.9651267339
 30
0.0
 10
173.1437554331
 20
67.9842001453
 30
0.0
 10
173.112870235
 20
68.0047758817
 30
0.0
  0
SPLINE
  5
816
100
AcDbEntity
  8
0
100
AcDbSpline
 62
7
  6
CONTINUOUS
 70
0
 71
3
 72
9
 73
5
 74
0
 42
0.0000001
 43
0.0000001
 44
0.0000000001
 40
0.0
 40
0.0
 40
0.0
 40
0.0
 40
0.235528573
 40
1.0
 40
1.0
 40
1.0
 40
1.0
 10
177.4248894946
 20
67.9480026437
 30
0.0
 10
177.4214687722
 20
67.952254913
 30
0.0
 10
177.4072587172
 20
67.9705610385
 30
0.0
 10
177.3942401934
 20
67.9897753825
 30
0.0
 10
177.3848194263
 20
68.0047758837
 30
0.0
  0
SPLINE
  5
817
100
AcDbEntity
  8
0
100
AcDbSpline
 62
7
  6
CONTINUOUS
 70
0
 71
3
 72
9
 73
5
 74
0
 42
0.0000001
 43
0.0000001
 44
0.0000000001
 40
0.0
 40
0.0
 40
0.0
 40
0.0
 40
0.2455301026
 40
1.0
 40
1.0
 40
1.0
 40
1.0
 10
177.3848194263
 20
68.0047758837
 30
0.0
 10
177.3708008717
 20
68.0118001967
 30
0.0
 10
177.3141274332
 20
68.041245751
 30
0.0
 10
177.2591655621
 20
68.0739614912
 30
0.0
 10
177.2187549158
 20
68.1001998805
 30
0.0
  0
SPLINE
  5
818
100
AcDbEntity
  8
0
100
AcDbSpline
 62
7
  6
CONTINUOUS
 70
0
 71
3
 72
10
 73
6
 74
0
 42
0.0000001
 43
0.0000001
 44
0.0000000001
 40
0.0
 40
0.0
 40
0.0
 40
0.0
 40
0.3347605873
 40
0.6093211417
 40
1.0
 40
1.0
 40
1.0
 40
1.0
 10
190.6352680844
 20
68.4962022798
 30
0.0
 10
190.5988078355
 20
68.4109619622
 30
0.0
 10
190.5253905037
 20
68.2575915289
 30
0.0
 10
190.377980352
 20
68.0268554293
 30
0.0
 10
190.2301372749
 20
67.8901843407
 30
0.0
 10
190.1250938928
 20
67.8642522334
 30
0.0
  0
SPLINE
  5
819
100
AcDbEntity
  8
0
100
AcDbSpline
 62
7
  6
CONTINUOUS
 70
0
 71
3
 72
9
 73
5
 74
0
 42
0.0000001
 43
0.0000001
 44
0.0000000001
 40
0.0
 40
0.0
 40
0.0
 40
0.0
 40
0.2638969774
 40
1.0
 40
1.0
 40
1.0
 40
1.0
 10
195.8005346289
 20
68.2019249479
 30
0.0
 10
195.7784878924
 20
68.1810050274
 30
0.0
 10
195.6930384927
 20
68.1038130513
 30
0.0
 10
195.599369294
 20
68.0353565603
 30
0.0
 10
195.5260932603
 20
67.9927244362
 30
0.0
  0
SPLINE
  5
81A
100
AcDbEntity
  8
0
100
AcDbSpline
 62
7
  6
CONTINUOUS
 70
0
 71
3
 72
9
 73
5
 74
0
 42
0.0000001
 43
0.0000001
 44
0.0000000001
 40
0.0
 40
0.0
 40
0.0
 40
0.0
 40
0.2556660221
 40
1.0
 40
1.0
 40
1.0
 40
1.0
 10
194.8258865755
 20
67.9973931925
 30
0.0
 10
194.8146063955
 20
67.9907214869
 30
0.0
 10
194.7700726953
 20
67.9653345497
 30
0.0
 10
194.7238551371
 20
67.9428705836
 30
0.0
 10
194.6886659393
 20
67.9281225689
 30
0.0
  0
SPLINE
  5
81B
100
AcDbEntity
  8
0
100
AcDbSpline
 62
7
  6
CONTINUOUS
 70
0
 71
3
 72
9
 73
5
 74
0
 42
0.0000001
 43
0.0000001
 44
0.0000000001
 40
0.0
 40
0.0
 40
0.0
 40
0.0
 40
0.5209958911
 40
1.0
 40
1.0
 40
1.0
 40
1.0
 10
200.9680160562
 20
68.4976391199
 30
0.0
 10
200.7279559535
 20
68.2997890732
 30
0.0
 10
200.2122456368
 20
67.9770819186
 30
0.0
 10
199.610784176
 20
67.8558741133
 30
0.0
 10
199.324772905
 20
67.8559091919
 30
0.0
  0
SPLINE
  5
81C
100
AcDbEntity
  8
0
100
AcDbSpline
 62
7
  6
CONTINUOUS
 70
0
 71
3
 72
9
 73
5
 74
0
 42
0.0000001
 43
0.0000001
 44
0.0000000001
 40
0.0
 40
0.0
 40
0.0
 40
0.0
 40
0.2436619182
 40
1.0
 40
1.0
 40
1.0
 40
1.0
 10
186.944066472
 20
68.1268145372
 30
0.0
 10
186.9367185127
 20
68.1339091188
 30
0.0
 10
186.9068691431
 20
68.1633427375
 30
0.0
 10
186.8782316661
 20
68.1939986301
 30
0.0
 10
186.8572153117
 20
68.2177368119
 30
0.0
  0
SPLINE
  5
81D
100
AcDbEntity
  8
0
100
AcDbSpline
 62
7
  6
CONTINUOUS
 70
0
 71
3
 72
9
 73
5
 74
0
 42
0.0000001
 43
0.0000001
 44
0.0000000001
 40
0.0
 40
0.0
 40
0.0
 40
0.0
 40
0.2631646926
 40
1.0
 40
1.0
 40
1.0
 40
1.0
 10
183.7688349258
 20
68.2158065396
 30
0.0
 10
183.7630669181
 20
68.2051736069
 30
0.0
 10
183.7407380524
 20
68.1649962774
 30
0.0
 10
183.7167008238
 20
68.1257496684
 30
0.0
 10
183.6978012608
 20
68.0976436765
 30
0.0
  0
ELLIPSE
  5
81E
100
AcDbEntity
  8
0
100
AcDbEllipse
 62
7
  6
CONTINUOUS
 10
186.8027076828
 20
226.557829292
 30
0.0
 11
26.75
 21
0.0
 31
0.0
 40
0.9118538228
 41
3.1057594212
 42
3.1415927632
  0
ELLIPSE
  5
81F
100
AcDbEntity
  8
0
100
AcDbEllipse
 62
7
  6
CONTINUOUS
 10
186.8027076828
 20
225.7738884622
 30
0.0
 11
26.75
 21
0.0
 31
0.0
 40
0.1702127606
 41
-2.5985485181
 42
-2.5626748267
  0
ELLIPSE
  5
820
100
AcDbEntity
  8
0
100
AcDbEllipse
 62
7
  6
CONTINUOUS
 10
186.8027076828
 20
228.126725443
 30
0.0
 11
26.75
 21
-0.0
 31
0.0
 40
0.3404255211
 41
-2.6161942986
 42
-2.5985485181
  0
ELLIPSE
  5
821
100
AcDbEntity
  8
0
100
AcDbEllipse
 62
7
  6
CONTINUOUS
 10
186.8027076828
 20
232.6941015366
 30
0.0
 11
26.75
 21
0.0
 31
0.0
 40
0.6808510423
 41
-2.6336613558
 42
-2.6161942986
  0
ELLIPSE
  5
822
100
AcDbEntity
  8
0
100
AcDbEllipse
 62
7
  6
CONTINUOUS
 10
186.8027076828
 20
250.4102116936
 30
0.0
 11
-0.0
 21
54.6378792883
 31
0.0
 40
0.4895870841
 41
-4.2160083982
 42
-4.2044576826
  0
ELLIPSE
  5
823
100
AcDbEntity
  8
0
100
AcDbEllipse
 62
7
  6
CONTINUOUS
 10
186.8027076828
 20
222.9721187204
 30
0.0
 11
26.75
 21
0.0
 31
0.0
 40
0.6127654169
 41
2.8748099729
 42
2.9009593227
  0
ELLIPSE
  5
824
100
AcDbEntity
  8
0
100
AcDbEllipse
 62
7
  6
CONTINUOUS
 10
186.8027076828
 20
225.852964157
 30
0.0
 11
26.75
 21
-0.0
 31
0.0
 40
0.2042556065
 41
2.8484724015
 42
2.8748099729
  0
ELLIPSE
  5
825
100
AcDbEntity
  8
0
100
AcDbEllipse
 62
7
  6
CONTINUOUS
 10
186.8027076828
 20
224.8614792712
 30
0.0
 11
26.75
 21
-0.0
 31
0.0
 40
0.2042556244
 41
-2.8748099729
 42
-2.8484724015
  0
ELLIPSE
  5
826
100
AcDbEntity
  8
0
100
AcDbEllipse
 62
7
  6
CONTINUOUS
 10
186.8027076828
 20
227.74232496
 30
0.0
 11
26.75
 21
0.0
 31
0.0
 40
0.6127654705
 41
-2.9009593227
 42
-2.8748099729
  0
ELLIPSE
  5
827
100
AcDbEntity
  8
0
100
AcDbEllipse
 62
7
  6
CONTINUOUS
 10
186.8027076828
 20
229.3288533101
 30
0.0
 11
26.75
 21
0.0
 31
0.0
 40
0.6808509827
 41
-3.1209525395
 42
-3.1057594212
  0
ELLIPSE
  5
828
100
AcDbEntity
  8
0
100
AcDbEllipse
 62
7
  6
CONTINUOUS
 10
186.8027076828
 20
229.0657324418
 30
0.0
 11
26.75
 21
-0.0
 31
0.0
 40
0.204255139
 41
-3.1415925183
 42
-3.1209525395
  0
ELLIPSE
  5
829
100
AcDbEntity
  8
0
100
AcDbEllipse
 62
7
  6
CONTINUOUS
 10
186.8027076828
 20
232.5167958743
 30
0.0
 11
-0.0
 21
36.4255307615
 31
0.0
 40
0.7343750233
 41
-4.4873638684
 42
-4.4717556495
  0
ELLIPSE
  5
82A
100
AcDbEntity
  8
0
100
AcDbEllipse
 62
7
  6
CONTINUOUS
 10
186.8027076828
 20
236.5806033467
 30
0.0
 11
0.0
 21
54.6381967114
 31
0.0
 40
0.4895842398
 41
-4.4977382253
 42
-4.4873638684
  0
ELLIPSE
  5
82B
100
AcDbEntity
  8
0
100
AcDbEllipse
 62
7
  6
CONTINUOUS
 10
186.8027076828
 20
221.7933836026
 30
0.0
 11
26.75
 21
-0.0
 31
0.0
 40
0.2553200925
 41
2.795139524
 42
2.8165864335
  0
ELLIPSE
  5
82C
100
AcDbEntity
  8
0
100
AcDbEllipse
 62
7
  6
CONTINUOUS
 10
186.8027076828
 20
217.928145123
 30
0.0
 11
26.75
 21
-0.0
 31
0.0
 40
0.6808509827
 41
2.778945199
 42
2.795139524
  0
ELLIPSE
  5
82D
100
AcDbEntity
  8
0
100
AcDbEllipse
 62
7
  6
CONTINUOUS
 10
186.8027076828
 20
209.852013346
 30
0.0
 11
-0.0
 21
40.9784154453
 31
0.0
 40
0.6527826835
 41
1.1972973236
 42
1.2081488722
  0
ELLIPSE
  5
82E
100
AcDbEntity
  8
0
100
AcDbEllipse
 62
7
  6
CONTINUOUS
 10
186.8027076828
 20
194.8993189922
 30
0.0
 11
-0.0
 21
81.9586876287
 31
0.0
 40
0.3263839475
 41
1.1918544115
 42
1.1972973236
  0
ELLIPSE
  5
82F
100
AcDbEntity
  8
0
100
AcDbEllipse
 62
7
  6
CONTINUOUS
 10
186.8027076828
 20
255.8151384541
 30
0.0
 11
0.0
 21
81.9587258955
 31
0.0
 40
0.3263837951
 41
-4.3388899772
 42
-4.3334470651
  0
ELLIPSE
  5
830
100
AcDbEntity
  8
0
100
AcDbEllipse
 62
7
  6
CONTINUOUS
 10
186.8027076828
 20
240.8624266472
 30
0.0
 11
-0.0
 21
40.9784058788
 31
0.0
 40
0.6527828359
 41
-4.3497415258
 42
-4.3388899772
  0
ELLIPSE
  5
831
100
AcDbEntity
  8
0
100
AcDbEllipse
 62
7
  6
CONTINUOUS
 10
186.8027076828
 20
232.7862982639
 30
0.0
 11
26.75
 21
0.0
 31
0.0
 40
0.6808509827
 41
-2.795139524
 42
-2.778945199
  0
ELLIPSE
  5
832
100
AcDbEntity
  8
0
100
AcDbEllipse
 62
7
  6
CONTINUOUS
 10
186.8027076828
 20
228.9210597842
 30
0.0
 11
26.75
 21
-0.0
 31
0.0
 40
0.2553200925
 41
-2.8165864335
 42
-2.795139524
  0
ELLIPSE
  5
833
100
AcDbEntity
  8
0
100
AcDbEllipse
 62
7
  6
CONTINUOUS
 10
186.8027076828
 20
216.6019025041
 30
0.0
 11
0.0
 21
50.0851067901
 31
0.0
 40
0.5340909047
 41
1.4230632709
 42
1.4537065296
  0
ELLIPSE
  5
834
100
AcDbEntity
  8
0
100
AcDbEllipse
 62
7
  6
CONTINUOUS
 10
186.8027076828
 20
225.4742345791
 30
0.0
 11
0.0
 21
54.6384997883
 31
0.0
 40
0.4895815241
 41
1.524830005
 42
1.5349630944
  0
ELLIPSE
  5
835
100
AcDbEntity
  8
0
100
AcDbEllipse
 62
7
  6
CONTINUOUS
 10
186.8027076828
 20
230.1444620897
 30
0.0
 11
0.0
 21
40.9788748412
 31
0.0
 40
0.6527753654
 41
-4.676555748
 42
-4.6664226586
  0
ELLIPSE
  5
836
100
AcDbEntity
  8
0
100
AcDbEllipse
 62
7
  6
CONTINUOUS
 10
186.8027076828
 20
232.2242418146
 30
0.0
 11
26.75
 21
-0.0
 31
0.0
 40
0.255319362
 41
2.9161680635
 42
2.9368951093
  0
ELLIPSE
  5
837
100
AcDbEntity
  8
0
100
AcDbEllipse
 62
7
  6
CONTINUOUS
 10
186.8027076828
 20
229.679916127
 30
0.0
 11
26.75
 21
0.0
 31
0.0
 40
0.6808512211
 41
2.900558362
 42
2.9161680635
  0
ELLIPSE
  5
838
100
AcDbEntity
  8
0
100
AcDbEllipse
 62
7
  6
CONTINUOUS
 10
186.8027076828
 20
224.2455402312
 30
0.0
 11
-0.0
 21
40.9786403587
 31
0.0
 40
0.6527791007
 41
1.3193224209
 42
1.3297620352
  0
ELLIPSE
  5
839
100
AcDbEntity
  8
0
100
AcDbEllipse
 62
7
  6
CONTINUOUS
 10
186.8027076828
 20
207.2507382295
 30
0.0
 11
0.0
 21
109.2769995766
 31
0.0
 40
0.244790762
 41
1.3140922009
 42
1.3193224209
  0
ELLIPSE
  5
83A
100
AcDbEntity
  8
0
100
AcDbEllipse
 62
7
  6
CONTINUOUS
 10
186.8027076828
 20
264.8147688037
 30
0.0
 11
-0.0
 21
109.2769995766
 31
0.0
 40
0.244790762
 41
-4.4609150745
 42
-4.4556848545
  0
ELLIPSE
  5
83B
100
AcDbEntity
  8
0
100
AcDbEllipse
 62
7
  6
CONTINUOUS
 10
186.8027076828
 20
247.8199763239
 30
0.0
 11
0.0
 21
40.9786786248
 31
0.0
 40
0.6527784911
 41
-4.4713546888
 42
-4.4609150745
  0
ELLIPSE
  5
83C
100
AcDbEntity
  8
0
100
AcDbEllipse
 62
7
  6
CONTINUOUS
 10
186.8027076828
 20
242.3855897713
 30
0.0
 11
26.75
 21
0.0
 31
0.0
 40
0.6808509827
 41
-2.9161680635
 42
-2.900558362
  0
ELLIPSE
  5
83D
100
AcDbEntity
  8
0
100
AcDbEllipse
 62
7
  6
CONTINUOUS
 10
186.8027076828
 20
239.8412655092
 30
0.0
 11
26.75
 21
-0.0
 31
0.0
 40
0.255319362
 41
-2.9368951093
 42
-2.9161680635
  0
ELLIPSE
  5
83E
100
AcDbEntity
  8
0
100
AcDbEllipse
 62
7
  6
CONTINUOUS
 10
186.8027076828
 20
233.8040314986
 30
0.0
 11
0.0
 21
109.2763742898
 31
0.0
 40
0.2447921628
 41
1.5598926743
 42
1.5649551721
  0
ELLIPSE
  5
83F
100
AcDbEntity
  8
0
100
AcDbEllipse
 62
7
  6
CONTINUOUS
 10
186.8027076828
 20
234.2029661756
 30
0.0
 11
0.0
 21
40.9787575996
 31
0.0
 40
0.6527772331
 41
1.5649551721
 42
1.5707963231
  0
ELLIPSE
  5
840
100
AcDbEntity
  8
0
100
AcDbEllipse
 62
7
  6
CONTINUOUS
 10
186.8027076828
 20
232.999774966
 30
0.0
 11
26.75
 21
0.0
 31
0.0
 40
0.2042553906
 41
-3.1271840457
 42
-3.1018625761
  0
ELLIPSE
  5
841
100
AcDbEntity
  8
0
100
AcDbEllipse
 62
7
  6
CONTINUOUS
 10
186.8027076828
 20
225.5470091497
 30
0.0
 11
26.5
 21
0.0
 31
0.0
 40
0.8987235201
 41
9.3630249027
 42
9.424779516
  0
ELLIPSE
  5
842
100
AcDbEntity
  8
0
100
AcDbEllipse
 62
7
  6
CONTINUOUS
 10
186.8027076828
 20
224.5114828285
 30
0.0
 11
0.0
 21
40.5956624114
 31
0.0
 40
0.6527791007
 41
1.4988001826
 42
1.5090432687
  0
ELLIPSE
  5
843
100
AcDbEntity
  8
0
100
AcDbEllipse
 62
7
  6
CONTINUOUS
 10
186.8027076828
 20
219.6444268562
 30
0.0
 11
0.0
 21
108.2557192067
 31
0.0
 40
0.244790762
 41
1.4936758975
 42
1.4988001826
  0
ELLIPSE
  5
844
100
AcDbEntity
  8
0
100
AcDbEllipse
 62
7
  6
CONTINUOUS
 10
186.8027076828
 20
236.6019314428
 30
0.0
 11
0.0
 21
108.2557192067
 31
0.0
 40
0.244790762
 41
-4.6403928362
 42
-4.635268551
  0
ELLIPSE
  5
845
100
AcDbEntity
  8
0
100
AcDbEllipse
 62
7
  6
CONTINUOUS
 10
186.8027076828
 20
230.7614787577
 30
0.0
 11
-0.0
 21
27.0638523711
 31
0.0
 40
0.9791658496
 41
-4.6608724662
 42
-4.6403928362
  0
ELLIPSE
  5
846
100
AcDbEntity
  8
0
100
AcDbEllipse
 62
7
  6
CONTINUOUS
 10
186.8027076828
 20
230.0646674082
 30
0.0
 11
26.5
 21
0.0
 31
0.0
 40
0.510637263
 41
-3.1105342209
 42
-3.0900761394
  0
ELLIPSE
  5
847
100
AcDbEntity
  8
0
100
AcDbEllipse
 62
7
  6
CONTINUOUS
 10
186.8027076828
 20
229.784526575
 30
0.0
 11
26.5
 21
-0.0
 31
0.0
 40
0.1702127457
 41
-3.1411995913
 42
-3.1105342209
  0
ELLIPSE
  5
848
100
AcDbEntity
  8
0
100
AcDbEllipse
 62
7
  6
CONTINUOUS
 10
186.8027076828
 20
215.3341710302
 30
0.0
 11
0.0
 21
49.6170216799
 31
0.0
 40
0.5340909047
 41
1.3957688043
 42
1.4268246089
  0
ELLIPSE
  5
849
100
AcDbEntity
  8
0
100
AcDbEllipse
 62
7
  6
CONTINUOUS
 10
186.8027076828
 20
221.0965787985
 30
0.0
 11
26.5
 21
-0.0
 31
0.0
 40
0.765958086
 41
2.8669256736
 42
2.8881003469
  0
ELLIPSE
  5
84A
100
AcDbEntity
  8
0
100
AcDbEllipse
 62
7
  6
CONTINUOUS
 10
186.8027076828
 20
224.7667946271
 30
0.0
 11
26.5
 21
0.0
 31
0.0
 40
0.255319362
 41
2.8456238706
 42
2.8669256736
  0
ELLIPSE
  5
84B
100
AcDbEntity
  8
0
100
AcDbEllipse
 62
7
  6
CONTINUOUS
 10
186.8027076828
 20
225.9476487598
 30
0.0
 11
26.5
 21
0.0
 31
0.0
 40
0.255319362
 41
-2.8669256736
 42
-2.8456238706
  0
ELLIPSE
  5
84C
100
AcDbEntity
  8
0
100
AcDbEllipse
 62
7
  6
CONTINUOUS
 10
186.8027076828
 20
229.0061572834
 30
0.0
 11
26.5
 21
-0.0
 31
0.0
 40
0.6808509827
 41
-2.8828179693
 42
-2.8669256736
  0
ELLIPSE
  5
84D
100
AcDbEntity
  8
0
100
AcDbEllipse
 62
7
  6
CONTINUOUS
 10
186.8027076828
 20
238.2401747422
 30
0.0
 11
0.0
 21
54.127559359
 31
0.0
 40
0.4895842398
 41
-4.4641718926
 42
-4.4536142961
  0
ELLIPSE
  5
84E
100
AcDbEntity
  8
0
100
AcDbEllipse
 62
7
  6
CONTINUOUS
 10
186.8027076828
 20
221.5380699445
 30
0.0
 11
26.5
 21
-0.0
 31
0.0
 40
0.2042556244
 41
2.7862865579
 42
2.8134059061
  0
ELLIPSE
  5
84F
100
AcDbEntity
  8
0
100
AcDbEllipse
 62
7
  6
CONTINUOUS
 10
186.8027076828
 20
217.7721068705
 30
0.0
 11
26.5
 21
0.0
 31
0.0
 40
0.6127668731
 41
2.7588914408
 42
2.7862865579
  0
ELLIPSE
  5
850
100
AcDbEntity
  8
0
100
AcDbEllipse
 62
7
  6
CONTINUOUS
 10
186.8027076828
 20
210.3607696139
 30
0.0
 11
0.0
 21
36.0851052403
 31
0.0
 40
0.7343750233
 41
1.1715133473
 42
1.188095114
  0
ELLIPSE
  5
851
100
AcDbEntity
  8
0
100
AcDbEllipse
 62
7
  6
CONTINUOUS
 10
186.8027076828
 20
265.7727504492
 30
0.0
 11
0.0
 21
81.9587067621
 31
0.0
 40
0.3263838713
 41
-4.1869906254
 42
-4.1811291862
  0
ELLIPSE
  5
852
100
AcDbEntity
  8
0
100
AcDbEllipse
 62
7
  6
CONTINUOUS
 10
186.8027076828
 20
233.4777872526
 30
0.0
 11
26.75
 21
0.0
 31
0.0
 40
0.6808509827
 41
-2.6103328594
 42
-2.592625041
  0
ELLIPSE
  5
853
100
AcDbEntity
  8
0
100
AcDbEllipse
 62
7
  6
CONTINUOUS
 10
186.8027076828
 20
226.8252985661
 30
0.0
 11
26.75
 21
0.0
 31
0.0
 40
0.204254743
 41
-2.592625041
 42
-2.5626748267
  0
ELLIPSE
  5
854
100
AcDbEntity
  8
0
100
AcDbEllipse
 62
7
  6
CONTINUOUS
 10
186.8027076828
 20
198.0861478328
 30
0.0
 11
0.0
 21
67.6590596819
 31
0.0
 40
0.3916696467
 41
1.1603942744
 42
1.1715133473
  0
ELLIPSE
  5
855
100
AcDbEntity
  8
0
100
AcDbEllipse
 62
7
  6
CONTINUOUS
 10
186.8027076828
 20
252.6282992384
 30
0.0
 11
0.0
 21
67.659069159
 31
0.0
 40
0.3916695918
 41
-4.3131060009
 42
-4.301986928
  0
ELLIPSE
  5
856
100
AcDbEntity
  8
0
100
AcDbEllipse
 62
7
  6
CONTINUOUS
 10
186.8027076828
 20
240.3536725449
 30
0.0
 11
-0.0
 21
36.0851020813
 31
0.0
 40
0.7343750875
 41
-4.3296877676
 42
-4.3131060009
  0
ELLIPSE
  5
857
100
AcDbEntity
  8
0
100
AcDbEllipse
 62
7
  6
CONTINUOUS
 10
186.8027076828
 20
232.9423359371
 30
0.0
 11
26.5
 21
-0.0
 31
0.0
 40
0.6127668194
 41
-2.7862865579
 42
-2.7588914408
  0
ELLIPSE
  5
858
100
AcDbEntity
  8
0
100
AcDbEllipse
 62
7
  6
CONTINUOUS
 10
186.8027076828
 20
229.1763731928
 30
0.0
 11
26.5
 21
0.0
 31
0.0
 40
0.2042556065
 41
-2.8134059061
 42
-2.7862865579
  0
ELLIPSE
  5
859
100
AcDbEntity
  8
0
100
AcDbEllipse
 62
7
  6
CONTINUOUS
 10
186.8027076828
 20
229.1763731928
 30
0.0
 11
26.75
 21
-0.0
 31
0.0
 40
0.2042556065
 41
-2.8165864335
 42
-2.7897521248
  0
ELLIPSE
  5
85A
100
AcDbEntity
  8
0
100
AcDbEllipse
 62
7
  6
CONTINUOUS
 10
186.8027076828
 20
232.9423359371
 30
0.0
 11
26.75
 21
0.0
 31
0.0
 40
0.6127668194
 41
-2.7897521248
 42
-2.7626507383
  0
ELLIPSE
  5
85B
100
AcDbEntity
  8
0
100
AcDbEllipse
 62
7
  6
CONTINUOUS
 10
186.8027076828
 20
240.3536725449
 30
0.0
 11
0.0
 21
36.4255275726
 31
0.0
 40
0.7343750875
 41
-4.3334470651
 42
-4.3170461776
  0
ELLIPSE
  5
85C
100
AcDbEntity
  8
0
100
AcDbEllipse
 62
7
  6
CONTINUOUS
 10
186.8027076828
 20
252.6282992384
 30
0.0
 11
0.0
 21
68.2973622643
 31
0.0
 40
0.3916695918
 41
-4.3170461776
 42
-4.30604979
  0
ELLIPSE
  5
85D
100
AcDbEntity
  8
0
100
AcDbEllipse
 62
7
  6
CONTINUOUS
 10
186.8027076828
 20
198.0861478328
 30
0.0
 11
-0.0
 21
68.2973526978
 31
0.0
 40
0.3916696467
 41
1.1644571364
 42
1.175453524
  0
ELLIPSE
  5
85E
100
AcDbEntity
  8
0
100
AcDbEllipse
 62
7
  6
CONTINUOUS
 10
186.8027076828
 20
210.3607696139
 30
0.0
 11
0.0
 21
36.4255307615
 31
0.0
 40
0.7343750233
 41
1.175453524
 42
1.1918544115
  0
ELLIPSE
  5
85F
100
AcDbEntity
  8
0
100
AcDbEllipse
 62
7
  6
CONTINUOUS
 10
186.8027076828
 20
217.7721068705
 30
0.0
 11
26.75
 21
0.0
 31
0.0
 40
0.6127668731
 41
2.7626507383
 42
2.7897521248
  0
ELLIPSE
  5
860
100
AcDbEntity
  8
0
100
AcDbEllipse
 62
7
  6
CONTINUOUS
 10
186.8027076828
 20
221.5380699445
 30
0.0
 11
26.75
 21
0.0
 31
0.0
 40
0.2042556244
 41
2.7897521248
 42
2.8165864335
  0
ELLIPSE
  5
861
100
AcDbEntity
  8
0
100
AcDbEllipse
 62
7
  6
CONTINUOUS
 10
186.8027076828
 20
226.8252985661
 30
0.0
 11
26.5
 21
-0.0
 31
0.0
 40
0.204254743
 41
-2.5868441687
 42
-2.5564960574
  0
ELLIPSE
  5
862
100
AcDbEntity
  8
0
100
AcDbEllipse
 62
7
  6
CONTINUOUS
 10
186.8027076828
 20
233.4777872526
 30
0.0
 11
26.5
 21
0.0
 31
0.0
 40
0.6808509827
 41
-2.6047802769
 42
-2.5868441687
  0
ELLIPSE
  5
863
100
AcDbEntity
  8
0
100
AcDbEllipse
 62
7
  6
CONTINUOUS
 10
186.8027076828
 20
265.7727504492
 30
0.0
 11
0.0
 21
81.1927375401
 31
0.0
 40
0.3263838713
 41
-4.1815125385
 42
-4.1755766037
  0
ELLIPSE
  5
864
100
AcDbEntity
  8
0
100
AcDbEllipse
 62
7
  6
CONTINUOUS
 10
186.8027076828
 20
229.784526575
 30
0.0
 11
26.75
 21
0.0
 31
0.0
 40
0.1702127457
 41
-3.1412032648
 42
-3.1108245787
  0
ELLIPSE
  5
865
100
AcDbEntity
  8
0
100
AcDbEllipse
 62
7
  6
CONTINUOUS
 10
186.8027076828
 20
230.0646674082
 30
0.0
 11
26.75
 21
-0.0
 31
0.0
 40
0.510637263
 41
-3.1108245787
 42
-3.0905580225
  0
ELLIPSE
  5
866
100
AcDbEntity
  8
0
100
AcDbEllipse
 62
7
  6
CONTINUOUS
 10
186.8027076828
 20
230.7614787577
 30
0.0
 11
0.0
 21
27.3191717331
 31
0.0
 40
0.9791658496
 41
-4.6613543493
 42
-4.6410668461
  0
ELLIPSE
  5
867
100
AcDbEntity
  8
0
100
AcDbEllipse
 62
7
  6
CONTINUOUS
 10
186.8027076828
 20
236.6019314428
 30
0.0
 11
0.0
 21
109.2769995766
 31
0.0
 40
0.244790762
 41
-4.6410668461
 42
-4.6359907149
  0
ELLIPSE
  5
868
100
AcDbEntity
  8
0
100
AcDbEllipse
 62
7
  6
CONTINUOUS
 10
186.8027076828
 20
219.6444268562
 30
0.0
 11
-0.0
 21
109.2769995766
 31
0.0
 40
0.244790762
 41
1.4943980614
 42
1.4994741925
  0
ELLIPSE
  5
869
100
AcDbEntity
  8
0
100
AcDbEllipse
 62
7
  6
CONTINUOUS
 10
186.8027076828
 20
224.5114828285
 30
0.0
 11
-0.0
 21
40.9786403587
 31
0.0
 40
0.6527791007
 41
1.4994741925
 42
1.5096211245
  0
ELLIPSE
  5
86A
100
AcDbEntity
  8
0
100
AcDbEllipse
 62
7
  6
CONTINUOUS
 10
186.8027076828
 20
225.5470091497
 30
0.0
 11
26.75
 21
0.0
 31
0.0
 40
0.8987235201
 41
9.3636027585
 42
9.4902452766
  0
ELLIPSE
  5
86B
100
AcDbEntity
  8
0
100
AcDbEllipse
 62
7
  6
CONTINUOUS
 10
186.8027076828
 20
238.2401747422
 30
0.0
 11
0.0
 21
54.6381967114
 31
0.0
 40
0.4895842398
 41
-4.4665398163
 42
-4.4560874137
  0
ELLIPSE
  5
86C
100
AcDbEntity
  8
0
100
AcDbEllipse
 62
7
  6
CONTINUOUS
 10
186.8027076828
 20
229.0061572834
 30
0.0
 11
26.75
 21
0.0
 31
0.0
 40
0.6808509827
 41
-2.8852910869
 42
-2.8695582433
  0
ELLIPSE
  5
86D
100
AcDbEntity
  8
0
100
AcDbEllipse
 62
7
  6
CONTINUOUS
 10
186.8027076828
 20
225.9476487598
 30
0.0
 11
26.75
 21
-0.0
 31
0.0
 40
0.255319362
 41
-2.8695582433
 42
-2.8484724015
  0
ELLIPSE
  5
86E
100
AcDbEntity
  8
0
100
AcDbEllipse
 62
7
  6
CONTINUOUS
 10
186.8027076828
 20
224.7667946271
 30
0.0
 11
26.75
 21
0.0
 31
0.0
 40
0.255319362
 41
2.8484724015
 42
2.8695582433
  0
ELLIPSE
  5
86F
100
AcDbEntity
  8
0
100
AcDbEllipse
 62
7
  6
CONTINUOUS
 10
186.8027076828
 20
221.0965787985
 30
0.0
 11
26.75
 21
-0.0
 31
0.0
 40
0.765958086
 41
2.8695582433
 42
2.8905207611
  0
ELLIPSE
  5
870
100
AcDbEntity
  8
0
100
AcDbEllipse
 62
7
  6
CONTINUOUS
 10
186.8027076828
 20
215.3341710302
 30
0.0
 11
-0.0
 21
50.0851067901
 31
0.0
 40
0.5340909047
 41
7.6806065531
 42
7.7113646879
  0
ELLIPSE
  5
871
100
AcDbEntity
  8
0
100
AcDbEllipse
 62
7
  6
CONTINUOUS
 10
186.8027076828
 20
231.6721161981
 30
0.0
 11
26.5
 21
0.0
 31
0.0
 40
0.2042551568
 41
2.908755531
 42
2.9349361691
  0
ELLIPSE
  5
872
100
AcDbEntity
  8
0
100
AcDbEllipse
 62
7
  6
CONTINUOUS
 10
186.8027076828
 20
229.7987077766
 30
0.0
 11
26.5
 21
-0.0
 31
0.0
 40
0.510638791
 41
2.8876942873
 42
2.908755531
  0
ELLIPSE
  5
873
100
AcDbEntity
  8
0
100
AcDbEllipse
 62
7
  6
CONTINUOUS
 10
186.8027076828
 20
226.3997686213
 30
0.0
 11
-0.0
 21
27.0638547404
 31
0.0
 40
0.9791657639
 41
1.2957209535
 42
1.3168979605
  0
ELLIPSE
  5
874
100
AcDbEntity
  8
0
100
AcDbEllipse
 62
7
  6
CONTINUOUS
 10
186.8027076828
 20
219.0487393173
 30
0.0
 11
-0.0
 21
54.127559359
 31
0.0
 40
0.4895842398
 41
1.285085407
 42
1.2957209535
  0
ELLIPSE
  5
875
100
AcDbEntity
  8
0
100
AcDbEllipse
 62
7
  6
CONTINUOUS
 10
186.8027076828
 20
196.1655914091
 30
0.0
 11
-0.0
 21
135.3196490084
 31
0.0
 40
0.1958326096
 41
1.2797552598
 42
1.285085407
  0
ELLIPSE
  5
876
100
AcDbEntity
  8
0
100
AcDbEllipse
 62
7
  6
CONTINUOUS
 10
186.8027076828
 20
275.8999373799
 30
0.0
 11
0.0
 21
135.3197248258
 31
0.0
 40
0.1958324999
 41
-4.4266780606
 42
-4.4213479134
  0
ELLIPSE
  5
877
100
AcDbEntity
  8
0
100
AcDbEllipse
 62
7
  6
CONTINUOUS
 10
186.8027076828
 20
253.0167654323
 30
0.0
 11
-0.0
 21
54.1275498818
 31
0.0
 40
0.4895843255
 41
-4.4373136071
 42
-4.4266780606
  0
ELLIPSE
  5
878
100
AcDbEntity
  8
0
100
AcDbEllipse
 62
7
  6
CONTINUOUS
 10
186.8027076828
 20
245.6657380589
 30
0.0
 11
-0.0
 21
27.0638523711
 31
0.0
 40
0.9791658496
 41
-4.4584906141
 42
-4.4373136071
  0
ELLIPSE
  5
879
100
AcDbEntity
  8
0
100
AcDbEllipse
 62
7
  6
CONTINUOUS
 10
186.8027076828
 20
242.2667990524
 30
0.0
 11
26.5
 21
0.0
 31
0.0
 40
0.510638724
 41
-2.908755531
 42
-2.8876942873
  0
ELLIPSE
  5
87A
100
AcDbEntity
  8
0
100
AcDbEllipse
 62
7
  6
CONTINUOUS
 10
186.8027076828
 20
240.3933909316
 30
0.0
 11
26.5
 21
-0.0
 31
0.0
 40
0.204255139
 41
-2.9349361691
 42
-2.908755531
  0
ELLIPSE
  5
87B
100
AcDbEntity
  8
0
100
AcDbEllipse
 62
7
  6
CONTINUOUS
 10
186.8027076828
 20
240.3933909316
 30
0.0
 11
26.75
 21
0.0
 31
0.0
 40
0.204255139
 41
-2.9368951093
 42
-2.910971194
  0
ELLIPSE
  5
87C
100
AcDbEntity
  8
0
100
AcDbEllipse
 62
7
  6
CONTINUOUS
 10
186.8027076828
 20
242.2667990524
 30
0.0
 11
26.75
 21
0.0
 31
0.0
 40
0.510638724
 41
-2.910971194
 42
-2.8901187477
  0
ELLIPSE
  5
87D
100
AcDbEntity
  8
0
100
AcDbEllipse
 62
7
  6
CONTINUOUS
 10
186.8027076828
 20
245.6657380589
 30
0.0
 11
0.0
 21
27.3191717331
 31
0.0
 40
0.9791658496
 41
-4.4609150745
 42
-4.4399502925
  0
ELLIPSE
  5
87E
100
AcDbEntity
  8
0
100
AcDbEllipse
 62
7
  6
CONTINUOUS
 10
186.8027076828
 20
253.0167654323
 30
0.0
 11
0.0
 21
54.6381871449
 31
0.0
 40
0.4895843255
 41
-4.4399502925
 42
-4.4294222636
  0
ELLIPSE
  5
87F
100
AcDbEntity
  8
0
100
AcDbEllipse
 62
7
  6
CONTINUOUS
 10
186.8027076828
 20
275.8999373799
 30
0.0
 11
0.0
 21
136.5963260034
 31
0.0
 40
0.1958324999
 41
-4.4294222636
 42
-4.4241462481
  0
ELLIPSE
  5
880
100
AcDbEntity
  8
0
100
AcDbEllipse
 62
7
  6
CONTINUOUS
 10
186.8027076828
 20
196.1655914091
 30
0.0
 11
-0.0
 21
136.5962494707
 31
0.0
 40
0.1958326096
 41
1.2825535945
 42
1.2878296101
  0
ELLIPSE
  5
881
100
AcDbEntity
  8
0
100
AcDbEllipse
 62
7
  6
CONTINUOUS
 10
186.8027076828
 20
219.0487393173
 30
0.0
 11
0.0
 21
54.6381967114
 31
0.0
 40
0.4895842398
 41
1.2878296101
 42
1.298357639
  0
ELLIPSE
  5
882
100
AcDbEntity
  8
0
100
AcDbEllipse
 62
7
  6
CONTINUOUS
 10
186.8027076828
 20
226.3997686213
 30
0.0
 11
-0.0
 21
27.3191741247
 31
0.0
 40
0.9791657639
 41
1.298357639
 42
1.3193224209
  0
ELLIPSE
  5
883
100
AcDbEntity
  8
0
100
AcDbEllipse
 62
7
  6
CONTINUOUS
 10
186.8027076828
 20
229.7987077766
 30
0.0
 11
26.75
 21
0.0
 31
0.0
 40
0.510638791
 41
2.8901187477
 42
2.910971194
  0
ELLIPSE
  5
884
100
AcDbEntity
  8
0
100
AcDbEllipse
 62
7
  6
CONTINUOUS
 10
186.8027076828
 20
231.6721161981
 30
0.0
 11
26.75
 21
0.0
 31
0.0
 40
0.2042551568
 41
2.910971194
 42
2.9368951093
  0
ELLIPSE
  5
885
100
AcDbEntity
  8
0
100
AcDbEllipse
 62
7
  6
CONTINUOUS
 10
186.8027076828
 20
229.3572317359
 30
0.0
 11
0.0
 21
136.5954678622
 31
0.0
 40
0.1958337302
 41
1.5295073281
 42
1.5345734527
  0
ELLIPSE
  5
886
100
AcDbEntity
  8
0
100
AcDbEllipse
 62
7
  6
CONTINUOUS
 10
186.8027076828
 20
233.1178600325
 30
0.0
 11
26.75
 21
-0.0
 31
0.0
 40
0.5106380606
 41
3.1357514989
 42
3.1560012615
  0
ELLIPSE
  5
887
100
AcDbEntity
  8
0
100
AcDbEllipse
 62
7
  6
CONTINUOUS
 10
186.8027076828
 20
233.0380728425
 30
0.0
 11
0.0
 21
27.3191350443
 31
0.0
 40
0.9791671646
 41
1.5447030136
 42
1.5649551721
  0
ELLIPSE
  5
888
100
AcDbEntity
  8
0
100
AcDbEllipse
 62
7
  6
CONTINUOUS
 10
186.8027076828
 20
232.3253048197
 30
0.0
 11
0.0
 21
54.6383530327
 31
0.0
 40
0.4895828391
 41
1.5345734527
 42
1.5447030136
  0
ENDSEC
  0
SECTION
  2
OBJECTS
  0
DICTIONARY
  5
C
100
AcDbDictionary
280
0
281
1
  3
ACAD_GROUP
350
D
  3
ACAD_MLINESTYLE
350
17
  3
ACAD_LAYOUT
350
1A
  3
ACAD_PLOTSETTINGS
350
19
  3
ACAD_PLOTSTYLENAME
350
E
  0
DICTIONARY
  5
D
102
{ACAD_REACTORS
330
C
102
}
100
AcDbDictionary
280
0
281
1
  0
ACDBDICTIONARYWDFLT
  5
E
102
{ACAD_REACTORS
330
C
102
}
100
AcDbDictionary
281
1
  3
Normal
350
F
100
AcDbDictionaryWithDefault
340
F
  0
DICTIONARY
  5
17
102
{ACAD_REACTORS
330
C
102
}
100
AcDbDictionary
280
0
281
1
  3
Standard
350
18
  0
DICTIONARY
  5
19
102
{ACAD_REACTORS
330
C
102
}
100
AcDbDictionary
281
1
  0
DICTIONARY
  5
1A
102
{ACAD_REACTORS
330
C
102
}
100
AcDbDictionary
281
1
  3
Model
350
889
  3
Layout1
350
88A
  0
ACDBPLACEHOLDER
  5
F
102
{ACAD_REACTORS
330
E
102
}
  0
MLINESTYLE
  5
18
102
{ACAD_REACTORS
330
17
102
}
100
AcDbMlineStyle
  2
STANDARD
 70
0
  3

 62
256
 51
90.0
 52
90.0
 71
2
 49
0.5
 62
256
  6
BYLAYER
 49
-0.5
 62
256
  6
BYLAYER
  0
LAYOUT
  5
889
102
{ACAD_REACTORS
330
1A
102
}
100
AcDbPlotSettings
  1

  2
none_device
  4
ISO_A2_(594.00_x_420.00_MM)
  6

 40
0.0
 41
0.0
 42
0.0
 43
0.0
 44
594.0
 45
420.0
 46
0.0
 47
0.0
 48
0.0
 49
0.0
140
0.0
141
0.0
142
1.0
143
1.0
 70
1024
 72
1
 73
0
 74
0
  7

 75
0
147
1.0
148
0.0
149
0.0
100
AcDbLayout
  1
Model
 70
0
 71
0
 10
0.0
 20
0.0
 11
594.0
 21
420.0
 12
0.0
 22
0.0
 32
0.0
 14
0.0
 24
0.0
 34
0.0
 15
0.0
 25
0.0
 35
0.0
146
0.0
 13
0.0
 23
0.0
 33
0.0
 16
1.0
 26
0.0
 36
0.0
 17
0.0
 27
1.0
 37
0.0
 76
0
330
20D
345
0
346
0
  0
LAYOUT
  5
88A
102
{ACAD_REACTORS
330
1A
102
}
100
AcDbPlotSettings
  1

  2
none_device
  4
ISO_A2_(594.00_x_420.00_MM)
  6

 40
0.0
 41
0.0
 42
0.0
 43
0.0
 44
594.0
 45
420.0
 46
0.0
 47
0.0
 48
0.0
 49
0.0
140
0.0
141
0.0
142
1.0
143
1.0
 70
0
 72
1
 73
0
 74
0
  7

 75
0
147
1.0
148
0.0
149
0.0
100
AcDbLayout
  1
Layout1
 70
0
 71
1
 10
0.0
 20
0.0
 11
594.0
 21
420.0
 12
0.0
 22
0.0
 32
0.0
 14
0.0
 24
0.0
 34
0.0
 15
0.0
 25
0.0
 35
0.0
146
0.0
 13
0.0
 23
0.0
 33
0.0
 16
1.0
 26
0.0
 36
0.0
 17
0.0
 27
1.0
 37
0.0
 76
0
330
20E
345
0
346
0
  0
ENDSEC
  0
EOF
