999
DXF file: 001-m31452-p-20.dxf
999
Pro/ENGINEER 2011490 by Parametric Technology Corporation
  0
SECTION
  2
HEADER
  9
$ACADVER
  1
AC1015
  9
$DWGCODEPAGE
  3
ANSI_1252
  9
$EXTMAX
 10
420.0
 20
297.0
 30
0.0
  9
$EXTMIN
 10
0.0
 20
0.0
 30
0.0
  9
$LIMMIN
 10
0.0
 20
0.0
  9
$LIMMAX
 10
420.0
 20
297.0
  9
$VIEWCTR
 10
210.0
 20
148.5
  9
$VIEWSIZE
 40
297.0
  9
$CLAYER
  8
0
  9
$LTSCALE
 40
23.1
  9
$CELTYPE
  6
BYLAYER
  9
$DIMSCALE
 40
1.0
  9
$DIMASZ
 40
3.5
  9
$DIMEXO
 40
2.625
  9
$DIMDLI
 40
15.96
  9
$DIMEXE
 40
7.56
  9
$DIMCEN
 40
3.78
  9
$DIMLFAC
 40
1.0
  9
$DIMBLK
  1
_FILLED
  9
$DIMTXT
 40
3.5
  9
$DIMTOL
 70
1
  9
$DIMLIM
 70
0
  9
$DIMTFAC
 40
1.0
  9
$DIMTP
 40
0.005
  9
$DIMTM
 40
0.005
  9
$PDMODE
 70
3
  9
$PDSIZE
 40
0.3125
  9
$HANDSEED
  5
7C4
  9
$TILEMODE
 70
1
  9
$MEASUREMENT
 70
1
  9
$INSUNITS
 70
4
  0
ENDSEC
  0
SECTION
  2
CLASSES
  0
CLASS
  1
ACDBDICTIONARYWDFLT
  2
AcDbDictionaryWithDefault
  3
AutoCAD 2000
 90
0
280
0
281
0
  0
CLASS
  1
ACDBPLACEHOLDER
  2
AcDbPlaceHolder
  3
AutoCAD 2000
 90
0
280
0
281
0
  0
CLASS
  1
LAYOUT
  2
AcDbLayout
  3
AutoCAD 2000
 90
0
280
0
281
0
  0
ENDSEC
  0
SECTION
  2
TABLES
  0
TABLE
  2
VPORT
  5
8
100
AcDbSymbolTable
 70
2
  0
VPORT
  5
1F4
100
AcDbSymbolTableRecord
100
AcDbViewportTableRecord
  2
*ACTIVE
 70
0
 10
0.0
 20
0.0
 11
1.0
 21
1.0
 12
210.0
 22
148.5
 13
0.0
 23
0.0
 14
1.0
 24
1.0
 15
0.0
 25
0.0
 16
0.0
 26
0.0
 36
1.0
 17
0.0
 27
0.0
 37
0.0
 40
297.0
 41
1.4141414141
 42
50.0
 43
0.0
 44
0.0
 50
0.0
 51
0.0
 71
0
 72
100
 73
1
 74
1
 75
0
 76
0
 77
0
 78
0
  0
ENDTAB
  0
TABLE
  2
LTYPE
  5
5
100
AcDbSymbolTable
 70
6
  0
LTYPE
  5
14
100
AcDbSymbolTableRecord
100
AcDbLinetypeTableRecord
  2
BYBLOCK
 70
0
  3

 72
65
 73
0
 40
0.0
  0
LTYPE
  5
15
100
AcDbSymbolTableRecord
100
AcDbLinetypeTableRecord
  2
BYLAYER
 70
0
  3

 72
65
 73
0
 40
0.0
  0
LTYPE
  5
16
100
AcDbSymbolTableRecord
100
AcDbLinetypeTableRecord
  2
CONTINUOUS
 70
64
  3
Solid line
 72
65
 73
0
 40
0.0
  0
LTYPE
  5
1F5
100
AcDbSymbolTableRecord
100
AcDbLinetypeTableRecord
  2
CENTER
 70
64
  3
____ _ ____ _ ____ _ ____ _ ____ _ ____ _ ____
 72
65
 73
4
 40
0.6
 49
0.375
 74
0
 49
-0.075
 74
0
 49
0.075
 74
0
 49
-0.075
 74
0
  0
LTYPE
  5
1F6
100
AcDbSymbolTableRecord
100
AcDbLinetypeTableRecord
  2
HIDDEN
 70
64
  3
- - - - - - - - - - - - - - - - - - - -
 72
65
 73
2
 40
0.2
 49
0.1
 74
0
 49
-0.1
 74
0
  0
LTYPE
  5
1F7
100
AcDbSymbolTableRecord
100
AcDbLinetypeTableRecord
  2
PHANTOM
 70
64
  3
_____ _ _ _____ _ _ _____ _ _ _____
 72
65
 73
6
 40
0.8
 49
0.45
 74
0
 49
-0.05
 74
0
 49
0.1
 74
0
 49
-0.05
 74
0
 49
0.1
 74
0
 49
-0.05
 74
0
  0
LTYPE
  5
1F8
100
AcDbSymbolTableRecord
100
AcDbLinetypeTableRecord
  2
DOT
 70
64
  3
. . . . . . . . . . . . . . . . . . . .
 72
65
 73
2
 40
0.2
 49
0.1
 74
0
 49
-0.1
 74
0
  0
LTYPE
  5
1F9
100
AcDbSymbolTableRecord
100
AcDbLinetypeTableRecord
  2
DASHED
 70
64
  3
- - - - - - - - - - - - - - - - - - - -
 72
65
 73
2
 40
0.2
 49
0.1
 74
0
 49
-0.1
 74
0
  0
ENDTAB
  0
TABLE
  2
LAYER
  5
2
100
AcDbSymbolTable
 70
36
  0
LAYER
  5
10
100
AcDbSymbolTableRecord
100
AcDbLayerTableRecord
  2
0
 70
0
 62
7
  6
CONTINUOUS
370
-3
390
F
  0
LAYER
  5
1FA
100
AcDbSymbolTableRecord
100
AcDbLayerTableRecord
  2
DEFAULT_1
 70
0
 62
7
  6
CENTER
370
-3
390
F
  0
LAYER
  5
1FB
100
AcDbSymbolTableRecord
100
AcDbLayerTableRecord
  2
DEFAULT_2
 70
0
 62
8
  6
HIDDEN
370
-3
390
F
  0
LAYER
  5
1FC
100
AcDbSymbolTableRecord
100
AcDbLayerTableRecord
  2
DEFAULT_3
 70
0
 62
7
  6
PHANTOM
370
-3
390
F
  0
LAYER
  5
1FD
100
AcDbSymbolTableRecord
100
AcDbLayerTableRecord
  2
AUSFORMSCHRAEGEN
 70
0
 62
7
  6
CONTINUOUS
370
-3
390
F
  0
LAYER
  5
1FE
100
AcDbSymbolTableRecord
100
AcDbLayerTableRecord
  2
BEZUGSACHSEN
 70
0
 62
7
  6
CONTINUOUS
370
-3
390
F
  0
LAYER
  5
1FF
100
AcDbSymbolTableRecord
100
AcDbLayerTableRecord
  2
BEZUGSEBENEN
 70
0
 62
7
  6
CONTINUOUS
370
-3
390
F
  0
LAYER
  5
200
100
AcDbSymbolTableRecord
100
AcDbLayerTableRecord
  2
BG_STARTBEZUEGE
 70
0
 62
7
  6
CONTINUOUS
370
-3
390
F
  0
LAYER
  5
201
100
AcDbSymbolTableRecord
100
AcDbLayerTableRecord
  2
FASEN
 70
0
 62
7
  6
CONTINUOUS
370
-3
390
F
  0
LAYER
  5
202
100
AcDbSymbolTableRecord
100
AcDbLayerTableRecord
  2
HILFEN
 70
0
 62
7
  6
CONTINUOUS
370
-3
390
F
  0
LAYER
  5
203
100
AcDbSymbolTableRecord
100
AcDbLayerTableRecord
  2
KONSTRUKTIONSELEMENTE
 70
0
 62
7
  6
CONTINUOUS
370
-3
390
F
  0
LAYER
  5
204
100
AcDbSymbolTableRecord
100
AcDbLayerTableRecord
  2
NORM
 70
0
 62
7
  6
CONTINUOUS
370
-3
390
F
  0
LAYER
  5
205
100
AcDbSymbolTableRecord
100
AcDbLayerTableRecord
  2
PLATZIERUNG
 70
0
 62
7
  6
CONTINUOUS
370
-3
390
F
  0
LAYER
  5
206
100
AcDbSymbolTableRecord
100
AcDbLayerTableRecord
  2
PLAZIERUNG
 70
0
 62
7
  6
CONTINUOUS
370
-3
390
F
  0
LAYER
  5
207
100
AcDbSymbolTableRecord
100
AcDbLayerTableRecord
  2
RUNDUNGEN
 70
0
 62
7
  6
CONTINUOUS
370
-3
390
F
  0
LAYER
  5
208
100
AcDbSymbolTableRecord
100
AcDbLayerTableRecord
  2
TEIL_STARTBEZUEGE
 70
0
 62
7
  6
CONTINUOUS
370
-3
390
F
  0
LAYER
  5
209
100
AcDbSymbolTableRecord
100
AcDbLayerTableRecord
  2
T_STARTBEZUEGE
 70
0
 62
7
  6
CONTINUOUS
370
-3
390
F
  0
LAYER
  5
20A
100
AcDbSymbolTableRecord
100
AcDbLayerTableRecord
  2
ZEICHNUNGSBEMASSUNGEN
 70
0
 62
7
  6
CONTINUOUS
370
-3
390
F
  0
ENDTAB
  0
TABLE
  2
STYLE
  5
3
100
AcDbSymbolTable
 70
1
  0
STYLE
  5
11
100
AcDbSymbolTableRecord
100
AcDbTextStyleTableRecord
  2
STANDARD
 70
0
 40
0.0
 41
0.7
 50
0.0
 71
0
 42
0.2
  3
txt
  4

  0
STYLE
  5
20B
100
AcDbSymbolTableRecord
100
AcDbTextStyleTableRecord
  2
TEXTSTYLE_1
 70
0
 40
0.0
 41
0.8
 50
0.0
 71
0
 42
0.2
  3
gdt
  4

  0
ENDTAB
  0
TABLE
  2
VIEW
  5
6
100
AcDbSymbolTable
 70
0
  0
ENDTAB
  0
TABLE
  2
UCS
  5
7
100
AcDbSymbolTable
 70
0
  0
ENDTAB
  0
TABLE
  2
APPID
  5
9
100
AcDbSymbolTable
 70
1
  0
APPID
  5
20C
100
AcDbSymbolTableRecord
100
AcDbRegAppTableRecord
  2
ACAD
 70
0
  0
ENDTAB
  0
TABLE
  2
BLOCK_RECORD
  5
1
100
AcDbSymbolTable
 70
0
  0
BLOCK_RECORD
  5
20D
100
AcDbSymbolTableRecord
100
AcDbBlockTableRecord
  2
*Model_Space
  0
BLOCK_RECORD
  5
20E
100
AcDbSymbolTableRecord
100
AcDbBlockTableRecord
  2
*Paper_Space
  0
ENDTAB
  0
TABLE
  2
DIMSTYLE
  5
A
100
AcDbSymbolTable
 70
1
100
AcDbDimStyleTable
 71
0
  0
DIMSTYLE
105
20F
100
AcDbSymbolTableRecord
100
AcDbDimStyleTableRecord
  2
STANDARD
 70
0
  3

  4

 40
1.0
 41
3.5
 42
0.0625
 43
0.38
 44
0.18
 45
0.0
 46
0.0
 47
0.005
 48
0.005
140
3.5
141
0.09
142
0.0
143
25.4
144
1.0
145
0.0
146
1.0
147
0.09
 71
1.0
 72
0.0
 73
0
 74
0
 75
0
 76
0
 77
1
 78
8
170
0
171
2
172
0
173
0
174
0
175
0
176
0
177
0
178
5
270
2
271
3
272
3
273
2
274
2
275
0
280
0
281
0
282
0
283
1
284
8
285
0
286
0
287
3
288
0
340
11
  0
ENDTAB
  0
ENDSEC
  0
SECTION
  2
BLOCKS
  0
BLOCK
  5
20
100
AcDbEntity
  8
0
100
AcDbBlockBegin
  2
*Model_Space
 70
0
 10
0.0
 20
0.0
 30
0.0
  3
*Model_Space
  1

  0
ENDBLK
  5
21
100
AcDbEntity
  8
0
100
AcDbBlockEnd
  0
BLOCK
  5
1C
100
AcDbEntity
  8
0
100
AcDbBlockBegin
  2
*Paper_Space
 70
0
 10
0.0
 20
0.0
 30
0.0
  3
*Paper_Space
  1

  0
ENDBLK
  5
1D
100
AcDbEntity
  8
0
100
AcDbBlockEnd
  0
ENDSEC
  0
SECTION
  2
ENTITIES
  0
MTEXT
  5
210
100
AcDbEntity
  8
0
100
AcDbMText
 62
5
  6
CONTINUOUS
  7
STANDARD
 71
1
 72
1
 10
243.3749935411
 20
167.5279492967
 30
0.0
 11
0.3826834324
 21
0.9238795325
 31
0.0
 44
0.9
  1
VIP 6
 40
6.0
 41
24.1428571429
  0
MTEXT
  5
211
100
AcDbEntity
  8
0
100
AcDbMText
 62
5
  6
CONTINUOUS
  7
STANDARD
 71
2
 72
1
 10
146.9364330916
 20
51.111339669
 30
0.0
 11
0.0
 21
1.0
 31
0.0
 44
0.9
  1
RUD PP-B\P1,5t M16
 40
5.0
 41
32.619047619
  0
MTEXT
  5
212
100
AcDbEntity
  8
0
100
AcDbMText
 62
5
  6
CONTINUOUS
  7
STANDARD
 71
1
 72
1
 10
275.6230250538
 20
182.9271673712
 30
0.0
 11
0.3826834324
 21
-0.9238795325
 31
0.0
 44
0.9
  1
CE
 40
6.0
 41
10.4285714286
  0
LINE
  5
213
100
AcDbEntity
  8
0
100
AcDbLine
 62
7
  6
CONTINUOUS
 10
0.0
 20
0.0
 11
0.0
 21
297.0
  0
LINE
  5
214
100
AcDbEntity
  8
0
100
AcDbLine
 62
7
  6
CONTINUOUS
 10
0.0
 20
0.0
 11
420.0
 21
0.0
  0
LINE
  5
215
100
AcDbEntity
  8
0
100
AcDbLine
 62
7
  6
CONTINUOUS
 10
0.0
 20
297.0
 11
420.0
 21
297.0
  0
LINE
  5
216
100
AcDbEntity
  8
0
100
AcDbLine
 62
7
  6
CONTINUOUS
 10
420.0
 20
0.0
 11
420.0
 21
297.0
  0
LINE
  5
217
100
AcDbEntity
  8
FASEN
100
AcDbLine
 62
7
  6
CONTINUOUS
 10
161.0111125545
 20
111.7291968796
 11
146.0111125545
 21
111.7291968796
  0
LINE
  5
218
100
AcDbEntity
  8
FASEN
100
AcDbLine
 62
7
  6
CONTINUOUS
 10
161.5111125545
 20
112.2291968796
 11
145.5111125545
 21
112.2291968796
  0
LINE
  5
219
100
AcDbEntity
  8
0
100
AcDbLine
 62
7
  6
CONTINUOUS
 10
144.5089305075
 20
255.5021122447
 11
142.6903140045
 21
254.6698658779
  0
LINE
  5
21A
100
AcDbEntity
  8
0
100
AcDbLine
 62
7
  6
CONTINUOUS
 10
143.3220418042
 20
254.4909878342
 11
144.7617800136
 21
255.1498496074
  0
LINE
  5
21B
100
AcDbEntity
  8
0
100
AcDbLine
 62
7
  6
CONTINUOUS
 10
145.2930011347
 20
253.9890304846
 11
143.8532629253
 21
253.3301687113
  0
LINE
  5
21C
100
AcDbEntity
  8
0
100
AcDbLine
 62
7
  6
CONTINUOUS
 10
144.0657513341
 20
252.8658411489
 11
145.4297137113
 21
253.490025924
  0
LINE
  5
21D
100
AcDbEntity
  8
0
100
AcDbLine
 62
7
  6
CONTINUOUS
 10
140.9252685546
 20
253.4604504046
 11
140.5385232083
 21
253.2835823488
  0
LINE
  5
21E
100
AcDbEntity
  8
0
100
AcDbLine
 62
7
  6
CONTINUOUS
 10
156.1914758957
 20
255.6719831288
 11
155.7396642894
 21
255.4857985269
  0
LINE
  5
21F
100
AcDbEntity
  8
0
100
AcDbLine
 62
7
  6
CONTINUOUS
 10
140.856680017
 20
252.9889672715
 11
141.1087945043
 21
253.0675890242
  0
LINE
  5
220
100
AcDbEntity
  8
0
100
AcDbLine
 62
7
  6
CONTINUOUS
 10
145.4297137113
 20
253.490025924
 11
145.7731772701
 21
253.7407984447
  0
LINE
  5
221
100
AcDbEntity
  8
0
100
AcDbLine
 62
7
  6
CONTINUOUS
 10
140.5385232083
 20
253.2835823488
 11
138.9229536708
 21
252.1046272735
  0
LINE
  5
222
100
AcDbEntity
  8
0
100
AcDbLine
 62
7
  6
CONTINUOUS
 10
139.5776875307
 20
252.0556278838
 11
140.856680017
 21
252.9889672715
  0
LINE
  5
223
100
AcDbEntity
  8
0
100
AcDbLine
 62
7
  6
CONTINUOUS
 10
141.6092045839
 20
251.9577526035
 11
140.3302120976
 21
251.0244132157
  0
LINE
  5
224
100
AcDbEntity
  8
0
100
AcDbLine
 62
7
  6
CONTINUOUS
 10
140.6312218682
 20
250.6119274256
 11
141.8428990213
 21
251.496143732
  0
LINE
  5
225
100
AcDbEntity
  8
0
100
AcDbLine
 62
7
  6
CONTINUOUS
 10
141.2808638213
 20
248.8734881985
 11
141.6847562057
 21
249.1682269673
  0
LINE
  5
226
100
AcDbEntity
  8
0
100
AcDbLine
 62
7
  6
CONTINUOUS
 10
155.8369096612
 20
255.0392581918
 11
156.2064386789
 21
255.2386264248
  0
LINE
  5
227
100
AcDbEntity
  8
0
100
AcDbLine
 62
7
  6
CONTINUOUS
 10
157.3898349113
 20
253.6699481812
 11
157.1160547033
 21
253.5414305696
  0
LINE
  5
228
100
AcDbEntity
  8
0
100
AcDbLine
 62
7
  6
CONTINUOUS
 10
144.3548067382
 20
251.0326328719
 11
144.8094608639
 21
251.2406944636
  0
LINE
  5
229
100
AcDbEntity
  8
0
100
AcDbLine
 62
7
  6
CONTINUOUS
 10
157.1310155949
 20
253.1080741158
 11
157.582829088
 21
253.294258438
  0
LINE
  5
22A
100
AcDbEntity
  8
FASEN
100
AcDbLine
 62
7
  6
CONTINUOUS
 10
146.0111125545
 20
111.7291968796
 11
145.5111125545
 21
112.2291968796
  0
LINE
  5
22B
100
AcDbEntity
  8
0
100
AcDbLine
 62
7
  6
CONTINUOUS
 10
141.8428990213
 20
251.496143732
 11
142.1293077774
 21
251.8105070512
  0
LINE
  5
22C
100
AcDbEntity
  8
0
100
AcDbLine
 62
7
  6
CONTINUOUS
 10
145.4849134628
 20
254.1704492075
 11
145.2930011347
 21
253.9890304846
  0
LINE
  5
22D
100
AcDbEntity
  8
0
100
AcDbLine
 62
7
  6
CONTINUOUS
 10
166.2212216558
 20
251.1913117887
 11
166.6196836945
 21
251.3313743423
  0
LINE
  5
22E
100
AcDbEntity
  8
0
100
AcDbLine
 62
7
  6
CONTINUOUS
 10
165.2130281936
 20
249.7155911344
 11
165.6114902491
 21
249.8556537126
  0
LINE
  5
22F
100
AcDbEntity
  8
0
100
AcDbLine
 62
7
  6
CONTINUOUS
 10
141.760982481
 20
252.1738696196
 11
141.6092045839
 21
251.9577526035
  0
LINE
  5
230
100
AcDbEntity
  8
KONSTRUKTIONSELEMENTE
100
AcDbLine
 62
7
  6
CONTINUOUS
 10
130.5111125545
 20
135.7291968796
 11
176.5111125545
 21
135.7291968796
  0
LINE
  5
231
100
AcDbEntity
  8
0
100
AcDbLine
 62
7
  6
CONTINUOUS
 10
133.2575917769
 20
138.2291968796
 11
133.5388417769
 21
138.2291968796
  0
LINE
  5
232
100
AcDbEntity
  8
0
100
AcDbLine
 62
7
  6
CONTINUOUS
 10
134.1950917545
 20
138.2291968796
 11
134.5700917322
 21
138.2291968796
  0
LINE
  5
233
100
AcDbEntity
  8
0
100
AcDbLine
 62
7
  6
CONTINUOUS
 10
135.2263417769
 20
138.2291968796
 11
135.5075917769
 21
138.2291968796
  0
LINE
  5
234
100
AcDbEntity
  8
0
100
AcDbLine
 62
7
  6
CONTINUOUS
 10
136.1638416875
 20
138.2291968796
 11
136.4450916875
 21
138.2291968796
  0
LINE
  5
235
100
AcDbEntity
  8
0
100
AcDbLine
 62
7
  6
CONTINUOUS
 10
137.5700916875
 20
138.2291968796
 11
137.8044665981
 21
138.2291968796
  0
LINE
  5
236
100
AcDbEntity
  8
0
100
AcDbLine
 62
7
  6
CONTINUOUS
 10
137.3357167769
 20
138.3249415574
 11
137.7687294788
 21
138.3249415574
  0
LINE
  5
237
100
AcDbEntity
  8
0
100
AcDbLine
 62
7
  6
CONTINUOUS
 10
137.1013418663
 20
138.6121755909
 11
137.5343545682
 21
138.6121755909
  0
LINE
  5
238
100
AcDbEntity
  8
0
100
AcDbLine
 62
7
  6
CONTINUOUS
 10
134.3825917769
 20
138.7079202939
 11
134.6587741697
 21
138.7079202939
  0
LINE
  5
239
100
AcDbEntity
  8
0
100
AcDbLine
 62
7
  6
CONTINUOUS
 10
137.5232168663
 20
138.7079202939
 11
138.2843546576
 21
138.7079202939
  0
LINE
  5
23A
100
AcDbEntity
  8
0
100
AcDbLine
 62
7
  6
CONTINUOUS
 10
137.9919669557
 20
138.8036649633
 11
138.3435294619
 21
138.8036649633
  0
LINE
  5
23B
100
AcDbEntity
  8
0
100
AcDbLine
 62
7
  6
CONTINUOUS
 10
136.9607168663
 20
138.9951543022
 11
137.2419668663
 21
138.9951543022
  0
LINE
  5
23C
100
AcDbEntity
  8
0
100
AcDbLine
 62
7
  6
CONTINUOUS
 10
138.1325919557
 20
138.9951543022
 11
138.4138419557
 21
138.9951543022
  0
LINE
  5
23D
100
AcDbEntity
  8
0
100
AcDbLine
 62
7
  6
CONTINUOUS
 10
137.3357167769
 20
138.3249415574
 11
137.5700916875
 21
138.2291968796
  0
LINE
  5
23E
100
AcDbEntity
  8
0
100
AcDbLine
 62
7
  6
CONTINUOUS
 10
137.7687294788
 20
138.3249415574
 11
137.9037855506
 21
138.269769696
  0
LINE
  5
23F
100
AcDbEntity
  8
0
100
AcDbLine
 62
7
  6
CONTINUOUS
 10
138.0388417769
 20
141.0057925615
 11
137.8044665981
 21
141.101537231
  0
LINE
  5
240
100
AcDbEntity
  8
0
100
AcDbLine
 62
7
  6
CONTINUOUS
 10
137.5232168663
 20
138.7079202939
 11
137.3825918663
 21
138.8036649633
  0
LINE
  5
241
100
AcDbEntity
  8
0
100
AcDbLine
 62
7
  6
CONTINUOUS
 10
151.9462015726
 20
257.3100356288
 11
151.4885858406
 21
256.6811481333
  0
LINE
  5
242
100
AcDbEntity
  8
0
100
AcDbLine
 62
7
  6
CONTINUOUS
 10
151.5356577007
 20
256.0019260597
 11
151.9932734162
 21
256.6308137931
  0
LINE
  5
243
100
AcDbEntity
  8
0
100
AcDbLine
 62
7
  6
CONTINUOUS
 10
157.5947949945
 20
253.8956843388
 11
157.3898349113
 21
253.6699481812
  0
LINE
  5
244
100
AcDbEntity
  8
0
100
AcDbLine
 62
7
  6
CONTINUOUS
 10
131.5361125545
 20
224.3706861589
 11
131.3277791218
 21
224.1579202268
  0
LINE
  5
245
100
AcDbEntity
  8
0
100
AcDbLine
 62
7
  6
CONTINUOUS
 10
157.582829088
 20
253.294258438
 11
157.8835379763
 21
253.5908451875
  0
LINE
  5
246
100
AcDbEntity
  8
0
100
AcDbLine
 62
7
  6
CONTINUOUS
 10
166.4676790285
 20
251.8475087027
 11
166.2548424792
 21
251.6837008703
  0
LINE
  5
247
100
AcDbEntity
  8
0
100
AcDbLine
 62
7
  6
CONTINUOUS
 10
166.6196836945
 20
251.3313743423
 11
166.8325202438
 21
251.4951821747
  0
LINE
  5
248
100
AcDbEntity
  8
0
100
AcDbLine
 62
7
  6
CONTINUOUS
 10
165.4594856167
 20
250.3717881222
 11
165.2466490674
 21
250.2079802898
  0
LINE
  5
249
100
AcDbEntity
  8
0
100
AcDbLine
 62
7
  6
CONTINUOUS
 10
165.6114902491
 20
249.8556537126
 11
165.824326832
 21
250.0194615942
  0
LINE
  5
24A
100
AcDbEntity
  8
0
100
AcDbLine
 62
7
  6
CONTINUOUS
 10
131.4319459872
 20
223.6260053966
 11
131.8486125545
 21
223.8387713287
  0
LINE
  5
24B
100
AcDbEntity
  8
0
100
AcDbLine
 62
7
  6
CONTINUOUS
 10
131.3277791218
 20
224.1579202268
 11
131.0152791218
 21
224.0515372608
  0
LINE
  5
24C
100
AcDbEntity
  8
0
100
AcDbLine
 62
7
  6
CONTINUOUS
 10
138.2263415981
 20
139.2823883775
 11
138.4700917464
 21
139.2823883775
  0
LINE
  5
24D
100
AcDbEntity
  8
0
100
AcDbLine
 62
7
  6
CONTINUOUS
 10
136.8669666875
 20
139.4738777164
 11
137.1169668067
 21
139.4738777164
  0
LINE
  5
24E
100
AcDbEntity
  8
0
100
AcDbLine
 62
7
  6
CONTINUOUS
 10
138.2732169557
 20
139.5696223858
 11
138.5075915981
 21
139.5696223858
  0
LINE
  5
24F
100
AcDbEntity
  8
0
100
AcDbLine
 62
7
  6
CONTINUOUS
 10
138.2732169557
 20
139.8568563942
 11
138.5075915981
 21
139.8568563942
  0
LINE
  5
250
100
AcDbEntity
  8
0
100
AcDbLine
 62
7
  6
CONTINUOUS
 10
136.8200918663
 20
140.1440905366
 11
137.1482166875
 21
140.1440905366
  0
LINE
  5
251
100
AcDbEntity
  8
0
100
AcDbLine
 62
7
  6
CONTINUOUS
 10
138.2263415981
 20
140.1440905366
 11
138.4700917411
 21
140.1440905366
  0
LINE
  5
252
100
AcDbEntity
  8
0
100
AcDbLine
 62
7
  6
CONTINUOUS
 10
138.1325919557
 20
140.3355798755
 11
138.4325918842
 21
140.3355798755
  0
LINE
  5
253
100
AcDbEntity
  8
0
100
AcDbLine
 62
7
  6
CONTINUOUS
 10
137.9919669557
 20
140.5270692143
 11
138.3669669557
 21
140.5270692143
  0
LINE
  5
254
100
AcDbEntity
  8
0
100
AcDbLine
 62
7
  6
CONTINUOUS
 10
137.0544667769
 20
140.6228138838
 11
137.4874794788
 21
140.6228138838
  0
LINE
  5
255
100
AcDbEntity
  8
0
100
AcDbLine
 62
7
  6
CONTINUOUS
 10
137.5232168663
 20
140.6228138838
 11
138.2843546576
 21
140.6228138838
  0
LINE
  5
256
100
AcDbEntity
  8
0
100
AcDbLine
 62
7
  6
CONTINUOUS
 10
136.8200918663
 20
140.8143032226
 11
137.0544667769
 21
140.8143032226
  0
LINE
  5
257
100
AcDbEntity
  8
0
100
AcDbLine
 62
7
  6
CONTINUOUS
 10
137.3357167769
 20
141.0057925615
 11
137.7687294788
 21
141.0057925615
  0
LINE
  5
258
100
AcDbEntity
  8
0
100
AcDbLine
 62
7
  6
CONTINUOUS
 10
137.8044665981
 20
141.101537231
 11
137.5700916875
 21
141.101537231
  0
LINE
  5
259
100
AcDbEntity
  8
0
100
AcDbLine
 62
7
  6
CONTINUOUS
 10
136.8669666875
 20
141.4845159087
 11
137.1169667921
 21
141.4845159087
  0
LINE
  5
25A
100
AcDbEntity
  8
0
100
AcDbLine
 62
7
  6
CONTINUOUS
 10
138.1794667769
 20
141.6760055158
 11
138.4138419557
 21
141.6760055158
  0
LINE
  5
25B
100
AcDbEntity
  8
0
100
AcDbLine
 62
7
  6
CONTINUOUS
 10
133.5388417769
 20
141.7717501852
 11
133.8468774716
 21
141.7717501852
  0
LINE
  5
25C
100
AcDbEntity
  8
0
100
AcDbLine
 62
7
  6
CONTINUOUS
 10
135.2263417769
 20
141.7717501852
 11
135.5075917769
 21
141.7717501852
  0
LINE
  5
25D
100
AcDbEntity
  8
0
100
AcDbLine
 62
7
  6
CONTINUOUS
 10
136.1638416875
 20
141.9632395241
 11
136.4450916875
 21
141.9632395241
  0
LINE
  5
25E
100
AcDbEntity
  8
0
100
AcDbLine
 62
7
  6
CONTINUOUS
 10
136.9607168663
 20
141.9632395241
 11
137.2419668663
 21
141.9632395241
  0
LINE
  5
25F
100
AcDbEntity
  8
0
100
AcDbLine
 62
7
  6
CONTINUOUS
 10
138.0857165981
 20
141.9632395241
 11
138.3669665981
 21
141.9632395241
  0
LINE
  5
260
100
AcDbEntity
  8
0
100
AcDbLine
 62
7
  6
CONTINUOUS
 10
135.8825916875
 20
142.0589841936
 11
136.3156043894
 21
142.0589841936
  0
LINE
  5
261
100
AcDbEntity
  8
0
100
AcDbLine
 62
7
  6
CONTINUOUS
 10
137.9450915981
 20
142.154728863
 11
138.2966540981
 21
142.154728863
  0
LINE
  5
262
100
AcDbEntity
  8
0
100
AcDbLine
 62
7
  6
CONTINUOUS
 10
137.5232168663
 20
142.2504735324
 11
138.2374793
 21
142.2504735324
  0
LINE
  5
263
100
AcDbEntity
  8
0
100
AcDbLine
 62
7
  6
CONTINUOUS
 10
137.1013418663
 20
142.3462182019
 11
137.5343545682
 21
142.3462182019
  0
LINE
  5
264
100
AcDbEntity
  8
0
100
AcDbLine
 62
7
  6
CONTINUOUS
 10
137.3357167769
 20
142.6334522102
 11
137.7687294788
 21
142.6334522102
  0
LINE
  5
265
100
AcDbEntity
  8
0
100
AcDbLine
 62
7
  6
CONTINUOUS
 10
137.7575917769
 20
142.7291968796
 11
137.5700916875
 21
142.7291968796
  0
LINE
  5
266
100
AcDbEntity
  8
0
100
AcDbLine
 62
7
  6
CONTINUOUS
 10
136.4450916875
 20
142.7291968796
 11
136.1638416875
 21
142.7291968796
  0
LINE
  5
267
100
AcDbEntity
  8
0
100
AcDbLine
 62
7
  6
CONTINUOUS
 10
135.5075917769
 20
142.7291968796
 11
135.0857167769
 21
142.7291968796
  0
LINE
  5
268
100
AcDbEntity
  8
0
100
AcDbLine
 62
7
  6
CONTINUOUS
 10
133.6794667769
 20
142.7291968796
 11
133.2575917769
 21
142.7291968796
  0
LINE
  5
269
100
AcDbEntity
  8
0
100
AcDbLine
 62
7
  6
CONTINUOUS
 10
137.9919669557
 20
142.6334522102
 11
137.7575917769
 21
142.7291968796
  0
LINE
  5
26A
100
AcDbEntity
  8
0
100
AcDbLine
 62
7
  6
CONTINUOUS
 10
137.8513419557
 20
140.6228138838
 11
137.9919669557
 21
140.5270692143
  0
LINE
  5
26B
100
AcDbEntity
  8
0
100
AcDbLine
 62
7
  6
CONTINUOUS
 10
138.2843546576
 20
140.6228138838
 11
138.3379606048
 21
140.586316222
  0
LINE
  5
26C
100
AcDbEntity
  8
0
100
AcDbLine
 62
7
  6
CONTINUOUS
 10
137.8044665981
 20
142.2504735324
 11
137.9450915981
 21
142.154728863
  0
LINE
  5
26D
100
AcDbEntity
  8
0
100
AcDbLine
 62
7
  6
CONTINUOUS
 10
138.2374793
 20
142.2504735324
 11
138.2695040308
 21
142.228669463
  0
LINE
  5
26E
100
AcDbEntity
  8
0
100
AcDbLine
 62
7
  6
CONTINUOUS
 10
137.1013418663
 20
138.6121755909
 11
137.3357167769
 21
138.3249415574
  0
LINE
  5
26F
100
AcDbEntity
  8
0
100
AcDbLine
 62
7
  6
CONTINUOUS
 10
137.5343545682
 20
138.6121755909
 11
137.7687294788
 21
138.3249415574
  0
LINE
  5
270
100
AcDbEntity
  8
0
100
AcDbLine
 62
7
  6
CONTINUOUS
 10
145.7731772701
 20
253.7407984447
 11
145.9700359608
 21
254.1116700199
  0
LINE
  5
271
100
AcDbEntity
  8
0
100
AcDbLine
 62
7
  6
CONTINUOUS
 10
131.8486125545
 20
223.8387713287
 11
132.1611125545
 21
224.2643031928
  0
LINE
  5
272
100
AcDbEntity
  8
0
100
AcDbLine
 62
7
  6
CONTINUOUS
 10
131.2236125545
 20
216.136643723
 11
130.9111125545
 21
215.9238777164
  0
LINE
  5
273
100
AcDbEntity
  8
KONSTRUKTIONSELEMENTE
100
AcDbLine
 62
7
  6
CONTINUOUS
 10
130.5111125545
 20
144.7291968796
 11
176.5111125545
 21
144.7291968796
  0
LINE
  5
274
100
AcDbEntity
  8
0
100
AcDbLine
 62
7
  6
CONTINUOUS
 10
134.4376527186
 20
145.4632394347
 11
134.0239372846
 21
145.4632394347
  0
LINE
  5
275
100
AcDbEntity
  8
0
100
AcDbLine
 62
7
  6
CONTINUOUS
 10
140.8108430238
 20
146.2291968796
 11
140.4254583427
 21
146.2291968796
  0
LINE
  5
276
100
AcDbEntity
  8
0
100
AcDbLine
 62
7
  6
CONTINUOUS
 10
136.1960177219
 20
146.2291968796
 11
135.5267441101
 21
146.2291968796
  0
LINE
  5
277
100
AcDbEntity
  8
0
100
AcDbLine
 62
7
  6
CONTINUOUS
 10
134.0737129512
 20
146.2291968796
 11
133.7010771526
 21
146.2291968796
  0
LINE
  5
278
100
AcDbEntity
  8
0
100
AcDbLine
 62
7
  6
CONTINUOUS
 10
136.5539053847
 20
146.35685645
 11
136.2633771959
 21
146.35685645
  0
LINE
  5
279
100
AcDbEntity
  8
0
100
AcDbLine
 62
7
  6
CONTINUOUS
 10
140.8108430238
 20
146.7398351613
 11
140.4254583427
 21
146.7398351613
  0
LINE
  5
27A
100
AcDbEntity
  8
0
100
AcDbLine
 62
7
  6
CONTINUOUS
 10
136.9430713381
 20
146.7398351613
 11
136.6458378829
 21
146.7398351613
  0
LINE
  5
27B
100
AcDbEntity
  8
0
100
AcDbLine
 62
7
  6
CONTINUOUS
 10
140.1016931913
 20
146.8674947653
 11
139.7361342367
 21
146.8674947653
  0
LINE
  5
27C
100
AcDbEntity
  8
0
100
AcDbLine
 62
7
  6
CONTINUOUS
 10
135.9113963903
 20
146.8674947653
 11
135.5267441101
 21
146.8674947653
  0
LINE
  5
27D
100
AcDbEntity
  8
0
100
AcDbLine
 62
7
  6
CONTINUOUS
 10
134.6551620508
 20
146.8674947653
 11
134.212472706
 21
146.8674947653
  0
LINE
  5
27E
100
AcDbEntity
  8
0
100
AcDbLine
 62
7
  6
CONTINUOUS
 10
135.5667541096
 20
146.9951543245
 11
135.2919605435
 21
146.9951543245
  0
LINE
  5
27F
100
AcDbEntity
  8
0
100
AcDbLine
 62
7
  6
CONTINUOUS
 10
139.7072398391
 20
147.1228138838
 11
139.3518610933
 21
147.1228138838
  0
LINE
  5
280
100
AcDbEntity
  8
0
100
AcDbLine
 62
7
  6
CONTINUOUS
 10
137.1925077002
 20
147.250473443
 11
136.8908127861
 21
147.250473443
  0
LINE
  5
281
100
AcDbEntity
  8
0
100
AcDbLine
 62
7
  6
CONTINUOUS
 10
135.399048205
 20
147.250473443
 11
135.1267611925
 21
147.250473443
  0
LINE
  5
282
100
AcDbEntity
  8
0
100
AcDbLine
 62
7
  6
CONTINUOUS
 10
139.5804817971
 20
147.5057926509
 11
139.2282566322
 21
147.5057926509
  0
LINE
  5
283
100
AcDbEntity
  8
0
100
AcDbLine
 62
7
  6
CONTINUOUS
 10
135.292389156
 20
147.7611117694
 11
134.7298883783
 21
147.7611117694
  0
LINE
  5
284
100
AcDbEntity
  8
0
100
AcDbLine
 62
7
  6
CONTINUOUS
 10
137.3657762047
 20
147.8887713287
 11
137.0609032595
 21
147.8887713287
  0
LINE
  5
285
100
AcDbEntity
  8
0
100
AcDbLine
 62
7
  6
CONTINUOUS
 10
137.3657762047
 20
148.3994095657
 11
137.0609032595
 21
148.3994095657
  0
LINE
  5
286
100
AcDbEntity
  8
0
100
AcDbLine
 62
7
  6
CONTINUOUS
 10
133.7010771526
 20
148.3994095657
 11
133.5111127341
 21
148.3994095657
  0
LINE
  5
287
100
AcDbEntity
  8
0
100
AcDbLine
 62
7
  6
CONTINUOUS
 10
135.3452106333
 20
148.9100479815
 11
134.7298883783
 21
148.9100479815
  0
LINE
  5
288
100
AcDbEntity
  8
0
100
AcDbLine
 62
7
  6
CONTINUOUS
 10
137.1925077002
 20
149.0377075407
 11
136.8908127861
 21
149.0377075407
  0
LINE
  5
289
100
AcDbEntity
  8
0
100
AcDbLine
 62
7
  6
CONTINUOUS
 10
133.7010771526
 20
149.0377075407
 11
133.5111127341
 21
149.0377075407
  0
LINE
  5
28A
100
AcDbEntity
  8
0
100
AcDbLine
 62
7
  6
CONTINUOUS
 10
135.5667541096
 20
149.2930266592
 11
135.2919605435
 21
149.2930266592
  0
LINE
  5
28B
100
AcDbEntity
  8
0
100
AcDbLine
 62
7
  6
CONTINUOUS
 10
135.9113963903
 20
149.4206862185
 11
135.5267441101
 21
149.4206862185
  0
LINE
  5
28C
100
AcDbEntity
  8
0
100
AcDbLine
 62
7
  6
CONTINUOUS
 10
133.7010771526
 20
149.4206862185
 11
133.6380780605
 21
149.4206862185
  0
LINE
  5
28D
100
AcDbEntity
  8
0
100
AcDbLine
 62
7
  6
CONTINUOUS
 10
136.9430713381
 20
149.5483457777
 11
136.6458378829
 21
149.5483457777
  0
LINE
  5
28E
100
AcDbEntity
  8
0
100
AcDbLine
 62
7
  6
CONTINUOUS
 10
138.2732169557
 20
140.7185585532
 11
138.0388417769
 21
141.0057925615
  0
LINE
  5
28F
100
AcDbEntity
  8
0
100
AcDbLine
 62
7
  6
CONTINUOUS
 10
138.2263415981
 20
142.3462182019
 11
137.9919669557
 21
142.6334522102
  0
LINE
  5
290
100
AcDbEntity
  8
0
100
AcDbLine
 62
7
  6
CONTINUOUS
 10
137.3825918663
 20
138.8036649633
 11
137.2419668663
 21
138.9951543022
  0
LINE
  5
291
100
AcDbEntity
  8
0
100
AcDbLine
 62
7
  6
CONTINUOUS
 10
137.9919669557
 20
140.5270692143
 11
138.1325919557
 21
140.3355798755
  0
LINE
  5
292
100
AcDbEntity
  8
0
100
AcDbLine
 62
7
  6
CONTINUOUS
 10
137.9450915981
 20
142.154728863
 11
138.0857165981
 21
141.9632395241
  0
LINE
  5
293
100
AcDbEntity
  8
0
100
AcDbLine
 62
7
  6
CONTINUOUS
 10
131.6402791218
 20
224.689835057
 11
131.5361125545
 21
224.3706861589
  0
LINE
  5
294
100
AcDbEntity
  8
0
100
AcDbLine
 62
7
  6
CONTINUOUS
 10
132.1611125545
 20
224.2643031928
 11
132.2652791218
 21
224.583452091
  0
LINE
  5
295
100
AcDbEntity
  8
0
100
AcDbLine
 62
7
  6
CONTINUOUS
 10
131.8486125545
 20
215.9238777164
 11
132.0569459872
 21
216.3494096551
  0
LINE
  5
296
100
AcDbEntity
  8
0
100
AcDbLine
 62
7
  6
CONTINUOUS
 10
153.8962434464
 20
253.7858645295
 11
153.378989682
 21
252.8591157908
  0
LINE
  5
297
100
AcDbEntity
  8
0
100
AcDbLine
 62
7
  6
CONTINUOUS
 10
153.7955842368
 20
252.8513983956
 11
154.3128380012
 21
253.7781471343
  0
LINE
  5
298
100
AcDbEntity
  8
0
100
AcDbLine
 62
7
  6
CONTINUOUS
 10
131.4319459872
 20
216.4557926211
 11
131.2236125545
 21
216.136643723
  0
LINE
  5
299
100
AcDbEntity
  8
0
100
AcDbLine
 62
7
  6
CONTINUOUS
 10
131.8486125545
 20
210.4557926211
 11
131.6402791218
 21
210.136643723
  0
LINE
  5
29A
100
AcDbEntity
  8
0
100
AcDbLine
 62
7
  6
CONTINUOUS
 10
131.4319459872
 20
215.498345815
 11
131.8486125545
 21
215.9238777164
  0
LINE
  5
29B
100
AcDbEntity
  8
0
100
AcDbLine
 62
7
  6
CONTINUOUS
 10
131.8486125545
 20
209.498345815
 11
132.2652791218
 21
209.9238777164
  0
LINE
  5
29C
100
AcDbEntity
  8
0
100
AcDbLine
 62
7
  6
CONTINUOUS
 10
131.6402791218
 20
210.136643723
 11
131.3277791218
 21
209.9238777164
  0
LINE
  5
29D
100
AcDbEntity
  8
0
100
AcDbLine
 62
7
  6
CONTINUOUS
 10
131.0152791218
 20
215.285579855
 11
131.4319459872
 21
215.498345815
  0
LINE
  5
29E
100
AcDbEntity
  8
0
100
AcDbLine
 62
7
  6
CONTINUOUS
 10
141.1146664912
 20
149.8036648962
 11
139.2282566322
 21
149.8036648962
  0
LINE
  5
29F
100
AcDbEntity
  8
0
100
AcDbLine
 62
7
  6
CONTINUOUS
 10
138.641364725
 20
149.8036648962
 11
137.7993534232
 21
149.8036648962
  0
LINE
  5
2A0
100
AcDbEntity
  8
0
100
AcDbLine
 62
7
  6
CONTINUOUS
 10
136.5539053847
 20
149.9313244555
 11
136.2633771959
 21
149.9313244555
  0
LINE
  5
2A1
100
AcDbEntity
  8
0
100
AcDbLine
 62
7
  6
CONTINUOUS
 10
133.7010771526
 20
149.9313244555
 11
133.5991971519
 21
149.9313244555
  0
LINE
  5
2A2
100
AcDbEntity
  8
0
100
AcDbLine
 62
7
  6
CONTINUOUS
 10
136.1960177219
 20
150.0589840147
 11
135.5267441101
 21
150.0589840147
  0
LINE
  5
2A3
100
AcDbEntity
  8
0
100
AcDbLine
 62
7
  6
CONTINUOUS
 10
141.1146664912
 20
150.3143031332
 11
139.2282566322
 21
150.3143031332
  0
LINE
  5
2A4
100
AcDbEntity
  8
0
100
AcDbLine
 62
7
  6
CONTINUOUS
 10
138.641364725
 20
150.3143031332
 11
137.7993534232
 21
150.3143031332
  0
LINE
  5
2A5
100
AcDbEntity
  8
0
100
AcDbLine
 62
7
  6
CONTINUOUS
 10
133.7010771526
 20
150.3143031332
 11
133.5878221426
 21
150.3143031332
  0
LINE
  5
2A6
100
AcDbEntity
  8
0
100
AcDbLine
 62
7
  6
CONTINUOUS
 10
133.6113637644
 20
150.8249417279
 11
133.5878221426
 21
150.8249417279
  0
LINE
  5
2A7
100
AcDbEntity
  8
0
100
AcDbLine
 62
7
  6
CONTINUOUS
 10
133.6113637644
 20
151.2079204056
 11
133.5991971519
 21
151.2079204056
  0
LINE
  5
2A8
100
AcDbEntity
  8
0
100
AcDbLine
 62
7
  6
CONTINUOUS
 10
139.5804817971
 20
151.3355799649
 11
138.641364725
 21
151.3355799649
  0
LINE
  5
2A9
100
AcDbEntity
  8
0
100
AcDbLine
 62
7
  6
CONTINUOUS
 10
137.1925077002
 20
151.5908990834
 11
134.9706163367
 21
151.5908990834
  0
LINE
  5
2AA
100
AcDbEntity
  8
0
100
AcDbLine
 62
7
  6
CONTINUOUS
 10
137.1925077002
 20
152.2291968796
 11
134.7298883783
 21
152.2291968796
  0
LINE
  5
2AB
100
AcDbEntity
  8
0
100
AcDbLine
 62
7
  6
CONTINUOUS
 10
133.7010771526
 20
152.2291968796
 11
134.0737129512
 21
152.2291968796
  0
LINE
  5
2AC
100
AcDbEntity
  8
0
100
AcDbLine
 62
7
  6
CONTINUOUS
 10
134.7761185593
 20
153.2291968796
 11
133.7769416826
 21
153.2291968796
  0
LINE
  5
2AD
100
AcDbEntity
  8
0
100
AcDbLine
 62
7
  6
CONTINUOUS
 10
133.7626948963
 20
153.2291968796
 11
133.5126751155
 21
153.2291968796
  0
LINE
  5
2AE
100
AcDbEntity
  8
0
100
AcDbLine
 62
7
  6
CONTINUOUS
 10
134.9963382258
 20
153.35685645
 11
134.7298887274
 21
153.35685645
  0
LINE
  5
2AF
100
AcDbEntity
  8
0
100
AcDbLine
 62
7
  6
CONTINUOUS
 10
133.780504976
 20
153.35685645
 11
133.5302623369
 21
153.35685645
  0
LINE
  5
2B0
100
AcDbEntity
  8
0
100
AcDbLine
 62
7
  6
CONTINUOUS
 10
135.189762304
 20
153.6121756021
 11
134.920540347
 21
153.6121756021
  0
LINE
  5
2B1
100
AcDbEntity
  8
0
100
AcDbLine
 62
7
  6
CONTINUOUS
 10
133.7769416826
 20
153.6121756021
 11
133.5584341628
 21
153.6121756021
  0
LINE
  5
2B2
100
AcDbEntity
  8
0
100
AcDbLine
 62
7
  6
CONTINUOUS
 10
134.5127573625
 20
153.9951543245
 11
133.9151946122
 21
153.9951543245
  0
LINE
  5
2B3
100
AcDbEntity
  8
0
100
AcDbLine
 62
7
  6
CONTINUOUS
 10
133.5126751155
 20
153.9951543245
 11
133.5111125545
 21
153.9951543245
  0
LINE
  5
2B4
100
AcDbEntity
  8
0
100
AcDbLine
 62
7
  6
CONTINUOUS
 10
135.3990479977
 20
154.1228138838
 11
135.1267609883
 21
154.1228138838
  0
LINE
  5
2B5
100
AcDbEntity
  8
0
100
AcDbLine
 62
7
  6
CONTINUOUS
 10
133.7769416826
 20
154.1228138838
 11
133.5991971743
 21
154.1228138838
  0
LINE
  5
2B6
100
AcDbEntity
  8
0
100
AcDbLine
 62
7
  6
CONTINUOUS
 10
135.5098105182
 20
154.6334522102
 11
135.235873158
 21
154.6334522102
  0
LINE
  5
2B7
100
AcDbEntity
  8
0
100
AcDbLine
 62
7
  6
CONTINUOUS
 10
133.7769416826
 20
154.6334522102
 11
133.624323598
 21
154.6334522102
  0
LINE
  5
2B8
100
AcDbEntity
  8
0
100
AcDbLine
 62
7
  6
CONTINUOUS
 10
138.1325919557
 20
140.3355798755
 11
138.2263415981
 21
140.1440905366
  0
LINE
  5
2B9
100
AcDbEntity
  8
0
100
AcDbLine
 62
7
  6
CONTINUOUS
 10
138.4138419557
 20
140.4313245449
 11
138.2732169557
 21
140.7185585532
  0
LINE
  5
2BA
100
AcDbEntity
  8
0
100
AcDbLine
 62
7
  6
CONTINUOUS
 10
136.9607168663
 20
138.9951543022
 11
137.1013418663
 21
138.6121755909
  0
LINE
  5
2BB
100
AcDbEntity
  8
0
100
AcDbLine
 62
7
  6
CONTINUOUS
 10
137.4911921241
 20
138.729724371
 11
137.5343545682
 21
138.6121755909
  0
LINE
  5
2BC
100
AcDbEntity
  8
0
100
AcDbLine
 62
7
  6
CONTINUOUS
 10
132.0569459872
 20
216.3494096551
 11
132.1611125545
 21
216.8813244853
  0
LINE
  5
2BD
100
AcDbEntity
  8
0
100
AcDbLine
 62
7
  6
CONTINUOUS
 10
131.5361125545
 20
216.8813244853
 11
131.4319459872
 21
216.4557926211
  0
LINE
  5
2BE
100
AcDbEntity
  8
0
100
AcDbLine
 62
7
  6
CONTINUOUS
 10
131.9527791218
 20
210.8813244853
 11
131.8486125545
 21
210.4557926211
  0
LINE
  5
2BF
100
AcDbEntity
  8
0
100
AcDbLine
 62
7
  6
CONTINUOUS
 10
142.1293077774
 20
251.8105070512
 11
142.2480644175
 21
252.213242412
  0
LINE
  5
2C0
100
AcDbEntity
  8
0
100
AcDbLine
 62
7
  6
CONTINUOUS
 10
145.5656352239
 20
254.3945788594
 11
145.4849134628
 21
254.1704492075
  0
LINE
  5
2C1
100
AcDbEntity
  8
0
100
AcDbLine
 62
7
  6
CONTINUOUS
 10
132.2652791218
 20
209.9238777164
 11
132.4736125545
 21
210.3494096551
  0
LINE
  5
2C2
100
AcDbEntity
  8
0
100
AcDbLine
 62
7
  6
CONTINUOUS
 10
157.7174724797
 20
254.1346040687
 11
157.5947949945
 21
253.8956843388
  0
LINE
  5
2C3
100
AcDbEntity
  8
0
100
AcDbLine
 62
7
  6
CONTINUOUS
 10
157.8835379763
 20
253.5908451875
 11
158.115426735
 21
253.9846504536
  0
LINE
  5
2C4
100
AcDbEntity
  8
0
100
AcDbLine
 62
7
  6
CONTINUOUS
 10
165.0067470197
 20
254.2886025539
 11
162.7503140272
 21
250.9857991764
  0
LINE
  5
2C5
100
AcDbEntity
  8
0
100
AcDbLine
 62
7
  6
CONTINUOUS
 10
163.4512197243
 20
251.1253795251
 11
164.1713579285
 21
252.1794657314
  0
LINE
  5
2C6
100
AcDbEntity
  8
0
100
AcDbLine
 62
7
  6
CONTINUOUS
 10
164.4594131698
 20
252.6011001548
 11
165.1315422006
 21
253.5849140064
  0
LINE
  5
2C7
100
AcDbEntity
  8
0
100
AcDbLine
 62
7
  6
CONTINUOUS
 10
166.5636974422
 20
251.9880535105
 11
166.4676790285
 21
251.8475087027
  0
LINE
  5
2C8
100
AcDbEntity
  8
0
100
AcDbLine
 62
7
  6
CONTINUOUS
 10
165.6035132373
 20
250.5826053339
 11
165.4594856167
 21
250.3717881222
  0
LINE
  5
2C9
100
AcDbEntity
  8
0
100
AcDbLine
 62
7
  6
CONTINUOUS
 10
131.4319459872
 20
209.285579855
 11
131.8486125545
 21
209.498345815
  0
LINE
  5
2CA
100
AcDbEntity
  8
0
100
AcDbLine
 62
7
  6
CONTINUOUS
 10
135.5667538903
 20
155.2717500064
 11
135.2919603276
 21
155.2717500064
  0
LINE
  5
2CB
100
AcDbEntity
  8
0
100
AcDbLine
 62
7
  6
CONTINUOUS
 10
133.7769416826
 20
155.2717500064
 11
133.6380780875
 21
155.2717500064
  0
LINE
  5
2CC
100
AcDbEntity
  8
0
100
AcDbLine
 62
7
  6
CONTINUOUS
 10
135.5667538903
 20
157.186643574
 11
135.2919603276
 21
157.186643574
  0
LINE
  5
2CD
100
AcDbEntity
  8
0
100
AcDbLine
 62
7
  6
CONTINUOUS
 10
135.5098105182
 20
157.8249417279
 11
135.235873158
 21
157.8249417279
  0
LINE
  5
2CE
100
AcDbEntity
  8
0
100
AcDbLine
 62
7
  6
CONTINUOUS
 10
135.3990479977
 20
158.3355799649
 11
135.1267609883
 21
158.3355799649
  0
LINE
  5
2CF
100
AcDbEntity
  8
0
100
AcDbLine
 62
7
  6
CONTINUOUS
 10
134.5127573625
 20
158.4632395241
 11
133.9151946122
 21
158.4632395241
  0
LINE
  5
2D0
100
AcDbEntity
  8
0
100
AcDbLine
 62
7
  6
CONTINUOUS
 10
135.189762304
 20
158.8462182019
 11
134.920540347
 21
158.8462182019
  0
LINE
  5
2D1
100
AcDbEntity
  8
0
100
AcDbLine
 62
7
  6
CONTINUOUS
 10
134.9963382258
 20
159.1015373204
 11
134.7298887274
 21
159.1015373204
  0
LINE
  5
2D2
100
AcDbEntity
  8
0
100
AcDbLine
 62
7
  6
CONTINUOUS
 10
134.7761185593
 20
159.2291968796
 11
133.5674418972
 21
159.2291968796
  0
LINE
  5
2D3
100
AcDbEntity
  8
0
100
AcDbLine
 62
7
  6
CONTINUOUS
 10
138.3669665981
 20
141.9632395241
 11
138.2263415981
 21
142.3462182019
  0
LINE
  5
2D4
100
AcDbEntity
  8
0
100
AcDbLine
 62
7
  6
CONTINUOUS
 10
137.2419668663
 20
138.9951543022
 11
137.1482166875
 21
139.2823883775
  0
LINE
  5
2D5
100
AcDbEntity
  8
0
100
AcDbLine
 62
7
  6
CONTINUOUS
 10
138.0857165981
 20
141.9632395241
 11
138.1794667769
 21
141.6760055158
  0
LINE
  5
2D6
100
AcDbEntity
  8
0
100
AcDbLine
 62
7
  6
CONTINUOUS
 10
133.5388417769
 20
141.7717501852
 11
134.1950917545
 21
138.2291968796
  0
LINE
  5
2D7
100
AcDbEntity
  8
0
100
AcDbLine
 62
7
  6
CONTINUOUS
 10
134.539422028
 20
138.7079202939
 11
134.5990980958
 21
138.3857783383
  0
LINE
  5
2D8
100
AcDbEntity
  8
0
100
AcDbLine
 62
7
  6
CONTINUOUS
 10
134.3825917769
 20
138.7079202939
 11
133.6794667769
 21
142.7291968796
  0
LINE
  5
2D9
100
AcDbEntity
  8
0
100
AcDbLine
 62
7
  6
CONTINUOUS
 10
128.4111125545
 20
226.1791968796
 11
128.4111125545
 21
221.1791968796
  0
LINE
  5
2DA
100
AcDbEntity
  8
0
100
AcDbLine
 62
7
  6
CONTINUOUS
 10
128.4111125545
 20
220.1791968796
 11
128.4111125545
 21
216.8813244853
  0
LINE
  5
2DB
100
AcDbEntity
  8
0
100
AcDbLine
 62
7
  6
CONTINUOUS
 10
128.4111125545
 20
214.1791968796
 11
128.4111125545
 21
209.1791968796
  0
LINE
  5
2DC
100
AcDbEntity
  8
0
100
AcDbLine
 62
7
  6
CONTINUOUS
 10
129.0361125545
 20
209.8174947504
 11
129.0361125545
 21
213.5408990834
  0
LINE
  5
2DD
100
AcDbEntity
  8
0
100
AcDbLine
 62
7
  6
CONTINUOUS
 10
129.0361125545
 20
216.8813244853
 11
129.0361125545
 21
220.1791968796
  0
LINE
  5
2DE
100
AcDbEntity
  8
0
100
AcDbLine
 62
7
  6
CONTINUOUS
 10
129.0361125545
 20
221.1791968796
 11
129.0361125545
 21
223.4132394645
  0
LINE
  5
2DF
100
AcDbEntity
  8
0
100
AcDbLine
 62
7
  6
CONTINUOUS
 10
129.0361125545
 20
224.0515372608
 11
129.0361125545
 21
225.6472820494
  0
LINE
  5
2E0
100
AcDbEntity
  8
KONSTRUKTIONSELEMENTE
100
AcDbLine
 62
7
  6
CONTINUOUS
 10
130.5111125545
 20
135.7291968796
 11
130.5111125545
 21
144.7291968796
  0
LINE
  5
2E1
100
AcDbEntity
  8
0
100
AcDbLine
 62
7
  6
CONTINUOUS
 10
131.5361125545
 20
220.1791968796
 11
131.5361125545
 21
216.8813244853
  0
LINE
  5
2E2
100
AcDbEntity
  8
0
100
AcDbLine
 62
7
  6
CONTINUOUS
 10
131.6402791218
 20
225.0089842532
 11
131.6402791218
 21
224.689835057
  0
LINE
  5
2E3
100
AcDbEntity
  8
0
100
AcDbLine
 62
7
  6
CONTINUOUS
 10
131.9527791218
 20
212.4770691249
 11
131.9527791218
 21
210.8813244853
  0
LINE
  5
2E4
100
AcDbEntity
  8
0
100
AcDbLine
 62
7
  6
CONTINUOUS
 10
132.1611125545
 20
216.8813244853
 11
132.1611125545
 21
220.1791968796
  0
LINE
  5
2E5
100
AcDbEntity
  8
0
100
AcDbLine
 62
7
  6
CONTINUOUS
 10
132.2652791218
 20
224.583452091
 11
132.2652791218
 21
225.0089842532
  0
LINE
  5
2E6
100
AcDbEntity
  8
0
100
AcDbLine
 62
7
  6
CONTINUOUS
 10
132.5777791218
 20
210.8813244853
 11
132.5777791218
 21
212.4770691249
  0
LINE
  5
2E7
100
AcDbEntity
  8
0
100
AcDbLine
 62
7
  6
CONTINUOUS
 10
141.7952767498
 20
252.4096111861
 11
141.760982481
 21
252.1738696196
  0
LINE
  5
2E8
100
AcDbEntity
  8
0
100
AcDbLine
 62
7
  6
CONTINUOUS
 10
132.4736125545
 20
210.3494096551
 11
132.5777791218
 21
210.8813244853
  0
LINE
  5
2E9
100
AcDbEntity
  8
0
100
AcDbLine
 62
7
  6
CONTINUOUS
 10
145.9700359608
 20
254.1116700199
 11
146.0557040845
 21
254.525252524
  0
LINE
  5
2EA
100
AcDbEntity
  8
0
100
AcDbLine
 62
7
  6
CONTINUOUS
 10
161.9023726104
 20
253.4518213336
 11
161.7164634063
 21
253.0690482458
  0
LINE
  5
2EB
100
AcDbEntity
  8
0
100
AcDbLine
 62
7
  6
CONTINUOUS
 10
162.7658988812
 20
252.559347538
 11
162.9518080853
 21
252.9421206257
  0
LINE
  5
2EC
100
AcDbEntity
  8
0
100
AcDbLine
 62
7
  6
CONTINUOUS
 10
165.824326832
 20
250.0194615942
 11
166.0643728664
 21
250.3708236138
  0
LINE
  5
2ED
100
AcDbEntity
  8
0
100
AcDbLine
 62
7
  6
CONTINUOUS
 10
166.8325202438
 20
251.4951821747
 11
167.0245572058
 21
251.7762719873
  0
LINE
  5
2EE
100
AcDbEntity
  8
RUNDUNGEN
100
AcDbLine
 62
7
  6
CONTINUOUS
 10
171.2611125545
 20
165.4291968796
 11
167.5110814995
 21
165.4291968796
  0
LINE
  5
2EF
100
AcDbEntity
  8
RUNDUNGEN
100
AcDbLine
 62
7
  6
CONTINUOUS
 10
139.5111125545
 20
165.4291968796
 11
135.7611125545
 21
165.4291968796
  0
LINE
  5
2F0
100
AcDbEntity
  8
0
100
AcDbLine
 62
7
  6
CONTINUOUS
 10
136.8669666875
 20
139.4738777164
 11
136.9607168663
 21
138.9951543022
  0
LINE
  5
2F1
100
AcDbEntity
  8
0
100
AcDbLine
 62
7
  6
CONTINUOUS
 10
138.5075915981
 20
139.9526011977
 11
138.4138419557
 21
140.4313245449
  0
LINE
  5
2F2
100
AcDbEntity
  8
0
100
AcDbLine
 62
7
  6
CONTINUOUS
 10
137.1482166875
 20
139.2823883775
 11
137.1013418663
 21
139.5696223858
  0
LINE
  5
2F3
100
AcDbEntity
  8
0
100
AcDbLine
 62
7
  6
CONTINUOUS
 10
138.2263415981
 20
140.1440905366
 11
138.2732169557
 21
139.8568563942
  0
LINE
  5
2F4
100
AcDbEntity
  8
0
100
AcDbLine
 62
7
  6
CONTINUOUS
 10
138.4138419557
 20
141.6760055158
 11
138.3669665981
 21
141.9632395241
  0
LINE
  5
2F5
100
AcDbEntity
  8
0
100
AcDbLine
 62
7
  6
CONTINUOUS
 10
136.8200918663
 20
140.1440905366
 11
136.8669666875
 21
139.4738777164
  0
LINE
  5
2F6
100
AcDbEntity
  8
0
100
AcDbLine
 62
7
  6
CONTINUOUS
 10
133.2575917769
 20
142.7291968796
 11
133.2575917769
 21
138.2291968796
  0
LINE
  5
2F7
100
AcDbEntity
  8
0
100
AcDbLine
 62
7
  6
CONTINUOUS
 10
133.5111125545
 20
153.9951543245
 11
133.5111125545
 21
153.2291968796
  0
LINE
  5
2F8
100
AcDbEntity
  8
0
100
AcDbLine
 62
7
  6
CONTINUOUS
 10
133.5111125545
 20
149.0377075407
 11
133.5111125545
 21
148.3994095657
  0
LINE
  5
2F9
100
AcDbEntity
  8
0
100
AcDbLine
 62
7
  6
CONTINUOUS
 10
133.5361282229
 20
149.0377075407
 11
133.5361282229
 21
148.3994095657
  0
LINE
  5
2FA
100
AcDbEntity
  8
0
100
AcDbLine
 62
7
  6
CONTINUOUS
 10
133.5388417769
 20
138.2291968796
 11
133.5388417769
 21
141.7717501852
  0
LINE
  5
2FB
100
AcDbEntity
  8
0
100
AcDbLine
 62
7
  6
CONTINUOUS
 10
133.5674418972
 20
159.2291968796
 11
133.5674418972
 21
155.2717500064
  0
LINE
  5
2FC
100
AcDbEntity
  8
0
100
AcDbLine
 62
7
  6
CONTINUOUS
 10
133.5878221426
 20
150.8249417279
 11
133.5878221426
 21
150.3143031332
  0
LINE
  5
2FD
100
AcDbEntity
  8
0
100
AcDbLine
 62
7
  6
CONTINUOUS
 10
133.6113637644
 20
150.3143031332
 11
133.6113637644
 21
151.3355799649
  0
LINE
  5
2FE
100
AcDbEntity
  8
0
100
AcDbLine
 62
7
  6
CONTINUOUS
 10
133.6380780875
 20
159.2291968796
 11
133.6380780875
 21
155.2717500064
  0
LINE
  5
2FF
100
AcDbEntity
  8
0
100
AcDbLine
 62
7
  6
CONTINUOUS
 10
133.6906044788
 20
142.6654987038
 11
133.6906044788
 21
141.7717501852
  0
LINE
  5
300
100
AcDbEntity
  8
0
100
AcDbLine
 62
7
  6
CONTINUOUS
 10
133.7010771526
 20
146.2291968796
 11
133.7010771526
 21
151.2079204056
  0
LINE
  5
301
100
AcDbEntity
  8
0
100
AcDbLine
 62
7
  6
CONTINUOUS
 10
133.7611125545
 20
163.4291968796
 11
133.7611125545
 21
159.2291968796
  0
LINE
  5
302
100
AcDbEntity
  8
0
100
AcDbLine
 62
7
  6
CONTINUOUS
 10
133.7611125545
 20
153.2291968796
 11
133.7611125545
 21
152.2291968796
  0
LINE
  5
303
100
AcDbEntity
  8
0
100
AcDbLine
 62
7
  6
CONTINUOUS
 10
133.7611125545
 20
146.2291968796
 11
133.7611125545
 21
144.7291968796
  0
LINE
  5
304
100
AcDbEntity
  8
0
100
AcDbLine
 62
7
  6
CONTINUOUS
 10
133.7769416826
 20
159.2291968796
 11
133.7769416826
 21
153.2291968796
  0
LINE
  5
305
100
AcDbEntity
  8
0
100
AcDbLine
 62
7
  6
CONTINUOUS
 10
133.8197438022
 20
152.2291968796
 11
133.8197438022
 21
146.2291968796
  0
LINE
  5
306
100
AcDbEntity
  8
0
100
AcDbLine
 62
7
  6
CONTINUOUS
 10
133.9151946122
 20
158.4632395241
 11
133.9151946122
 21
153.9951543245
  0
LINE
  5
307
100
AcDbEntity
  8
0
100
AcDbLine
 62
7
  6
CONTINUOUS
 10
134.0737129512
 20
152.2291968796
 11
134.0737129512
 21
146.2291968796
  0
LINE
  5
308
100
AcDbEntity
  8
0
100
AcDbLine
 62
7
  6
CONTINUOUS
 10
134.1704171171
 20
158.4632395241
 11
134.1704171171
 21
153.9951543245
  0
LINE
  5
309
100
AcDbEntity
  8
0
100
AcDbLine
 62
7
  6
CONTINUOUS
 10
134.7298883783
 20
152.2291968796
 11
134.7298883783
 21
148.9100479815
  0
LINE
  5
30A
100
AcDbEntity
  8
0
100
AcDbLine
 62
7
  6
CONTINUOUS
 10
134.9706161438
 20
157.186643574
 11
134.9706161438
 21
155.2717500064
  0
LINE
  5
30B
100
AcDbEntity
  8
0
100
AcDbLine
 62
7
  6
CONTINUOUS
 10
134.9706163367
 20
151.5908990834
 11
134.9706163367
 21
149.5483457777
  0
LINE
  5
30C
100
AcDbEntity
  8
0
100
AcDbLine
 62
7
  6
CONTINUOUS
 10
135.2263417769
 20
141.7717501852
 11
135.2263417769
 21
138.2291968796
  0
LINE
  5
30D
100
AcDbEntity
  8
0
100
AcDbLine
 62
7
  6
CONTINUOUS
 10
135.2405761639
 20
151.5908990834
 11
135.2405761639
 21
149.9313244555
  0
LINE
  5
30E
100
AcDbEntity
  8
0
100
AcDbLine
 62
7
  6
CONTINUOUS
 10
135.2919603276
 20
157.186643574
 11
135.2919603276
 21
155.2717500064
  0
LINE
  5
30F
100
AcDbEntity
  8
0
100
AcDbLine
 62
7
  6
CONTINUOUS
 10
135.5075917769
 20
138.2291968796
 11
135.5075917769
 21
142.7291968796
  0
LINE
  5
310
100
AcDbEntity
  8
0
100
AcDbLine
 62
7
  6
CONTINUOUS
 10
135.5667538903
 20
157.186643574
 11
135.5667538903
 21
155.2717500064
  0
LINE
  5
311
100
AcDbEntity
  8
0
100
AcDbLine
 62
7
  6
CONTINUOUS
 10
135.8825916875
 20
142.0589841936
 11
135.8825916875
 21
141.2930265698
  0
LINE
  5
312
100
AcDbEntity
  8
0
100
AcDbLine
 62
7
  6
CONTINUOUS
 10
136.1638416875
 20
141.9632395241
 11
136.1638416875
 21
138.2291968796
  0
LINE
  5
313
100
AcDbEntity
  8
0
100
AcDbLine
 62
7
  6
CONTINUOUS
 10
136.3156043894
 20
142.0589841936
 11
136.3156043894
 21
141.9632395241
  0
LINE
  5
314
100
AcDbEntity
  8
0
100
AcDbLine
 62
7
  6
CONTINUOUS
 10
136.4450916875
 20
138.2291968796
 11
136.4450916875
 21
142.7291968796
  0
LINE
  5
315
100
AcDbEntity
  8
0
100
AcDbLine
 62
7
  6
CONTINUOUS
 10
136.6458378829
 20
148.2717500064
 11
136.6458378829
 21
148.0164308879
  0
LINE
  5
316
100
AcDbEntity
  8
0
100
AcDbLine
 62
7
  6
CONTINUOUS
 10
136.8200918663
 20
140.8143032226
 11
136.8200918663
 21
140.1440905366
  0
LINE
  5
317
100
AcDbEntity
  8
0
100
AcDbLine
 62
7
  6
CONTINUOUS
 10
136.8908127861
 20
152.2291968796
 11
136.8908127861
 21
151.5908990834
  0
LINE
  5
318
100
AcDbEntity
  8
0
100
AcDbLine
 62
7
  6
CONTINUOUS
 10
137.0544667769
 20
140.6228138838
 11
137.0544667769
 21
140.8143032226
  0
LINE
  5
319
100
AcDbEntity
  8
0
100
AcDbLine
 62
7
  6
CONTINUOUS
 10
137.0609032595
 20
148.3994095657
 11
137.0609032595
 21
147.8887713287
  0
LINE
  5
31A
100
AcDbEntity
  8
0
100
AcDbLine
 62
7
  6
CONTINUOUS
 10
137.1013418663
 20
139.5696223858
 11
137.1013418663
 21
139.8568563942
  0
LINE
  5
31B
100
AcDbEntity
  8
0
100
AcDbLine
 62
7
  6
CONTINUOUS
 10
137.1925077002
 20
152.2291968796
 11
137.1925077002
 21
151.5908990834
  0
LINE
  5
31C
100
AcDbEntity
  8
0
100
AcDbLine
 62
7
  6
CONTINUOUS
 10
137.2531045682
 20
140.6228138838
 11
137.2531045682
 21
140.350746106
  0
LINE
  5
31D
100
AcDbEntity
  8
0
100
AcDbLine
 62
7
  6
CONTINUOUS
 10
137.3657762047
 20
148.3994095657
 11
137.3657762047
 21
147.8887713287
  0
LINE
  5
31E
100
AcDbEntity
  8
0
100
AcDbLine
 62
7
  6
CONTINUOUS
 10
137.7993534232
 20
150.3143031332
 11
137.7993534232
 21
149.8036648962
  0
LINE
  5
31F
100
AcDbEntity
  8
0
100
AcDbLine
 62
7
  6
CONTINUOUS
 10
138.2732169557
 20
139.8568563942
 11
138.2732169557
 21
139.5696223858
  0
LINE
  5
320
100
AcDbEntity
  8
0
100
AcDbLine
 62
7
  6
CONTINUOUS
 10
159.4615661964
 20
255.2663225331
 11
159.3516387574
 21
254.9441339651
  0
LINE
  5
321
100
AcDbEntity
  8
0
100
AcDbLine
 62
7
  6
CONTINUOUS
 10
160.3123750423
 20
255.6954248901
 11
160.0925200872
 21
255.0510475286
  0
LINE
  5
322
100
AcDbEntity
  8
0
100
AcDbLine
 62
7
  6
CONTINUOUS
 10
159.9825926482
 20
254.7288589607
 11
159.4329553952
 21
253.1179159519
  0
LINE
  5
323
100
AcDbEntity
  8
0
100
AcDbLine
 62
7
  6
CONTINUOUS
 10
159.8822639618
 20
253.1444638765
 11
160.3769374761
 21
254.5943125449
  0
LINE
  5
324
100
AcDbEntity
  8
0
100
AcDbLine
 62
7
  6
CONTINUOUS
 10
160.4868649151
 20
254.9165011128
 11
160.7067198702
 21
255.5608784743
  0
LINE
  5
325
100
AcDbEntity
  8
0
100
AcDbLine
 62
7
  6
CONTINUOUS
 10
129.1402791963
 20
216.4557926211
 11
129.0361125545
 21
216.8813244853
  0
LINE
  5
326
100
AcDbEntity
  8
0
100
AcDbLine
 62
7
  6
CONTINUOUS
 10
128.4111125545
 20
216.8813244853
 11
128.5152792242
 21
216.3494096551
  0
LINE
  5
327
100
AcDbEntity
  8
0
100
AcDbLine
 62
7
  6
CONTINUOUS
 10
132.5777791218
 20
212.4770691249
 11
132.4736125545
 21
213.0089842532
  0
LINE
  5
328
100
AcDbEntity
  8
0
100
AcDbLine
 62
7
  6
CONTINUOUS
 10
138.5075915981
 20
139.4738777164
 11
138.5075915981
 21
139.9526011977
  0
LINE
  5
329
100
AcDbEntity
  8
0
100
AcDbLine
 62
7
  6
CONTINUOUS
 10
138.641364725
 20
151.3355799649
 11
138.641364725
 21
150.3143031332
  0
LINE
  5
32A
100
AcDbEntity
  8
0
100
AcDbLine
 62
7
  6
CONTINUOUS
 10
138.641364725
 20
149.8036648962
 11
138.641364725
 21
147.250473443
  0
LINE
  5
32B
100
AcDbEntity
  8
0
100
AcDbLine
 62
7
  6
CONTINUOUS
 10
139.2282566322
 20
151.3355799649
 11
139.2282566322
 21
150.3143031332
  0
LINE
  5
32C
100
AcDbEntity
  8
0
100
AcDbLine
 62
7
  6
CONTINUOUS
 10
139.2282566322
 20
149.8036648962
 11
139.2282566322
 21
147.5057926509
  0
LINE
  5
32D
100
AcDbEntity
  8
0
100
AcDbLine
 62
7
  6
CONTINUOUS
 10
139.5804817971
 20
151.3355799649
 11
139.5804817971
 21
150.3143031332
  0
LINE
  5
32E
100
AcDbEntity
  8
0
100
AcDbLine
 62
7
  6
CONTINUOUS
 10
139.5804817971
 20
149.8036648962
 11
139.5804817971
 21
147.5057926509
  0
LINE
  5
32F
100
AcDbEntity
  8
0
100
AcDbLine
 62
7
  6
CONTINUOUS
 10
140.4254583427
 20
146.7398351613
 11
140.4254583427
 21
146.2291968796
  0
LINE
  5
330
100
AcDbEntity
  8
0
100
AcDbLine
 62
7
  6
CONTINUOUS
 10
140.720124516
 20
150.3143031332
 11
140.720124516
 21
149.8036648962
  0
LINE
  5
331
100
AcDbEntity
  8
0
100
AcDbLine
 62
7
  6
CONTINUOUS
 10
140.8108430238
 20
146.7398351613
 11
140.8108430238
 21
146.2291968796
  0
LINE
  5
332
100
AcDbEntity
  8
KONSTRUKTIONSELEMENTE
100
AcDbLine
 62
7
  6
CONTINUOUS
 10
141.0040709993
 20
135.7291968796
 11
141.0040709993
 21
144.7291968796
  0
LINE
  5
333
100
AcDbEntity
  8
0
100
AcDbLine
 62
7
  6
CONTINUOUS
 10
141.1146664912
 20
150.3143031332
 11
141.1146664912
 21
149.8036648962
  0
LINE
  5
334
100
AcDbEntity
  8
KONSTRUKTIONSELEMENTE
100
AcDbLine
 62
7
  6
CONTINUOUS
 10
143.0181541096
 20
135.7291968796
 11
143.0181541096
 21
144.7291968796
  0
LINE
  5
335
100
AcDbEntity
  8
0
100
AcDbLine
 62
7
  6
CONTINUOUS
 10
142.2480644175
 20
252.213242412
 11
142.2493374293
 21
252.6356023232
  0
LINE
  5
336
100
AcDbEntity
  8
0
100
AcDbLine
 62
7
  6
CONTINUOUS
 10
136.8669666875
 20
141.4845159087
 11
136.8200918663
 21
140.8143032226
  0
LINE
  5
337
100
AcDbEntity
  8
0
100
AcDbLine
 62
7
  6
CONTINUOUS
 10
137.0544667769
 20
140.8143032226
 11
137.1013418663
 21
141.3887712393
  0
LINE
  5
338
100
AcDbEntity
  8
0
100
AcDbLine
 62
7
  6
CONTINUOUS
 10
135.0857167769
 20
142.7291968796
 11
134.3825917769
 21
138.7079202939
  0
LINE
  5
339
100
AcDbEntity
  8
0
100
AcDbLine
 62
7
  6
CONTINUOUS
 10
135.5075917769
 20
142.6654987038
 11
135.351318784
 21
141.7717501852
  0
LINE
  5
33A
100
AcDbEntity
  8
0
100
AcDbLine
 62
7
  6
CONTINUOUS
 10
160.317267099
 20
252.0968084258
 11
160.4271945477
 21
252.418997022
  0
LINE
  5
33B
100
AcDbEntity
  8
0
100
AcDbLine
 62
7
  6
CONTINUOUS
 10
161.2444968195
 20
254.2983101837
 11
161.3544242585
 21
254.6204987516
  0
LINE
  5
33C
100
AcDbEntity
  8
0
100
AcDbLine
 62
7
  6
CONTINUOUS
 10
162.5111125545
 20
171.7491968796
 11
163.0111125545
 21
171.7491968796
  0
LINE
  5
33D
100
AcDbEntity
  8
0
100
AcDbLine
 62
7
  6
CONTINUOUS
 10
162.5111125545
 20
172.1241968796
 11
163.0111125545
 21
172.1241968796
  0
LINE
  5
33E
100
AcDbEntity
  8
0
100
AcDbLine
 62
7
  6
CONTINUOUS
 10
162.5111125545
 20
172.9991968498
 11
163.0111125545
 21
172.9991968498
  0
LINE
  5
33F
100
AcDbEntity
  8
0
100
AcDbLine
 62
7
  6
CONTINUOUS
 10
162.5111125545
 20
173.87419682
 11
163.0111125545
 21
173.87419682
  0
LINE
  5
340
100
AcDbEntity
  8
0
100
AcDbLine
 62
7
  6
CONTINUOUS
 10
162.5111125545
 20
174.24919682
 11
163.0111125545
 21
174.24919682
  0
LINE
  5
341
100
AcDbEntity
  8
0
100
AcDbLine
 62
7
  6
CONTINUOUS
 10
162.5111125545
 20
174.7491968796
 11
163.0111125545
 21
174.7491968796
  0
LINE
  5
342
100
AcDbEntity
  8
0
100
AcDbLine
 62
7
  6
CONTINUOUS
 10
162.5111125545
 20
175.1241968796
 11
163.0111125545
 21
175.1241968796
  0
LINE
  5
343
100
AcDbEntity
  8
0
100
AcDbLine
 62
7
  6
CONTINUOUS
 10
162.5111125545
 20
175.6241967604
 11
163.0111125545
 21
175.6241967604
  0
LINE
  5
344
100
AcDbEntity
  8
0
100
AcDbLine
 62
7
  6
CONTINUOUS
 10
131.8486125545
 20
212.9026009891
 11
131.9527791218
 21
212.4770691249
  0
LINE
  5
345
100
AcDbEntity
  8
RUNDUNGEN
100
AcDbLine
 62
7
  6
CONTINUOUS
 10
144.5111125545
 20
170.4291968796
 11
144.5111125545
 21
188.9291968796
  0
LINE
  5
346
100
AcDbEntity
  8
0
100
AcDbLine
 62
7
  6
CONTINUOUS
 10
145.5111125545
 20
135.7291968796
 11
145.5111125545
 21
112.2291968796
  0
LINE
  5
347
100
AcDbEntity
  8
0
100
AcDbLine
 62
7
  6
CONTINUOUS
 10
155.6109958852
 20
257.3164436131
 11
155.2609230659
 21
255.1315449675
  0
LINE
  5
348
100
AcDbEntity
  8
0
100
AcDbLine
 62
7
  6
CONTINUOUS
 10
155.7396642894
 20
255.4857985269
 11
155.9550937311
 21
256.8303516302
  0
LINE
  5
349
100
AcDbEntity
  8
0
100
AcDbLine
 62
7
  6
CONTINUOUS
 10
157.7444011552
 20
254.3026731771
 11
157.7174724797
 21
254.1346040687
  0
LINE
  5
34A
100
AcDbEntity
  8
0
100
AcDbLine
 62
7
  6
CONTINUOUS
 10
158.3413255258
 20
256.4480204435
 11
158.4086472146
 21
256.8681932147
  0
LINE
  5
34B
100
AcDbEntity
  8
0
100
AcDbLine
 62
7
  6
CONTINUOUS
 10
158.115426735
 20
253.9846504536
 11
158.169284086
 21
254.3207886705
  0
LINE
  5
34C
100
AcDbEntity
  8
0
100
AcDbLine
 62
7
  6
CONTINUOUS
 10
137.1013418663
 20
141.3887712393
 11
137.1482166875
 21
141.6760055158
  0
LINE
  5
34D
100
AcDbEntity
  8
0
100
AcDbLine
 62
7
  6
CONTINUOUS
 10
137.1013418663
 20
139.8568563942
 11
137.1482166875
 21
140.1440905366
  0
LINE
  5
34E
100
AcDbEntity
  8
0
100
AcDbLine
 62
7
  6
CONTINUOUS
 10
138.2732169557
 20
139.5696223858
 11
138.2263415981
 21
139.2823883775
  0
LINE
  5
34F
100
AcDbEntity
  8
0
100
AcDbLine
 62
7
  6
CONTINUOUS
 10
134.5700917322
 20
138.2291968796
 11
135.2263417769
 21
141.7717501852
  0
LINE
  5
350
100
AcDbEntity
  8
0
100
AcDbLine
 62
7
  6
CONTINUOUS
 10
136.9607168663
 20
141.9632395241
 11
136.8669666875
 21
141.4845159087
  0
LINE
  5
351
100
AcDbEntity
  8
0
100
AcDbLine
 62
7
  6
CONTINUOUS
 10
138.4138419557
 20
138.9951543022
 11
138.5075915981
 21
139.4738777164
  0
LINE
  5
352
100
AcDbEntity
  8
0
100
AcDbLine
 62
7
  6
CONTINUOUS
 10
165.6787319966
 20
250.8404320234
 11
165.6035132373
 21
250.5826053339
  0
LINE
  5
353
100
AcDbEntity
  8
0
100
AcDbLine
 62
7
  6
CONTINUOUS
 10
166.0643728664
 20
250.3708236138
 11
166.1395916256
 21
250.6286503032
  0
LINE
  5
354
100
AcDbEntity
  8
0
100
AcDbLine
 62
7
  6
CONTINUOUS
 10
166.6389162687
 20
252.2458802985
 11
166.5636974422
 21
251.9880535105
  0
LINE
  5
355
100
AcDbEntity
  8
0
100
AcDbLine
 62
7
  6
CONTINUOUS
 10
167.0245572058
 20
251.7762719873
 11
167.0997758978
 21
252.0340985783
  0
LINE
  5
356
100
AcDbEntity
  8
0
100
AcDbLine
 62
7
  6
CONTINUOUS
 10
162.5111125545
 20
177.1241967604
 11
163.0111125545
 21
177.1241967604
  0
LINE
  5
357
100
AcDbEntity
  8
0
100
AcDbLine
 62
7
  6
CONTINUOUS
 10
162.5111125545
 20
177.4366969988
 11
163.0111125545
 21
177.4366969988
  0
LINE
  5
358
100
AcDbEntity
  8
0
100
AcDbLine
 62
7
  6
CONTINUOUS
 10
162.5111125545
 20
177.6866967604
 11
163.0111125545
 21
177.6866967604
  0
LINE
  5
359
100
AcDbEntity
  8
0
100
AcDbLine
 62
7
  6
CONTINUOUS
 10
162.5111125545
 20
177.874197118
 11
163.0111125545
 21
177.874197118
  0
LINE
  5
35A
100
AcDbEntity
  8
0
100
AcDbLine
 62
7
  6
CONTINUOUS
 10
162.5111125545
 20
177.9366968796
 11
163.0111125545
 21
177.9366968796
  0
LINE
  5
35B
100
AcDbEntity
  8
0
100
AcDbLine
 62
7
  6
CONTINUOUS
 10
162.5111125545
 20
181.436697118
 11
163.0111125545
 21
181.436697118
  0
LINE
  5
35C
100
AcDbEntity
  8
0
100
AcDbLine
 62
7
  6
CONTINUOUS
 10
162.5111125545
 20
181.4991968796
 11
163.0111125545
 21
181.4991968796
  0
LINE
  5
35D
100
AcDbEntity
  8
0
100
AcDbLine
 62
7
  6
CONTINUOUS
 10
128.5152792242
 20
216.3494096551
 11
128.7236125545
 21
215.9238777164
  0
LINE
  5
35E
100
AcDbEntity
  8
0
100
AcDbLine
 62
7
  6
CONTINUOUS
 10
132.4736125545
 20
213.0089842532
 11
132.2652791218
 21
213.4345161173
  0
LINE
  5
35F
100
AcDbEntity
  8
0
100
AcDbLine
 62
7
  6
CONTINUOUS
 10
132.3694459872
 20
221.1791968796
 11
131.4319459872
 21
223.6260053966
  0
LINE
  5
360
100
AcDbEntity
  8
0
100
AcDbLine
 62
7
  6
CONTINUOUS
 10
130.8069458381
 20
223.4132394645
 11
131.6402791218
 21
221.1791968796
  0
LINE
  5
361
100
AcDbEntity
  8
0
100
AcDbLine
 62
7
  6
CONTINUOUS
 10
131.5361125545
 20
225.3281331513
 11
131.6402791218
 21
225.0089842532
  0
LINE
  5
362
100
AcDbEntity
  8
0
100
AcDbLine
 62
7
  6
CONTINUOUS
 10
132.2652791218
 20
225.0089842532
 11
132.1611125545
 21
225.3281331513
  0
LINE
  5
363
100
AcDbEntity
  8
0
100
AcDbLine
 62
7
  6
CONTINUOUS
 10
137.1482166875
 20
141.6760055158
 11
137.2419668663
 21
141.9632395241
  0
LINE
  5
364
100
AcDbEntity
  8
0
100
AcDbLine
 62
7
  6
CONTINUOUS
 10
138.2263415981
 20
139.2823883775
 11
138.1325919557
 21
138.9951543022
  0
LINE
  5
365
100
AcDbEntity
  8
0
100
AcDbLine
 62
7
  6
CONTINUOUS
 10
137.1013418663
 20
142.3462182019
 11
136.9607168663
 21
141.9632395241
  0
LINE
  5
366
100
AcDbEntity
  8
0
100
AcDbLine
 62
7
  6
CONTINUOUS
 10
137.5343545682
 20
142.3462182019
 11
137.4911921355
 21
142.228669463
  0
LINE
  5
367
100
AcDbEntity
  8
0
100
AcDbLine
 62
7
  6
CONTINUOUS
 10
162.5111125545
 20
181.624197118
 11
163.0111125545
 21
181.624197118
  0
LINE
  5
368
100
AcDbEntity
  8
0
100
AcDbLine
 62
7
  6
CONTINUOUS
 10
162.5111125545
 20
181.811697118
 11
163.0111125545
 21
181.811697118
  0
LINE
  5
369
100
AcDbEntity
  8
0
100
AcDbLine
 62
7
  6
CONTINUOUS
 10
162.5111125545
 20
182.1241966412
 11
163.0111125545
 21
182.1241966412
  0
LINE
  5
36A
100
AcDbEntity
  8
0
100
AcDbLine
 62
7
  6
CONTINUOUS
 10
162.5111125545
 20
182.4366968796
 11
163.0111125545
 21
182.4366968796
  0
LINE
  5
36B
100
AcDbEntity
  8
0
100
AcDbLine
 62
7
  6
CONTINUOUS
 10
162.5111125545
 20
182.6866966412
 11
163.0111125545
 21
182.6866966412
  0
LINE
  5
36C
100
AcDbEntity
  8
0
100
AcDbLine
 62
7
  6
CONTINUOUS
 10
162.5111125545
 20
182.9991968796
 11
163.0111125545
 21
182.9991968796
  0
LINE
  5
36D
100
AcDbEntity
  8
0
100
AcDbLine
 62
7
  6
CONTINUOUS
 10
162.5111125545
 20
183.311697118
 11
163.0111125545
 21
183.311697118
  0
LINE
  5
36E
100
AcDbEntity
  8
0
100
AcDbLine
 62
7
  6
CONTINUOUS
 10
162.5111125545
 20
183.499197118
 11
163.0111125545
 21
183.499197118
  0
LINE
  5
36F
100
AcDbEntity
  8
0
100
AcDbLine
 62
7
  6
CONTINUOUS
 10
162.5111125545
 20
183.5616968796
 11
163.0111125545
 21
183.5616968796
  0
LINE
  5
370
100
AcDbEntity
  8
0
100
AcDbLine
 62
7
  6
CONTINUOUS
 10
162.5111125545
 20
183.686697118
 11
163.0111125545
 21
183.686697118
  0
LINE
  5
371
100
AcDbEntity
  8
0
100
AcDbLine
 62
7
  6
CONTINUOUS
 10
129.3486125545
 20
216.136643723
 11
129.1402791963
 21
216.4557926211
  0
LINE
  5
372
100
AcDbEntity
  8
0
100
AcDbLine
 62
7
  6
CONTINUOUS
 10
131.6402791218
 20
213.2217501852
 11
131.8486125545
 21
212.9026009891
  0
LINE
  5
373
100
AcDbEntity
  8
0
100
AcDbLine
 62
7
  6
CONTINUOUS
 10
145.5351668517
 20
254.6614196387
 11
145.5656352239
 21
254.3945788594
  0
LINE
  5
374
100
AcDbEntity
  8
0
100
AcDbLine
 62
7
  6
CONTINUOUS
 10
146.0557040845
 20
254.525252524
 11
146.0252357123
 21
254.7920933033
  0
LINE
  5
375
100
AcDbEntity
  8
0
100
AcDbLine
 62
7
  6
CONTINUOUS
 10
151.4885858406
 20
256.6811481333
 11
151.5356577007
 21
256.0019260597
  0
LINE
  5
376
100
AcDbEntity
  8
0
100
AcDbLine
 62
7
  6
CONTINUOUS
 10
151.9932734162
 20
256.6308137931
 11
152.2227486867
 21
253.3196068682
  0
LINE
  5
377
100
AcDbEntity
  8
0
100
AcDbLine
 62
7
  6
CONTINUOUS
 10
152.7215522817
 20
253.3541752575
 11
152.4450051676
 21
257.3446040181
  0
LINE
  5
378
100
AcDbEntity
  8
0
100
AcDbLine
 62
7
  6
CONTINUOUS
 10
159.8786880509
 20
252.8759128646
 11
159.8822639618
 21
253.1444638765
  0
LINE
  5
379
100
AcDbEntity
  8
0
100
AcDbLine
 62
7
  6
CONTINUOUS
 10
138.2732169557
 20
138.6121755909
 11
138.4138419557
 21
138.9951543022
  0
LINE
  5
37A
100
AcDbEntity
  8
0
100
AcDbLine
 62
7
  6
CONTINUOUS
 10
136.1638416875
 20
142.7291968796
 11
135.8825916875
 21
142.0589841936
  0
LINE
  5
37B
100
AcDbEntity
  8
0
100
AcDbLine
 62
7
  6
CONTINUOUS
 10
135.8825916875
 20
141.2930265698
 11
136.1638416875
 21
141.9632395241
  0
LINE
  5
37C
100
AcDbEntity
  8
0
100
AcDbLine
 62
7
  6
CONTINUOUS
 10
136.4450916875
 20
142.3675496331
 11
136.3156043894
 21
142.0589841936
  0
LINE
  5
37D
100
AcDbEntity
  8
0
100
AcDbLine
 62
7
  6
CONTINUOUS
 10
137.1482166875
 20
140.1440905366
 11
137.2419668663
 21
140.3355798755
  0
LINE
  5
37E
100
AcDbEntity
  8
0
100
AcDbLine
 62
7
  6
CONTINUOUS
 10
128.7236125545
 20
215.9238777164
 11
129.1402791963
 21
215.498345815
  0
LINE
  5
37F
100
AcDbEntity
  8
0
100
AcDbLine
 62
7
  6
CONTINUOUS
 10
132.2652791218
 20
213.4345161173
 11
131.8486125545
 21
213.8600479815
  0
LINE
  5
380
100
AcDbEntity
  8
0
100
AcDbLine
 62
7
  6
CONTINUOUS
 10
132.1611125545
 20
225.3281331513
 11
131.8486125545
 21
225.7536650154
  0
LINE
  5
381
100
AcDbEntity
  8
0
100
AcDbLine
 62
7
  6
CONTINUOUS
 10
161.5111125545
 20
135.7291968796
 11
161.5111125545
 21
112.2291968796
  0
LINE
  5
382
100
AcDbEntity
  8
RUNDUNGEN
100
AcDbLine
 62
7
  6
CONTINUOUS
 10
162.5111125545
 20
170.4291968796
 11
162.5111125545
 21
188.9291968796
  0
LINE
  5
383
100
AcDbEntity
  8
0
100
AcDbLine
 62
7
  6
CONTINUOUS
 10
163.0111125545
 20
183.686697118
 11
163.0111125545
 21
181.436697118
  0
LINE
  5
384
100
AcDbEntity
  8
0
100
AcDbLine
 62
7
  6
CONTINUOUS
 10
163.0111125545
 20
177.9366968796
 11
163.0111125545
 21
175.6241967604
  0
LINE
  5
385
100
AcDbEntity
  8
0
100
AcDbLine
 62
7
  6
CONTINUOUS
 10
163.0111125545
 20
175.5313282505
 11
163.0111125545
 21
174.7491968796
  0
LINE
  5
386
100
AcDbEntity
  8
0
100
AcDbLine
 62
7
  6
CONTINUOUS
 10
163.0111125545
 20
174.24919682
 11
163.0111125545
 21
171.7491968796
  0
LINE
  5
387
100
AcDbEntity
  8
KONSTRUKTIONSELEMENTE
100
AcDbLine
 62
7
  6
CONTINUOUS
 10
164.0040709993
 20
135.7291968796
 11
164.0040709993
 21
144.7291968796
  0
LINE
  5
388
100
AcDbEntity
  8
RUNDUNGEN
100
AcDbLine
 62
7
  6
CONTINUOUS
 10
142.6637134705
 20
166.5484096176
 11
142.657816946
 21
166.5435668802
  0
LINE
  5
389
100
AcDbEntity
  8
0
100
AcDbLine
 62
7
  6
CONTINUOUS
 10
131.3277791218
 20
213.4345161173
 11
131.6402791218
 21
213.2217501852
  0
LINE
  5
38A
100
AcDbEntity
  8
0
100
AcDbLine
 62
7
  6
CONTINUOUS
 10
129.6611125545
 20
215.9238777164
 11
129.3486125545
 21
216.136643723
  0
LINE
  5
38B
100
AcDbEntity
  8
0
100
AcDbLine
 62
7
  6
CONTINUOUS
 10
141.7120871978
 20
252.6649771625
 11
141.7952767498
 21
252.4096111861
  0
LINE
  5
38C
100
AcDbEntity
  8
0
100
AcDbLine
 62
7
  6
CONTINUOUS
 10
142.2493374293
 20
252.6356023232
 11
142.1661478772
 21
252.8909682996
  0
LINE
  5
38D
100
AcDbEntity
  8
0
100
AcDbLine
 62
7
  6
CONTINUOUS
 10
166.1395916256
 20
250.6286503032
 11
166.1252032421
 21
251.0507669809
  0
LINE
  5
38E
100
AcDbEntity
  8
0
100
AcDbLine
 62
7
  6
CONTINUOUS
 10
167.0997758978
 20
252.0340985783
 11
167.0853875142
 21
252.456215256
  0
LINE
  5
38F
100
AcDbEntity
  8
KONSTRUKTIONSELEMENTE
100
AcDbLine
 62
7
  6
CONTINUOUS
 10
166.0181541096
 20
135.7291968796
 11
166.0181541096
 21
144.7291968796
  0
LINE
  5
390
100
AcDbEntity
  8
0
100
AcDbLine
 62
7
  6
CONTINUOUS
 10
137.2419668663
 20
141.9632395241
 11
137.3825918663
 21
142.154728863
  0
LINE
  5
391
100
AcDbEntity
  8
0
100
AcDbLine
 62
7
  6
CONTINUOUS
 10
137.3357167769
 20
141.0057925615
 11
137.0544667769
 21
140.6228138838
  0
LINE
  5
392
100
AcDbEntity
  8
0
100
AcDbLine
 62
7
  6
CONTINUOUS
 10
137.2419668663
 20
140.3355798755
 11
137.3825918663
 21
140.5270692143
  0
LINE
  5
393
100
AcDbEntity
  8
0
100
AcDbLine
 62
7
  6
CONTINUOUS
 10
137.7687294788
 20
141.0057925615
 11
137.4874794788
 21
140.6228138838
  0
LINE
  5
394
100
AcDbEntity
  8
0
100
AcDbLine
 62
7
  6
CONTINUOUS
 10
138.1325919557
 20
138.9951543022
 11
137.9919669557
 21
138.8036649633
  0
LINE
  5
395
100
AcDbEntity
  8
0
100
AcDbLine
 62
7
  6
CONTINUOUS
 10
137.3357167769
 20
142.6334522102
 11
137.1013418663
 21
142.3462182019
  0
LINE
  5
396
100
AcDbEntity
  8
0
100
AcDbLine
 62
7
  6
CONTINUOUS
 10
137.7687294788
 20
142.6334522102
 11
137.5343545682
 21
142.3462182019
  0
LINE
  5
397
100
AcDbEntity
  8
0
100
AcDbLine
 62
7
  6
CONTINUOUS
 10
131.8486125545
 20
213.8600479815
 11
131.4319459872
 21
214.0728139136
  0
LINE
  5
398
100
AcDbEntity
  8
0
100
AcDbLine
 62
7
  6
CONTINUOUS
 10
129.1402791963
 20
215.498345815
 11
129.5569459126
 21
215.285579855
  0
LINE
  5
399
100
AcDbEntity
  8
0
100
AcDbLine
 62
7
  6
CONTINUOUS
 10
131.3277791218
 20
225.5408990834
 11
131.5361125545
 21
225.3281331513
  0
LINE
  5
39A
100
AcDbEntity
  8
0
100
AcDbLine
 62
7
  6
CONTINUOUS
 10
157.7025097154
 20
254.5679608904
 11
157.7444011552
 21
254.3026731771
  0
LINE
  5
39B
100
AcDbEntity
  8
0
100
AcDbLine
 62
7
  6
CONTINUOUS
 10
159.4329553952
 20
253.1179159519
 11
159.4807655166
 21
252.7419089127
  0
LINE
  5
39C
100
AcDbEntity
  8
0
100
AcDbLine
 62
7
  6
CONTINUOUS
 10
173.2611125545
 20
163.4291968796
 11
173.2611125545
 21
144.7291968796
  0
LINE
  5
39D
100
AcDbEntity
  8
0
100
AcDbLine
 62
7
  6
CONTINUOUS
 10
138.0388417769
 20
138.3249415574
 11
138.2732169557
 21
138.6121755909
  0
LINE
  5
39E
100
AcDbEntity
  8
KONSTRUKTIONSELEMENTE
100
AcDbLine
 62
7
  6
CONTINUOUS
 10
126.594645818
 20
206.2291968796
 11
135.8965017518
 21
206.2291968796
  0
LINE
  5
39F
100
AcDbEntity
  8
KONSTRUKTIONSELEMENTE
100
AcDbLine
 62
7
  6
CONTINUOUS
 10
171.1257233571
 20
206.2291968796
 11
180.427579291
 21
206.2291968796
  0
LINE
  5
3A0
100
AcDbEntity
  8
0
100
AcDbLine
 62
7
  6
CONTINUOUS
 10
130.9111125545
 20
213.5408990834
 11
131.3277791218
 21
213.4345161173
  0
LINE
  5
3A1
100
AcDbEntity
  8
0
100
AcDbLine
 62
7
  6
CONTINUOUS
 10
131.8486125545
 20
225.7536650154
 11
131.4319459872
 21
226.0728139136
  0
LINE
  5
3A2
100
AcDbEntity
  8
0
100
AcDbLine
 62
7
  6
CONTINUOUS
 10
142.6903140045
 20
254.6698658779
 11
144.3548067382
 21
251.0326328719
  0
LINE
  5
3A3
100
AcDbEntity
  8
0
100
AcDbLine
 62
7
  6
CONTINUOUS
 10
144.8094608639
 20
251.2406944636
 11
144.0657513341
 21
252.8658411489
  0
LINE
  5
3A4
100
AcDbEntity
  8
0
100
AcDbLine
 62
7
  6
CONTINUOUS
 10
143.8532629253
 20
253.3301687113
 11
143.3220418042
 21
254.4909878342
  0
LINE
  5
3A5
100
AcDbEntity
  8
0
100
AcDbLine
 62
7
  6
CONTINUOUS
 10
145.4289225481
 20
254.8935836367
 11
145.5351668517
 21
254.6614196387
  0
LINE
  5
3A6
100
AcDbEntity
  8
0
100
AcDbLine
 62
7
  6
CONTINUOUS
 10
146.0252357123
 20
254.7920933033
 11
145.8835766739
 21
255.1016452284
  0
LINE
  5
3A7
100
AcDbEntity
  8
0
100
AcDbLine
 62
7
  6
CONTINUOUS
 10
155.1397440073
 20
254.3752338617
 11
155.2504546491
 21
254.012727871
  0
LINE
  5
3A8
100
AcDbEntity
  8
0
100
AcDbLine
 62
7
  6
CONTINUOUS
 10
155.7441577141
 20
253.9336248773
 11
155.6334470723
 21
254.2961308679
  0
LINE
  5
3A9
100
AcDbEntity
  8
0
100
AcDbLine
 62
7
  6
CONTINUOUS
 10
158.169284086
 20
254.3207886705
 11
158.0720387331
 21
254.7673291234
  0
LINE
  5
3AA
100
AcDbEntity
  8
KONSTRUKTIONSELEMENTE
100
AcDbLine
 62
7
  6
CONTINUOUS
 10
176.5111125545
 20
135.7291968796
 11
176.5111125545
 21
144.7291968796
  0
LINE
  5
3AB
100
AcDbEntity
  8
0
100
AcDbLine
 62
7
  6
CONTINUOUS
 10
130.9111125545
 20
209.1791968796
 11
131.4319459872
 21
209.285579855
  0
LINE
  5
3AC
100
AcDbEntity
  8
0
100
AcDbLine
 62
7
  6
CONTINUOUS
 10
128.4111125545
 20
209.1791968796
 11
130.9111125545
 21
209.1791968796
  0
LINE
  5
3AD
100
AcDbEntity
  8
0
100
AcDbLine
 62
7
  6
CONTINUOUS
 10
130.9111125545
 20
209.8174947504
 11
129.0361125545
 21
209.8174947504
  0
LINE
  5
3AE
100
AcDbEntity
  8
0
100
AcDbLine
 62
7
  6
CONTINUOUS
 10
131.4319459872
 20
214.0728139136
 11
130.9111125545
 21
214.1791968796
  0
LINE
  5
3AF
100
AcDbEntity
  8
0
100
AcDbLine
 62
7
  6
CONTINUOUS
 10
129.5569459126
 20
215.285579855
 11
130.0777792708
 21
215.1791968796
  0
LINE
  5
3B0
100
AcDbEntity
  8
0
100
AcDbLine
 62
7
  6
CONTINUOUS
 10
130.0777792708
 20
215.8174947504
 11
129.6611125545
 21
215.9238777164
  0
LINE
  5
3B1
100
AcDbEntity
  8
0
100
AcDbLine
 62
7
  6
CONTINUOUS
 10
138.9229536708
 20
252.1046272735
 11
141.2808638213
 21
248.8734881985
  0
LINE
  5
3B2
100
AcDbEntity
  8
0
100
AcDbLine
 62
7
  6
CONTINUOUS
 10
165.6371341279
 20
251.0749945139
 11
165.6787319966
 21
250.8404320234
  0
LINE
  5
3B3
100
AcDbEntity
  8
0
100
AcDbLine
 62
7
  6
CONTINUOUS
 10
166.5973184
 20
252.480442789
 11
166.6389162687
 21
252.2458802985
  0
LINE
  5
3B4
100
AcDbEntity
  8
0
100
AcDbLine
 62
7
  6
CONTINUOUS
 10
137.3825918663
 20
142.154728863
 11
137.5232168663
 21
142.2504735324
  0
LINE
  5
3B5
100
AcDbEntity
  8
0
100
AcDbLine
 62
7
  6
CONTINUOUS
 10
137.3825918663
 20
140.5270692143
 11
137.5232168663
 21
140.6228138838
  0
LINE
  5
3B6
100
AcDbEntity
  8
0
100
AcDbLine
 62
7
  6
CONTINUOUS
 10
137.9919669557
 20
138.8036649633
 11
137.8513419557
 21
138.7079202939
  0
LINE
  5
3B7
100
AcDbEntity
  8
0
100
AcDbLine
 62
7
  6
CONTINUOUS
 10
138.3163793998
 20
138.729724371
 11
138.2843546576
 21
138.7079202939
  0
LINE
  5
3B8
100
AcDbEntity
  8
0
100
AcDbLine
 62
7
  6
CONTINUOUS
 10
131.3277791218
 20
209.9238777164
 11
130.9111125545
 21
209.8174947504
  0
LINE
  5
3B9
100
AcDbEntity
  8
0
100
AcDbLine
 62
7
  6
CONTINUOUS
 10
129.0361125545
 20
213.5408990834
 11
130.9111125545
 21
213.5408990834
  0
LINE
  5
3BA
100
AcDbEntity
  8
0
100
AcDbLine
 62
7
  6
CONTINUOUS
 10
130.9111125545
 20
214.1791968796
 11
128.4111125545
 21
214.1791968796
  0
LINE
  5
3BB
100
AcDbEntity
  8
0
100
AcDbLine
 62
7
  6
CONTINUOUS
 10
130.0777792708
 20
215.1791968796
 11
130.4944458381
 21
215.1791968796
  0
LINE
  5
3BC
100
AcDbEntity
  8
0
100
AcDbLine
 62
7
  6
CONTINUOUS
 10
130.4944458381
 20
215.8174947504
 11
130.0777792708
 21
215.8174947504
  0
LINE
  5
3BD
100
AcDbEntity
  8
0
100
AcDbLine
 62
7
  6
CONTINUOUS
 10
131.0152791218
 20
225.6472820494
 11
131.3277791218
 21
225.5408990834
  0
LINE
  5
3BE
100
AcDbEntity
  8
0
100
AcDbLine
 62
7
  6
CONTINUOUS
 10
141.6847562057
 20
249.1682269673
 11
140.6312218682
 21
250.6119274256
  0
LINE
  5
3BF
100
AcDbEntity
  8
0
100
AcDbLine
 62
7
  6
CONTINUOUS
 10
140.3302120976
 20
251.0244132157
 11
139.5776875307
 21
252.0556278838
  0
LINE
  5
3C0
100
AcDbEntity
  8
0
100
AcDbLine
 62
7
  6
CONTINUOUS
 10
141.5615821719
 20
252.8712202502
 11
141.7120871978
 21
252.6649771625
  0
LINE
  5
3C1
100
AcDbEntity
  8
0
100
AcDbLine
 62
7
  6
CONTINUOUS
 10
142.1661478772
 20
252.8909682996
 11
141.9654745563
 21
253.165959019
  0
LINE
  5
3C2
100
AcDbEntity
  8
0
100
AcDbLine
 62
7
  6
CONTINUOUS
 10
155.2504546491
 20
254.012727871
 11
155.4434488258
 21
253.6370381278
  0
LINE
  5
3C3
100
AcDbEntity
  8
0
100
AcDbLine
 62
7
  6
CONTINUOUS
 10
157.5783356681
 20
254.8464321171
 11
157.7025097154
 21
254.5679608904
  0
LINE
  5
3C4
100
AcDbEntity
  8
0
100
AcDbLine
 62
7
  6
CONTINUOUS
 10
137.5700916875
 20
142.7291968796
 11
137.3357167769
 21
142.6334522102
  0
LINE
  5
3C5
100
AcDbEntity
  8
0
100
AcDbLine
 62
7
  6
CONTINUOUS
 10
137.8803481534
 20
142.6790496381
 11
137.7687294788
 21
142.6334522102
  0
LINE
  5
3C6
100
AcDbEntity
  8
0
100
AcDbLine
 62
7
  6
CONTINUOUS
 10
137.5700916875
 20
141.101537231
 11
137.3357167769
 21
141.0057925615
  0
LINE
  5
3C7
100
AcDbEntity
  8
0
100
AcDbLine
 62
7
  6
CONTINUOUS
 10
137.9037855506
 20
141.0609644181
 11
137.7687294788
 21
141.0057925615
  0
LINE
  5
3C8
100
AcDbEntity
  8
0
100
AcDbLine
 62
7
  6
CONTINUOUS
 10
130.9111125545
 20
215.9238777164
 11
130.4944458381
 21
215.8174947504
  0
LINE
  5
3C9
100
AcDbEntity
  8
0
100
AcDbLine
 62
7
  6
CONTINUOUS
 10
130.4944458381
 20
215.1791968796
 11
131.0152791218
 21
215.285579855
  0
LINE
  5
3CA
100
AcDbEntity
  8
0
100
AcDbLine
 62
7
  6
CONTINUOUS
 10
132.1611125545
 20
220.1791968796
 11
131.5361125545
 21
220.1791968796
  0
LINE
  5
3CB
100
AcDbEntity
  8
0
100
AcDbLine
 62
7
  6
CONTINUOUS
 10
129.0361125545
 20
220.1791968796
 11
128.4111125545
 21
220.1791968796
  0
LINE
  5
3CC
100
AcDbEntity
  8
0
100
AcDbLine
 62
7
  6
CONTINUOUS
 10
128.4111125545
 20
221.1791968796
 11
129.0361125545
 21
221.1791968796
  0
LINE
  5
3CD
100
AcDbEntity
  8
0
100
AcDbLine
 62
7
  6
CONTINUOUS
 10
131.6402791218
 20
221.1791968796
 11
132.3694459872
 21
221.1791968796
  0
LINE
  5
3CE
100
AcDbEntity
  8
0
100
AcDbLine
 62
7
  6
CONTINUOUS
 10
129.0361125545
 20
223.4132394645
 11
130.8069458381
 21
223.4132394645
  0
LINE
  5
3CF
100
AcDbEntity
  8
0
100
AcDbLine
 62
7
  6
CONTINUOUS
 10
131.0152791218
 20
224.0515372608
 11
129.0361125545
 21
224.0515372608
  0
LINE
  5
3D0
100
AcDbEntity
  8
0
100
AcDbLine
 62
7
  6
CONTINUOUS
 10
131.4319459872
 20
226.0728139136
 11
130.9111125545
 21
226.1791968796
  0
LINE
  5
3D1
100
AcDbEntity
  8
0
100
AcDbLine
 62
7
  6
CONTINUOUS
 10
158.0720387331
 20
254.7673291234
 11
157.8790445516
 21
255.1430188372
  0
LINE
  5
3D2
100
AcDbEntity
  8
0
100
AcDbLine
 62
7
  6
CONTINUOUS
 10
167.0853875142
 20
252.456215256
 11
166.95418257
 21
252.8550678331
  0
LINE
  5
3D3
100
AcDbEntity
  8
0
100
AcDbLine
 62
7
  6
CONTINUOUS
 10
137.8044665981
 20
138.2291968796
 11
138.0388417769
 21
138.3249415574
  0
LINE
  5
3D4
100
AcDbEntity
  8
0
100
AcDbLine
 62
7
  6
CONTINUOUS
 10
129.0361125545
 20
225.6472820494
 11
131.0152791218
 21
225.6472820494
  0
LINE
  5
3D5
100
AcDbEntity
  8
0
100
AcDbLine
 62
7
  6
CONTINUOUS
 10
130.9111125545
 20
226.1791968796
 11
128.4111125545
 21
226.1791968796
  0
LINE
  5
3D6
100
AcDbEntity
  8
KONSTRUKTIONSELEMENTE
100
AcDbLine
 62
7
  6
CONTINUOUS
 10
126.594645818
 20
228.2291968796
 11
135.8965017518
 21
228.2291968796
  0
LINE
  5
3D7
100
AcDbEntity
  8
KONSTRUKTIONSELEMENTE
100
AcDbLine
 62
7
  6
CONTINUOUS
 10
171.1257233571
 20
228.2291968796
 11
180.427579291
 21
228.2291968796
  0
LINE
  5
3D8
100
AcDbEntity
  8
0
100
AcDbLine
 62
7
  6
CONTINUOUS
 10
145.2469025116
 20
255.0910704198
 11
145.4289225481
 21
254.8935836367
  0
LINE
  5
3D9
100
AcDbEntity
  8
0
100
AcDbLine
 62
7
  6
CONTINUOUS
 10
145.8835766739
 20
255.1016452284
 11
145.7015566373
 21
255.2991320115
  0
LINE
  5
3DA
100
AcDbEntity
  8
0
100
AcDbLine
 62
7
  6
CONTINUOUS
 10
166.1252032421
 20
251.0507669809
 11
166.0355961665
 21
251.2150570675
  0
LINE
  5
3DB
100
AcDbEntity
  8
0
100
AcDbLine
 62
7
  6
CONTINUOUS
 10
141.3437619535
 20
253.028340064
 11
141.5615821719
 21
252.8712202502
  0
LINE
  5
3DC
100
AcDbEntity
  8
0
100
AcDbLine
 62
7
  6
CONTINUOUS
 10
141.9654745563
 20
253.165959019
 11
141.7476543378
 21
253.3230788328
  0
LINE
  5
3DD
100
AcDbEntity
  8
0
100
AcDbLine
 62
7
  6
CONTINUOUS
 10
159.4807655166
 20
252.7419089127
 11
159.66240905
 21
252.5000866419
  0
LINE
  5
3DE
100
AcDbEntity
  8
0
100
AcDbLine
 62
7
  6
CONTINUOUS
 10
160.0603315892
 20
252.634090608
 11
159.8786880509
 21
252.8759128646
  0
LINE
  5
3DF
100
AcDbEntity
  8
0
100
AcDbLine
 62
7
  6
CONTINUOUS
 10
155.4434488258
 20
253.6370381278
 11
155.8144744021
 21
253.3190153821
  0
LINE
  5
3E0
100
AcDbEntity
  8
0
100
AcDbLine
 62
7
  6
CONTINUOUS
 10
155.9640805711
 20
253.7260042719
 11
155.7441577141
 21
253.9336248773
  0
LINE
  5
3E1
100
AcDbEntity
  8
0
100
AcDbLine
 62
7
  6
CONTINUOUS
 10
157.3584128111
 20
255.0540527225
 11
157.5783356681
 21
254.8464321171
  0
LINE
  5
3E2
100
AcDbEntity
  8
0
100
AcDbLine
 62
7
  6
CONTINUOUS
 10
165.4787181237
 20
251.2862939799
 11
165.6371341279
 21
251.0749945139
  0
LINE
  5
3E3
100
AcDbEntity
  8
0
100
AcDbLine
 62
7
  6
CONTINUOUS
 10
166.4389023958
 20
252.6917422549
 11
166.5973184
 21
252.480442789
  0
LINE
  5
3E4
100
AcDbEntity
  8
FASEN
100
AcDbLine
 62
7
  6
CONTINUOUS
 10
161.0111125545
 20
111.7291968796
 11
161.5111125545
 21
112.2291968796
  0
LINE
  5
3E5
100
AcDbEntity
  8
0
100
AcDbLine
 62
7
  6
CONTINUOUS
 10
145.7015566373
 20
255.2991320115
 11
145.3325706353
 21
255.504652924
  0
LINE
  5
3E6
100
AcDbEntity
  8
0
100
AcDbLine
 62
7
  6
CONTINUOUS
 10
162.7503140272
 20
250.9857991764
 11
164.401715716
 21
249.8575826802
  0
LINE
  5
3E7
100
AcDbEntity
  8
0
100
AcDbLine
 62
7
  6
CONTINUOUS
 10
159.66240905
 20
252.5000866419
 11
159.8715344456
 21
252.3388115202
  0
LINE
  5
3E8
100
AcDbEntity
  8
0
100
AcDbLine
 62
7
  6
CONTINUOUS
 10
157.8790445516
 20
255.1430188372
 11
157.5080170885
 21
255.4610418625
  0
LINE
  5
3E9
100
AcDbEntity
  8
0
100
AcDbLine
 62
7
  6
CONTINUOUS
 10
166.95418257
 20
252.8550678331
 11
166.6581487085
 21
253.1603860577
  0
LINE
  5
3EA
100
AcDbEntity
  8
0
100
AcDbLine
 62
7
  6
CONTINUOUS
 10
165.2466490674
 20
250.2079802898
 11
165.0130143376
 21
250.1614531154
  0
LINE
  5
3EB
100
AcDbEntity
  8
0
100
AcDbLine
 62
7
  6
CONTINUOUS
 10
166.2548424792
 20
251.6837008703
 11
166.021207783
 21
251.6371737452
  0
LINE
  5
3EC
100
AcDbEntity
  8
0
100
AcDbLine
 62
7
  6
CONTINUOUS
 10
164.7937679955
 20
249.6928092696
 11
165.2130281936
 21
249.7155911344
  0
LINE
  5
3ED
100
AcDbEntity
  8
0
100
AcDbLine
 62
7
  6
CONTINUOUS
 10
141.1087945043
 20
253.0675890242
 11
141.3437619535
 21
253.028340064
  0
LINE
  5
3EE
100
AcDbEntity
  8
0
100
AcDbLine
 62
7
  6
CONTINUOUS
 10
141.7476543378
 20
253.3230788328
 11
141.3450349653
 21
253.4506999752
  0
LINE
  5
3EF
100
AcDbEntity
  8
0
100
AcDbLine
 62
7
  6
CONTINUOUS
 10
155.8144744021
 20
253.3190153821
 11
156.2124295979
 21
253.1690616088
  0
LINE
  5
3F0
100
AcDbEntity
  8
0
100
AcDbLine
 62
7
  6
CONTINUOUS
 10
145.0245218113
 20
255.1764924762
 11
145.2469025116
 21
255.0910704198
  0
LINE
  5
3F1
100
AcDbEntity
  8
0
100
AcDbLine
 62
7
  6
CONTINUOUS
 10
164.401715716
 20
249.8575826802
 11
164.7937679955
 21
249.6928092696
  0
LINE
  5
3F2
100
AcDbEntity
  8
0
100
AcDbLine
 62
7
  6
CONTINUOUS
 10
156.2797512961
 20
253.5892344388
 11
155.9640805711
 21
253.7260042719
  0
LINE
  5
3F3
100
AcDbEntity
  8
0
100
AcDbLine
 62
7
  6
CONTINUOUS
 10
161.7164634063
 20
253.0690482458
 11
162.7658988812
 21
252.559347538
  0
LINE
  5
3F4
100
AcDbEntity
  8
0
100
AcDbLine
 62
7
  6
CONTINUOUS
 10
162.9518080853
 20
252.9421206257
 11
161.9023726104
 21
253.4518213336
  0
LINE
  5
3F5
100
AcDbEntity
  8
0
100
AcDbLine
 62
7
  6
CONTINUOUS
 10
159.8715344456
 20
252.3388115202
 11
160.317267099
 21
252.0968084258
  0
LINE
  5
3F6
100
AcDbEntity
  8
0
100
AcDbLine
 62
7
  6
CONTINUOUS
 10
160.4271945477
 20
252.418997022
 11
160.0603315892
 21
252.634090608
  0
LINE
  5
3F7
100
AcDbEntity
  8
0
100
AcDbLine
 62
7
  6
CONTINUOUS
 10
164.7585799196
 20
250.2322077736
 11
163.4512197243
 21
251.1253795251
  0
LINE
  5
3F8
100
AcDbEntity
  8
0
100
AcDbLine
 62
7
  6
CONTINUOUS
 10
164.1713579285
 20
252.1794657314
 11
165.4787181237
 21
251.2862939799
  0
LINE
  5
3F9
100
AcDbEntity
  8
0
100
AcDbLine
 62
7
  6
CONTINUOUS
 10
165.766773365
 20
251.7079284033
 11
164.4594131698
 21
252.6011001548
  0
LINE
  5
3FA
100
AcDbEntity
  8
0
100
AcDbLine
 62
7
  6
CONTINUOUS
 10
165.1315422006
 20
253.5849140064
 11
166.4389023958
 21
252.6917422549
  0
LINE
  5
3FB
100
AcDbEntity
  8
0
100
AcDbLine
 62
7
  6
CONTINUOUS
 10
166.6581487085
 20
253.1603860577
 11
165.0067470197
 21
254.2886025539
  0
LINE
  5
3FC
100
AcDbEntity
  8
0
100
AcDbLine
 62
7
  6
CONTINUOUS
 10
144.9232235359
 20
255.5981089112
 11
144.5089305075
 21
255.5021122447
  0
LINE
  5
3FD
100
AcDbEntity
  8
0
100
AcDbLine
 62
7
  6
CONTINUOUS
 10
144.7617800136
 20
255.1498496074
 11
145.0245218113
 21
255.1764924762
  0
LINE
  5
3FE
100
AcDbEntity
  8
0
100
AcDbLine
 62
7
  6
CONTINUOUS
 10
157.1160547033
 20
253.5414305696
 11
156.7734543611
 21
253.5101314451
  0
LINE
  5
3FF
100
AcDbEntity
  8
0
100
AcDbLine
 62
7
  6
CONTINUOUS
 10
156.2064386789
 20
255.2386264248
 11
156.5490380794
 21
255.2699257001
  0
LINE
  5
400
100
AcDbEntity
  8
0
100
AcDbLine
 62
7
  6
CONTINUOUS
 10
152.2227486867
 20
253.3196068682
 11
152.7215522817
 21
253.3541752575
  0
LINE
  5
401
100
AcDbEntity
  8
0
100
AcDbLine
 62
7
  6
CONTINUOUS
 10
156.7061326629
 20
253.0899586151
 11
157.1310155949
 21
253.1080741158
  0
LINE
  5
402
100
AcDbEntity
  8
0
100
AcDbLine
 62
7
  6
CONTINUOUS
 10
156.6163597682
 20
255.6900984713
 11
156.1914758957
 21
255.6719831288
  0
LINE
  5
403
100
AcDbEntity
  8
0
100
AcDbLine
 62
7
  6
CONTINUOUS
 10
153.378989682
 20
252.8591157908
 11
153.7955842368
 21
252.8513983956
  0
LINE
  5
404
100
AcDbEntity
  8
0
100
AcDbLine
 62
7
  6
CONTINUOUS
 10
154.3128380012
 20
253.7781471343
 11
153.8962434464
 21
253.7858645295
  0
LINE
  5
405
100
AcDbEntity
  8
0
100
AcDbLine
 62
7
  6
CONTINUOUS
 10
141.3450349653
 20
253.4506999752
 11
140.9252685546
 21
253.4604504046
  0
LINE
  5
406
100
AcDbEntity
  8
0
100
AcDbLine
 62
7
  6
CONTINUOUS
 10
166.0355961665
 20
251.2150570675
 11
166.2212216558
 21
251.1913117887
  0
LINE
  5
407
100
AcDbEntity
  8
0
100
AcDbLine
 62
7
  6
CONTINUOUS
 10
156.2124295979
 20
253.1690616088
 11
156.7061326629
 21
253.0899586151
  0
LINE
  5
408
100
AcDbEntity
  8
0
100
AcDbLine
 62
7
  6
CONTINUOUS
 10
156.7734543611
 20
253.5101314451
 11
156.2797512961
 21
253.5892344388
  0
LINE
  5
409
100
AcDbEntity
  8
0
100
AcDbLine
 62
7
  6
CONTINUOUS
 10
155.6334470723
 20
254.2961308679
 11
155.1397440073
 21
254.3752338617
  0
LINE
  5
40A
100
AcDbEntity
  8
0
100
AcDbLine
 62
7
  6
CONTINUOUS
 10
155.2609230659
 20
255.1315449675
 11
155.8369096612
 21
255.0392581918
  0
LINE
  5
40B
100
AcDbEntity
  8
0
100
AcDbLine
 62
7
  6
CONTINUOUS
 10
156.5490380794
 20
255.2699257001
 11
157.0427411444
 21
255.1908227064
  0
LINE
  5
40C
100
AcDbEntity
  8
0
100
AcDbLine
 62
7
  6
CONTINUOUS
 10
157.1100628332
 20
255.6109954776
 11
156.6163597682
 21
255.6900984713
  0
LINE
  5
40D
100
AcDbEntity
  8
0
100
AcDbLine
 62
7
  6
CONTINUOUS
 10
145.3325706353
 20
255.504652924
 11
144.9232235359
 21
255.5981089112
  0
LINE
  5
40E
100
AcDbEntity
  8
0
100
AcDbLine
 62
7
  6
CONTINUOUS
 10
165.0130143376
 20
250.1614531154
 11
164.7585799196
 21
250.2322077736
  0
LINE
  5
40F
100
AcDbEntity
  8
0
100
AcDbLine
 62
7
  6
CONTINUOUS
 10
166.021207783
 20
251.6371737452
 11
165.766773365
 21
251.7079284033
  0
LINE
  5
410
100
AcDbEntity
  8
0
100
AcDbLine
 62
7
  6
CONTINUOUS
 10
159.3516387574
 20
254.9441339651
 11
159.9825926482
 21
254.7288589607
  0
LINE
  5
411
100
AcDbEntity
  8
0
100
AcDbLine
 62
7
  6
CONTINUOUS
 10
160.3769374761
 20
254.5943125449
 11
161.2444968195
 21
254.2983101837
  0
LINE
  5
412
100
AcDbEntity
  8
0
100
AcDbLine
 62
7
  6
CONTINUOUS
 10
161.3544242585
 20
254.6204987516
 11
160.4868649151
 21
254.9165011128
  0
LINE
  5
413
100
AcDbEntity
  8
0
100
AcDbLine
 62
7
  6
CONTINUOUS
 10
160.0925200872
 20
255.0510475286
 11
159.4615661964
 21
255.2663225331
  0
LINE
  5
414
100
AcDbEntity
  8
0
100
AcDbLine
 62
7
  6
CONTINUOUS
 10
160.7067198702
 20
255.5608784743
 11
160.3123750423
 21
255.6954248901
  0
LINE
  5
415
100
AcDbEntity
  8
0
100
AcDbLine
 62
7
  6
CONTINUOUS
 10
157.5080170885
 20
255.4610418625
 11
157.1100628332
 21
255.6109954776
  0
LINE
  5
416
100
AcDbEntity
  8
0
100
AcDbLine
 62
7
  6
CONTINUOUS
 10
157.0427411444
 20
255.1908227064
 11
157.3584128111
 21
255.0540527225
  0
LINE
  5
417
100
AcDbEntity
  8
0
100
AcDbLine
 62
7
  6
CONTINUOUS
 10
152.4450051676
 20
257.3446040181
 11
151.9462015726
 21
257.3100356288
  0
LINE
  5
418
100
AcDbEntity
  8
0
100
AcDbLine
 62
7
  6
CONTINUOUS
 10
155.9550937311
 20
256.8303516302
 11
158.3413255258
 21
256.4480204435
  0
LINE
  5
419
100
AcDbEntity
  8
0
100
AcDbLine
 62
7
  6
CONTINUOUS
 10
158.4086472146
 20
256.8681932147
 11
155.6109958852
 21
257.3164436131
  0
LINE
  5
41A
100
AcDbEntity
  8
FASEN
100
AcDbLine
 62
7
  6
CONTINUOUS
 10
270.6227739371
 20
111.7291968796
 11
255.6234508603
 21
111.7291968796
  0
LINE
  5
41B
100
AcDbEntity
  8
FASEN
100
AcDbLine
 62
7
  6
CONTINUOUS
 10
271.1231123987
 20
112.2291968796
 11
255.1231123987
 21
112.2291968796
  0
LINE
  5
41C
100
AcDbEntity
  8
FASEN
100
AcDbLine
 62
7
  6
CONTINUOUS
 10
255.6231123987
 20
111.7291968796
 11
255.1231123987
 21
112.2291968796
  0
LINE
  5
41D
100
AcDbEntity
  8
0
100
AcDbLine
 62
7
  6
CONTINUOUS
 10
276.9184035857
 20
138.2291968796
 11
277.3243533035
 21
138.3249415574
  0
LINE
  5
41E
100
AcDbEntity
  8
0
100
AcDbLine
 62
7
  6
CONTINUOUS
 10
276.6684035857
 20
138.2291968796
 11
277.0743533035
 21
138.3249415574
  0
LINE
  5
41F
100
AcDbEntity
  8
0
100
AcDbLine
 62
7
  6
CONTINUOUS
 10
276.5124543326
 20
141.101537231
 11
276.1065050794
 21
141.0057925615
  0
LINE
  5
420
100
AcDbEntity
  8
KONSTRUKTIONSELEMENTE
100
AcDbLine
 62
7
  6
CONTINUOUS
 10
242.6231123987
 20
135.7291968796
 11
283.6231123987
 21
135.7291968796
  0
LINE
  5
421
100
AcDbEntity
  8
0
100
AcDbLine
 62
7
  6
CONTINUOUS
 10
245.0788837647
 20
137.7291968796
 11
260.6673410328
 21
137.7291968796
  0
LINE
  5
422
100
AcDbEntity
  8
0
100
AcDbLine
 62
7
  6
CONTINUOUS
 10
269.0429853798
 20
138.2291968796
 11
269.5301246694
 21
138.2291968796
  0
LINE
  5
423
100
AcDbEntity
  8
0
100
AcDbLine
 62
7
  6
CONTINUOUS
 10
270.6667829732
 20
138.2291968796
 11
271.3163019873
 21
138.2291968796
  0
LINE
  5
424
100
AcDbEntity
  8
0
100
AcDbLine
 62
7
  6
CONTINUOUS
 10
272.4529604072
 20
138.2291968796
 11
272.9400996968
 21
138.2291968796
  0
LINE
  5
425
100
AcDbEntity
  8
0
100
AcDbLine
 62
7
  6
CONTINUOUS
 10
274.0767578844
 20
138.2291968796
 11
274.5638971741
 21
138.2291968796
  0
LINE
  5
426
100
AcDbEntity
  8
0
100
AcDbLine
 62
7
  6
CONTINUOUS
 10
276.5124543326
 20
138.2291968796
 11
276.9184035857
 21
138.2291968796
  0
LINE
  5
427
100
AcDbEntity
  8
0
100
AcDbLine
 62
7
  6
CONTINUOUS
 10
277.3243533035
 20
138.3249415574
 11
277.0743533035
 21
138.3249415574
  0
LINE
  5
428
100
AcDbEntity
  8
0
100
AcDbLine
 62
7
  6
CONTINUOUS
 10
277.7303030212
 20
138.6121755909
 11
277.4803030212
 21
138.6121755909
  0
LINE
  5
429
100
AcDbEntity
  8
0
100
AcDbLine
 62
7
  6
CONTINUOUS
 10
276.9995940868
 20
138.7079202939
 11
276.1812647607
 21
138.7079202939
  0
LINE
  5
42A
100
AcDbEntity
  8
0
100
AcDbLine
 62
7
  6
CONTINUOUS
 10
270.9915425383
 20
138.7079202939
 11
270.7415425383
 21
138.7079202939
  0
LINE
  5
42B
100
AcDbEntity
  8
0
100
AcDbLine
 62
7
  6
CONTINUOUS
 10
248.7342326263
 20
138.7291968796
 11
249.4894141721
 21
138.7291968796
  0
LINE
  5
42C
100
AcDbEntity
  8
0
100
AcDbLine
 62
7
  6
CONTINUOUS
 10
251.196992278
 20
138.7291968796
 11
251.9521740045
 21
138.7291968796
  0
LINE
  5
42D
100
AcDbEntity
  8
0
100
AcDbLine
 62
7
  6
CONTINUOUS
 10
252.7125367346
 20
138.7291968796
 11
253.4677184611
 21
138.7291968796
  0
LINE
  5
42E
100
AcDbEntity
  8
0
100
AcDbLine
 62
7
  6
CONTINUOUS
 10
255.7436260092
 20
138.7291968796
 11
256.3725121234
 21
138.7291968796
  0
LINE
  5
42F
100
AcDbEntity
  8
0
100
AcDbLine
 62
7
  6
CONTINUOUS
 10
257.63805658
 20
138.7291968796
 11
258.2669426942
 21
138.7291968796
  0
LINE
  5
430
100
AcDbEntity
  8
0
100
AcDbLine
 62
7
  6
CONTINUOUS
 10
276.1876951159
 20
138.8036649633
 11
275.9376951159
 21
138.8036649633
  0
LINE
  5
431
100
AcDbEntity
  8
0
100
AcDbLine
 62
7
  6
CONTINUOUS
 10
249.8051525705
 20
138.8036649624
 11
249.5551525705
 21
138.8036649624
  0
LINE
  5
432
100
AcDbEntity
  8
0
100
AcDbLine
 62
7
  6
CONTINUOUS
 10
250.057743253
 20
138.9526011344
 11
249.807743253
 21
138.9526011344
  0
LINE
  5
433
100
AcDbEntity
  8
0
100
AcDbLine
 62
7
  6
CONTINUOUS
 10
277.973872666
 20
138.9951543022
 11
277.723872666
 21
138.9951543022
  0
LINE
  5
434
100
AcDbEntity
  8
0
100
AcDbLine
 62
7
  6
CONTINUOUS
 10
275.9441254711
 20
138.9951543022
 11
275.6941254711
 21
138.9951543022
  0
LINE
  5
435
100
AcDbEntity
  8
0
100
AcDbLine
 62
7
  6
CONTINUOUS
 10
249.2394141721
 20
139.1760053891
 11
248.7342326263
 21
139.1760053891
  0
LINE
  5
436
100
AcDbEntity
  8
0
100
AcDbLine
 62
7
  6
CONTINUOUS
 10
250.3103341162
 20
139.2504734654
 11
250.0603341162
 21
139.2504734654
  0
LINE
  5
437
100
AcDbEntity
  8
0
100
AcDbLine
 62
7
  6
CONTINUOUS
 10
248.7316418986
 20
139.2504734654
 11
248.4816418986
 21
139.2504734654
  0
LINE
  5
438
100
AcDbEntity
  8
0
100
AcDbLine
 62
7
  6
CONTINUOUS
 10
275.7817453981
 20
139.2823883775
 11
275.5317453981
 21
139.2823883775
  0
LINE
  5
439
100
AcDbEntity
  8
0
100
AcDbLine
 62
7
  6
CONTINUOUS
 10
278.1362518098
 20
139.4738777164
 11
277.8862518098
 21
139.4738777164
  0
LINE
  5
43A
100
AcDbEntity
  8
0
100
AcDbLine
 62
7
  6
CONTINUOUS
 10
248.5421988416
 20
139.4738777462
 11
248.2921988416
 21
139.4738777462
  0
LINE
  5
43B
100
AcDbEntity
  8
0
100
AcDbLine
 62
7
  6
CONTINUOUS
 10
250.4366293672
 20
139.5483458224
 11
250.1866293672
 21
139.5483458224
  0
LINE
  5
43C
100
AcDbEntity
  8
0
100
AcDbLine
 62
7
  6
CONTINUOUS
 10
275.7005558262
 20
139.5696223858
 11
275.4505558262
 21
139.5696223858
  0
LINE
  5
43D
100
AcDbEntity
  8
0
100
AcDbLine
 62
7
  6
CONTINUOUS
 10
248.4790511709
 20
139.6972819749
 11
247.8501650568
 21
139.6972819749
  0
LINE
  5
43E
100
AcDbEntity
  8
0
100
AcDbLine
 62
7
  6
CONTINUOUS
 10
254.2280815526
 20
139.7717500511
 11
255.7436260092
 21
139.7717500511
  0
LINE
  5
43F
100
AcDbEntity
  8
0
100
AcDbLine
 62
7
  6
CONTINUOUS
 10
256.1225121234
 20
139.7717500511
 11
257.0039887394
 21
139.7717500511
  0
LINE
  5
440
100
AcDbEntity
  8
0
100
AcDbLine
 62
7
  6
CONTINUOUS
 10
275.7005558262
 20
139.8568563942
 11
275.4505558262
 21
139.8568563942
  0
LINE
  5
441
100
AcDbEntity
  8
0
100
AcDbLine
 62
7
  6
CONTINUOUS
 10
250.4366293672
 20
139.9206862036
 11
250.1866293672
 21
139.9206862036
  0
LINE
  5
442
100
AcDbEntity
  8
0
100
AcDbLine
 62
7
  6
CONTINUOUS
 10
278.1362518098
 20
139.9526011977
 11
277.8862518098
 21
139.9526011977
  0
LINE
  5
443
100
AcDbEntity
  8
0
100
AcDbLine
 62
7
  6
CONTINUOUS
 10
275.7817453981
 20
140.1440905366
 11
275.5317453981
 21
140.1440905366
  0
LINE
  5
444
100
AcDbEntity
  8
0
100
AcDbLine
 62
7
  6
CONTINUOUS
 10
257.0039887394
 20
140.2185586128
 11
256.1225121234
 21
140.2185586128
  0
LINE
  5
445
100
AcDbEntity
  8
0
100
AcDbLine
 62
7
  6
CONTINUOUS
 10
255.7436260092
 20
140.2185586128
 11
254.6701151116
 21
140.2185586128
  0
LINE
  5
446
100
AcDbEntity
  8
0
100
AcDbLine
 62
7
  6
CONTINUOUS
 10
250.3103341162
 20
140.2185586128
 11
250.0603341162
 21
140.2185586128
  0
LINE
  5
447
100
AcDbEntity
  8
0
100
AcDbLine
 62
7
  6
CONTINUOUS
 10
248.860528058
 20
140.293026689
 11
249.2394141721
 21
140.293026689
  0
LINE
  5
448
100
AcDbEntity
  8
0
100
AcDbLine
 62
7
  6
CONTINUOUS
 10
275.9441254711
 20
140.3355798755
 11
275.6941254711
 21
140.3355798755
  0
LINE
  5
449
100
AcDbEntity
  8
0
100
AcDbLine
 62
7
  6
CONTINUOUS
 10
277.973872666
 20
140.4313245449
 11
277.723872666
 21
140.4313245449
  0
LINE
  5
44A
100
AcDbEntity
  8
0
100
AcDbLine
 62
7
  6
CONTINUOUS
 10
250.057743253
 20
140.5164309177
 11
249.807743253
 21
140.5164309177
  0
LINE
  5
44B
100
AcDbEntity
  8
0
100
AcDbLine
 62
7
  6
CONTINUOUS
 10
276.1876951159
 20
140.5270692143
 11
275.9376951159
 21
140.5270692143
  0
LINE
  5
44C
100
AcDbEntity
  8
0
100
AcDbLine
 62
7
  6
CONTINUOUS
 10
248.418494228
 20
138.8036649624
 11
248.7342326263
 21
138.7291968796
  0
LINE
  5
44D
100
AcDbEntity
  8
0
100
AcDbLine
 62
7
  6
CONTINUOUS
 10
249.5551525705
 20
140.6653670702
 11
249.2394141721
 21
140.7398351464
  0
LINE
  5
44E
100
AcDbEntity
  8
0
100
AcDbLine
 62
7
  6
CONTINUOUS
 10
249.8051525705
 20
140.6653670702
 11
249.4894141721
 21
140.7398351464
  0
LINE
  5
44F
100
AcDbEntity
  8
0
100
AcDbLine
 62
7
  6
CONTINUOUS
 10
249.492004945
 20
142.1547288034
 11
249.1762664563
 21
142.2291968796
  0
LINE
  5
450
100
AcDbEntity
  8
0
100
AcDbLine
 62
7
  6
CONTINUOUS
 10
249.742004945
 20
142.1547288034
 11
249.4262664563
 21
142.2291968796
  0
LINE
  5
451
100
AcDbEntity
  8
0
100
AcDbLine
 62
7
  6
CONTINUOUS
 10
248.7342326263
 20
139.1760053891
 11
248.4816418986
 21
139.2504734654
  0
LINE
  5
452
100
AcDbEntity
  8
0
100
AcDbLine
 62
7
  6
CONTINUOUS
 10
248.9842326263
 20
139.1760053891
 11
248.7316418986
 21
139.2504734654
  0
LINE
  5
453
100
AcDbEntity
  8
0
100
AcDbLine
 62
7
  6
CONTINUOUS
 10
248.6079372851
 20
140.3674947653
 11
248.860528058
 21
140.293026689
  0
LINE
  5
454
100
AcDbEntity
  8
0
100
AcDbLine
 62
7
  6
CONTINUOUS
 10
249.2394141721
 20
140.293026689
 11
249.492004945
 21
140.2185586128
  0
LINE
  5
455
100
AcDbEntity
  8
0
100
AcDbLine
 62
7
  6
CONTINUOUS
 10
248.860528058
 20
140.7398351464
 11
248.6710850009
 21
140.8143032226
  0
LINE
  5
456
100
AcDbEntity
  8
0
100
AcDbLine
 62
7
  6
CONTINUOUS
 10
249.110528058
 20
140.7398351464
 11
248.9210850009
 21
140.8143032226
  0
LINE
  5
457
100
AcDbEntity
  8
0
100
AcDbLine
 62
7
  6
CONTINUOUS
 10
249.2394141721
 20
141.7823884222
 11
249.4288571389
 21
141.707920346
  0
LINE
  5
458
100
AcDbEntity
  8
0
100
AcDbLine
 62
7
  6
CONTINUOUS
 10
248.3553465574
 20
140.5164309177
 11
248.6079372851
 21
140.3674947653
  0
LINE
  5
459
100
AcDbEntity
  8
0
100
AcDbLine
 62
7
  6
CONTINUOUS
 10
249.807743253
 20
140.5164309177
 11
249.5551525705
 21
140.6653670702
  0
LINE
  5
45A
100
AcDbEntity
  8
0
100
AcDbLine
 62
7
  6
CONTINUOUS
 10
250.057743253
 20
140.5164309177
 11
249.8051525705
 21
140.6653670702
  0
LINE
  5
45B
100
AcDbEntity
  8
0
100
AcDbLine
 62
7
  6
CONTINUOUS
 10
248.1027558071
 20
139.0270692106
 11
248.418494228
 21
138.8036649624
  0
LINE
  5
45C
100
AcDbEntity
  8
0
100
AcDbLine
 62
7
  6
CONTINUOUS
 10
276.5124543326
 20
142.7291968796
 11
276.1065050794
 21
142.6334522102
  0
LINE
  5
45D
100
AcDbEntity
  8
0
100
AcDbLine
 62
7
  6
CONTINUOUS
 10
249.4894141721
 20
138.7291968796
 11
249.8051525705
 21
138.8036649624
  0
LINE
  5
45E
100
AcDbEntity
  8
0
100
AcDbLine
 62
7
  6
CONTINUOUS
 10
249.2394141721
 20
138.7291968796
 11
249.5551525705
 21
138.8036649624
  0
LINE
  5
45F
100
AcDbEntity
  8
0
100
AcDbLine
 62
7
  6
CONTINUOUS
 10
273.2481123987
 20
146.35685645
 11
272.6231119219
 21
146.2291968796
  0
LINE
  5
460
100
AcDbEntity
  8
0
100
AcDbLine
 62
7
  6
CONTINUOUS
 10
275.6193657898
 20
140.6228138838
 11
275.3693657898
 21
140.6228138838
  0
LINE
  5
461
100
AcDbEntity
  8
0
100
AcDbLine
 62
7
  6
CONTINUOUS
 10
276.1812647607
 20
140.6228138838
 11
276.9995940868
 21
140.6228138838
  0
LINE
  5
462
100
AcDbEntity
  8
0
100
AcDbLine
 62
7
  6
CONTINUOUS
 10
249.8051525705
 20
140.6653670702
 11
249.5551525705
 21
140.6653670702
  0
LINE
  5
463
100
AcDbEntity
  8
0
100
AcDbLine
 62
7
  6
CONTINUOUS
 10
277.7303030212
 20
140.7185585532
 11
277.4803030212
 21
140.7185585532
  0
LINE
  5
464
100
AcDbEntity
  8
0
100
AcDbLine
 62
7
  6
CONTINUOUS
 10
249.4894141721
 20
140.7398351464
 11
248.860528058
 21
140.7398351464
  0
LINE
  5
465
100
AcDbEntity
  8
0
100
AcDbLine
 62
7
  6
CONTINUOUS
 10
275.6193657898
 20
140.8143032226
 11
275.3693657898
 21
140.8143032226
  0
LINE
  5
466
100
AcDbEntity
  8
0
100
AcDbLine
 62
7
  6
CONTINUOUS
 10
248.9210850009
 20
140.8143032226
 11
248.6710850009
 21
140.8143032226
  0
LINE
  5
467
100
AcDbEntity
  8
0
100
AcDbLine
 62
7
  6
CONTINUOUS
 10
248.7316418986
 20
140.9632393751
 11
248.4816418986
 21
140.9632393751
  0
LINE
  5
468
100
AcDbEntity
  8
0
100
AcDbLine
 62
7
  6
CONTINUOUS
 10
277.3243533035
 20
141.0057925615
 11
277.0743533035
 21
141.0057925615
  0
LINE
  5
469
100
AcDbEntity
  8
0
100
AcDbLine
 62
7
  6
CONTINUOUS
 10
276.9184035857
 20
141.101537231
 11
276.5124543326
 21
141.101537231
  0
LINE
  5
46A
100
AcDbEntity
  8
0
100
AcDbLine
 62
7
  6
CONTINUOUS
 10
257.5091704659
 20
141.1121755276
 11
257.2591704658
 21
141.1121755276
  0
LINE
  5
46B
100
AcDbEntity
  8
0
100
AcDbLine
 62
7
  6
CONTINUOUS
 10
248.668494228
 20
141.1866436038
 11
248.418494228
 21
141.1866436038
  0
LINE
  5
46C
100
AcDbEntity
  8
0
100
AcDbLine
 62
7
  6
CONTINUOUS
 10
248.668494228
 20
141.3355797562
 11
248.418494228
 21
141.3355797562
  0
LINE
  5
46D
100
AcDbEntity
  8
0
100
AcDbLine
 62
7
  6
CONTINUOUS
 10
275.7005558262
 20
141.3887712393
 11
275.4505558262
 21
141.3887712393
  0
LINE
  5
46E
100
AcDbEntity
  8
0
100
AcDbLine
 62
7
  6
CONTINUOUS
 10
249.6183001959
 20
141.4100480411
 11
250.2471863101
 21
141.4100480411
  0
LINE
  5
46F
100
AcDbEntity
  8
0
100
AcDbLine
 62
7
  6
CONTINUOUS
 10
248.7316418986
 20
141.5589841936
 11
248.4816418986
 21
141.5589841936
  0
LINE
  5
470
100
AcDbEntity
  8
0
100
AcDbLine
 62
7
  6
CONTINUOUS
 10
250.1840386846
 20
141.6334522698
 11
249.9340386846
 21
141.6334522698
  0
LINE
  5
471
100
AcDbEntity
  8
0
100
AcDbLine
 62
7
  6
CONTINUOUS
 10
275.7817453981
 20
141.6760055158
 11
275.5317453981
 21
141.6760055158
  0
LINE
  5
472
100
AcDbEntity
  8
0
100
AcDbLine
 62
7
  6
CONTINUOUS
 10
277.5679229483
 20
141.6760055158
 11
277.973872666
 21
141.6760055158
  0
LINE
  5
473
100
AcDbEntity
  8
0
100
AcDbLine
 62
7
  6
CONTINUOUS
 10
248.9210850009
 20
141.707920346
 11
248.6710850009
 21
141.707920346
  0
LINE
  5
474
100
AcDbEntity
  8
0
100
AcDbLine
 62
7
  6
CONTINUOUS
 10
272.4529604072
 20
141.7717501852
 11
272.2029604072
 21
141.7717501852
  0
LINE
  5
475
100
AcDbEntity
  8
0
100
AcDbLine
 62
7
  6
CONTINUOUS
 10
269.5301246694
 20
141.7717501852
 11
269.2801246694
 21
141.7717501852
  0
LINE
  5
476
100
AcDbEntity
  8
0
100
AcDbLine
 62
7
  6
CONTINUOUS
 10
248.860528058
 20
141.7823884222
 11
249.2394141721
 21
141.7823884222
  0
LINE
  5
477
100
AcDbEntity
  8
0
100
AcDbLine
 62
7
  6
CONTINUOUS
 10
249.9945956275
 20
141.9313245747
 11
249.7445956275
 21
141.9313245747
  0
LINE
  5
478
100
AcDbEntity
  8
0
100
AcDbLine
 62
7
  6
CONTINUOUS
 10
277.892682165
 20
141.9632395241
 11
277.642682165
 21
141.9632395241
  0
LINE
  5
479
100
AcDbEntity
  8
0
100
AcDbLine
 62
7
  6
CONTINUOUS
 10
275.9441254711
 20
141.9632395241
 11
275.6941254711
 21
141.9632395241
  0
LINE
  5
47A
100
AcDbEntity
  8
0
100
AcDbLine
 62
7
  6
CONTINUOUS
 10
274.0767578844
 20
141.9632395241
 11
273.8267578844
 21
141.9632395241
  0
LINE
  5
47B
100
AcDbEntity
  8
0
100
AcDbLine
 62
7
  6
CONTINUOUS
 10
276.1876951159
 20
142.154728863
 11
275.9376951159
 21
142.154728863
  0
LINE
  5
47C
100
AcDbEntity
  8
0
100
AcDbLine
 62
7
  6
CONTINUOUS
 10
249.742004945
 20
142.1547288034
 11
249.492004945
 21
142.1547288034
  0
LINE
  5
47D
100
AcDbEntity
  8
0
100
AcDbLine
 62
7
  6
CONTINUOUS
 10
258.2669426942
 20
142.2291968796
 11
257.63805658
 21
142.2291968796
  0
LINE
  5
47E
100
AcDbEntity
  8
0
100
AcDbLine
 62
7
  6
CONTINUOUS
 10
256.3725121234
 20
142.2291968796
 11
255.7436260092
 21
142.2291968796
  0
LINE
  5
47F
100
AcDbEntity
  8
0
100
AcDbLine
 62
7
  6
CONTINUOUS
 10
253.9728998262
 20
142.2291968796
 11
253.344013712
 21
142.2291968796
  0
LINE
  5
480
100
AcDbEntity
  8
0
100
AcDbLine
 62
7
  6
CONTINUOUS
 10
252.7099462328
 20
142.2291968796
 11
251.9547645063
 21
142.2291968796
  0
LINE
  5
481
100
AcDbEntity
  8
0
100
AcDbLine
 62
7
  6
CONTINUOUS
 10
251.3206970271
 20
142.2291968796
 11
250.6918109129
 21
142.2291968796
  0
LINE
  5
482
100
AcDbEntity
  8
0
100
AcDbLine
 62
7
  6
CONTINUOUS
 10
249.4262664563
 20
142.2291968796
 11
248.860528058
 21
142.2291968796
  0
LINE
  5
483
100
AcDbEntity
  8
0
100
AcDbLine
 62
7
  6
CONTINUOUS
 10
276.1812647607
 20
142.2504735324
 11
276.9184035857
 21
142.2504735324
  0
LINE
  5
484
100
AcDbEntity
  8
0
100
AcDbLine
 62
7
  6
CONTINUOUS
 10
277.6491125202
 20
142.3462182019
 11
277.3991125202
 21
142.3462182019
  0
LINE
  5
485
100
AcDbEntity
  8
0
100
AcDbLine
 62
7
  6
CONTINUOUS
 10
277.2431637316
 20
142.6334522102
 11
276.9931637316
 21
142.6334522102
  0
LINE
  5
486
100
AcDbEntity
  8
0
100
AcDbLine
 62
7
  6
CONTINUOUS
 10
276.8372140138
 20
142.7291968796
 11
276.5124543326
 21
142.7291968796
  0
LINE
  5
487
100
AcDbEntity
  8
0
100
AcDbLine
 62
7
  6
CONTINUOUS
 10
274.5638971741
 20
142.7291968796
 11
274.0767578844
 21
142.7291968796
  0
LINE
  5
488
100
AcDbEntity
  8
0
100
AcDbLine
 62
7
  6
CONTINUOUS
 10
272.9400996968
 20
142.7291968796
 11
272.2093907624
 21
142.7291968796
  0
LINE
  5
489
100
AcDbEntity
  8
0
100
AcDbLine
 62
7
  6
CONTINUOUS
 10
269.7736943142
 20
142.7291968796
 11
269.0429853798
 21
142.7291968796
  0
LINE
  5
48A
100
AcDbEntity
  8
0
100
AcDbLine
 62
7
  6
CONTINUOUS
 10
260.6673410328
 20
143.4836465107
 11
245.0788837647
 21
143.4836465107
  0
LINE
  5
48B
100
AcDbEntity
  8
KONSTRUKTIONSELEMENTE
100
AcDbLine
 62
7
  6
CONTINUOUS
 10
242.6231123987
 20
144.7291968796
 11
283.6231123987
 21
144.7291968796
  0
LINE
  5
48C
100
AcDbEntity
  8
0
100
AcDbLine
 62
7
  6
CONTINUOUS
 10
268.2481128755
 20
145.4632394347
 11
267.6231123987
 21
145.4632394347
  0
LINE
  5
48D
100
AcDbEntity
  8
0
100
AcDbLine
 62
7
  6
CONTINUOUS
 10
276.1065050794
 20
138.3249415574
 11
276.5124543326
 21
138.2291968796
  0
LINE
  5
48E
100
AcDbEntity
  8
0
100
AcDbLine
 62
7
  6
CONTINUOUS
 10
277.0743533035
 20
141.0057925615
 11
276.6684035857
 21
141.101537231
  0
LINE
  5
48F
100
AcDbEntity
  8
0
100
AcDbLine
 62
7
  6
CONTINUOUS
 10
277.3243533035
 20
141.0057925615
 11
276.9184035857
 21
141.101537231
  0
LINE
  5
490
100
AcDbEntity
  8
0
100
AcDbLine
 62
7
  6
CONTINUOUS
 10
248.6710850009
 20
140.8143032226
 11
248.4816418986
 21
140.9632393751
  0
LINE
  5
491
100
AcDbEntity
  8
0
100
AcDbLine
 62
7
  6
CONTINUOUS
 10
249.492004945
 20
140.2185586128
 11
249.6814480021
 21
140.0696224604
  0
LINE
  5
492
100
AcDbEntity
  8
0
100
AcDbLine
 62
7
  6
CONTINUOUS
 10
248.9210850009
 20
140.8143032226
 11
248.7316418986
 21
140.9632393751
  0
LINE
  5
493
100
AcDbEntity
  8
0
100
AcDbLine
 62
7
  6
CONTINUOUS
 10
249.7445956275
 20
141.9313245747
 11
249.492004945
 21
142.1547288034
  0
LINE
  5
494
100
AcDbEntity
  8
0
100
AcDbLine
 62
7
  6
CONTINUOUS
 10
249.9945956275
 20
141.9313245747
 11
249.742004945
 21
142.1547288034
  0
LINE
  5
495
100
AcDbEntity
  8
0
100
AcDbLine
 62
7
  6
CONTINUOUS
 10
248.4816418986
 20
139.2504734654
 11
248.2921988416
 21
139.4738777462
  0
LINE
  5
496
100
AcDbEntity
  8
0
100
AcDbLine
 62
7
  6
CONTINUOUS
 10
248.7316418986
 20
139.2504734654
 11
248.5421988416
 21
139.4738777462
  0
LINE
  5
497
100
AcDbEntity
  8
0
100
AcDbLine
 62
7
  6
CONTINUOUS
 10
248.1027558071
 20
140.8143032226
 11
248.3553465574
 21
140.5164309177
  0
LINE
  5
498
100
AcDbEntity
  8
0
100
AcDbLine
 62
7
  6
CONTINUOUS
 10
273.1231128755
 20
146.9951543245
 11
272.6231119219
 21
146.8674947653
  0
LINE
  5
499
100
AcDbEntity
  8
0
100
AcDbLine
 62
7
  6
CONTINUOUS
 10
271.8731119219
 20
149.4206862185
 11
271.3731123987
 21
149.2930266592
  0
LINE
  5
49A
100
AcDbEntity
  8
0
100
AcDbLine
 62
7
  6
CONTINUOUS
 10
271.8731119219
 20
150.0589840147
 11
271.2481128755
 21
149.9313244555
  0
LINE
  5
49B
100
AcDbEntity
  8
0
100
AcDbLine
 62
7
  6
CONTINUOUS
 10
260.3731121603
 20
149.0377075407
 11
259.7481123987
 21
148.9100479815
  0
LINE
  5
49C
100
AcDbEntity
  8
0
100
AcDbLine
 62
7
  6
CONTINUOUS
 10
272.6231119219
 20
146.2291968796
 11
271.8731119219
 21
146.2291968796
  0
LINE
  5
49D
100
AcDbEntity
  8
0
100
AcDbLine
 62
7
  6
CONTINUOUS
 10
266.6231119219
 20
146.2291968796
 11
265.8731119219
 21
146.2291968796
  0
LINE
  5
49E
100
AcDbEntity
  8
0
100
AcDbLine
 62
7
  6
CONTINUOUS
 10
257.4981123987
 20
146.2291968796
 11
256.7481123987
 21
146.2291968796
  0
LINE
  5
49F
100
AcDbEntity
  8
0
100
AcDbLine
 62
7
  6
CONTINUOUS
 10
251.8731123987
 20
146.2291968796
 11
251.1231123987
 21
146.2291968796
  0
LINE
  5
4A0
100
AcDbEntity
  8
0
100
AcDbLine
 62
7
  6
CONTINUOUS
 10
272.6231119219
 20
146.8674947653
 11
271.8731119219
 21
146.8674947653
  0
LINE
  5
4A1
100
AcDbEntity
  8
0
100
AcDbLine
 62
7
  6
CONTINUOUS
 10
268.9981128755
 20
146.8674947653
 11
268.3731123987
 21
146.8674947653
  0
LINE
  5
4A2
100
AcDbEntity
  8
0
100
AcDbLine
 62
7
  6
CONTINUOUS
 10
270.7481119219
 20
147.7611117694
 11
269.9981119219
 21
147.7611117694
  0
LINE
  5
4A3
100
AcDbEntity
  8
0
100
AcDbLine
 62
7
  6
CONTINUOUS
 10
264.1231128755
 20
148.3994095657
 11
262.3731123987
 21
148.3994095657
  0
LINE
  5
4A4
100
AcDbEntity
  8
0
100
AcDbLine
 62
7
  6
CONTINUOUS
 10
270.8731128755
 20
148.9100479815
 11
269.9981119219
 21
148.9100479815
  0
LINE
  5
4A5
100
AcDbEntity
  8
0
100
AcDbLine
 62
7
  6
CONTINUOUS
 10
259.7481123987
 20
148.9100479815
 11
257.4981123987
 21
148.9100479815
  0
LINE
  5
4A6
100
AcDbEntity
  8
0
100
AcDbLine
 62
7
  6
CONTINUOUS
 10
254.1231123987
 20
148.9100479815
 11
251.8731123987
 21
148.9100479815
  0
LINE
  5
4A7
100
AcDbEntity
  8
0
100
AcDbLine
 62
7
  6
CONTINUOUS
 10
264.1231128755
 20
149.0377075407
 11
262.3731123987
 21
149.0377075407
  0
LINE
  5
4A8
100
AcDbEntity
  8
0
100
AcDbLine
 62
7
  6
CONTINUOUS
 10
272.6231119219
 20
149.4206862185
 11
271.8731119219
 21
149.4206862185
  0
LINE
  5
4A9
100
AcDbEntity
  8
0
100
AcDbLine
 62
7
  6
CONTINUOUS
 10
259.8731126371
 20
149.676005337
 11
257.4981123987
 21
149.676005337
  0
LINE
  5
4AA
100
AcDbEntity
  8
0
100
AcDbLine
 62
7
  6
CONTINUOUS
 10
254.2481122795
 20
149.676005337
 11
251.8731123987
 21
149.676005337
  0
LINE
  5
4AB
100
AcDbEntity
  8
0
100
AcDbLine
 62
7
  6
CONTINUOUS
 10
278.4981123987
 20
149.8036648962
 11
277.1231133524
 21
149.8036648962
  0
LINE
  5
4AC
100
AcDbEntity
  8
0
100
AcDbLine
 62
7
  6
CONTINUOUS
 10
276.498111445
 20
149.8036648962
 11
275.4981123987
 21
149.8036648962
  0
LINE
  5
4AD
100
AcDbEntity
  8
0
100
AcDbLine
 62
7
  6
CONTINUOUS
 10
272.6231119219
 20
150.0589840147
 11
271.8731119219
 21
150.0589840147
  0
LINE
  5
4AE
100
AcDbEntity
  8
0
100
AcDbLine
 62
7
  6
CONTINUOUS
 10
278.4981123987
 20
150.3143031332
 11
277.1231133524
 21
150.3143031332
  0
LINE
  5
4AF
100
AcDbEntity
  8
0
100
AcDbLine
 62
7
  6
CONTINUOUS
 10
276.498111445
 20
150.3143031332
 11
275.4981123987
 21
150.3143031332
  0
LINE
  5
4B0
100
AcDbEntity
  8
0
100
AcDbLine
 62
7
  6
CONTINUOUS
 10
278.2481133524
 20
146.2291968796
 11
277.4981133524
 21
146.35685645
  0
LINE
  5
4B1
100
AcDbEntity
  8
0
100
AcDbLine
 62
7
  6
CONTINUOUS
 10
271.8731119219
 20
146.2291968796
 11
271.2481128755
 21
146.35685645
  0
LINE
  5
4B2
100
AcDbEntity
  8
0
100
AcDbLine
 62
7
  6
CONTINUOUS
 10
278.2481133524
 20
146.7398351613
 11
277.623111445
 21
146.8674947653
  0
LINE
  5
4B3
100
AcDbEntity
  8
0
100
AcDbLine
 62
7
  6
CONTINUOUS
 10
276.9931637316
 20
142.6334522102
 11
276.5872140138
 21
142.7291968796
  0
LINE
  5
4B4
100
AcDbEntity
  8
0
100
AcDbLine
 62
7
  6
CONTINUOUS
 10
277.2431637316
 20
142.6334522102
 11
276.8372140138
 21
142.7291968796
  0
LINE
  5
4B5
100
AcDbEntity
  8
0
100
AcDbLine
 62
7
  6
CONTINUOUS
 10
271.8731119219
 20
146.8674947653
 11
271.3731123987
 21
146.9951543245
  0
LINE
  5
4B6
100
AcDbEntity
  8
0
100
AcDbLine
 62
7
  6
CONTINUOUS
 10
254.6231122795
 20
151.4632395241
 11
254.2481122795
 21
151.5908990834
  0
LINE
  5
4B7
100
AcDbEntity
  8
0
100
AcDbLine
 62
7
  6
CONTINUOUS
 10
276.1812647607
 20
138.7079202939
 11
275.9376951159
 21
138.8036649633
  0
LINE
  5
4B8
100
AcDbEntity
  8
0
100
AcDbLine
 62
7
  6
CONTINUOUS
 10
276.4312647607
 20
138.7079202939
 11
276.1876951159
 21
138.8036649633
  0
LINE
  5
4B9
100
AcDbEntity
  8
0
100
AcDbLine
 62
7
  6
CONTINUOUS
 10
276.9995940868
 20
140.6228138838
 11
277.2431637316
 21
140.5270692143
  0
LINE
  5
4BA
100
AcDbEntity
  8
0
100
AcDbLine
 62
7
  6
CONTINUOUS
 10
276.9184035857
 20
142.2504735324
 11
277.1619732306
 21
142.154728863
  0
LINE
  5
4BB
100
AcDbEntity
  8
0
100
AcDbLine
 62
7
  6
CONTINUOUS
 10
250.0603341162
 20
140.2185586128
 11
249.807743253
 21
140.5164309177
  0
LINE
  5
4BC
100
AcDbEntity
  8
0
100
AcDbLine
 62
7
  6
CONTINUOUS
 10
250.3103341162
 20
140.2185586128
 11
250.057743253
 21
140.5164309177
  0
LINE
  5
4BD
100
AcDbEntity
  8
0
100
AcDbLine
 62
7
  6
CONTINUOUS
 10
249.4288571389
 20
141.707920346
 11
249.5551525705
 21
141.5589841936
  0
LINE
  5
4BE
100
AcDbEntity
  8
0
100
AcDbLine
 62
7
  6
CONTINUOUS
 10
269.8731119219
 20
154.1228138838
 11
269.3731123987
 21
153.9951543245
  0
LINE
  5
4BF
100
AcDbEntity
  8
0
100
AcDbLine
 62
7
  6
CONTINUOUS
 10
263.8731126371
 20
154.1228138838
 11
263.3731123987
 21
153.9951543245
  0
LINE
  5
4C0
100
AcDbEntity
  8
0
100
AcDbLine
 62
7
  6
CONTINUOUS
 10
254.7481125179
 20
149.0377075407
 11
254.1231123987
 21
148.9100479815
  0
LINE
  5
4C1
100
AcDbEntity
  8
0
100
AcDbLine
 62
7
  6
CONTINUOUS
 10
269.9981128755
 20
153.35685645
 11
269.3731123987
 21
153.2291968796
  0
LINE
  5
4C2
100
AcDbEntity
  8
0
100
AcDbLine
 62
7
  6
CONTINUOUS
 10
263.9981121603
 20
153.35685645
 11
263.3731123987
 21
153.2291968796
  0
LINE
  5
4C3
100
AcDbEntity
  8
0
100
AcDbLine
 62
7
  6
CONTINUOUS
 10
277.1231133524
 20
151.3355799649
 11
276.498111445
 21
151.3355799649
  0
LINE
  5
4C4
100
AcDbEntity
  8
0
100
AcDbLine
 62
7
  6
CONTINUOUS
 10
274.2481128755
 20
151.5908990834
 11
270.6231123987
 21
151.5908990834
  0
LINE
  5
4C5
100
AcDbEntity
  8
0
100
AcDbLine
 62
7
  6
CONTINUOUS
 10
259.8731126371
 20
151.5908990834
 11
257.4981123987
 21
151.5908990834
  0
LINE
  5
4C6
100
AcDbEntity
  8
0
100
AcDbLine
 62
7
  6
CONTINUOUS
 10
254.2481122795
 20
151.5908990834
 11
251.8731123987
 21
151.5908990834
  0
LINE
  5
4C7
100
AcDbEntity
  8
0
100
AcDbLine
 62
7
  6
CONTINUOUS
 10
274.2481128755
 20
152.2291968796
 11
269.9981119219
 21
152.2291968796
  0
LINE
  5
4C8
100
AcDbEntity
  8
0
100
AcDbLine
 62
7
  6
CONTINUOUS
 10
259.7481123987
 20
152.2291968796
 11
256.7481123987
 21
152.2291968796
  0
LINE
  5
4C9
100
AcDbEntity
  8
0
100
AcDbLine
 62
7
  6
CONTINUOUS
 10
254.1231123987
 20
152.2291968796
 11
251.1231123987
 21
152.2291968796
  0
LINE
  5
4CA
100
AcDbEntity
  8
0
100
AcDbLine
 62
7
  6
CONTINUOUS
 10
265.8731119219
 20
152.2291968796
 11
266.6231119219
 21
152.2291968796
  0
LINE
  5
4CB
100
AcDbEntity
  8
0
100
AcDbLine
 62
7
  6
CONTINUOUS
 10
269.3731123987
 20
153.2291968796
 11
266.3731123987
 21
153.2291968796
  0
LINE
  5
4CC
100
AcDbEntity
  8
0
100
AcDbLine
 62
7
  6
CONTINUOUS
 10
263.3731123987
 20
153.2291968796
 11
262.8731121603
 21
153.2291968796
  0
LINE
  5
4CD
100
AcDbEntity
  8
0
100
AcDbLine
 62
7
  6
CONTINUOUS
 10
259.8731125179
 20
153.2291968796
 11
258.9981122795
 21
153.2291968796
  0
LINE
  5
4CE
100
AcDbEntity
  8
0
100
AcDbLine
 62
7
  6
CONTINUOUS
 10
255.8731123987
 20
153.2291968796
 11
255.1231123987
 21
153.2291968796
  0
LINE
  5
4CF
100
AcDbEntity
  8
0
100
AcDbLine
 62
7
  6
CONTINUOUS
 10
269.3731123987
 20
153.9951543245
 11
267.1231123987
 21
153.9951543245
  0
LINE
  5
4D0
100
AcDbEntity
  8
0
100
AcDbLine
 62
7
  6
CONTINUOUS
 10
263.3731123987
 20
153.9951543245
 11
262.8731121603
 21
153.9951543245
  0
LINE
  5
4D1
100
AcDbEntity
  8
0
100
AcDbLine
 62
7
  6
CONTINUOUS
 10
257.9981123391
 20
155.9100479815
 11
255.8731123987
 21
155.9100479815
  0
LINE
  5
4D2
100
AcDbEntity
  8
0
100
AcDbLine
 62
7
  6
CONTINUOUS
 10
254.7481125179
 20
152.1015373204
 11
254.1231123987
 21
152.2291968796
  0
LINE
  5
4D3
100
AcDbEntity
  8
0
100
AcDbLine
 62
7
  6
CONTINUOUS
 10
260.3731121603
 20
152.1015373204
 11
259.7481123987
 21
152.2291968796
  0
LINE
  5
4D4
100
AcDbEntity
  8
0
100
AcDbLine
 62
7
  6
CONTINUOUS
 10
273.2481123987
 20
149.9313244555
 11
272.6231119219
 21
150.0589840147
  0
LINE
  5
4D5
100
AcDbEntity
  8
0
100
AcDbLine
 62
7
  6
CONTINUOUS
 10
262.8731121603
 20
153.2291968796
 11
262.2481123987
 21
153.35685645
  0
LINE
  5
4D6
100
AcDbEntity
  8
0
100
AcDbLine
 62
7
  6
CONTINUOUS
 10
273.1231128755
 20
149.2930266592
 11
272.6231119219
 21
149.4206862185
  0
LINE
  5
4D7
100
AcDbEntity
  8
0
100
AcDbLine
 62
7
  6
CONTINUOUS
 10
262.8731121603
 20
153.9951543245
 11
262.3731126371
 21
154.1228138838
  0
LINE
  5
4D8
100
AcDbEntity
  8
0
100
AcDbLine
 62
7
  6
CONTINUOUS
 10
260.2481126371
 20
151.4632395241
 11
259.8731126371
 21
151.5908990834
  0
LINE
  5
4D9
100
AcDbEntity
  8
0
100
AcDbLine
 62
7
  6
CONTINUOUS
 10
277.4981133524
 20
146.35685645
 11
277.1231133524
 21
146.4845160205
  0
LINE
  5
4DA
100
AcDbEntity
  8
0
100
AcDbLine
 62
7
  6
CONTINUOUS
 10
275.7005558262
 20
138.6121755909
 11
276.1065050794
 21
138.3249415574
  0
LINE
  5
4DB
100
AcDbEntity
  8
0
100
AcDbLine
 62
7
  6
CONTINUOUS
 10
255.2481123987
 20
151.7185586426
 11
254.7481125179
 21
152.1015373204
  0
LINE
  5
4DC
100
AcDbEntity
  8
0
100
AcDbLine
 62
7
  6
CONTINUOUS
 10
254.8731123987
 20
151.2079204056
 11
254.6231122795
 21
151.4632395241
  0
LINE
  5
4DD
100
AcDbEntity
  8
0
100
AcDbLine
 62
7
  6
CONTINUOUS
 10
249.9340386846
 20
141.6334522698
 11
249.7445956275
 21
141.9313245747
  0
LINE
  5
4DE
100
AcDbEntity
  8
0
100
AcDbLine
 62
7
  6
CONTINUOUS
 10
250.1840386846
 20
141.6334522698
 11
249.9945956275
 21
141.9313245747
  0
LINE
  5
4DF
100
AcDbEntity
  8
0
100
AcDbLine
 62
7
  6
CONTINUOUS
 10
249.6814480021
 20
140.0696224604
 11
249.807743253
 21
139.8462181274
  0
LINE
  5
4E0
100
AcDbEntity
  8
0
100
AcDbLine
 62
7
  6
CONTINUOUS
 10
247.9133127443
 20
139.39940967
 11
248.1027558071
 21
139.0270692106
  0
LINE
  5
4E1
100
AcDbEntity
  8
0
100
AcDbLine
 62
7
  6
CONTINUOUS
 10
258.2481122795
 20
156.676005337
 11
255.8731123987
 21
156.676005337
  0
LINE
  5
4E2
100
AcDbEntity
  8
0
100
AcDbLine
 62
7
  6
CONTINUOUS
 10
269.3731123987
 20
158.4632395241
 11
267.1231123987
 21
158.4632395241
  0
LINE
  5
4E3
100
AcDbEntity
  8
0
100
AcDbLine
 62
7
  6
CONTINUOUS
 10
258.2481122795
 20
158.5908990834
 11
255.8731123987
 21
158.5908990834
  0
LINE
  5
4E4
100
AcDbEntity
  8
0
100
AcDbLine
 62
7
  6
CONTINUOUS
 10
269.3731123987
 20
159.2291968796
 11
266.3731123987
 21
159.2291968796
  0
LINE
  5
4E5
100
AcDbEntity
  8
0
100
AcDbLine
 62
7
  6
CONTINUOUS
 10
265.3731126371
 20
159.2291968796
 11
264.6231126371
 21
159.2291968796
  0
LINE
  5
4E6
100
AcDbEntity
  8
0
100
AcDbLine
 62
7
  6
CONTINUOUS
 10
261.6231126371
 20
159.2291968796
 11
260.8731122795
 21
159.2291968796
  0
LINE
  5
4E7
100
AcDbEntity
  8
0
100
AcDbLine
 62
7
  6
CONTINUOUS
 10
258.1231123987
 20
159.2291968796
 11
255.1231123987
 21
159.2291968796
  0
LINE
  5
4E8
100
AcDbEntity
  8
0
100
AcDbLine
 62
7
  6
CONTINUOUS
 10
258.7481125179
 20
159.1015373204
 11
258.1231123987
 21
159.2291968796
  0
LINE
  5
4E9
100
AcDbEntity
  8
0
100
AcDbLine
 62
7
  6
CONTINUOUS
 10
269.9981128755
 20
159.1015373204
 11
269.3731123987
 21
159.2291968796
  0
LINE
  5
4EA
100
AcDbEntity
  8
0
100
AcDbLine
 62
7
  6
CONTINUOUS
 10
269.8731119219
 20
158.3355799649
 11
269.3731123987
 21
158.4632395241
  0
LINE
  5
4EB
100
AcDbEntity
  8
0
100
AcDbLine
 62
7
  6
CONTINUOUS
 10
258.6231122795
 20
158.4632395241
 11
258.2481122795
 21
158.5908990834
  0
LINE
  5
4EC
100
AcDbEntity
  8
0
100
AcDbLine
 62
7
  6
CONTINUOUS
 10
262.2481123987
 20
153.35685645
 11
261.7481121603
 21
153.6121756021
  0
LINE
  5
4ED
100
AcDbEntity
  8
0
100
AcDbLine
 62
7
  6
CONTINUOUS
 10
271.2481128755
 20
146.35685645
 11
270.6231123987
 21
146.7398351613
  0
LINE
  5
4EE
100
AcDbEntity
  8
0
100
AcDbLine
 62
7
  6
CONTINUOUS
 10
273.8731128755
 20
149.5483457777
 11
273.2481123987
 21
149.9313244555
  0
LINE
  5
4EF
100
AcDbEntity
  8
0
100
AcDbLine
 62
7
  6
CONTINUOUS
 10
271.3731123987
 20
146.9951543245
 11
270.9981123987
 21
147.250473443
  0
LINE
  5
4F0
100
AcDbEntity
  8
0
100
AcDbLine
 62
7
  6
CONTINUOUS
 10
262.3731126371
 20
154.1228138838
 11
261.9981126371
 21
154.3781330917
  0
LINE
  5
4F1
100
AcDbEntity
  8
0
100
AcDbLine
 62
7
  6
CONTINUOUS
 10
277.4803030212
 20
140.7185585532
 11
277.0743533035
 21
141.0057925615
  0
LINE
  5
4F2
100
AcDbEntity
  8
0
100
AcDbLine
 62
7
  6
CONTINUOUS
 10
277.7303030212
 20
140.7185585532
 11
277.3243533035
 21
141.0057925615
  0
LINE
  5
4F3
100
AcDbEntity
  8
0
100
AcDbLine
 62
7
  6
CONTINUOUS
 10
277.3991125202
 20
142.3462182019
 11
276.9931637316
 21
142.6334522102
  0
LINE
  5
4F4
100
AcDbEntity
  8
0
100
AcDbLine
 62
7
  6
CONTINUOUS
 10
277.6491125202
 20
142.3462182019
 11
277.2431637316
 21
142.6334522102
  0
LINE
  5
4F5
100
AcDbEntity
  8
0
100
AcDbLine
 62
7
  6
CONTINUOUS
 10
260.8731123987
 20
151.7185586426
 11
260.3731121603
 21
152.1015373204
  0
LINE
  5
4F6
100
AcDbEntity
  8
0
100
AcDbLine
 62
7
  6
CONTINUOUS
 10
275.9376951159
 20
138.8036649633
 11
275.6941254711
 21
138.9951543022
  0
LINE
  5
4F7
100
AcDbEntity
  8
0
100
AcDbLine
 62
7
  6
CONTINUOUS
 10
276.1876951159
 20
138.8036649633
 11
275.9441254711
 21
138.9951543022
  0
LINE
  5
4F8
100
AcDbEntity
  8
0
100
AcDbLine
 62
7
  6
CONTINUOUS
 10
277.2431637316
 20
140.5270692143
 11
277.4867333764
 21
140.3355798755
  0
LINE
  5
4F9
100
AcDbEntity
  8
0
100
AcDbLine
 62
7
  6
CONTINUOUS
 10
277.1619732306
 20
142.154728863
 11
277.4055428754
 21
141.9632395241
  0
LINE
  5
4FA
100
AcDbEntity
  8
0
100
AcDbLine
 62
7
  6
CONTINUOUS
 10
260.4981123987
 20
151.2079204056
 11
260.2481126371
 21
151.4632395241
  0
LINE
  5
4FB
100
AcDbEntity
  8
0
100
AcDbLine
 62
7
  6
CONTINUOUS
 10
255.6231123987
 20
151.2079204056
 11
255.2481123987
 21
151.7185586426
  0
LINE
  5
4FC
100
AcDbEntity
  8
0
100
AcDbLine
 62
7
  6
CONTINUOUS
 10
250.1866293672
 20
139.9206862036
 11
250.0603341162
 21
140.2185586128
  0
LINE
  5
4FD
100
AcDbEntity
  8
0
100
AcDbLine
 62
7
  6
CONTINUOUS
 10
249.5551525705
 20
141.5589841936
 11
249.6183001959
 21
141.4100480411
  0
LINE
  5
4FE
100
AcDbEntity
  8
0
100
AcDbLine
 62
7
  6
CONTINUOUS
 10
250.4366293672
 20
139.9206862036
 11
250.3103341162
 21
140.2185586128
  0
LINE
  5
4FF
100
AcDbEntity
  8
0
100
AcDbLine
 62
7
  6
CONTINUOUS
 10
248.2921988416
 20
139.4738777462
 11
248.2290511709
 21
139.6972819749
  0
LINE
  5
500
100
AcDbEntity
  8
0
100
AcDbLine
 62
7
  6
CONTINUOUS
 10
248.5421988416
 20
139.4738777462
 11
248.4790511709
 21
139.6972819749
  0
LINE
  5
501
100
AcDbEntity
  8
0
100
AcDbLine
 62
7
  6
CONTINUOUS
 10
248.4816418986
 20
140.9632393751
 11
248.418494228
 21
141.1866436038
  0
LINE
  5
502
100
AcDbEntity
  8
0
100
AcDbLine
 62
7
  6
CONTINUOUS
 10
248.7316418986
 20
140.9632393751
 11
248.668494228
 21
141.1866436038
  0
LINE
  5
503
100
AcDbEntity
  8
KONSTRUKTIONSELEMENTE
100
AcDbLine
 62
7
  6
CONTINUOUS
 10
242.6231123987
 20
135.7291968796
 11
242.6231123987
 21
144.7291968796
  0
LINE
  5
504
100
AcDbEntity
  8
RUNDUNGEN
100
AcDbLine
 62
7
  6
CONTINUOUS
 10
274.0346888201
 20
165.4291968796
 11
252.2115359773
 21
165.4291968796
  0
LINE
  5
505
100
AcDbEntity
  8
0
100
AcDbLine
 62
7
  6
CONTINUOUS
 10
270.4981123987
 20
158.8462182019
 11
269.9981128755
 21
159.1015373204
  0
LINE
  5
506
100
AcDbEntity
  8
0
100
AcDbLine
 62
7
  6
CONTINUOUS
 10
277.1231133524
 20
146.4845160205
 11
276.7481133524
 21
146.7398351613
  0
LINE
  5
507
100
AcDbEntity
  8
0
100
AcDbLine
 62
7
  6
CONTINUOUS
 10
273.4981128755
 20
149.0377075407
 11
273.1231128755
 21
149.2930266592
  0
LINE
  5
508
100
AcDbEntity
  8
0
100
AcDbLine
 62
7
  6
CONTINUOUS
 10
277.623111445
 20
146.8674947653
 11
277.248111445
 21
147.1228138838
  0
LINE
  5
509
100
AcDbEntity
  8
0
100
AcDbLine
 62
7
  6
CONTINUOUS
 10
259.2481123987
 20
158.7185586426
 11
258.7481125179
 21
159.1015373204
  0
LINE
  5
50A
100
AcDbEntity
  8
0
100
AcDbLine
 62
7
  6
CONTINUOUS
 10
261.7481121603
 20
153.6121756021
 11
261.2481126371
 21
154.1228138838
  0
LINE
  5
50B
100
AcDbEntity
  8
0
100
AcDbLine
 62
7
  6
CONTINUOUS
 10
258.8731123987
 20
158.2079204056
 11
258.6231122795
 21
158.4632395241
  0
LINE
  5
50C
100
AcDbEntity
  8
0
100
AcDbLine
 62
7
  6
CONTINUOUS
 10
261.2481123987
 20
151.2079204056
 11
260.8731123987
 21
151.7185586426
  0
LINE
  5
50D
100
AcDbEntity
  8
0
100
AcDbLine
 62
7
  6
CONTINUOUS
 10
249.9971863101
 20
141.4100480411
 11
249.9340386846
 21
141.6334522698
  0
LINE
  5
50E
100
AcDbEntity
  8
0
100
AcDbLine
 62
7
  6
CONTINUOUS
 10
250.2471863101
 20
141.4100480411
 11
250.1840386846
 21
141.6334522698
  0
LINE
  5
50F
100
AcDbEntity
  8
0
100
AcDbLine
 62
7
  6
CONTINUOUS
 10
247.8501650568
 20
139.6972819749
 11
247.9133127443
 21
139.39940967
  0
LINE
  5
510
100
AcDbEntity
  8
0
100
AcDbLine
 62
7
  6
CONTINUOUS
 10
248.0396081138
 20
141.1121755276
 11
248.1027558071
 21
140.8143032226
  0
LINE
  5
511
100
AcDbEntity
  8
0
100
AcDbLine
 62
7
  6
CONTINUOUS
 10
243.3731123987
 20
175.3586574786
 11
243.3731123987
 21
144.7291968796
  0
LINE
  5
512
100
AcDbEntity
  8
KONSTRUKTIONSELEMENTE
100
AcDbLine
 62
7
  6
CONTINUOUS
 10
243.7859438246
 20
135.7291968796
 11
243.7859438246
 21
144.7291968796
  0
LINE
  5
513
100
AcDbEntity
  8
0
100
AcDbLine
 62
7
  6
CONTINUOUS
 10
245.0788837647
 20
143.4836465107
 11
245.0788837647
 21
137.7291968796
  0
LINE
  5
514
100
AcDbEntity
  8
0
100
AcDbLine
 62
7
  6
CONTINUOUS
 10
245.3288837647
 20
143.4836465107
 11
245.3288837647
 21
137.7291968796
  0
LINE
  5
515
100
AcDbEntity
  8
RUNDUNGEN
100
AcDbLine
 62
7
  6
CONTINUOUS
 10
247.1431123987
 20
194.4533988613
 11
247.1431123987
 21
183.0942603891
  0
LINE
  5
516
100
AcDbEntity
  8
0
100
AcDbLine
 62
7
  6
CONTINUOUS
 10
248.0396081138
 20
141.4100480411
 11
248.0396081138
 21
141.1121755276
  0
LINE
  5
517
100
AcDbEntity
  8
RUNDUNGEN
100
AcDbLine
 62
7
  6
CONTINUOUS
 10
248.4744372642
 20
197.4291968798
 11
247.4780488892
 21
195.7034015903
  0
LINE
  5
518
100
AcDbEntity
  8
0
100
AcDbLine
 62
7
  6
CONTINUOUS
 10
270.2481119219
 20
158.0802608464
 11
269.8731119219
 21
158.3355799649
  0
LINE
  5
519
100
AcDbEntity
  8
0
100
AcDbLine
 62
7
  6
CONTINUOUS
 10
277.723872666
 20
140.4313245449
 11
277.4803030212
 21
140.7185585532
  0
LINE
  5
51A
100
AcDbEntity
  8
0
100
AcDbLine
 62
7
  6
CONTINUOUS
 10
277.973872666
 20
140.4313245449
 11
277.7303030212
 21
140.7185585532
  0
LINE
  5
51B
100
AcDbEntity
  8
0
100
AcDbLine
 62
7
  6
CONTINUOUS
 10
277.4867333764
 20
140.3355798755
 11
277.6491125202
 21
140.1440905366
  0
LINE
  5
51C
100
AcDbEntity
  8
0
100
AcDbLine
 62
7
  6
CONTINUOUS
 10
259.6231123987
 20
158.2079204056
 11
259.2481123987
 21
158.7185586426
  0
LINE
  5
51D
100
AcDbEntity
  8
0
100
AcDbLine
 62
7
  6
CONTINUOUS
 10
270.6231123987
 20
146.7398351613
 11
270.2481123987
 21
147.250473443
  0
LINE
  5
51E
100
AcDbEntity
  8
0
100
AcDbLine
 62
7
  6
CONTINUOUS
 10
261.9981126371
 20
154.3781330917
 11
261.7481121603
 21
154.7611117694
  0
LINE
  5
51F
100
AcDbEntity
  8
0
100
AcDbLine
 62
7
  6
CONTINUOUS
 10
275.4569861814
 20
138.9951543022
 11
275.7005558262
 21
138.6121755909
  0
LINE
  5
520
100
AcDbEntity
  8
0
100
AcDbLine
 62
7
  6
CONTINUOUS
 10
261.2481126371
 20
154.1228138838
 11
260.9981125179
 21
154.6334522102
  0
LINE
  5
521
100
AcDbEntity
  8
0
100
AcDbLine
 62
7
  6
CONTINUOUS
 10
259.8731125179
 20
153.2291968796
 11
258.7481125179
 21
156.1653671
  0
LINE
  5
522
100
AcDbEntity
  8
0
100
AcDbLine
 62
7
  6
CONTINUOUS
 10
258.9981122795
 20
153.2291968796
 11
257.9981123391
 21
155.9100479815
  0
LINE
  5
523
100
AcDbEntity
  8
0
100
AcDbLine
 62
7
  6
CONTINUOUS
 10
254.9981122795
 20
150.8249417279
 11
254.8731123987
 21
151.2079204056
  0
LINE
  5
524
100
AcDbEntity
  8
0
100
AcDbLine
 62
7
  6
CONTINUOUS
 10
255.7481122795
 20
150.8249417279
 11
255.6231123987
 21
151.2079204056
  0
LINE
  5
525
100
AcDbEntity
  8
0
100
AcDbLine
 62
7
  6
CONTINUOUS
 10
252.9651275979
 20
139.5483458224
 11
252.4599462328
 21
142.2291968796
  0
LINE
  5
526
100
AcDbEntity
  8
0
100
AcDbLine
 62
7
  6
CONTINUOUS
 10
253.0722704696
 20
140.3064471892
 11
252.7099462328
 21
142.2291968796
  0
LINE
  5
527
100
AcDbEntity
  8
0
100
AcDbLine
 62
7
  6
CONTINUOUS
 10
252.2073553696
 20
141.5589841936
 11
252.7125367346
 21
138.7291968796
  0
LINE
  5
528
100
AcDbEntity
  8
0
100
AcDbLine
 62
7
  6
CONTINUOUS
 10
250.6918109129
 20
142.2291968796
 11
251.196992278
 21
138.7291968796
  0
LINE
  5
529
100
AcDbEntity
  8
0
100
AcDbLine
 62
7
  6
CONTINUOUS
 10
251.4495831412
 20
139.5483458224
 11
251.0706970271
 21
142.2291968796
  0
LINE
  5
52A
100
AcDbEntity
  8
0
100
AcDbLine
 62
7
  6
CONTINUOUS
 10
251.5924402695
 20
140.3064471892
 11
251.3206970271
 21
142.2291968796
  0
LINE
  5
52B
100
AcDbEntity
  8
0
100
AcDbLine
 62
7
  6
CONTINUOUS
 10
248.418494228
 20
141.1866436038
 11
248.418494228
 21
141.3355797562
  0
LINE
  5
52C
100
AcDbEntity
  8
0
100
AcDbLine
 62
7
  6
CONTINUOUS
 10
248.668494228
 20
141.1866436038
 11
248.668494228
 21
141.3355797562
  0
LINE
  5
52D
100
AcDbEntity
  8
0
100
AcDbLine
 62
7
  6
CONTINUOUS
 10
249.807743253
 20
139.8462181274
 11
249.807743253
 21
139.6228138987
  0
LINE
  5
52E
100
AcDbEntity
  8
0
100
AcDbLine
 62
7
  6
CONTINUOUS
 10
250.1866293672
 20
139.5483458224
 11
250.1866293672
 21
139.9206862036
  0
LINE
  5
52F
100
AcDbEntity
  8
0
100
AcDbLine
 62
7
  6
CONTINUOUS
 10
250.4366293672
 20
139.5483458224
 11
250.4366293672
 21
139.9206862036
  0
LINE
  5
530
100
AcDbEntity
  8
0
100
AcDbLine
 62
7
  6
CONTINUOUS
 10
251.1231123987
 20
152.2291968796
 11
251.1231123987
 21
146.2291968796
  0
LINE
  5
531
100
AcDbEntity
  8
0
100
AcDbLine
 62
7
  6
CONTINUOUS
 10
251.8731123987
 20
151.5908990834
 11
251.8731123987
 21
149.676005337
  0
LINE
  5
532
100
AcDbEntity
  8
0
100
AcDbLine
 62
7
  6
CONTINUOUS
 10
251.8731123987
 20
148.9100479815
 11
251.8731123987
 21
146.2291968796
  0
LINE
  5
533
100
AcDbEntity
  8
RUNDUNGEN
100
AcDbLine
 62
7
  6
CONTINUOUS
 10
246.674201312
 20
181.3442603891
 11
243.5070869949
 21
175.8586574786
  0
LINE
  5
534
100
AcDbEntity
  8
0
100
AcDbLine
 62
7
  6
CONTINUOUS
 10
270.9981119219
 20
158.3355799649
 11
270.4981123987
 21
158.8462182019
  0
LINE
  5
535
100
AcDbEntity
  8
0
100
AcDbLine
 62
7
  6
CONTINUOUS
 10
274.2481128755
 20
149.0377075407
 11
273.8731128755
 21
149.5483457777
  0
LINE
  5
536
100
AcDbEntity
  8
0
100
AcDbLine
 62
7
  6
CONTINUOUS
 10
273.7481119219
 20
148.654728863
 11
273.4981128755
 21
149.0377075407
  0
LINE
  5
537
100
AcDbEntity
  8
0
100
AcDbLine
 62
7
  6
CONTINUOUS
 10
277.642682165
 20
141.9632395241
 11
277.3991125202
 21
142.3462182019
  0
LINE
  5
538
100
AcDbEntity
  8
0
100
AcDbLine
 62
7
  6
CONTINUOUS
 10
277.892682165
 20
141.9632395241
 11
277.6491125202
 21
142.3462182019
  0
LINE
  5
539
100
AcDbEntity
  8
0
100
AcDbLine
 62
7
  6
CONTINUOUS
 10
275.6941254711
 20
138.9951543022
 11
275.5317453981
 21
139.2823883775
  0
LINE
  5
53A
100
AcDbEntity
  8
0
100
AcDbLine
 62
7
  6
CONTINUOUS
 10
275.9441254711
 20
138.9951543022
 11
275.7817453981
 21
139.2823883775
  0
LINE
  5
53B
100
AcDbEntity
  8
0
100
AcDbLine
 62
7
  6
CONTINUOUS
 10
270.2481123987
 20
147.250473443
 11
269.9981119219
 21
147.7611117694
  0
LINE
  5
53C
100
AcDbEntity
  8
0
100
AcDbLine
 62
7
  6
CONTINUOUS
 10
270.9981123987
 20
147.250473443
 11
270.7481119219
 21
147.7611117694
  0
LINE
  5
53D
100
AcDbEntity
  8
0
100
AcDbLine
 62
7
  6
CONTINUOUS
 10
260.6231126371
 20
150.8249417279
 11
260.4981123987
 21
151.2079204056
  0
LINE
  5
53E
100
AcDbEntity
  8
0
100
AcDbLine
 62
7
  6
CONTINUOUS
 10
258.9981122795
 20
157.8249417279
 11
258.8731123987
 21
158.2079204056
  0
LINE
  5
53F
100
AcDbEntity
  8
0
100
AcDbLine
 62
7
  6
CONTINUOUS
 10
261.3731126371
 20
150.8249417279
 11
261.2481123987
 21
151.2079204056
  0
LINE
  5
540
100
AcDbEntity
  8
0
100
AcDbLine
 62
7
  6
CONTINUOUS
 10
259.7481122795
 20
157.8249417279
 11
259.6231123987
 21
158.2079204056
  0
LINE
  5
541
100
AcDbEntity
  8
0
100
AcDbLine
 62
7
  6
CONTINUOUS
 10
254.2280815526
 20
140.2185586128
 11
254.2280815526
 21
139.7717500511
  0
LINE
  5
542
100
AcDbEntity
  8
0
100
AcDbLine
 62
7
  6
CONTINUOUS
 10
254.9981122795
 20
150.8249417279
 11
254.9981122795
 21
150.4419626925
  0
LINE
  5
543
100
AcDbEntity
  8
0
100
AcDbLine
 62
7
  6
CONTINUOUS
 10
255.1231123987
 20
159.2291968796
 11
255.1231123987
 21
153.2291968796
  0
LINE
  5
544
100
AcDbEntity
  8
0
100
AcDbLine
 62
7
  6
CONTINUOUS
 10
255.1231123987
 20
135.7291968796
 11
255.1231123987
 21
112.2291968796
  0
LINE
  5
545
100
AcDbEntity
  8
0
100
AcDbLine
 62
7
  6
CONTINUOUS
 10
255.7436260092
 20
141.6334522698
 11
255.7436260092
 21
140.2185586128
  0
LINE
  5
546
100
AcDbEntity
  8
0
100
AcDbLine
 62
7
  6
CONTINUOUS
 10
255.7436260092
 20
139.7717500511
 11
255.7436260092
 21
138.7291968796
  0
LINE
  5
547
100
AcDbEntity
  8
0
100
AcDbLine
 62
7
  6
CONTINUOUS
 10
255.7481122795
 20
150.8249417279
 11
255.7481122795
 21
150.3143031332
  0
LINE
  5
548
100
AcDbEntity
  8
0
100
AcDbLine
 62
7
  6
CONTINUOUS
 10
255.8731123987
 20
158.5908990834
 11
255.8731123987
 21
156.676005337
  0
LINE
  5
549
100
AcDbEntity
  8
0
100
AcDbLine
 62
7
  6
CONTINUOUS
 10
255.8731123987
 20
155.9100479815
 11
255.8731123987
 21
153.2291968796
  0
LINE
  5
54A
100
AcDbEntity
  8
0
100
AcDbLine
 62
7
  6
CONTINUOUS
 10
256.1225121234
 20
138.7291968796
 11
256.1225121234
 21
139.7717500511
  0
LINE
  5
54B
100
AcDbEntity
  8
0
100
AcDbLine
 62
7
  6
CONTINUOUS
 10
256.1225121234
 20
140.2185586128
 11
256.1225121234
 21
142.2291968796
  0
LINE
  5
54C
100
AcDbEntity
  8
0
100
AcDbLine
 62
7
  6
CONTINUOUS
 10
256.3725121234
 20
138.7291968796
 11
256.3725121234
 21
139.7717500511
  0
LINE
  5
54D
100
AcDbEntity
  8
0
100
AcDbLine
 62
7
  6
CONTINUOUS
 10
256.3725121234
 20
140.2185586128
 11
256.3725121234
 21
142.2291968796
  0
LINE
  5
54E
100
AcDbEntity
  8
0
100
AcDbLine
 62
7
  6
CONTINUOUS
 10
256.7481123987
 20
152.2291968796
 11
256.7481123987
 21
146.2291968796
  0
LINE
  5
54F
100
AcDbEntity
  8
0
100
AcDbLine
 62
7
  6
CONTINUOUS
 10
256.7539887394
 20
139.7717500511
 11
256.7539887394
 21
140.2185586128
  0
LINE
  5
550
100
AcDbEntity
  8
0
100
AcDbLine
 62
7
  6
CONTINUOUS
 10
257.0039887394
 20
139.7717500511
 11
257.0039887394
 21
140.2185586128
  0
LINE
  5
551
100
AcDbEntity
  8
0
100
AcDbLine
 62
7
  6
CONTINUOUS
 10
257.2591704658
 20
141.707920346
 11
257.2591704658
 21
141.1121755276
  0
LINE
  5
552
100
AcDbEntity
  8
0
100
AcDbLine
 62
7
  6
CONTINUOUS
 10
257.4981123987
 20
151.5908990834
 11
257.4981123987
 21
149.676005337
  0
LINE
  5
553
100
AcDbEntity
  8
0
100
AcDbLine
 62
7
  6
CONTINUOUS
 10
257.4981123987
 20
148.9100479815
 11
257.4981123987
 21
146.2291968796
  0
LINE
  5
554
100
AcDbEntity
  8
KONSTRUKTIONSELEMENTE
100
AcDbLine
 62
7
  6
CONTINUOUS
 10
257.6231123987
 20
255.1821848294
 11
257.6231123987
 21
237.5497182726
  0
LINE
  5
555
100
AcDbEntity
  8
KONSTRUKTIONSELEMENTE
100
AcDbLine
 62
7
  6
CONTINUOUS
 10
257.6231123987
 20
196.9087911057
 11
257.6231123987
 21
179.2291968796
  0
LINE
  5
556
100
AcDbEntity
  8
0
100
AcDbLine
 62
7
  6
CONTINUOUS
 10
257.63805658
 20
141.6334522698
 11
257.63805658
 21
138.7291968796
  0
LINE
  5
557
100
AcDbEntity
  8
0
100
AcDbLine
 62
7
  6
CONTINUOUS
 10
258.0169426942
 20
138.7291968796
 11
258.0169426942
 21
142.2291968796
  0
LINE
  5
558
100
AcDbEntity
  8
0
100
AcDbLine
 62
7
  6
CONTINUOUS
 10
258.2669426942
 20
138.7291968796
 11
258.2669426942
 21
142.2291968796
  0
LINE
  5
559
100
AcDbEntity
  8
0
100
AcDbLine
 62
7
  6
CONTINUOUS
 10
248.1027558071
 20
141.707920346
 11
248.0396081138
 21
141.4100480411
  0
LINE
  5
55A
100
AcDbEntity
  8
KONSTRUKTIONSELEMENTE
100
AcDbLine
 62
7
  6
CONTINUOUS
 10
257.6230361786
 20
196.8987854033
 11
260.1231123987
 21
206.2291968796
  0
LINE
  5
55B
100
AcDbEntity
  8
KONSTRUKTIONSELEMENTE
100
AcDbLine
 62
7
  6
CONTINUOUS
 10
268.6231874195
 20
237.5596038799
 11
266.1231123987
 21
228.2291968796
  0
LINE
  5
55C
100
AcDbEntity
  8
0
100
AcDbLine
 62
7
  6
CONTINUOUS
 10
270.4981123987
 20
157.697281811
 11
270.2481119219
 21
158.0802608464
  0
LINE
  5
55D
100
AcDbEntity
  8
0
100
AcDbLine
 62
7
  6
CONTINUOUS
 10
277.4055428754
 20
141.9632395241
 11
277.5679229483
 21
141.6760055158
  0
LINE
  5
55E
100
AcDbEntity
  8
0
100
AcDbLine
 62
7
  6
CONTINUOUS
 10
271.2481123987
 20
157.8249417279
 11
270.9981119219
 21
158.3355799649
  0
LINE
  5
55F
100
AcDbEntity
  8
0
100
AcDbLine
 62
7
  6
CONTINUOUS
 10
276.7481133524
 20
146.7398351613
 11
276.498111445
 21
147.250473443
  0
LINE
  5
560
100
AcDbEntity
  8
0
100
AcDbLine
 62
7
  6
CONTINUOUS
 10
269.5301246694
 20
141.7717501852
 11
270.6667829732
 21
138.2291968796
  0
LINE
  5
561
100
AcDbEntity
  8
0
100
AcDbLine
 62
7
  6
CONTINUOUS
 10
270.7415425383
 20
138.7079202939
 11
269.5236943142
 21
142.7291968796
  0
LINE
  5
562
100
AcDbEntity
  8
0
100
AcDbLine
 62
7
  6
CONTINUOUS
 10
270.9915425383
 20
138.7079202939
 11
269.7736943142
 21
142.7291968796
  0
LINE
  5
563
100
AcDbEntity
  8
0
100
AcDbLine
 62
7
  6
CONTINUOUS
 10
261.7481121603
 20
154.7611117694
 11
261.6231126371
 21
155.2717500064
  0
LINE
  5
564
100
AcDbEntity
  8
0
100
AcDbLine
 62
7
  6
CONTINUOUS
 10
260.9981125179
 20
154.6334522102
 11
260.8731122795
 21
155.2717500064
  0
LINE
  5
565
100
AcDbEntity
  8
0
100
AcDbLine
 62
7
  6
CONTINUOUS
 10
258.9981122795
 20
157.8249417279
 11
258.9981122795
 21
157.4419626925
  0
LINE
  5
566
100
AcDbEntity
  8
0
100
AcDbLine
 62
7
  6
CONTINUOUS
 10
259.7481122795
 20
157.8249417279
 11
259.7481122795
 21
157.3143031332
  0
LINE
  5
567
100
AcDbEntity
  8
KONSTRUKTIONSELEMENTE
100
AcDbLine
 62
7
  6
CONTINUOUS
 10
260.1231123987
 20
228.2291968796
 11
260.1231123987
 21
206.2291968796
  0
LINE
  5
568
100
AcDbEntity
  8
0
100
AcDbLine
 62
7
  6
CONTINUOUS
 10
260.6231126371
 20
150.8249417279
 11
260.6231126371
 21
150.4419626925
  0
LINE
  5
569
100
AcDbEntity
  8
0
100
AcDbLine
 62
7
  6
CONTINUOUS
 10
260.6673410328
 20
137.7291968796
 11
260.6673410328
 21
143.4836465107
  0
LINE
  5
56A
100
AcDbEntity
  8
0
100
AcDbLine
 62
7
  6
CONTINUOUS
 10
260.8731122795
 20
159.2291968796
 11
260.8731122795
 21
155.2717500064
  0
LINE
  5
56B
100
AcDbEntity
  8
0
100
AcDbLine
 62
7
  6
CONTINUOUS
 10
261.3731126371
 20
150.8249417279
 11
261.3731126371
 21
150.3143031332
  0
LINE
  5
56C
100
AcDbEntity
  8
0
100
AcDbLine
 62
7
  6
CONTINUOUS
 10
261.6231126371
 20
159.2291968796
 11
261.6231126371
 21
155.2717500064
  0
LINE
  5
56D
100
AcDbEntity
  8
KONSTRUKTIONSELEMENTE
100
AcDbLine
 62
7
  6
CONTINUOUS
 10
261.9602809728
 20
135.7291968796
 11
261.9602809728
 21
144.7291968796
  0
LINE
  5
56E
100
AcDbEntity
  8
0
100
AcDbLine
 62
7
  6
CONTINUOUS
 10
262.3731123987
 20
149.0377075407
 11
262.3731123987
 21
148.3994095657
  0
LINE
  5
56F
100
AcDbEntity
  8
0
100
AcDbLine
 62
7
  6
CONTINUOUS
 10
253.344013712
 20
142.2291968796
 11
252.9651275979
 21
139.5483458224
  0
LINE
  5
570
100
AcDbEntity
  8
0
100
AcDbLine
 62
7
  6
CONTINUOUS
 10
253.2177184611
 20
138.7291968796
 11
253.7228998262
 21
142.2291968796
  0
LINE
  5
571
100
AcDbEntity
  8
0
100
AcDbLine
 62
7
  6
CONTINUOUS
 10
253.4677184611
 20
138.7291968796
 11
253.9728998262
 21
142.2291968796
  0
LINE
  5
572
100
AcDbEntity
  8
0
100
AcDbLine
 62
7
  6
CONTINUOUS
 10
251.7021740045
 20
138.7291968796
 11
252.2073553696
 21
141.5589841936
  0
LINE
  5
573
100
AcDbEntity
  8
0
100
AcDbLine
 62
7
  6
CONTINUOUS
 10
251.9521740045
 20
138.7291968796
 11
252.3323553696
 21
140.8587932548
  0
LINE
  5
574
100
AcDbEntity
  8
0
100
AcDbLine
 62
7
  6
CONTINUOUS
 10
251.9547645063
 20
142.2291968796
 11
251.4495831412
 21
139.5483458224
  0
LINE
  5
575
100
AcDbEntity
  8
0
100
AcDbLine
 62
7
  6
CONTINUOUS
 10
248.418494228
 20
141.3355797562
 11
248.4816418986
 21
141.5589841936
  0
LINE
  5
576
100
AcDbEntity
  8
0
100
AcDbLine
 62
7
  6
CONTINUOUS
 10
248.668494228
 20
141.3355797562
 11
248.7316418986
 21
141.5589841936
  0
LINE
  5
577
100
AcDbEntity
  8
RUNDUNGEN
100
AcDbLine
 62
7
  6
CONTINUOUS
 10
257.6231123987
 20
180.776640447
 11
257.1780682645
 21
180.2823688619
  0
LINE
  5
578
100
AcDbEntity
  8
RUNDUNGEN
100
AcDbLine
 62
7
  6
CONTINUOUS
 10
269.068137765
 20
180.2823897057
 11
268.6231123987
 21
180.776640447
  0
LINE
  5
579
100
AcDbEntity
  8
0
100
AcDbLine
 62
7
  6
CONTINUOUS
 10
274.4981119219
 20
148.3994095657
 11
274.2481128755
 21
149.0377075407
  0
LINE
  5
57A
100
AcDbEntity
  8
0
100
AcDbLine
 62
7
  6
CONTINUOUS
 10
275.2946061085
 20
139.4738777164
 11
275.4569861814
 21
138.9951543022
  0
LINE
  5
57B
100
AcDbEntity
  8
0
100
AcDbLine
 62
7
  6
CONTINUOUS
 10
277.8862518098
 20
139.9526011977
 11
277.723872666
 21
140.4313245449
  0
LINE
  5
57C
100
AcDbEntity
  8
0
100
AcDbLine
 62
7
  6
CONTINUOUS
 10
278.1362518098
 20
139.9526011977
 11
277.973872666
 21
140.4313245449
  0
LINE
  5
57D
100
AcDbEntity
  8
0
100
AcDbLine
 62
7
  6
CONTINUOUS
 10
273.8731128755
 20
148.2717500064
 11
273.7481119219
 21
148.654728863
  0
LINE
  5
57E
100
AcDbEntity
  8
0
100
AcDbLine
 62
7
  6
CONTINUOUS
 10
275.5317453981
 20
139.2823883775
 11
275.4505558262
 21
139.5696223858
  0
LINE
  5
57F
100
AcDbEntity
  8
0
100
AcDbLine
 62
7
  6
CONTINUOUS
 10
275.7817453981
 20
139.2823883775
 11
275.7005558262
 21
139.5696223858
  0
LINE
  5
580
100
AcDbEntity
  8
0
100
AcDbLine
 62
7
  6
CONTINUOUS
 10
270.6231119219
 20
157.186643574
 11
270.4981123987
 21
157.697281811
  0
LINE
  5
581
100
AcDbEntity
  8
0
100
AcDbLine
 62
7
  6
CONTINUOUS
 10
264.1231128755
 20
149.0377075407
 11
264.1231128755
 21
148.3994095657
  0
LINE
  5
582
100
AcDbEntity
  8
KONSTRUKTIONSELEMENTE
100
AcDbLine
 62
7
  6
CONTINUOUS
 10
264.2859438246
 20
135.7291968796
 11
264.2859438246
 21
144.7291968796
  0
LINE
  5
583
100
AcDbEntity
  8
0
100
AcDbLine
 62
7
  6
CONTINUOUS
 10
264.6231126371
 20
159.2291968796
 11
264.6231126371
 21
155.2717500064
  0
LINE
  5
584
100
AcDbEntity
  8
0
100
AcDbLine
 62
7
  6
CONTINUOUS
 10
265.1231119219
 20
150.3143031332
 11
265.1231119219
 21
151.3355799649
  0
LINE
  5
585
100
AcDbEntity
  8
0
100
AcDbLine
 62
7
  6
CONTINUOUS
 10
265.3731126371
 20
159.2291968796
 11
265.3731126371
 21
155.2717500064
  0
LINE
  5
586
100
AcDbEntity
  8
0
100
AcDbLine
 62
7
  6
CONTINUOUS
 10
265.8731119219
 20
146.2291968796
 11
265.8731119219
 21
151.2079204056
  0
LINE
  5
587
100
AcDbEntity
  8
KONSTRUKTIONSELEMENTE
100
AcDbLine
 62
7
  6
CONTINUOUS
 10
266.1231123987
 20
228.2291968796
 11
266.1231123987
 21
206.2291968796
  0
LINE
  5
588
100
AcDbEntity
  8
0
100
AcDbLine
 62
7
  6
CONTINUOUS
 10
266.3731123987
 20
159.2291968796
 11
266.3731123987
 21
153.2291968796
  0
LINE
  5
589
100
AcDbEntity
  8
0
100
AcDbLine
 62
7
  6
CONTINUOUS
 10
266.6231119219
 20
152.2291968796
 11
266.6231119219
 21
146.2291968796
  0
LINE
  5
58A
100
AcDbEntity
  8
0
100
AcDbLine
 62
7
  6
CONTINUOUS
 10
266.6231123987
 20
226.1791968796
 11
266.6231123987
 21
221.1791968796
  0
LINE
  5
58B
100
AcDbEntity
  8
0
100
AcDbLine
 62
7
  6
CONTINUOUS
 10
266.6231123987
 20
220.1791968796
 11
266.6231123987
 21
215.1791968796
  0
LINE
  5
58C
100
AcDbEntity
  8
0
100
AcDbLine
 62
7
  6
CONTINUOUS
 10
266.6231123987
 20
214.1791968796
 11
266.6231123987
 21
209.1791968796
  0
LINE
  5
58D
100
AcDbEntity
  8
0
100
AcDbLine
 62
7
  6
CONTINUOUS
 10
267.1231123987
 20
158.4632395241
 11
267.1231123987
 21
153.9951543245
  0
LINE
  5
58E
100
AcDbEntity
  8
KONSTRUKTIONSELEMENTE
100
AcDbLine
 62
7
  6
CONTINUOUS
 10
268.6231123987
 20
250.3329992899
 11
268.6231123987
 21
237.5505179668
  0
LINE
  5
58F
100
AcDbEntity
  8
KONSTRUKTIONSELEMENTE
100
AcDbLine
 62
7
  6
CONTINUOUS
 10
268.6231123987
 20
196.9086657574
 11
268.6231123987
 21
179.2291968796
  0
LINE
  5
590
100
AcDbEntity
  8
0
100
AcDbLine
 62
7
  6
CONTINUOUS
 10
254.9981122795
 20
150.4419626925
 11
254.8731123987
 21
150.0589840147
  0
LINE
  5
591
100
AcDbEntity
  8
0
100
AcDbLine
 62
7
  6
CONTINUOUS
 10
255.7481122795
 20
150.3143031332
 11
255.6231123987
 21
149.9313244555
  0
LINE
  5
592
100
AcDbEntity
  8
0
100
AcDbLine
 62
7
  6
CONTINUOUS
 10
258.9981122795
 20
157.4419626925
 11
258.8731123987
 21
157.0589840147
  0
LINE
  5
593
100
AcDbEntity
  8
0
100
AcDbLine
 62
7
  6
CONTINUOUS
 10
259.7481122795
 20
157.3143031332
 11
259.6231123987
 21
156.9313244555
  0
LINE
  5
594
100
AcDbEntity
  8
0
100
AcDbLine
 62
7
  6
CONTINUOUS
 10
277.248111445
 20
147.1228138838
 11
277.1231133524
 21
147.5057926509
  0
LINE
  5
595
100
AcDbEntity
  8
0
100
AcDbLine
 62
7
  6
CONTINUOUS
 10
277.6491125202
 20
140.1440905366
 11
277.7303030212
 21
139.8568563942
  0
LINE
  5
596
100
AcDbEntity
  8
0
100
AcDbLine
 62
7
  6
CONTINUOUS
 10
277.723872666
 20
141.6760055158
 11
277.642682165
 21
141.9632395241
  0
LINE
  5
597
100
AcDbEntity
  8
0
100
AcDbLine
 62
7
  6
CONTINUOUS
 10
277.973872666
 20
141.6760055158
 11
277.892682165
 21
141.9632395241
  0
LINE
  5
598
100
AcDbEntity
  8
0
100
AcDbLine
 62
7
  6
CONTINUOUS
 10
271.3731119219
 20
157.186643574
 11
271.2481123987
 21
157.8249417279
  0
LINE
  5
599
100
AcDbEntity
  8
0
100
AcDbLine
 62
7
  6
CONTINUOUS
 10
269.0429853798
 20
142.7291968796
 11
269.0429853798
 21
138.2291968796
  0
LINE
  5
59A
100
AcDbEntity
  8
0
100
AcDbLine
 62
7
  6
CONTINUOUS
 10
269.1231123987
 20
257.3446040181
 11
269.1231123987
 21
248.8734881985
  0
LINE
  5
59B
100
AcDbEntity
  8
0
100
AcDbLine
 62
7
  6
CONTINUOUS
 10
269.2801246694
 20
138.2291968796
 11
269.2801246694
 21
141.7717501852
  0
LINE
  5
59C
100
AcDbEntity
  8
0
100
AcDbLine
 62
7
  6
CONTINUOUS
 10
269.5301246694
 20
138.2291968796
 11
269.5301246694
 21
141.7717501852
  0
LINE
  5
59D
100
AcDbEntity
  8
0
100
AcDbLine
 62
7
  6
CONTINUOUS
 10
269.9981119219
 20
152.2291968796
 11
269.9981119219
 21
148.9100479815
  0
LINE
  5
59E
100
AcDbEntity
  8
0
100
AcDbLine
 62
7
  6
CONTINUOUS
 10
270.6231119219
 20
157.186643574
 11
270.6231119219
 21
155.2717500064
  0
LINE
  5
59F
100
AcDbEntity
  8
0
100
AcDbLine
 62
7
  6
CONTINUOUS
 10
270.6231123987
 20
151.5908990834
 11
270.6231123987
 21
149.5483457777
  0
LINE
  5
5A0
100
AcDbEntity
  8
0
100
AcDbLine
 62
7
  6
CONTINUOUS
 10
271.1231123987
 20
135.7291968796
 11
271.1231123987
 21
112.2291968796
  0
LINE
  5
5A1
100
AcDbEntity
  8
0
100
AcDbLine
 62
7
  6
CONTINUOUS
 10
271.3731119219
 20
157.186643574
 11
271.3731119219
 21
155.2717500064
  0
LINE
  5
5A2
100
AcDbEntity
  8
0
100
AcDbLine
 62
7
  6
CONTINUOUS
 10
272.4529604072
 20
141.7717501852
 11
272.4529604072
 21
138.2291968796
  0
LINE
  5
5A3
100
AcDbEntity
  8
0
100
AcDbLine
 62
7
  6
CONTINUOUS
 10
272.6900996968
 20
138.2291968796
 11
272.6900996968
 21
142.7291968796
  0
LINE
  5
5A4
100
AcDbEntity
  8
0
100
AcDbLine
 62
7
  6
CONTINUOUS
 10
272.9400996968
 20
138.2291968796
 11
272.9400996968
 21
142.7291968796
  0
LINE
  5
5A5
100
AcDbEntity
  8
0
100
AcDbLine
 62
7
  6
CONTINUOUS
 10
273.5896185948
 20
142.0589841936
 11
273.5896185948
 21
141.2930265698
  0
LINE
  5
5A6
100
AcDbEntity
  8
0
100
AcDbLine
 62
7
  6
CONTINUOUS
 10
273.8731128755
 20
148.2717500064
 11
273.8731128755
 21
148.0164308879
  0
LINE
  5
5A7
100
AcDbEntity
  8
0
100
AcDbLine
 62
7
  6
CONTINUOUS
 10
274.0767578844
 20
141.9632395241
 11
274.0767578844
 21
138.2291968796
  0
LINE
  5
5A8
100
AcDbEntity
  8
0
100
AcDbLine
 62
7
  6
CONTINUOUS
 10
265.3731126371
 20
155.2717500064
 11
265.2481123987
 21
154.6334522102
  0
LINE
  5
5A9
100
AcDbEntity
  8
0
100
AcDbLine
 62
7
  6
CONTINUOUS
 10
264.6231126371
 20
155.2717500064
 11
264.4981123987
 21
154.7611117694
  0
LINE
  5
5AA
100
AcDbEntity
  8
0
100
AcDbLine
 62
7
  6
CONTINUOUS
 10
260.6231126371
 20
150.4419626925
 11
260.4981123987
 21
150.0589840147
  0
LINE
  5
5AB
100
AcDbEntity
  8
0
100
AcDbLine
 62
7
  6
CONTINUOUS
 10
261.3731126371
 20
150.3143031332
 11
261.2481123987
 21
149.9313244555
  0
LINE
  5
5AC
100
AcDbEntity
  8
0
100
AcDbLine
 62
7
  6
CONTINUOUS
 10
250.0603341162
 20
139.2504734654
 11
250.1866293672
 21
139.5483458224
  0
LINE
  5
5AD
100
AcDbEntity
  8
0
100
AcDbLine
 62
7
  6
CONTINUOUS
 10
250.3103341162
 20
139.2504734654
 11
250.4366293672
 21
139.5483458224
  0
LINE
  5
5AE
100
AcDbEntity
  8
RUNDUNGEN
100
AcDbLine
 62
7
  6
CONTINUOUS
 10
282.7391378025
 20
174.1612476872
 11
278.5920234855
 21
181.3442603891
  0
LINE
  5
5AF
100
AcDbEntity
  8
KONSTRUKTIONSELEMENTE
100
AcDbLine
 62
7
  6
CONTINUOUS
 10
260.1231123987
 20
228.2291968796
 11
257.623039587
 21
237.5595956354
  0
LINE
  5
5B0
100
AcDbEntity
  8
KONSTRUKTIONSELEMENTE
100
AcDbLine
 62
7
  6
CONTINUOUS
 10
266.1231123987
 20
206.2291968796
 11
268.6231850887
 21
196.8987985781
  0
LINE
  5
5B1
100
AcDbEntity
  8
0
100
AcDbLine
 62
7
  6
CONTINUOUS
 10
275.2134165366
 20
140.1440905366
 11
275.2946061085
 21
139.4738777164
  0
LINE
  5
5B2
100
AcDbEntity
  8
0
100
AcDbLine
 62
7
  6
CONTINUOUS
 10
274.2481128755
 20
152.2291968796
 11
274.2481128755
 21
151.5908990834
  0
LINE
  5
5B3
100
AcDbEntity
  8
0
100
AcDbLine
 62
7
  6
CONTINUOUS
 10
274.3138971741
 20
138.2291968796
 11
274.3138971741
 21
142.7291968796
  0
LINE
  5
5B4
100
AcDbEntity
  8
0
100
AcDbLine
 62
7
  6
CONTINUOUS
 10
274.4981119219
 20
148.3994095657
 11
274.4981119219
 21
147.8887713287
  0
LINE
  5
5B5
100
AcDbEntity
  8
0
100
AcDbLine
 62
7
  6
CONTINUOUS
 10
274.5638971741
 20
138.2291968796
 11
274.5638971741
 21
142.7291968796
  0
LINE
  5
5B6
100
AcDbEntity
  8
0
100
AcDbLine
 62
7
  6
CONTINUOUS
 10
275.2134165366
 20
140.8143032226
 11
275.2134165366
 21
140.1440905366
  0
LINE
  5
5B7
100
AcDbEntity
  8
0
100
AcDbLine
 62
7
  6
CONTINUOUS
 10
275.3693657898
 20
140.6228138838
 11
275.3693657898
 21
140.8143032226
  0
LINE
  5
5B8
100
AcDbEntity
  8
0
100
AcDbLine
 62
7
  6
CONTINUOUS
 10
275.4505558262
 20
139.5696223858
 11
275.4505558262
 21
139.8568563942
  0
LINE
  5
5B9
100
AcDbEntity
  8
0
100
AcDbLine
 62
7
  6
CONTINUOUS
 10
275.4981123987
 20
150.3143031332
 11
275.4981123987
 21
149.8036648962
  0
LINE
  5
5BA
100
AcDbEntity
  8
0
100
AcDbLine
 62
7
  6
CONTINUOUS
 10
275.6193657898
 20
140.6228138838
 11
275.6193657898
 21
140.8143032226
  0
LINE
  5
5BB
100
AcDbEntity
  8
0
100
AcDbLine
 62
7
  6
CONTINUOUS
 10
275.7005558262
 20
139.5696223858
 11
275.7005558262
 21
139.8568563942
  0
LINE
  5
5BC
100
AcDbEntity
  8
0
100
AcDbLine
 62
7
  6
CONTINUOUS
 10
276.498111445
 20
151.3355799649
 11
276.498111445
 21
150.3143031332
  0
LINE
  5
5BD
100
AcDbEntity
  8
0
100
AcDbLine
 62
7
  6
CONTINUOUS
 10
276.498111445
 20
149.8036648962
 11
276.498111445
 21
147.250473443
  0
LINE
  5
5BE
100
AcDbEntity
  8
0
100
AcDbLine
 62
7
  6
CONTINUOUS
 10
277.1231133524
 20
151.3355799649
 11
277.1231133524
 21
150.3143031332
  0
LINE
  5
5BF
100
AcDbEntity
  8
0
100
AcDbLine
 62
7
  6
CONTINUOUS
 10
277.1231133524
 20
149.8036648962
 11
277.1231133524
 21
147.5057926509
  0
LINE
  5
5C0
100
AcDbEntity
  8
0
100
AcDbLine
 62
7
  6
CONTINUOUS
 10
277.7303030212
 20
139.8568563942
 11
277.7303030212
 21
139.5696223858
  0
LINE
  5
5C1
100
AcDbEntity
  8
0
100
AcDbLine
 62
7
  6
CONTINUOUS
 10
277.8862518098
 20
139.4738777164
 11
277.8862518098
 21
139.9526011977
  0
LINE
  5
5C2
100
AcDbEntity
  8
RUNDUNGEN
100
AcDbLine
 62
7
  6
CONTINUOUS
 10
278.1231123987
 20
183.0942603891
 11
278.1231123987
 21
194.4534015901
  0
LINE
  5
5C3
100
AcDbEntity
  8
0
100
AcDbLine
 62
7
  6
CONTINUOUS
 10
278.1362518098
 20
139.4738777164
 11
278.1362518098
 21
139.9526011977
  0
LINE
  5
5C4
100
AcDbEntity
  8
0
100
AcDbLine
 62
7
  6
CONTINUOUS
 10
278.2481133524
 20
146.7398351613
 11
278.2481133524
 21
146.2291968796
  0
LINE
  5
5C5
100
AcDbEntity
  8
0
100
AcDbLine
 62
7
  6
CONTINUOUS
 10
278.4981123987
 20
150.3143031332
 11
278.4981123987
 21
149.8036648962
  0
LINE
  5
5C6
100
AcDbEntity
  8
0
100
AcDbLine
 62
7
  6
CONTINUOUS
 10
271.3731119219
 20
155.2717500064
 11
271.2481123987
 21
154.6334522102
  0
LINE
  5
5C7
100
AcDbEntity
  8
0
100
AcDbLine
 62
7
  6
CONTINUOUS
 10
270.6231119219
 20
155.2717500064
 11
270.4981123987
 21
154.7611117694
  0
LINE
  5
5C8
100
AcDbEntity
  8
0
100
AcDbLine
 62
7
  6
CONTINUOUS
 10
265.2481123987
 20
154.6334522102
 11
264.9981126371
 21
154.1228138838
  0
LINE
  5
5C9
100
AcDbEntity
  8
0
100
AcDbLine
 62
7
  6
CONTINUOUS
 10
249.807743253
 20
139.6228138987
 11
249.6814480021
 21
139.39940967
  0
LINE
  5
5CA
100
AcDbEntity
  8
0
100
AcDbLine
 62
7
  6
CONTINUOUS
 10
259.6231123987
 20
156.9313244555
 11
259.2481123987
 21
156.4206862185
  0
LINE
  5
5CB
100
AcDbEntity
  8
0
100
AcDbLine
 62
7
  6
CONTINUOUS
 10
255.6231123987
 20
149.9313244555
 11
255.2481123987
 21
149.4206862185
  0
LINE
  5
5CC
100
AcDbEntity
  8
0
100
AcDbLine
 62
7
  6
CONTINUOUS
 10
275.9257734116
 20
197.9291968796
 11
272.1784975368
 21
197.9291968796
  0
LINE
  5
5CD
100
AcDbEntity
  8
0
100
AcDbLine
 62
7
  6
CONTINUOUS
 10
254.0677272606
 20
197.9291968796
 11
249.3404513494
 21
197.9291968796
  0
LINE
  5
5CE
100
AcDbEntity
  8
KONSTRUKTIONSELEMENTE
100
AcDbLine
 62
7
  6
CONTINUOUS
 10
282.4602809728
 20
135.7291968796
 11
282.4602809728
 21
144.7291968796
  0
LINE
  5
5CF
100
AcDbEntity
  8
0
100
AcDbLine
 62
7
  6
CONTINUOUS
 10
282.8731123987
 20
173.6612476872
 11
282.8731123987
 21
144.7291968796
  0
LINE
  5
5D0
100
AcDbEntity
  8
KONSTRUKTIONSELEMENTE
100
AcDbLine
 62
7
  6
CONTINUOUS
 10
283.6231123987
 20
135.7291968796
 11
283.6231123987
 21
144.7291968796
  0
LINE
  5
5D1
100
AcDbEntity
  8
0
100
AcDbLine
 62
7
  6
CONTINUOUS
 10
275.2946061085
 20
141.4845159087
 11
275.2134165366
 21
140.8143032226
  0
LINE
  5
5D2
100
AcDbEntity
  8
0
100
AcDbLine
 62
7
  6
CONTINUOUS
 10
275.3693657898
 20
140.8143032226
 11
275.4505558262
 21
141.3887712393
  0
LINE
  5
5D3
100
AcDbEntity
  8
0
100
AcDbLine
 62
7
  6
CONTINUOUS
 10
275.6193657898
 20
140.8143032226
 11
275.7005558262
 21
141.3887712393
  0
LINE
  5
5D4
100
AcDbEntity
  8
0
100
AcDbLine
 62
7
  6
CONTINUOUS
 10
271.2481123987
 20
154.6334522102
 11
270.9981119219
 21
154.1228138838
  0
LINE
  5
5D5
100
AcDbEntity
  8
0
100
AcDbLine
 62
7
  6
CONTINUOUS
 10
264.4981123987
 20
154.7611117694
 11
264.2481126371
 21
154.3781330917
  0
LINE
  5
5D6
100
AcDbEntity
  8
0
100
AcDbLine
 62
7
  6
CONTINUOUS
 10
261.2481123987
 20
149.9313244555
 11
260.8731123987
 21
149.4206862185
  0
LINE
  5
5D7
100
AcDbEntity
  8
0
100
AcDbLine
 62
7
  6
CONTINUOUS
 10
255.7436260092
 20
142.2291968796
 11
254.2280815526
 21
140.2185586128
  0
LINE
  5
5D8
100
AcDbEntity
  8
0
100
AcDbLine
 62
7
  6
CONTINUOUS
 10
254.6701151116
 20
140.2185586128
 11
255.7436260092
 21
141.6334522698
  0
LINE
  5
5D9
100
AcDbEntity
  8
0
100
AcDbLine
 62
7
  6
CONTINUOUS
 10
254.9201151116
 20
140.2185586128
 11
255.7436260092
 21
141.3039508041
  0
LINE
  5
5DA
100
AcDbEntity
  8
0
100
AcDbLine
 62
7
  6
CONTINUOUS
 10
248.3553465574
 20
142.0057926509
 11
248.1027558071
 21
141.707920346
  0
LINE
  5
5DB
100
AcDbEntity
  8
0
100
AcDbLine
 62
7
  6
CONTINUOUS
 10
249.807743253
 20
138.9526011344
 11
250.0603341162
 21
139.2504734654
  0
LINE
  5
5DC
100
AcDbEntity
  8
0
100
AcDbLine
 62
7
  6
CONTINUOUS
 10
250.057743253
 20
138.9526011344
 11
250.3103341162
 21
139.2504734654
  0
LINE
  5
5DD
100
AcDbEntity
  8
0
100
AcDbLine
 62
7
  6
CONTINUOUS
 10
258.8731123987
 20
157.0589840147
 11
258.6231122795
 21
156.8036648962
  0
LINE
  5
5DE
100
AcDbEntity
  8
0
100
AcDbLine
 62
7
  6
CONTINUOUS
 10
254.8731123987
 20
150.0589840147
 11
254.6231122795
 21
149.8036648962
  0
LINE
  5
5DF
100
AcDbEntity
  8
RUNDUNGEN
100
AcDbLine
 62
7
  6
CONTINUOUS
 10
277.7882431981
 20
195.7032850406
 11
276.7917875332
 21
197.4291968798
  0
LINE
  5
5E0
100
AcDbEntity
  8
0
100
AcDbLine
 62
7
  6
CONTINUOUS
 10
275.4505558262
 20
141.3887712393
 11
275.5317453981
 21
141.6760055158
  0
LINE
  5
5E1
100
AcDbEntity
  8
0
100
AcDbLine
 62
7
  6
CONTINUOUS
 10
275.7005558262
 20
141.3887712393
 11
275.7817453981
 21
141.6760055158
  0
LINE
  5
5E2
100
AcDbEntity
  8
0
100
AcDbLine
 62
7
  6
CONTINUOUS
 10
275.4505558262
 20
139.8568563942
 11
275.5317453981
 21
140.1440905366
  0
LINE
  5
5E3
100
AcDbEntity
  8
0
100
AcDbLine
 62
7
  6
CONTINUOUS
 10
275.7005558262
 20
139.8568563942
 11
275.7817453981
 21
140.1440905366
  0
LINE
  5
5E4
100
AcDbEntity
  8
0
100
AcDbLine
 62
7
  6
CONTINUOUS
 10
272.2093907624
 20
142.7291968796
 11
270.9915425383
 21
138.7079202939
  0
LINE
  5
5E5
100
AcDbEntity
  8
0
100
AcDbLine
 62
7
  6
CONTINUOUS
 10
271.0663019873
 20
138.2291968796
 11
272.2029604072
 21
141.7717501852
  0
LINE
  5
5E6
100
AcDbEntity
  8
0
100
AcDbLine
 62
7
  6
CONTINUOUS
 10
271.3163019873
 20
138.2291968796
 11
272.4529604072
 21
141.7717501852
  0
LINE
  5
5E7
100
AcDbEntity
  8
0
100
AcDbLine
 62
7
  6
CONTINUOUS
 10
273.8731128755
 20
148.0164308879
 11
273.7481119219
 21
147.6334522102
  0
LINE
  5
5E8
100
AcDbEntity
  8
0
100
AcDbLine
 62
7
  6
CONTINUOUS
 10
275.4569861814
 20
141.9632395241
 11
275.2946061085
 21
141.4845159087
  0
LINE
  5
5E9
100
AcDbEntity
  8
0
100
AcDbLine
 62
7
  6
CONTINUOUS
 10
274.4981119219
 20
147.8887713287
 11
274.2481128755
 21
147.250473443
  0
LINE
  5
5EA
100
AcDbEntity
  8
0
100
AcDbLine
 62
7
  6
CONTINUOUS
 10
268.3731123987
 20
146.8674947653
 11
267.6231123987
 21
145.4632394347
  0
LINE
  5
5EB
100
AcDbEntity
  8
0
100
AcDbLine
 62
7
  6
CONTINUOUS
 10
268.9981128755
 20
146.8674947653
 11
268.2481128755
 21
145.4632394347
  0
LINE
  5
5EC
100
AcDbEntity
  8
0
100
AcDbLine
 62
7
  6
CONTINUOUS
 10
270.4981123987
 20
154.7611117694
 11
270.2481119219
 21
154.3781330917
  0
LINE
  5
5ED
100
AcDbEntity
  8
0
100
AcDbLine
 62
7
  6
CONTINUOUS
 10
257.63805658
 20
142.2291968796
 11
257.2591704658
 21
141.707920346
  0
LINE
  5
5EE
100
AcDbEntity
  8
0
100
AcDbLine
 62
7
  6
CONTINUOUS
 10
257.2591704658
 20
141.1121755276
 11
257.63805658
 21
141.6334522698
  0
LINE
  5
5EF
100
AcDbEntity
  8
0
100
AcDbLine
 62
7
  6
CONTINUOUS
 10
257.5091704658
 20
141.1121755276
 11
257.63805658
 21
141.2894988213
  0
LINE
  5
5F0
100
AcDbEntity
  8
0
100
AcDbLine
 62
7
  6
CONTINUOUS
 10
265.1231119219
 20
151.3355799649
 11
265.8731119219
 21
152.2291968796
  0
LINE
  5
5F1
100
AcDbEntity
  8
0
100
AcDbLine
 62
7
  6
CONTINUOUS
 10
265.8731119219
 20
151.2079204056
 11
265.1231119219
 21
150.3143031332
  0
LINE
  5
5F2
100
AcDbEntity
  8
0
100
AcDbLine
 62
7
  6
CONTINUOUS
 10
260.4981123987
 20
150.0589840147
 11
260.2481126371
 21
149.8036648962
  0
LINE
  5
5F3
100
AcDbEntity
  8
0
100
AcDbLine
 62
7
  6
CONTINUOUS
 10
264.9981126371
 20
154.1228138838
 11
264.4981123987
 21
153.6121756021
  0
LINE
  5
5F4
100
AcDbEntity
  8
0
100
AcDbLine
 62
7
  6
CONTINUOUS
 10
248.4816418986
 20
141.5589841936
 11
248.6710850009
 21
141.707920346
  0
LINE
  5
5F5
100
AcDbEntity
  8
0
100
AcDbLine
 62
7
  6
CONTINUOUS
 10
248.7316418986
 20
141.5589841936
 11
248.9210850009
 21
141.707920346
  0
LINE
  5
5F6
100
AcDbEntity
  8
0
100
AcDbLine
 62
7
  6
CONTINUOUS
 10
255.2481123987
 20
149.4206862185
 11
254.7481125179
 21
149.0377075407
  0
LINE
  5
5F7
100
AcDbEntity
  8
0
100
AcDbLine
 62
7
  6
CONTINUOUS
 10
259.2481123987
 20
156.4206862185
 11
258.7481125179
 21
156.1653671
  0
LINE
  5
5F8
100
AcDbEntity
  8
0
100
AcDbLine
 62
7
  6
CONTINUOUS
 10
258.6231122795
 20
156.8036648962
 11
258.2481122795
 21
156.676005337
  0
LINE
  5
5F9
100
AcDbEntity
  8
0
100
AcDbLine
 62
7
  6
CONTINUOUS
 10
266.1231123987
 20
209.1791968796
 11
266.6231123987
 21
209.1791968796
  0
LINE
  5
5FA
100
AcDbEntity
  8
0
100
AcDbLine
 62
7
  6
CONTINUOUS
 10
277.7303030212
 20
139.5696223858
 11
277.6491125202
 21
139.2823883775
  0
LINE
  5
5FB
100
AcDbEntity
  8
0
100
AcDbLine
 62
7
  6
CONTINUOUS
 10
277.723872666
 20
138.9951543022
 11
277.8862518098
 21
139.4738777164
  0
LINE
  5
5FC
100
AcDbEntity
  8
0
100
AcDbLine
 62
7
  6
CONTINUOUS
 10
277.973872666
 20
138.9951543022
 11
278.1362518098
 21
139.4738777164
  0
LINE
  5
5FD
100
AcDbEntity
  8
0
100
AcDbLine
 62
7
  6
CONTINUOUS
 10
273.7481119219
 20
147.6334522102
 11
273.4981128755
 21
147.250473443
  0
LINE
  5
5FE
100
AcDbEntity
  8
0
100
AcDbLine
 62
7
  6
CONTINUOUS
 10
270.9981119219
 20
154.1228138838
 11
270.4981123987
 21
153.6121756021
  0
LINE
  5
5FF
100
AcDbEntity
  8
0
100
AcDbLine
 62
7
  6
CONTINUOUS
 10
249.6814480021
 20
139.39940967
 11
249.492004945
 21
139.2504734654
  0
LINE
  5
600
100
AcDbEntity
  8
0
100
AcDbLine
 62
7
  6
CONTINUOUS
 10
260.8731123987
 20
149.4206862185
 11
260.3731121603
 21
149.0377075407
  0
LINE
  5
601
100
AcDbEntity
  8
0
100
AcDbLine
 62
7
  6
CONTINUOUS
 10
264.2481126371
 20
154.3781330917
 11
263.8731126371
 21
154.1228138838
  0
LINE
  5
602
100
AcDbEntity
  8
0
100
AcDbLine
 62
7
  6
CONTINUOUS
 10
270.2481119219
 20
154.3781330917
 11
269.8731119219
 21
154.1228138838
  0
LINE
  5
603
100
AcDbEntity
  8
0
100
AcDbLine
 62
7
  6
CONTINUOUS
 10
248.6079372851
 20
142.1547288034
 11
248.3553465574
 21
142.0057926509
  0
LINE
  5
604
100
AcDbEntity
  8
0
100
AcDbLine
 62
7
  6
CONTINUOUS
 10
264.4981123987
 20
153.6121756021
 11
263.9981121603
 21
153.35685645
  0
LINE
  5
605
100
AcDbEntity
  8
0
100
AcDbLine
 62
7
  6
CONTINUOUS
 10
266.1231123987
 20
214.1791968796
 11
266.6231123987
 21
214.1791968796
  0
LINE
  5
606
100
AcDbEntity
  8
0
100
AcDbLine
 62
7
  6
CONTINUOUS
 10
266.1231123987
 20
215.1791968796
 11
266.6231123987
 21
215.1791968796
  0
LINE
  5
607
100
AcDbEntity
  8
0
100
AcDbLine
 62
7
  6
CONTINUOUS
 10
266.1231123987
 20
215.285579855
 11
266.6231123987
 21
215.285579855
  0
LINE
  5
608
100
AcDbEntity
  8
0
100
AcDbLine
 62
7
  6
CONTINUOUS
 10
266.1231123987
 20
215.498345815
 11
266.6231123987
 21
215.498345815
  0
LINE
  5
609
100
AcDbEntity
  8
0
100
AcDbLine
 62
7
  6
CONTINUOUS
 10
266.1231123987
 20
215.9238777164
 11
266.6231123987
 21
215.9238777164
  0
LINE
  5
60A
100
AcDbEntity
  8
0
100
AcDbLine
 62
7
  6
CONTINUOUS
 10
266.1231123987
 20
216.3494096551
 11
266.6231123987
 21
216.3494096551
  0
LINE
  5
60B
100
AcDbEntity
  8
0
100
AcDbLine
 62
7
  6
CONTINUOUS
 10
266.1231123987
 20
216.8813244853
 11
266.6231123987
 21
216.8813244853
  0
LINE
  5
60C
100
AcDbEntity
  8
0
100
AcDbLine
 62
7
  6
CONTINUOUS
 10
275.5317453981
 20
141.6760055158
 11
275.6941254711
 21
141.9632395241
  0
LINE
  5
60D
100
AcDbEntity
  8
0
100
AcDbLine
 62
7
  6
CONTINUOUS
 10
275.7817453981
 20
141.6760055158
 11
275.9441254711
 21
141.9632395241
  0
LINE
  5
60E
100
AcDbEntity
  8
0
100
AcDbLine
 62
7
  6
CONTINUOUS
 10
277.6491125202
 20
139.2823883775
 11
277.4867333764
 21
138.9951543022
  0
LINE
  5
60F
100
AcDbEntity
  8
0
100
AcDbLine
 62
7
  6
CONTINUOUS
 10
275.7005558262
 20
142.3462182019
 11
275.4569861814
 21
141.9632395241
  0
LINE
  5
610
100
AcDbEntity
  8
0
100
AcDbLine
 62
7
  6
CONTINUOUS
 10
274.0767578844
 20
142.7291968796
 11
273.5896185948
 21
142.0589841936
  0
LINE
  5
611
100
AcDbEntity
  8
0
100
AcDbLine
 62
7
  6
CONTINUOUS
 10
273.5896185948
 20
141.6369800183
 11
273.8267578844
 21
141.9632395241
  0
LINE
  5
612
100
AcDbEntity
  8
0
100
AcDbLine
 62
7
  6
CONTINUOUS
 10
273.5896185948
 20
141.2930265698
 11
274.0767578844
 21
141.9632395241
  0
LINE
  5
613
100
AcDbEntity
  8
0
100
AcDbLine
 62
7
  6
CONTINUOUS
 10
274.2481128755
 20
147.250473443
 11
273.8731128755
 21
146.7398351613
  0
LINE
  5
614
100
AcDbEntity
  8
0
100
AcDbLine
 62
7
  6
CONTINUOUS
 10
271.3731123987
 20
149.2930266592
 11
270.8731128755
 21
148.9100479815
  0
LINE
  5
615
100
AcDbEntity
  8
0
100
AcDbLine
 62
7
  6
CONTINUOUS
 10
271.2481128755
 20
149.9313244555
 11
270.6231123987
 21
149.5483457777
  0
LINE
  5
616
100
AcDbEntity
  8
0
100
AcDbLine
 62
7
  6
CONTINUOUS
 10
249.5551525705
 20
138.8036649624
 11
249.807743253
 21
138.9526011344
  0
LINE
  5
617
100
AcDbEntity
  8
0
100
AcDbLine
 62
7
  6
CONTINUOUS
 10
249.8051525705
 20
138.8036649624
 11
250.057743253
 21
138.9526011344
  0
LINE
  5
618
100
AcDbEntity
  8
0
100
AcDbLine
 62
7
  6
CONTINUOUS
 10
270.4981123987
 20
153.6121756021
 11
269.9981128755
 21
153.35685645
  0
LINE
  5
619
100
AcDbEntity
  8
0
100
AcDbLine
 62
7
  6
CONTINUOUS
 10
248.6710850009
 20
141.707920346
 11
248.860528058
 21
141.7823884222
  0
LINE
  5
61A
100
AcDbEntity
  8
0
100
AcDbLine
 62
7
  6
CONTINUOUS
 10
248.9210850009
 20
141.707920346
 11
249.110528058
 21
141.7823884222
  0
LINE
  5
61B
100
AcDbEntity
  8
0
100
AcDbLine
 62
7
  6
CONTINUOUS
 10
254.6231122795
 20
149.8036648962
 11
254.2481122795
 21
149.676005337
  0
LINE
  5
61C
100
AcDbEntity
  8
0
100
AcDbLine
 62
7
  6
CONTINUOUS
 10
260.2481126371
 20
149.8036648962
 11
259.8731126371
 21
149.676005337
  0
LINE
  5
61D
100
AcDbEntity
  8
0
100
AcDbLine
 62
7
  6
CONTINUOUS
 10
266.1231123987
 20
220.1791968796
 11
266.6231123987
 21
220.1791968796
  0
LINE
  5
61E
100
AcDbEntity
  8
0
100
AcDbLine
 62
7
  6
CONTINUOUS
 10
266.1231123987
 20
221.1791968796
 11
266.6231123987
 21
221.1791968796
  0
LINE
  5
61F
100
AcDbEntity
  8
0
100
AcDbLine
 62
7
  6
CONTINUOUS
 10
277.4803030212
 20
138.6121755909
 11
277.723872666
 21
138.9951543022
  0
LINE
  5
620
100
AcDbEntity
  8
0
100
AcDbLine
 62
7
  6
CONTINUOUS
 10
277.7303030212
 20
138.6121755909
 11
277.973872666
 21
138.9951543022
  0
LINE
  5
621
100
AcDbEntity
  8
0
100
AcDbLine
 62
7
  6
CONTINUOUS
 10
275.5317453981
 20
140.1440905366
 11
275.6941254711
 21
140.3355798755
  0
LINE
  5
622
100
AcDbEntity
  8
0
100
AcDbLine
 62
7
  6
CONTINUOUS
 10
275.7817453981
 20
140.1440905366
 11
275.9441254711
 21
140.3355798755
  0
LINE
  5
623
100
AcDbEntity
  8
0
100
AcDbLine
 62
7
  6
CONTINUOUS
 10
273.4981128755
 20
147.250473443
 11
273.1231128755
 21
146.9951543245
  0
LINE
  5
624
100
AcDbEntity
  8
0
100
AcDbLine
 62
7
  6
CONTINUOUS
 10
273.8731128755
 20
146.7398351613
 11
273.2481123987
 21
146.35685645
  0
LINE
  5
625
100
AcDbEntity
  8
0
100
AcDbLine
 62
7
  6
CONTINUOUS
 10
248.860528058
 20
142.2291968796
 11
248.6079372851
 21
142.1547288034
  0
LINE
  5
626
100
AcDbEntity
  8
0
100
AcDbLine
 62
7
  6
CONTINUOUS
 10
249.492004945
 20
139.2504734654
 11
249.2394141721
 21
139.1760053891
  0
LINE
  5
627
100
AcDbEntity
  8
0
100
AcDbLine
 62
7
  6
CONTINUOUS
 10
266.1231123987
 20
226.1791968796
 11
266.6231123987
 21
226.1791968796
  0
LINE
  5
628
100
AcDbEntity
  8
0
100
AcDbLine
 62
7
  6
CONTINUOUS
 10
275.6941254711
 20
141.9632395241
 11
275.9376951159
 21
142.154728863
  0
LINE
  5
629
100
AcDbEntity
  8
0
100
AcDbLine
 62
7
  6
CONTINUOUS
 10
275.9441254711
 20
141.9632395241
 11
276.1876951159
 21
142.154728863
  0
LINE
  5
62A
100
AcDbEntity
  8
0
100
AcDbLine
 62
7
  6
CONTINUOUS
 10
276.1065050794
 20
141.0057925615
 11
275.6193657898
 21
140.6228138838
  0
LINE
  5
62B
100
AcDbEntity
  8
0
100
AcDbLine
 62
7
  6
CONTINUOUS
 10
275.6941254711
 20
140.3355798755
 11
275.9376951159
 21
140.5270692143
  0
LINE
  5
62C
100
AcDbEntity
  8
0
100
AcDbLine
 62
7
  6
CONTINUOUS
 10
275.9441254711
 20
140.3355798755
 11
276.1876951159
 21
140.5270692143
  0
LINE
  5
62D
100
AcDbEntity
  8
0
100
AcDbLine
 62
7
  6
CONTINUOUS
 10
277.4867333764
 20
138.9951543022
 11
277.2431637316
 21
138.8036649633
  0
LINE
  5
62E
100
AcDbEntity
  8
0
100
AcDbLine
 62
7
  6
CONTINUOUS
 10
276.1065050794
 20
142.6334522102
 11
275.7005558262
 21
142.3462182019
  0
LINE
  5
62F
100
AcDbEntity
  8
0
100
AcDbLine
 62
7
  6
CONTINUOUS
 10
275.9376951159
 20
142.154728863
 11
276.1812647607
 21
142.2504735324
  0
LINE
  5
630
100
AcDbEntity
  8
0
100
AcDbLine
 62
7
  6
CONTINUOUS
 10
276.1876951159
 20
142.154728863
 11
276.4312647607
 21
142.2504735324
  0
LINE
  5
631
100
AcDbEntity
  8
0
100
AcDbLine
 62
7
  6
CONTINUOUS
 10
277.0743533035
 20
138.3249415574
 11
277.4803030212
 21
138.6121755909
  0
LINE
  5
632
100
AcDbEntity
  8
0
100
AcDbLine
 62
7
  6
CONTINUOUS
 10
277.3243533035
 20
138.3249415574
 11
277.7303030212
 21
138.6121755909
  0
LINE
  5
633
100
AcDbEntity
  8
0
100
AcDbLine
 62
7
  6
CONTINUOUS
 10
275.9376951159
 20
140.5270692143
 11
276.1812647607
 21
140.6228138838
  0
LINE
  5
634
100
AcDbEntity
  8
0
100
AcDbLine
 62
7
  6
CONTINUOUS
 10
276.1876951159
 20
140.5270692143
 11
276.4312647607
 21
140.6228138838
  0
LINE
  5
635
100
AcDbEntity
  8
0
100
AcDbLine
 62
7
  6
CONTINUOUS
 10
277.2431637316
 20
138.8036649633
 11
276.9995940868
 21
138.7079202939
  0
LINE
  5
636
100
AcDbEntity
  8
FASEN
100
AcDbLine
 62
7
  6
CONTINUOUS
 10
270.6231123987
 20
111.7291968796
 11
271.1231123987
 21
112.2291968796
  0
LINE
  5
637
100
AcDbEntity
  8
0
100
AcDbLine
 62
7
  6
CONTINUOUS
 10
268.6231123987
 20
248.8734881985
 11
269.1231123987
 21
248.8734881985
  0
LINE
  5
638
100
AcDbEntity
  8
0
100
AcDbLine
 62
7
  6
CONTINUOUS
 10
268.1694084285
 20
252.1046272735
 11
269.1231123987
 21
252.1046272735
  0
LINE
  5
639
100
AcDbEntity
  8
0
100
AcDbLine
 62
7
  6
CONTINUOUS
 10
268.1898609743
 20
253.2835823488
 11
269.1231123987
 21
253.2835823488
  0
LINE
  5
63A
100
AcDbEntity
  8
0
100
AcDbLine
 62
7
  6
CONTINUOUS
 10
268.2199815663
 20
253.4604504046
 11
269.1231123987
 21
253.4604504046
  0
LINE
  5
63B
100
AcDbEntity
  8
0
100
AcDbLine
 62
7
  6
CONTINUOUS
 10
268.169408425
 20
254.6698658779
 11
269.1231123987
 21
254.6698658779
  0
LINE
  5
63C
100
AcDbEntity
  8
0
100
AcDbLine
 62
7
  6
CONTINUOUS
 10
268.1898609754
 20
255.5021122447
 11
269.1231123987
 21
255.5021122447
  0
LINE
  5
63D
100
AcDbEntity
  8
0
100
AcDbLine
 62
7
  6
CONTINUOUS
 10
268.2199815719
 20
255.5981089112
 11
269.1231123987
 21
255.5981089112
  0
LINE
  5
63E
100
AcDbEntity
  8
0
100
AcDbLine
 62
7
  6
CONTINUOUS
 10
268.5547844986
 20
256.0019260597
 11
269.1231123987
 21
256.0019260597
  0
LINE
  5
63F
100
AcDbEntity
  8
0
100
AcDbLine
 62
7
  6
CONTINUOUS
 10
268.4016730498
 20
256.6811481333
 11
269.1231123987
 21
256.6811481333
  0
LINE
  5
640
100
AcDbEntity
  8
0
100
AcDbLine
 62
7
  6
CONTINUOUS
 10
268.1918178547
 20
257.3100356288
 11
269.1231123987
 21
257.3100356288
  0
LINE
  5
641
100
AcDbEntity
  8
0
100
AcDbLine
 62
7
  6
CONTINUOUS
 10
268.1894884851
 20
257.3446040181
 11
269.1231123987
 21
257.3446040181
  0
LINE
  5
642
100
AcDbEntity
  8
KONSTRUKTIONSELEMENTE
100
AcDbLine
 62
7
  6
CONTINUOUS
 10
143.0181541096
 20
70.8525194876
 11
141.0040709993
 21
69.6896880617
  0
LINE
  5
643
100
AcDbEntity
  8
KONSTRUKTIONSELEMENTE
100
AcDbLine
 62
7
  6
CONTINUOUS
 10
141.0040709993
 20
31.0153509135
 11
143.0181541096
 21
29.8525194876
  0
LINE
  5
644
100
AcDbEntity
  8
KONSTRUKTIONSELEMENTE
100
AcDbLine
 62
7
  6
CONTINUOUS
 10
141.0040709993
 20
69.6896880617
 11
133.0150879228
 21
55.8523634724
  0
LINE
  5
645
100
AcDbEntity
  8
KONSTRUKTIONSELEMENTE
100
AcDbLine
 62
7
  6
CONTINUOUS
 10
143.0181541096
 20
29.8525194876
 11
164.0040709993
 21
29.8525194876
  0
LINE
  5
646
100
AcDbEntity
  8
KONSTRUKTIONSELEMENTE
100
AcDbLine
 62
7
  6
CONTINUOUS
 10
133.0151019612
 20
44.8526511877
 11
141.0040709993
 21
31.0153509135
  0
LINE
  5
647
100
AcDbEntity
  8
0
100
AcDbLine
 62
7
  6
CONTINUOUS
 10
138.9229536708
 20
45.3062234578
 11
138.9229536708
 21
44.3525194876
  0
LINE
  5
648
100
AcDbEntity
  8
0
100
AcDbLine
 62
7
  6
CONTINUOUS
 10
141.1146664912
 20
34.9775194876
 11
140.720124516
 21
34.9775194876
  0
LINE
  5
649
100
AcDbEntity
  8
RUNDUNGEN
100
AcDbLine
 62
7
  6
CONTINUOUS
 10
145.5111125545
 20
35.3525194876
 11
161.5111125545
 21
35.3525194876
  0
LINE
  5
64A
100
AcDbEntity
  8
0
100
AcDbLine
 62
7
  6
CONTINUOUS
 10
139.5804817971
 20
36.352518534
 11
139.2282566322
 21
36.352518534
  0
LINE
  5
64B
100
AcDbEntity
  8
0
100
AcDbLine
 62
7
  6
CONTINUOUS
 10
140.5385232083
 20
45.285770912
 11
140.5385232083
 21
44.3525194876
  0
LINE
  5
64C
100
AcDbEntity
  8
0
100
AcDbLine
 62
7
  6
CONTINUOUS
 10
140.9252685546
 20
45.2556503201
 11
140.9252685546
 21
44.3525194876
  0
LINE
  5
64D
100
AcDbEntity
  8
0
100
AcDbLine
 62
7
  6
CONTINUOUS
 10
141.3450349653
 20
45.1649389974
 11
141.3450349653
 21
44.3525194876
  0
LINE
  5
64E
100
AcDbEntity
  8
0
100
AcDbLine
 62
7
  6
CONTINUOUS
 10
141.7476543378
 20
45.0617351513
 11
141.7476543378
 21
44.3525194876
  0
LINE
  5
64F
100
AcDbEntity
  8
0
100
AcDbLine
 62
7
  6
CONTINUOUS
 10
141.9654745563
 20
44.9972726192
 11
141.9654745563
 21
44.3525194876
  0
LINE
  5
650
100
AcDbEntity
  8
0
100
AcDbLine
 62
7
  6
CONTINUOUS
 10
138.9793576532
 20
36.9775204413
 11
138.641364725
 21
36.9775204413
  0
LINE
  5
651
100
AcDbEntity
  8
0
100
AcDbLine
 62
7
  6
CONTINUOUS
 10
162.5111125545
 20
37.3525194876
 11
163.0111125545
 21
37.3525194876
  0
LINE
  5
652
100
AcDbEntity
  8
0
100
AcDbLine
 62
7
  6
CONTINUOUS
 10
162.5111125545
 20
37.4163492673
 11
163.0111125545
 21
37.4163492673
  0
LINE
  5
653
100
AcDbEntity
  8
0
100
AcDbLine
 62
7
  6
CONTINUOUS
 10
162.5111125545
 20
37.6078386061
 11
163.0111125545
 21
37.6078386061
  0
LINE
  5
654
100
AcDbEntity
  8
0
100
AcDbLine
 62
7
  6
CONTINUOUS
 10
162.5111125545
 20
37.8631577246
 11
163.0111125545
 21
37.8631577246
  0
LINE
  5
655
100
AcDbEntity
  8
0
100
AcDbLine
 62
7
  6
CONTINUOUS
 10
138.1188458273
 20
37.9775194876
 11
137.7993534232
 21
37.9775194876
  0
LINE
  5
656
100
AcDbEntity
  8
0
100
AcDbLine
 62
7
  6
CONTINUOUS
 10
162.5111125545
 20
38.0546470635
 11
163.0111125545
 21
38.0546470635
  0
LINE
  5
657
100
AcDbEntity
  8
0
100
AcDbLine
 62
7
  6
CONTINUOUS
 10
162.5111125545
 20
38.2461365812
 11
163.0111125545
 21
38.2461365812
  0
LINE
  5
658
100
AcDbEntity
  8
0
100
AcDbLine
 62
7
  6
CONTINUOUS
 10
162.5111125545
 20
38.4376259201
 11
163.0111125545
 21
38.4376259201
  0
LINE
  5
659
100
AcDbEntity
  8
0
100
AcDbLine
 62
7
  6
CONTINUOUS
 10
162.5111125545
 20
38.5014556997
 11
163.0111125545
 21
38.5014556997
  0
LINE
  5
65A
100
AcDbEntity
  8
0
100
AcDbLine
 62
7
  6
CONTINUOUS
 10
162.5111125545
 20
38.6929450386
 11
163.0111125545
 21
38.6929450386
  0
LINE
  5
65B
100
AcDbEntity
  8
0
100
AcDbLine
 62
7
  6
CONTINUOUS
 10
162.5111125545
 20
38.8844343774
 11
163.0111125545
 21
38.8844343774
  0
LINE
  5
65C
100
AcDbEntity
  8
0
100
AcDbLine
 62
7
  6
CONTINUOUS
 10
137.3657762047
 20
38.9775199645
 11
137.0609032595
 21
38.9775199645
  0
LINE
  5
65D
100
AcDbEntity
  8
0
100
AcDbLine
 62
7
  6
CONTINUOUS
 10
142.1661478772
 20
44.9289914332
 11
142.1661478772
 21
44.3525194876
  0
LINE
  5
65E
100
AcDbEntity
  8
0
100
AcDbLine
 62
7
  6
CONTINUOUS
 10
142.2493374293
 20
44.8914710714
 11
142.2493374293
 21
44.3525194876
  0
LINE
  5
65F
100
AcDbEntity
  8
0
100
AcDbLine
 62
7
  6
CONTINUOUS
 10
142.6903140045
 20
45.3062234613
 11
142.6903140045
 21
44.3525194876
  0
LINE
  5
660
100
AcDbEntity
  8
0
100
AcDbLine
 62
7
  6
CONTINUOUS
 10
162.5111125545
 20
39.2035832756
 11
163.0111125545
 21
39.2035832756
  0
LINE
  5
661
100
AcDbEntity
  8
0
100
AcDbLine
 62
7
  6
CONTINUOUS
 10
137.1925077002
 20
39.2275190108
 11
136.8908127861
 21
39.2275190108
  0
LINE
  5
662
100
AcDbEntity
  8
0
100
AcDbLine
 62
7
  6
CONTINUOUS
 10
162.5111125545
 20
39.5227322631
 11
163.0111125545
 21
39.5227322631
  0
LINE
  5
663
100
AcDbEntity
  8
0
100
AcDbLine
 62
7
  6
CONTINUOUS
 10
162.5111125545
 20
39.8418812059
 11
163.0111125545
 21
39.8418812059
  0
LINE
  5
664
100
AcDbEntity
  8
0
100
AcDbLine
 62
7
  6
CONTINUOUS
 10
162.5111125545
 20
40.0972003468
 11
163.0111125545
 21
40.0972003468
  0
LINE
  5
665
100
AcDbEntity
  8
0
100
AcDbLine
 62
7
  6
CONTINUOUS
 10
162.5111125545
 20
40.2886897024
 11
163.0111125545
 21
40.2886897024
  0
LINE
  5
666
100
AcDbEntity
  8
0
100
AcDbLine
 62
7
  6
CONTINUOUS
 10
162.5111125545
 20
40.3525194876
 11
163.0111125545
 21
40.3525194876
  0
LWPOLYLINE
  5
667
100
AcDbEntity
  8
RUNDUNGEN
100
AcDbPolyline
 62
7
  6
CONTINUOUS
 90
7
 70
0
 10
144.5111124975
 20
58.7225067606
 10
144.5128553637
 20
58.6469415899
 10
144.5214731236
 20
58.5386403755
 10
144.5359277355
 20
58.437527303
 10
144.555135375
 20
58.3420835089
 10
144.578258765
 20
58.251329806
 10
144.5886713707
 20
58.2154139243
  0
LINE
  5
668
100
AcDbEntity
  8
0
100
AcDbLine
 62
7
  6
CONTINUOUS
 10
144.5089305075
 20
45.285770911
 11
144.5089305075
 21
44.3525194876
  0
LINE
  5
669
100
AcDbEntity
  8
0
100
AcDbLine
 62
7
  6
CONTINUOUS
 10
144.5111125545
 20
36.3525194876
 11
144.5111125545
 21
41.2971343495
  0
LINE
  5
66A
100
AcDbEntity
  8
RUNDUNGEN
100
AcDbLine
 62
7
  6
CONTINUOUS
 10
144.5111125545
 20
34.0410971094
 11
144.5111125545
 21
41.9828935669
  0
LINE
  5
66B
100
AcDbEntity
  8
RUNDUNGEN
100
AcDbLine
 62
7
  6
CONTINUOUS
 10
144.5111125545
 20
58.7218175851
 11
144.5111125545
 21
66.6639418658
  0
LINE
  5
66C
100
AcDbEntity
  8
0
100
AcDbLine
 62
7
  6
CONTINUOUS
 10
144.9232235359
 20
45.2556503145
 11
144.9232235359
 21
44.3525194876
  0
LINE
  5
66D
100
AcDbEntity
  8
0
100
AcDbLine
 62
7
  6
CONTINUOUS
 10
145.3325706353
 20
45.1649389951
 11
145.3325706353
 21
44.3525194876
  0
LINE
  5
66E
100
AcDbEntity
  8
0
100
AcDbLine
 62
7
  6
CONTINUOUS
 10
145.7015566373
 20
45.061735149
 11
145.7015566373
 21
44.3525194876
  0
LINE
  5
66F
100
AcDbEntity
  8
0
100
AcDbLine
 62
7
  6
CONTINUOUS
 10
145.8835766739
 20
44.9972726212
 11
145.8835766739
 21
44.3525194876
  0
LINE
  5
670
100
AcDbEntity
  8
0
100
AcDbLine
 62
7
  6
CONTINUOUS
 10
146.0252357123
 20
44.9289914347
 11
146.0252357123
 21
44.3525194876
  0
LINE
  5
671
100
AcDbEntity
  8
0
100
AcDbLine
 62
7
  6
CONTINUOUS
 10
146.0557040845
 20
44.8914710704
 11
146.0557040845
 21
44.3525194876
  0
LWPOLYLINE
  5
672
100
AcDbEntity
  8
RUNDUNGEN
100
AcDbPolyline
 62
7
  6
CONTINUOUS
 90
6
 70
0
 10
144.5772479775
 20
42.4500889239
 10
144.553979838
 20
42.3578783342
 10
144.534811626
 20
42.2609948555
 10
144.5205879999
 20
42.158356538
 10
144.5124285456
 20
42.048274039
 10
144.5111126222
 20
41.9827533954
  0
LINE
  5
673
100
AcDbEntity
  8
0
100
AcDbLine
 62
7
  6
CONTINUOUS
 10
135.5667538903
 20
42.1025199645
 11
135.2919603276
 21
42.1025199645
  0
LINE
  5
674
100
AcDbEntity
  8
0
100
AcDbLine
 62
7
  6
CONTINUOUS
 10
135.5098105182
 20
42.2275194876
 11
135.235873158
 21
42.2275194876
  0
LINE
  5
675
100
AcDbEntity
  8
0
100
AcDbLine
 62
7
  6
CONTINUOUS
 10
135.3990479977
 20
42.4775199645
 11
135.1267609883
 21
42.4775199645
  0
LINE
  5
676
100
AcDbEntity
  8
0
100
AcDbLine
 62
7
  6
CONTINUOUS
 10
135.189762304
 20
42.9775194876
 11
134.920540347
 21
42.9775194876
  0
LINE
  5
677
100
AcDbEntity
  8
0
100
AcDbLine
 62
7
  6
CONTINUOUS
 10
134.9963382258
 20
43.4775190108
 11
134.7298887274
 21
43.4775190108
  0
LINE
  5
678
100
AcDbEntity
  8
RUNDUNGEN
100
AcDbLine
 62
7
  6
CONTINUOUS
 10
144.5886538279
 20
42.4895665624
 11
144.5772479775
 21
42.4500889239
  0
LINE
  5
679
100
AcDbEntity
  8
RUNDUNGEN
100
AcDbLine
 62
7
  6
CONTINUOUS
 10
144.588646972
 20
42.489568587
 11
144.5887326395
 21
42.489854301
  0
LINE
  5
67A
100
AcDbEntity
  8
RUNDUNGEN
100
AcDbLine
 62
7
  6
CONTINUOUS
 10
144.6480822934
 20
42.6577770179
 11
144.5887326395
 21
42.489854301
  0
LINE
  5
67B
100
AcDbEntity
  8
RUNDUNGEN
100
AcDbLine
 62
7
  6
CONTINUOUS
 10
145.4314281128
 20
44.0929079564
 11
145.3954937888
 21
44.0119561899
  0
LWPOLYLINE
  5
67C
100
AcDbEntity
  8
RUNDUNGEN
100
AcDbPolyline
 62
7
  6
CONTINUOUS
 90
3
 70
0
 10
145.3954937888
 20
44.0119561899
 10
145.360125635
 20
43.9341739017
 10
145.3233058079
 20
43.8551290868
  0
LINE
  5
67D
100
AcDbEntity
  8
RUNDUNGEN
100
AcDbLine
 62
7
  6
CONTINUOUS
 10
145.3233058079
 20
43.8551290868
 11
145.2912635597
 21
43.7878310819
  0
LWPOLYLINE
  5
67E
100
AcDbEntity
  8
RUNDUNGEN
100
AcDbPolyline
 62
7
  6
CONTINUOUS
 90
3
 70
0
 10
145.2912395736
 20
43.7877863917
 10
145.2454474143
 20
43.6944112125
 10
145.1568023568
 20
43.5237218253
  0
LINE
  5
67F
100
AcDbEntity
  8
0
100
AcDbLine
 62
7
  6
CONTINUOUS
 10
161.9023726104
 20
44.8525459584
 11
161.8949120532
 21
44.8525194736
  0
LINE
  5
680
100
AcDbEntity
  8
0
100
AcDbLine
 62
7
  6
CONTINUOUS
 10
134.7761185593
 20
44.1025194876
 11
134.5127573625
 21
44.1025194876
  0
LINE
  5
681
100
AcDbEntity
  8
0
100
AcDbLine
 62
7
  6
CONTINUOUS
 10
167.0997758978
 20
44.3525194876
 11
161.7164634063
 21
44.3525194876
  0
LINE
  5
682
100
AcDbEntity
  8
0
100
AcDbLine
 62
7
  6
CONTINUOUS
 10
161.3544242585
 20
44.3525194876
 11
159.3516387574
 21
44.3525194876
  0
LINE
  5
683
100
AcDbEntity
  8
0
100
AcDbLine
 62
7
  6
CONTINUOUS
 10
158.4086472146
 20
44.3525194876
 11
155.1397440073
 21
44.3525194876
  0
LINE
  5
684
100
AcDbEntity
  8
0
100
AcDbLine
 62
7
  6
CONTINUOUS
 10
154.3128380012
 20
44.3525194876
 11
153.378989682
 21
44.3525194876
  0
LINE
  5
685
100
AcDbEntity
  8
0
100
AcDbLine
 62
7
  6
CONTINUOUS
 10
152.7215522817
 20
44.3525194876
 11
151.4885858406
 21
44.3525194876
  0
LINE
  5
686
100
AcDbEntity
  8
0
100
AcDbLine
 62
7
  6
CONTINUOUS
 10
146.0557040845
 20
44.3525194876
 11
142.6903140045
 21
44.3525194876
  0
LINE
  5
687
100
AcDbEntity
  8
0
100
AcDbLine
 62
7
  6
CONTINUOUS
 10
142.2493374293
 20
44.3525194876
 11
138.9229536708
 21
44.3525194876
  0
LINE
  5
688
100
AcDbEntity
  8
KONSTRUKTIONSELEMENTE
100
AcDbLine
 62
7
  6
CONTINUOUS
 10
173.985215665
 20
44.8525194876
 11
167.0997758978
 21
44.8525194876
  0
LINE
  5
689
100
AcDbEntity
  8
KONSTRUKTIONSELEMENTE
100
AcDbLine
 62
7
  6
CONTINUOUS
 10
163.7694757984
 20
44.8525194876
 11
162.9455529332
 21
44.8525194876
  0
LINE
  5
68A
100
AcDbEntity
  8
KONSTRUKTIONSELEMENTE
100
AcDbLine
 62
7
  6
CONTINUOUS
 10
161.8949095453
 20
44.8525194876
 11
161.3544242585
 21
44.8525194876
  0
LINE
  5
68B
100
AcDbEntity
  8
KONSTRUKTIONSELEMENTE
100
AcDbLine
 62
7
  6
CONTINUOUS
 10
159.3516387574
 20
44.8525194876
 11
158.4086472146
 21
44.8525194876
  0
LINE
  5
68C
100
AcDbEntity
  8
KONSTRUKTIONSELEMENTE
100
AcDbLine
 62
7
  6
CONTINUOUS
 10
155.2644883644
 20
44.8525194876
 11
152.5930790011
 21
44.8525194876
  0
LINE
  5
68D
100
AcDbEntity
  8
KONSTRUKTIONSELEMENTE
100
AcDbLine
 62
7
  6
CONTINUOUS
 10
151.4885858406
 20
44.8525194876
 11
146.0557040845
 21
44.8525194876
  0
LINE
  5
68E
100
AcDbEntity
  8
KONSTRUKTIONSELEMENTE
100
AcDbLine
 62
7
  6
CONTINUOUS
 10
142.6903140045
 20
44.8525194876
 11
142.2493374293
 21
44.8525194876
  0
LINE
  5
68F
100
AcDbEntity
  8
KONSTRUKTIONSELEMENTE
100
AcDbLine
 62
7
  6
CONTINUOUS
 10
138.9229536708
 20
44.8525194876
 11
133.0372415822
 21
44.8525194876
  0
LWPOLYLINE
  5
690
100
AcDbEntity
  8
RUNDUNGEN
100
AcDbPolyline
 62
7
  6
CONTINUOUS
 90
4
 70
0
 10
145.2912357143
 20
56.9172608415
 10
145.3268236947
 20
56.8424385654
 10
145.3635632429
 20
56.7633877228
 10
145.399510835
 20
56.6841487122
  0
LWPOLYLINE
  5
691
100
AcDbEntity
  8
RUNDUNGEN
100
AcDbPolyline
 62
7
  6
CONTINUOUS
 90
4
 70
0
 10
144.6516686693
 20
58.0385446305
 10
144.7307349324
 20
57.8720132258
 10
144.8262961899
 20
57.7137684634
 10
144.8954936365
 20
57.6140766251
  0
LINE
  5
692
100
AcDbEntity
  8
RUNDUNGEN
100
AcDbLine
 62
7
  6
CONTINUOUS
 10
145.4314286697
 20
56.6121297438
 11
145.399510835
 21
56.6841487122
  0
LINE
  5
693
100
AcDbEntity
  8
RUNDUNGEN
100
AcDbLine
 62
7
  6
CONTINUOUS
 10
144.5887551673
 20
58.215125401
 11
144.6516686693
 21
58.0385446305
  0
LINE
  5
694
100
AcDbEntity
  8
RUNDUNGEN
100
AcDbLine
 62
7
  6
CONTINUOUS
 10
144.5887551673
 20
58.215125401
 11
144.5886688466
 21
58.21541317
  0
LWPOLYLINE
  5
695
100
AcDbEntity
  8
RUNDUNGEN
100
AcDbPolyline
 62
7
  6
CONTINUOUS
 90
5
 70
0
 10
145.1568023568
 20
43.5237218253
 10
145.0678764235
 20
43.3650887283
 10
144.9792885789
 20
43.2188877602
 10
144.8917193478
 20
43.0854295822
 10
144.8518618344
 20
43.0282078727
  0
LWPOLYLINE
  5
696
100
AcDbEntity
  8
RUNDUNGEN
100
AcDbPolyline
 62
7
  6
CONTINUOUS
 90
4
 70
0
 10
144.8511966277
 20
43.0272488321
 10
144.8162441663
 20
42.9761972096
 10
144.7242518933
 20
42.8208596877
 10
144.6480822934
 20
42.6577770179
  0
LINE
  5
697
100
AcDbEntity
  8
RUNDUNGEN
100
AcDbLine
 62
7
  6
CONTINUOUS
 10
144.8513975732
 20
43.0275320315
 11
144.8518532167
 21
43.0281736917
  0
LINE
  5
698
100
AcDbEntity
  8
KONSTRUKTIONSELEMENTE
100
AcDbLine
 62
7
  6
CONTINUOUS
 10
181.1208847831
 20
47.3525194876
 11
180.427579291
 21
47.3525194876
  0
LINE
  5
699
100
AcDbEntity
  8
KONSTRUKTIONSELEMENTE
100
AcDbLine
 62
7
  6
CONTINUOUS
 10
126.594645818
 20
47.3525194876
 11
125.9013403258
 21
47.3525194876
  0
LINE
  5
69A
100
AcDbEntity
  8
RUNDUNGEN
100
AcDbLine
 62
7
  6
CONTINUOUS
 10
144.8518533838
 20
57.6768457012
 11
144.8515792115
 21
57.6772317833
  0
LWPOLYLINE
  5
69B
100
AcDbEntity
  8
RUNDUNGEN
100
AcDbPolyline
 62
7
  6
CONTINUOUS
 90
4
 70
0
 10
144.8954936365
 20
57.6140766251
 10
144.9831431188
 20
57.4800306469
 10
145.0717633338
 20
57.333276618
 10
145.1606875404
 20
57.174109874
  0
LWPOLYLINE
  5
69C
100
AcDbEntity
  8
RUNDUNGEN
100
AcDbPolyline
 62
7
  6
CONTINUOUS
 90
3
 70
0
 10
145.1606875404
 20
57.174109874
 10
145.2493018822
 20
57.0029097355
 10
145.2912357143
 20
56.9172608415
  0
LINE
  5
69D
100
AcDbEntity
  8
0
100
AcDbLine
 62
7
  6
CONTINUOUS
 10
151.4885858406
 20
45.0739588366
 11
151.4885858406
 21
44.3525194876
  0
LINE
  5
69E
100
AcDbEntity
  8
0
100
AcDbLine
 62
7
  6
CONTINUOUS
 10
151.9462015726
 20
45.2838140316
 11
151.9462015726
 21
44.3525194876
  0
LINE
  5
69F
100
AcDbEntity
  8
0
100
AcDbLine
 62
7
  6
CONTINUOUS
 10
152.4450051676
 20
45.2861434013
 11
152.4450051676
 21
44.3525194876
  0
LINE
  5
6A0
100
AcDbEntity
  8
0
100
AcDbLine
 62
7
  6
CONTINUOUS
 10
152.7215522817
 20
44.8525194876
 11
152.7215522817
 21
44.3525194876
  0
LINE
  5
6A1
100
AcDbEntity
  8
0
100
AcDbLine
 62
7
  6
CONTINUOUS
 10
153.378989682
 20
44.8525194876
 11
153.378989682
 21
44.3525194876
  0
LINE
  5
6A2
100
AcDbEntity
  8
0
100
AcDbLine
 62
7
  6
CONTINUOUS
 10
153.8962434464
 20
44.8525194876
 11
153.8962434464
 21
44.3525194876
  0
LINE
  5
6A3
100
AcDbEntity
  8
0
100
AcDbLine
 62
7
  6
CONTINUOUS
 10
154.3128380012
 20
44.8525194876
 11
154.3128380012
 21
44.3525194876
  0
LINE
  5
6A4
100
AcDbEntity
  8
0
100
AcDbLine
 62
7
  6
CONTINUOUS
 10
155.1397440073
 20
44.8525194876
 11
155.1397440073
 21
44.3525194876
  0
LINE
  5
6A5
100
AcDbEntity
  8
0
100
AcDbLine
 62
7
  6
CONTINUOUS
 10
155.2609230659
 20
44.8525665514
 11
155.2609230659
 21
44.3525194876
  0
LINE
  5
6A6
100
AcDbEntity
  8
0
100
AcDbLine
 62
7
  6
CONTINUOUS
 10
155.6109958852
 20
45.3050135694
 11
155.6109958852
 21
44.3525194876
  0
LINE
  5
6A7
100
AcDbEntity
  8
0
100
AcDbLine
 62
7
  6
CONTINUOUS
 10
158.4086472146
 20
45.3005203491
 11
158.4086472146
 21
44.3525194876
  0
LINE
  5
6A8
100
AcDbEntity
  8
RUNDUNGEN
100
AcDbLine
 62
7
  6
CONTINUOUS
 10
161.5907969261
 20
56.6121308841
 11
161.6267313798
 21
56.6930827684
  0
LWPOLYLINE
  5
6A9
100
AcDbEntity
  8
RUNDUNGEN
100
AcDbPolyline
 62
7
  6
CONTINUOUS
 90
3
 70
0
 10
161.6267313798
 20
56.6930827684
 10
161.6621011868
 20
56.7708687159
 10
161.6989207651
 20
56.8499130023
  0
LINE
  5
6AA
100
AcDbEntity
  8
RUNDUNGEN
100
AcDbLine
 62
7
  6
CONTINUOUS
 10
161.6989207651
 20
56.8499130023
 11
161.7309615573
 21
56.9172079528
  0
LWPOLYLINE
  5
6AB
100
AcDbEntity
  8
RUNDUNGEN
100
AcDbPolyline
 62
7
  6
CONTINUOUS
 90
3
 70
0
 10
161.730986277
 20
56.9172538052
 10
161.7767590562
 20
57.0105906498
 10
161.8653935986
 20
57.1812647446
  0
LWPOLYLINE
  5
6AC
100
AcDbEntity
  8
RUNDUNGEN
100
AcDbPolyline
 62
7
  6
CONTINUOUS
 90
5
 70
0
 10
161.8653935986
 20
57.1812647446
 10
161.9543136014
 20
57.3398926237
 10
162.0429014817
 20
57.4860970679
 10
162.130481493
 20
57.6195735127
 10
162.1703601904
 20
57.6768262172
  0
LWPOLYLINE
  5
6AD
100
AcDbEntity
  8
RUNDUNGEN
100
AcDbPolyline
 62
7
  6
CONTINUOUS
 90
4
 70
0
 10
162.1710262397
 20
57.6777862931
 10
162.2059805625
 20
57.7288406078
 10
162.2979724133
 20
57.8841774909
 10
162.3741418472
 20
58.0472593789
  0
LINE
  5
6AE
100
AcDbEntity
  8
RUNDUNGEN
100
AcDbLine
 62
7
  6
CONTINUOUS
 10
162.1708255997
 20
57.6775035245
 11
162.1703688503
 21
57.67686031
  0
LINE
  5
6AF
100
AcDbEntity
  8
KONSTRUKTIONSELEMENTE
100
AcDbLine
 62
7
  6
CONTINUOUS
 10
181.1208847831
 20
53.3525194876
 11
180.427579291
 21
53.3525194876
  0
LINE
  5
6B0
100
AcDbEntity
  8
KONSTRUKTIONSELEMENTE
100
AcDbLine
 62
7
  6
CONTINUOUS
 10
126.594645818
 20
53.3525194876
 11
125.9013403258
 21
53.3525194876
  0
LINE
  5
6B1
100
AcDbEntity
  8
RUNDUNGEN
100
AcDbLine
 62
7
  6
CONTINUOUS
 10
162.1703708343
 20
43.0281937461
 11
162.1706671197
 21
43.0277765207
  0
LWPOLYLINE
  5
6B2
100
AcDbEntity
  8
RUNDUNGEN
100
AcDbPolyline
 62
7
  6
CONTINUOUS
 90
4
 70
0
 10
162.1267268472
 20
43.0909694338
 10
162.0390747976
 20
43.225019665
 10
161.9504545444
 20
43.3717737525
 10
161.8615316122
 20
43.5309387486
  0
LWPOLYLINE
  5
6B3
100
AcDbEntity
  8
RUNDUNGEN
100
AcDbPolyline
 62
7
  6
CONTINUOUS
 90
3
 70
0
 10
161.8615316122
 20
43.5309387486
 10
161.7729198407
 20
43.7021348433
 10
161.7309900523
 20
43.7877759133
  0
LWPOLYLINE
  5
6B4
100
AcDbEntity
  8
RUNDUNGEN
100
AcDbPolyline
 62
7
  6
CONTINUOUS
 90
4
 70
0
 10
161.7309900523
 20
43.7877759133
 10
161.6954018431
 20
43.8625996867
 10
161.6586623048
 20
43.9416505551
 10
161.6227146343
 20
44.020889765
  0
LWPOLYLINE
  5
6B5
100
AcDbEntity
  8
RUNDUNGEN
100
AcDbPolyline
 62
7
  6
CONTINUOUS
 90
4
 70
0
 10
162.3705597597
 20
42.6664836843
 10
162.2914893948
 20
42.8330265406
 10
162.1959201623
 20
42.9912832584
 10
162.1267268472
 20
43.0909694338
  0
LINE
  5
6B6
100
AcDbEntity
  8
RUNDUNGEN
100
AcDbLine
 62
7
  6
CONTINUOUS
 10
161.5907963967
 20
44.092909286
 11
161.6227146343
 21
44.020889765
  0
LINE
  5
6B7
100
AcDbEntity
  8
0
100
AcDbLine
 62
7
  6
CONTINUOUS
 10
159.3516387574
 20
44.8792661422
 11
159.3516387574
 21
44.3525194876
  0
LINE
  5
6B8
100
AcDbEntity
  8
0
100
AcDbLine
 62
7
  6
CONTINUOUS
 10
159.4615661964
 20
44.9236681918
 11
159.4615661964
 21
44.3525194876
  0
LINE
  5
6B9
100
AcDbEntity
  8
0
100
AcDbLine
 62
7
  6
CONTINUOUS
 10
160.0925200872
 20
44.9203311425
 11
160.0925200872
 21
44.3525194876
  0
LINE
  5
6BA
100
AcDbEntity
  8
0
100
AcDbLine
 62
7
  6
CONTINUOUS
 10
160.3123750423
 20
45.0730378063
 11
160.3123750423
 21
44.3525194876
  0
LINE
  5
6BB
100
AcDbEntity
  8
0
100
AcDbLine
 62
7
  6
CONTINUOUS
 10
160.7067198702
 20
45.072348297
 11
160.7067198702
 21
44.3525194876
  0
LWPOLYLINE
  5
6BC
100
AcDbEntity
  8
RUNDUNGEN
100
AcDbPolyline
 62
7
  6
CONTINUOUS
 90
6
 70
0
 10
162.4449947195
 20
58.2550129734
 10
162.4682602962
 20
58.3472266034
 10
162.4874233038
 20
58.4441016027
 10
162.5016415949
 20
58.5467257897
 10
162.5097980197
 20
58.6567952785
 10
162.5111126311
 20
58.7222602062
  0
LINE
  5
6BD
100
AcDbEntity
  8
RUNDUNGEN
100
AcDbLine
 62
7
  6
CONTINUOUS
 10
162.433572397
 20
58.2154765074
 11
162.4449947195
 21
58.2550129734
  0
LINE
  5
6BE
100
AcDbEntity
  8
RUNDUNGEN
100
AcDbLine
 62
7
  6
CONTINUOUS
 10
162.4335793844
 20
58.2154744388
 11
162.4334917004
 21
58.2151819934
  0
LINE
  5
6BF
100
AcDbEntity
  8
RUNDUNGEN
100
AcDbLine
 62
7
  6
CONTINUOUS
 10
162.3741418472
 20
58.0472593789
 11
162.4334917004
 21
58.2151819934
  0
LINE
  5
6C0
100
AcDbEntity
  8
KONSTRUKTIONSELEMENTE
100
AcDbLine
 62
7
  6
CONTINUOUS
 10
173.9852154006
 20
55.8525194876
 11
133.037039647
 21
55.8525194876
  0
LINE
  5
6C1
100
AcDbEntity
  8
RUNDUNGEN
100
AcDbLine
 62
7
  6
CONTINUOUS
 10
162.433469811
 20
42.4899153685
 11
162.3705597597
 21
42.6664836843
  0
LINE
  5
6C2
100
AcDbEntity
  8
RUNDUNGEN
100
AcDbLine
 62
7
  6
CONTINUOUS
 10
162.433469811
 20
42.4899153685
 11
162.4335156631
 21
42.4897625952
  0
LWPOLYLINE
  5
6C3
100
AcDbEntity
  8
RUNDUNGEN
100
AcDbPolyline
 62
7
  6
CONTINUOUS
 90
7
 70
0
 10
162.5111147009
 20
41.9841573878
 10
162.5093076504
 20
42.05940665
 10
162.5004474205
 20
42.1690880225
 10
162.4856066528
 20
42.2714702335
 10
162.4660105126
 20
42.3676416673
 10
162.4426861346
 20
42.458260397
 10
162.4335119513
 20
42.4897614733
  0
LINE
  5
6C4
100
AcDbEntity
  8
0
100
AcDbLine
 62
7
  6
CONTINUOUS
 10
161.3544242585
 20
44.9236681918
 11
161.3544242585
 21
44.3525194876
  0
LINE
  5
6C5
100
AcDbEntity
  8
0
100
AcDbLine
 62
7
  6
CONTINUOUS
 10
161.7164634063
 20
44.8525194876
 11
161.7164634063
 21
44.3525194876
  0
LINE
  5
6C6
100
AcDbEntity
  8
0
100
AcDbLine
 62
7
  6
CONTINUOUS
 10
161.9023726104
 20
44.8525459584
 11
161.9023726104
 21
44.3525194876
  0
LINE
  5
6C7
100
AcDbEntity
  8
RUNDUNGEN
100
AcDbLine
 62
7
  6
CONTINUOUS
 10
162.5111125545
 20
66.6639418658
 11
162.5111125545
 21
58.7218207058
  0
LINE
  5
6C8
100
AcDbEntity
  8
RUNDUNGEN
100
AcDbLine
 62
7
  6
CONTINUOUS
 10
162.5111103056
 20
41.9841945746
 11
162.5111125545
 21
34.0410971094
  0
LINE
  5
6C9
100
AcDbEntity
  8
0
100
AcDbLine
 62
7
  6
CONTINUOUS
 10
162.9518080853
 20
44.8525381296
 11
162.9518080853
 21
44.3525194876
  0
LINE
  5
6CA
100
AcDbEntity
  8
0
100
AcDbLine
 62
7
  6
CONTINUOUS
 10
163.0111125545
 20
65.3230288785
 11
163.0111125545
 21
64.7186946504
  0
LINE
  5
6CB
100
AcDbEntity
  8
0
100
AcDbLine
 62
7
  6
CONTINUOUS
 10
163.0111125545
 20
64.6958035254
 11
163.0111125545
 21
61.3430791301
  0
LINE
  5
6CC
100
AcDbEntity
  8
0
100
AcDbLine
 62
7
  6
CONTINUOUS
 10
163.0111125545
 20
40.3525194876
 11
163.0111125545
 21
37.3525194876
  0
LINE
  5
6CD
100
AcDbEntity
  8
0
100
AcDbLine
 62
7
  6
CONTINUOUS
 10
135.4539117747
 20
58.3525194876
 11
135.1808097747
 21
58.3525194876
  0
LINE
  5
6CE
100
AcDbEntity
  8
0
100
AcDbLine
 62
7
  6
CONTINUOUS
 10
135.6247524721
 20
58.7275193684
 11
135.3490813631
 21
58.7275193684
  0
LINE
  5
6CF
100
AcDbEntity
  8
0
100
AcDbLine
 62
7
  6
CONTINUOUS
 10
135.9309390627
 20
59.3525194876
 11
135.650541455
 21
59.3525194876
  0
LINE
  5
6D0
100
AcDbEntity
  8
0
100
AcDbLine
 62
7
  6
CONTINUOUS
 10
165.0067470197
 20
45.3062234683
 11
165.0067470197
 21
44.3525194876
  0
LINE
  5
6D1
100
AcDbEntity
  8
0
100
AcDbLine
 62
7
  6
CONTINUOUS
 10
162.5111125545
 20
61.3330540043
 11
163.0111125545
 21
61.3330540043
  0
LINE
  5
6D2
100
AcDbEntity
  8
0
100
AcDbLine
 62
7
  6
CONTINUOUS
 10
162.5111125545
 20
61.3430791301
 11
163.0111125545
 21
61.3430791301
  0
LINE
  5
6D3
100
AcDbEntity
  8
0
100
AcDbLine
 62
7
  6
CONTINUOUS
 10
162.5111125545
 20
61.9474133582
 11
163.0111125545
 21
61.9474133582
  0
LINE
  5
6D4
100
AcDbEntity
  8
0
100
AcDbLine
 62
7
  6
CONTINUOUS
 10
166.6581487085
 20
45.2857709089
 11
166.6581487085
 21
44.3525194876
  0
LINE
  5
6D5
100
AcDbEntity
  8
0
100
AcDbLine
 62
7
  6
CONTINUOUS
 10
166.95418257
 20
45.2556503332
 11
166.95418257
 21
44.3525194876
  0
LINE
  5
6D6
100
AcDbEntity
  8
0
100
AcDbLine
 62
7
  6
CONTINUOUS
 10
167.0853875142
 20
45.1649389906
 11
167.0853875142
 21
44.3525194876
  0
LINE
  5
6D7
100
AcDbEntity
  8
0
100
AcDbLine
 62
7
  6
CONTINUOUS
 10
167.0997758978
 20
45.0617351445
 11
167.0997758978
 21
44.3525194876
  0
LINE
  5
6D8
100
AcDbEntity
  8
0
100
AcDbLine
 62
7
  6
CONTINUOUS
 10
137.8247331124
 20
62.3525194876
 11
137.5111125545
 21
62.3525194876
  0
LINE
  5
6D9
100
AcDbEntity
  8
0
100
AcDbLine
 62
7
  6
CONTINUOUS
 10
162.5111125545
 20
63.0287197761
 11
163.0111125545
 21
63.0287197761
  0
LINE
  5
6DA
100
AcDbEntity
  8
0
100
AcDbLine
 62
7
  6
CONTINUOUS
 10
162.5111125545
 20
63.6330540043
 11
163.0111125545
 21
63.6330540043
  0
LINE
  5
6DB
100
AcDbEntity
  8
0
100
AcDbLine
 62
7
  6
CONTINUOUS
 10
162.5111125545
 20
64.7186946504
 11
163.0111125545
 21
64.7186946504
  0
LINE
  5
6DC
100
AcDbEntity
  8
0
100
AcDbLine
 62
7
  6
CONTINUOUS
 10
162.5111125545
 20
65.3230288785
 11
163.0111125545
 21
65.3230288785
  0
LINE
  5
6DD
100
AcDbEntity
  8
0
100
AcDbLine
 62
7
  6
CONTINUOUS
 10
162.5111125545
 20
65.3330540043
 11
163.0111125545
 21
65.3330540043
  0
LINE
  5
6DE
100
AcDbEntity
  8
RUNDUNGEN
100
AcDbLine
 62
7
  6
CONTINUOUS
 10
161.5111125545
 20
66.3325194876
 11
145.5111125545
 21
66.3325194876
  0
LINE
  5
6DF
100
AcDbEntity
  8
KONSTRUKTIONSELEMENTE
100
AcDbLine
 62
7
  6
CONTINUOUS
 10
166.0181541096
 20
31.0153509135
 11
174.007137622
 21
44.8526762578
  0
LINE
  5
6E0
100
AcDbEntity
  8
KONSTRUKTIONSELEMENTE
100
AcDbLine
 62
7
  6
CONTINUOUS
 10
164.0040709993
 20
70.8525194876
 11
143.0181541096
 21
70.8525194876
  0
LINE
  5
6E1
100
AcDbEntity
  8
KONSTRUKTIONSELEMENTE
100
AcDbLine
 62
7
  6
CONTINUOUS
 10
174.0071377434
 20
55.8523625072
 11
166.0181541096
 21
69.6896880617
  0
LINE
  5
6E2
100
AcDbEntity
  8
KONSTRUKTIONSELEMENTE
100
AcDbLine
 62
7
  6
CONTINUOUS
 10
164.0040709993
 20
29.8525194876
 11
166.0181541096
 21
31.0153509135
  0
LINE
  5
6E3
100
AcDbEntity
  8
KONSTRUKTIONSELEMENTE
100
AcDbLine
 62
7
  6
CONTINUOUS
 10
166.0181541096
 20
69.6896880617
 11
164.0040709993
 21
70.8525194876
  0
ARC
  5
6E4
100
AcDbEntity
  8
RUNDUNGEN
100
AcDbCircle
 62
7
  6
CONTINUOUS
 10
139.5111125545
 20
170.4291968796
 40
5.0
100
AcDbArc
 50
270.0000324082
 51
360.0
  0
ARC
  5
6E5
100
AcDbEntity
  8
RUNDUNGEN
100
AcDbCircle
 62
7
  6
CONTINUOUS
 10
135.7611125545
 20
163.4291968796
 40
2.0
100
AcDbArc
 50
90.0
 51
180.0
  0
ARC
  5
6E6
100
AcDbEntity
  8
KONSTRUKTIONSELEMENTE
100
AcDbCircle
 62
7
  6
CONTINUOUS
 10
93.5111125545
 20
217.2291968796
 40
88.5
100
AcDbArc
 50
343.7397952917
 51
16.2602047083
  0
ARC
  5
6E7
100
AcDbEntity
  8
KONSTRUKTIONSELEMENTE
100
AcDbCircle
 62
7
  6
CONTINUOUS
 10
93.5111125545
 20
217.2291968796
 40
87.6097722286
100
AcDbArc
 50
352.7870903408
 51
7.2129096592
  0
ARC
  5
6E8
100
AcDbEntity
  8
KONSTRUKTIONSELEMENTE
100
AcDbCircle
 62
7
  6
CONTINUOUS
 10
93.5111125545
 20
217.2291968796
 40
78.3902277714
100
AcDbArc
 50
351.9334272256
 51
8.0665727744
  0
ARC
  5
6E9
100
AcDbEntity
  8
KONSTRUKTIONSELEMENTE
100
AcDbCircle
 62
7
  6
CONTINUOUS
 10
93.5111125545
 20
217.2291968796
 40
77.5
100
AcDbArc
 50
343.7397952917
 51
16.2602047083
  0
ARC
  5
6EA
100
AcDbEntity
  8
RUNDUNGEN
100
AcDbCircle
 62
7
  6
CONTINUOUS
 10
153.5111125545
 20
188.9291968796
 40
9.0
100
AcDbArc
 50
0.0
 51
180.0
  0
ARC
  5
6EB
100
AcDbEntity
  8
RUNDUNGEN
100
AcDbCircle
 62
7
  6
CONTINUOUS
 10
167.5111125545
 20
170.4291968796
 40
5.0
100
AcDbArc
 50
180.0
 51
269.9996441364
  0
ARC
  5
6EC
100
AcDbEntity
  8
RUNDUNGEN
100
AcDbCircle
 62
7
  6
CONTINUOUS
 10
171.2611125545
 20
163.4291968796
 40
2.0
100
AcDbArc
 50
0.0
 51
90.0
  0
ARC
  5
6ED
100
AcDbEntity
  8
KONSTRUKTIONSELEMENTE
100
AcDbCircle
 62
7
  6
CONTINUOUS
 10
213.5111125545
 20
217.2291968796
 40
88.5
100
AcDbArc
 50
163.7397952917
 51
196.2602047083
  0
ARC
  5
6EE
100
AcDbEntity
  8
KONSTRUKTIONSELEMENTE
100
AcDbCircle
 62
7
  6
CONTINUOUS
 10
213.5111125545
 20
217.2291968796
 40
87.6097722286
100
AcDbArc
 50
172.7870903408
 51
187.2129096592
  0
ARC
  5
6EF
100
AcDbEntity
  8
KONSTRUKTIONSELEMENTE
100
AcDbCircle
 62
7
  6
CONTINUOUS
 10
213.5111125545
 20
217.2291968796
 40
78.3902277714
100
AcDbArc
 50
171.9334272256
 51
188.0665727744
  0
ARC
  5
6F0
100
AcDbEntity
  8
KONSTRUKTIONSELEMENTE
100
AcDbCircle
 62
7
  6
CONTINUOUS
 10
213.5111125545
 20
217.2291968796
 40
77.5
100
AcDbArc
 50
163.7397952917
 51
196.2602047083
  0
ARC
  5
6F1
100
AcDbEntity
  8
KONSTRUKTIONSELEMENTE
100
AcDbCircle
 62
7
  6
CONTINUOUS
 10
153.5111125545
 20
199.7291968796
 40
26.0
100
AcDbArc
 50
196.2602047083
 51
249.7391309245
  0
ARC
  5
6F2
100
AcDbEntity
  8
KONSTRUKTIONSELEMENTE
100
AcDbCircle
 62
7
  6
CONTINUOUS
 10
153.5111125545
 20
199.7291968796
 40
26.0
100
AcDbArc
 50
290.2608690755
 51
343.7397952917
  0
ARC
  5
6F3
100
AcDbEntity
  8
KONSTRUKTIONSELEMENTE
100
AcDbCircle
 62
7
  6
CONTINUOUS
 10
153.5111125545
 20
234.7291968796
 40
26.0
100
AcDbArc
 50
16.2602047083
 51
163.7397952917
  0
ARC
  5
6F4
100
AcDbEntity
  8
KONSTRUKTIONSELEMENTE
100
AcDbCircle
 62
7
  6
CONTINUOUS
 10
153.5111125545
 20
234.7291968796
 40
15.0
100
AcDbArc
 50
16.2602047083
 51
163.7397952917
  0
ARC
  5
6F5
100
AcDbEntity
  8
KONSTRUKTIONSELEMENTE
100
AcDbCircle
 62
7
  6
CONTINUOUS
 10
153.5111125545
 20
199.7291968796
 40
15.0
100
AcDbArc
 50
196.2602047083
 51
233.099312579
  0
ARC
  5
6F6
100
AcDbEntity
  8
KONSTRUKTIONSELEMENTE
100
AcDbCircle
 62
7
  6
CONTINUOUS
 10
153.5111125545
 20
199.7291968796
 40
15.0
100
AcDbArc
 50
306.900687421
 51
343.7397952917
  0
ARC
  5
6F7
100
AcDbEntity
  8
RUNDUNGEN
100
AcDbCircle
 62
7
  6
CONTINUOUS
 10
243.6431123987
 20
183.0942603891
 40
3.5
100
AcDbArc
 50
330.0
 51
360.0
  0
ARC
  5
6F8
100
AcDbEntity
  8
RUNDUNGEN
100
AcDbCircle
 62
7
  6
CONTINUOUS
 10
249.6431123987
 20
194.4534015903
 40
2.5
100
AcDbArc
 50
150.0
 51
180.0000625445
  0
ARC
  5
6F9
100
AcDbEntity
  8
RUNDUNGEN
100
AcDbCircle
 62
7
  6
CONTINUOUS
 10
254.0677272606
 20
196.4291968796
 40
1.5
100
AcDbArc
 50
65.090847263
 51
90.0
  0
ARC
  5
6FA
100
AcDbEntity
  8
RUNDUNGEN
100
AcDbCircle
 62
7
  6
CONTINUOUS
 10
249.3404626679
 20
196.9291968796
 40
1.0
100
AcDbArc
 50
90.0000000005
 51
150.0
  0
ARC
  5
6FB
100
AcDbEntity
  8
RUNDUNGEN
100
AcDbCircle
 62
7
  6
CONTINUOUS
 10
244.3731608187
 20
175.3587413445
 40
1.0
100
AcDbArc
 50
150.0055485255
 51
180.0048048296
  0
ARC
  5
6FC
100
AcDbEntity
  8
0
100
AcDbCircle
 62
7
  6
CONTINUOUS
 10
249.882830664
 20
253.0115182824
 40
18.3090517952
100
AcDbArc
 50
357.1608416034
 51
0.8514201964
  0
ARC
  5
6FD
100
AcDbEntity
  8
0
100
AcDbCircle
 62
7
  6
CONTINUOUS
 10
259.0566933017
 20
255.3101863972
 40
9.1351840313
100
AcDbArc
 50
355.9806204455
 51
1.2038454992
  0
ARC
  5
6FE
100
AcDbEntity
  8
0
100
AcDbCircle
 62
7
  6
CONTINUOUS
 10
260.9468805936
 20
254.6080591448
 40
7.3630838362
100
AcDbArc
 50
349.6371880418
 51
351.0333350392
  0
ARC
  5
6FF
100
AcDbEntity
  8
RUNDUNGEN
100
AcDbCircle
 62
7
  6
CONTINUOUS
 10
263.1231123987
 20
174.9291968796
 40
8.0
100
AcDbArc
 50
137.9987747858
 51
42.001426094
  0
ARC
  5
700
100
AcDbEntity
  8
KONSTRUKTIONSELEMENTE
100
AcDbCircle
 62
7
  6
CONTINUOUS
 10
263.1231123987
 20
179.2291968796
 40
5.5
100
AcDbArc
 50
180.0
 51
360.0
  0
ARC
  5
701
100
AcDbEntity
  8
RUNDUNGEN
100
AcDbCircle
 62
7
  6
CONTINUOUS
 10
281.6231123987
 20
183.0942603891
 40
3.5
100
AcDbArc
 50
180.0
 51
210.0
  0
ARC
  5
702
100
AcDbEntity
  8
RUNDUNGEN
100
AcDbCircle
 62
7
  6
CONTINUOUS
 10
275.6231123987
 20
194.4534015903
 40
2.5
100
AcDbArc
 50
0.0009709829
 51
29.9969156548
  0
ARC
  5
703
100
AcDbEntity
  8
RUNDUNGEN
100
AcDbCircle
 62
7
  6
CONTINUOUS
 10
272.1784975368
 20
196.4291968796
 40
1.5
100
AcDbArc
 50
90.0
 51
114.909152737
  0
ARC
  5
704
100
AcDbEntity
  8
RUNDUNGEN
100
AcDbCircle
 62
7
  6
CONTINUOUS
 10
275.9257621295
 20
196.9291968796
 40
1.0
100
AcDbArc
 50
30.0
 51
89.9999999994
  0
ARC
  5
705
100
AcDbEntity
  8
RUNDUNGEN
100
AcDbCircle
 62
7
  6
CONTINUOUS
 10
281.8731041502
 20
173.6612619741
 40
1.0
100
AcDbArc
 50
359.9991814288
 51
29.9990547862
  0
ARC
  5
706
100
AcDbEntity
  8
0
100
AcDbCircle
 62
7
  6
CONTINUOUS
 10
263.1231123987
 20
215.9291968796
 40
20.0
100
AcDbArc
 50
245.090847263
 51
254.0336677342
  0
ARC
  5
707
100
AcDbEntity
  8
0
100
AcDbCircle
 62
7
  6
CONTINUOUS
 10
263.1231123987
 20
215.9291968796
 40
20.0
100
AcDbArc
 50
285.9663322658
 51
294.909152737
  0
ARC
  5
708
100
AcDbEntity
  8
0
100
AcDbCircle
 62
7
  6
CONTINUOUS
 10
262.8191145349
 20
255.1677461813
 40
5.784059564
100
AcDbArc
 50
15.1680182549
 51
21.7389424365
  0
ARC
  5
709
100
AcDbEntity
  8
KONSTRUKTIONSELEMENTE
100
AcDbCircle
 62
7
  6
CONTINUOUS
 10
263.1231123987
 20
255.2291968796
 40
5.5
100
AcDbArc
 50
22.6669822791
 51
180.0
  0
ARC
  5
70A
100
AcDbEntity
  8
0
100
AcDbCircle
 62
7
  6
CONTINUOUS
 10
263.1395243821
 20
255.1380768497
 40
5.4837284384
100
AcDbArc
 50
9.0635307779
 51
16.3432355456
  0
ARC
  5
70B
100
AcDbEntity
  8
0
100
AcDbCircle
 62
7
  6
CONTINUOUS
 10
263.1524693591
 20
255.1803687257
 40
5.4706349881
100
AcDbArc
 50
4.3826540673
 51
8.6470219385
  0
ARC
  5
70C
100
AcDbEntity
  8
0
100
AcDbCircle
 62
7
  6
CONTINUOUS
 10
263.9282509651
 20
252.6501545496
 40
4.6975153484
100
AcDbArc
 50
9.933796636
 51
25.4645843539
  0
ARC
  5
70D
100
AcDbEntity
  8
0
100
AcDbCircle
 62
7
  6
CONTINUOUS
 10
265.9221185184
 20
256.2663789985
 40
2.3930648804
100
AcDbArc
 50
341.3753316786
 51
343.7843849818
  0
ARC
  5
70E
100
AcDbEntity
  8
0
100
AcDbCircle
 62
7
  6
CONTINUOUS
 10
267.9330588509
 20
257.3099619885
 40
0.2587590144
100
AcDbArc
 50
0.0163058282
 51
7.6937205597
  0
ARC
  5
70F
100
AcDbEntity
  8
RUNDUNGEN
100
AcDbCircle
 62
7
  6
CONTINUOUS
 10
126.5111125545
 20
50.3525194876
 40
20.0
100
AcDbArc
 50
18.5833672856
 51
24.909152737
  0
ARC
  5
710
100
AcDbEntity
  8
RUNDUNGEN
100
AcDbCircle
 62
7
  6
CONTINUOUS
 10
126.5111125545
 20
50.3525194876
 40
20.0
100
AcDbArc
 50
335.090847263
 51
341.4166327144
  0
ARC
  5
711
100
AcDbEntity
  8
KONSTRUKTIONSELEMENTE
100
AcDbCircle
 62
7
  6
CONTINUOUS
 10
133.0386414342
 20
50.8283413402
 40
5.9758035033
100
AcDbArc
 50
269.1351752577
 51
270.0163892118
  0
ARC
  5
712
100
AcDbEntity
  8
KONSTRUKTIONSELEMENTE
100
AcDbCircle
 62
7
  6
CONTINUOUS
 10
133.0385115087
 20
49.9399223505
 40
5.9125786503
100
AcDbArc
 50
89.9816002185
 51
90.1288570282
  0
ARC
  5
713
100
AcDbEntity
  8
KONSTRUKTIONSELEMENTE
100
AcDbCircle
 62
7
  6
CONTINUOUS
 10
130.5111125545
 20
50.3525194876
 40
5.5
100
AcDbArc
 50
146.9442688491
 51
213.0557311509
  0
ARC
  5
714
100
AcDbEntity
  8
RUNDUNGEN
100
AcDbCircle
 62
7
  6
CONTINUOUS
 10
146.0111125545
 20
41.2971343495
 40
1.5
100
AcDbArc
 50
155.090847263
 51
180.0
  0
ARC
  5
715
100
AcDbEntity
  8
RUNDUNGEN
100
AcDbCircle
 62
7
  6
CONTINUOUS
 10
145.5111125545
 20
36.3525194876
 40
1.0
100
AcDbArc
 50
180.0
 51
270.0
  0
ARC
  5
716
100
AcDbEntity
  8
0
100
AcDbCircle
 62
7
  6
CONTINUOUS
 10
143.8343156192
 20
57.700668426
 40
12.7804941407
100
AcDbArc
 50
256.8432340662
 51
258.7686032243
  0
ARC
  5
717
100
AcDbEntity
  8
0
100
AcDbCircle
 62
7
  6
CONTINUOUS
 10
143.4546773912
 20
52.5581345205
 40
7.6882983298
100
AcDbArc
 50
254.0739451415
 51
257.1717823973
  0
ARC
  5
718
100
AcDbEntity
  8
0
100
AcDbCircle
 62
7
  6
CONTINUOUS
 10
143.0737367638
 20
49.1423541192
 40
4.2906812701
100
AcDbArc
 50
251.9973463354
 51
255.0310729814
  0
ARC
  5
719
100
AcDbEntity
  8
0
100
AcDbCircle
 62
7
  6
CONTINUOUS
 10
142.7486827453
 20
46.9700405972
 40
2.1225523697
100
AcDbArc
 50
248.3464381091
 51
254.0707491643
  0
ARC
  5
71A
100
AcDbEntity
  8
RUNDUNGEN
100
AcDbCircle
 62
7
  6
CONTINUOUS
 10
146.0111125545
 20
59.4079046258
 40
1.5
100
AcDbArc
 50
180.0
 51
204.909152737
  0
ARC
  5
71B
100
AcDbEntity
  8
RUNDUNGEN
100
AcDbCircle
 62
7
  6
CONTINUOUS
 10
147.2723371269
 20
43.2806815425
 40
2.0120802977
100
AcDbArc
 50
151.1137024179
 51
156.1924759299
  0
ARC
  5
71C
100
AcDbEntity
  8
RUNDUNGEN
100
AcDbCircle
 62
7
  6
CONTINUOUS
 10
147.266296933
 20
43.2839923386
 40
2.0051922682
100
AcDbArc
 50
148.9804358963
 51
151.113159875
  0
ARC
  5
71D
100
AcDbEntity
  8
RUNDUNGEN
100
AcDbCircle
 62
7
  6
CONTINUOUS
 10
147.3640530149
 20
43.3414663993
 40
1.9999999826
100
AcDbArc
 50
149.5775864412
 51
161.4165852833
  0
ARC
  5
71E
100
AcDbEntity
  8
RUNDUNGEN
100
AcDbCircle
 62
7
  6
CONTINUOUS
 10
146.5110839178
 20
34.0410999376
 40
1.9999918181
100
AcDbArc
 50
180.0000810222
 51
246.7743345796
  0
ARC
  5
71F
100
AcDbEntity
  8
RUNDUNGEN
100
AcDbCircle
 62
7
  6
CONTINUOUS
 10
147.2594059147
 20
43.2881154939
 40
1.9971619364
100
AcDbArc
 50
147.7694846402
 51
148.9799296893
  0
ARC
  5
720
100
AcDbEntity
  8
0
100
AcDbCircle
 62
7
  6
CONTINUOUS
 10
147.7661377505
 20
57.115712544
 40
12.1960336716
100
AcDbArc
 50
256.520258644
 51
258.4900803812
  0
ARC
  5
721
100
AcDbEntity
  8
0
100
AcDbCircle
 62
7
  6
CONTINUOUS
 10
147.286614724
 20
51.4400352115
 40
6.5722995082
100
AcDbArc
 50
252.7035851885
 51
256.0442457645
  0
ARC
  5
722
100
AcDbEntity
  8
0
100
AcDbCircle
 62
7
  6
CONTINUOUS
 10
150.2593688178
 20
48.3582936755
 40
3.5068261752
100
AcDbArc
 50
290.5191991506
 51
298.751653924
  0
ARC
  5
723
100
AcDbEntity
  8
0
100
AcDbCircle
 62
7
  6
CONTINUOUS
 10
146.8451238337
 20
48.0015638169
 40
3.1544157192
100
AcDbArc
 50
248.7444075718
 51
252.2523186521
  0
ARC
  5
724
100
AcDbEntity
  8
RUNDUNGEN
100
AcDbCircle
 62
7
  6
CONTINUOUS
 10
147.3640537309
 20
57.36357107
 40
2.0
100
AcDbArc
 50
198.5833672856
 51
229.1811331197
  0
ARC
  5
725
100
AcDbEntity
  8
RUNDUNGEN
100
AcDbCircle
 62
7
  6
CONTINUOUS
 10
147.259686092
 20
57.4176179676
 40
1.9977855808
100
AcDbArc
 50
203.7771866093
 51
231.7154793118
  0
ARC
  5
726
100
AcDbEntity
  8
0
100
AcDbCircle
 62
7
  6
CONTINUOUS
 10
144.0890909542
 20
88.818972905
 40
43.5352264391
100
AcDbArc
 50
268.1587827206
 51
270.552550413
  0
ARC
  5
727
100
AcDbEntity
  8
0
100
AcDbCircle
 62
7
  6
CONTINUOUS
 10
147.5444271662
 20
84.1731854012
 40
39.0057078605
100
AcDbArc
 50
265.5366230125
 51
266.1467903039
  0
ARC
  5
728
100
AcDbEntity
  8
0
100
AcDbCircle
 62
7
  6
CONTINUOUS
 10
140.1655862969
 20
79.6451172451
 40
34.3613702052
100
AcDbArc
 50
267.9275234807
 51
270.6218649154
  0
ARC
  5
729
100
AcDbEntity
  8
0
100
AcDbCircle
 62
7
  6
CONTINUOUS
 10
143.3742325676
 20
79.1980457615
 40
34.0306278673
100
AcDbArc
 50
265.2201060107
 51
265.8732264532
  0
ARC
  5
72A
100
AcDbEntity
  8
RUNDUNGEN
100
AcDbCircle
 62
7
  6
CONTINUOUS
 10
146.5111125545
 20
66.6639418658
 40
2.0
100
AcDbArc
 50
113.2270472543
 51
180.0
  0
ARC
  5
72B
100
AcDbEntity
  8
RUNDUNGEN
100
AcDbCircle
 62
7
  6
CONTINUOUS
 10
145.5111125545
 20
65.3325194876
 40
1.0
100
AcDbArc
 50
90.0
 51
180.0
  0
ARC
  5
72C
100
AcDbEntity
  8
0
100
AcDbCircle
 62
7
  6
CONTINUOUS
 10
151.9465433224
 20
98.617881791
 40
53.3340677605
100
AcDbArc
 50
269.9996328646
 51
270.5354959216
  0
ARC
  5
72D
100
AcDbEntity
  8
0
100
AcDbCircle
 62
7
  6
CONTINUOUS
 10
153.5111125545
 20
50.3525194876
 40
20.0
100
AcDbArc
 50
218.2249102016
 51
230.2417722628
  0
ARC
  5
72E
100
AcDbEntity
  8
0
100
AcDbCircle
 62
7
  6
CONTINUOUS
 10
153.5111125545
 20
50.3525194876
 40
20.0
100
AcDbArc
 50
195.9621771144
 51
214.6631037125
  0
ARC
  5
72F
100
AcDbEntity
  8
0
100
AcDbCircle
 62
7
  6
CONTINUOUS
 10
153.5111125545
 20
50.3525194876
 40
20.0
100
AcDbArc
 50
143.1301023542
 51
164.0345141124
  0
ARC
  5
730
100
AcDbEntity
  8
RUNDUNGEN
100
AcDbCircle
 62
7
  6
CONTINUOUS
 10
153.5111125545
 20
50.3525194876
 40
19.75
100
AcDbArc
 50
196.1835988214
 51
343.8164012103
  0
ARC
  5
731
100
AcDbEntity
  8
RUNDUNGEN
100
AcDbCircle
 62
7
  6
CONTINUOUS
 10
153.5111125545
 20
50.3525194876
 40
19.75
100
AcDbArc
 50
16.1835987991
 51
163.8164011886
  0
ARC
  5
732
100
AcDbEntity
  8
RUNDUNGEN
100
AcDbCircle
 62
7
  6
CONTINUOUS
 10
159.7522394492
 20
43.281782279
 40
2.0094845876
100
AcDbArc
 50
23.805915764
 51
32.9059218196
  0
ARC
  5
733
100
AcDbEntity
  8
RUNDUNGEN
100
AcDbCircle
 62
7
  6
CONTINUOUS
 10
160.5111125545
 20
34.0410971094
 40
2.0
100
AcDbArc
 50
293.2248924501
 51
360.0
  0
ARC
  5
734
100
AcDbEntity
  8
RUNDUNGEN
100
AcDbCircle
 62
7
  6
CONTINUOUS
 10
159.658171378
 20
43.3414679053
 40
2.0
100
AcDbArc
 50
18.5833672856
 51
31.9135714161
  0
ARC
  5
735
100
AcDbEntity
  8
RUNDUNGEN
100
AcDbCircle
 62
7
  6
CONTINUOUS
 10
159.7647556395
 20
43.2891330818
 40
1.9949843738
100
AcDbArc
 50
33.8934329192
 51
37.0186808558
  0
ARC
  5
736
100
AcDbEntity
  8
RUNDUNGEN
100
AcDbCircle
 62
7
  6
CONTINUOUS
 10
159.7686428213
 20
43.2917841279
 40
1.9902793612
100
AcDbArc
 50
32.920722396
 51
33.8924862755
  0
ARC
  5
737
100
AcDbEntity
  8
RUNDUNGEN
100
AcDbCircle
 62
7
  6
CONTINUOUS
 10
161.0111125545
 20
41.2971343495
 40
1.5
100
AcDbArc
 50
0.0
 51
24.9091527382
  0
ARC
  5
738
100
AcDbEntity
  8
RUNDUNGEN
100
AcDbCircle
 62
7
  6
CONTINUOUS
 10
161.5111125545
 20
36.3525194876
 40
1.0
100
AcDbArc
 50
270.0
 51
360.0
  0
ARC
  5
739
100
AcDbEntity
  8
RUNDUNGEN
100
AcDbCircle
 62
7
  6
CONTINUOUS
 10
159.6581720035
 20
57.3635723744
 40
1.9999999845
100
AcDbArc
 50
310.8188288727
 51
341.4165915854
  0
ARC
  5
73A
100
AcDbEntity
  8
RUNDUNGEN
100
AcDbCircle
 62
7
  6
CONTINUOUS
 10
159.7625396036
 20
57.4176191826
 40
1.9977855164
100
AcDbArc
 50
308.2844488449
 51
336.2228102775
  0
ARC
  5
73B
100
AcDbEntity
  8
RUNDUNGEN
100
AcDbCircle
 62
7
  6
CONTINUOUS
 10
161.0111125545
 20
59.4079046258
 40
1.5
100
AcDbArc
 50
335.090847263
 51
360.0
  0
ARC
  5
73C
100
AcDbEntity
  8
0
100
AcDbCircle
 62
7
  6
CONTINUOUS
 10
157.0921079935
 20
96.5374632512
 40
51.2538544255
100
AcDbArc
 50
268.3440603822
 51
271.4718978564
  0
ARC
  5
73D
100
AcDbEntity
  8
0
100
AcDbCircle
 62
7
  6
CONTINUOUS
 10
166.2769347895
 20
81.1852198775
 40
35.9014729544
100
AcDbArc
 50
267.9724623053
 51
270.6083972973
  0
ARC
  5
73E
100
AcDbEntity
  8
RUNDUNGEN
100
AcDbCircle
 62
7
  6
CONTINUOUS
 10
160.5111125545
 20
66.6639418658
 40
2.0
100
AcDbArc
 50
0.0
 51
66.7726241047
  0
ARC
  5
73F
100
AcDbEntity
  8
RUNDUNGEN
100
AcDbCircle
 62
7
  6
CONTINUOUS
 10
161.5111125545
 20
65.3325194876
 40
1.0
100
AcDbArc
 50
0.0
 51
90.0
  0
ARC
  5
740
100
AcDbEntity
  8
0
100
AcDbCircle
 62
7
  6
CONTINUOUS
 10
168.8373777983
 20
65.2340600713
 40
20.0669698741
100
AcDbArc
 50
263.765507917
 51
264.6151238645
  0
ARC
  5
741
100
AcDbEntity
  8
0
100
AcDbCircle
 62
7
  6
CONTINUOUS
 10
180.5111125545
 20
50.3525194876
 40
20.0
100
AcDbArc
 50
155.090847263
 51
161.4166327144
  0
ARC
  5
742
100
AcDbEntity
  8
0
100
AcDbCircle
 62
7
  6
CONTINUOUS
 10
180.5111125545
 20
50.3525194876
 40
20.0
100
AcDbArc
 50
198.5833672856
 51
204.909152737
  0
ARC
  5
743
100
AcDbEntity
  8
RUNDUNGEN
100
AcDbCircle
 62
7
  6
CONTINUOUS
 10
180.5111125545
 20
50.3525194876
 40
20.0
100
AcDbArc
 50
155.090847263
 51
161.4166327144
  0
ARC
  5
744
100
AcDbEntity
  8
RUNDUNGEN
100
AcDbCircle
 62
7
  6
CONTINUOUS
 10
180.5111125545
 20
50.3525194876
 40
20.0
100
AcDbArc
 50
198.5833672856
 51
204.909152737
  0
ARC
  5
745
100
AcDbEntity
  8
KONSTRUKTIONSELEMENTE
100
AcDbCircle
 62
7
  6
CONTINUOUS
 10
173.9836687675
 20
50.8157587681
 40
5.96322259
100
AcDbArc
 50
269.9823152536
 51
270.8811962514
  0
ARC
  5
746
100
AcDbEntity
  8
KONSTRUKTIONSELEMENTE
100
AcDbCircle
 62
7
  6
CONTINUOUS
 10
173.9836177479
 20
49.8896306488
 40
5.9628702552
100
AcDbArc
 50
89.3347952203
 51
90.0169085605
  0
ARC
  5
747
100
AcDbEntity
  8
KONSTRUKTIONSELEMENTE
100
AcDbCircle
 62
7
  6
CONTINUOUS
 10
176.5111125545
 20
50.3525194876
 40
5.5
100
AcDbArc
 50
326.9442688491
 51
33.0557311509
  0
ARC
  5
748
100
AcDbEntity
  8
0
100
AcDbCircle
 62
7
  6
CONTINUOUS
 10
168.2048855815
 20
46.9244248433
 40
2.0854415332
100
AcDbArc
 50
233.1493973805
 51
237.5328581785
  0
ARC
  5
749
100
AcDbEntity
  8
0
100
AcDbCircle
 62
7
  6
CONTINUOUS
 10
160.4218744061
 20
161.5771980471
 40
116.6572572836
100
AcDbArc
 50
270.1399009563
 51
270.4580232817
  0
ARC
  5
74A
100
AcDbEntity
  8
0
100
AcDbCircle
 62
7
  6
CONTINUOUS
 10
160.393524087
 20
161.4833753947
 40
116.5634328971
100
AcDbArc
 50
269.5418990209
 51
269.8520438396
  0
ARC
  5
74B
100
AcDbEntity
  8
0
100
AcDbCircle
 62
7
  6
CONTINUOUS
 10
160.6277955536
 20
112.7012519729
 40
67.6289497291
100
AcDbArc
 50
269.7327722867
 51
270.0668653186
  0
SPLINE
  5
74C
100
AcDbEntity
  8
KONSTRUKTIONSELEMENTE
100
AcDbSpline
 62
7
  6
CONTINUOUS
 70
0
 71
3
 72
32
 73
28
 74
0
 42
0.0000001
 43
0.0000001
 44
0.0000000001
 40
0.0
 40
0.0
 40
0.0
 40
0.0
 40
0.0621737771
 40
0.1244064511
 40
0.1867112618
 40
0.249107771
 40
0.3116243584
 40
0.3429500026
 40
0.3743289008
 40
0.4057754378
 40
0.4373109871
 40
0.4689668465
 40
0.5007761465
 40
0.516788768
 40
0.5328335209
 40
0.5488697533
 40
0.5648423161
 40
0.5807122115
 40
0.5964794277
 40
0.6277631679
 40
0.6589143348
 40
0.68999707
 40
0.752047204
 40
0.8140545977
 40
0.8760433972
 40
0.9380237063
 40
1.0
 40
1.0
 40
1.0
 40
1.0
 10
126.594645818
 20
206.2291968796
 30
0.0
 10
126.7278251489
 20
205.7886845733
 30
0.0
 10
127.0127594742
 20
204.9126776254
 30
0.0
 10
127.4992409034
 20
203.6185921305
 30
0.0
 10
128.0503378989
 20
202.3486819875
 30
0.0
 10
128.6737788435
 20
201.1101762693
 30
0.0
 10
129.2632352398
 20
200.113712872
 30
0.0
 10
129.7865046699
 20
199.3482917691
 30
0.0
 10
130.2093555729
 20
198.7938544576
 30
0.0
 10
130.6675523402
 20
198.2659778422
 30
0.0
 10
131.1689717272
 20
197.7752167598
 30
0.0
 10
131.7241731287
 20
197.3411216285
 30
0.0
 10
132.2459337589
 20
197.0577831131
 30
0.0
 10
132.7009784999
 20
196.9225299139
 30
0.0
 10
133.0576480169
 20
196.8854457896
 30
0.0
 10
133.4141153709
 20
196.9311299199
 30
0.0
 10
133.7463821244
 20
197.0647697914
 30
0.0
 10
134.036117828
 20
197.2699346758
 30
0.0
 10
134.3614689348
 20
197.6059080768
 30
0.0
 10
134.6725250257
 20
198.1001661604
 30
0.0
 10
134.9450963983
 20
198.737796896
 30
0.0
 10
135.2207079379
 20
199.6166361904
 30
0.0
 10
135.4537877061
 20
200.7432720478
 30
0.0
 10
135.6369507802
 20
202.1085808128
 30
0.0
 10
135.7597090013
 20
203.480009757
 30
0.0
 10
135.8430469726
 20
204.8539374913
 30
0.0
 10
135.8807322981
 20
205.7707256395
 30
0.0
 10
135.8965017518
 20
206.2291968796
 30
0.0
  0
SPLINE
  5
74D
100
AcDbEntity
  8
KONSTRUKTIONSELEMENTE
100
AcDbSpline
 62
7
  6
CONTINUOUS
 70
0
 71
3
 72
32
 73
28
 74
0
 42
0.0000001
 43
0.0000001
 44
0.0000000001
 40
0.0
 40
0.0
 40
0.0
 40
0.0
 40
0.0619763937
 40
0.1239568035
 40
0.1859457065
 40
0.2479532023
 40
0.310003438
 40
0.341086201
 40
0.3722373141
 40
0.4035204698
 40
0.4192875366
 40
0.4351566503
 40
0.4511289869
 40
0.4671654263
 40
0.4832099247
 40
0.4992223428
 40
0.531032062
 40
0.5626880744
 40
0.5942237046
 40
0.6256703138
 40
0.6570492791
 40
0.6883749923
 40
0.7508917291
 40
0.8132883662
 40
0.8755932989
 40
0.9378261041
 40
1.0
 40
1.0
 40
1.0
 40
1.0
 10
135.8965017518
 20
228.2291968796
 30
0.0
 10
135.8807322712
 20
228.6876689006
 30
0.0
 10
135.8430468808
 20
229.6044586181
 30
0.0
 10
135.7597085922
 20
230.978388708
 30
0.0
 10
135.6369503111
 20
232.3498200635
 30
0.0
 10
135.4537858025
 20
233.7151310464
 30
0.0
 10
135.2207054907
 20
234.8417686725
 30
0.0
 10
134.9450924414
 20
235.7206082003
 30
0.0
 10
134.6725210517
 20
236.358234119
 30
0.0
 10
134.3614680482
 20
236.8524869308
 30
0.0
 10
134.0361234642
 20
237.1884518017
 30
0.0
 10
133.7463953326
 20
237.3936099404
 30
0.0
 10
133.414143544
 20
237.5272699604
 30
0.0
 10
133.0576755754
 20
237.5729559154
 30
0.0
 10
132.7010108294
 20
237.5358584884
 30
0.0
 10
132.2459581067
 20
237.4006350826
 30
0.0
 10
131.7241982551
 20
237.1172823661
 30
0.0
 10
131.1689897296
 20
236.6831913844
 30
0.0
 10
130.667567017
 20
236.1924294393
 30
0.0
 10
130.2093676269
 20
235.6645530899
 30
0.0
 10
129.786514356
 20
235.1101154982
 30
0.0
 10
129.2632421713
 20
234.3446936066
 30
0.0
 10
128.6737849407
 20
233.3482275566
 30
0.0
 10
128.050341443
 20
232.1097197148
 30
0.0
 10
127.4992429436
 20
230.8398069829
 30
0.0
 10
127.0127603657
 20
229.545718848
 30
0.0
 10
126.7278254153
 20
228.6697100672
 30
0.0
 10
126.594645818
 20
228.2291968796
 30
0.0
  0
SPLINE
  5
74E
100
AcDbEntity
  8
KONSTRUKTIONSELEMENTE
100
AcDbSpline
 62
7
  6
CONTINUOUS
 70
0
 71
3
 72
32
 73
28
 74
0
 42
0.0000001
 43
0.0000001
 44
0.0000000001
 40
0.0
 40
0.0
 40
0.0
 40
0.0
 40
0.0619763919
 40
0.1239568
 40
0.1859457018
 40
0.2479531962
 40
0.3100034338
 40
0.3410862
 40
0.3722373161
 40
0.4035205219
 40
0.419287584
 40
0.4351568034
 40
0.4511291253
 40
0.4671655014
 40
0.4832100077
 40
0.4992224422
 40
0.5310321123
 40
0.5626881123
 40
0.5942237384
 40
0.6256703446
 40
0.6570493074
 40
0.6883750178
 40
0.7508917477
 40
0.81328838
 40
0.8755933085
 40
0.9378261082
 40
1.0
 40
1.0
 40
1.0
 40
1.0
 10
171.1257233571
 20
206.2291968796
 30
0.0
 10
171.1414928371
 20
205.7707248779
 30
0.0
 10
171.1791782243
 20
204.8539351977
 30
0.0
 10
171.2625165226
 20
203.4800051624
 30
0.0
 10
171.385274742
 20
202.1085738502
 30
0.0
 10
171.5684393339
 20
200.7432629023
 30
0.0
 10
171.8015195675
 20
199.61662525
 30
0.0
 10
172.0771325398
 20
198.7377856491
 30
0.0
 10
172.3497043089
 20
198.1001594121
 30
0.0
 10
172.6607578816
 20
197.605906593
 30
0.0
 10
172.9861026992
 20
197.269940499
 30
0.0
 10
173.275831589
 20
197.0647819128
 30
0.0
 10
173.608084768
 20
196.9311248497
 30
0.0
 10
173.9645518195
 20
196.8854386688
 30
0.0
 10
174.3212166303
 20
196.9225345017
 30
0.0
 10
174.7762683582
 20
197.0577607564
 30
0.0
 10
175.2980284041
 20
197.3411116958
 30
0.0
 10
175.8532362926
 20
197.7752030139
 30
0.0
 10
176.354658805
 20
198.2659648459
 30
0.0
 10
176.8128580476
 20
198.7938412422
 30
0.0
 10
177.2357111772
 20
199.3482788465
 30
0.0
 10
177.7589831903
 20
200.1137007309
 30
0.0
 10
178.3484404644
 20
201.1101666097
 30
0.0
 10
178.9718838086
 20
202.3486743811
 30
0.0
 10
179.5229822458
 20
203.6185870006
 30
0.0
 10
180.0094647795
 20
204.9126750244
 30
0.0
 10
180.2943997041
 20
205.7886837267
 30
0.0
 10
180.427579291
 20
206.2291968796
 30
0.0
  0
SPLINE
  5
74F
100
AcDbEntity
  8
KONSTRUKTIONSELEMENTE
100
AcDbSpline
 62
7
  6
CONTINUOUS
 70
0
 71
3
 72
32
 73
28
 74
0
 42
0.0000001
 43
0.0000001
 44
0.0000000001
 40
0.0
 40
0.0
 40
0.0
 40
0.0
 40
0.0621737788
 40
0.1244064522
 40
0.1867112644
 40
0.2491077741
 40
0.3116243588
 40
0.3429500029
 40
0.3743289013
 40
0.4057754378
 40
0.4373109847
 40
0.4689668275
 40
0.5007760522
 40
0.5167887022
 40
0.53283346
 40
0.5488695455
 40
0.5648420221
 40
0.580712118
 40
0.5964793155
 40
0.6277631078
 40
0.6589142815
 40
0.6899970295
 40
0.7520471791
 40
0.8140545799
 40
0.8760433862
 40
0.938023701
 40
1.0
 40
1.0
 40
1.0
 40
1.0
 10
180.427579291
 20
228.2291968796
 30
0.0
 10
180.29439996
 20
228.6697091863
 30
0.0
 10
180.0094656374
 20
229.5457161194
 30
0.0
 10
179.522984205
 20
230.8398015969
 30
0.0
 10
178.9718872214
 20
232.1097117148
 30
0.0
 10
178.3484464022
 20
233.348217459
 30
0.0
 10
177.7589898231
 20
234.3446806898
 30
0.0
 10
177.2357205404
 20
235.1101018397
 30
0.0
 10
176.8128697624
 20
235.6645392129
 30
0.0
 10
176.3546731088
 20
236.1924159099
 30
0.0
 10
175.8532539178
 20
236.683176837
 30
0.0
 10
175.2980532749
 20
237.1172722053
 30
0.0
 10
174.7762922524
 20
237.4006081046
 30
0.0
 10
174.3212489428
 20
237.5358649385
 30
0.0
 10
173.9645797425
 20
237.5729474931
 30
0.0
 10
173.6081148478
 20
237.5272615079
 30
0.0
 10
173.2758465231
 20
237.3936268895
 30
0.0
 10
172.9861091037
 20
237.1884623628
 30
0.0
 10
172.6607586065
 20
236.8524860873
 30
0.0
 10
172.3497010306
 20
236.3582288996
 30
0.0
 10
172.0771288293
 20
235.7205977957
 30
0.0
 10
171.8015172933
 20
234.8417582789
 30
0.0
 10
171.568437627
 20
233.7151221547
 30
0.0
 10
171.3852742575
 20
232.3498132507
 30
0.0
 10
171.262516152
 20
230.9783841809
 30
0.0
 10
171.1791781355
 20
229.6044563548
 30
0.0
 10
171.1414928118
 20
228.6876681476
 30
0.0
 10
171.1257233571
 20
228.2291968796
 30
0.0
  0
SPLINE
  5
750
100
AcDbEntity
  8
0
100
AcDbSpline
 62
7
  6
CONTINUOUS
 70
0
 71
3
 72
9
 73
5
 74
0
 42
0.0000001
 43
0.0000001
 44
0.0000000001
 40
0.0
 40
0.0
 40
0.0
 40
0.0
 40
0.5052275049
 40
1.0
 40
1.0
 40
1.0
 40
1.0
 10
268.1694084285
 20
252.1046272735
 30
0.0
 10
268.3159136419
 20
251.8309805825
 30
0.0
 10
268.5444677637
 20
251.2534787519
 30
0.0
 10
268.6231478684
 20
250.6366812364
 30
0.0
 10
268.6231118314
 20
250.3327075042
 30
0.0
  0
SPLINE
  5
751
100
AcDbEntity
  8
KONSTRUKTIONSELEMENTE
100
AcDbSpline
 62
7
  6
CONTINUOUS
 70
0
 71
3
 72
14
 73
10
 74
0
 42
0.0000001
 43
0.0000001
 44
0.0000000001
 40
0.0
 40
0.0
 40
0.0
 40
0.0
 40
0.1743619957
 40
0.3820727197
 40
0.5029786241
 40
0.6400105295
 40
0.8011374201
 40
0.8953528947
 40
1.0
 40
1.0
 40
1.0
 40
1.0
 10
180.427579291
 20
47.3525194876
 30
0.0
 10
180.1214696777
 20
47.0812189602
 30
0.0
 10
179.3996131262
 20
46.5435236316
 30
0.0
 10
178.3618090182
 20
45.9746993233
 30
0.0
 10
177.3566526793
 20
45.5451151609
 30
0.0
 10
176.4255531546
 20
45.2267260733
 30
0.0
 10
175.529775069
 20
45.0067838588
 30
0.0
 10
174.6940813629
 20
44.8813360543
 30
0.0
 10
174.227348187
 20
44.8524607868
 30
0.0
 10
173.9818589164
 20
44.8525383144
 30
0.0
  0
SPLINE
  5
752
100
AcDbEntity
  8
KONSTRUKTIONSELEMENTE
100
AcDbSpline
 62
7
  6
CONTINUOUS
 70
0
 71
3
 72
14
 73
10
 74
0
 42
0.0000001
 43
0.0000001
 44
0.0000000001
 40
0.0
 40
0.0
 40
0.0
 40
0.0
 40
0.1046459681
 40
0.1988626208
 40
0.3599900217
 40
0.49702193
 40
0.6179278421
 40
0.8256382985
 40
1.0
 40
1.0
 40
1.0
 40
1.0
 10
133.0403952672
 20
44.8525362558
 30
0.0
 10
132.7949076523
 20
44.8524526356
 30
0.0
 10
132.3281723445
 20
44.8813346108
 30
0.0
 10
131.4924739467
 20
45.0067798489
 30
0.0
 10
130.5966871608
 20
45.226720582
 30
0.0
 10
129.6655828056
 20
45.5451117802
 30
0.0
 10
128.660422095
 20
45.9746956536
 30
0.0
 10
127.622614861
 20
46.5435218484
 30
0.0
 10
126.9007561792
 20
47.0812182973
 30
0.0
 10
126.594645818
 20
47.3525194876
 30
0.0
  0
SPLINE
  5
753
100
AcDbEntity
  8
KONSTRUKTIONSELEMENTE
100
AcDbSpline
 62
7
  6
CONTINUOUS
 70
0
 71
3
 72
14
 73
10
 74
0
 42
0.0000001
 43
0.0000001
 44
0.0000000001
 40
0.0
 40
0.0
 40
0.0
 40
0.0
 40
0.1046472013
 40
0.1988629942
 40
0.3599902197
 40
0.4970221718
 40
0.6179279918
 40
0.8256384019
 40
1.0
 40
1.0
 40
1.0
 40
1.0
 10
173.9818149417
 20
55.8525006885
 30
0.0
 10
174.2273059683
 20
55.85257978
 30
0.0
 10
174.6940432479
 20
55.8237073462
 30
0.0
 10
175.5297444227
 20
55.6982616294
 30
0.0
 10
176.4255302682
 20
55.4783198397
 30
0.0
 10
177.356636802
 20
55.159930073
 30
0.0
 10
178.3617991404
 20
54.7303446789
 30
0.0
 10
179.3996085646
 20
54.1615185588
 30
0.0
 10
180.1214684662
 20
53.6238210888
 30
0.0
 10
180.427579291
 20
53.3525194876
 30
0.0
  0
SPLINE
  5
754
100
AcDbEntity
  8
KONSTRUKTIONSELEMENTE
100
AcDbSpline
 62
7
  6
CONTINUOUS
 70
0
 71
3
 72
14
 73
10
 74
0
 42
0.0000001
 43
0.0000001
 44
0.0000000001
 40
0.0
 40
0.0
 40
0.0
 40
0.0
 40
0.1743621068
 40
0.3820729048
 40
0.5029788303
 40
0.6400107008
 40
0.8011374999
 40
0.8953530086
 40
1.0
 40
1.0
 40
1.0
 40
1.0
 10
126.594645818
 20
53.3525194876
 30
0.0
 10
126.9007549985
 20
53.6238196315
 30
0.0
 10
127.6226103615
 20
54.1615141728
 30
0.0
 10
128.6604125565
 20
54.7303379244
 30
0.0
 10
129.6655668453
 20
55.1599215328
 30
0.0
 10
130.5966639753
 20
55.4783105763
 30
0.0
 10
131.4924399079
 20
55.6982528611
 30
0.0
 10
132.3281312699
 20
55.8237011915
 30
0.0
 10
132.7948632298
 20
55.8525787839
 30
0.0
 10
133.0403517296
 20
55.8525008762
 30
0.0
  0
SPLINE
  5
755
100
AcDbEntity
  8
0
100
AcDbSpline
 62
7
  6
CONTINUOUS
 70
0
 71
3
 72
12
 73
8
 74
0
 42
0.0000001
 43
0.0000001
 44
0.0000000001
 40
0.0
 40
0.0
 40
0.0
 40
0.0
 40
0.3581730005
 40
0.6365390281
 40
0.7479597793
 40
0.843278507
 40
1.0
 40
1.0
 40
1.0
 40
1.0
 10
155.6109958852
 20
45.3050135694
 30
0.0
 10
155.5865183091
 20
45.2381948016
 30
0.0
 10
155.5383558014
 20
45.1210952873
 30
0.0
 10
155.4640983963
 20
44.991282809
 30
0.0
 10
155.4009548422
 20
44.9178775701
 30
0.0
 10
155.3457501768
 20
44.8713241208
 30
0.0
 10
155.2955869594
 20
44.852502058
 30
0.0
 10
155.2644498578
 20
44.8525195746
 30
0.0
  0
SPLINE
  5
756
100
AcDbEntity
  8
0
100
AcDbSpline
 62
7
  6
CONTINUOUS
 70
0
 71
3
 72
9
 73
5
 74
0
 42
0.0000001
 43
0.0000001
 44
0.0000000001
 40
0.0
 40
0.0
 40
0.0
 40
0.0
 40
0.2661584408
 40
1.0
 40
1.0
 40
1.0
 40
1.0
 10
160.3123750423
 20
45.0730378063
 30
0.0
 10
160.294729271
 20
45.0570813323
 30
0.0
 10
160.2267637552
 20
44.9990629235
 30
0.0
 10
160.1514044304
 20
44.9492308748
 30
0.0
 10
160.0925200872
 20
44.9203311425
 30
0.0
  0
SPLINE
  5
757
100
AcDbEntity
  8
0
100
AcDbSpline
 62
7
  6
CONTINUOUS
 70
0
 71
3
 72
9
 73
5
 74
0
 42
0.0000001
 43
0.0000001
 44
0.0000000001
 40
0.0
 40
0.0
 40
0.0
 40
0.0
 40
0.2559130243
 40
1.0
 40
1.0
 40
1.0
 40
1.0
 10
159.4615661964
 20
44.9236681918
 30
0.0
 10
159.4525235114
 20
44.9191245856
 30
0.0
 10
159.4168468321
 20
44.9020635819
 30
0.0
 10
159.379774174
 20
44.8878807438
 30
0.0
 10
159.3516387574
 20
44.8792661422
 30
0.0
  0
SPLINE
  5
758
100
AcDbEntity
  8
0
100
AcDbSpline
 62
7
  6
CONTINUOUS
 70
0
 71
3
 72
9
 73
5
 74
0
 42
0.0000001
 43
0.0000001
 44
0.0000000001
 40
0.0
 40
0.0
 40
0.0
 40
0.0
 40
0.2317503173
 40
1.0
 40
1.0
 40
1.0
 40
1.0
 10
146.0557040845
 20
44.8914710704
 30
0.0
 10
146.0530920933
 20
44.8941426654
 30
0.0
 10
146.0421224014
 20
44.9059648823
 30
0.0
 10
146.0322949499
 20
44.9188142647
 30
0.0
 10
146.0252357123
 20
44.9289914347
 30
0.0
  0
SPLINE
  5
759
100
AcDbEntity
  8
0
100
AcDbSpline
 62
7
  6
CONTINUOUS
 70
0
 71
3
 72
9
 73
5
 74
0
 42
0.0000001
 43
0.0000001
 44
0.0000000001
 40
0.0
 40
0.0
 40
0.0
 40
0.0
 40
0.245582057
 40
1.0
 40
1.0
 40
1.0
 40
1.0
 10
146.0252357123
 20
44.9289914347
 30
0.0
 10
146.0132949358
 20
44.9338146082
 30
0.0
 10
145.9650039675
 20
44.9542688769
 30
0.0
 10
145.9180776765
 20
44.9779141626
 30
0.0
 10
145.8835766739
 20
44.9972726212
 30
0.0
  0
LINE
  5
75A
100
AcDbEntity
  8
0
100
AcDbLine
 62
7
  6
CONTINUOUS
 10
162.9518080853
 20
44.8525381296
 11
161.9023726104
 21
44.8525459584
  0
SPLINE
  5
75B
100
AcDbEntity
  8
0
100
AcDbSpline
 62
7
  6
CONTINUOUS
 70
0
 71
3
 72
9
 73
5
 74
0
 42
0.0000001
 43
0.0000001
 44
0.0000000001
 40
0.0
 40
0.0
 40
0.0
 40
0.0
 40
0.2305744342
 40
1.0
 40
1.0
 40
1.0
 40
1.0
 10
167.0997758978
 20
45.0617351445
 30
0.0
 10
167.0985352065
 20
45.0696474209
 30
0.0
 10
167.0933197585
 20
45.1039888473
 30
0.0
 10
167.0887062994
 20
45.1384200006
 30
0.0
 10
167.0853875142
 20
45.1649389906
 30
0.0
  0
SPLINE
  5
75C
100
AcDbEntity
  8
0
100
AcDbSpline
 62
7
  6
CONTINUOUS
 70
0
 71
3
 72
10
 73
6
 74
0
 42
0.0000001
 43
0.0000001
 44
0.0000000001
 40
0.0
 40
0.0
 40
0.0
 40
0.0
 40
0.5185011265
 40
0.7618392946
 40
1.0
 40
1.0
 40
1.0
 40
1.0
 10
165.0067470197
 20
45.3062234683
 30
0.0
 10
164.8231231656
 20
45.1654485797
 30
0.0
 10
164.5229182617
 20
44.9912945836
 30
0.0
 10
164.0910220466
 20
44.8721872633
 30
0.0
 10
163.8756222102
 20
44.8525020128
 30
0.0
 10
163.7693449197
 20
44.8525200549
 30
0.0
  0
SPLINE
  5
75D
100
AcDbEntity
  8
0
100
AcDbSpline
 62
7
  6
CONTINUOUS
 70
0
 71
3
 72
13
 73
9
 74
0
 42
0.0000001
 43
0.0000001
 44
0.0000000001
 40
0.0
 40
0.0
 40
0.0
 40
0.0
 40
0.0996903624
 40
0.182902015
 40
0.2922069161
 40
0.4284756083
 40
0.5919621692
 40
1.0
 40
1.0
 40
1.0
 40
1.0
 10
152.5930393469
 20
44.8525198501
 30
0.0
 10
152.5774311044
 20
44.8525153318
 30
0.0
 10
152.553915176
 20
44.8778941083
 30
0.0
 10
152.5340663512
 20
44.9172104516
 30
0.0
 10
152.5153618264
 20
44.9659085864
 30
0.0
 10
152.4973531917
 20
45.0271791276
 30
0.0
 10
152.4712762476
 20
45.1350201279
 30
0.0
 10
152.4553245366
 20
45.2230970016
 30
0.0
 10
152.4450051676
 20
45.2861434013
 30
0.0
  0
SPLINE
  5
75E
100
AcDbEntity
  8
0
100
AcDbSpline
 62
7
  6
CONTINUOUS
 70
0
 71
3
 72
9
 73
5
 74
0
 42
0.0000001
 43
0.0000001
 44
0.0000000001
 40
0.0
 40
0.0
 40
0.0
 40
0.0
 40
0.2453995908
 40
1.0
 40
1.0
 40
1.0
 40
1.0
 10
142.2493374293
 20
44.8914710714
 30
0.0
 10
142.2423441359
 20
44.894090829
 30
0.0
 10
142.214026769
 20
44.9052437603
 30
0.0
 10
142.1864545469
 20
44.9182691232
 30
0.0
 10
142.1661478772
 20
44.9289914332
 30
0.0
  0
ELLIPSE
  5
75F
100
AcDbEntity
  8
0
100
AcDbEllipse
 62
7
  6
CONTINUOUS
 10
153.5111125545
 20
148.8036650455
 30
0.0
 11
20.0
 21
-0.0
 31
0.0
 40
0.1702127606
 41
-2.3395898072
 42
-2.2840300758
  0
ELLIPSE
  5
760
100
AcDbEntity
  8
0
100
AcDbEllipse
 62
7
  6
CONTINUOUS
 10
153.5111125545
 20
151.250473641
 30
0.0
 11
20.0
 21
0.0
 31
0.0
 40
0.3404255211
 41
-2.3661950902
 42
-2.3395898072
  0
ELLIPSE
  5
761
100
AcDbEntity
  8
0
100
AcDbEllipse
 62
7
  6
CONTINUOUS
 10
153.5111125545
 20
156.0164312616
 30
0.0
 11
20.0
 21
-0.0
 31
0.0
 40
0.6808510423
 41
-2.3921237758
 42
-2.3661950902
  0
ELLIPSE
  5
762
100
AcDbEntity
  8
0
100
AcDbEllipse
 62
7
  6
CONTINUOUS
 10
153.5111125545
 20
174.5694111392
 30
0.0
 11
0.0
 21
40.8507508697
 31
0.0
 40
0.4895870841
 41
-3.979862797
 42
-3.9629201026
  0
ELLIPSE
  5
763
100
AcDbEntity
  8
0
100
AcDbEllipse
 62
7
  6
CONTINUOUS
 10
153.5111125545
 20
144.952605151
 30
0.0
 11
20.0
 21
-0.0
 31
0.0
 40
0.6127654169
 41
9.0064315482
 42
9.0403811863
  0
ELLIPSE
  5
764
100
AcDbEntity
  8
0
100
AcDbEllipse
 62
7
  6
CONTINUOUS
 10
153.5111125545
 20
148.2717475555
 30
0.0
 11
20.0
 21
-0.0
 31
0.0
 40
0.2042556065
 41
2.6887760854
 42
2.7232462411
  0
ELLIPSE
  5
765
100
AcDbEntity
  8
0
100
AcDbEllipse
 62
7
  6
CONTINUOUS
 10
153.5111125545
 20
148.0164334953
 30
0.0
 11
20.0
 21
-0.0
 31
0.0
 40
0.2042556244
 41
-2.7232462411
 42
-2.6887760854
  0
ELLIPSE
  5
766
100
AcDbEntity
  8
0
100
AcDbEllipse
 62
7
  6
CONTINUOUS
 10
153.5111125545
 20
151.3355761904
 30
0.0
 11
20.0
 21
0.0
 31
0.0
 40
0.6127654705
 41
-2.7571958791
 42
-2.7232462411
  0
ELLIPSE
  5
767
100
AcDbEntity
  8
0
100
AcDbEllipse
 62
7
  6
CONTINUOUS
 10
153.5111125545
 20
156.9526007954
 30
0.0
 11
0.0
 21
27.2340416908
 31
0.0
 40
0.7343750233
 41
-4.3481374835
 42
-4.3279922059
  0
ELLIPSE
  5
768
100
AcDbEntity
  8
0
100
AcDbEllipse
 62
7
  6
CONTINUOUS
 10
153.5111125545
 20
161.8036379876
 30
0.0
 11
0.0
 21
40.8509881954
 31
0.0
 40
0.4895842398
 41
-4.3614816622
 42
-4.3481374835
  0
ELLIPSE
  5
769
100
AcDbEntity
  8
0
100
AcDbEllipse
 62
7
  6
CONTINUOUS
 10
153.5111125545
 20
144.4419678876
 30
0.0
 11
20.0
 21
0.0
 31
0.0
 40
0.2553186315
 41
2.6179938505
 42
2.646628649
  0
ELLIPSE
  5
76A
100
AcDbEntity
  8
0
100
AcDbEllipse
 62
7
  6
CONTINUOUS
 10
153.5111125545
 20
140.1866441732
 30
0.0
 11
20.0
 21
-0.0
 31
0.0
 40
0.6808509827
 41
2.5962044396
 42
2.6179938505
  0
ELLIPSE
  5
76B
100
AcDbEntity
  8
0
100
AcDbEllipse
 62
7
  6
CONTINUOUS
 10
153.5111125545
 20
131.356793246
 30
0.0
 11
0.0
 21
30.6384182488
 31
0.0
 40
0.6527752131
 41
1.0107210487
 42
1.0254081128
  0
ELLIPSE
  5
76C
100
AcDbEntity
  8
0
100
AcDbEllipse
 62
7
  6
CONTINUOUS
 10
153.5111125545
 20
115.0805144216
 30
0.0
 11
-0.0
 21
61.2761209402
 31
0.0
 40
0.3263914179
 41
1.0033266714
 42
1.0107210487
  0
ELLIPSE
  5
76D
100
AcDbEntity
  8
0
100
AcDbEllipse
 62
7
  6
CONTINUOUS
 10
153.5111125545
 20
181.2076818506
 30
0.0
 11
0.0
 21
61.2761495503
 31
0.0
 40
0.3263912656
 41
-4.1523137023
 42
-4.144919325
  0
ELLIPSE
  5
76E
100
AcDbEntity
  8
0
100
AcDbEllipse
 62
7
  6
CONTINUOUS
 10
153.5111125545
 20
164.9313840274
 30
0.0
 11
0.0
 21
30.6384110962
 31
0.0
 40
0.6527753654
 41
-4.1670007664
 42
-4.1523137023
  0
ELLIPSE
  5
76F
100
AcDbEntity
  8
0
100
AcDbEllipse
 62
7
  6
CONTINUOUS
 10
153.5111125545
 20
156.1015368106
 30
0.0
 11
20.0
 21
0.0
 31
0.0
 40
0.6808509827
 41
-2.6179938505
 42
-2.5962044396
  0
ELLIPSE
  5
770
100
AcDbEntity
  8
0
100
AcDbEllipse
 62
7
  6
CONTINUOUS
 10
153.5111125545
 20
151.8462130962
 30
0.0
 11
20.0
 21
0.0
 31
0.0
 40
0.2553186315
 41
-2.646628649
 42
-2.6179938505
  0
ELLIPSE
  5
771
100
AcDbEntity
  8
0
100
AcDbEllipse
 62
7
  6
CONTINUOUS
 10
153.5111125545
 20
137.0377074513
 30
0.0
 11
0.0
 21
37.446808815
 31
0.0
 40
0.5340909047
 41
1.3051841772
 42
1.3438532906
  0
ELLIPSE
  5
772
100
AcDbEntity
  8
0
100
AcDbEllipse
 62
7
  6
CONTINUOUS
 10
153.5111125545
 20
148.9526020937
 30
0.0
 11
-0.0
 21
23.8297843933
 31
0.0
 40
0.8392858143
 41
1.4328593544
 42
1.4706289296
  0
ELLIPSE
  5
773
100
AcDbEntity
  8
0
100
AcDbEllipse
 62
7
  6
CONTINUOUS
 10
153.5111125545
 20
155.6759936646
 30
0.0
 11
-0.0
 21
61.2764715643
 31
0.0
 40
0.3263895503
 41
1.6584083549
 42
1.6646842019
  0
ELLIPSE
  5
774
100
AcDbEntity
  8
0
100
AcDbEllipse
 62
7
  6
CONTINUOUS
 10
153.5111125545
 20
152.4845156405
 30
0.0
 11
-0.0
 21
27.2340393066
 31
0.0
 40
0.7343750875
 41
-4.6185011053
 42
-4.5996503139
  0
ELLIPSE
  5
775
100
AcDbEntity
  8
0
100
AcDbEllipse
 62
7
  6
CONTINUOUS
 10
153.5111125545
 20
151.1440894466
 30
0.0
 11
20.0
 21
-0.0
 31
0.0
 40
0.7659569903
 41
3.2543313201
 42
3.279529662
  0
ELLIPSE
  5
776
100
AcDbEntity
  8
0
100
AcDbEllipse
 62
7
  6
CONTINUOUS
 10
153.5111125545
 20
149.9951554145
 30
0.0
 11
20.0
 21
0.0
 31
0.0
 40
0.7659569903
 41
3.0186446257
 42
3.0288539871
  0
ELLIPSE
  5
777
100
AcDbEntity
  8
0
100
AcDbEllipse
 62
7
  6
CONTINUOUS
 10
153.5111125545
 20
148.6547292206
 30
0.0
 11
-0.0
 21
27.2340393066
 31
0.0
 40
0.7343750875
 41
1.4580576603
 42
1.4769084517
  0
ELLIPSE
  5
778
100
AcDbEntity
  8
0
100
AcDbEllipse
 62
7
  6
CONTINUOUS
 10
153.5111125545
 20
145.4632511965
 30
0.0
 11
0.0
 21
61.2764715643
 31
0.0
 40
0.3263895503
 41
1.4769084517
 42
1.4831842987
  0
ELLIPSE
  5
779
100
AcDbEntity
  8
0
100
AcDbEllipse
 62
7
  6
CONTINUOUS
 10
153.5111125545
 20
152.3994083121
 30
0.0
 11
20.0
 21
-0.0
 31
0.0
 40
0.255319362
 41
2.7973328796
 42
2.8237689497
  0
ELLIPSE
  5
77A
100
AcDbEntity
  8
0
100
AcDbEllipse
 62
7
  6
CONTINUOUS
 10
153.5111125545
 20
149.5270684661
 30
0.0
 11
20.0
 21
-0.0
 31
0.0
 40
0.6808512211
 41
2.7773411822
 42
2.7973328796
  0
ELLIPSE
  5
77B
100
AcDbEntity
  8
0
100
AcDbEllipse
 62
7
  6
CONTINUOUS
 10
153.5111125545
 20
143.4632623248
 30
0.0
 11
-0.0
 21
30.6382357822
 31
0.0
 40
0.6527791007
 41
1.193132433
 42
1.2065448554
  0
ELLIPSE
  5
77C
100
AcDbEntity
  8
0
100
AcDbEllipse
 62
7
  6
CONTINUOUS
 10
153.5111125545
 20
124.6333408581
 30
0.0
 11
0.0
 21
81.70242959
 31
0.0
 40
0.244790762
 41
1.186399578
 42
1.193132433
  0
ELLIPSE
  5
77D
100
AcDbEntity
  8
0
100
AcDbEllipse
 62
7
  6
CONTINUOUS
 10
153.5111125545
 20
187.8250527223
 30
0.0
 11
0.0
 21
81.70242959
 31
0.0
 40
0.244790762
 41
-4.3347250866
 42
-4.3279922316
  0
ELLIPSE
  5
77E
100
AcDbEntity
  8
0
100
AcDbEllipse
 62
7
  6
CONTINUOUS
 10
153.5111125545
 20
168.9951418057
 30
0.0
 11
0.0
 21
30.6382643923
 31
0.0
 40
0.6527784911
 41
-4.348137509
 42
-4.3347250866
  0
ELLIPSE
  5
77F
100
AcDbEntity
  8
0
100
AcDbEllipse
 62
7
  6
CONTINUOUS
 10
153.5111125545
 20
162.9313237732
 30
0.0
 11
20.0
 21
0.0
 31
0.0
 40
0.6808509827
 41
-2.7973328796
 42
-2.7773411822
  0
ELLIPSE
  5
780
100
AcDbEntity
  8
0
100
AcDbEllipse
 62
7
  6
CONTINUOUS
 10
153.5111125545
 20
160.0589855366
 30
0.0
 11
20.0
 21
-0.0
 31
0.0
 40
0.255319362
 41
-2.8237689497
 42
-2.7973328796
  0
ELLIPSE
  5
781
100
AcDbEntity
  8
0
100
AcDbEllipse
 62
7
  6
CONTINUOUS
 10
153.5111125545
 20
153.9313245753
 30
0.0
 11
20.0
 21
0.0
 31
0.0
 40
0.2553189968
 41
3.104083847
 42
3.129092328
  0
ELLIPSE
  5
782
100
AcDbEntity
  8
0
100
AcDbEllipse
 62
7
  6
CONTINUOUS
 10
153.5111125545
 20
153.6121753056
 30
0.0
 11
20.0
 21
-0.0
 31
0.0
 40
0.6808512211
 41
3.0853129362
 42
3.104083847
  0
ELLIPSE
  5
783
100
AcDbEntity
  8
0
100
AcDbEllipse
 62
7
  6
CONTINUOUS
 10
153.5111125545
 20
152.654727033
 30
0.0
 11
0.0
 21
30.638323439
 31
0.0
 40
0.6527772331
 41
1.5019920527
 42
1.5145166095
  0
ELLIPSE
  5
784
100
AcDbEntity
  8
0
100
AcDbEllipse
 62
7
  6
CONTINUOUS
 10
153.5111125545
 20
149.144101876
 30
0.0
 11
0.0
 21
81.7019620858
 31
0.0
 40
0.2447921628
 41
1.4957258238
 42
1.5019920527
  0
ELLIPSE
  5
785
100
AcDbEntity
  8
0
100
AcDbEllipse
 62
7
  6
CONTINUOUS
 10
153.5111125545
 20
118.8461079598
 30
0.0
 11
-0.0
 21
51.0640256463
 31
0.0
 40
0.3916651644
 41
0.9658110381
 42
0.9809299032
  0
ELLIPSE
  5
786
100
AcDbEntity
  8
0
100
AcDbEllipse
 62
7
  6
CONTINUOUS
 10
153.5111125545
 20
132.1015371032
 30
0.0
 11
-0.0
 21
27.2340416908
 31
0.0
 40
0.7343750233
 41
0.9809299032
 42
1.0033266714
  0
ELLIPSE
  5
787
100
AcDbEntity
  8
0
100
AcDbEllipse
 62
7
  6
CONTINUOUS
 10
153.5111125545
 20
140.1526060608
 30
0.0
 11
20.0
 21
0.0
 31
0.0
 40
0.6127654705
 41
2.5741229982
 42
2.6107618382
  0
ELLIPSE
  5
788
100
AcDbEntity
  8
0
100
AcDbEllipse
 62
7
  6
CONTINUOUS
 10
153.5111125545
 20
199.3144799999
 30
0.0
 11
-0.0
 21
100.8514930305
 31
0.0
 40
0.1958324999
 41
-4.2884077766
 42
-4.2814528888
  0
ELLIPSE
  5
789
100
AcDbEntity
  8
0
100
AcDbEllipse
 62
7
  6
CONTINUOUS
 10
153.5111125545
 20
174.4206527765
 30
0.0
 11
0.0
 21
40.3403437799
 31
0.0
 40
0.4895843255
 41
-4.302252871
 42
-4.2884077766
  0
ELLIPSE
  5
78A
100
AcDbEntity
  8
0
100
AcDbEllipse
 62
7
  6
CONTINUOUS
 10
153.5111125545
 20
166.3781393806
 30
0.0
 11
0.0
 21
20.1702295973
 31
0.0
 40
0.9791658496
 41
-4.329698453
 42
-4.302252871
  0
ELLIPSE
  5
78B
100
AcDbEntity
  8
0
100
AcDbEllipse
 62
7
  6
CONTINUOUS
 10
153.5111125545
 20
144.288772987
 30
0.0
 11
19.75
 21
0.0
 31
0.0
 40
0.2042551568
 41
2.6033146861
 42
2.6397832727
  0
ELLIPSE
  5
78C
100
AcDbEntity
  8
0
100
AcDbEllipse
 62
7
  6
CONTINUOUS
 10
153.5111125545
 20
140.1526060608
 30
0.0
 11
19.75
 21
-0.0
 31
0.0
 40
0.6127654705
 41
2.5660336447
 42
2.6033146861
  0
ELLIPSE
  5
78D
100
AcDbEntity
  8
0
100
AcDbEllipse
 62
7
  6
CONTINUOUS
 10
153.5111125545
 20
132.1015371032
 30
0.0
 11
0.0
 21
26.8936161697
 31
0.0
 40
0.7343750233
 41
0.972432697
 42
0.9952373179
  0
ELLIPSE
  5
78E
100
AcDbEntity
  8
0
100
AcDbEllipse
 62
7
  6
CONTINUOUS
 10
153.5111125545
 20
144.288772987
 30
0.0
 11
20.0
 21
-0.0
 31
0.0
 40
0.2042551568
 41
2.6107618382
 42
2.646628649
  0
ELLIPSE
  5
78F
100
AcDbEntity
  8
0
100
AcDbEllipse
 62
7
  6
CONTINUOUS
 10
153.5111125545
 20
118.8461079598
 30
0.0
 11
-0.0
 21
50.4257253257
 31
0.0
 40
0.3916651644
 41
0.9570313566
 42
0.972432697
  0
ELLIPSE
  5
790
100
AcDbEntity
  8
0
100
AcDbEllipse
 62
7
  6
CONTINUOUS
 10
153.5111125545
 20
177.4420770026
 30
0.0
 11
0.0
 21
50.4257323889
 31
0.0
 40
0.3916651095
 41
-4.1140253506
 42
-4.0986240102
  0
ELLIPSE
  5
791
100
AcDbEntity
  8
0
100
AcDbEllipse
 62
7
  6
CONTINUOUS
 10
153.5111125545
 20
164.1866425544
 30
0.0
 11
0.0
 21
26.8936138153
 31
0.0
 40
0.7343750875
 41
-4.1368299715
 42
-4.1140253506
  0
ELLIPSE
  5
792
100
AcDbEntity
  8
0
100
AcDbEllipse
 62
7
  6
CONTINUOUS
 10
153.5111125545
 20
156.1355743016
 30
0.0
 11
19.75
 21
-0.0
 31
0.0
 40
0.6127654169
 41
-2.6033146861
 42
-2.5660336447
  0
ELLIPSE
  5
793
100
AcDbEntity
  8
0
100
AcDbEllipse
 62
7
  6
CONTINUOUS
 10
153.5111125545
 20
151.9994077375
 30
0.0
 11
19.75
 21
-0.0
 31
0.0
 40
0.204255139
 41
-2.6397832727
 42
-2.6033146861
  0
ELLIPSE
  5
794
100
AcDbEntity
  8
0
100
AcDbEllipse
 62
7
  6
CONTINUOUS
 10
153.5111125545
 20
162.6121787912
 30
0.0
 11
19.75
 21
0.0
 31
0.0
 40
0.510638724
 41
-2.7860476973
 42
-2.7589021262
  0
ELLIPSE
  5
795
100
AcDbEntity
  8
0
100
AcDbEllipse
 62
7
  6
CONTINUOUS
 10
153.5111125545
 20
160.5057914981
 30
0.0
 11
19.75
 21
0.0
 31
0.0
 40
0.204255139
 41
-2.8196018301
 42
-2.7860476973
  0
ELLIPSE
  5
796
100
AcDbEntity
  8
0
100
AcDbEllipse
 62
7
  6
CONTINUOUS
 10
153.5111125545
 20
149.8291883438
 30
0.0
 11
19.75
 21
0.0
 31
0.0
 40
0.204254743
 41
-2.3171386739
 42
-2.2692727208
  0
ELLIPSE
  5
797
100
AcDbEntity
  8
0
100
AcDbEllipse
 62
7
  6
CONTINUOUS
 10
153.5111125545
 20
156.7398333646
 30
0.0
 11
19.75
 21
0.0
 31
0.0
 40
0.6808509827
 41
-2.344696991
 42
-2.3171386739
  0
ELLIPSE
  5
798
100
AcDbEntity
  8
0
100
AcDbEllipse
 62
7
  6
CONTINUOUS
 10
153.5111125545
 20
190.4000720091
 30
0.0
 11
0.0
 21
60.511568544
 31
0.0
 40
0.3263838713
 41
-3.924507162
 42
-3.9154933178
  0
ELLIPSE
  5
799
100
AcDbEntity
  8
0
100
AcDbEllipse
 62
7
  6
CONTINUOUS
 10
153.5111125545
 20
153.178133032
 30
0.0
 11
19.75
 21
-0.0
 31
0.0
 40
0.2042553906
 41
3.1017457914
 42
3.1289340877
  0
ELLIPSE
  5
79A
100
AcDbEntity
  8
0
100
AcDbEllipse
 62
7
  6
CONTINUOUS
 10
153.5111125545
 20
163.335550045
 30
0.0
 11
0.0
 21
40.8509881954
 31
0.0
 40
0.4895842398
 41
-4.3212409629
 42
-4.3076813782
  0
ELLIPSE
  5
79B
100
AcDbEntity
  8
0
100
AcDbEllipse
 62
7
  6
CONTINUOUS
 10
153.5111125545
 20
152.6121749315
 30
0.0
 11
20.0
 21
-0.0
 31
0.0
 40
0.6808509827
 41
-2.7368850514
 42
-2.7163959262
  0
ELLIPSE
  5
79C
100
AcDbEntity
  8
0
100
AcDbEllipse
 62
7
  6
CONTINUOUS
 10
153.5111125545
 20
149.1015390609
 30
0.0
 11
20.0
 21
0.0
 31
0.0
 40
0.255319362
 41
-2.7163959262
 42
-2.6887760854
  0
ELLIPSE
  5
79D
100
AcDbEntity
  8
0
100
AcDbEllipse
 62
7
  6
CONTINUOUS
 10
153.5111125545
 20
147.1866419228
 30
0.0
 11
20.0
 21
-0.0
 31
0.0
 40
0.255319362
 41
2.6887760854
 42
2.7163959262
  0
ELLIPSE
  5
79E
100
AcDbEntity
  8
0
100
AcDbEllipse
 62
7
  6
CONTINUOUS
 10
153.5111125545
 20
142.97387245
 30
0.0
 11
20.0
 21
0.0
 31
0.0
 40
0.765958086
 41
2.7163959262
 42
2.7436744658
  0
ELLIPSE
  5
79F
100
AcDbEntity
  8
0
100
AcDbEllipse
 62
7
  6
CONTINUOUS
 10
153.5111125545
 20
135.8674937831
 30
0.0
 11
-0.0
 21
37.446808815
 31
0.0
 40
0.5340909047
 41
1.2726487388
 42
1.3116556416
  0
ELLIPSE
  5
7A0
100
AcDbEntity
  8
0
100
AcDbEllipse
 62
7
  6
CONTINUOUS
 10
153.5111125545
 20
147.9313243084
 30
0.0
 11
-0.0
 21
23.8297939301
 31
0.0
 40
0.8392854785
 41
1.4328593544
 42
1.4706289296
  0
ELLIPSE
  5
7A1
100
AcDbEntity
  8
0
100
AcDbEllipse
 62
7
  6
CONTINUOUS
 10
153.5111125545
 20
135.8674937831
 30
0.0
 11
0.0
 21
36.9787237048
 31
0.0
 40
0.5340909047
 41
1.2687564297
 42
1.3082984246
  0
ELLIPSE
  5
7A2
100
AcDbEntity
  8
0
100
AcDbEllipse
 62
7
  6
CONTINUOUS
 10
153.5111125545
 20
142.97387245
 30
0.0
 11
19.75
 21
-0.0
 31
0.0
 40
0.765958086
 41
2.7106565354
 42
2.7383476995
  0
ELLIPSE
  5
7A3
100
AcDbEntity
  8
0
100
AcDbEllipse
 62
7
  6
CONTINUOUS
 10
153.5111125545
 20
147.1866419228
 30
0.0
 11
19.75
 21
-0.0
 31
0.0
 40
0.255319362
 41
8.9657934456
 42
8.9938418426
  0
ELLIPSE
  5
7A4
100
AcDbEntity
  8
0
100
AcDbEllipse
 62
7
  6
CONTINUOUS
 10
153.5111125545
 20
160.5057914981
 30
0.0
 11
20.0
 21
0.0
 31
0.0
 40
0.204255139
 41
-2.8237689497
 42
-2.7906852846
  0
ELLIPSE
  5
7A5
100
AcDbEntity
  8
0
100
AcDbEllipse
 62
7
  6
CONTINUOUS
 10
153.5111125545
 20
162.6121787912
 30
0.0
 11
20.0
 21
-0.0
 31
0.0
 40
0.510638724
 41
-2.7906852846
 42
-2.7639287598
  0
ELLIPSE
  5
7A6
100
AcDbEntity
  8
0
100
AcDbEllipse
 62
7
  6
CONTINUOUS
 10
153.5111125545
 20
166.3781393806
 30
0.0
 11
0.0
 21
20.4255489593
 31
0.0
 40
0.9791658496
 41
-4.3347250866
 42
-4.3076814041
  0
ELLIPSE
  5
7A7
100
AcDbEntity
  8
0
100
AcDbEllipse
 62
7
  6
CONTINUOUS
 10
153.5111125545
 20
190.4000720091
 30
0.0
 11
0.0
 21
61.2775377661
 31
0.0
 40
0.3263838713
 41
-3.936991417
 42
-3.928201823
  0
ELLIPSE
  5
7A8
100
AcDbEntity
  8
0
100
AcDbEllipse
 62
7
  6
CONTINUOUS
 10
153.5111125545
 20
156.7398333646
 30
0.0
 11
20.0
 21
0.0
 31
0.0
 40
0.6808509827
 41
-2.3574054962
 42
-2.3305583285
  0
ELLIPSE
  5
7A9
100
AcDbEntity
  8
0
100
AcDbEllipse
 62
7
  6
CONTINUOUS
 10
153.5111125545
 20
174.4206527765
 30
0.0
 11
0.0
 21
40.8509810429
 31
0.0
 40
0.4895843255
 41
-4.3076814041
 42
-4.2940425939
  0
ELLIPSE
  5
7AA
100
AcDbEntity
  8
0
100
AcDbEllipse
 62
7
  6
CONTINUOUS
 10
153.5111125545
 20
149.8291883438
 30
0.0
 11
20.0
 21
-0.0
 31
0.0
 40
0.204254743
 41
-2.3305583285
 42
-2.2840300758
  0
ELLIPSE
  5
7AB
100
AcDbEntity
  8
0
100
AcDbEllipse
 62
7
  6
CONTINUOUS
 10
153.5111125545
 20
151.9526021493
 30
0.0
 11
19.75
 21
-0.0
 31
0.0
 40
0.2042551568
 41
2.7860476973
 42
2.8196018301
  0
ELLIPSE
  5
7AC
100
AcDbEntity
  8
0
100
AcDbEllipse
 62
7
  6
CONTINUOUS
 10
153.5111125545
 20
199.3144799999
 30
0.0
 11
0.0
 21
102.1280942081
 31
0.0
 40
0.1958324999
 41
-4.2940425939
 42
-4.2871922792
  0
ELLIPSE
  5
7AD
100
AcDbEntity
  8
0
100
AcDbEllipse
 62
7
  6
CONTINUOUS
 10
153.5111125545
 20
149.8462145182
 30
0.0
 11
19.75
 21
0.0
 31
0.0
 40
0.510638791
 41
2.7589021262
 42
2.7860476973
  0
ELLIPSE
  5
7AE
100
AcDbEntity
  8
0
100
AcDbEllipse
 62
7
  6
CONTINUOUS
 10
153.5111125545
 20
146.0802537639
 30
0.0
 11
0.0
 21
20.1702313631
 31
0.0
 40
0.9791657639
 41
1.1606602174
 42
1.1881057994
  0
ELLIPSE
  5
7AF
100
AcDbEntity
  8
0
100
AcDbEllipse
 62
7
  6
CONTINUOUS
 10
153.5111125545
 20
149.1015390609
 30
0.0
 11
19.75
 21
0.0
 31
0.0
 40
0.255319362
 41
-2.7106565354
 42
-2.6826081384
  0
ELLIPSE
  5
7B0
100
AcDbEntity
  8
0
100
AcDbEllipse
 62
7
  6
CONTINUOUS
 10
153.5111125545
 20
113.143937184
 30
0.0
 11
0.0
 21
102.1280369874
 31
0.0
 40
0.1958326096
 41
1.1455996256
 42
1.1524499404
  0
ELLIPSE
  5
7B1
100
AcDbEntity
  8
0
100
AcDbEllipse
 62
7
  6
CONTINUOUS
 10
153.5111125545
 20
138.0377382558
 30
0.0
 11
0.0
 21
40.8509881954
 31
0.0
 40
0.4895842398
 41
1.1524499404
 42
1.1660887505
  0
ELLIPSE
  5
7B2
100
AcDbEntity
  8
0
100
AcDbEllipse
 62
7
  6
CONTINUOUS
 10
153.5111125545
 20
146.0802537639
 30
0.0
 11
0.0
 21
20.4255507474
 31
0.0
 40
0.9791657639
 41
1.1660887505
 42
1.193132433
  0
ELLIPSE
  5
7B3
100
AcDbEntity
  8
0
100
AcDbEllipse
 62
7
  6
CONTINUOUS
 10
153.5111125545
 20
149.8462145182
 30
0.0
 11
20.0
 21
-0.0
 31
0.0
 40
0.510638791
 41
2.7639287598
 42
2.7906852846
  0
ELLIPSE
  5
7B4
100
AcDbEntity
  8
0
100
AcDbEllipse
 62
7
  6
CONTINUOUS
 10
153.5111125545
 20
151.9526021493
 30
0.0
 11
20.0
 21
0.0
 31
0.0
 40
0.2042551568
 41
2.7906852846
 42
2.8237689497
  0
ELLIPSE
  5
7B5
100
AcDbEntity
  8
0
100
AcDbEllipse
 62
7
  6
CONTINUOUS
 10
153.5111125545
 20
152.6121749315
 30
0.0
 11
19.75
 21
-0.0
 31
0.0
 40
0.6808509827
 41
-2.7314565178
 42
-2.7106565354
  0
ELLIPSE
  5
7B6
100
AcDbEntity
  8
0
100
AcDbEllipse
 62
7
  6
CONTINUOUS
 10
153.5111125545
 20
163.335550045
 30
0.0
 11
0.0
 21
40.340350843
 31
0.0
 40
0.4895842398
 41
-4.3160150858
 42
-4.3022528446
  0
ELLIPSE
  5
7B7
100
AcDbEntity
  8
0
100
AcDbEllipse
 62
7
  6
CONTINUOUS
 10
153.5111125545
 20
138.0377382558
 30
0.0
 11
-0.0
 21
40.340350843
 31
0.0
 40
0.4895842398
 41
1.1468151231
 42
1.1606602174
  0
ELLIPSE
  5
7B8
100
AcDbEntity
  8
0
100
AcDbEllipse
 62
7
  6
CONTINUOUS
 10
153.5111125545
 20
143.7824103707
 30
0.0
 11
0.0
 21
102.1274526072
 31
0.0
 40
0.1958337302
 41
1.4580576483
 42
1.4643453939
  0
ELLIPSE
  5
7B9
100
AcDbEntity
  8
0
100
AcDbEllipse
 62
7
  6
CONTINUOUS
 10
153.5111125545
 20
150.2930222964
 30
0.0
 11
0.0
 21
40.8511050712
 31
0.0
 40
0.4895828391
 41
1.4643453939
 42
1.4769084397
  0
ELLIPSE
  5
7BA
100
AcDbEntity
  8
0
100
AcDbEllipse
 62
7
  6
CONTINUOUS
 10
153.5111125545
 20
152.207920997
 30
0.0
 11
-0.0
 21
20.4255215285
 31
0.0
 40
0.9791671646
 41
1.4769084397
 42
1.5019920527
  0
ELLIPSE
  5
7BB
100
AcDbEntity
  8
0
100
AcDbEllipse
 62
7
  6
CONTINUOUS
 10
153.5111125545
 20
152.9100482688
 30
0.0
 11
20.0
 21
-0.0
 31
0.0
 40
0.5106380606
 41
3.0727883795
 42
3.0978286968
  0
ELLIPSE
  5
7BC
100
AcDbEntity
  8
0
100
AcDbEllipse
 62
7
  6
CONTINUOUS
 10
153.5111125545
 20
113.143937184
 30
0.0
 11
0.0
 21
100.8514365251
 31
0.0
 40
0.1958326096
 41
1.1398602352
 42
1.1468151231
  0
ELLIPSE
  5
7BD
100
AcDbEntity
  8
0
100
AcDbEllipse
 62
7
  6
CONTINUOUS
 10
153.5111125545
 20
153.178133032
 30
0.0
 11
20.0
 21
-0.0
 31
0.0
 40
0.2042553906
 41
3.0978286968
 42
3.129092328
  0
ELLIPSE
  5
7BE
100
AcDbEntity
  8
0
100
AcDbEllipse
 62
7
  6
CONTINUOUS
 10
153.5111125545
 20
151.9994077375
 30
0.0
 11
20.0
 21
0.0
 31
0.0
 40
0.204255139
 41
-2.646628649
 42
-2.6107618382
  0
ELLIPSE
  5
7BF
100
AcDbEntity
  8
0
100
AcDbEllipse
 62
7
  6
CONTINUOUS
 10
153.5111125545
 20
156.1355743016
 30
0.0
 11
20.0
 21
-0.0
 31
0.0
 40
0.6127654169
 41
-2.6107618382
 42
-2.5741229982
  0
ELLIPSE
  5
7C0
100
AcDbEntity
  8
0
100
AcDbEllipse
 62
7
  6
CONTINUOUS
 10
153.5111125545
 20
164.1866425544
 30
0.0
 11
0.0
 21
27.2340393066
 31
0.0
 40
0.7343750875
 41
-4.144919325
 42
-4.1225225568
  0
ELLIPSE
  5
7C1
100
AcDbEntity
  8
0
100
AcDbEllipse
 62
7
  6
CONTINUOUS
 10
153.5111125545
 20
177.4420770026
 30
0.0
 11
0.0
 21
51.0640327989
 31
0.0
 40
0.3916651095
 41
-4.1225225568
 42
-4.1074036916
  0
ENDSEC
  0
SECTION
  2
OBJECTS
  0
DICTIONARY
  5
C
100
AcDbDictionary
280
0
281
1
  3
ACAD_GROUP
350
D
  3
ACAD_MLINESTYLE
350
17
  3
ACAD_LAYOUT
350
1A
  3
ACAD_PLOTSETTINGS
350
19
  3
ACAD_PLOTSTYLENAME
350
E
  0
DICTIONARY
  5
D
102
{ACAD_REACTORS
330
C
102
}
100
AcDbDictionary
280
0
281
1
  0
ACDBDICTIONARYWDFLT
  5
E
102
{ACAD_REACTORS
330
C
102
}
100
AcDbDictionary
281
1
  3
Normal
350
F
100
AcDbDictionaryWithDefault
340
F
  0
DICTIONARY
  5
17
102
{ACAD_REACTORS
330
C
102
}
100
AcDbDictionary
280
0
281
1
  3
Standard
350
18
  0
DICTIONARY
  5
19
102
{ACAD_REACTORS
330
C
102
}
100
AcDbDictionary
281
1
  0
DICTIONARY
  5
1A
102
{ACAD_REACTORS
330
C
102
}
100
AcDbDictionary
281
1
  3
Model
350
7C2
  3
Layout1
350
7C3
  0
ACDBPLACEHOLDER
  5
F
102
{ACAD_REACTORS
330
E
102
}
  0
MLINESTYLE
  5
18
102
{ACAD_REACTORS
330
17
102
}
100
AcDbMlineStyle
  2
STANDARD
 70
0
  3

 62
256
 51
90.0
 52
90.0
 71
2
 49
0.5
 62
256
  6
BYLAYER
 49
-0.5
 62
256
  6
BYLAYER
  0
LAYOUT
  5
7C2
102
{ACAD_REACTORS
330
1A
102
}
100
AcDbPlotSettings
  1

  2
none_device
  4
ISO_A3_(420.00_x_297.00_MM)
  6

 40
0.0
 41
0.0
 42
0.0
 43
0.0
 44
420.0
 45
297.0
 46
0.0
 47
0.0
 48
0.0
 49
0.0
140
0.0
141
0.0
142
1.0
143
1.0
 70
1024
 72
1
 73
0
 74
0
  7

 75
0
147
1.0
148
0.0
149
0.0
100
AcDbLayout
  1
Model
 70
0
 71
0
 10
0.0
 20
0.0
 11
420.0
 21
297.0
 12
0.0
 22
0.0
 32
0.0
 14
0.0
 24
0.0
 34
0.0
 15
0.0
 25
0.0
 35
0.0
146
0.0
 13
0.0
 23
0.0
 33
0.0
 16
1.0
 26
0.0
 36
0.0
 17
0.0
 27
1.0
 37
0.0
 76
0
330
20D
345
0
346
0
  0
LAYOUT
  5
7C3
102
{ACAD_REACTORS
330
1A
102
}
100
AcDbPlotSettings
  1

  2
none_device
  4
ISO_A3_(420.00_x_297.00_MM)
  6

 40
0.0
 41
0.0
 42
0.0
 43
0.0
 44
420.0
 45
297.0
 46
0.0
 47
0.0
 48
0.0
 49
0.0
140
0.0
141
0.0
142
1.0
143
1.0
 70
0
 72
1
 73
0
 74
0
  7

 75
0
147
1.0
148
0.0
149
0.0
100
AcDbLayout
  1
Layout1
 70
0
 71
1
 10
0.0
 20
0.0
 11
420.0
 21
297.0
 12
0.0
 22
0.0
 32
0.0
 14
0.0
 24
0.0
 34
0.0
 15
0.0
 25
0.0
 35
0.0
146
0.0
 13
0.0
 23
0.0
 33
0.0
 16
1.0
 26
0.0
 36
0.0
 17
0.0
 27
1.0
 37
0.0
 76
0
330
20E
345
0
346
0
  0
ENDSEC
  0
EOF
