999
DXF file: 001-m31453-p-20.dxf
999
Pro/ENGINEER 2011490 by Parametric Technology Corporation
  0
SECTION
  2
HEADER
  9
$ACADVER
  1
AC1015
  9
$DWGCODEPAGE
  3
ANSI_1252
  9
$EXTMAX
 10
297.0
 20
210.0
 30
0.0
  9
$EXTMIN
 10
0.0
 20
0.0
 30
0.0
  9
$LIMMIN
 10
0.0
 20
0.0
  9
$LIMMAX
 10
297.0
 20
210.0
  9
$VIEWCTR
 10
148.5
 20
105.0
  9
$VIEWSIZE
 40
210.0
  9
$CLAYER
  8
0
  9
$LTSCALE
 40
16.335
  9
$CELTYPE
  6
BYLAYER
  9
$DIMSCALE
 40
1.0
  9
$DIMASZ
 40
3.5
  9
$DIMEXO
 40
1.85625
  9
$DIMDLI
 40
11.286
  9
$DIMEXE
 40
5.346
  9
$DIMCEN
 40
2.673
  9
$DIMLFAC
 40
1.0
  9
$DIMBLK
  1
_FILLED
  9
$DIMTXT
 40
3.5
  9
$DIMTOL
 70
1
  9
$DIMLIM
 70
0
  9
$DIMTFAC
 40
1.0
  9
$DIMTP
 40
0.005
  9
$DIMTM
 40
0.005
  9
$PDMODE
 70
3
  9
$PDSIZE
 40
0.3125
  9
$HANDSEED
  5
9B4
  9
$TILEMODE
 70
1
  9
$MEASUREMENT
 70
1
  9
$INSUNITS
 70
4
  0
ENDSEC
  0
SECTION
  2
CLASSES
  0
CLASS
  1
ACDBDICTIONARYWDFLT
  2
AcDbDictionaryWithDefault
  3
AutoCAD 2000
 90
0
280
0
281
0
  0
CLASS
  1
ACDBPLACEHOLDER
  2
AcDbPlaceHolder
  3
AutoCAD 2000
 90
0
280
0
281
0
  0
CLASS
  1
LAYOUT
  2
AcDbLayout
  3
AutoCAD 2000
 90
0
280
0
281
0
  0
ENDSEC
  0
SECTION
  2
TABLES
  0
TABLE
  2
VPORT
  5
8
100
AcDbSymbolTable
 70
2
  0
VPORT
  5
1F4
100
AcDbSymbolTableRecord
100
AcDbViewportTableRecord
  2
*ACTIVE
 70
0
 10
0.0
 20
0.0
 11
1.0
 21
1.0
 12
148.5
 22
105.0
 13
0.0
 23
0.0
 14
1.0
 24
1.0
 15
0.0
 25
0.0
 16
0.0
 26
0.0
 36
1.0
 17
0.0
 27
0.0
 37
0.0
 40
210.0
 41
1.4142857143
 42
50.0
 43
0.0
 44
0.0
 50
0.0
 51
0.0
 71
0
 72
100
 73
1
 74
1
 75
0
 76
0
 77
0
 78
0
  0
ENDTAB
  0
TABLE
  2
LTYPE
  5
5
100
AcDbSymbolTable
 70
6
  0
LTYPE
  5
14
100
AcDbSymbolTableRecord
100
AcDbLinetypeTableRecord
  2
BYBLOCK
 70
0
  3

 72
65
 73
0
 40
0.0
  0
LTYPE
  5
15
100
AcDbSymbolTableRecord
100
AcDbLinetypeTableRecord
  2
BYLAYER
 70
0
  3

 72
65
 73
0
 40
0.0
  0
LTYPE
  5
16
100
AcDbSymbolTableRecord
100
AcDbLinetypeTableRecord
  2
CONTINUOUS
 70
64
  3
Solid line
 72
65
 73
0
 40
0.0
  0
LTYPE
  5
1F5
100
AcDbSymbolTableRecord
100
AcDbLinetypeTableRecord
  2
CENTER
 70
64
  3
____ _ ____ _ ____ _ ____ _ ____ _ ____ _ ____
 72
65
 73
4
 40
0.6
 49
0.375
 74
0
 49
-0.075
 74
0
 49
0.075
 74
0
 49
-0.075
 74
0
  0
LTYPE
  5
1F6
100
AcDbSymbolTableRecord
100
AcDbLinetypeTableRecord
  2
HIDDEN
 70
64
  3
- - - - - - - - - - - - - - - - - - - -
 72
65
 73
2
 40
0.2
 49
0.1
 74
0
 49
-0.1
 74
0
  0
LTYPE
  5
1F7
100
AcDbSymbolTableRecord
100
AcDbLinetypeTableRecord
  2
PHANTOM
 70
64
  3
_____ _ _ _____ _ _ _____ _ _ _____
 72
65
 73
6
 40
0.8
 49
0.45
 74
0
 49
-0.05
 74
0
 49
0.1
 74
0
 49
-0.05
 74
0
 49
0.1
 74
0
 49
-0.05
 74
0
  0
LTYPE
  5
1F8
100
AcDbSymbolTableRecord
100
AcDbLinetypeTableRecord
  2
DOT
 70
64
  3
. . . . . . . . . . . . . . . . . . . .
 72
65
 73
2
 40
0.2
 49
0.1
 74
0
 49
-0.1
 74
0
  0
LTYPE
  5
1F9
100
AcDbSymbolTableRecord
100
AcDbLinetypeTableRecord
  2
DASHED
 70
64
  3
- - - - - - - - - - - - - - - - - - - -
 72
65
 73
2
 40
0.2
 49
0.1
 74
0
 49
-0.1
 74
0
  0
ENDTAB
  0
TABLE
  2
LAYER
  5
2
100
AcDbSymbolTable
 70
36
  0
LAYER
  5
10
100
AcDbSymbolTableRecord
100
AcDbLayerTableRecord
  2
0
 70
0
 62
7
  6
CONTINUOUS
370
-3
390
F
  0
LAYER
  5
1FA
100
AcDbSymbolTableRecord
100
AcDbLayerTableRecord
  2
DEFAULT_1
 70
0
 62
7
  6
CENTER
370
-3
390
F
  0
LAYER
  5
1FB
100
AcDbSymbolTableRecord
100
AcDbLayerTableRecord
  2
DEFAULT_2
 70
0
 62
8
  6
HIDDEN
370
-3
390
F
  0
LAYER
  5
1FC
100
AcDbSymbolTableRecord
100
AcDbLayerTableRecord
  2
DEFAULT_3
 70
0
 62
7
  6
PHANTOM
370
-3
390
F
  0
LAYER
  5
1FD
100
AcDbSymbolTableRecord
100
AcDbLayerTableRecord
  2
AUSFORMSCHRAEGEN
 70
0
 62
7
  6
CONTINUOUS
370
-3
390
F
  0
LAYER
  5
1FE
100
AcDbSymbolTableRecord
100
AcDbLayerTableRecord
  2
BEZUGSACHSEN
 70
0
 62
7
  6
CONTINUOUS
370
-3
390
F
  0
LAYER
  5
1FF
100
AcDbSymbolTableRecord
100
AcDbLayerTableRecord
  2
BEZUGSEBENEN
 70
0
 62
7
  6
CONTINUOUS
370
-3
390
F
  0
LAYER
  5
200
100
AcDbSymbolTableRecord
100
AcDbLayerTableRecord
  2
BG_STARTBEZUEGE
 70
0
 62
7
  6
CONTINUOUS
370
-3
390
F
  0
LAYER
  5
201
100
AcDbSymbolTableRecord
100
AcDbLayerTableRecord
  2
FASEN
 70
0
 62
7
  6
CONTINUOUS
370
-3
390
F
  0
LAYER
  5
202
100
AcDbSymbolTableRecord
100
AcDbLayerTableRecord
  2
HILFEN
 70
0
 62
7
  6
CONTINUOUS
370
-3
390
F
  0
LAYER
  5
203
100
AcDbSymbolTableRecord
100
AcDbLayerTableRecord
  2
KONSTRUKTIONSELEMENTE
 70
0
 62
7
  6
CONTINUOUS
370
-3
390
F
  0
LAYER
  5
204
100
AcDbSymbolTableRecord
100
AcDbLayerTableRecord
  2
KURVEN
 70
0
 62
7
  6
CONTINUOUS
370
-3
390
F
  0
LAYER
  5
205
100
AcDbSymbolTableRecord
100
AcDbLayerTableRecord
  2
NORM
 70
0
 62
7
  6
CONTINUOUS
370
-3
390
F
  0
LAYER
  5
206
100
AcDbSymbolTableRecord
100
AcDbLayerTableRecord
  2
PLATZIERUNG
 70
0
 62
7
  6
CONTINUOUS
370
-3
390
F
  0
LAYER
  5
207
100
AcDbSymbolTableRecord
100
AcDbLayerTableRecord
  2
PLAZIERUNG
 70
0
 62
7
  6
CONTINUOUS
370
-3
390
F
  0
LAYER
  5
208
100
AcDbSymbolTableRecord
100
AcDbLayerTableRecord
  2
RUNDUNGEN
 70
0
 62
7
  6
CONTINUOUS
370
-3
390
F
  0
LAYER
  5
209
100
AcDbSymbolTableRecord
100
AcDbLayerTableRecord
  2
TEIL_STARTBEZUEGE
 70
0
 62
7
  6
CONTINUOUS
370
-3
390
F
  0
LAYER
  5
20A
100
AcDbSymbolTableRecord
100
AcDbLayerTableRecord
  2
T_STARTBEZUEGE
 70
0
 62
7
  6
CONTINUOUS
370
-3
390
F
  0
LAYER
  5
20B
100
AcDbSymbolTableRecord
100
AcDbLayerTableRecord
  2
ZEICHNUNGSBEMASSUNGEN
 70
0
 62
7
  6
CONTINUOUS
370
-3
390
F
  0
ENDTAB
  0
TABLE
  2
STYLE
  5
3
100
AcDbSymbolTable
 70
1
  0
STYLE
  5
11
100
AcDbSymbolTableRecord
100
AcDbTextStyleTableRecord
  2
STANDARD
 70
0
 40
0.0
 41
0.7
 50
0.0
 71
0
 42
0.2
  3
txt
  4

  0
STYLE
  5
20C
100
AcDbSymbolTableRecord
100
AcDbTextStyleTableRecord
  2
TEXTSTYLE_1
 70
0
 40
0.0
 41
0.8
 50
0.0
 71
0
 42
0.2
  3
gdt
  4

  0
ENDTAB
  0
TABLE
  2
VIEW
  5
6
100
AcDbSymbolTable
 70
0
  0
ENDTAB
  0
TABLE
  2
UCS
  5
7
100
AcDbSymbolTable
 70
0
  0
ENDTAB
  0
TABLE
  2
APPID
  5
9
100
AcDbSymbolTable
 70
1
  0
APPID
  5
20D
100
AcDbSymbolTableRecord
100
AcDbRegAppTableRecord
  2
ACAD
 70
0
  0
ENDTAB
  0
TABLE
  2
BLOCK_RECORD
  5
1
100
AcDbSymbolTable
 70
0
  0
BLOCK_RECORD
  5
20E
100
AcDbSymbolTableRecord
100
AcDbBlockTableRecord
  2
*Model_Space
  0
BLOCK_RECORD
  5
20F
100
AcDbSymbolTableRecord
100
AcDbBlockTableRecord
  2
*Paper_Space
  0
ENDTAB
  0
TABLE
  2
DIMSTYLE
  5
A
100
AcDbSymbolTable
 70
1
100
AcDbDimStyleTable
 71
0
  0
DIMSTYLE
105
210
100
AcDbSymbolTableRecord
100
AcDbDimStyleTableRecord
  2
STANDARD
 70
0
  3

  4

 40
1.0
 41
3.5
 42
0.0625
 43
0.38
 44
0.18
 45
0.0
 46
0.0
 47
0.005
 48
0.005
140
3.5
141
0.09
142
0.0
143
25.4
144
1.0
145
0.0
146
1.0
147
0.09
 71
1.0
 72
0.0
 73
0
 74
0
 75
0
 76
0
 77
1
 78
8
170
0
171
2
172
0
173
0
174
0
175
0
176
0
177
0
178
5
270
2
271
3
272
3
273
2
274
2
275
0
280
0
281
0
282
0
283
1
284
8
285
0
286
0
287
3
288
0
340
11
  0
ENDTAB
  0
ENDSEC
  0
SECTION
  2
BLOCKS
  0
BLOCK
  5
20
100
AcDbEntity
  8
0
100
AcDbBlockBegin
  2
*Model_Space
 70
0
 10
0.0
 20
0.0
 30
0.0
  3
*Model_Space
  1

  0
ENDBLK
  5
21
100
AcDbEntity
  8
0
100
AcDbBlockEnd
  0
BLOCK
  5
1C
100
AcDbEntity
  8
0
100
AcDbBlockBegin
  2
*Paper_Space
 70
0
 10
0.0
 20
0.0
 30
0.0
  3
*Paper_Space
  1

  0
ENDBLK
  5
1D
100
AcDbEntity
  8
0
100
AcDbBlockEnd
  0
ENDSEC
  0
SECTION
  2
ENTITIES
  0
MTEXT
  5
211
100
AcDbEntity
  8
0
100
AcDbMText
 62
5
  6
CONTINUOUS
  7
STANDARD
 71
1
 72
1
 10
166.8885293687
 20
113.10791929
 30
0.0
 11
0.3826834324
 21
0.9238795325
 31
0.0
 44
0.9
  1
VIP 4
 40
4.0
 41
16.0952380952
  0
MTEXT
  5
212
100
AcDbEntity
  8
0
100
AcDbMText
 62
5
  6
CONTINUOUS
  7
STANDARD
 71
2
 72
1
 10
109.9551383378
 20
32.2412882661
 30
0.0
 11
0.0
 21
1.0
 31
0.0
 44
0.9
  1
RUD PP-B\P0,63t M12
 40
4.0
 41
26.0952380952
  0
MTEXT
  5
213
100
AcDbEntity
  8
0
100
AcDbMText
 62
5
  6
CONTINUOUS
  7
STANDARD
 71
1
 72
1
 10
193.2999194453
 20
122.4957234184
 30
0.0
 11
0.3826834324
 21
-0.9238795325
 31
0.0
 44
0.9
  1
CE
 40
4.0
 41
6.9523809524
  0
LINE
  5
214
100
AcDbEntity
  8
0
100
AcDbLine
 62
7
  6
CONTINUOUS
 10
0.0
 20
0.0
 11
0.0
 21
210.0
  0
LINE
  5
215
100
AcDbEntity
  8
0
100
AcDbLine
 62
7
  6
CONTINUOUS
 10
0.0
 20
0.0
 11
297.0
 21
0.0
  0
LINE
  5
216
100
AcDbEntity
  8
0
100
AcDbLine
 62
7
  6
CONTINUOUS
 10
0.0
 20
210.0
 11
297.0
 21
210.0
  0
LINE
  5
217
100
AcDbEntity
  8
0
100
AcDbLine
 62
7
  6
CONTINUOUS
 10
297.0
 20
0.0
 11
297.0
 21
210.0
  0
LINE
  5
218
100
AcDbEntity
  8
FASEN
100
AcDbLine
 62
7
  6
CONTINUOUS
 10
120.2551495515
 20
66.7627878999
 11
109.2558416744
 21
66.7627878999
  0
LINE
  5
219
100
AcDbEntity
  8
FASEN
100
AcDbLine
 62
7
  6
CONTINUOUS
 10
120.7554956129
 20
67.2627878999
 11
108.7554956129
 21
67.2627878999
  0
LINE
  5
21A
100
AcDbEntity
  8
KONSTRUKTIONSELEMENTE
100
AcDbLine
 62
7
  6
CONTINUOUS
 10
105.0969516034
 20
194.7952532604
 11
103.7244278405
 21
194.0697073525
  0
LINE
  5
21B
100
AcDbEntity
  8
KONSTRUKTIONSELEMENTE
100
AcDbLine
 62
7
  6
CONTINUOUS
 10
104.2664277342
 20
193.8748910823
 11
105.3530091556
 21
194.4492816504
  0
LINE
  5
21C
100
AcDbEntity
  8
KONSTRUKTIONSELEMENTE
100
AcDbLine
 62
7
  6
CONTINUOUS
 10
105.9496161261
 20
193.3206731983
 11
104.8630347047
 21
192.7462826302
  0
LINE
  5
21D
100
AcDbEntity
  8
KONSTRUKTIONSELEMENTE
100
AcDbLine
 62
7
  6
CONTINUOUS
 10
105.1016774483
 20
192.2948393336
 11
106.1310702705
 21
192.8389987646
  0
LINE
  5
21E
100
AcDbEntity
  8
KONSTRUKTIONSELEMENTE
100
AcDbLine
 62
7
  6
CONTINUOUS
 10
111.5037572657
 20
196.3393072947
 11
111.8119966652
 21
196.4690869778
  0
LINE
  5
21F
100
AcDbEntity
  8
KONSTRUKTIONSELEMENTE
100
AcDbLine
 62
7
  6
CONTINUOUS
 10
102.3611207007
 20
193.0431622908
 11
102.0526675491
 21
192.9138919264
  0
LINE
  5
220
100
AcDbEntity
  8
KONSTRUKTIONSELEMENTE
100
AcDbLine
 62
7
  6
CONTINUOUS
 10
111.7521073798
 20
196.8903833592
 11
111.3798248221
 21
196.7514996364
  0
LINE
  5
221
100
AcDbEntity
  8
KONSTRUKTIONSELEMENTE
100
AcDbLine
 62
7
  6
CONTINUOUS
 10
112.3150667297
 20
192.9301969026
 11
112.6873492864
 21
193.0690806328
  0
LINE
  5
222
100
AcDbEntity
  8
KONSTRUKTIONSELEMENTE
100
AcDbLine
 62
7
  6
CONTINUOUS
 10
119.2132098217
 20
196.5514175212
 11
118.9218789525
 21
196.4462984271
  0
LINE
  5
223
100
AcDbEntity
  8
KONSTRUKTIONSELEMENTE
100
AcDbLine
 62
7
  6
CONTINUOUS
 10
115.8549615845
 20
196.5667335824
 11
116.0546025585
 21
196.6377726587
  0
LINE
  5
224
100
AcDbEntity
  8
KONSTRUKTIONSELEMENTE
100
AcDbLine
 62
7
  6
CONTINUOUS
 10
115.751702289
 20
195.1236145384
 11
115.951343263
 21
195.1946536146
  0
LINE
  5
225
100
AcDbEntity
  8
KONSTRUKTIONSELEMENTE
100
AcDbLine
 62
7
  6
CONTINUOUS
 10
102.0526675491
 20
192.9138919264
 11
100.8206669686
 21
191.9692158369
  0
LINE
  5
226
100
AcDbEntity
  8
KONSTRUKTIONSELEMENTE
100
AcDbLine
 62
7
  6
CONTINUOUS
 10
101.387598689
 20
191.8676989005
 11
102.3629324329
 21
192.6155674338
  0
LINE
  5
227
100
AcDbEntity
  8
KONSTRUKTIONSELEMENTE
100
AcDbLine
 62
7
  6
CONTINUOUS
 10
103.1397273038
 20
191.6025093683
 11
102.1643935599
 21
190.854640835
  0
LINE
  5
228
100
AcDbEntity
  8
KONSTRUKTIONSELEMENTE
100
AcDbLine
 62
7
  6
CONTINUOUS
 10
102.4751114502
 20
190.4494176845
 11
103.3991118855
 21
191.1579247516
  0
LINE
  5
229
100
AcDbEntity
  8
KONSTRUKTIONSELEMENTE
100
AcDbLine
 62
7
  6
CONTINUOUS
 10
115.8208091687
 20
196.9957970804
 11
115.4799759375
 21
196.764212796
  0
LINE
  5
22A
100
AcDbEntity
  8
KONSTRUKTIONSELEMENTE
100
AcDbLine
 62
7
  6
CONTINUOUS
 10
105.5937962217
 20
190.5334011079
 11
105.9369271624
 21
190.7147875849
  0
LINE
  5
22B
100
AcDbEntity
  8
KONSTRUKTIONSELEMENTE
100
AcDbLine
 62
7
  6
CONTINUOUS
 10
118.9483615074
 20
196.0023231312
 11
119.176791266
 21
196.1225404273
  0
LINE
  5
22C
100
AcDbEntity
  8
KONSTRUKTIONSELEMENTE
100
AcDbLine
 62
7
  6
CONTINUOUS
 10
112.5634168355
 20
193.4812730261
 11
112.2551774359
 21
193.351493343
  0
LINE
  5
22D
100
AcDbEntity
  8
KONSTRUKTIONSELEMENTE
100
AcDbLine
 62
7
  6
CONTINUOUS
 10
119.5707276798
 20
193.0521761958
 11
119.425062965
 21
192.9996164759
  0
LINE
  5
22E
100
AcDbEntity
  8
KONSTRUKTIONSELEMENTE
100
AcDbLine
 62
7
  6
CONTINUOUS
 10
119.3257432865
 20
192.5858375334
 11
119.6170727213
 21
192.6909569948
  0
LINE
  5
22F
100
AcDbEntity
  8
KONSTRUKTIONSELEMENTE
100
AcDbLine
 62
7
  6
CONTINUOUS
 10
116.4811593093
 20
193.5355883608
 11
116.2815183354
 21
193.4645492846
  0
LINE
  5
230
100
AcDbEntity
  8
KONSTRUKTIONSELEMENTE
100
AcDbLine
 62
7
  6
CONTINUOUS
 10
126.6504371564
 20
191.7253332013
 11
126.4473461741
 21
191.6585166363
  0
LINE
  5
231
100
AcDbEntity
  8
KONSTRUKTIONSELEMENTE
100
AcDbLine
 62
7
  6
CONTINUOUS
 10
106.1310702705
 20
192.8389987646
 11
106.3772388215
 21
193.0653946538
  0
LINE
  5
232
100
AcDbEntity
  8
KONSTRUKTIONSELEMENTE
100
AcDbLine
 62
7
  6
CONTINUOUS
 10
103.2546240663
 20
188.794967446
 11
103.5626242114
 21
189.0311364684
  0
LINE
  5
233
100
AcDbEntity
  8
KONSTRUKTIONSELEMENTE
100
AcDbLine
 62
7
  6
CONTINUOUS
 10
115.6492465354
 20
196.4108051646
 11
115.8549615845
 21
196.5667335824
  0
LINE
  5
234
100
AcDbEntity
  8
KONSTRUKTIONSELEMENTE
100
AcDbLine
 62
7
  6
CONTINUOUS
 10
115.7175498732
 20
195.5526780364
 11
115.306119775
 21
195.2408212008
  0
LINE
  5
235
100
AcDbEntity
  8
KONSTRUKTIONSELEMENTE
100
AcDbLine
 62
7
  6
CONTINUOUS
 10
115.5459872399
 20
194.9676861206
 11
115.751702289
 21
195.1236145384
  0
LINE
  5
236
100
AcDbEntity
  8
KONSTRUKTIONSELEMENTE
100
AcDbLine
 62
7
  6
CONTINUOUS
 10
116.5153102446
 20
193.1065249165
 11
116.8561449542
 21
193.3381091175
  0
LINE
  5
237
100
AcDbEntity
  8
KONSTRUKTIONSELEMENTE
100
AcDbLine
 62
7
  6
CONTINUOUS
 10
119.908414587
 20
194.4590246018
 11
120.2196093895
 21
194.6468994742
  0
LINE
  5
238
100
AcDbEntity
  8
KONSTRUKTIONSELEMENTE
100
AcDbLine
 62
7
  6
CONTINUOUS
 10
119.6170727213
 20
192.6909569948
 11
119.8455024869
 21
192.8111743199
  0
LINE
  5
239
100
AcDbEntity
  8
KONSTRUKTIONSELEMENTE
100
AcDbLine
 62
7
  6
CONTINUOUS
 10
126.5689338356
 20
191.2647959604
 11
126.9218364115
 21
191.4351170137
  0
LINE
  5
23A
100
AcDbEntity
  8
KONSTRUKTIONSELEMENTE
100
AcDbLine
 62
7
  6
CONTINUOUS
 10
125.6368233297
 20
190.2533304167
 11
125.4337323136
 21
190.1865138026
  0
LINE
  5
23B
100
AcDbEntity
  8
KONSTRUKTIONSELEMENTE
100
AcDbLine
 62
7
  6
CONTINUOUS
 10
94.7554956129
 20
84.7627878999
 11
134.7554956129
 21
84.7627878999
  0
LINE
  5
23C
100
AcDbEntity
  8
FASEN
100
AcDbLine
 62
7
  6
CONTINUOUS
 10
109.2554956129
 20
66.7627878999
 11
108.7554956129
 21
67.2627878999
  0
LINE
  5
23D
100
AcDbEntity
  8
KONSTRUKTIONSELEMENTE
100
AcDbLine
 62
7
  6
CONTINUOUS
 10
103.3991118855
 20
191.1579247516
 11
103.603992407
 21
191.4222694995
  0
LINE
  5
23E
100
AcDbEntity
  8
KONSTRUKTIONSELEMENTE
100
AcDbLine
 62
7
  6
CONTINUOUS
 10
106.0814078059
 20
193.4866069862
 11
105.9496161261
 21
193.3206731983
  0
LINE
  5
23F
100
AcDbEntity
  8
KONSTRUKTIONSELEMENTE
100
AcDbLine
 62
7
  6
CONTINUOUS
 10
111.3355827725
 20
196.143476519
 11
111.5037572657
 21
196.3393072947
  0
LINE
  5
240
100
AcDbEntity
  8
KONSTRUKTIONSELEMENTE
100
AcDbLine
 62
7
  6
CONTINUOUS
 10
111.3798248221
 20
196.7514996364
 11
111.0955411368
 21
196.4532014008
  0
LINE
  5
241
100
AcDbEntity
  8
KONSTRUKTIONSELEMENTE
100
AcDbLine
 62
7
  6
CONTINUOUS
 10
112.6873492864
 20
193.0690806328
 11
112.9716329686
 21
193.3673788905
  0
LINE
  5
242
100
AcDbEntity
  8
KONSTRUKTIONSELEMENTE
100
AcDbLine
 62
7
  6
CONTINUOUS
 10
118.9218789525
 20
196.4462984271
 11
118.5908216564
 21
196.1756674307
  0
LINE
  5
243
100
AcDbEntity
  8
KONSTRUKTIONSELEMENTE
100
AcDbLine
 62
7
  6
CONTINUOUS
 10
120.0275981866
 20
194.9555592719
 11
119.8620695385
 21
194.8202437738
  0
LINE
  5
244
100
AcDbEntity
  8
KONSTRUKTIONSELEMENTE
100
AcDbLine
 62
7
  6
CONTINUOUS
 10
119.7362563418
 20
193.1874917519
 11
119.5707276798
 21
193.0521761958
  0
LINE
  5
245
100
AcDbEntity
  8
KONSTRUKTIONSELEMENTE
100
AcDbLine
 62
7
  6
CONTINUOUS
 10
116.6868743584
 20
193.6915167786
 11
116.4811593093
 21
193.5355883608
  0
LINE
  5
246
100
AcDbEntity
  8
KONSTRUKTIONSELEMENTE
100
AcDbLine
 62
7
  6
CONTINUOUS
 10
125.5553199582
 20
189.7927931022
 11
125.908222551
 21
189.96311418
  0
LINE
  5
247
100
AcDbEntity
  8
0
100
AcDbLine
 62
7
  6
CONTINUOUS
 10
96.9920383448
 20
86.9127878999
 11
97.2420383448
 21
86.9127878999
  0
LINE
  5
248
100
AcDbEntity
  8
0
100
AcDbLine
 62
7
  6
CONTINUOUS
 10
97.8253716583
 20
86.9127878999
 11
98.1587049717
 21
86.9127878999
  0
LINE
  5
249
100
AcDbEntity
  8
0
100
AcDbLine
 62
7
  6
CONTINUOUS
 10
98.7420383448
 20
86.9127878999
 11
98.9920383448
 21
86.9127878999
  0
LINE
  5
24A
100
AcDbEntity
  8
0
100
AcDbLine
 62
7
  6
CONTINUOUS
 10
99.5753715987
 20
86.9127878999
 11
99.8253715987
 21
86.9127878999
  0
LINE
  5
24B
100
AcDbEntity
  8
0
100
AcDbLine
 62
7
  6
CONTINUOUS
 10
100.1587050909
 20
86.9127878999
 11
101.6587048525
 21
86.9127878999
  0
LINE
  5
24C
100
AcDbEntity
  8
0
100
AcDbLine
 62
7
  6
CONTINUOUS
 10
97.9920383448
 20
87.3383198237
 11
98.237533805
 21
87.3383198237
  0
LINE
  5
24D
100
AcDbEntity
  8
0
100
AcDbLine
 62
7
  6
CONTINUOUS
 10
100.1587050909
 20
87.3383198237
 11
101.6587048525
 21
87.3383198237
  0
LINE
  5
24E
100
AcDbEntity
  8
0
100
AcDbLine
 62
7
  6
CONTINUOUS
 10
101.3253718371
 20
89.4659793234
 11
101.6170383448
 21
89.4659793234
  0
LINE
  5
24F
100
AcDbEntity
  8
0
100
AcDbLine
 62
7
  6
CONTINUOUS
 10
101.4087048525
 20
89.8064048147
 11
101.6587048525
 21
89.8064048147
  0
LINE
  5
250
100
AcDbEntity
  8
0
100
AcDbLine
 62
7
  6
CONTINUOUS
 10
100.2003715987
 20
89.9766177988
 11
100.4087050909
 21
89.9766177988
  0
LINE
  5
251
100
AcDbEntity
  8
0
100
AcDbLine
 62
7
  6
CONTINUOUS
 10
101.4087048525
 20
89.9766177988
 11
101.6587048525
 21
89.9766177988
  0
LINE
  5
252
100
AcDbEntity
  8
0
100
AcDbLine
 62
7
  6
CONTINUOUS
 10
97.2420383448
 20
90.0617241716
 11
97.5158478512
 21
90.0617241716
  0
LINE
  5
253
100
AcDbEntity
  8
0
100
AcDbLine
 62
7
  6
CONTINUOUS
 10
98.7420383448
 20
90.0617241716
 11
98.9920383448
 21
90.0617241716
  0
LINE
  5
254
100
AcDbEntity
  8
0
100
AcDbLine
 62
7
  6
CONTINUOUS
 10
99.5753715987
 20
90.2319369173
 11
99.8253715987
 21
90.2319369173
  0
LINE
  5
255
100
AcDbEntity
  8
0
100
AcDbLine
 62
7
  6
CONTINUOUS
 10
101.3253718371
 20
90.2319369173
 11
101.6274549717
 21
90.2319369173
  0
LINE
  5
256
100
AcDbEntity
  8
0
100
AcDbLine
 62
7
  6
CONTINUOUS
 10
99.3253715987
 20
90.3170432901
 11
99.7583843006
 21
90.3170432901
  0
LINE
  5
257
100
AcDbEntity
  8
0
100
AcDbLine
 62
7
  6
CONTINUOUS
 10
100.2420383448
 20
90.3170432901
 11
100.5545383448
 21
90.3170432901
  0
LINE
  5
258
100
AcDbEntity
  8
0
100
AcDbLine
 62
7
  6
CONTINUOUS
 10
101.2003718371
 20
90.4021496629
 11
101.5753717179
 21
90.4021496629
  0
LINE
  5
259
100
AcDbEntity
  8
0
100
AcDbLine
 62
7
  6
CONTINUOUS
 10
100.8253715987
 20
90.4872560358
 11
101.4250510467
 21
90.4872560358
  0
LINE
  5
25A
100
AcDbEntity
  8
0
100
AcDbLine
 62
7
  6
CONTINUOUS
 10
100.4087050909
 20
90.6574687814
 11
100.8417177928
 21
90.6574687814
  0
LINE
  5
25B
100
AcDbEntity
  8
0
100
AcDbLine
 62
7
  6
CONTINUOUS
 10
100.5753715987
 20
90.8276815271
 11
101.0083843006
 21
90.8276815271
  0
LINE
  5
25C
100
AcDbEntity
  8
0
100
AcDbLine
 62
7
  6
CONTINUOUS
 10
101.0337048525
 20
90.9127878999
 11
100.8670383448
 21
90.9127878999
  0
LINE
  5
25D
100
AcDbEntity
  8
0
100
AcDbLine
 62
7
  6
CONTINUOUS
 10
99.8253715987
 20
90.9127878999
 11
99.5753715987
 21
90.9127878999
  0
LINE
  5
25E
100
AcDbEntity
  8
0
100
AcDbLine
 62
7
  6
CONTINUOUS
 10
98.9920383448
 20
90.9127878999
 11
98.6170383448
 21
90.9127878999
  0
LINE
  5
25F
100
AcDbEntity
  8
0
100
AcDbLine
 62
7
  6
CONTINUOUS
 10
97.3670383448
 20
90.9127878999
 11
96.9920383448
 21
90.9127878999
  0
LINE
  5
260
100
AcDbEntity
  8
0
100
AcDbLine
 62
7
  6
CONTINUOUS
 10
101.2837048525
 20
90.8276815271
 11
101.0337048525
 21
90.9127878999
  0
LINE
  5
261
100
AcDbEntity
  8
0
100
AcDbLine
 62
7
  6
CONTINUOUS
 10
100.9920383448
 20
90.4872560358
 11
101.2003718371
 21
90.4021496629
  0
LINE
  5
262
100
AcDbEntity
  8
0
100
AcDbLine
 62
7
  6
CONTINUOUS
 10
101.4250510467
 20
90.4872560358
 11
101.5608685437
 21
90.4317731923
  0
LINE
  5
263
100
AcDbEntity
  8
KONSTRUKTIONSELEMENTE
100
AcDbLine
 62
7
  6
CONTINUOUS
 10
103.2419410613
 20
191.7881310713
 11
103.1397273038
 21
191.6025093683
  0
LINE
  5
264
100
AcDbEntity
  8
KONSTRUKTIONSELEMENTE
100
AcDbLine
 62
7
  6
CONTINUOUS
 10
112.7315913287
 20
193.6771038018
 11
112.5634168355
 21
193.4812730261
  0
LINE
  5
265
100
AcDbEntity
  8
KONSTRUKTIONSELEMENTE
100
AcDbLine
 62
7
  6
CONTINUOUS
 10
115.4047949826
 20
194.8071409125
 11
115.5459872399
 21
194.9676861206
  0
LINE
  5
266
100
AcDbEntity
  8
KONSTRUKTIONSELEMENTE
100
AcDbLine
 62
7
  6
CONTINUOUS
 10
94.7554956129
 20
93.2627878999
 11
134.7554956129
 21
93.2627878999
  0
LINE
  5
267
100
AcDbEntity
  8
0
100
AcDbLine
 62
7
  6
CONTINUOUS
 10
97.760602597
 20
94.6521496033
 11
97.5105285609
 21
94.6521496033
  0
LINE
  5
268
100
AcDbEntity
  8
0
100
AcDbLine
 62
7
  6
CONTINUOUS
 10
101.5859284219
 20
95.1627878999
 11
101.2647580497
 21
95.1627878999
  0
LINE
  5
269
100
AcDbEntity
  8
0
100
AcDbLine
 62
7
  6
CONTINUOUS
 10
99.3014870753
 20
95.1627878999
 11
98.7433471922
 21
95.1627878999
  0
LINE
  5
26A
100
AcDbEntity
  8
0
100
AcDbLine
 62
7
  6
CONTINUOUS
 10
98.0854960733
 20
95.1627878999
 11
97.753861759
 21
95.1627878999
  0
LINE
  5
26B
100
AcDbEntity
  8
0
100
AcDbLine
 62
7
  6
CONTINUOUS
 10
99.4586637518
 20
95.2478942802
 11
99.1813001285
 21
95.2478942802
  0
LINE
  5
26C
100
AcDbEntity
  8
0
100
AcDbLine
 62
7
  6
CONTINUOUS
 10
98.1742562141
 20
95.2478942802
 11
97.9180373724
 21
95.2478942802
  0
LINE
  5
26D
100
AcDbEntity
  8
0
100
AcDbLine
 62
7
  6
CONTINUOUS
 10
99.6248148615
 20
95.4181070482
 11
99.3444606055
 21
95.4181070482
  0
LINE
  5
26E
100
AcDbEntity
  8
0
100
AcDbLine
 62
7
  6
CONTINUOUS
 10
101.5859284219
 20
95.5032134211
 11
101.2647580497
 21
95.5032134211
  0
LINE
  5
26F
100
AcDbEntity
  8
0
100
AcDbLine
 62
7
  6
CONTINUOUS
 10
98.2740243744
 20
95.5032134211
 11
98.0162783616
 21
95.5032134211
  0
LINE
  5
270
100
AcDbEntity
  8
0
100
AcDbLine
 62
7
  6
CONTINUOUS
 10
101.2565249454
 20
95.5883198237
 11
100.9430118
 21
95.5883198237
  0
LINE
  5
271
100
AcDbEntity
  8
0
100
AcDbLine
 62
7
  6
CONTINUOUS
 10
99.7554956129
 20
95.5883198237
 11
99.4727438973
 21
95.5883198237
  0
LINE
  5
272
100
AcDbEntity
  8
0
100
AcDbLine
 62
7
  6
CONTINUOUS
 10
98.9896305875
 20
95.5883198237
 11
98.7769944316
 21
95.5883198237
  0
LINE
  5
273
100
AcDbEntity
  8
0
100
AcDbLine
 62
7
  6
CONTINUOUS
 10
97.8472463471
 20
95.5883198237
 11
97.7397757039
 21
95.5883198237
  0
LINE
  5
274
100
AcDbEntity
  8
0
100
AcDbLine
 62
7
  6
CONTINUOUS
 10
97.6317628555
 20
95.5883198237
 11
97.5298687262
 21
95.5883198237
  0
LINE
  5
275
100
AcDbEntity
  8
0
100
AcDbLine
 62
7
  6
CONTINUOUS
 10
98.8812067211
 20
95.6734261965
 11
98.6137625021
 21
95.6734261965
  0
LINE
  5
276
100
AcDbEntity
  8
0
100
AcDbLine
 62
7
  6
CONTINUOUS
 10
97.899693638
 20
95.6734261965
 11
97.7000304908
 21
95.6734261965
  0
LINE
  5
277
100
AcDbEntity
  8
0
100
AcDbLine
 62
7
  6
CONTINUOUS
 10
101.4503718371
 20
90.6574687814
 11
101.2837048525
 21
90.8276815271
  0
LINE
  5
278
100
AcDbEntity
  8
KONSTRUKTIONSELEMENTE
100
AcDbLine
 62
7
  6
CONTINUOUS
 10
111.0955411368
 20
196.4532014008
 11
110.9393445006
 21
196.1731113487
  0
LINE
  5
279
100
AcDbEntity
  8
KONSTRUKTIONSELEMENTE
100
AcDbLine
 62
7
  6
CONTINUOUS
 10
115.4799759375
 20
196.764212796
 11
115.262112738
 21
196.4385056952
  0
LINE
  5
27A
100
AcDbEntity
  8
KONSTRUKTIONSELEMENTE
100
AcDbLine
 62
7
  6
CONTINUOUS
 10
94.3492456129
 20
163.6564049041
 11
94.6304956129
 21
164.0393835818
  0
LINE
  5
27B
100
AcDbEntity
  8
KONSTRUKTIONSELEMENTE
100
AcDbLine
 62
7
  6
CONTINUOUS
 10
118.7629674864
 20
195.7842522002
 11
118.9483615074
 21
196.0023231312
  0
LINE
  5
27C
100
AcDbEntity
  8
KONSTRUKTIONSELEMENTE
100
AcDbLine
 62
7
  6
CONTINUOUS
 10
120.2196093895
 20
194.6468994742
 11
120.4050019708
 21
194.8649707507
  0
LINE
  5
27D
100
AcDbEntity
  8
KONSTRUKTIONSELEMENTE
100
AcDbLine
 62
7
  6
CONTINUOUS
 10
119.8455024869
 20
192.8111743199
 11
120.0308965079
 21
193.0292452509
  0
LINE
  5
27E
100
AcDbEntity
  8
KONSTRUKTIONSELEMENTE
100
AcDbLine
 62
7
  6
CONTINUOUS
 10
94.0679956129
 20
164.1351282513
 11
93.8804955235
 21
163.9436389124
  0
LINE
  5
27F
100
AcDbEntity
  8
KONSTRUKTIONSELEMENTE
100
AcDbLine
 62
7
  6
CONTINUOUS
 10
126.8485160719
 20
191.8989330556
 11
126.6504371564
 21
191.7253332013
  0
LINE
  5
280
100
AcDbEntity
  8
KONSTRUKTIONSELEMENTE
100
AcDbLine
 62
7
  6
CONTINUOUS
 10
126.9218364115
 20
191.4351170137
 11
127.119915327
 21
191.608716868
  0
LINE
  5
281
100
AcDbEntity
  8
KONSTRUKTIONSELEMENTE
100
AcDbLine
 62
7
  6
CONTINUOUS
 10
125.8349022452
 20
190.426930271
 11
125.6368233297
 21
190.2533304167
  0
LINE
  5
282
100
AcDbEntity
  8
KONSTRUKTIONSELEMENTE
100
AcDbLine
 62
7
  6
CONTINUOUS
 10
125.908222551
 20
189.96311418
 11
126.1063015003
 21
190.1367140834
  0
LINE
  5
283
100
AcDbEntity
  8
KONSTRUKTIONSELEMENTE
100
AcDbLine
 62
7
  6
CONTINUOUS
 10
93.9742457023
 20
163.4649155652
 11
94.3492456129
 21
163.6564049041
  0
LINE
  5
284
100
AcDbEntity
  8
KONSTRUKTIONSELEMENTE
100
AcDbLine
 62
7
  6
CONTINUOUS
 10
93.8804955235
 20
163.9436389124
 11
93.5992455235
 21
163.847894243
  0
LINE
  5
285
100
AcDbEntity
  8
0
100
AcDbLine
 62
7
  6
CONTINUOUS
 10
101.0687729933
 20
95.7585325694
 11
100.7594648875
 21
95.7585325694
  0
LINE
  5
286
100
AcDbEntity
  8
0
100
AcDbLine
 62
7
  6
CONTINUOUS
 10
98.8183357945
 20
95.7585325694
 11
98.5519292438
 21
95.7585325694
  0
LINE
  5
287
100
AcDbEntity
  8
0
100
AcDbLine
 62
7
  6
CONTINUOUS
 10
97.6031957655
 20
95.7585325694
 11
97.5345055136
 21
95.7585325694
  0
LINE
  5
288
100
AcDbEntity
  8
0
100
AcDbLine
 62
7
  6
CONTINUOUS
 10
99.8455805917
 20
95.8436389422
 11
99.5611523912
 21
95.8436389422
  0
LINE
  5
289
100
AcDbEntity
  8
0
100
AcDbLine
 62
7
  6
CONTINUOUS
 10
98.3392517925
 20
95.8436389422
 11
98.0804975268
 21
95.8436389422
  0
LINE
  5
28A
100
AcDbEntity
  8
0
100
AcDbLine
 62
7
  6
CONTINUOUS
 10
97.9163876484
 20
95.8436389422
 11
97.6640340885
 21
95.8436389422
  0
LINE
  5
28B
100
AcDbEntity
  8
0
100
AcDbLine
 62
7
  6
CONTINUOUS
 10
98.7574488571
 20
95.9287453746
 11
98.4920396456
 21
95.9287453746
  0
LINE
  5
28C
100
AcDbEntity
  8
0
100
AcDbLine
 62
7
  6
CONTINUOUS
 10
101.0077685281
 20
96.0138517475
 11
100.699802816
 21
96.0138517475
  0
LINE
  5
28D
100
AcDbEntity
  8
0
100
AcDbLine
 62
7
  6
CONTINUOUS
 10
99.8915291167
 20
96.0989581203
 11
99.6062382054
 21
96.0989581203
  0
LINE
  5
28E
100
AcDbEntity
  8
0
100
AcDbLine
 62
7
  6
CONTINUOUS
 10
98.7277416812
 20
96.0989581203
 11
98.3238188878
 21
96.0989581203
  0
LINE
  5
28F
100
AcDbEntity
  8
0
100
AcDbLine
 62
7
  6
CONTINUOUS
 10
97.5928141827
 20
96.0989581203
 11
97.5256361798
 21
96.0989581203
  0
LINE
  5
290
100
AcDbEntity
  8
0
100
AcDbLine
 62
7
  6
CONTINUOUS
 10
97.8941328513
 20
96.0989581203
 11
97.6421074569
 21
96.0989581203
  0
LINE
  5
291
100
AcDbEntity
  8
0
100
AcDbLine
 62
7
  6
CONTINUOUS
 10
98.3850023483
 20
96.269170866
 11
98.1255362105
 21
96.269170866
  0
LINE
  5
292
100
AcDbEntity
  8
0
100
AcDbLine
 62
7
  6
CONTINUOUS
 10
97.5861997286
 20
96.3542772388
 11
97.5218076733
 21
96.3542772388
  0
LINE
  5
293
100
AcDbEntity
  8
0
100
AcDbLine
 62
7
  6
CONTINUOUS
 10
97.8836337255
 20
96.3542772388
 11
97.6317628555
 21
96.3542772388
  0
LINE
  5
294
100
AcDbEntity
  8
0
100
AcDbLine
 62
7
  6
CONTINUOUS
 10
99.8915291167
 20
96.4393836116
 11
99.6062382054
 21
96.4393836116
  0
LINE
  5
295
100
AcDbEntity
  8
0
100
AcDbLine
 62
7
  6
CONTINUOUS
 10
97.8836337255
 20
96.6095963573
 11
97.6317628555
 21
96.6095963573
  0
LINE
  5
296
100
AcDbEntity
  8
0
100
AcDbLine
 62
7
  6
CONTINUOUS
 10
98.3850023483
 20
96.6947028494
 11
98.1255362105
 21
96.6947028494
  0
LINE
  5
297
100
AcDbEntity
  8
0
100
AcDbLine
 62
7
  6
CONTINUOUS
 10
99.8455805917
 20
96.7798092222
 11
99.5611523912
 21
96.7798092222
  0
LINE
  5
298
100
AcDbEntity
  8
0
100
AcDbLine
 62
7
  6
CONTINUOUS
 10
97.5783143377
 20
96.7798092222
 11
97.5183828868
 21
96.7798092222
  0
LINE
  5
299
100
AcDbEntity
  8
0
100
AcDbLine
 62
7
  6
CONTINUOUS
 10
97.8941328513
 20
96.864915595
 11
97.6421074569
 21
96.864915595
  0
LINE
  5
29A
100
AcDbEntity
  8
0
100
AcDbLine
 62
7
  6
CONTINUOUS
 10
99.7554956129
 20
97.0351283407
 11
99.4727438973
 21
97.0351283407
  0
LINE
  5
29B
100
AcDbEntity
  8
0
100
AcDbLine
 62
7
  6
CONTINUOUS
 10
98.9528935798
 20
97.0351283407
 11
98.811148218
 21
97.0351283407
  0
LINE
  5
29C
100
AcDbEntity
  8
0
100
AcDbLine
 62
7
  6
CONTINUOUS
 10
97.9163876484
 20
97.0351283407
 11
97.6640340885
 21
97.0351283407
  0
LINE
  5
29D
100
AcDbEntity
  8
0
100
AcDbLine
 62
7
  6
CONTINUOUS
 10
98.3392517925
 20
97.1202347135
 11
98.0804975268
 21
97.1202347135
  0
LINE
  5
29E
100
AcDbEntity
  8
0
100
AcDbLine
 62
7
  6
CONTINUOUS
 10
99.5406000854
 20
97.2053410864
 11
99.2617695952
 21
97.2053410864
  0
LINE
  5
29F
100
AcDbEntity
  8
0
100
AcDbLine
 62
7
  6
CONTINUOUS
 10
97.899693638
 20
97.2053410864
 11
97.7000304908
 21
97.2053410864
  0
LINE
  5
2A0
100
AcDbEntity
  8
0
100
AcDbLine
 62
7
  6
CONTINUOUS
 10
97.8472463471
 20
97.2904474592
 11
97.7397757039
 21
97.2904474592
  0
LINE
  5
2A1
100
AcDbEntity
  8
0
100
AcDbLine
 62
7
  6
CONTINUOUS
 10
98.9528935798
 20
97.375553832
 11
98.811148218
 21
97.375553832
  0
LINE
  5
2A2
100
AcDbEntity
  8
0
100
AcDbLine
 62
7
  6
CONTINUOUS
 10
98.2740243744
 20
97.375553832
 11
98.0162783616
 21
97.375553832
  0
LINE
  5
2A3
100
AcDbEntity
  8
0
100
AcDbLine
 62
7
  6
CONTINUOUS
 10
99.7113472836
 20
97.4606602049
 11
99.4294100411
 21
97.4606602049
  0
LINE
  5
2A4
100
AcDbEntity
  8
0
100
AcDbLine
 62
7
  6
CONTINUOUS
 10
97.6528654664
 20
97.4606602049
 11
97.6218299222
 21
97.4606602049
  0
LINE
  5
2A5
100
AcDbEntity
  8
0
100
AcDbLine
 62
7
  6
CONTINUOUS
 10
101.7237496528
 20
97.5457665777
 11
100.699802816
 21
97.5457665777
  0
LINE
  5
2A6
100
AcDbEntity
  8
0
100
AcDbLine
 62
7
  6
CONTINUOUS
 10
100.4124760551
 20
97.5457665777
 11
99.9887909401
 21
97.5457665777
  0
LINE
  5
2A7
100
AcDbEntity
  8
0
100
AcDbLine
 62
7
  6
CONTINUOUS
 10
97.5783143377
 20
97.5457665777
 11
97.5183828868
 21
97.5457665777
  0
LINE
  5
2A8
100
AcDbEntity
  8
0
100
AcDbLine
 62
7
  6
CONTINUOUS
 10
98.1742562141
 20
97.6308729505
 11
97.9180373724
 21
97.6308729505
  0
LINE
  5
2A9
100
AcDbEntity
  8
0
100
AcDbLine
 62
7
  6
CONTINUOUS
 10
99.8002386127
 20
97.7159793234
 11
99.5166566826
 21
97.7159793234
  0
LINE
  5
2AA
100
AcDbEntity
  8
0
100
AcDbLine
 62
7
  6
CONTINUOUS
 10
98.0854960733
 20
97.7159793234
 11
97.753861759
 21
97.7159793234
  0
LINE
  5
2AB
100
AcDbEntity
  8
0
100
AcDbLine
 62
7
  6
CONTINUOUS
 10
101.7237496528
 20
97.886192069
 11
100.699802816
 21
97.886192069
  0
LINE
  5
2AC
100
AcDbEntity
  8
0
100
AcDbLine
 62
7
  6
CONTINUOUS
 10
100.4124760551
 20
97.886192069
 11
99.9887909401
 21
97.886192069
  0
LINE
  5
2AD
100
AcDbEntity
  8
0
100
AcDbLine
 62
7
  6
CONTINUOUS
 10
97.8836337255
 20
97.9712984419
 11
97.6317628555
 21
97.9712984419
  0
LINE
  5
2AE
100
AcDbEntity
  8
0
100
AcDbLine
 62
7
  6
CONTINUOUS
 10
97.5861997286
 20
97.9712984419
 11
97.5218076733
 21
97.9712984419
  0
LINE
  5
2AF
100
AcDbEntity
  8
0
100
AcDbLine
 62
7
  6
CONTINUOUS
 10
99.8455805917
 20
98.0564048147
 11
99.5611523912
 21
98.0564048147
  0
LINE
  5
2B0
100
AcDbEntity
  8
0
100
AcDbLine
 62
7
  6
CONTINUOUS
 10
99.8455805917
 20
98.2266177988
 11
99.5611523912
 21
98.2266177988
  0
LINE
  5
2B1
100
AcDbEntity
  8
0
100
AcDbLine
 62
7
  6
CONTINUOUS
 10
98.7574488571
 20
98.2266177988
 11
98.3506777604
 21
98.2266177988
  0
LINE
  5
2B2
100
AcDbEntity
  8
0
100
AcDbLine
 62
7
  6
CONTINUOUS
 10
98.3392517925
 20
98.2266177988
 11
97.9756714184
 21
98.2266177988
  0
LINE
  5
2B3
100
AcDbEntity
  8
0
100
AcDbLine
 62
7
  6
CONTINUOUS
 10
97.8941328513
 20
98.2266177988
 11
97.6421074569
 21
98.2266177988
  0
LINE
  5
2B4
100
AcDbEntity
  8
0
100
AcDbLine
 62
7
  6
CONTINUOUS
 10
97.5928141893
 20
98.2266177988
 11
97.5256361798
 21
98.2266177988
  0
LINE
  5
2B5
100
AcDbEntity
  8
0
100
AcDbLine
 62
7
  6
CONTINUOUS
 10
98.8183357945
 20
98.4819369173
 11
98.5519292438
 21
98.4819369173
  0
LINE
  5
2B6
100
AcDbEntity
  8
0
100
AcDbLine
 62
7
  6
CONTINUOUS
 10
98.3170584393
 20
98.4819369173
 11
98.0586481047
 21
98.4819369173
  0
LINE
  5
2B7
100
AcDbEntity
  8
0
100
AcDbLine
 62
7
  6
CONTINUOUS
 10
97.9163876484
 20
98.4819369173
 11
97.6640340885
 21
98.4819369173
  0
LINE
  5
2B8
100
AcDbEntity
  8
0
100
AcDbLine
 62
7
  6
CONTINUOUS
 10
101.0077685281
 20
98.5670432901
 11
100.4124760551
 21
98.5670432901
  0
LINE
  5
2B9
100
AcDbEntity
  8
0
100
AcDbLine
 62
7
  6
CONTINUOUS
 10
99.8002386127
 20
98.5670432901
 11
99.5166566826
 21
98.5670432901
  0
LINE
  5
2BA
100
AcDbEntity
  8
0
100
AcDbLine
 62
7
  6
CONTINUOUS
 10
97.6031957655
 20
98.5670432901
 11
97.5345055136
 21
98.5670432901
  0
LINE
  5
2BB
100
AcDbEntity
  8
0
100
AcDbLine
 62
7
  6
CONTINUOUS
 10
98.9133925308
 20
98.6521496629
 11
98.6454139848
 21
98.6521496629
  0
LINE
  5
2BC
100
AcDbEntity
  8
0
100
AcDbLine
 62
7
  6
CONTINUOUS
 10
97.8817818052
 20
98.6521496629
 11
97.7000304908
 21
98.6521496629
  0
LINE
  5
2BD
100
AcDbEntity
  8
0
100
AcDbLine
 62
7
  6
CONTINUOUS
 10
98.9528935798
 20
98.7372560358
 11
98.811148218
 21
98.7372560358
  0
LINE
  5
2BE
100
AcDbEntity
  8
0
100
AcDbLine
 62
7
  6
CONTINUOUS
 10
97.8306208822
 20
98.7372560358
 11
97.7397757039
 21
98.7372560358
  0
LINE
  5
2BF
100
AcDbEntity
  8
0
100
AcDbLine
 62
7
  6
CONTINUOUS
 10
98.2531811178
 20
98.8223624086
 11
97.9957556479
 21
98.8223624086
  0
LINE
  5
2C0
100
AcDbEntity
  8
0
100
AcDbLine
 62
7
  6
CONTINUOUS
 10
97.6317628555
 20
98.8223624086
 11
97.5508450788
 21
98.8223624086
  0
LINE
  5
2C1
100
AcDbEntity
  8
0
100
AcDbLine
 62
7
  6
CONTINUOUS
 10
99.6248148615
 20
98.9074687814
 11
99.3444606055
 21
98.9074687814
  0
LINE
  5
2C2
100
AcDbEntity
  8
0
100
AcDbLine
 62
7
  6
CONTINUOUS
 10
99.4586637518
 20
99.0776815271
 11
99.1813001285
 21
99.0776815271
  0
LINE
  5
2C3
100
AcDbEntity
  8
0
100
AcDbLine
 62
7
  6
CONTINUOUS
 10
98.1556293418
 20
99.0776815271
 11
97.899693638
 21
99.0776815271
  0
LINE
  5
2C4
100
AcDbEntity
  8
0
100
AcDbLine
 62
7
  6
CONTINUOUS
 10
97.6876164242
 20
99.0776815271
 11
97.5861997286
 21
99.0776815271
  0
LINE
  5
2C5
100
AcDbEntity
  8
0
100
AcDbLine
 62
7
  6
CONTINUOUS
 10
99.1893288765
 20
99.1627878999
 11
98.8458110141
 21
99.1627878999
  0
LINE
  5
2C6
100
AcDbEntity
  8
0
100
AcDbLine
 62
7
  6
CONTINUOUS
 10
98.069049017
 20
99.1627878999
 11
97.6421074569
 21
99.1627878999
  0
LINE
  5
2C7
100
AcDbEntity
  8
0
100
AcDbLine
 62
7
  6
CONTINUOUS
 10
101.2003718371
 20
90.4021496629
 11
101.3253718371
 21
90.2319369173
  0
LINE
  5
2C8
100
AcDbEntity
  8
KONSTRUKTIONSELEMENTE
100
AcDbLine
 62
7
  6
CONTINUOUS
 10
94.1617455235
 20
164.4223622596
 11
94.0679956129
 21
164.1351282513
  0
LINE
  5
2C9
100
AcDbEntity
  8
KONSTRUKTIONSELEMENTE
100
AcDbLine
 62
7
  6
CONTINUOUS
 10
94.6304956129
 20
164.0393835818
 11
94.7242455235
 21
164.3266175902
  0
LINE
  5
2CA
100
AcDbEntity
  8
KONSTRUKTIONSELEMENTE
100
AcDbLine
 62
7
  6
CONTINUOUS
 10
94.3492456129
 20
155.9330006531
 11
94.5367457023
 21
156.3159793979
  0
LINE
  5
2CB
100
AcDbEntity
  8
KONSTRUKTIONSELEMENTE
100
AcDbLine
 62
7
  6
CONTINUOUS
 10
112.9716329686
 20
193.3673788905
 11
113.1278296005
 21
193.6474689721
  0
LINE
  5
2CC
100
AcDbEntity
  8
KONSTRUKTIONSELEMENTE
100
AcDbLine
 62
7
  6
CONTINUOUS
 10
115.5019802029
 20
196.1653706149
 11
115.6492465354
 21
196.4108051646
  0
LINE
  5
2CD
100
AcDbEntity
  8
KONSTRUKTIONSELEMENTE
100
AcDbLine
 62
7
  6
CONTINUOUS
 10
116.8341406952
 20
193.9369513878
 11
116.6868743584
 21
193.6915167786
  0
LINE
  5
2CE
100
AcDbEntity
  8
KONSTRUKTIONSELEMENTE
100
AcDbLine
 62
7
  6
CONTINUOUS
 10
93.9742457023
 20
156.4117240673
 11
93.7867456129
 21
156.124490059
  0
LINE
  5
2CF
100
AcDbEntity
  8
KONSTRUKTIONSELEMENTE
100
AcDbLine
 62
7
  6
CONTINUOUS
 10
116.8561449542
 20
193.3381091175
 11
117.0740081559
 21
193.6638162481
  0
LINE
  5
2D0
100
AcDbEntity
  8
KONSTRUKTIONSELEMENTE
100
AcDbLine
 62
7
  6
CONTINUOUS
 10
120.2328547011
 20
195.2563863268
 11
120.0275981866
 21
194.9555592719
  0
LINE
  5
2D1
100
AcDbEntity
  8
KONSTRUKTIONSELEMENTE
100
AcDbLine
 62
7
  6
CONTINUOUS
 10
119.8388853189
 20
193.3379051066
 11
119.7362563418
 21
193.1874917519
  0
LINE
  5
2D2
100
AcDbEntity
  8
KONSTRUKTIONSELEMENTE
100
AcDbLine
 62
7
  6
CONTINUOUS
 10
93.9742457023
 20
155.5500219418
 11
94.3492456129
 21
155.9330006531
  0
LINE
  5
2D3
100
AcDbEntity
  8
KONSTRUKTIONSELEMENTE
100
AcDbLine
 62
7
  6
CONTINUOUS
 10
93.7867456129
 20
156.124490059
 11
93.5054956129
 21
155.9330006531
  0
LINE
  5
2D4
100
AcDbEntity
  8
KONSTRUKTIONSELEMENTE
100
AcDbLine
 62
7
  6
CONTINUOUS
 10
93.5992455235
 20
155.3585325778
 11
93.9742457023
 21
155.5500219418
  0
LINE
  5
2D5
100
AcDbEntity
  8
0
100
AcDbLine
 62
7
  6
CONTINUOUS
 10
98.3618993022
 20
101.1627878999
 11
97.5127435124
 21
101.1627878999
  0
LINE
  5
2D6
100
AcDbEntity
  8
0
100
AcDbLine
 62
7
  6
CONTINUOUS
 10
98.4820084094
 20
101.2478942802
 11
98.2210199405
 21
101.2478942802
  0
LINE
  5
2D7
100
AcDbEntity
  8
0
100
AcDbLine
 62
7
  6
CONTINUOUS
 10
97.6876164242
 20
101.2478942802
 11
97.5298687009
 21
101.2478942802
  0
LINE
  5
2D8
100
AcDbEntity
  8
0
100
AcDbLine
 62
7
  6
CONTINUOUS
 10
98.5864665759
 20
101.4181070482
 11
98.3238188878
 21
101.4181070482
  0
LINE
  5
2D9
100
AcDbEntity
  8
0
100
AcDbLine
 62
7
  6
CONTINUOUS
 10
97.6876164242
 20
101.4181070482
 11
97.5508450788
 21
101.4181070482
  0
LINE
  5
2DA
100
AcDbEntity
  8
0
100
AcDbLine
 62
7
  6
CONTINUOUS
 10
98.1027931295
 20
101.6734261965
 11
97.7683681336
 21
101.6734261965
  0
LINE
  5
2DB
100
AcDbEntity
  8
0
100
AcDbLine
 62
7
  6
CONTINUOUS
 10
97.5127435124
 20
101.6734261965
 11
97.5073074719
 21
101.6734261965
  0
LINE
  5
2DC
100
AcDbEntity
  8
0
100
AcDbLine
 62
7
  6
CONTINUOUS
 10
98.6985222855
 20
101.7585325694
 11
98.4340712744
 21
101.7585325694
  0
LINE
  5
2DD
100
AcDbEntity
  8
0
100
AcDbLine
 62
7
  6
CONTINUOUS
 10
97.6876164242
 20
101.7585325694
 11
97.5783143816
 21
101.7585325694
  0
LINE
  5
2DE
100
AcDbEntity
  8
0
100
AcDbLine
 62
7
  6
CONTINUOUS
 10
97.5256362029
 20
101.7585325694
 11
97.5063007832
 21
101.7585325694
  0
LINE
  5
2DF
100
AcDbEntity
  8
0
100
AcDbLine
 62
7
  6
CONTINUOUS
 10
97.5395469448
 20
101.9287453746
 11
97.5105285494
 21
101.9287453746
  0
LINE
  5
2E0
100
AcDbEntity
  8
0
100
AcDbLine
 62
7
  6
CONTINUOUS
 10
98.7574488571
 20
102.0989581203
 11
98.4920396456
 21
102.0989581203
  0
LINE
  5
2E1
100
AcDbEntity
  8
0
100
AcDbLine
 62
7
  6
CONTINUOUS
 10
97.6876164242
 20
102.0989581203
 11
97.5944933112
 21
102.0989581203
  0
LINE
  5
2E2
100
AcDbEntity
  8
0
100
AcDbLine
 62
7
  6
CONTINUOUS
 10
97.5508450788
 20
102.1840644931
 11
97.5153615636
 21
102.1840644931
  0
LINE
  5
2E3
100
AcDbEntity
  8
0
100
AcDbLine
 62
7
  6
CONTINUOUS
 10
98.7876458538
 20
102.5244899845
 11
98.5217429374
 21
102.5244899845
  0
LINE
  5
2E4
100
AcDbEntity
  8
0
100
AcDbLine
 62
7
  6
CONTINUOUS
 10
97.5571026125
 20
102.5244899845
 11
97.5183828684
 21
102.5244899845
  0
LINE
  5
2E5
100
AcDbEntity
  8
0
100
AcDbLine
 62
7
  6
CONTINUOUS
 10
97.6876164242
 20
102.5244899845
 11
97.6031958165
 21
102.5244899845
  0
LINE
  5
2E6
100
AcDbEntity
  8
0
100
AcDbLine
 62
7
  6
CONTINUOUS
 10
98.7876458538
 20
103.8010856962
 11
98.5217429374
 21
103.8010856962
  0
LINE
  5
2E7
100
AcDbEntity
  8
0
100
AcDbLine
 62
7
  6
CONTINUOUS
 10
98.7574488571
 20
104.2266177988
 11
98.4920396456
 21
104.2266177988
  0
LINE
  5
2E8
100
AcDbEntity
  8
0
100
AcDbLine
 62
7
  6
CONTINUOUS
 10
98.6985222855
 20
104.5670432901
 11
98.4340712744
 21
104.5670432901
  0
LINE
  5
2E9
100
AcDbEntity
  8
0
100
AcDbLine
 62
7
  6
CONTINUOUS
 10
98.1027931295
 20
104.6521496629
 11
97.7683681336
 21
104.6521496629
  0
LINE
  5
2EA
100
AcDbEntity
  8
0
100
AcDbLine
 62
7
  6
CONTINUOUS
 10
98.5864665759
 20
104.9074687814
 11
98.3238188878
 21
104.9074687814
  0
LINE
  5
2EB
100
AcDbEntity
  8
0
100
AcDbLine
 62
7
  6
CONTINUOUS
 10
98.4820084094
 20
105.0776815271
 11
98.2210199405
 21
105.0776815271
  0
LINE
  5
2EC
100
AcDbEntity
  8
0
100
AcDbLine
 62
7
  6
CONTINUOUS
 10
98.3618993022
 20
105.1627878999
 11
97.6031958165
 21
105.1627878999
  0
LINE
  5
2ED
100
AcDbEntity
  8
0
100
AcDbLine
 62
7
  6
CONTINUOUS
 10
97.5903079058
 20
105.1627878999
 11
97.5183828684
 21
105.1627878999
  0
LINE
  5
2EE
100
AcDbEntity
  8
0
100
AcDbLine
 62
7
  6
CONTINUOUS
 10
101.6170383448
 20
90.3170432901
 11
101.4503718371
 21
90.6574687814
  0
LINE
  5
2EF
100
AcDbEntity
  8
KONSTRUKTIONSELEMENTE
100
AcDbLine
 62
7
  6
CONTINUOUS
 10
91.2554956129
 20
165.7627878999
 11
91.2554956129
 21
161.2627878999
  0
LINE
  5
2F0
100
AcDbEntity
  8
KONSTRUKTIONSELEMENTE
100
AcDbLine
 62
7
  6
CONTINUOUS
 10
91.2554956129
 20
159.7627878999
 11
91.2554956129
 21
156.794702745
  0
LINE
  5
2F1
100
AcDbEntity
  8
KONSTRUKTIONSELEMENTE
100
AcDbLine
 62
7
  6
CONTINUOUS
 10
91.2554956129
 20
153.7627878999
 11
91.2554956129
 21
149.2627878999
  0
LINE
  5
2F2
100
AcDbEntity
  8
KONSTRUKTIONSELEMENTE
100
AcDbLine
 62
7
  6
CONTINUOUS
 10
94.5367457023
 20
156.3159793979
 11
94.6304956129
 21
156.794702745
  0
LINE
  5
2F3
100
AcDbEntity
  8
KONSTRUKTIONSELEMENTE
100
AcDbLine
 62
7
  6
CONTINUOUS
 10
94.0679956129
 20
156.794702745
 11
93.9742457023
 21
156.4117240673
  0
LINE
  5
2F4
100
AcDbEntity
  8
KONSTRUKTIONSELEMENTE
100
AcDbLine
 62
7
  6
CONTINUOUS
 10
94.4429955235
 20
150.794702745
 11
94.3492456129
 21
150.4117240673
  0
LINE
  5
2F5
100
AcDbEntity
  8
KONSTRUKTIONSELEMENTE
100
AcDbLine
 62
7
  6
CONTINUOUS
 10
106.3772388215
 20
193.0653946538
 11
106.4866715192
 21
193.4120406777
  0
LINE
  5
2F6
100
AcDbEntity
  8
KONSTRUKTIONSELEMENTE
100
AcDbLine
 62
7
  6
CONTINUOUS
 10
111.151276583
 20
195.6015043624
 11
111.3355827725
 21
196.143476519
  0
LINE
  5
2F7
100
AcDbEntity
  8
KONSTRUKTIONSELEMENTE
100
AcDbLine
 62
7
  6
CONTINUOUS
 10
94.7242455235
 20
149.9330006531
 11
94.9117456129
 21
150.3159793979
  0
LINE
  5
2F8
100
AcDbEntity
  8
KONSTRUKTIONSELEMENTE
100
AcDbLine
 62
7
  6
CONTINUOUS
 10
94.3492456129
 20
150.4117240673
 11
94.1617455235
 21
150.124490059
  0
LINE
  5
2F9
100
AcDbEntity
  8
KONSTRUKTIONSELEMENTE
100
AcDbLine
 62
7
  6
CONTINUOUS
 10
125.8726488785
 20
194.017558728
 11
123.6040844806
 21
190.7230761323
  0
LINE
  5
2FA
100
AcDbEntity
  8
KONSTRUKTIONSELEMENTE
100
AcDbLine
 62
7
  6
CONTINUOUS
 10
124.2133550225
 20
190.9235275559
 11
124.9373649519
 21
191.9749581935
  0
LINE
  5
2FB
100
AcDbEntity
  8
KONSTRUKTIONSELEMENTE
100
AcDbLine
 62
7
  6
CONTINUOUS
 10
125.226968883
 20
192.3955303896
 11
125.9027115243
 21
193.3768657102
  0
LINE
  5
2FC
100
AcDbEntity
  8
KONSTRUKTIONSELEMENTE
100
AcDbLine
 62
7
  6
CONTINUOUS
 10
126.9450507156
 20
192.0391237876
 11
126.8485160719
 21
191.8989330556
  0
LINE
  5
2FD
100
AcDbEntity
  8
KONSTRUKTIONSELEMENTE
100
AcDbLine
 62
7
  6
CONTINUOUS
 10
125.9797042108
 20
190.6372163691
 11
125.8349022452
 21
190.426930271
  0
LINE
  5
2FE
100
AcDbEntity
  8
KONSTRUKTIONSELEMENTE
100
AcDbLine
 62
7
  6
CONTINUOUS
 10
94.3492456129
 20
149.5500219418
 11
94.7242455235
 21
149.9330006531
  0
LINE
  5
2FF
100
AcDbEntity
  8
KONSTRUKTIONSELEMENTE
100
AcDbLine
 62
7
  6
CONTINUOUS
 10
94.1617455235
 20
150.124490059
 11
93.8804955235
 21
149.9330006531
  0
LINE
  5
300
100
AcDbEntity
  8
KONSTRUKTIONSELEMENTE
100
AcDbLine
 62
7
  6
CONTINUOUS
 10
93.9742457023
 20
149.3585325778
 11
94.3492456129
 21
149.5500219418
  0
LINE
  5
301
100
AcDbEntity
  8
0
100
AcDbLine
 62
7
  6
CONTINUOUS
 10
101.3253718371
 20
90.2319369173
 11
101.4087048525
 21
89.9766177988
  0
LINE
  5
302
100
AcDbEntity
  8
0
100
AcDbLine
 62
7
  6
CONTINUOUS
 10
97.2420383448
 20
90.0617241716
 11
97.8253716583
 21
86.9127878999
  0
LINE
  5
303
100
AcDbEntity
  8
0
100
AcDbLine
 62
7
  6
CONTINUOUS
 10
98.1795555349
 20
87.3383198237
 11
98.2085446685
 21
87.1818313597
  0
LINE
  5
304
100
AcDbEntity
  8
0
100
AcDbLine
 62
7
  6
CONTINUOUS
 10
97.9920383448
 20
87.3383198237
 11
97.3670383448
 21
90.9127878999
  0
LINE
  5
305
100
AcDbEntity
  8
KONSTRUKTIONSELEMENTE
100
AcDbLine
 62
7
  6
CONTINUOUS
 10
91.8179956129
 20
149.8372559836
 11
91.8179956129
 21
153.1883198833
  0
LINE
  5
306
100
AcDbEntity
  8
KONSTRUKTIONSELEMENTE
100
AcDbLine
 62
7
  6
CONTINUOUS
 10
91.8179956129
 20
156.794702745
 11
91.8179956129
 21
159.7627878999
  0
LINE
  5
307
100
AcDbEntity
  8
KONSTRUKTIONSELEMENTE
100
AcDbLine
 62
7
  6
CONTINUOUS
 10
91.8179956129
 20
161.2627878999
 11
91.8179956129
 21
163.2734262263
  0
LINE
  5
308
100
AcDbEntity
  8
KONSTRUKTIONSELEMENTE
100
AcDbLine
 62
7
  6
CONTINUOUS
 10
91.8179956129
 20
163.847894243
 11
91.8179956129
 21
165.2840645528
  0
LINE
  5
309
100
AcDbEntity
  8
KONSTRUKTIONSELEMENTE
100
AcDbLine
 62
7
  6
CONTINUOUS
 10
94.0679956129
 20
159.7627878999
 11
94.0679956129
 21
156.794702745
  0
LINE
  5
30A
100
AcDbEntity
  8
KONSTRUKTIONSELEMENTE
100
AcDbLine
 62
7
  6
CONTINUOUS
 10
94.1617455235
 20
164.7095965361
 11
94.1617455235
 21
164.4223622596
  0
LINE
  5
30B
100
AcDbEntity
  8
KONSTRUKTIONSELEMENTE
100
AcDbLine
 62
7
  6
CONTINUOUS
 10
94.4429955235
 20
152.2308729207
 11
94.4429955235
 21
150.794702745
  0
LINE
  5
30C
100
AcDbEntity
  8
KONSTRUKTIONSELEMENTE
100
AcDbLine
 62
7
  6
CONTINUOUS
 10
94.6304956129
 20
156.794702745
 11
94.6304956129
 21
159.7627878999
  0
LINE
  5
30D
100
AcDbEntity
  8
KONSTRUKTIONSELEMENTE
100
AcDbLine
 62
7
  6
CONTINUOUS
 10
94.7242455235
 20
164.3266175902
 11
94.7242455235
 21
164.7095965361
  0
LINE
  5
30E
100
AcDbEntity
  8
KONSTRUKTIONSELEMENTE
100
AcDbLine
 62
7
  6
CONTINUOUS
 10
94.7554956129
 20
84.7627878999
 11
94.7554956129
 21
93.2627878999
  0
LINE
  5
30F
100
AcDbEntity
  8
KONSTRUKTIONSELEMENTE
100
AcDbLine
 62
7
  6
CONTINUOUS
 10
95.0054955235
 20
150.794702745
 11
95.0054955235
 21
152.2308729207
  0
LINE
  5
310
100
AcDbEntity
  8
KONSTRUKTIONSELEMENTE
100
AcDbLine
 62
7
  6
CONTINUOUS
 10
103.603992407
 20
191.4222694995
 11
103.653966843
 21
191.7823270522
  0
LINE
  5
311
100
AcDbEntity
  8
KONSTRUKTIONSELEMENTE
100
AcDbLine
 62
7
  6
CONTINUOUS
 10
94.9117456129
 20
150.3159793979
 11
95.0054955235
 21
150.794702745
  0
LINE
  5
312
100
AcDbEntity
  8
KONSTRUKTIONSELEMENTE
100
AcDbLine
 62
7
  6
CONTINUOUS
 10
115.4192351684
 20
195.9153191428
 11
115.5019802029
 21
196.1653706149
  0
LINE
  5
313
100
AcDbEntity
  8
KONSTRUKTIONSELEMENTE
100
AcDbLine
 62
7
  6
CONTINUOUS
 10
115.3220499566
 20
194.5570895593
 11
115.4047949826
 21
194.8071409125
  0
LINE
  5
314
100
AcDbEntity
  8
KONSTRUKTIONSELEMENTE
100
AcDbLine
 62
7
  6
CONTINUOUS
 10
112.9158975433
 20
194.2190757814
 11
112.7315913287
 21
193.6771038018
  0
LINE
  5
315
100
AcDbEntity
  8
KONSTRUKTIONSELEMENTE
100
AcDbLine
 62
7
  6
CONTINUOUS
 10
115.262112738
 20
196.4385056952
 11
115.102698238
 21
196.0232922246
  0
LINE
  5
316
100
AcDbEntity
  8
KONSTRUKTIONSELEMENTE
100
AcDbLine
 62
7
  6
CONTINUOUS
 10
117.0740081559
 20
193.6638162481
 11
117.2334226431
 21
194.0790295403
  0
LINE
  5
317
100
AcDbEntity
  8
KONSTRUKTIONSELEMENTE
100
AcDbLine
 62
7
  6
CONTINUOUS
 10
118.5908216564
 20
196.1756674307
 11
118.4484648128
 21
195.8597425194
  0
LINE
  5
318
100
AcDbEntity
  8
KONSTRUKTIONSELEMENTE
100
AcDbLine
 62
7
  6
CONTINUOUS
 10
120.4050019708
 20
194.8649707507
 11
120.5473588144
 21
195.1808956621
  0
LINE
  5
319
100
AcDbEntity
  8
KONSTRUKTIONSELEMENTE
100
AcDbLine
 62
7
  6
CONTINUOUS
 10
123.1976447121
 20
193.0282788701
 11
123.0007835322
 21
192.6510214717
  0
LINE
  5
31A
100
AcDbEntity
  8
KONSTRUKTIONSELEMENTE
100
AcDbLine
 62
7
  6
CONTINUOUS
 10
123.8036662521
 20
192.2320596693
 11
124.0005274321
 21
192.6093170678
  0
LINE
  5
31B
100
AcDbEntity
  8
KONSTRUKTIONSELEMENTE
100
AcDbLine
 62
7
  6
CONTINUOUS
 10
120.0308965079
 20
193.0292452509
 11
120.1533879925
 21
193.2624147874
  0
LINE
  5
31C
100
AcDbEntity
  8
KONSTRUKTIONSELEMENTE
100
AcDbLine
 62
7
  6
CONTINUOUS
 10
126.1063015003
 20
190.1367140834
 11
126.3476381096
 21
190.4871909135
  0
LINE
  5
31D
100
AcDbEntity
  8
KONSTRUKTIONSELEMENTE
100
AcDbLine
 62
7
  6
CONTINUOUS
 10
127.119915327
 20
191.608716868
 11
127.3129847496
 21
191.8890985284
  0
LINE
  5
31E
100
AcDbEntity
  8
RUNDUNGEN
100
AcDbLine
 62
7
  6
CONTINUOUS
 10
130.2550827577
 20
110.6627878999
 11
125.2554145424
 21
110.6627878999
  0
LINE
  5
31F
100
AcDbEntity
  8
RUNDUNGEN
100
AcDbLine
 62
7
  6
CONTINUOUS
 10
104.2555999784
 20
110.6627878999
 11
99.2554956129
 21
110.6627878999
  0
LINE
  5
320
100
AcDbEntity
  8
KONSTRUKTIONSELEMENTE
100
AcDbLine
 62
7
  6
CONTINUOUS
 10
91.2554956129
 20
156.794702745
 11
91.3492456157
 21
156.3159793979
  0
LINE
  5
321
100
AcDbEntity
  8
0
100
AcDbLine
 62
7
  6
CONTINUOUS
 10
96.9920383448
 20
90.9127878999
 11
96.9920383448
 21
86.9127878999
  0
LINE
  5
322
100
AcDbEntity
  8
0
100
AcDbLine
 62
7
  6
CONTINUOUS
 10
97.2420383448
 20
86.9127878999
 11
97.2420383448
 21
90.0617241716
  0
LINE
  5
323
100
AcDbEntity
  8
0
100
AcDbLine
 62
7
  6
CONTINUOUS
 10
97.4250510467
 20
90.5810046185
 11
97.4250510467
 21
90.0617241716
  0
LINE
  5
324
100
AcDbEntity
  8
0
100
AcDbLine
 62
7
  6
CONTINUOUS
 10
97.5054956129
 20
101.6734261965
 11
97.5054956129
 21
101.1968305319
  0
LINE
  5
325
100
AcDbEntity
  8
0
100
AcDbLine
 62
7
  6
CONTINUOUS
 10
97.5183828684
 20
105.1627878999
 11
97.5183828684
 21
102.5244899845
  0
LINE
  5
326
100
AcDbEntity
  8
0
100
AcDbLine
 62
7
  6
CONTINUOUS
 10
97.5183828868
 20
97.5457665777
 11
97.5183828868
 21
96.7798092222
  0
LINE
  5
327
100
AcDbEntity
  8
0
100
AcDbLine
 62
7
  6
CONTINUOUS
 10
97.5571026125
 20
105.1627878999
 11
97.5571026125
 21
102.5244899845
  0
LINE
  5
328
100
AcDbEntity
  8
0
100
AcDbLine
 62
7
  6
CONTINUOUS
 10
97.5783143377
 20
97.4606602049
 11
97.5783143377
 21
96.864915595
  0
LINE
  5
329
100
AcDbEntity
  8
0
100
AcDbLine
 62
7
  6
CONTINUOUS
 10
97.6031958165
 20
105.1627878999
 11
97.6031958165
 21
102.5244899845
  0
LINE
  5
32A
100
AcDbEntity
  8
0
100
AcDbLine
 62
7
  6
CONTINUOUS
 10
97.6218299222
 20
97.4606602049
 11
97.6218299222
 21
97.2904474592
  0
LINE
  5
32B
100
AcDbEntity
  8
0
100
AcDbLine
 62
7
  6
CONTINUOUS
 10
97.6317628555
 20
96.6095963573
 11
97.6317628555
 21
96.3542772388
  0
LINE
  5
32C
100
AcDbEntity
  8
0
100
AcDbLine
 62
7
  6
CONTINUOUS
 10
97.6876164242
 20
105.1627878999
 11
97.6876164242
 21
101.1627878999
  0
LINE
  5
32D
100
AcDbEntity
  8
0
100
AcDbLine
 62
7
  6
CONTINUOUS
 10
97.7554956129
 20
109.1627878999
 11
97.7554956129
 21
105.1627878999
  0
LINE
  5
32E
100
AcDbEntity
  8
0
100
AcDbLine
 62
7
  6
CONTINUOUS
 10
97.7554956129
 20
101.1627878999
 11
97.7554956129
 21
99.1627878999
  0
LINE
  5
32F
100
AcDbEntity
  8
0
100
AcDbLine
 62
7
  6
CONTINUOUS
 10
97.7554956129
 20
94.6521496033
 11
97.7554956129
 21
93.2627878999
  0
LINE
  5
330
100
AcDbEntity
  8
0
100
AcDbLine
 62
7
  6
CONTINUOUS
 10
97.7683681336
 20
104.6521496629
 11
97.7683681336
 21
101.6734261965
  0
LINE
  5
331
100
AcDbEntity
  8
0
100
AcDbLine
 62
7
  6
CONTINUOUS
 10
97.8836337255
 20
96.6095963573
 11
97.8836337255
 21
96.3542772388
  0
LINE
  5
332
100
AcDbEntity
  8
0
100
AcDbLine
 62
7
  6
CONTINUOUS
 10
98.0162783616
 20
96.6095963573
 11
98.0162783616
 21
96.3542772388
  0
LINE
  5
333
100
AcDbEntity
  8
0
100
AcDbLine
 62
7
  6
CONTINUOUS
 10
98.0222950822
 20
104.6521496629
 11
98.0222950822
 21
101.6734261965
  0
LINE
  5
334
100
AcDbEntity
  8
0
100
AcDbLine
 62
7
  6
CONTINUOUS
 10
98.1255362105
 20
96.6947028494
 11
98.1255362105
 21
96.269170866
  0
LINE
  5
335
100
AcDbEntity
  8
0
100
AcDbLine
 62
7
  6
CONTINUOUS
 10
98.3506774504
 20
103.8010856962
 11
98.3506774504
 21
102.5244899845
  0
LINE
  5
336
100
AcDbEntity
  8
0
100
AcDbLine
 62
7
  6
CONTINUOUS
 10
98.3850023483
 20
96.6947028494
 11
98.3850023483
 21
96.269170866
  0
LINE
  5
337
100
AcDbEntity
  8
0
100
AcDbLine
 62
7
  6
CONTINUOUS
 10
98.5217429374
 20
103.8010856962
 11
98.5217429374
 21
102.5244899845
  0
LINE
  5
338
100
AcDbEntity
  8
0
100
AcDbLine
 62
7
  6
CONTINUOUS
 10
98.7420383448
 20
90.0617241716
 11
98.7420383448
 21
86.9127878999
  0
LINE
  5
339
100
AcDbEntity
  8
0
100
AcDbLine
 62
7
  6
CONTINUOUS
 10
98.7876458538
 20
103.8010856962
 11
98.7876458538
 21
102.5244899845
  0
LINE
  5
33A
100
AcDbEntity
  8
0
100
AcDbLine
 62
7
  6
CONTINUOUS
 10
98.811148218
 20
97.375553832
 11
98.811148218
 21
97.0351283407
  0
LINE
  5
33B
100
AcDbEntity
  8
0
100
AcDbLine
 62
7
  6
CONTINUOUS
 10
98.9920383448
 20
86.9127878999
 11
98.9920383448
 21
90.9127878999
  0
LINE
  5
33C
100
AcDbEntity
  8
0
100
AcDbLine
 62
7
  6
CONTINUOUS
 10
99.3253715987
 20
90.3170432901
 11
99.3253715987
 21
89.636192069
  0
LINE
  5
33D
100
AcDbEntity
  8
0
100
AcDbLine
 62
7
  6
CONTINUOUS
 10
99.3444606055
 20
98.2266177988
 11
99.3444606055
 21
98.0564048147
  0
LINE
  5
33E
100
AcDbEntity
  8
0
100
AcDbLine
 62
7
  6
CONTINUOUS
 10
99.3866511889
 20
96.4393836116
 11
99.3866511889
 21
96.0989581203
  0
LINE
  5
33F
100
AcDbEntity
  8
0
100
AcDbLine
 62
7
  6
CONTINUOUS
 10
99.5611523912
 20
98.2266177988
 11
99.5611523912
 21
98.0564048147
  0
LINE
  5
340
100
AcDbEntity
  8
0
100
AcDbLine
 62
7
  6
CONTINUOUS
 10
99.5753715987
 20
90.2319369173
 11
99.5753715987
 21
86.9127878999
  0
LINE
  5
341
100
AcDbEntity
  8
0
100
AcDbLine
 62
7
  6
CONTINUOUS
 10
99.6062382054
 20
96.4393836116
 11
99.6062382054
 21
96.0989581203
  0
LINE
  5
342
100
AcDbEntity
  8
0
100
AcDbLine
 62
7
  6
CONTINUOUS
 10
99.7583843006
 20
90.3170432901
 11
99.7583843006
 21
90.2319369173
  0
LINE
  5
343
100
AcDbEntity
  8
0
100
AcDbLine
 62
7
  6
CONTINUOUS
 10
99.8253715987
 20
86.9127878999
 11
99.8253715987
 21
90.9127878999
  0
LINE
  5
344
100
AcDbEntity
  8
0
100
AcDbLine
 62
7
  6
CONTINUOUS
 10
99.8455805917
 20
98.2266177988
 11
99.8455805917
 21
98.0564048147
  0
LINE
  5
345
100
AcDbEntity
  8
0
100
AcDbLine
 62
7
  6
CONTINUOUS
 10
99.8915291167
 20
96.4393836116
 11
99.8915291167
 21
96.0989581203
  0
LINE
  5
346
100
AcDbEntity
  8
0
100
AcDbLine
 62
7
  6
CONTINUOUS
 10
99.9887909401
 20
97.886192069
 11
99.9887909401
 21
97.5457665777
  0
LINE
  5
347
100
AcDbEntity
  8
0
100
AcDbLine
 62
7
  6
CONTINUOUS
 10
100.1587050909
 20
87.3383198237
 11
100.1587050909
 21
86.9127878999
  0
LINE
  5
348
100
AcDbEntity
  8
0
100
AcDbLine
 62
7
  6
CONTINUOUS
 10
100.4124760551
 20
98.5670432901
 11
100.4124760551
 21
97.886192069
  0
LINE
  5
349
100
AcDbEntity
  8
0
100
AcDbLine
 62
7
  6
CONTINUOUS
 10
100.4124760551
 20
97.5457665777
 11
100.4124760551
 21
95.8436389422
  0
LINE
  5
34A
100
AcDbEntity
  8
0
100
AcDbLine
 62
7
  6
CONTINUOUS
 10
100.5917177928
 20
87.3383198237
 11
100.5917177928
 21
86.9127878999
  0
LINE
  5
34B
100
AcDbEntity
  8
0
100
AcDbLine
 62
7
  6
CONTINUOUS
 10
100.699802816
 20
98.5670432901
 11
100.699802816
 21
97.886192069
  0
LINE
  5
34C
100
AcDbEntity
  8
0
100
AcDbLine
 62
7
  6
CONTINUOUS
 10
100.699802816
 20
97.5457665777
 11
100.699802816
 21
96.0138517475
  0
LINE
  5
34D
100
AcDbEntity
  8
0
100
AcDbLine
 62
7
  6
CONTINUOUS
 10
101.0077685281
 20
98.5670432901
 11
101.0077685281
 21
97.886192069
  0
LINE
  5
34E
100
AcDbEntity
  8
0
100
AcDbLine
 62
7
  6
CONTINUOUS
 10
101.0077685281
 20
97.5457665777
 11
101.0077685281
 21
96.0138517475
  0
LINE
  5
34F
100
AcDbEntity
  8
KONSTRUKTIONSELEMENTE
100
AcDbLine
 62
7
  6
CONTINUOUS
 10
106.1162370958
 20
193.6975501864
 11
106.0814078059
 21
193.4866069862
  0
LINE
  5
350
100
AcDbEntity
  8
KONSTRUKTIONSELEMENTE
100
AcDbLine
 62
7
  6
CONTINUOUS
 10
110.9393445006
 20
196.1731113487
 11
110.8591696126
 21
195.8178661643
  0
LINE
  5
351
100
AcDbEntity
  8
KONSTRUKTIONSELEMENTE
100
AcDbLine
 62
7
  6
CONTINUOUS
 10
113.1278296005
 20
193.6474689721
 11
113.2080044801
 21
194.0027142155
  0
LINE
  5
352
100
AcDbEntity
  8
KONSTRUKTIONSELEMENTE
100
AcDbLine
 62
7
  6
CONTINUOUS
 10
116.9168857127
 20
194.1870026221
 11
116.8341406952
 21
193.9369513878
  0
LINE
  5
353
100
AcDbEntity
  8
KONSTRUKTIONSELEMENTE
100
AcDbLine
 62
7
  6
CONTINUOUS
 10
121.4260847437
 20
194.7007396375
 11
121.3006572468
 21
194.3842630061
  0
LINE
  5
354
100
AcDbEntity
  8
KONSTRUKTIONSELEMENTE
100
AcDbLine
 62
7
  6
CONTINUOUS
 10
122.158031566
 20
195.1430245957
 11
121.9071764843
 21
194.5100711115
  0
LINE
  5
355
100
AcDbEntity
  8
KONSTRUKTIONSELEMENTE
100
AcDbLine
 62
7
  6
CONTINUOUS
 10
121.7817489874
 20
194.1935944801
 11
121.1546114369
 21
192.6112111573
  0
LINE
  5
356
100
AcDbEntity
  8
KONSTRUKTIONSELEMENTE
100
AcDbLine
 62
7
  6
CONTINUOUS
 10
121.5180073732
 20
192.6502817678
 11
122.0824311532
 21
194.0744267196
  0
LINE
  5
357
100
AcDbEntity
  8
KONSTRUKTIONSELEMENTE
100
AcDbLine
 62
7
  6
CONTINUOUS
 10
122.2078586501
 20
194.3909033509
 11
122.4587137318
 21
195.0238568352
  0
LINE
  5
358
100
AcDbEntity
  8
KONSTRUKTIONSELEMENTE
100
AcDbLine
 62
7
  6
CONTINUOUS
 10
121.7456673113
 20
191.6445877824
 11
121.8710948192
 21
191.9610644414
  0
LINE
  5
359
100
AcDbEntity
  8
KONSTRUKTIONSELEMENTE
100
AcDbLine
 62
7
  6
CONTINUOUS
 10
122.743933845
 20
193.8122568826
 11
122.8693613419
 21
194.1287335139
  0
LINE
  5
35A
100
AcDbEntity
  8
0
100
AcDbLine
 62
7
  6
CONTINUOUS
 10
121.2554956129
 20
117.1227878999
 11
121.7554956129
 21
117.1227878999
  0
LINE
  5
35B
100
AcDbEntity
  8
0
100
AcDbLine
 62
7
  6
CONTINUOUS
 10
121.2554956129
 20
117.3727878999
 11
121.7554956129
 21
117.3727878999
  0
LINE
  5
35C
100
AcDbEntity
  8
0
100
AcDbLine
 62
7
  6
CONTINUOUS
 10
121.2554956129
 20
117.9561212134
 11
121.7554956129
 21
117.9561212134
  0
LINE
  5
35D
100
AcDbEntity
  8
0
100
AcDbLine
 62
7
  6
CONTINUOUS
 10
121.2554956129
 20
118.5394545269
 11
121.7554956129
 21
118.5394545269
  0
LINE
  5
35E
100
AcDbEntity
  8
0
100
AcDbLine
 62
7
  6
CONTINUOUS
 10
121.2554956129
 20
118.7894545269
 11
121.7554956129
 21
118.7894545269
  0
LINE
  5
35F
100
AcDbEntity
  8
0
100
AcDbLine
 62
7
  6
CONTINUOUS
 10
121.2554956129
 20
119.1227878999
 11
121.7554956129
 21
119.1227878999
  0
LINE
  5
360
100
AcDbEntity
  8
0
100
AcDbLine
 62
7
  6
CONTINUOUS
 10
121.2554956129
 20
119.3727878999
 11
121.7554956129
 21
119.3727878999
  0
LINE
  5
361
100
AcDbEntity
  8
KONSTRUKTIONSELEMENTE
100
AcDbLine
 62
7
  6
CONTINUOUS
 10
91.9117455906
 20
156.4117240673
 11
91.8179956129
 21
156.794702745
  0
LINE
  5
362
100
AcDbEntity
  8
KONSTRUKTIONSELEMENTE
100
AcDbLine
 62
7
  6
CONTINUOUS
 10
94.3492456129
 20
152.6138515985
 11
94.4429955235
 21
152.2308729207
  0
LINE
  5
363
100
AcDbEntity
  8
KONSTRUKTIONSELEMENTE
100
AcDbLine
 62
7
  6
CONTINUOUS
 10
95.0054955235
 20
152.2308729207
 11
94.9117456129
 21
152.7095965361
  0
LINE
  5
364
100
AcDbEntity
  8
0
100
AcDbLine
 62
7
  6
CONTINUOUS
 10
101.6587048525
 20
89.9766177988
 11
101.6170383448
 21
90.3170432901
  0
LINE
  5
365
100
AcDbEntity
  8
KONSTRUKTIONSELEMENTE
100
AcDbLine
 62
7
  6
CONTINUOUS
 10
103.2410351952
 20
192.0019284998
 11
103.2419410613
 21
191.7881310713
  0
LINE
  5
366
100
AcDbEntity
  8
0
100
AcDbLine
 62
7
  6
CONTINUOUS
 10
101.2647580497
 20
95.5032134211
 11
101.2647580497
 21
95.1627878999
  0
LINE
  5
367
100
AcDbEntity
  8
0
100
AcDbLine
 62
7
  6
CONTINUOUS
 10
101.3992647535
 20
97.886192069
 11
101.3992647535
 21
97.5457665777
  0
LINE
  5
368
100
AcDbEntity
  8
0
100
AcDbLine
 62
7
  6
CONTINUOUS
 10
101.4087048525
 20
89.9766177988
 11
101.4087048525
 21
89.8064048147
  0
LINE
  5
369
100
AcDbEntity
  8
0
100
AcDbLine
 62
7
  6
CONTINUOUS
 10
101.5859284219
 20
95.5032134211
 11
101.5859284219
 21
95.1627878999
  0
LINE
  5
36A
100
AcDbEntity
  8
0
100
AcDbLine
 62
7
  6
CONTINUOUS
 10
101.6587048525
 20
86.9127878999
 11
101.6587048525
 21
87.3383198237
  0
LINE
  5
36B
100
AcDbEntity
  8
0
100
AcDbLine
 62
7
  6
CONTINUOUS
 10
101.6587048525
 20
89.8064048147
 11
101.6587048525
 21
89.9766177988
  0
LINE
  5
36C
100
AcDbEntity
  8
0
100
AcDbLine
 62
7
  6
CONTINUOUS
 10
101.7237496528
 20
97.886192069
 11
101.7237496528
 21
97.5457665777
  0
LINE
  5
36D
100
AcDbEntity
  8
KONSTRUKTIONSELEMENTE
100
AcDbLine
 62
7
  6
CONTINUOUS
 10
103.5785810767
 20
84.7627878999
 11
103.5785810767
 21
93.2627878999
  0
LINE
  5
36E
100
AcDbEntity
  8
KONSTRUKTIONSELEMENTE
100
AcDbLine
 62
7
  6
CONTINUOUS
 10
106.4866715192
 20
193.4120406777
 11
106.4991418272
 21
193.8036961139
  0
LINE
  5
36F
100
AcDbEntity
  8
KONSTRUKTIONSELEMENTE
100
AcDbLine
 62
7
  6
CONTINUOUS
 10
110.8591696126
 20
195.8178661643
 11
110.8310593263
 21
195.5559839555
  0
LINE
  5
370
100
AcDbEntity
  8
0
100
AcDbLine
 62
7
  6
CONTINUOUS
 10
100.2420383448
 20
90.3170432901
 11
100.2003715987
 21
89.9766177988
  0
LINE
  5
371
100
AcDbEntity
  8
KONSTRUKTIONSELEMENTE
100
AcDbLine
 62
7
  6
CONTINUOUS
 10
115.102698238
 20
196.0232922246
 11
114.9956569198
 21
195.4336836241
  0
LINE
  5
372
100
AcDbEntity
  8
KONSTRUKTIONSELEMENTE
100
AcDbLine
 62
7
  6
CONTINUOUS
 10
115.3182679254
 20
195.4105998839
 11
115.4192351684
 21
195.9153191428
  0
LINE
  5
373
100
AcDbEntity
  8
KONSTRUKTIONSELEMENTE
100
AcDbLine
 62
7
  6
CONTINUOUS
 10
119.1933348851
 20
194.8057132009
 11
119.113879152
 21
194.4746900875
  0
LINE
  5
374
100
AcDbEntity
  8
KONSTRUKTIONSELEMENTE
100
AcDbLine
 62
7
  6
CONTINUOUS
 10
120.2725826233
 20
195.4218981154
 11
120.2328547011
 21
195.2563863268
  0
LINE
  5
375
100
AcDbEntity
  8
KONSTRUKTIONSELEMENTE
100
AcDbLine
 62
7
  6
CONTINUOUS
 10
119.9183410519
 20
193.66892822
 11
119.8388853189
 21
193.3379051066
  0
LINE
  5
376
100
AcDbEntity
  8
KONSTRUKTIONSELEMENTE
100
AcDbLine
 62
7
  6
CONTINUOUS
 10
126.0712292941
 20
190.8841888091
 11
125.9797042108
 21
190.6372163691
  0
LINE
  5
377
100
AcDbEntity
  8
KONSTRUKTIONSELEMENTE
100
AcDbLine
 62
7
  6
CONTINUOUS
 10
126.3476381096
 20
190.4871909135
 11
126.4391631929
 21
190.7341633535
  0
LINE
  5
378
100
AcDbEntity
  8
KONSTRUKTIONSELEMENTE
100
AcDbLine
 62
7
  6
CONTINUOUS
 10
127.0365758665
 20
192.2860963258
 11
126.9450507156
 21
192.0391237876
  0
LINE
  5
379
100
AcDbEntity
  8
0
100
AcDbLine
 62
7
  6
CONTINUOUS
 10
121.2554956129
 20
119.7061211538
 11
121.7554956129
 21
119.7061211538
  0
LINE
  5
37A
100
AcDbEntity
  8
0
100
AcDbLine
 62
7
  6
CONTINUOUS
 10
121.2554956129
 20
120.7061211538
 11
121.7554956129
 21
120.7061211538
  0
LINE
  5
37B
100
AcDbEntity
  8
0
100
AcDbLine
 62
7
  6
CONTINUOUS
 10
121.2554956129
 20
120.9144546461
 11
121.7554956129
 21
120.9144546461
  0
LINE
  5
37C
100
AcDbEntity
  8
0
100
AcDbLine
 62
7
  6
CONTINUOUS
 10
121.2554956129
 20
121.0811211538
 11
121.7554956129
 21
121.0811211538
  0
LINE
  5
37D
100
AcDbEntity
  8
0
100
AcDbLine
 62
7
  6
CONTINUOUS
 10
121.2554956129
 20
121.2061213922
 11
121.7554956129
 21
121.2061213922
  0
LINE
  5
37E
100
AcDbEntity
  8
0
100
AcDbLine
 62
7
  6
CONTINUOUS
 10
121.2554956129
 20
121.2477878999
 11
121.7554956129
 21
121.2477878999
  0
LINE
  5
37F
100
AcDbEntity
  8
0
100
AcDbLine
 62
7
  6
CONTINUOUS
 10
121.2554956129
 20
123.5811213922
 11
121.7554956129
 21
123.5811213922
  0
LINE
  5
380
100
AcDbEntity
  8
KONSTRUKTIONSELEMENTE
100
AcDbLine
 62
7
  6
CONTINUOUS
 10
91.3492456157
 20
156.3159793979
 11
91.5367456129
 21
155.9330006531
  0
LINE
  5
381
100
AcDbEntity
  8
KONSTRUKTIONSELEMENTE
100
AcDbLine
 62
7
  6
CONTINUOUS
 10
94.9117456129
 20
152.7095965361
 11
94.7242455235
 21
153.0925752139
  0
LINE
  5
382
100
AcDbEntity
  8
KONSTRUKTIONSELEMENTE
100
AcDbLine
 62
7
  6
CONTINUOUS
 10
93.4117455682
 20
163.2734262263
 11
94.1617455235
 21
161.2627878999
  0
LINE
  5
383
100
AcDbEntity
  8
KONSTRUKTIONSELEMENTE
100
AcDbLine
 62
7
  6
CONTINUOUS
 10
94.0679956129
 20
164.9968305444
 11
94.1617455235
 21
164.7095965361
  0
LINE
  5
384
100
AcDbEntity
  8
KONSTRUKTIONSELEMENTE
100
AcDbLine
 62
7
  6
CONTINUOUS
 10
94.7242455235
 20
164.7095965361
 11
94.6304956129
 21
164.9968305444
  0
LINE
  5
385
100
AcDbEntity
  8
KONSTRUKTIONSELEMENTE
100
AcDbLine
 62
7
  6
CONTINUOUS
 10
105.9324101492
 20
84.7627878999
 11
105.9324101492
 21
93.2627878999
  0
LINE
  5
386
100
AcDbEntity
  8
RUNDUNGEN
100
AcDbLine
 62
7
  6
CONTINUOUS
 10
108.2554956129
 20
114.6627878999
 11
108.2554956129
 21
127.1627878999
  0
LINE
  5
387
100
AcDbEntity
  8
0
100
AcDbLine
 62
7
  6
CONTINUOUS
 10
108.7554956129
 20
84.7627878999
 11
108.7554956129
 21
67.2627878999
  0
LINE
  5
388
100
AcDbEntity
  8
KONSTRUKTIONSELEMENTE
100
AcDbLine
 62
7
  6
CONTINUOUS
 10
110.8310593263
 20
195.5559839555
 11
110.8269054536
 21
195.1255835345
  0
LINE
  5
389
100
AcDbEntity
  8
KONSTRUKTIONSELEMENTE
100
AcDbLine
 62
7
  6
CONTINUOUS
 10
114.9956569198
 20
195.4336836241
 11
114.9531383933
 21
194.8394582334
  0
LINE
  5
38A
100
AcDbEntity
  8
KONSTRUKTIONSELEMENTE
100
AcDbLine
 62
7
  6
CONTINUOUS
 10
113.2080044801
 20
194.0027142155
 11
113.2361148
 21
194.2645961882
  0
LINE
  5
38B
100
AcDbEntity
  8
0
100
AcDbLine
 62
7
  6
CONTINUOUS
 10
101.6170383448
 20
89.4659793234
 11
101.6587048525
 21
89.8064048147
  0
LINE
  5
38C
100
AcDbEntity
  8
0
100
AcDbLine
 62
7
  6
CONTINUOUS
 10
98.6170383448
 20
90.9127878999
 11
97.9920383448
 21
87.3383198237
  0
LINE
  5
38D
100
AcDbEntity
  8
0
100
AcDbLine
 62
7
  6
CONTINUOUS
 10
98.9920383448
 20
90.5810046185
 11
98.9012415403
 21
90.0617241716
  0
LINE
  5
38E
100
AcDbEntity
  8
0
100
AcDbLine
 62
7
  6
CONTINUOUS
 10
98.1587049717
 20
86.9127878999
 11
98.7420383448
 21
90.0617241716
  0
LINE
  5
38F
100
AcDbEntity
  8
KONSTRUKTIONSELEMENTE
100
AcDbLine
 62
7
  6
CONTINUOUS
 10
120.5473588144
 20
195.1808956621
 11
120.5870867366
 21
195.3464074507
  0
LINE
  5
390
100
AcDbEntity
  8
KONSTRUKTIONSELEMENTE
100
AcDbLine
 62
7
  6
CONTINUOUS
 10
120.1533879925
 20
193.2624147874
 11
120.2328437255
 21
193.5934379009
  0
LINE
  5
391
100
AcDbEntity
  8
KONSTRUKTIONSELEMENTE
100
AcDbLine
 62
7
  6
CONTINUOUS
 10
127.3129847496
 20
191.8890985284
 11
127.4045097653
 21
192.1360708703
  0
LINE
  5
392
100
AcDbEntity
  8
0
100
AcDbLine
 62
7
  6
CONTINUOUS
 10
121.2554956129
 20
124.5811213922
 11
121.7554956129
 21
124.5811213922
  0
LINE
  5
393
100
AcDbEntity
  8
0
100
AcDbLine
 62
7
  6
CONTINUOUS
 10
121.2554956129
 20
124.8311213922
 11
121.7554956129
 21
124.8311213922
  0
LINE
  5
394
100
AcDbEntity
  8
0
100
AcDbLine
 62
7
  6
CONTINUOUS
 10
121.2554956129
 20
125.2477878999
 11
121.7554956129
 21
125.2477878999
  0
LINE
  5
395
100
AcDbEntity
  8
KONSTRUKTIONSELEMENTE
100
AcDbLine
 62
7
  6
CONTINUOUS
 10
94.1617455235
 20
152.901085875
 11
94.3492456129
 21
152.6138515985
  0
LINE
  5
396
100
AcDbEntity
  8
KONSTRUKTIONSELEMENTE
100
AcDbLine
 62
7
  6
CONTINUOUS
 10
92.0992456129
 20
156.124490059
 11
91.9117455906
 21
156.4117240673
  0
LINE
  5
397
100
AcDbEntity
  8
KONSTRUKTIONSELEMENTE
100
AcDbLine
 62
7
  6
CONTINUOUS
 10
94.8179957023
 20
161.2627878999
 11
93.9742457023
 21
163.4649155652
  0
LINE
  5
398
100
AcDbEntity
  8
KONSTRUKTIONSELEMENTE
100
AcDbLine
 62
7
  6
CONTINUOUS
 10
111.1591005673
 20
195.0868446651
 11
111.151276583
 21
195.6015043624
  0
LINE
  5
399
100
AcDbEntity
  8
KONSTRUKTIONSELEMENTE
100
AcDbLine
 62
7
  6
CONTINUOUS
 10
112.9080735422
 20
194.7337355967
 11
112.9158975433
 21
194.2190757814
  0
LINE
  5
39A
100
AcDbEntity
  8
KONSTRUKTIONSELEMENTE
100
AcDbLine
 62
7
  6
CONTINUOUS
 10
113.2361148
 20
194.2645961882
 11
113.2402686559
 21
194.6949967273
  0
LINE
  5
39B
100
AcDbEntity
  8
KONSTRUKTIONSELEMENTE
100
AcDbLine
 62
7
  6
CONTINUOUS
 10
115.306119775
 20
195.2408212008
 11
115.3182679254
 21
195.4105998839
  0
LINE
  5
39C
100
AcDbEntity
  8
KONSTRUKTIONSELEMENTE
100
AcDbLine
 62
7
  6
CONTINUOUS
 10
115.303827731
 20
194.3024215346
 11
115.3220499566
 21
194.5570895593
  0
LINE
  5
39D
100
AcDbEntity
  8
KONSTRUKTIONSELEMENTE
100
AcDbLine
 62
7
  6
CONTINUOUS
 10
116.9351079383
 20
194.4416706467
 11
116.9168857127
 21
194.1870026221
  0
LINE
  5
39E
100
AcDbEntity
  8
KONSTRUKTIONSELEMENTE
100
AcDbLine
 62
7
  6
CONTINUOUS
 10
117.2334226431
 20
194.0790295403
 11
117.2637930276
 21
194.5034763669
  0
LINE
  5
39F
100
AcDbEntity
  8
KONSTRUKTIONSELEMENTE
100
AcDbLine
 62
7
  6
CONTINUOUS
 10
121.4840737123
 20
192.3890904686
 11
121.5180073732
 21
192.6502817678
  0
LINE
  5
3A0
100
AcDbEntity
  8
0
100
AcDbLine
 62
7
  6
CONTINUOUS
 10
101.4087048525
 20
89.8064048147
 11
101.3253718371
 21
89.4659793234
  0
LINE
  5
3A1
100
AcDbEntity
  8
0
100
AcDbLine
 62
7
  6
CONTINUOUS
 10
100.4087050909
 20
89.9766177988
 11
100.4920383448
 21
90.2319369173
  0
LINE
  5
3A2
100
AcDbEntity
  8
KONSTRUKTIONSELEMENTE
100
AcDbLine
 62
7
  6
CONTINUOUS
 10
91.5367456129
 20
155.9330006531
 11
91.9117455906
 21
155.5500219418
  0
LINE
  5
3A3
100
AcDbEntity
  8
KONSTRUKTIONSELEMENTE
100
AcDbLine
 62
7
  6
CONTINUOUS
 10
94.7242455235
 20
153.0925752139
 11
94.3492456129
 21
153.4755538916
  0
LINE
  5
3A4
100
AcDbEntity
  8
KONSTRUKTIONSELEMENTE
100
AcDbLine
 62
7
  6
CONTINUOUS
 10
103.653966843
 20
191.7823270522
 11
103.6008216553
 21
192.1705603304
  0
LINE
  5
3A5
100
AcDbEntity
  8
KONSTRUKTIONSELEMENTE
100
AcDbLine
 62
7
  6
CONTINUOUS
 10
114.9531383933
 20
194.8394582334
 11
114.9751426502
 21
194.2406159333
  0
LINE
  5
3A6
100
AcDbEntity
  8
KONSTRUKTIONSELEMENTE
100
AcDbLine
 62
7
  6
CONTINUOUS
 10
113.9741843771
 20
193.511868315
 11
113.9890276484
 21
193.0865953492
  0
LINE
  5
3A7
100
AcDbEntity
  8
KONSTRUKTIONSELEMENTE
100
AcDbLine
 62
7
  6
CONTINUOUS
 10
114.3122666263
 20
193.0978773357
 11
114.2974233549
 21
193.5231503015
  0
LINE
  5
3A8
100
AcDbEntity
  8
KONSTRUKTIONSELEMENTE
100
AcDbLine
 62
7
  6
CONTINUOUS
 10
117.8889652872
 20
193.8059459146
 11
117.8922745841
 21
193.5425803195
  0
LINE
  5
3A9
100
AcDbEntity
  8
KONSTRUKTIONSELEMENTE
100
AcDbLine
 62
7
  6
CONTINUOUS
 10
120.2328437255
 20
193.5934379009
 11
120.2493998155
 21
193.9395589867
  0
LINE
  5
3AA
100
AcDbEntity
  8
KONSTRUKTIONSELEMENTE
100
AcDbLine
 62
7
  6
CONTINUOUS
 10
120.5870867366
 20
195.3464074507
 11
120.6036413591
 21
195.6925287662
  0
LINE
  5
3AB
100
AcDbEntity
  8
0
100
AcDbLine
 62
7
  6
CONTINUOUS
 10
101.5337048525
 20
89.2106602049
 11
101.6170383448
 21
89.4659793234
  0
LINE
  5
3AC
100
AcDbEntity
  8
0
100
AcDbLine
 62
7
  6
CONTINUOUS
 10
99.5753715987
 20
90.9127878999
 11
99.3253715987
 21
90.3170432901
  0
LINE
  5
3AD
100
AcDbEntity
  8
0
100
AcDbLine
 62
7
  6
CONTINUOUS
 10
99.3253715987
 20
89.636192069
 11
99.5753715987
 21
90.2319369173
  0
LINE
  5
3AE
100
AcDbEntity
  8
0
100
AcDbLine
 62
7
  6
CONTINUOUS
 10
99.8253715987
 20
90.4766725772
 11
99.7583843006
 21
90.3170432901
  0
LINE
  5
3AF
100
AcDbEntity
  8
KONSTRUKTIONSELEMENTE
100
AcDbLine
 62
7
  6
CONTINUOUS
 10
93.8804955235
 20
153.0925752139
 11
94.1617455235
 21
152.901085875
  0
LINE
  5
3B0
100
AcDbEntity
  8
KONSTRUKTIONSELEMENTE
100
AcDbLine
 62
7
  6
CONTINUOUS
 10
94.6304956129
 20
164.9968305444
 11
94.3492456129
 21
165.3798092222
  0
LINE
  5
3B1
100
AcDbEntity
  8
KONSTRUKTIONSELEMENTE
100
AcDbLine
 62
7
  6
CONTINUOUS
 10
110.8269054536
 20
195.1255835345
 11
110.9347061673
 21
194.3672500482
  0
LINE
  5
3B2
100
AcDbEntity
  8
KONSTRUKTIONSELEMENTE
100
AcDbLine
 62
7
  6
CONTINUOUS
 10
111.2429455668
 20
194.4970297312
 11
111.1591005673
 21
195.0868446651
  0
LINE
  5
3B3
100
AcDbEntity
  8
0
100
AcDbLine
 62
7
  6
CONTINUOUS
 10
120.7554956129
 20
84.7627878999
 11
120.7554956129
 21
67.2627878999
  0
LINE
  5
3B4
100
AcDbEntity
  8
RUNDUNGEN
100
AcDbLine
 62
7
  6
CONTINUOUS
 10
121.2554956129
 20
114.6627878999
 11
121.2554956129
 21
127.1627878999
  0
LINE
  5
3B5
100
AcDbEntity
  8
0
100
AcDbLine
 62
7
  6
CONTINUOUS
 10
121.7554956129
 20
125.2477878999
 11
121.7554956129
 21
123.5811213922
  0
LINE
  5
3B6
100
AcDbEntity
  8
0
100
AcDbLine
 62
7
  6
CONTINUOUS
 10
121.7554956129
 20
121.2477878999
 11
121.7554956129
 21
119.7061211538
  0
LINE
  5
3B7
100
AcDbEntity
  8
0
100
AcDbLine
 62
7
  6
CONTINUOUS
 10
121.7554956129
 20
119.3727878999
 11
121.7554956129
 21
119.1227878999
  0
LINE
  5
3B8
100
AcDbEntity
  8
0
100
AcDbLine
 62
7
  6
CONTINUOUS
 10
121.7554956129
 20
118.7894545269
 11
121.7554956129
 21
117.1227878999
  0
LINE
  5
3B9
100
AcDbEntity
  8
KONSTRUKTIONSELEMENTE
100
AcDbLine
 62
7
  6
CONTINUOUS
 10
123.5785810767
 20
84.7627878999
 11
123.5785810767
 21
93.2627878999
  0
LINE
  5
3BA
100
AcDbEntity
  8
KONSTRUKTIONSELEMENTE
100
AcDbLine
 62
7
  6
CONTINUOUS
 10
121.1546114369
 20
192.6112111573
 11
121.1494565201
 21
192.2470675032
  0
LINE
  5
3BB
100
AcDbEntity
  8
KONSTRUKTIONSELEMENTE
100
AcDbLine
 62
7
  6
CONTINUOUS
 10
126.4391631929
 20
190.7341633535
 11
126.4723991919
 21
191.1246052284
  0
LINE
  5
3BC
100
AcDbEntity
  8
KONSTRUKTIONSELEMENTE
100
AcDbLine
 62
7
  6
CONTINUOUS
 10
127.4045097653
 20
192.1360708703
 11
127.4377457643
 21
192.5265127451
  0
LINE
  5
3BD
100
AcDbEntity
  8
0
100
AcDbLine
 62
7
  6
CONTINUOUS
 10
100.4087050909
 20
90.6574687814
 11
100.2420383448
 21
90.3170432901
  0
LINE
  5
3BE
100
AcDbEntity
  8
0
100
AcDbLine
 62
7
  6
CONTINUOUS
 10
100.8417177928
 20
90.6574687814
 11
100.7416376071
 21
90.4530498004
  0
LINE
  5
3BF
100
AcDbEntity
  8
0
100
AcDbLine
 62
7
  6
CONTINUOUS
 10
101.3253718371
 20
89.4659793234
 11
100.1587050909
 21
87.3383198237
  0
LINE
  5
3C0
100
AcDbEntity
  8
0
100
AcDbLine
 62
7
  6
CONTINUOUS
 10
100.4920383448
 20
87.3383198237
 11
101.5337048525
 21
89.2106602049
  0
LINE
  5
3C1
100
AcDbEntity
  8
KONSTRUKTIONSELEMENTE
100
AcDbLine
 62
7
  6
CONTINUOUS
 10
94.3492456129
 20
153.4755538916
 11
93.9742457023
 21
153.6670432305
  0
LINE
  5
3C2
100
AcDbEntity
  8
KONSTRUKTIONSELEMENTE
100
AcDbLine
 62
7
  6
CONTINUOUS
 10
91.9117455906
 20
155.5500219418
 11
92.2867456353
 21
155.3585325778
  0
LINE
  5
3C3
100
AcDbEntity
  8
KONSTRUKTIONSELEMENTE
100
AcDbLine
 62
7
  6
CONTINUOUS
 10
92.3804956129
 20
155.9330006531
 11
92.0992456129
 21
156.124490059
  0
LINE
  5
3C4
100
AcDbEntity
  8
KONSTRUKTIONSELEMENTE
100
AcDbLine
 62
7
  6
CONTINUOUS
 10
93.8804955235
 20
165.1883198833
 11
94.0679956129
 21
164.9968305444
  0
LINE
  5
3C5
100
AcDbEntity
  8
KONSTRUKTIONSELEMENTE
100
AcDbLine
 62
7
  6
CONTINUOUS
 10
106.0541043232
 20
193.9535029718
 11
106.1162370958
 21
193.6975501864
  0
LINE
  5
3C6
100
AcDbEntity
  8
KONSTRUKTIONSELEMENTE
100
AcDbLine
 62
7
  6
CONTINUOUS
 10
106.4991418272
 20
193.8036961139
 11
106.4370090546
 21
194.0596488993
  0
LINE
  5
3C7
100
AcDbEntity
  8
KONSTRUKTIONSELEMENTE
100
AcDbLine
 62
7
  6
CONTINUOUS
 10
112.8242285427
 20
195.3235505305
 11
112.9080735422
 21
194.7337355967
  0
LINE
  5
3C8
100
AcDbEntity
  8
KONSTRUKTIONSELEMENTE
100
AcDbLine
 62
7
  6
CONTINUOUS
 10
113.2402686559
 20
194.6949967273
 11
113.1324679422
 21
195.4533302136
  0
LINE
  5
3C9
100
AcDbEntity
  8
KONSTRUKTIONSELEMENTE
100
AcDbLine
 62
7
  6
CONTINUOUS
 10
126.0612075992
 20
191.0977537081
 11
126.0712292941
 21
190.8841888091
  0
LINE
  5
3CA
100
AcDbEntity
  8
KONSTRUKTIONSELEMENTE
100
AcDbLine
 62
7
  6
CONTINUOUS
 10
125.9324101492
 20
84.7627878999
 11
125.9324101492
 21
93.2627878999
  0
LINE
  5
3CB
100
AcDbEntity
  8
0
100
AcDbLine
 62
7
  6
CONTINUOUS
 10
100.4920383448
 20
90.2319369173
 11
100.6170383448
 21
90.4021496629
  0
LINE
  5
3CC
100
AcDbEntity
  8
KONSTRUKTIONSELEMENTE
100
AcDbLine
 62
7
  6
CONTINUOUS
 10
89.4304984822
 20
147.2627878999
 11
97.5664752497
 21
147.2627878999
  0
LINE
  5
3CD
100
AcDbEntity
  8
KONSTRUKTIONSELEMENTE
100
AcDbLine
 62
7
  6
CONTINUOUS
 10
131.9445159762
 20
147.2627878999
 11
140.0804927437
 21
147.2627878999
  0
LINE
  5
3CE
100
AcDbEntity
  8
KONSTRUKTIONSELEMENTE
100
AcDbLine
 62
7
  6
CONTINUOUS
 10
93.5054956129
 20
153.1883198833
 11
93.8804955235
 21
153.0925752139
  0
LINE
  5
3CF
100
AcDbEntity
  8
KONSTRUKTIONSELEMENTE
100
AcDbLine
 62
7
  6
CONTINUOUS
 10
94.3492456129
 20
165.3798092222
 11
93.9742457023
 21
165.6670432305
  0
LINE
  5
3D0
100
AcDbEntity
  8
KONSTRUKTIONSELEMENTE
100
AcDbLine
 62
7
  6
CONTINUOUS
 10
103.1370095586
 20
192.2439015412
 11
103.2410351952
 21
192.0019284998
  0
LINE
  5
3D1
100
AcDbEntity
  8
KONSTRUKTIONSELEMENTE
100
AcDbLine
 62
7
  6
CONTINUOUS
 10
103.6008216553
 20
192.1705603304
 11
103.4967960187
 21
192.4125333719
  0
LINE
  5
3D2
100
AcDbEntity
  8
KONSTRUKTIONSELEMENTE
100
AcDbLine
 62
7
  6
CONTINUOUS
 10
110.9347061673
 20
194.3672500482
 11
111.0586386276
 21
193.9550575885
  0
LINE
  5
3D3
100
AcDbEntity
  8
KONSTRUKTIONSELEMENTE
100
AcDbLine
 62
7
  6
CONTINUOUS
 10
111.3788558843
 20
194.0005779953
 11
111.2429455668
 21
194.4970297312
  0
LINE
  5
3D4
100
AcDbEntity
  8
KONSTRUKTIONSELEMENTE
100
AcDbLine
 62
7
  6
CONTINUOUS
 10
112.688318242
 20
195.8200021484
 11
112.8242285427
 21
195.3235505305
  0
LINE
  5
3D5
100
AcDbEntity
  8
KONSTRUKTIONSELEMENTE
100
AcDbLine
 62
7
  6
CONTINUOUS
 10
114.9751426502
 20
194.2406159333
 11
115.0738163768
 21
193.8069356912
  0
LINE
  5
3D6
100
AcDbEntity
  8
KONSTRUKTIONSELEMENTE
100
AcDbLine
 62
7
  6
CONTINUOUS
 10
115.3501282973
 20
194.0431367197
 11
115.303827731
 21
194.3024215346
  0
LINE
  5
3D7
100
AcDbEntity
  8
KONSTRUKTIONSELEMENTE
100
AcDbLine
 62
7
  6
CONTINUOUS
 10
116.8888073806
 20
194.7009555805
 11
116.9351079383
 21
194.4416706467
  0
LINE
  5
3D8
100
AcDbEntity
  8
KONSTRUKTIONSELEMENTE
100
AcDbLine
 62
7
  6
CONTINUOUS
 10
117.2440822914
 20
196.0407182274
 11
117.1977817252
 21
196.3000030423
  0
LINE
  5
3D9
100
AcDbEntity
  8
KONSTRUKTIONSELEMENTE
100
AcDbLine
 62
7
  6
CONTINUOUS
 10
118.2266412049
 20
193.5498458367
 11
118.2034694005
 21
193.7304552499
  0
LINE
  5
3DA
100
AcDbEntity
  8
KONSTRUKTIONSELEMENTE
100
AcDbLine
 62
7
  6
CONTINUOUS
 10
119.8719960313
 20
194.0301475079
 11
119.9183410519
 21
193.66892822
  0
LINE
  5
3DB
100
AcDbEntity
  8
KONSTRUKTIONSELEMENTE
100
AcDbLine
 62
7
  6
CONTINUOUS
 10
127.0265541716
 20
192.4996612249
 11
127.0365758665
 21
192.2860963258
  0
LINE
  5
3DC
100
AcDbEntity
  8
0
100
AcDbLine
 62
7
  6
CONTINUOUS
 10
131.7554956129
 20
109.1627878999
 11
131.7554956129
 21
93.2627878999
  0
LINE
  5
3DD
100
AcDbEntity
  8
0
100
AcDbLine
 62
7
  6
CONTINUOUS
 10
100.5753715987
 20
90.8276815271
 11
100.4087050909
 21
90.6574687814
  0
LINE
  5
3DE
100
AcDbEntity
  8
KONSTRUKTIONSELEMENTE
100
AcDbLine
 62
7
  6
CONTINUOUS
 10
91.2554956129
 20
149.2627878999
 11
93.5054956129
 21
149.2627878999
  0
LINE
  5
3DF
100
AcDbEntity
  8
KONSTRUKTIONSELEMENTE
100
AcDbLine
 62
7
  6
CONTINUOUS
 10
93.5054956129
 20
149.8372559836
 11
91.8179956129
 21
149.8372559836
  0
LINE
  5
3E0
100
AcDbEntity
  8
KONSTRUKTIONSELEMENTE
100
AcDbLine
 62
7
  6
CONTINUOUS
 10
93.9742457023
 20
153.6670432305
 11
93.5054956129
 21
153.7627878999
  0
LINE
  5
3E1
100
AcDbEntity
  8
KONSTRUKTIONSELEMENTE
100
AcDbLine
 62
7
  6
CONTINUOUS
 10
92.2867456353
 20
155.3585325778
 11
92.7554956576
 21
155.2627878999
  0
LINE
  5
3E2
100
AcDbEntity
  8
KONSTRUKTIONSELEMENTE
100
AcDbLine
 62
7
  6
CONTINUOUS
 10
92.7554956576
 20
155.8372559836
 11
92.3804956129
 21
155.9330006531
  0
LINE
  5
3E3
100
AcDbEntity
  8
KONSTRUKTIONSELEMENTE
100
AcDbLine
 62
7
  6
CONTINUOUS
 10
103.7244278405
 20
194.0697073525
 11
105.5937962217
 21
190.5334011079
  0
LINE
  5
3E4
100
AcDbEntity
  8
KONSTRUKTIONSELEMENTE
100
AcDbLine
 62
7
  6
CONTINUOUS
 10
105.9369271624
 20
190.7147875849
 11
105.1016774483
 21
192.2948393336
  0
LINE
  5
3E5
100
AcDbEntity
  8
KONSTRUKTIONSELEMENTE
100
AcDbLine
 62
7
  6
CONTINUOUS
 10
104.8630347047
 20
192.7462826302
 11
104.2664277342
 21
193.8748910823
  0
LINE
  5
3E6
100
AcDbEntity
  8
KONSTRUKTIONSELEMENTE
100
AcDbLine
 62
7
  6
CONTINUOUS
 10
111.0586386276
 20
193.9550575885
 11
111.15861609
 21
193.7113839036
  0
LINE
  5
3E7
100
AcDbEntity
  8
KONSTRUKTIONSELEMENTE
100
AcDbLine
 62
7
  6
CONTINUOUS
 10
113.1324679422
 20
195.4533302136
 11
113.0085354987
 21
195.8655225553
  0
LINE
  5
3E8
100
AcDbEntity
  8
KONSTRUKTIONSELEMENTE
100
AcDbLine
 62
7
  6
CONTINUOUS
 10
117.8922745841
 20
193.5425803195
 11
117.9584835658
 21
193.2641169259
  0
LINE
  5
3E9
100
AcDbEntity
  8
KONSTRUKTIONSELEMENTE
100
AcDbLine
 62
7
  6
CONTINUOUS
 10
120.2493998155
 20
193.9395589867
 11
120.1831893941
 21
194.2180227259
  0
LINE
  5
3EA
100
AcDbEntity
  8
KONSTRUKTIONSELEMENTE
100
AcDbLine
 62
7
  6
CONTINUOUS
 10
117.2637930276
 20
194.5034763669
 11
117.1651192967
 21
194.9371565495
  0
LINE
  5
3EB
100
AcDbEntity
  8
KONSTRUKTIONSELEMENTE
100
AcDbLine
 62
7
  6
CONTINUOUS
 10
134.7554956129
 20
84.7627878999
 11
134.7554956129
 21
93.2627878999
  0
LINE
  5
3EC
100
AcDbEntity
  8
0
100
AcDbLine
 62
7
  6
CONTINUOUS
 10
101.0083843006
 20
90.8276815271
 11
100.8417177928
 21
90.6574687814
  0
LINE
  5
3ED
100
AcDbEntity
  8
KONSTRUKTIONSELEMENTE
100
AcDbLine
 62
7
  6
CONTINUOUS
 10
93.8804955235
 20
149.9330006531
 11
93.5054956129
 21
149.8372559836
  0
LINE
  5
3EE
100
AcDbEntity
  8
KONSTRUKTIONSELEMENTE
100
AcDbLine
 62
7
  6
CONTINUOUS
 10
93.5054956129
 20
149.2627878999
 11
93.9742457023
 21
149.3585325778
  0
LINE
  5
3EF
100
AcDbEntity
  8
KONSTRUKTIONSELEMENTE
100
AcDbLine
 62
7
  6
CONTINUOUS
 10
91.8179956129
 20
153.1883198833
 11
93.5054956129
 21
153.1883198833
  0
LINE
  5
3F0
100
AcDbEntity
  8
KONSTRUKTIONSELEMENTE
100
AcDbLine
 62
7
  6
CONTINUOUS
 10
93.5054956129
 20
153.7627878999
 11
91.2554956129
 21
153.7627878999
  0
LINE
  5
3F1
100
AcDbEntity
  8
KONSTRUKTIONSELEMENTE
100
AcDbLine
 62
7
  6
CONTINUOUS
 10
92.7554956576
 20
155.2627878999
 11
93.1304955682
 21
155.2627878999
  0
LINE
  5
3F2
100
AcDbEntity
  8
KONSTRUKTIONSELEMENTE
100
AcDbLine
 62
7
  6
CONTINUOUS
 10
93.1304955682
 20
155.8372559836
 11
92.7554956576
 21
155.8372559836
  0
LINE
  5
3F3
100
AcDbEntity
  8
KONSTRUKTIONSELEMENTE
100
AcDbLine
 62
7
  6
CONTINUOUS
 10
93.5992455235
 20
165.2840645528
 11
93.8804955235
 21
165.1883198833
  0
LINE
  5
3F4
100
AcDbEntity
  8
KONSTRUKTIONSELEMENTE
100
AcDbLine
 62
7
  6
CONTINUOUS
 10
105.93478284
 20
194.1792248309
 11
106.0541043232
 21
193.9535029718
  0
LINE
  5
3F5
100
AcDbEntity
  8
KONSTRUKTIONSELEMENTE
100
AcDbLine
 62
7
  6
CONTINUOUS
 10
106.4370090546
 20
194.0596488993
 11
106.2779137807
 21
194.3606113078
  0
LINE
  5
3F6
100
AcDbEntity
  8
KONSTRUKTIONSELEMENTE
100
AcDbLine
 62
7
  6
CONTINUOUS
 10
115.4609501743
 20
193.7792351607
 11
115.3501282973
 21
194.0431367197
  0
LINE
  5
3F7
100
AcDbEntity
  8
KONSTRUKTIONSELEMENTE
100
AcDbLine
 62
7
  6
CONTINUOUS
 10
113.0085354987
 20
195.8655225553
 11
112.9085580028
 21
196.1091964762
  0
LINE
  5
3F8
100
AcDbEntity
  8
KONSTRUKTIONSELEMENTE
100
AcDbLine
 62
7
  6
CONTINUOUS
 10
120.2063736416
 20
195.700361509
 11
120.2725826233
 21
195.4218981154
  0
LINE
  5
3F9
100
AcDbEntity
  8
KONSTRUKTIONSELEMENTE
100
AcDbLine
 62
7
  6
CONTINUOUS
 10
127.4377457643
 20
192.5265127451
 11
127.3694362721
 21
192.8835463375
  0
LINE
  5
3FA
100
AcDbEntity
  8
KONSTRUKTIONSELEMENTE
100
AcDbLine
 62
7
  6
CONTINUOUS
 10
93.5054956129
 20
155.9330006531
 11
93.1304955682
 21
155.8372559836
  0
LINE
  5
3FB
100
AcDbEntity
  8
KONSTRUKTIONSELEMENTE
100
AcDbLine
 62
7
  6
CONTINUOUS
 10
93.1304955682
 20
155.2627878999
 11
93.5992455235
 21
155.3585325778
  0
LINE
  5
3FC
100
AcDbEntity
  8
KONSTRUKTIONSELEMENTE
100
AcDbLine
 62
7
  6
CONTINUOUS
 10
94.6304956129
 20
159.7627878999
 11
94.0679956129
 21
159.7627878999
  0
LINE
  5
3FD
100
AcDbEntity
  8
KONSTRUKTIONSELEMENTE
100
AcDbLine
 62
7
  6
CONTINUOUS
 10
91.8179956129
 20
159.7627878999
 11
91.2554956129
 21
159.7627878999
  0
LINE
  5
3FE
100
AcDbEntity
  8
KONSTRUKTIONSELEMENTE
100
AcDbLine
 62
7
  6
CONTINUOUS
 10
91.2554956129
 20
161.2627878999
 11
91.8179956129
 21
161.2627878999
  0
LINE
  5
3FF
100
AcDbEntity
  8
KONSTRUKTIONSELEMENTE
100
AcDbLine
 62
7
  6
CONTINUOUS
 10
94.1617455235
 20
161.2627878999
 11
94.8179957023
 21
161.2627878999
  0
LINE
  5
400
100
AcDbEntity
  8
KONSTRUKTIONSELEMENTE
100
AcDbLine
 62
7
  6
CONTINUOUS
 10
93.9742457023
 20
165.6670432305
 11
93.5054956129
 21
165.7627878999
  0
LINE
  5
401
100
AcDbEntity
  8
KONSTRUKTIONSELEMENTE
100
AcDbLine
 62
7
  6
CONTINUOUS
 10
100.8206669686
 20
191.9692158369
 11
103.2546240663
 21
188.794967446
  0
LINE
  5
402
100
AcDbEntity
  8
KONSTRUKTIONSELEMENTE
100
AcDbLine
 62
7
  6
CONTINUOUS
 10
103.5626242114
 20
189.0311364684
 11
102.4751114502
 21
190.4494176845
  0
LINE
  5
403
100
AcDbEntity
  8
KONSTRUKTIONSELEMENTE
100
AcDbLine
 62
7
  6
CONTINUOUS
 10
102.1643935599
 20
190.854640835
 11
101.387598689
 21
191.8676989005
  0
LINE
  5
404
100
AcDbEntity
  8
KONSTRUKTIONSELEMENTE
100
AcDbLine
 62
7
  6
CONTINUOUS
 10
102.9816504683
 20
192.4465133057
 11
103.1370095586
 21
192.2439015412
  0
LINE
  5
405
100
AcDbEntity
  8
KONSTRUKTIONSELEMENTE
100
AcDbLine
 62
7
  6
CONTINUOUS
 10
103.4967960187
 20
192.4125333719
 11
103.2896506134
 21
192.6826823281
  0
LINE
  5
406
100
AcDbEntity
  8
KONSTRUKTIONSELEMENTE
100
AcDbLine
 62
7
  6
CONTINUOUS
 10
111.15861609
 20
193.7113839036
 11
111.334613843
 21
193.3925548189
  0
LINE
  5
407
100
AcDbEntity
  8
KONSTRUKTIONSELEMENTE
100
AcDbLine
 62
7
  6
CONTINUOUS
 10
112.9085580028
 20
196.1091964762
 11
112.7325602582
 21
196.4280255019
  0
LINE
  5
408
100
AcDbEntity
  8
KONSTRUKTIONSELEMENTE
100
AcDbLine
 62
7
  6
CONTINUOUS
 10
115.0738163768
 20
193.8069356912
 11
115.2430869726
 21
193.4535280301
  0
LINE
  5
409
100
AcDbEntity
  8
KONSTRUKTIONSELEMENTE
100
AcDbLine
 62
7
  6
CONTINUOUS
 10
118.3127155456
 20
193.3541378179
 11
118.2266412049
 21
193.5498458367
  0
LINE
  5
40A
100
AcDbEntity
  8
KONSTRUKTIONSELEMENTE
100
AcDbLine
 62
7
  6
CONTINUOUS
 10
116.8106479277
 20
196.3277035729
 11
116.921469809
 21
196.0638020733
  0
LINE
  5
40B
100
AcDbEntity
  8
KONSTRUKTIONSELEMENTE
100
AcDbLine
 62
7
  6
CONTINUOUS
 10
91.8179956129
 20
163.2734262263
 11
93.4117455682
 21
163.2734262263
  0
LINE
  5
40C
100
AcDbEntity
  8
KONSTRUKTIONSELEMENTE
100
AcDbLine
 62
7
  6
CONTINUOUS
 10
93.5992455235
 20
163.847894243
 11
91.8179956129
 21
163.847894243
  0
LINE
  5
40D
100
AcDbEntity
  8
KONSTRUKTIONSELEMENTE
100
AcDbLine
 62
7
  6
CONTINUOUS
 10
91.8179956129
 20
165.2840645528
 11
93.5992455235
 21
165.2840645528
  0
LINE
  5
40E
100
AcDbEntity
  8
KONSTRUKTIONSELEMENTE
100
AcDbLine
 62
7
  6
CONTINUOUS
 10
93.5054956129
 20
165.7627878999
 11
91.2554956129
 21
165.7627878999
  0
LINE
  5
40F
100
AcDbEntity
  8
KONSTRUKTIONSELEMENTE
100
AcDbLine
 62
7
  6
CONTINUOUS
 10
111.7068964007
 20
193.5314385417
 11
111.3788558843
 21
194.0005779953
  0
LINE
  5
410
100
AcDbEntity
  8
KONSTRUKTIONSELEMENTE
100
AcDbLine
 62
7
  6
CONTINUOUS
 10
121.1494565201
 20
192.2470675032
 11
121.2671523409
 21
192.0173284082
  0
LINE
  5
411
100
AcDbEntity
  8
KONSTRUKTIONSELEMENTE
100
AcDbLine
 62
7
  6
CONTINUOUS
 10
121.6017695386
 20
192.1593513875
 11
121.4840737123
 21
192.3890904686
  0
LINE
  5
412
100
AcDbEntity
  8
KONSTRUKTIONSELEMENTE
100
AcDbLine
 62
7
  6
CONTINUOUS
 10
117.1977817252
 20
196.3000030423
 11
117.0285111273
 21
196.6534106738
  0
LINE
  5
413
100
AcDbEntity
  8
KONSTRUKTIONSELEMENTE
100
AcDbLine
 62
7
  6
CONTINUOUS
 10
120.6036413591
 20
195.6925287662
 11
120.4314940894
 21
196.0839443423
  0
LINE
  5
414
100
AcDbEntity
  8
KONSTRUKTIONSELEMENTE
100
AcDbLine
 62
7
  6
CONTINUOUS
 10
126.4723991919
 20
191.1246052284
 11
126.4141101751
 21
191.2680747614
  0
LINE
  5
415
100
AcDbEntity
  8
0
100
AcDbLine
 62
7
  6
CONTINUOUS
 10
100.6170383448
 20
90.4021496629
 11
100.8253715987
 21
90.4872560358
  0
LINE
  5
416
100
AcDbEntity
  8
0
100
AcDbLine
 62
7
  6
CONTINUOUS
 10
100.8670383448
 20
90.9127878999
 11
100.5753715987
 21
90.8276815271
  0
LINE
  5
417
100
AcDbEntity
  8
0
100
AcDbLine
 62
7
  6
CONTINUOUS
 10
101.1566338472
 20
90.8709397365
 11
101.0083843006
 21
90.8276815271
  0
LINE
  5
418
100
AcDbEntity
  8
KONSTRUKTIONSELEMENTE
100
AcDbLine
 62
7
  6
CONTINUOUS
 10
89.4304984822
 20
169.2627878999
 11
97.5664752497
 21
169.2627878999
  0
LINE
  5
419
100
AcDbEntity
  8
KONSTRUKTIONSELEMENTE
100
AcDbLine
 62
7
  6
CONTINUOUS
 10
131.9445159762
 20
169.2627878999
 11
140.0804927437
 21
169.2627878999
  0
LINE
  5
41A
100
AcDbEntity
  8
KONSTRUKTIONSELEMENTE
100
AcDbLine
 62
7
  6
CONTINUOUS
 10
105.758272869
 20
194.374715342
 11
105.93478284
 21
194.1792248309
  0
LINE
  5
41B
100
AcDbEntity
  8
KONSTRUKTIONSELEMENTE
100
AcDbLine
 62
7
  6
CONTINUOUS
 10
106.2779137807
 20
194.3606113078
 11
106.1014038097
 21
194.5561018189
  0
LINE
  5
41C
100
AcDbEntity
  8
KONSTRUKTIONSELEMENTE
100
AcDbLine
 62
7
  6
CONTINUOUS
 10
117.9584835658
 20
193.2641169259
 11
118.1074575844
 21
193.0533110796
  0
LINE
  5
41D
100
AcDbEntity
  8
KONSTRUKTIONSELEMENTE
100
AcDbLine
 62
7
  6
CONTINUOUS
 10
112.3602777005
 20
196.2891417791
 11
112.688318242
 21
195.8200021484
  0
LINE
  5
41E
100
AcDbEntity
  8
KONSTRUKTIONSELEMENTE
100
AcDbLine
 62
7
  6
CONTINUOUS
 10
116.7719114241
 20
194.8799677386
 11
116.8888073806
 21
194.7009555805
  0
LINE
  5
41F
100
AcDbEntity
  8
KONSTRUKTIONSELEMENTE
100
AcDbLine
 62
7
  6
CONTINUOUS
 10
117.1651192967
 20
194.9371565495
 11
116.9897746236
 21
195.2056748395
  0
LINE
  5
420
100
AcDbEntity
  8
KONSTRUKTIONSELEMENTE
100
AcDbLine
 62
7
  6
CONTINUOUS
 10
102.7749582146
 20
192.6097634148
 11
102.9816504683
 21
192.4465133057
  0
LINE
  5
421
100
AcDbEntity
  8
KONSTRUKTIONSELEMENTE
100
AcDbLine
 62
7
  6
CONTINUOUS
 10
103.2896506134
 20
192.6826823281
 11
103.0829583597
 21
192.8459324371
  0
LINE
  5
422
100
AcDbEntity
  8
KONSTRUKTIONSELEMENTE
100
AcDbLine
 62
7
  6
CONTINUOUS
 10
111.334613843
 20
193.3925548189
 11
111.5626776258
 21
193.1670891839
  0
LINE
  5
423
100
AcDbEntity
  8
KONSTRUKTIONSELEMENTE
100
AcDbLine
 62
7
  6
CONTINUOUS
 10
112.7325602582
 20
196.4280255019
 11
112.5044964795
 21
196.6534911074
  0
LINE
  5
424
100
AcDbEntity
  8
KONSTRUKTIONSELEMENTE
100
AcDbLine
 62
7
  6
CONTINUOUS
 10
115.6423689226
 20
193.5956062123
 11
115.4609501743
 21
193.7792351607
  0
LINE
  5
425
100
AcDbEntity
  8
KONSTRUKTIONSELEMENTE
100
AcDbLine
 62
7
  6
CONTINUOUS
 10
118.1074575844
 20
193.0533110796
 11
118.3193327154
 21
192.8274070385
  0
LINE
  5
426
100
AcDbEntity
  8
KONSTRUKTIONSELEMENTE
100
AcDbLine
 62
7
  6
CONTINUOUS
 10
119.7230220057
 20
194.2409533252
 11
119.8719960313
 21
194.0301475079
  0
LINE
  5
427
100
AcDbEntity
  8
KONSTRUKTIONSELEMENTE
100
AcDbLine
 62
7
  6
CONTINUOUS
 10
120.057399616
 20
195.9111673264
 11
120.2063736416
 21
195.700361509
  0
LINE
  5
428
100
AcDbEntity
  8
KONSTRUKTIONSELEMENTE
100
AcDbLine
 62
7
  6
CONTINUOUS
 10
125.9496416326
 20
191.2779094849
 11
126.0612075992
 21
191.0977537081
  0
LINE
  5
429
100
AcDbEntity
  8
KONSTRUKTIONSELEMENTE
100
AcDbLine
 62
7
  6
CONTINUOUS
 10
126.914988205
 20
192.6798170017
 11
127.0265541716
 21
192.4996612249
  0
LINE
  5
42A
100
AcDbEntity
  8
KONSTRUKTIONSELEMENTE
100
AcDbLine
 62
7
  6
CONTINUOUS
 10
106.1014038097
 20
194.5561018189
 11
105.7707431769
 21
194.7663707782
  0
LINE
  5
42B
100
AcDbEntity
  8
KONSTRUKTIONSELEMENTE
100
AcDbLine
 62
7
  6
CONTINUOUS
 10
115.2430869726
 20
193.4535280301
 11
115.547475751
 21
193.1757762429
  0
LINE
  5
42C
100
AcDbEntity
  8
KONSTRUKTIONSELEMENTE
100
AcDbLine
 62
7
  6
CONTINUOUS
 10
116.9897746236
 20
195.2056748395
 11
116.6853843668
 21
195.48342671
  0
LINE
  5
42D
100
AcDbEntity
  8
KONSTRUKTIONSELEMENTE
100
AcDbLine
 62
7
  6
CONTINUOUS
 10
121.2671523409
 20
192.0173284082
 11
121.4162050387
 21
191.866708478
  0
LINE
  5
42E
100
AcDbEntity
  8
KONSTRUKTIONSELEMENTE
100
AcDbLine
 62
7
  6
CONTINUOUS
 10
116.5904926758
 20
195.0635966869
 11
116.7719114241
 21
194.8799677386
  0
LINE
  5
42F
100
AcDbEntity
  8
KONSTRUKTIONSELEMENTE
100
AcDbLine
 62
7
  6
CONTINUOUS
 10
116.6292291794
 20
196.5113325213
 11
116.8106479277
 21
196.3277035729
  0
LINE
  5
430
100
AcDbEntity
  8
KONSTRUKTIONSELEMENTE
100
AcDbLine
 62
7
  6
CONTINUOUS
 10
118.4186523939
 20
193.241185981
 11
118.3127155456
 21
193.3541378179
  0
LINE
  5
431
100
AcDbEntity
  8
KONSTRUKTIONSELEMENTE
100
AcDbLine
 62
7
  6
CONTINUOUS
 10
120.4314940894
 20
196.0839443423
 11
120.2196203929
 21
196.3098480161
  0
LINE
  5
432
100
AcDbEntity
  8
FASEN
100
AcDbLine
 62
7
  6
CONTINUOUS
 10
120.2554956129
 20
66.7627878999
 11
120.7554956129
 21
67.2627878999
  0
LINE
  5
433
100
AcDbEntity
  8
KONSTRUKTIONSELEMENTE
100
AcDbLine
 62
7
  6
CONTINUOUS
 10
103.0829583597
 20
192.8459324371
 11
102.7218130269
 21
192.997996693
  0
LINE
  5
434
100
AcDbEntity
  8
KONSTRUKTIONSELEMENTE
100
AcDbLine
 62
7
  6
CONTINUOUS
 10
105.5643484166
 20
194.4647343395
 11
105.758272869
 21
194.374715342
  0
LINE
  5
435
100
AcDbEntity
  8
KONSTRUKTIONSELEMENTE
100
AcDbLine
 62
7
  6
CONTINUOUS
 10
111.5626776258
 20
193.1670891839
 11
111.9188284568
 21
192.9598317398
  0
LINE
  5
436
100
AcDbEntity
  8
KONSTRUKTIONSELEMENTE
100
AcDbLine
 62
7
  6
CONTINUOUS
 10
118.3193327154
 20
192.8274070385
 11
118.5510717831
 21
192.6842587902
  0
LINE
  5
437
100
AcDbEntity
  8
KONSTRUKTIONSELEMENTE
100
AcDbLine
 62
7
  6
CONTINUOUS
 10
111.9229823222
 20
193.3902322124
 11
111.7068964007
 21
193.5314385417
  0
LINE
  5
438
100
AcDbEntity
  8
KONSTRUKTIONSELEMENTE
100
AcDbLine
 62
7
  6
CONTINUOUS
 10
112.1441917789
 20
196.4303481084
 11
112.3602777005
 21
196.2891417791
  0
LINE
  5
439
100
AcDbEntity
  8
KONSTRUKTIONSELEMENTE
100
AcDbLine
 62
7
  6
CONTINUOUS
 10
121.4162050387
 20
191.866708478
 11
121.7456673113
 21
191.6445877824
  0
LINE
  5
43A
100
AcDbEntity
  8
KONSTRUKTIONSELEMENTE
100
AcDbLine
 62
7
  6
CONTINUOUS
 10
123.6040844806
 20
190.7230761323
 11
124.8827507884
 21
189.842592846
  0
LINE
  5
43B
100
AcDbEntity
  8
KONSTRUKTIONSELEMENTE
100
AcDbLine
 62
7
  6
CONTINUOUS
 10
125.2256317033
 20
190.2264788474
 11
124.2133550225
 21
190.9235275559
  0
LINE
  5
43C
100
AcDbEntity
  8
KONSTRUKTIONSELEMENTE
100
AcDbLine
 62
7
  6
CONTINUOUS
 10
121.8710948192
 20
191.9610644414
 11
121.6017695386
 21
192.1593513875
  0
LINE
  5
43D
100
AcDbEntity
  8
KONSTRUKTIONSELEMENTE
100
AcDbLine
 62
7
  6
CONTINUOUS
 10
120.1831893941
 20
194.2180227259
 11
119.908414587
 21
194.4590246018
  0
LINE
  5
43E
100
AcDbEntity
  8
KONSTRUKTIONSELEMENTE
100
AcDbLine
 62
7
  6
CONTINUOUS
 10
117.0285111273
 20
196.6534106738
 11
116.7241223473
 21
196.9311624386
  0
LINE
  5
43F
100
AcDbEntity
  8
KONSTRUKTIONSELEMENTE
100
AcDbLine
 62
7
  6
CONTINUOUS
 10
127.3694362721
 20
192.8835463375
 11
127.1513151863
 21
193.1370754416
  0
LINE
  5
440
100
AcDbEntity
  8
KONSTRUKTIONSELEMENTE
100
AcDbLine
 62
7
  6
CONTINUOUS
 10
125.1974065222
 20
189.72925448
 11
125.5553199582
 21
189.7927931022
  0
LINE
  5
441
100
AcDbEntity
  8
KONSTRUKTIONSELEMENTE
100
AcDbLine
 62
7
  6
CONTINUOUS
 10
102.7218130269
 20
192.997996693
 11
102.3611207007
 21
193.0431622908
  0
LINE
  5
442
100
AcDbEntity
  8
KONSTRUKTIONSELEMENTE
100
AcDbLine
 62
7
  6
CONTINUOUS
 10
102.5687188205
 20
192.6661147533
 11
102.7749582146
 21
192.6097634148
  0
LINE
  5
443
100
AcDbEntity
  8
KONSTRUKTIONSELEMENTE
100
AcDbLine
 62
7
  6
CONTINUOUS
 10
105.7707431769
 20
194.7663707782
 11
105.4226677355
 21
194.8711680508
  0
LINE
  5
444
100
AcDbEntity
  8
KONSTRUKTIONSELEMENTE
100
AcDbLine
 62
7
  6
CONTINUOUS
 10
115.547475751
 20
193.1757762429
 11
115.8640141577
 21
193.067803048
  0
LINE
  5
445
100
AcDbEntity
  8
KONSTRUKTIONSELEMENTE
100
AcDbLine
 62
7
  6
CONTINUOUS
 10
124.8827507884
 20
189.842592846
 11
125.1974065222
 21
189.72925448
  0
LINE
  5
446
100
AcDbEntity
  8
KONSTRUKTIONSELEMENTE
100
AcDbLine
 62
7
  6
CONTINUOUS
 10
119.3654821547
 20
194.4142976248
 11
119.7230220057
 21
194.2409533252
  0
LINE
  5
447
100
AcDbEntity
  8
KONSTRUKTIONSELEMENTE
100
AcDbLine
 62
7
  6
CONTINUOUS
 10
123.0007835322
 20
192.6510214717
 11
123.8036662521
 21
192.2320596693
  0
LINE
  5
448
100
AcDbEntity
  8
KONSTRUKTIONSELEMENTE
100
AcDbLine
 62
7
  6
CONTINUOUS
 10
124.0005274321
 20
192.6093170678
 11
123.1976447121
 21
193.0282788701
  0
LINE
  5
449
100
AcDbEntity
  8
KONSTRUKTIONSELEMENTE
100
AcDbLine
 62
7
  6
CONTINUOUS
 10
115.8298617461
 20
193.4968666055
 11
115.6423689226
 21
193.5956062123
  0
LINE
  5
44A
100
AcDbEntity
  8
KONSTRUKTIONSELEMENTE
100
AcDbLine
 62
7
  6
CONTINUOUS
 10
116.4029998522
 20
195.1623362938
 11
116.5904926758
 21
195.0635966869
  0
LINE
  5
44B
100
AcDbEntity
  8
KONSTRUKTIONSELEMENTE
100
AcDbLine
 62
7
  6
CONTINUOUS
 10
116.4417363559
 20
196.6100721281
 11
116.6292291794
 21
196.5113325213
  0
LINE
  5
44C
100
AcDbEntity
  8
KONSTRUKTIONSELEMENTE
100
AcDbLine
 62
7
  6
CONTINUOUS
 10
118.7132911342
 20
193.0829398835
 11
118.4186523939
 21
193.241185981
  0
LINE
  5
44D
100
AcDbEntity
  8
KONSTRUKTIONSELEMENTE
100
AcDbLine
 62
7
  6
CONTINUOUS
 10
119.7627608756
 20
196.0694134239
 11
120.057399616
 21
195.9111673264
  0
LINE
  5
44E
100
AcDbEntity
  8
KONSTRUKTIONSELEMENTE
100
AcDbLine
 62
7
  6
CONTINUOUS
 10
112.5044964795
 20
196.6534911074
 11
112.1483456517
 21
196.8607485294
  0
LINE
  5
44F
100
AcDbEntity
  8
KONSTRUKTIONSELEMENTE
100
AcDbLine
 62
7
  6
CONTINUOUS
 10
124.9373649519
 20
191.9749581935
 11
125.9496416326
 21
191.2779094849
  0
LINE
  5
450
100
AcDbEntity
  8
KONSTRUKTIONSELEMENTE
100
AcDbLine
 62
7
  6
CONTINUOUS
 10
126.2392455637
 20
191.698481681
 11
125.226968883
 21
192.3955303896
  0
LINE
  5
451
100
AcDbEntity
  8
KONSTRUKTIONSELEMENTE
100
AcDbLine
 62
7
  6
CONTINUOUS
 10
125.9027115243
 20
193.3768657102
 11
126.914988205
 21
192.6798170017
  0
LINE
  5
452
100
AcDbEntity
  8
KONSTRUKTIONSELEMENTE
100
AcDbLine
 62
7
  6
CONTINUOUS
 10
127.1513151863
 20
193.1370754416
 11
125.8726488785
 21
194.017558728
  0
LINE
  5
453
100
AcDbEntity
  8
KONSTRUKTIONSELEMENTE
100
AcDbLine
 62
7
  6
CONTINUOUS
 10
102.3629324329
 20
192.6155674338
 11
102.5687188205
 21
192.6661147533
  0
LINE
  5
454
100
AcDbEntity
  8
KONSTRUKTIONSELEMENTE
100
AcDbLine
 62
7
  6
CONTINUOUS
 10
105.4226677355
 20
194.8711680508
 11
105.0969516034
 21
194.7952532604
  0
LINE
  5
455
100
AcDbEntity
  8
KONSTRUKTIONSELEMENTE
100
AcDbLine
 62
7
  6
CONTINUOUS
 10
116.1866251633
 20
193.0447193077
 11
116.5153102446
 21
193.1065249165
  0
LINE
  5
456
100
AcDbEntity
  8
KONSTRUKTIONSELEMENTE
100
AcDbLine
 62
7
  6
CONTINUOUS
 10
116.0462364308
 20
195.614483532
 11
115.7175498732
 21
195.5526780364
  0
LINE
  5
457
100
AcDbEntity
  8
KONSTRUKTIONSELEMENTE
100
AcDbLine
 62
7
  6
CONTINUOUS
 10
116.1494957263
 20
197.057602576
 11
115.8208091687
 21
196.9957970804
  0
LINE
  5
458
100
AcDbEntity
  8
KONSTRUKTIONSELEMENTE
100
AcDbLine
 62
7
  6
CONTINUOUS
 10
119.8620695385
 20
194.8202437738
 11
119.4449378878
 21
194.7453207382
  0
LINE
  5
459
100
AcDbEntity
  8
KONSTRUKTIONSELEMENTE
100
AcDbLine
 62
7
  6
CONTINUOUS
 10
119.0542763488
 20
192.5634742105
 11
119.3257432865
 21
192.5858375334
  0
LINE
  5
45A
100
AcDbEntity
  8
KONSTRUKTIONSELEMENTE
100
AcDbLine
 62
7
  6
CONTINUOUS
 10
105.3530091556
 20
194.4492816504
 11
105.5643484166
 21
194.4647343395
  0
LINE
  5
45B
100
AcDbEntity
  8
KONSTRUKTIONSELEMENTE
100
AcDbLine
 62
7
  6
CONTINUOUS
 10
113.9890276484
 20
193.0865953492
 11
114.3122666263
 21
193.0978773357
  0
LINE
  5
45C
100
AcDbEntity
  8
KONSTRUKTIONSELEMENTE
100
AcDbLine
 62
7
  6
CONTINUOUS
 10
114.2974233549
 20
193.5231503015
 11
113.9741843771
 21
193.511868315
  0
LINE
  5
45D
100
AcDbEntity
  8
KONSTRUKTIONSELEMENTE
100
AcDbLine
 62
7
  6
CONTINUOUS
 10
119.425062965
 20
192.9996164759
 11
119.0906949185
 21
192.9923513623
  0
LINE
  5
45E
100
AcDbEntity
  8
KONSTRUKTIONSELEMENTE
100
AcDbLine
 62
7
  6
CONTINUOUS
 10
126.4141101751
 20
191.2680747614
 11
126.5689338356
 21
191.2647959604
  0
LINE
  5
45F
100
AcDbEntity
  8
KONSTRUKTIONSELEMENTE
100
AcDbLine
 62
7
  6
CONTINUOUS
 10
115.8640141577
 20
193.067803048
 11
116.1866251633
 21
193.0447193077
  0
LINE
  5
460
100
AcDbEntity
  8
KONSTRUKTIONSELEMENTE
100
AcDbLine
 62
7
  6
CONTINUOUS
 10
116.2815183354
 20
193.4645492846
 11
115.8298617461
 21
193.4968666055
  0
LINE
  5
461
100
AcDbEntity
  8
KONSTRUKTIONSELEMENTE
100
AcDbLine
 62
7
  6
CONTINUOUS
 10
115.951343263
 20
195.1946536146
 11
116.4029998522
 21
195.1623362938
  0
LINE
  5
462
100
AcDbEntity
  8
KONSTRUKTIONSELEMENTE
100
AcDbLine
 62
7
  6
CONTINUOUS
 10
116.3688474364
 20
195.5913997918
 11
116.0462364308
 21
195.614483532
  0
LINE
  5
463
100
AcDbEntity
  8
KONSTRUKTIONSELEMENTE
100
AcDbLine
 62
7
  6
CONTINUOUS
 10
111.9188284568
 20
192.9598317398
 11
112.3150667297
 21
192.9301969026
  0
LINE
  5
464
100
AcDbEntity
  8
KONSTRUKTIONSELEMENTE
100
AcDbLine
 62
7
  6
CONTINUOUS
 10
112.2551774359
 20
193.351493343
 11
111.9229823222
 21
193.3902322124
  0
LINE
  5
465
100
AcDbEntity
  8
KONSTRUKTIONSELEMENTE
100
AcDbLine
 62
7
  6
CONTINUOUS
 10
111.8119966652
 20
196.4690869778
 11
112.1441917789
 21
196.4303481084
  0
LINE
  5
466
100
AcDbEntity
  8
KONSTRUKTIONSELEMENTE
100
AcDbLine
 62
7
  6
CONTINUOUS
 10
125.4337323136
 20
190.1865138026
 11
125.2256317033
 21
190.2264788474
  0
LINE
  5
467
100
AcDbEntity
  8
KONSTRUKTIONSELEMENTE
100
AcDbLine
 62
7
  6
CONTINUOUS
 10
126.4473461741
 20
191.6585166363
 11
126.2392455637
 21
191.698481681
  0
LINE
  5
468
100
AcDbEntity
  8
KONSTRUKTIONSELEMENTE
100
AcDbLine
 62
7
  6
CONTINUOUS
 10
118.5510717831
 20
192.6842587902
 11
119.0542763488
 21
192.5634742105
  0
LINE
  5
469
100
AcDbEntity
  8
KONSTRUKTIONSELEMENTE
100
AcDbLine
 62
7
  6
CONTINUOUS
 10
119.0906949185
 20
192.9923513623
 11
118.7132911342
 21
193.0829398835
  0
LINE
  5
46A
100
AcDbEntity
  8
KONSTRUKTIONSELEMENTE
100
AcDbLine
 62
7
  6
CONTINUOUS
 10
118.2034694005
 20
193.7304552499
 11
117.8889652872
 21
193.8059459146
  0
LINE
  5
46B
100
AcDbEntity
  8
KONSTRUKTIONSELEMENTE
100
AcDbLine
 62
7
  6
CONTINUOUS
 10
119.113879152
 20
194.4746900875
 11
119.3654821547
 21
194.4142976248
  0
LINE
  5
46C
100
AcDbEntity
  8
KONSTRUKTIONSELEMENTE
100
AcDbLine
 62
7
  6
CONTINUOUS
 10
119.4449378878
 20
194.7453207382
 11
119.1933348851
 21
194.8057132009
  0
LINE
  5
46D
100
AcDbEntity
  8
KONSTRUKTIONSELEMENTE
100
AcDbLine
 62
7
  6
CONTINUOUS
 10
118.4484648128
 20
195.8597425194
 11
118.7629674864
 21
195.7842522002
  0
LINE
  5
46E
100
AcDbEntity
  8
KONSTRUKTIONSELEMENTE
100
AcDbLine
 62
7
  6
CONTINUOUS
 10
119.5111578729
 20
196.1298058865
 11
119.7627608756
 21
196.0694134239
  0
LINE
  5
46F
100
AcDbEntity
  8
KONSTRUKTIONSELEMENTE
100
AcDbLine
 62
7
  6
CONTINUOUS
 10
116.6853843668
 20
195.48342671
 11
116.3688474364
 21
195.5913997918
  0
LINE
  5
470
100
AcDbEntity
  8
KONSTRUKTIONSELEMENTE
100
AcDbLine
 62
7
  6
CONTINUOUS
 10
116.7241223473
 20
196.9311624386
 11
116.4075839401
 21
197.0391356261
  0
LINE
  5
471
100
AcDbEntity
  8
KONSTRUKTIONSELEMENTE
100
AcDbLine
 62
7
  6
CONTINUOUS
 10
121.3006572468
 20
194.3842630061
 11
121.7817489874
 21
194.1935944801
  0
LINE
  5
472
100
AcDbEntity
  8
KONSTRUKTIONSELEMENTE
100
AcDbLine
 62
7
  6
CONTINUOUS
 10
122.0824311532
 20
194.0744267196
 11
122.743933845
 21
193.8122568826
  0
LINE
  5
473
100
AcDbEntity
  8
KONSTRUKTIONSELEMENTE
100
AcDbLine
 62
7
  6
CONTINUOUS
 10
122.8693613419
 20
194.1287335139
 11
122.2078586501
 21
194.3909033509
  0
LINE
  5
474
100
AcDbEntity
  8
KONSTRUKTIONSELEMENTE
100
AcDbLine
 62
7
  6
CONTINUOUS
 10
121.9071764843
 20
194.5100711115
 11
121.4260847437
 21
194.7007396375
  0
LINE
  5
475
100
AcDbEntity
  8
KONSTRUKTIONSELEMENTE
100
AcDbLine
 62
7
  6
CONTINUOUS
 10
122.4587137318
 20
195.0238568352
 11
122.158031566
 21
195.1430245957
  0
LINE
  5
476
100
AcDbEntity
  8
KONSTRUKTIONSELEMENTE
100
AcDbLine
 62
7
  6
CONTINUOUS
 10
120.2196203929
 20
196.3098480161
 11
119.7991794313
 21
196.4982905177
  0
LINE
  5
477
100
AcDbEntity
  8
KONSTRUKTIONSELEMENTE
100
AcDbLine
 62
7
  6
CONTINUOUS
 10
119.176791266
 20
196.1225404273
 11
119.5111578729
 21
196.1298058865
  0
LINE
  5
478
100
AcDbEntity
  8
KONSTRUKTIONSELEMENTE
100
AcDbLine
 62
7
  6
CONTINUOUS
 10
119.6733786498
 20
196.5284865763
 11
119.2132098217
 21
196.5514175212
  0
LINE
  5
479
100
AcDbEntity
  8
KONSTRUKTIONSELEMENTE
100
AcDbLine
 62
7
  6
CONTINUOUS
 10
116.921469809
 20
196.0638020733
 11
117.2440822914
 21
196.0407182274
  0
LINE
  5
47A
100
AcDbEntity
  8
KONSTRUKTIONSELEMENTE
100
AcDbLine
 62
7
  6
CONTINUOUS
 10
116.0546025585
 20
196.6377726587
 11
116.4417363559
 21
196.6100721281
  0
LINE
  5
47B
100
AcDbEntity
  8
KONSTRUKTIONSELEMENTE
100
AcDbLine
 62
7
  6
CONTINUOUS
 10
116.4075839401
 20
197.0391356261
 11
116.1494957263
 21
197.057602576
  0
LINE
  5
47C
100
AcDbEntity
  8
KONSTRUKTIONSELEMENTE
100
AcDbLine
 62
7
  6
CONTINUOUS
 10
112.1483456517
 20
196.8607485294
 11
111.7521073798
 21
196.8903833592
  0
LINE
  5
47D
100
AcDbEntity
  8
KONSTRUKTIONSELEMENTE
100
AcDbLine
 62
7
  6
CONTINUOUS
 10
119.7991794313
 20
196.4982905177
 11
119.6733786498
 21
196.5284865763
  0
LINE
  5
47E
100
AcDbEntity
  8
FASEN
100
AcDbLine
 62
7
  6
CONTINUOUS
 10
187.7992718863
 20
66.7627878999
 11
176.7995468076
 21
66.7627878999
  0
LINE
  5
47F
100
AcDbEntity
  8
FASEN
100
AcDbLine
 62
7
  6
CONTINUOUS
 10
188.2994093469
 20
67.2627878999
 11
176.2994093469
 21
67.2627878999
  0
LINE
  5
480
100
AcDbEntity
  8
FASEN
100
AcDbLine
 62
7
  6
CONTINUOUS
 10
176.7994093469
 20
66.7627878999
 11
176.2994093469
 21
67.2627878999
  0
LINE
  5
481
100
AcDbEntity
  8
KONSTRUKTIONSELEMENTE
100
AcDbLine
 62
7
  6
CONTINUOUS
 10
164.2994093469
 20
84.7627878999
 11
200.2994093469
 21
84.7627878999
  0
LINE
  5
482
100
AcDbEntity
  8
0
100
AcDbLine
 62
7
  6
CONTINUOUS
 10
166.8058768556
 20
85.7627878999
 11
179.7962579123
 21
85.7627878999
  0
LINE
  5
483
100
AcDbEntity
  8
0
100
AcDbLine
 62
7
  6
CONTINUOUS
 10
187.5321988405
 20
86.9127878999
 11
187.9652115424
 21
86.9127878999
  0
LINE
  5
484
100
AcDbEntity
  8
0
100
AcDbLine
 62
7
  6
CONTINUOUS
 10
188.975574479
 20
86.9127878999
 11
189.5529247138
 21
86.9127878999
  0
LINE
  5
485
100
AcDbEntity
  8
0
100
AcDbLine
 62
7
  6
CONTINUOUS
 10
190.5632877537
 20
86.9127878999
 11
190.9963004556
 21
86.9127878999
  0
LINE
  5
486
100
AcDbEntity
  8
0
100
AcDbLine
 62
7
  6
CONTINUOUS
 10
192.006663289
 20
86.9127878999
 11
192.4396759909
 21
86.9127878999
  0
LINE
  5
487
100
AcDbEntity
  8
0
100
AcDbLine
 62
7
  6
CONTINUOUS
 10
193.0170265354
 20
86.9127878999
 11
195.6151023338
 21
86.9127878999
  0
LINE
  5
488
100
AcDbEntity
  8
0
100
AcDbLine
 62
7
  6
CONTINUOUS
 10
169.148475547
 20
87.0127878999
 11
169.8314883005
 21
87.0127878999
  0
LINE
  5
489
100
AcDbEntity
  8
0
100
AcDbLine
 62
7
  6
CONTINUOUS
 10
171.2594123913
 20
87.0127878999
 11
171.9424252997
 21
87.0127878999
  0
LINE
  5
48A
100
AcDbEntity
  8
0
100
AcDbLine
 62
7
  6
CONTINUOUS
 10
172.558450497
 20
87.0127878999
 11
173.2414634053
 21
87.0127878999
  0
LINE
  5
48B
100
AcDbEntity
  8
0
100
AcDbLine
 62
7
  6
CONTINUOUS
 10
174.6152607277
 20
87.0127878999
 11
175.2982736361
 21
87.0127878999
  0
LINE
  5
48C
100
AcDbEntity
  8
0
100
AcDbLine
 62
7
  6
CONTINUOUS
 10
177.1050841766
 20
87.0127878999
 11
177.6257167023
 21
87.0127878999
  0
LINE
  5
48D
100
AcDbEntity
  8
0
100
AcDbLine
 62
7
  6
CONTINUOUS
 10
177.8963498474
 20
87.0766176852
 11
177.6463498474
 21
87.0766176852
  0
LINE
  5
48E
100
AcDbEntity
  8
0
100
AcDbLine
 62
7
  6
CONTINUOUS
 10
175.5147797806
 20
87.0766176852
 11
175.2647797806
 21
87.0766176852
  0
LINE
  5
48F
100
AcDbEntity
  8
0
100
AcDbLine
 62
7
  6
CONTINUOUS
 10
170.1021212134
 20
87.0766176852
 11
169.8521212134
 21
87.0766176852
  0
LINE
  5
490
100
AcDbEntity
  8
0
100
AcDbLine
 62
7
  6
CONTINUOUS
 10
175.7312865445
 20
87.2042772612
 11
175.4812865445
 21
87.2042772612
  0
LINE
  5
491
100
AcDbEntity
  8
0
100
AcDbLine
 62
7
  6
CONTINUOUS
 10
170.3186275127
 20
87.2042772612
 11
170.0686275127
 21
87.2042772612
  0
LINE
  5
492
100
AcDbEntity
  8
0
100
AcDbLine
 62
7
  6
CONTINUOUS
 10
178.1669829926
 20
87.2681070408
 11
177.9169829926
 21
87.2681070408
  0
LINE
  5
493
100
AcDbEntity
  8
0
100
AcDbLine
 62
7
  6
CONTINUOUS
 10
177.429843703
 20
87.3319368428
 11
177.0509571759
 21
87.3319368428
  0
LINE
  5
494
100
AcDbEntity
  8
0
100
AcDbLine
 62
7
  6
CONTINUOUS
 10
175.8936663077
 20
87.3319368428
 11
175.6436663077
 21
87.3319368428
  0
LINE
  5
495
100
AcDbEntity
  8
0
100
AcDbLine
 62
7
  6
CONTINUOUS
 10
174.9941472548
 20
87.3319368428
 11
174.6693877284
 21
87.3319368428
  0
LINE
  5
496
100
AcDbEntity
  8
0
100
AcDbLine
 62
7
  6
CONTINUOUS
 10
195.6151023338
 20
87.3383198237
 11
193.344376667
 21
87.3383198237
  0
LINE
  5
497
100
AcDbEntity
  8
0
100
AcDbLine
 62
7
  6
CONTINUOUS
 10
189.264249648
 20
87.3383198237
 11
189.014249648
 21
87.3383198237
  0
LINE
  5
498
100
AcDbEntity
  8
0
100
AcDbLine
 62
7
  6
CONTINUOUS
 10
177.1385774127
 20
87.3957666224
 11
176.8885774127
 21
87.3957666224
  0
LINE
  5
499
100
AcDbEntity
  8
0
100
AcDbLine
 62
7
  6
CONTINUOUS
 10
174.6487545833
 20
87.3957666224
 11
174.3987545833
 21
87.3957666224
  0
LINE
  5
49A
100
AcDbEntity
  8
0
100
AcDbLine
 62
7
  6
CONTINUOUS
 10
169.5814883005
 20
87.3957666224
 11
169.148475547
 21
87.3957666224
  0
LINE
  5
49B
100
AcDbEntity
  8
0
100
AcDbLine
 62
7
  6
CONTINUOUS
 10
174.5405012013
 20
87.459596402
 11
174.2905012013
 21
87.459596402
  0
LINE
  5
49C
100
AcDbEntity
  8
0
100
AcDbLine
 62
7
  6
CONTINUOUS
 10
170.5351339669
 20
87.459596402
 11
170.2851339669
 21
87.459596402
  0
LINE
  5
49D
100
AcDbEntity
  8
0
100
AcDbLine
 62
7
  6
CONTINUOUS
 10
169.181969209
 20
87.459596402
 11
168.931969209
 21
87.459596402
  0
LINE
  5
49E
100
AcDbEntity
  8
0
100
AcDbLine
 62
7
  6
CONTINUOUS
 10
178.3293627558
 20
87.5234261816
 11
178.0793627558
 21
87.5234261816
  0
LINE
  5
49F
100
AcDbEntity
  8
0
100
AcDbLine
 62
7
  6
CONTINUOUS
 10
176.9761976495
 20
87.5234261816
 11
176.7261976495
 21
87.5234261816
  0
LINE
  5
4A0
100
AcDbEntity
  8
0
100
AcDbLine
 62
7
  6
CONTINUOUS
 10
176.0019190702
 20
87.5234261816
 11
175.7519190702
 21
87.5234261816
  0
LINE
  5
4A1
100
AcDbEntity
  8
0
100
AcDbLine
 62
7
  6
CONTINUOUS
 10
174.4322484388
 20
87.587256006
 11
174.1822484388
 21
87.587256006
  0
LINE
  5
4A2
100
AcDbEntity
  8
0
100
AcDbLine
 62
7
  6
CONTINUOUS
 10
169.0195894458
 20
87.6510857856
 11
168.7695894458
 21
87.6510857856
  0
LINE
  5
4A3
100
AcDbEntity
  8
0
100
AcDbLine
 62
7
  6
CONTINUOUS
 10
176.8679448869
 20
87.7149155652
 11
176.6179448869
 21
87.7149155652
  0
LINE
  5
4A4
100
AcDbEntity
  8
0
100
AcDbLine
 62
7
  6
CONTINUOUS
 10
176.0560460709
 20
87.7149155652
 11
175.8060460709
 21
87.7149155652
  0
LINE
  5
4A5
100
AcDbEntity
  8
0
100
AcDbLine
 62
7
  6
CONTINUOUS
 10
174.3781214381
 20
87.7149155652
 11
173.8574889124
 21
87.7149155652
  0
LINE
  5
4A6
100
AcDbEntity
  8
0
100
AcDbLine
 62
7
  6
CONTINUOUS
 10
170.6433870391
 20
87.7149155652
 11
170.3933870391
 21
87.7149155652
  0
LINE
  5
4A7
100
AcDbEntity
  8
0
100
AcDbLine
 62
7
  6
CONTINUOUS
 10
178.4376155183
 20
87.8425751245
 11
178.1876155183
 21
87.8425751245
  0
LINE
  5
4A8
100
AcDbEntity
  8
0
100
AcDbLine
 62
7
  6
CONTINUOUS
 10
168.9654628709
 20
87.8425751245
 11
168.3907033445
 21
87.8425751245
  0
LINE
  5
4A9
100
AcDbEntity
  8
0
100
AcDbLine
 62
7
  6
CONTINUOUS
 10
176.8138178862
 20
87.9064049041
 11
176.5638178862
 21
87.9064049041
  0
LINE
  5
4AA
100
AcDbEntity
  8
0
100
AcDbLine
 62
7
  6
CONTINUOUS
 10
174.9400202541
 20
88.4170432305
 11
175.2647797806
 21
88.3532134509
  0
LINE
  5
4AB
100
AcDbEntity
  8
0
100
AcDbLine
 62
7
  6
CONTINUOUS
 10
168.8778426341
 20
87.0766176852
 11
169.148475547
 21
87.0127878999
  0
LINE
  5
4AC
100
AcDbEntity
  8
0
100
AcDbLine
 62
7
  6
CONTINUOUS
 10
174.6693877284
 20
87.3319368428
 11
174.3987545833
 21
87.3957666224
  0
LINE
  5
4AD
100
AcDbEntity
  8
0
100
AcDbLine
 62
7
  6
CONTINUOUS
 10
174.9193877284
 20
87.3319368428
 11
174.6487545833
 21
87.3957666224
  0
LINE
  5
4AE
100
AcDbEntity
  8
0
100
AcDbLine
 62
7
  6
CONTINUOUS
 10
169.8521212134
 20
88.672362349
 11
169.5814883005
 21
88.7361921286
  0
LINE
  5
4AF
100
AcDbEntity
  8
0
100
AcDbLine
 62
7
  6
CONTINUOUS
 10
176.8344510314
 20
87.0766176852
 11
177.1050841766
 21
87.0127878999
  0
LINE
  5
4B0
100
AcDbEntity
  8
0
100
AcDbLine
 62
7
  6
CONTINUOUS
 10
170.1021212134
 20
88.672362349
 11
169.8314883005
 21
88.7361921286
  0
LINE
  5
4B1
100
AcDbEntity
  8
0
100
AcDbLine
 62
7
  6
CONTINUOUS
 10
169.148475547
 20
87.3957666224
 11
168.931969209
 21
87.459596402
  0
LINE
  5
4B2
100
AcDbEntity
  8
0
100
AcDbLine
 62
7
  6
CONTINUOUS
 10
169.398475547
 20
87.3957666224
 11
169.181969209
 21
87.459596402
  0
LINE
  5
4B3
100
AcDbEntity
  8
0
100
AcDbLine
 62
7
  6
CONTINUOUS
 10
169.0402223973
 20
88.4170432305
 11
169.2567287741
 21
88.3532134509
  0
LINE
  5
4B4
100
AcDbEntity
  8
0
100
AcDbLine
 62
7
  6
CONTINUOUS
 10
169.5814883005
 20
88.3532134509
 11
169.7979946773
 21
88.2893836713
  0
LINE
  5
4B5
100
AcDbEntity
  8
0
100
AcDbLine
 62
7
  6
CONTINUOUS
 10
174.3987545833
 20
87.0766176852
 11
174.6152607277
 21
87.0127878999
  0
LINE
  5
4B6
100
AcDbEntity
  8
0
100
AcDbLine
 62
7
  6
CONTINUOUS
 10
169.2567287741
 20
88.7361921286
 11
169.0943490109
 21
88.8000219083
  0
LINE
  5
4B7
100
AcDbEntity
  8
0
100
AcDbLine
 62
7
  6
CONTINUOUS
 10
169.5067287741
 20
88.7361921286
 11
169.3443490109
 21
88.8000219083
  0
LINE
  5
4B8
100
AcDbEntity
  8
0
100
AcDbLine
 62
7
  6
CONTINUOUS
 10
168.8237160593
 20
88.5447027898
 11
169.0402223973
 21
88.4170432305
  0
LINE
  5
4B9
100
AcDbEntity
  8
0
100
AcDbLine
 62
7
  6
CONTINUOUS
 10
168.6072097019
 20
87.2681070408
 11
168.8778426341
 21
87.0766176852
  0
LINE
  5
4BA
100
AcDbEntity
  8
0
100
AcDbLine
 62
7
  6
CONTINUOUS
 10
193.8108830179
 20
90.4021496629
 11
194.1717267985
 21
90.4872560358
  0
LINE
  5
4BB
100
AcDbEntity
  8
0
100
AcDbLine
 62
7
  6
CONTINUOUS
 10
193.5608830179
 20
90.4021496629
 11
193.9217267985
 21
90.4872560358
  0
LINE
  5
4BC
100
AcDbEntity
  8
0
100
AcDbLine
 62
7
  6
CONTINUOUS
 10
177.6257167023
 20
87.0127878999
 11
177.8963498474
 21
87.0766176852
  0
LINE
  5
4BD
100
AcDbEntity
  8
0
100
AcDbLine
 62
7
  6
CONTINUOUS
 10
177.3757167023
 20
87.0127878999
 11
177.6463498474
 21
87.0766176852
  0
LINE
  5
4BE
100
AcDbEntity
  8
0
100
AcDbLine
 62
7
  6
CONTINUOUS
 10
175.2647797806
 20
87.3957666224
 11
174.9941472548
 21
87.3319368428
  0
LINE
  5
4BF
100
AcDbEntity
  8
0
100
AcDbLine
 62
7
  6
CONTINUOUS
 10
169.8314883005
 20
87.0127878999
 11
170.1021212134
 21
87.0766176852
  0
LINE
  5
4C0
100
AcDbEntity
  8
0
100
AcDbLine
 62
7
  6
CONTINUOUS
 10
169.5814883005
 20
87.0127878999
 11
169.8521212134
 21
87.0766176852
  0
LINE
  5
4C1
100
AcDbEntity
  8
0
100
AcDbLine
 62
7
  6
CONTINUOUS
 10
177.1050841766
 20
88.9276814675
 11
176.8344510314
 21
88.8638516879
  0
LINE
  5
4C2
100
AcDbEntity
  8
0
100
AcDbLine
 62
7
  6
CONTINUOUS
 10
177.1050841766
 20
90.0127878999
 11
176.8344510314
 21
89.9489581203
  0
LINE
  5
4C3
100
AcDbEntity
  8
0
100
AcDbLine
 62
7
  6
CONTINUOUS
 10
194.2438957198
 20
90.9127878999
 11
193.7387140966
 21
90.8276815271
  0
LINE
  5
4C4
100
AcDbEntity
  8
0
100
AcDbLine
 62
7
  6
CONTINUOUS
 10
174.7776404909
 20
90.0127878999
 11
174.3987545833
 21
89.9489581203
  0
LINE
  5
4C5
100
AcDbEntity
  8
0
100
AcDbLine
 62
7
  6
CONTINUOUS
 10
176.0560460709
 20
87.9702346837
 11
175.8060460709
 21
87.9702346837
  0
LINE
  5
4C6
100
AcDbEntity
  8
0
100
AcDbLine
 62
7
  6
CONTINUOUS
 10
170.6433870391
 20
88.0340644633
 11
170.3933870391
 21
88.0340644633
  0
LINE
  5
4C7
100
AcDbEntity
  8
0
100
AcDbLine
 62
7
  6
CONTINUOUS
 10
176.8138178862
 20
88.097894243
 11
176.5638178862
 21
88.097894243
  0
LINE
  5
4C8
100
AcDbEntity
  8
0
100
AcDbLine
 62
7
  6
CONTINUOUS
 10
178.4376155183
 20
88.161724112
 11
178.1876155183
 21
88.161724112
  0
LINE
  5
4C9
100
AcDbEntity
  8
0
100
AcDbLine
 62
7
  6
CONTINUOUS
 10
176.0019190702
 20
88.2255538916
 11
175.7519190702
 21
88.2255538916
  0
LINE
  5
4CA
100
AcDbEntity
  8
0
100
AcDbLine
 62
7
  6
CONTINUOUS
 10
176.8679448869
 20
88.2893836713
 11
176.6179448869
 21
88.2893836713
  0
LINE
  5
4CB
100
AcDbEntity
  8
0
100
AcDbLine
 62
7
  6
CONTINUOUS
 10
170.5351339669
 20
88.2893836713
 11
170.2851339669
 21
88.2893836713
  0
LINE
  5
4CC
100
AcDbEntity
  8
0
100
AcDbLine
 62
7
  6
CONTINUOUS
 10
169.2567287741
 20
88.3532134509
 11
169.5814883005
 21
88.3532134509
  0
LINE
  5
4CD
100
AcDbEntity
  8
0
100
AcDbLine
 62
7
  6
CONTINUOUS
 10
176.9761976495
 20
88.4170432305
 11
176.7261976495
 21
88.4170432305
  0
LINE
  5
4CE
100
AcDbEntity
  8
0
100
AcDbLine
 62
7
  6
CONTINUOUS
 10
175.8936663077
 20
88.4170432305
 11
175.6436663077
 21
88.4170432305
  0
LINE
  5
4CF
100
AcDbEntity
  8
0
100
AcDbLine
 62
7
  6
CONTINUOUS
 10
174.7235141097
 20
88.4170432305
 11
174.9400202541
 21
88.4170432305
  0
LINE
  5
4D0
100
AcDbEntity
  8
0
100
AcDbLine
 62
7
  6
CONTINUOUS
 10
178.3293627558
 20
88.4808730101
 11
178.0793627558
 21
88.4808730101
  0
LINE
  5
4D1
100
AcDbEntity
  8
0
100
AcDbLine
 62
7
  6
CONTINUOUS
 10
177.1385774127
 20
88.5447027898
 11
176.8885774127
 21
88.5447027898
  0
LINE
  5
4D2
100
AcDbEntity
  8
0
100
AcDbLine
 62
7
  6
CONTINUOUS
 10
175.6230331625
 20
88.5447027898
 11
175.3730331625
 21
88.5447027898
  0
LINE
  5
4D3
100
AcDbEntity
  8
0
100
AcDbLine
 62
7
  6
CONTINUOUS
 10
170.3186275127
 20
88.5447027898
 11
170.0686275127
 21
88.5447027898
  0
LINE
  5
4D4
100
AcDbEntity
  8
0
100
AcDbLine
 62
7
  6
CONTINUOUS
 10
177.0509571759
 20
88.6085325694
 11
177.429843703
 21
88.6085325694
  0
LINE
  5
4D5
100
AcDbEntity
  8
0
100
AcDbLine
 62
7
  6
CONTINUOUS
 10
178.1669829926
 20
88.672362349
 11
177.9169829926
 21
88.672362349
  0
LINE
  5
4D6
100
AcDbEntity
  8
0
100
AcDbLine
 62
7
  6
CONTINUOUS
 10
174.9400202541
 20
88.672362349
 11
174.7235141097
 21
88.672362349
  0
LINE
  5
4D7
100
AcDbEntity
  8
0
100
AcDbLine
 62
7
  6
CONTINUOUS
 10
170.1021212134
 20
88.672362349
 11
169.8521212134
 21
88.672362349
  0
LINE
  5
4D8
100
AcDbEntity
  8
0
100
AcDbLine
 62
7
  6
CONTINUOUS
 10
176.6720712682
 20
88.7361921286
 11
176.509691505
 21
88.7361921286
  0
LINE
  5
4D9
100
AcDbEntity
  8
0
100
AcDbLine
 62
7
  6
CONTINUOUS
 10
175.839539307
 20
88.7361921286
 11
175.589539307
 21
88.7361921286
  0
LINE
  5
4DA
100
AcDbEntity
  8
0
100
AcDbLine
 62
7
  6
CONTINUOUS
 10
169.8314883005
 20
88.7361921286
 11
169.2567287741
 21
88.7361921286
  0
LINE
  5
4DB
100
AcDbEntity
  8
0
100
AcDbLine
 62
7
  6
CONTINUOUS
 10
169.3443490109
 20
88.8000219083
 11
169.0943490109
 21
88.8000219083
  0
LINE
  5
4DC
100
AcDbEntity
  8
0
100
AcDbLine
 62
7
  6
CONTINUOUS
 10
177.8963498474
 20
88.8638516879
 11
177.6463498474
 21
88.8638516879
  0
LINE
  5
4DD
100
AcDbEntity
  8
0
100
AcDbLine
 62
7
  6
CONTINUOUS
 10
177.6257167023
 20
88.9276814675
 11
177.1050841766
 21
88.9276814675
  0
LINE
  5
4DE
100
AcDbEntity
  8
0
100
AcDbLine
 62
7
  6
CONTINUOUS
 10
175.9477926889
 20
88.9276814675
 11
175.6977926889
 21
88.9276814675
  0
LINE
  5
4DF
100
AcDbEntity
  8
0
100
AcDbLine
 62
7
  6
CONTINUOUS
 10
169.181969209
 20
88.9276814675
 11
168.931969209
 21
88.9276814675
  0
LINE
  5
4E0
100
AcDbEntity
  8
0
100
AcDbLine
 62
7
  6
CONTINUOUS
 10
176.8138178862
 20
89.1191708064
 11
176.5638178862
 21
89.1191708064
  0
LINE
  5
4E1
100
AcDbEntity
  8
0
100
AcDbLine
 62
7
  6
CONTINUOUS
 10
169.1278426341
 20
89.1191708064
 11
168.8778426341
 21
89.1191708064
  0
LINE
  5
4E2
100
AcDbEntity
  8
0
100
AcDbLine
 62
7
  6
CONTINUOUS
 10
176.0019190702
 20
89.183000586
 11
175.7519190702
 21
89.183000586
  0
LINE
  5
4E3
100
AcDbEntity
  8
0
100
AcDbLine
 62
7
  6
CONTINUOUS
 10
195.3985959829
 20
89.2106602049
 11
195.1485959829
 21
89.2106602049
  0
LINE
  5
4E4
100
AcDbEntity
  8
0
100
AcDbLine
 62
7
  6
CONTINUOUS
 10
169.1278426341
 20
89.2468303656
 11
168.8778426341
 21
89.2468303656
  0
LINE
  5
4E5
100
AcDbEntity
  8
0
100
AcDbLine
 62
7
  6
CONTINUOUS
 10
176.8679448869
 20
89.3106603241
 11
176.6179448869
 21
89.3106603241
  0
LINE
  5
4E6
100
AcDbEntity
  8
0
100
AcDbLine
 62
7
  6
CONTINUOUS
 10
176.0019190702
 20
89.3106603241
 11
175.7519190702
 21
89.3106603241
  0
LINE
  5
4E7
100
AcDbEntity
  8
0
100
AcDbLine
 62
7
  6
CONTINUOUS
 10
169.9062477495
 20
89.3106603241
 11
170.4810072759
 21
89.3106603241
  0
LINE
  5
4E8
100
AcDbEntity
  8
0
100
AcDbLine
 62
7
  6
CONTINUOUS
 10
173.9116152936
 20
89.3106603241
 11
174.4322484388
 21
89.3106603241
  0
LINE
  5
4E9
100
AcDbEntity
  8
0
100
AcDbLine
 62
7
  6
CONTINUOUS
 10
177.8087296107
 20
89.3106603241
 11
178.3293627558
 21
89.3106603241
  0
LINE
  5
4EA
100
AcDbEntity
  8
0
100
AcDbLine
 62
7
  6
CONTINUOUS
 10
169.181969209
 20
89.4383198833
 11
168.931969209
 21
89.4383198833
  0
LINE
  5
4EB
100
AcDbEntity
  8
0
100
AcDbLine
 62
7
  6
CONTINUOUS
 10
195.5429338255
 20
89.4659793234
 11
195.2929338255
 21
89.4659793234
  0
LINE
  5
4EC
100
AcDbEntity
  8
0
100
AcDbLine
 62
7
  6
CONTINUOUS
 10
178.2752357551
 20
89.5021496629
 11
178.0252357551
 21
89.5021496629
  0
LINE
  5
4ED
100
AcDbEntity
  8
0
100
AcDbLine
 62
7
  6
CONTINUOUS
 10
176.9761976495
 20
89.5021496629
 11
176.7261976495
 21
89.5021496629
  0
LINE
  5
4EE
100
AcDbEntity
  8
0
100
AcDbLine
 62
7
  6
CONTINUOUS
 10
174.5405012013
 20
89.5021496629
 11
174.2905012013
 21
89.5021496629
  0
LINE
  5
4EF
100
AcDbEntity
  8
0
100
AcDbLine
 62
7
  6
CONTINUOUS
 10
170.4268807398
 20
89.5021496629
 11
170.1768807398
 21
89.5021496629
  0
LINE
  5
4F0
100
AcDbEntity
  8
0
100
AcDbLine
 62
7
  6
CONTINUOUS
 10
175.9477926889
 20
89.5659794426
 11
175.6977926889
 21
89.5659794426
  0
LINE
  5
4F1
100
AcDbEntity
  8
0
100
AcDbLine
 62
7
  6
CONTINUOUS
 10
169.3443490109
 20
89.5659794426
 11
169.0943490109
 21
89.5659794426
  0
LINE
  5
4F2
100
AcDbEntity
  8
0
100
AcDbLine
 62
7
  6
CONTINUOUS
 10
177.1385774127
 20
89.6298092222
 11
176.8885774127
 21
89.6298092222
  0
LINE
  5
4F3
100
AcDbEntity
  8
0
100
AcDbLine
 62
7
  6
CONTINUOUS
 10
174.7028809645
 20
89.6298092222
 11
174.4528809645
 21
89.6298092222
  0
LINE
  5
4F4
100
AcDbEntity
  8
0
100
AcDbLine
 62
7
  6
CONTINUOUS
 10
169.2567287741
 20
89.6298092222
 11
169.5814883005
 21
89.6298092222
  0
LINE
  5
4F5
100
AcDbEntity
  8
0
100
AcDbLine
 62
7
  6
CONTINUOUS
 10
174.7235141097
 20
89.6936390018
 11
174.9400202541
 21
89.6936390018
  0
LINE
  5
4F6
100
AcDbEntity
  8
0
100
AcDbLine
 62
7
  6
CONTINUOUS
 10
177.0509571759
 20
89.6936390018
 11
177.3757167023
 21
89.6936390018
  0
LINE
  5
4F7
100
AcDbEntity
  8
0
100
AcDbLine
 62
7
  6
CONTINUOUS
 10
178.1128559919
 20
89.7574687814
 11
177.8628559919
 21
89.7574687814
  0
LINE
  5
4F8
100
AcDbEntity
  8
0
100
AcDbLine
 62
7
  6
CONTINUOUS
 10
170.2645009766
 20
89.7574687814
 11
170.0145009766
 21
89.7574687814
  0
LINE
  5
4F9
100
AcDbEntity
  8
0
100
AcDbLine
 62
7
  6
CONTINUOUS
 10
195.6151023338
 20
89.8064048147
 11
195.3651023338
 21
89.8064048147
  0
LINE
  5
4FA
100
AcDbEntity
  8
0
100
AcDbLine
 62
7
  6
CONTINUOUS
 10
175.7312865445
 20
89.8212985611
 11
175.4812865445
 21
89.8212985611
  0
LINE
  5
4FB
100
AcDbEntity
  8
0
100
AcDbLine
 62
7
  6
CONTINUOUS
 10
177.8422234662
 20
89.9489581203
 11
177.5922234662
 21
89.9489581203
  0
LINE
  5
4FC
100
AcDbEntity
  8
0
100
AcDbLine
 62
7
  6
CONTINUOUS
 10
175.5147797806
 20
89.9489581203
 11
175.2647797806
 21
89.9489581203
  0
LINE
  5
4FD
100
AcDbEntity
  8
0
100
AcDbLine
 62
7
  6
CONTINUOUS
 10
170.0479946773
 20
89.9489581203
 11
169.7979946773
 21
89.9489581203
  0
LINE
  5
4FE
100
AcDbEntity
  8
0
100
AcDbLine
 62
7
  6
CONTINUOUS
 10
195.6151023338
 20
89.9766177988
 11
195.3651023338
 21
89.9766177988
  0
LINE
  5
4FF
100
AcDbEntity
  8
0
100
AcDbLine
 62
7
  6
CONTINUOUS
 10
193.0891950438
 20
89.9766177988
 11
193.4500392373
 21
89.9766177988
  0
LINE
  5
500
100
AcDbEntity
  8
0
100
AcDbLine
 62
7
  6
CONTINUOUS
 10
177.571590321
 20
90.0127878999
 11
177.1050841766
 21
90.0127878999
  0
LINE
  5
501
100
AcDbEntity
  8
0
100
AcDbLine
 62
7
  6
CONTINUOUS
 10
175.1358938729
 20
90.0127878999
 11
174.7776404909
 21
90.0127878999
  0
LINE
  5
502
100
AcDbEntity
  8
0
100
AcDbLine
 62
7
  6
CONTINUOUS
 10
173.674476004
 20
90.0127878999
 11
173.0997164776
 21
90.0127878999
  0
LINE
  5
503
100
AcDbEntity
  8
0
100
AcDbLine
 62
7
  6
CONTINUOUS
 10
172.5919443525
 20
90.0127878999
 11
171.9089314441
 21
90.0127878999
  0
LINE
  5
504
100
AcDbEntity
  8
0
100
AcDbLine
 62
7
  6
CONTINUOUS
 10
171.4011593191
 20
90.0127878999
 11
170.8263997926
 21
90.0127878999
  0
LINE
  5
505
100
AcDbEntity
  8
0
100
AcDbLine
 62
7
  6
CONTINUOUS
 10
169.777361687
 20
90.0127878999
 11
169.2567287741
 21
90.0127878999
  0
LINE
  5
506
100
AcDbEntity
  8
0
100
AcDbLine
 62
7
  6
CONTINUOUS
 10
190.5632877537
 20
90.0617241716
 11
190.3132877537
 21
90.0617241716
  0
LINE
  5
507
100
AcDbEntity
  8
0
100
AcDbLine
 62
7
  6
CONTINUOUS
 10
187.9652115424
 20
90.0617241716
 11
187.7152115424
 21
90.0617241716
  0
LINE
  5
508
100
AcDbEntity
  8
0
100
AcDbLine
 62
7
  6
CONTINUOUS
 10
193.594376667
 20
90.2319369173
 11
193.344376667
 21
90.2319369173
  0
LINE
  5
509
100
AcDbEntity
  8
0
100
AcDbLine
 62
7
  6
CONTINUOUS
 10
192.006663289
 20
90.2319369173
 11
191.756663289
 21
90.2319369173
  0
LINE
  5
50A
100
AcDbEntity
  8
0
100
AcDbLine
 62
7
  6
CONTINUOUS
 10
195.5429338255
 20
90.3170432901
 11
195.2929338255
 21
90.3170432901
  0
LINE
  5
50B
100
AcDbEntity
  8
0
100
AcDbLine
 62
7
  6
CONTINUOUS
 10
193.8108830179
 20
90.4021496629
 11
193.5608830179
 21
90.4021496629
  0
LINE
  5
50C
100
AcDbEntity
  8
0
100
AcDbLine
 62
7
  6
CONTINUOUS
 10
193.9217267985
 20
90.4872560358
 11
194.4604020708
 21
90.4872560358
  0
LINE
  5
50D
100
AcDbEntity
  8
0
100
AcDbLine
 62
7
  6
CONTINUOUS
 10
195.2542589662
 20
90.6574687814
 11
195.0042589662
 21
90.6574687814
  0
LINE
  5
50E
100
AcDbEntity
  8
0
100
AcDbLine
 62
7
  6
CONTINUOUS
 10
194.965583281
 20
90.8276815271
 11
194.715583281
 21
90.8276815271
  0
LINE
  5
50F
100
AcDbEntity
  8
0
100
AcDbLine
 62
7
  6
CONTINUOUS
 10
194.5325705791
 20
90.9127878999
 11
194.2438957198
 21
90.9127878999
  0
LINE
  5
510
100
AcDbEntity
  8
0
100
AcDbLine
 62
7
  6
CONTINUOUS
 10
192.4396759909
 20
90.9127878999
 11
192.006663289
 21
90.9127878999
  0
LINE
  5
511
100
AcDbEntity
  8
0
100
AcDbLine
 62
7
  6
CONTINUOUS
 10
190.9963004556
 20
90.9127878999
 11
190.3467814028
 21
90.9127878999
  0
LINE
  5
512
100
AcDbEntity
  8
0
100
AcDbLine
 62
7
  6
CONTINUOUS
 10
188.1817178933
 20
90.9127878999
 11
187.5321988405
 21
90.9127878999
  0
LINE
  5
513
100
AcDbEntity
  8
0
100
AcDbLine
 62
7
  6
CONTINUOUS
 10
179.7962579123
 20
91.7627878999
 11
166.8058768556
 21
91.7627878999
  0
LINE
  5
514
100
AcDbEntity
  8
0
100
AcDbLine
 62
7
  6
CONTINUOUS
 10
175.2647797806
 20
89.9489581203
 11
174.8858938729
 21
90.0127878999
  0
LINE
  5
515
100
AcDbEntity
  8
0
100
AcDbLine
 62
7
  6
CONTINUOUS
 10
175.5147797806
 20
89.9489581203
 11
175.1358938729
 21
90.0127878999
  0
LINE
  5
516
100
AcDbEntity
  8
0
100
AcDbLine
 62
7
  6
CONTINUOUS
 10
169.7979946773
 20
89.9489581203
 11
169.527361687
 21
90.0127878999
  0
LINE
  5
517
100
AcDbEntity
  8
0
100
AcDbLine
 62
7
  6
CONTINUOUS
 10
170.0479946773
 20
89.9489581203
 11
169.777361687
 21
90.0127878999
  0
LINE
  5
518
100
AcDbEntity
  8
0
100
AcDbLine
 62
7
  6
CONTINUOUS
 10
177.6463498474
 20
88.8638516879
 11
177.3757167023
 21
88.9276814675
  0
LINE
  5
519
100
AcDbEntity
  8
0
100
AcDbLine
 62
7
  6
CONTINUOUS
 10
177.8963498474
 20
88.8638516879
 11
177.6257167023
 21
88.9276814675
  0
LINE
  5
51A
100
AcDbEntity
  8
0
100
AcDbLine
 62
7
  6
CONTINUOUS
 10
174.9400202541
 20
89.6936390018
 11
175.2106533993
 21
89.6298092222
  0
LINE
  5
51B
100
AcDbEntity
  8
0
100
AcDbLine
 62
7
  6
CONTINUOUS
 10
177.5922234662
 20
89.9489581203
 11
177.321590321
 21
90.0127878999
  0
LINE
  5
51C
100
AcDbEntity
  8
0
100
AcDbLine
 62
7
  6
CONTINUOUS
 10
177.8422234662
 20
89.9489581203
 11
177.571590321
 21
90.0127878999
  0
LINE
  5
51D
100
AcDbEntity
  8
0
100
AcDbLine
 62
7
  6
CONTINUOUS
 10
169.5814883005
 20
89.6298092222
 11
169.7438679863
 21
89.5659794426
  0
LINE
  5
51E
100
AcDbEntity
  8
0
100
AcDbLine
 62
7
  6
CONTINUOUS
 10
177.0509571759
 20
87.3319368428
 11
176.8885774127
 21
87.3957666224
  0
LINE
  5
51F
100
AcDbEntity
  8
0
100
AcDbLine
 62
7
  6
CONTINUOUS
 10
177.3009571759
 20
87.3319368428
 11
177.1385774127
 21
87.3957666224
  0
LINE
  5
520
100
AcDbEntity
  8
0
100
AcDbLine
 62
7
  6
CONTINUOUS
 10
177.429843703
 20
88.6085325694
 11
177.5922234662
 21
88.5447027898
  0
LINE
  5
521
100
AcDbEntity
  8
0
100
AcDbLine
 62
7
  6
CONTINUOUS
 10
177.3757167023
 20
89.6936390018
 11
177.5380964655
 21
89.6298092222
  0
LINE
  5
522
100
AcDbEntity
  8
0
100
AcDbLine
 62
7
  6
CONTINUOUS
 10
175.6436663077
 20
88.4170432305
 11
175.3730331625
 21
88.5447027898
  0
LINE
  5
523
100
AcDbEntity
  8
0
100
AcDbLine
 62
7
  6
CONTINUOUS
 10
175.8936663077
 20
88.4170432305
 11
175.6230331625
 21
88.5447027898
  0
LINE
  5
524
100
AcDbEntity
  8
0
100
AcDbLine
 62
7
  6
CONTINUOUS
 10
170.0686275127
 20
88.5447027898
 11
169.8521212134
 21
88.672362349
  0
LINE
  5
525
100
AcDbEntity
  8
0
100
AcDbLine
 62
7
  6
CONTINUOUS
 10
170.3186275127
 20
88.5447027898
 11
170.1021212134
 21
88.672362349
  0
LINE
  5
526
100
AcDbEntity
  8
0
100
AcDbLine
 62
7
  6
CONTINUOUS
 10
174.1822484388
 20
87.2042772612
 11
174.3987545833
 21
87.0766176852
  0
LINE
  5
527
100
AcDbEntity
  8
0
100
AcDbLine
 62
7
  6
CONTINUOUS
 10
174.3987545833
 20
87.3957666224
 11
174.2905012013
 21
87.459596402
  0
LINE
  5
528
100
AcDbEntity
  8
0
100
AcDbLine
 62
7
  6
CONTINUOUS
 10
174.6487545833
 20
87.3957666224
 11
174.5405012013
 21
87.459596402
  0
LINE
  5
529
100
AcDbEntity
  8
0
100
AcDbLine
 62
7
  6
CONTINUOUS
 10
175.4812865445
 20
89.8212985611
 11
175.2647797806
 21
89.9489581203
  0
LINE
  5
52A
100
AcDbEntity
  8
0
100
AcDbLine
 62
7
  6
CONTINUOUS
 10
175.7312865445
 20
89.8212985611
 11
175.5147797806
 21
89.9489581203
  0
LINE
  5
52B
100
AcDbEntity
  8
0
100
AcDbLine
 62
7
  6
CONTINUOUS
 10
176.5638178862
 20
87.2681070408
 11
176.8344510314
 21
87.0766176852
  0
LINE
  5
52C
100
AcDbEntity
  8
0
100
AcDbLine
 62
7
  6
CONTINUOUS
 10
169.0943490109
 20
88.8000219083
 11
168.931969209
 21
88.9276814675
  0
LINE
  5
52D
100
AcDbEntity
  8
0
100
AcDbLine
 62
7
  6
CONTINUOUS
 10
169.7979946773
 20
88.2893836713
 11
169.9603744405
 21
88.161724112
  0
LINE
  5
52E
100
AcDbEntity
  8
0
100
AcDbLine
 62
7
  6
CONTINUOUS
 10
169.3443490109
 20
88.8000219083
 11
169.181969209
 21
88.9276814675
  0
LINE
  5
52F
100
AcDbEntity
  8
0
100
AcDbLine
 62
7
  6
CONTINUOUS
 10
174.0198686756
 20
87.3319368428
 11
174.1822484388
 21
87.2042772612
  0
LINE
  5
530
100
AcDbEntity
  8
0
100
AcDbLine
 62
7
  6
CONTINUOUS
 10
170.0145009766
 20
89.7574687814
 11
169.7979946773
 21
89.9489581203
  0
LINE
  5
531
100
AcDbEntity
  8
0
100
AcDbLine
 62
7
  6
CONTINUOUS
 10
189.7160753778
 20
95.2478942802
 11
189.3827433161
 21
95.1627878999
  0
LINE
  5
532
100
AcDbEntity
  8
0
100
AcDbLine
 62
7
  6
CONTINUOUS
 10
174.7028809645
 20
89.6298092222
 11
174.9417852327
 21
89.6861556345
  0
LINE
  5
533
100
AcDbEntity
  8
0
100
AcDbLine
 62
7
  6
CONTINUOUS
 10
174.4528809645
 20
89.6298092222
 11
174.7235141097
 21
89.6936390018
  0
LINE
  5
534
100
AcDbEntity
  8
0
100
AcDbLine
 62
7
  6
CONTINUOUS
 10
189.7160753778
 20
95.6734261965
 11
189.2994093469
 21
95.5883198237
  0
LINE
  5
535
100
AcDbEntity
  8
0
100
AcDbLine
 62
7
  6
CONTINUOUS
 10
186.0494093469
 20
95.2478942802
 11
185.6327433161
 21
95.1627878999
  0
LINE
  5
536
100
AcDbEntity
  8
0
100
AcDbLine
 62
7
  6
CONTINUOUS
 10
180.5494093469
 20
95.6734261965
 11
180.1327423624
 21
95.5883198237
  0
LINE
  5
537
100
AcDbEntity
  8
0
100
AcDbLine
 62
7
  6
CONTINUOUS
 10
180.6327423624
 20
95.2478942802
 11
180.1327423624
 21
95.1627878999
  0
LINE
  5
538
100
AcDbEntity
  8
KONSTRUKTIONSELEMENTE
100
AcDbLine
 62
7
  6
CONTINUOUS
 10
164.2994093469
 20
93.2627878999
 11
200.2994093469
 21
93.2627878999
  0
LINE
  5
539
100
AcDbEntity
  8
0
100
AcDbLine
 62
7
  6
CONTINUOUS
 10
182.7160763315
 20
94.6521496033
 11
182.2994093469
 21
94.6521496033
  0
LINE
  5
53A
100
AcDbEntity
  8
0
100
AcDbLine
 62
7
  6
CONTINUOUS
 10
189.3827433161
 20
95.1627878999
 11
188.7160753778
 21
95.1627878999
  0
LINE
  5
53B
100
AcDbEntity
  8
0
100
AcDbLine
 62
7
  6
CONTINUOUS
 10
185.6327433161
 20
95.1627878999
 11
185.2160763315
 21
95.1627878999
  0
LINE
  5
53C
100
AcDbEntity
  8
0
100
AcDbLine
 62
7
  6
CONTINUOUS
 10
173.5494093469
 20
95.1627878999
 11
173.0494093469
 21
95.1627878999
  0
LINE
  5
53D
100
AcDbEntity
  8
0
100
AcDbLine
 62
7
  6
CONTINUOUS
 10
169.7994093469
 20
95.1627878999
 11
169.2994093469
 21
95.1627878999
  0
LINE
  5
53E
100
AcDbEntity
  8
0
100
AcDbLine
 62
7
  6
CONTINUOUS
 10
189.2994093469
 20
95.5883198237
 11
188.7994093469
 21
95.5883198237
  0
LINE
  5
53F
100
AcDbEntity
  8
0
100
AcDbLine
 62
7
  6
CONTINUOUS
 10
185.7160753778
 20
95.5883198237
 11
185.1327423624
 21
95.5883198237
  0
LINE
  5
540
100
AcDbEntity
  8
0
100
AcDbLine
 62
7
  6
CONTINUOUS
 10
183.2160763315
 20
95.5883198237
 11
182.7994093469
 21
95.5883198237
  0
LINE
  5
541
100
AcDbEntity
  8
0
100
AcDbLine
 62
7
  6
CONTINUOUS
 10
187.9660753778
 20
96.0989581203
 11
187.5494093469
 21
96.0989581203
  0
LINE
  5
542
100
AcDbEntity
  8
0
100
AcDbLine
 62
7
  6
CONTINUOUS
 10
177.9660763315
 20
96.6095963573
 11
176.7994093469
 21
96.6095963573
  0
LINE
  5
543
100
AcDbEntity
  8
0
100
AcDbLine
 62
7
  6
CONTINUOUS
 10
175.0494093469
 20
96.9500219679
 11
173.5494093469
 21
96.9500219679
  0
LINE
  5
544
100
AcDbEntity
  8
0
100
AcDbLine
 62
7
  6
CONTINUOUS
 10
171.2994093469
 20
96.9500219679
 11
169.7994093469
 21
96.9500219679
  0
LINE
  5
545
100
AcDbEntity
  8
0
100
AcDbLine
 62
7
  6
CONTINUOUS
 10
189.2160753778
 20
97.0351283407
 11
188.8827433161
 21
97.0351283407
  0
LINE
  5
546
100
AcDbEntity
  8
0
100
AcDbLine
 62
7
  6
CONTINUOUS
 10
177.9660763315
 20
97.0351283407
 11
176.7994093469
 21
97.0351283407
  0
LINE
  5
547
100
AcDbEntity
  8
0
100
AcDbLine
 62
7
  6
CONTINUOUS
 10
180.1327423624
 20
95.1627878999
 11
179.6327423624
 21
95.2478942802
  0
LINE
  5
548
100
AcDbEntity
  8
0
100
AcDbLine
 62
7
  6
CONTINUOUS
 10
194.715583281
 20
90.8276815271
 11
194.2825705791
 21
90.9127878999
  0
LINE
  5
549
100
AcDbEntity
  8
0
100
AcDbLine
 62
7
  6
CONTINUOUS
 10
194.965583281
 20
90.8276815271
 11
194.5325705791
 21
90.9127878999
  0
LINE
  5
54A
100
AcDbEntity
  8
0
100
AcDbLine
 62
7
  6
CONTINUOUS
 10
180.1327423624
 20
95.5883198237
 11
179.7160763315
 21
95.6734261965
  0
LINE
  5
54B
100
AcDbEntity
  8
0
100
AcDbLine
 62
7
  6
CONTINUOUS
 10
185.2160763315
 20
95.1627878999
 11
184.7994093469
 21
95.2478942802
  0
LINE
  5
54C
100
AcDbEntity
  8
0
100
AcDbLine
 62
7
  6
CONTINUOUS
 10
194.4604020708
 20
90.4872560358
 11
194.8212462643
 21
90.4021496629
  0
LINE
  5
54D
100
AcDbEntity
  8
0
100
AcDbLine
 62
7
  6
CONTINUOUS
 10
171.6327426008
 20
98.6521496629
 11
171.3827426008
 21
98.7372560358
  0
LINE
  5
54E
100
AcDbEntity
  8
0
100
AcDbLine
 62
7
  6
CONTINUOUS
 10
177.9169829926
 20
88.672362349
 11
177.6463498474
 21
88.8638516879
  0
LINE
  5
54F
100
AcDbEntity
  8
0
100
AcDbLine
 62
7
  6
CONTINUOUS
 10
178.1669829926
 20
88.672362349
 11
177.8963498474
 21
88.8638516879
  0
LINE
  5
550
100
AcDbEntity
  8
0
100
AcDbLine
 62
7
  6
CONTINUOUS
 10
177.8628559919
 20
89.7574687814
 11
177.5922234662
 21
89.9489581203
  0
LINE
  5
551
100
AcDbEntity
  8
0
100
AcDbLine
 62
7
  6
CONTINUOUS
 10
178.1128559919
 20
89.7574687814
 11
177.8422234662
 21
89.9489581203
  0
LINE
  5
552
100
AcDbEntity
  8
0
100
AcDbLine
 62
7
  6
CONTINUOUS
 10
175.2647797806
 20
88.3532134509
 11
175.4271595438
 21
88.2255538916
  0
LINE
  5
553
100
AcDbEntity
  8
0
100
AcDbLine
 62
7
  6
CONTINUOUS
 10
176.8885774127
 20
87.3957666224
 11
176.7261976495
 21
87.5234261816
  0
LINE
  5
554
100
AcDbEntity
  8
0
100
AcDbLine
 62
7
  6
CONTINUOUS
 10
177.1385774127
 20
87.3957666224
 11
176.9761976495
 21
87.5234261816
  0
LINE
  5
555
100
AcDbEntity
  8
0
100
AcDbLine
 62
7
  6
CONTINUOUS
 10
175.2106533993
 20
89.6298092222
 11
175.3730331625
 21
89.5021496629
  0
LINE
  5
556
100
AcDbEntity
  8
0
100
AcDbLine
 62
7
  6
CONTINUOUS
 10
177.5922234662
 20
88.5447027898
 11
177.7546032294
 21
88.4170432305
  0
LINE
  5
557
100
AcDbEntity
  8
0
100
AcDbLine
 62
7
  6
CONTINUOUS
 10
177.5380964655
 20
89.6298092222
 11
177.7004762287
 21
89.5021496629
  0
LINE
  5
558
100
AcDbEntity
  8
0
100
AcDbLine
 62
7
  6
CONTINUOUS
 10
170.2645009766
 20
89.7574687814
 11
170.0479946773
 21
89.9489581203
  0
LINE
  5
559
100
AcDbEntity
  8
0
100
AcDbLine
 62
7
  6
CONTINUOUS
 10
168.931969209
 20
87.459596402
 11
168.7695894458
 21
87.6510857856
  0
LINE
  5
55A
100
AcDbEntity
  8
0
100
AcDbLine
 62
7
  6
CONTINUOUS
 10
169.181969209
 20
87.459596402
 11
169.0195894458
 21
87.6510857856
  0
LINE
  5
55B
100
AcDbEntity
  8
0
100
AcDbLine
 62
7
  6
CONTINUOUS
 10
168.6072097019
 20
88.8000219083
 11
168.8237160593
 21
88.5447027898
  0
LINE
  5
55C
100
AcDbEntity
  8
0
100
AcDbLine
 62
7
  6
CONTINUOUS
 10
170.2851339669
 20
88.2893836713
 11
170.0686275127
 21
88.5447027898
  0
LINE
  5
55D
100
AcDbEntity
  8
0
100
AcDbLine
 62
7
  6
CONTINUOUS
 10
170.5351339669
 20
88.2893836713
 11
170.3186275127
 21
88.5447027898
  0
LINE
  5
55E
100
AcDbEntity
  8
0
100
AcDbLine
 62
7
  6
CONTINUOUS
 10
169.7438679863
 20
89.5659794426
 11
169.8521212134
 21
89.4383198833
  0
LINE
  5
55F
100
AcDbEntity
  8
0
100
AcDbLine
 62
7
  6
CONTINUOUS
 10
187.1327423624
 20
101.7585325694
 11
186.7994093469
 21
101.6734261965
  0
LINE
  5
560
100
AcDbEntity
  8
0
100
AcDbLine
 62
7
  6
CONTINUOUS
 10
185.2160763315
 20
97.7159793234
 11
184.7994093469
 21
97.6308729505
  0
LINE
  5
561
100
AcDbEntity
  8
0
100
AcDbLine
 62
7
  6
CONTINUOUS
 10
188.8827433161
 20
98.7372560358
 11
188.4660753778
 21
98.6521496629
  0
LINE
  5
562
100
AcDbEntity
  8
0
100
AcDbLine
 62
7
  6
CONTINUOUS
 10
175.4660758547
 20
97.0351283407
 11
175.0494093469
 21
96.9500219679
  0
LINE
  5
563
100
AcDbEntity
  8
0
100
AcDbLine
 62
7
  6
CONTINUOUS
 10
185.2160763315
 20
99.1627878999
 11
184.7994093469
 21
99.0776815271
  0
LINE
  5
564
100
AcDbEntity
  8
0
100
AcDbLine
 62
7
  6
CONTINUOUS
 10
180.1327423624
 20
98.7372560358
 11
179.7160763315
 21
98.6521496629
  0
LINE
  5
565
100
AcDbEntity
  8
0
100
AcDbLine
 62
7
  6
CONTINUOUS
 10
171.7160760931
 20
97.0351283407
 11
171.2994093469
 21
96.9500219679
  0
LINE
  5
566
100
AcDbEntity
  8
0
100
AcDbLine
 62
7
  6
CONTINUOUS
 10
187.2160763315
 20
101.2478942802
 11
186.7994093469
 21
101.1627878999
  0
LINE
  5
567
100
AcDbEntity
  8
0
100
AcDbLine
 62
7
  6
CONTINUOUS
 10
180.1327423624
 20
99.1627878999
 11
179.6327423624
 21
99.0776815271
  0
LINE
  5
568
100
AcDbEntity
  8
0
100
AcDbLine
 62
7
  6
CONTINUOUS
 10
188.9660753778
 20
99.1627878999
 11
188.3827433161
 21
99.0776815271
  0
LINE
  5
569
100
AcDbEntity
  8
0
100
AcDbLine
 62
7
  6
CONTINUOUS
 10
185.7160753778
 20
97.2904474592
 11
185.1327423624
 21
97.2904474592
  0
LINE
  5
56A
100
AcDbEntity
  8
0
100
AcDbLine
 62
7
  6
CONTINUOUS
 10
189.2160753778
 20
97.375553832
 11
188.8827433161
 21
97.375553832
  0
LINE
  5
56B
100
AcDbEntity
  8
0
100
AcDbLine
 62
7
  6
CONTINUOUS
 10
175.1327428392
 20
97.4606602049
 11
173.5494093469
 21
97.4606602049
  0
LINE
  5
56C
100
AcDbEntity
  8
0
100
AcDbLine
 62
7
  6
CONTINUOUS
 10
171.3827426008
 20
97.4606602049
 11
169.7994093469
 21
97.4606602049
  0
LINE
  5
56D
100
AcDbEntity
  8
0
100
AcDbLine
 62
7
  6
CONTINUOUS
 10
193.2160753778
 20
97.5457665777
 11
192.2994093469
 21
97.5457665777
  0
LINE
  5
56E
100
AcDbEntity
  8
0
100
AcDbLine
 62
7
  6
CONTINUOUS
 10
191.8827433161
 20
97.5457665777
 11
191.2160753778
 21
97.5457665777
  0
LINE
  5
56F
100
AcDbEntity
  8
0
100
AcDbLine
 62
7
  6
CONTINUOUS
 10
185.6327433161
 20
97.7159793234
 11
185.2160763315
 21
97.7159793234
  0
LINE
  5
570
100
AcDbEntity
  8
0
100
AcDbLine
 62
7
  6
CONTINUOUS
 10
193.2160753778
 20
97.886192069
 11
192.2994093469
 21
97.886192069
  0
LINE
  5
571
100
AcDbEntity
  8
0
100
AcDbLine
 62
7
  6
CONTINUOUS
 10
191.8827433161
 20
97.886192069
 11
191.2160753778
 21
97.886192069
  0
LINE
  5
572
100
AcDbEntity
  8
0
100
AcDbLine
 62
7
  6
CONTINUOUS
 10
188.0494093469
 20
98.2266177988
 11
187.6327433161
 21
98.2266177988
  0
LINE
  5
573
100
AcDbEntity
  8
0
100
AcDbLine
 62
7
  6
CONTINUOUS
 10
186.7160753778
 20
98.2266177988
 11
186.2994093469
 21
98.2266177988
  0
LINE
  5
574
100
AcDbEntity
  8
0
100
AcDbLine
 62
7
  6
CONTINUOUS
 10
192.2994093469
 20
98.5670432901
 11
191.8827433161
 21
98.5670432901
  0
LINE
  5
575
100
AcDbEntity
  8
0
100
AcDbLine
 62
7
  6
CONTINUOUS
 10
189.2160753778
 20
98.7372560358
 11
188.8827433161
 21
98.7372560358
  0
LINE
  5
576
100
AcDbEntity
  8
0
100
AcDbLine
 62
7
  6
CONTINUOUS
 10
185.6327433161
 20
98.7372560358
 11
185.1327423624
 21
98.7372560358
  0
LINE
  5
577
100
AcDbEntity
  8
0
100
AcDbLine
 62
7
  6
CONTINUOUS
 10
175.1327428392
 20
98.7372560358
 11
173.5494093469
 21
98.7372560358
  0
LINE
  5
578
100
AcDbEntity
  8
0
100
AcDbLine
 62
7
  6
CONTINUOUS
 10
171.3827426008
 20
98.7372560358
 11
169.7994093469
 21
98.7372560358
  0
LINE
  5
579
100
AcDbEntity
  8
0
100
AcDbLine
 62
7
  6
CONTINUOUS
 10
189.1327433161
 20
99.1627878999
 11
188.9660753778
 21
99.1627878999
  0
LINE
  5
57A
100
AcDbEntity
  8
0
100
AcDbLine
 62
7
  6
CONTINUOUS
 10
185.5494093469
 20
99.1627878999
 11
185.2160763315
 21
99.1627878999
  0
LINE
  5
57B
100
AcDbEntity
  8
0
100
AcDbLine
 62
7
  6
CONTINUOUS
 10
175.0494093469
 20
99.1627878999
 11
173.0494093469
 21
99.1627878999
  0
LINE
  5
57C
100
AcDbEntity
  8
0
100
AcDbLine
 62
7
  6
CONTINUOUS
 10
171.2994093469
 20
99.1627878999
 11
169.2994093469
 21
99.1627878999
  0
LINE
  5
57D
100
AcDbEntity
  8
0
100
AcDbLine
 62
7
  6
CONTINUOUS
 10
186.7994093469
 20
101.1627878999
 11
184.7994093469
 21
101.1627878999
  0
LINE
  5
57E
100
AcDbEntity
  8
0
100
AcDbLine
 62
7
  6
CONTINUOUS
 10
182.7994093469
 20
101.1627878999
 11
182.4660758547
 21
101.1627878999
  0
LINE
  5
57F
100
AcDbEntity
  8
0
100
AcDbLine
 62
7
  6
CONTINUOUS
 10
180.4660760931
 20
101.1627878999
 11
179.8827426008
 21
101.1627878999
  0
LINE
  5
580
100
AcDbEntity
  8
0
100
AcDbLine
 62
7
  6
CONTINUOUS
 10
177.7994093469
 20
101.1627878999
 11
177.2994093469
 21
101.1627878999
  0
LINE
  5
581
100
AcDbEntity
  8
0
100
AcDbLine
 62
7
  6
CONTINUOUS
 10
186.7994093469
 20
101.6734261965
 11
185.2994093469
 21
101.6734261965
  0
LINE
  5
582
100
AcDbEntity
  8
0
100
AcDbLine
 62
7
  6
CONTINUOUS
 10
182.7994093469
 20
101.6734261965
 11
182.4660758547
 21
101.6734261965
  0
LINE
  5
583
100
AcDbEntity
  8
0
100
AcDbLine
 62
7
  6
CONTINUOUS
 10
189.7160753778
 20
99.0776815271
 11
189.1327433161
 21
99.1627878999
  0
LINE
  5
584
100
AcDbEntity
  8
0
100
AcDbLine
 62
7
  6
CONTINUOUS
 10
193.0494093469
 20
95.1627878999
 11
192.5494093469
 21
95.2478942802
  0
LINE
  5
585
100
AcDbEntity
  8
0
100
AcDbLine
 62
7
  6
CONTINUOUS
 10
189.7160753778
 20
96.9500219679
 11
189.2160753778
 21
97.0351283407
  0
LINE
  5
586
100
AcDbEntity
  8
0
100
AcDbLine
 62
7
  6
CONTINUOUS
 10
180.6327423624
 20
99.0776815271
 11
180.1327423624
 21
99.1627878999
  0
LINE
  5
587
100
AcDbEntity
  8
0
100
AcDbLine
 62
7
  6
CONTINUOUS
 10
171.7160760931
 20
99.0776815271
 11
171.2994093469
 21
99.1627878999
  0
LINE
  5
588
100
AcDbEntity
  8
0
100
AcDbLine
 62
7
  6
CONTINUOUS
 10
188.7994093469
 20
95.5883198237
 11
188.3827433161
 21
95.6734261965
  0
LINE
  5
589
100
AcDbEntity
  8
0
100
AcDbLine
 62
7
  6
CONTINUOUS
 10
175.4660758547
 20
99.0776815271
 11
175.0494093469
 21
99.1627878999
  0
LINE
  5
58A
100
AcDbEntity
  8
0
100
AcDbLine
 62
7
  6
CONTINUOUS
 10
193.0494093469
 20
95.5032134211
 11
192.6327433161
 21
95.5883198237
  0
LINE
  5
58B
100
AcDbEntity
  8
0
100
AcDbLine
 62
7
  6
CONTINUOUS
 10
180.5494093469
 20
98.6521496629
 11
180.1327423624
 21
98.7372560358
  0
LINE
  5
58C
100
AcDbEntity
  8
0
100
AcDbLine
 62
7
  6
CONTINUOUS
 10
186.0494093469
 20
97.6308729505
 11
185.6327433161
 21
97.7159793234
  0
LINE
  5
58D
100
AcDbEntity
  8
0
100
AcDbLine
 62
7
  6
CONTINUOUS
 10
185.9660753778
 20
99.0776815271
 11
185.5494093469
 21
99.1627878999
  0
LINE
  5
58E
100
AcDbEntity
  8
0
100
AcDbLine
 62
7
  6
CONTINUOUS
 10
189.6327433161
 20
98.6521496629
 11
189.2160753778
 21
98.7372560358
  0
LINE
  5
58F
100
AcDbEntity
  8
0
100
AcDbLine
 62
7
  6
CONTINUOUS
 10
188.7160753778
 20
95.1627878999
 11
188.3827433161
 21
95.2478942802
  0
LINE
  5
590
100
AcDbEntity
  8
0
100
AcDbLine
 62
7
  6
CONTINUOUS
 10
175.3827428392
 20
98.6521496629
 11
175.1327428392
 21
98.7372560358
  0
LINE
  5
591
100
AcDbEntity
  8
0
100
AcDbLine
 62
7
  6
CONTINUOUS
 10
185.1327423624
 20
95.5883198237
 11
184.8827423624
 21
95.6734261965
  0
LINE
  5
592
100
AcDbEntity
  8
0
100
AcDbLine
 62
7
  6
CONTINUOUS
 10
185.9660753778
 20
97.2053410864
 11
185.7160753778
 21
97.2904474592
  0
LINE
  5
593
100
AcDbEntity
  8
0
100
AcDbLine
 62
7
  6
CONTINUOUS
 10
192.5494093469
 20
95.2478942802
 11
192.2994093469
 21
95.3330006605
  0
LINE
  5
594
100
AcDbEntity
  8
0
100
AcDbLine
 62
7
  6
CONTINUOUS
 10
185.8827433161
 20
98.6521496629
 11
185.6327433161
 21
98.7372560358
  0
LINE
  5
595
100
AcDbEntity
  8
0
100
AcDbLine
 62
7
  6
CONTINUOUS
 10
179.6327423624
 20
95.2478942802
 11
179.2160763315
 21
95.5032134211
  0
LINE
  5
596
100
AcDbEntity
  8
0
100
AcDbLine
 62
7
  6
CONTINUOUS
 10
179.7160763315
 20
95.6734261965
 11
179.4660763315
 21
95.8436389422
  0
LINE
  5
597
100
AcDbEntity
  8
0
100
AcDbLine
 62
7
  6
CONTINUOUS
 10
172.0494093469
 20
98.8223624086
 11
171.7160760931
 21
99.0776815271
  0
LINE
  5
598
100
AcDbEntity
  8
0
100
AcDbLine
 62
7
  6
CONTINUOUS
 10
171.7994093469
 20
98.4819369173
 11
171.6327426008
 21
98.6521496629
  0
LINE
  5
599
100
AcDbEntity
  8
0
100
AcDbLine
 62
7
  6
CONTINUOUS
 10
175.6977926889
 20
89.5659794426
 11
175.4812865445
 21
89.8212985611
  0
LINE
  5
59A
100
AcDbEntity
  8
0
100
AcDbLine
 62
7
  6
CONTINUOUS
 10
175.9477926889
 20
89.5659794426
 11
175.7312865445
 21
89.8212985611
  0
LINE
  5
59B
100
AcDbEntity
  8
0
100
AcDbLine
 62
7
  6
CONTINUOUS
 10
178.0793627558
 20
88.4808730101
 11
177.9169829926
 21
88.672362349
  0
LINE
  5
59C
100
AcDbEntity
  8
0
100
AcDbLine
 62
7
  6
CONTINUOUS
 10
178.3293627558
 20
88.4808730101
 11
178.1669829926
 21
88.672362349
  0
LINE
  5
59D
100
AcDbEntity
  8
0
100
AcDbLine
 62
7
  6
CONTINUOUS
 10
174.2905012013
 20
87.459596402
 11
174.1822484388
 21
87.587256006
  0
LINE
  5
59E
100
AcDbEntity
  8
0
100
AcDbLine
 62
7
  6
CONTINUOUS
 10
174.5405012013
 20
87.459596402
 11
174.4322484388
 21
87.587256006
  0
LINE
  5
59F
100
AcDbEntity
  8
0
100
AcDbLine
 62
7
  6
CONTINUOUS
 10
177.7546032294
 20
88.4170432305
 11
177.8628559919
 21
88.2893836713
  0
LINE
  5
5A0
100
AcDbEntity
  8
0
100
AcDbLine
 62
7
  6
CONTINUOUS
 10
170.1768807398
 20
89.5021496629
 11
170.0145009766
 21
89.7574687814
  0
LINE
  5
5A1
100
AcDbEntity
  8
0
100
AcDbLine
 62
7
  6
CONTINUOUS
 10
170.4268807398
 20
89.5021496629
 11
170.2645009766
 21
89.7574687814
  0
LINE
  5
5A2
100
AcDbEntity
  8
0
100
AcDbLine
 62
7
  6
CONTINUOUS
 10
169.9603744405
 20
88.161724112
 11
170.0686275127
 21
87.9702346837
  0
LINE
  5
5A3
100
AcDbEntity
  8
0
100
AcDbLine
 62
7
  6
CONTINUOUS
 10
168.4448299339
 20
87.587256006
 11
168.6072097019
 21
87.2681070408
  0
LINE
  5
5A4
100
AcDbEntity
  8
0
100
AcDbLine
 62
7
  6
CONTINUOUS
 10
183.1327428392
 20
101.7585325694
 11
182.7994093469
 21
101.6734261965
  0
LINE
  5
5A5
100
AcDbEntity
  8
0
100
AcDbLine
 62
7
  6
CONTINUOUS
 10
183.2160758547
 20
101.2478942802
 11
182.7994093469
 21
101.1627878999
  0
LINE
  5
5A6
100
AcDbEntity
  8
0
100
AcDbLine
 62
7
  6
CONTINUOUS
 10
179.2160759739
 20
102.9500219679
 11
177.7994093469
 21
102.9500219679
  0
LINE
  5
5A7
100
AcDbEntity
  8
0
100
AcDbLine
 62
7
  6
CONTINUOUS
 10
179.3827426008
 20
103.4606602049
 11
177.7994093469
 21
103.4606602049
  0
LINE
  5
5A8
100
AcDbEntity
  8
0
100
AcDbLine
 62
7
  6
CONTINUOUS
 10
186.7994093469
 20
104.6521496629
 11
185.2994093469
 21
104.6521496629
  0
LINE
  5
5A9
100
AcDbEntity
  8
0
100
AcDbLine
 62
7
  6
CONTINUOUS
 10
179.3827426008
 20
104.7372560358
 11
177.7994093469
 21
104.7372560358
  0
LINE
  5
5AA
100
AcDbEntity
  8
0
100
AcDbLine
 62
7
  6
CONTINUOUS
 10
186.7994093469
 20
105.1627878999
 11
184.7994093469
 21
105.1627878999
  0
LINE
  5
5AB
100
AcDbEntity
  8
0
100
AcDbLine
 62
7
  6
CONTINUOUS
 10
184.1327428392
 20
105.1627878999
 11
183.6327428392
 21
105.1627878999
  0
LINE
  5
5AC
100
AcDbEntity
  8
0
100
AcDbLine
 62
7
  6
CONTINUOUS
 10
181.6327428392
 20
105.1627878999
 11
181.1327426008
 21
105.1627878999
  0
LINE
  5
5AD
100
AcDbEntity
  8
0
100
AcDbLine
 62
7
  6
CONTINUOUS
 10
179.2994093469
 20
105.1627878999
 11
177.2994093469
 21
105.1627878999
  0
LINE
  5
5AE
100
AcDbEntity
  8
0
100
AcDbLine
 62
7
  6
CONTINUOUS
 10
182.4660758547
 20
101.1627878999
 11
182.0494093469
 21
101.2478942802
  0
LINE
  5
5AF
100
AcDbEntity
  8
0
100
AcDbLine
 62
7
  6
CONTINUOUS
 10
179.7160760931
 20
105.0776815271
 11
179.2994093469
 21
105.1627878999
  0
LINE
  5
5B0
100
AcDbEntity
  8
0
100
AcDbLine
 62
7
  6
CONTINUOUS
 10
182.4660758547
 20
101.6734261965
 11
182.1327428392
 21
101.7585325694
  0
LINE
  5
5B1
100
AcDbEntity
  8
0
100
AcDbLine
 62
7
  6
CONTINUOUS
 10
179.6327426008
 20
104.6521496629
 11
179.3827426008
 21
104.7372560358
  0
LINE
  5
5B2
100
AcDbEntity
  8
0
100
AcDbLine
 62
7
  6
CONTINUOUS
 10
190.2994093469
 20
97.0351283407
 11
189.8827433161
 21
97.2053410864
  0
LINE
  5
5B3
100
AcDbEntity
  8
0
100
AcDbLine
 62
7
  6
CONTINUOUS
 10
188.3827433161
 20
95.2478942802
 11
188.0494093469
 21
95.4181070482
  0
LINE
  5
5B4
100
AcDbEntity
  8
0
100
AcDbLine
 62
7
  6
CONTINUOUS
 10
188.3827433161
 20
95.6734261965
 11
188.2160753778
 21
95.7585325694
  0
LINE
  5
5B5
100
AcDbEntity
  8
0
100
AcDbLine
 62
7
  6
CONTINUOUS
 10
182.0494093469
 20
101.2478942802
 11
181.7160758547
 21
101.4181070482
  0
LINE
  5
5B6
100
AcDbEntity
  8
0
100
AcDbLine
 62
7
  6
CONTINUOUS
 10
190.0494093469
 20
98.9074687814
 11
189.7160753778
 21
99.0776815271
  0
LINE
  5
5B7
100
AcDbEntity
  8
0
100
AcDbLine
 62
7
  6
CONTINUOUS
 10
195.0042589662
 20
90.6574687814
 11
194.715583281
 21
90.8276815271
  0
LINE
  5
5B8
100
AcDbEntity
  8
0
100
AcDbLine
 62
7
  6
CONTINUOUS
 10
195.2542589662
 20
90.6574687814
 11
194.965583281
 21
90.8276815271
  0
LINE
  5
5B9
100
AcDbEntity
  8
0
100
AcDbLine
 62
7
  6
CONTINUOUS
 10
184.7994093469
 20
95.2478942802
 11
184.3827423624
 21
95.5032134211
  0
LINE
  5
5BA
100
AcDbEntity
  8
0
100
AcDbLine
 62
7
  6
CONTINUOUS
 10
181.0494093469
 20
98.8223624086
 11
180.6327423624
 21
99.0776815271
  0
LINE
  5
5BB
100
AcDbEntity
  8
0
100
AcDbLine
 62
7
  6
CONTINUOUS
 10
186.4660753778
 20
97.375553832
 11
186.0494093469
 21
97.6308729505
  0
LINE
  5
5BC
100
AcDbEntity
  8
0
100
AcDbLine
 62
7
  6
CONTINUOUS
 10
186.3827433161
 20
98.8223624086
 11
185.9660753778
 21
99.0776815271
  0
LINE
  5
5BD
100
AcDbEntity
  8
0
100
AcDbLine
 62
7
  6
CONTINUOUS
 10
184.8827423624
 20
95.6734261965
 11
184.6327423624
 21
95.8436389422
  0
LINE
  5
5BE
100
AcDbEntity
  8
0
100
AcDbLine
 62
7
  6
CONTINUOUS
 10
180.7994093469
 20
98.4819369173
 11
180.5494093469
 21
98.6521496629
  0
LINE
  5
5BF
100
AcDbEntity
  8
0
100
AcDbLine
 62
7
  6
CONTINUOUS
 10
188.0494093469
 20
95.4181070482
 11
187.7994093469
 21
95.5883198237
  0
LINE
  5
5C0
100
AcDbEntity
  8
0
100
AcDbLine
 62
7
  6
CONTINUOUS
 10
186.2160753778
 20
97.0351283407
 11
185.9660753778
 21
97.2053410864
  0
LINE
  5
5C1
100
AcDbEntity
  8
0
100
AcDbLine
 62
7
  6
CONTINUOUS
 10
175.7994093469
 20
98.8223624086
 11
175.4660758547
 21
99.0776815271
  0
LINE
  5
5C2
100
AcDbEntity
  8
0
100
AcDbLine
 62
7
  6
CONTINUOUS
 10
175.5494093469
 20
98.4819369173
 11
175.3827428392
 21
98.6521496629
  0
LINE
  5
5C3
100
AcDbEntity
  8
0
100
AcDbLine
 62
7
  6
CONTINUOUS
 10
179.2160763315
 20
95.5032134211
 11
178.9660763315
 21
95.7585325694
  0
LINE
  5
5C4
100
AcDbEntity
  8
0
100
AcDbLine
 62
7
  6
CONTINUOUS
 10
172.2994093469
 20
98.4819369173
 11
172.0494093469
 21
98.8223624086
  0
LINE
  5
5C5
100
AcDbEntity
  8
0
100
AcDbLine
 62
7
  6
CONTINUOUS
 10
176.401438123
 20
87.5234261816
 11
176.5638178862
 21
87.2681070408
  0
LINE
  5
5C6
100
AcDbEntity
  8
0
100
AcDbLine
 62
7
  6
CONTINUOUS
 10
178.0252357551
 20
89.5021496629
 11
177.8628559919
 21
89.7574687814
  0
LINE
  5
5C7
100
AcDbEntity
  8
0
100
AcDbLine
 62
7
  6
CONTINUOUS
 10
173.9116152936
 20
87.5234261816
 11
174.0198686756
 21
87.3319368428
  0
LINE
  5
5C8
100
AcDbEntity
  8
0
100
AcDbLine
 62
7
  6
CONTINUOUS
 10
175.7519190702
 20
88.2255538916
 11
175.6436663077
 21
88.4170432305
  0
LINE
  5
5C9
100
AcDbEntity
  8
0
100
AcDbLine
 62
7
  6
CONTINUOUS
 10
176.0019190702
 20
88.2255538916
 11
175.8936663077
 21
88.4170432305
  0
LINE
  5
5CA
100
AcDbEntity
  8
0
100
AcDbLine
 62
7
  6
CONTINUOUS
 10
175.3730331625
 20
89.5021496629
 11
175.4812865445
 21
89.3106603241
  0
LINE
  5
5CB
100
AcDbEntity
  8
0
100
AcDbLine
 62
7
  6
CONTINUOUS
 10
176.7261976495
 20
87.5234261816
 11
176.6179448869
 21
87.7149155652
  0
LINE
  5
5CC
100
AcDbEntity
  8
0
100
AcDbLine
 62
7
  6
CONTINUOUS
 10
176.9761976495
 20
87.5234261816
 11
176.8679448869
 21
87.7149155652
  0
LINE
  5
5CD
100
AcDbEntity
  8
0
100
AcDbLine
 62
7
  6
CONTINUOUS
 10
170.3933870391
 20
88.0340644633
 11
170.2851339669
 21
88.2893836713
  0
LINE
  5
5CE
100
AcDbEntity
  8
0
100
AcDbLine
 62
7
  6
CONTINUOUS
 10
169.8521212134
 20
89.4383198833
 11
169.9062477495
 21
89.3106603241
  0
LINE
  5
5CF
100
AcDbEntity
  8
0
100
AcDbLine
 62
7
  6
CONTINUOUS
 10
170.6433870391
 20
88.0340644633
 11
170.5351339669
 21
88.2893836713
  0
LINE
  5
5D0
100
AcDbEntity
  8
RUNDUNGEN
100
AcDbLine
 62
7
  6
CONTINUOUS
 10
193.7012790967
 20
110.6627878999
 11
170.8975365761
 21
110.6627878999
  0
LINE
  5
5D1
100
AcDbEntity
  8
0
100
AcDbLine
 62
7
  6
CONTINUOUS
 10
187.2160763315
 20
105.0776815271
 11
186.7994093469
 21
105.1627878999
  0
LINE
  5
5D2
100
AcDbEntity
  8
0
100
AcDbLine
 62
7
  6
CONTINUOUS
 10
187.1327423624
 20
104.5670432901
 11
186.7994093469
 21
104.6521496629
  0
LINE
  5
5D3
100
AcDbEntity
  8
0
100
AcDbLine
 62
7
  6
CONTINUOUS
 10
187.5494093469
 20
104.9074687814
 11
187.2160763315
 21
105.0776815271
  0
LINE
  5
5D4
100
AcDbEntity
  8
0
100
AcDbLine
 62
7
  6
CONTINUOUS
 10
186.1327433161
 20
98.4819369173
 11
185.8827433161
 21
98.6521496629
  0
LINE
  5
5D5
100
AcDbEntity
  8
0
100
AcDbLine
 62
7
  6
CONTINUOUS
 10
182.1327428392
 20
101.7585325694
 11
181.8827428392
 21
101.9287453746
  0
LINE
  5
5D6
100
AcDbEntity
  8
0
100
AcDbLine
 62
7
  6
CONTINUOUS
 10
189.9660753778
 20
96.7798092222
 11
189.7160753778
 21
96.9500219679
  0
LINE
  5
5D7
100
AcDbEntity
  8
0
100
AcDbLine
 62
7
  6
CONTINUOUS
 10
192.2994093469
 20
95.3330006605
 11
192.0494093469
 21
95.5032134211
  0
LINE
  5
5D8
100
AcDbEntity
  8
0
100
AcDbLine
 62
7
  6
CONTINUOUS
 10
192.6327433161
 20
95.5883198237
 11
192.3827433161
 21
95.7585325694
  0
LINE
  5
5D9
100
AcDbEntity
  8
0
100
AcDbLine
 62
7
  6
CONTINUOUS
 10
189.8827433161
 20
98.4819369173
 11
189.6327433161
 21
98.6521496629
  0
LINE
  5
5DA
100
AcDbEntity
  8
0
100
AcDbLine
 62
7
  6
CONTINUOUS
 10
180.0494093469
 20
104.8223624086
 11
179.7160760931
 21
105.0776815271
  0
LINE
  5
5DB
100
AcDbEntity
  8
0
100
AcDbLine
 62
7
  6
CONTINUOUS
 10
194.8212462643
 20
90.4021496629
 11
195.0377526152
 21
90.2319369173
  0
LINE
  5
5DC
100
AcDbEntity
  8
0
100
AcDbLine
 62
7
  6
CONTINUOUS
 10
181.2994093469
 20
98.5670432901
 11
181.0494093469
 21
98.8223624086
  0
LINE
  5
5DD
100
AcDbEntity
  8
0
100
AcDbLine
 62
7
  6
CONTINUOUS
 10
181.7160758547
 20
101.4181070482
 11
181.3827428392
 21
101.7585325694
  0
LINE
  5
5DE
100
AcDbEntity
  8
0
100
AcDbLine
 62
7
  6
CONTINUOUS
 10
186.3827433161
 20
96.864915595
 11
186.2160753778
 21
97.0351283407
  0
LINE
  5
5DF
100
AcDbEntity
  8
0
100
AcDbLine
 62
7
  6
CONTINUOUS
 10
176.0494093469
 20
98.4819369173
 11
175.7994093469
 21
98.8223624086
  0
LINE
  5
5E0
100
AcDbEntity
  8
0
100
AcDbLine
 62
7
  6
CONTINUOUS
 10
179.4660763315
 20
95.8436389422
 11
179.1327423624
 21
96.3542772388
  0
LINE
  5
5E1
100
AcDbEntity
  8
0
100
AcDbLine
 62
7
  6
CONTINUOUS
 10
178.2752357551
 20
89.5021496629
 11
178.1128559919
 21
89.7574687814
  0
LINE
  5
5E2
100
AcDbEntity
  8
0
100
AcDbLine
 62
7
  6
CONTINUOUS
 10
177.7004762287
 20
89.5021496629
 11
177.8087296107
 21
89.3106603241
  0
LINE
  5
5E3
100
AcDbEntity
  8
0
100
AcDbLine
 62
7
  6
CONTINUOUS
 10
174.1822484388
 20
87.587256006
 11
174.1281214381
 21
87.7149155652
  0
LINE
  5
5E4
100
AcDbEntity
  8
0
100
AcDbLine
 62
7
  6
CONTINUOUS
 10
174.4322484388
 20
87.587256006
 11
174.3781214381
 21
87.7149155652
  0
LINE
  5
5E5
100
AcDbEntity
  8
0
100
AcDbLine
 62
7
  6
CONTINUOUS
 10
175.4271595438
 20
88.2255538916
 11
175.5354129257
 21
87.9702346837
  0
LINE
  5
5E6
100
AcDbEntity
  8
0
100
AcDbLine
 62
7
  6
CONTINUOUS
 10
168.7695894458
 20
87.6510857856
 11
168.7154628709
 21
87.8425751245
  0
LINE
  5
5E7
100
AcDbEntity
  8
0
100
AcDbLine
 62
7
  6
CONTINUOUS
 10
169.0195894458
 20
87.6510857856
 11
168.9654628709
 21
87.8425751245
  0
LINE
  5
5E8
100
AcDbEntity
  8
0
100
AcDbLine
 62
7
  6
CONTINUOUS
 10
168.931969209
 20
88.9276814675
 11
168.8778426341
 21
89.1191708064
  0
LINE
  5
5E9
100
AcDbEntity
  8
0
100
AcDbLine
 62
7
  6
CONTINUOUS
 10
169.181969209
 20
88.9276814675
 11
169.1278426341
 21
89.1191708064
  0
LINE
  5
5EA
100
AcDbEntity
  8
0
100
AcDbLine
 62
7
  6
CONTINUOUS
 10
170.2310072759
 20
89.3106603241
 11
170.1768807398
 21
89.5021496629
  0
LINE
  5
5EB
100
AcDbEntity
  8
0
100
AcDbLine
 62
7
  6
CONTINUOUS
 10
170.4810072759
 20
89.3106603241
 11
170.4268807398
 21
89.5021496629
  0
LINE
  5
5EC
100
AcDbEntity
  8
0
100
AcDbLine
 62
7
  6
CONTINUOUS
 10
168.3907033445
 20
87.8425751245
 11
168.4448299339
 21
87.587256006
  0
LINE
  5
5ED
100
AcDbEntity
  8
0
100
AcDbLine
 62
7
  6
CONTINUOUS
 10
168.5530831077
 20
89.0553410268
 11
168.6072097019
 21
88.8000219083
  0
LINE
  5
5EE
100
AcDbEntity
  8
KONSTRUKTIONSELEMENTE
100
AcDbLine
 62
7
  6
CONTINUOUS
 10
164.2994093469
 20
84.7627878999
 11
164.2994093469
 21
93.2627878999
  0
LINE
  5
5EF
100
AcDbEntity
  8
0
100
AcDbLine
 62
7
  6
CONTINUOUS
 10
187.3827423624
 20
104.3968305444
 11
187.1327423624
 21
104.5670432901
  0
LINE
  5
5F0
100
AcDbEntity
  8
0
100
AcDbLine
 62
7
  6
CONTINUOUS
 10
186.7160753778
 20
97.1202347135
 11
186.4660753778
 21
97.375553832
  0
LINE
  5
5F1
100
AcDbEntity
  8
0
100
AcDbLine
 62
7
  6
CONTINUOUS
 10
188.2160753778
 20
95.7585325694
 11
188.0494093469
 21
95.9287453746
  0
LINE
  5
5F2
100
AcDbEntity
  8
0
100
AcDbLine
 62
7
  6
CONTINUOUS
 10
179.7994093469
 20
104.4819369173
 11
179.6327426008
 21
104.6521496629
  0
LINE
  5
5F3
100
AcDbEntity
  8
0
100
AcDbLine
 62
7
  6
CONTINUOUS
 10
190.3827433161
 20
98.5670432901
 11
190.0494093469
 21
98.9074687814
  0
LINE
  5
5F4
100
AcDbEntity
  8
0
100
AcDbLine
 62
7
  6
CONTINUOUS
 10
195.2929338255
 20
90.3170432901
 11
195.0042589662
 21
90.6574687814
  0
LINE
  5
5F5
100
AcDbEntity
  8
0
100
AcDbLine
 62
7
  6
CONTINUOUS
 10
184.3827423624
 20
95.5032134211
 11
184.1327423624
 21
95.8436389422
  0
LINE
  5
5F6
100
AcDbEntity
  8
0
100
AcDbLine
 62
7
  6
CONTINUOUS
 10
180.2994093469
 20
104.4819369173
 11
180.0494093469
 21
104.8223624086
  0
LINE
  5
5F7
100
AcDbEntity
  8
0
100
AcDbLine
 62
7
  6
CONTINUOUS
 10
181.1327423624
 20
97.9712984419
 11
180.7994093469
 21
98.4819369173
  0
LINE
  5
5F8
100
AcDbEntity
  8
0
100
AcDbLine
 62
7
  6
CONTINUOUS
 10
184.6327423624
 20
95.8436389422
 11
184.4660763315
 21
96.0989581203
  0
LINE
  5
5F9
100
AcDbEntity
  8
0
100
AcDbLine
 62
7
  6
CONTINUOUS
 10
178.9660763315
 20
95.7585325694
 11
178.7994093469
 21
96.0989581203
  0
LINE
  5
5FA
100
AcDbEntity
  8
0
100
AcDbLine
 62
7
  6
CONTINUOUS
 10
176.2931853605
 20
87.8425751245
 11
176.401438123
 21
87.5234261816
  0
LINE
  5
5FB
100
AcDbEntity
  8
0
100
AcDbLine
 62
7
  6
CONTINUOUS
 10
178.1876155183
 20
88.161724112
 11
178.0793627558
 21
88.4808730101
  0
LINE
  5
5FC
100
AcDbEntity
  8
0
100
AcDbLine
 62
7
  6
CONTINUOUS
 10
178.4376155183
 20
88.161724112
 11
178.3293627558
 21
88.4808730101
  0
LINE
  5
5FD
100
AcDbEntity
  8
0
100
AcDbLine
 62
7
  6
CONTINUOUS
 10
171.8827426008
 20
98.2266177988
 11
171.7994093469
 21
98.4819369173
  0
LINE
  5
5FE
100
AcDbEntity
  8
0
100
AcDbLine
 62
7
  6
CONTINUOUS
 10
172.3827426008
 20
98.2266177988
 11
172.2994093469
 21
98.4819369173
  0
LINE
  5
5FF
100
AcDbEntity
  8
0
100
AcDbLine
 62
7
  6
CONTINUOUS
 10
173.8574889124
 20
87.7149155652
 11
173.9116152936
 21
87.5234261816
  0
LINE
  5
600
100
AcDbEntity
  8
0
100
AcDbLine
 62
7
  6
CONTINUOUS
 10
176.6179448869
 20
87.7149155652
 11
176.5638178862
 21
87.9064049041
  0
LINE
  5
601
100
AcDbEntity
  8
0
100
AcDbLine
 62
7
  6
CONTINUOUS
 10
172.7749569512
 20
87.7149155652
 11
172.3419443525
 21
90.0127878999
  0
LINE
  5
602
100
AcDbEntity
  8
0
100
AcDbLine
 62
7
  6
CONTINUOUS
 10
165.2994093469
 20
116.8948387075
 11
165.2994093469
 21
93.2627878999
  0
LINE
  5
603
100
AcDbEntity
  8
KONSTRUKTIONSELEMENTE
100
AcDbLine
 62
7
  6
CONTINUOUS
 10
165.6583931956
 20
84.7627878999
 11
165.6583931956
 21
93.2627878999
  0
LINE
  5
604
100
AcDbEntity
  8
0
100
AcDbLine
 62
7
  6
CONTINUOUS
 10
166.8058768556
 20
91.7627878999
 11
166.8058768556
 21
85.7627878999
  0
LINE
  5
605
100
AcDbEntity
  8
0
100
AcDbLine
 62
7
  6
CONTINUOUS
 10
167.0558768556
 20
91.7627878999
 11
167.0558768556
 21
85.7627878999
  0
LINE
  5
606
100
AcDbEntity
  8
0
100
AcDbLine
 62
7
  6
CONTINUOUS
 10
168.5530831077
 20
89.3106603241
 11
168.5530831077
 21
89.0553410268
  0
LINE
  5
607
100
AcDbEntity
  8
0
100
AcDbLine
 62
7
  6
CONTINUOUS
 10
168.8778426341
 20
89.1191708064
 11
168.8778426341
 21
89.2468303656
  0
LINE
  5
608
100
AcDbEntity
  8
0
100
AcDbLine
 62
7
  6
CONTINUOUS
 10
169.1278426341
 20
89.1191708064
 11
169.1278426341
 21
89.2468303656
  0
LINE
  5
609
100
AcDbEntity
  8
0
100
AcDbLine
 62
7
  6
CONTINUOUS
 10
187.8827423624
 20
104.5670432901
 11
187.5494093469
 21
104.9074687814
  0
LINE
  5
60A
100
AcDbEntity
  8
0
100
AcDbLine
 62
7
  6
CONTINUOUS
 10
195.5429338255
 20
90.3170432901
 11
195.2542589662
 21
90.6574687814
  0
LINE
  5
60B
100
AcDbEntity
  8
0
100
AcDbLine
 62
7
  6
CONTINUOUS
 10
186.6327433161
 20
98.4819369173
 11
186.3827433161
 21
98.8223624086
  0
LINE
  5
60C
100
AcDbEntity
  8
0
100
AcDbLine
 62
7
  6
CONTINUOUS
 10
181.8827428392
 20
101.9287453746
 11
181.7160758547
 21
102.1840644931
  0
LINE
  5
60D
100
AcDbEntity
  8
0
100
AcDbLine
 62
7
  6
CONTINUOUS
 10
187.7994093469
 20
95.5883198237
 11
187.6327433161
 21
95.8436389422
  0
LINE
  5
60E
100
AcDbEntity
  8
0
100
AcDbLine
 62
7
  6
CONTINUOUS
 10
186.2994093469
 20
98.2266177988
 11
186.1327433161
 21
98.4819369173
  0
LINE
  5
60F
100
AcDbEntity
  8
0
100
AcDbLine
 62
7
  6
CONTINUOUS
 10
181.4660763315
 20
98.2266177988
 11
181.2994093469
 21
98.5670432901
  0
LINE
  5
610
100
AcDbEntity
  8
0
100
AcDbLine
 62
7
  6
CONTINUOUS
 10
181.3827428392
 20
101.7585325694
 11
181.2160760931
 21
102.0989581203
  0
LINE
  5
611
100
AcDbEntity
  8
0
100
AcDbLine
 62
7
  6
CONTINUOUS
 10
180.4660760931
 20
101.1627878999
 11
179.7160760931
 21
103.1202347135
  0
LINE
  5
612
100
AcDbEntity
  8
0
100
AcDbLine
 62
7
  6
CONTINUOUS
 10
179.8827426008
 20
101.1627878999
 11
179.2160759739
 21
102.9500219679
  0
LINE
  5
613
100
AcDbEntity
  8
0
100
AcDbLine
 62
7
  6
CONTINUOUS
 10
175.6327428392
 20
98.2266177988
 11
175.5494093469
 21
98.4819369173
  0
LINE
  5
614
100
AcDbEntity
  8
0
100
AcDbLine
 62
7
  6
CONTINUOUS
 10
176.1327428392
 20
98.2266177988
 11
176.0494093469
 21
98.4819369173
  0
LINE
  5
615
100
AcDbEntity
  8
0
100
AcDbLine
 62
7
  6
CONTINUOUS
 10
178.7994093469
 20
96.0989581203
 11
178.7160763315
 21
96.3542772388
  0
LINE
  5
616
100
AcDbEntity
  8
0
100
AcDbLine
 62
7
  6
CONTINUOUS
 10
176.8679448869
 20
87.7149155652
 11
176.8138178862
 21
87.9064049041
  0
LINE
  5
617
100
AcDbEntity
  8
0
100
AcDbLine
 62
7
  6
CONTINUOUS
 10
177.8628559919
 20
88.2893836713
 11
177.9169829926
 21
88.097894243
  0
LINE
  5
618
100
AcDbEntity
  8
0
100
AcDbLine
 62
7
  6
CONTINUOUS
 10
178.0793627558
 20
89.3106603241
 11
178.0252357551
 21
89.5021496629
  0
LINE
  5
619
100
AcDbEntity
  8
0
100
AcDbLine
 62
7
  6
CONTINUOUS
 10
178.3293627558
 20
89.3106603241
 11
178.2752357551
 21
89.5021496629
  0
LINE
  5
61A
100
AcDbEntity
  8
0
100
AcDbLine
 62
7
  6
CONTINUOUS
 10
175.8060460709
 20
87.9702346837
 11
175.7519190702
 21
88.2255538916
  0
LINE
  5
61B
100
AcDbEntity
  8
0
100
AcDbLine
 62
7
  6
CONTINUOUS
 10
175.7519190702
 20
89.3106603241
 11
175.6977926889
 21
89.5659794426
  0
LINE
  5
61C
100
AcDbEntity
  8
0
100
AcDbLine
 62
7
  6
CONTINUOUS
 10
176.0560460709
 20
87.9702346837
 11
176.0019190702
 21
88.2255538916
  0
LINE
  5
61D
100
AcDbEntity
  8
0
100
AcDbLine
 62
7
  6
CONTINUOUS
 10
176.0019190702
 20
89.3106603241
 11
175.9477926889
 21
89.5659794426
  0
LINE
  5
61E
100
AcDbEntity
  8
0
100
AcDbLine
 62
7
  6
CONTINUOUS
 10
172.8820998229
 20
88.4730169319
 11
172.5919443525
 21
90.0127878999
  0
LINE
  5
61F
100
AcDbEntity
  8
0
100
AcDbLine
 62
7
  6
CONTINUOUS
 10
172.1254378983
 20
89.4383198833
 11
172.558450497
 21
87.0127878999
  0
LINE
  5
620
100
AcDbEntity
  8
0
100
AcDbLine
 62
7
  6
CONTINUOUS
 10
170.8263997926
 20
90.0127878999
 11
171.2594123913
 21
87.0127878999
  0
LINE
  5
621
100
AcDbEntity
  8
0
100
AcDbLine
 62
7
  6
CONTINUOUS
 10
171.4759188455
 20
87.7149155652
 11
171.1511593191
 21
90.0127878999
  0
LINE
  5
622
100
AcDbEntity
  8
0
100
AcDbLine
 62
7
  6
CONTINUOUS
 10
171.6187759737
 20
88.4730169319
 11
171.4011593191
 21
90.0127878999
  0
LINE
  5
623
100
AcDbEntity
  8
RUNDUNGEN
100
AcDbLine
 62
7
  6
CONTINUOUS
 10
169.2994093469
 20
131.096315448
 11
169.2994093469
 21
125.0288133037
  0
LINE
  5
624
100
AcDbEntity
  8
0
100
AcDbLine
 62
7
  6
CONTINUOUS
 10
169.2994093469
 20
99.1627878999
 11
169.2994093469
 21
95.1627878999
  0
LINE
  5
625
100
AcDbEntity
  8
0
100
AcDbLine
 62
7
  6
CONTINUOUS
 10
169.7994093469
 20
98.7372560358
 11
169.7994093469
 21
97.4606602049
  0
LINE
  5
626
100
AcDbEntity
  8
0
100
AcDbLine
 62
7
  6
CONTINUOUS
 10
169.7994093469
 20
96.9500219679
 11
169.7994093469
 21
95.1627878999
  0
LINE
  5
627
100
AcDbEntity
  8
0
100
AcDbLine
 62
7
  6
CONTINUOUS
 10
170.0686275127
 20
87.9702346837
 11
170.0686275127
 21
87.7787453448
  0
LINE
  5
628
100
AcDbEntity
  8
0
100
AcDbLine
 62
7
  6
CONTINUOUS
 10
170.3933870391
 20
87.7149155652
 11
170.3933870391
 21
88.0340644633
  0
LINE
  5
629
100
AcDbEntity
  8
0
100
AcDbLine
 62
7
  6
CONTINUOUS
 10
170.6433870391
 20
87.7149155652
 11
170.6433870391
 21
88.0340644633
  0
LINE
  5
62A
100
AcDbEntity
  8
0
100
AcDbLine
 62
7
  6
CONTINUOUS
 10
171.8827426008
 20
98.2266177988
 11
171.8827426008
 21
97.9712984419
  0
LINE
  5
62B
100
AcDbEntity
  8
0
100
AcDbLine
 62
7
  6
CONTINUOUS
 10
172.3827426008
 20
98.2266177988
 11
172.3827426008
 21
97.886192069
  0
LINE
  5
62C
100
AcDbEntity
  8
0
100
AcDbLine
 62
7
  6
CONTINUOUS
 10
173.0494093469
 20
99.1627878999
 11
173.0494093469
 21
95.1627878999
  0
LINE
  5
62D
100
AcDbEntity
  8
0
100
AcDbLine
 62
7
  6
CONTINUOUS
 10
173.5494093469
 20
98.7372560358
 11
173.5494093469
 21
97.4606602049
  0
LINE
  5
62E
100
AcDbEntity
  8
0
100
AcDbLine
 62
7
  6
CONTINUOUS
 10
173.5494093469
 20
96.9500219679
 11
173.5494093469
 21
95.1627878999
  0
LINE
  5
62F
100
AcDbEntity
  8
RUNDUNGEN
100
AcDbLine
 62
7
  6
CONTINUOUS
 10
170.389672562
 20
133.3055755096
 11
169.8843016283
 21
132.7032978838
  0
LINE
  5
630
100
AcDbEntity
  8
0
100
AcDbLine
 62
7
  6
CONTINUOUS
 10
190.4660753778
 20
96.7798092222
 11
190.2994093469
 21
97.0351283407
  0
LINE
  5
631
100
AcDbEntity
  8
0
100
AcDbLine
 62
7
  6
CONTINUOUS
 10
190.0494093469
 20
98.2266177988
 11
189.8827433161
 21
98.4819369173
  0
LINE
  5
632
100
AcDbEntity
  8
0
100
AcDbLine
 62
7
  6
CONTINUOUS
 10
187.5494093469
 20
104.1415111875
 11
187.3827423624
 21
104.3968305444
  0
LINE
  5
633
100
AcDbEntity
  8
0
100
AcDbLine
 62
7
  6
CONTINUOUS
 10
195.0377526152
 20
90.2319369173
 11
195.1820896319
 21
89.9766177988
  0
LINE
  5
634
100
AcDbEntity
  8
0
100
AcDbLine
 62
7
  6
CONTINUOUS
 10
188.0494093469
 20
95.9287453746
 11
187.9660753778
 21
96.0989581203
  0
LINE
  5
635
100
AcDbEntity
  8
0
100
AcDbLine
 62
7
  6
CONTINUOUS
 10
190.1327433161
 20
96.4393836116
 11
189.9660753778
 21
96.7798092222
  0
LINE
  5
636
100
AcDbEntity
  8
0
100
AcDbLine
 62
7
  6
CONTINUOUS
 10
184.1327423624
 20
95.8436389422
 11
183.9660763315
 21
96.269170866
  0
LINE
  5
637
100
AcDbEntity
  8
0
100
AcDbLine
 62
7
  6
CONTINUOUS
 10
186.8827433161
 20
96.6947028494
 11
186.7160753778
 21
97.1202347135
  0
LINE
  5
638
100
AcDbEntity
  8
0
100
AcDbLine
 62
7
  6
CONTINUOUS
 10
181.5494093469
 20
97.9712984419
 11
181.4660763315
 21
98.2266177988
  0
LINE
  5
639
100
AcDbEntity
  8
0
100
AcDbLine
 62
7
  6
CONTINUOUS
 10
179.8827426008
 20
104.2266177988
 11
179.7994093469
 21
104.4819369173
  0
LINE
  5
63A
100
AcDbEntity
  8
0
100
AcDbLine
 62
7
  6
CONTINUOUS
 10
180.3827426008
 20
104.2266177988
 11
180.2994093469
 21
104.4819369173
  0
LINE
  5
63B
100
AcDbEntity
  8
0
100
AcDbLine
 62
7
  6
CONTINUOUS
 10
184.4660763315
 20
96.0989581203
 11
184.3827423624
 21
96.3542772388
  0
LINE
  5
63C
100
AcDbEntity
  8
0
100
AcDbLine
 62
7
  6
CONTINUOUS
 10
178.7160763315
 20
96.3542772388
 11
178.6327423624
 21
96.7798092222
  0
LINE
  5
63D
100
AcDbEntity
  8
0
100
AcDbLine
 62
7
  6
CONTINUOUS
 10
179.1327423624
 20
96.3542772388
 11
179.0494093469
 21
96.864915595
  0
LINE
  5
63E
100
AcDbEntity
  8
0
100
AcDbLine
 62
7
  6
CONTINUOUS
 10
176.2390583598
 20
88.2893836713
 11
176.2931853605
 21
87.8425751245
  0
LINE
  5
63F
100
AcDbEntity
  8
0
100
AcDbLine
 62
7
  6
CONTINUOUS
 10
174.7235141097
 20
88.672362349
 11
174.7235141097
 21
88.4170432305
  0
LINE
  5
640
100
AcDbEntity
  8
0
100
AcDbLine
 62
7
  6
CONTINUOUS
 10
175.4812865445
 20
89.3106603241
 11
175.4812865445
 21
89.183000586
  0
LINE
  5
641
100
AcDbEntity
  8
0
100
AcDbLine
 62
7
  6
CONTINUOUS
 10
175.5354129257
 20
87.9702346837
 11
175.5354129257
 21
87.7149155652
  0
LINE
  5
642
100
AcDbEntity
  8
0
100
AcDbLine
 62
7
  6
CONTINUOUS
 10
175.6327428392
 20
98.2266177988
 11
175.6327428392
 21
97.9712984419
  0
LINE
  5
643
100
AcDbEntity
  8
0
100
AcDbLine
 62
7
  6
CONTINUOUS
 10
175.7519190702
 20
89.183000586
 11
175.7519190702
 21
89.3106603241
  0
LINE
  5
644
100
AcDbEntity
  8
0
100
AcDbLine
 62
7
  6
CONTINUOUS
 10
175.8060460709
 20
87.7149155652
 11
175.8060460709
 21
87.9702346837
  0
LINE
  5
645
100
AcDbEntity
  8
0
100
AcDbLine
 62
7
  6
CONTINUOUS
 10
176.0019190702
 20
89.183000586
 11
176.0019190702
 21
89.3106603241
  0
LINE
  5
646
100
AcDbEntity
  8
0
100
AcDbLine
 62
7
  6
CONTINUOUS
 10
176.0560460709
 20
87.7149155652
 11
176.0560460709
 21
87.9702346837
  0
LINE
  5
647
100
AcDbEntity
  8
0
100
AcDbLine
 62
7
  6
CONTINUOUS
 10
176.1327428392
 20
98.2266177988
 11
176.1327428392
 21
97.886192069
  0
LINE
  5
648
100
AcDbEntity
  8
0
100
AcDbLine
 62
7
  6
CONTINUOUS
 10
176.2390583598
 20
88.7361921286
 11
176.2390583598
 21
88.2893836713
  0
LINE
  5
649
100
AcDbEntity
  8
0
100
AcDbLine
 62
7
  6
CONTINUOUS
 10
176.2994093469
 20
84.7627878999
 11
176.2994093469
 21
67.2627878999
  0
LINE
  5
64A
100
AcDbEntity
  8
0
100
AcDbLine
 62
7
  6
CONTINUOUS
 10
176.509691505
 20
88.6085325694
 11
176.509691505
 21
88.7361921286
  0
LINE
  5
64B
100
AcDbEntity
  8
0
100
AcDbLine
 62
7
  6
CONTINUOUS
 10
176.5638178862
 20
87.9064049041
 11
176.5638178862
 21
88.097894243
  0
LINE
  5
64C
100
AcDbEntity
  8
0
100
AcDbLine
 62
7
  6
CONTINUOUS
 10
176.7994093469
 20
97.0351283407
 11
176.7994093469
 21
96.6095963573
  0
LINE
  5
64D
100
AcDbEntity
  8
0
100
AcDbLine
 62
7
  6
CONTINUOUS
 10
176.8138178862
 20
87.9064049041
 11
176.8138178862
 21
88.097894243
  0
LINE
  5
64E
100
AcDbEntity
  8
0
100
AcDbLine
 62
7
  6
CONTINUOUS
 10
177.2994093469
 20
105.1627878999
 11
177.2994093469
 21
101.1627878999
  0
LINE
  5
64F
100
AcDbEntity
  8
KONSTRUKTIONSELEMENTE
100
AcDbLine
 62
7
  6
CONTINUOUS
 10
177.7994093469
 20
195.2180691204
 11
177.7994093469
 21
178.5843366371
  0
LINE
  5
650
100
AcDbEntity
  8
KONSTRUKTIONSELEMENTE
100
AcDbLine
 62
7
  6
CONTINUOUS
 10
177.7994093469
 20
137.9420417844
 11
177.7994093469
 21
121.2627878999
  0
LINE
  5
651
100
AcDbEntity
  8
0
100
AcDbLine
 62
7
  6
CONTINUOUS
 10
177.7994093469
 20
104.7372560358
 11
177.7994093469
 21
103.4606602049
  0
LINE
  5
652
100
AcDbEntity
  8
0
100
AcDbLine
 62
7
  6
CONTINUOUS
 10
177.7994093469
 20
102.9500219679
 11
177.7994093469
 21
101.1627878999
  0
LINE
  5
653
100
AcDbEntity
  8
0
100
AcDbLine
 62
7
  6
CONTINUOUS
 10
177.9169829926
 20
88.097894243
 11
177.9169829926
 21
87.9064049041
  0
LINE
  5
654
100
AcDbEntity
  8
0
100
AcDbLine
 62
7
  6
CONTINUOUS
 10
177.9660763315
 20
97.0351283407
 11
177.9660763315
 21
96.6095963573
  0
LINE
  5
655
100
AcDbEntity
  8
0
100
AcDbLine
 62
7
  6
CONTINUOUS
 10
178.1876155183
 20
87.8425751245
 11
178.1876155183
 21
88.161724112
  0
LINE
  5
656
100
AcDbEntity
  8
0
100
AcDbLine
 62
7
  6
CONTINUOUS
 10
168.6072097019
 20
89.5659794426
 11
168.5530831077
 21
89.3106603241
  0
LINE
  5
657
100
AcDbEntity
  8
KONSTRUKTIONSELEMENTE
100
AcDbLine
 62
7
  6
CONTINUOUS
 10
186.7994710545
 20
178.5931452145
 11
184.2994093469
 21
169.2627878999
  0
LINE
  5
658
100
AcDbEntity
  8
KONSTRUKTIONSELEMENTE
100
AcDbLine
 62
7
  6
CONTINUOUS
 10
177.7993480178
 20
137.9324319974
 11
180.2994093469
 21
147.2627878999
  0
LINE
  5
659
100
AcDbEntity
  8
RUNDUNGEN
100
AcDbLine
 62
7
  6
CONTINUOUS
 10
168.8304982602
 20
123.2788133037
 11
165.4333839432
 21
117.3948387075
  0
LINE
  5
65A
100
AcDbEntity
  8
0
100
AcDbLine
 62
7
  6
CONTINUOUS
 10
192.0494093469
 20
95.5032134211
 11
191.8827433161
 21
95.8436389422
  0
LINE
  5
65B
100
AcDbEntity
  8
0
100
AcDbLine
 62
7
  6
CONTINUOUS
 10
188.0494093469
 20
104.2266177988
 11
187.8827423624
 21
104.5670432901
  0
LINE
  5
65C
100
AcDbEntity
  8
0
100
AcDbLine
 62
7
  6
CONTINUOUS
 10
186.4660753778
 20
96.6095963573
 11
186.3827433161
 21
96.864915595
  0
LINE
  5
65D
100
AcDbEntity
  8
0
100
AcDbLine
 62
7
  6
CONTINUOUS
 10
186.7160753778
 20
98.2266177988
 11
186.6327433161
 21
98.4819369173
  0
LINE
  5
65E
100
AcDbEntity
  8
0
100
AcDbLine
 62
7
  6
CONTINUOUS
 10
187.6327433161
 20
95.8436389422
 11
187.5494093469
 21
96.0989581203
  0
LINE
  5
65F
100
AcDbEntity
  8
0
100
AcDbLine
 62
7
  6
CONTINUOUS
 10
187.9652115424
 20
90.0617241716
 11
188.975574479
 21
86.9127878999
  0
LINE
  5
660
100
AcDbEntity
  8
0
100
AcDbLine
 62
7
  6
CONTINUOUS
 10
189.014249648
 20
87.3383198237
 11
187.9317178933
 21
90.9127878999
  0
LINE
  5
661
100
AcDbEntity
  8
0
100
AcDbLine
 62
7
  6
CONTINUOUS
 10
189.264249648
 20
87.3383198237
 11
188.1817178933
 21
90.9127878999
  0
LINE
  5
662
100
AcDbEntity
  8
0
100
AcDbLine
 62
7
  6
CONTINUOUS
 10
181.7160758547
 20
102.1840644931
 11
181.6327428392
 21
102.5244899845
  0
LINE
  5
663
100
AcDbEntity
  8
0
100
AcDbLine
 62
7
  6
CONTINUOUS
 10
181.6327423624
 20
97.5457665777
 11
181.5494093469
 21
97.9712984419
  0
LINE
  5
664
100
AcDbEntity
  8
0
100
AcDbLine
 62
7
  6
CONTINUOUS
 10
181.2160760931
 20
102.0989581203
 11
181.1327426008
 21
102.5244899845
  0
LINE
  5
665
100
AcDbEntity
  8
0
100
AcDbLine
 62
7
  6
CONTINUOUS
 10
181.2160763315
 20
97.4606602049
 11
181.1327423624
 21
97.9712984419
  0
LINE
  5
666
100
AcDbEntity
  8
0
100
AcDbLine
 62
7
  6
CONTINUOUS
 10
178.4376155183
 20
87.8425751245
 11
178.4376155183
 21
88.161724112
  0
LINE
  5
667
100
AcDbEntity
  8
0
100
AcDbLine
 62
7
  6
CONTINUOUS
 10
178.6327423624
 20
96.7798092222
 11
178.6327423624
 21
97.5457665777
  0
LINE
  5
668
100
AcDbEntity
  8
0
100
AcDbLine
 62
7
  6
CONTINUOUS
 10
179.0494093469
 20
97.4606602049
 11
179.0494093469
 21
96.864915595
  0
LINE
  5
669
100
AcDbEntity
  8
0
100
AcDbLine
 62
7
  6
CONTINUOUS
 10
179.7962579123
 20
85.7627878999
 11
179.7962579123
 21
91.7627878999
  0
LINE
  5
66A
100
AcDbEntity
  8
0
100
AcDbLine
 62
7
  6
CONTINUOUS
 10
179.8827426008
 20
104.2266177988
 11
179.8827426008
 21
103.9712984419
  0
LINE
  5
66B
100
AcDbEntity
  8
KONSTRUKTIONSELEMENTE
100
AcDbLine
 62
7
  6
CONTINUOUS
 10
180.2994093469
 20
169.2627878999
 11
180.2994093469
 21
147.2627878999
  0
LINE
  5
66C
100
AcDbEntity
  8
0
100
AcDbLine
 62
7
  6
CONTINUOUS
 10
180.3827426008
 20
104.2266177988
 11
180.3827426008
 21
103.886192069
  0
LINE
  5
66D
100
AcDbEntity
  8
KONSTRUKTIONSELEMENTE
100
AcDbLine
 62
7
  6
CONTINUOUS
 10
180.9404254983
 20
84.7627878999
 11
180.9404254983
 21
93.2627878999
  0
LINE
  5
66E
100
AcDbEntity
  8
0
100
AcDbLine
 62
7
  6
CONTINUOUS
 10
181.1327426008
 20
105.1627878999
 11
181.1327426008
 21
102.5244899845
  0
LINE
  5
66F
100
AcDbEntity
  8
0
100
AcDbLine
 62
7
  6
CONTINUOUS
 10
181.2160763315
 20
97.4606602049
 11
181.2160763315
 21
96.864915595
  0
LINE
  5
670
100
AcDbEntity
  8
0
100
AcDbLine
 62
7
  6
CONTINUOUS
 10
181.6327423624
 20
97.5457665777
 11
181.6327423624
 21
96.7798092222
  0
LINE
  5
671
100
AcDbEntity
  8
0
100
AcDbLine
 62
7
  6
CONTINUOUS
 10
181.6327428392
 20
105.1627878999
 11
181.6327428392
 21
102.5244899845
  0
LINE
  5
672
100
AcDbEntity
  8
0
100
AcDbLine
 62
7
  6
CONTINUOUS
 10
176.2931853605
 20
89.183000586
 11
176.2390583598
 21
88.7361921286
  0
LINE
  5
673
100
AcDbEntity
  8
0
100
AcDbLine
 62
7
  6
CONTINUOUS
 10
173.0997164776
 20
90.0127878999
 11
172.7749569512
 21
87.7149155652
  0
LINE
  5
674
100
AcDbEntity
  8
0
100
AcDbLine
 62
7
  6
CONTINUOUS
 10
176.509691505
 20
88.7361921286
 11
176.5638178862
 21
89.1191708064
  0
LINE
  5
675
100
AcDbEntity
  8
0
100
AcDbLine
 62
7
  6
CONTINUOUS
 10
172.9914634053
 20
87.0127878999
 11
173.424476004
 21
90.0127878999
  0
LINE
  5
676
100
AcDbEntity
  8
0
100
AcDbLine
 62
7
  6
CONTINUOUS
 10
173.2414634053
 20
87.0127878999
 11
173.674476004
 21
90.0127878999
  0
LINE
  5
677
100
AcDbEntity
  8
0
100
AcDbLine
 62
7
  6
CONTINUOUS
 10
171.6924252997
 20
87.0127878999
 11
172.1254378983
 21
89.4383198833
  0
LINE
  5
678
100
AcDbEntity
  8
0
100
AcDbLine
 62
7
  6
CONTINUOUS
 10
171.9424252997
 20
87.0127878999
 11
172.2504378983
 21
88.7381289446
  0
LINE
  5
679
100
AcDbEntity
  8
0
100
AcDbLine
 62
7
  6
CONTINUOUS
 10
171.9089314441
 20
90.0127878999
 11
171.4759188455
 21
87.7149155652
  0
LINE
  5
67A
100
AcDbEntity
  8
0
100
AcDbLine
 62
7
  6
CONTINUOUS
 10
168.8778426341
 20
89.2468303656
 11
168.931969209
 21
89.4383198833
  0
LINE
  5
67B
100
AcDbEntity
  8
0
100
AcDbLine
 62
7
  6
CONTINUOUS
 10
169.1278426341
 20
89.2468303656
 11
169.181969209
 21
89.4383198833
  0
LINE
  5
67C
100
AcDbEntity
  8
0
100
AcDbLine
 62
7
  6
CONTINUOUS
 10
193.4431032322
 20
133.6627878999
 11
188.4840677854
 21
133.6627878999
  0
LINE
  5
67D
100
AcDbEntity
  8
0
100
AcDbLine
 62
7
  6
CONTINUOUS
 10
176.1147509085
 20
133.6627878999
 11
171.1557156614
 21
133.6627878999
  0
LINE
  5
67E
100
AcDbEntity
  8
RUNDUNGEN
100
AcDbLine
 62
7
  6
CONTINUOUS
 10
187.1298517012
 20
122.5121357433
 11
186.7994093469
 21
122.8791291573
  0
LINE
  5
67F
100
AcDbEntity
  8
0
100
AcDbLine
 62
7
  6
CONTINUOUS
 10
192.3827433161
 20
95.7585325694
 11
192.2994093469
 21
96.0138517475
  0
LINE
  5
680
100
AcDbEntity
  8
0
100
AcDbLine
 62
7
  6
CONTINUOUS
 10
187.6327423624
 20
103.8010856962
 11
187.5494093469
 21
104.1415111875
  0
LINE
  5
681
100
AcDbEntity
  8
0
100
AcDbLine
 62
7
  6
CONTINUOUS
 10
190.5494093469
 20
96.4393836116
 11
190.4660753778
 21
96.7798092222
  0
LINE
  5
682
100
AcDbEntity
  8
0
100
AcDbLine
 62
7
  6
CONTINUOUS
 10
190.4660753778
 20
98.2266177988
 11
190.3827433161
 21
98.5670432901
  0
LINE
  5
683
100
AcDbEntity
  8
0
100
AcDbLine
 62
7
  6
CONTINUOUS
 10
188.1327423624
 20
103.8010856962
 11
188.0494093469
 21
104.2266177988
  0
LINE
  5
684
100
AcDbEntity
  8
0
100
AcDbLine
 62
7
  6
CONTINUOUS
 10
183.9660763315
 20
96.269170866
 11
183.8827423624
 21
96.864915595
  0
LINE
  5
685
100
AcDbEntity
  8
0
100
AcDbLine
 62
7
  6
CONTINUOUS
 10
183.6327428392
 20
105.1627878999
 11
183.6327428392
 21
102.5244899845
  0
LINE
  5
686
100
AcDbEntity
  8
KONSTRUKTIONSELEMENTE
100
AcDbLine
 62
7
  6
CONTINUOUS
 10
183.6583931956
 20
84.7627878999
 11
183.6583931956
 21
93.2627878999
  0
LINE
  5
687
100
AcDbEntity
  8
0
100
AcDbLine
 62
7
  6
CONTINUOUS
 10
183.8827423624
 20
97.4606602049
 11
183.8827423624
 21
96.864915595
  0
LINE
  5
688
100
AcDbEntity
  8
0
100
AcDbLine
 62
7
  6
CONTINUOUS
 10
184.1327428392
 20
105.1627878999
 11
184.1327428392
 21
102.5244899845
  0
LINE
  5
689
100
AcDbEntity
  8
KONSTRUKTIONSELEMENTE
100
AcDbLine
 62
7
  6
CONTINUOUS
 10
184.2994093469
 20
169.2627878999
 11
184.2994093469
 21
147.2627878999
  0
LINE
  5
68A
100
AcDbEntity
  8
0
100
AcDbLine
 62
7
  6
CONTINUOUS
 10
184.2994093469
 20
97.4606602049
 11
184.2994093469
 21
97.2904474592
  0
LINE
  5
68B
100
AcDbEntity
  8
0
100
AcDbLine
 62
7
  6
CONTINUOUS
 10
184.3827423624
 20
96.6095963573
 11
184.3827423624
 21
96.3542772388
  0
LINE
  5
68C
100
AcDbEntity
  8
KONSTRUKTIONSELEMENTE
100
AcDbLine
 62
7
  6
CONTINUOUS
 10
184.7244093469
 20
165.7627878999
 11
184.7244093469
 21
161.2627878999
  0
LINE
  5
68D
100
AcDbEntity
  8
KONSTRUKTIONSELEMENTE
100
AcDbLine
 62
7
  6
CONTINUOUS
 10
184.7244093469
 20
159.7627878999
 11
184.7244093469
 21
155.2627878999
  0
LINE
  5
68E
100
AcDbEntity
  8
KONSTRUKTIONSELEMENTE
100
AcDbLine
 62
7
  6
CONTINUOUS
 10
184.7244093469
 20
153.7627878999
 11
184.7244093469
 21
149.2627878999
  0
LINE
  5
68F
100
AcDbEntity
  8
0
100
AcDbLine
 62
7
  6
CONTINUOUS
 10
184.7994093469
 20
105.1627878999
 11
184.7994093469
 21
101.1627878999
  0
LINE
  5
690
100
AcDbEntity
  8
0
100
AcDbLine
 62
7
  6
CONTINUOUS
 10
185.2994093469
 20
104.6521496629
 11
185.2994093469
 21
101.6734261965
  0
LINE
  5
691
100
AcDbEntity
  8
0
100
AcDbLine
 62
7
  6
CONTINUOUS
 10
186.4660753778
 20
96.6095963573
 11
186.4660753778
 21
96.3542772388
  0
LINE
  5
692
100
AcDbEntity
  8
KONSTRUKTIONSELEMENTE
100
AcDbLine
 62
7
  6
CONTINUOUS
 10
186.7994093469
 20
190.4798148449
 11
186.7994093469
 21
178.5835256837
  0
LINE
  5
693
100
AcDbEntity
  8
KONSTRUKTIONSELEMENTE
100
AcDbLine
 62
7
  6
CONTINUOUS
 10
186.7994093469
 20
137.9412439967
 11
186.7994093469
 21
121.2627878999
  0
LINE
  5
694
100
AcDbEntity
  8
0
100
AcDbLine
 62
7
  6
CONTINUOUS
 10
186.8827433161
 20
96.6947028494
 11
186.8827433161
 21
96.269170866
  0
LINE
  5
695
100
AcDbEntity
  8
KONSTRUKTIONSELEMENTE
100
AcDbLine
 62
7
  6
CONTINUOUS
 10
187.2994093469
 20
197.057602576
 11
187.2994093469
 21
188.794967446
  0
LINE
  5
696
100
AcDbEntity
  8
0
100
AcDbLine
 62
7
  6
CONTINUOUS
 10
176.7706439876
 20
88.8136879302
 11
176.8138178862
 21
89.1191708064
  0
LINE
  5
697
100
AcDbEntity
  8
0
100
AcDbLine
 62
7
  6
CONTINUOUS
 10
179.1327423624
 20
97.9712984419
 11
179.0494093469
 21
97.4606602049
  0
LINE
  5
698
100
AcDbEntity
  8
0
100
AcDbLine
 62
7
  6
CONTINUOUS
 10
181.2160763315
 20
96.864915595
 11
181.1327423624
 21
96.3542772388
  0
LINE
  5
699
100
AcDbEntity
  8
0
100
AcDbLine
 62
7
  6
CONTINUOUS
 10
178.7160763315
 20
97.9712984419
 11
178.6327423624
 21
97.5457665777
  0
LINE
  5
69A
100
AcDbEntity
  8
0
100
AcDbLine
 62
7
  6
CONTINUOUS
 10
173.9657416749
 20
89.5659794426
 11
173.9116152936
 21
89.3106603241
  0
LINE
  5
69B
100
AcDbEntity
  8
0
100
AcDbLine
 62
7
  6
CONTINUOUS
 10
175.6977926889
 20
88.9276814675
 11
175.7519190702
 21
89.183000586
  0
LINE
  5
69C
100
AcDbEntity
  8
0
100
AcDbLine
 62
7
  6
CONTINUOUS
 10
175.9477926889
 20
88.9276814675
 11
176.0019190702
 21
89.183000586
  0
LINE
  5
69D
100
AcDbEntity
  8
0
100
AcDbLine
 62
7
  6
CONTINUOUS
 10
171.8827426008
 20
97.9712984419
 11
171.7994093469
 21
97.7159793234
  0
LINE
  5
69E
100
AcDbEntity
  8
0
100
AcDbLine
 62
7
  6
CONTINUOUS
 10
172.3827426008
 20
97.886192069
 11
172.2994093469
 21
97.6308729505
  0
LINE
  5
69F
100
AcDbEntity
  8
0
100
AcDbLine
 62
7
  6
CONTINUOUS
 10
175.6327428392
 20
97.9712984419
 11
175.5494093469
 21
97.7159793234
  0
LINE
  5
6A0
100
AcDbEntity
  8
0
100
AcDbLine
 62
7
  6
CONTINUOUS
 10
176.1327428392
 20
97.886192069
 11
176.0494093469
 21
97.6308729505
  0
LINE
  5
6A1
100
AcDbEntity
  8
RUNDUNGEN
100
AcDbLine
 62
7
  6
CONTINUOUS
 10
177.7994093469
 20
122.8791291573
 11
177.4689668975
 21
122.5121356375
  0
LINE
  5
6A2
100
AcDbEntity
  8
0
100
AcDbLine
 62
7
  6
CONTINUOUS
 10
195.3651023338
 20
89.9766177988
 11
195.2929338255
 21
90.3170432901
  0
LINE
  5
6A3
100
AcDbEntity
  8
0
100
AcDbLine
 62
7
  6
CONTINUOUS
 10
195.6151023338
 20
89.9766177988
 11
195.5429338255
 21
90.3170432901
  0
LINE
  5
6A4
100
AcDbEntity
  8
0
100
AcDbLine
 62
7
  6
CONTINUOUS
 10
187.5321988405
 20
90.9127878999
 11
187.5321988405
 21
86.9127878999
  0
LINE
  5
6A5
100
AcDbEntity
  8
0
100
AcDbLine
 62
7
  6
CONTINUOUS
 10
187.6327423624
 20
103.8010856962
 11
187.6327423624
 21
102.5244899845
  0
LINE
  5
6A6
100
AcDbEntity
  8
0
100
AcDbLine
 62
7
  6
CONTINUOUS
 10
187.7152115424
 20
86.9127878999
 11
187.7152115424
 21
90.0617241716
  0
LINE
  5
6A7
100
AcDbEntity
  8
0
100
AcDbLine
 62
7
  6
CONTINUOUS
 10
187.9652115424
 20
86.9127878999
 11
187.9652115424
 21
90.0617241716
  0
LINE
  5
6A8
100
AcDbEntity
  8
0
100
AcDbLine
 62
7
  6
CONTINUOUS
 10
188.1327423624
 20
103.8010856962
 11
188.1327423624
 21
102.5244899845
  0
LINE
  5
6A9
100
AcDbEntity
  8
0
100
AcDbLine
 62
7
  6
CONTINUOUS
 10
188.2994093469
 20
84.7627878999
 11
188.2994093469
 21
67.2627878999
  0
LINE
  5
6AA
100
AcDbEntity
  8
0
100
AcDbLine
 62
7
  6
CONTINUOUS
 10
188.8827433161
 20
97.375553832
 11
188.8827433161
 21
97.0351283407
  0
LINE
  5
6AB
100
AcDbEntity
  8
0
100
AcDbLine
 62
7
  6
CONTINUOUS
 10
190.0494093469
 20
98.2266177988
 11
190.0494093469
 21
98.0564048147
  0
LINE
  5
6AC
100
AcDbEntity
  8
0
100
AcDbLine
 62
7
  6
CONTINUOUS
 10
190.1327433161
 20
96.4393836116
 11
190.1327433161
 21
96.0989581203
  0
LINE
  5
6AD
100
AcDbEntity
  8
0
100
AcDbLine
 62
7
  6
CONTINUOUS
 10
190.4660753778
 20
98.2266177988
 11
190.4660753778
 21
98.0564048147
  0
LINE
  5
6AE
100
AcDbEntity
  8
0
100
AcDbLine
 62
7
  6
CONTINUOUS
 10
190.5494093469
 20
96.4393836116
 11
190.5494093469
 21
96.0989581203
  0
LINE
  5
6AF
100
AcDbEntity
  8
0
100
AcDbLine
 62
7
  6
CONTINUOUS
 10
190.5632877537
 20
90.0617241716
 11
190.5632877537
 21
86.9127878999
  0
LINE
  5
6B0
100
AcDbEntity
  8
0
100
AcDbLine
 62
7
  6
CONTINUOUS
 10
190.7463004556
 20
86.9127878999
 11
190.7463004556
 21
90.9127878999
  0
LINE
  5
6B1
100
AcDbEntity
  8
0
100
AcDbLine
 62
7
  6
CONTINUOUS
 10
190.9963004556
 20
86.9127878999
 11
190.9963004556
 21
90.9127878999
  0
LINE
  5
6B2
100
AcDbEntity
  8
0
100
AcDbLine
 62
7
  6
CONTINUOUS
 10
191.2160753778
 20
97.886192069
 11
191.2160753778
 21
97.5457665777
  0
LINE
  5
6B3
100
AcDbEntity
  8
0
100
AcDbLine
 62
7
  6
CONTINUOUS
 10
191.5736505872
 20
90.3170432901
 11
191.5736505872
 21
89.636192069
  0
LINE
  5
6B4
100
AcDbEntity
  8
0
100
AcDbLine
 62
7
  6
CONTINUOUS
 10
191.8827433161
 20
98.5670432901
 11
191.8827433161
 21
97.886192069
  0
LINE
  5
6B5
100
AcDbEntity
  8
0
100
AcDbLine
 62
7
  6
CONTINUOUS
 10
191.8827433161
 20
97.5457665777
 11
191.8827433161
 21
95.8436389422
  0
LINE
  5
6B6
100
AcDbEntity
  8
0
100
AcDbLine
 62
7
  6
CONTINUOUS
 10
192.006663289
 20
90.2319369173
 11
192.006663289
 21
86.9127878999
  0
LINE
  5
6B7
100
AcDbEntity
  8
0
100
AcDbLine
 62
7
  6
CONTINUOUS
 10
183.9660763315
 20
98.0564048147
 11
183.8827423624
 21
97.4606602049
  0
LINE
  5
6B8
100
AcDbEntity
  8
0
100
AcDbLine
 62
7
  6
CONTINUOUS
 10
184.3827423624
 20
97.9712984419
 11
184.2994093469
 21
97.4606602049
  0
LINE
  5
6B9
100
AcDbEntity
  8
0
100
AcDbLine
 62
7
  6
CONTINUOUS
 10
181.6327423624
 20
96.7798092222
 11
181.5494093469
 21
96.3542772388
  0
LINE
  5
6BA
100
AcDbEntity
  8
0
100
AcDbLine
 62
7
  6
CONTINUOUS
 10
184.1327428392
 20
102.5244899845
 11
184.0494093469
 21
102.0989581203
  0
LINE
  5
6BB
100
AcDbEntity
  8
0
100
AcDbLine
 62
7
  6
CONTINUOUS
 10
183.6327428392
 20
102.5244899845
 11
183.5494093469
 21
102.1840644931
  0
LINE
  5
6BC
100
AcDbEntity
  8
0
100
AcDbLine
 62
7
  6
CONTINUOUS
 10
175.7519190702
 20
87.5234261816
 11
175.8060460709
 21
87.7149155652
  0
LINE
  5
6BD
100
AcDbEntity
  8
0
100
AcDbLine
 62
7
  6
CONTINUOUS
 10
176.0019190702
 20
87.5234261816
 11
176.0560460709
 21
87.7149155652
  0
LINE
  5
6BE
100
AcDbEntity
  8
0
100
AcDbLine
 62
7
  6
CONTINUOUS
 10
176.5638178862
 20
89.1191708064
 11
176.6179448869
 21
89.3106603241
  0
LINE
  5
6BF
100
AcDbEntity
  8
0
100
AcDbLine
 62
7
  6
CONTINUOUS
 10
176.8138178862
 20
89.1191708064
 11
176.8679448869
 21
89.3106603241
  0
LINE
  5
6C0
100
AcDbEntity
  8
0
100
AcDbLine
 62
7
  6
CONTINUOUS
 10
176.5638178862
 20
88.097894243
 11
176.6179448869
 21
88.2893836713
  0
LINE
  5
6C1
100
AcDbEntity
  8
0
100
AcDbLine
 62
7
  6
CONTINUOUS
 10
176.8138178862
 20
88.097894243
 11
176.8679448869
 21
88.2893836713
  0
LINE
  5
6C2
100
AcDbEntity
  8
0
100
AcDbLine
 62
7
  6
CONTINUOUS
 10
177.9169829926
 20
87.9064049041
 11
177.8628559919
 21
87.7149155652
  0
LINE
  5
6C3
100
AcDbEntity
  8
0
100
AcDbLine
 62
7
  6
CONTINUOUS
 10
179.8827426008
 20
103.9712984419
 11
179.7994093469
 21
103.7159793234
  0
LINE
  5
6C4
100
AcDbEntity
  8
0
100
AcDbLine
 62
7
  6
CONTINUOUS
 10
180.3827426008
 20
103.886192069
 11
180.2994093469
 21
103.6308729505
  0
LINE
  5
6C5
100
AcDbEntity
  8
0
100
AcDbLine
 62
7
  6
CONTINUOUS
 10
178.7994093469
 20
98.2266177988
 11
178.7160763315
 21
97.9712984419
  0
LINE
  5
6C6
100
AcDbEntity
  8
0
100
AcDbLine
 62
7
  6
CONTINUOUS
 10
176.401438123
 20
89.5021496629
 11
176.2931853605
 21
89.183000586
  0
LINE
  5
6C7
100
AcDbEntity
  8
0
100
AcDbLine
 62
7
  6
CONTINUOUS
 10
170.2851339669
 20
87.459596402
 11
170.3933870391
 21
87.7149155652
  0
LINE
  5
6C8
100
AcDbEntity
  8
0
100
AcDbLine
 62
7
  6
CONTINUOUS
 10
170.5351339669
 20
87.459596402
 11
170.6433870391
 21
87.7149155652
  0
LINE
  5
6C9
100
AcDbEntity
  8
RUNDUNGEN
100
AcDbLine
 62
7
  6
CONTINUOUS
 10
194.7145204547
 20
132.7032938448
 11
194.2091461319
 21
133.3055755096
  0
LINE
  5
6CA
100
AcDbEntity
  8
RUNDUNGEN
100
AcDbLine
 62
7
  6
CONTINUOUS
 10
199.1654347507
 20
117.3948387075
 11
195.7683204337
 21
123.2788133037
  0
LINE
  5
6CB
100
AcDbEntity
  8
KONSTRUKTIONSELEMENTE
100
AcDbLine
 62
7
  6
CONTINUOUS
 10
184.2994093469
 20
147.2627878999
 11
186.7994661693
 21
137.932448817
  0
LINE
  5
6CC
100
AcDbEntity
  8
KONSTRUKTIONSELEMENTE
100
AcDbLine
 62
7
  6
CONTINUOUS
 10
180.2994093469
 20
169.2627878999
 11
177.79935261
 21
178.5931266641
  0
LINE
  5
6CD
100
AcDbEntity
  8
0
100
AcDbLine
 62
7
  6
CONTINUOUS
 10
192.1896759909
 20
86.9127878999
 11
192.1896759909
 21
90.9127878999
  0
LINE
  5
6CE
100
AcDbEntity
  8
0
100
AcDbLine
 62
7
  6
CONTINUOUS
 10
192.2994093469
 20
98.5670432901
 11
192.2994093469
 21
97.886192069
  0
LINE
  5
6CF
100
AcDbEntity
  8
0
100
AcDbLine
 62
7
  6
CONTINUOUS
 10
192.2994093469
 20
97.5457665777
 11
192.2994093469
 21
96.0138517475
  0
LINE
  5
6D0
100
AcDbEntity
  8
0
100
AcDbLine
 62
7
  6
CONTINUOUS
 10
192.4396759909
 20
86.9127878999
 11
192.4396759909
 21
90.9127878999
  0
LINE
  5
6D1
100
AcDbEntity
  8
0
100
AcDbLine
 62
7
  6
CONTINUOUS
 10
193.0170265354
 20
87.3383198237
 11
193.0170265354
 21
86.9127878999
  0
LINE
  5
6D2
100
AcDbEntity
  8
0
100
AcDbLine
 62
7
  6
CONTINUOUS
 10
193.0494093469
 20
95.5032134211
 11
193.0494093469
 21
95.1627878999
  0
LINE
  5
6D3
100
AcDbEntity
  8
0
100
AcDbLine
 62
7
  6
CONTINUOUS
 10
193.2160753778
 20
97.886192069
 11
193.2160753778
 21
97.5457665777
  0
LINE
  5
6D4
100
AcDbEntity
  8
0
100
AcDbLine
 62
7
  6
CONTINUOUS
 10
195.1820896319
 20
89.9766177988
 11
195.1820896319
 21
89.8064048147
  0
LINE
  5
6D5
100
AcDbEntity
  8
RUNDUNGEN
100
AcDbLine
 62
7
  6
CONTINUOUS
 10
195.2994093469
 20
125.0288133037
 11
195.2994093469
 21
131.0963248205
  0
LINE
  5
6D6
100
AcDbEntity
  8
0
100
AcDbLine
 62
7
  6
CONTINUOUS
 10
195.3651023338
 20
86.9127878999
 11
195.3651023338
 21
87.3383198237
  0
LINE
  5
6D7
100
AcDbEntity
  8
0
100
AcDbLine
 62
7
  6
CONTINUOUS
 10
195.3651023338
 20
89.8064048147
 11
195.3651023338
 21
89.9766177988
  0
LINE
  5
6D8
100
AcDbEntity
  8
0
100
AcDbLine
 62
7
  6
CONTINUOUS
 10
195.6151023338
 20
86.9127878999
 11
195.6151023338
 21
87.3383198237
  0
LINE
  5
6D9
100
AcDbEntity
  8
0
100
AcDbLine
 62
7
  6
CONTINUOUS
 10
195.6151023338
 20
89.8064048147
 11
195.6151023338
 21
89.9766177988
  0
LINE
  5
6DA
100
AcDbEntity
  8
0
100
AcDbLine
 62
7
  6
CONTINUOUS
 10
188.1327423624
 20
102.5244899845
 11
188.0494093469
 21
102.0989581203
  0
LINE
  5
6DB
100
AcDbEntity
  8
0
100
AcDbLine
 62
7
  6
CONTINUOUS
 10
187.6327423624
 20
102.5244899845
 11
187.5494093469
 21
102.1840644931
  0
LINE
  5
6DC
100
AcDbEntity
  8
0
100
AcDbLine
 62
7
  6
CONTINUOUS
 10
187.7160753778
 20
98.5670432901
 11
187.6327433161
 21
98.2266177988
  0
LINE
  5
6DD
100
AcDbEntity
  8
0
100
AcDbLine
 62
7
  6
CONTINUOUS
 10
181.5494093469
 20
96.3542772388
 11
181.4660763315
 21
96.0989581203
  0
LINE
  5
6DE
100
AcDbEntity
  8
0
100
AcDbLine
 62
7
  6
CONTINUOUS
 10
184.4660763315
 20
98.2266177988
 11
184.3827423624
 21
97.9712984419
  0
LINE
  5
6DF
100
AcDbEntity
  8
0
100
AcDbLine
 62
7
  6
CONTINUOUS
 10
184.4660763315
 20
96.864915595
 11
184.3827423624
 21
96.6095963573
  0
LINE
  5
6E0
100
AcDbEntity
  8
0
100
AcDbLine
 62
7
  6
CONTINUOUS
 10
178.0793627558
 20
87.5234261816
 11
178.1876155183
 21
87.8425751245
  0
LINE
  5
6E1
100
AcDbEntity
  8
0
100
AcDbLine
 62
7
  6
CONTINUOUS
 10
178.3293627558
 20
87.5234261816
 11
178.4376155183
 21
87.8425751245
  0
LINE
  5
6E2
100
AcDbEntity
  8
0
100
AcDbLine
 62
7
  6
CONTINUOUS
 10
184.1327423624
 20
98.4819369173
 11
183.9660763315
 21
98.0564048147
  0
LINE
  5
6E3
100
AcDbEntity
  8
0
100
AcDbLine
 62
7
  6
CONTINUOUS
 10
175.4812865445
 20
89.183000586
 11
175.3730331625
 21
88.9276814675
  0
LINE
  5
6E4
100
AcDbEntity
  8
0
100
AcDbLine
 62
7
  6
CONTINUOUS
 10
175.5354129257
 20
87.7149155652
 11
175.4812865445
 21
87.587256006
  0
LINE
  5
6E5
100
AcDbEntity
  8
0
100
AcDbLine
 62
7
  6
CONTINUOUS
 10
178.9660763315
 20
98.5670432901
 11
178.7994093469
 21
98.2266177988
  0
LINE
  5
6E6
100
AcDbEntity
  8
0
100
AcDbLine
 62
7
  6
CONTINUOUS
 10
170.0686275127
 20
87.7787453448
 11
169.9603744405
 21
87.587256006
  0
LINE
  5
6E7
100
AcDbEntity
  8
0
100
AcDbLine
 62
7
  6
CONTINUOUS
 10
172.2994093469
 20
97.6308729505
 11
172.0494093469
 21
97.2904474592
  0
LINE
  5
6E8
100
AcDbEntity
  8
KONSTRUKTIONSELEMENTE
100
AcDbLine
 62
7
  6
CONTINUOUS
 10
198.9404254983
 20
84.7627878999
 11
198.9404254983
 21
93.2627878999
  0
LINE
  5
6E9
100
AcDbEntity
  8
0
100
AcDbLine
 62
7
  6
CONTINUOUS
 10
199.2994093469
 20
116.8948387075
 11
199.2994093469
 21
93.2627878999
  0
LINE
  5
6EA
100
AcDbEntity
  8
KONSTRUKTIONSELEMENTE
100
AcDbLine
 62
7
  6
CONTINUOUS
 10
200.2994093469
 20
84.7627878999
 11
200.2994093469
 21
93.2627878999
  0
LINE
  5
6EB
100
AcDbEntity
  8
0
100
AcDbLine
 62
7
  6
CONTINUOUS
 10
190.4660753778
 20
98.0564048147
 11
190.3827433161
 21
97.7159793234
  0
LINE
  5
6EC
100
AcDbEntity
  8
0
100
AcDbLine
 62
7
  6
CONTINUOUS
 10
186.4660753778
 20
96.3542772388
 11
186.3827433161
 21
96.0989581203
  0
LINE
  5
6ED
100
AcDbEntity
  8
0
100
AcDbLine
 62
7
  6
CONTINUOUS
 10
186.8827433161
 20
96.269170866
 11
186.7160753778
 21
95.8436389422
  0
LINE
  5
6EE
100
AcDbEntity
  8
0
100
AcDbLine
 62
7
  6
CONTINUOUS
 10
184.0494093469
 20
102.0989581203
 11
183.8827428392
 21
101.7585325694
  0
LINE
  5
6EF
100
AcDbEntity
  8
0
100
AcDbLine
 62
7
  6
CONTINUOUS
 10
181.4660763315
 20
96.0989581203
 11
181.2994093469
 21
95.7585325694
  0
LINE
  5
6F0
100
AcDbEntity
  8
0
100
AcDbLine
 62
7
  6
CONTINUOUS
 10
188.0494093469
 20
102.0989581203
 11
187.8827423624
 21
101.7585325694
  0
LINE
  5
6F1
100
AcDbEntity
  8
0
100
AcDbLine
 62
7
  6
CONTINUOUS
 10
182.7994093469
 20
95.5883198237
 11
182.2994093469
 21
94.6521496033
  0
LINE
  5
6F2
100
AcDbEntity
  8
0
100
AcDbLine
 62
7
  6
CONTINUOUS
 10
183.2160763315
 20
95.5883198237
 11
182.7160763315
 21
94.6521496033
  0
LINE
  5
6F3
100
AcDbEntity
  8
0
100
AcDbLine
 62
7
  6
CONTINUOUS
 10
174.1822484388
 20
89.3106603241
 11
174.2905012013
 21
89.5021496629
  0
LINE
  5
6F4
100
AcDbEntity
  8
0
100
AcDbLine
 62
7
  6
CONTINUOUS
 10
174.4322484388
 20
89.3106603241
 11
174.5405012013
 21
89.5021496629
  0
LINE
  5
6F5
100
AcDbEntity
  8
0
100
AcDbLine
 62
7
  6
CONTINUOUS
 10
175.589539307
 20
88.7361921286
 11
175.6977926889
 21
88.9276814675
  0
LINE
  5
6F6
100
AcDbEntity
  8
0
100
AcDbLine
 62
7
  6
CONTINUOUS
 10
175.839539307
 20
88.7361921286
 11
175.9477926889
 21
88.9276814675
  0
LINE
  5
6F7
100
AcDbEntity
  8
0
100
AcDbLine
 62
7
  6
CONTINUOUS
 10
176.6179448869
 20
89.3106603241
 11
176.7261976495
 21
89.5021496629
  0
LINE
  5
6F8
100
AcDbEntity
  8
0
100
AcDbLine
 62
7
  6
CONTINUOUS
 10
175.6436663077
 20
87.3319368428
 11
175.7519190702
 21
87.5234261816
  0
LINE
  5
6F9
100
AcDbEntity
  8
0
100
AcDbLine
 62
7
  6
CONTINUOUS
 10
176.8679448869
 20
89.3106603241
 11
176.9761976495
 21
89.5021496629
  0
LINE
  5
6FA
100
AcDbEntity
  8
0
100
AcDbLine
 62
7
  6
CONTINUOUS
 10
175.8936663077
 20
87.3319368428
 11
176.0019190702
 21
87.5234261816
  0
LINE
  5
6FB
100
AcDbEntity
  8
0
100
AcDbLine
 62
7
  6
CONTINUOUS
 10
177.8628559919
 20
87.7149155652
 11
177.7546032294
 21
87.5234261816
  0
LINE
  5
6FC
100
AcDbEntity
  8
0
100
AcDbLine
 62
7
  6
CONTINUOUS
 10
176.5638178862
 20
89.7574687814
 11
176.401438123
 21
89.5021496629
  0
LINE
  5
6FD
100
AcDbEntity
  8
0
100
AcDbLine
 62
7
  6
CONTINUOUS
 10
179.4660763315
 20
98.4819369173
 11
179.1327423624
 21
97.9712984419
  0
LINE
  5
6FE
100
AcDbEntity
  8
0
100
AcDbLine
 62
7
  6
CONTINUOUS
 10
183.5494093469
 20
102.1840644931
 11
183.3827428392
 21
101.9287453746
  0
LINE
  5
6FF
100
AcDbEntity
  8
0
100
AcDbLine
 62
7
  6
CONTINUOUS
 10
180.2994093469
 20
103.6308729505
 11
180.0494093469
 21
103.2904474592
  0
LINE
  5
700
100
AcDbEntity
  8
0
100
AcDbLine
 62
7
  6
CONTINUOUS
 10
176.0494093469
 20
97.6308729505
 11
175.7994093469
 21
97.2904474592
  0
LINE
  5
701
100
AcDbEntity
  8
0
100
AcDbLine
 62
7
  6
CONTINUOUS
 10
168.8237160593
 20
89.8212985611
 11
168.6072097019
 21
89.5659794426
  0
LINE
  5
702
100
AcDbEntity
  8
0
100
AcDbLine
 62
7
  6
CONTINUOUS
 10
171.7994093469
 20
97.7159793234
 11
171.6327426008
 21
97.5457665777
  0
LINE
  5
703
100
AcDbEntity
  8
0
100
AcDbLine
 62
7
  6
CONTINUOUS
 10
179.7994093469
 20
103.7159793234
 11
179.6327426008
 21
103.5457665777
  0
LINE
  5
704
100
AcDbEntity
  8
KONSTRUKTIONSELEMENTE
100
AcDbLine
 62
7
  6
CONTINUOUS
 10
184.2994093469
 20
149.2627878999
 11
184.7244093469
 21
149.2627878999
  0
LINE
  5
705
100
AcDbEntity
  8
0
100
AcDbLine
 62
7
  6
CONTINUOUS
 10
193.1613639651
 20
90.3170432901
 11
193.0891950438
 21
89.9766177988
  0
LINE
  5
706
100
AcDbEntity
  8
0
100
AcDbLine
 62
7
  6
CONTINUOUS
 10
195.2929338255
 20
89.4659793234
 11
195.3651023338
 21
89.8064048147
  0
LINE
  5
707
100
AcDbEntity
  8
0
100
AcDbLine
 62
7
  6
CONTINUOUS
 10
195.5429338255
 20
89.4659793234
 11
195.6151023338
 21
89.8064048147
  0
LINE
  5
708
100
AcDbEntity
  8
0
100
AcDbLine
 62
7
  6
CONTINUOUS
 10
190.3467814028
 20
90.9127878999
 11
189.264249648
 21
87.3383198237
  0
LINE
  5
709
100
AcDbEntity
  8
0
100
AcDbLine
 62
7
  6
CONTINUOUS
 10
189.3029247138
 20
86.9127878999
 11
190.3132877537
 21
90.0617241716
  0
LINE
  5
70A
100
AcDbEntity
  8
0
100
AcDbLine
 62
7
  6
CONTINUOUS
 10
189.5529247138
 20
86.9127878999
 11
190.5632877537
 21
90.0617241716
  0
LINE
  5
70B
100
AcDbEntity
  8
0
100
AcDbLine
 62
7
  6
CONTINUOUS
 10
190.5494093469
 20
96.0989581203
 11
190.4660753778
 21
95.8436389422
  0
LINE
  5
70C
100
AcDbEntity
  8
0
100
AcDbLine
 62
7
  6
CONTINUOUS
 10
190.0494093469
 20
98.0564048147
 11
189.8827433161
 21
97.7159793234
  0
LINE
  5
70D
100
AcDbEntity
  8
0
100
AcDbLine
 62
7
  6
CONTINUOUS
 10
190.1327433161
 20
96.0989581203
 11
190.0494093469
 21
95.9287453746
  0
LINE
  5
70E
100
AcDbEntity
  8
0
100
AcDbLine
 62
7
  6
CONTINUOUS
 10
177.9169829926
 20
87.2681070408
 11
178.0793627558
 21
87.5234261816
  0
LINE
  5
70F
100
AcDbEntity
  8
0
100
AcDbLine
 62
7
  6
CONTINUOUS
 10
178.1669829926
 20
87.2681070408
 11
178.3293627558
 21
87.5234261816
  0
LINE
  5
710
100
AcDbEntity
  8
0
100
AcDbLine
 62
7
  6
CONTINUOUS
 10
181.1327423624
 20
96.3542772388
 11
180.7994093469
 21
95.8436389422
  0
LINE
  5
711
100
AcDbEntity
  8
0
100
AcDbLine
 62
7
  6
CONTINUOUS
 10
184.6327423624
 20
98.4819369173
 11
184.4660763315
 21
98.2266177988
  0
LINE
  5
712
100
AcDbEntity
  8
0
100
AcDbLine
 62
7
  6
CONTINUOUS
 10
187.5494093469
 20
102.1840644931
 11
187.3827423624
 21
101.9287453746
  0
LINE
  5
713
100
AcDbEntity
  8
0
100
AcDbLine
 62
7
  6
CONTINUOUS
 10
184.3827423624
 20
98.8223624086
 11
184.1327423624
 21
98.4819369173
  0
LINE
  5
714
100
AcDbEntity
  8
0
100
AcDbLine
 62
7
  6
CONTINUOUS
 10
170.0686275127
 20
87.2042772612
 11
170.2851339669
 21
87.459596402
  0
LINE
  5
715
100
AcDbEntity
  8
0
100
AcDbLine
 62
7
  6
CONTINUOUS
 10
170.3186275127
 20
87.2042772612
 11
170.5351339669
 21
87.459596402
  0
LINE
  5
716
100
AcDbEntity
  8
0
100
AcDbLine
 62
7
  6
CONTINUOUS
 10
174.1822484388
 20
89.8212985611
 11
173.9657416749
 21
89.5659794426
  0
LINE
  5
717
100
AcDbEntity
  8
0
100
AcDbLine
 62
7
  6
CONTINUOUS
 10
175.3730331625
 20
88.9276814675
 11
175.2647797806
 21
88.8000219083
  0
LINE
  5
718
100
AcDbEntity
  8
0
100
AcDbLine
 62
7
  6
CONTINUOUS
 10
175.5494093469
 20
97.7159793234
 11
175.3827428392
 21
97.5457665777
  0
LINE
  5
719
100
AcDbEntity
  8
0
100
AcDbLine
 62
7
  6
CONTINUOUS
 10
179.2160763315
 20
98.8223624086
 11
178.9660763315
 21
98.5670432901
  0
LINE
  5
71A
100
AcDbEntity
  8
0
100
AcDbLine
 62
7
  6
CONTINUOUS
 10
183.8827428392
 20
101.7585325694
 11
183.5494093469
 21
101.4181070482
  0
LINE
  5
71B
100
AcDbEntity
  8
0
100
AcDbLine
 62
7
  6
CONTINUOUS
 10
172.0494093469
 20
97.2904474592
 11
171.7160760931
 21
97.0351283407
  0
LINE
  5
71C
100
AcDbEntity
  8
KONSTRUKTIONSELEMENTE
100
AcDbLine
 62
7
  6
CONTINUOUS
 10
184.2994093469
 20
153.7627878999
 11
184.7244093469
 21
153.7627878999
  0
LINE
  5
71D
100
AcDbEntity
  8
KONSTRUKTIONSELEMENTE
100
AcDbLine
 62
7
  6
CONTINUOUS
 10
184.2994093469
 20
155.2627878999
 11
184.7244093469
 21
155.2627878999
  0
LINE
  5
71E
100
AcDbEntity
  8
KONSTRUKTIONSELEMENTE
100
AcDbLine
 62
7
  6
CONTINUOUS
 10
184.2994093469
 20
155.3585325778
 11
184.7244093469
 21
155.3585325778
  0
LINE
  5
71F
100
AcDbEntity
  8
KONSTRUKTIONSELEMENTE
100
AcDbLine
 62
7
  6
CONTINUOUS
 10
184.2994093469
 20
155.5500219418
 11
184.7244093469
 21
155.5500219418
  0
LINE
  5
720
100
AcDbEntity
  8
KONSTRUKTIONSELEMENTE
100
AcDbLine
 62
7
  6
CONTINUOUS
 10
184.2994093469
 20
155.9330006531
 11
184.7244093469
 21
155.9330006531
  0
LINE
  5
721
100
AcDbEntity
  8
KONSTRUKTIONSELEMENTE
100
AcDbLine
 62
7
  6
CONTINUOUS
 10
184.2994093469
 20
156.3159793979
 11
184.7244093469
 21
156.3159793979
  0
LINE
  5
722
100
AcDbEntity
  8
KONSTRUKTIONSELEMENTE
100
AcDbLine
 62
7
  6
CONTINUOUS
 10
184.2994093469
 20
156.794702745
 11
184.7244093469
 21
156.794702745
  0
LINE
  5
723
100
AcDbEntity
  8
0
100
AcDbLine
 62
7
  6
CONTINUOUS
 10
186.3827433161
 20
96.0989581203
 11
186.2160753778
 21
95.8436389422
  0
LINE
  5
724
100
AcDbEntity
  8
0
100
AcDbLine
 62
7
  6
CONTINUOUS
 10
188.2160753778
 20
98.4819369173
 11
188.0494093469
 21
98.2266177988
  0
LINE
  5
725
100
AcDbEntity
  8
0
100
AcDbLine
 62
7
  6
CONTINUOUS
 10
190.3827433161
 20
97.7159793234
 11
190.2160753778
 21
97.4606602049
  0
LINE
  5
726
100
AcDbEntity
  8
0
100
AcDbLine
 62
7
  6
CONTINUOUS
 10
190.4660753778
 20
95.8436389422
 11
190.2994093469
 21
95.5883198237
  0
LINE
  5
727
100
AcDbEntity
  8
0
100
AcDbLine
 62
7
  6
CONTINUOUS
 10
186.7160753778
 20
95.8436389422
 11
186.4660753778
 21
95.5032134211
  0
LINE
  5
728
100
AcDbEntity
  8
0
100
AcDbLine
 62
7
  6
CONTINUOUS
 10
175.4812865445
 20
87.587256006
 11
175.3730331625
 21
87.459596402
  0
LINE
  5
729
100
AcDbEntity
  8
0
100
AcDbLine
 62
7
  6
CONTINUOUS
 10
176.6179448869
 20
88.2893836713
 11
176.7261976495
 21
88.4170432305
  0
LINE
  5
72A
100
AcDbEntity
  8
0
100
AcDbLine
 62
7
  6
CONTINUOUS
 10
176.8679448869
 20
88.2893836713
 11
176.9761976495
 21
88.4170432305
  0
LINE
  5
72B
100
AcDbEntity
  8
0
100
AcDbLine
 62
7
  6
CONTINUOUS
 10
181.2994093469
 20
95.7585325694
 11
181.0494093469
 21
95.5032134211
  0
LINE
  5
72C
100
AcDbEntity
  8
0
100
AcDbLine
 62
7
  6
CONTINUOUS
 10
187.8827423624
 20
101.7585325694
 11
187.5494093469
 21
101.4181070482
  0
LINE
  5
72D
100
AcDbEntity
  8
0
100
AcDbLine
 62
7
  6
CONTINUOUS
 10
184.6327423624
 20
97.0351283407
 11
184.4660763315
 21
96.864915595
  0
LINE
  5
72E
100
AcDbEntity
  8
0
100
AcDbLine
 62
7
  6
CONTINUOUS
 10
188.0494093469
 20
98.9074687814
 11
187.7160753778
 21
98.5670432901
  0
LINE
  5
72F
100
AcDbEntity
  8
0
100
AcDbLine
 62
7
  6
CONTINUOUS
 10
168.931969209
 20
89.4383198833
 11
169.0943490109
 21
89.5659794426
  0
LINE
  5
730
100
AcDbEntity
  8
0
100
AcDbLine
 62
7
  6
CONTINUOUS
 10
169.181969209
 20
89.4383198833
 11
169.3443490109
 21
89.5659794426
  0
LINE
  5
731
100
AcDbEntity
  8
0
100
AcDbLine
 62
7
  6
CONTINUOUS
 10
175.7994093469
 20
97.2904474592
 11
175.4660758547
 21
97.0351283407
  0
LINE
  5
732
100
AcDbEntity
  8
0
100
AcDbLine
 62
7
  6
CONTINUOUS
 10
183.3827428392
 20
101.9287453746
 11
183.1327428392
 21
101.7585325694
  0
LINE
  5
733
100
AcDbEntity
  8
0
100
AcDbLine
 62
7
  6
CONTINUOUS
 10
179.7160763315
 20
98.6521496629
 11
179.4660763315
 21
98.4819369173
  0
LINE
  5
734
100
AcDbEntity
  8
0
100
AcDbLine
 62
7
  6
CONTINUOUS
 10
179.6327423624
 20
99.0776815271
 11
179.2160763315
 21
98.8223624086
  0
LINE
  5
735
100
AcDbEntity
  8
0
100
AcDbLine
 62
7
  6
CONTINUOUS
 10
180.0494093469
 20
103.2904474592
 11
179.7160760931
 21
103.1202347135
  0
LINE
  5
736
100
AcDbEntity
  8
0
100
AcDbLine
 62
7
  6
CONTINUOUS
 10
179.6327426008
 20
103.5457665777
 11
179.3827426008
 21
103.4606602049
  0
LINE
  5
737
100
AcDbEntity
  8
KONSTRUKTIONSELEMENTE
100
AcDbLine
 62
7
  6
CONTINUOUS
 10
184.2994093469
 20
159.7627878999
 11
184.7244093469
 21
159.7627878999
  0
LINE
  5
738
100
AcDbEntity
  8
KONSTRUKTIONSELEMENTE
100
AcDbLine
 62
7
  6
CONTINUOUS
 10
184.2994093469
 20
161.2627878999
 11
184.7244093469
 21
161.2627878999
  0
LINE
  5
739
100
AcDbEntity
  8
0
100
AcDbLine
 62
7
  6
CONTINUOUS
 10
195.1820896319
 20
89.8064048147
 11
195.0377526152
 21
89.4659793234
  0
LINE
  5
73A
100
AcDbEntity
  8
0
100
AcDbLine
 62
7
  6
CONTINUOUS
 10
193.2000392373
 20
89.9766177988
 11
193.344376667
 21
90.2319369173
  0
LINE
  5
73B
100
AcDbEntity
  8
0
100
AcDbLine
 62
7
  6
CONTINUOUS
 10
193.4500392373
 20
89.9766177988
 11
193.594376667
 21
90.2319369173
  0
LINE
  5
73C
100
AcDbEntity
  8
0
100
AcDbLine
 62
7
  6
CONTINUOUS
 10
192.006663289
 20
90.9127878999
 11
191.5736505872
 21
90.3170432901
  0
LINE
  5
73D
100
AcDbEntity
  8
0
100
AcDbLine
 62
7
  6
CONTINUOUS
 10
189.8827433161
 20
97.7159793234
 11
189.7160753778
 21
97.5457665777
  0
LINE
  5
73E
100
AcDbEntity
  8
0
100
AcDbLine
 62
7
  6
CONTINUOUS
 10
190.0494093469
 20
95.9287453746
 11
189.8827433161
 21
95.7585325694
  0
LINE
  5
73F
100
AcDbEntity
  8
0
100
AcDbLine
 62
7
  6
CONTINUOUS
 10
175.3730331625
 20
88.5447027898
 11
175.589539307
 21
88.7361921286
  0
LINE
  5
740
100
AcDbEntity
  8
0
100
AcDbLine
 62
7
  6
CONTINUOUS
 10
175.6230331625
 20
88.5447027898
 11
175.839539307
 21
88.7361921286
  0
LINE
  5
741
100
AcDbEntity
  8
0
100
AcDbLine
 62
7
  6
CONTINUOUS
 10
169.9603744405
 20
87.587256006
 11
169.7979946773
 21
87.459596402
  0
LINE
  5
742
100
AcDbEntity
  8
0
100
AcDbLine
 62
7
  6
CONTINUOUS
 10
174.2905012013
 20
89.5021496629
 11
174.4528809645
 21
89.6298092222
  0
LINE
  5
743
100
AcDbEntity
  8
0
100
AcDbLine
 62
7
  6
CONTINUOUS
 10
174.5405012013
 20
89.5021496629
 11
174.7028809645
 21
89.6298092222
  0
LINE
  5
744
100
AcDbEntity
  8
0
100
AcDbLine
 62
7
  6
CONTINUOUS
 10
176.7261976495
 20
89.5021496629
 11
176.8885774127
 21
89.6298092222
  0
LINE
  5
745
100
AcDbEntity
  8
0
100
AcDbLine
 62
7
  6
CONTINUOUS
 10
176.9761976495
 20
89.5021496629
 11
177.1385774127
 21
89.6298092222
  0
LINE
  5
746
100
AcDbEntity
  8
0
100
AcDbLine
 62
7
  6
CONTINUOUS
 10
176.8344510314
 20
88.8638516879
 11
176.509691505
 21
88.6085325694
  0
LINE
  5
747
100
AcDbEntity
  8
0
100
AcDbLine
 62
7
  6
CONTINUOUS
 10
176.7261976495
 20
88.4170432305
 11
176.8885774127
 21
88.5447027898
  0
LINE
  5
748
100
AcDbEntity
  8
0
100
AcDbLine
 62
7
  6
CONTINUOUS
 10
176.9761976495
 20
88.4170432305
 11
177.1385774127
 21
88.5447027898
  0
LINE
  5
749
100
AcDbEntity
  8
0
100
AcDbLine
 62
7
  6
CONTINUOUS
 10
175.4812865445
 20
87.2042772612
 11
175.6436663077
 21
87.3319368428
  0
LINE
  5
74A
100
AcDbEntity
  8
0
100
AcDbLine
 62
7
  6
CONTINUOUS
 10
175.7312865445
 20
87.2042772612
 11
175.8936663077
 21
87.3319368428
  0
LINE
  5
74B
100
AcDbEntity
  8
0
100
AcDbLine
 62
7
  6
CONTINUOUS
 10
176.8344510314
 20
89.9489581203
 11
176.5638178862
 21
89.7574687814
  0
LINE
  5
74C
100
AcDbEntity
  8
0
100
AcDbLine
 62
7
  6
CONTINUOUS
 10
187.3827423624
 20
101.9287453746
 11
187.1327423624
 21
101.7585325694
  0
LINE
  5
74D
100
AcDbEntity
  8
0
100
AcDbLine
 62
7
  6
CONTINUOUS
 10
184.8827423624
 20
98.6521496629
 11
184.6327423624
 21
98.4819369173
  0
LINE
  5
74E
100
AcDbEntity
  8
0
100
AcDbLine
 62
7
  6
CONTINUOUS
 10
180.7994093469
 20
95.8436389422
 11
180.5494093469
 21
95.6734261965
  0
LINE
  5
74F
100
AcDbEntity
  8
0
100
AcDbLine
 62
7
  6
CONTINUOUS
 10
184.7994093469
 20
97.6308729505
 11
184.2994093469
 21
97.2904474592
  0
LINE
  5
750
100
AcDbEntity
  8
0
100
AcDbLine
 62
7
  6
CONTINUOUS
 10
184.8827423624
 20
97.2053410864
 11
184.6327423624
 21
97.0351283407
  0
LINE
  5
751
100
AcDbEntity
  8
0
100
AcDbLine
 62
7
  6
CONTINUOUS
 10
188.4660753778
 20
98.6521496629
 11
188.2160753778
 21
98.4819369173
  0
LINE
  5
752
100
AcDbEntity
  8
0
100
AcDbLine
 62
7
  6
CONTINUOUS
 10
184.7994093469
 20
99.0776815271
 11
184.3827423624
 21
98.8223624086
  0
LINE
  5
753
100
AcDbEntity
  8
0
100
AcDbLine
 62
7
  6
CONTINUOUS
 10
181.0494093469
 20
95.5032134211
 11
180.6327423624
 21
95.2478942802
  0
LINE
  5
754
100
AcDbEntity
  8
0
100
AcDbLine
 62
7
  6
CONTINUOUS
 10
169.0402223973
 20
89.9489581203
 11
168.8237160593
 21
89.8212985611
  0
LINE
  5
755
100
AcDbEntity
  8
0
100
AcDbLine
 62
7
  6
CONTINUOUS
 10
183.5494093469
 20
101.4181070482
 11
183.2160758547
 21
101.2478942802
  0
LINE
  5
756
100
AcDbEntity
  8
0
100
AcDbLine
 62
7
  6
CONTINUOUS
 10
187.5494093469
 20
101.4181070482
 11
187.2160763315
 21
101.2478942802
  0
LINE
  5
757
100
AcDbEntity
  8
0
100
AcDbLine
 62
7
  6
CONTINUOUS
 10
171.6327426008
 20
97.5457665777
 11
171.3827426008
 21
97.4606602049
  0
LINE
  5
758
100
AcDbEntity
  8
0
100
AcDbLine
 62
7
  6
CONTINUOUS
 10
175.3827428392
 20
97.5457665777
 11
175.1327428392
 21
97.4606602049
  0
LINE
  5
759
100
AcDbEntity
  8
KONSTRUKTIONSELEMENTE
100
AcDbLine
 62
7
  6
CONTINUOUS
 10
184.2994093469
 20
165.7627878999
 11
184.7244093469
 21
165.7627878999
  0
LINE
  5
75A
100
AcDbEntity
  8
0
100
AcDbLine
 62
7
  6
CONTINUOUS
 10
195.1485959829
 20
89.2106602049
 11
195.2929338255
 21
89.4659793234
  0
LINE
  5
75B
100
AcDbEntity
  8
0
100
AcDbLine
 62
7
  6
CONTINUOUS
 10
195.3985959829
 20
89.2106602049
 11
195.5429338255
 21
89.4659793234
  0
LINE
  5
75C
100
AcDbEntity
  8
0
100
AcDbLine
 62
7
  6
CONTINUOUS
 10
191.5736505872
 20
89.9801455175
 11
191.756663289
 21
90.2319369173
  0
LINE
  5
75D
100
AcDbEntity
  8
0
100
AcDbLine
 62
7
  6
CONTINUOUS
 10
191.5736505872
 20
89.636192069
 11
192.006663289
 21
90.2319369173
  0
LINE
  5
75E
100
AcDbEntity
  8
0
100
AcDbLine
 62
7
  6
CONTINUOUS
 10
193.4500392373
 20
90.6574687814
 11
193.1613639651
 21
90.3170432901
  0
LINE
  5
75F
100
AcDbEntity
  8
0
100
AcDbLine
 62
7
  6
CONTINUOUS
 10
177.7546032294
 20
87.5234261816
 11
177.5922234662
 21
87.3957666224
  0
LINE
  5
760
100
AcDbEntity
  8
0
100
AcDbLine
 62
7
  6
CONTINUOUS
 10
190.2160753778
 20
97.4606602049
 11
189.8827433161
 21
97.2053410864
  0
LINE
  5
761
100
AcDbEntity
  8
0
100
AcDbLine
 62
7
  6
CONTINUOUS
 10
177.6463498474
 20
87.0766176852
 11
177.9169829926
 21
87.2681070408
  0
LINE
  5
762
100
AcDbEntity
  8
0
100
AcDbLine
 62
7
  6
CONTINUOUS
 10
177.8963498474
 20
87.0766176852
 11
178.1669829926
 21
87.2681070408
  0
LINE
  5
763
100
AcDbEntity
  8
0
100
AcDbLine
 62
7
  6
CONTINUOUS
 10
186.2160753778
 20
95.8436389422
 11
185.9660753778
 21
95.6734261965
  0
LINE
  5
764
100
AcDbEntity
  8
0
100
AcDbLine
 62
7
  6
CONTINUOUS
 10
190.2994093469
 20
95.5883198237
 11
190.0494093469
 21
95.4181070482
  0
LINE
  5
765
100
AcDbEntity
  8
0
100
AcDbLine
 62
7
  6
CONTINUOUS
 10
186.4660753778
 20
95.5032134211
 11
186.0494093469
 21
95.2478942802
  0
LINE
  5
766
100
AcDbEntity
  8
0
100
AcDbLine
 62
7
  6
CONTINUOUS
 10
174.3987545833
 20
89.9489581203
 11
174.1822484388
 21
89.8212985611
  0
LINE
  5
767
100
AcDbEntity
  8
0
100
AcDbLine
 62
7
  6
CONTINUOUS
 10
169.8521212134
 20
87.0766176852
 11
170.0686275127
 21
87.2042772612
  0
LINE
  5
768
100
AcDbEntity
  8
0
100
AcDbLine
 62
7
  6
CONTINUOUS
 10
170.1021212134
 20
87.0766176852
 11
170.3186275127
 21
87.2042772612
  0
LINE
  5
769
100
AcDbEntity
  8
0
100
AcDbLine
 62
7
  6
CONTINUOUS
 10
175.3730331625
 20
87.459596402
 11
175.2647797806
 21
87.3957666224
  0
LINE
  5
76A
100
AcDbEntity
  8
0
100
AcDbLine
 62
7
  6
CONTINUOUS
 10
175.2647797806
 20
87.0766176852
 11
175.4812865445
 21
87.2042772612
  0
LINE
  5
76B
100
AcDbEntity
  8
0
100
AcDbLine
 62
7
  6
CONTINUOUS
 10
175.5147797806
 20
87.0766176852
 11
175.7312865445
 21
87.2042772612
  0
LINE
  5
76C
100
AcDbEntity
  8
0
100
AcDbLine
 62
7
  6
CONTINUOUS
 10
188.3827433161
 20
99.0776815271
 11
188.0494093469
 21
98.9074687814
  0
LINE
  5
76D
100
AcDbEntity
  8
0
100
AcDbLine
 62
7
  6
CONTINUOUS
 10
189.8827433161
 20
95.7585325694
 11
189.7160753778
 21
95.6734261965
  0
LINE
  5
76E
100
AcDbEntity
  8
0
100
AcDbLine
 62
7
  6
CONTINUOUS
 10
190.0494093469
 20
95.4181070482
 11
189.7160753778
 21
95.2478942802
  0
LINE
  5
76F
100
AcDbEntity
  8
0
100
AcDbLine
 62
7
  6
CONTINUOUS
 10
169.0943490109
 20
89.5659794426
 11
169.2567287741
 21
89.6298092222
  0
LINE
  5
770
100
AcDbEntity
  8
0
100
AcDbLine
 62
7
  6
CONTINUOUS
 10
169.3443490109
 20
89.5659794426
 11
169.5067287741
 21
89.6298092222
  0
LINE
  5
771
100
AcDbEntity
  8
0
100
AcDbLine
 62
7
  6
CONTINUOUS
 10
185.1327423624
 20
98.7372560358
 11
184.8827423624
 21
98.6521496629
  0
LINE
  5
772
100
AcDbEntity
  8
0
100
AcDbLine
 62
7
  6
CONTINUOUS
 10
185.1327423624
 20
97.2904474592
 11
184.8827423624
 21
97.2053410864
  0
LINE
  5
773
100
AcDbEntity
  8
0
100
AcDbLine
 62
7
  6
CONTINUOUS
 10
189.7160753778
 20
97.5457665777
 11
189.2160753778
 21
97.375553832
  0
LINE
  5
774
100
AcDbEntity
  8
0
100
AcDbLine
 62
7
  6
CONTINUOUS
 10
185.9660753778
 20
95.6734261965
 11
185.7160753778
 21
95.5883198237
  0
LINE
  5
775
100
AcDbEntity
  8
0
100
AcDbLine
 62
7
  6
CONTINUOUS
 10
195.0377526152
 20
89.4659793234
 11
193.0170265354
 21
87.3383198237
  0
LINE
  5
776
100
AcDbEntity
  8
0
100
AcDbLine
 62
7
  6
CONTINUOUS
 10
193.344376667
 20
87.3383198237
 11
195.1485959829
 21
89.2106602049
  0
LINE
  5
777
100
AcDbEntity
  8
0
100
AcDbLine
 62
7
  6
CONTINUOUS
 10
193.594376667
 20
87.3383198237
 11
195.3985959829
 21
89.2106602049
  0
LINE
  5
778
100
AcDbEntity
  8
0
100
AcDbLine
 62
7
  6
CONTINUOUS
 10
193.344376667
 20
90.2319369173
 11
193.5608830179
 21
90.4021496629
  0
LINE
  5
779
100
AcDbEntity
  8
0
100
AcDbLine
 62
7
  6
CONTINUOUS
 10
193.594376667
 20
90.2319369173
 11
193.8108830179
 21
90.4021496629
  0
LINE
  5
77A
100
AcDbEntity
  8
0
100
AcDbLine
 62
7
  6
CONTINUOUS
 10
176.8885774127
 20
89.6298092222
 11
177.0509571759
 21
89.6936390018
  0
LINE
  5
77B
100
AcDbEntity
  8
0
100
AcDbLine
 62
7
  6
CONTINUOUS
 10
177.1385774127
 20
89.6298092222
 11
177.3009571759
 21
89.6936390018
  0
LINE
  5
77C
100
AcDbEntity
  8
0
100
AcDbLine
 62
7
  6
CONTINUOUS
 10
175.2647797806
 20
88.8000219083
 11
174.9400202541
 21
88.672362349
  0
LINE
  5
77D
100
AcDbEntity
  8
0
100
AcDbLine
 62
7
  6
CONTINUOUS
 10
176.8885774127
 20
88.5447027898
 11
177.0509571759
 21
88.6085325694
  0
LINE
  5
77E
100
AcDbEntity
  8
0
100
AcDbLine
 62
7
  6
CONTINUOUS
 10
177.1385774127
 20
88.5447027898
 11
177.3009571759
 21
88.6085325694
  0
LINE
  5
77F
100
AcDbEntity
  8
0
100
AcDbLine
 62
7
  6
CONTINUOUS
 10
177.5922234662
 20
87.3957666224
 11
177.429843703
 21
87.3319368428
  0
LINE
  5
780
100
AcDbEntity
  8
0
100
AcDbLine
 62
7
  6
CONTINUOUS
 10
169.2567287741
 20
90.0127878999
 11
169.0402223973
 21
89.9489581203
  0
LINE
  5
781
100
AcDbEntity
  8
0
100
AcDbLine
 62
7
  6
CONTINUOUS
 10
169.7979946773
 20
87.459596402
 11
169.5814883005
 21
87.3957666224
  0
LINE
  5
782
100
AcDbEntity
  8
0
100
AcDbLine
 62
7
  6
CONTINUOUS
 10
193.7387140966
 20
90.8276815271
 11
193.4500392373
 21
90.6574687814
  0
LINE
  5
783
100
AcDbEntity
  8
0
100
AcDbLine
 62
7
  6
CONTINUOUS
 10
175.0482736361
 20
87.0127878999
 11
175.2647797806
 21
87.0766176852
  0
LINE
  5
784
100
AcDbEntity
  8
0
100
AcDbLine
 62
7
  6
CONTINUOUS
 10
175.2982736361
 20
87.0127878999
 11
175.5147797806
 21
87.0766176852
  0
LINE
  5
785
100
AcDbEntity
  8
FASEN
100
AcDbLine
 62
7
  6
CONTINUOUS
 10
187.7994093469
 20
66.7627878999
 11
188.2994093469
 21
67.2627878999
  0
LINE
  5
786
100
AcDbEntity
  8
KONSTRUKTIONSELEMENTE
100
AcDbLine
 62
7
  6
CONTINUOUS
 10
186.7994093469
 20
188.794967446
 11
187.2994093469
 21
188.794967446
  0
LINE
  5
787
100
AcDbEntity
  8
KONSTRUKTIONSELEMENTE
100
AcDbLine
 62
7
  6
CONTINUOUS
 10
186.3908501527
 20
191.9692158369
 11
187.2994093469
 21
191.9692158369
  0
LINE
  5
788
100
AcDbEntity
  8
KONSTRUKTIONSELEMENTE
100
AcDbLine
 62
7
  6
CONTINUOUS
 10
186.4047077826
 20
192.9138919264
 11
187.2994093469
 21
192.9138919264
  0
LINE
  5
789
100
AcDbEntity
  8
KONSTRUKTIONSELEMENTE
100
AcDbLine
 62
7
  6
CONTINUOUS
 10
186.4385092575
 20
193.0431622908
 11
187.2994093469
 21
193.0431622908
  0
LINE
  5
78A
100
AcDbEntity
  8
KONSTRUKTIONSELEMENTE
100
AcDbLine
 62
7
  6
CONTINUOUS
 10
186.3908501503
 20
194.0697073525
 11
187.2994093469
 21
194.0697073525
  0
LINE
  5
78B
100
AcDbEntity
  8
KONSTRUKTIONSELEMENTE
100
AcDbLine
 62
7
  6
CONTINUOUS
 10
186.4047077833
 20
194.7952532604
 11
187.2994093469
 21
194.7952532604
  0
LINE
  5
78C
100
AcDbEntity
  8
KONSTRUKTIONSELEMENTE
100
AcDbLine
 62
7
  6
CONTINUOUS
 10
186.4385092613
 20
194.8711680508
 11
187.2994093469
 21
194.8711680508
  0
LINE
  5
78D
100
AcDbEntity
  8
KONSTRUKTIONSELEMENTE
100
AcDbLine
 62
7
  6
CONTINUOUS
 10
186.7920462846
 20
195.1255835345
 11
187.2994093469
 21
195.1255835345
  0
LINE
  5
78E
100
AcDbEntity
  8
KONSTRUKTIONSELEMENTE
100
AcDbLine
 62
7
  6
CONTINUOUS
 10
186.747964112
 20
195.5559839555
 11
187.2994093469
 21
195.5559839555
  0
LINE
  5
78F
100
AcDbEntity
  8
KONSTRUKTIONSELEMENTE
100
AcDbLine
 62
7
  6
CONTINUOUS
 10
186.7022471486
 20
195.8178661643
 11
187.2994093469
 21
195.8178661643
  0
LINE
  5
790
100
AcDbEntity
  8
KONSTRUKTIONSELEMENTE
100
AcDbLine
 62
7
  6
CONTINUOUS
 10
186.6182363248
 20
196.1731113487
 11
187.2994093469
 21
196.1731113487
  0
LINE
  5
791
100
AcDbEntity
  8
KONSTRUKTIONSELEMENTE
100
AcDbLine
 62
7
  6
CONTINUOUS
 10
186.5379212565
 20
196.4532014008
 11
187.2994093469
 21
196.4532014008
  0
LINE
  5
792
100
AcDbEntity
  8
KONSTRUKTIONSELEMENTE
100
AcDbLine
 62
7
  6
CONTINUOUS
 10
186.4416185207
 20
196.7514996364
 11
187.2994093469
 21
196.7514996364
  0
LINE
  5
793
100
AcDbEntity
  8
KONSTRUKTIONSELEMENTE
100
AcDbLine
 62
7
  6
CONTINUOUS
 10
186.4060378117
 20
196.8903833592
 11
187.2994093469
 21
196.8903833592
  0
LINE
  5
794
100
AcDbEntity
  8
KONSTRUKTIONSELEMENTE
100
AcDbLine
 62
7
  6
CONTINUOUS
 10
186.4410751559
 20
196.9957970804
 11
187.2994093469
 21
196.9957970804
  0
LINE
  5
795
100
AcDbEntity
  8
KONSTRUKTIONSELEMENTE
100
AcDbLine
 62
7
  6
CONTINUOUS
 10
186.4239911632
 20
197.057602576
 11
187.2994093469
 21
197.057602576
  0
LINE
  5
796
100
AcDbEntity
  8
KONSTRUKTIONSELEMENTE
100
AcDbLine
 62
7
  6
CONTINUOUS
 10
105.9324101492
 20
50.2868537694
 11
103.5785810767
 21
48.9278699207
  0
LINE
  5
797
100
AcDbEntity
  8
KONSTRUKTIONSELEMENTE
100
AcDbLine
 62
7
  6
CONTINUOUS
 10
103.5785810767
 20
15.645837618
 11
105.9324101492
 21
14.2868537694
  0
LINE
  5
798
100
AcDbEntity
  8
KONSTRUKTIONSELEMENTE
100
AcDbLine
 62
7
  6
CONTINUOUS
 10
103.5785810767
 20
48.9278699207
 11
96.5689621334
 21
36.7868537694
  0
LINE
  5
799
100
AcDbEntity
  8
KONSTRUKTIONSELEMENTE
100
AcDbLine
 62
7
  6
CONTINUOUS
 10
105.9324101492
 20
14.2868537694
 11
123.5785810767
 21
14.2868537694
  0
LINE
  5
79A
100
AcDbEntity
  8
KONSTRUKTIONSELEMENTE
100
AcDbLine
 62
7
  6
CONTINUOUS
 10
96.5689621334
 20
27.7868537694
 11
103.5785810767
 21
15.645837618
  0
LINE
  5
79B
100
AcDbEntity
  8
KONSTRUKTIONSELEMENTE
100
AcDbLine
 62
7
  6
CONTINUOUS
 10
100.8206669686
 20
28.1954129636
 11
100.8206669686
 21
27.2868537694
  0
LINE
  5
79C
100
AcDbEntity
  8
KONSTRUKTIONSELEMENTE
100
AcDbLine
 62
7
  6
CONTINUOUS
 10
102.0526675491
 20
28.1815553337
 11
102.0526675491
 21
27.2868537694
  0
LINE
  5
79D
100
AcDbEntity
  8
RUNDUNGEN
100
AcDbLine
 62
7
  6
CONTINUOUS
 10
109.2554956129
 20
19.2868537694
 11
120.2554956129
 21
19.2868537694
  0
LINE
  5
79E
100
AcDbEntity
  8
KONSTRUKTIONSELEMENTE
100
AcDbLine
 62
7
  6
CONTINUOUS
 10
102.3611207007
 20
28.1477538588
 11
102.3611207007
 21
27.2868537694
  0
LINE
  5
79F
100
AcDbEntity
  8
KONSTRUKTIONSELEMENTE
100
AcDbLine
 62
7
  6
CONTINUOUS
 10
102.7218130269
 20
28.0515211677
 11
102.7218130269
 21
27.2868537694
  0
LINE
  5
7A0
100
AcDbEntity
  8
KONSTRUKTIONSELEMENTE
100
AcDbLine
 62
7
  6
CONTINUOUS
 10
103.0829583597
 20
27.9470884151
 11
103.0829583597
 21
27.2868537694
  0
LINE
  5
7A1
100
AcDbEntity
  8
KONSTRUKTIONSELEMENTE
100
AcDbLine
 62
7
  6
CONTINUOUS
 10
103.2896506134
 20
27.8858906736
 11
103.2896506134
 21
27.2868537694
  0
LINE
  5
7A2
100
AcDbEntity
  8
KONSTRUKTIONSELEMENTE
100
AcDbLine
 62
7
  6
CONTINUOUS
 10
103.4967960187
 20
27.8269072111
 11
103.4967960187
 21
27.2868537694
  0
LINE
  5
7A3
100
AcDbEntity
  8
KONSTRUKTIONSELEMENTE
100
AcDbLine
 62
7
  6
CONTINUOUS
 10
103.6008216553
 20
27.7997474501
 11
103.6008216553
 21
27.2868537694
  0
LINE
  5
7A4
100
AcDbEntity
  8
KONSTRUKTIONSELEMENTE
100
AcDbLine
 62
7
  6
CONTINUOUS
 10
103.653966843
 20
27.7868643469
 11
103.653966843
 21
27.2868537694
  0
LINE
  5
7A5
100
AcDbEntity
  8
KONSTRUKTIONSELEMENTE
100
AcDbLine
 62
7
  6
CONTINUOUS
 10
103.7244278405
 20
28.195412966
 11
103.7244278405
 21
27.2868537694
  0
LINE
  5
7A6
100
AcDbEntity
  8
0
100
AcDbLine
 62
7
  6
CONTINUOUS
 10
101.7237496528
 20
21.3701877385
 11
101.3992647535
 21
21.3701877385
  0
LINE
  5
7A7
100
AcDbEntity
  8
0
100
AcDbLine
 62
7
  6
CONTINUOUS
 10
121.2554956129
 20
21.4818537694
 11
121.7554956129
 21
21.4818537694
  0
LINE
  5
7A8
100
AcDbEntity
  8
KONSTRUKTIONSELEMENTE
100
AcDbLine
 62
7
  6
CONTINUOUS
 10
105.0969516034
 20
28.181555333
 11
105.0969516034
 21
27.2868537694
  0
LINE
  5
7A9
100
AcDbEntity
  8
KONSTRUKTIONSELEMENTE
100
AcDbLine
 62
7
  6
CONTINUOUS
 10
105.4226677355
 20
28.147753855
 11
105.4226677355
 21
27.2868537694
  0
LINE
  5
7AA
100
AcDbEntity
  8
KONSTRUKTIONSELEMENTE
100
AcDbLine
 62
7
  6
CONTINUOUS
 10
105.7707431769
 20
28.0515211662
 11
105.7707431769
 21
27.2868537694
  0
LINE
  5
7AB
100
AcDbEntity
  8
KONSTRUKTIONSELEMENTE
100
AcDbLine
 62
7
  6
CONTINUOUS
 10
106.1014038097
 20
27.9470884137
 11
106.1014038097
 21
27.2868537694
  0
LINE
  5
7AC
100
AcDbEntity
  8
KONSTRUKTIONSELEMENTE
100
AcDbLine
 62
7
  6
CONTINUOUS
 10
106.2779137807
 20
27.8858906748
 11
106.2779137807
 21
27.2868537694
  0
LINE
  5
7AD
100
AcDbEntity
  8
KONSTRUKTIONSELEMENTE
100
AcDbLine
 62
7
  6
CONTINUOUS
 10
106.4370090546
 20
27.8269072118
 11
106.4370090546
 21
27.2868537694
  0
LINE
  5
7AE
100
AcDbEntity
  8
KONSTRUKTIONSELEMENTE
100
AcDbLine
 62
7
  6
CONTINUOUS
 10
106.4991418272
 20
27.7997474497
 11
106.4991418272
 21
27.2868537694
  0
LINE
  5
7AF
100
AcDbEntity
  8
0
100
AcDbLine
 62
7
  6
CONTINUOUS
 10
101.0077685281
 20
22.2868537694
 11
100.699802816
 21
22.2868537694
  0
LINE
  5
7B0
100
AcDbEntity
  8
0
100
AcDbLine
 62
7
  6
CONTINUOUS
 10
121.2554956129
 20
22.6307899218
 11
121.7554956129
 21
22.6307899218
  0
LINE
  5
7B1
100
AcDbEntity
  8
0
100
AcDbLine
 62
7
  6
CONTINUOUS
 10
100.7141384835
 20
22.7035198003
 11
100.4124760551
 21
22.7035198003
  0
LINE
  5
7B2
100
AcDbEntity
  8
0
100
AcDbLine
 62
7
  6
CONTINUOUS
 10
121.2554956129
 20
22.8861090999
 11
121.7554956129
 21
22.8861090999
  0
LINE
  5
7B3
100
AcDbEntity
  8
0
100
AcDbLine
 62
7
  6
CONTINUOUS
 10
100.281620289
 20
23.3701877385
 11
99.9887909401
 21
23.3701877385
  0
LINE
  5
7B4
100
AcDbEntity
  8
0
100
AcDbLine
 62
7
  6
CONTINUOUS
 10
121.2554956129
 20
23.4818537694
 11
121.7554956129
 21
23.4818537694
  0
LINE
  5
7B5
100
AcDbEntity
  8
0
100
AcDbLine
 62
7
  6
CONTINUOUS
 10
99.8915291167
 20
24.0368537694
 11
99.6062382054
 21
24.0368537694
  0
LINE
  5
7B6
100
AcDbEntity
  8
RUNDUNGEN
100
AcDbLine
 62
7
  6
CONTINUOUS
 10
108.2554956129
 20
17.6154530182
 11
108.2554956129
 21
26.1582388326
  0
LINE
  5
7B7
100
AcDbEntity
  8
RUNDUNGEN
100
AcDbLine
 62
7
  6
CONTINUOUS
 10
108.2554956129
 20
38.4154627698
 11
108.2554956129
 21
46.9582425664
  0
LINE
  5
7B8
100
AcDbEntity
  8
0
100
AcDbLine
 62
7
  6
CONTINUOUS
 10
99.8455805917
 20
24.1201877385
 11
99.5611523912
 21
24.1201877385
  0
LINE
  5
7B9
100
AcDbEntity
  8
0
100
AcDbLine
 62
7
  6
CONTINUOUS
 10
99.8002386127
 20
24.2035198003
 11
99.5166566826
 21
24.2035198003
  0
LINE
  5
7BA
100
AcDbEntity
  8
0
100
AcDbLine
 62
7
  6
CONTINUOUS
 10
99.6248148615
 20
24.5368537694
 11
99.3444606055
 21
24.5368537694
  0
LINE
  5
7BB
100
AcDbEntity
  8
0
100
AcDbLine
 62
7
  6
CONTINUOUS
 10
99.4586637518
 20
24.8701877385
 11
99.1813001285
 21
24.8701877385
  0
LINE
  5
7BC
100
AcDbEntity
  8
0
100
AcDbLine
 62
7
  6
CONTINUOUS
 10
99.1893288765
 20
25.4535198003
 11
98.9166810466
 21
25.4535198003
  0
LINE
  5
7BD
100
AcDbEntity
  8
0
100
AcDbLine
 62
7
  6
CONTINUOUS
 10
99.1172232009
 20
25.6201877385
 11
98.8458110141
 21
25.6201877385
  0
LINE
  5
7BE
100
AcDbEntity
  8
0
100
AcDbLine
 62
7
  6
CONTINUOUS
 10
98.8812067211
 20
26.2035198003
 11
98.6137625021
 21
26.2035198003
  0
LINE
  5
7BF
100
AcDbEntity
  8
0
100
AcDbLine
 62
7
  6
CONTINUOUS
 10
98.7876458538
 20
26.4535207539
 11
98.5217429374
 21
26.4535207539
  0
LINE
  5
7C0
100
AcDbEntity
  8
0
100
AcDbLine
 62
7
  6
CONTINUOUS
 10
98.7574488571
 20
26.5368537694
 11
98.4920396456
 21
26.5368537694
  0
LINE
  5
7C1
100
AcDbEntity
  8
0
100
AcDbLine
 62
7
  6
CONTINUOUS
 10
98.6985222855
 20
26.7035207539
 11
98.4340712744
 21
26.7035207539
  0
LINE
  5
7C2
100
AcDbEntity
  8
0
100
AcDbLine
 62
7
  6
CONTINUOUS
 10
98.5864665759
 20
27.0368537694
 11
98.3238188878
 21
27.0368537694
  0
LINE
  5
7C3
100
AcDbEntity
  8
KONSTRUKTIONSELEMENTE
100
AcDbLine
 62
7
  6
CONTINUOUS
 10
127.4377457643
 20
27.2868537694
 11
123.0007835322
 21
27.2868537694
  0
LINE
  5
7C4
100
AcDbEntity
  8
KONSTRUKTIONSELEMENTE
100
AcDbLine
 62
7
  6
CONTINUOUS
 10
122.8693613419
 20
27.2868537694
 11
121.1494565201
 21
27.2868537694
  0
LINE
  5
7C5
100
AcDbEntity
  8
KONSTRUKTIONSELEMENTE
100
AcDbLine
 62
7
  6
CONTINUOUS
 10
120.6036413591
 20
27.2868537694
 11
117.8889652872
 21
27.2868537694
  0
LINE
  5
7C6
100
AcDbEntity
  8
KONSTRUKTIONSELEMENTE
100
AcDbLine
 62
7
  6
CONTINUOUS
 10
117.2637930276
 20
27.2868537694
 11
114.9531383933
 21
27.2868537694
  0
LINE
  5
7C7
100
AcDbEntity
  8
KONSTRUKTIONSELEMENTE
100
AcDbLine
 62
7
  6
CONTINUOUS
 10
114.3122666263
 20
27.2868537694
 11
113.9741843771
 21
27.2868537694
  0
LINE
  5
7C8
100
AcDbEntity
  8
KONSTRUKTIONSELEMENTE
100
AcDbLine
 62
7
  6
CONTINUOUS
 10
113.2402686559
 20
27.2868537694
 11
110.8269054536
 21
27.2868537694
  0
LINE
  5
7C9
100
AcDbEntity
  8
KONSTRUKTIONSELEMENTE
100
AcDbLine
 62
7
  6
CONTINUOUS
 10
106.4991418272
 20
27.2868537694
 11
103.7244278405
 21
27.2868537694
  0
LINE
  5
7CA
100
AcDbEntity
  8
KONSTRUKTIONSELEMENTE
100
AcDbLine
 62
7
  6
CONTINUOUS
 10
103.653966843
 20
27.2868537694
 11
100.8206669686
 21
27.2868537694
  0
LINE
  5
7CB
100
AcDbEntity
  8
0
100
AcDbLine
 62
7
  6
CONTINUOUS
 10
98.4820084094
 20
27.3701867848
 11
98.2210199405
 21
27.3701867848
  0
LINE
  5
7CC
100
AcDbEntity
  8
KONSTRUKTIONSELEMENTE
100
AcDbLine
 62
7
  6
CONTINUOUS
 10
134.1971666565
 20
27.7868537694
 11
127.4377457643
 21
27.7868537694
  0
LINE
  5
7CD
100
AcDbEntity
  8
KONSTRUKTIONSELEMENTE
100
AcDbLine
 62
7
  6
CONTINUOUS
 10
124.8081610621
 20
27.7868537694
 11
122.8693613419
 21
27.7868537694
  0
LINE
  5
7CE
100
AcDbEntity
  8
KONSTRUKTIONSELEMENTE
100
AcDbLine
 62
7
  6
CONTINUOUS
 10
121.3006572468
 20
27.7868537694
 11
120.6036413591
 21
27.7868537694
  0
LINE
  5
7CF
100
AcDbEntity
  8
KONSTRUKTIONSELEMENTE
100
AcDbLine
 62
7
  6
CONTINUOUS
 10
118.4484648128
 20
27.7868537694
 11
117.2440822914
 21
27.7868537694
  0
LINE
  5
7D0
100
AcDbEntity
  8
KONSTRUKTIONSELEMENTE
100
AcDbLine
 62
7
  6
CONTINUOUS
 10
114.9832669615
 20
27.7868537694
 11
113.1687486951
 21
27.7868537694
  0
LINE
  5
7D1
100
AcDbEntity
  8
KONSTRUKTIONSELEMENTE
100
AcDbLine
 62
7
  6
CONTINUOUS
 10
110.8269054536
 20
27.7868537694
 11
106.4991418272
 21
27.7868537694
  0
LINE
  5
7D2
100
AcDbEntity
  8
KONSTRUKTIONSELEMENTE
100
AcDbLine
 62
7
  6
CONTINUOUS
 10
103.7244278405
 20
27.7868537694
 11
103.6524431988
 21
27.7868537694
  0
LINE
  5
7D3
100
AcDbEntity
  8
KONSTRUKTIONSELEMENTE
100
AcDbLine
 62
7
  6
CONTINUOUS
 10
100.8206669686
 20
27.7868537694
 11
95.3132674473
 21
27.7868537694
  0
LINE
  5
7D4
100
AcDbEntity
  8
KONSTRUKTIONSELEMENTE
100
AcDbLine
 62
7
  6
CONTINUOUS
 10
110.8269054536
 20
27.7942168317
 11
110.8269054536
 21
27.2868537694
  0
LINE
  5
7D5
100
AcDbEntity
  8
KONSTRUKTIONSELEMENTE
100
AcDbLine
 62
7
  6
CONTINUOUS
 10
110.8310593263
 20
27.8382990043
 11
110.8310593263
 21
27.2868537694
  0
LINE
  5
7D6
100
AcDbEntity
  8
KONSTRUKTIONSELEMENTE
100
AcDbLine
 62
7
  6
CONTINUOUS
 10
110.8591696126
 20
27.8840159677
 11
110.8591696126
 21
27.2868537694
  0
LINE
  5
7D7
100
AcDbEntity
  8
KONSTRUKTIONSELEMENTE
100
AcDbLine
 62
7
  6
CONTINUOUS
 10
110.9393445006
 20
27.9680267915
 11
110.9393445006
 21
27.2868537694
  0
LINE
  5
7D8
100
AcDbEntity
  8
KONSTRUKTIONSELEMENTE
100
AcDbLine
 62
7
  6
CONTINUOUS
 10
111.0955411368
 20
28.0483418598
 11
111.0955411368
 21
27.2868537694
  0
LINE
  5
7D9
100
AcDbEntity
  8
KONSTRUKTIONSELEMENTE
100
AcDbLine
 62
7
  6
CONTINUOUS
 10
111.3798248221
 20
28.1446445957
 11
111.3798248221
 21
27.2868537694
  0
LINE
  5
7DA
100
AcDbEntity
  8
KONSTRUKTIONSELEMENTE
100
AcDbLine
 62
7
  6
CONTINUOUS
 10
111.7521073798
 20
28.1802253047
 11
111.7521073798
 21
27.2868537694
  0
LINE
  5
7DB
100
AcDbEntity
  8
KONSTRUKTIONSELEMENTE
100
AcDbLine
 62
7
  6
CONTINUOUS
 10
112.1483456517
 20
28.1446445957
 11
112.1483456517
 21
27.2868537694
  0
LINE
  5
7DC
100
AcDbEntity
  8
KONSTRUKTIONSELEMENTE
100
AcDbLine
 62
7
  6
CONTINUOUS
 10
112.5044964795
 20
28.0483418598
 11
112.5044964795
 21
27.2868537694
  0
LINE
  5
7DD
100
AcDbEntity
  8
KONSTRUKTIONSELEMENTE
100
AcDbLine
 62
7
  6
CONTINUOUS
 10
112.7325602582
 20
27.9680267915
 11
112.7325602582
 21
27.2868537694
  0
LINE
  5
7DE
100
AcDbEntity
  8
KONSTRUKTIONSELEMENTE
100
AcDbLine
 62
7
  6
CONTINUOUS
 10
112.9085580028
 20
27.8840159677
 11
112.9085580028
 21
27.2868537694
  0
LINE
  5
7DF
100
AcDbEntity
  8
RUNDUNGEN
100
AcDbLine
 62
7
  6
CONTINUOUS
 10
108.7681163041
 20
27.5200746118
 11
108.7566682646
 21
27.4938196298
  0
LWPOLYLINE
  5
7E0
100
AcDbEntity
  8
RUNDUNGEN
100
AcDbPolyline
 62
7
  6
CONTINUOUS
 90
5
 70
0
 10
108.7566682646
 20
27.4938196298
 10
108.7091585266
 20
27.3887203765
 10
108.6592594501
 20
27.2842835694
 10
108.607002308
 20
27.1805272827
 10
108.552419446
 20
27.0774710253
  0
LWPOLYLINE
  5
7E1
100
AcDbEntity
  8
RUNDUNGEN
100
AcDbPolyline
 62
7
  6
CONTINUOUS
 90
3
 70
0
 10
108.552419446
 20
27.0774710253
 10
108.5318562589
 20
27.0399261572
 10
108.5021526464
 20
26.9869808634
  0
LINE
  5
7E2
100
AcDbEntity
  8
RUNDUNGEN
100
AcDbLine
 62
7
  6
CONTINUOUS
 10
108.5021526464
 20
26.9869808634
 11
108.472252084
 21
26.9351947418
  0
LINE
  5
7E3
100
AcDbEntity
  8
RUNDUNGEN
100
AcDbLine
 62
7
  6
CONTINUOUS
 10
108.472252084
 20
26.9351947418
 11
108.4638924145
 21
26.9209813819
  0
LINE
  5
7E4
100
AcDbEntity
  8
KONSTRUKTIONSELEMENTE
100
AcDbLine
 62
7
  6
CONTINUOUS
 10
140.7866244871
 20
30.2868537694
 11
140.0804927437
 21
30.2868537694
  0
LINE
  5
7E5
100
AcDbEntity
  8
KONSTRUKTIONSELEMENTE
100
AcDbLine
 62
7
  6
CONTINUOUS
 10
89.4304984822
 20
30.2868537694
 11
88.7243667388
 21
30.2868537694
  0
LWPOLYLINE
  5
7E6
100
AcDbEntity
  8
RUNDUNGEN
100
AcDbPolyline
 62
7
  6
CONTINUOUS
 90
3
 70
0
 10
108.4645666715
 20
37.6515888999
 10
108.4765379813
 20
37.6311812347
 10
108.5064247692
 20
37.5792049203
  0
LINE
  5
7E7
100
AcDbEntity
  8
RUNDUNGEN
100
AcDbLine
 62
7
  6
CONTINUOUS
 10
108.5064247692
 20
37.5792049203
 11
108.5361124615
 21
37.5260697431
  0
LINE
  5
7E8
100
AcDbEntity
  8
RUNDUNGEN
100
AcDbLine
 62
7
  6
CONTINUOUS
 10
108.5361124615
 20
37.5260697431
 11
108.5562855972
 21
37.4891006129
  0
LINE
  5
7E9
100
AcDbEntity
  8
RUNDUNGEN
100
AcDbLine
 62
7
  6
CONTINUOUS
 10
108.5562855972
 20
37.4891006129
 11
108.6106872544
 21
37.386035311
  0
LWPOLYLINE
  5
7EA
100
AcDbEntity
  8
RUNDUNGEN
100
AcDbPolyline
 62
7
  6
CONTINUOUS
 90
3
 70
0
 10
108.6106872544
 20
37.386035311
 10
108.662763021
 20
37.2822713104
 10
108.7124806748
 20
37.1778279055
  0
LWPOLYLINE
  5
7EB
100
AcDbEntity
  8
RUNDUNGEN
100
AcDbPolyline
 62
7
  6
CONTINUOUS
 90
3
 70
0
 10
108.7124806748
 20
37.1778279055
 10
108.7598089611
 20
37.0727231351
 10
108.7681165695
 20
37.0536323223
  0
LINE
  5
7EC
100
AcDbEntity
  8
KONSTRUKTIONSELEMENTE
100
AcDbLine
 62
7
  6
CONTINUOUS
 10
113.0085354987
 20
27.8382990043
 11
113.0085354987
 21
27.2868537694
  0
LINE
  5
7ED
100
AcDbEntity
  8
KONSTRUKTIONSELEMENTE
100
AcDbLine
 62
7
  6
CONTINUOUS
 10
113.1324679422
 20
27.7942168317
 11
113.1324679422
 21
27.2868537694
  0
LINE
  5
7EE
100
AcDbEntity
  8
KONSTRUKTIONSELEMENTE
100
AcDbLine
 62
7
  6
CONTINUOUS
 10
113.2402686559
 20
27.7868537694
 11
113.2402686559
 21
27.2868537694
  0
LINE
  5
7EF
100
AcDbEntity
  8
KONSTRUKTIONSELEMENTE
100
AcDbLine
 62
7
  6
CONTINUOUS
 10
113.9741843771
 20
27.7868537694
 11
113.9741843771
 21
27.2868537694
  0
LINE
  5
7F0
100
AcDbEntity
  8
KONSTRUKTIONSELEMENTE
100
AcDbLine
 62
7
  6
CONTINUOUS
 10
114.2974233549
 20
27.7868537694
 11
114.2974233549
 21
27.2868537694
  0
LINE
  5
7F1
100
AcDbEntity
  8
KONSTRUKTIONSELEMENTE
100
AcDbLine
 62
7
  6
CONTINUOUS
 10
114.3122666263
 20
27.7868537694
 11
114.3122666263
 21
27.2868537694
  0
LINE
  5
7F2
100
AcDbEntity
  8
KONSTRUKTIONSELEMENTE
100
AcDbLine
 62
7
  6
CONTINUOUS
 10
114.9531383933
 20
27.7868537694
 11
114.9531383933
 21
27.2868537694
  0
LINE
  5
7F3
100
AcDbEntity
  8
KONSTRUKTIONSELEMENTE
100
AcDbLine
 62
7
  6
CONTINUOUS
 10
114.9956569198
 20
27.7901559327
 11
114.9956569198
 21
27.2868537694
  0
LINE
  5
7F4
100
AcDbEntity
  8
KONSTRUKTIONSELEMENTE
100
AcDbLine
 62
7
  6
CONTINUOUS
 10
115.102698238
 20
27.852093385
 11
115.102698238
 21
27.2868537694
  0
LINE
  5
7F5
100
AcDbEntity
  8
KONSTRUKTIONSELEMENTE
100
AcDbLine
 62
7
  6
CONTINUOUS
 10
115.262112738
 20
27.9448431285
 11
115.262112738
 21
27.2868537694
  0
LINE
  5
7F6
100
AcDbEntity
  8
KONSTRUKTIONSELEMENTE
100
AcDbLine
 62
7
  6
CONTINUOUS
 10
115.4799759375
 20
28.0491592933
 11
115.4799759375
 21
27.2868537694
  0
LINE
  5
7F7
100
AcDbEntity
  8
KONSTRUKTIONSELEMENTE
100
AcDbLine
 62
7
  6
CONTINUOUS
 10
115.8208091687
 20
28.1451879604
 11
115.8208091687
 21
27.2868537694
  0
LINE
  5
7F8
100
AcDbEntity
  8
KONSTRUKTIONSELEMENTE
100
AcDbLine
 62
7
  6
CONTINUOUS
 10
116.1494957263
 20
28.1804010379
 11
116.1494957263
 21
27.2868537694
  0
LINE
  5
7F9
100
AcDbEntity
  8
KONSTRUKTIONSELEMENTE
100
AcDbLine
 62
7
  6
CONTINUOUS
 10
116.4075839401
 20
28.1804010379
 11
116.4075839401
 21
27.2868537694
  0
LINE
  5
7FA
100
AcDbEntity
  8
KONSTRUKTIONSELEMENTE
100
AcDbLine
 62
7
  6
CONTINUOUS
 10
116.7241223473
 20
28.1451879604
 11
116.7241223473
 21
27.2868537694
  0
LINE
  5
7FB
100
AcDbEntity
  8
KONSTRUKTIONSELEMENTE
100
AcDbLine
 62
7
  6
CONTINUOUS
 10
117.0285111273
 20
28.0491592933
 11
117.0285111273
 21
27.2868537694
  0
LINE
  5
7FC
100
AcDbEntity
  8
KONSTRUKTIONSELEMENTE
100
AcDbLine
 62
7
  6
CONTINUOUS
 10
140.7866244871
 20
34.2868537694
 11
140.0804927437
 21
34.2868537694
  0
LINE
  5
7FD
100
AcDbEntity
  8
KONSTRUKTIONSELEMENTE
100
AcDbLine
 62
7
  6
CONTINUOUS
 10
89.4304984822
 20
34.2868537694
 11
88.7243667388
 21
34.2868537694
  0
LINE
  5
7FE
100
AcDbEntity
  8
KONSTRUKTIONSELEMENTE
100
AcDbLine
 62
7
  6
CONTINUOUS
 10
117.1977817252
 20
27.9448431285
 11
117.1977817252
 21
27.2868537694
  0
LINE
  5
7FF
100
AcDbEntity
  8
KONSTRUKTIONSELEMENTE
100
AcDbLine
 62
7
  6
CONTINUOUS
 10
117.2440822914
 20
27.8840159756
 11
117.2440822914
 21
27.2868537694
  0
LINE
  5
800
100
AcDbEntity
  8
KONSTRUKTIONSELEMENTE
100
AcDbLine
 62
7
  6
CONTINUOUS
 10
117.2637930276
 20
27.7868537694
 11
117.2637930276
 21
27.2868537694
  0
LINE
  5
801
100
AcDbEntity
  8
KONSTRUKTIONSELEMENTE
100
AcDbLine
 62
7
  6
CONTINUOUS
 10
117.8889652872
 20
27.7868537694
 11
117.8889652872
 21
27.2868537694
  0
LINE
  5
802
100
AcDbEntity
  8
KONSTRUKTIONSELEMENTE
100
AcDbLine
 62
7
  6
CONTINUOUS
 10
118.2034694005
 20
27.7868537694
 11
118.2034694005
 21
27.2868537694
  0
LINE
  5
803
100
AcDbEntity
  8
KONSTRUKTIONSELEMENTE
100
AcDbLine
 62
7
  6
CONTINUOUS
 10
118.2266412049
 20
27.7868537694
 11
118.2266412049
 21
27.2868537694
  0
LINE
  5
804
100
AcDbEntity
  8
KONSTRUKTIONSELEMENTE
100
AcDbLine
 62
7
  6
CONTINUOUS
 10
118.3127155456
 20
27.7868537694
 11
118.3127155456
 21
27.2868537694
  0
LINE
  5
805
100
AcDbEntity
  8
KONSTRUKTIONSELEMENTE
100
AcDbLine
 62
7
  6
CONTINUOUS
 10
118.4186523939
 20
27.7868537694
 11
118.4186523939
 21
27.2868537694
  0
LINE
  5
806
100
AcDbEntity
  8
KONSTRUKTIONSELEMENTE
100
AcDbLine
 62
7
  6
CONTINUOUS
 10
118.4484648128
 20
27.8847311516
 11
118.4484648128
 21
27.2868537694
  0
LINE
  5
807
100
AcDbEntity
  8
KONSTRUKTIONSELEMENTE
100
AcDbLine
 62
7
  6
CONTINUOUS
 10
118.5908216564
 20
27.9698005426
 11
118.5908216564
 21
27.2868537694
  0
LINE
  5
808
100
AcDbEntity
  8
KONSTRUKTIONSELEMENTE
100
AcDbLine
 62
7
  6
CONTINUOUS
 10
118.9218789525
 20
28.0805123224
 11
118.9218789525
 21
27.2868537694
  0
LINE
  5
809
100
AcDbEntity
  8
KONSTRUKTIONSELEMENTE
100
AcDbLine
 62
7
  6
CONTINUOUS
 10
119.2132098217
 20
28.145815444
 11
119.2132098217
 21
27.2868537694
  0
LINE
  5
80A
100
AcDbEntity
  8
RUNDUNGEN
100
AcDbLine
 62
7
  6
CONTINUOUS
 10
120.7428622465
 20
37.0536036261
 11
120.7543271942
 21
37.0798975893
  0
LWPOLYLINE
  5
80B
100
AcDbEntity
  8
RUNDUNGEN
100
AcDbPolyline
 62
7
  6
CONTINUOUS
 90
4
 70
0
 10
120.7543271942
 20
37.0798975893
 10
120.8018396399
 20
37.185002116
 10
120.8517399528
 20
37.2894406441
 10
120.9039967674
 20
37.3931953866
  0
LINE
  5
80C
100
AcDbEntity
  8
RUNDUNGEN
100
AcDbLine
 62
7
  6
CONTINUOUS
 10
120.9039967674
 20
37.3931953866
 11
120.9585769033
 21
37.4962459261
  0
LWPOLYLINE
  5
80D
100
AcDbEntity
  8
RUNDUNGEN
100
AcDbPolyline
 62
7
  6
CONTINUOUS
 90
3
 70
0
 10
120.9585769033
 20
37.4962459261
 10
120.9791312316
 20
37.5337745787
 10
121.0088343342
 20
37.5867192216
  0
LINE
  5
80E
100
AcDbEntity
  8
RUNDUNGEN
100
AcDbLine
 62
7
  6
CONTINUOUS
 10
121.0088343342
 20
37.5867192216
 11
121.0387350386
 21
37.6385058016
  0
LINE
  5
80F
100
AcDbEntity
  8
RUNDUNGEN
100
AcDbLine
 62
7
  6
CONTINUOUS
 10
121.0387350386
 20
37.6385058016
 11
121.0470988052
 21
37.6527261557
  0
LINE
  5
810
100
AcDbEntity
  8
KONSTRUKTIONSELEMENTE
100
AcDbLine
 62
7
  6
CONTINUOUS
 10
134.1977233506
 20
36.7868537694
 11
95.3134748876
 21
36.7868537694
  0
LWPOLYLINE
  5
811
100
AcDbEntity
  8
RUNDUNGEN
100
AcDbPolyline
 62
7
  6
CONTINUOUS
 90
3
 70
0
 10
121.0464249295
 20
26.9221186191
 10
121.0344559388
 20
26.9425216954
 10
121.0045692477
 20
26.9944976946
  0
LINE
  5
812
100
AcDbEntity
  8
RUNDUNGEN
100
AcDbLine
 62
7
  6
CONTINUOUS
 10
121.0045692477
 20
26.9944976946
 11
120.9748812242
 21
27.0476332764
  0
LINE
  5
813
100
AcDbEntity
  8
RUNDUNGEN
100
AcDbLine
 62
7
  6
CONTINUOUS
 10
120.9748812242
 20
27.0476332764
 11
120.954712501
 21
27.0845942783
  0
LINE
  5
814
100
AcDbEntity
  8
RUNDUNGEN
100
AcDbLine
 62
7
  6
CONTINUOUS
 10
120.954712501
 20
27.0845942783
 11
120.9003142693
 21
27.1876522619
  0
LWPOLYLINE
  5
815
100
AcDbEntity
  8
RUNDUNGEN
100
AcDbPolyline
 62
7
  6
CONTINUOUS
 90
3
 70
0
 10
120.9003142693
 20
27.1876522619
 10
120.8482390273
 20
27.2914140783
 10
120.7985196853
 20
27.3958598816
  0
LWPOLYLINE
  5
816
100
AcDbEntity
  8
RUNDUNGEN
100
AcDbPolyline
 62
7
  6
CONTINUOUS
 90
3
 70
0
 10
120.7985196853
 20
27.3958598816
 10
120.751187723
 20
27.5009719215
 10
120.7428622615
 20
27.5201038907
  0
LINE
  5
817
100
AcDbEntity
  8
KONSTRUKTIONSELEMENTE
100
AcDbLine
 62
7
  6
CONTINUOUS
 10
119.6733786498
 20
28.1802692331
 11
119.6733786498
 21
27.2868537694
  0
LINE
  5
818
100
AcDbEntity
  8
KONSTRUKTIONSELEMENTE
100
AcDbLine
 62
7
  6
CONTINUOUS
 10
119.7991794313
 20
28.1802692351
 11
119.7991794313
 21
27.2868537694
  0
LINE
  5
819
100
AcDbEntity
  8
KONSTRUKTIONSELEMENTE
100
AcDbLine
 62
7
  6
CONTINUOUS
 10
120.2196203929
 20
28.1458154593
 11
120.2196203929
 21
27.2868537694
  0
LINE
  5
81A
100
AcDbEntity
  8
KONSTRUKTIONSELEMENTE
100
AcDbLine
 62
7
  6
CONTINUOUS
 10
120.4314940894
 20
28.0805123224
 11
120.4314940894
 21
27.2868537694
  0
LINE
  5
81B
100
AcDbEntity
  8
KONSTRUKTIONSELEMENTE
100
AcDbLine
 62
7
  6
CONTINUOUS
 10
120.6036413591
 20
27.9698005643
 11
120.6036413591
 21
27.2868537694
  0
LINE
  5
81C
100
AcDbEntity
  8
KONSTRUKTIONSELEMENTE
100
AcDbLine
 62
7
  6
CONTINUOUS
 10
121.1494565201
 20
27.7868537694
 11
121.1494565201
 21
27.2868537694
  0
LINE
  5
81D
100
AcDbEntity
  8
KONSTRUKTIONSELEMENTE
100
AcDbLine
 62
7
  6
CONTINUOUS
 10
121.1546114369
 20
27.7868537694
 11
121.1546114369
 21
27.2868537694
  0
LINE
  5
81E
100
AcDbEntity
  8
RUNDUNGEN
100
AcDbLine
 62
7
  6
CONTINUOUS
 10
121.2554956129
 20
46.9582423774
 11
121.2554956129
 21
38.4154677053
  0
LINE
  5
81F
100
AcDbEntity
  8
RUNDUNGEN
100
AcDbLine
 62
7
  6
CONTINUOUS
 10
121.2554956129
 20
26.1582458508
 11
121.2554956129
 21
17.6154649723
  0
LINE
  5
820
100
AcDbEntity
  8
0
100
AcDbLine
 62
7
  6
CONTINUOUS
 10
121.2554956129
 20
20.2868537694
 11
121.2554956129
 21
26.1021953309
  0
LINE
  5
821
100
AcDbEntity
  8
0
100
AcDbLine
 62
7
  6
CONTINUOUS
 10
121.2554956129
 20
38.4715122078
 11
121.2554956129
 21
44.2868537694
  0
LINE
  5
822
100
AcDbEntity
  8
KONSTRUKTIONSELEMENTE
100
AcDbLine
 62
7
  6
CONTINUOUS
 10
121.3006572468
 20
27.7931651525
 11
121.3006572468
 21
27.2868537694
  0
LINE
  5
823
100
AcDbEntity
  8
KONSTRUKTIONSELEMENTE
100
AcDbLine
 62
7
  6
CONTINUOUS
 10
121.4260847437
 20
27.8241824476
 11
121.4260847437
 21
27.2868537694
  0
LINE
  5
824
100
AcDbEntity
  8
0
100
AcDbLine
 62
7
  6
CONTINUOUS
 10
98.5074188036
 20
37.2868537694
 11
98.2460286318
 21
37.2868537694
  0
LINE
  5
825
100
AcDbEntity
  8
0
100
AcDbLine
 62
7
  6
CONTINUOUS
 10
98.6697876708
 20
37.7868537694
 11
98.4058014262
 21
37.7868537694
  0
LINE
  5
826
100
AcDbEntity
  8
0
100
AcDbLine
 62
7
  6
CONTINUOUS
 10
98.9133927164
 20
38.4535202771
 11
98.6454141674
 21
38.4535202771
  0
LINE
  5
827
100
AcDbEntity
  8
0
100
AcDbLine
 62
7
  6
CONTINUOUS
 10
98.9460838592
 20
38.5368537694
 11
98.6775604221
 21
38.5368537694
  0
LINE
  5
828
100
AcDbEntity
  8
0
100
AcDbLine
 62
7
  6
CONTINUOUS
 10
99.0472175405
 20
38.7868537694
 11
98.7769944316
 21
38.7868537694
  0
LINE
  5
829
100
AcDbEntity
  8
0
100
AcDbLine
 62
7
  6
CONTINUOUS
 10
121.7554956129
 20
43.8385813241
 11
121.7554956129
 21
40.8536190128
  0
LINE
  5
82A
100
AcDbEntity
  8
0
100
AcDbLine
 62
7
  6
CONTINUOUS
 10
121.7554956129
 20
23.4818537694
 11
121.7554956129
 21
21.4818537694
  0
LINE
  5
82B
100
AcDbEntity
  8
KONSTRUKTIONSELEMENTE
100
AcDbLine
 62
7
  6
CONTINUOUS
 10
121.9071764843
 20
27.8224733925
 11
121.9071764843
 21
27.2868537694
  0
LINE
  5
82C
100
AcDbEntity
  8
KONSTRUKTIONSELEMENTE
100
AcDbLine
 62
7
  6
CONTINUOUS
 10
122.158031566
 20
27.9627575064
 11
122.158031566
 21
27.2868537694
  0
LINE
  5
82D
100
AcDbEntity
  8
KONSTRUKTIONSELEMENTE
100
AcDbLine
 62
7
  6
CONTINUOUS
 10
122.4587137318
 20
27.962321917
 11
122.4587137318
 21
27.2868537694
  0
LINE
  5
82E
100
AcDbEntity
  8
KONSTRUKTIONSELEMENTE
100
AcDbLine
 62
7
  6
CONTINUOUS
 10
122.8693613419
 20
27.8241824476
 11
122.8693613419
 21
27.2868537694
  0
LINE
  5
82F
100
AcDbEntity
  8
KONSTRUKTIONSELEMENTE
100
AcDbLine
 62
7
  6
CONTINUOUS
 10
123.0007835322
 20
27.7868537694
 11
123.0007835322
 21
27.2868537694
  0
LINE
  5
830
100
AcDbEntity
  8
KONSTRUKTIONSELEMENTE
100
AcDbLine
 62
7
  6
CONTINUOUS
 10
123.1976447121
 20
27.7868537694
 11
123.1976447121
 21
27.2868537694
  0
LINE
  5
831
100
AcDbEntity
  8
0
100
AcDbLine
 62
7
  6
CONTINUOUS
 10
99.1893286672
 20
39.1201872617
 11
98.9166808409
 21
39.1201872617
  0
LINE
  5
832
100
AcDbEntity
  8
0
100
AcDbLine
 62
7
  6
CONTINUOUS
 10
99.3789712982
 20
39.5368537694
 11
99.1030197704
 21
39.5368537694
  0
LINE
  5
833
100
AcDbEntity
  8
0
100
AcDbLine
 62
7
  6
CONTINUOUS
 10
121.2554956129
 20
40.8536190128
 11
121.7554956129
 21
40.8536190128
  0
LINE
  5
834
100
AcDbEntity
  8
KONSTRUKTIONSELEMENTE
100
AcDbLine
 62
7
  6
CONTINUOUS
 10
124.0005274321
 20
27.7868537694
 11
124.0005274321
 21
27.2868537694
  0
LINE
  5
835
100
AcDbEntity
  8
0
100
AcDbLine
 62
7
  6
CONTINUOUS
 10
121.2554956129
 20
41.3068696839
 11
121.7554956129
 21
41.3068696839
  0
LINE
  5
836
100
AcDbEntity
  8
0
100
AcDbLine
 62
7
  6
CONTINUOUS
 10
100.4923437873
 20
41.5368537694
 11
100.1952758344
 21
41.5368537694
  0
LINE
  5
837
100
AcDbEntity
  8
0
100
AcDbLine
 62
7
  6
CONTINUOUS
 10
121.2554956129
 20
42.1228494973
 11
121.7554956129
 21
42.1228494973
  0
LINE
  5
838
100
AcDbEntity
  8
0
100
AcDbLine
 62
7
  6
CONTINUOUS
 10
100.9475370148
 20
42.2035205155
 11
100.6408854289
 21
42.2035205155
  0
LINE
  5
839
100
AcDbEntity
  8
0
100
AcDbLine
 62
7
  6
CONTINUOUS
 10
101.0077685281
 20
42.2868537694
 11
100.699802816
 21
42.2868537694
  0
LINE
  5
83A
100
AcDbEntity
  8
0
100
AcDbLine
 62
7
  6
CONTINUOUS
 10
101.1931396229
 20
42.5368537694
 11
100.8810586874
 21
42.5368537694
  0
LINE
  5
83B
100
AcDbEntity
  8
0
100
AcDbLine
 62
7
  6
CONTINUOUS
 10
121.2554956129
 20
42.5761001685
 11
121.7554956129
 21
42.5761001685
  0
LINE
  5
83C
100
AcDbEntity
  8
0
100
AcDbLine
 62
7
  6
CONTINUOUS
 10
101.4516218448
 20
42.8701870232
 11
101.1336177234
 21
42.8701870232
  0
LINE
  5
83D
100
AcDbEntity
  8
KONSTRUKTIONSELEMENTE
100
AcDbLine
 62
7
  6
CONTINUOUS
 10
125.8726488785
 20
28.1954129517
 11
125.8726488785
 21
27.2868537694
  0
LINE
  5
83E
100
AcDbEntity
  8
KONSTRUKTIONSELEMENTE
100
AcDbLine
 62
7
  6
CONTINUOUS
 10
127.1513151863
 20
28.1815553371
 11
127.1513151863
 21
27.2868537694
  0
LINE
  5
83F
100
AcDbEntity
  8
KONSTRUKTIONSELEMENTE
100
AcDbLine
 62
7
  6
CONTINUOUS
 10
127.3694362721
 20
28.1477538575
 11
127.3694362721
 21
27.2868537694
  0
LINE
  5
840
100
AcDbEntity
  8
KONSTRUKTIONSELEMENTE
100
AcDbLine
 62
7
  6
CONTINUOUS
 10
127.4377457643
 20
28.0515211751
 11
127.4377457643
 21
27.2868537694
  0
LINE
  5
841
100
AcDbEntity
  8
0
100
AcDbLine
 62
7
  6
CONTINUOUS
 10
101.7940142161
 20
43.2868537694
 11
101.467813347
 21
43.2868537694
  0
LINE
  5
842
100
AcDbEntity
  8
0
100
AcDbLine
 62
7
  6
CONTINUOUS
 10
121.2554956129
 20
43.385330653
 11
121.7554956129
 21
43.385330653
  0
LINE
  5
843
100
AcDbEntity
  8
0
100
AcDbLine
 62
7
  6
CONTINUOUS
 10
121.2554956129
 20
43.8385813241
 11
121.7554956129
 21
43.8385813241
  0
LINE
  5
844
100
AcDbEntity
  8
RUNDUNGEN
100
AcDbLine
 62
7
  6
CONTINUOUS
 10
120.2554956129
 20
45.2868537694
 11
109.2554956129
 21
45.2868537694
  0
LINE
  5
845
100
AcDbEntity
  8
0
100
AcDbLine
 62
7
  6
CONTINUOUS
 10
103.8010444628
 20
45.2868537694
 11
103.4169551425
 21
45.2868537694
  0
LINE
  5
846
100
AcDbEntity
  8
KONSTRUKTIONSELEMENTE
100
AcDbLine
 62
7
  6
CONTINUOUS
 10
125.9324101492
 20
15.645837618
 11
132.9420290924
 21
27.7868537694
  0
LINE
  5
847
100
AcDbEntity
  8
KONSTRUKTIONSELEMENTE
100
AcDbLine
 62
7
  6
CONTINUOUS
 10
123.5785810767
 20
50.2868537694
 11
105.9324101492
 21
50.2868537694
  0
LINE
  5
848
100
AcDbEntity
  8
KONSTRUKTIONSELEMENTE
100
AcDbLine
 62
7
  6
CONTINUOUS
 10
132.9420290924
 20
36.7868537694
 11
125.9324101492
 21
48.9278699207
  0
LINE
  5
849
100
AcDbEntity
  8
KONSTRUKTIONSELEMENTE
100
AcDbLine
 62
7
  6
CONTINUOUS
 10
123.5785810767
 20
14.2868537694
 11
125.9324101492
 21
15.645837618
  0
LINE
  5
84A
100
AcDbEntity
  8
KONSTRUKTIONSELEMENTE
100
AcDbLine
 62
7
  6
CONTINUOUS
 10
125.9324101492
 20
48.9278699207
 11
123.5785810767
 21
50.2868537694
  0
ARC
  5
84B
100
AcDbEntity
  8
RUNDUNGEN
100
AcDbCircle
 62
7
  6
CONTINUOUS
 10
104.2554956129
 20
114.6627878999
 40
4.0
100
AcDbArc
 50
270.0014949249
 51
360.0
  0
ARC
  5
84C
100
AcDbEntity
  8
RUNDUNGEN
100
AcDbCircle
 62
7
  6
CONTINUOUS
 10
99.2554956129
 20
109.1627878999
 40
1.5
100
AcDbArc
 50
90.0
 51
180.0
  0
ARC
  5
84D
100
AcDbEntity
  8
KONSTRUKTIONSELEMENTE
100
AcDbCircle
 62
7
  6
CONTINUOUS
 10
54.7554956129
 20
158.2627878999
 40
86.5
100
AcDbArc
 50
343.7397952917
 51
16.2602047083
  0
ARC
  5
84E
100
AcDbEntity
  8
KONSTRUKTIONSELEMENTE
100
AcDbCircle
 62
7
  6
CONTINUOUS
 10
54.7554956129
 20
158.2627878999
 40
86.0311288741
100
AcDbArc
 50
352.6540124577
 51
7.3459875423
  0
ARC
  5
84F
100
AcDbEntity
  8
KONSTRUKTIONSELEMENTE
100
AcDbCircle
 62
7
  6
CONTINUOUS
 10
54.7554956129
 20
158.2627878999
 40
77.9688711259
100
AcDbArc
 50
351.8895414224
 51
8.1104585776
  0
ARC
  5
850
100
AcDbEntity
  8
KONSTRUKTIONSELEMENTE
100
AcDbCircle
 62
7
  6
CONTINUOUS
 10
54.7554956129
 20
158.2627878999
 40
77.5
100
AcDbArc
 50
343.7397952917
 51
16.2602047083
  0
ARC
  5
851
100
AcDbEntity
  8
KONSTRUKTIONSELEMENTE
100
AcDbCircle
 62
7
  6
CONTINUOUS
 10
114.7554956129
 20
140.7627878999
 40
24.0
100
AcDbArc
 50
196.2602047083
 51
254.2842786346
  0
ARC
  5
852
100
AcDbEntity
  8
KONSTRUKTIONSELEMENTE
100
AcDbCircle
 62
7
  6
CONTINUOUS
 10
114.7554956129
 20
140.7627878999
 40
24.0
100
AcDbArc
 50
286.9673071538
 51
343.7397952917
  0
ARC
  5
853
100
AcDbEntity
  8
KONSTRUKTIONSELEMENTE
100
AcDbCircle
 62
7
  6
CONTINUOUS
 10
114.7554956129
 20
140.7627878999
 40
15.0
100
AcDbArc
 50
196.2602047083
 51
244.3325538754
  0
ARC
  5
854
100
AcDbEntity
  8
KONSTRUKTIONSELEMENTE
100
AcDbCircle
 62
7
  6
CONTINUOUS
 10
114.7554956129
 20
140.7627878999
 40
15.0
100
AcDbArc
 50
295.6653076586
 51
343.7397952917
  0
ARC
  5
855
100
AcDbEntity
  8
RUNDUNGEN
100
AcDbCircle
 62
7
  6
CONTINUOUS
 10
114.7554956129
 20
127.1627878999
 40
6.5
100
AcDbArc
 50
0.0
 51
180.0
  0
ARC
  5
856
100
AcDbEntity
  8
RUNDUNGEN
100
AcDbCircle
 62
7
  6
CONTINUOUS
 10
125.2554956129
 20
114.6627878999
 40
4.0
100
AcDbArc
 50
180.0
 51
269.9988387507
  0
ARC
  5
857
100
AcDbEntity
  8
RUNDUNGEN
100
AcDbCircle
 62
7
  6
CONTINUOUS
 10
130.2554956129
 20
109.1627878999
 40
1.5
100
AcDbArc
 50
0.0
 51
90.0
  0
ARC
  5
858
100
AcDbEntity
  8
KONSTRUKTIONSELEMENTE
100
AcDbCircle
 62
7
  6
CONTINUOUS
 10
174.7554956129
 20
158.2627878999
 40
86.5
100
AcDbArc
 50
163.7397952917
 51
196.2602047083
  0
ARC
  5
859
100
AcDbEntity
  8
KONSTRUKTIONSELEMENTE
100
AcDbCircle
 62
7
  6
CONTINUOUS
 10
174.7554956129
 20
158.2627878999
 40
86.0311288741
100
AcDbArc
 50
172.6540124577
 51
187.3459875423
  0
ARC
  5
85A
100
AcDbEntity
  8
KONSTRUKTIONSELEMENTE
100
AcDbCircle
 62
7
  6
CONTINUOUS
 10
174.7554956129
 20
158.2627878999
 40
77.9688711259
100
AcDbArc
 50
171.8895414224
 51
188.1104585776
  0
ARC
  5
85B
100
AcDbEntity
  8
KONSTRUKTIONSELEMENTE
100
AcDbCircle
 62
7
  6
CONTINUOUS
 10
174.7554956129
 20
158.2627878999
 40
77.5
100
AcDbArc
 50
163.7397952917
 51
196.2602047083
  0
ARC
  5
85C
100
AcDbEntity
  8
KONSTRUKTIONSELEMENTE
100
AcDbCircle
 62
7
  6
CONTINUOUS
 10
114.7554956129
 20
175.7627878999
 40
24.0
100
AcDbArc
 50
16.2602047083
 51
163.7397952917
  0
ARC
  5
85D
100
AcDbEntity
  8
KONSTRUKTIONSELEMENTE
100
AcDbCircle
 62
7
  6
CONTINUOUS
 10
114.7554956129
 20
175.7627878999
 40
15.0
100
AcDbArc
 50
16.2602047083
 51
163.7397952917
  0
ARC
  5
85E
100
AcDbEntity
  8
RUNDUNGEN
100
AcDbCircle
 62
7
  6
CONTINUOUS
 10
165.7994093469
 20
125.0288133037
 40
3.5
100
AcDbArc
 50
330.0
 51
360.0
  0
ARC
  5
85F
100
AcDbEntity
  8
RUNDUNGEN
100
AcDbCircle
 62
7
  6
CONTINUOUS
 10
171.7994093469
 20
131.0963248206
 40
2.5
100
AcDbArc
 50
139.9998791628
 51
180.0002148027
  0
ARC
  5
860
100
AcDbEntity
  8
RUNDUNGEN
100
AcDbCircle
 62
7
  6
CONTINUOUS
 10
176.1147509085
 20
132.1627878999
 40
1.5
100
AcDbArc
 50
62.7339555493
 51
90.0
  0
ARC
  5
861
100
AcDbEntity
  8
RUNDUNGEN
100
AcDbCircle
 62
7
  6
CONTINUOUS
 10
171.1557170051
 20
132.6627878999
 40
1.0
100
AcDbArc
 50
90.0000000001
 51
140.0
  0
ARC
  5
862
100
AcDbEntity
  8
RUNDUNGEN
100
AcDbCircle
 62
7
  6
CONTINUOUS
 10
166.2994721458
 20
116.8949474783
 40
1.0
100
AcDbArc
 50
150.0071962184
 51
180.006231494
  0
ARC
  5
863
100
AcDbEntity
  8
KONSTRUKTIONSELEMENTE
100
AcDbCircle
 62
7
  6
CONTINUOUS
 10
169.0360501779
 20
192.6962363226
 40
17.3700213285
100
AcDbArc
 50
357.6011902106
 51
0.7179653739
  0
ARC
  5
864
100
AcDbEntity
  8
KONSTRUKTIONSELEMENTE
100
AcDbCircle
 62
7
  6
CONTINUOUS
 10
176.1535375386
 20
194.6281411687
 40
10.2525322647
100
AcDbArc
 50
356.8776745311
 51
0.9339391803
  0
ARC
  5
865
100
AcDbEntity
  8
KONSTRUKTIONSELEMENTE
100
AcDbCircle
 62
7
  6
CONTINUOUS
 10
181.2775201065
 20
194.919625467
 40
5.4793864076
100
AcDbArc
 50
16.2531002226
 51
19.5312561121
  0
ARC
  5
866
100
AcDbEntity
  8
KONSTRUKTIONSELEMENTE
100
AcDbCircle
 62
7
  6
CONTINUOUS
 10
181.4258832008
 20
194.835778161
 40
5.3618085586
100
AcDbArc
 50
14.4430929898
 51
17.557110507
  0
ARC
  5
867
100
AcDbEntity
  8
KONSTRUKTIONSELEMENTE
100
AcDbCircle
 62
7
  6
CONTINUOUS
 10
181.8039877313
 20
194.8470484185
 40
4.9935390672
100
AcDbArc
 50
11.2105380792
 51
15.3999771853
  0
ARC
  5
868
100
AcDbEntity
  8
KONSTRUKTIONSELEMENTE
100
AcDbCircle
 62
7
  6
CONTINUOUS
 10
181.9574650819
 20
194.8546346591
 40
4.8415670804
100
AcDbArc
 50
8.32917086
 51
11.4755855577
  0
ARC
  5
869
100
AcDbEntity
  8
KONSTRUKTIONSELEMENTE
100
AcDbCircle
 62
7
  6
CONTINUOUS
 10
181.842652393
 20
194.1758275979
 40
4.7333741683
100
AcDbArc
 50
344.5377256909
 51
346.1551586208
  0
ARC
  5
86A
100
AcDbEntity
  8
KONSTRUKTIONSELEMENTE
100
AcDbCircle
 62
7
  6
CONTINUOUS
 10
182.1059317708
 20
194.8630832599
 40
4.6934609438
100
AcDbArc
 50
3.2061649483
 51
8.4896688862
  0
ARC
  5
86B
100
AcDbEntity
  8
0
100
AcDbCircle
 62
7
  6
CONTINUOUS
 10
182.2994093469
 20
144.1627878999
 40
12.0
100
AcDbArc
 50
242.7339555493
 51
247.971412075
  0
ARC
  5
86C
100
AcDbEntity
  8
0
100
AcDbCircle
 62
7
  6
CONTINUOUS
 10
182.2994093469
 20
144.1627878999
 40
12.0
100
AcDbArc
 50
292.028587925
 51
297.2660444507
  0
ARC
  5
86D
100
AcDbEntity
  8
RUNDUNGEN
100
AcDbCircle
 62
7
  6
CONTINUOUS
 10
182.2994093469
 20
118.1627878999
 40
6.5
100
AcDbArc
 50
138.0000142783
 51
41.9999869764
  0
ARC
  5
86E
100
AcDbEntity
  8
KONSTRUKTIONSELEMENTE
100
AcDbCircle
 62
7
  6
CONTINUOUS
 10
182.2994093469
 20
121.2627878999
 40
4.5
100
AcDbArc
 50
180.0
 51
360.0
  0
ARC
  5
86F
100
AcDbEntity
  8
RUNDUNGEN
100
AcDbCircle
 62
7
  6
CONTINUOUS
 10
198.7994093469
 20
125.0288133037
 40
3.5
100
AcDbArc
 50
180.0
 51
210.0
  0
ARC
  5
870
100
AcDbEntity
  8
RUNDUNGEN
100
AcDbCircle
 62
7
  6
CONTINUOUS
 10
192.7994093469
 20
131.0963248206
 40
2.5
100
AcDbArc
 50
0.0006043467
 51
40.0
  0
ARC
  5
871
100
AcDbEntity
  8
RUNDUNGEN
100
AcDbCircle
 62
7
  6
CONTINUOUS
 10
188.4840677854
 20
132.1627878999
 40
1.5
100
AcDbArc
 50
90.0
 51
117.2660444507
  0
ARC
  5
872
100
AcDbEntity
  8
RUNDUNGEN
100
AcDbCircle
 62
7
  6
CONTINUOUS
 10
193.4431016888
 20
132.6627878999
 40
1.0
100
AcDbArc
 50
40.0
 51
90.0
  0
ARC
  5
873
100
AcDbEntity
  8
RUNDUNGEN
100
AcDbCircle
 62
7
  6
CONTINUOUS
 10
198.2994004723
 20
116.8948540788
 40
1.0
100
AcDbArc
 50
359.9991193011
 51
29.9989830454
  0
ARC
  5
874
100
AcDbEntity
  8
KONSTRUKTIONSELEMENTE
100
AcDbCircle
 62
7
  6
CONTINUOUS
 10
182.2994093469
 20
195.2627878999
 40
4.5
100
AcDbArc
 50
21.2339996808
 51
180.0
  0
ARC
  5
875
100
AcDbEntity
  8
KONSTRUKTIONSELEMENTE
100
AcDbCircle
 62
7
  6
CONTINUOUS
 10
182.3718058124
 20
194.8703438645
 40
4.4276035416
100
AcDbArc
 50
0.000448404
 51
3.304782765
  0
ARC
  5
876
100
AcDbEntity
  8
KONSTRUKTIONSELEMENTE
100
AcDbCircle
 62
7
  6
CONTINUOUS
 10
182.3264493667
 20
195.771231425
 40
4.2303123918
100
AcDbArc
 50
13.3986380902
 51
15.3405355336
  0
ARC
  5
877
100
AcDbEntity
  8
KONSTRUKTIONSELEMENTE
100
AcDbCircle
 62
7
  6
CONTINUOUS
 10
184.6502001732
 20
195.6219399665
 40
1.9395122748
100
AcDbArc
 50
334.7711827724
 51
337.2262528135
  0
ARC
  5
878
100
AcDbEntity
  8
RUNDUNGEN
100
AcDbCircle
 62
7
  6
CONTINUOUS
 10
97.7554956129
 20
32.2868537694
 40
12.0
100
AcDbArc
 50
332.7339555493
 51
337.9756710363
  0
ARC
  5
879
100
AcDbEntity
  8
RUNDUNGEN
100
AcDbCircle
 62
7
  6
CONTINUOUS
 10
97.7554956129
 20
32.2868537694
 40
12.0
100
AcDbArc
 50
22.0243289638
 51
27.2660444507
  0
ARC
  5
87A
100
AcDbEntity
  8
KONSTRUKTIONSELEMENTE
100
AcDbCircle
 62
7
  6
CONTINUOUS
 10
92.7554956129
 20
32.2868537694
 40
4.5
100
AcDbArc
 50
153.6122000388
 51
206.3877999612
  0
ARC
  5
87B
100
AcDbEntity
  8
KONSTRUKTIONSELEMENTE
100
AcDbCircle
 62
7
  6
CONTINUOUS
 10
101.7687559633
 20
57.7125426626
 40
29.5323520636
100
AcDbArc
 50
268.1602944089
 51
270.5508259606
  0
ARC
  5
87C
100
AcDbEntity
  8
KONSTRUKTIONSELEMENTE
100
AcDbCircle
 62
7
  6
CONTINUOUS
 10
104.617710245
 20
35.8816609258
 40
8.0563958997
100
AcDbArc
 50
253.7338783579
 51
256.3890296457
  0
ARC
  5
87D
100
AcDbEntity
  8
KONSTRUKTIONSELEMENTE
100
AcDbCircle
 62
7
  6
CONTINUOUS
 10
107.6101842667
 20
35.3824281559
 40
7.5581572367
100
AcDbArc
 50
253.176490017
 51
255.9143771357
  0
ARC
  5
87E
100
AcDbEntity
  8
KONSTRUKTIONSELEMENTE
100
AcDbCircle
 62
7
  6
CONTINUOUS
 10
104.3282788664
 20
32.9302737822
 40
5.1364345189
100
AcDbArc
 50
251.7744237813
 51
255.9689058871
  0
ARC
  5
87F
100
AcDbEntity
  8
KONSTRUKTIONSELEMENTE
100
AcDbCircle
 62
7
  6
CONTINUOUS
 10
107.26112415
 20
32.1947518912
 40
4.4031348248
100
AcDbArc
 50
250.2155962966
 51
254.7289796062
  0
ARC
  5
880
100
AcDbEntity
  8
KONSTRUKTIONSELEMENTE
100
AcDbCircle
 62
7
  6
CONTINUOUS
 10
104.0814076019
 20
30.9396547073
 40
3.1547351556
100
AcDbArc
 50
251.54907663
 51
255.4648348893
  0
ARC
  5
881
100
AcDbEntity
  8
KONSTRUKTIONSELEMENTE
100
AcDbCircle
 62
7
  6
CONTINUOUS
 10
106.9789308463
 20
30.1929525178
 40
2.4112153105
100
AcDbArc
 50
248.6579089987
 51
253.0982246685
  0
ARC
  5
882
100
AcDbEntity
  8
KONSTRUKTIONSELEMENTE
100
AcDbCircle
 62
7
  6
CONTINUOUS
 10
103.8823246497
 20
29.5740853857
 40
1.7892076177
100
AcDbArc
 50
250.6553705342
 51
257.5566328786
  0
ARC
  5
883
100
AcDbEntity
  8
KONSTRUKTIONSELEMENTE
100
AcDbCircle
 62
7
  6
CONTINUOUS
 10
103.7506644114
 20
28.5854566772
 40
0.7999040276
100
AcDbArc
 50
251.4958366496
 51
257.2954262217
  0
ARC
  5
884
100
AcDbEntity
  8
KONSTRUKTIONSELEMENTE
100
AcDbCircle
 62
7
  6
CONTINUOUS
 10
103.7429857072
 20
28.5533707757
 40
0.7669150765
100
AcDbArc
 50
257.3278683515
 51
259.3172186986
  0
ARC
  5
885
100
AcDbEntity
  8
KONSTRUKTIONSELEMENTE
100
AcDbCircle
 62
7
  6
CONTINUOUS
 10
106.6159985457
 20
28.1467222902
 40
0.3664954601
100
AcDbArc
 50
240.7657622845
 51
243.5055857964
  0
ARC
  5
886
100
AcDbEntity
  8
RUNDUNGEN
100
AcDbCircle
 62
7
  6
CONTINUOUS
 10
109.768236763
 20
26.1559636906
 40
1.5128141151
100
AcDbArc
 50
161.7640982673
 51
177.2408470198
  0
ARC
  5
887
100
AcDbEntity
  8
RUNDUNGEN
100
AcDbCircle
 62
7
  6
CONTINUOUS
 10
109.7554956129
 20
26.1021953309
 40
1.5
100
AcDbArc
 50
152.7339555493
 51
180.0
  0
ARC
  5
888
100
AcDbEntity
  8
RUNDUNGEN
100
AcDbCircle
 62
7
  6
CONTINUOUS
 10
109.7554591255
 20
17.6154537558
 40
1.4999900489
100
AcDbArc
 50
180.0000281736
 51
251.1803883162
  0
ARC
  5
889
100
AcDbEntity
  8
RUNDUNGEN
100
AcDbCircle
 62
7
  6
CONTINUOUS
 10
109.7529466425
 20
26.1595675179
 40
1.4971647965
100
AcDbArc
 50
149.3259705155
 51
161.7119786222
  0
ARC
  5
88A
100
AcDbEntity
  8
RUNDUNGEN
100
AcDbCircle
 62
7
  6
CONTINUOUS
 10
109.7452999936
 20
26.1578856365
 40
1.4898116412
100
AcDbArc
 50
177.2722134902
 51
177.8523418658
  0
ARC
  5
88B
100
AcDbEntity
  8
RUNDUNGEN
100
AcDbCircle
 62
7
  6
CONTINUOUS
 10
109.7361151853
 20
26.1581872239
 40
1.4806219833
100
AcDbArc
 50
177.8506846842
 51
179.9979958688
  0
ARC
  5
88C
100
AcDbEntity
  8
RUNDUNGEN
100
AcDbCircle
 62
7
  6
CONTINUOUS
 10
109.2554956129
 20
20.2868537694
 40
1.0
100
AcDbArc
 50
180.0
 51
270.0
  0
ARC
  5
88D
100
AcDbEntity
  8
KONSTRUKTIONSELEMENTE
100
AcDbCircle
 62
7
  6
CONTINUOUS
 10
114.2886780973
 20
35.3533947084
 40
7.5197806594
100
AcDbArc
 50
253.4634474249
 51
256.2748187822
  0
ARC
  5
88E
100
AcDbEntity
  8
KONSTRUKTIONSELEMENTE
100
AcDbCircle
 62
7
  6
CONTINUOUS
 10
113.7550624245
 20
34.8242428633
 40
6.9912147734
100
AcDbArc
 50
284.2838499586
 51
287.1861732584
  0
ARC
  5
88F
100
AcDbEntity
  8
KONSTRUKTIONSELEMENTE
100
AcDbCircle
 62
7
  6
CONTINUOUS
 10
109.6180677406
 20
32.8775639313
 40
5.0501795465
100
AcDbArc
 50
287.0111971948
 51
290.417015672
  0
ARC
  5
890
100
AcDbEntity
  8
KONSTRUKTIONSELEMENTE
100
AcDbCircle
 62
7
  6
CONTINUOUS
 10
113.8680605334
 20
31.5563731391
 40
3.7637202852
100
AcDbArc
 50
248.7590052197
 51
252.4404879834
  0
ARC
  5
891
100
AcDbEntity
  8
KONSTRUKTIONSELEMENTE
100
AcDbCircle
 62
7
  6
CONTINUOUS
 10
114.3987245689
 20
30.0276806948
 40
2.2546954248
100
AcDbArc
 50
292.5152274659
 51
298.6563685829
  0
ARC
  5
892
100
AcDbEntity
  8
KONSTRUKTIONSELEMENTE
100
AcDbCircle
 62
7
  6
CONTINUOUS
 10
110.051035406
 20
29.8876521537
 40
2.1151961089
100
AcDbArc
 50
294.8324005208
 51
299.5913340231
  0
ARC
  5
893
100
AcDbEntity
  8
RUNDUNGEN
100
AcDbCircle
 62
7
  6
CONTINUOUS
 10
109.7682390387
 20
38.4177336042
 40
1.512813669
100
AcDbArc
 50
182.7603375489
 51
198.2357609146
  0
ARC
  5
894
100
AcDbEntity
  8
RUNDUNGEN
100
AcDbCircle
 62
7
  6
CONTINUOUS
 10
109.7554956129
 20
38.4715122078
 40
1.5
100
AcDbArc
 50
180.0
 51
207.2660444545
  0
ARC
  5
895
100
AcDbEntity
  8
RUNDUNGEN
100
AcDbCircle
 62
7
  6
CONTINUOUS
 10
109.7529496334
 20
38.4141299318
 40
1.4971650748
100
AcDbArc
 50
198.2878761438
 51
210.6734797429
  0
ARC
  5
896
100
AcDbEntity
  8
RUNDUNGEN
100
AcDbCircle
 62
7
  6
CONTINUOUS
 10
109.7452997876
 20
38.4158114663
 40
1.48980869
100
AcDbArc
 50
182.1457136316
 51
182.7289865265
  0
ARC
  5
897
100
AcDbEntity
  8
RUNDUNGEN
100
AcDbCircle
 62
7
  6
CONTINUOUS
 10
109.736111058
 20
38.4155099244
 40
1.4806151138
100
AcDbArc
 50
180.0022077105
 51
182.1473661934
  0
ARC
  5
898
100
AcDbEntity
  8
KONSTRUKTIONSELEMENTE
100
AcDbCircle
 62
7
  6
CONTINUOUS
 10
104.7806396473
 20
64.8300277763
 40
36.6498374577
100
AcDbArc
 50
268.3485640599
 51
270.4945060157
  0
ARC
  5
899
100
AcDbEntity
  8
KONSTRUKTIONSELEMENTE
100
AcDbCircle
 62
7
  6
CONTINUOUS
 10
108.9018179422
 20
56.0375368899
 40
28.0027491264
100
AcDbArc
 50
275.0768334255
 51
275.842028916
  0
ARC
  5
89A
100
AcDbEntity
  8
KONSTRUKTIONSELEMENTE
100
AcDbCircle
 62
7
  6
CONTINUOUS
 10
108.1135957029
 20
55.6641665715
 40
27.6476773366
100
AcDbArc
 50
263.7359739153
 51
264.4146020136
  0
ARC
  5
89B
100
AcDbEntity
  8
KONSTRUKTIONSELEMENTE
100
AcDbCircle
 62
7
  6
CONTINUOUS
 10
113.0857234605
 20
55.2266980112
 40
27.2192740621
100
AcDbArc
 50
275.7670085374
 51
276.4628475931
  0
ARC
  5
89C
100
AcDbEntity
  8
KONSTRUKTIONSELEMENTE
100
AcDbCircle
 62
7
  6
CONTINUOUS
 10
104.9127488776
 20
52.8567554234
 40
24.8404018621
100
AcDbArc
 50
263.3883986849
 51
264.1041269281
  0
ARC
  5
89D
100
AcDbEntity
  8
RUNDUNGEN
100
AcDbCircle
 62
7
  6
CONTINUOUS
 10
109.7554956129
 20
46.9582545205
 40
1.5
100
AcDbArc
 50
108.8196331525
 51
180.0
  0
ARC
  5
89E
100
AcDbEntity
  8
RUNDUNGEN
100
AcDbCircle
 62
7
  6
CONTINUOUS
 10
109.2554956129
 20
44.2868537694
 40
1.0
100
AcDbArc
 50
90.0
 51
180.0
  0
ARC
  5
89F
100
AcDbEntity
  8
0
100
AcDbCircle
 62
7
  6
CONTINUOUS
 10
114.7554956129
 20
32.2868537694
 40
17.25
100
AcDbArc
 50
211.1250856063
 51
219.2607199174
  0
ARC
  5
8A0
100
AcDbEntity
  8
0
100
AcDbCircle
 62
7
  6
CONTINUOUS
 10
114.7554956129
 20
32.2868537694
 40
17.25
100
AcDbArc
 50
147.5725066183
 51
159.0539998895
  0
ARC
  5
8A1
100
AcDbEntity
  8
0
100
AcDbCircle
 62
7
  6
CONTINUOUS
 10
114.7554956129
 20
32.2868537694
 40
17.25
100
AcDbArc
 50
131.094787995
 51
144.9088248461
  0
ARC
  5
8A2
100
AcDbEntity
  8
0
100
AcDbCircle
 62
7
  6
CONTINUOUS
 10
114.7554956129
 20
32.2868537694
 40
17.25
100
AcDbArc
 50
195.1216653149
 51
208.5718781423
  0
ARC
  5
8A3
100
AcDbEntity
  8
0
100
AcDbCircle
 62
7
  6
CONTINUOUS
 10
114.7554956129
 20
32.2868537694
 40
17.25
100
AcDbArc
 50
161.4071774506
 51
164.8782650379
  0
ARC
  5
8A4
100
AcDbEntity
  8
RUNDUNGEN
100
AcDbCircle
 62
7
  6
CONTINUOUS
 10
114.7554956129
 20
32.2868537694
 40
17.0
100
AcDbArc
 50
195.3540074203
 51
344.6459926497
  0
ARC
  5
8A5
100
AcDbEntity
  8
RUNDUNGEN
100
AcDbCircle
 62
7
  6
CONTINUOUS
 10
114.7554956129
 20
32.2868537694
 40
17.0
100
AcDbArc
 50
15.3540073617
 51
164.6459925745
  0
ARC
  5
8A6
100
AcDbEntity
  8
KONSTRUKTIONSELEMENTE
100
AcDbCircle
 62
7
  6
CONTINUOUS
 10
117.3758370521
 20
32.1532535975
 40
4.3563134703
100
AcDbArc
 50
286.1946844608
 51
290.7871222979
  0
ARC
  5
8A7
100
AcDbEntity
  8
KONSTRUKTIONSELEMENTE
100
AcDbCircle
 62
7
  6
CONTINUOUS
 10
116.7576096804
 20
38.4182652305
 40
10.5618746759
100
AcDbArc
 50
281.8244275195
 51
283.4441027752
  0
ARC
  5
8A8
100
AcDbEntity
  8
RUNDUNGEN
100
AcDbCircle
 62
7
  6
CONTINUOUS
 10
119.7427523195
 20
26.1559745733
 40
1.5128135129
100
AcDbArc
 50
2.7599158804
 51
18.236091943
  0
ARC
  5
8A9
100
AcDbEntity
  8
RUNDUNGEN
100
AcDbCircle
 62
7
  6
CONTINUOUS
 10
119.7554956129
 20
17.6154530182
 40
1.5
100
AcDbArc
 50
288.8196295078
 51
360.0
  0
ARC
  5
8AA
100
AcDbEntity
  8
RUNDUNGEN
100
AcDbCircle
 62
7
  6
CONTINUOUS
 10
119.7554956129
 20
26.1021953309
 40
1.5
100
AcDbArc
 50
0.0
 51
27.2660444537
  0
ARC
  5
8AB
100
AcDbEntity
  8
RUNDUNGEN
100
AcDbCircle
 62
7
  6
CONTINUOUS
 10
119.7580417884
 20
26.159578363
 40
1.4971648294
100
AcDbArc
 50
18.2882071439
 51
30.6733631426
  0
ARC
  5
8AC
100
AcDbEntity
  8
RUNDUNGEN
100
AcDbCircle
 62
7
  6
CONTINUOUS
 10
119.7656937422
 20
26.1578969014
 40
1.4898063618
100
AcDbArc
 50
2.1461823639
 51
2.728555014
  0
ARC
  5
8AD
100
AcDbEntity
  8
RUNDUNGEN
100
AcDbCircle
 62
7
  6
CONTINUOUS
 10
119.7748797378
 20
26.1581984049
 40
1.4806155194
100
AcDbArc
 50
0.0026274083
 51
2.1478353615
  0
ARC
  5
8AE
100
AcDbEntity
  8
RUNDUNGEN
100
AcDbCircle
 62
7
  6
CONTINUOUS
 10
120.2554956129
 20
20.2868537694
 40
1.0
100
AcDbArc
 50
270.0
 51
360.0
  0
ARC
  5
8AF
100
AcDbEntity
  8
KONSTRUKTIONSELEMENTE
100
AcDbCircle
 62
7
  6
CONTINUOUS
 10
122.0772271749
 20
33.7963944617
 40
5.9480875933
100
AcDbArc
 50
251.8019131056
 51
253.9376812664
  0
ARC
  5
8B0
100
AcDbEntity
  8
KONSTRUKTIONSELEMENTE
100
AcDbCircle
 62
7
  6
CONTINUOUS
 10
118.6006975741
 20
33.5630641285
 40
5.7336652113
100
AcDbArc
 50
250.8955865236
 51
254.0854944314
  0
ARC
  5
8B1
100
AcDbEntity
  8
RUNDUNGEN
100
AcDbCircle
 62
7
  6
CONTINUOUS
 10
119.7427544283
 20
38.4177433851
 40
1.5128141156
100
AcDbArc
 50
341.7640016114
 51
357.2409396931
  0
ARC
  5
8B2
100
AcDbEntity
  8
RUNDUNGEN
100
AcDbCircle
 62
7
  6
CONTINUOUS
 10
119.7554956129
 20
38.4715122078
 40
1.5
100
AcDbArc
 50
332.7339555493
 51
360.0
  0
ARC
  5
8B3
100
AcDbEntity
  8
RUNDUNGEN
100
AcDbCircle
 62
7
  6
CONTINUOUS
 10
119.7580444423
 20
38.4141395856
 40
1.4971649093
100
AcDbArc
 50
329.3260167424
 51
341.7118812221
  0
ARC
  5
8B4
100
AcDbEntity
  8
RUNDUNGEN
100
AcDbCircle
 62
7
  6
CONTINUOUS
 10
119.7656918195
 20
38.4158213867
 40
1.4898110196
100
AcDbArc
 50
357.2723084709
 51
357.8522626411
  0
ARC
  5
8B5
100
AcDbEntity
  8
RUNDUNGEN
100
AcDbCircle
 62
7
  6
CONTINUOUS
 10
119.7748760577
 20
38.4155198094
 40
1.4806219318
100
AcDbArc
 50
357.8506054041
 51
359.9979060391
  0
ARC
  5
8B6
100
AcDbEntity
  8
RUNDUNGEN
100
AcDbCircle
 62
7
  6
CONTINUOUS
 10
120.2554956129
 20
44.2868537694
 40
1.0
100
AcDbArc
 50
0.0
 51
90.0
  0
ARC
  5
8B7
100
AcDbEntity
  8
KONSTRUKTIONSELEMENTE
100
AcDbCircle
 62
7
  6
CONTINUOUS
 10
116.2785398332
 20
75.5545766732
 40
47.3743513888
100
AcDbArc
 50
269.8439304894
 51
270.1560695107
  0
ARC
  5
8B8
100
AcDbEntity
  8
KONSTRUKTIONSELEMENTE
100
AcDbCircle
 62
7
  6
CONTINUOUS
 10
119.7362783207
 20
73.2109760016
 40
45.0307506982
100
AcDbArc
 50
269.9199683152
 51
270.0800335167
  0
ARC
  5
8B9
100
AcDbEntity
  8
KONSTRUKTIONSELEMENTE
100
AcDbCircle
 62
7
  6
CONTINUOUS
 10
116.7956480202
 20
63.5253142342
 40
35.4620013494
100
AcDbArc
 50
273.9090745653
 51
274.6546533488
  0
ARC
  5
8BA
100
AcDbEntity
  8
KONSTRUKTIONSELEMENTE
100
AcDbCircle
 62
7
  6
CONTINUOUS
 10
114.7827874884
 20
59.7067491605
 40
31.6718601973
100
AcDbArc
 50
264.5089655208
 51
265.2286667639
  0
ARC
  5
8BB
100
AcDbEntity
  8
KONSTRUKTIONSELEMENTE
100
AcDbCircle
 62
7
  6
CONTINUOUS
 10
122.4311479158
 20
57.715741221
 40
29.65251024
100
AcDbArc
 50
264.9077025315
 51
265.7228255912
  0
ARC
  5
8BC
100
AcDbEntity
  8
KONSTRUKTIONSELEMENTE
100
AcDbCircle
 62
7
  6
CONTINUOUS
 10
119.360604859
 20
53.2854568279
 40
25.2781359828
100
AcDbArc
 50
263.2913226301
 51
264.0132236222
  0
ARC
  5
8BD
100
AcDbEntity
  8
RUNDUNGEN
100
AcDbCircle
 62
7
  6
CONTINUOUS
 10
119.755549262
 20
46.9582548705
 40
1.4999853684
100
AcDbArc
 50
359.9999866314
 51
71.180116958
  0
ARC
  5
8BE
100
AcDbEntity
  8
KONSTRUKTIONSELEMENTE
100
AcDbCircle
 62
7
  6
CONTINUOUS
 10
129.1965653257
 20
40.6588939574
 40
12.6438533358
100
AcDbArc
 50
260.6910221976
 51
261.6912511741
  0
ARC
  5
8BF
100
AcDbEntity
  8
0
100
AcDbCircle
 62
7
  6
CONTINUOUS
 10
131.7554956129
 20
32.2868537694
 40
12.0
100
AcDbArc
 50
152.7339555493
 51
157.9707809999
  0
ARC
  5
8C0
100
AcDbEntity
  8
0
100
AcDbCircle
 62
7
  6
CONTINUOUS
 10
131.7554956129
 20
32.2868537694
 40
12.0
100
AcDbArc
 50
202.0292190001
 51
207.2660444507
  0
ARC
  5
8C1
100
AcDbEntity
  8
RUNDUNGEN
100
AcDbCircle
 62
7
  6
CONTINUOUS
 10
131.7554956129
 20
32.2868537694
 40
12.0
100
AcDbArc
 50
202.0252968834
 51
207.2660444507
  0
ARC
  5
8C2
100
AcDbEntity
  8
RUNDUNGEN
100
AcDbCircle
 62
7
  6
CONTINUOUS
 10
131.7554956129
 20
32.2868537694
 40
12.0
100
AcDbArc
 50
152.7339555493
 51
157.9747041083
  0
ARC
  5
8C3
100
AcDbEntity
  8
KONSTRUKTIONSELEMENTE
100
AcDbCircle
 62
7
  6
CONTINUOUS
 10
136.7554956129
 20
32.2868537694
 40
4.5
100
AcDbArc
 50
333.6122000388
 51
26.3877999612
  0
ARC
  5
8C4
100
AcDbEntity
  8
KONSTRUKTIONSELEMENTE
100
AcDbCircle
 62
7
  6
CONTINUOUS
 10
126.8566433029
 20
59.9909816964
 40
31.8107912008
100
AcDbArc
 50
268.2274027092
 51
270.5307537501
  0
ARC
  5
8C5
100
AcDbEntity
  8
KONSTRUKTIONSELEMENTE
100
AcDbCircle
 62
7
  6
CONTINUOUS
 10
122.1403880129
 20
161.4203104891
 40
133.5980406463
100
AcDbArc
 50
269.745214851
 51
269.8999832405
  0
ARC
  5
8C6
100
AcDbEntity
  8
KONSTRUKTIONSELEMENTE
100
AcDbCircle
 62
7
  6
CONTINUOUS
 10
122.1610834489
 20
159.6167470418
 40
131.7944677893
100
AcDbArc
 50
270.1293906706
 51
270.3079152715
  0
ARC
  5
8C7
100
AcDbEntity
  8
KONSTRUKTIONSELEMENTE
100
AcDbCircle
 62
7
  6
CONTINUOUS
 10
122.3985448245
 20
90.207320031
 40
62.2450271951
100
AcDbArc
 50
269.7786099622
 51
270.0553847454
  0
SPLINE
  5
8C8
100
AcDbEntity
  8
KONSTRUKTIONSELEMENTE
100
AcDbSpline
 62
7
  6
CONTINUOUS
 70
0
 71
3
 72
36
 73
32
 74
0
 42
0.0000001
 43
0.0000001
 44
0.0000000001
 40
0.0
 40
0.0
 40
0.0
 40
0.0
 40
0.0621919403
 40
0.12443698
 40
0.1867480229
 40
0.2491429826
 40
0.2803845154
 40
0.3116593393
 40
0.342974403
 40
0.3743391956
 40
0.4057676349
 40
0.4372810372
 40
0.4689133407
 40
0.484806172
 40
0.500760002
 40
0.5167784169
 40
0.5328328271
 40
0.540876572
 40
0.548902507
 40
0.5648325217
 40
0.5806490975
 40
0.5963639241
 40
0.6275763674
 40
0.6586954263
 40
0.689767973
 40
0.7208162095
 40
0.7518510689
 40
0.8138960714
 40
0.8759325482
 40
0.9379664449
 40
1.0
 40
1.0
 40
1.0
 40
1.0
 10
89.4304984822
 20
147.2627878999
 30
0.0
 10
89.5447679222
 20
146.8282356854
 30
0.0
 10
89.7918045632
 20
145.9634636282
 30
0.0
 10
90.220780083
 20
144.6837422657
 30
0.0
 10
90.7130982381
 20
143.4253473509
 30
0.0
 10
91.1818823424
 20
142.3999557114
 30
0.0
 10
91.5975950884
 20
141.5987577287
 30
0.0
 10
91.9321207938
 20
141.0089230959
 30
0.0
 10
92.2919434243
 20
140.4330507765
 30
0.0
 10
92.6808611278
 20
139.8749526151
 30
0.0
 10
93.1043097708
 20
139.3404315862
 30
0.0
 10
93.570239649
 20
138.8395915255
 30
0.0
 10
94.0042278992
 20
138.4651981696
 30
0.0
 10
94.3878219595
 20
138.2125248587
 30
0.0
 10
94.6974799528
 20
138.0562786554
 30
0.0
 10
95.0296657952
 20
137.9497266618
 30
0.0
 10
95.3217431579
 20
137.9232983039
 30
0.0
 10
95.5529572488
 20
137.9511988595
 30
0.0
 10
95.7764570981
 20
138.0134548703
 30
0.0
 10
96.0329455951
 20
138.1519227077
 30
0.0
 10
96.2864602385
 20
138.3865982737
 30
0.0
 10
96.5593304303
 20
138.7506686159
 30
0.0
 10
96.8085483181
 20
139.2609298637
 30
0.0
 10
97.018943451
 20
139.9030094919
 30
0.0
 10
97.1727503303
 20
140.5595136778
 30
0.0
 10
97.2874689758
 20
141.222944701
 30
0.0
 10
97.4024548665
 20
142.1125469899
 30
0.0
 10
97.4931574757
 20
143.230103905
 30
0.0
 10
97.5499432125
 20
144.5737239623
 30
0.0
 10
97.5717584341
 20
145.9182236906
 30
0.0
 10
97.5701610436
 20
146.8146221634
 30
0.0
 10
97.5664752497
 20
147.2627878999
 30
0.0
  0
SPLINE
  5
8C9
100
AcDbEntity
  8
KONSTRUKTIONSELEMENTE
100
AcDbSpline
 62
7
  6
CONTINUOUS
 70
0
 71
3
 72
37
 73
33
 74
0
 42
0.0000001
 43
0.0000001
 44
0.0000000001
 40
0.0
 40
0.0
 40
0.0
 40
0.0
 40
0.0620312252
 40
0.1240627961
 40
0.1860969547
 40
0.2481396457
 40
0.2791733494
 40
0.3102204352
 40
0.3412918559
 40
0.3724098881
 40
0.4036211132
 40
0.4193358923
 40
0.4351517575
 40
0.443115191
 40
0.4511191283
 40
0.459145377
 40
0.467187837
 40
0.4832417527
 40
0.4992595882
 40
0.5152124849
 40
0.5311045061
 40
0.5627356698
 40
0.5942478542
 40
0.6256750761
 40
0.657038661
 40
0.68835252
 40
0.7196261514
 40
0.750866501
 40
0.813259082
 40
0.8755677578
 40
0.937810423
 40
1.0
 40
1.0
 40
1.0
 40
1.0
 10
97.5664752497
 20
169.2627878999
 30
0.0
 10
97.5701610483
 20
169.7109542082
 30
0.0
 10
97.5717583819
 20
170.6073538533
 30
0.0
 10
97.5499431009
 20
171.9518554132
 30
0.0
 10
97.4931575732
 20
173.2954774271
 30
0.0
 10
97.4024547904
 20
174.4130361231
 30
0.0
 10
97.2874665029
 20
175.3026395455
 30
0.0
 10
97.1727492539
 20
175.9660721664
 30
0.0
 10
97.0189308215
 20
176.6225766224
 30
0.0
 10
96.8085740539
 20
177.2646647379
 30
0.0
 10
96.5592429804
 20
177.7749134297
 30
0.0
 10
96.2865888103
 20
178.1390173675
 30
0.0
 10
96.0750662615
 20
178.3342283888
 30
0.0
 10
95.8800285181
 20
178.4566607426
 30
0.0
 10
95.7210974201
 20
178.5274111879
 30
0.0
 10
95.5529453671
 20
178.5744210895
 30
0.0
 10
95.3217363202
 20
178.6022586112
 30
0.0
 10
95.0296618628
 20
178.5758659104
 30
0.0
 10
94.6974820208
 20
178.4692890288
 30
0.0
 10
94.3878271712
 20
178.3130488757
 30
0.0
 10
94.0042276621
 20
178.0603877732
 30
0.0
 10
93.570247076
 20
177.6859859018
 30
0.0
 10
93.1043141634
 20
177.1851484864
 30
0.0
 10
92.6808652953
 20
176.6506271701
 30
0.0
 10
92.2919469142
 20
176.0925293551
 30
0.0
 10
91.9321232394
 20
175.5166572921
 30
0.0
 10
91.5975969553
 20
174.9268224482
 30
0.0
 10
91.1818845168
 20
174.1256235241
 30
0.0
 10
90.7130990948
 20
173.1002314963
 30
0.0
 10
90.2207808507
 20
171.8418355064
 30
0.0
 10
89.7918048507
 20
170.5621131947
 30
0.0
 10
89.5447680175
 20
169.6973404771
 30
0.0
 10
89.4304984822
 20
169.2627878999
 30
0.0
  0
SPLINE
  5
8CA
100
AcDbEntity
  8
KONSTRUKTIONSELEMENTE
100
AcDbSpline
 62
7
  6
CONTINUOUS
 70
0
 71
3
 72
35
 73
31
 74
0
 42
0.0000001
 43
0.0000001
 44
0.0000000001
 40
0.0
 40
0.0
 40
0.0
 40
0.0
 40
0.0621947149
 40
0.1244425437
 40
0.1867563673
 40
0.2491541233
 40
0.2803970475
 40
0.3116732777
 40
0.3429897632
 40
0.3743559842
 40
0.405785871
 40
0.4373007339
 40
0.4689343655
 40
0.4848282619
 40
0.5007832455
 40
0.516802126
 40
0.5328572063
 40
0.5488835437
 40
0.5648154359
 40
0.5806319376
 40
0.5963464979
 40
0.6275602953
 40
0.65868051
 40
0.6897543604
 40
0.7208039411
 40
0.7518401561
 40
0.8138878762
 40
0.8759270802
 40
0.9379637095
 40
1.0
 40
1.0
 40
1.0
 40
1.0
 10
140.0804927437
 20
169.2627878999
 30
0.0
 10
139.9662233242
 20
169.6973400365
 30
0.0
 10
139.719186691
 20
170.5621120148
 30
0.0
 10
139.290211333
 20
171.8418332908
 30
0.0
 10
138.797892685
 20
173.1002279191
 30
0.0
 10
138.32910964
 20
174.1256199373
 30
0.0
 10
137.913395824
 20
174.9268173575
 30
0.0
 10
137.5788704821
 20
175.5166523189
 30
0.0
 10
137.2190484813
 20
176.092525413
 30
0.0
 10
136.8301308305
 20
176.650624466
 30
0.0
 10
136.4066815832
 20
177.185145631
 30
0.0
 10
135.9407541319
 20
177.6859892189
 30
0.0
 10
135.5067563418
 20
178.060372876
 30
0.0
 10
135.1231610584
 20
178.3130564395
 30
0.0
 10
134.8135245244
 20
178.4693332021
 30
0.0
 10
134.481224036
 20
178.5757419556
 30
0.0
 10
134.1314412639
 20
178.6078950943
 30
0.0
 10
133.7856976372
 20
178.5402045557
 30
0.0
 10
133.4781010469
 20
178.3735889824
 30
0.0
 10
133.2245018248
 20
178.1389513736
 30
0.0
 10
132.9516556314
 20
177.7748891778
 30
0.0
 10
132.7024433684
 20
177.2646324557
 30
0.0
 10
132.4920440128
 20
176.6225580826
 30
0.0
 10
132.3382390679
 20
175.9660557931
 30
0.0
 10
132.2235210845
 20
175.3026260182
 30
0.0
 10
132.1085363089
 20
174.4130245849
 30
0.0
 10
132.0178338705
 20
173.2954687694
 30
0.0
 10
131.961047952
 20
171.9518498603
 30
0.0
 10
131.9392327537
 20
170.6073511519
 30
0.0
 10
131.9408301848
 20
169.7109533241
 30
0.0
 10
131.9445159762
 20
169.2627878999
 30
0.0
  0
SPLINE
  5
8CB
100
AcDbEntity
  8
KONSTRUKTIONSELEMENTE
100
AcDbSpline
 62
7
  6
CONTINUOUS
 70
0
 71
3
 72
37
 73
33
 74
0
 42
0.0000001
 43
0.0000001
 44
0.0000000001
 40
0.0
 40
0.0
 40
0.0
 40
0.0
 40
0.0620312243
 40
0.1240627943
 40
0.1860969521
 40
0.2481396424
 40
0.2791733456
 40
0.3102204311
 40
0.3412918516
 40
0.3724098849
 40
0.4036211102
 40
0.4193358964
 40
0.43515176
 40
0.4431151944
 40
0.4511191291
 40
0.4591453881
 40
0.4671878416
 40
0.4832417677
 40
0.4992596069
 40
0.5152124992
 40
0.5311045171
 40
0.5627356809
 40
0.5942478639
 40
0.6256750844
 40
0.6570386682
 40
0.6883525261
 40
0.7196261566
 40
0.7508665054
 40
0.8132590849
 40
0.8755677594
 40
0.9378104236
 40
1.0
 40
1.0
 40
1.0
 40
1.0
 10
131.9445159762
 20
147.2627878999
 30
0.0
 10
131.9408301776
 20
146.8146215976
 30
0.0
 10
131.9392328445
 20
145.9182219643
 30
0.0
 10
131.9610481249
 20
144.5737204218
 30
0.0
 10
132.0178336461
 20
143.2300984244
 30
0.0
 10
132.1085364273
 20
142.1125397414
 30
0.0
 10
132.2235247172
 20
141.2229363302
 30
0.0
 10
132.3382419628
 20
140.5595037125
 30
0.0
 10
132.4920604033
 20
139.9029992614
 30
0.0
 10
132.7024171069
 20
139.2609110941
 30
0.0
 10
132.9517482639
 20
138.7506624314
 30
0.0
 10
133.2244023071
 20
138.3865582663
 30
0.0
 10
133.4359252064
 20
138.1913476501
 30
0.0
 10
133.6309626233
 20
138.0689147865
 30
0.0
 10
133.78989399
 20
137.9981647783
 30
0.0
 10
133.9580459532
 20
137.9511545778
 30
0.0
 10
134.1892551406
 20
137.9233172491
 30
0.0
 10
134.4813296644
 20
137.9497097191
 30
0.0
 10
134.8135094774
 20
138.056287016
 30
0.0
 10
135.1231642786
 20
138.2125271385
 30
0.0
 10
135.5067638472
 20
138.4651880704
 30
0.0
 10
135.9407442633
 20
138.8395901018
 30
0.0
 10
136.4066771833
 20
139.3404274704
 30
0.0
 10
136.8301260219
 20
139.8749487795
 30
0.0
 10
137.2190443874
 20
140.433046573
 30
0.0
 10
137.5788680547
 20
141.0089186152
 30
0.0
 10
137.913394324
 20
141.5987534454
 30
0.0
 10
138.3291067412
 20
142.3999523551
 30
0.0
 10
138.7978921552
 20
143.4253443586
 30
0.0
 10
139.290210386
 20
144.6837403262
 30
0.0
 10
139.7191863797
 20
145.9634626194
 30
0.0
 10
139.9662232094
 20
146.828235327
 30
0.0
 10
140.0804927437
 20
147.2627878999
 30
0.0
  0
SPLINE
  5
8CC
100
AcDbEntity
  8
KONSTRUKTIONSELEMENTE
100
AcDbSpline
 62
7
  6
CONTINUOUS
 70
0
 71
3
 72
9
 73
5
 74
0
 42
0.0000001
 43
0.0000001
 44
0.0000000001
 40
0.0
 40
0.0
 40
0.0
 40
0.0
 40
0.5062953466
 40
1.0
 40
1.0
 40
1.0
 40
1.0
 10
186.3908501527
 20
191.9692158369
 30
0.0
 10
186.5220872523
 20
191.741425588
 30
0.0
 10
186.7279948724
 20
191.2578376039
 30
0.0
 10
186.799402628
 20
190.7362781398
 30
0.0
 10
186.7994087712
 20
190.4799249792
 30
0.0
  0
SPLINE
  5
8CD
100
AcDbEntity
  8
KONSTRUKTIONSELEMENTE
100
AcDbSpline
 62
7
  6
CONTINUOUS
 70
0
 71
3
 72
9
 73
5
 74
0
 42
0.0000001
 43
0.0000001
 44
0.0000000001
 40
0.0
 40
0.0
 40
0.0
 40
0.0
 40
0.5025507651
 40
1.0
 40
1.0
 40
1.0
 40
1.0
 10
186.3908501503
 20
194.0697073525
 30
0.0
 10
186.4745652064
 20
193.9078281575
 30
0.0
 10
186.6180346569
 20
193.5731723951
 30
0.0
 10
186.7100962488
 20
193.2208098063
 30
0.0
 10
186.742324362
 20
193.0433174249
 30
0.0
  0
SPLINE
  5
8CE
100
AcDbEntity
  8
KONSTRUKTIONSELEMENTE
100
AcDbSpline
 62
7
  6
CONTINUOUS
 70
0
 71
3
 72
14
 73
10
 74
0
 42
0.0000001
 43
0.0000001
 44
0.0000000001
 40
0.0
 40
0.0
 40
0.0
 40
0.0
 40
0.1718395365
 40
0.3773785471
 40
0.4974219782
 40
0.6338686688
 40
0.7953713403
 40
0.8911939958
 40
1.0
 40
1.0
 40
1.0
 40
1.0
 10
140.0804927437
 20
30.2868537694
 30
0.0
 10
139.8185164843
 20
30.0199060236
 30
0.0
 10
139.1856488094
 20
29.4893245758
 30
0.0
 10
138.255806546
 20
28.927290271
 30
0.0
 10
137.3447703324
 20
28.4996159733
 30
0.0
 10
136.4922988278
 20
28.1789652635
 30
0.0
 10
135.6634753824
 20
27.9529460837
 30
0.0
 10
134.8772845798
 20
27.8191388231
 30
0.0
 10
134.4316597754
 20
27.7867841645
 30
0.0
 10
134.1948349621
 20
27.7868702704
 30
0.0
  0
SPLINE
  5
8CF
100
AcDbEntity
  8
KONSTRUKTIONSELEMENTE
100
AcDbSpline
 62
7
  6
CONTINUOUS
 70
0
 71
3
 72
14
 73
10
 74
0
 42
0.0000001
 43
0.0000001
 44
0.0000000001
 40
0.0
 40
0.0
 40
0.0
 40
0.0
 40
0.1088073918
 40
0.204630343
 40
0.3661346119
 40
0.5025814767
 40
0.6226245404
 40
0.8281622618
 40
1.0
 40
1.0
 40
1.0
 40
1.0
 10
95.316352909
 20
27.7868751823
 30
0.0
 10
95.0795179671
 20
27.7867990372
 30
0.0
 10
94.6338738716
 20
27.8191027915
 30
0.0
 10
93.847651403
 20
27.9529233815
 30
0.0
 10
93.018794372
 20
28.178928567
 30
0.0
 10
92.1662920552
 20
28.4995859596
 30
0.0
 10
91.2552288852
 20
28.9272657467
 30
0.0
 10
90.3253622442
 20
29.4893086478
 30
0.0
 10
89.6924798593
 20
30.0199008087
 30
0.0
 10
89.4304984822
 20
30.2868537694
 30
0.0
  0
SPLINE
  5
8D0
100
AcDbEntity
  8
KONSTRUKTIONSELEMENTE
100
AcDbSpline
 62
7
  6
CONTINUOUS
 70
0
 71
3
 72
14
 73
10
 74
0
 42
0.0000001
 43
0.0000001
 44
0.0000000001
 40
0.0
 40
0.0
 40
0.0
 40
0.0
 40
0.108807409
 40
0.2046303367
 40
0.3661345761
 40
0.502581434
 40
0.6226245
 40
0.8281622372
 40
1.0
 40
1.0
 40
1.0
 40
1.0
 10
134.1946409425
 20
36.7868323419
 30
0.0
 10
134.4314758267
 20
36.786908463
 30
0.0
 10
134.8771197128
 20
36.7546044037
 30
0.0
 10
135.66334175
 20
36.6207837179
 30
0.0
 10
136.4921982788
 20
36.3947784889
 30
0.0
 10
137.3447001459
 20
36.074121159
 30
0.0
 10
138.2557629377
 20
35.6464414585
 30
0.0
 10
139.1856292481
 20
35.0843986775
 30
0.0
 10
139.8185114342
 20
34.553806661
 30
0.0
 10
140.0804927437
 20
34.2868537694
 30
0.0
  0
SPLINE
  5
8D1
100
AcDbEntity
  8
KONSTRUKTIONSELEMENTE
100
AcDbSpline
 62
7
  6
CONTINUOUS
 70
0
 71
3
 72
14
 73
10
 74
0
 42
0.0000001
 43
0.0000001
 44
0.0000000001
 40
0.0
 40
0.0
 40
0.0
 40
0.0
 40
0.171838283
 40
0.3773763704
 40
0.4974195329
 40
0.6338663216
 40
0.7953700544
 40
0.8911930861
 40
1.0
 40
1.0
 40
1.0
 40
1.0
 10
89.4304984822
 20
34.2868537694
 30
0.0
 10
89.6924782496
 20
34.5538050898
 30
0.0
 10
90.3253560077
 20
35.0843938318
 30
0.0
 10
91.2552148953
 20
35.646434078
 30
0.0
 10
92.1662695564
 20
36.0741121447
 30
0.0
 10
93.0187621363
 20
36.3947672411
 30
0.0
 10
93.8476089194
 20
36.6207777226
 30
0.0
 10
94.6338217814
 20
36.7545923072
 30
0.0
 10
95.0794601369
 20
36.7869160412
 30
0.0
 10
95.3162918305
 20
36.7868340339
 30
0.0
  0
SPLINE
  5
8D2
100
AcDbEntity
  8
KONSTRUKTIONSELEMENTE
100
AcDbSpline
 62
7
  6
CONTINUOUS
 70
0
 71
3
 72
9
 73
5
 74
0
 42
0.0000001
 43
0.0000001
 44
0.0000000001
 40
0.0
 40
0.0
 40
0.0
 40
0.0
 40
0.2647357597
 40
1.0
 40
1.0
 40
1.0
 40
1.0
 10
110.9393445006
 20
27.9680267915
 30
0.0
 10
110.9328471895
 20
27.9600940293
 30
0.0
 10
110.907791135
 20
27.930560939
 30
0.0
 10
110.8805647666
 20
27.9028120541
 30
0.0
 10
110.8591696126
 20
27.8840159677
 30
0.0
  0
SPLINE
  5
8D3
100
AcDbEntity
  8
KONSTRUKTIONSELEMENTE
100
AcDbSpline
 62
7
  6
CONTINUOUS
 70
0
 71
3
 72
9
 73
5
 74
0
 42
0.0000001
 43
0.0000001
 44
0.0000000001
 40
0.0
 40
0.0
 40
0.0
 40
0.0
 40
0.2713652718
 40
1.0
 40
1.0
 40
1.0
 40
1.0
 10
110.8591696126
 20
27.8840159677
 30
0.0
 10
110.856899703
 20
27.8797222689
 30
0.0
 10
110.8483099966
 20
27.8640234861
 30
0.0
 10
110.8387693728
 20
27.8488164984
 30
0.0
 10
110.8310593263
 20
27.8382990043
 30
0.0
  0
SPLINE
  5
8D4
100
AcDbEntity
  8
KONSTRUKTIONSELEMENTE
100
AcDbSpline
 62
7
  6
CONTINUOUS
 70
0
 71
3
 72
9
 73
5
 74
0
 42
0.0000001
 43
0.0000001
 44
0.0000000001
 40
0.0
 40
0.0
 40
0.0
 40
0.0
 40
0.3337078336
 40
1.0
 40
1.0
 40
1.0
 40
1.0
 10
110.8310593263
 20
27.8382990043
 30
0.0
 10
110.8307416098
 20
27.8333833129
 30
0.0
 10
110.8296723147
 20
27.8186683452
 30
0.0
 10
110.8285752273
 20
27.8039093659
 30
0.0
 10
110.8269054536
 20
27.7942168317
 30
0.0
  0
SPLINE
  5
8D5
100
AcDbEntity
  8
KONSTRUKTIONSELEMENTE
100
AcDbSpline
 62
7
  6
CONTINUOUS
 70
0
 71
3
 72
9
 73
5
 74
0
 42
0.0000001
 43
0.0000001
 44
0.0000000001
 40
0.0
 40
0.0
 40
0.0
 40
0.0
 40
0.2363275825
 40
1.0
 40
1.0
 40
1.0
 40
1.0
 10
117.2440822914
 20
27.8840159756
 30
0.0
 10
117.2401262968
 20
27.8885591276
 30
0.0
 10
117.2237340241
 20
27.9080850072
 30
0.0
 10
117.2086723022
 20
27.9287081267
 30
0.0
 10
117.1977817252
 20
27.9448431285
 30
0.0
  0
SPLINE
  5
8D6
100
AcDbEntity
  8
KONSTRUKTIONSELEMENTE
100
AcDbSpline
 62
7
  6
CONTINUOUS
 70
0
 71
3
 72
9
 73
5
 74
0
 42
0.0000001
 43
0.0000001
 44
0.0000000001
 40
0.0
 40
0.0
 40
0.0
 40
0.0
 40
0.2447338606
 40
1.0
 40
1.0
 40
1.0
 40
1.0
 10
117.1977817252
 20
27.9448431285
 30
0.0
 10
117.1834577363
 20
27.9524663444
 30
0.0
 10
117.1254347267
 20
27.9845600139
 30
0.0
 10
117.0694793054
 20
28.0203645039
 30
0.0
 10
117.0285111273
 20
28.0491592933
 30
0.0
  0
SPLINE
  5
8D7
100
AcDbEntity
  8
KONSTRUKTIONSELEMENTE
100
AcDbSpline
 62
7
  6
CONTINUOUS
 70
0
 71
3
 72
9
 73
5
 74
0
 42
0.0000001
 43
0.0000001
 44
0.0000000001
 40
0.0
 40
0.0
 40
0.0
 40
0.0
 40
0.2593511352
 40
1.0
 40
1.0
 40
1.0
 40
1.0
 10
115.262112738
 20
27.9448431285
 30
0.0
 10
115.2491339023
 20
27.9355574401
 30
0.0
 10
115.198311651
 20
27.9008682305
 30
0.0
 10
115.144238039
 20
27.8708398468
 30
0.0
 10
115.102698238
 20
27.852093385
 30
0.0
  0
SPLINE
  5
8D8
100
AcDbEntity
  8
KONSTRUKTIONSELEMENTE
100
AcDbSpline
 62
7
  6
CONTINUOUS
 70
0
 71
3
 72
9
 73
5
 74
0
 42
0.0000001
 43
0.0000001
 44
0.0000000001
 40
0.0
 40
0.0
 40
0.0
 40
0.0
 40
0.2815248629
 40
1.0
 40
1.0
 40
1.0
 40
1.0
 10
115.102698238
 20
27.852093385
 30
0.0
 10
115.0942330359
 20
27.8440421597
 30
0.0
 10
115.0629807537
 20
27.8169066705
 30
0.0
 10
115.0248259735
 20
27.7963277211
 30
0.0
 10
114.9956569198
 20
27.7901559327
 30
0.0
  0
SPLINE
  5
8D9
100
AcDbEntity
  8
KONSTRUKTIONSELEMENTE
100
AcDbSpline
 62
7
  6
CONTINUOUS
 70
0
 71
3
 72
8
 73
4
 74
0
 42
0.0000001
 43
0.0000001
 44
0.0000000001
 40
0.0
 40
0.0
 40
0.0
 40
0.0
 40
1.0
 40
1.0
 40
1.0
 40
1.0
 10
114.9956569198
 20
27.7901559327
 30
0.0
 10
114.9919077887
 20
27.7881459255
 30
0.0
 10
114.9875835521
 20
27.7868534294
 30
0.0
 10
114.9833295996
 20
27.7868540863
 30
0.0
  0
SPLINE
  5
8DA
100
AcDbEntity
  8
KONSTRUKTIONSELEMENTE
100
AcDbSpline
 62
7
  6
CONTINUOUS
 70
0
 71
3
 72
9
 73
5
 74
0
 42
0.0000001
 43
0.0000001
 44
0.0000000001
 40
0.0
 40
0.0
 40
0.0
 40
0.0
 40
0.2446960954
 40
1.0
 40
1.0
 40
1.0
 40
1.0
 10
106.4991418272
 20
27.7997474497
 30
0.0
 10
106.4952232402
 20
27.8009847049
 30
0.0
 10
106.4793149333
 20
27.8063729442
 30
0.0
 10
106.4638546327
 20
27.8130616563
 30
0.0
 10
106.4525010495
 20
27.8187169685
 30
0.0
  0
SPLINE
  5
8DB
100
AcDbEntity
  8
KONSTRUKTIONSELEMENTE
100
AcDbSpline
 62
7
  6
CONTINUOUS
 70
0
 71
3
 72
9
 73
5
 74
0
 42
0.0000001
 43
0.0000001
 44
0.0000000001
 40
0.0
 40
0.0
 40
0.0
 40
0.0
 40
0.2463007133
 40
1.0
 40
1.0
 40
1.0
 40
1.0
 10
106.4370090546
 20
27.8269072118
 30
0.0
 10
106.4236117491
 20
27.8307509549
 30
0.0
 10
106.3695223783
 20
27.8474067241
 30
0.0
 10
106.3167245349
 20
27.8682042202
 30
0.0
 10
106.2779137807
 20
27.8858906748
 30
0.0
  0
SPLINE
  5
8DC
100
AcDbEntity
  8
KONSTRUKTIONSELEMENTE
100
AcDbSpline
 62
7
  6
CONTINUOUS
 70
0
 71
3
 72
9
 73
5
 74
0
 42
0.0000001
 43
0.0000001
 44
0.0000000001
 40
0.0
 40
0.0
 40
0.0
 40
0.0
 40
0.2419112654
 40
1.0
 40
1.0
 40
1.0
 40
1.0
 10
103.6524801212
 20
27.7868537703
 30
0.0
 10
103.6481639076
 20
27.7868538839
 30
0.0
 10
103.6303203542
 20
27.7879537209
 30
0.0
 10
103.6129149484
 20
27.7936891638
 30
0.0
 10
103.6008216553
 20
27.7997474501
 30
0.0
  0
SPLINE
  5
8DD
100
AcDbEntity
  8
KONSTRUKTIONSELEMENTE
100
AcDbSpline
 62
7
  6
CONTINUOUS
 70
0
 71
3
 72
9
 73
5
 74
0
 42
0.0000001
 43
0.0000001
 44
0.0000000001
 40
0.0
 40
0.0
 40
0.0
 40
0.0
 40
0.2444367121
 40
1.0
 40
1.0
 40
1.0
 40
1.0
 10
120.6036413591
 20
27.9698005643
 30
0.0
 10
120.5890797631
 20
27.9779408146
 30
0.0
 10
120.5300335318
 20
28.0121777976
 30
0.0
 10
120.4731395378
 20
28.0501031936
 30
0.0
 10
120.4314940894
 20
28.0805123224
 30
0.0
  0
SPLINE
  5
8DE
100
AcDbEntity
  8
KONSTRUKTIONSELEMENTE
100
AcDbSpline
 62
7
  6
CONTINUOUS
 70
0
 71
3
 72
9
 73
5
 74
0
 42
0.0000001
 43
0.0000001
 44
0.0000000001
 40
0.0
 40
0.0
 40
0.0
 40
0.0
 40
0.2564865349
 40
1.0
 40
1.0
 40
1.0
 40
1.0
 10
118.5908216564
 20
27.9698005426
 30
0.0
 10
118.5791788443
 20
27.9616972526
 30
0.0
 10
118.5332659683
 20
27.9308613233
 30
0.0
 10
118.4852271334
 20
27.903154643
 30
0.0
 10
118.4484648128
 20
27.8847311516
 30
0.0
  0
SPLINE
  5
8DF
100
AcDbEntity
  8
KONSTRUKTIONSELEMENTE
100
AcDbSpline
 62
7
  6
CONTINUOUS
 70
0
 71
3
 72
9
 73
5
 74
0
 42
0.0000001
 43
0.0000001
 44
0.0000000001
 40
0.0
 40
0.0
 40
0.0
 40
0.0
 40
0.7410935615
 40
1.0
 40
1.0
 40
1.0
 40
1.0
 10
113.1687465974
 20
27.7868537625
 30
0.0
 10
113.159570046
 20
27.7868539853
 30
0.0
 10
113.1470985904
 20
27.7888376903
 30
0.0
 10
113.1354380916
 20
27.7930101931
 30
0.0
 10
113.1324679422
 20
27.7942168317
 30
0.0
  0
SPLINE
  5
8E0
100
AcDbEntity
  8
KONSTRUKTIONSELEMENTE
100
AcDbSpline
 62
7
  6
CONTINUOUS
 70
0
 71
3
 72
9
 73
5
 74
0
 42
0.0000001
 43
0.0000001
 44
0.0000000001
 40
0.0
 40
0.0
 40
0.0
 40
0.0
 40
0.2654757463
 40
1.0
 40
1.0
 40
1.0
 40
1.0
 10
122.158031566
 20
27.9627575064
 30
0.0
 10
122.1379454808
 20
27.9470514145
 30
0.0
 10
122.0603320561
 20
27.8905229779
 30
0.0
 10
121.9738973462
 20
27.84539254
 30
0.0
 10
121.9071764843
 20
27.8224733925
 30
0.0
  0
LINE
  5
8E1
100
AcDbEntity
  8
KONSTRUKTIONSELEMENTE
100
AcDbLine
 62
7
  6
CONTINUOUS
 10
121.5463008952
 20
27.8235907501
 11
121.4260847437
 21
27.8241824476
  0
SPLINE
  5
8E2
100
AcDbEntity
  8
KONSTRUKTIONSELEMENTE
100
AcDbSpline
 62
7
  6
CONTINUOUS
 70
0
 71
3
 72
9
 73
5
 74
0
 42
0.0000001
 43
0.0000001
 44
0.0000000001
 40
0.0
 40
0.0
 40
0.0
 40
0.0
 40
0.2542741732
 40
1.0
 40
1.0
 40
1.0
 40
1.0
 10
121.4260847437
 20
27.8241824476
 30
0.0
 10
121.4157440699
 20
27.8205474972
 30
0.0
 10
121.374754395
 20
27.8071924298
 30
0.0
 10
121.3324758691
 20
27.7977402758
 30
0.0
 10
121.3006572468
 20
27.7931651525
 30
0.0
  0
SPLINE
  5
8E3
100
AcDbEntity
  8
KONSTRUKTIONSELEMENTE
100
AcDbSpline
 62
7
  6
CONTINUOUS
 70
0
 71
3
 72
9
 73
5
 74
0
 42
0.0000001
 43
0.0000001
 44
0.0000000001
 40
0.0
 40
0.0
 40
0.0
 40
0.0
 40
0.2422494026
 40
1.0
 40
1.0
 40
1.0
 40
1.0
 10
113.1324679422
 20
27.7942168317
 30
0.0
 10
113.1220210794
 20
27.7962493468
 30
0.0
 10
113.0792264113
 20
27.8063125809
 30
0.0
 10
113.0380883832
 20
27.8229735672
 30
0.0
 10
113.0085354987
 20
27.8382990043
 30
0.0
  0
SPLINE
  5
8E4
100
AcDbEntity
  8
KONSTRUKTIONSELEMENTE
100
AcDbSpline
 62
7
  6
CONTINUOUS
 70
0
 71
3
 72
9
 73
5
 74
0
 42
0.0000001
 43
0.0000001
 44
0.0000000001
 40
0.0
 40
0.0
 40
0.0
 40
0.0
 40
0.2396754618
 40
1.0
 40
1.0
 40
1.0
 40
1.0
 10
127.4377457643
 20
28.0515211751
 30
0.0
 10
127.431939805
 20
28.0589518502
 30
0.0
 10
127.4080901179
 20
28.0902468844
 30
0.0
 10
127.3857125829
 20
28.1226545928
 30
0.0
 10
127.3694362721
 20
28.1477538575
 30
0.0
  0
SPLINE
  5
8E5
100
AcDbEntity
  8
KONSTRUKTIONSELEMENTE
100
AcDbSpline
 62
7
  6
CONTINUOUS
 70
0
 71
3
 72
10
 73
6
 74
0
 42
0.0000001
 43
0.0000001
 44
0.0000000001
 40
0.0
 40
0.0
 40
0.0
 40
0.0
 40
0.5198437728
 40
0.7627166418
 40
1.0
 40
1.0
 40
1.0
 40
1.0
 10
125.8726488785
 20
28.1954129517
 30
0.0
 10
125.7162336086
 20
28.0693201101
 30
0.0
 10
125.4589779914
 20
27.9124139362
 30
0.0
 10
125.0860599959
 20
27.804679665
 30
0.0
 10
124.8999919796
 20
27.7868574201
 30
0.0
 10
124.8082859961
 20
27.7868543451
 30
0.0
  0
SPLINE
  5
8E6
100
AcDbEntity
  8
KONSTRUKTIONSELEMENTE
100
AcDbSpline
 62
7
  6
CONTINUOUS
 70
0
 71
3
 72
9
 73
5
 74
0
 42
0.0000001
 43
0.0000001
 44
0.0000000001
 40
0.0
 40
0.0
 40
0.0
 40
0.0
 40
0.2457893424
 40
1.0
 40
1.0
 40
1.0
 40
1.0
 10
113.0085354987
 20
27.8382990043
 30
0.0
 10
113.0001229558
 20
27.8415256077
 30
0.0
 10
112.9661083036
 20
27.8552016754
 30
0.0
 10
112.9329680936
 20
27.8710335549
 30
0.0
 10
112.9085580028
 20
27.8840159677
 30
0.0
  0
SPLINE
  5
8E7
100
AcDbEntity
  8
KONSTRUKTIONSELEMENTE
100
AcDbSpline
 62
7
  6
CONTINUOUS
 70
0
 71
3
 72
9
 73
5
 74
0
 42
0.0000001
 43
0.0000001
 44
0.0000000001
 40
0.0
 40
0.0
 40
0.0
 40
0.0
 40
0.2460194699
 40
1.0
 40
1.0
 40
1.0
 40
1.0
 10
112.9085580028
 20
27.8840159677
 30
0.0
 10
112.8937043162
 20
27.8899604978
 30
0.0
 10
112.8337292323
 20
27.9151172344
 30
0.0
 10
112.7754109221
 20
27.9441937437
 30
0.0
 10
112.7325602582
 20
27.9680267915
 30
0.0
  0
ELLIPSE
  5
8E8
100
AcDbEntity
  8
0
100
AcDbEllipse
 62
7
  6
CONTINUOUS
 10
114.7554956129
 20
96.992575076
 30
0.0
 11
17.25
 21
-0.0
 31
0.0
 40
0.1702127606
 41
-2.5053183993
 42
-2.4687796686
  0
ELLIPSE
  5
8E9
100
AcDbEntity
  8
0
100
AcDbEllipse
 62
7
  6
CONTINUOUS
 10
114.7554956129
 20
98.7372558719
 30
0.0
 11
17.25
 21
-0.0
 31
0.0
 40
0.3404255211
 41
-2.5232197357
 42
-2.5053183993
  0
ELLIPSE
  5
8EA
100
AcDbEntity
  8
0
100
AcDbEllipse
 62
7
  6
CONTINUOUS
 10
114.7554956129
 20
102.1415110832
 30
0.0
 11
17.25
 21
-0.0
 31
0.0
 40
0.6808510423
 41
-2.5408959007
 42
-2.5232197357
  0
ELLIPSE
  5
8EB
100
AcDbEntity
  8
0
100
AcDbEllipse
 62
7
  6
CONTINUOUS
 10
114.7554956129
 20
115.4181823771
 30
0.0
 11
0.0
 21
35.2341758452
 31
0.0
 40
0.4895814812
 41
-4.1233579658
 42
-4.1116922274
  0
ELLIPSE
  5
8EC
100
AcDbEntity
  8
0
100
AcDbEllipse
 62
7
  6
CONTINUOUS
 10
114.7554956129
 20
96.8010918077
 30
0.0
 11
17.25
 21
0.0
 31
0.0
 40
0.2553201148
 41
-2.7811835937
 42
-2.7604507859
  0
ELLIPSE
  5
8ED
100
AcDbEntity
  8
0
100
AcDbEllipse
 62
7
  6
CONTINUOUS
 10
114.7554956129
 20
98.3542716963
 30
0.0
 11
17.25
 21
-0.0
 31
0.0
 40
0.5106373301
 41
-2.8017557441
 42
-2.7811835937
  0
ELLIPSE
  5
8EE
100
AcDbEntity
  8
0
100
AcDbEllipse
 62
7
  6
CONTINUOUS
 10
114.7554956129
 20
99.333000884
 30
0.0
 11
17.25
 21
-0.0
 31
0.0
 40
0.6808511019
 41
-2.8170866829
 42
-2.8017557441
  0
ELLIPSE
  5
8EF
100
AcDbEntity
  8
0
100
AcDbEllipse
 62
7
  6
CONTINUOUS
 10
114.7554956129
 20
104.0138828752
 30
0.0
 11
0.0
 21
26.4256295705
 31
0.0
 40
0.6527753654
 41
-4.398059598
 42
-4.3878830097
  0
ELLIPSE
  5
8F0
100
AcDbEntity
  8
0
100
AcDbEllipse
 62
7
  6
CONTINUOUS
 10
114.7554956129
 20
112.1839436222
 30
0.0
 11
0.0
 21
52.850666649
 31
0.0
 40
0.3263913418
 41
-4.4031352793
 42
-4.398059598
  0
ELLIPSE
  5
8F1
100
AcDbEntity
  8
0
100
AcDbEllipse
 62
7
  6
CONTINUOUS
 10
114.7554956129
 20
94.1585305784
 30
0.0
 11
17.25
 21
-0.0
 31
0.0
 40
0.2042556065
 41
2.6971534255
 42
2.7237418543
  0
ELLIPSE
  5
8F2
100
AcDbEntity
  8
0
100
AcDbEllipse
 62
7
  6
CONTINUOUS
 10
114.7554956129
 20
91.8862218242
 30
0.0
 11
17.25
 21
0.0
 31
0.0
 40
0.5106343412
 41
2.6864242662
 42
2.6971534255
  0
ELLIPSE
  5
8F3
100
AcDbEntity
  8
0
100
AcDbEllipse
 62
7
  6
CONTINUOUS
 10
114.7554956129
 20
88.0138197365
 30
0.0
 11
-0.0
 21
17.6170925494
 31
0.0
 40
0.9791627053
 41
1.1048422604
 42
1.1156279394
  0
ELLIPSE
  5
8F4
100
AcDbEntity
  8
0
100
AcDbEllipse
 62
7
  6
CONTINUOUS
 10
114.7554956129
 20
80.0990807984
 30
0.0
 11
0.0
 21
35.2337695406
 31
0.0
 40
0.4895871269
 41
1.0994274396
 42
1.1048422604
  0
ELLIPSE
  5
8F5
100
AcDbEntity
  8
0
100
AcDbEllipse
 62
7
  6
CONTINUOUS
 10
114.7554956129
 20
112.4392665363
 30
0.0
 11
0.0
 21
35.2337818787
 31
0.0
 40
0.4895869555
 41
-4.2518350298
 42
-4.2410200932
  0
ELLIPSE
  5
8F6
100
AcDbEntity
  8
0
100
AcDbEllipse
 62
7
  6
CONTINUOUS
 10
114.7554956129
 20
101.9996663231
 30
0.0
 11
17.25
 21
-0.0
 31
0.0
 40
0.6808509827
 41
-2.6971534255
 42
-2.6810387031
  0
ELLIPSE
  5
8F7
100
AcDbEntity
  8
0
100
AcDbEllipse
 62
7
  6
CONTINUOUS
 10
114.7554956129
 20
98.2124330567
 30
0.0
 11
17.25
 21
-0.0
 31
0.0
 40
0.1702127457
 41
-2.7290214122
 42
-2.6971534255
  0
ELLIPSE
  5
8F8
100
AcDbEntity
  8
0
100
AcDbEllipse
 62
7
  6
CONTINUOUS
 10
114.7554956129
 20
95.0209444001
 30
0.0
 11
17.25
 21
-0.0
 31
0.0
 40
0.3404254913
 41
2.6971534255
 42
2.7290214122
  0
ELLIPSE
  5
8F9
100
AcDbEntity
  8
0
100
AcDbEllipse
 62
7
  6
CONTINUOUS
 10
114.7554956129
 20
89.971357833
 30
0.0
 11
0.0
 21
17.6168847703
 31
0.0
 40
0.9791742538
 41
1.1156279394
 42
1.1263570987
  0
ELLIPSE
  5
8FA
100
AcDbEntity
  8
0
100
AcDbEllipse
 62
7
  6
CONTINUOUS
 10
114.7554956129
 20
82.2265590816
 30
0.0
 11
0.0
 21
35.2341727607
 31
0.0
 40
0.4895815241
 41
1.1048422604
 42
1.1156279394
  0
ELLIPSE
  5
8FB
100
AcDbEntity
  8
0
100
AcDbEllipse
 62
7
  6
CONTINUOUS
 10
114.7554956129
 20
110.0990020986
 30
0.0
 11
0.0
 21
26.4256295705
 31
0.0
 40
0.6527753654
 41
-4.257220593
 42
-4.246434914
  0
ELLIPSE
  5
8FC
100
AcDbEntity
  8
0
100
AcDbEllipse
 62
7
  6
CONTINUOUS
 10
114.7554956129
 20
103.645057302
 30
0.0
 11
17.25
 21
-0.0
 31
0.0
 40
0.6808509827
 41
-2.7024973008
 42
-2.6864242662
  0
ELLIPSE
  5
8FD
100
AcDbEntity
  8
0
100
AcDbEllipse
 62
7
  6
CONTINUOUS
 10
114.7554956129
 20
100.1500173835
 30
0.0
 11
17.25
 21
-0.0
 31
0.0
 40
0.2042546715
 41
-2.7290214122
 42
-2.7024973008
  0
ELLIPSE
  5
8FE
100
AcDbEntity
  8
0
100
AcDbEllipse
 62
7
  6
CONTINUOUS
 10
114.7554956129
 20
76.4390513043
 30
0.0
 11
0.0
 21
70.4691519799
 31
0.0
 40
0.2447879606
 41
1.25138299
 42
1.2564669444
  0
ELLIPSE
  5
8FF
100
AcDbEntity
  8
0
100
AcDbEllipse
 62
7
  6
CONTINUOUS
 10
114.7554956129
 20
93.0351402565
 30
0.0
 11
-0.0
 21
17.6169855747
 31
0.0
 40
0.979168651
 41
1.2309594173
 42
1.25138299
  0
ELLIPSE
  5
900
100
AcDbEntity
  8
0
100
AcDbEllipse
 62
7
  6
CONTINUOUS
 10
114.7554956129
 20
95.971304519
 30
0.0
 11
17.25
 21
-0.0
 31
0.0
 40
0.510637263
 41
2.7811835937
 42
2.8017557441
  0
ELLIPSE
  5
901
100
AcDbEntity
  8
0
100
AcDbEllipse
 62
7
  6
CONTINUOUS
 10
114.7554956129
 20
98.1901416115
 30
0.0
 11
17.25
 21
0.0
 31
0.0
 40
0.1458969572
 41
2.7447878452
 42
2.7811835937
  0
ELLIPSE
  5
902
100
AcDbEntity
  8
0
100
AcDbEllipse
 62
7
  6
CONTINUOUS
 10
114.7554956129
 20
101.0350966972
 30
0.0
 11
0.0
 21
17.6168847703
 31
0.0
 40
0.9791742538
 41
-4.483338297
 42
-4.4734056101
  0
ELLIPSE
  5
903
100
AcDbEntity
  8
0
100
AcDbEllipse
 62
7
  6
CONTINUOUS
 10
114.7554956129
 20
99.7017942566
 30
0.0
 11
17.25
 21
-0.0
 31
0.0
 40
0.6808509827
 41
-2.9273982099
 42
-2.9125419702
  0
ELLIPSE
  5
904
100
AcDbEntity
  8
0
100
AcDbEllipse
 62
7
  6
CONTINUOUS
 10
114.7554956129
 20
98.4535676715
 30
0.0
 11
17.25
 21
-0.0
 31
0.0
 40
0.3404254913
 41
-2.9422065888
 42
-2.9273982099
  0
ELLIPSE
  5
905
100
AcDbEntity
  8
0
100
AcDbEllipse
 62
7
  6
CONTINUOUS
 10
114.7554956129
 20
94.4251996114
 30
0.0
 11
17.25
 21
-0.0
 31
0.0
 40
0.3404254913
 41
2.9273982099
 42
2.9422065888
  0
ELLIPSE
  5
906
100
AcDbEntity
  8
0
100
AcDbEllipse
 62
7
  6
CONTINUOUS
 10
114.7554956129
 20
93.1769730263
 30
0.0
 11
17.25
 21
0.0
 31
0.0
 40
0.6808509827
 41
2.9125419702
 42
2.9273982099
  0
ELLIPSE
  5
907
100
AcDbEntity
  8
0
100
AcDbEllipse
 62
7
  6
CONTINUOUS
 10
114.7554956129
 20
89.8436850067
 30
0.0
 11
-0.0
 21
26.4253333245
 31
0.0
 40
0.6527826835
 41
7.6149982637
 42
7.6249309506
  0
ELLIPSE
  5
908
100
AcDbEntity
  8
0
100
AcDbEllipse
 62
7
  6
CONTINUOUS
 10
114.7554956129
 20
83.5881284658
 30
0.0
 11
0.0
 21
52.8518639849
 31
0.0
 40
0.3263839475
 41
1.3268377635
 42
1.3318129565
  0
ELLIPSE
  5
909
100
AcDbEntity
  8
0
100
AcDbEllipse
 62
7
  6
CONTINUOUS
 10
114.7554956129
 20
109.3757510909
 30
0.0
 11
0.0
 21
52.8518886616
 31
0.0
 40
0.3263837951
 41
-4.4734056101
 42
-4.468430417
  0
ELLIPSE
  5
90A
100
AcDbEntity
  8
0
100
AcDbEllipse
 62
7
  6
CONTINUOUS
 10
114.7554956129
 20
95.7585321723
 30
0.0
 11
17.25
 21
-0.0
 31
0.0
 40
0.2042551568
 41
-2.9961529185
 42
-2.9716943233
  0
ELLIPSE
  5
90B
100
AcDbEntity
  8
0
100
AcDbEllipse
 62
7
  6
CONTINUOUS
 10
114.7554956129
 20
96.7798079566
 30
0.0
 11
17.25
 21
0.0
 31
0.0
 40
0.6127654705
 41
-3.0205241801
 42
-2.9961529185
  0
ELLIPSE
  5
90C
100
AcDbEntity
  8
0
100
AcDbEllipse
 62
7
  6
CONTINUOUS
 10
114.7554956129
 20
98.340092331
 30
0.0
 11
0.0
 21
23.4893609583
 31
0.0
 40
0.7343750233
 41
-4.6059077008
 42
-4.5913205069
  0
ELLIPSE
  5
90D
100
AcDbEntity
  8
0
100
AcDbEllipse
 62
7
  6
CONTINUOUS
 10
114.7554956129
 20
100.5245071481
 30
0.0
 11
0.0
 21
44.0427221199
 31
0.0
 40
0.3916651644
 41
-4.6156196456
 42
-4.6059077008
  0
ELLIPSE
  5
90E
100
AcDbEntity
  8
0
100
AcDbEllipse
 62
7
  6
CONTINUOUS
 10
114.7554956129
 20
108.1839768167
 30
0.0
 11
0.0
 21
123.3182180684
 31
0.0
 40
0.1398820083
 41
-4.6204721843
 42
-4.6156196456
  0
ELLIPSE
  5
90F
100
AcDbEntity
  8
0
100
AcDbEllipse
 62
7
  6
CONTINUOUS
 10
114.7554956129
 20
86.1416012482
 30
0.0
 11
0.0
 21
123.3181933922
 31
0.0
 40
0.1398820363
 41
1.474026992
 42
1.4788795307
  0
ELLIPSE
  5
910
100
AcDbEntity
  8
0
100
AcDbEllipse
 62
7
  6
CONTINUOUS
 10
114.7554956129
 20
93.8010667444
 30
0.0
 11
0.0
 21
44.0427406273
 31
0.0
 40
0.3916649998
 41
1.4643150472
 42
1.474026992
  0
ELLIPSE
  5
911
100
AcDbEntity
  8
0
100
AcDbEllipse
 62
7
  6
CONTINUOUS
 10
114.7554956129
 20
95.985483747
 30
0.0
 11
0.0
 21
23.489358902
 31
0.0
 40
0.7343750875
 41
1.4497278533
 42
1.4643150472
  0
ELLIPSE
  5
912
100
AcDbEntity
  8
0
100
AcDbEllipse
 62
7
  6
CONTINUOUS
 10
114.7554956129
 20
97.5457679849
 30
0.0
 11
17.25
 21
-0.0
 31
0.0
 40
0.6127654169
 41
2.9961529185
 42
3.0205241801
  0
ELLIPSE
  5
913
100
AcDbEntity
  8
0
100
AcDbEllipse
 62
7
  6
CONTINUOUS
 10
114.7554956129
 20
98.5670436797
 30
0.0
 11
17.25
 21
-0.0
 31
0.0
 40
0.204255139
 41
9.2548796305
 42
9.2793382256
  0
ELLIPSE
  5
914
100
AcDbEntity
  8
0
100
AcDbEllipse
 62
7
  6
CONTINUOUS
 10
114.7554956129
 20
104.354300018
 30
0.0
 11
0.0
 21
26.4256295705
 31
0.0
 40
0.6527753654
 41
-4.4882958503
 42
-4.4783748934
  0
ELLIPSE
  5
915
100
AcDbEntity
  8
0
100
AcDbEllipse
 62
7
  6
CONTINUOUS
 10
114.7554956129
 20
101.091866117
 30
0.0
 11
17.25
 21
0.0
 31
0.0
 40
0.6808509827
 41
-2.9323393952
 42
-2.9174995235
  0
ELLIPSE
  5
916
100
AcDbEntity
  8
0
100
AcDbEllipse
 62
7
  6
CONTINUOUS
 10
114.7554956129
 20
99.87200789
 30
0.0
 11
17.25
 21
0.0
 31
0.0
 40
0.3404254913
 41
-2.9471326425
 42
-2.9323393952
  0
ELLIPSE
  5
917
100
AcDbEntity
  8
0
100
AcDbEllipse
 62
7
  6
CONTINUOUS
 10
114.7554956129
 20
95.9287454939
 30
0.0
 11
17.25
 21
-0.0
 31
0.0
 40
0.6808509827
 41
9.2793382256
 42
9.3085745883
  0
ELLIPSE
  5
918
100
AcDbEntity
  8
0
100
AcDbEllipse
 62
7
  6
CONTINUOUS
 10
114.7554956129
 20
97.1202351031
 30
0.0
 11
17.25
 21
-0.0
 31
0.0
 40
0.204255139
 41
9.2548796305
 42
9.2793382256
  0
ELLIPSE
  5
919
100
AcDbEntity
  8
0
100
AcDbEllipse
 62
7
  6
CONTINUOUS
 10
114.7554956129
 20
94.6521496033
 30
0.0
 11
0.0
 21
32.2978726029
 31
0.0
 40
0.5340909047
 41
1.5418067593
 42
1.5707963268
  0
ELLIPSE
  5
91A
100
AcDbEntity
  8
0
100
AcDbEllipse
 62
7
  6
CONTINUOUS
 10
114.7554956129
 20
98.7939935636
 30
0.0
 11
17.25
 21
0.0
 31
0.0
 40
0.1702127457
 41
3.015656142
 42
3.0448233188
  0
ELLIPSE
  5
91B
100
AcDbEntity
  8
0
100
AcDbEllipse
 62
7
  6
CONTINUOUS
 10
114.7554956129
 20
98.0564056375
 30
0.0
 11
17.25
 21
-0.0
 31
0.0
 40
0.6127654169
 41
3.0448233188
 42
3.0690653173
  0
ELLIPSE
  5
91C
100
AcDbEntity
  8
0
100
AcDbEllipse
 62
7
  6
CONTINUOUS
 10
114.7554956129
 20
97.5457668161
 30
0.0
 11
0.0
 21
17.6170191765
 31
0.0
 40
0.9791667834
 41
1.4982689905
 42
1.5127927932
  0
ELLIPSE
  5
91D
100
AcDbEntity
  8
0
100
AcDbEllipse
 62
7
  6
CONTINUOUS
 10
114.7554956129
 20
96.524494238
 30
0.0
 11
-0.0
 21
35.2339711495
 31
0.0
 40
0.4895843255
 41
1.5127927932
 42
1.5224683563
  0
ELLIPSE
  5
91E
100
AcDbEntity
  8
0
100
AcDbEllipse
 62
7
  6
CONTINUOUS
 10
114.7554956129
 20
95.6734154639
 30
0.0
 11
0.0
 21
52.8513084938
 31
0.0
 40
0.3263873779
 41
1.5224683563
 42
1.527304356
  0
ELLIPSE
  5
91F
100
AcDbEntity
  8
0
100
AcDbEllipse
 62
7
  6
CONTINUOUS
 10
114.7554956129
 20
94.1414970548
 30
0.0
 11
0.0
 21
88.0854319017
 31
0.0
 40
0.1958326096
 41
1.527304356
 42
1.5321393382
  0
ELLIPSE
  5
920
100
AcDbEntity
  8
0
100
AcDbEllipse
 62
7
  6
CONTINUOUS
 10
114.7554956129
 20
100.1840796987
 30
0.0
 11
0.0
 21
88.0854565781
 31
0.0
 40
0.1958325548
 41
1.6094533154
 42
1.6142882976
  0
ELLIPSE
  5
921
100
AcDbEntity
  8
0
100
AcDbEllipse
 62
7
  6
CONTINUOUS
 10
114.7554956129
 20
98.652158071
 30
0.0
 11
0.0
 21
52.851259141
 31
0.0
 40
0.3263876827
 41
1.6142882976
 42
1.6191242973
  0
ELLIPSE
  5
922
100
AcDbEntity
  8
0
100
AcDbEllipse
 62
7
  6
CONTINUOUS
 10
114.7554956129
 20
97.8010819791
 30
0.0
 11
0.0
 21
35.2339773186
 31
0.0
 40
0.4895842398
 41
1.6191242973
 42
1.6287998604
  0
ELLIPSE
  5
923
100
AcDbEntity
  8
0
100
AcDbEllipse
 62
7
  6
CONTINUOUS
 10
114.7554956129
 20
96.7798091626
 30
0.0
 11
-0.0
 21
17.6170212328
 31
0.0
 40
0.9791666691
 41
1.6287998604
 42
1.6384808921
  0
ELLIPSE
  5
924
100
AcDbEntity
  8
0
100
AcDbEllipse
 62
7
  6
CONTINUOUS
 10
114.7554956129
 20
100.5244890676
 30
0.0
 11
17.25
 21
-0.0
 31
0.0
 40
0.255319362
 41
2.8575972694
 42
2.8776698055
  0
ELLIPSE
  5
925
100
AcDbEntity
  8
0
100
AcDbEllipse
 62
7
  6
CONTINUOUS
 10
114.7554956129
 20
98.4677518839
 30
0.0
 11
17.25
 21
-0.0
 31
0.0
 40
0.6808512211
 41
2.8424657724
 42
2.8575972694
  0
ELLIPSE
  5
926
100
AcDbEntity
  8
0
100
AcDbEllipse
 62
7
  6
CONTINUOUS
 10
114.7554956129
 20
94.1415276003
 30
0.0
 11
0.0
 21
26.4254783621
 31
0.0
 40
0.6527791007
 41
1.2615426257
 42
1.2716694456
  0
ELLIPSE
  5
927
100
AcDbEntity
  8
0
100
AcDbEllipse
 62
7
  6
CONTINUOUS
 10
114.7554956129
 20
80.7371767258
 30
0.0
 11
0.0
 21
70.4683455213
 31
0.0
 40
0.244790762
 41
1.2564670025
 42
1.2615426257
  0
ELLIPSE
  5
928
100
AcDbEntity
  8
0
100
AcDbEllipse
 62
7
  6
CONTINUOUS
 10
114.7554956129
 20
125.5883989549
 30
0.0
 11
0.0
 21
70.4683455213
 31
0.0
 40
0.244790762
 41
-4.4031352793
 42
-4.3980596561
  0
ELLIPSE
  5
929
100
AcDbEntity
  8
0
100
AcDbEllipse
 62
7
  6
CONTINUOUS
 10
114.7554956129
 20
112.1840555905
 30
0.0
 11
0.0
 21
26.4255030384
 31
0.0
 40
0.6527784911
 41
-4.4132620991
 42
-4.4031352793
  0
ELLIPSE
  5
92A
100
AcDbEntity
  8
0
100
AcDbEllipse
 62
7
  6
CONTINUOUS
 10
114.7554956129
 20
107.8578228232
 30
0.0
 11
17.25
 21
0.0
 31
0.0
 40
0.6808509827
 41
-2.8575972694
 42
-2.8424657724
  0
ELLIPSE
  5
92B
100
AcDbEntity
  8
0
100
AcDbEllipse
 62
7
  6
CONTINUOUS
 10
114.7554956129
 20
105.8010867919
 30
0.0
 11
17.25
 21
-0.0
 31
0.0
 40
0.255319362
 41
-2.8776698055
 42
-2.8575972694
  0
ELLIPSE
  5
92C
100
AcDbEntity
  8
0
100
AcDbEllipse
 62
7
  6
CONTINUOUS
 10
114.7554956129
 20
101.1968304326
 30
0.0
 11
17.25
 21
-0.0
 31
0.0
 40
0.2042553906
 41
3.141592596
 42
3.1512546305
  0
ELLIPSE
  5
92D
100
AcDbEntity
  8
0
100
AcDbEllipse
 62
7
  6
CONTINUOUS
 10
114.7554956129
 20
99.8010763141
 30
0.0
 11
0.0
 21
70.4683455213
 31
0.0
 40
0.244790762
 41
1.5321393658
 42
1.536973444
  0
ELLIPSE
  5
92E
100
AcDbEntity
  8
0
100
AcDbEllipse
 62
7
  6
CONTINUOUS
 10
114.7554956129
 20
101.2904490393
 30
0.0
 11
-0.0
 21
26.4254783621
 31
0.0
 40
0.6527791007
 41
1.536973444
 42
1.5466393972
  0
ELLIPSE
  5
92F
100
AcDbEntity
  8
0
100
AcDbEllipse
 62
7
  6
CONTINUOUS
 10
114.7554956129
 20
101.6450574741
 30
0.0
 11
17.25
 21
-0.0
 31
0.0
 40
0.6808512211
 41
3.117435724
 42
3.1319306767
  0
ELLIPSE
  5
930
100
AcDbEntity
  8
0
100
AcDbEllipse
 62
7
  6
CONTINUOUS
 10
114.7554956129
 20
101.5457666982
 30
0.0
 11
17.25
 21
-0.0
 31
0.0
 40
0.2553189968
 41
3.0932646554
 42
3.1126030861
  0
ELLIPSE
  5
931
100
AcDbEntity
  8
0
100
AcDbEllipse
 62
7
  6
CONTINUOUS
 10
114.7554956129
 20
101.1911564436
 30
0.0
 11
17.25
 21
-0.0
 31
0.0
 40
0.6808512211
 41
3.0787493559
 42
3.0932646554
  0
ELLIPSE
  5
932
100
AcDbEntity
  8
0
100
AcDbEllipse
 62
7
  6
CONTINUOUS
 10
114.7554956129
 20
100.2691692782
 30
0.0
 11
0.0
 21
26.4255539661
 31
0.0
 40
0.6527772331
 41
1.4982689905
 42
1.5079530291
  0
ELLIPSE
  5
933
100
AcDbEntity
  8
0
100
AcDbEllipse
 62
7
  6
CONTINUOUS
 10
114.7554956129
 20
97.0776918628
 30
0.0
 11
0.0
 21
70.467942299
 31
0.0
 40
0.2447921628
 41
1.4934244581
 42
1.4982689905
  0
ELLIPSE
  5
934
100
AcDbEntity
  8
0
100
AcDbEllipse
 62
7
  6
CONTINUOUS
 10
114.7554956129
 20
85.2052957664
 30
0.0
 11
0.0
 21
104.1705977272
 31
0.0
 40
0.1631938414
 41
1.4479384887
 42
1.4504167975
  0
ELLIPSE
  5
935
100
AcDbEntity
  8
0
100
AcDbEllipse
 62
7
  6
CONTINUOUS
 10
114.7554956129
 20
91.5883641908
 30
0.0
 11
0.0
 21
52.0847514362
 31
0.0
 40
0.3263911132
 41
7.7261830409
 42
7.7311237959
  0
ELLIPSE
  5
936
100
AcDbEntity
  8
0
100
AcDbEllipse
 62
7
  6
CONTINUOUS
 10
114.7554956129
 20
94.9074561097
 30
0.0
 11
0.0
 21
26.0426494318
 31
0.0
 40
0.6527753654
 41
7.7162921005
 42
7.7261830409
  0
ELLIPSE
  5
937
100
AcDbEntity
  8
0
100
AcDbEllipse
 62
7
  6
CONTINUOUS
 10
114.7554956129
 20
96.8932848408
 30
0.0
 11
17.0
 21
-0.0
 31
0.0
 40
0.6808509827
 41
3.0001863864
 42
3.0039031202
  0
ELLIPSE
  5
938
100
AcDbEntity
  8
0
100
AcDbEllipse
 62
7
  6
CONTINUOUS
 10
114.7554956129
 20
108.3967414577
 30
0.0
 11
0.0
 21
44.0422119258
 31
0.0
 40
0.3916697015
 41
-4.453467005
 42
-4.4434584922
  0
ELLIPSE
  5
939
100
AcDbEntity
  8
0
100
AcDbEllipse
 62
7
  6
CONTINUOUS
 10
114.7554956129
 20
84.5671306185
 30
0.0
 11
0.0
 21
44.0422180948
 31
0.0
 40
0.3916696467
 41
1.3018658386
 42
1.3118743515
  0
ELLIPSE
  5
93A
100
AcDbEntity
  8
0
100
AcDbEllipse
 62
7
  6
CONTINUOUS
 10
114.7554956129
 20
89.8294556012
 30
0.0
 11
0.0
 21
23.4893609583
 31
0.0
 40
0.7343750233
 41
7.5950596586
 42
7.6100230706
  0
ELLIPSE
  5
93B
100
AcDbEntity
  8
0
100
AcDbEllipse
 62
7
  6
CONTINUOUS
 10
114.7554956129
 20
92.9500185063
 30
0.0
 11
17.25
 21
-0.0
 31
0.0
 40
0.6127668731
 41
2.8976340902
 42
2.9224515946
  0
ELLIPSE
  5
93C
100
AcDbEntity
  8
0
100
AcDbEllipse
 62
7
  6
CONTINUOUS
 10
114.7554956129
 20
94.4819356889
 30
0.0
 11
17.25
 21
0.0
 31
0.0
 40
0.2042556244
 41
2.9224515946
 42
2.9471326425
  0
ELLIPSE
  5
93D
100
AcDbEntity
  8
0
100
AcDbEllipse
 62
7
  6
CONTINUOUS
 10
114.7554956129
 20
111.7587356151
 30
0.0
 11
0.0
 21
52.0858949416
 31
0.0
 40
0.3263839475
 41
-4.4546426282
 42
-4.4495698727
  0
ELLIPSE
  5
93E
100
AcDbEntity
  8
0
100
AcDbEllipse
 62
7
  6
CONTINUOUS
 10
114.7554956129
 20
104.3826462995
 30
0.0
 11
0.0
 21
23.1489334106
 31
0.0
 40
0.7343750875
 41
-4.469821104
 42
-4.4546426282
  0
ELLIPSE
  5
93F
100
AcDbEntity
  8
0
100
AcDbEllipse
 62
7
  6
CONTINUOUS
 10
114.7554956129
 20
101.3244825236
 30
0.0
 11
17.0
 21
-0.0
 31
0.0
 40
0.6127640144
 41
-2.9241980996
 42
-2.8990247772
  0
ELLIPSE
  5
940
100
AcDbEntity
  8
0
100
AcDbEllipse
 62
7
  6
CONTINUOUS
 10
114.7554956129
 20
99.826618621
 30
0.0
 11
17.0
 21
-0.0
 31
0.0
 40
0.2042556065
 41
-2.9492320691
 42
-2.9241980996
  0
ELLIPSE
  5
941
100
AcDbEntity
  8
0
100
AcDbEllipse
 62
7
  6
CONTINUOUS
 10
114.7554956129
 20
100.2436396941
 30
0.0
 11
17.0
 21
-0.0
 31
0.0
 40
0.2042551568
 41
2.8481852264
 42
2.8736937412
  0
ELLIPSE
  5
942
100
AcDbEntity
  8
0
100
AcDbEllipse
 62
7
  6
CONTINUOUS
 10
114.7554956129
 20
99.826618621
 30
0.0
 11
17.25
 21
-0.0
 31
0.0
 40
0.2042556065
 41
-2.9520540343
 42
-2.9273982099
  0
ELLIPSE
  5
943
100
AcDbEntity
  8
0
100
AcDbEllipse
 62
7
  6
CONTINUOUS
 10
114.7554956129
 20
101.3244825236
 30
0.0
 11
17.25
 21
-0.0
 31
0.0
 40
0.6127640144
 41
-2.9273982099
 42
-2.9026092833
  0
ELLIPSE
  5
944
100
AcDbEntity
  8
0
100
AcDbEllipse
 62
7
  6
CONTINUOUS
 10
114.7554956129
 20
104.3826462995
 30
0.0
 11
0.0
 21
23.489358902
 31
0.0
 40
0.7343750875
 41
-4.4734056101
 42
-4.4584611483
  0
ELLIPSE
  5
945
100
AcDbEntity
  8
0
100
AcDbEllipse
 62
7
  6
CONTINUOUS
 10
114.7554956129
 20
111.7587356151
 30
0.0
 11
0.0
 21
52.8518639849
 31
0.0
 40
0.3263839475
 41
-4.4584611483
 42
-4.453467005
  0
ELLIPSE
  5
946
100
AcDbEntity
  8
0
100
AcDbEllipse
 62
7
  6
CONTINUOUS
 10
114.7554956129
 20
126.6519193701
 30
0.0
 11
0.0
 21
52.850666649
 31
0.0
 40
0.3263913418
 41
-4.0940160625
 42
-4.0880746291
  0
ELLIPSE
  5
947
100
AcDbEntity
  8
0
100
AcDbEllipse
 62
7
  6
CONTINUOUS
 10
114.7554956129
 20
94.4819356889
 30
0.0
 11
17.0
 21
0.0
 31
0.0
 40
0.2042556244
 41
2.919175133
 42
2.9442355059
  0
ELLIPSE
  5
948
100
AcDbEntity
  8
0
100
AcDbEllipse
 62
7
  6
CONTINUOUS
 10
114.7554956129
 20
97.7727172519
 30
0.0
 11
17.25
 21
-0.0
 31
0.0
 40
0.3404254913
 41
2.976593811
 42
2.9912687049
  0
ELLIPSE
  5
949
100
AcDbEntity
  8
0
100
AcDbEllipse
 62
7
  6
CONTINUOUS
 10
114.7554956129
 20
96.8932848408
 30
0.0
 11
17.25
 21
0.0
 31
0.0
 40
0.6808509827
 41
2.9912687049
 42
3.0059110495
  0
ELLIPSE
  5
94A
100
AcDbEntity
  8
0
100
AcDbEllipse
 62
7
  6
CONTINUOUS
 10
114.7554956129
 20
94.9074561097
 30
0.0
 11
0.0
 21
26.4256295705
 31
0.0
 40
0.6527753654
 41
7.7183000299
 42
7.7280451224
  0
ELLIPSE
  5
94B
100
AcDbEntity
  8
0
100
AcDbEllipse
 62
7
  6
CONTINUOUS
 10
114.7554956129
 20
91.5883641908
 30
0.0
 11
0.0
 21
52.8507036632
 31
0.0
 40
0.3263911132
 41
1.4448598152
 42
1.4497278533
  0
ELLIPSE
  5
94C
100
AcDbEntity
  8
0
100
AcDbEllipse
 62
7
  6
CONTINUOUS
 10
114.7554956129
 20
85.2052957664
 30
0.0
 11
0.0
 21
105.702518282
 31
0.0
 40
0.1631938414
 41
7.7329131605
 42
7.7377782615
  0
ELLIPSE
  5
94D
100
AcDbEntity
  8
0
100
AcDbEllipse
 62
7
  6
CONTINUOUS
 10
114.7554956129
 20
92.9500185063
 30
0.0
 11
17.0
 21
-0.0
 31
0.0
 40
0.6127668731
 41
2.8939718773
 42
2.919175133
  0
ELLIPSE
  5
94E
100
AcDbEntity
  8
0
100
AcDbEllipse
 62
7
  6
CONTINUOUS
 10
114.7554956129
 20
89.8294556012
 30
0.0
 11
-0.0
 21
23.1489354372
 31
0.0
 40
0.7343750233
 41
7.5911625263
 42
7.6063608576
  0
ELLIPSE
  5
94F
100
AcDbEntity
  8
0
100
AcDbEllipse
 62
7
  6
CONTINUOUS
 10
114.7554956129
 20
84.5671306185
 30
0.0
 11
0.0
 21
43.403925079
 31
0.0
 40
0.3916696467
 41
1.2978105165
 42
1.3016347217
  0
ELLIPSE
  5
950
100
AcDbEntity
  8
0
100
AcDbEllipse
 62
7
  6
CONTINUOUS
 10
114.7554956129
 20
84.5671306185
 30
0.0
 11
0.0
 21
43.403925079
 31
0.0
 40
0.3916696467
 41
1.3066898261
 42
1.3079772191
  0
ELLIPSE
  5
951
100
AcDbEntity
  8
0
100
AcDbEllipse
 62
7
  6
CONTINUOUS
 10
114.7554956129
 20
108.3967414577
 30
0.0
 11
0.0
 21
43.4039189993
 31
0.0
 40
0.3916697015
 41
-4.4495698727
 42
-4.4394031701
  0
ELLIPSE
  5
952
100
AcDbEntity
  8
0
100
AcDbEllipse
 62
7
  6
CONTINUOUS
 10
114.7554956129
 20
83.3329553852
 30
0.0
 11
0.0
 21
26.0426494318
 31
0.0
 40
0.6527753654
 41
1.069694582
 42
1.0808390005
  0
ELLIPSE
  5
953
100
AcDbEntity
  8
0
100
AcDbEllipse
 62
7
  6
CONTINUOUS
 10
114.7554956129
 20
70.8225523316
 30
0.0
 11
0.0
 21
52.0847149585
 31
0.0
 40
0.3263913418
 41
1.0640968065
 42
1.069694582
  0
ELLIPSE
  5
954
100
AcDbEntity
  8
0
100
AcDbEllipse
 62
7
  6
CONTINUOUS
 10
114.7554956129
 20
130.1412619304
 30
0.0
 11
0.0
 21
69.4462947174
 31
0.0
 40
0.2447934777
 41
-4.2112872356
 42
-4.2056894601
  0
ELLIPSE
  5
955
100
AcDbEntity
  8
0
100
AcDbEllipse
 62
7
  6
CONTINUOUS
 10
114.7554956129
 20
109.2904927792
 30
0.0
 11
0.0
 21
26.0426494318
 31
0.0
 40
0.6527753654
 41
-4.2224316541
 42
-4.2112872356
  0
ELLIPSE
  5
956
100
AcDbEntity
  8
0
100
AcDbEllipse
 62
7
  6
CONTINUOUS
 10
114.7554956129
 20
100.3032180442
 30
0.0
 11
17.0
 21
-0.0
 31
0.0
 40
0.4085112129
 41
-2.6792137528
 42
-2.6516353273
  0
ELLIPSE
  5
957
100
AcDbEntity
  8
0
100
AcDbEllipse
 62
7
  6
CONTINUOUS
 10
114.7554956129
 20
91.3968084957
 30
0.0
 11
17.0
 21
0.0
 31
0.0
 40
0.7659602774
 41
2.6571827474
 42
2.6792137528
  0
ELLIPSE
  5
958
100
AcDbEntity
  8
0
100
AcDbEllipse
 62
7
  6
CONTINUOUS
 10
114.7554956129
 20
85.3330955761
 30
0.0
 11
0.0
 21
26.0423513996
 31
0.0
 40
0.6527828359
 41
1.0752751188
 42
1.0863864206
  0
ELLIPSE
  5
959
100
AcDbEntity
  8
0
100
AcDbEllipse
 62
7
  6
CONTINUOUS
 10
114.7554956129
 20
64.6942001945
 30
0.0
 11
0.0
 21
69.4478599222
 31
0.0
 40
0.2447879606
 41
1.069694582
 42
1.0752751188
  0
ELLIPSE
  5
95A
100
AcDbEntity
  8
0
100
AcDbEllipse
 62
7
  6
CONTINUOUS
 10
114.7554956129
 20
131.588822419
 30
0.0
 11
0.0
 21
69.4478599222
 31
0.0
 40
0.2447879606
 41
-4.2168677724
 42
-4.2112872356
  0
ELLIPSE
  5
95B
100
AcDbEntity
  8
0
100
AcDbEllipse
 62
7
  6
CONTINUOUS
 10
114.7554956129
 20
106.8223463585
 30
0.0
 11
0.0
 21
17.3616669432
 31
0.0
 40
0.979168651
 41
-4.2390256545
 42
-4.2168677724
  0
ELLIPSE
  5
95C
100
AcDbEntity
  8
0
100
AcDbEllipse
 62
7
  6
CONTINUOUS
 10
114.7554956129
 20
102.86490757
 30
0.0
 11
17.0
 21
-0.0
 31
0.0
 40
0.510637263
 41
-2.6901384886
 42
-2.6682293277
  0
ELLIPSE
  5
95D
100
AcDbEntity
  8
0
100
AcDbEllipse
 62
7
  6
CONTINUOUS
 10
114.7554956129
 20
100.1597505334
 30
0.0
 11
17.0
 21
-0.0
 31
0.0
 40
0.1458969572
 41
-2.7279353742
 42
-2.6901384886
  0
ELLIPSE
  5
95E
100
AcDbEntity
  8
0
100
AcDbEllipse
 62
7
  6
CONTINUOUS
 10
114.7554956129
 20
102.6237804108
 30
0.0
 11
17.25
 21
0.0
 31
0.0
 40
0.6808509827
 41
-2.5172783023
 42
-2.499298682
  0
ELLIPSE
  5
95F
100
AcDbEntity
  8
0
100
AcDbEllipse
 62
7
  6
CONTINUOUS
 10
114.7554956129
 20
97.6989619595
 30
0.0
 11
17.25
 21
-0.0
 31
0.0
 40
0.204255678
 41
-2.499298682
 42
-2.4687796686
  0
ELLIPSE
  5
960
100
AcDbEntity
  8
0
100
AcDbEllipse
 62
7
  6
CONTINUOUS
 10
114.7554956129
 20
90.1415110087
 30
0.0
 11
17.25
 21
0.0
 31
0.0
 40
0.6808511019
 41
2.6593490056
 42
2.6756385872
  0
ELLIPSE
  5
961
100
AcDbEntity
  8
0
100
AcDbEllipse
 62
7
  6
CONTINUOUS
 10
114.7554956129
 20
89.4180746086
 30
0.0
 11
0.0
 21
26.0426494318
 31
0.0
 40
0.6527753654
 41
1.2153176252
 42
1.2257552917
  0
ELLIPSE
  5
962
100
AcDbEntity
  8
0
100
AcDbEllipse
 62
7
  6
CONTINUOUS
 10
114.7554956129
 20
94.453569036
 30
0.0
 11
17.0
 21
-0.0
 31
0.0
 40
0.6808509827
 41
9.0535660533
 42
9.0692992591
  0
ELLIPSE
  5
963
100
AcDbEntity
  8
0
100
AcDbEllipse
 62
7
  6
CONTINUOUS
 10
114.7554956129
 20
97.3925793188
 30
0.0
 11
17.0
 21
0.0
 31
0.0
 40
0.2042546715
 41
9.0367039598
 42
9.0535660533
  0
ELLIPSE
  5
964
100
AcDbEntity
  8
0
100
AcDbEllipse
 62
7
  6
CONTINUOUS
 10
114.7554956129
 20
91.46066774
 30
0.0
 11
17.25
 21
-0.0
 31
0.0
 40
0.5106373301
 41
2.6756385872
 42
2.6971534255
  0
ELLIPSE
  5
965
100
AcDbEntity
  8
0
100
AcDbEllipse
 62
7
  6
CONTINUOUS
 10
114.7554956129
 20
98.7372533953
 30
0.0
 11
17.0
 21
-0.0
 31
0.0
 40
0.510638791
 41
2.8276368026
 42
2.8481852264
  0
ELLIPSE
  5
966
100
AcDbEntity
  8
0
100
AcDbEllipse
 62
7
  6
CONTINUOUS
 10
114.7554956129
 20
93.3542702576
 30
0.0
 11
17.25
 21
-0.0
 31
0.0
 40
0.2553201148
 41
2.6971534255
 42
2.7184498912
  0
ELLIPSE
  5
967
100
AcDbEntity
  8
0
100
AcDbEllipse
 62
7
  6
CONTINUOUS
 10
114.7554956129
 20
96.056399977
 30
0.0
 11
-0.0
 21
17.3617181353
 31
0.0
 40
0.9791657639
 41
1.236154005
 42
1.2568404758
  0
ELLIPSE
  5
968
100
AcDbEntity
  8
0
100
AcDbEllipse
 62
7
  6
CONTINUOUS
 10
114.7554956129
 20
90.3542990141
 30
0.0
 11
0.0
 21
34.7233399661
 31
0.0
 40
0.4895842398
 41
1.2257552917
 42
1.236154005
  0
ELLIPSE
  5
969
100
AcDbEntity
  8
0
100
AcDbEllipse
 62
7
  6
CONTINUOUS
 10
114.7554956129
 20
72.7371474864
 30
0.0
 11
0.0
 21
86.8088314393
 31
0.0
 40
0.1958326096
 41
1.2205414334
 42
1.2257552917
  0
ELLIPSE
  5
96A
100
AcDbEntity
  8
0
100
AcDbEllipse
 62
7
  6
CONTINUOUS
 10
114.7554956129
 20
133.5884448836
 30
0.0
 11
0.0
 21
86.8088800769
 31
0.0
 40
0.1958324999
 41
-4.3673479453
 42
-4.362134087
  0
ELLIPSE
  5
96B
100
AcDbEntity
  8
0
100
AcDbEllipse
 62
7
  6
CONTINUOUS
 10
114.7554956129
 20
115.9712748486
 30
0.0
 11
0.0
 21
34.7233338865
 31
0.0
 40
0.4895843255
 41
-4.3777466586
 42
-4.3673479453
  0
ELLIPSE
  5
96C
100
AcDbEntity
  8
0
100
AcDbEllipse
 62
7
  6
CONTINUOUS
 10
114.7554956129
 20
98.3968314748
 30
0.0
 11
17.25
 21
-0.0
 31
0.0
 40
0.2042556065
 41
-2.9471326425
 42
-2.9224515946
  0
ELLIPSE
  5
96D
100
AcDbEntity
  8
0
100
AcDbEllipse
 62
7
  6
CONTINUOUS
 10
114.7554956129
 20
110.2691753833
 30
0.0
 11
0.0
 21
17.3617166154
 31
0.0
 40
0.9791658496
 41
-4.3984331294
 42
-4.3777466586
  0
ELLIPSE
  5
96E
100
AcDbEntity
  8
0
100
AcDbEllipse
 62
7
  6
CONTINUOUS
 10
114.7554956129
 20
107.5883220823
 30
0.0
 11
17.0
 21
0.0
 31
0.0
 40
0.510638724
 41
-2.8481852264
 42
-2.8276368026
  0
ELLIPSE
  5
96F
100
AcDbEntity
  8
0
100
AcDbEllipse
 62
7
  6
CONTINUOUS
 10
114.7554956129
 20
107.6733352215
 30
0.0
 11
0.0
 21
35.2337695406
 31
0.0
 40
0.4895871269
 41
-4.3776714616
 42
-4.3725520709
  0
ELLIPSE
  5
970
100
AcDbEntity
  8
0
100
AcDbEllipse
 62
7
  6
CONTINUOUS
 10
114.7554956129
 20
99.9287485233
 30
0.0
 11
17.25
 21
0.0
 31
0.0
 40
0.6127668194
 41
-2.9224515946
 42
-2.8976340902
  0
ELLIPSE
  5
971
100
AcDbEntity
  8
0
100
AcDbEllipse
 62
7
  6
CONTINUOUS
 10
114.7554956129
 20
101.6308718244
 30
0.0
 11
0.0
 21
17.6170191765
 31
0.0
 40
0.9791667834
 41
-4.468430417
 42
-4.453467005
  0
ELLIPSE
  5
972
100
AcDbEntity
  8
0
100
AcDbEllipse
 62
7
  6
CONTINUOUS
 10
114.7554956129
 20
101.8011095578
 30
0.0
 11
-0.0
 21
17.6170925494
 31
0.0
 40
0.9791627053
 41
-4.3725520709
 42
-4.3622853723
  0
ELLIPSE
  5
973
100
AcDbEntity
  8
0
100
AcDbEllipse
 62
7
  6
CONTINUOUS
 10
114.7554956129
 20
98.77978543
 30
0.0
 11
17.25
 21
-0.0
 31
0.0
 40
0.5106343412
 41
-2.7914890455
 42
-2.7811835937
  0
ELLIPSE
  5
974
100
AcDbEntity
  8
0
100
AcDbEllipse
 62
7
  6
CONTINUOUS
 10
114.7554956129
 20
96.9159812658
 30
0.0
 11
17.25
 21
0.0
 31
0.0
 40
0.2042556065
 41
-2.7811835937
 42
-2.7552409023
  0
ELLIPSE
  5
975
100
AcDbEntity
  8
0
100
AcDbEllipse
 62
7
  6
CONTINUOUS
 10
114.7554956129
 20
93.8720071578
 30
0.0
 11
0.0
 21
32.2978726029
 31
0.0
 40
0.5340909047
 41
1.5176311698
 42
1.5466393696
  0
ELLIPSE
  5
976
100
AcDbEntity
  8
0
100
AcDbEllipse
 62
7
  6
CONTINUOUS
 10
114.7554956129
 20
106.0819360253
 30
0.0
 11
17.0
 21
-0.0
 31
0.0
 40
0.204255139
 41
-2.8736937412
 42
-2.8481852264
  0
ELLIPSE
  5
977
100
AcDbEntity
  8
0
100
AcDbEllipse
 62
7
  6
CONTINUOUS
 10
114.7554956129
 20
96.9159812658
 30
0.0
 11
17.0
 21
-0.0
 31
0.0
 40
0.2042556065
 41
-2.7756355601
 42
-2.7535186934
  0
ELLIPSE
  5
978
100
AcDbEntity
  8
0
100
AcDbEllipse
 62
7
  6
CONTINUOUS
 10
114.7554956129
 20
98.77978543
 30
0.0
 11
17.0
 21
-0.0
 31
0.0
 40
0.5106343412
 41
-2.786113952
 42
-2.7756355601
  0
ELLIPSE
  5
979
100
AcDbEntity
  8
0
100
AcDbEllipse
 62
7
  6
CONTINUOUS
 10
114.7554956129
 20
101.8011095578
 30
0.0
 11
0.0
 21
17.3617723676
 31
0.0
 40
0.9791627053
 41
-4.3673479453
 42
-4.3569102788
  0
ELLIPSE
  5
97A
100
AcDbEntity
  8
0
100
AcDbEllipse
 62
7
  6
CONTINUOUS
 10
114.7554956129
 20
107.6733352215
 30
0.0
 11
0.0
 21
34.7231351995
 31
0.0
 40
0.4895871269
 41
-4.3725521106
 42
-4.3673479453
  0
ELLIPSE
  5
97B
100
AcDbEntity
  8
0
100
AcDbEllipse
 62
7
  6
CONTINUOUS
 10
114.7554956129
 20
93.3542702576
 30
0.0
 11
17.0
 21
-0.0
 31
0.0
 40
0.2553201148
 41
2.6901384886
 42
2.7118171811
  0
ELLIPSE
  5
97C
100
AcDbEntity
  8
0
100
AcDbEllipse
 62
7
  6
CONTINUOUS
 10
114.7554956129
 20
91.46066774
 30
0.0
 11
17.0
 21
-0.0
 31
0.0
 40
0.5106373301
 41
2.6682293277
 42
2.6901384886
  0
ELLIPSE
  5
97D
100
AcDbEntity
  8
0
100
AcDbEllipse
 62
7
  6
CONTINUOUS
 10
114.7554956129
 20
90.1415110087
 30
0.0
 11
17.0
 21
-0.0
 31
0.0
 40
0.6808511019
 41
2.6516353273
 42
2.6682293277
  0
ELLIPSE
  5
97E
100
AcDbEntity
  8
0
100
AcDbEllipse
 62
7
  6
CONTINUOUS
 10
114.7554956129
 20
97.6989619595
 30
0.0
 11
17.0
 21
-0.0
 31
0.0
 40
0.204255678
 41
-2.4882511051
 42
-2.4570058877
  0
ELLIPSE
  5
97F
100
AcDbEntity
  8
0
100
AcDbEllipse
 62
7
  6
CONTINUOUS
 10
114.7554956129
 20
102.6237804108
 30
0.0
 11
17.0
 21
-0.0
 31
0.0
 40
0.6808509827
 41
-2.5066426135
 42
-2.4882511051
  0
ELLIPSE
  5
980
100
AcDbEntity
  8
0
100
AcDbEllipse
 62
7
  6
CONTINUOUS
 10
114.7554956129
 20
126.6519193701
 30
0.0
 11
0.0
 21
52.0847149585
 31
0.0
 40
0.3263913418
 41
-4.0835140549
 42
-4.0774389403
  0
ELLIPSE
  5
981
100
AcDbEntity
  8
0
100
AcDbEllipse
 62
7
  6
CONTINUOUS
 10
114.7554956129
 20
97.3925793188
 30
0.0
 11
17.25
 21
-0.0
 31
0.0
 40
0.2042546715
 41
2.7500199535
 42
2.7760160161
  0
ELLIPSE
  5
982
100
AcDbEntity
  8
0
100
AcDbEllipse
 62
7
  6
CONTINUOUS
 10
114.7554956129
 20
94.453569036
 30
0.0
 11
17.25
 21
-0.0
 31
0.0
 40
0.6808509827
 41
2.7760160161
 42
2.7914890455
  0
ELLIPSE
  5
983
100
AcDbEntity
  8
0
100
AcDbEllipse
 62
7
  6
CONTINUOUS
 10
114.7554956129
 20
89.4180746086
 30
0.0
 11
0.0
 21
26.4256295705
 31
0.0
 40
0.6527753654
 41
1.2206927187
 42
1.2309594173
  0
ELLIPSE
  5
984
100
AcDbEntity
  8
0
100
AcDbEllipse
 62
7
  6
CONTINUOUS
 10
114.7554956129
 20
93.8720071578
 30
0.0
 11
0.0
 21
31.8297874928
 31
0.0
 40
0.5340909047
 41
7.8134178715
 42
7.8294693567
  0
ELLIPSE
  5
985
100
AcDbEntity
  8
0
100
AcDbEllipse
 62
7
  6
CONTINUOUS
 10
114.7554956129
 20
101.6308718244
 30
0.0
 11
0.0
 21
17.361700058
 31
0.0
 40
0.9791667834
 41
-4.4647682041
 42
-4.4495698727
  0
ELLIPSE
  5
986
100
AcDbEntity
  8
0
100
AcDbEllipse
 62
7
  6
CONTINUOUS
 10
114.7554956129
 20
97.4322910187
 30
0.0
 11
17.0
 21
-0.0
 31
0.0
 40
0.6808509827
 41
-3.0039031202
 42
-2.9975656327
  0
ELLIPSE
  5
987
100
AcDbEntity
  8
0
100
AcDbEllipse
 62
7
  6
CONTINUOUS
 10
114.7554956129
 20
99.4181205843
 30
0.0
 11
0.0
 21
26.0426555115
 31
0.0
 40
0.6527752131
 41
-4.5845903873
 42
-4.574699447
  0
ELLIPSE
  5
988
100
AcDbEntity
  8
0
100
AcDbEllipse
 62
7
  6
CONTINUOUS
 10
114.7554956129
 20
102.7372055295
 30
0.0
 11
0.0
 21
52.0847027992
 31
0.0
 40
0.3263914179
 41
-4.5895311423
 42
-4.5845903873
  0
ELLIPSE
  5
989
100
AcDbEntity
  8
0
100
AcDbEllipse
 62
7
  6
CONTINUOUS
 10
114.7554956129
 20
90.2266650865
 30
0.0
 11
0.0
 21
52.0847271177
 31
0.0
 40
0.3263912656
 41
1.4429977337
 42
1.4479384887
  0
ELLIPSE
  5
98A
100
AcDbEntity
  8
0
100
AcDbEllipse
 62
7
  6
CONTINUOUS
 10
114.7554956129
 20
94.6521411356
 30
0.0
 11
0.0
 21
17.3617662879
 31
0.0
 40
0.9791630482
 41
7.7162921005
 42
7.7261830409
  0
ELLIPSE
  5
98B
100
AcDbEntity
  8
0
100
AcDbEllipse
 62
7
  6
CONTINUOUS
 10
114.7554956129
 20
95.4464762642
 30
0.0
 11
17.0
 21
-0.0
 31
0.0
 40
0.6808509827
 41
9.2807509399
 42
9.2870884273
  0
ELLIPSE
  5
98C
100
AcDbEntity
  8
0
100
AcDbEllipse
 62
7
  6
CONTINUOUS
 10
114.7554956129
 20
99.9287485233
 30
0.0
 11
17.0
 21
0.0
 31
0.0
 40
0.6127668194
 41
-2.919175133
 42
-2.8939718773
  0
ELLIPSE
  5
98D
100
AcDbEntity
  8
0
100
AcDbEllipse
 62
7
  6
CONTINUOUS
 10
114.7554956129
 20
98.3968314748
 30
0.0
 11
17.0
 21
0.0
 31
0.0
 40
0.2042556065
 41
-2.9442355059
 42
-2.919175133
  0
ELLIPSE
  5
98E
100
AcDbEntity
  8
0
100
AcDbEllipse
 62
7
  6
CONTINUOUS
 10
114.7554956129
 20
100.1597505334
 30
0.0
 11
17.25
 21
-0.0
 31
0.0
 40
0.1458969572
 41
-2.7342886776
 42
-2.6971534255
  0
ELLIPSE
  5
98F
100
AcDbEntity
  8
0
100
AcDbEllipse
 62
7
  6
CONTINUOUS
 10
114.7554956129
 20
102.86490757
 30
0.0
 11
17.25
 21
-0.0
 31
0.0
 40
0.510637263
 41
-2.6971534255
 42
-2.6756385872
  0
ELLIPSE
  5
990
100
AcDbEntity
  8
0
100
AcDbEllipse
 62
7
  6
CONTINUOUS
 10
114.7554956129
 20
106.8223463585
 30
0.0
 11
0.0
 21
17.6169855747
 31
0.0
 40
0.979168651
 41
-4.246434914
 42
-4.224684689
  0
ELLIPSE
  5
991
100
AcDbEntity
  8
0
100
AcDbEllipse
 62
7
  6
CONTINUOUS
 10
114.7554956129
 20
131.588822419
 30
0.0
 11
0.0
 21
70.4691519799
 31
0.0
 40
0.2447879606
 41
-4.224684689
 42
-4.2192083078
  0
ELLIPSE
  5
992
100
AcDbEntity
  8
0
100
AcDbEllipse
 62
7
  6
CONTINUOUS
 10
114.7554956129
 20
64.6942001945
 30
0.0
 11
0.0
 21
70.4691519799
 31
0.0
 40
0.2447879606
 41
1.0776156542
 42
1.0830920354
  0
ELLIPSE
  5
993
100
AcDbEntity
  8
0
100
AcDbEllipse
 62
7
  6
CONTINUOUS
 10
114.7554956129
 20
85.3330955761
 30
0.0
 11
0.0
 21
26.4253271555
 31
0.0
 40
0.6527828359
 41
1.0830920354
 42
1.0939977575
  0
ELLIPSE
  5
994
100
AcDbEntity
  8
0
100
AcDbEllipse
 62
7
  6
CONTINUOUS
 10
114.7554956129
 20
106.0819360253
 30
0.0
 11
17.25
 21
-0.0
 31
0.0
 40
0.204255139
 41
-2.8776698055
 42
-2.8525610064
  0
ELLIPSE
  5
995
100
AcDbEntity
  8
0
100
AcDbEllipse
 62
7
  6
CONTINUOUS
 10
114.7554956129
 20
107.5883220823
 30
0.0
 11
17.25
 21
-0.0
 31
0.0
 40
0.510638724
 41
-2.8525610064
 42
-2.8323389525
  0
ELLIPSE
  5
996
100
AcDbEntity
  8
0
100
AcDbEllipse
 62
7
  6
CONTINUOUS
 10
114.7554956129
 20
110.2691753833
 30
0.0
 11
0.0
 21
17.6170359774
 31
0.0
 40
0.9791658496
 41
-4.4031352793
 42
-4.3827816946
  0
ELLIPSE
  5
997
100
AcDbEntity
  8
0
100
AcDbEllipse
 62
7
  6
CONTINUOUS
 10
114.7554956129
 20
115.9712748486
 30
0.0
 11
0.0
 21
35.2339711495
 31
0.0
 40
0.4895843255
 41
-4.3827816946
 42
-4.3725520709
  0
ELLIPSE
  5
998
100
AcDbEntity
  8
0
100
AcDbEllipse
 62
7
  6
CONTINUOUS
 10
114.7554956129
 20
133.5884448836
 30
0.0
 11
0.0
 21
88.0854812545
 31
0.0
 40
0.1958324999
 41
-4.3725520709
 42
-4.3674234561
  0
ELLIPSE
  5
999
100
AcDbEntity
  8
0
100
AcDbEllipse
 62
7
  6
CONTINUOUS
 10
114.7554956129
 20
72.7371474864
 30
0.0
 11
0.0
 21
88.0854319017
 31
0.0
 40
0.1958326096
 41
1.2258308025
 42
1.2309594173
  0
ELLIPSE
  5
99A
100
AcDbEntity
  8
0
100
AcDbEllipse
 62
7
  6
CONTINUOUS
 10
114.7554956129
 20
90.3542990141
 30
0.0
 11
0.0
 21
35.2339773186
 31
0.0
 40
0.4895842398
 41
1.2309594173
 42
1.241189041
  0
ELLIPSE
  5
99B
100
AcDbEntity
  8
0
100
AcDbEllipse
 62
7
  6
CONTINUOUS
 10
114.7554956129
 20
96.056399977
 30
0.0
 11
-0.0
 21
17.6170375197
 31
0.0
 40
0.9791657639
 41
1.241189041
 42
1.2615426257
  0
ELLIPSE
  5
99C
100
AcDbEntity
  8
0
100
AcDbEllipse
 62
7
  6
CONTINUOUS
 10
114.7554956129
 20
98.7372533953
 30
0.0
 11
17.25
 21
-0.0
 31
0.0
 40
0.510638791
 41
2.8323389525
 42
2.8525610064
  0
ELLIPSE
  5
99D
100
AcDbEntity
  8
0
100
AcDbEllipse
 62
7
  6
CONTINUOUS
 10
114.7554956129
 20
100.2436396941
 30
0.0
 11
17.25
 21
0.0
 31
0.0
 40
0.2042551568
 41
2.8525610064
 42
2.8776698055
  0
ELLIPSE
  5
99E
100
AcDbEntity
  8
0
100
AcDbEllipse
 62
7
  6
CONTINUOUS
 10
114.7554956129
 20
91.3968084957
 30
0.0
 11
17.25
 21
-0.0
 31
0.0
 40
0.7659602774
 41
2.6647940843
 42
2.6864242662
  0
ELLIPSE
  5
99F
100
AcDbEntity
  8
0
100
AcDbEllipse
 62
7
  6
CONTINUOUS
 10
114.7554956129
 20
100.3032180442
 30
0.0
 11
17.25
 21
0.0
 31
0.0
 40
0.4085112129
 41
-2.6864242662
 42
-2.6593490056
  0
ELLIPSE
  5
9A0
100
AcDbEntity
  8
0
100
AcDbEllipse
 62
7
  6
CONTINUOUS
 10
114.7554956129
 20
93.1628060172
 30
0.0
 11
0.0
 21
88.0849278737
 31
0.0
 40
0.1958337302
 41
1.4643150194
 42
1.4691722219
  0
ELLIPSE
  5
9A1
100
AcDbEntity
  8
0
100
AcDbEllipse
 62
7
  6
CONTINUOUS
 10
114.7554956129
 20
98.5244864266
 30
0.0
 11
0.0
 21
35.2340781239
 31
0.0
 40
0.4895828391
 41
1.4691722219
 42
1.478879503
  0
ELLIPSE
  5
9A2
100
AcDbEntity
  8
0
100
AcDbEllipse
 62
7
  6
CONTINUOUS
 10
114.7554956129
 20
100.1415119527
 30
0.0
 11
-0.0
 21
17.6170123183
 31
0.0
 40
0.9791671646
 41
7.7620648102
 42
7.7814542977
  0
ELLIPSE
  5
9A3
100
AcDbEntity
  8
0
100
AcDbEllipse
 62
7
  6
CONTINUOUS
 10
114.7554956129
 20
100.7798094725
 30
0.0
 11
17.25
 21
-0.0
 31
0.0
 40
0.5106380606
 41
3.0690653173
 42
3.0884275242
  0
ELLIPSE
  5
9A4
100
AcDbEntity
  8
0
100
AcDbEllipse
 62
7
  6
CONTINUOUS
 10
114.7554956129
 20
109.2904927792
 30
0.0
 11
0.0
 21
26.4256295705
 31
0.0
 40
0.6527753654
 41
-4.2301453324
 42
-4.2192083078
  0
ELLIPSE
  5
9A5
100
AcDbEntity
  8
0
100
AcDbEllipse
 62
7
  6
CONTINUOUS
 10
114.7554956129
 20
101.0606602046
 30
0.0
 11
17.25
 21
-0.0
 31
0.0
 40
0.2042553906
 41
3.0884275242
 42
3.1126030861
  0
ELLIPSE
  5
9A6
100
AcDbEntity
  8
0
100
AcDbEllipse
 62
7
  6
CONTINUOUS
 10
114.7554956129
 20
130.1412619304
 30
0.0
 11
0.0
 21
70.4675637574
 31
0.0
 40
0.2447934777
 41
-4.2192083078
 42
-4.2137156333
  0
ELLIPSE
  5
9A7
100
AcDbEntity
  8
0
100
AcDbEllipse
 62
7
  6
CONTINUOUS
 10
114.7554956129
 20
70.8225523316
 30
0.0
 11
0.0
 21
52.850666649
 31
0.0
 40
0.3263913418
 41
1.0721229797
 42
1.0776156542
  0
ELLIPSE
  5
9A8
100
AcDbEntity
  8
0
100
AcDbEllipse
 62
7
  6
CONTINUOUS
 10
114.7554956129
 20
101.715979383
 30
0.0
 11
17.25
 21
-0.0
 31
0.0
 40
0.255319362
 41
9.4151159839
 42
9.4344399376
  0
ELLIPSE
  5
9A9
100
AcDbEntity
  8
0
100
AcDbEllipse
 62
7
  6
CONTINUOUS
 10
114.7554956129
 20
83.3329553852
 30
0.0
 11
0.0
 21
26.4256295705
 31
0.0
 40
0.6527753654
 41
1.0776156542
 42
1.0885526788
  0
ELLIPSE
  5
9AA
100
AcDbEntity
  8
0
100
AcDbEllipse
 62
7
  6
CONTINUOUS
 10
114.7554956129
 20
96.3259086753
 30
0.0
 11
17.25
 21
-0.0
 31
0.0
 40
0.3404254913
 41
9.2597791182
 42
9.2744540121
  0
ELLIPSE
  5
9AB
100
AcDbEntity
  8
0
100
AcDbEllipse
 62
7
  6
CONTINUOUS
 10
114.7554956129
 20
95.4464762642
 30
0.0
 11
17.25
 21
0.0
 31
0.0
 40
0.6808509827
 41
2.9912687049
 42
3.0059110495
  0
ELLIPSE
  5
9AC
100
AcDbEntity
  8
0
100
AcDbEllipse
 62
7
  6
CONTINUOUS
 10
114.7554956129
 20
94.6521411356
 30
0.0
 11
-0.0
 21
17.6170863803
 31
0.0
 40
0.9791630482
 41
1.4351147227
 42
1.4448598152
  0
ELLIPSE
  5
9AD
100
AcDbEntity
  8
0
100
AcDbEllipse
 62
7
  6
CONTINUOUS
 10
114.7554956129
 20
90.2266650865
 30
0.0
 11
0.0
 21
52.8506789871
 31
0.0
 40
0.3263912656
 41
1.4448598152
 42
1.4497278533
  0
ELLIPSE
  5
9AE
100
AcDbEntity
  8
0
100
AcDbEllipse
 62
7
  6
CONTINUOUS
 10
114.7554956129
 20
102.7372055295
 30
0.0
 11
0.0
 21
52.850654311
 31
0.0
 40
0.3263914179
 41
-4.5913205069
 42
-4.5864524688
  0
ELLIPSE
  5
9AF
100
AcDbEntity
  8
0
100
AcDbEllipse
 62
7
  6
CONTINUOUS
 10
114.7554956129
 20
99.4181205843
 30
0.0
 11
-0.0
 21
26.4256357396
 31
0.0
 40
0.6527752131
 41
-4.5864524688
 42
-4.5767073763
  0
ELLIPSE
  5
9B0
100
AcDbEntity
  8
0
100
AcDbEllipse
 62
7
  6
CONTINUOUS
 10
114.7554956129
 20
97.4322910187
 30
0.0
 11
17.25
 21
-0.0
 31
0.0
 40
0.6808509827
 41
-3.0059110495
 42
-2.9912687049
  0
ELLIPSE
  5
9B1
100
AcDbEntity
  8
0
100
AcDbEllipse
 62
7
  6
CONTINUOUS
 10
114.7554956129
 20
96.5528586076
 30
0.0
 11
17.25
 21
-0.0
 31
0.0
 40
0.3404254913
 41
-2.9912687049
 42
-2.976593811
  0
ENDSEC
  0
SECTION
  2
OBJECTS
  0
DICTIONARY
  5
C
100
AcDbDictionary
280
0
281
1
  3
ACAD_GROUP
350
D
  3
ACAD_MLINESTYLE
350
17
  3
ACAD_LAYOUT
350
1A
  3
ACAD_PLOTSETTINGS
350
19
  3
ACAD_PLOTSTYLENAME
350
E
  0
DICTIONARY
  5
D
102
{ACAD_REACTORS
330
C
102
}
100
AcDbDictionary
280
0
281
1
  0
ACDBDICTIONARYWDFLT
  5
E
102
{ACAD_REACTORS
330
C
102
}
100
AcDbDictionary
281
1
  3
Normal
350
F
100
AcDbDictionaryWithDefault
340
F
  0
DICTIONARY
  5
17
102
{ACAD_REACTORS
330
C
102
}
100
AcDbDictionary
280
0
281
1
  3
Standard
350
18
  0
DICTIONARY
  5
19
102
{ACAD_REACTORS
330
C
102
}
100
AcDbDictionary
281
1
  0
DICTIONARY
  5
1A
102
{ACAD_REACTORS
330
C
102
}
100
AcDbDictionary
281
1
  3
Model
350
9B2
  3
Layout1
350
9B3
  0
ACDBPLACEHOLDER
  5
F
102
{ACAD_REACTORS
330
E
102
}
  0
MLINESTYLE
  5
18
102
{ACAD_REACTORS
330
17
102
}
100
AcDbMlineStyle
  2
STANDARD
 70
0
  3

 62
256
 51
90.0
 52
90.0
 71
2
 49
0.5
 62
256
  6
BYLAYER
 49
-0.5
 62
256
  6
BYLAYER
  0
LAYOUT
  5
9B2
102
{ACAD_REACTORS
330
1A
102
}
100
AcDbPlotSettings
  1

  2
none_device
  4
ISO_A4_(297.00_x_210.00_MM)
  6

 40
0.0
 41
0.0
 42
0.0
 43
0.0
 44
297.0
 45
210.0
 46
0.0
 47
0.0
 48
0.0
 49
0.0
140
0.0
141
0.0
142
1.0
143
1.0
 70
1024
 72
1
 73
0
 74
0
  7

 75
0
147
1.0
148
0.0
149
0.0
100
AcDbLayout
  1
Model
 70
0
 71
0
 10
0.0
 20
0.0
 11
297.0
 21
210.0
 12
0.0
 22
0.0
 32
0.0
 14
0.0
 24
0.0
 34
0.0
 15
0.0
 25
0.0
 35
0.0
146
0.0
 13
0.0
 23
0.0
 33
0.0
 16
1.0
 26
0.0
 36
0.0
 17
0.0
 27
1.0
 37
0.0
 76
0
330
20E
345
0
346
0
  0
LAYOUT
  5
9B3
102
{ACAD_REACTORS
330
1A
102
}
100
AcDbPlotSettings
  1

  2
none_device
  4
ISO_A4_(297.00_x_210.00_MM)
  6

 40
0.0
 41
0.0
 42
0.0
 43
0.0
 44
297.0
 45
210.0
 46
0.0
 47
0.0
 48
0.0
 49
0.0
140
0.0
141
0.0
142
1.0
143
1.0
 70
0
 72
1
 73
0
 74
0
  7

 75
0
147
1.0
148
0.0
149
0.0
100
AcDbLayout
  1
Layout1
 70
0
 71
1
 10
0.0
 20
0.0
 11
297.0
 21
210.0
 12
0.0
 22
0.0
 32
0.0
 14
0.0
 24
0.0
 34
0.0
 15
0.0
 25
0.0
 35
0.0
146
0.0
 13
0.0
 23
0.0
 33
0.0
 16
1.0
 26
0.0
 36
0.0
 17
0.0
 27
1.0
 37
0.0
 76
0
330
20F
345
0
346
0
  0
ENDSEC
  0
EOF
