999
DXF file: Gewindeadapter_ASPA_M30xM16_7993857_M32236-P-4.dxf
999
Pro/ENGINEER 2010140 by Parametric Technology Corporation
  0
SECTION
  2
HEADER
  9
$ACADVER
  1
AC1015
  9
$DWGCODEPAGE
  3
ANSI_1252
  9
$EXTMAX
 10
297.0
 20
210.0
 30
0.0
  9
$EXTMIN
 10
0.0
 20
0.0
 30
0.0
  9
$LIMMIN
 10
0.0
 20
0.0
  9
$LIMMAX
 10
297.0
 20
210.0
  9
$VIEWCTR
 10
148.5
 20
105.0
  9
$VIEWSIZE
 40
210.0
  9
$CLAYER
  8
0
  9
$LTSCALE
 40
16.335
  9
$CELTYPE
  6
BYLAYER
  9
$DIMSCALE
 40
1.0
  9
$DIMASZ
 40
3.5
  9
$DIMEXO
 40
1.85625
  9
$DIMDLI
 40
11.286
  9
$DIMEXE
 40
5.346
  9
$DIMCEN
 40
2.673
  9
$DIMLFAC
 40
1.0
  9
$DIMBLK
  1
_FILLED
  9
$DIMTXT
 40
3.5
  9
$DIMTOL
 70
1
  9
$DIMLIM
 70
0
  9
$DIMTFAC
 40
1.0
  9
$DIMTP
 40
0.005
  9
$DIMTM
 40
0.005
  9
$PDMODE
 70
3
  9
$PDSIZE
 40
0.3125
  9
$HANDSEED
  5
3BB
  9
$TILEMODE
 70
1
  9
$MEASUREMENT
 70
1
  9
$INSUNITS
 70
4
  0
ENDSEC
  0
SECTION
  2
CLASSES
  0
CLASS
  1
ACDBDICTIONARYWDFLT
  2
AcDbDictionaryWithDefault
  3
AutoCAD 2000
 90
0
280
0
281
0
  0
CLASS
  1
ACDBPLACEHOLDER
  2
AcDbPlaceHolder
  3
AutoCAD 2000
 90
0
280
0
281
0
  0
CLASS
  1
LAYOUT
  2
AcDbLayout
  3
AutoCAD 2000
 90
0
280
0
281
0
  0
ENDSEC
  0
SECTION
  2
TABLES
  0
TABLE
  2
VPORT
  5
8
100
AcDbSymbolTable
 70
2
  0
VPORT
  5
1F4
100
AcDbSymbolTableRecord
100
AcDbViewportTableRecord
  2
*ACTIVE
 70
0
 10
0.0
 20
0.0
 11
1.0
 21
1.0
 12
148.5
 22
105.0
 13
0.0
 23
0.0
 14
1.0
 24
1.0
 15
0.0
 25
0.0
 16
0.0
 26
0.0
 36
1.0
 17
0.0
 27
0.0
 37
0.0
 40
210.0
 41
1.4142857143
 42
50.0
 43
0.0
 44
0.0
 50
0.0
 51
0.0
 71
0
 72
100
 73
1
 74
1
 75
0
 76
0
 77
0
 78
0
  0
ENDTAB
  0
TABLE
  2
LTYPE
  5
5
100
AcDbSymbolTable
 70
6
  0
LTYPE
  5
14
100
AcDbSymbolTableRecord
100
AcDbLinetypeTableRecord
  2
BYBLOCK
 70
0
  3

 72
65
 73
0
 40
0.0
  0
LTYPE
  5
15
100
AcDbSymbolTableRecord
100
AcDbLinetypeTableRecord
  2
BYLAYER
 70
0
  3

 72
65
 73
0
 40
0.0
  0
LTYPE
  5
16
100
AcDbSymbolTableRecord
100
AcDbLinetypeTableRecord
  2
CONTINUOUS
 70
64
  3
Solid line
 72
65
 73
0
 40
0.0
  0
LTYPE
  5
1F5
100
AcDbSymbolTableRecord
100
AcDbLinetypeTableRecord
  2
CENTER
 70
64
  3
____ _ ____ _ ____ _ ____ _ ____ _ ____ _ ____
 72
65
 73
4
 40
0.6
 49
0.375
 74
0
 49
-0.075
 74
0
 49
0.075
 74
0
 49
-0.075
 74
0
  0
LTYPE
  5
1F6
100
AcDbSymbolTableRecord
100
AcDbLinetypeTableRecord
  2
HIDDEN
 70
64
  3
- - - - - - - - - - - - - - - - - - - -
 72
65
 73
2
 40
0.2
 49
0.1
 74
0
 49
-0.1
 74
0
  0
LTYPE
  5
1F7
100
AcDbSymbolTableRecord
100
AcDbLinetypeTableRecord
  2
PHANTOM
 70
64
  3
_____ _ _ _____ _ _ _____ _ _ _____
 72
65
 73
6
 40
0.8
 49
0.45
 74
0
 49
-0.05
 74
0
 49
0.1
 74
0
 49
-0.05
 74
0
 49
0.1
 74
0
 49
-0.05
 74
0
  0
LTYPE
  5
1F8
100
AcDbSymbolTableRecord
100
AcDbLinetypeTableRecord
  2
DOT
 70
64
  3
. . . . . . . . . . . . . . . . . . . .
 72
65
 73
2
 40
0.2
 49
0.1
 74
0
 49
-0.1
 74
0
  0
LTYPE
  5
1F9
100
AcDbSymbolTableRecord
100
AcDbLinetypeTableRecord
  2
DASHED
 70
64
  3
- - - - - - - - - - - - - - - - - - - -
 72
65
 73
2
 40
0.2
 49
0.1
 74
0
 49
-0.1
 74
0
  0
ENDTAB
  0
TABLE
  2
LAYER
  5
2
100
AcDbSymbolTable
 70
36
  0
LAYER
  5
10
100
AcDbSymbolTableRecord
100
AcDbLayerTableRecord
  2
0
 70
0
 62
7
  6
CONTINUOUS
370
-3
390
F
  0
LAYER
  5
1FA
100
AcDbSymbolTableRecord
100
AcDbLayerTableRecord
  2
DEFAULT_1
 70
0
 62
7
  6
CENTER
370
-3
390
F
  0
LAYER
  5
1FB
100
AcDbSymbolTableRecord
100
AcDbLayerTableRecord
  2
DEFAULT_2
 70
0
 62
8
  6
HIDDEN
370
-3
390
F
  0
LAYER
  5
1FC
100
AcDbSymbolTableRecord
100
AcDbLayerTableRecord
  2
DEFAULT_3
 70
0
 62
7
  6
PHANTOM
370
-3
390
F
  0
LAYER
  5
1FD
100
AcDbSymbolTableRecord
100
AcDbLayerTableRecord
  2
BEZUGSACHSEN
 70
0
 62
7
  6
CONTINUOUS
370
-3
390
F
  0
LAYER
  5
1FE
100
AcDbSymbolTableRecord
100
AcDbLayerTableRecord
  2
BEZUGSEBENEN
 70
0
 62
7
  6
CONTINUOUS
370
-3
390
F
  0
LAYER
  5
1FF
100
AcDbSymbolTableRecord
100
AcDbLayerTableRecord
  2
BOHRUNGEN
 70
0
 62
7
  6
CONTINUOUS
370
-3
390
F
  0
LAYER
  5
200
100
AcDbSymbolTableRecord
100
AcDbLayerTableRecord
  2
FASEN
 70
0
 62
7
  6
CONTINUOUS
370
-3
390
F
  0
LAYER
  5
201
100
AcDbSymbolTableRecord
100
AcDbLayerTableRecord
  2
GEWINDE
 70
0
 62
7
  6
CONTINUOUS
370
-3
390
F
  0
LAYER
  5
202
100
AcDbSymbolTableRecord
100
AcDbLayerTableRecord
  2
HILFEN
 70
0
 62
7
  6
CONTINUOUS
370
-3
390
F
  0
LAYER
  5
203
100
AcDbSymbolTableRecord
100
AcDbLayerTableRecord
  2
KONSTRUKTIONSELEMENTE
 70
0
 62
7
  6
CONTINUOUS
370
-3
390
F
  0
LAYER
  5
204
100
AcDbSymbolTableRecord
100
AcDbLayerTableRecord
  2
PLATZIERUNG
 70
0
 62
7
  6
CONTINUOUS
370
-3
390
F
  0
LAYER
  5
205
100
AcDbSymbolTableRecord
100
AcDbLayerTableRecord
  2
RUNDUNGEN
 70
0
 62
7
  6
CONTINUOUS
370
-3
390
F
  0
LAYER
  5
206
100
AcDbSymbolTableRecord
100
AcDbLayerTableRecord
  2
TEIL_STARTBEZUEGE
 70
0
 62
7
  6
CONTINUOUS
370
-3
390
F
  0
LAYER
  5
207
100
AcDbSymbolTableRecord
100
AcDbLayerTableRecord
  2
ZEICHNUNGSBEMASSUNGEN
 70
0
 62
7
  6
CONTINUOUS
370
-3
390
F
  0
ENDTAB
  0
TABLE
  2
STYLE
  5
3
100
AcDbSymbolTable
 70
1
  0
STYLE
  5
11
100
AcDbSymbolTableRecord
100
AcDbTextStyleTableRecord
  2
STANDARD
 70
0
 40
0.0
 41
0.7
 50
0.0
 71
0
 42
0.2
  3
txt
  4

  0
STYLE
  5
208
100
AcDbSymbolTableRecord
100
AcDbTextStyleTableRecord
  2
TEXTSTYLE_1
 70
0
 40
0.0
 41
0.8
 50
0.0
 71
0
 42
0.2
  3
gdt
  4

  0
ENDTAB
  0
TABLE
  2
VIEW
  5
6
100
AcDbSymbolTable
 70
0
  0
ENDTAB
  0
TABLE
  2
UCS
  5
7
100
AcDbSymbolTable
 70
0
  0
ENDTAB
  0
TABLE
  2
APPID
  5
9
100
AcDbSymbolTable
 70
1
  0
APPID
  5
209
100
AcDbSymbolTableRecord
100
AcDbRegAppTableRecord
  2
ACAD
 70
0
  0
ENDTAB
  0
TABLE
  2
BLOCK_RECORD
  5
1
100
AcDbSymbolTable
 70
0
  0
BLOCK_RECORD
  5
20A
100
AcDbSymbolTableRecord
100
AcDbBlockTableRecord
  2
*Model_Space
  0
BLOCK_RECORD
  5
20B
100
AcDbSymbolTableRecord
100
AcDbBlockTableRecord
  2
*Paper_Space
  0
ENDTAB
  0
TABLE
  2
DIMSTYLE
  5
A
100
AcDbSymbolTable
 70
1
100
AcDbDimStyleTable
 71
0
  0
DIMSTYLE
105
20C
100
AcDbSymbolTableRecord
100
AcDbDimStyleTableRecord
  2
STANDARD
 70
0
  3

  4

 40
1.0
 41
3.5
 42
0.0625
 43
0.38
 44
0.18
 45
0.0
 46
0.0
 47
0.005
 48
0.005
140
3.5
141
0.09
142
0.0
143
25.4
144
1.0
145
0.0
146
1.0
147
0.09
 71
1.0
 72
0.0
 73
0
 74
0
 75
0
 76
0
 77
1
 78
8
170
0
171
2
172
0
173
0
174
0
175
0
176
0
177
0
178
5
270
2
271
3
272
3
273
2
274
2
275
0
280
0
281
0
282
0
283
1
284
8
285
0
286
0
287
3
288
0
340
11
  0
ENDTAB
  0
ENDSEC
  0
SECTION
  2
BLOCKS
  0
BLOCK
  5
20
100
AcDbEntity
  8
0
100
AcDbBlockBegin
  2
*Model_Space
 70
0
 10
0.0
 20
0.0
 30
0.0
  3
*Model_Space
  1

  0
ENDBLK
  5
21
100
AcDbEntity
  8
0
100
AcDbBlockEnd
  0
BLOCK
  5
1C
100
AcDbEntity
  8
0
100
AcDbBlockBegin
  2
*Paper_Space
 70
0
 10
0.0
 20
0.0
 30
0.0
  3
*Paper_Space
  1

  0
ENDBLK
  5
1D
100
AcDbEntity
  8
0
100
AcDbBlockEnd
  0
ENDSEC
  0
SECTION
  2
ENTITIES
  0
MTEXT
  5
20D
100
AcDbEntity
  8
0
100
AcDbMText
 62
5
  6
CONTINUOUS
  7
STANDARD
 71
1
 72
1
 10
72.9947375425
 20
75.9879862657
 30
0.0
 11
0.0
 21
1.0
 31
0.0
 44
0.9
  1
ASPA\PM30/M16
 40
2.5
 41
13.3333333333
  0
LINE
  5
20E
100
AcDbEntity
  8
0
100
AcDbLine
 62
7
  6
CONTINUOUS
 10
0.0
 20
0.0
 11
0.0
 21
210.0
  0
LINE
  5
20F
100
AcDbEntity
  8
0
100
AcDbLine
 62
7
  6
CONTINUOUS
 10
0.0
 20
0.0
 11
297.0
 21
0.0
  0
LINE
  5
210
100
AcDbEntity
  8
0
100
AcDbLine
 62
7
  6
CONTINUOUS
 10
0.0
 20
210.0
 11
297.0
 21
210.0
  0
LINE
  5
211
100
AcDbEntity
  8
0
100
AcDbLine
 62
7
  6
CONTINUOUS
 10
297.0
 20
0.0
 11
297.0
 21
210.0
  0
LINE
  5
212
100
AcDbEntity
  8
KONSTRUKTIONSELEMENTE
100
AcDbLine
 62
7
  6
CONTINUOUS
 10
157.4344416186
 20
74.7367197438
 11
179.4571571641
 21
74.7367197438
  0
LINE
  5
213
100
AcDbEntity
  8
KONSTRUKTIONSELEMENTE
100
AcDbLine
 62
7
  6
CONTINUOUS
 10
149.7260872304
 20
86.5979416865
 11
154.2256004982
 21
81.2356305846
  0
LINE
  5
214
100
AcDbEntity
  8
KONSTRUKTIONSELEMENTE
100
AcDbLine
 62
7
  6
CONTINUOUS
 10
166.1801743914
 20
118.4069325193
 11
165.8676742424
 21
118.2473580702
  0
LINE
  5
215
100
AcDbEntity
  8
KONSTRUKTIONSELEMENTE
100
AcDbLine
 62
7
  6
CONTINUOUS
 10
166.2582995404
 20
117.9282091721
 11
166.4926745404
 21
118.0079963966
  0
LINE
  5
216
100
AcDbEntity
  8
KONSTRUKTIONSELEMENTE
100
AcDbLine
 62
7
  6
CONTINUOUS
 10
178.879574176
 20
80.8381641517
 11
178.5644895093
 21
80.7492737022
  0
LINE
  5
217
100
AcDbEntity
  8
KONSTRUKTIONSELEMENTE
100
AcDbLine
 62
7
  6
CONTINUOUS
 10
178.8181866817
 20
80.4349167081
 11
179.0231274754
 21
80.460573039
  0
LINE
  5
218
100
AcDbEntity
  8
KONSTRUKTIONSELEMENTE
100
AcDbLine
 62
7
  6
CONTINUOUS
 10
182.2749324736
 20
78.9953225867
 11
182.5732618547
 21
79.0266992964
  0
LINE
  5
219
100
AcDbEntity
  8
KONSTRUKTIONSELEMENTE
100
AcDbLine
 62
7
  6
CONTINUOUS
 10
165.8676742424
 20
118.2473580702
 11
165.5551745404
 21
117.9282091721
  0
LINE
  5
21A
100
AcDbEntity
  8
KONSTRUKTIONSELEMENTE
100
AcDbLine
 62
7
  6
CONTINUOUS
 10
166.0239245404
 20
117.768634723
 11
166.2582995404
 21
117.9282091721
  0
LINE
  5
21B
100
AcDbEntity
  8
KONSTRUKTIONSELEMENTE
100
AcDbLine
 62
7
  6
CONTINUOUS
 10
170.9457990934
 20
116.9707622542
 11
170.7114240934
 21
116.8909750297
  0
LINE
  5
21C
100
AcDbEntity
  8
KONSTRUKTIONSELEMENTE
100
AcDbLine
 62
7
  6
CONTINUOUS
 10
183.5531830919
 20
84.5902143663
 11
183.2627236335
 21
84.5152608518
  0
LINE
  5
21D
100
AcDbEntity
  8
KONSTRUKTIONSELEMENTE
100
AcDbLine
 62
7
  6
CONTINUOUS
 10
182.327540323
 20
79.4424270763
 11
182.0791545712
 21
79.4502702859
  0
LINE
  5
21E
100
AcDbEntity
  8
KONSTRUKTIONSELEMENTE
100
AcDbLine
 62
7
  6
CONTINUOUS
 10
167.5082992424
 20
115.4548048763
 11
167.2739242424
 21
115.2952303714
  0
LINE
  5
21F
100
AcDbEntity
  8
KONSTRUKTIONSELEMENTE
100
AcDbLine
 62
7
  6
CONTINUOUS
 10
167.3520493914
 20
114.8165069753
 11
167.6645495404
 21
114.9760814453
  0
LINE
  5
220
100
AcDbEntity
  8
KONSTRUKTIONSELEMENTE
100
AcDbLine
 62
7
  6
CONTINUOUS
 10
183.5669694538
 20
84.1402366682
 11
183.8138034846
 21
84.1690453662
  0
LINE
  5
221
100
AcDbEntity
  8
KONSTRUKTIONSELEMENTE
100
AcDbLine
 62
7
  6
CONTINUOUS
 10
181.8780483232
 20
79.0894487235
 11
182.2749324736
 21
78.9953225867
  0
LINE
  5
222
100
AcDbEntity
  8
KONSTRUKTIONSELEMENTE
100
AcDbLine
 62
7
  6
CONTINUOUS
 10
179.2190369534
 20
80.7570478934
 11
178.879574176
 21
80.8381641517
  0
LINE
  5
223
100
AcDbEntity
  8
KONSTRUKTIONSELEMENTE
100
AcDbLine
 62
7
  6
CONTINUOUS
 10
162.35204941
 20
116.0133154481
 11
163.0551743541
 21
118.1675708457
  0
LINE
  5
224
100
AcDbEntity
  8
KONSTRUKTIONSELEMENTE
100
AcDbLine
 62
7
  6
CONTINUOUS
 10
161.9614243914
 20
114.7367197438
 11
162.2739243727
 21
115.6941665499
  0
LINE
  5
225
100
AcDbEntity
  8
KONSTRUKTIONSELEMENTE
100
AcDbLine
 62
7
  6
CONTINUOUS
 10
162.7426744286
 20
118.4867197438
 11
161.4926743914
 21
114.7367197438
  0
LINE
  5
226
100
AcDbEntity
  8
KONSTRUKTIONSELEMENTE
100
AcDbLine
 62
7
  6
CONTINUOUS
 10
167.6645495404
 20
114.9760814453
 11
167.9770492424
 21
115.2952303714
  0
LINE
  5
227
100
AcDbEntity
  8
KONSTRUKTIONSELEMENTE
100
AcDbLine
 62
7
  6
CONTINUOUS
 10
171.1020493914
 20
117.1303367033
 11
170.9457990934
 21
116.9707622542
  0
LINE
  5
228
100
AcDbEntity
  8
KONSTRUKTIONSELEMENTE
100
AcDbLine
 62
7
  6
CONTINUOUS
 10
171.0239246894
 20
116.492038907
 11
171.3364243914
 21
116.7314005806
  0
LINE
  5
229
100
AcDbEntity
  8
KONSTRUKTIONSELEMENTE
100
AcDbLine
 62
7
  6
CONTINUOUS
 10
190.1708677964
 20
90.4725761678
 11
190.4357538022
 21
90.5296682233
  0
LINE
  5
22A
100
AcDbEntity
  8
KONSTRUKTIONSELEMENTE
100
AcDbLine
 62
7
  6
CONTINUOUS
 10
183.9595997992
 20
84.5555416012
 11
183.5531830919
 21
84.5902143663
  0
LINE
  5
22B
100
AcDbEntity
  8
KONSTRUKTIONSELEMENTE
100
AcDbLine
 62
7
  6
CONTINUOUS
 10
179.0231274754
 20
80.460573039
 11
179.2127214743
 21
80.3854175543
  0
LINE
  5
22C
100
AcDbEntity
  8
KONSTRUKTIONSELEMENTE
100
AcDbLine
 62
7
  6
CONTINUOUS
 10
182.0791545712
 20
79.4502702859
 11
181.8314346934
 21
79.5600844271
  0
LINE
  5
22D
100
AcDbEntity
  8
KONSTRUKTIONSELEMENTE
100
AcDbLine
 62
7
  6
CONTINUOUS
 10
167.6645495404
 20
115.6941665499
 11
167.5082992424
 21
115.4548048763
  0
LINE
  5
22E
100
AcDbEntity
  8
KONSTRUKTIONSELEMENTE
100
AcDbLine
 62
7
  6
CONTINUOUS
 10
171.3364243914
 20
116.7314005806
 11
171.5707993914
 21
117.0505494787
  0
LINE
  5
22F
100
AcDbEntity
  8
KONSTRUKTIONSELEMENTE
100
AcDbLine
 62
7
  6
CONTINUOUS
 10
190.7487700585
 20
93.7001367883
 11
191.0820429205
 21
93.7832953259
  0
LINE
  5
230
100
AcDbEntity
  8
KONSTRUKTIONSELEMENTE
100
AcDbLine
 62
7
  6
CONTINUOUS
 10
189.9137210525
 20
92.7889947614
 11
189.6488346513
 21
92.7319013072
  0
LINE
  5
231
100
AcDbEntity
  8
KONSTRUKTIONSELEMENTE
100
AcDbLine
 62
7
  6
CONTINUOUS
 10
188.2572320466
 20
92.7953887479
 11
188.5221180523
 21
92.8524808034
  0
LINE
  5
232
100
AcDbEntity
  8
KONSTRUKTIONSELEMENTE
100
AcDbLine
 62
7
  6
CONTINUOUS
 10
190.1804733749
 20
90.7998180583
 11
190.0096417709
 21
90.7821263202
  0
LINE
  5
233
100
AcDbEntity
  8
KONSTRUKTIONSELEMENTE
100
AcDbLine
 62
7
  6
CONTINUOUS
 10
183.8138034846
 20
84.1690453662
 11
184.0749908749
 21
84.0968959543
  0
LINE
  5
234
100
AcDbEntity
  8
KONSTRUKTIONSELEMENTE
100
AcDbLine
 62
7
  6
CONTINUOUS
 10
179.5431529359
 20
80.5751198194
 11
179.2190369534
 21
80.7570478934
  0
LINE
  5
235
100
AcDbEntity
  8
KONSTRUKTIONSELEMENTE
100
AcDbLine
 62
7
  6
CONTINUOUS
 10
181.5810510285
 20
79.2620143292
 11
181.8780483232
 21
79.0894487235
  0
LINE
  5
236
100
AcDbEntity
  8
KONSTRUKTIONSELEMENTE
100
AcDbLine
 62
7
  6
CONTINUOUS
 10
165.5551745404
 20
117.9282091721
 11
165.4770493914
 21
117.609060274
  0
LINE
  5
237
100
AcDbEntity
  8
KONSTRUKTIONSELEMENTE
100
AcDbLine
 62
7
  6
CONTINUOUS
 10
165.9457993914
 20
117.5292728259
 11
166.0239245404
 21
117.768634723
  0
LINE
  5
238
100
AcDbEntity
  8
KONSTRUKTIONSELEMENTE
100
AcDbLine
 62
7
  6
CONTINUOUS
 10
167.9770492424
 20
115.2952303714
 11
168.1332995404
 21
115.6143793254
  0
LINE
  5
239
100
AcDbEntity
  8
KONSTRUKTIONSELEMENTE
100
AcDbLine
 62
7
  6
CONTINUOUS
 10
189.0439275293
 20
95.9808375838
 11
188.7106547227
 21
95.8976790387
  0
LINE
  5
23A
100
AcDbEntity
  8
KONSTRUKTIONSELEMENTE
100
AcDbLine
 62
7
  6
CONTINUOUS
 10
190.5030638043
 20
93.669232715
 11
190.7487700585
 21
93.7001367883
  0
LINE
  5
23B
100
AcDbEntity
  8
KONSTRUKTIONSELEMENTE
100
AcDbLine
 62
7
  6
CONTINUOUS
 10
189.8100610184
 20
92.4223525686
 11
190.1517247294
 21
92.4577374129
  0
LINE
  5
23C
100
AcDbEntity
  8
KONSTRUKTIONSELEMENTE
100
AcDbLine
 62
7
  6
CONTINUOUS
 10
189.9232581456
 20
90.4765902271
 11
190.1708677964
 21
90.4725761678
  0
LINE
  5
23D
100
AcDbEntity
  8
KONSTRUKTIONSELEMENTE
100
AcDbLine
 62
7
  6
CONTINUOUS
 10
186.6056136436
 20
88.0118617149
 11
189.6569573759
 21
87.5705690778
  0
LINE
  5
23E
100
AcDbEntity
  8
KONSTRUKTIONSELEMENTE
100
AcDbLine
 62
7
  6
CONTINUOUS
 10
189.289634005
 20
96.0117416271
 11
189.0439275293
 21
95.9808375838
  0
LINE
  5
23F
100
AcDbEntity
  8
KONSTRUKTIONSELEMENTE
100
AcDbLine
 62
7
  6
CONTINUOUS
 10
190.0992181265
 20
93.6596819359
 11
190.5030638043
 21
93.669232715
  0
LINE
  5
240
100
AcDbEntity
  8
KONSTRUKTIONSELEMENTE
100
AcDbLine
 62
7
  6
CONTINUOUS
 10
189.4026701792
 20
87.969328638
 11
185.9629085367
 21
88.5215903098
  0
LINE
  5
241
100
AcDbEntity
  8
KONSTRUKTIONSELEMENTE
100
AcDbLine
 62
7
  6
CONTINUOUS
 10
184.2787656515
 20
84.428579203
 11
183.9595997992
 21
84.5555416012
  0
LINE
  5
242
100
AcDbEntity
  8
KONSTRUKTIONSELEMENTE
100
AcDbLine
 62
7
  6
CONTINUOUS
 10
181.8314346934
 20
79.5600844271
 11
181.5843812269
 21
79.7718699929
  0
LINE
  5
243
100
AcDbEntity
  8
KONSTRUKTIONSELEMENTE
100
AcDbLine
 62
7
  6
CONTINUOUS
 10
181.2847197508
 20
79.5365509788
 11
181.5810510285
 21
79.2620143292
  0
LINE
  5
244
100
AcDbEntity
  8
KONSTRUKTIONSELEMENTE
100
AcDbLine
 62
7
  6
CONTINUOUS
 10
181.2025744859
 20
77.9397562864
 11
179.7932507348
 21
79.2466835202
  0
LINE
  5
245
100
AcDbEntity
  8
KONSTRUKTIONSELEMENTE
100
AcDbLine
 62
7
  6
CONTINUOUS
 10
179.5422693203
 20
78.9185916066
 11
180.817071009
 21
77.7184369168
  0
LINE
  5
246
100
AcDbEntity
  8
KONSTRUKTIONSELEMENTE
100
AcDbLine
 62
7
  6
CONTINUOUS
 10
179.2127214743
 20
80.3854175543
 11
179.3869685208
 21
80.2094501634
  0
LINE
  5
247
100
AcDbEntity
  8
KONSTRUKTIONSELEMENTE
100
AcDbLine
 62
7
  6
CONTINUOUS
 10
165.4770493914
 20
117.609060274
 11
165.4770493914
 21
117.2899111523
  0
LINE
  5
248
100
AcDbEntity
  8
KONSTRUKTIONSELEMENTE
100
AcDbLine
 62
7
  6
CONTINUOUS
 10
165.9457993914
 20
117.3696983769
 11
165.9457993914
 21
117.5292728259
  0
LINE
  5
249
100
AcDbEntity
  8
KONSTRUKTIONSELEMENTE
100
AcDbLine
 62
7
  6
CONTINUOUS
 10
171.1801740934
 20
117.3696983769
 11
171.1020493914
 21
117.1303367033
  0
LINE
  5
24A
100
AcDbEntity
  8
KONSTRUKTIONSELEMENTE
100
AcDbLine
 62
7
  6
CONTINUOUS
 10
171.5707993914
 20
117.0505494787
 11
171.6489240934
 21
117.2899111523
  0
LINE
  5
24B
100
AcDbEntity
  8
KONSTRUKTIONSELEMENTE
100
AcDbLine
 62
7
  6
CONTINUOUS
 10
185.5453003318
 20
116.6538301889
 11
182.6659982845
 21
114.237808903
  0
LINE
  5
24C
100
AcDbEntity
  8
KONSTRUKTIONSELEMENTE
100
AcDbLine
 62
7
  6
CONTINUOUS
 10
146.8467851832
 20
84.1819204006
 11
149.7260872304
 21
86.5979416865
  0
LINE
  5
24D
100
AcDbEntity
  8
KONSTRUKTIONSELEMENTE
100
AcDbLine
 62
7
  6
CONTINUOUS
 10
189.6934797665
 20
96.0212938616
 11
189.289634005
 21
96.0117416271
  0
LINE
  5
24E
100
AcDbEntity
  8
KONSTRUKTIONSELEMENTE
100
AcDbLine
 62
7
  6
CONTINUOUS
 10
190.545548576
 20
93.9838904324
 11
190.0626329501
 21
93.9850141323
  0
LINE
  5
24F
100
AcDbEntity
  8
KONSTRUKTIONSELEMENTE
100
AcDbLine
 62
7
  6
CONTINUOUS
 10
189.2471494277
 20
95.6970853502
 11
189.7300647484
 21
95.6959602248
  0
LINE
  5
250
100
AcDbEntity
  8
KONSTRUKTIONSELEMENTE
100
AcDbLine
 62
7
  6
CONTINUOUS
 10
190.2381079593
 20
92.7632721073
 11
189.9137210525
 21
92.7889947614
  0
LINE
  5
251
100
AcDbEntity
  8
KONSTRUKTIONSELEMENTE
100
AcDbLine
 62
7
  6
CONTINUOUS
 10
188.6085016776
 20
93.1580168965
 11
188.284114483
 21
93.1837381215
  0
LINE
  5
252
100
AcDbEntity
  8
KONSTRUKTIONSELEMENTE
100
AcDbLine
 62
7
  6
CONTINUOUS
 10
184.0749908749
 20
84.0968959543
 11
184.3505308004
 21
83.9237882115
  0
LINE
  5
253
100
AcDbEntity
  8
KONSTRUKTIONSELEMENTE
100
AcDbLine
 62
7
  6
CONTINUOUS
 10
184.612284364
 20
84.2006581668
 11
184.2787656515
 21
84.428579203
  0
LINE
  5
254
100
AcDbEntity
  8
KONSTRUKTIONSELEMENTE
100
AcDbLine
 62
7
  6
CONTINUOUS
 10
179.7173999824
 20
80.3991524285
 11
179.5431529359
 21
80.5751198194
  0
LINE
  5
255
100
AcDbEntity
  8
KONSTRUKTIONSELEMENTE
100
AcDbLine
 62
7
  6
CONTINUOUS
 10
167.6645495404
 20
115.9335282235
 11
167.6645495404
 21
115.6941665499
  0
LINE
  5
256
100
AcDbEntity
  8
KONSTRUKTIONSELEMENTE
100
AcDbLine
 62
7
  6
CONTINUOUS
 10
168.1332995404
 20
115.6143793254
 11
168.1332995404
 21
116.0133154481
  0
LINE
  5
257
100
AcDbEntity
  8
TEIL_STARTBEZUEGE
100
AcDbLine
 62
7
  6
CENTER
 10
168.4457993914
 20
97.7367197438
 11
168.4457993914
 21
71.6979292529
  0
LINE
  5
258
100
AcDbEntity
  8
TEIL_STARTBEZUEGE
100
AcDbLine
 62
7
  6
CENTER
 10
168.4457993914
 20
97.7367197438
 11
168.4457993914
 21
124.2932039975
  0
LINE
  5
259
100
AcDbEntity
  8
KONSTRUKTIONSELEMENTE
100
AcDbLine
 62
7
  6
CONTINUOUS
 10
173.1332996894
 20
116.0133154481
 11
173.8364246894
 21
118.1675708457
  0
LINE
  5
25A
100
AcDbEntity
  8
KONSTRUKTIONSELEMENTE
100
AcDbLine
 62
7
  6
CONTINUOUS
 10
172.7426743914
 20
114.7367197438
 11
173.0551740934
 21
115.6941665499
  0
LINE
  5
25B
100
AcDbEntity
  8
KONSTRUKTIONSELEMENTE
100
AcDbLine
 62
7
  6
CONTINUOUS
 10
173.5239240934
 20
118.4867197438
 11
172.2739243914
 21
114.7367197438
  0
LINE
  5
25C
100
AcDbEntity
  8
KONSTRUKTIONSELEMENTE
100
AcDbLine
 62
7
  6
CONTINUOUS
 10
189.3592221617
 20
106.0685015851
 11
188.9815955164
 21
105.9398616384
  0
LINE
  5
25D
100
AcDbEntity
  8
KONSTRUKTIONSELEMENTE
100
AcDbLine
 62
7
  6
CONTINUOUS
 10
189.1595043781
 20
105.6650397963
 11
189.3860803018
 21
105.7422237427
  0
LINE
  5
25E
100
AcDbEntity
  8
KONSTRUKTIONSELEMENTE
100
AcDbLine
 62
7
  6
CONTINUOUS
 10
188.3448532091
 20
101.9115109828
 11
188.9669854142
 21
102.0542550942
  0
LINE
  5
25F
100
AcDbEntity
  8
KONSTRUKTIONSELEMENTE
100
AcDbLine
 62
7
  6
CONTINUOUS
 10
188.3374125681
 20
102.3007185601
 11
191.3703064419
 21
102.9965959597
  0
LINE
  5
260
100
AcDbEntity
  8
KONSTRUKTIONSELEMENTE
100
AcDbLine
 62
7
  6
CONTINUOUS
 10
188.2676595482
 20
98.2630364198
 11
191.9975987495
 21
98.6504038872
  0
LINE
  5
261
100
AcDbEntity
  8
KONSTRUKTIONSELEMENTE
100
AcDbLine
 62
7
  6
CONTINUOUS
 10
191.9582407372
 20
99.029379938
 11
189.0219055267
 21
98.7244310708
  0
LINE
  5
262
100
AcDbEntity
  8
TEIL_STARTBEZUEGE
100
AcDbLine
 62
7
  6
CENTER
 10
168.4457993914
 20
97.7367197438
 11
140.6666109968
 21
97.7367197438
  0
LINE
  5
263
100
AcDbEntity
  8
TEIL_STARTBEZUEGE
100
AcDbLine
 62
7
  6
CENTER
 10
168.4457993914
 20
97.7367197438
 11
195.7878289321
 21
97.7367197438
  0
LINE
  5
264
100
AcDbEntity
  8
KONSTRUKTIONSELEMENTE
100
AcDbLine
 62
7
  6
CONTINUOUS
 10
189.3875903436
 20
93.7557652107
 11
190.0992181265
 21
93.6596819359
  0
LINE
  5
265
100
AcDbEntity
  8
KONSTRUKTIONSELEMENTE
100
AcDbLine
 62
7
  6
CONTINUOUS
 10
190.0626329501
 20
93.9850141323
 11
189.5091446745
 21
94.0597455682
  0
LINE
  5
266
100
AcDbEntity
  8
KONSTRUKTIONSELEMENTE
100
AcDbLine
 62
7
  6
CONTINUOUS
 10
189.0480209628
 20
91.7799109505
 11
189.3551313533
 21
91.6930822272
  0
LINE
  5
267
100
AcDbEntity
  8
KONSTRUKTIONSELEMENTE
100
AcDbLine
 62
7
  6
CONTINUOUS
 10
185.7214738065
 20
88.0035690298
 11
189.120435958
 21
86.4194111169
  0
LINE
  5
268
100
AcDbEntity
  8
KONSTRUKTIONSELEMENTE
100
AcDbLine
 62
7
  6
CONTINUOUS
 10
189.2813924448
 20
86.7647586369
 11
186.6056136436
 21
88.0118617149
  0
LINE
  5
269
100
AcDbEntity
  8
KONSTRUKTIONSELEMENTE
100
AcDbLine
 62
7
  6
CONTINUOUS
 10
181.9396026187
 20
83.2318690315
 11
184.6645982956
 21
80.6556511523
  0
LINE
  5
26A
100
AcDbEntity
  8
KONSTRUKTIONSELEMENTE
100
AcDbLine
 62
7
  6
CONTINUOUS
 10
184.5784800715
 20
81.261399985
 11
182.5492279293
 21
83.1798601479
  0
LINE
  5
26B
100
AcDbEntity
  8
KONSTRUKTIONSELEMENTE
100
AcDbLine
 62
7
  6
CONTINUOUS
 10
179.7571162569
 20
81.4818417992
 11
181.2847197508
 21
79.5365509788
  0
LINE
  5
26C
100
AcDbEntity
  8
KONSTRUKTIONSELEMENTE
100
AcDbLine
 62
7
  6
CONTINUOUS
 10
181.5843812269
 20
79.7718699929
 11
180.056777733
 21
81.7171608132
  0
LINE
  5
26D
100
AcDbEntity
  8
KONSTRUKTIONSELEMENTE
100
AcDbLine
 62
7
  6
CONTINUOUS
 10
177.242763663
 20
79.9904646417
 11
179.1098418433
 21
76.7383085771
  0
LINE
  5
26E
100
AcDbEntity
  8
KONSTRUKTIONSELEMENTE
100
AcDbLine
 62
7
  6
CONTINUOUS
 10
179.4402733049
 20
76.9280108422
 11
178.6060468721
 21
78.3811018704
  0
LINE
  5
26F
100
AcDbEntity
  8
KONSTRUKTIONSELEMENTE
100
AcDbLine
 62
7
  6
CONTINUOUS
 10
178.3676964945
 20
78.7962706803
 11
177.7718204392
 21
79.8341928986
  0
LINE
  5
270
100
AcDbEntity
  8
KONSTRUKTIONSELEMENTE
100
AcDbLine
 62
7
  6
CONTINUOUS
 10
168.7582993914
 20
118.4867197438
 11
168.7582993914
 21
114.7367197438
  0
LINE
  5
271
100
AcDbEntity
  8
KONSTRUKTIONSELEMENTE
100
AcDbLine
 62
7
  6
CONTINUOUS
 10
169.2270493914
 20
114.7367197438
 11
169.2270493914
 21
116.4122516825
  0
LINE
  5
272
100
AcDbEntity
  8
KONSTRUKTIONSELEMENTE
100
AcDbLine
 62
7
  6
CONTINUOUS
 10
169.2270493914
 20
116.8909750297
 11
169.2270493914
 21
118.0877836212
  0
LINE
  5
273
100
AcDbEntity
  8
KONSTRUKTIONSELEMENTE
100
AcDbLine
 62
7
  6
CONTINUOUS
 10
189.8980012913
 20
104.2394634347
 11
189.6714253676
 21
104.1622794883
  0
LINE
  5
274
100
AcDbEntity
  8
KONSTRUKTIONSELEMENTE
100
AcDbLine
 62
7
  6
CONTINUOUS
 10
189.0876993007
 20
103.8963461735
 11
188.9366486849
 21
103.8448902092
  0
LINE
  5
275
100
AcDbEntity
  8
KONSTRUKTIONSELEMENTE
100
AcDbLine
 62
7
  6
CONTINUOUS
 10
189.0390330703
 20
103.5443375973
 11
189.5677102256
 21
103.7244334722
  0
LINE
  5
276
100
AcDbEntity
  8
KONSTRUKTIONSELEMENTE
100
AcDbLine
 62
7
  6
CONTINUOUS
 10
191.2850993025
 20
103.3679605293
 11
187.6300734414
 21
102.5293390683
  0
LINE
  5
277
100
AcDbEntity
  8
KONSTRUKTIONSELEMENTE
100
AcDbLine
 62
7
  6
CONTINUOUS
 10
188.4898784755
 20
103.4243538957
 11
189.0390330703
 21
103.5443375973
  0
LINE
  5
278
100
AcDbEntity
  8
KONSTRUKTIONSELEMENTE
100
AcDbLine
 62
7
  6
CONTINUOUS
 10
188.9366486849
 20
103.8448902092
 11
188.4630203353
 21
103.7506317381
  0
LINE
  5
279
100
AcDbEntity
  8
KONSTRUKTIONSELEMENTE
100
AcDbLine
 62
7
  6
CONTINUOUS
 10
188.7857574528
 20
100.9982873755
 11
191.7220926633
 21
101.3032362426
  0
LINE
  5
27A
100
AcDbEntity
  8
KONSTRUKTIONSELEMENTE
100
AcDbLine
 62
7
  6
CONTINUOUS
 10
191.682734651
 20
101.6822122934
 11
187.9527954497
 21
101.294844826
  0
LINE
  5
27B
100
AcDbEntity
  8
KONSTRUKTIONSELEMENTE
100
AcDbLine
 62
7
  6
CONTINUOUS
 10
189.7300647484
 20
95.6959602248
 11
190.283553024
 21
95.6212287889
  0
LINE
  5
27C
100
AcDbEntity
  8
KONSTRUKTIONSELEMENTE
100
AcDbLine
 62
7
  6
CONTINUOUS
 10
190.4051075494
 20
95.9252105868
 11
189.6934797665
 21
96.0212938616
  0
LINE
  5
27D
100
AcDbEntity
  8
KONSTRUKTIONSELEMENTE
100
AcDbLine
 62
7
  6
CONTINUOUS
 10
189.5091446745
 20
94.0597455682
 11
189.0432231458
 21
94.1867329163
  0
LINE
  5
27E
100
AcDbEntity
  8
KONSTRUKTIONSELEMENTE
100
AcDbLine
 62
7
  6
CONTINUOUS
 10
188.5221180523
 20
92.8524808034
 11
188.6756734627
 21
92.8090663809
  0
LINE
  5
27F
100
AcDbEntity
  8
KONSTRUKTIONSELEMENTE
100
AcDbLine
 62
7
  6
CONTINUOUS
 10
190.1517247294
 20
92.4577374129
 11
190.4588351199
 21
92.3709086895
  0
LINE
  5
280
100
AcDbEntity
  8
KONSTRUKTIONSELEMENTE
100
AcDbLine
 62
7
  6
CONTINUOUS
 10
188.762057088
 20
93.114602474
 11
188.6085016776
 21
93.1580168965
  0
LINE
  5
281
100
AcDbEntity
  8
KONSTRUKTIONSELEMENTE
100
AcDbLine
 62
7
  6
CONTINUOUS
 10
190.5452183498
 20
92.6764433839
 11
190.2381079593
 21
92.7632721073
  0
LINE
  5
282
100
AcDbEntity
  8
KONSTRUKTIONSELEMENTE
100
AcDbLine
 62
7
  6
CONTINUOUS
 10
189.0007383741
 20
93.8720751989
 11
189.3875903436
 21
93.7557652107
  0
LINE
  5
283
100
AcDbEntity
  8
KONSTRUKTIONSELEMENTE
100
AcDbLine
 62
7
  6
CONTINUOUS
 10
187.5713525641
 20
90.0839468349
 11
190.2471313653
 21
88.8368437569
  0
LINE
  5
284
100
AcDbEntity
  8
KONSTRUKTIONSELEMENTE
100
AcDbLine
 62
7
  6
CONTINUOUS
 10
190.408087852
 20
89.1821912769
 11
187.0091257005
 21
90.7663491898
  0
LINE
  5
285
100
AcDbEntity
  8
KONSTRUKTIONSELEMENTE
100
AcDbLine
 62
7
  6
CONTINUOUS
 10
184.3505308004
 20
83.9237882115
 11
185.2202102493
 21
83.1015910372
  0
LINE
  5
286
100
AcDbEntity
  8
KONSTRUKTIONSELEMENTE
100
AcDbLine
 62
7
  6
CONTINUOUS
 10
185.4819638129
 20
83.3784609925
 11
184.612284364
 21
84.2006581668
  0
LINE
  5
287
100
AcDbEntity
  8
KONSTRUKTIONSELEMENTE
100
AcDbLine
 62
7
  6
CONTINUOUS
 10
181.2554230659
 20
82.6584364206
 11
182.7830265598
 21
80.7131456003
  0
LINE
  5
288
100
AcDbEntity
  8
KONSTRUKTIONSELEMENTE
100
AcDbLine
 62
7
  6
CONTINUOUS
 10
183.082687893
 20
80.9484645021
 11
181.5550843991
 21
82.8937553225
  0
LINE
  5
289
100
AcDbEntity
  8
KONSTRUKTIONSELEMENTE
100
AcDbLine
 62
7
  6
CONTINUOUS
 10
179.3869685208
 20
80.2094501634
 11
179.5061438209
 21
80.0018655646
  0
LINE
  5
28A
100
AcDbEntity
  8
KONSTRUKTIONSELEMENTE
100
AcDbLine
 62
7
  6
CONTINUOUS
 10
179.8763003454
 20
80.1223730281
 11
179.7173999824
 21
80.3991524285
  0
LINE
  5
28B
100
AcDbEntity
  8
KONSTRUKTIONSELEMENTE
100
AcDbLine
 62
7
  6
CONTINUOUS
 10
164.6176743169
 20
114.7367197438
 11
163.3676743914
 21
118.4867197438
  0
LINE
  5
28C
100
AcDbEntity
  8
KONSTRUKTIONSELEMENTE
100
AcDbLine
 62
7
  6
CONTINUOUS
 10
163.8364243914
 20
115.6941665499
 11
164.1489243169
 21
114.7367197438
  0
LINE
  5
28D
100
AcDbEntity
  8
KONSTRUKTIONSELEMENTE
100
AcDbLine
 62
7
  6
CONTINUOUS
 10
163.0551743541
 20
118.1675708457
 11
163.7582994659
 21
116.0133154481
  0
LINE
  5
28E
100
AcDbEntity
  8
KONSTRUKTIONSELEMENTE
100
AcDbLine
 62
7
  6
CONTINUOUS
 10
165.2426743914
 20
115.7739537745
 11
165.3207995404
 21
115.4548048763
  0
LINE
  5
28F
100
AcDbEntity
  8
KONSTRUKTIONSELEMENTE
100
AcDbLine
 62
7
  6
CONTINUOUS
 10
165.4770493914
 20
117.2899111523
 11
165.5551745404
 21
116.9707622542
  0
LINE
  5
290
100
AcDbEntity
  8
KONSTRUKTIONSELEMENTE
100
AcDbLine
 62
7
  6
CONTINUOUS
 10
171.1801740934
 20
117.609060274
 11
171.1801740934
 21
117.3696983769
  0
LINE
  5
291
100
AcDbEntity
  8
KONSTRUKTIONSELEMENTE
100
AcDbLine
 62
7
  6
CONTINUOUS
 10
171.6489240934
 20
117.2899111523
 11
171.6489240934
 21
117.609060274
  0
LINE
  5
292
100
AcDbEntity
  8
KONSTRUKTIONSELEMENTE
100
AcDbLine
 62
7
  6
CONTINUOUS
 10
190.0448135996
 20
111.291519087
 11
187.1655115523
 21
108.8754978012
  0
LINE
  5
293
100
AcDbEntity
  8
KONSTRUKTIONSELEMENTE
100
AcDbLine
 62
7
  6
CONTINUOUS
 10
151.346298451
 20
78.8196092988
 11
154.2256004982
 21
81.2356305846
  0
LINE
  5
294
100
AcDbEntity
  8
KONSTRUKTIONSELEMENTE
100
AcDbLine
 62
7
  6
CONTINUOUS
 10
187.6630927668
 20
105.3565390445
 11
187.4569942826
 21
105.2192429247
  0
LINE
  5
295
100
AcDbEntity
  8
KONSTRUKTIONSELEMENTE
100
AcDbLine
 62
7
  6
CONTINUOUS
 10
188.9534057881
 20
105.5277436405
 11
189.1595043781
 21
105.6650397963
  0
LINE
  5
296
100
AcDbEntity
  8
KONSTRUKTIONSELEMENTE
100
AcDbLine
 62
7
  6
CONTINUOUS
 10
189.5677102256
 20
103.7244334722
 11
190.0759100472
 21
103.9646415565
  0
LINE
  5
297
100
AcDbEntity
  8
KONSTRUKTIONSELEMENTE
100
AcDbLine
 62
7
  6
CONTINUOUS
 10
188.4630203353
 20
103.7506317381
 11
188.2159667606
 21
103.733559893
  0
LINE
  5
298
100
AcDbEntity
  8
KONSTRUKTIONSELEMENTE
100
AcDbLine
 62
7
  6
CONTINUOUS
 10
190.283553024
 20
95.6212287889
 11
190.7494748579
 21
95.4942428663
  0
LINE
  5
299
100
AcDbEntity
  8
KONSTRUKTIONSELEMENTE
100
AcDbLine
 62
7
  6
CONTINUOUS
 10
190.7919594352
 20
95.8088991432
 11
190.4051075494
 21
95.9252105868
  0
LINE
  5
29A
100
AcDbEntity
  8
KONSTRUKTIONSELEMENTE
100
AcDbLine
 62
7
  6
CONTINUOUS
 10
188.7720258848
 20
93.9670348186
 11
189.0007383741
 21
93.8720751989
  0
LINE
  5
29B
100
AcDbEntity
  8
KONSTRUKTIONSELEMENTE
100
AcDbLine
 62
7
  6
CONTINUOUS
 10
187.7312610999
 20
91.2283135595
 11
188.0210946863
 21
91.0803773378
  0
LINE
  5
29C
100
AcDbEntity
  8
KONSTRUKTIONSELEMENTE
100
AcDbLine
 62
7
  6
CONTINUOUS
 10
185.7282315079
 20
83.0582504768
 11
185.4819638129
 21
83.3784609925
  0
LINE
  5
29D
100
AcDbEntity
  8
KONSTRUKTIONSELEMENTE
100
AcDbLine
 62
7
  6
CONTINUOUS
 10
183.2791318691
 20
80.595488069
 11
183.082687893
 21
80.9484645021
  0
LINE
  5
29E
100
AcDbEntity
  8
KONSTRUKTIONSELEMENTE
100
AcDbLine
 62
7
  6
CONTINUOUS
 10
165.7895495404
 20
115.5345921009
 11
165.7114243914
 21
115.7739537745
  0
LINE
  5
29F
100
AcDbEntity
  8
KONSTRUKTIONSELEMENTE
100
AcDbLine
 62
7
  6
CONTINUOUS
 10
166.0239245404
 20
117.1303367033
 11
165.9457993914
 21
117.3696983769
  0
LINE
  5
2A0
100
AcDbEntity
  8
KONSTRUKTIONSELEMENTE
100
AcDbLine
 62
7
  6
CONTINUOUS
 10
188.9815955164
 20
105.9398616384
 11
188.6449219811
 21
105.6910028843
  0
LINE
  5
2A1
100
AcDbEntity
  8
KONSTRUKTIONSELEMENTE
100
AcDbLine
 62
7
  6
CONTINUOUS
 10
190.1040997755
 20
104.3767595545
 11
189.8980012913
 21
104.2394634347
  0
LINE
  5
2A2
100
AcDbEntity
  8
KONSTRUKTIONSELEMENTE
100
AcDbLine
 62
7
  6
CONTINUOUS
 10
189.0219055267
 20
98.7244310708
 11
191.8664054252
 21
99.9136569079
  0
LINE
  5
2A3
100
AcDbEntity
  8
KONSTRUKTIONSELEMENTE
100
AcDbLine
 62
7
  6
CONTINUOUS
 10
191.4433646493
 20
100.1250987844
 11
188.2086225298
 21
98.8315004959
  0
LINE
  5
2A4
100
AcDbEntity
  8
KONSTRUKTIONSELEMENTE
100
AcDbLine
 62
7
  6
CONTINUOUS
 10
189.6714253676
 20
104.1622794883
 11
189.4243718986
 21
104.1452076792
  0
LINE
  5
2A5
100
AcDbEntity
  8
KONSTRUKTIONSELEMENTE
100
AcDbLine
 62
7
  6
CONTINUOUS
 10
189.3860803018
 20
105.7422237427
 11
189.633133665
 21
105.7592955157
  0
LINE
  5
2A6
100
AcDbEntity
  8
KONSTRUKTIONSELEMENTE
100
AcDbLine
 62
7
  6
CONTINUOUS
 10
188.0712987201
 20
103.4159327565
 11
188.4898784755
 21
103.4243538957
  0
LINE
  5
2A7
100
AcDbEntity
  8
KONSTRUKTIONSELEMENTE
100
AcDbLine
 62
7
  6
CONTINUOUS
 10
188.0118324682
 20
100.7263807498
 11
191.4433646493
 21
100.1250987844
  0
LINE
  5
2A8
100
AcDbEntity
  8
KONSTRUKTIONSELEMENTE
100
AcDbLine
 62
7
  6
CONTINUOUS
 10
191.8139279753
 20
100.4189592727
 11
188.7857574528
 21
100.9982873755
  0
LINE
  5
2A9
100
AcDbEntity
  8
KONSTRUKTIONSELEMENTE
100
AcDbLine
 62
7
  6
CONTINUOUS
 10
191.0206717029
 20
95.7139395534
 11
190.7919594352
 21
95.8088991432
  0
LINE
  5
2AA
100
AcDbEntity
  8
KONSTRUKTIONSELEMENTE
100
AcDbLine
 62
7
  6
CONTINUOUS
 10
189.0518906744
 20
92.9666662523
 11
188.762057088
 21
93.114602474
  0
LINE
  5
2AB
100
AcDbEntity
  8
KONSTRUKTIONSELEMENTE
100
AcDbLine
 62
7
  6
CONTINUOUS
 10
188.4727406622
 20
94.135600719
 11
188.7720258848
 21
93.9670348186
  0
LINE
  5
2AC
100
AcDbEntity
  8
KONSTRUKTIONSELEMENTE
100
AcDbLine
 62
7
  6
CONTINUOUS
 10
190.7582747878
 20
92.5502157265
 11
190.5452183498
 21
92.6764433839
  0
LINE
  5
2AD
100
AcDbEntity
  8
KONSTRUKTIONSELEMENTE
100
AcDbLine
 62
7
  6
CONTINUOUS
 10
186.7676909704
 20
90.2483279098
 11
189.4026701792
 21
87.969328638
  0
LINE
  5
2AE
100
AcDbEntity
  8
KONSTRUKTIONSELEMENTE
100
AcDbLine
 62
7
  6
CONTINUOUS
 10
189.8715664342
 20
88.0310333161
 11
187.5713525641
 21
90.0839468349
  0
LINE
  5
2AF
100
AcDbEntity
  8
KONSTRUKTIONSELEMENTE
100
AcDbLine
 62
7
  6
CONTINUOUS
 10
185.2202102493
 20
83.1015910372
 11
185.4084993198
 21
82.8361936614
  0
LINE
  5
2B0
100
AcDbEntity
  8
KONSTRUKTIONSELEMENTE
100
AcDbLine
 62
7
  6
CONTINUOUS
 10
165.3207995404
 20
115.4548048763
 11
165.5551745404
 21
115.0558686699
  0
LINE
  5
2B1
100
AcDbEntity
  8
KONSTRUKTIONSELEMENTE
100
AcDbLine
 62
7
  6
CONTINUOUS
 10
182.7830265598
 20
80.7131456003
 11
182.9301930105
 21
80.4229204754
  0
LINE
  5
2B2
100
AcDbEntity
  8
KONSTRUKTIONSELEMENTE
100
AcDbLine
 62
7
  6
CONTINUOUS
 10
167.8989245404
 20
117.609060274
 11
167.8207993914
 21
117.8484219476
  0
LINE
  5
2B3
100
AcDbEntity
  8
KONSTRUKTIONSELEMENTE
100
AcDbLine
 62
7
  6
CONTINUOUS
 10
179.5061438209
 20
80.0018655646
 11
179.570247152
 21
79.7626641457
  0
LINE
  5
2B4
100
AcDbEntity
  8
KONSTRUKTIONSELEMENTE
100
AcDbLine
 62
7
  6
CONTINUOUS
 10
179.9404036765
 20
79.8831716092
 11
179.8763003454
 21
80.1223730281
  0
LINE
  5
2B5
100
AcDbEntity
  8
KONSTRUKTIONSELEMENTE
100
AcDbLine
 62
7
  6
CONTINUOUS
 10
187.5798551701
 20
104.8585808911
 11
187.7654771522
 21
105.0559864326
  0
LINE
  5
2B6
100
AcDbEntity
  8
KONSTRUKTIONSELEMENTE
100
AcDbLine
 62
7
  6
CONTINUOUS
 10
190.0759100472
 20
103.9646415565
 11
190.4125836353
 21
104.2135003287
  0
LINE
  5
2B7
100
AcDbEntity
  8
KONSTRUKTIONSELEMENTE
100
AcDbLine
 62
7
  6
CONTINUOUS
 10
188.7387429058
 20
95.5094150108
 11
189.2471494277
 21
95.6970853502
  0
LINE
  5
2B8
100
AcDbEntity
  8
KONSTRUKTIONSELEMENTE
100
AcDbLine
 62
7
  6
CONTINUOUS
 10
189.7778017583
 20
106.0769226703
 11
189.3592221617
 21
106.0685015851
  0
LINE
  5
2B9
100
AcDbEntity
  8
KONSTRUKTIONSELEMENTE
100
AcDbLine
 62
7
  6
CONTINUOUS
 10
188.2159667606
 20
103.733559893
 11
187.9484378326
 21
103.7765947901
  0
LINE
  5
2BA
100
AcDbEntity
  8
KONSTRUKTIONSELEMENTE
100
AcDbLine
 62
7
  6
CONTINUOUS
 10
189.0151536556
 20
97.5406196976
 11
190.9892321433
 21
96.6669673464
  0
LINE
  5
2BB
100
AcDbEntity
  8
KONSTRUKTIONSELEMENTE
100
AcDbLine
 62
7
  6
CONTINUOUS
 10
191.1533787674
 20
96.8535494078
 11
189.179300503
 21
97.7272017537
  0
LINE
  5
2BC
100
AcDbEntity
  8
KONSTRUKTIONSELEMENTE
100
AcDbLine
 62
7
  6
CONTINUOUS
 10
191.3199569809
 20
95.5453736456
 11
191.0206717029
 21
95.7139395534
  0
LINE
  5
2BD
100
AcDbEntity
  8
KONSTRUKTIONSELEMENTE
100
AcDbLine
 62
7
  6
CONTINUOUS
 10
189.0432231458
 20
94.1867329163
 11
188.6027919864
 21
94.5025129081
  0
LINE
  5
2BE
100
AcDbEntity
  8
KONSTRUKTIONSELEMENTE
100
AcDbLine
 62
7
  6
CONTINUOUS
 10
188.6756734627
 20
92.8090663809
 11
188.9482306403
 21
92.6000240595
  0
LINE
  5
2BF
100
AcDbEntity
  8
KONSTRUKTIONSELEMENTE
100
AcDbLine
 62
7
  6
CONTINUOUS
 10
190.4588351199
 20
92.3709086895
 11
190.595113511
 21
92.2663868295
  0
LINE
  5
2C0
100
AcDbEntity
  8
KONSTRUKTIONSELEMENTE
100
AcDbLine
 62
7
  6
CONTINUOUS
 10
188.1074779162
 20
91.3859120322
 11
187.9116987316
 21
91.5732485714
  0
LINE
  5
2C1
100
AcDbEntity
  8
KONSTRUKTIONSELEMENTE
100
AcDbLine
 62
7
  6
CONTINUOUS
 10
167.5082992424
 20
116.1728900089
 11
167.6645495404
 21
115.9335282235
  0
LINE
  5
2C2
100
AcDbEntity
  8
KONSTRUKTIONSELEMENTE
100
AcDbLine
 62
7
  6
CONTINUOUS
 10
168.1332995404
 20
116.0133154481
 11
167.9770492424
 21
116.332464458
  0
LINE
  5
2C3
100
AcDbEntity
  8
KONSTRUKTIONSELEMENTE
100
AcDbLine
 62
7
  6
CONTINUOUS
 10
167.3520493914
 20
117.768634723
 11
167.4301745404
 21
117.609060274
  0
LINE
  5
2C4
100
AcDbEntity
  8
KONSTRUKTIONSELEMENTE
100
AcDbLine
 62
7
  6
CONTINUOUS
 10
171.1020493914
 20
117.8484219476
 11
171.1801740934
 21
117.609060274
  0
LINE
  5
2C5
100
AcDbEntity
  8
KONSTRUKTIONSELEMENTE
100
AcDbLine
 62
7
  6
CONTINUOUS
 10
171.6489240934
 20
117.609060274
 11
171.5707993914
 21
117.8484219476
  0
LINE
  5
2C6
100
AcDbEntity
  8
KONSTRUKTIONSELEMENTE
100
AcDbLine
 62
7
  6
CONTINUOUS
 10
183.3763549893
 20
80.2660432328
 11
183.2791318691
 21
80.595488069
  0
LINE
  5
2C7
100
AcDbEntity
  8
KONSTRUKTIONSELEMENTE
100
AcDbLine
 62
7
  6
CONTINUOUS
 10
187.4569942826
 20
105.2192429247
 11
187.2163234947
 21
104.9359999794
  0
LINE
  5
2C8
100
AcDbEntity
  8
KONSTRUKTIONSELEMENTE
100
AcDbLine
 62
7
  6
CONTINUOUS
 10
190.2897227478
 20
104.5741623623
 11
190.1040997755
 21
104.3767595545
  0
LINE
  5
2C9
100
AcDbEntity
  8
KONSTRUKTIONSELEMENTE
100
AcDbLine
 62
7
  6
CONTINUOUS
 10
191.0539547373
 20
94.1715593538
 11
190.545548576
 21
93.9838904324
  0
LINE
  5
2CA
100
AcDbEntity
  8
KONSTRUKTIONSELEMENTE
100
AcDbLine
 62
7
  6
CONTINUOUS
 10
189.633133665
 20
105.7592955157
 11
189.9006626458
 21
105.7162606367
  0
LINE
  5
2CB
100
AcDbEntity
  8
KONSTRUKTIONSELEMENTE
100
AcDbLine
 62
7
  6
CONTINUOUS
 10
187.7077670447
 20
103.4933518447
 11
188.0712987201
 21
103.4159327565
  0
LINE
  5
2CC
100
AcDbEntity
  8
KONSTRUKTIONSELEMENTE
100
AcDbLine
 62
7
  6
CONTINUOUS
 10
187.7152805808
 20
102.1579744987
 11
188.3448532091
 21
101.9115109828
  0
LINE
  5
2CD
100
AcDbEntity
  8
KONSTRUKTIONSELEMENTE
100
AcDbLine
 62
7
  6
CONTINUOUS
 10
188.9669854142
 20
102.0542550942
 11
188.3374125681
 21
102.3007185601
  0
LINE
  5
2CE
100
AcDbEntity
  8
KONSTRUKTIONSELEMENTE
100
AcDbLine
 62
7
  6
CONTINUOUS
 10
190.7494748579
 20
95.4942428663
 11
191.1899056568
 21
95.1784614565
  0
LINE
  5
2CF
100
AcDbEntity
  8
KONSTRUKTIONSELEMENTE
100
AcDbLine
 62
7
  6
CONTINUOUS
 10
189.2476702544
 20
92.7793311117
 11
189.0518906744
 21
92.9666662523
  0
LINE
  5
2D0
100
AcDbEntity
  8
KONSTRUKTIONSELEMENTE
100
AcDbLine
 62
7
  6
CONTINUOUS
 10
190.9540539724
 20
92.3628791873
 11
190.7582747878
 21
92.5502157265
  0
LINE
  5
2D1
100
AcDbEntity
  8
KONSTRUKTIONSELEMENTE
100
AcDbLine
 62
7
  6
CONTINUOUS
 10
166.0239245404
 20
115.2952303714
 11
165.7895495404
 21
115.5345921009
  0
LINE
  5
2D2
100
AcDbEntity
  8
KONSTRUKTIONSELEMENTE
100
AcDbLine
 62
7
  6
CONTINUOUS
 10
165.5551745404
 20
116.9707622542
 11
165.8676742424
 21
116.6516133561
  0
LINE
  5
2D3
100
AcDbEntity
  8
KONSTRUKTIONSELEMENTE
100
AcDbLine
 62
7
  6
CONTINUOUS
 10
167.8207993914
 20
117.8484219476
 11
167.5864243914
 21
118.1675708457
  0
LINE
  5
2D4
100
AcDbEntity
  8
KONSTRUKTIONSELEMENTE
100
AcDbLine
 62
7
  6
CONTINUOUS
 10
185.8728946923
 20
82.746707718
 11
185.7282315079
 21
83.0582504768
  0
LINE
  5
2D5
100
AcDbEntity
  8
KONSTRUKTIONSELEMENTE
100
AcDbLine
 62
7
  6
CONTINUOUS
 10
185.4084993198
 20
82.8361936614
 11
185.4951838391
 21
82.5794640807
  0
LINE
  5
2D6
100
AcDbEntity
  8
KONSTRUKTIONSELEMENTE
100
AcDbLine
 62
7
  6
CONTINUOUS
 10
174.6176743914
 20
115.6941665499
 11
174.9301740934
 21
114.7367197438
  0
LINE
  5
2D7
100
AcDbEntity
  8
KONSTRUKTIONSELEMENTE
100
AcDbLine
 62
7
  6
CONTINUOUS
 10
173.8364246894
 20
118.1675708457
 11
174.5395496894
 21
116.0133154481
  0
LINE
  5
2D8
100
AcDbEntity
  8
KONSTRUKTIONSELEMENTE
100
AcDbLine
 62
7
  6
CONTINUOUS
 10
182.9301930105
 20
80.4229204754
 11
182.9781385708
 21
80.1562269914
  0
LINE
  5
2D9
100
AcDbEntity
  8
KONSTRUKTIONSELEMENTE
100
AcDbLine
 62
7
  6
CONTINUOUS
 10
179.9340881974
 20
79.5115412701
 11
179.9404036765
 21
79.8831716092
  0
LINE
  5
2DA
100
AcDbEntity
  8
KONSTRUKTIONSELEMENTE
100
AcDbLine
 62
7
  6
CONTINUOUS
 10
179.570247152
 20
79.7626641457
 11
179.5395534048
 21
79.5610404239
  0
LINE
  5
2DB
100
AcDbEntity
  8
KONSTRUKTIONSELEMENTE
100
AcDbLine
 62
7
  6
CONTINUOUS
 10
188.6449219811
 20
105.6910028843
 11
188.4797765012
 21
105.4334879211
  0
LINE
  5
2DC
100
AcDbEntity
  8
KONSTRUKTIONSELEMENTE
100
AcDbLine
 62
7
  6
CONTINUOUS
 10
188.8433081765
 20
105.3560688328
 11
188.9534057881
 21
105.5277436405
  0
LINE
  5
2DD
100
AcDbEntity
  8
KONSTRUKTIONSELEMENTE
100
AcDbLine
 62
7
  6
CONTINUOUS
 10
190.4125836353
 20
104.2135003287
 11
190.6532544496
 21
104.4967432831
  0
LINE
  5
2DE
100
AcDbEntity
  8
KONSTRUKTIONSELEMENTE
100
AcDbLine
 62
7
  6
CONTINUOUS
 10
188.7106547227
 20
95.8976790387
 11
188.4479546764
 21
95.7409127427
  0
LINE
  5
2DF
100
AcDbEntity
  8
KONSTRUKTIONSELEMENTE
100
AcDbLine
 62
7
  6
CONTINUOUS
 10
188.284114483
 20
93.1837381215
 11
187.9078972713
 21
93.0261382502
  0
LINE
  5
2E0
100
AcDbEntity
  8
KONSTRUKTIONSELEMENTE
100
AcDbLine
 62
7
  6
CONTINUOUS
 10
190.1413334602
 20
105.999503591
 11
189.7778017583
 21
106.0769226703
  0
LINE
  5
2E1
100
AcDbEntity
  8
KONSTRUKTIONSELEMENTE
100
AcDbLine
 62
7
  6
CONTINUOUS
 10
189.4243718986
 20
104.1452076792
 11
189.2323682785
 21
104.2139705584
  0
LINE
  5
2E2
100
AcDbEntity
  8
KONSTRUKTIONSELEMENTE
100
AcDbLine
 62
7
  6
CONTINUOUS
 10
165.5551745404
 20
115.0558686699
 11
165.9457993914
 21
114.8165069753
  0
LINE
  5
2E3
100
AcDbEntity
  8
KONSTRUKTIONSELEMENTE
100
AcDbLine
 62
7
  6
CONTINUOUS
 10
167.9770492424
 20
116.332464458
 11
167.6645495404
 21
116.6516133561
  0
LINE
  5
2E4
100
AcDbEntity
  8
KONSTRUKTIONSELEMENTE
100
AcDbLine
 62
7
  6
CONTINUOUS
 10
167.1957995404
 20
117.9282091721
 11
167.3520493914
 21
117.768634723
  0
LINE
  5
2E5
100
AcDbEntity
  8
KONSTRUKTIONSELEMENTE
100
AcDbLine
 62
7
  6
CONTINUOUS
 10
188.2610221865
 20
94.3564225315
 11
188.4727406622
 21
94.135600719
  0
LINE
  5
2E6
100
AcDbEntity
  8
KONSTRUKTIONSELEMENTE
100
AcDbLine
 62
7
  6
CONTINUOUS
 10
187.4932571351
 20
91.559569479
 11
187.7312610999
 21
91.2283135595
  0
LINE
  5
2E7
100
AcDbEntity
  8
KONSTRUKTIONSELEMENTE
100
AcDbLine
 62
7
  6
CONTINUOUS
 10
188.9482306403
 20
92.6000240595
 11
189.0672326227
 21
92.4343960998
  0
LINE
  5
2E8
100
AcDbEntity
  8
KONSTRUKTIONSELEMENTE
100
AcDbLine
 62
7
  6
CONTINUOUS
 10
175.3989240934
 20
114.7367197438
 11
174.1489243914
 21
118.4867197438
  0
LINE
  5
2E9
100
AcDbEntity
  8
KONSTRUKTIONSELEMENTE
100
AcDbLine
 62
7
  6
CONTINUOUS
 10
183.3736907907
 20
79.858158635
 11
183.3763549893
 21
80.2660432328
  0
LINE
  5
2EA
100
AcDbEntity
  8
KONSTRUKTIONSELEMENTE
100
AcDbLine
 62
7
  6
CONTINUOUS
 10
187.2163234947
 20
104.9359999794
 11
187.092131019
 21
104.5582661727
  0
LINE
  5
2EB
100
AcDbEntity
  8
KONSTRUKTIONSELEMENTE
100
AcDbLine
 62
7
  6
CONTINUOUS
 10
187.490234998
 20
104.62679391
 11
187.5798551701
 21
104.8585808911
  0
LINE
  5
2EC
100
AcDbEntity
  8
KONSTRUKTIONSELEMENTE
100
AcDbLine
 62
7
  6
CONTINUOUS
 10
188.7536880045
 20
105.1242818517
 11
188.8433081765
 21
105.3560688328
  0
LINE
  5
2ED
100
AcDbEntity
  8
KONSTRUKTIONSELEMENTE
100
AcDbLine
 62
7
  6
CONTINUOUS
 10
189.179300503
 20
97.7272017537
 11
189.0151536556
 21
97.5406196976
  0
LINE
  5
2EE
100
AcDbEntity
  8
KONSTRUKTIONSELEMENTE
100
AcDbLine
 62
7
  6
CONTINUOUS
 10
188.4479546764
 20
95.7409127427
 11
188.1682608382
 21
95.458284224
  0
LINE
  5
2EF
100
AcDbEntity
  8
KONSTRUKTIONSELEMENTE
100
AcDbLine
 62
7
  6
CONTINUOUS
 10
188.5551126133
 20
95.3419727954
 11
188.7387429058
 21
95.5094150108
  0
LINE
  5
2F0
100
AcDbEntity
  8
KONSTRUKTIONSELEMENTE
100
AcDbLine
 62
7
  6
CONTINUOUS
 10
188.0518468343
 20
92.6554820132
 11
188.2572320466
 21
92.7953887479
  0
LINE
  5
2F1
100
AcDbEntity
  8
KONSTRUKTIONSELEMENTE
100
AcDbLine
 62
7
  6
CONTINUOUS
 10
191.0820429205
 20
93.7832953259
 11
191.3447429944
 21
93.9400616181
  0
LINE
  5
2F2
100
AcDbEntity
  8
KONSTRUKTIONSELEMENTE
100
AcDbLine
 62
7
  6
CONTINUOUS
 10
190.3685822322
 20
90.8786186781
 11
190.1804733749
 21
90.7998180583
  0
LINE
  5
2F3
100
AcDbEntity
  8
KONSTRUKTIONSELEMENTE
100
AcDbLine
 62
7
  6
CONTINUOUS
 10
165.9457993914
 20
114.8165069753
 11
166.3364242424
 21
114.7367197438
  0
LINE
  5
2F4
100
AcDbEntity
  8
KONSTRUKTIONSELEMENTE
100
AcDbLine
 62
7
  6
CONTINUOUS
 10
165.8676742424
 20
116.6516133561
 11
166.1801743914
 21
116.492038907
  0
LINE
  5
2F5
100
AcDbEntity
  8
KONSTRUKTIONSELEMENTE
100
AcDbLine
 62
7
  6
CONTINUOUS
 10
187.9484378326
 20
103.7765947901
 11
187.735956773
 21
103.9054698427
  0
LINE
  5
2F6
100
AcDbEntity
  8
KONSTRUKTIONSELEMENTE
100
AcDbLine
 62
7
  6
CONTINUOUS
 10
188.6627371816
 20
104.1540962786
 11
189.0876993007
 21
103.8963461735
  0
LINE
  5
2F7
100
AcDbEntity
  8
KONSTRUKTIONSELEMENTE
100
AcDbLine
 62
7
  6
CONTINUOUS
 10
189.2323682785
 20
104.2139705584
 11
189.019887219
 21
104.342845611
  0
LINE
  5
2F8
100
AcDbEntity
  8
KONSTRUKTIONSELEMENTE
100
AcDbLine
 62
7
  6
CONTINUOUS
 10
187.3788067357
 20
103.7167205103
 11
187.7077670447
 21
103.4933518447
  0
LINE
  5
2F9
100
AcDbEntity
  8
KONSTRUKTIONSELEMENTE
100
AcDbLine
 62
7
  6
CONTINUOUS
 10
166.2582995404
 20
116.9707622542
 11
166.0239245404
 21
117.1303367033
  0
LINE
  5
2FA
100
AcDbEntity
  8
KONSTRUKTIONSELEMENTE
100
AcDbLine
 62
7
  6
CONTINUOUS
 10
167.2739242424
 20
116.332464458
 11
167.5082992424
 21
116.1728900089
  0
LINE
  5
2FB
100
AcDbEntity
  8
KONSTRUKTIONSELEMENTE
100
AcDbLine
 62
7
  6
CONTINUOUS
 10
167.5864243914
 20
118.1675708457
 11
167.2739242424
 21
118.4069325193
  0
LINE
  5
2FC
100
AcDbEntity
  8
KONSTRUKTIONSELEMENTE
100
AcDbLine
 62
7
  6
CONTINUOUS
 10
170.9457990934
 20
118.0079963966
 11
171.1020493914
 21
117.8484219476
  0
LINE
  5
2FD
100
AcDbEntity
  8
KONSTRUKTIONSELEMENTE
100
AcDbLine
 62
7
  6
CONTINUOUS
 10
191.5316754843
 20
95.3245518294
 11
191.3199569809
 21
95.5453736456
  0
LINE
  5
2FE
100
AcDbEntity
  8
KONSTRUKTIONSELEMENTE
100
AcDbLine
 62
7
  6
CONTINUOUS
 10
171.5707993914
 20
117.8484219476
 11
171.3364243914
 21
118.1675708457
  0
LINE
  5
2FF
100
AcDbEntity
  8
KONSTRUKTIONSELEMENTE
100
AcDbLine
 62
7
  6
CONTINUOUS
 10
190.595113511
 20
92.2663868295
 11
190.7141155472
 21
92.1007588545
  0
LINE
  5
300
100
AcDbEntity
  8
KONSTRUKTIONSELEMENTE
100
AcDbLine
 62
7
  6
CONTINUOUS
 10
188.6027919864
 20
94.5025129081
 11
188.4701432643
 21
94.7126588011
  0
LINE
  5
301
100
AcDbEntity
  8
KONSTRUKTIONSELEMENTE
100
AcDbLine
 62
7
  6
CONTINUOUS
 10
188.0662976973
 20
94.7031080071
 11
188.2610221865
 21
94.3564225315
  0
LINE
  5
302
100
AcDbEntity
  8
KONSTRUKTIONSELEMENTE
100
AcDbLine
 62
7
  6
CONTINUOUS
 10
189.4088962261
 20
92.4697809744
 11
189.2476702544
 21
92.7793311117
  0
LINE
  5
303
100
AcDbEntity
  8
KONSTRUKTIONSELEMENTE
100
AcDbLine
 62
7
  6
CONTINUOUS
 10
187.9116987316
 20
91.5732485714
 11
187.8099735533
 21
91.7999840295
  0
LINE
  5
304
100
AcDbEntity
  8
KONSTRUKTIONSELEMENTE
100
AcDbLine
 62
7
  6
CONTINUOUS
 10
185.9303070013
 20
82.3428753453
 11
185.8728946923
 21
82.746707718
  0
LINE
  5
305
100
AcDbEntity
  8
KONSTRUKTIONSELEMENTE
100
AcDbLine
 62
7
  6
CONTINUOUS
 10
185.4951838391
 20
82.5794640807
 11
185.4802643469
 21
82.331402785
  0
LINE
  5
306
100
AcDbEntity
  8
KONSTRUKTIONSELEMENTE
100
AcDbLine
 62
7
  6
CONTINUOUS
 10
187.4761401339
 20
104.420734911
 11
187.490234998
 21
104.62679391
  0
LINE
  5
307
100
AcDbEntity
  8
KONSTRUKTIONSELEMENTE
100
AcDbLine
 62
7
  6
CONTINUOUS
 10
182.9781385708
 20
80.1562269914
 11
182.9268629895
 21
79.91306488
  0
LINE
  5
308
100
AcDbEntity
  8
KONSTRUKTIONSELEMENTE
100
AcDbLine
 62
7
  6
CONTINUOUS
 10
188.4797765012
 20
105.4334879211
 11
188.3555849628
 21
105.0557513627
  0
LINE
  5
309
100
AcDbEntity
  8
KONSTRUKTIONSELEMENTE
100
AcDbLine
 62
7
  6
CONTINUOUS
 10
190.3793429199
 20
104.8059493434
 11
190.2897227478
 21
104.5741623623
  0
LINE
  5
30A
100
AcDbEntity
  8
KONSTRUKTIONSELEMENTE
100
AcDbLine
 62
7
  6
CONTINUOUS
 10
190.9892321433
 20
96.6669673464
 11
191.1533787674
 21
96.8535494078
  0
LINE
  5
30B
100
AcDbEntity
  8
KONSTRUKTIONSELEMENTE
100
AcDbLine
 62
7
  6
CONTINUOUS
 10
191.2375850298
 20
94.3390015692
 11
191.0539547373
 21
94.1715593538
  0
LINE
  5
30C
100
AcDbEntity
  8
KONSTRUKTIONSELEMENTE
100
AcDbLine
 62
7
  6
CONTINUOUS
 10
187.9078972713
 20
93.0261382502
 11
187.6852356503
 21
92.8251254157
  0
LINE
  5
30D
100
AcDbEntity
  8
KONSTRUKTIONSELEMENTE
100
AcDbLine
 62
7
  6
CONTINUOUS
 10
189.6046758062
 20
92.2824458339
 11
189.8100610184
 21
92.4223525686
  0
LINE
  5
30E
100
AcDbEntity
  8
KONSTRUKTIONSELEMENTE
100
AcDbLine
 62
7
  6
CONTINUOUS
 10
190.4357538022
 20
90.5296682233
 11
190.6411390414
 21
90.6695749504
  0
LINE
  5
30F
100
AcDbEntity
  8
KONSTRUKTIONSELEMENTE
100
AcDbLine
 62
7
  6
CONTINUOUS
 10
167.2739242424
 20
115.2952303714
 11
166.9614245404
 21
115.2154431469
  0
LINE
  5
310
100
AcDbEntity
  8
KONSTRUKTIONSELEMENTE
100
AcDbLine
 62
7
  6
CONTINUOUS
 10
166.9614245404
 20
114.7367197438
 11
167.3520493914
 21
114.8165069753
  0
LINE
  5
311
100
AcDbEntity
  8
KONSTRUKTIONSELEMENTE
100
AcDbLine
 62
7
  6
CONTINUOUS
 10
170.6332993914
 20
116.4122516825
 11
171.0239246894
 21
116.492038907
  0
LINE
  5
312
100
AcDbEntity
  8
KONSTRUKTIONSELEMENTE
100
AcDbLine
 62
7
  6
CONTINUOUS
 10
161.4926743914
 20
114.7367197438
 11
161.9614243914
 21
114.7367197438
  0
LINE
  5
313
100
AcDbEntity
  8
KONSTRUKTIONSELEMENTE
100
AcDbLine
 62
7
  6
CONTINUOUS
 10
164.1489243169
 20
114.7367197438
 11
164.6176743169
 21
114.7367197438
  0
LINE
  5
314
100
AcDbEntity
  8
KONSTRUKTIONSELEMENTE
100
AcDbLine
 62
7
  6
CONTINUOUS
 10
166.3364242424
 20
114.7367197438
 11
166.9614245404
 21
114.7367197438
  0
LINE
  5
315
100
AcDbEntity
  8
KONSTRUKTIONSELEMENTE
100
AcDbLine
 62
7
  6
CONTINUOUS
 10
168.7582993914
 20
114.7367197438
 11
169.2270493914
 21
114.7367197438
  0
LINE
  5
316
100
AcDbEntity
  8
KONSTRUKTIONSELEMENTE
100
AcDbLine
 62
7
  6
CONTINUOUS
 10
172.2739243914
 20
114.7367197438
 11
172.7426743914
 21
114.7367197438
  0
LINE
  5
317
100
AcDbEntity
  8
KONSTRUKTIONSELEMENTE
100
AcDbLine
 62
7
  6
CONTINUOUS
 10
174.9301740934
 20
114.7367197438
 11
175.3989240934
 21
114.7367197438
  0
LINE
  5
318
100
AcDbEntity
  8
KONSTRUKTIONSELEMENTE
100
AcDbLine
 62
7
  6
CONTINUOUS
 10
166.9614245404
 20
115.2154431469
 11
166.3364242424
 21
115.2154431469
  0
LINE
  5
319
100
AcDbEntity
  8
KONSTRUKTIONSELEMENTE
100
AcDbLine
 62
7
  6
CONTINUOUS
 10
162.2739243727
 20
115.6941665499
 11
163.8364243914
 21
115.6941665499
  0
LINE
  5
31A
100
AcDbEntity
  8
KONSTRUKTIONSELEMENTE
100
AcDbLine
 62
7
  6
CONTINUOUS
 10
173.0551740934
 20
115.6941665499
 11
174.6176743914
 21
115.6941665499
  0
LINE
  5
31B
100
AcDbEntity
  8
KONSTRUKTIONSELEMENTE
100
AcDbLine
 62
7
  6
CONTINUOUS
 10
165.7114243914
 20
115.7739537745
 11
165.2426743914
 21
115.7739537745
  0
LINE
  5
31C
100
AcDbEntity
  8
KONSTRUKTIONSELEMENTE
100
AcDbLine
 62
7
  6
CONTINUOUS
 10
174.5395496894
 20
116.0133154481
 11
173.1332996894
 21
116.0133154481
  0
LINE
  5
31D
100
AcDbEntity
  8
KONSTRUKTIONSELEMENTE
100
AcDbLine
 62
7
  6
CONTINUOUS
 10
163.7582994659
 20
116.0133154481
 11
162.35204941
 21
116.0133154481
  0
LINE
  5
31E
100
AcDbEntity
  8
KONSTRUKTIONSELEMENTE
100
AcDbLine
 62
7
  6
CONTINUOUS
 10
167.3520493914
 20
116.8111878051
 11
166.9614245404
 21
116.8909750297
  0
LINE
  5
31F
100
AcDbEntity
  8
KONSTRUKTIONSELEMENTE
100
AcDbLine
 62
7
  6
CONTINUOUS
 10
166.3364242424
 20
115.2154431469
 11
166.0239245404
 21
115.2952303714
  0
LINE
  5
320
100
AcDbEntity
  8
KONSTRUKTIONSELEMENTE
100
AcDbLine
 62
7
  6
CONTINUOUS
 10
166.1801743914
 20
116.492038907
 11
166.4926745404
 21
116.4122516825
  0
LINE
  5
321
100
AcDbEntity
  8
KONSTRUKTIONSELEMENTE
100
AcDbLine
 62
7
  6
CONTINUOUS
 10
166.9614245404
 20
116.4122516825
 11
167.2739242424
 21
116.332464458
  0
LINE
  5
322
100
AcDbEntity
  8
KONSTRUKTIONSELEMENTE
100
AcDbLine
 62
7
  6
CONTINUOUS
 10
166.4926745404
 20
116.8909750297
 11
166.2582995404
 21
116.9707622542
  0
LINE
  5
323
100
AcDbEntity
  8
KONSTRUKTIONSELEMENTE
100
AcDbLine
 62
7
  6
CONTINUOUS
 10
167.6645495404
 20
116.6516133561
 11
167.3520493914
 21
116.8111878051
  0
LINE
  5
324
100
AcDbEntity
  8
KONSTRUKTIONSELEMENTE
100
AcDbLine
 62
7
  6
CONTINUOUS
 10
189.9006626458
 20
105.7162606367
 11
190.1131437054
 21
105.5873855841
  0
LINE
  5
325
100
AcDbEntity
  8
KONSTRUKTIONSELEMENTE
100
AcDbLine
 62
7
  6
CONTINUOUS
 10
171.3364243914
 20
118.1675708457
 11
171.0239246894
 21
118.4069325193
  0
LINE
  5
326
100
AcDbEntity
  8
KONSTRUKTIONSELEMENTE
100
AcDbLine
 62
7
  6
CONTINUOUS
 10
187.735956773
 20
103.9054698427
 11
187.5990010214
 21
104.0600728774
  0
LINE
  5
327
100
AcDbEntity
  8
KONSTRUKTIONSELEMENTE
100
AcDbLine
 62
7
  6
CONTINUOUS
 10
191.1899056568
 20
95.1784614565
 11
191.3225543788
 21
94.9683155635
  0
LINE
  5
328
100
AcDbEntity
  8
KONSTRUKTIONSELEMENTE
100
AcDbLine
 62
7
  6
CONTINUOUS
 10
191.0557791775
 20
92.1361437216
 11
190.9540539724
 21
92.3628791873
  0
LINE
  5
329
100
AcDbEntity
  8
KONSTRUKTIONSELEMENTE
100
AcDbLine
 62
7
  6
CONTINUOUS
 10
187.408808761
 20
91.8474124354
 11
187.4932571351
 21
91.559569479
  0
LINE
  5
32A
100
AcDbEntity
  8
KONSTRUKTIONSELEMENTE
100
AcDbLine
 62
7
  6
CONTINUOUS
 10
187.9527954497
 20
101.294844826
 11
188.0118324682
 21
100.7263807498
  0
LINE
  5
32B
100
AcDbEntity
  8
KONSTRUKTIONSELEMENTE
100
AcDbLine
 62
7
  6
CONTINUOUS
 10
188.2086225298
 20
98.8315004959
 11
188.2676595482
 21
98.2630364198
  0
LINE
  5
32C
100
AcDbEntity
  8
KONSTRUKTIONSELEMENTE
100
AcDbLine
 62
7
  6
CONTINUOUS
 10
187.092131019
 20
104.5582661727
 11
187.1189900965
 21
104.2319855786
  0
LINE
  5
32D
100
AcDbEntity
  8
KONSTRUKTIONSELEMENTE
100
AcDbLine
 62
7
  6
CONTINUOUS
 10
188.3555849628
 20
105.0557513627
 11
188.3824440403
 21
104.7294707687
  0
LINE
  5
32E
100
AcDbEntity
  8
KONSTRUKTIONSELEMENTE
100
AcDbLine
 62
7
  6
CONTINUOUS
 10
188.0382095141
 20
95.091372035
 11
188.0662976973
 21
94.7031080071
  0
LINE
  5
32F
100
AcDbEntity
  8
KONSTRUKTIONSELEMENTE
100
AcDbLine
 62
7
  6
CONTINUOUS
 10
187.8099735533
 20
91.7999840295
 11
187.8195791856
 21
92.1272259048
  0
LINE
  5
330
100
AcDbEntity
  8
KONSTRUKTIONSELEMENTE
100
AcDbLine
 62
7
  6
CONTINUOUS
 10
188.7395931403
 20
104.9182228527
 11
188.7536880045
 21
105.1242818517
  0
LINE
  5
331
100
AcDbEntity
  8
KONSTRUKTIONSELEMENTE
100
AcDbLine
 62
7
  6
CONTINUOUS
 10
187.4529680016
 20
92.2968693074
 11
187.408808761
 21
91.8474124354
  0
LINE
  5
332
100
AcDbEntity
  8
KONSTRUKTIONSELEMENTE
100
AcDbLine
 62
7
  6
CONTINUOUS
 10
185.8717620563
 20
82.048669257
 11
185.9303070013
 21
82.3428753453
  0
LINE
  5
333
100
AcDbEntity
  8
KONSTRUKTIONSELEMENTE
100
AcDbLine
 62
7
  6
CONTINUOUS
 10
187.4875212144
 20
92.4190829054
 11
187.4529680016
 21
92.2968693074
  0
LINE
  5
334
100
AcDbEntity
  8
KONSTRUKTIONSELEMENTE
100
AcDbLine
 62
7
  6
CONTINUOUS
 10
187.8195791856
 20
92.1272259048
 11
187.8886860068
 21
92.3716544996
  0
LINE
  5
335
100
AcDbEntity
  8
KONSTRUKTIONSELEMENTE
100
AcDbLine
 62
7
  6
CONTINUOUS
 10
188.0210946863
 20
91.0803773378
 11
188.1074779162
 21
91.3859120322
  0
LINE
  5
336
100
AcDbEntity
  8
KONSTRUKTIONSELEMENTE
100
AcDbLine
 62
7
  6
CONTINUOUS
 10
190.6532544496
 20
104.4967432831
 11
190.7774460078
 21
104.8744798481
  0
LINE
  5
337
100
AcDbEntity
  8
KONSTRUKTIONSELEMENTE
100
AcDbLine
 62
7
  6
CONTINUOUS
 10
188.1682608382
 20
95.458284224
 11
188.0382095141
 21
95.091372035
  0
LINE
  5
338
100
AcDbEntity
  8
KONSTRUKTIONSELEMENTE
100
AcDbLine
 62
7
  6
CONTINUOUS
 10
183.272471537
 20
79.5757766592
 11
183.3736907907
 21
79.858158635
  0
LINE
  5
339
100
AcDbEntity
  8
KONSTRUKTIONSELEMENTE
100
AcDbLine
 62
7
  6
CONTINUOUS
 10
188.4335582824
 20
95.0379924379
 11
188.5551126133
 21
95.3419727954
  0
LINE
  5
33A
100
AcDbEntity
  8
KONSTRUKTIONSELEMENTE
100
AcDbLine
 62
7
  6
CONTINUOUS
 10
187.0091257005
 20
90.7663491898
 11
186.7676909704
 21
90.2483279098
  0
LINE
  5
33B
100
AcDbEntity
  8
KONSTRUKTIONSELEMENTE
100
AcDbLine
 62
7
  6
CONTINUOUS
 10
185.9629085367
 20
88.5215903098
 11
185.7214738065
 21
88.0035690298
  0
LINE
  5
33C
100
AcDbEntity
  8
KONSTRUKTIONSELEMENTE
100
AcDbLine
 62
7
  6
CONTINUOUS
 10
187.6852356503
 20
92.8251254157
 11
187.4875212144
 21
92.4190829054
  0
LINE
  5
33D
100
AcDbEntity
  8
KONSTRUKTIONSELEMENTE
100
AcDbLine
 62
7
  6
CONTINUOUS
 10
179.7932507348
 20
79.2466835202
 11
179.9340881974
 21
79.5115412701
  0
LINE
  5
33E
100
AcDbEntity
  8
KONSTRUKTIONSELEMENTE
100
AcDbLine
 62
7
  6
CONTINUOUS
 10
187.8886860068
 20
92.3716544996
 11
188.0518468343
 21
92.6554820132
  0
LINE
  5
33F
100
AcDbEntity
  8
KONSTRUKTIONSELEMENTE
100
AcDbLine
 62
7
  6
CONTINUOUS
 10
179.5395534048
 20
79.5610404239
 11
179.4140627369
 21
79.3969944897
  0
LINE
  5
340
100
AcDbEntity
  8
KONSTRUKTIONSELEMENTE
100
AcDbLine
 62
7
  6
CONTINUOUS
 10
189.6488346513
 20
92.7319013072
 11
189.4088962261
 21
92.4697809744
  0
LINE
  5
341
100
AcDbEntity
  8
KONSTRUKTIONSELEMENTE
100
AcDbLine
 62
7
  6
CONTINUOUS
 10
182.986616873
 20
84.3393488528
 11
181.9396026187
 21
83.2318690315
  0
LINE
  5
342
100
AcDbEntity
  8
KONSTRUKTIONSELEMENTE
100
AcDbLine
 62
7
  6
CONTINUOUS
 10
182.5492279293
 20
83.1798601479
 11
183.33448862
 21
84.0104700138
  0
LINE
  5
343
100
AcDbEntity
  8
KONSTRUKTIONSELEMENTE
100
AcDbLine
 62
7
  6
CONTINUOUS
 10
191.3447429944
 20
93.9400616181
 11
191.6244370478
 21
94.2226915744
  0
LINE
  5
344
100
AcDbEntity
  8
KONSTRUKTIONSELEMENTE
100
AcDbLine
 62
7
  6
CONTINUOUS
 10
190.4799130427
 20
90.9791250953
 11
190.3685822322
 21
90.8786186781
  0
LINE
  5
345
100
AcDbEntity
  8
KONSTRUKTIONSELEMENTE
100
AcDbLine
 62
7
  6
CONTINUOUS
 10
190.6411390414
 20
90.6695749504
 11
190.863801078
 21
90.8705891778
  0
LINE
  5
346
100
AcDbEntity
  8
KONSTRUKTIONSELEMENTE
100
AcDbLine
 62
7
  6
CONTINUOUS
 10
181.5550843991
 20
82.8937553225
 11
181.2554230659
 21
82.6584364206
  0
LINE
  5
347
100
AcDbEntity
  8
KONSTRUKTIONSELEMENTE
100
AcDbLine
 62
7
  6
CONTINUOUS
 10
180.056777733
 20
81.7171608132
 11
179.7571162569
 21
81.4818417992
  0
LINE
  5
348
100
AcDbEntity
  8
KONSTRUKTIONSELEMENTE
100
AcDbLine
 62
7
  6
CONTINUOUS
 10
183.2627236335
 20
84.5152608518
 11
182.986616873
 21
84.3393488528
  0
LINE
  5
349
100
AcDbEntity
  8
KONSTRUKTIONSELEMENTE
100
AcDbLine
 62
7
  6
CONTINUOUS
 10
178.5644895093
 20
80.7492737022
 11
177.242763663
 21
79.9904646417
  0
LINE
  5
34A
100
AcDbEntity
  8
KONSTRUKTIONSELEMENTE
100
AcDbLine
 62
7
  6
CONTINUOUS
 10
177.7718204392
 20
79.8341928986
 11
178.8181866817
 21
80.4349167081
  0
LINE
  5
34B
100
AcDbEntity
  8
KONSTRUKTIONSELEMENTE
100
AcDbLine
 62
7
  6
CONTINUOUS
 10
183.33448862
 20
84.0104700138
 11
183.5669694538
 21
84.1402366682
  0
LINE
  5
34C
100
AcDbEntity
  8
KONSTRUKTIONSELEMENTE
100
AcDbLine
 62
7
  6
CONTINUOUS
 10
166.4926745404
 20
118.4867197438
 11
166.1801743914
 21
118.4069325193
  0
LINE
  5
34D
100
AcDbEntity
  8
KONSTRUKTIONSELEMENTE
100
AcDbLine
 62
7
  6
CONTINUOUS
 10
166.4926745404
 20
116.4122516825
 11
166.9614245404
 21
116.4122516825
  0
LINE
  5
34E
100
AcDbEntity
  8
KONSTRUKTIONSELEMENTE
100
AcDbLine
 62
7
  6
CONTINUOUS
 10
169.2270493914
 20
116.4122516825
 11
170.6332993914
 21
116.4122516825
  0
LINE
  5
34F
100
AcDbEntity
  8
KONSTRUKTIONSELEMENTE
100
AcDbLine
 62
7
  6
CONTINUOUS
 10
170.7114240934
 20
116.8909750297
 11
169.2270493914
 21
116.8909750297
  0
LINE
  5
350
100
AcDbEntity
  8
KONSTRUKTIONSELEMENTE
100
AcDbLine
 62
7
  6
CONTINUOUS
 10
166.9614245404
 20
116.8909750297
 11
166.4926745404
 21
116.8909750297
  0
LINE
  5
351
100
AcDbEntity
  8
KONSTRUKTIONSELEMENTE
100
AcDbLine
 62
7
  6
CONTINUOUS
 10
167.4301745404
 20
117.609060274
 11
167.8989245404
 21
117.609060274
  0
LINE
  5
352
100
AcDbEntity
  8
KONSTRUKTIONSELEMENTE
100
AcDbLine
 62
7
  6
CONTINUOUS
 10
166.4926745404
 20
118.0079963966
 11
166.9614245404
 21
118.0079963966
  0
LINE
  5
353
100
AcDbEntity
  8
KONSTRUKTIONSELEMENTE
100
AcDbLine
 62
7
  6
CONTINUOUS
 10
169.2270493914
 20
118.0877836212
 11
170.7114240934
 21
118.0877836212
  0
LINE
  5
354
100
AcDbEntity
  8
KONSTRUKTIONSELEMENTE
100
AcDbLine
 62
7
  6
CONTINUOUS
 10
174.1489243914
 20
118.4867197438
 11
173.5239240934
 21
118.4867197438
  0
LINE
  5
355
100
AcDbEntity
  8
KONSTRUKTIONSELEMENTE
100
AcDbLine
 62
7
  6
CONTINUOUS
 10
170.6332993914
 20
118.4867197438
 11
168.7582993914
 21
118.4867197438
  0
LINE
  5
356
100
AcDbEntity
  8
KONSTRUKTIONSELEMENTE
100
AcDbLine
 62
7
  6
CONTINUOUS
 10
166.8832993914
 20
118.4867197438
 11
166.4926745404
 21
118.4867197438
  0
LINE
  5
357
100
AcDbEntity
  8
KONSTRUKTIONSELEMENTE
100
AcDbLine
 62
7
  6
CONTINUOUS
 10
163.3676743914
 20
118.4867197438
 11
162.7426744286
 21
118.4867197438
  0
LINE
  5
358
100
AcDbEntity
  8
KONSTRUKTIONSELEMENTE
100
AcDbLine
 62
7
  6
CONTINUOUS
 10
167.2739242424
 20
118.4069325193
 11
166.8832993914
 21
118.4867197438
  0
LINE
  5
359
100
AcDbEntity
  8
KONSTRUKTIONSELEMENTE
100
AcDbLine
 62
7
  6
CONTINUOUS
 10
171.0239246894
 20
118.4069325193
 11
170.6332993914
 21
118.4867197438
  0
LINE
  5
35A
100
AcDbEntity
  8
KONSTRUKTIONSELEMENTE
100
AcDbLine
 62
7
  6
CONTINUOUS
 10
166.9614245404
 20
118.0079963966
 11
167.1957995404
 21
117.9282091721
  0
LINE
  5
35B
100
AcDbEntity
  8
KONSTRUKTIONSELEMENTE
100
AcDbLine
 62
7
  6
CONTINUOUS
 10
170.7114240934
 20
118.0877836212
 11
170.9457990934
 21
118.0079963966
  0
LINE
  5
35C
100
AcDbEntity
  8
KONSTRUKTIONSELEMENTE
100
AcDbLine
 62
7
  6
CONTINUOUS
 10
190.4702937891
 20
105.7761349323
 11
190.1413334602
 21
105.999503591
  0
LINE
  5
35D
100
AcDbEntity
  8
KONSTRUKTIONSELEMENTE
100
AcDbLine
 62
7
  6
CONTINUOUS
 10
189.019887219
 20
104.342845611
 11
188.8829314673
 21
104.4974486457
  0
LINE
  5
35E
100
AcDbEntity
  8
KONSTRUKTIONSELEMENTE
100
AcDbLine
 62
7
  6
CONTINUOUS
 10
187.2008970424
 20
103.9915451401
 11
187.3788067357
 21
103.7167205103
  0
LINE
  5
35F
100
AcDbEntity
  8
KONSTRUKTIONSELEMENTE
100
AcDbLine
 62
7
  6
CONTINUOUS
 10
188.4848274883
 20
104.4289209084
 11
188.6627371816
 21
104.1540962786
  0
LINE
  5
360
100
AcDbEntity
  8
KONSTRUKTIONSELEMENTE
100
AcDbLine
 62
7
  6
CONTINUOUS
 10
191.7264001888
 20
94.9778677914
 11
191.5316754843
 21
95.3245518294
  0
LINE
  5
361
100
AcDbEntity
  8
KONSTRUKTIONSELEMENTE
100
AcDbLine
 62
7
  6
CONTINUOUS
 10
187.1189900965
 20
104.2319855786
 11
187.2008970424
 21
103.9915451401
  0
LINE
  5
362
100
AcDbEntity
  8
KONSTRUKTIONSELEMENTE
100
AcDbLine
 62
7
  6
CONTINUOUS
 10
187.5990010214
 20
104.0600728774
 11
187.4761401339
 21
104.420734911
  0
LINE
  5
363
100
AcDbEntity
  8
KONSTRUKTIONSELEMENTE
100
AcDbLine
 62
7
  6
CONTINUOUS
 10
187.7654771522
 20
105.0559864326
 11
187.6630927668
 21
105.3565390445
  0
LINE
  5
364
100
AcDbEntity
  8
KONSTRUKTIONSELEMENTE
100
AcDbLine
 62
7
  6
CONTINUOUS
 10
190.7141155472
 20
92.1007588545
 11
190.756339932
 21
91.9568380756
  0
LINE
  5
365
100
AcDbEntity
  8
KONSTRUKTIONSELEMENTE
100
AcDbLine
 62
7
  6
CONTINUOUS
 10
191.1402279672
 20
91.8483021581
 11
191.0557791775
 21
92.1361437216
  0
LINE
  5
366
100
AcDbEntity
  8
KONSTRUKTIONSELEMENTE
100
AcDbLine
 62
7
  6
CONTINUOUS
 10
187.6300734414
 20
102.5293390683
 11
187.7152805808
 21
102.1579744987
  0
LINE
  5
367
100
AcDbEntity
  8
KONSTRUKTIONSELEMENTE
100
AcDbLine
 62
7
  6
CONTINUOUS
 10
189.0672326227
 20
92.4343960998
 11
189.117127784
 21
92.0243395453
  0
LINE
  5
368
100
AcDbEntity
  8
KONSTRUKTIONSELEMENTE
100
AcDbLine
 62
7
  6
CONTINUOUS
 10
188.4701432643
 20
94.7126588011
 11
188.4335582824
 21
95.0379924379
  0
LINE
  5
369
100
AcDbEntity
  8
KONSTRUKTIONSELEMENTE
100
AcDbLine
 62
7
  6
CONTINUOUS
 10
190.7774460078
 20
104.8744798481
 11
190.750586937
 21
105.2007604444
  0
LINE
  5
36A
100
AcDbEntity
  8
KONSTRUKTIONSELEMENTE
100
AcDbLine
 62
7
  6
CONTINUOUS
 10
191.7544883789
 20
94.5896037625
 11
191.7264001888
 21
94.9778677914
  0
LINE
  5
36B
100
AcDbEntity
  8
KONSTRUKTIONSELEMENTE
100
AcDbLine
 62
7
  6
CONTINUOUS
 10
191.1478987504
 20
91.5821663806
 11
191.1402279672
 21
91.8483021581
  0
LINE
  5
36C
100
AcDbEntity
  8
KONSTRUKTIONSELEMENTE
100
AcDbLine
 62
7
  6
CONTINUOUS
 10
190.756339932
 20
91.9568380756
 11
190.7467339043
 21
91.6295948017
  0
LINE
  5
36D
100
AcDbEntity
  8
KONSTRUKTIONSELEMENTE
100
AcDbLine
 62
7
  6
CONTINUOUS
 10
190.393437784
 20
105.0120083424
 11
190.3793429199
 21
104.8059493434
  0
LINE
  5
36E
100
AcDbEntity
  8
KONSTRUKTIONSELEMENTE
100
AcDbLine
 62
7
  6
CONTINUOUS
 10
189.117127784
 20
92.0243395453
 11
189.0480209628
 21
91.7799109505
  0
LINE
  5
36F
100
AcDbEntity
  8
KONSTRUKTIONSELEMENTE
100
AcDbLine
 62
7
  6
CONTINUOUS
 10
189.3551313533
 20
91.6930822272
 11
189.4242381745
 21
91.9375108219
  0
LINE
  5
370
100
AcDbEntity
  8
KONSTRUKTIONSELEMENTE
100
AcDbLine
 62
7
  6
CONTINUOUS
 10
190.0096417709
 20
90.7821263202
 11
189.9232581456
 21
90.4765902271
  0
LINE
  5
371
100
AcDbEntity
  8
KONSTRUKTIONSELEMENTE
100
AcDbLine
 62
7
  6
CONTINUOUS
 10
190.7467339043
 20
91.6295948017
 11
190.6430738703
 21
91.2629526089
  0
LINE
  5
372
100
AcDbEntity
  8
KONSTRUKTIONSELEMENTE
100
AcDbLine
 62
7
  6
CONTINUOUS
 10
191.6244370478
 20
94.2226915744
 11
191.7544883789
 21
94.5896037625
  0
LINE
  5
373
100
AcDbEntity
  8
KONSTRUKTIONSELEMENTE
100
AcDbLine
 62
7
  6
CONTINUOUS
 10
191.3591395552
 20
94.6429833671
 11
191.2375850298
 21
94.3390015692
  0
LINE
  5
374
100
AcDbEntity
  8
KONSTRUKTIONSELEMENTE
100
AcDbLine
 62
7
  6
CONTINUOUS
 10
185.4802643469
 20
82.331402785
 11
185.3637407622
 21
82.092009851
  0
LINE
  5
375
100
AcDbEntity
  8
KONSTRUKTIONSELEMENTE
100
AcDbLine
 62
7
  6
CONTINUOUS
 10
189.4242381745
 20
91.9375108219
 11
189.6046758062
 21
92.2824458339
  0
LINE
  5
376
100
AcDbEntity
  8
KONSTRUKTIONSELEMENTE
100
AcDbLine
 62
7
  6
CONTINUOUS
 10
185.7116125498
 20
81.7631309736
 11
185.8717620563
 21
82.048669257
  0
LINE
  5
377
100
AcDbEntity
  8
KONSTRUKTIONSELEMENTE
100
AcDbLine
 62
7
  6
CONTINUOUS
 10
190.6430738703
 20
91.2629526089
 11
190.4799130427
 21
90.9791250953
  0
LINE
  5
378
100
AcDbEntity
  8
KONSTRUKTIONSELEMENTE
100
AcDbLine
 62
7
  6
CONTINUOUS
 10
190.863801078
 20
90.8705891778
 11
191.0096855035
 21
91.0933105898
  0
LINE
  5
379
100
AcDbEntity
  8
KONSTRUKTIONSELEMENTE
100
AcDbLine
 62
7
  6
CONTINUOUS
 10
182.9268629895
 20
79.91306488
 11
182.7763661975
 21
79.693434229
  0
LINE
  5
37A
100
AcDbEntity
  8
KONSTRUKTIONSELEMENTE
100
AcDbLine
 62
7
  6
CONTINUOUS
 10
183.0720313843
 20
79.3169263354
 11
183.272471537
 21
79.5757766592
  0
LINE
  5
37B
100
AcDbEntity
  8
KONSTRUKTIONSELEMENTE
100
AcDbLine
 62
7
  6
CONTINUOUS
 10
185.3637407622
 20
82.092009851
 11
184.5784800715
 21
81.261399985
  0
LINE
  5
37C
100
AcDbEntity
  8
KONSTRUKTIONSELEMENTE
100
AcDbLine
 62
7
  6
CONTINUOUS
 10
182.7763661975
 20
79.693434229
 11
182.5765918801
 21
79.5365548863
  0
LINE
  5
37D
100
AcDbEntity
  8
KONSTRUKTIONSELEMENTE
100
AcDbLine
 62
7
  6
CONTINUOUS
 10
179.4140627369
 20
79.3969944897
 11
178.3676964945
 21
78.7962706803
  0
LINE
  5
37E
100
AcDbEntity
  8
KONSTRUKTIONSELEMENTE
100
AcDbLine
 62
7
  6
CONTINUOUS
 10
178.6060468721
 20
78.3811018704
 11
179.5422693203
 21
78.9185916066
  0
LINE
  5
37F
100
AcDbEntity
  8
KONSTRUKTIONSELEMENTE
100
AcDbLine
 62
7
  6
CONTINUOUS
 10
182.5732618547
 20
79.0266992964
 11
182.8722570669
 21
79.1600469927
  0
LINE
  5
380
100
AcDbEntity
  8
KONSTRUKTIONSELEMENTE
100
AcDbLine
 62
7
  6
CONTINUOUS
 10
182.5765918801
 20
79.5365548863
 11
182.327540323
 21
79.4424270763
  0
LINE
  5
381
100
AcDbEntity
  8
KONSTRUKTIONSELEMENTE
100
AcDbLine
 62
7
  6
CONTINUOUS
 10
157.4344416186
 20
120.7367197438
 11
179.4571571641
 21
120.7367197438
  0
LINE
  5
382
100
AcDbEntity
  8
KONSTRUKTIONSELEMENTE
100
AcDbLine
 62
7
  6
CONTINUOUS
 10
190.1131437054
 20
105.5873855841
 11
190.2500994571
 21
105.4327825494
  0
LINE
  5
383
100
AcDbEntity
  8
KONSTRUKTIONSELEMENTE
100
AcDbLine
 62
7
  6
CONTINUOUS
 10
187.1655115523
 20
108.8754978012
 11
182.6659982845
 21
114.237808903
  0
LINE
  5
384
100
AcDbEntity
  8
KONSTRUKTIONSELEMENTE
100
AcDbLine
 62
7
  6
CONTINUOUS
 10
190.6482034889
 20
105.5013103047
 11
190.4702937891
 21
105.7761349323
  0
LINE
  5
385
100
AcDbEntity
  8
KONSTRUKTIONSELEMENTE
100
AcDbLine
 62
7
  6
CONTINUOUS
 10
188.3824440403
 20
104.7294707687
 11
188.4848274883
 21
104.4289209084
  0
LINE
  5
386
100
AcDbEntity
  8
KONSTRUKTIONSELEMENTE
100
AcDbLine
 62
7
  6
CONTINUOUS
 10
188.8829314673
 20
104.4974486457
 11
188.7395931403
 21
104.9182228527
  0
LINE
  5
387
100
AcDbEntity
  8
KONSTRUKTIONSELEMENTE
100
AcDbLine
 62
7
  6
CONTINUOUS
 10
190.2500994571
 20
105.4327825494
 11
190.393437784
 21
105.0120083424
  0
LINE
  5
388
100
AcDbEntity
  8
KONSTRUKTIONSELEMENTE
100
AcDbLine
 62
7
  6
CONTINUOUS
 10
191.3225543788
 20
94.9683155635
 11
191.3591395552
 21
94.6429833671
  0
LINE
  5
389
100
AcDbEntity
  8
KONSTRUKTIONSELEMENTE
100
AcDbLine
 62
7
  6
CONTINUOUS
 10
191.9975987495
 20
98.6504038872
 11
191.9582407372
 21
99.029379938
  0
LINE
  5
38A
100
AcDbEntity
  8
KONSTRUKTIONSELEMENTE
100
AcDbLine
 62
7
  6
CONTINUOUS
 10
191.8664054252
 20
99.9136569079
 11
191.8139279753
 21
100.4189592727
  0
LINE
  5
38B
100
AcDbEntity
  8
KONSTRUKTIONSELEMENTE
100
AcDbLine
 62
7
  6
CONTINUOUS
 10
191.7220926633
 20
101.3032362426
 11
191.682734651
 21
101.6822122934
  0
LINE
  5
38C
100
AcDbEntity
  8
KONSTRUKTIONSELEMENTE
100
AcDbLine
 62
7
  6
CONTINUOUS
 10
191.0096855035
 20
91.0933105898
 11
191.1478987504
 21
91.5821663806
  0
LINE
  5
38D
100
AcDbEntity
  8
KONSTRUKTIONSELEMENTE
100
AcDbLine
 62
7
  6
CONTINUOUS
 10
189.120435958
 20
86.4194111169
 11
189.2813924448
 21
86.7647586369
  0
LINE
  5
38E
100
AcDbEntity
  8
KONSTRUKTIONSELEMENTE
100
AcDbLine
 62
7
  6
CONTINUOUS
 10
189.6569573759
 20
87.5705690778
 11
189.8715664342
 21
88.0310333161
  0
LINE
  5
38F
100
AcDbEntity
  8
KONSTRUKTIONSELEMENTE
100
AcDbLine
 62
7
  6
CONTINUOUS
 10
190.2471313653
 20
88.8368437569
 11
190.408087852
 21
89.1821912769
  0
LINE
  5
390
100
AcDbEntity
  8
KONSTRUKTIONSELEMENTE
100
AcDbLine
 62
7
  6
CONTINUOUS
 10
184.6645982956
 20
80.6556511523
 11
185.7116125498
 21
81.7631309736
  0
LINE
  5
391
100
AcDbEntity
  8
KONSTRUKTIONSELEMENTE
100
AcDbLine
 62
7
  6
CONTINUOUS
 10
182.8722570669
 20
79.1600469927
 11
183.0720313843
 21
79.3169263354
  0
LINE
  5
392
100
AcDbEntity
  8
KONSTRUKTIONSELEMENTE
100
AcDbLine
 62
7
  6
CONTINUOUS
 10
179.1098418433
 20
76.7383085771
 11
179.4402733049
 21
76.9280108422
  0
LINE
  5
393
100
AcDbEntity
  8
KONSTRUKTIONSELEMENTE
100
AcDbLine
 62
7
  6
CONTINUOUS
 10
180.817071009
 20
77.7184369168
 11
181.2025744859
 21
77.9397562864
  0
LINE
  5
394
100
AcDbEntity
  8
KONSTRUKTIONSELEMENTE
100
AcDbLine
 62
7
  6
CONTINUOUS
 10
190.750586937
 20
105.2007604444
 11
190.6482034889
 21
105.5013103047
  0
LINE
  5
395
100
AcDbEntity
  8
KONSTRUKTIONSELEMENTE
100
AcDbLine
 62
7
  6
CONTINUOUS
 10
191.3703064419
 20
102.9965959597
 11
191.2850993025
 21
103.3679605293
  0
LINE
  5
396
100
AcDbEntity
  8
KONSTRUKTIONSELEMENTE
100
AcDbLine
 62
7
  6
CONTINUOUS
 10
71.1623720894
 20
74.7367197438
 11
71.1623720894
 21
120.7367197438
  0
LINE
  5
397
100
AcDbEntity
  8
KONSTRUKTIONSELEMENTE
100
AcDbLine
 62
7
  6
CONTINUOUS
 10
71.1623720894
 20
74.7367197438
 11
81.1623720894
 21
74.7367197438
  0
LINE
  5
398
100
AcDbEntity
  8
KONSTRUKTIONSELEMENTE
100
AcDbLine
 62
7
  6
CONTINUOUS
 10
90.1623720894
 20
82.7367197438
 11
114.1623720894
 21
82.7367197438
  0
LINE
  5
399
100
AcDbEntity
  8
KONSTRUKTIONSELEMENTE
100
AcDbLine
 62
7
  6
CONTINUOUS
 10
81.1623720894
 20
74.7367197438
 11
81.1623720894
 21
120.7367197438
  0
LINE
  5
39A
100
AcDbEntity
  8
KONSTRUKTIONSELEMENTE
100
AcDbLine
 62
7
  6
CONTINUOUS
 10
88.2481585244
 20
110.8225061788
 11
90.1623720894
 21
112.7367197438
  0
LINE
  5
39B
100
AcDbEntity
  8
0
100
AcDbLine
 62
2
  6
CONTINUOUS
 10
116.3093720894
 20
84.8837197438
 11
87.9685775043
 21
84.8837197438
  0
LINE
  5
39C
100
AcDbEntity
  8
KONSTRUKTIONSELEMENTE
100
AcDbLine
 62
7
  6
CONTINUOUS
 10
88.2481585244
 20
84.6509333088
 11
90.1623720894
 21
82.7367197438
  0
LINE
  5
39D
100
AcDbEntity
  8
KONSTRUKTIONSELEMENTE
100
AcDbLine
 62
7
  6
CONTINUOUS
 10
81.6623720894
 20
85.2367197438
 11
86.8339449646
 21
85.2367197438
  0
LINE
  5
39E
100
AcDbEntity
  8
0
100
AcDbLine
 62
7
  6
CONTINUOUS
 10
87.9685775043
 20
84.8837197438
 11
87.9685775043
 21
110.5897197438
  0
LINE
  5
39F
100
AcDbEntity
  8
KONSTRUKTIONSELEMENTE
100
AcDbLine
 62
7
  6
CONTINUOUS
 10
90.1623720894
 20
82.7367197438
 11
90.1623720894
 21
112.7367197438
  0
LINE
  5
3A0
100
AcDbEntity
  8
TEIL_STARTBEZUEGE
100
AcDbLine
 62
7
  6
CENTER
 10
68.1623720894
 20
97.7367197438
 11
120.1623720894
 21
97.7367197438
  0
LINE
  5
3A1
100
AcDbEntity
  8
KONSTRUKTIONSELEMENTE
100
AcDbLine
 62
7
  6
CONTINUOUS
 10
81.6623720894
 20
110.2367197438
 11
86.8339449646
 21
110.2367197438
  0
LINE
  5
3A2
100
AcDbEntity
  8
0
100
AcDbLine
 62
2
  6
CONTINUOUS
 10
116.3093720894
 20
110.5897197438
 11
87.9685775043
 21
110.5897197438
  0
LINE
  5
3A3
100
AcDbEntity
  8
KONSTRUKTIONSELEMENTE
100
AcDbLine
 62
7
  6
CONTINUOUS
 10
71.1623720894
 20
111.291519087
 11
81.1623720894
 21
111.291519087
  0
LINE
  5
3A4
100
AcDbEntity
  8
KONSTRUKTIONSELEMENTE
100
AcDbLine
 62
7
  6
CONTINUOUS
 10
90.1623720894
 20
112.7367197438
 11
114.1623720894
 21
112.7367197438
  0
LINE
  5
3A5
100
AcDbEntity
  8
KONSTRUKTIONSELEMENTE
100
AcDbLine
 62
7
  6
CONTINUOUS
 10
81.1623720894
 20
114.237808903
 11
71.1623720894
 21
114.237808903
  0
LINE
  5
3A6
100
AcDbEntity
  8
KONSTRUKTIONSELEMENTE
100
AcDbLine
 62
7
  6
CONTINUOUS
 10
71.1623720894
 20
116.6538301889
 11
81.1623720894
 21
116.6538301889
  0
LINE
  5
3A7
100
AcDbEntity
  8
FASEN
100
AcDbLine
 62
7
  6
CONTINUOUS
 10
114.1623720894
 20
82.7367197438
 11
114.1623720894
 21
112.7367197438
  0
LINE
  5
3A8
100
AcDbEntity
  8
0
100
AcDbLine
 62
7
  6
CONTINUOUS
 10
116.3093720894
 20
84.8837197438
 11
116.3093720894
 21
110.5897197438
  0
LINE
  5
3A9
100
AcDbEntity
  8
FASEN
100
AcDbLine
 62
7
  6
CONTINUOUS
 10
117.1623720894
 20
85.7367197438
 11
117.1623720894
 21
109.7367197438
  0
LINE
  5
3AA
100
AcDbEntity
  8
KONSTRUKTIONSELEMENTE
100
AcDbLine
 62
7
  6
CONTINUOUS
 10
71.1623720894
 20
120.7367197438
 11
81.1623720894
 21
120.7367197438
  0
LINE
  5
3AB
100
AcDbEntity
  8
FASEN
100
AcDbLine
 62
7
  6
CONTINUOUS
 10
114.1623720894
 20
82.7367197438
 11
117.1623720894
 21
85.7367197438
  0
LINE
  5
3AC
100
AcDbEntity
  8
FASEN
100
AcDbLine
 62
7
  6
CONTINUOUS
 10
114.1623720894
 20
112.7367197438
 11
117.1623720894
 21
109.7367197438
  0
ARC
  5
3AD
100
AcDbEntity
  8
KONSTRUKTIONSELEMENTE
100
AcDbCircle
 62
7
  6
CONTINUOUS
 10
168.4457993914
 20
97.7367197438
 40
25.5
100
AcDbArc
 50
47.8890302301
 51
64.4170126295
  0
ARC
  5
3AE
100
AcDbEntity
  8
KONSTRUKTIONSELEMENTE
100
AcDbCircle
 62
7
  6
CONTINUOUS
 10
168.4457993914
 20
97.7367197438
 40
25.5
100
AcDbArc
 50
295.5829873705
 51
32.1109697699
  0
ARC
  5
3AF
100
AcDbEntity
  8
KONSTRUKTIONSELEMENTE
100
AcDbCircle
 62
7
  6
CONTINUOUS
 10
168.4457993914
 20
97.7367197438
 40
25.5
100
AcDbArc
 50
227.8890302301
 51
244.4170126295
  0
ARC
  5
3B0
100
AcDbEntity
  8
KONSTRUKTIONSELEMENTE
100
AcDbCircle
 62
7
  6
CONTINUOUS
 10
168.4457993914
 20
97.7367197438
 40
25.5
100
AcDbArc
 50
115.5829873705
 51
212.1109697699
  0
ARC
  5
3B1
100
AcDbEntity
  8
0
100
AcDbCircle
 62
2
  6
CONTINUOUS
 10
168.4457993914
 20
97.7367197438
 40
8.0
100
AcDbArc
 50
255.0
 51
195.0
  0
CIRCLE
  5
3B2
100
AcDbEntity
  8
BOHRUNGEN
100
AcDbCircle
 62
7
  6
CONTINUOUS
 10
168.4457993914
 20
97.7367197438
 40
8.0
  0
CIRCLE
  5
3B3
100
AcDbEntity
  8
BOHRUNGEN
100
AcDbCircle
 62
7
  6
CONTINUOUS
 10
168.4457993914
 20
97.7367197438
 40
7.0
  0
CIRCLE
  5
3B4
100
AcDbEntity
  8
BEZUGSACHSEN
100
AcDbCircle
 62
7
  6
CONTINUOUS
 10
76.1623720894
 20
97.7367197438
 40
3.0
  0
ARC
  5
3B5
100
AcDbEntity
  8
KONSTRUKTIONSELEMENTE
100
AcDbCircle
 62
7
  6
CONTINUOUS
 10
86.8339449646
 20
112.2367197438
 40
2.0
100
AcDbArc
 50
270.0
 51
314.999999895
  0
ARC
  5
3B6
100
AcDbEntity
  8
KONSTRUKTIONSELEMENTE
100
AcDbCircle
 62
7
  6
CONTINUOUS
 10
86.8339449646
 20
83.2367197438
 40
2.0
100
AcDbArc
 50
45.000000105
 51
90.0
  0
ARC
  5
3B7
100
AcDbEntity
  8
RUNDUNGEN
100
AcDbCircle
 62
7
  6
CONTINUOUS
 10
81.6623720894
 20
110.7367197438
 40
0.5
100
AcDbArc
 50
180.0
 51
270.0
  0
ARC
  5
3B8
100
AcDbEntity
  8
RUNDUNGEN
100
AcDbCircle
 62
7
  6
CONTINUOUS
 10
81.6623720894
 20
84.7367197438
 40
0.5
100
AcDbArc
 50
90.0
 51
180.0
  0
ENDSEC
  0
SECTION
  2
OBJECTS
  0
DICTIONARY
  5
C
100
AcDbDictionary
280
0
281
1
  3
ACAD_GROUP
350
D
  3
ACAD_MLINESTYLE
350
17
  3
ACAD_LAYOUT
350
1A
  3
ACAD_PLOTSETTINGS
350
19
  3
ACAD_PLOTSTYLENAME
350
E
  0
DICTIONARY
  5
D
102
{ACAD_REACTORS
330
C
102
}
100
AcDbDictionary
280
0
281
1
  0
ACDBDICTIONARYWDFLT
  5
E
102
{ACAD_REACTORS
330
C
102
}
100
AcDbDictionary
281
1
  3
Normal
350
F
100
AcDbDictionaryWithDefault
340
F
  0
DICTIONARY
  5
17
102
{ACAD_REACTORS
330
C
102
}
100
AcDbDictionary
280
0
281
1
  3
Standard
350
18
  0
DICTIONARY
  5
19
102
{ACAD_REACTORS
330
C
102
}
100
AcDbDictionary
281
1
  0
DICTIONARY
  5
1A
102
{ACAD_REACTORS
330
C
102
}
100
AcDbDictionary
281
1
  3
Model
350
3B9
  3
Layout1
350
3BA
  0
ACDBPLACEHOLDER
  5
F
102
{ACAD_REACTORS
330
E
102
}
  0
MLINESTYLE
  5
18
102
{ACAD_REACTORS
330
17
102
}
100
AcDbMlineStyle
  2
STANDARD
 70
0
  3

 62
256
 51
90.0
 52
90.0
 71
2
 49
0.5
 62
256
  6
BYLAYER
 49
-0.5
 62
256
  6
BYLAYER
  0
LAYOUT
  5
3B9
102
{ACAD_REACTORS
330
1A
102
}
100
AcDbPlotSettings
  1

  2
none_device
  4
ISO_A4_(297.00_x_210.00_MM)
  6

 40
0.0
 41
0.0
 42
0.0
 43
0.0
 44
297.0
 45
210.0
 46
0.0
 47
0.0
 48
0.0
 49
0.0
140
0.0
141
0.0
142
1.0
143
1.0
 70
1024
 72
1
 73
0
 74
0
  7

 75
0
147
1.0
148
0.0
149
0.0
100
AcDbLayout
  1
Model
 70
0
 71
0
 10
0.0
 20
0.0
 11
297.0
 21
210.0
 12
0.0
 22
0.0
 32
0.0
 14
0.0
 24
0.0
 34
0.0
 15
0.0
 25
0.0
 35
0.0
146
0.0
 13
0.0
 23
0.0
 33
0.0
 16
1.0
 26
0.0
 36
0.0
 17
0.0
 27
1.0
 37
0.0
 76
0
330
20A
345
0
346
0
  0
LAYOUT
  5
3BA
102
{ACAD_REACTORS
330
1A
102
}
100
AcDbPlotSettings
  1

  2
none_device
  4
ISO_A4_(297.00_x_210.00_MM)
  6

 40
0.0
 41
0.0
 42
0.0
 43
0.0
 44
297.0
 45
210.0
 46
0.0
 47
0.0
 48
0.0
 49
0.0
140
0.0
141
0.0
142
1.0
143
1.0
 70
0
 72
1
 73
0
 74
0
  7

 75
0
147
1.0
148
0.0
149
0.0
100
AcDbLayout
  1
Layout1
 70
0
 71
1
 10
0.0
 20
0.0
 11
297.0
 21
210.0
 12
0.0
 22
0.0
 32
0.0
 14
0.0
 24
0.0
 34
0.0
 15
0.0
 25
0.0
 35
0.0
146
0.0
 13
0.0
 23
0.0
 33
0.0
 16
1.0
 26
0.0
 36
0.0
 17
0.0
 27
1.0
 37
0.0
 76
0
330
20B
345
0
346
0
  0
ENDSEC
  0
EOF
