999
DXF file: C:\Aktuell-Internet\CAD-Daten\2vb1-8.dxf
999
Pro/ENGINEER 2001400 by Parametric Technology Corporation
0
SECTION
2
HEADER
9
$ACADVER
1
AC1014
9
$EXTMAX
10
420.0000000000
20
297.0000000000
9
$EXTMIN
10
0.0000000000
20
0.0000000000
9
$LIMMIN
10
0.0000000000
20
0.0000000000
9
$LIMMAX
10
420.0000000000
20
297.0000000000
9
$VIEWCTR
10
210.0000000000
20
148.5000000000
9
$VIEWSIZE
40
297.0000000000
9
$CLAYER
8
0
9
$LTSCALE
40
23.1000000000
9
$CELTYPE
6
BYLAYER
9
$DIMSCALE
40
1
9
$DIMASZ
40
3.5000000000
9
$DIMEXO
40
2.6250000000
9
$DIMDLI
40
15.9600000000
9
$DIMEXE
40
7.5600000000
9
$DIMCEN
40
3.7800000000
9
$DIMLFAC
40
1.0000000000
9
$DIMTXT
40
3.5000000000
9
$DIMTOL
70
1
9
$DIMTFAC
40
0.6000000000
9
$DIMTP
40
0.0050000000
9
$DIMTM
40
0.0050000000
9
$HANDSEED
5
3E2
0
ENDSEC
0
SECTION
2
CLASSES
0
ENDSEC
0
SECTION
2
TABLES
0
TABLE
2
VPORT
5
8
100
AcDbSymbolTable
70
2
0
VPORT
5
1F4
100
AcDbSymbolTableRecord
100
AcDbViewportTableRecord
2
*ACTIVE
70
0
10
0.0
20
0.0
11
1.0
21
1.0
12
210.0000000000
22
148.5000000000
13
0.0
23
0.0
14
1.0
24
1.0
15
0.0
25
0.0
16
0.0
26
0.0
36
1.0
17
0.0
27
0.0
37
0.0
40
297.0000000000
41
1.4141414141
42
50.0
43
0.0
44
0.0
50
0.0
51
0.0
71
0
72
100
73
1
74
1
75
0
76
0
77
0
78
0
0
ENDTAB
0
TABLE
2
LTYPE
5
5
100
AcDbSymbolTable
70
6
0
LTYPE
5
14
100
AcDbSymbolTableRecord
100
AcDbLinetypeTableRecord
2
BYBLOCK
70
0
3

72
65
73
0
40
0.0
0
LTYPE
5
15
100
AcDbSymbolTableRecord
100
AcDbLinetypeTableRecord
2
BYLAYER
70
0
3

72
65
73
0
40
0.0
0
LTYPE
5
16
100
AcDbSymbolTableRecord
100
AcDbLinetypeTableRecord
2
CONTINUOUS
70
64
3
Solid line
72
65
73
0
40
0
0
LTYPE
5
1F5
100
AcDbSymbolTableRecord
100
AcDbLinetypeTableRecord
2
CENTER
70
64
3
____ _ ____ _ ____ _ ____ _ ____ _ ____ _ ____
72
65
73
4
40
0.6
49
0.375
74
0
49
-0.075
74
0
49
0.075
74
0
49
-0.075
74
0
0
LTYPE
5
1F6
100
AcDbSymbolTableRecord
100
AcDbLinetypeTableRecord
2
HIDDEN
70
64
3
- - - - - - - - - - - - - - - - - - - -
72
65
73
2
40
0.2
49
0.1
74
0
49
-0.1
74
0
0
LTYPE
5
1F7
100
AcDbSymbolTableRecord
100
AcDbLinetypeTableRecord
2
PHANTOM
70
64
3
_____ _ _ _____ _ _ _____ _ _ _____
72
65
73
6
40
0.8
49
0.45
74
0
49
-0.05
74
0
49
0.1
74
0
49
-0.05
74
0
49
0.1
74
0
49
-0.05
74
0
0
LTYPE
5
1F8
100
AcDbSymbolTableRecord
100
AcDbLinetypeTableRecord
2
DOT
70
64
3
. . . . . . . . . . . . . . . . . . . .
72
65
73
2
40
0.2
49
0.1
74
0
49
-0.1
74
0
0
LTYPE
5
1F9
100
AcDbSymbolTableRecord
100
AcDbLinetypeTableRecord
2
DASHED
70
64
3
- - - - - - - - - - - - - - - - - - - -
72
65
73
2
40
0.2
49
0.1
74
0
49
-0.1
74
0
0
ENDTAB
0
TABLE
2
LAYER
5
2
100
AcDbSymbolTable
70
36
0
LAYER
5
10
100
AcDbSymbolTableRecord
100
AcDbLayerTableRecord
2
0
70
0
62
7
6
CONTINUOUS
0
LAYER
5
1FA
100
AcDbSymbolTableRecord
100
AcDbLayerTableRecord
2
DEFAULT_1
70
0
62
7
6
CENTER
0
LAYER
5
1FB
100
AcDbSymbolTableRecord
100
AcDbLayerTableRecord
2
DEFAULT_2
70
0
62
8
6
HIDDEN
0
LAYER
5
1FC
100
AcDbSymbolTableRecord
100
AcDbLayerTableRecord
2
DEFAULT_3
70
0
62
7
6
PHANTOM
0
ENDTAB
0
TABLE
2
STYLE
5
3
100
AcDbSymbolTable
70
1
0
STYLE
5
11
100
AcDbSymbolTableRecord
100
AcDbTextStyleTableRecord
2
STANDARD
70
0
40
0.0
41
1.0
50
0.0
71
0
42
0.0
3
txt
4

0
STYLE
5
1FD
100
AcDbSymbolTableRecord
100
AcDbTextStyleTableRecord
2
TEXTSTYLE_0
70
0
40
0.0
41
0.80
50
0.0
71
0
42
0.2
3
txt
4

0
ENDTAB
0
TABLE
2
VIEW
5
6
100
AcDbSymbolTable
70
0
0
ENDTAB
0
TABLE
2
UCS
5
7
100
AcDbSymbolTable
70
0
0
ENDTAB
0
TABLE
2
APPID
5
9
100
AcDbSymbolTable
70
1
0
APPID
5
1FE
100
AcDbSymbolTableRecord
100
AcDbRegAppTableRecord
2
ACAD
70
0
0
ENDTAB
0
TABLE
2
DIMSTYLE
5
A
100
AcDbSymbolTable
70
1
0
DIMSTYLE
105
1FF
100
AcDbSymbolTableRecord
100
AcDbDimStyleTableRecord
2
STANDARD
70
0
3

4

5

6

7

40
1.0
41
0.18
42
0.0625
43
0.38
44
0.18
45
0.0
46
0.0
47
0.0050000000
48
0.0050000000
140
3.5000000000
141
0.09
142
0.0
143
25.4
144
1.0000000000
145
0.0
146
0.6000000000
147
0.09
71
1
72
0
73
1
74
1
75
0
76
0
77
0
78
0
170
0
171
2
172
0
173
0
174
0
175
0
176
0
177
0
178
0
270
2
271
3
272
4
273
2
274
2
340
11
275
0
280
0
281
0
282
0
283
1
284
0
285
0
286
0
287
3
288
0
0
ENDTAB
0
TABLE
2
BLOCK_RECORD
5
1
100
AcDbSymbolTable
70
0
0
BLOCK_RECORD
5
1B
100
AcDbSymbolTableRecord
100
AcDbBlockTableRecord
2
*MODEL_SPACE
0
BLOCK_RECORD
5
1C
100
AcDbSymbolTableRecord
100
AcDbBlockTableRecord
2
*PAPER_SPACE
0
ENDTAB
0
ENDSEC
0
SECTION
2
BLOCKS
0
BLOCK
5
1E
100
AcDbEntity
8
0
100
AcDbBlockBegin
2
*MODEL_SPACE
70
0
10
0.0
20
0.0
30
0.0
3
*MODEL_SPACE
1

0
ENDBLK
5
1F
100
AcDbEntity
8
0
100
AcDbBlockEnd
0
BLOCK
5
20
100
AcDbEntity
8
0
100
AcDbBlockBegin
2
*PAPER_SPACE
70
0
10
0.0
20
0.0
30
0.0
3
*PAPER_SPACE
1

0
ENDBLK
5
21
100
AcDbEntity
8
0
100
AcDbBlockEnd
0
ENDSEC
0
SECTION
2
ENTITIES
0
TEXT
5
200
100
AcDbEntity
8
0
100
AcDbText
62
2
6
CONTINUOUS
10
332.9654643018
20
120.5683293488
7
TEXTSTYLE_0
40
4.5000000000
1
VB 1-8
50
90.0000000000
72
5
11
332.9654643018
21
140.7111864916
100
AcDbText
0
LINE
5
201
100
AcDbEntity
8
0
100
AcDbLine
62
7
6
CONTINUOUS
10
0.0000000000
20
0.0000000000
11
0.0000000000
21
297.0000000000
0
LINE
5
202
100
AcDbEntity
8
0
100
AcDbLine
62
7
6
CONTINUOUS
10
0.0000000000
20
0.0000000000
11
420.0000000000
21
0.0000000000
0
LINE
5
203
100
AcDbEntity
8
0
100
AcDbLine
62
7
6
CONTINUOUS
10
0.0000000000
20
297.0000000000
11
420.0000000000
21
297.0000000000
0
LINE
5
204
100
AcDbEntity
8
0
100
AcDbLine
62
7
6
CONTINUOUS
10
420.0000000000
20
0.0000000000
11
420.0000000000
21
297.0000000000
0
LINE
5
205
100
AcDbEntity
8
0
100
AcDbLine
62
7
6
CONTINUOUS
10
176.3374258942
20
121.7400763359
11
175.8055109895
21
121.9484088745
0
LINE
5
206
100
AcDbEntity
8
0
100
AcDbLine
62
7
6
CONTINUOUS
10
178.4650853640
20
121.8442437973
11
178.0395534999
21
122.0525763359
0
LINE
5
207
100
AcDbEntity
8
0
100
AcDbLine
62
7
6
CONTINUOUS
10
178.5714683301
20
122.3650763359
11
178.2523194319
21
122.5734088745
0
LINE
5
208
100
AcDbEntity
8
0
100
AcDbLine
62
7
6
CONTINUOUS
10
176.3374258942
20
122.2609088745
11
175.9118939555
21
122.5734088745
0
LINE
5
209
100
AcDbEntity
8
0
100
AcDbLine
62
7
6
CONTINUOUS
10
177.0821068055
20
124.6567426052
11
176.6565747923
21
124.9692426052
0
LINE
5
20A
100
AcDbEntity
8
0
100
AcDbLine
62
7
6
CONTINUOUS
10
175.8055109895
20
121.9484088745
11
175.4863620541
21
122.2609088745
0
LINE
5
20B
100
AcDbEntity
8
0
100
AcDbLine
62
7
6
CONTINUOUS
10
178.0395534999
20
122.0525763359
11
177.7204046017
21
122.3650763359
0
LINE
5
20C
100
AcDbEntity
8
0
100
AcDbLine
62
7
6
CONTINUOUS
10
178.2523194319
20
122.5734088745
11
177.9331705338
21
122.9900763359
0
LINE
5
20D
100
AcDbEntity
8
0
100
AcDbLine
62
7
6
CONTINUOUS
10
175.4863620541
20
122.2609088745
11
175.1672131280
21
122.7817437973
0
LINE
5
20E
100
AcDbEntity
8
0
100
AcDbLine
62
7
6
CONTINUOUS
10
175.9118939555
20
122.5734088745
11
175.6991280234
21
122.9900763359
0
LINE
5
20F
100
AcDbEntity
8
0
100
AcDbLine
62
7
6
CONTINUOUS
10
169.5608301527
20
149.5525763359
11
169.5608301527
21
113.5525763359
0
LINE
5
210
100
AcDbEntity
8
0
100
AcDbLine
62
7
6
CONTINUOUS
10
176.6565747923
20
125.4900763359
11
177.1884897715
21
125.2817426052
0
LINE
5
211
100
AcDbEntity
8
0
100
AcDbLine
62
7
6
CONTINUOUS
10
179.3161493904
20
125.1775763359
11
178.7842342621
21
125.3859100666
0
LINE
5
212
100
AcDbEntity
8
0
100
AcDbLine
62
7
6
CONTINUOUS
10
179.1033834583
20
124.6567426052
11
178.7842342621
21
124.8650763359
0
LINE
5
213
100
AcDbEntity
8
0
100
AcDbLine
62
7
6
CONTINUOUS
10
179.2097664243
20
129.2400763359
11
178.4650853640
21
129.8650763359
0
LINE
5
214
100
AcDbEntity
8
0
100
AcDbLine
62
7
6
CONTINUOUS
10
180.0608301527
20
129.2400763359
11
179.3161493904
21
129.8650763359
0
LINE
5
215
100
AcDbEntity
8
0
100
AcDbLine
62
7
6
CONTINUOUS
10
179.6352982885
20
124.8650763359
11
179.3161493904
21
125.1775763359
0
LINE
5
216
100
AcDbEntity
8
0
100
AcDbLine
62
7
6
CONTINUOUS
10
177.5076386697
20
124.8650763359
11
177.1884897715
21
125.2817426052
0
LINE
5
217
100
AcDbEntity
8
0
100
AcDbLine
62
7
6
CONTINUOUS
10
179.4225323564
20
124.2400763359
11
179.1033834583
21
124.6567426052
0
LINE
5
218
100
AcDbEntity
8
0
100
AcDbLine
62
7
6
CONTINUOUS
10
179.9544471866
20
124.3442437973
11
179.6352982885
21
124.8650763359
0
LINE
5
219
100
AcDbEntity
8
0
100
AcDbLine
62
7
6
CONTINUOUS
10
177.7204046017
20
122.3650763359
11
177.6140216357
21
122.5734088745
0
LINE
5
21A
100
AcDbEntity
8
0
100
AcDbLine
62
7
6
CONTINUOUS
10
177.2948727376
20
124.2400763359
11
177.0821068055
21
124.6567426052
0
LINE
5
21B
100
AcDbEntity
8
0
100
AcDbLine
62
7
6
CONTINUOUS
10
177.6140216357
20
124.6567426052
11
177.5076386697
21
124.8650763359
0
LINE
5
21C
100
AcDbEntity
8
0
100
AcDbLine
62
7
6
CONTINUOUS
10
175.6991280234
20
122.9900763359
11
175.5927450574
21
123.4067437973
0
LINE
5
21D
100
AcDbEntity
8
0
100
AcDbLine
62
7
6
CONTINUOUS
10
177.4012557036
20
123.8234088745
11
177.2948727376
21
124.2400763359
0
LINE
5
21E
100
AcDbEntity
8
0
100
AcDbLine
62
7
6
CONTINUOUS
10
177.9331705338
20
122.9900763359
11
177.8267875678
21
123.4067437973
0
LINE
5
21F
100
AcDbEntity
8
0
100
AcDbLine
62
7
6
CONTINUOUS
10
175.1672131280
20
122.7817437973
11
175.0608301527
21
123.3025763359
0
LINE
5
220
100
AcDbEntity
8
0
100
AcDbLine
62
7
6
CONTINUOUS
10
175.0608301527
20
142.8859096195
11
175.0608301527
21
142.0525763359
0
LINE
5
221
100
AcDbEntity
8
0
100
AcDbLine
62
7
6
CONTINUOUS
10
175.0608301527
20
139.5525763359
11
175.0608301527
21
137.0525763359
0
LINE
5
222
100
AcDbEntity
8
0
100
AcDbLine
62
7
6
CONTINUOUS
10
175.0608301527
20
129.2400763359
11
175.0608301527
21
128.6150763359
0
LINE
5
223
100
AcDbEntity
8
0
100
AcDbLine
62
7
6
CONTINUOUS
10
175.0608301527
20
123.9275763359
11
175.0608301527
21
123.3025763359
0
LINE
5
224
100
AcDbEntity
8
0
100
AcDbLine
62
7
6
CONTINUOUS
10
175.5927450574
20
123.8234088745
11
175.5927450574
21
123.4067437973
0
LINE
5
225
100
AcDbEntity
8
0
100
AcDbLine
62
7
6
CONTINUOUS
10
175.6991280234
20
138.9275763359
11
175.6991280234
21
136.9484094705
0
LINE
5
226
100
AcDbEntity
8
0
100
AcDbLine
62
7
6
CONTINUOUS
10
176.8693407244
20
127.7817426052
11
176.8693407244
21
126.3234100666
0
LINE
5
227
100
AcDbEntity
8
0
100
AcDbLine
62
7
6
CONTINUOUS
10
177.2948727376
20
138.9275763359
11
177.2948727376
21
136.9484094705
0
LINE
5
228
100
AcDbEntity
8
0
100
AcDbLine
62
7
6
CONTINUOUS
10
177.4012557036
20
127.7817426052
11
177.4012557036
21
126.3234100666
0
LINE
5
229
100
AcDbEntity
8
0
100
AcDbLine
62
7
6
CONTINUOUS
10
177.4012557036
20
123.8234088745
11
177.4012557036
21
123.4067437973
0
LINE
5
22A
100
AcDbEntity
8
0
100
AcDbLine
62
7
6
CONTINUOUS
10
176.6565747923
20
121.7400763359
11
176.3374258942
21
121.7400763359
0
LINE
5
22B
100
AcDbEntity
8
0
100
AcDbLine
62
7
6
CONTINUOUS
10
178.7842342621
20
121.8442437973
11
178.4650853640
21
121.8442437973
0
LINE
5
22C
100
AcDbEntity
8
0
100
AcDbLine
62
7
6
CONTINUOUS
10
176.6565747923
20
122.2609088745
11
176.3374258942
21
122.2609088745
0
LINE
5
22D
100
AcDbEntity
8
0
100
AcDbLine
62
7
6
CONTINUOUS
10
178.7842342621
20
122.3650763359
11
178.5714683301
21
122.3650763359
0
LINE
5
22E
100
AcDbEntity
8
0
100
AcDbLine
62
7
6
CONTINUOUS
10
178.7842342621
20
124.8650763359
11
178.5714683301
21
124.8650763359
0
LINE
5
22F
100
AcDbEntity
8
0
100
AcDbLine
62
7
6
CONTINUOUS
10
175.9118939555
20
135.8025763359
11
175.4863620541
21
136.1150763359
0
LINE
5
230
100
AcDbEntity
8
0
100
AcDbLine
62
7
6
CONTINUOUS
10
178.1459364659
20
135.8025763359
11
177.7204046017
21
136.1150763359
0
LINE
5
231
100
AcDbEntity
8
0
100
AcDbLine
62
7
6
CONTINUOUS
10
176.0182769961
20
136.4275763359
11
175.8055109895
21
136.6359094705
0
LINE
5
232
100
AcDbEntity
8
0
100
AcDbLine
62
7
6
CONTINUOUS
10
178.2523194319
20
136.4275763359
11
178.0395534999
21
136.6359094705
0
LINE
5
233
100
AcDbEntity
8
0
100
AcDbLine
62
7
6
CONTINUOUS
10
175.4863620541
20
136.1150763359
11
175.1672131280
21
136.5317432012
0
LINE
5
234
100
AcDbEntity
8
0
100
AcDbLine
62
7
6
CONTINUOUS
10
177.7204046017
20
136.1150763359
11
177.6140216357
21
136.3234094705
0
LINE
5
235
100
AcDbEntity
8
0
100
AcDbLine
62
7
6
CONTINUOUS
10
175.8055109895
20
136.6359094705
11
175.6991280234
21
136.9484094705
0
LINE
5
236
100
AcDbEntity
8
0
100
AcDbLine
62
7
6
CONTINUOUS
10
178.0395534999
20
136.6359094705
11
177.9331705338
21
136.9484094705
0
LINE
5
237
100
AcDbEntity
8
0
100
AcDbLine
62
7
6
CONTINUOUS
10
179.5289153225
20
123.8234088745
11
179.4225323564
21
124.2400763359
0
LINE
5
238
100
AcDbEntity
8
0
100
AcDbLine
62
7
6
CONTINUOUS
10
175.1672131280
20
136.5317432012
11
175.0608301527
21
137.0525763359
0
LINE
5
239
100
AcDbEntity
8
0
100
AcDbLine
62
7
6
CONTINUOUS
10
180.0608301527
20
123.8234088745
11
179.9544471866
21
124.3442437973
0
LINE
5
23A
100
AcDbEntity
8
0
100
AcDbLine
62
7
6
CONTINUOUS
10
177.8267875678
20
123.8234088745
11
177.8267875678
21
123.4067437973
0
LINE
5
23B
100
AcDbEntity
8
0
100
AcDbLine
62
7
6
CONTINUOUS
10
177.9331705338
20
138.9275763359
11
177.9331705338
21
136.9484094705
0
LINE
5
23C
100
AcDbEntity
8
0
100
AcDbLine
62
7
6
CONTINUOUS
10
179.4225323564
20
138.9275763359
11
179.4225323564
21
136.9484094705
0
LINE
5
23D
100
AcDbEntity
8
0
100
AcDbLine
62
7
6
CONTINUOUS
10
179.5289153225
20
123.8234088745
11
179.5289153225
21
123.4067437973
0
LINE
5
23E
100
AcDbEntity
8
0
100
AcDbLine
62
7
6
CONTINUOUS
10
180.0608301527
20
144.5525763359
11
180.0608301527
21
143.9275763359
0
LINE
5
23F
100
AcDbEntity
8
0
100
AcDbLine
62
7
6
CONTINUOUS
10
180.0608301527
20
141.0109097686
11
180.0608301527
21
140.3859097686
0
LINE
5
240
100
AcDbEntity
8
0
100
AcDbLine
62
7
6
CONTINUOUS
10
180.0608301527
20
139.5525763359
11
180.0608301527
21
137.0525763359
0
LINE
5
241
100
AcDbEntity
8
0
100
AcDbLine
62
7
6
CONTINUOUS
10
180.0608301527
20
129.2400763359
11
180.0608301527
21
128.6150763359
0
LINE
5
242
100
AcDbEntity
8
0
100
AcDbLine
62
7
6
CONTINUOUS
10
180.0608301527
20
123.8234088745
11
180.0608301527
21
123.4067437973
0
LINE
5
243
100
AcDbEntity
8
0
100
AcDbLine
62
7
6
CONTINUOUS
10
175.1672131280
20
124.4484088745
11
175.0608301527
21
123.9275763359
0
LINE
5
244
100
AcDbEntity
8
0
100
AcDbLine
62
7
6
CONTINUOUS
10
176.6565747923
20
124.9692426052
11
176.3374258942
21
124.9692426052
0
LINE
5
245
100
AcDbEntity
8
0
100
AcDbLine
62
7
6
CONTINUOUS
10
178.7842342621
20
125.3859100666
11
178.4650853640
21
125.3859100666
0
LINE
5
246
100
AcDbEntity
8
0
100
AcDbLine
62
7
6
CONTINUOUS
10
176.3374258942
20
125.4900763359
11
176.6565747923
21
125.4900763359
0
LINE
5
247
100
AcDbEntity
8
0
100
AcDbLine
62
7
6
CONTINUOUS
10
176.8693407244
20
126.3234100666
11
177.4012557036
21
126.3234100666
0
LINE
5
248
100
AcDbEntity
8
0
100
AcDbLine
62
7
6
CONTINUOUS
10
177.4012557036
20
127.7817426052
11
176.8693407244
21
127.7817426052
0
LINE
5
249
100
AcDbEntity
8
0
100
AcDbLine
62
7
6
CONTINUOUS
10
175.0608301527
20
128.6150763359
11
180.0608301527
21
128.6150763359
0
LINE
5
24A
100
AcDbEntity
8
0
100
AcDbLine
62
7
6
CONTINUOUS
10
179.2097664243
20
129.2400763359
11
175.0608301527
21
129.2400763359
0
LINE
5
24B
100
AcDbEntity
8
0
100
AcDbLine
62
7
6
CONTINUOUS
10
179.3161493904
20
129.8650763359
11
178.4650853640
21
129.8650763359
0
LINE
5
24C
100
AcDbEntity
8
0
100
AcDbLine
62
7
6
CONTINUOUS
10
176.2310429281
20
135.6984094705
11
175.9118939555
21
135.8025763359
0
LINE
5
24D
100
AcDbEntity
8
0
100
AcDbLine
62
7
6
CONTINUOUS
10
176.3374258942
20
136.3234094705
11
176.0182769961
21
136.4275763359
0
LINE
5
24E
100
AcDbEntity
8
0
100
AcDbLine
62
7
6
CONTINUOUS
10
178.4650853640
20
135.6984094705
11
178.1459364659
21
135.8025763359
0
LINE
5
24F
100
AcDbEntity
8
0
100
AcDbLine
62
7
6
CONTINUOUS
10
178.5714683301
20
136.3234094705
11
178.2523194319
21
136.4275763359
0
LINE
5
250
100
AcDbEntity
8
0
100
AcDbLine
62
7
6
CONTINUOUS
10
185.5608301527
20
149.5525763359
11
185.5608301527
21
113.5525763359
0
LINE
5
251
100
AcDbEntity
8
0
100
AcDbLine
62
7
6
CONTINUOUS
10
180.0608301527
20
137.0525763359
11
179.9544471866
21
136.5317432012
0
LINE
5
252
100
AcDbEntity
8
0
100
AcDbLine
62
7
6
CONTINUOUS
10
180.0608301527
20
123.4067437973
11
179.9544471866
21
122.8859088745
0
LINE
5
253
100
AcDbEntity
8
0
100
AcDbLine
62
7
6
CONTINUOUS
10
175.6991280234
20
124.2400763359
11
175.5927450574
21
123.8234088745
0
LINE
5
254
100
AcDbEntity
8
0
100
AcDbLine
62
7
6
CONTINUOUS
10
177.4012557036
20
123.4067437973
11
177.2948727376
21
122.9900763359
0
LINE
5
255
100
AcDbEntity
8
0
100
AcDbLine
62
7
6
CONTINUOUS
10
177.9331705338
20
124.2400763359
11
177.8267875678
21
123.8234088745
0
LINE
5
256
100
AcDbEntity
8
0
100
AcDbLine
62
7
6
CONTINUOUS
10
179.5289153225
20
123.4067437973
11
179.4225323564
21
122.9900763359
0
LINE
5
257
100
AcDbEntity
8
0
100
AcDbLine
62
7
6
CONTINUOUS
10
177.2948727376
20
136.9484094705
11
177.1884897715
21
136.6359094705
0
LINE
5
258
100
AcDbEntity
8
0
100
AcDbLine
62
7
6
CONTINUOUS
10
179.4225323564
20
136.9484094705
11
179.3161493904
21
136.6359094705
0
LINE
5
259
100
AcDbEntity
8
0
100
AcDbLine
62
7
6
CONTINUOUS
10
177.6140216357
20
136.3234094705
11
177.5076386697
21
136.1150763359
0
LINE
5
25A
100
AcDbEntity
8
0
100
AcDbLine
62
7
6
CONTINUOUS
10
205.9420279992
20
188.0100137517
11
213.7608301527
21
201.5525763359
0
LINE
5
25B
100
AcDbEntity
8
0
100
AcDbLine
62
7
6
CONTINUOUS
10
175.0608301527
20
142.0525763359
11
180.0608301527
21
140.3859097686
0
LINE
5
25C
100
AcDbEntity
8
0
100
AcDbLine
62
7
6
CONTINUOUS
10
180.0608301527
20
141.0109097686
11
175.6991280234
21
142.4692430522
0
LINE
5
25D
100
AcDbEntity
8
0
100
AcDbLine
62
7
6
CONTINUOUS
10
191.3608301527
20
201.5525763359
11
191.3608301527
21
207.9525763359
0
LINE
5
25E
100
AcDbEntity
8
0
100
AcDbLine
62
7
6
CONTINUOUS
10
198.7897077600
20
187.7525763359
11
198.8112366499
21
187.8480937457
0
LINE
5
25F
100
AcDbEntity
8
0
100
AcDbLine
62
7
6
CONTINUOUS
10
175.9118939555
20
124.6567426052
11
175.6991280234
21
124.2400763359
0
LINE
5
260
100
AcDbEntity
8
0
100
AcDbLine
62
7
6
CONTINUOUS
10
177.7204046017
20
124.8650763359
11
177.6140216357
21
124.6567426052
0
LINE
5
261
100
AcDbEntity
8
0
100
AcDbLine
62
7
6
CONTINUOUS
10
177.2948727376
20
122.9900763359
11
177.0821068055
21
122.5734088745
0
LINE
5
262
100
AcDbEntity
8
0
100
AcDbLine
62
7
6
CONTINUOUS
10
177.6140216357
20
122.5734088745
11
177.5076386697
21
122.3650763359
0
LINE
5
263
100
AcDbEntity
8
0
100
AcDbLine
62
7
6
CONTINUOUS
10
175.4863620541
20
124.9692426052
11
175.1672131280
21
124.4484088745
0
LINE
5
264
100
AcDbEntity
8
0
100
AcDbLine
62
7
6
CONTINUOUS
10
179.9544471866
20
136.5317432012
11
179.6352982885
21
136.1150763359
0
LINE
5
265
100
AcDbEntity
8
0
100
AcDbLine
62
7
6
CONTINUOUS
10
178.8906175262
20
135.6984094705
11
178.4650853640
21
135.6984094705
0
LINE
5
266
100
AcDbEntity
8
0
100
AcDbLine
62
7
6
CONTINUOUS
10
176.7629577583
20
135.6984094705
11
176.2310429281
21
135.6984094705
0
LINE
5
267
100
AcDbEntity
8
0
100
AcDbLine
62
7
6
CONTINUOUS
10
178.7842342621
20
136.3234094705
11
178.5714683301
21
136.3234094705
0
LINE
5
268
100
AcDbEntity
8
0
100
AcDbLine
62
7
6
CONTINUOUS
10
176.6565747923
20
136.3234094705
11
176.3374258942
21
136.3234094705
0
LINE
5
269
100
AcDbEntity
8
0
100
AcDbLine
62
7
6
CONTINUOUS
10
179.4225323564
20
138.9275763359
11
177.9331705338
21
138.9275763359
0
LINE
5
26A
100
AcDbEntity
8
0
100
AcDbLine
62
7
6
CONTINUOUS
10
177.2948727376
20
138.9275763359
11
175.6991280234
21
138.9275763359
0
LINE
5
26B
100
AcDbEntity
8
0
100
AcDbLine
62
7
6
CONTINUOUS
10
180.0608301527
20
139.5525763359
11
175.0608301527
21
139.5525763359
0
LINE
5
26C
100
AcDbEntity
8
0
100
AcDbLine
62
7
6
CONTINUOUS
10
194.5608301527
20
195.5812950438
11
194.5608301527
21
189.7525763359
0
LINE
5
26D
100
AcDbEntity
8
0
100
AcDbLine
62
7
6
CONTINUOUS
10
197.5608301527
20
161.5970180726
11
197.5608301527
21
187.7525763359
0
LINE
5
26E
100
AcDbEntity
8
0
100
AcDbLine
62
7
6
CONTINUOUS
10
179.9544471866
20
122.8859088745
11
179.6352982885
21
122.3650763359
0
LINE
5
26F
100
AcDbEntity
8
0
100
AcDbLine
62
7
6
CONTINUOUS
10
177.1884897715
20
136.6359094705
11
176.9757238394
21
136.4275763359
0
LINE
5
270
100
AcDbEntity
8
0
100
AcDbLine
62
7
6
CONTINUOUS
10
179.3161493904
20
136.6359094705
11
179.1033834583
21
136.4275763359
0
LINE
5
271
100
AcDbEntity
8
0
100
AcDbLine
62
7
6
CONTINUOUS
10
200.5608301527
20
153.1525763359
11
200.5608301527
21
203.5890914900
0
LINE
5
272
100
AcDbEntity
8
DEFAULT_1
100
AcDbLine
62
2
6
CENTER
10
202.5608301527
20
207.9525763359
11
202.5608301527
21
78.3745137196
0
LINE
5
273
100
AcDbEntity
8
DEFAULT_1
100
AcDbLine
62
2
6
CENTER
10
202.5608301527
20
207.9525763359
11
202.5608301527
21
215.7525763359
0
LINE
5
274
100
AcDbEntity
8
0
100
AcDbLine
62
7
6
CONTINUOUS
10
207.1970322347
20
159.6802434983
11
204.5608301527
21
153.1525763359
0
LINE
5
275
100
AcDbEntity
8
0
100
AcDbLine
62
7
6
CONTINUOUS
10
178.2523194319
20
124.6567426052
11
177.9331705338
21
124.2400763359
0
LINE
5
276
100
AcDbEntity
8
0
100
AcDbLine
62
7
6
CONTINUOUS
10
177.5076386697
20
122.3650763359
11
177.1884897715
21
121.9484088745
0
LINE
5
277
100
AcDbEntity
8
0
100
AcDbLine
62
7
6
CONTINUOUS
10
179.4225323564
20
122.9900763359
11
179.1033834583
21
122.5734088745
0
LINE
5
278
100
AcDbEntity
8
0
100
AcDbLine
62
7
6
CONTINUOUS
10
175.8055109895
20
125.2817426052
11
175.4863620541
21
124.9692426052
0
LINE
5
279
100
AcDbEntity
8
0
100
AcDbLine
62
7
6
CONTINUOUS
10
178.0395534999
20
125.1775763359
11
177.7204046017
21
124.8650763359
0
LINE
5
27A
100
AcDbEntity
8
0
100
AcDbLine
62
7
6
CONTINUOUS
10
177.5076386697
20
136.1150763359
11
177.0821068055
21
135.8025763359
0
LINE
5
27B
100
AcDbEntity
8
0
100
AcDbLine
62
7
6
CONTINUOUS
10
179.6352982885
20
136.1150763359
11
179.2097664243
21
135.8025763359
0
LINE
5
27C
100
AcDbEntity
8
0
100
AcDbLine
62
7
6
CONTINUOUS
10
175.6991280234
20
142.4692430522
11
180.0608301527
21
143.9275763359
0
LINE
5
27D
100
AcDbEntity
8
0
100
AcDbLine
62
7
6
CONTINUOUS
10
180.0608301527
20
144.5525763359
11
175.0608301527
21
142.8859096195
0
LINE
5
27E
100
AcDbEntity
8
0
100
AcDbLine
62
7
6
CONTINUOUS
10
200.5608301527
20
153.1525763359
11
197.9246280707
21
159.6802434983
0
LINE
5
27F
100
AcDbEntity
8
0
100
AcDbLine
62
7
6
CONTINUOUS
10
204.5608301527
20
153.1525763359
11
204.5608301527
21
203.5890914900
0
LINE
5
280
100
AcDbEntity
8
0
100
AcDbLine
62
7
6
CONTINUOUS
10
207.5608301527
20
161.5970180726
11
207.5608301527
21
187.7525763359
0
LINE
5
281
100
AcDbEntity
8
0
100
AcDbLine
62
7
6
CONTINUOUS
10
179.6352982885
20
122.3650763359
11
179.3161493904
21
122.0525763359
0
LINE
5
282
100
AcDbEntity
8
0
100
AcDbLine
62
7
6
CONTINUOUS
10
176.3374258942
20
124.9692426052
11
175.9118939555
21
124.6567426052
0
LINE
5
283
100
AcDbEntity
8
0
100
AcDbLine
62
7
6
CONTINUOUS
10
176.9757238394
20
136.4275763359
11
176.6565747923
21
136.3234094705
0
LINE
5
284
100
AcDbEntity
8
0
100
AcDbLine
62
7
6
CONTINUOUS
10
177.0821068055
20
135.8025763359
11
176.7629577583
21
135.6984094705
0
LINE
5
285
100
AcDbEntity
8
0
100
AcDbLine
62
7
6
CONTINUOUS
10
179.1033834583
20
136.4275763359
11
178.7842342621
21
136.3234094705
0
LINE
5
286
100
AcDbEntity
8
0
100
AcDbLine
62
7
6
CONTINUOUS
10
204.5608301527
20
153.1525763359
11
200.5608301527
21
153.1525763359
0
LINE
5
287
100
AcDbEntity
8
0
100
AcDbLine
62
7
6
CONTINUOUS
10
210.5608301527
20
189.7525763359
11
210.5608301527
21
195.5812950438
0
LINE
5
288
100
AcDbEntity
8
0
100
AcDbLine
62
7
6
CONTINUOUS
10
177.0821068055
20
122.5734088745
11
176.6565747923
21
122.2609088745
0
LINE
5
289
100
AcDbEntity
8
0
100
AcDbLine
62
7
6
CONTINUOUS
10
178.5714683301
20
124.8650763359
11
178.2523194319
21
124.6567426052
0
LINE
5
28A
100
AcDbEntity
8
0
100
AcDbLine
62
7
6
CONTINUOUS
10
179.1033834583
20
122.5734088745
11
178.7842342621
21
122.3650763359
0
LINE
5
28B
100
AcDbEntity
8
0
100
AcDbLine
62
7
6
CONTINUOUS
10
179.2097664243
20
135.8025763359
11
178.8906175262
21
135.6984094705
0
LINE
5
28C
100
AcDbEntity
8
0
100
AcDbLine
62
7
6
CONTINUOUS
10
213.7608301527
20
201.5525763359
11
213.7608301527
21
207.9525763359
0
LINE
5
28D
100
AcDbEntity
8
0
100
AcDbLine
62
7
6
CONTINUOUS
10
178.4650853640
20
125.3859100666
11
178.0395534999
21
125.1775763359
0
LINE
5
28E
100
AcDbEntity
8
0
100
AcDbLine
62
7
6
CONTINUOUS
10
176.3374258942
20
125.4900763359
11
175.8055109895
21
125.2817426052
0
LINE
5
28F
100
AcDbEntity
8
0
100
AcDbLine
62
7
6
CONTINUOUS
10
206.3319525453
20
187.7525763359
11
206.3104236555
21
187.8480937457
0
LINE
5
290
100
AcDbEntity
8
0
100
AcDbLine
62
7
6
CONTINUOUS
10
219.5608301527
20
113.5525763359
11
219.5608301527
21
149.5525763359
0
LINE
5
291
100
AcDbEntity
8
0
100
AcDbLine
62
7
6
CONTINUOUS
10
177.1884897715
20
121.9484088745
11
176.6565747923
21
121.7400763359
0
LINE
5
292
100
AcDbEntity
8
0
100
AcDbLine
62
7
6
CONTINUOUS
10
179.3161493904
20
122.0525763359
11
178.7842342621
21
121.8442437973
0
LINE
5
293
100
AcDbEntity
8
0
100
AcDbLine
62
7
6
CONTINUOUS
10
199.1796323062
20
188.0100137517
11
191.3608301527
21
201.5525763359
0
LINE
5
294
100
AcDbEntity
8
0
100
AcDbLine
62
7
6
CONTINUOUS
10
235.5608301527
20
113.5525763359
11
235.5608301527
21
149.5525763359
0
LINE
5
295
100
AcDbEntity
8
0
100
AcDbLine
62
7
6
CONTINUOUS
10
208.5608301527
20
187.7525763359
11
206.3319525453
21
187.7525763359
0
LINE
5
296
100
AcDbEntity
8
DEFAULT_2
100
AcDbLine
62
8
6
HIDDEN
10
205.8210469659
20
187.7525763359
11
205.8065121737
21
187.7525763359
0
LINE
5
297
100
AcDbEntity
8
0
100
AcDbLine
62
7
6
CONTINUOUS
10
199.3764844410
20
187.7525763359
11
199.3151481316
21
187.7525763359
0
LINE
5
298
100
AcDbEntity
8
0
100
AcDbLine
62
7
6
CONTINUOUS
10
199.3006133394
20
187.7525763359
11
199.2805269083
21
187.7525763359
0
LINE
5
299
100
AcDbEntity
8
0
100
AcDbLine
62
7
6
CONTINUOUS
10
196.5608301527
20
187.7525763359
11
198.7897077600
21
187.7525763359
0
LINE
5
29A
100
AcDbEntity
8
DEFAULT_2
100
AcDbLine
62
8
6
HIDDEN
10
199.3006133394
20
187.7525763359
11
199.3151481316
21
187.7525763359
0
LINE
5
29B
100
AcDbEntity
8
0
100
AcDbLine
62
7
6
CONTINUOUS
10
205.7451758644
20
187.7525763359
11
205.8065121737
21
187.7525763359
0
LINE
5
29C
100
AcDbEntity
8
0
100
AcDbLine
62
7
6
CONTINUOUS
10
205.8210469659
20
187.7525763359
11
205.8411333970
21
187.7525763359
0
LINE
5
29D
100
AcDbEntity
8
DEFAULT_1
100
AcDbLine
62
2
6
CENTER
10
202.5608301527
20
207.9525763359
11
194.7608301527
21
207.9525763359
0
LINE
5
29E
100
AcDbEntity
8
DEFAULT_1
100
AcDbLine
62
2
6
CENTER
10
202.5608301527
20
207.9525763359
11
210.3608301527
21
207.9525763359
0
LINE
5
29F
100
AcDbEntity
8
0
100
AcDbLine
62
7
6
CONTINUOUS
10
212.4805075668
20
213.1525763359
11
192.6411527386
21
213.1525763359
0
LINE
5
2A0
100
AcDbEntity
8
0
100
AcDbLine
62
7
6
CONTINUOUS
10
319.2230313603
20
219.1525763359
11
314.1884335732
21
213.1525763359
0
LINE
5
2A1
100
AcDbEntity
8
0
100
AcDbLine
62
7
6
CONTINUOUS
10
310.1591243997
20
181.7895918710
11
314.0029643485
21
203.5890914900
0
LINE
5
2A2
100
AcDbEntity
8
0
100
AcDbLine
62
7
6
CONTINUOUS
10
342.1371644306
20
121.7400763359
11
342.0943352941
21
121.7400763359
0
LINE
5
2A3
100
AcDbEntity
8
DEFAULT_2
100
AcDbLine
62
8
6
HIDDEN
10
342.0943352941
20
121.7400763359
11
341.6884335732
21
121.7400763359
0
LINE
5
2A4
100
AcDbEntity
8
DEFAULT_2
100
AcDbLine
62
8
6
HIDDEN
10
342.1371644476
20
121.8442437973
11
341.6884335732
21
121.8442437973
0
LINE
5
2A5
100
AcDbEntity
8
0
100
AcDbLine
62
7
6
CONTINUOUS
10
342.1797640407
20
121.9484088745
11
341.9934867207
21
121.9484088745
0
LINE
5
2A6
100
AcDbEntity
8
DEFAULT_2
100
AcDbLine
62
8
6
HIDDEN
10
341.9934867207
20
121.9484088745
11
341.6884335732
21
121.9484088745
0
LINE
5
2A7
100
AcDbEntity
8
DEFAULT_2
100
AcDbLine
62
8
6
HIDDEN
10
342.1740972248
20
122.0525763359
11
341.6884335732
21
122.0525763359
0
LINE
5
2A8
100
AcDbEntity
8
0
100
AcDbLine
62
7
6
CONTINUOUS
10
342.1371644306
20
122.2609088745
11
341.9147899013
21
122.2609088745
0
LINE
5
2A9
100
AcDbEntity
8
DEFAULT_2
100
AcDbLine
62
8
6
HIDDEN
10
341.9147899013
20
122.2609088745
11
341.6884335732
21
122.2609088745
0
LINE
5
2AA
100
AcDbEntity
8
0
100
AcDbLine
62
7
6
CONTINUOUS
10
342.1882567387
20
122.3650763359
11
342.1518622895
21
122.3650763359
0
LINE
5
2AB
100
AcDbEntity
8
DEFAULT_2
100
AcDbLine
62
8
6
HIDDEN
10
342.1518622895
20
122.3650763359
11
341.6884335732
21
122.3650763359
0
LINE
5
2AC
100
AcDbEntity
8
0
100
AcDbLine
62
7
6
CONTINUOUS
10
342.1882567379
20
122.5734088745
11
342.1740972248
21
122.5734088745
0
LINE
5
2AD
100
AcDbEntity
8
DEFAULT_2
100
AcDbLine
62
8
6
HIDDEN
10
342.1740972248
20
122.5734088745
11
342.0166523628
21
122.5734088745
0
LINE
5
2AE
100
AcDbEntity
8
0
100
AcDbLine
62
7
6
CONTINUOUS
10
342.0166523628
20
122.5734088745
11
341.8607097671
21
122.5734088745
0
LINE
5
2AF
100
AcDbEntity
8
DEFAULT_2
100
AcDbLine
62
8
6
HIDDEN
10
341.8607097671
20
122.5734088745
11
341.6884335732
21
122.5734088745
0
LINE
5
2B0
100
AcDbEntity
8
DEFAULT_2
100
AcDbLine
62
8
6
HIDDEN
10
341.8219516048
20
122.7817437973
11
341.6884335732
21
122.7817437973
0
LINE
5
2B1
100
AcDbEntity
8
DEFAULT_2
100
AcDbLine
62
8
6
HIDDEN
10
341.8219516019
20
122.8859088745
11
341.6884335732
21
122.8859088745
0
LINE
5
2B2
100
AcDbEntity
8
DEFAULT_2
100
AcDbLine
62
8
6
HIDDEN
10
342.1840115169
20
122.9900763359
11
341.9687976509
21
122.9900763359
0
LINE
5
2B3
100
AcDbEntity
8
0
100
AcDbLine
62
7
6
CONTINUOUS
10
341.9687976509
20
122.9900763359
11
341.8084655163
21
122.9900763359
0
LINE
5
2B4
100
AcDbEntity
8
DEFAULT_2
100
AcDbLine
62
8
6
HIDDEN
10
341.8084655163
20
122.9900763359
11
341.6884335732
21
122.9900763359
0
LINE
5
2B5
100
AcDbEntity
8
DEFAULT_2
100
AcDbLine
62
8
6
HIDDEN
10
341.7877756500
20
123.3025763359
11
341.6884335732
21
123.3025763359
0
LINE
5
2B6
100
AcDbEntity
8
DEFAULT_2
100
AcDbLine
62
8
6
HIDDEN
10
342.1868419081
20
123.4067437973
11
341.9425706018
21
123.4067437973
0
LINE
5
2B7
100
AcDbEntity
8
0
100
AcDbLine
62
7
6
CONTINUOUS
10
341.9425706018
20
123.4067437973
11
341.7877756500
21
123.4067437973
0
LINE
5
2B8
100
AcDbEntity
8
DEFAULT_2
100
AcDbLine
62
8
6
HIDDEN
10
341.7877756500
20
123.4067437973
11
341.6884335732
21
123.4067437973
0
LINE
5
2B9
100
AcDbEntity
8
DEFAULT_2
100
AcDbLine
62
8
6
HIDDEN
10
342.1868419146
20
123.8234088745
11
341.9425706018
21
123.8234088745
0
LINE
5
2BA
100
AcDbEntity
8
0
100
AcDbLine
62
7
6
CONTINUOUS
10
341.9425706018
20
123.8234088745
11
341.7877756500
21
123.8234088745
0
LINE
5
2BB
100
AcDbEntity
8
DEFAULT_2
100
AcDbLine
62
8
6
HIDDEN
10
341.7877756500
20
123.8234088745
11
341.6884335732
21
123.8234088745
0
LINE
5
2BC
100
AcDbEntity
8
DEFAULT_2
100
AcDbLine
62
8
6
HIDDEN
10
341.7877756500
20
123.9275763359
11
341.6884335732
21
123.9275763359
0
LINE
5
2BD
100
AcDbEntity
8
DEFAULT_2
100
AcDbLine
62
8
6
HIDDEN
10
342.1840115468
20
124.2400763359
11
341.9687976509
21
124.2400763359
0
LINE
5
2BE
100
AcDbEntity
8
0
100
AcDbLine
62
7
6
CONTINUOUS
10
341.9687976509
20
124.2400763359
11
341.8084655163
21
124.2400763359
0
LINE
5
2BF
100
AcDbEntity
8
DEFAULT_2
100
AcDbLine
62
8
6
HIDDEN
10
341.8084655163
20
124.2400763359
11
341.6884335732
21
124.2400763359
0
LINE
5
2C0
100
AcDbEntity
8
DEFAULT_2
100
AcDbLine
62
8
6
HIDDEN
10
341.8219516019
20
124.3442437973
11
341.6884335732
21
124.3442437973
0
LINE
5
2C1
100
AcDbEntity
8
DEFAULT_2
100
AcDbLine
62
8
6
HIDDEN
10
341.8219516048
20
124.4484088745
11
341.6884335732
21
124.4484088745
0
LINE
5
2C2
100
AcDbEntity
8
0
100
AcDbLine
62
7
6
CONTINUOUS
10
342.1882567379
20
124.6567426052
11
342.1740972248
21
124.6567426052
0
LINE
5
2C3
100
AcDbEntity
8
DEFAULT_2
100
AcDbLine
62
8
6
HIDDEN
10
342.1740972248
20
124.6567426052
11
342.0166523628
21
124.6567426052
0
LINE
5
2C4
100
AcDbEntity
8
0
100
AcDbLine
62
7
6
CONTINUOUS
10
342.0166523628
20
124.6567426052
11
341.8607096371
21
124.6567426052
0
LINE
5
2C5
100
AcDbEntity
8
DEFAULT_2
100
AcDbLine
62
8
6
HIDDEN
10
341.8607096371
20
124.6567426052
11
341.6884335732
21
124.6567426052
0
LINE
5
2C6
100
AcDbEntity
8
0
100
AcDbLine
62
7
6
CONTINUOUS
10
342.1882567379
20
124.8650763359
11
342.1518621377
21
124.8650763359
0
LINE
5
2C7
100
AcDbEntity
8
DEFAULT_2
100
AcDbLine
62
8
6
HIDDEN
10
342.1518621377
20
124.8650763359
11
341.6884335732
21
124.8650763359
0
LINE
5
2C8
100
AcDbEntity
8
0
100
AcDbLine
62
7
6
CONTINUOUS
10
342.1371644306
20
124.9692426052
11
341.9147899013
21
124.9692426052
0
LINE
5
2C9
100
AcDbEntity
8
DEFAULT_2
100
AcDbLine
62
8
6
HIDDEN
10
341.9147899013
20
124.9692426052
11
341.6884335732
21
124.9692426052
0
LINE
5
2CA
100
AcDbEntity
8
DEFAULT_2
100
AcDbLine
62
8
6
HIDDEN
10
342.1740972248
20
125.1775763359
11
341.6884335732
21
125.1775763359
0
LINE
5
2CB
100
AcDbEntity
8
0
100
AcDbLine
62
7
6
CONTINUOUS
10
342.1797640407
20
125.2817426052
11
341.9934867207
21
125.2817426052
0
LINE
5
2CC
100
AcDbEntity
8
DEFAULT_2
100
AcDbLine
62
8
6
HIDDEN
10
341.9934867207
20
125.2817426052
11
341.6884335732
21
125.2817426052
0
LINE
5
2CD
100
AcDbEntity
8
DEFAULT_2
100
AcDbLine
62
8
6
HIDDEN
10
342.1371644476
20
125.3859100666
11
341.6884335732
21
125.3859100666
0
LINE
5
2CE
100
AcDbEntity
8
DEFAULT_2
100
AcDbLine
62
8
6
HIDDEN
10
342.0943352941
20
125.4900763359
11
341.6884335732
21
125.4900763359
0
LINE
5
2CF
100
AcDbEntity
8
0
100
AcDbLine
62
7
6
CONTINUOUS
10
342.0943352941
20
125.4900763359
11
342.1371644306
21
125.4900763359
0
LINE
5
2D0
100
AcDbEntity
8
0
100
AcDbLine
62
7
6
CONTINUOUS
10
314.1884335732
20
187.7525763359
11
314.1884335732
21
213.1525763359
0
LINE
5
2D1
100
AcDbEntity
8
DEFAULT_2
100
AcDbLine
62
8
6
HIDDEN
10
342.1584926929
20
126.3234100666
11
341.6884335732
21
126.3234100666
0
LINE
5
2D2
100
AcDbEntity
8
0
100
AcDbLine
62
7
6
CONTINUOUS
10
342.1584926929
20
126.3234100666
11
342.1868419146
21
126.3234100666
0
LINE
5
2D3
100
AcDbEntity
8
0
100
AcDbLine
62
7
6
CONTINUOUS
10
342.1868419146
20
127.7817426052
11
342.1584926929
21
127.7817426052
0
LINE
5
2D4
100
AcDbEntity
8
DEFAULT_2
100
AcDbLine
62
8
6
HIDDEN
10
342.1584926929
20
127.7817426052
11
341.6884335732
21
127.7817426052
0
LINE
5
2D5
100
AcDbEntity
8
DEFAULT_2
100
AcDbLine
62
8
6
HIDDEN
10
341.7877756500
20
128.6150763359
11
341.6884335732
21
128.6150763359
0
LINE
5
2D6
100
AcDbEntity
8
0
100
AcDbLine
62
7
6
CONTINUOUS
10
341.7877756500
20
128.6150763359
11
342.1884335732
21
128.6150763359
0
LINE
5
2D7
100
AcDbEntity
8
DEFAULT_2
100
AcDbLine
62
8
6
HIDDEN
10
341.7877756500
20
129.2400763359
11
341.6884335732
21
129.2400763359
0
LINE
5
2D8
100
AcDbEntity
8
0
100
AcDbLine
62
7
6
CONTINUOUS
10
342.1883799032
20
129.2400763359
11
341.7877756500
21
129.2400763359
0
LINE
5
2D9
100
AcDbEntity
8
DEFAULT_2
100
AcDbLine
62
8
6
HIDDEN
10
342.1371644476
20
129.8650763359
11
341.6884335732
21
129.8650763359
0
LINE
5
2DA
100
AcDbEntity
8
0
100
AcDbLine
62
7
6
CONTINUOUS
10
342.1485466153
20
135.6984094705
11
342.0771385327
21
135.6984094705
0
LINE
5
2DB
100
AcDbEntity
8
DEFAULT_2
100
AcDbLine
62
8
6
HIDDEN
10
342.0771385327
20
135.6984094705
11
341.6884335732
21
135.6984094705
0
LINE
5
2DC
100
AcDbEntity
8
0
100
AcDbLine
62
7
6
CONTINUOUS
10
342.1740972248
20
135.8025763359
11
342.0166523628
21
135.8025763359
0
LINE
5
2DD
100
AcDbEntity
8
DEFAULT_2
100
AcDbLine
62
8
6
HIDDEN
10
342.0166523628
20
135.8025763359
11
341.6884335732
21
135.8025763359
0
LINE
5
2DE
100
AcDbEntity
8
0
100
AcDbLine
62
7
6
CONTINUOUS
10
323.6432925120
20
201.5525763359
11
323.6432925120
21
219.1525763359
0
LINE
5
2DF
100
AcDbEntity
8
0
100
AcDbLine
62
7
6
CONTINUOUS
10
342.1882567387
20
136.1150763359
11
341.9147899013
21
136.1150763359
0
LINE
5
2E0
100
AcDbEntity
8
DEFAULT_2
100
AcDbLine
62
8
6
HIDDEN
10
341.9147899013
20
136.1150763359
11
341.6884335732
21
136.1150763359
0
LINE
5
2E1
100
AcDbEntity
8
DEFAULT_2
100
AcDbLine
62
8
6
HIDDEN
10
341.8701640390
20
136.3234094705
11
341.6884335732
21
136.3234094705
0
LINE
5
2E2
100
AcDbEntity
8
0
100
AcDbLine
62
7
6
CONTINUOUS
10
342.1882567379
20
136.3234094705
11
341.8701640390
21
136.3234094705
0
LINE
5
2E3
100
AcDbEntity
8
DEFAULT_2
100
AcDbLine
62
8
6
HIDDEN
10
342.1670080450
20
136.4275763359
11
342.0383080792
21
136.4275763359
0
LINE
5
2E4
100
AcDbEntity
8
0
100
AcDbLine
62
7
6
CONTINUOUS
10
342.0383080792
20
136.4275763359
11
341.8465131767
21
136.4275763359
0
LINE
5
2E5
100
AcDbEntity
8
DEFAULT_2
100
AcDbLine
62
8
6
HIDDEN
10
341.8465131767
20
136.4275763359
11
341.6884335732
21
136.4275763359
0
LINE
5
2E6
100
AcDbEntity
8
DEFAULT_2
100
AcDbLine
62
8
6
HIDDEN
10
341.8219516048
20
136.5317432012
11
341.6884335732
21
136.5317432012
0
LINE
5
2E7
100
AcDbEntity
8
DEFAULT_2
100
AcDbLine
62
8
6
HIDDEN
10
342.1797640407
20
136.6359094705
11
341.9934867207
21
136.6359094705
0
LINE
5
2E8
100
AcDbEntity
8
0
100
AcDbLine
62
7
6
CONTINUOUS
10
341.9934867207
20
136.6359094705
11
341.8152390756
21
136.6359094705
0
LINE
5
2E9
100
AcDbEntity
8
DEFAULT_2
100
AcDbLine
62
8
6
HIDDEN
10
341.8152390756
20
136.6359094705
11
341.6884335732
21
136.6359094705
0
LINE
5
2EA
100
AcDbEntity
8
DEFAULT_2
100
AcDbLine
62
8
6
HIDDEN
10
342.1840115169
20
136.9484094705
11
341.9687976509
21
136.9484094705
0
LINE
5
2EB
100
AcDbEntity
8
0
100
AcDbLine
62
7
6
CONTINUOUS
10
341.9687976509
20
136.9484094705
11
341.7947341061
21
136.9484094705
0
LINE
5
2EC
100
AcDbEntity
8
DEFAULT_2
100
AcDbLine
62
8
6
HIDDEN
10
341.7947341061
20
136.9484094705
11
341.6884335732
21
136.9484094705
0
LINE
5
2ED
100
AcDbEntity
8
DEFAULT_2
100
AcDbLine
62
8
6
HIDDEN
10
341.7877756500
20
137.0525763359
11
341.6884335732
21
137.0525763359
0
LINE
5
2EE
100
AcDbEntity
8
DEFAULT_2
100
AcDbLine
62
8
6
HIDDEN
10
341.7877756500
20
138.9275763359
11
341.6884335732
21
138.9275763359
0
LINE
5
2EF
100
AcDbEntity
8
0
100
AcDbLine
62
7
6
CONTINUOUS
10
342.1840115169
20
138.9275763359
11
341.7877756500
21
138.9275763359
0
LINE
5
2F0
100
AcDbEntity
8
DEFAULT_2
100
AcDbLine
62
8
6
HIDDEN
10
341.7877756500
20
139.5525763359
11
341.6884335732
21
139.5525763359
0
LINE
5
2F1
100
AcDbEntity
8
0
100
AcDbLine
62
7
6
CONTINUOUS
10
342.1884335732
20
139.5525763359
11
341.7877756500
21
139.5525763359
0
LINE
5
2F2
100
AcDbEntity
8
DEFAULT_2
100
AcDbLine
62
8
6
HIDDEN
10
341.7877756500
20
140.3859097686
11
341.6884335732
21
140.3859097686
0
LINE
5
2F3
100
AcDbEntity
8
0
100
AcDbLine
62
7
6
CONTINUOUS
10
326.1884335732
20
174.5525763359
11
326.1884335732
21
88.5525763359
0
LINE
5
2F4
100
AcDbEntity
8
0
100
AcDbLine
62
7
6
CONTINUOUS
10
329.7084335732
20
217.5031545491
11
329.7084335732
21
197.2325763359
0
LINE
5
2F5
100
AcDbEntity
8
DEFAULT_2
100
AcDbLine
62
8
6
HIDDEN
10
341.7877756500
20
141.0109097686
11
341.6884335732
21
141.0109097686
0
LINE
5
2F6
100
AcDbEntity
8
DEFAULT_2
100
AcDbLine
62
8
6
HIDDEN
10
341.7877756500
20
142.0525763359
11
341.6884335732
21
142.0525763359
0
LINE
5
2F7
100
AcDbEntity
8
DEFAULT_2
100
AcDbLine
62
8
6
HIDDEN
10
341.7877756500
20
142.4692430522
11
341.6884335732
21
142.4692430522
0
LINE
5
2F8
100
AcDbEntity
8
0
100
AcDbLine
62
7
6
CONTINUOUS
10
341.9687976509
20
142.4692430522
11
341.7877756500
21
142.4692430522
0
LINE
5
2F9
100
AcDbEntity
8
DEFAULT_2
100
AcDbLine
62
8
6
HIDDEN
10
341.7877756500
20
142.8859096195
11
341.6884335732
21
142.8859096195
0
LINE
5
2FA
100
AcDbEntity
8
DEFAULT_2
100
AcDbLine
62
8
6
HIDDEN
10
341.7877756500
20
143.9275763359
11
341.6884335732
21
143.9275763359
0
LINE
5
2FB
100
AcDbEntity
8
DEFAULT_2
100
AcDbLine
62
8
6
HIDDEN
10
341.7877756500
20
144.5525763359
11
341.6884335732
21
144.5525763359
0
LINE
5
2FC
100
AcDbEntity
8
DEFAULT_1
100
AcDbLine
62
2
6
CENTER
10
334.1884335732
20
77.5525763359
11
334.1884335732
21
222.1525763359
0
LINE
5
2FD
100
AcDbEntity
8
0
100
AcDbLine
62
7
6
CONTINUOUS
10
338.6684335732
20
197.2325763359
11
338.6684335732
21
217.5031545491
0
LINE
5
2FE
100
AcDbEntity
8
DEFAULT_2
100
AcDbLine
62
8
6
HIDDEN
10
341.6884335732
20
144.5525763359
11
341.6884335732
21
140.3859097686
0
LINE
5
2FF
100
AcDbEntity
8
DEFAULT_2
100
AcDbLine
62
8
6
HIDDEN
10
341.6884335732
20
139.5525763359
11
341.6884335732
21
135.6984094705
0
LINE
5
300
100
AcDbEntity
8
DEFAULT_2
100
AcDbLine
62
8
6
HIDDEN
10
341.6884335732
20
129.8650763359
11
341.6884335732
21
128.6150763359
0
LINE
5
301
100
AcDbEntity
8
DEFAULT_2
100
AcDbLine
62
8
6
HIDDEN
10
341.6884335732
20
127.7817426052
11
341.6884335732
21
126.3234100666
0
LINE
5
302
100
AcDbEntity
8
DEFAULT_2
100
AcDbLine
62
8
6
HIDDEN
10
341.6884335732
20
125.4900763359
11
341.6884335732
21
121.7400763359
0
LINE
5
303
100
AcDbEntity
8
DEFAULT_2
100
AcDbLine
62
8
6
HIDDEN
10
341.7877756500
20
144.5525763359
11
341.7877756500
21
143.9275763359
0
LINE
5
304
100
AcDbEntity
8
0
100
AcDbLine
62
7
6
CONTINUOUS
10
341.7877756500
20
142.8859096195
11
341.7877756500
21
142.0525763359
0
LINE
5
305
100
AcDbEntity
8
DEFAULT_2
100
AcDbLine
62
8
6
HIDDEN
10
341.7877756500
20
141.0109097686
11
341.7877756500
21
140.3859097686
0
LINE
5
306
100
AcDbEntity
8
0
100
AcDbLine
62
7
6
CONTINUOUS
10
341.7877756500
20
139.5525763359
11
341.7877756500
21
137.0525763359
0
LINE
5
307
100
AcDbEntity
8
0
100
AcDbLine
62
7
6
CONTINUOUS
10
341.7877756500
20
129.2400763359
11
341.7877756500
21
128.6150763359
0
LINE
5
308
100
AcDbEntity
8
0
100
AcDbLine
62
7
6
CONTINUOUS
10
341.7877756500
20
123.9275763359
11
341.7877756500
21
123.3025763359
0
LINE
5
309
100
AcDbEntity
8
0
100
AcDbLine
62
7
6
CONTINUOUS
10
341.9425706018
20
123.8234088745
11
341.9425706018
21
123.4067437973
0
LINE
5
30A
100
AcDbEntity
8
0
100
AcDbLine
62
7
6
CONTINUOUS
10
341.9687976509
20
138.9275763359
11
341.9687976509
21
136.9484094705
0
LINE
5
30B
100
AcDbEntity
8
0
100
AcDbLine
62
7
6
CONTINUOUS
10
342.1584926929
20
127.7817426052
11
342.1584926929
21
126.3234100666
0
LINE
5
30C
100
AcDbEntity
8
DEFAULT_2
100
AcDbLine
62
8
6
HIDDEN
10
342.1797640407
20
138.9275763359
11
342.1797640407
21
136.9484094705
0
LINE
5
30D
100
AcDbEntity
8
0
100
AcDbLine
62
7
6
CONTINUOUS
10
342.1840115169
20
138.9275763359
11
342.1840115169
21
136.9484094705
0
LINE
5
30E
100
AcDbEntity
8
DEFAULT_2
100
AcDbLine
62
8
6
HIDDEN
10
342.1840115169
20
123.8234088745
11
342.1840115169
21
123.4067437973
0
LINE
5
30F
100
AcDbEntity
8
0
100
AcDbLine
62
7
6
CONTINUOUS
10
342.1868419146
20
127.7817426052
11
342.1868419146
21
126.3234100666
0
LINE
5
310
100
AcDbEntity
8
0
100
AcDbLine
62
7
6
CONTINUOUS
10
342.1868419146
20
123.8234088745
11
342.1868419146
21
123.4067437973
0
LINE
5
311
100
AcDbEntity
8
0
100
AcDbLine
62
7
6
CONTINUOUS
10
342.1884335732
20
126.3234100666
11
342.1884335732
21
125.2817426052
0
LINE
5
312
100
AcDbEntity
8
0
100
AcDbLine
62
7
6
CONTINUOUS
10
342.1884335732
20
121.9484088745
11
342.1884335732
21
88.5525763359
0
LINE
5
313
100
AcDbEntity
8
DEFAULT_2
100
AcDbLine
62
8
6
HIDDEN
10
342.1884335732
20
121.9484088745
11
342.1884335732
21
122.5734088745
0
LINE
5
314
100
AcDbEntity
8
0
100
AcDbLine
62
7
6
CONTINUOUS
10
342.1884335732
20
122.5734088745
11
342.1884335732
21
122.9900763359
0
LINE
5
315
100
AcDbEntity
8
DEFAULT_2
100
AcDbLine
62
8
6
HIDDEN
10
342.1884335732
20
122.9900763359
11
342.1884335732
21
124.2400763359
0
LINE
5
316
100
AcDbEntity
8
DEFAULT_2
100
AcDbLine
62
8
6
HIDDEN
10
342.1884335732
20
124.6567426052
11
342.1884335732
21
125.2817426052
0
LINE
5
317
100
AcDbEntity
8
0
100
AcDbLine
62
7
6
CONTINUOUS
10
342.1884335732
20
124.2400763359
11
342.1884335732
21
124.6567426052
0
LINE
5
318
100
AcDbEntity
8
DEFAULT_2
100
AcDbLine
62
8
6
HIDDEN
10
342.1884335732
20
126.3234100666
11
342.1884335732
21
127.7817426052
0
LINE
5
319
100
AcDbEntity
8
0
100
AcDbLine
62
7
6
CONTINUOUS
10
342.1884335732
20
127.7817426052
11
342.1884335732
21
135.8025763359
0
LINE
5
31A
100
AcDbEntity
8
DEFAULT_2
100
AcDbLine
62
8
6
HIDDEN
10
342.1884335732
20
135.8025763359
11
342.1884335732
21
136.3234094705
0
LINE
5
31B
100
AcDbEntity
8
0
100
AcDbLine
62
7
6
CONTINUOUS
10
342.1884335732
20
136.3234094705
11
342.1884335732
21
174.5525763359
0
LINE
5
31C
100
AcDbEntity
8
0
100
AcDbLine
62
7
6
CONTINUOUS
10
344.7335746344
20
219.1525763359
11
344.7335746344
21
201.5525763359
0
LINE
5
31D
100
AcDbEntity
8
0
100
AcDbLine
62
7
6
CONTINUOUS
10
354.1884335732
20
187.7525763359
11
354.1884335732
21
213.1525763359
0
LINE
5
31E
100
AcDbEntity
8
0
100
AcDbLine
62
7
6
CONTINUOUS
10
358.2177427467
20
181.7895918710
11
354.3739027979
21
203.5890914900
0
LINE
5
31F
100
AcDbEntity
8
0
100
AcDbLine
62
7
6
CONTINUOUS
10
348.8525351883
20
187.7525763359
11
319.5243319581
21
187.7525763359
0
LINE
5
320
100
AcDbEntity
8
DEFAULT_2
100
AcDbLine
62
8
6
HIDDEN
10
319.5243319581
20
187.7525763359
11
317.8389263966
21
187.7525763359
0
LINE
5
321
100
AcDbEntity
8
DEFAULT_2
100
AcDbLine
62
8
6
HIDDEN
10
348.8525351883
20
187.7525763359
11
350.5379407498
21
187.7525763359
0
LINE
5
322
100
AcDbEntity
8
0
100
AcDbLine
62
7
6
CONTINUOUS
10
338.6684335732
20
203.1525763359
11
329.7084335732
21
203.1525763359
0
LINE
5
323
100
AcDbEntity
8
DEFAULT_1
100
AcDbLine
62
2
6
CENTER
10
326.7084335732
20
207.9525763359
11
341.6684335732
21
207.9525763359
0
LINE
5
324
100
AcDbEntity
8
0
100
AcDbLine
62
7
6
CONTINUOUS
10
354.1884335732
20
213.1525763359
11
349.1538357861
21
219.1525763359
0
LINE
5
325
100
AcDbEntity
8
0
100
AcDbLine
62
7
6
CONTINUOUS
10
338.6684335732
20
212.7525763359
11
329.7084335732
21
212.7525763359
0
LINE
5
326
100
AcDbEntity
8
0
100
AcDbLine
62
7
6
CONTINUOUS
10
319.2230313603
20
219.1525763359
11
323.6432925120
21
219.1525763359
0
LINE
5
327
100
AcDbEntity
8
0
100
AcDbLine
62
7
6
CONTINUOUS
10
344.7335746344
20
219.1525763359
11
349.1538357861
21
219.1525763359
0
ARC
5
328
100
AcDbEntity
8
DEFAULT_2
100
AcDbCircle
62
8
6
HIDDEN
10
202.5608301527
20
149.5525763359
40
17.0000000000
100
AcDbArc
50
72.8855567184
51
107.1144432816
0
ARC
5
329
100
AcDbEntity
8
DEFAULT_2
100
AcDbCircle
62
8
6
HIDDEN
10
202.5608301527
20
149.5525763359
40
33.0000000000
100
AcDbArc
50
81.2818419950
51
98.7181580050
0
ARC
5
32A
100
AcDbEntity
8
0
100
AcDbCircle
62
7
6
CONTINUOUS
10
202.5608301527
20
161.5525763359
40
5.0000000000
100
AcDbArc
50
180.0000000000
51
201.9913472955
0
ARC
5
32B
100
AcDbEntity
8
0
100
AcDbCircle
62
7
6
CONTINUOUS
10
202.5608301527
20
161.5525763359
40
5.0000000000
100
AcDbArc
50
338.0086527045
51
360.0000000000
0
ARC
5
32C
100
AcDbEntity
8
0
100
AcDbCircle
62
7
6
CONTINUOUS
10
212.1608301527
20
195.5812950438
40
1.6000000000
100
AcDbArc
50
150.0000000000
51
180.0000000000
0
ARC
5
32D
100
AcDbEntity
8
0
100
AcDbCircle
62
7
6
CONTINUOUS
10
196.5608301527
20
189.7525763359
40
2.0000000000
100
AcDbArc
50
180.0000000000
51
270.0000000000
0
ARC
5
32E
100
AcDbEntity
8
0
100
AcDbCircle
62
7
6
CONTINUOUS
10
192.9608301527
20
195.5812950438
40
1.6000000000
100
AcDbArc
50
0.0000000000
51
30.0000000000
0
ARC
5
32F
100
AcDbEntity
8
0
100
AcDbCircle
62
7
6
CONTINUOUS
10
202.5608301527
20
207.9525763359
40
11.2000000000
100
AcDbArc
50
0.0000000000
51
180.0000000000
0
ARC
5
330
100
AcDbEntity
8
0
100
AcDbCircle
62
7
6
CONTINUOUS
10
208.5608301527
20
189.7525763359
40
2.0000000000
100
AcDbArc
50
270.0000000000
51
360.0000000000
0
CIRCLE
5
331
100
AcDbEntity
8
0
100
AcDbCircle
62
7
6
CONTINUOUS
10
202.5608301527
20
207.9525763359
40
4.8000000000
0
ARC
5
332
100
AcDbEntity
8
0
100
AcDbCircle
62
7
6
CONTINUOUS
10
202.5608301527
20
149.5525763359
40
17.0000000000
100
AcDbArc
50
0.0000000000
51
72.8855567184
0
ARC
5
333
100
AcDbEntity
8
0
100
AcDbCircle
62
7
6
CONTINUOUS
10
202.5608301527
20
149.5525763359
40
17.0000000000
100
AcDbArc
50
107.1144432816
51
180.0000000000
0
ARC
5
334
100
AcDbEntity
8
0
100
AcDbCircle
62
7
6
CONTINUOUS
10
202.5608301527
20
149.5525763359
40
33.0000000000
100
AcDbArc
50
0.0000000000
51
81.2818419950
0
ARC
5
335
100
AcDbEntity
8
0
100
AcDbCircle
62
7
6
CONTINUOUS
10
202.5608301527
20
149.5525763359
40
33.0000000000
100
AcDbArc
50
98.7181580050
51
180.0000000000
0
ARC
5
336
100
AcDbEntity
8
0
100
AcDbCircle
62
7
6
CONTINUOUS
10
202.5608301527
20
113.5525763359
40
17.0000000000
100
AcDbArc
50
180.0000000000
51
360.0000000000
0
ARC
5
337
100
AcDbEntity
8
0
100
AcDbCircle
62
7
6
CONTINUOUS
10
202.5608301527
20
113.5525763359
40
33.0000000000
100
AcDbArc
50
180.0000000000
51
360.0000000000
0
ARC
5
338
100
AcDbEntity
8
DEFAULT_2
100
AcDbCircle
62
8
6
HIDDEN
10
334.1884335732
20
174.5525763359
40
8.0000000000
100
AcDbArc
50
180.0000000000
51
360.0000000000
0
ARC
5
339
100
AcDbEntity
8
DEFAULT_2
100
AcDbCircle
62
8
6
HIDDEN
10
334.1884335732
20
88.5525763359
40
8.0000000000
100
AcDbArc
50
0.0000000000
51
180.0000000000
0
ARC
5
33A
100
AcDbEntity
8
DEFAULT_2
100
AcDbCircle
62
8
6
HIDDEN
10
334.1884335732
20
177.5525763359
40
24.4000000000
100
AcDbArc
50
250.8514430826
51
289.1485306379
0
ARC
5
33B
100
AcDbEntity
8
DEFAULT_2
100
AcDbCircle
62
8
6
HIDDEN
10
334.1884335732
20
177.5525763359
40
11.0000000000
100
AcDbArc
50
223.3025477871
51
316.6974520809
0
ARC
5
33C
100
AcDbEntity
8
0
100
AcDbCircle
62
7
6
CONTINUOUS
10
334.1884335732
20
174.5525763359
40
8.0000000000
100
AcDbArc
50
0.0000000000
51
180.0000000000
0
ARC
5
33D
100
AcDbEntity
8
0
100
AcDbCircle
62
7
6
CONTINUOUS
10
334.1884335732
20
88.5525763359
40
8.0000000000
100
AcDbArc
50
180.0000000000
51
360.0000000000
0
ARC
5
33E
100
AcDbEntity
8
0
100
AcDbCircle
62
7
6
CONTINUOUS
10
334.1884335732
20
177.5525763359
40
24.4000000000
100
AcDbArc
50
289.1485306379
51
10.0000000000
0
ARC
5
33F
100
AcDbEntity
8
0
100
AcDbCircle
62
7
6
CONTINUOUS
10
334.1884335732
20
245.9525763359
40
28.8000000000
100
AcDbArc
50
278.9490180653
51
291.4784178411
0
ARC
5
340
100
AcDbEntity
8
0
100
AcDbCircle
62
7
6
CONTINUOUS
10
334.1884335732
20
245.9525763359
40
28.8000000000
100
AcDbArc
50
248.5215821589
51
261.0509819347
0
ARC
5
341
100
AcDbEntity
8
0
100
AcDbCircle
62
7
6
CONTINUOUS
10
334.1884335732
20
177.5525763359
40
11.0000000000
100
AcDbArc
50
316.6974520809
51
67.9283190651
0
CIRCLE
5
342
100
AcDbEntity
8
0
100
AcDbCircle
62
7
6
CONTINUOUS
10
348.3484335732
20
207.9525763359
40
2.0000000000
0
ARC
5
343
100
AcDbEntity
8
0
100
AcDbCircle
62
7
6
CONTINUOUS
10
334.1884335732
20
197.2325763359
40
4.4800000000
100
AcDbArc
50
180.0000000000
51
360.0000000000
0
ARC
5
344
100
AcDbEntity
8
0
100
AcDbCircle
62
7
6
CONTINUOUS
10
334.1884335732
20
177.5525763359
40
24.4000000000
100
AcDbArc
50
170.0000000000
51
250.8514430826
0
ARC
5
345
100
AcDbEntity
8
0
100
AcDbCircle
62
7
6
CONTINUOUS
10
334.1884335732
20
177.5525763359
40
11.0000000000
100
AcDbArc
50
112.0716240949
51
223.3025477871
0
SPLINE
5
346
100
AcDbEntity
8
DEFAULT_2
100
AcDbSpline
62
8
6
HIDDEN
70
0
71
3
72
16
73
12
74
10
42
0.0000001000
43
0.0000001000
44
0.0000000001
40
0.0000000000
40
0.0000000000
40
0.0000000000
40
0.0000000000
40
0.1408977104
40
0.2427293822
40
0.3208685091
40
0.3962499384
40
0.4824138548
40
0.5843763791
40
0.7038173916
40
0.8422036720
40
1.0000000000
40
1.0000000000
40
1.0000000000
40
1.0000000000
10
206.3104236555
20
187.8480937457
30
0.0000000000
10
206.3035309436
20
187.8786746995
30
0.0000000000
10
206.2879936844
20
187.9306917111
30
0.0000000000
10
206.2477914946
20
187.9923155738
30
0.0000000000
10
206.1942464788
20
188.0189672756
30
0.0000000000
10
206.1393347037
20
188.0140584669
30
0.0000000000
10
206.0852364963
20
187.9902811864
30
0.0000000000
10
206.0286982367
20
187.9512470241
30
0.0000000000
10
205.9688504360
20
187.8978965632
30
0.0000000000
10
205.9052471114
20
187.8306640198
30
0.0000000000
10
205.8630134879
20
187.7800321823
30
0.0000000000
10
205.8411333970
20
187.7525763359
30
0.0000000000
11
206.3104236555
21
187.8480937457
31
0.0000000000
11
206.2804810258
21
187.9372440503
31
0.0000000000
11
206.2399600486
21
187.9918137370
31
0.0000000000
11
206.1928962745
21
188.0142895435
31
0.0000000000
11
206.1426421433
21
188.0118257197
31
0.0000000000
11
206.0893274905
21
187.9902592584
31
0.0000000000
11
206.0327321400
21
187.9524618114
31
0.0000000000
11
205.9727382797
21
187.8999598913
31
0.0000000000
11
205.9088923501
21
187.8332099589
31
0.0000000000
11
205.8411333970
21
187.7525763359
31
0.0000000000
0
SPLINE
5
347
100
AcDbEntity
8
DEFAULT_2
100
AcDbSpline
62
8
6
HIDDEN
70
0
71
3
72
16
73
12
74
10
42
0.0000001000
43
0.0000001000
44
0.0000000001
40
0.0000000000
40
0.0000000000
40
0.0000000000
40
0.0000000000
40
0.1408977104
40
0.2427293822
40
0.3208685091
40
0.3962499384
40
0.4824138548
40
0.5843763791
40
0.7038173916
40
0.8422036720
40
1.0000000000
40
1.0000000000
40
1.0000000000
40
1.0000000000
10
198.8112366499
20
187.8480937457
30
0.0000000000
10
198.8181293617
20
187.8786746995
30
0.0000000000
10
198.8336666210
20
187.9306917111
30
0.0000000000
10
198.8738688107
20
187.9923155738
30
0.0000000000
10
198.9274138265
20
188.0189672756
30
0.0000000000
10
198.9823256016
20
188.0140584669
30
0.0000000000
10
199.0364238090
20
187.9902811864
30
0.0000000000
10
199.0929620686
20
187.9512470241
30
0.0000000000
10
199.1528098693
20
187.8978965632
30
0.0000000000
10
199.2164131940
20
187.8306640198
30
0.0000000000
10
199.2586468175
20
187.7800321823
30
0.0000000000
10
199.2805269083
20
187.7525763359
30
0.0000000000
11
198.8112366499
21
187.8480937457
31
0.0000000000
11
198.8411792795
21
187.9372440503
31
0.0000000000
11
198.8817002567
21
187.9918137370
31
0.0000000000
11
198.9287640308
21
188.0142895435
31
0.0000000000
11
198.9790181621
21
188.0118257197
31
0.0000000000
11
199.0323328148
21
187.9902592584
31
0.0000000000
11
199.0889281654
21
187.9524618114
31
0.0000000000
11
199.1489220256
21
187.8999598913
31
0.0000000000
11
199.2127679553
21
187.8332099589
31
0.0000000000
11
199.2805269083
21
187.7525763359
31
0.0000000000
0
SPLINE
5
348
100
AcDbEntity
8
0
100
AcDbSpline
62
7
6
CONTINUOUS
70
0
71
3
72
8
73
4
74
2
42
0.0000001000
43
0.0000001000
44
0.0000000001
40
0.0000000000
40
0.0000000000
40
0.0000000000
40
0.0000000000
40
1.0000000000
40
1.0000000000
40
1.0000000000
40
1.0000000000
10
205.8411333970
20
187.7525763359
30
0.0000000000
10
205.8537234134
20
187.7683746960
30
0.0000000000
10
205.8665189508
20
187.7840160560
30
0.0000000000
10
205.8795693477
20
187.7994416048
30
0.0000000000
11
205.8411333970
21
187.7525763359
31
0.0000000000
11
205.8795693477
21
187.7994416048
31
0.0000000000
0
SPLINE
5
349
100
AcDbEntity
8
0
100
AcDbSpline
62
7
6
CONTINUOUS
70
0
71
3
72
11
73
7
74
5
42
0.0000001000
43
0.0000001000
44
0.0000000001
40
0.0000000000
40
0.0000000000
40
0.0000000000
40
0.0000000000
40
0.2017425447
40
0.5608891209
40
0.8656582296
40
1.0000000000
40
1.0000000000
40
1.0000000000
40
1.0000000000
10
205.8795693477
20
187.7994416048
30
0.0000000000
10
205.8917100830
20
187.8137919348
30
0.0000000000
10
205.9260772552
20
187.8531697689
30
0.0000000000
10
205.9822236437
20
187.9111512245
30
0.0000000000
10
206.0393138178
20
187.9591850954
30
0.0000000000
10
206.0737004043
20
187.9814463117
30
0.0000000000
10
206.0845943484
20
187.9876300803
30
0.0000000000
11
205.8795693477
21
187.7994416048
31
0.0000000000
11
205.9166929826
21
187.8418849224
31
0.0000000000
11
205.9870442195
21
187.9134710888
31
0.0000000000
11
206.0529390275
21
187.9674355775
31
0.0000000000
11
206.0845943484
21
187.9876300803
31
0.0000000000
0
SPLINE
5
34A
100
AcDbEntity
8
0
100
AcDbSpline
62
7
6
CONTINUOUS
70
0
71
3
72
12
73
8
74
6
42
0.0000001000
43
0.0000001000
44
0.0000000001
40
0.0000000000
40
0.0000000000
40
0.0000000000
40
0.0000000000
40
0.1046230607
40
0.2898307566
40
0.4670156556
40
0.6942583823
40
1.0000000000
40
1.0000000000
40
1.0000000000
40
1.0000000000
10
206.0845943484
20
187.9876300803
30
0.0000000000
10
206.0945157701
20
187.9932618125
30
0.0000000000
10
206.1228591139
20
188.0074227613
30
0.0000000000
10
206.1732461313
20
188.0215949704
30
0.0000000000
10
206.2389925439
20
188.0024081369
30
0.0000000000
10
206.2864852070
20
187.9363555294
30
0.0000000000
10
206.3031002850
20
187.8805854060
30
0.0000000000
10
206.3104236555
20
187.8480937457
30
0.0000000000
11
206.0845943484
21
187.9876300803
31
0.0000000000
11
206.1153599195
21
188.0027862678
31
0.0000000000
11
206.1744536150
21
188.0158859776
31
0.0000000000
11
206.2299465540
21
187.9993429634
31
0.0000000000
11
206.2777765753
21
187.9425301046
31
0.0000000000
11
206.3104236555
21
187.8480937457
31
0.0000000000
0
SPLINE
5
34B
100
AcDbEntity
8
0
100
AcDbSpline
62
7
6
CONTINUOUS
70
0
71
3
72
8
73
4
74
2
42
0.0000001000
43
0.0000001000
44
0.0000000001
40
0.0000000000
40
0.0000000000
40
0.0000000000
40
0.0000000000
40
1.0000000000
40
1.0000000000
40
1.0000000000
40
1.0000000000
10
199.2805269083
20
187.7525763359
30
0.0000000000
10
199.2679368920
20
187.7683746960
30
0.0000000000
10
199.2551413546
20
187.7840160560
30
0.0000000000
10
199.2420909576
20
187.7994416048
30
0.0000000000
11
199.2805269083
21
187.7525763359
31
0.0000000000
11
199.2420909576
21
187.7994416048
31
0.0000000000
0
SPLINE
5
34C
100
AcDbEntity
8
0
100
AcDbSpline
62
7
6
CONTINUOUS
70
0
71
3
72
11
73
7
74
5
42
0.0000001000
43
0.0000001000
44
0.0000000001
40
0.0000000000
40
0.0000000000
40
0.0000000000
40
0.0000000000
40
0.2017425447
40
0.5608891209
40
0.8656582296
40
1.0000000000
40
1.0000000000
40
1.0000000000
40
1.0000000000
10
199.2420909576
20
187.7994416048
30
0.0000000000
10
199.2299502224
20
187.8137919348
30
0.0000000000
10
199.1955830502
20
187.8531697689
30
0.0000000000
10
199.1394366616
20
187.9111512245
30
0.0000000000
10
199.0823464875
20
187.9591850954
30
0.0000000000
10
199.0479599010
20
187.9814463117
30
0.0000000000
10
199.0370659570
20
187.9876300803
30
0.0000000000
11
199.2420909576
21
187.7994416048
31
0.0000000000
11
199.2049673228
21
187.8418849224
31
0.0000000000
11
199.1346160859
21
187.9134710888
31
0.0000000000
11
199.0687212778
21
187.9674355775
31
0.0000000000
11
199.0370659570
21
187.9876300803
31
0.0000000000
0
SPLINE
5
34D
100
AcDbEntity
8
0
100
AcDbSpline
62
7
6
CONTINUOUS
70
0
71
3
72
12
73
8
74
6
42
0.0000001000
43
0.0000001000
44
0.0000000001
40
0.0000000000
40
0.0000000000
40
0.0000000000
40
0.0000000000
40
0.1046230607
40
0.2898307566
40
0.4670156556
40
0.6942583823
40
1.0000000000
40
1.0000000000
40
1.0000000000
40
1.0000000000
10
199.0370659570
20
187.9876300803
30
0.0000000000
10
199.0271445352
20
187.9932618125
30
0.0000000000
10
198.9988011915
20
188.0074227613
30
0.0000000000
10
198.9484141741
20
188.0215949704
30
0.0000000000
10
198.8826677615
20
188.0024081369
30
0.0000000000
10
198.8351750983
20
187.9363555294
30
0.0000000000
10
198.8185600203
20
187.8805854060
30
0.0000000000
10
198.8112366499
20
187.8480937457
30
0.0000000000
11
199.0370659570
21
187.9876300803
31
0.0000000000
11
199.0063003859
21
188.0027862678
31
0.0000000000
11
198.9472066903
21
188.0158859776
31
0.0000000000
11
198.8917137513
21
187.9993429634
31
0.0000000000
11
198.8438837301
21
187.9425301046
31
0.0000000000
11
198.8112366499
21
187.8480937457
31
0.0000000000
0
SPLINE
5
34E
100
AcDbEntity
8
0
100
AcDbSpline
62
7
6
CONTINUOUS
70
0
71
3
72
9
73
5
74
3
42
0.0000001000
43
0.0000001000
44
0.0000000001
40
0.0000000000
40
0.0000000000
40
0.0000000000
40
0.0000000000
40
0.5067537968
40
1.0000000000
40
1.0000000000
40
1.0000000000
40
1.0000000000
10
205.9420279992
20
188.0100137517
30
0.0000000000
10
205.9174519007
20
187.9674467004
30
0.0000000000
10
205.8706082682
20
187.8824813764
30
0.0000000000
10
205.8271206101
20
187.7957521738
30
0.0000000000
10
205.8065121737
20
187.7525763359
30
0.0000000000
11
205.9420279992
21
188.0100137517
31
0.0000000000
11
205.8708373357
21
187.8808807363
31
0.0000000000
11
205.8065121737
21
187.7525763359
31
0.0000000000
0
SPLINE
5
34F
100
AcDbEntity
8
0
100
AcDbSpline
62
7
6
CONTINUOUS
70
0
71
3
72
9
73
5
74
3
42
0.0000001000
43
0.0000001000
44
0.0000000001
40
0.0000000000
40
0.0000000000
40
0.0000000000
40
0.0000000000
40
0.5067537968
40
1.0000000000
40
1.0000000000
40
1.0000000000
40
1.0000000000
10
199.1796323062
20
188.0100137517
30
0.0000000000
10
199.2042084047
20
187.9674467004
30
0.0000000000
10
199.2510520372
20
187.8824813764
30
0.0000000000
10
199.2945396953
20
187.7957521738
30
0.0000000000
10
199.3151481316
20
187.7525763359
30
0.0000000000
11
199.1796323062
21
188.0100137517
31
0.0000000000
11
199.2508229697
21
187.8808807363
31
0.0000000000
11
199.3151481316
21
187.7525763359
31
0.0000000000
0
SPLINE
5
350
100
AcDbEntity
8
DEFAULT_2
100
AcDbSpline
62
8
6
HIDDEN
70
0
71
3
72
9
73
5
74
3
42
0.0000001000
43
0.0000001000
44
0.0000000001
40
0.0000000000
40
0.0000000000
40
0.0000000000
40
0.0000000000
40
0.5391285247
40
1.0000000000
40
1.0000000000
40
1.0000000000
40
1.0000000000
10
341.7877756500
20
144.5525763359
30
0.0000000000
10
341.9068017816
20
144.4319736269
30
0.0000000000
10
342.1053459453
20
144.1800391037
30
0.0000000000
10
342.1884335732
20
143.8646135965
30
0.0000000000
10
342.1884335732
20
143.7192429777
30
0.0000000000
11
341.7877756500
21
144.5525763359
31
0.0000000000
11
342.0873248791
21
144.1418691894
31
0.0000000000
11
342.1884335732
21
143.7192429777
31
0.0000000000
0
SPLINE
5
351
100
AcDbEntity
8
DEFAULT_2
100
AcDbSpline
62
8
6
HIDDEN
70
0
71
3
72
9
73
5
74
3
42
0.0000001000
43
0.0000001000
44
0.0000000001
40
0.0000000000
40
0.0000000000
40
0.0000000000
40
0.0000000000
40
0.4608714687
40
1.0000000000
40
1.0000000000
40
1.0000000000
40
1.0000000000
10
342.1884335732
20
141.2192430522
30
0.0000000000
10
342.1884335732
20
141.0738724458
30
0.0000000000
10
342.1053459424
20
140.7584469611
30
0.0000000000
10
341.9068017801
20
140.5065124652
30
0.0000000000
10
341.7877756500
20
140.3859097686
30
0.0000000000
11
342.1884335732
21
141.2192430522
31
0.0000000000
11
342.0873248792
21
140.7966168784
31
0.0000000000
11
341.7877756500
21
140.3859097686
31
0.0000000000
0
SPLINE
5
352
100
AcDbEntity
8
DEFAULT_2
100
AcDbSpline
62
8
6
HIDDEN
70
0
71
3
72
9
73
5
74
3
42
0.0000001000
43
0.0000001000
44
0.0000000001
40
0.0000000000
40
0.0000000000
40
0.0000000000
40
0.0000000000
40
0.4994111076
40
1.0000000000
40
1.0000000000
40
1.0000000000
40
1.0000000000
10
341.9425705829
20
123.8234088757
30
0.0000000000
10
341.9470649477
20
123.8927634939
30
0.0000000000
10
341.9559355415
20
124.0316446646
30
0.0000000000
10
341.9645495578
20
124.1705419848
30
0.0000000000
10
341.9687976331
20
124.2400763359
30
0.0000000000
11
341.9425705829
21
123.8234088757
31
0.0000000000
11
341.9558611005
21
124.0314851203
31
0.0000000000
11
341.9687976331
21
124.2400763359
31
0.0000000000
0
SPLINE
5
353
100
AcDbEntity
8
DEFAULT_2
100
AcDbSpline
62
8
6
HIDDEN
70
0
71
3
72
9
73
5
74
3
42
0.0000001000
43
0.0000001000
44
0.0000000001
40
0.0000000000
40
0.0000000000
40
0.0000000000
40
0.0000000000
40
0.4987311783
40
1.0000000000
40
1.0000000000
40
1.0000000000
40
1.0000000000
10
341.9687976331
20
124.2400763359
30
0.0000000000
10
341.9814580786
20
124.3091533712
30
0.0000000000
10
342.0057368378
20
124.4478639761
30
0.0000000000
10
342.0278022230
20
124.5869438359
30
0.0000000000
10
342.0383080499
20
124.6567426052
30
0.0000000000
11
341.9687976331
21
124.2400763359
31
0.0000000000
11
342.0051246883
21
124.4476038239
31
0.0000000000
11
342.0383080499
21
124.6567426052
31
0.0000000000
0
SPLINE
5
354
100
AcDbEntity
8
DEFAULT_2
100
AcDbSpline
62
8
6
HIDDEN
70
0
71
3
72
9
73
5
74
3
42
0.0000001000
43
0.0000001000
44
0.0000000001
40
0.0000000000
40
0.0000000000
40
0.0000000000
40
0.0000000000
40
0.5008223774
40
1.0000000000
40
1.0000000000
40
1.0000000000
40
1.0000000000
10
342.0383080499
20
124.6567426052
30
0.0000000000
10
342.0486906997
20
124.6912328737
30
0.0000000000
10
342.0684085160
20
124.7604094114
30
0.0000000000
10
342.0860542733
20
124.8301436164
30
0.0000000000
10
342.0943353172
20
124.8650763359
30
0.0000000000
11
342.0383080499
21
124.6567426052
31
0.0000000000
11
342.0679212268
21
124.7606630657
31
0.0000000000
11
342.0943353172
21
124.8650763359
31
0.0000000000
0
SPLINE
5
355
100
AcDbEntity
8
DEFAULT_2
100
AcDbSpline
62
8
6
HIDDEN
70
0
71
3
72
9
73
5
74
3
42
0.0000001000
43
0.0000001000
44
0.0000000001
40
0.0000000000
40
0.0000000000
40
0.0000000000
40
0.0000000000
40
0.5008224014
40
1.0000000000
40
1.0000000000
40
1.0000000000
40
1.0000000000
10
342.0383080499
20
122.5734088745
30
0.0000000000
10
342.0486906993
20
122.5389188047
30
0.0000000000
10
342.0684085149
20
122.4697426657
30
0.0000000000
10
342.0860542731
20
122.4000088566
30
0.0000000000
10
342.0943353172
20
122.3650763359
30
0.0000000000
11
342.0383080499
21
122.5734088745
31
0.0000000000
11
342.0679212270
21
122.4694890081
31
0.0000000000
11
342.0943353172
21
122.3650763359
31
0.0000000000
0
SPLINE
5
356
100
AcDbEntity
8
DEFAULT_2
100
AcDbSpline
62
8
6
HIDDEN
70
0
71
3
72
9
73
5
74
3
42
0.0000001000
43
0.0000001000
44
0.0000000001
40
0.0000000000
40
0.0000000000
40
0.0000000000
40
0.0000000000
40
0.4987311727
40
1.0000000000
40
1.0000000000
40
1.0000000000
40
1.0000000000
10
341.9687976331
20
122.9900763359
30
0.0000000000
10
341.9814580787
20
122.9209991026
30
0.0000000000
10
342.0057368380
20
122.7822880999
30
0.0000000000
10
342.0278022230
20
122.6432078433
30
0.0000000000
10
342.0383080499
20
122.5734088745
30
0.0000000000
11
341.9687976331
21
122.9900763359
31
0.0000000000
11
342.0051246882
21
122.7825482549
31
0.0000000000
11
342.0383080499
21
122.5734088745
31
0.0000000000
0
SPLINE
5
357
100
AcDbEntity
8
DEFAULT_2
100
AcDbSpline
62
8
6
HIDDEN
70
0
71
3
72
9
73
5
74
3
42
0.0000001000
43
0.0000001000
44
0.0000000001
40
0.0000000000
40
0.0000000000
40
0.0000000000
40
0.0000000000
40
0.4994111076
40
1.0000000000
40
1.0000000000
40
1.0000000000
40
1.0000000000
10
341.9425705829
20
123.4067437961
30
0.0000000000
10
341.9470649477
20
123.3373891778
30
0.0000000000
10
341.9559355415
20
123.1985080072
30
0.0000000000
10
341.9645495578
20
123.0596106869
30
0.0000000000
10
341.9687976331
20
122.9900763359
30
0.0000000000
11
341.9425705829
21
123.4067437961
31
0.0000000000
11
341.9558611005
21
123.1986675514
31
0.0000000000
11
341.9687976331
21
122.9900763359
31
0.0000000000
0
SPLINE
5
358
100
AcDbEntity
8
DEFAULT_2
100
AcDbSpline
62
8
6
HIDDEN
70
0
71
3
72
9
73
5
74
3
42
0.0000001000
43
0.0000001000
44
0.0000000001
40
0.0000000000
40
0.0000000000
40
0.0000000000
40
0.0000000000
40
0.4999941918
40
1.0000000000
40
1.0000000000
40
1.0000000000
40
1.0000000000
10
342.1868419364
20
124.8650763359
30
0.0000000000
10
342.1871956597
20
124.8303554018
30
0.0000000000
10
342.1877851439
20
124.7609114752
30
0.0000000000
10
342.1881388428
20
124.6914659476
30
0.0000000000
10
342.1882567379
20
124.6567426052
30
0.0000000000
11
342.1868419364
21
124.8650763359
31
0.0000000000
11
342.1877261921
21
124.7609118817
31
0.0000000000
11
342.1882567379
21
124.6567426052
31
0.0000000000
0
SPLINE
5
359
100
AcDbEntity
8
DEFAULT_2
100
AcDbSpline
62
8
6
HIDDEN
70
0
71
3
72
9
73
5
74
3
42
0.0000001000
43
0.0000001000
44
0.0000000001
40
0.0000000000
40
0.0000000000
40
0.0000000000
40
0.0000000000
40
0.4998943000
40
1.0000000000
40
1.0000000000
40
1.0000000000
40
1.0000000000
10
342.1740972248
20
125.1775763359
30
0.0000000000
10
342.1772821182
20
125.1255554221
30
0.0000000000
10
342.1825929380
20
125.0214239679
30
0.0000000000
10
342.1857797618
20
124.9172058739
30
0.0000000000
10
342.1868419146
20
124.8650763359
30
0.0000000000
11
342.1740972248
21
125.1775763359
31
0.0000000000
11
342.1820610408
21
125.0214243305
31
0.0000000000
11
342.1868419146
21
124.8650763359
31
0.0000000000
0
SPLINE
5
35A
100
AcDbEntity
8
DEFAULT_2
100
AcDbSpline
62
8
6
HIDDEN
70
0
71
3
72
9
73
5
74
3
42
0.0000001000
43
0.0000001000
44
0.0000000001
40
0.0000000000
40
0.0000000000
40
0.0000000000
40
0.0000000000
40
0.5016607635
40
1.0000000000
40
1.0000000000
40
1.0000000000
40
1.0000000000
10
342.1371644476
20
125.3859100666
30
0.0000000000
10
342.1451751164
20
125.3514351634
30
0.0000000000
10
342.1593523472
20
125.2822843260
30
0.0000000000
10
342.1698240442
20
125.2124747074
30
0.0000000000
10
342.1740972248
20
125.1775763359
30
0.0000000000
11
342.1371644476
21
125.3859100666
31
0.0000000000
11
342.1584668896
21
125.2818888484
31
0.0000000000
11
342.1740972248
21
125.1775763359
31
0.0000000000
0
SPLINE
5
35B
100
AcDbEntity
8
DEFAULT_2
100
AcDbSpline
62
8
6
HIDDEN
70
0
71
3
72
9
73
5
74
3
42
0.0000001000
43
0.0000001000
44
0.0000000001
40
0.0000000000
40
0.0000000000
40
0.0000000000
40
0.0000000000
40
0.5016607909
40
1.0000000000
40
1.0000000000
40
1.0000000000
40
1.0000000000
10
342.1371644476
20
121.8442437973
30
0.0000000000
10
342.1451751159
20
121.8787185011
30
0.0000000000
10
342.1593523463
20
121.9478689396
30
0.0000000000
10
342.1698240440
20
122.0176781627
30
0.0000000000
10
342.1740972248
20
122.0525763359
30
0.0000000000
11
342.1371644476
21
121.8442437973
31
0.0000000000
11
342.1584668896
21
121.9482644205
31
0.0000000000
11
342.1740972248
21
122.0525763359
31
0.0000000000
0
SPLINE
5
35C
100
AcDbEntity
8
DEFAULT_2
100
AcDbSpline
62
8
6
HIDDEN
70
0
71
3
72
9
73
5
74
3
42
0.0000001000
43
0.0000001000
44
0.0000000001
40
0.0000000000
40
0.0000000000
40
0.0000000000
40
0.0000000000
40
0.4998943000
40
1.0000000000
40
1.0000000000
40
1.0000000000
40
1.0000000000
10
342.1740972248
20
122.0525763359
30
0.0000000000
10
342.1772821182
20
122.1045972497
30
0.0000000000
10
342.1825929380
20
122.2087287039
30
0.0000000000
10
342.1857797618
20
122.3129467978
30
0.0000000000
10
342.1868419146
20
122.3650763359
30
0.0000000000
11
342.1740972248
21
122.0525763359
31
0.0000000000
11
342.1820610408
21
122.2087283413
31
0.0000000000
11
342.1868419146
21
122.3650763359
31
0.0000000000
0
SPLINE
5
35D
100
AcDbEntity
8
DEFAULT_2
100
AcDbSpline
62
8
6
HIDDEN
70
0
71
3
72
9
73
5
74
3
42
0.0000001000
43
0.0000001000
44
0.0000000001
40
0.0000000000
40
0.0000000000
40
0.0000000000
40
0.0000000000
40
0.4999941922
40
1.0000000000
40
1.0000000000
40
1.0000000000
40
1.0000000000
10
342.1868419364
20
122.3650763359
30
0.0000000000
10
342.1871956597
20
122.3997970713
30
0.0000000000
10
342.1877851439
20
122.4692406005
30
0.0000000000
10
342.1881388428
20
122.5386857308
30
0.0000000000
10
342.1882567379
20
122.5734088745
30
0.0000000000
11
342.1868419364
21
122.3650763359
31
0.0000000000
11
342.1877261921
21
122.4692401941
31
0.0000000000
11
342.1882567379
21
122.5734088745
31
0.0000000000
0
SPLINE
5
35E
100
AcDbEntity
8
DEFAULT_2
100
AcDbSpline
62
8
6
HIDDEN
70
0
71
3
72
9
73
5
74
3
42
0.0000001000
43
0.0000001000
44
0.0000000001
40
0.0000000000
40
0.0000000000
40
0.0000000000
40
0.0000000000
40
0.4998960330
40
1.0000000000
40
1.0000000000
40
1.0000000000
40
1.0000000000
10
342.0166523471
20
129.2400763359
30
0.0000000000
10
342.0424809011
20
129.3429890151
30
0.0000000000
10
342.0884932595
20
129.5503189774
30
0.0000000000
10
342.1229069269
20
129.7598897182
30
0.0000000000
10
342.1371644476
20
129.8650763359
30
0.0000000000
11
342.0166523471
21
129.2400763359
31
0.0000000000
11
342.0855852250
21
129.5508358282
31
0.0000000000
11
342.1371644476
21
129.8650763359
31
0.0000000000
0
SPLINE
5
35F
100
AcDbEntity
8
DEFAULT_2
100
AcDbSpline
62
8
6
HIDDEN
70
0
71
3
72
9
73
5
74
3
42
0.0000001000
43
0.0000001000
44
0.0000000001
40
0.0000000000
40
0.0000000000
40
0.0000000000
40
0.0000000000
40
0.4999941920
40
1.0000000000
40
1.0000000000
40
1.0000000000
40
1.0000000000
10
342.1868419364
20
136.1150763359
30
0.0000000000
10
342.1871956597
20
136.1497971706
30
0.0000000000
10
342.1877851439
20
136.2192408985
30
0.0000000000
10
342.1881388428
20
136.2886862275
30
0.0000000000
10
342.1882567379
20
136.3234094705
30
0.0000000000
11
342.1868419364
21
136.1150763359
31
0.0000000000
11
342.1877261921
21
136.2192404921
31
0.0000000000
11
342.1882567379
21
136.3234094705
31
0.0000000000
0
SPLINE
5
360
100
AcDbEntity
8
DEFAULT_2
100
AcDbSpline
62
8
6
HIDDEN
70
0
71
3
72
9
73
5
74
3
42
0.0000001000
43
0.0000001000
44
0.0000000001
40
0.0000000000
40
0.0000000000
40
0.0000000000
40
0.0000000000
40
0.5001405682
40
1.0000000000
40
1.0000000000
40
1.0000000000
40
1.0000000000
10
342.1670080450
20
135.8025763359
30
0.0000000000
10
342.1721960668
20
135.8545292900
30
0.0000000000
10
342.1806967234
20
135.9586016003
30
0.0000000000
10
342.1854248085
20
136.0629135809
30
0.0000000000
10
342.1868419146
20
136.1150763359
30
0.0000000000
11
342.1670080450
21
135.8025763359
31
0.0000000000
11
342.1797554400
21
135.9586908101
31
0.0000000000
11
342.1868419146
21
136.1150763359
31
0.0000000000
0
SPLINE
5
361
100
AcDbEntity
8
DEFAULT_2
100
AcDbSpline
62
8
6
HIDDEN
70
0
71
3
72
9
73
5
74
3
42
0.0000001000
43
0.0000001000
44
0.0000000001
40
0.0000000000
40
0.0000000000
40
0.0000000000
40
0.0000000000
40
0.5035836012
40
1.0000000000
40
1.0000000000
40
1.0000000000
40
1.0000000000
10
342.1371644476
20
135.6984094705
30
0.0000000000
10
342.1431533641
20
135.7155921653
30
0.0000000000
10
342.1541097645
20
135.7500474199
30
0.0000000000
10
342.1630757982
20
135.7850751477
30
0.0000000000
10
342.1670080450
20
135.8025763359
30
0.0000000000
11
342.1371644476
21
135.6984094705
31
0.0000000000
11
342.1536835413
21
135.7504395449
31
0.0000000000
11
342.1670080450
21
135.8025763359
31
0.0000000000
0
SPLINE
5
362
100
AcDbEntity
8
DEFAULT_2
100
AcDbSpline
62
8
6
HIDDEN
70
0
71
3
72
9
73
5
74
3
42
0.0000001000
43
0.0000001000
44
0.0000000001
40
0.0000000000
40
0.0000000000
40
0.0000000000
40
0.0000000000
40
0.5056980839
40
1.0000000000
40
1.0000000000
40
1.0000000000
40
1.0000000000
10
342.0383080499
20
136.4275763359
30
0.0000000000
10
342.0485949833
20
136.4104901824
30
0.0000000000
10
342.0681509300
20
136.3762222608
30
0.0000000000
10
342.0859838422
20
136.3410243835
30
0.0000000000
10
342.0943353172
20
136.3234094705
30
0.0000000000
11
342.0383080499
21
136.4275763359
31
0.0000000000
11
342.0679331603
21
136.3755939198
31
0.0000000000
11
342.0943353172
21
136.3234094705
31
0.0000000000
0
SPLINE
5
363
100
AcDbEntity
8
DEFAULT_2
100
AcDbSpline
62
8
6
HIDDEN
70
0
71
3
72
9
73
5
74
3
42
0.0000001000
43
0.0000001000
44
0.0000000001
40
0.0000000000
40
0.0000000000
40
0.0000000000
40
0.0000000000
40
0.4996254193
40
1.0000000000
40
1.0000000000
40
1.0000000000
40
1.0000000000
10
341.9934867048
20
136.6359094669
30
0.0000000000
10
342.0014314146
20
136.6013191891
30
0.0000000000
10
342.0168538888
20
136.5319759111
30
0.0000000000
10
342.0313142206
20
136.4624256162
30
0.0000000000
10
342.0383080499
20
136.4275763359
30
0.0000000000
11
341.9934867048
21
136.6359094669
31
0.0000000000
11
342.0166021596
21
136.5319761837
31
0.0000000000
11
342.0383080499
21
136.4275763359
31
0.0000000000
0
SPLINE
5
364
100
AcDbEntity
8
DEFAULT_2
100
AcDbSpline
62
8
6
HIDDEN
70
0
71
3
72
9
73
5
74
3
42
0.0000001000
43
0.0000001000
44
0.0000000001
40
0.0000000000
40
0.0000000000
40
0.0000000000
40
0.0000000000
40
0.4994777286
40
1.0000000000
40
1.0000000000
40
1.0000000000
40
1.0000000000
10
341.9687976332
20
136.9484094691
30
0.0000000000
10
341.9730349669
20
136.8963906728
30
0.0000000000
10
341.9813913704
20
136.7922339008
30
0.0000000000
10
341.9894942776
20
136.6880571021
30
0.0000000000
10
341.9934867040
20
136.6359094705
30
0.0000000000
11
341.9687976332
21
136.9484094691
31
0.0000000000
11
341.9813194000
21
136.7923377008
31
0.0000000000
11
341.9934867040
21
136.6359094705
31
0.0000000000
0
SPLINE
5
365
100
AcDbEntity
8
DEFAULT_2
100
AcDbSpline
62
8
6
HIDDEN
70
0
71
3
72
8
73
4
74
2
42
0.0000001000
43
0.0000001000
44
0.0000000001
40
0.0000000000
40
0.0000000000
40
0.0000000000
40
0.0000000000
40
1.0000000000
40
1.0000000000
40
1.0000000000
40
1.0000000000
10
341.7877756500
20
141.0109097686
30
0.0000000000
10
341.8800475291
20
141.1046888847
30
0.0000000000
10
341.9646086767
20
141.2075071618
30
0.0000000000
10
342.0324224578
20
141.3209532205
30
0.0000000000
11
341.7877756500
21
141.0109097686
31
0.0000000000
11
342.0324224578
21
141.3209532205
31
0.0000000000
0
SPLINE
5
366
100
AcDbEntity
8
DEFAULT_2
100
AcDbSpline
62
8
6
HIDDEN
70
0
71
3
72
8
73
4
74
2
42
0.0000001000
43
0.0000001000
44
0.0000000001
40
0.0000000000
40
0.0000000000
40
0.0000000000
40
0.0000000000
40
1.0000000000
40
1.0000000000
40
1.0000000000
40
1.0000000000
10
342.0324224578
20
141.3209532205
30
0.0000000000
10
342.0416975483
20
141.3364695720
30
0.0000000000
10
342.0506593485
20
141.3521847357
30
0.0000000000
10
342.0592847374
20
141.3681027761
30
0.0000000000
11
342.0324224578
21
141.3209532205
31
0.0000000000
11
342.0592847374
21
141.3681027761
31
0.0000000000
0
SPLINE
5
367
100
AcDbEntity
8
DEFAULT_2
100
AcDbSpline
62
8
6
HIDDEN
70
0
71
3
72
8
73
4
74
2
42
0.0000001000
43
0.0000001000
44
0.0000000001
40
0.0000000000
40
0.0000000000
40
0.0000000000
40
0.0000000000
40
1.0000000000
40
1.0000000000
40
1.0000000000
40
1.0000000000
10
342.0592847374
20
141.3681027761
30
0.0000000000
10
342.0867978674
20
141.4188778916
30
0.0000000000
10
342.1108881051
20
141.4717172226
30
0.0000000000
10
342.1305478420
20
141.5260547427
30
0.0000000000
11
342.0592847374
21
141.3681027761
31
0.0000000000
11
342.1305478420
21
141.5260547427
31
0.0000000000
0
SPLINE
5
368
100
AcDbEntity
8
DEFAULT_2
100
AcDbSpline
62
8
6
HIDDEN
70
0
71
3
72
8
73
4
74
2
42
0.0000001000
43
0.0000001000
44
0.0000000001
40
0.0000000000
40
0.0000000000
40
0.0000000000
40
0.0000000000
40
1.0000000000
40
1.0000000000
40
1.0000000000
40
1.0000000000
10
342.1305478591
20
143.4124313145
30
0.0000000000
10
342.1108881191
20
143.4667688512
30
0.0000000000
10
342.0867978753
20
143.5196081982
30
0.0000000000
10
342.0592847374
20
143.5703833283
30
0.0000000000
11
342.1305478591
21
143.4124313145
31
0.0000000000
11
342.0592847374
21
143.5703833283
31
0.0000000000
0
SPLINE
5
369
100
AcDbEntity
8
DEFAULT_2
100
AcDbSpline
62
8
6
HIDDEN
70
0
71
3
72
8
73
4
74
2
42
0.0000001000
43
0.0000001000
44
0.0000000001
40
0.0000000000
40
0.0000000000
40
0.0000000000
40
0.0000000000
40
1.0000000000
40
1.0000000000
40
1.0000000000
40
1.0000000000
10
342.0592847374
20
143.5703833283
30
0.0000000000
10
342.0506593584
20
143.5863013504
30
0.0000000000
10
342.0416975689
20
143.6020164962
30
0.0000000000
10
342.0324224899
20
143.6175328302
30
0.0000000000
11
342.0592847374
21
143.5703833283
31
0.0000000000
11
342.0324224899
21
143.6175328302
31
0.0000000000
0
SPLINE
5
36A
100
AcDbEntity
8
DEFAULT_2
100
AcDbSpline
62
8
6
HIDDEN
70
0
71
3
72
8
73
4
74
2
42
0.0000001000
43
0.0000001000
44
0.0000000001
40
0.0000000000
40
0.0000000000
40
0.0000000000
40
0.0000000000
40
1.0000000000
40
1.0000000000
40
1.0000000000
40
1.0000000000
10
342.0324224899
20
143.6175328302
30
0.0000000000
10
341.9646087034
20
143.7309789102
30
0.0000000000
10
341.8800475436
20
143.8337972050
30
0.0000000000
10
341.7877756500
20
143.9275763359
30
0.0000000000
11
342.0324224899
21
143.6175328302
31
0.0000000000
11
341.7877756500
21
143.9275763359
31
0.0000000000
0
SPLINE
5
36B
100
AcDbEntity
8
DEFAULT_2
100
AcDbSpline
62
8
6
HIDDEN
70
0
71
3
72
8
73
4
74
2
42
0.0000001000
43
0.0000001000
44
0.0000000001
40
0.0000000000
40
0.0000000000
40
0.0000000000
40
0.0000000000
40
1.0000000000
40
1.0000000000
40
1.0000000000
40
1.0000000000
10
342.1243399786
20
124.8650763359
30
0.0000000000
10
342.1277147622
20
124.8477776539
30
0.0000000000
10
342.1309596708
20
124.8304531170
30
0.0000000000
10
342.1340736917
20
124.8131048343
30
0.0000000000
11
342.1243399786
21
124.8650763359
31
0.0000000000
11
342.1340736917
21
124.8131048343
31
0.0000000000
0
SPLINE
5
36C
100
AcDbEntity
8
DEFAULT_2
100
AcDbSpline
62
8
6
HIDDEN
70
0
71
3
72
9
73
5
74
3
42
0.0000001000
43
0.0000001000
44
0.0000000001
40
0.0000000000
40
0.0000000000
40
0.0000000000
40
0.0000000000
40
0.5002620360
40
1.0000000000
40
1.0000000000
40
1.0000000000
40
1.0000000000
10
342.1340736917
20
124.8131048343
30
0.0000000000
10
342.1371836574
20
124.7957791437
30
0.0000000000
10
342.1431393735
20
124.7610985697
30
0.0000000000
10
342.1485694182
20
124.7263317547
30
0.0000000000
10
342.1511509049
20
124.7089381080
30
0.0000000000
11
342.1340736917
21
124.8131048343
31
0.0000000000
11
342.1430109391
21
124.7610588117
31
0.0000000000
11
342.1511509049
21
124.7089381080
31
0.0000000000
0
SPLINE
5
36D
100
AcDbEntity
8
DEFAULT_2
100
AcDbSpline
62
8
6
HIDDEN
70
0
71
3
72
8
73
4
74
2
42
0.0000001000
43
0.0000001000
44
0.0000000001
40
0.0000000000
40
0.0000000000
40
0.0000000000
40
0.0000000000
40
1.0000000000
40
1.0000000000
40
1.0000000000
40
1.0000000000
10
342.1511509049
20
124.7089381080
30
0.0000000000
10
342.1537303529
20
124.6915581981
30
0.0000000000
10
342.1561778968
20
124.6741589694
30
0.0000000000
10
342.1584927058
20
124.6567426052
30
0.0000000000
11
342.1511509049
21
124.7089381080
31
0.0000000000
11
342.1584927058
21
124.6567426052
31
0.0000000000
0
SPLINE
5
36E
100
AcDbEntity
8
DEFAULT_2
100
AcDbSpline
62
8
6
HIDDEN
70
0
71
3
72
8
73
4
74
2
42
0.0000001000
43
0.0000001000
44
0.0000000001
40
0.0000000000
40
0.0000000000
40
0.0000000000
40
0.0000000000
40
1.0000000000
40
1.0000000000
40
1.0000000000
40
1.0000000000
10
342.1584927058
20
124.6567426052
30
0.0000000000
10
342.1607955602
20
124.6220898660
30
0.0000000000
10
342.1629654311
20
124.5874280344
30
0.0000000000
10
342.1650023741
20
124.5527582645
30
0.0000000000
11
342.1584927058
21
124.6567426052
31
0.0000000000
11
342.1650023741
21
124.5527582645
31
0.0000000000
0
SPLINE
5
36F
100
AcDbEntity
8
DEFAULT_2
100
AcDbSpline
62
8
6
HIDDEN
70
0
71
3
72
9
73
5
74
3
42
0.0000001000
43
0.0000001000
44
0.0000000001
40
0.0000000000
40
0.0000000000
40
0.0000000000
40
0.0000000000
40
0.3330678012
40
1.0000000000
40
1.0000000000
40
1.0000000000
40
1.0000000000
10
342.1650023741
20
124.5527582645
30
0.0000000000
10
342.1670407620
20
124.5180639017
30
0.0000000000
10
342.1727611327
20
124.4138739673
30
0.0000000000
10
342.1772820446
20
124.3096227977
30
0.0000000000
10
342.1797640407
20
124.2400763359
30
0.0000000000
11
342.1650023741
21
124.5527582645
31
0.0000000000
11
342.1707182436
21
124.4486524839
31
0.0000000000
11
342.1797640407
21
124.2400763359
31
0.0000000000
0
SPLINE
5
370
100
AcDbEntity
8
DEFAULT_2
100
AcDbSpline
62
8
6
HIDDEN
70
0
71
3
72
9
73
5
74
3
42
0.0000001000
43
0.0000001000
44
0.0000000001
40
0.0000000000
40
0.0000000000
40
0.0000000000
40
0.0000000000
40
0.4999069594
40
1.0000000000
40
1.0000000000
40
1.0000000000
40
1.0000000000
10
342.1797640407
20
124.2400763359
30
0.0000000000
10
342.1805899894
20
124.1706459613
30
0.0000000000
10
342.1821239658
20
124.0317579365
30
0.0000000000
10
342.1834216270
20
123.8928675028
30
0.0000000000
10
342.1840115169
20
123.8234088745
30
0.0000000000
11
342.1797640407
21
124.2400763359
31
0.0000000000
11
342.1820646235
21
124.0317831790
31
0.0000000000
11
342.1840115169
21
123.8234088745
31
0.0000000000
0
SPLINE
5
371
100
AcDbEntity
8
DEFAULT_2
100
AcDbSpline
62
8
6
HIDDEN
70
0
71
3
72
9
73
5
74
3
42
0.0000001000
43
0.0000001000
44
0.0000000001
40
0.0000000000
40
0.0000000000
40
0.0000000000
40
0.0000000000
40
0.4999069594
40
1.0000000000
40
1.0000000000
40
1.0000000000
40
1.0000000000
10
342.1797640407
20
122.9900763359
30
0.0000000000
10
342.1805899894
20
123.0595067104
30
0.0000000000
10
342.1821239658
20
123.1983947352
30
0.0000000000
10
342.1834216270
20
123.3372851689
30
0.0000000000
10
342.1840115169
20
123.4067437973
30
0.0000000000
11
342.1797640407
21
122.9900763359
31
0.0000000000
11
342.1820646235
21
123.1983694928
31
0.0000000000
11
342.1840115169
21
123.4067437973
31
0.0000000000
0
SPLINE
5
372
100
AcDbEntity
8
DEFAULT_2
100
AcDbSpline
62
8
6
HIDDEN
70
0
71
3
72
8
73
4
74
2
42
0.0000001000
43
0.0000001000
44
0.0000000001
40
0.0000000000
40
0.0000000000
40
0.0000000000
40
0.0000000000
40
1.0000000000
40
1.0000000000
40
1.0000000000
40
1.0000000000
10
342.1584927058
20
122.5734088745
30
0.0000000000
10
342.1607955602
20
122.6080617128
30
0.0000000000
10
342.1629654311
20
122.6427236435
30
0.0000000000
10
342.1650023741
20
122.6773935125
30
0.0000000000
11
342.1584927058
21
122.5734088745
31
0.0000000000
11
342.1650023741
21
122.6773935125
31
0.0000000000
0
SPLINE
5
373
100
AcDbEntity
8
DEFAULT_2
100
AcDbSpline
62
8
6
HIDDEN
70
0
71
3
72
9
73
5
74
3
42
0.0000001000
43
0.0000001000
44
0.0000000001
40
0.0000000000
40
0.0000000000
40
0.0000000000
40
0.0000000000
40
0.3330678001
40
1.0000000000
40
1.0000000000
40
1.0000000000
40
1.0000000000
10
342.1650023741
20
122.6773935125
30
0.0000000000
10
342.1670407620
20
122.7120879745
30
0.0000000000
10
342.1727611327
20
122.8162782074
30
0.0000000000
10
342.1772820446
20
122.9205296751
30
0.0000000000
10
342.1797640407
20
122.9900763359
30
0.0000000000
11
342.1650023741
21
122.6773935125
31
0.0000000000
11
342.1707182436
21
122.7814995909
31
0.0000000000
11
342.1797640407
21
122.9900763359
31
0.0000000000
0
SPLINE
5
374
100
AcDbEntity
8
DEFAULT_2
100
AcDbSpline
62
8
6
HIDDEN
70
0
71
3
72
8
73
4
74
2
42
0.0000001000
43
0.0000001000
44
0.0000000001
40
0.0000000000
40
0.0000000000
40
0.0000000000
40
0.0000000000
40
1.0000000000
40
1.0000000000
40
1.0000000000
40
1.0000000000
10
342.1243399786
20
122.3650763359
30
0.0000000000
10
342.1277147622
20
122.3823749187
30
0.0000000000
10
342.1309596708
20
122.3996993566
30
0.0000000000
10
342.1340736917
20
122.4170475403
30
0.0000000000
11
342.1243399786
21
122.3650763359
31
0.0000000000
11
342.1340736917
21
122.4170475403
31
0.0000000000
0
SPLINE
5
375
100
AcDbEntity
8
DEFAULT_2
100
AcDbSpline
62
8
6
HIDDEN
70
0
71
3
72
9
73
5
74
3
42
0.0000001000
43
0.0000001000
44
0.0000000001
40
0.0000000000
40
0.0000000000
40
0.0000000000
40
0.0000000000
40
0.5002620437
40
1.0000000000
40
1.0000000000
40
1.0000000000
40
1.0000000000
10
342.1340736917
20
122.4170475403
30
0.0000000000
10
342.1371836574
20
122.4343731316
30
0.0000000000
10
342.1431393734
20
122.4690535067
30
0.0000000000
10
342.1485694182
20
122.5038201232
30
0.0000000000
10
342.1511509050
20
122.5212136705
30
0.0000000000
11
342.1340736917
21
122.4170475403
31
0.0000000000
11
342.1430109391
21
122.4690932652
31
0.0000000000
11
342.1511509050
21
122.5212136705
31
0.0000000000
0
SPLINE
5
376
100
AcDbEntity
8
DEFAULT_2
100
AcDbSpline
62
8
6
HIDDEN
70
0
71
3
72
8
73
4
74
2
42
0.0000001000
43
0.0000001000
44
0.0000000001
40
0.0000000000
40
0.0000000000
40
0.0000000000
40
0.0000000000
40
1.0000000000
40
1.0000000000
40
1.0000000000
40
1.0000000000
10
342.1511509050
20
122.5212136705
30
0.0000000000
10
342.1537303529
20
122.5385934807
30
0.0000000000
10
342.1561778968
20
122.5559926098
30
0.0000000000
10
342.1584927058
20
122.5734088745
30
0.0000000000
11
342.1511509050
21
122.5212136705
31
0.0000000000
11
342.1584927058
21
122.5734088745
31
0.0000000000
0
SPLINE
5
377
100
AcDbEntity
8
DEFAULT_2
100
AcDbSpline
62
8
6
HIDDEN
70
0
71
3
72
9
73
5
74
3
42
0.0000001000
43
0.0000001000
44
0.0000000001
40
0.0000000000
40
0.0000000000
40
0.0000000000
40
0.0000000000
40
0.6714417874
40
1.0000000000
40
1.0000000000
40
1.0000000000
40
1.0000000000
10
341.9934867040
20
125.1775763359
30
0.0000000000
10
342.0129759953
20
125.2115179935
30
0.0000000000
10
342.0403134076
20
125.2630613027
30
0.0000000000
10
342.0647765728
20
125.3160052683
30
0.0000000000
10
342.0724843771
20
125.3335433356
30
0.0000000000
11
341.9934867040
21
125.1775763359
31
0.0000000000
11
342.0483911487
21
125.2813661204
31
0.0000000000
11
342.0724843771
21
125.3335433356
31
0.0000000000
0
SPLINE
5
378
100
AcDbEntity
8
DEFAULT_2
100
AcDbSpline
62
8
6
HIDDEN
70
0
71
3
72
8
73
4
74
2
42
0.0000001000
43
0.0000001000
44
0.0000000001
40
0.0000000000
40
0.0000000000
40
0.0000000000
40
0.0000000000
40
1.0000000000
40
1.0000000000
40
1.0000000000
40
1.0000000000
10
342.0724843771
20
125.3335433356
30
0.0000000000
10
342.0800958599
20
125.3508622361
30
0.0000000000
10
342.0873857637
20
125.3683204802
30
0.0000000000
10
342.0943353172
20
125.3859100666
30
0.0000000000
11
342.0724843771
21
125.3335433356
31
0.0000000000
11
342.0943353172
21
125.3859100666
31
0.0000000000
0
SPLINE
5
379
100
AcDbEntity
8
DEFAULT_2
100
AcDbSpline
62
8
6
HIDDEN
70
0
71
3
72
8
73
4
74
2
42
0.0000001000
43
0.0000001000
44
0.0000000001
40
0.0000000000
40
0.0000000000
40
0.0000000000
40
0.0000000000
40
1.0000000000
40
1.0000000000
40
1.0000000000
40
1.0000000000
10
341.9147898913
20
124.8650763359
30
0.0000000000
10
341.9242906696
20
124.8997247866
30
0.0000000000
10
341.9335492160
20
124.9344403383
30
0.0000000000
10
341.9425644073
20
124.9692191970
30
0.0000000000
11
341.9147898913
21
124.8650763359
31
0.0000000000
11
341.9425644073
21
124.9692191970
31
0.0000000000
0
SPLINE
5
37A
100
AcDbEntity
8
DEFAULT_2
100
AcDbSpline
62
8
6
HIDDEN
70
0
71
3
72
8
73
4
74
2
42
0.0000001000
43
0.0000001000
44
0.0000000001
40
0.0000000000
40
0.0000000000
40
0.0000000000
40
0.0000000000
40
1.0000000000
40
1.0000000000
40
1.0000000000
40
1.0000000000
10
341.9425644073
20
124.9692191970
30
0.0000000000
10
341.9470095514
20
124.9863677005
30
0.0000000000
10
341.9513955309
20
125.0035315953
30
0.0000000000
10
341.9557222111
20
125.0207104264
30
0.0000000000
11
341.9425644073
21
124.9692191970
31
0.0000000000
11
341.9557222111
21
125.0207104264
31
0.0000000000
0
SPLINE
5
37B
100
AcDbEntity
8
DEFAULT_2
100
AcDbSpline
62
8
6
HIDDEN
70
0
71
3
72
8
73
4
74
2
42
0.0000001000
43
0.0000001000
44
0.0000000001
40
0.0000000000
40
0.0000000000
40
0.0000000000
40
0.0000000000
40
1.0000000000
40
1.0000000000
40
1.0000000000
40
1.0000000000
10
341.9557222111
20
125.0207104264
30
0.0000000000
10
341.9622854650
20
125.0467694433
30
0.0000000000
10
341.9687122675
20
125.0728628299
30
0.0000000000
10
341.9750021949
20
125.0989889803
30
0.0000000000
11
341.9557222111
21
125.0207104264
31
0.0000000000
11
341.9750021949
21
125.0989889803
31
0.0000000000
0
SPLINE
5
37C
100
AcDbEntity
8
DEFAULT_2
100
AcDbSpline
62
8
6
HIDDEN
70
0
71
3
72
8
73
4
74
2
42
0.0000001000
43
0.0000001000
44
0.0000000001
40
0.0000000000
40
0.0000000000
40
0.0000000000
40
0.0000000000
40
1.0000000000
40
1.0000000000
40
1.0000000000
40
1.0000000000
10
341.9750021949
20
125.0989889803
30
0.0000000000
10
341.9813011060
20
125.1251524456
30
0.0000000000
10
341.9874627507
20
125.1513487684
30
0.0000000000
10
341.9934867040
20
125.1775763359
30
0.0000000000
11
341.9750021949
21
125.0989889803
31
0.0000000000
11
341.9934867040
21
125.1775763359
31
0.0000000000
0
SPLINE
5
37D
100
AcDbEntity
8
DEFAULT_2
100
AcDbSpline
62
8
6
HIDDEN
70
0
71
3
72
8
73
4
74
2
42
0.0000001000
43
0.0000001000
44
0.0000000001
40
0.0000000000
40
0.0000000000
40
0.0000000000
40
0.0000000000
40
1.0000000000
40
1.0000000000
40
1.0000000000
40
1.0000000000
10
341.8219516019
20
124.3442437973
30
0.0000000000
10
341.8302156219
20
124.3872534749
30
0.0000000000
10
341.8383351266
20
124.4302911646
30
0.0000000000
10
341.8463107276
20
124.4733556329
30
0.0000000000
11
341.8219516019
21
124.3442437973
31
0.0000000000
11
341.8463107276
21
124.4733556329
31
0.0000000000
0
SPLINE
5
37E
100
AcDbEntity
8
DEFAULT_2
100
AcDbSpline
62
8
6
HIDDEN
70
0
71
3
72
8
73
4
74
2
42
0.0000001000
43
0.0000001000
44
0.0000000001
40
0.0000000000
40
0.0000000000
40
0.0000000000
40
0.0000000000
40
1.0000000000
40
1.0000000000
40
1.0000000000
40
1.0000000000
10
341.8463107276
20
124.4733556329
30
0.0000000000
10
341.8543214351
20
124.5166096594
30
0.0000000000
10
341.8621869691
20
124.5598907009
30
0.0000000000
10
341.8699079495
20
124.6031975076
30
0.0000000000
11
341.8463107276
21
124.4733556329
31
0.0000000000
11
341.8699079495
21
124.6031975076
31
0.0000000000
0
SPLINE
5
37F
100
AcDbEntity
8
DEFAULT_2
100
AcDbSpline
62
8
6
HIDDEN
70
0
71
3
72
8
73
4
74
2
42
0.0000001000
43
0.0000001000
44
0.0000000001
40
0.0000000000
40
0.0000000000
40
0.0000000000
40
0.0000000000
40
1.0000000000
40
1.0000000000
40
1.0000000000
40
1.0000000000
10
341.8699079495
20
124.6031975076
30
0.0000000000
10
341.8730881659
20
124.6210352706
30
0.0000000000
10
341.8762438580
20
124.6388774047
30
0.0000000000
10
341.8793750659
20
124.6567238259
30
0.0000000000
11
341.8699079495
21
124.6031975076
31
0.0000000000
11
341.8793750659
21
124.6567238259
31
0.0000000000
0
SPLINE
5
380
100
AcDbEntity
8
DEFAULT_2
100
AcDbSpline
62
8
6
HIDDEN
70
0
71
3
72
8
73
4
74
2
42
0.0000001000
43
0.0000001000
44
0.0000000001
40
0.0000000000
40
0.0000000000
40
0.0000000000
40
0.0000000000
40
1.0000000000
40
1.0000000000
40
1.0000000000
40
1.0000000000
10
341.8793750659
20
124.6567238259
30
0.0000000000
10
341.8915493418
20
124.7261115054
30
0.0000000000
10
341.9033534945
20
124.7955639915
30
0.0000000000
10
341.9147898913
20
124.8650763359
30
0.0000000000
11
341.8793750659
21
124.6567238259
31
0.0000000000
11
341.9147898913
21
124.8650763359
31
0.0000000000
0
SPLINE
5
381
100
AcDbEntity
8
DEFAULT_2
100
AcDbSpline
62
8
6
HIDDEN
70
0
71
3
72
8
73
4
74
2
42
0.0000001000
43
0.0000001000
44
0.0000000001
40
0.0000000000
40
0.0000000000
40
0.0000000000
40
0.0000000000
40
1.0000000000
40
1.0000000000
40
1.0000000000
40
1.0000000000
10
341.7877756500
20
123.8234088745
30
0.0000000000
10
341.7906847848
20
123.8667028864
30
0.0000000000
10
341.7935768912
20
123.9099980458
30
0.0000000000
10
341.7964520233
20
123.9532943341
30
0.0000000000
11
341.7877756500
21
123.8234088745
31
0.0000000000
11
341.7964520233
21
123.9532943341
31
0.0000000000
0
SPLINE
5
382
100
AcDbEntity
8
DEFAULT_2
100
AcDbSpline
62
8
6
HIDDEN
70
0
71
3
72
8
73
4
74
2
42
0.0000001000
43
0.0000001000
44
0.0000000001
40
0.0000000000
40
0.0000000000
40
0.0000000000
40
0.0000000000
40
1.0000000000
40
1.0000000000
40
1.0000000000
40
1.0000000000
10
341.7964520233
20
123.9532943341
30
0.0000000000
10
341.7993317756
20
123.9966601966
30
0.0000000000
10
341.8021944989
20
124.0400271917
30
0.0000000000
10
341.8050402478
20
124.0833953005
30
0.0000000000
11
341.7964520233
21
123.9532943341
31
0.0000000000
11
341.8050402478
21
124.0833953005
31
0.0000000000
0
SPLINE
5
383
100
AcDbEntity
8
DEFAULT_2
100
AcDbSpline
62
8
6
HIDDEN
70
0
71
3
72
8
73
4
74
2
42
0.0000001000
43
0.0000001000
44
0.0000000001
40
0.0000000000
40
0.0000000000
40
0.0000000000
40
0.0000000000
40
1.0000000000
40
1.0000000000
40
1.0000000000
40
1.0000000000
10
341.8050402478
20
124.0833953005
30
0.0000000000
10
341.8107454500
20
124.1703403720
30
0.0000000000
10
341.8163824267
20
124.2572899201
30
0.0000000000
10
341.8219516019
20
124.3442437973
30
0.0000000000
11
341.8050402478
21
124.0833953005
31
0.0000000000
11
341.8219516019
21
124.3442437973
31
0.0000000000
0
SPLINE
5
384
100
AcDbEntity
8
DEFAULT_2
100
AcDbSpline
62
8
6
HIDDEN
70
0
71
3
72
8
73
4
74
2
42
0.0000001000
43
0.0000001000
44
0.0000000001
40
0.0000000000
40
0.0000000000
40
0.0000000000
40
0.0000000000
40
1.0000000000
40
1.0000000000
40
1.0000000000
40
1.0000000000
10
341.7877756500
20
123.4067437973
30
0.0000000000
10
341.7906847848
20
123.3634497854
30
0.0000000000
10
341.7935768912
20
123.3201546260
30
0.0000000000
10
341.7964520233
20
123.2768583377
30
0.0000000000
11
341.7877756500
21
123.4067437973
31
0.0000000000
11
341.7964520233
21
123.2768583377
31
0.0000000000
0
SPLINE
5
385
100
AcDbEntity
8
DEFAULT_2
100
AcDbSpline
62
8
6
HIDDEN
70
0
71
3
72
8
73
4
74
2
42
0.0000001000
43
0.0000001000
44
0.0000000001
40
0.0000000000
40
0.0000000000
40
0.0000000000
40
0.0000000000
40
1.0000000000
40
1.0000000000
40
1.0000000000
40
1.0000000000
10
341.7964520233
20
123.2768583377
30
0.0000000000
10
341.7993317756
20
123.2334924751
30
0.0000000000
10
341.8021944989
20
123.1901254801
30
0.0000000000
10
341.8050402478
20
123.1467573712
30
0.0000000000
11
341.7964520233
21
123.2768583377
31
0.0000000000
11
341.8050402478
21
123.1467573712
31
0.0000000000
0
SPLINE
5
386
100
AcDbEntity
8
DEFAULT_2
100
AcDbSpline
62
8
6
HIDDEN
70
0
71
3
72
8
73
4
74
2
42
0.0000001000
43
0.0000001000
44
0.0000000001
40
0.0000000000
40
0.0000000000
40
0.0000000000
40
0.0000000000
40
1.0000000000
40
1.0000000000
40
1.0000000000
40
1.0000000000
10
341.8050402478
20
123.1467573712
30
0.0000000000
10
341.8107454500
20
123.0598122997
30
0.0000000000
10
341.8163824267
20
122.9728627516
30
0.0000000000
10
341.8219516019
20
122.8859088745
30
0.0000000000
11
341.8050402478
21
123.1467573712
31
0.0000000000
11
341.8219516019
21
122.8859088745
31
0.0000000000
0
SPLINE
5
387
100
AcDbEntity
8
DEFAULT_2
100
AcDbSpline
62
8
6
HIDDEN
70
0
71
3
72
8
73
4
74
2
42
0.0000001000
43
0.0000001000
44
0.0000000001
40
0.0000000000
40
0.0000000000
40
0.0000000000
40
0.0000000000
40
1.0000000000
40
1.0000000000
40
1.0000000000
40
1.0000000000
10
341.8219516019
20
122.8859088745
30
0.0000000000
10
341.8302156219
20
122.8428991968
30
0.0000000000
10
341.8383351266
20
122.7998615072
30
0.0000000000
10
341.8463107276
20
122.7567970388
30
0.0000000000
11
341.8219516019
21
122.8859088745
31
0.0000000000
11
341.8463107276
21
122.7567970388
31
0.0000000000
0
SPLINE
5
388
100
AcDbEntity
8
DEFAULT_2
100
AcDbSpline
62
8
6
HIDDEN
70
0
71
3
72
8
73
4
74
2
42
0.0000001000
43
0.0000001000
44
0.0000000001
40
0.0000000000
40
0.0000000000
40
0.0000000000
40
0.0000000000
40
1.0000000000
40
1.0000000000
40
1.0000000000
40
1.0000000000
10
341.8463107276
20
122.7567970388
30
0.0000000000
10
341.8543214351
20
122.7135430123
30
0.0000000000
10
341.8621869691
20
122.6702619709
30
0.0000000000
10
341.8699079495
20
122.6269551641
30
0.0000000000
11
341.8463107276
21
122.7567970388
31
0.0000000000
11
341.8699079495
21
122.6269551641
31
0.0000000000
0
SPLINE
5
389
100
AcDbEntity
8
DEFAULT_2
100
AcDbSpline
62
8
6
HIDDEN
70
0
71
3
72
8
73
4
74
2
42
0.0000001000
43
0.0000001000
44
0.0000000001
40
0.0000000000
40
0.0000000000
40
0.0000000000
40
0.0000000000
40
1.0000000000
40
1.0000000000
40
1.0000000000
40
1.0000000000
10
341.8699079495
20
122.6269551641
30
0.0000000000
10
341.8730882367
20
122.6091170041
30
0.0000000000
10
341.8762439985
20
122.5912744726
30
0.0000000000
10
341.8793752751
20
122.5734276539
30
0.0000000000
11
341.8699079495
21
122.6269551641
31
0.0000000000
11
341.8793752751
21
122.5734276539
31
0.0000000000
0
SPLINE
5
38A
100
AcDbEntity
8
DEFAULT_2
100
AcDbSpline
62
8
6
HIDDEN
70
0
71
3
72
8
73
4
74
2
42
0.0000001000
43
0.0000001000
44
0.0000000001
40
0.0000000000
40
0.0000000000
40
0.0000000000
40
0.0000000000
40
1.0000000000
40
1.0000000000
40
1.0000000000
40
1.0000000000
10
341.8793752751
20
122.5734276539
30
0.0000000000
10
341.8915494770
20
122.5040403710
30
0.0000000000
10
341.9033535600
20
122.4345882822
30
0.0000000000
10
341.9147898913
20
122.3650763359
30
0.0000000000
11
341.8793752751
21
122.5734276539
31
0.0000000000
11
341.9147898913
21
122.3650763359
31
0.0000000000
0
SPLINE
5
38B
100
AcDbEntity
8
DEFAULT_2
100
AcDbSpline
62
8
6
HIDDEN
70
0
71
3
72
8
73
4
74
2
42
0.0000001000
43
0.0000001000
44
0.0000000001
40
0.0000000000
40
0.0000000000
40
0.0000000000
40
0.0000000000
40
1.0000000000
40
1.0000000000
40
1.0000000000
40
1.0000000000
10
341.9147898913
20
122.3650763359
30
0.0000000000
10
341.9242907781
20
122.3304274894
30
0.0000000000
10
341.9335494274
20
122.2957115405
30
0.0000000000
10
341.9425647161
20
122.2609322831
30
0.0000000000
11
341.9147898913
21
122.3650763359
31
0.0000000000
11
341.9425647161
21
122.2609322831
31
0.0000000000
0
SPLINE
5
38C
100
AcDbEntity
8
DEFAULT_2
100
AcDbSpline
62
8
6
HIDDEN
70
0
71
3
72
8
73
4
74
2
42
0.0000001000
43
0.0000001000
44
0.0000000001
40
0.0000000000
40
0.0000000000
40
0.0000000000
40
0.0000000000
40
1.0000000000
40
1.0000000000
40
1.0000000000
40
1.0000000000
10
341.9425647161
20
122.2609322831
30
0.0000000000
10
341.9470097546
20
122.2437841761
30
0.0000000000
10
341.9513956311
20
122.2266206786
30
0.0000000000
10
341.9557222111
20
122.2094422453
30
0.0000000000
11
341.9425647161
21
122.2609322831
31
0.0000000000
11
341.9557222111
21
122.2094422453
31
0.0000000000
0
SPLINE
5
38D
100
AcDbEntity
8
DEFAULT_2
100
AcDbSpline
62
8
6
HIDDEN
70
0
71
3
72
8
73
4
74
2
42
0.0000001000
43
0.0000001000
44
0.0000000001
40
0.0000000000
40
0.0000000000
40
0.0000000000
40
0.0000000000
40
1.0000000000
40
1.0000000000
40
1.0000000000
40
1.0000000000
10
341.9557222111
20
122.2094422453
30
0.0000000000
10
341.9622854650
20
122.1833832285
30
0.0000000000
10
341.9687122675
20
122.1572898419
30
0.0000000000
10
341.9750021949
20
122.1311636914
30
0.0000000000
11
341.9557222111
21
122.2094422453
31
0.0000000000
11
341.9750021949
21
122.1311636914
31
0.0000000000
0
SPLINE
5
38E
100
AcDbEntity
8
DEFAULT_2
100
AcDbSpline
62
8
6
HIDDEN
70
0
71
3
72
8
73
4
74
2
42
0.0000001000
43
0.0000001000
44
0.0000000001
40
0.0000000000
40
0.0000000000
40
0.0000000000
40
0.0000000000
40
1.0000000000
40
1.0000000000
40
1.0000000000
40
1.0000000000
10
341.9750021949
20
122.1311636914
30
0.0000000000
10
341.9813011060
20
122.1050002261
30
0.0000000000
10
341.9874627507
20
122.0788039034
30
0.0000000000
10
341.9934867040
20
122.0525763359
30
0.0000000000
11
341.9750021949
21
122.1311636914
31
0.0000000000
11
341.9934867040
21
122.0525763359
31
0.0000000000
0
SPLINE
5
38F
100
AcDbEntity
8
DEFAULT_2
100
AcDbSpline
62
8
6
HIDDEN
70
0
71
3
72
9
73
5
74
3
42
0.0000001000
43
0.0000001000
44
0.0000000001
40
0.0000000000
40
0.0000000000
40
0.0000000000
40
0.0000000000
40
0.6714418436
40
1.0000000000
40
1.0000000000
40
1.0000000000
40
1.0000000000
10
341.9934867040
20
122.0525763359
30
0.0000000000
10
342.0129759922
20
122.0186348780
30
0.0000000000
10
342.0403134028
20
121.9670918681
30
0.0000000000
10
342.0647765724
20
121.9141481965
30
0.0000000000
10
342.0724843773
20
121.8966102282
30
0.0000000000
11
341.9934867040
21
122.0525763359
31
0.0000000000
11
342.0483911489
21
121.9487871447
31
0.0000000000
11
342.0724843773
21
121.8966102282
31
0.0000000000
0
SPLINE
5
390
100
AcDbEntity
8
DEFAULT_2
100
AcDbSpline
62
8
6
HIDDEN
70
0
71
3
72
8
73
4
74
2
42
0.0000001000
43
0.0000001000
44
0.0000000001
40
0.0000000000
40
0.0000000000
40
0.0000000000
40
0.0000000000
40
1.0000000000
40
1.0000000000
40
1.0000000000
40
1.0000000000
10
342.0724843773
20
121.8966102282
30
0.0000000000
10
342.0800958594
20
121.8792914282
30
0.0000000000
10
342.0873857632
20
121.8618332842
30
0.0000000000
10
342.0943353172
20
121.8442437973
30
0.0000000000
11
342.0724843773
21
121.8966102282
31
0.0000000000
11
342.0943353172
21
121.8442437973
31
0.0000000000
0
SPLINE
5
391
100
AcDbEntity
8
DEFAULT_2
100
AcDbSpline
62
8
6
HIDDEN
70
0
71
3
72
9
73
5
74
3
42
0.0000001000
43
0.0000001000
44
0.0000000001
40
0.0000000000
40
0.0000000000
40
0.0000000000
40
0.0000000000
40
0.4997760017
40
1.0000000000
40
1.0000000000
40
1.0000000000
40
1.0000000000
10
341.7877756500
20
129.2400763359
30
0.0000000000
10
341.8277938285
20
129.3421710331
30
0.0000000000
10
341.9022646611
20
129.5486935956
30
0.0000000000
10
341.9650787032
20
129.7590606065
30
0.0000000000
10
341.9934867040
20
129.8650763359
30
0.0000000000
11
341.7877756500
21
129.2400763359
31
0.0000000000
11
341.8993197113
21
129.5495613253
31
0.0000000000
11
341.9934867040
21
129.8650763359
31
0.0000000000
0
SPLINE
5
392
100
AcDbEntity
8
DEFAULT_2
100
AcDbSpline
62
8
6
HIDDEN
70
0
71
3
72
9
73
5
74
3
42
0.0000001000
43
0.0000001000
44
0.0000000001
40
0.0000000000
40
0.0000000000
40
0.0000000000
40
0.0000000000
40
0.5059435651
40
1.0000000000
40
1.0000000000
40
1.0000000000
40
1.0000000000
10
342.0166523517
20
135.8025763287
30
0.0000000000
10
342.0276709784
20
135.7855028191
30
0.0000000000
10
342.0486886525
20
135.7512587832
30
0.0000000000
10
342.0680330442
20
135.7160398559
30
0.0000000000
10
342.0771385076
20
135.6984094705
30
0.0000000000
11
342.0166523517
21
135.8025763287
31
0.0000000000
11
342.0485101673
21
135.7506021683
31
0.0000000000
11
342.0771385076
21
135.6984094705
31
0.0000000000
0
SPLINE
5
393
100
AcDbEntity
8
DEFAULT_2
100
AcDbSpline
62
8
6
HIDDEN
70
0
71
3
72
9
73
5
74
3
42
0.0000001000
43
0.0000001000
44
0.0000000001
40
0.0000000000
40
0.0000000000
40
0.0000000000
40
0.0000000000
40
0.5006374987
40
1.0000000000
40
1.0000000000
40
1.0000000000
40
1.0000000000
10
341.9147898924
20
136.1150763327
30
0.0000000000
10
341.9336271917
20
136.0635529297
30
0.0000000000
10
341.9694512424
20
135.9599690067
30
0.0000000000
10
342.0015656184
20
135.8551746832
30
0.0000000000
10
342.0166523471
20
135.8025763359
30
0.0000000000
11
341.9147898924
21
136.1150763327
31
0.0000000000
11
341.9685671329
21
135.9595335652
31
0.0000000000
11
342.0166523471
21
135.8025763359
31
0.0000000000
0
SPLINE
5
394
100
AcDbEntity
8
DEFAULT_2
100
AcDbSpline
62
8
6
HIDDEN
70
0
71
3
72
8
73
4
74
2
42
0.0000001000
43
0.0000001000
44
0.0000000001
40
0.0000000000
40
0.0000000000
40
0.0000000000
40
0.0000000000
40
1.0000000000
40
1.0000000000
40
1.0000000000
40
1.0000000000
10
341.8219516019
20
136.5317432012
30
0.0000000000
10
341.8385981050
20
136.4624343502
30
0.0000000000
10
341.8546698168
20
136.3929862191
30
0.0000000000
10
341.8701684912
20
136.3234104638
30
0.0000000000
11
341.8219516019
21
136.5317432012
31
0.0000000000
11
341.8701684912
21
136.3234104638
31
0.0000000000
0
SPLINE
5
395
100
AcDbEntity
8
DEFAULT_2
100
AcDbSpline
62
8
6
HIDDEN
70
0
71
3
72
8
73
4
74
2
42
0.0000001000
43
0.0000001000
44
0.0000000001
40
0.0000000000
40
0.0000000000
40
0.0000000000
40
0.0000000000
40
1.0000000000
40
1.0000000000
40
1.0000000000
40
1.0000000000
10
341.8701684912
20
136.3234104638
30
0.0000000000
10
341.8856105894
20
136.2540886867
30
0.0000000000
10
341.9004838258
20
136.1846402143
30
0.0000000000
10
341.9147898913
20
136.1150763359
30
0.0000000000
11
341.8701684912
21
136.3234104638
31
0.0000000000
11
341.9147898913
21
136.1150763359
31
0.0000000000
0
SPLINE
5
396
100
AcDbEntity
8
DEFAULT_2
100
AcDbSpline
62
8
6
HIDDEN
70
0
71
3
72
9
73
5
74
3
42
0.0000001000
43
0.0000001000
44
0.0000000001
40
0.0000000000
40
0.0000000000
40
0.0000000000
40
0.0000000000
40
0.4998823646
40
1.0000000000
40
1.0000000000
40
1.0000000000
40
1.0000000000
10
342.1740972248
20
136.6359094705
30
0.0000000000
10
342.1751598339
20
136.6879783029
30
0.0000000000
10
342.1771671163
20
136.7921429245
30
0.0000000000
10
342.1789376963
20
136.8963118383
30
0.0000000000
10
342.1797640407
20
136.9484094705
30
0.0000000000
11
342.1740972248
21
136.6359094705
31
0.0000000000
11
342.1771074963
21
136.7921194901
31
0.0000000000
11
342.1797640407
21
136.9484094705
31
0.0000000000
0
SPLINE
5
397
100
AcDbEntity
8
DEFAULT_2
100
AcDbSpline
62
8
6
HIDDEN
70
0
71
3
72
8
73
4
74
2
42
0.0000001000
43
0.0000001000
44
0.0000000001
40
0.0000000000
40
0.0000000000
40
0.0000000000
40
0.0000000000
40
1.0000000000
40
1.0000000000
40
1.0000000000
40
1.0000000000
10
342.1584927058
20
136.4275763359
30
0.0000000000
10
342.1600287825
20
136.4449121910
30
0.0000000000
10
342.1615058917
20
136.4622533721
30
0.0000000000
10
342.1629239912
20
136.4795994280
30
0.0000000000
11
342.1584927058
21
136.4275763359
31
0.0000000000
11
342.1629239912
21
136.4795994280
31
0.0000000000
0
SPLINE
5
398
100
AcDbEntity
8
DEFAULT_2
100
AcDbSpline
62
8
6
HIDDEN
70
0
71
3
72
9
73
5
74
3
42
0.0000001000
43
0.0000001000
44
0.0000000001
40
0.0000000000
40
0.0000000000
40
0.0000000000
40
0.0000000000
40
0.4999348187
40
1.0000000000
40
1.0000000000
40
1.0000000000
40
1.0000000000
10
342.1629239912
20
136.4795994280
30
0.0000000000
10
342.1643423866
20
136.4969491031
30
0.0000000000
10
342.1670614634
20
136.5316627321
30
0.0000000000
10
342.1695441736
20
136.5663940670
30
0.0000000000
10
342.1707265503
20
136.5837659730
30
0.0000000000
11
342.1629239912
21
136.4795994280
31
0.0000000000
11
342.1670020327
21
136.5316626321
31
0.0000000000
11
342.1707265503
21
136.5837659730
31
0.0000000000
0
SPLINE
5
399
100
AcDbEntity
8
DEFAULT_2
100
AcDbSpline
62
8
6
HIDDEN
70
0
71
3
72
8
73
4
74
2
42
0.0000001000
43
0.0000001000
44
0.0000000001
40
0.0000000000
40
0.0000000000
40
0.0000000000
40
0.0000000000
40
1.0000000000
40
1.0000000000
40
1.0000000000
40
1.0000000000
10
342.1707265503
20
136.5837659730
30
0.0000000000
10
342.1719092968
20
136.6011433128
30
0.0000000000
10
342.1730328660
20
136.6185246297
30
0.0000000000
10
342.1740972248
20
136.6359094705
30
0.0000000000
11
342.1707265503
21
136.5837659730
31
0.0000000000
11
342.1740972248
21
136.6359094705
31
0.0000000000
0
SPLINE
5
39A
100
AcDbEntity
8
DEFAULT_2
100
AcDbSpline
62
8
6
HIDDEN
70
0
71
3
72
9
73
5
74
3
42
0.0000001000
43
0.0000001000
44
0.0000000001
40
0.0000000000
40
0.0000000000
40
0.0000000000
40
0.0000000000
40
0.6694300878
40
1.0000000000
40
1.0000000000
40
1.0000000000
40
1.0000000000
10
342.1243399786
20
136.3234094705
30
0.0000000000
10
342.1310370119
20
136.3405735115
30
0.0000000000
10
342.1403540764
20
136.3664873879
30
0.0000000000
10
342.1485646068
20
136.3927654579
30
0.0000000000
10
342.1511538519
20
136.4014887603
30
0.0000000000
11
342.1243399786
21
136.3234094705
31
0.0000000000
11
342.1430153800
21
136.3754317771
31
0.0000000000
11
342.1511538519
21
136.4014887603
31
0.0000000000
0
SPLINE
5
39B
100
AcDbEntity
8
DEFAULT_2
100
AcDbSpline
62
8
6
HIDDEN
70
0
71
3
72
8
73
4
74
2
42
0.0000001000
43
0.0000001000
44
0.0000000001
40
0.0000000000
40
0.0000000000
40
0.0000000000
40
0.0000000000
40
1.0000000000
40
1.0000000000
40
1.0000000000
40
1.0000000000
10
342.1511538519
20
136.4014887603
30
0.0000000000
10
342.1537245664
20
136.4101496325
30
0.0000000000
10
342.1561721531
20
136.4188465463
30
0.0000000000
10
342.1584927058
20
136.4275763359
30
0.0000000000
11
342.1511538519
21
136.4014887603
31
0.0000000000
11
342.1584927058
21
136.4275763359
31
0.0000000000
0
SPLINE
5
39C
100
AcDbEntity
8
DEFAULT_2
100
AcDbSpline
62
8
6
HIDDEN
70
0
71
3
72
8
73
4
74
2
42
0.0000001000
43
0.0000001000
44
0.0000000001
40
0.0000000000
40
0.0000000000
40
0.0000000000
40
0.0000000000
40
1.0000000000
40
1.0000000000
40
1.0000000000
40
1.0000000000
10
354.3739027979
20
203.5890914900
30
0.0000000000
10
354.3429144006
20
203.5945645208
30
0.0000000000
10
354.3119358196
20
203.6000932808
30
0.0000000000
10
354.2809673562
20
203.6056781466
30
0.0000000000
11
354.3739027979
21
203.5890914900
31
0.0000000000
11
354.2809673562
21
203.6056781466
31
0.0000000000
0
SPLINE
5
39D
100
AcDbEntity
8
DEFAULT_2
100
AcDbSpline
62
8
6
HIDDEN
70
0
71
3
72
8
73
4
74
2
42
0.0000001000
43
0.0000001000
44
0.0000000001
40
0.0000000000
40
0.0000000000
40
0.0000000000
40
0.0000000000
40
1.0000000000
40
1.0000000000
40
1.0000000000
40
1.0000000000
10
354.2809673562
20
203.6056781466
30
0.0000000000
10
354.2655257998
20
203.6084628835
30
0.0000000000
10
354.2500867588
20
203.6112615696
30
0.0000000000
10
354.2346502716
20
203.6140742532
30
0.0000000000
11
354.2809673562
21
203.6056781466
31
0.0000000000
11
354.2346502716
21
203.6140742532
31
0.0000000000
0
SPLINE
5
39E
100
AcDbEntity
8
DEFAULT_2
100
AcDbSpline
62
8
6
HIDDEN
70
0
71
3
72
8
73
4
74
2
42
0.0000001000
43
0.0000001000
44
0.0000000001
40
0.0000000000
40
0.0000000000
40
0.0000000000
40
0.0000000000
40
1.0000000000
40
1.0000000000
40
1.0000000000
40
1.0000000000
10
354.2346502716
20
203.6140742532
30
0.0000000000
10
354.2192421483
20
203.6168817686
30
0.0000000000
10
354.2038365695
20
203.6197032301
30
0.0000000000
10
354.1884335732
20
203.6225386856
30
0.0000000000
11
354.2346502716
21
203.6140742532
31
0.0000000000
11
354.1884335732
21
203.6225386856
31
0.0000000000
0
SPLINE
5
39F
100
AcDbEntity
8
0
100
AcDbSpline
62
7
6
CONTINUOUS
70
0
71
3
72
8
73
4
74
2
42
0.0000001000
43
0.0000001000
44
0.0000000001
40
0.0000000000
40
0.0000000000
40
0.0000000000
40
0.0000000000
40
1.0000000000
40
1.0000000000
40
1.0000000000
40
1.0000000000
10
341.7877756500
20
142.0525763359
30
0.0000000000
10
341.8781227313
20
141.9610325578
30
0.0000000000
10
341.9615643495
20
141.8607182439
30
0.0000000000
10
342.0286657461
20
141.7502199734
30
0.0000000000
11
341.7877756500
21
142.0525763359
31
0.0000000000
11
342.0286657461
21
141.7502199734
31
0.0000000000
0
SPLINE
5
3A0
100
AcDbEntity
8
0
100
AcDbSpline
62
7
6
CONTINUOUS
70
0
71
3
72
9
73
5
74
3
42
0.0000001000
43
0.0000001000
44
0.0000000001
40
0.0000000000
40
0.0000000000
40
0.0000000000
40
0.0000000000
40
0.2198841894
40
1.0000000000
40
1.0000000000
40
1.0000000000
40
1.0000000000
10
342.0286657461
20
141.7502199734
30
0.0000000000
10
342.0499658723
20
141.7151442935
30
0.0000000000
10
342.1393476325
20
141.5509585633
30
0.0000000000
10
342.1884335732
20
141.3646136586
30
0.0000000000
10
342.1884335732
20
141.2192430522
30
0.0000000000
11
342.0286657461
21
141.7502199734
31
0.0000000000
11
342.0873248792
21
141.6418692259
31
0.0000000000
11
342.1884335732
21
141.2192430522
31
0.0000000000
0
SPLINE
5
3A1
100
AcDbEntity
8
0
100
AcDbSpline
62
7
6
CONTINUOUS
70
0
71
3
72
9
73
5
74
3
42
0.0000001000
43
0.0000001000
44
0.0000000001
40
0.0000000000
40
0.0000000000
40
0.0000000000
40
0.0000000000
40
0.6595962128
40
1.0000000000
40
1.0000000000
40
1.0000000000
40
1.0000000000
10
342.1305478420
20
141.5260547427
30
0.0000000000
10
342.1550898768
20
141.5938864395
30
0.0000000000
10
342.1818301033
20
141.7002642542
30
0.0000000000
10
342.1881954570
20
141.8094774586
30
0.0000000000
10
342.1880896110
20
141.8466891223
30
0.0000000000
11
342.1305478420
21
141.5260547427
31
0.0000000000
11
342.1815009429
21
141.7354528319
31
0.0000000000
11
342.1880896110
21
141.8466891223
31
0.0000000000
0
SPLINE
5
3A2
100
AcDbEntity
8
0
100
AcDbSpline
62
7
6
CONTINUOUS
70
0
71
3
72
9
73
5
74
3
42
0.0000001000
43
0.0000001000
44
0.0000000001
40
0.0000000000
40
0.0000000000
40
0.0000000000
40
0.0000000000
40
0.3404038392
40
1.0000000000
40
1.0000000000
40
1.0000000000
40
1.0000000000
10
342.1880896110
20
143.0917969822
30
0.0000000000
10
342.1881954570
20
143.1290086458
30
0.0000000000
10
342.1818301043
20
143.2382218335
30
0.0000000000
10
342.1550898850
20
143.3445996324
30
0.0000000000
10
342.1305478591
20
143.4124313145
30
0.0000000000
11
342.1880896110
21
143.0917969822
31
0.0000000000
11
342.1815009429
21
143.2030332726
31
0.0000000000
11
342.1305478591
21
143.4124313145
31
0.0000000000
0
SPLINE
5
3A3
100
AcDbEntity
8
0
100
AcDbSpline
62
7
6
CONTINUOUS
70
0
71
3
72
9
73
5
74
3
42
0.0000001000
43
0.0000001000
44
0.0000000001
40
0.0000000000
40
0.0000000000
40
0.0000000000
40
0.0000000000
40
0.7801159491
40
1.0000000000
40
1.0000000000
40
1.0000000000
40
1.0000000000
10
342.1884335732
20
143.7192429777
30
0.0000000000
10
342.1884335732
20
143.5738723589
30
0.0000000000
10
342.1393476422
20
143.3875274714
30
0.0000000000
10
342.0499659034
20
143.2233417494
30
0.0000000000
10
342.0286657966
20
143.1882660924
30
0.0000000000
11
342.1884335732
21
143.7192429777
31
0.0000000000
11
342.0873248792
21
143.2966167661
31
0.0000000000
11
342.0286657966
21
143.1882660924
31
0.0000000000
0
SPLINE
5
3A4
100
AcDbEntity
8
0
100
AcDbSpline
62
7
6
CONTINUOUS
70
0
71
3
72
8
73
4
74
2
42
0.0000001000
43
0.0000001000
44
0.0000000001
40
0.0000000000
40
0.0000000000
40
0.0000000000
40
0.0000000000
40
1.0000000000
40
1.0000000000
40
1.0000000000
40
1.0000000000
10
342.0286657966
20
143.1882660924
30
0.0000000000
10
341.9615643919
20
143.0777677804
30
0.0000000000
10
341.8781227548
20
142.9774534296
30
0.0000000000
10
341.7877756500
20
142.8859096195
30
0.0000000000
11
342.0286657966
21
143.1882660924
31
0.0000000000
11
341.7877756500
21
142.8859096195
31
0.0000000000
0
SPLINE
5
3A5
100
AcDbEntity
8
0
100
AcDbSpline
62
7
6
CONTINUOUS
70
0
71
3
72
9
73
5
74
3
42
0.0000001000
43
0.0000001000
44
0.0000000001
40
0.0000000000
40
0.0000000000
40
0.0000000000
40
0.0000000000
40
0.6665350110
40
1.0000000000
40
1.0000000000
40
1.0000000000
40
1.0000000000
10
342.1740972248
20
122.5734088745
30
0.0000000000
10
342.1698317172
20
122.5211554315
30
0.0000000000
10
342.1620088135
20
122.4428695379
30
0.0000000000
10
342.1520691514
20
122.3648340553
30
0.0000000000
10
342.1485207038
20
122.3388444227
30
0.0000000000
11
342.1740972248
21
122.5734088745
31
0.0000000000
11
342.1584628288
21
122.4169061034
31
0.0000000000
11
342.1485207038
21
122.3388444227
31
0.0000000000
0
SPLINE
5
3A6
100
AcDbEntity
8
0
100
AcDbSpline
62
7
6
CONTINUOUS
70
0
71
3
72
8
73
4
74
2
42
0.0000001000
43
0.0000001000
44
0.0000000001
40
0.0000000000
40
0.0000000000
40
0.0000000000
40
0.0000000000
40
1.0000000000
40
1.0000000000
40
1.0000000000
40
1.0000000000
10
342.1485207038
20
122.3388444227
30
0.0000000000
10
342.1449691221
20
122.3128318354
30
0.0000000000
10
342.1411832088
20
122.2868517741
30
0.0000000000
10
342.1371644306
20
122.2609088745
30
0.0000000000
11
342.1485207038
21
122.3388444227
31
0.0000000000
11
342.1371644306
21
122.2609088745
31
0.0000000000
0
SPLINE
5
3A7
100
AcDbEntity
8
0
100
AcDbSpline
62
7
6
CONTINUOUS
70
0
71
3
72
9
73
5
74
3
42
0.0000001000
43
0.0000001000
44
0.0000000001
40
0.0000000000
40
0.0000000000
40
0.0000000000
40
0.0000000000
40
0.5002645787
40
1.0000000000
40
1.0000000000
40
1.0000000000
40
1.0000000000
10
342.1840115169
20
122.9900763359
30
0.0000000000
10
342.1828311810
20
122.9205849664
30
0.0000000000
10
342.1799991749
20
122.7816833559
30
0.0000000000
10
342.1762215285
20
122.6428042455
30
0.0000000000
10
342.1740972248
20
122.5734088745
30
0.0000000000
11
342.1840115169
21
122.9900763359
31
0.0000000000
11
342.1797610160
21
122.7816154860
31
0.0000000000
11
342.1740972248
21
122.5734088745
31
0.0000000000
0
SPLINE
5
3A8
100
AcDbEntity
8
0
100
AcDbSpline
62
7
6
CONTINUOUS
70
0
71
3
72
9
73
5
74
3
42
0.0000001000
43
0.0000001000
44
0.0000000001
40
0.0000000000
40
0.0000000000
40
0.0000000000
40
0.0000000000
40
0.5000105281
40
1.0000000000
40
1.0000000000
40
1.0000000000
40
1.0000000000
10
342.1868419081
20
123.4067437973
30
0.0000000000
10
342.1864881598
20
123.3372970318
30
0.0000000000
10
342.1856627128
20
123.1984070013
30
0.0000000000
10
342.1846012975
20
123.0595185735
30
0.0000000000
10
342.1840115468
20
122.9900763359
30
0.0000000000
11
342.1868419081
21
123.4067437973
31
0.0000000000
11
342.1856037009
21
123.1984044775
31
0.0000000000
11
342.1840115468
21
122.9900763359
31
0.0000000000
0
SPLINE
5
3A9
100
AcDbEntity
8
0
100
AcDbSpline
62
7
6
CONTINUOUS
70
0
71
3
72
9
73
5
74
3
42
0.0000001000
43
0.0000001000
44
0.0000000001
40
0.0000000000
40
0.0000000000
40
0.0000000000
40
0.0000000000
40
0.5000105281
40
1.0000000000
40
1.0000000000
40
1.0000000000
40
1.0000000000
10
342.1868419081
20
123.8234088745
30
0.0000000000
10
342.1864881598
20
123.8928556399
30
0.0000000000
10
342.1856627128
20
124.0317456705
30
0.0000000000
10
342.1846012975
20
124.1706340983
30
0.0000000000
10
342.1840115468
20
124.2400763359
30
0.0000000000
11
342.1868419081
21
123.8234088745
31
0.0000000000
11
342.1856037009
21
124.0317481942
31
0.0000000000
11
342.1840115468
21
124.2400763359
31
0.0000000000
0
SPLINE
5
3AA
100
AcDbEntity
8
0
100
AcDbSpline
62
7
6
CONTINUOUS
70
0
71
3
72
9
73
5
74
3
42
0.0000001000
43
0.0000001000
44
0.0000000001
40
0.0000000000
40
0.0000000000
40
0.0000000000
40
0.0000000000
40
0.5002645783
40
1.0000000000
40
1.0000000000
40
1.0000000000
40
1.0000000000
10
342.1840115169
20
124.2400763359
30
0.0000000000
10
342.1828311810
20
124.3095675066
30
0.0000000000
10
342.1799991749
20
124.4484687197
30
0.0000000000
10
342.1762215285
20
124.5873474327
30
0.0000000000
10
342.1740972248
20
124.6567426052
30
0.0000000000
11
342.1840115169
21
124.2400763359
31
0.0000000000
11
342.1797610160
21
124.4485365892
31
0.0000000000
11
342.1740972248
21
124.6567426052
31
0.0000000000
0
SPLINE
5
3AB
100
AcDbEntity
8
0
100
AcDbSpline
62
7
6
CONTINUOUS
70
0
71
3
72
9
73
5
74
3
42
0.0000001000
43
0.0000001000
44
0.0000000001
40
0.0000000000
40
0.0000000000
40
0.0000000000
40
0.0000000000
40
0.6665350110
40
1.0000000000
40
1.0000000000
40
1.0000000000
40
1.0000000000
10
342.1740972248
20
124.6567426052
30
0.0000000000
10
342.1698317172
20
124.7089960481
30
0.0000000000
10
342.1620088135
20
124.7872819418
30
0.0000000000
10
342.1520691514
20
124.8653174243
30
0.0000000000
10
342.1485207038
20
124.8913070570
30
0.0000000000
11
342.1740972248
21
124.6567426052
31
0.0000000000
11
342.1584628288
21
124.8132453762
31
0.0000000000
11
342.1485207038
21
124.8913070570
31
0.0000000000
0
SPLINE
5
3AC
100
AcDbEntity
8
0
100
AcDbSpline
62
7
6
CONTINUOUS
70
0
71
3
72
8
73
4
74
2
42
0.0000001000
43
0.0000001000
44
0.0000000001
40
0.0000000000
40
0.0000000000
40
0.0000000000
40
0.0000000000
40
1.0000000000
40
1.0000000000
40
1.0000000000
40
1.0000000000
10
342.1485207038
20
124.8913070570
30
0.0000000000
10
342.1449691221
20
124.9173196443
30
0.0000000000
10
342.1411832088
20
124.9432997055
30
0.0000000000
10
342.1371644306
20
124.9692426052
30
0.0000000000
11
342.1485207038
21
124.8913070570
31
0.0000000000
11
342.1371644306
21
124.9692426052
31
0.0000000000
0
SPLINE
5
3AD
100
AcDbEntity
8
0
100
AcDbSpline
62
7
6
CONTINUOUS
70
0
71
3
72
8
73
4
74
2
42
0.0000001000
43
0.0000001000
44
0.0000000001
40
0.0000000000
40
0.0000000000
40
0.0000000000
40
0.0000000000
40
1.0000000000
40
1.0000000000
40
1.0000000000
40
1.0000000000
10
342.1882567379
20
122.5734088745
30
0.0000000000
10
342.1883156835
20
122.5560478763
30
0.0000000000
10
342.1883598923
20
122.5386868219
30
0.0000000000
10
342.1883893647
20
122.5213257394
30
0.0000000000
11
342.1882567379
21
122.5734088745
31
0.0000000000
11
342.1883893647
21
122.5213257394
31
0.0000000000
0
SPLINE
5
3AE
100
AcDbEntity
8
0
100
AcDbSpline
62
7
6
CONTINUOUS
70
0
71
3
72
8
73
4
74
2
42
0.0000001000
43
0.0000001000
44
0.0000000001
40
0.0000000000
40
0.0000000000
40
0.0000000000
40
0.0000000000
40
1.0000000000
40
1.0000000000
40
1.0000000000
40
1.0000000000
10
342.1883893647
20
122.5213257394
30
0.0000000000
10
342.1884188371
20
122.5039647134
30
0.0000000000
10
342.1884335731
20
122.4866036593
30
0.0000000000
10
342.1884335732
20
122.4692426052
30
0.0000000000
11
342.1883893647
21
122.5213257394
31
0.0000000000
11
342.1884335732
21
122.4692426052
31
0.0000000000
0
SPLINE
5
3AF
100
AcDbEntity
8
0
100
AcDbSpline
62
7
6
CONTINUOUS
70
0
71
3
72
9
73
5
74
3
42
0.0000001000
43
0.0000001000
44
0.0000000001
40
0.0000000000
40
0.0000000000
40
0.0000000000
40
0.0000000000
40
0.4930418503
40
1.0000000000
40
1.0000000000
40
1.0000000000
40
1.0000000000
10
342.0943352941
20
121.7400763359
30
0.0000000000
10
342.0803482449
20
121.7754779018
30
0.0000000000
10
342.0491830803
20
121.8462011589
30
0.0000000000
10
342.0129760009
20
121.9144674147
30
0.0000000000
10
341.9934867207
20
121.9484088745
30
0.0000000000
11
342.0943352941
21
121.7400763359
31
0.0000000000
11
342.0483911437
21
121.8446196798
31
0.0000000000
11
341.9934867207
21
121.9484088745
31
0.0000000000
0
SPLINE
5
3B0
100
AcDbEntity
8
0
100
AcDbSpline
62
7
6
CONTINUOUS
70
0
71
3
72
9
73
5
74
3
42
0.0000001000
43
0.0000001000
44
0.0000000001
40
0.0000000000
40
0.0000000000
40
0.0000000000
40
0.0000000000
40
0.5006530469
40
1.0000000000
40
1.0000000000
40
1.0000000000
40
1.0000000000
10
341.9934867207
20
121.9484088745
30
0.0000000000
10
341.9814474041
20
122.0008266065
30
0.0000000000
10
341.9563016511
20
122.1052760485
30
0.0000000000
10
341.9289752538
20
122.2091762242
30
0.0000000000
10
341.9147899013
20
122.2609088745
30
0.0000000000
11
341.9934867207
21
121.9484088745
31
0.0000000000
11
341.9557222223
21
122.1052747937
31
0.0000000000
11
341.9147899013
21
122.2609088745
31
0.0000000000
0
SPLINE
5
3B1
100
AcDbEntity
8
0
100
AcDbSpline
62
7
6
CONTINUOUS
70
0
71
3
72
9
73
5
74
3
42
0.0000001000
43
0.0000001000
44
0.0000000001
40
0.0000000000
40
0.0000000000
40
0.0000000000
40
0.0000000000
40
0.5022117217
40
1.0000000000
40
1.0000000000
40
1.0000000000
40
1.0000000000
10
341.9147899013
20
122.2609088745
30
0.0000000000
10
341.9004120755
20
122.3483001141
30
0.0000000000
10
341.8706256691
20
122.5221244742
30
0.0000000000
10
341.8385160202
20
122.6955347407
30
0.0000000000
10
341.8219516048
20
122.7817437973
30
0.0000000000
11
341.9147899013
21
122.2609088745
31
0.0000000000
11
341.8699079503
21
122.5227889351
31
0.0000000000
11
341.8219516048
21
122.7817437973
31
0.0000000000
0
SPLINE
5
3B2
100
AcDbEntity
8
0
100
AcDbSpline
62
7
6
CONTINUOUS
70
0
71
3
72
9
73
5
74
3
42
0.0000001000
43
0.0000001000
44
0.0000000001
40
0.0000000000
40
0.0000000000
40
0.0000000000
40
0.0000000000
40
0.5008018804
40
1.0000000000
40
1.0000000000
40
1.0000000000
40
1.0000000000
10
341.8219516048
20
122.7817437973
30
0.0000000000
10
341.8163824292
20
122.8686972764
30
0.0000000000
10
341.8051265266
20
123.0423171320
30
0.0000000000
10
341.7935985949
20
123.2159191383
30
0.0000000000
10
341.7877756500
20
123.3025763359
30
0.0000000000
11
341.8219516048
21
122.7817437973
31
0.0000000000
11
341.8050402492
21
123.0425911000
31
0.0000000000
11
341.7877756500
21
123.3025763359
31
0.0000000000
0
SPLINE
5
3B3
100
AcDbEntity
8
0
100
AcDbSpline
62
7
6
CONTINUOUS
70
0
71
3
72
9
73
5
74
3
42
0.0000001000
43
0.0000001000
44
0.0000000001
40
0.0000000000
40
0.0000000000
40
0.0000000000
40
0.0000000000
40
0.5008018804
40
1.0000000000
40
1.0000000000
40
1.0000000000
40
1.0000000000
10
341.8219516048
20
124.4484088745
30
0.0000000000
10
341.8163824292
20
124.3614553953
30
0.0000000000
10
341.8051265266
20
124.1878355398
30
0.0000000000
10
341.7935985949
20
124.0142335335
30
0.0000000000
10
341.7877756500
20
123.9275763359
30
0.0000000000
11
341.8219516048
21
124.4484088745
31
0.0000000000
11
341.8050402492
21
124.1875615717
31
0.0000000000
11
341.7877756500
21
123.9275763359
31
0.0000000000
0
SPLINE
5
3B4
100
AcDbEntity
8
0
100
AcDbSpline
62
7
6
CONTINUOUS
70
0
71
3
72
9
73
5
74
3
42
0.0000001000
43
0.0000001000
44
0.0000000001
40
0.0000000000
40
0.0000000000
40
0.0000000000
40
0.0000000000
40
0.5022117172
40
1.0000000000
40
1.0000000000
40
1.0000000000
40
1.0000000000
10
341.9147899013
20
124.9692426052
30
0.0000000000
10
341.9004120754
20
124.8818515655
30
0.0000000000
10
341.8706256689
20
124.7080276022
30
0.0000000000
10
341.8385160202
20
124.5346177336
30
0.0000000000
10
341.8219516048
20
124.4484088745
30
0.0000000000
11
341.9147899013
21
124.9692426052
31
0.0000000000
11
341.8699079504
21
124.7073631449
31
0.0000000000
11
341.8219516048
21
124.4484088745
31
0.0000000000
0
SPLINE
5
3B5
100
AcDbEntity
8
0
100
AcDbSpline
62
7
6
CONTINUOUS
70
0
71
3
72
9
73
5
74
3
42
0.0000001000
43
0.0000001000
44
0.0000000001
40
0.0000000000
40
0.0000000000
40
0.0000000000
40
0.0000000000
40
0.5006530469
40
1.0000000000
40
1.0000000000
40
1.0000000000
40
1.0000000000
10
341.9934867207
20
125.2817426052
30
0.0000000000
10
341.9814474041
20
125.2293248732
30
0.0000000000
10
341.9563016511
20
125.1248754312
30
0.0000000000
10
341.9289752538
20
125.0209752555
30
0.0000000000
10
341.9147899013
20
124.9692426052
30
0.0000000000
11
341.9934867207
21
125.2817426052
31
0.0000000000
11
341.9557222223
21
125.1248766859
31
0.0000000000
11
341.9147899013
21
124.9692426052
31
0.0000000000
0
SPLINE
5
3B6
100
AcDbEntity
8
0
100
AcDbSpline
62
7
6
CONTINUOUS
70
0
71
3
72
9
73
5
74
3
42
0.0000001000
43
0.0000001000
44
0.0000000001
40
0.0000000000
40
0.0000000000
40
0.0000000000
40
0.0000000000
40
0.4930419339
40
1.0000000000
40
1.0000000000
40
1.0000000000
40
1.0000000000
10
342.0943352941
20
125.4900763359
30
0.0000000000
10
342.0803482470
20
125.4546745727
30
0.0000000000
10
342.0491830885
20
125.3839509225
30
0.0000000000
10
342.0129760041
20
125.3156842647
30
0.0000000000
10
341.9934867207
20
125.2817426052
30
0.0000000000
11
342.0943352941
21
125.4900763359
31
0.0000000000
11
342.0483911434
21
125.3855323933
31
0.0000000000
11
341.9934867207
21
125.2817426052
31
0.0000000000
0
SPLINE
5
3B7
100
AcDbEntity
8
0
100
AcDbSpline
62
7
6
CONTINUOUS
70
0
71
3
72
8
73
4
74
2
42
0.0000001000
43
0.0000001000
44
0.0000000001
40
0.0000000000
40
0.0000000000
40
0.0000000000
40
0.0000000000
40
1.0000000000
40
1.0000000000
40
1.0000000000
40
1.0000000000
10
342.1882567379
20
124.6567426052
30
0.0000000000
10
342.1883156835
20
124.6741037027
30
0.0000000000
10
342.1883598923
20
124.6914648564
30
0.0000000000
10
342.1883893647
20
124.7088260383
30
0.0000000000
11
342.1882567379
21
124.6567426052
31
0.0000000000
11
342.1883893647
21
124.7088260383
31
0.0000000000
0
SPLINE
5
3B8
100
AcDbEntity
8
0
100
AcDbSpline
62
7
6
CONTINUOUS
70
0
71
3
72
8
73
4
74
2
42
0.0000001000
43
0.0000001000
44
0.0000000001
40
0.0000000000
40
0.0000000000
40
0.0000000000
40
0.0000000000
40
1.0000000000
40
1.0000000000
40
1.0000000000
40
1.0000000000
10
342.1883893647
20
124.7088260383
30
0.0000000000
10
342.1884188371
20
124.7261871636
30
0.0000000000
10
342.1884335731
20
124.7435483171
30
0.0000000000
10
342.1884335732
20
124.7609094705
30
0.0000000000
11
342.1883893647
21
124.7088260383
31
0.0000000000
11
342.1884335732
21
124.7609094705
31
0.0000000000
0
SPLINE
5
3B9
100
AcDbEntity
8
0
100
AcDbSpline
62
7
6
CONTINUOUS
70
0
71
3
72
9
73
5
74
3
42
0.0000001000
43
0.0000001000
44
0.0000000001
40
0.0000000000
40
0.0000000000
40
0.0000000000
40
0.0000000000
40
0.4964163866
40
1.0000000000
40
1.0000000000
40
1.0000000000
40
1.0000000000
10
342.1670080450
20
136.4275763359
30
0.0000000000
10
342.1630757964
20
136.4100751477
30
0.0000000000
10
342.1541097578
20
136.3750474195
30
0.0000000000
10
342.1431533509
20
136.3405921653
30
0.0000000000
10
342.1371644306
20
136.3234094705
30
0.0000000000
11
342.1670080450
21
136.4275763359
31
0.0000000000
11
342.1536835345
21
136.3754395455
31
0.0000000000
11
342.1371644306
21
136.3234094705
31
0.0000000000
0
SPLINE
5
3BA
100
AcDbEntity
8
0
100
AcDbSpline
62
7
6
CONTINUOUS
70
0
71
3
72
9
73
5
74
3
42
0.0000001000
43
0.0000001000
44
0.0000000001
40
0.0000000000
40
0.0000000000
40
0.0000000000
40
0.0000000000
40
0.5001065678
40
1.0000000000
40
1.0000000000
40
1.0000000000
40
1.0000000000
10
342.1797640407
20
136.6359094705
30
0.0000000000
10
342.1781101915
20
136.6011533633
30
0.0000000000
10
342.1743303026
20
136.5316776572
30
0.0000000000
10
342.1696056656
20
136.4622598020
30
0.0000000000
10
342.1670080450
20
136.4275763359
30
0.0000000000
11
342.1797640407
21
136.6359094705
31
0.0000000000
11
342.1740932092
21
136.5316773184
31
0.0000000000
11
342.1670080450
21
136.4275763359
31
0.0000000000
0
SPLINE
5
3BB
100
AcDbEntity
8
0
100
AcDbSpline
62
7
6
CONTINUOUS
70
0
71
3
72
9
73
5
74
3
42
0.0000001000
43
0.0000001000
44
0.0000000001
40
0.0000000000
40
0.0000000000
40
0.0000000000
40
0.0000000000
40
0.5000881314
40
1.0000000000
40
1.0000000000
40
1.0000000000
40
1.0000000000
10
342.1840115169
20
136.9484094705
30
0.0000000000
10
342.1834216253
20
136.8963154515
30
0.0000000000
10
342.1821239537
20
136.7921470784
30
0.0000000000
10
342.1805899856
20
136.6879819169
30
0.0000000000
10
342.1797640407
20
136.6359094705
30
0.0000000000
11
342.1840115169
21
136.9484094705
31
0.0000000000
11
342.1820646300
21
136.7921295206
31
0.0000000000
11
342.1797640407
21
136.6359094705
31
0.0000000000
0
SPLINE
5
3BC
100
AcDbEntity
8
0
100
AcDbSpline
62
7
6
CONTINUOUS
70
0
71
3
72
9
73
5
74
3
42
0.0000001000
43
0.0000001000
44
0.0000000001
40
0.0000000000
40
0.0000000000
40
0.0000000000
40
0.0000000000
40
0.5008018805
40
1.0000000000
40
1.0000000000
40
1.0000000000
40
1.0000000000
10
341.8219516048
20
136.5317432012
30
0.0000000000
10
341.8163824292
20
136.6186967799
30
0.0000000000
10
341.8051265266
20
136.7923168341
30
0.0000000000
10
341.7935985949
20
136.9659190391
30
0.0000000000
10
341.7877756500
20
137.0525763359
30
0.0000000000
11
341.8219516048
21
136.5317432012
31
0.0000000000
11
341.8050402492
21
136.7925908025
31
0.0000000000
11
341.7877756500
21
137.0525763359
31
0.0000000000
0
SPLINE
5
3BD
100
AcDbEntity
8
0
100
AcDbSpline
62
7
6
CONTINUOUS
70
0
71
3
72
9
73
5
74
3
42
0.0000001000
43
0.0000001000
44
0.0000000001
40
0.0000000000
40
0.0000000000
40
0.0000000000
40
0.0000000000
40
0.5016974436
40
1.0000000000
40
1.0000000000
40
1.0000000000
40
1.0000000000
10
341.9147899013
20
136.1150763359
30
0.0000000000
10
341.9004089714
20
136.1850042411
30
0.0000000000
10
341.8706020576
20
136.3241544182
30
0.0000000000
10
341.8385113163
20
136.4627957185
30
0.0000000000
10
341.8219516048
20
136.5317432012
30
0.0000000000
11
341.9147899013
21
136.1150763359
31
0.0000000000
11
341.8699260264
21
136.3244987329
31
0.0000000000
11
341.8219516048
21
136.5317432012
31
0.0000000000
0
SPLINE
5
3BE
100
AcDbEntity
8
0
100
AcDbSpline
62
7
6
CONTINUOUS
70
0
71
3
72
9
73
5
74
3
42
0.0000001000
43
0.0000001000
44
0.0000000001
40
0.0000000000
40
0.0000000000
40
0.0000000000
40
0.0000000000
40
0.4993625118
40
1.0000000000
40
1.0000000000
40
1.0000000000
40
1.0000000000
10
342.0166523628
20
135.8025763359
30
0.0000000000
10
342.0015656330
20
135.8551746849
30
0.0000000000
10
341.9694512549
20
135.9599690097
30
0.0000000000
10
341.9336272016
20
136.0635529336
30
0.0000000000
10
341.9147899013
20
136.1150763359
30
0.0000000000
11
342.0166523628
21
135.8025763359
31
0.0000000000
11
341.9685671446
21
135.9595335703
31
0.0000000000
11
341.9147899013
21
136.1150763359
31
0.0000000000
0
SPLINE
5
3BF
100
AcDbEntity
8
0
100
AcDbSpline
62
7
6
CONTINUOUS
70
0
71
3
72
9
73
5
74
3
42
0.0000001000
43
0.0000001000
44
0.0000000001
40
0.0000000000
40
0.0000000000
40
0.0000000000
40
0.0000000000
40
0.4940563892
40
1.0000000000
40
1.0000000000
40
1.0000000000
40
1.0000000000
10
342.0771385327
20
135.6984094705
30
0.0000000000
10
342.0680330683
20
135.7160398558
30
0.0000000000
10
342.0486886724
20
135.7512587858
30
0.0000000000
10
342.0276709932
20
135.7855028239
30
0.0000000000
10
342.0166523628
20
135.8025763359
30
0.0000000000
11
342.0771385327
21
135.6984094705
31
0.0000000000
11
342.0485101889
21
135.7506021675
31
0.0000000000
11
342.0166523628
21
135.8025763359
31
0.0000000000
0
SPLINE
5
3C0
100
AcDbEntity
8
0
100
AcDbSpline
62
7
6
CONTINUOUS
70
0
71
3
72
8
73
4
74
2
42
0.0000001000
43
0.0000001000
44
0.0000000001
40
0.0000000000
40
0.0000000000
40
0.0000000000
40
0.0000000000
40
1.0000000000
40
1.0000000000
40
1.0000000000
40
1.0000000000
10
342.1882567379
20
136.3234094705
30
0.0000000000
10
342.1883156835
20
136.3060484227
30
0.0000000000
10
342.1883598923
20
136.2886873186
30
0.0000000000
10
342.1883893647
20
136.2713261864
30
0.0000000000
11
342.1882567379
21
136.3234094705
31
0.0000000000
11
342.1883893647
21
136.2713261864
31
0.0000000000
0
SPLINE
5
3C1
100
AcDbEntity
8
0
100
AcDbSpline
62
7
6
CONTINUOUS
70
0
71
3
72
8
73
4
74
2
42
0.0000001000
43
0.0000001000
44
0.0000000001
40
0.0000000000
40
0.0000000000
40
0.0000000000
40
0.0000000000
40
1.0000000000
40
1.0000000000
40
1.0000000000
40
1.0000000000
10
342.1883893647
20
136.2713261864
30
0.0000000000
10
342.1884188371
20
136.2539651108
30
0.0000000000
10
342.1884335731
20
136.2366040070
30
0.0000000000
10
342.1884335732
20
136.2192429032
30
0.0000000000
11
342.1883893647
21
136.2713261864
31
0.0000000000
11
342.1884335732
21
136.2192429032
31
0.0000000000
0
SPLINE
5
3C2
100
AcDbEntity
8
0
100
AcDbSpline
62
7
6
CONTINUOUS
70
0
71
3
72
8
73
4
74
2
42
0.0000001000
43
0.0000001000
44
0.0000000001
40
0.0000000000
40
0.0000000000
40
0.0000000000
40
0.0000000000
40
1.0000000000
40
1.0000000000
40
1.0000000000
40
1.0000000000
10
342.1882567379
20
122.3650763359
30
0.0000000000
10
342.1880784856
20
122.3300762007
30
0.0000000000
10
342.1877654721
20
122.2950764940
30
0.0000000000
10
342.1873176813
20
122.2600783840
30
0.0000000000
11
342.1882567379
21
122.3650763359
31
0.0000000000
11
342.1873176813
21
122.2600783840
31
0.0000000000
0
SPLINE
5
3C3
100
AcDbEntity
8
0
100
AcDbSpline
62
7
6
CONTINUOUS
70
0
71
3
72
9
73
5
74
3
42
0.0000001000
43
0.0000001000
44
0.0000000001
40
0.0000000000
40
0.0000000000
40
0.0000000000
40
0.0000000000
40
0.3318075384
40
1.0000000000
40
1.0000000000
40
1.0000000000
40
1.0000000000
10
342.1873176813
20
122.2600783840
30
0.0000000000
10
342.1868765263
20
122.2255988988
30
0.0000000000
10
342.1851527334
20
122.1216894587
30
0.0000000000
10
342.1822406373
20
122.0178042397
30
0.0000000000
10
342.1797640407
20
121.9484088745
30
0.0000000000
11
342.1873176813
21
122.2600783840
31
0.0000000000
11
342.1856017636
21
122.1566456944
31
0.0000000000
11
342.1797640407
21
121.9484088745
31
0.0000000000
0
SPLINE
5
3C4
100
AcDbEntity
8
0
100
AcDbSpline
62
7
6
CONTINUOUS
70
0
71
3
72
8
73
4
74
2
42
0.0000001000
43
0.0000001000
44
0.0000000001
40
0.0000000000
40
0.0000000000
40
0.0000000000
40
0.0000000000
40
1.0000000000
40
1.0000000000
40
1.0000000000
40
1.0000000000
10
342.1797640407
20
121.9484088745
30
0.0000000000
10
342.1776886332
20
121.9309628201
30
0.0000000000
10
342.1752439244
20
121.9135569993
30
0.0000000000
10
342.1724386199
20
121.8962074942
30
0.0000000000
11
342.1797640407
21
121.9484088745
31
0.0000000000
11
342.1724386199
21
121.8962074942
31
0.0000000000
0
SPLINE
5
3C5
100
AcDbEntity
8
0
100
AcDbSpline
62
7
6
CONTINUOUS
70
0
71
3
72
9
73
5
74
3
42
0.0000001000
43
0.0000001000
44
0.0000000001
40
0.0000000000
40
0.0000000000
40
0.0000000000
40
0.0000000000
40
0.3308319118
40
1.0000000000
40
1.0000000000
40
1.0000000000
40
1.0000000000
10
342.1724386199
20
121.8962074942
30
0.0000000000
10
342.1696192494
20
121.8787709979
30
0.0000000000
10
342.1599962619
20
121.8262379323
30
0.0000000000
10
342.1471262703
20
121.7743737309
30
0.0000000000
10
342.1371644306
20
121.7400763359
30
0.0000000000
11
342.1724386199
21
121.8962074942
31
0.0000000000
11
342.1628966829
21
121.8440849759
31
0.0000000000
11
342.1371644306
21
121.7400763359
31
0.0000000000
0
SPLINE
5
3C6
100
AcDbEntity
8
0
100
AcDbSpline
62
7
6
CONTINUOUS
70
0
71
3
72
9
73
5
74
3
42
0.0000001000
43
0.0000001000
44
0.0000000001
40
0.0000000000
40
0.0000000000
40
0.0000000000
40
0.0000000000
40
0.6691680547
40
1.0000000000
40
1.0000000000
40
1.0000000000
40
1.0000000000
10
342.1371644306
20
125.4900763359
30
0.0000000000
10
342.1471262714
20
125.4557787407
30
0.0000000000
10
342.1599962631
20
125.4039142405
30
0.0000000000
10
342.1696192495
20
125.3513808798
30
0.0000000000
10
342.1724386199
20
125.3339442843
30
0.0000000000
11
342.1371644306
21
125.4900763359
31
0.0000000000
11
342.1628966829
21
125.3860671010
31
0.0000000000
11
342.1724386199
21
125.3339442843
31
0.0000000000
0
SPLINE
5
3C7
100
AcDbEntity
8
0
100
AcDbSpline
62
7
6
CONTINUOUS
70
0
71
3
72
8
73
4
74
2
42
0.0000001000
43
0.0000001000
44
0.0000000001
40
0.0000000000
40
0.0000000000
40
0.0000000000
40
0.0000000000
40
1.0000000000
40
1.0000000000
40
1.0000000000
40
1.0000000000
10
342.1724386199
20
125.3339442843
30
0.0000000000
10
342.1752439245
20
125.3165946793
30
0.0000000000
10
342.1776886332
20
125.2991887589
30
0.0000000000
10
342.1797640407
20
125.2817426052
30
0.0000000000
11
342.1724386199
21
125.3339442843
31
0.0000000000
11
342.1797640407
21
125.2817426052
31
0.0000000000
0
SPLINE
5
3C8
100
AcDbEntity
8
0
100
AcDbSpline
62
7
6
CONTINUOUS
70
0
71
3
72
8
73
4
74
2
42
0.0000001000
43
0.0000001000
44
0.0000000001
40
0.0000000000
40
0.0000000000
40
0.0000000000
40
0.0000000000
40
1.0000000000
40
1.0000000000
40
1.0000000000
40
1.0000000000
10
342.1882567379
20
124.8650763359
30
0.0000000000
10
342.1880784871
20
124.9000760746
30
0.0000000000
10
342.1877654774
20
124.9350753847
30
0.0000000000
10
342.1873176927
20
124.9700730982
30
0.0000000000
11
342.1882567379
21
124.8650763359
31
0.0000000000
11
342.1873176927
21
124.9700730982
31
0.0000000000
0
SPLINE
5
3C9
100
AcDbEntity
8
0
100
AcDbSpline
62
7
6
CONTINUOUS
70
0
71
3
72
9
73
5
74
3
42
0.0000001000
43
0.0000001000
44
0.0000000001
40
0.0000000000
40
0.0000000000
40
0.0000000000
40
0.0000000000
40
0.3318094435
40
1.0000000000
40
1.0000000000
40
1.0000000000
40
1.0000000000
10
342.1873176927
20
124.9700730982
30
0.0000000000
10
342.1868765361
20
125.0045527812
30
0.0000000000
10
342.1851527417
20
125.1084622205
30
0.0000000000
10
342.1822406373
20
125.2123474386
30
0.0000000000
10
342.1797640407
20
125.2817426052
30
0.0000000000
11
342.1873176927
21
124.9700730982
31
0.0000000000
11
342.1856017636
21
125.0735063809
31
0.0000000000
11
342.1797640407
21
125.2817426052
31
0.0000000000
0
SPLINE
5
3CA
100
AcDbEntity
8
0
100
AcDbSpline
62
7
6
CONTINUOUS
70
0
71
3
72
9
73
5
74
3
42
0.0000001000
43
0.0000001000
44
0.0000000001
40
0.0000000000
40
0.0000000000
40
0.0000000000
40
0.0000000000
40
0.5005888911
40
1.0000000000
40
1.0000000000
40
1.0000000000
40
1.0000000000
10
341.9687976509
20
122.9900763359
30
0.0000000000
10
341.9645495758
20
123.0596106869
30
0.0000000000
10
341.9559355598
20
123.1985080076
30
0.0000000000
10
341.9470649663
20
123.3373891787
30
0.0000000000
10
341.9425706018
20
123.4067437973
30
0.0000000000
11
341.9687976509
21
122.9900763359
31
0.0000000000
11
341.9558611188
21
123.1986675515
31
0.0000000000
11
341.9425706018
21
123.4067437973
31
0.0000000000
0
SPLINE
5
3CB
100
AcDbEntity
8
0
100
AcDbSpline
62
7
6
CONTINUOUS
70
0
71
3
72
9
73
5
74
3
42
0.0000001000
43
0.0000001000
44
0.0000000001
40
0.0000000000
40
0.0000000000
40
0.0000000000
40
0.0000000000
40
0.5012937004
40
1.0000000000
40
1.0000000000
40
1.0000000000
40
1.0000000000
10
342.0166523628
20
122.5734088745
30
0.0000000000
10
342.0091574842
20
122.6430893653
30
0.0000000000
10
341.9937067564
20
122.7820374137
30
0.0000000000
10
341.9772536800
20
122.9208703457
30
0.0000000000
10
341.9687976509
20
122.9900763359
30
0.0000000000
11
342.0166523628
21
122.5734088745
31
0.0000000000
11
341.9934148936
21
122.7823679998
31
0.0000000000
11
341.9687976509
21
122.9900763359
31
0.0000000000
0
SPLINE
5
3CC
100
AcDbEntity
8
0
100
AcDbSpline
62
7
6
CONTINUOUS
70
0
71
3
72
9
73
5
74
3
42
0.0000001000
43
0.0000001000
44
0.0000000001
40
0.0000000000
40
0.0000000000
40
0.0000000000
40
0.0000000000
40
0.4994874209
40
1.0000000000
40
1.0000000000
40
1.0000000000
40
1.0000000000
10
342.0943352941
20
122.2609088745
30
0.0000000000
10
342.0832789847
20
122.3133786817
30
0.0000000000
10
342.0592402329
20
122.4180336825
30
0.0000000000
10
342.0314669238
20
122.5217594187
30
0.0000000000
10
342.0166523628
20
122.5734088745
30
0.0000000000
11
342.0943352941
21
122.2609088745
31
0.0000000000
11
342.0583331503
21
122.4176945545
31
0.0000000000
11
342.0166523628
21
122.5734088745
31
0.0000000000
0
SPLINE
5
3CD
100
AcDbEntity
8
0
100
AcDbSpline
62
7
6
CONTINUOUS
70
0
71
3
72
8
73
4
74
2
42
0.0000001000
43
0.0000001000
44
0.0000000001
40
0.0000000000
40
0.0000000000
40
0.0000000000
40
0.0000000000
40
1.0000000000
40
1.0000000000
40
1.0000000000
40
1.0000000000
10
342.1884335732
20
122.4692426052
30
0.0000000000
10
342.1884335734
20
122.4345204404
30
0.0000000000
10
342.1883746297
20
122.3997982755
30
0.0000000000
10
342.1882567387
20
122.3650763359
30
0.0000000000
11
342.1884335732
21
122.4692426052
31
0.0000000000
11
342.1882567387
21
122.3650763359
31
0.0000000000
0
SPLINE
5
3CE
100
AcDbEntity
8
0
100
AcDbSpline
62
7
6
CONTINUOUS
70
0
71
3
72
8
73
4
74
2
42
0.0000001000
43
0.0000001000
44
0.0000000001
40
0.0000000000
40
0.0000000000
40
0.0000000000
40
0.0000000000
40
1.0000000000
40
1.0000000000
40
1.0000000000
40
1.0000000000
10
342.1884335732
20
124.7609094705
30
0.0000000000
10
342.1884335734
20
124.7956318340
30
0.0000000000
10
342.1883746297
20
124.8303541975
30
0.0000000000
10
342.1882567387
20
124.8650763359
30
0.0000000000
11
342.1884335732
21
124.7609094705
31
0.0000000000
11
342.1882567387
21
124.8650763359
31
0.0000000000
0
SPLINE
5
3CF
100
AcDbEntity
8
0
100
AcDbSpline
62
7
6
CONTINUOUS
70
0
71
3
72
9
73
5
74
3
42
0.0000001000
43
0.0000001000
44
0.0000000001
40
0.0000000000
40
0.0000000000
40
0.0000000000
40
0.0000000000
40
0.6103076338
40
1.0000000000
40
1.0000000000
40
1.0000000000
40
1.0000000000
10
341.9687976509
20
142.4692430522
30
0.0000000000
10
342.0477873662
20
142.5796155973
30
0.0000000000
10
342.1551721724
20
142.7802962263
30
0.0000000000
10
342.1878415446
20
143.0045857321
30
0.0000000000
10
342.1880896110
20
143.0917969822
30
0.0000000000
11
341.9687976509
21
142.4692430522
31
0.0000000000
11
342.1510332384
21
142.8333631630
31
0.0000000000
11
342.1880896110
21
143.0917969822
31
0.0000000000
0
SPLINE
5
3D0
100
AcDbEntity
8
0
100
AcDbSpline
62
7
6
CONTINUOUS
70
0
71
3
72
8
73
4
74
2
42
0.0000001000
43
0.0000001000
44
0.0000000001
40
0.0000000000
40
0.0000000000
40
0.0000000000
40
0.0000000000
40
1.0000000000
40
1.0000000000
40
1.0000000000
40
1.0000000000
10
342.1884335732
20
136.2192429032
30
0.0000000000
10
342.1884335734
20
136.1845206390
30
0.0000000000
10
342.1883746297
20
136.1497983749
30
0.0000000000
10
342.1882567387
20
136.1150763359
30
0.0000000000
11
342.1884335732
21
136.2192429032
31
0.0000000000
11
342.1882567387
21
136.1150763359
31
0.0000000000
0
SPLINE
5
3D1
100
AcDbEntity
8
0
100
AcDbSpline
62
7
6
CONTINUOUS
70
0
71
3
72
9
73
5
74
3
42
0.0000001000
43
0.0000001000
44
0.0000000001
40
0.0000000000
40
0.0000000000
40
0.0000000000
40
0.0000000000
40
0.5005222693
40
1.0000000000
40
1.0000000000
40
1.0000000000
40
1.0000000000
10
341.9934867207
20
136.6359094705
30
0.0000000000
10
341.9894942946
20
136.6880571021
30
0.0000000000
10
341.9813913876
20
136.7922339013
30
0.0000000000
10
341.9730349845
20
136.8963906737
30
0.0000000000
10
341.9687976509
20
136.9484094705
30
0.0000000000
11
341.9934867207
21
136.6359094705
31
0.0000000000
11
341.9813194173
21
136.7923377008
31
0.0000000000
11
341.9687976509
21
136.9484094705
31
0.0000000000
0
SPLINE
5
3D2
100
AcDbEntity
8
0
100
AcDbSpline
62
7
6
CONTINUOUS
70
0
71
3
72
9
73
5
74
3
42
0.0000001000
43
0.0000001000
44
0.0000000001
40
0.0000000000
40
0.0000000000
40
0.0000000000
40
0.0000000000
40
0.4994874209
40
1.0000000000
40
1.0000000000
40
1.0000000000
40
1.0000000000
10
342.0943352941
20
124.9692426052
30
0.0000000000
10
342.0832789847
20
124.9167727980
30
0.0000000000
10
342.0592402329
20
124.8121177972
30
0.0000000000
10
342.0314669238
20
124.7083920610
30
0.0000000000
10
342.0166523628
20
124.6567426052
30
0.0000000000
11
342.0943352941
21
124.9692426052
31
0.0000000000
11
342.0583331503
21
124.8124569252
31
0.0000000000
11
342.0166523628
21
124.6567426052
31
0.0000000000
0
SPLINE
5
3D3
100
AcDbEntity
8
0
100
AcDbSpline
62
7
6
CONTINUOUS
70
0
71
3
72
9
73
5
74
3
42
0.0000001000
43
0.0000001000
44
0.0000000001
40
0.0000000000
40
0.0000000000
40
0.0000000000
40
0.0000000000
40
0.5003745877
40
1.0000000000
40
1.0000000000
40
1.0000000000
40
1.0000000000
10
342.0383080792
20
136.4275763359
30
0.0000000000
10
342.0313142479
20
136.4624256174
30
0.0000000000
10
342.0168539120
20
136.5319759136
30
0.0000000000
10
342.0014314330
20
136.6013191927
30
0.0000000000
10
341.9934867207
20
136.6359094705
30
0.0000000000
11
342.0383080792
21
136.4275763359
31
0.0000000000
11
342.0166021824
21
136.5319761871
31
0.0000000000
11
341.9934867207
21
136.6359094705
31
0.0000000000
0
SPLINE
5
3D4
100
AcDbEntity
8
0
100
AcDbSpline
62
7
6
CONTINUOUS
70
0
71
3
72
9
73
5
74
3
42
0.0000001000
43
0.0000001000
44
0.0000000001
40
0.0000000000
40
0.0000000000
40
0.0000000000
40
0.0000000000
40
0.4943019242
40
1.0000000000
40
1.0000000000
40
1.0000000000
40
1.0000000000
10
342.0943352941
20
136.3234094705
30
0.0000000000
10
342.0859838263
20
136.3410243827
30
0.0000000000
10
342.0681509303
20
136.3762222589
30
0.0000000000
10
342.0485950025
20
136.4104901816
30
0.0000000000
10
342.0383080792
20
136.4275763359
30
0.0000000000
11
342.0943352941
21
136.3234094705
31
0.0000000000
11
342.0679331608
21
136.3755939189
31
0.0000000000
11
342.0383080792
21
136.4275763359
31
0.0000000000
0
SPLINE
5
3D5
100
AcDbEntity
8
0
100
AcDbSpline
62
7
6
CONTINUOUS
70
0
71
3
72
9
73
5
74
3
42
0.0000001000
43
0.0000001000
44
0.0000000001
40
0.0000000000
40
0.0000000000
40
0.0000000000
40
0.0000000000
40
0.5012936983
40
1.0000000000
40
1.0000000000
40
1.0000000000
40
1.0000000000
10
342.0166523628
20
124.6567426052
30
0.0000000000
10
342.0091574842
20
124.5870623137
30
0.0000000000
10
341.9937067563
20
124.4481146625
30
0.0000000000
10
341.9772536800
20
124.3092821280
30
0.0000000000
10
341.9687976509
20
124.2400763359
30
0.0000000000
11
342.0166523628
21
124.6567426052
31
0.0000000000
11
341.9934148936
21
124.4477840781
31
0.0000000000
11
341.9687976509
21
124.2400763359
31
0.0000000000
0
SPLINE
5
3D6
100
AcDbEntity
8
0
100
AcDbSpline
62
7
6
CONTINUOUS
70
0
71
3
72
9
73
5
74
3
42
0.0000001000
43
0.0000001000
44
0.0000000001
40
0.0000000000
40
0.0000000000
40
0.0000000000
40
0.0000000000
40
0.5005888911
40
1.0000000000
40
1.0000000000
40
1.0000000000
40
1.0000000000
10
341.9687976509
20
124.2400763359
30
0.0000000000
10
341.9645495758
20
124.1705419848
30
0.0000000000
10
341.9559355598
20
124.0316446642
30
0.0000000000
10
341.9470649663
20
123.8927634931
30
0.0000000000
10
341.9425706018
20
123.8234088745
30
0.0000000000
11
341.9687976509
21
124.2400763359
31
0.0000000000
11
341.9558611188
21
124.0314851203
31
0.0000000000
11
341.9425706018
21
123.8234088745
31
0.0000000000
0
SPLINE
5
3D7
100
AcDbEntity
8
0
100
AcDbSpline
62
7
6
CONTINUOUS
70
0
71
3
72
9
73
5
74
3
42
0.0000001000
43
0.0000001000
44
0.0000000001
40
0.0000000000
40
0.0000000000
40
0.0000000000
40
0.0000000000
40
0.3896923662
40
1.0000000000
40
1.0000000000
40
1.0000000000
40
1.0000000000
10
342.1880896110
20
141.8466891223
30
0.0000000000
10
342.1878415446
20
141.9339003723
30
0.0000000000
10
342.1551721724
20
142.1581898781
30
0.0000000000
10
342.0477873662
20
142.3588705071
30
0.0000000000
10
341.9687976509
20
142.4692430522
30
0.0000000000
11
342.1880896110
21
141.8466891223
31
0.0000000000
11
342.1510332384
21
142.1051229414
31
0.0000000000
11
341.9687976509
21
142.4692430522
31
0.0000000000
0
SPLINE
5
3D8
100
AcDbEntity
8
0
100
AcDbSpline
62
7
6
CONTINUOUS
70
0
71
3
72
9
73
5
74
3
42
0.0000001000
43
0.0000001000
44
0.0000000001
40
0.0000000000
40
0.0000000000
40
0.0000000000
40
0.0000000000
40
0.4968715191
40
1.0000000000
40
1.0000000000
40
1.0000000000
40
1.0000000000
10
342.1740972248
20
135.8025763359
30
0.0000000000
10
342.1708868478
20
135.7850972591
30
0.0000000000
10
342.1633705961
20
135.7501052086
30
0.0000000000
10
342.1538294357
20
135.7156118168
30
0.0000000000
10
342.1485466153
20
135.6984094705
30
0.0000000000
11
342.1740972248
21
135.8025763359
31
0.0000000000
11
342.1629177129
21
135.7504472620
31
0.0000000000
11
342.1485466153
21
135.6984094705
31
0.0000000000
0
SPLINE
5
3D9
100
AcDbEntity
8
0
100
AcDbSpline
62
7
6
CONTINUOUS
70
0
71
3
72
9
73
5
74
3
42
0.0000001000
43
0.0000001000
44
0.0000000001
40
0.0000000000
40
0.0000000000
40
0.0000000000
40
0.0000000000
40
0.4998994101
40
1.0000000000
40
1.0000000000
40
1.0000000000
40
1.0000000000
10
342.1882567379
20
136.1150763359
30
0.0000000000
10
342.1877847250
20
136.0629436496
30
0.0000000000
10
342.1849496840
20
135.9586658566
30
0.0000000000
10
342.1783406458
20
135.8545592301
30
0.0000000000
10
342.1740972248
20
135.8025763359
30
0.0000000000
11
342.1882567379
21
136.1150763359
31
0.0000000000
11
342.1840071346
21
135.9587296096
31
0.0000000000
11
342.1740972248
21
135.8025763359
31
0.0000000000
0
SPLINE
5
3DA
100
AcDbEntity
8
0
100
AcDbSpline
62
7
6
CONTINUOUS
70
0
71
3
72
9
73
5
74
3
42
0.0000001000
43
0.0000001000
44
0.0000000001
40
0.0000000000
40
0.0000000000
40
0.0000000000
40
0.0000000000
40
0.4990802538
40
1.0000000000
40
1.0000000000
40
1.0000000000
40
1.0000000000
10
354.1884335732
20
203.6225386856
30
0.0000000000
10
354.2192679205
20
203.6168625548
30
0.0000000000
10
354.2810709998
20
203.6056017378
30
0.0000000000
10
354.3429144008
20
203.5945645208
30
0.0000000000
10
354.3739027979
20
203.5890914900
30
0.0000000000
11
354.1884335732
21
203.6225386856
31
0.0000000000
11
354.2809673569
21
203.6056781465
31
0.0000000000
11
354.3739027979
21
203.5890914900
31
0.0000000000
0
SPLINE
5
3DB
100
AcDbEntity
8
0
100
AcDbSpline
62
7
6
CONTINUOUS
70
0
71
3
72
9
73
5
74
3
42
0.0000001000
43
0.0000001000
44
0.0000000001
40
0.0000000000
40
0.0000000000
40
0.0000000000
40
0.0000000000
40
0.4990802538
40
1.0000000000
40
1.0000000000
40
1.0000000000
40
1.0000000000
10
314.1884335732
20
203.6225386856
30
0.0000000000
10
314.1575992259
20
203.6168625548
30
0.0000000000
10
314.0957961466
20
203.6056017378
30
0.0000000000
10
314.0339527456
20
203.5945645208
30
0.0000000000
10
314.0029643485
20
203.5890914900
30
0.0000000000
11
314.1884335732
21
203.6225386856
31
0.0000000000
11
314.0958997895
21
203.6056781465
31
0.0000000000
11
314.0029643485
21
203.5890914900
31
0.0000000000
0
SPLINE
5
3DC
100
AcDbEntity
8
0
100
AcDbSpline
62
7
6
CONTINUOUS
70
0
71
3
72
10
73
6
74
4
42
0.0000001000
43
0.0000001000
44
0.0000000001
40
0.0000000000
40
0.0000000000
40
0.0000000000
40
0.0000000000
40
0.3631001680
40
0.6939676562
40
1.0000000000
40
1.0000000000
40
1.0000000000
40
1.0000000000
10
323.6432925120
20
201.5525763359
30
0.0000000000
10
324.3165781690
20
201.0937190946
30
0.0000000000
10
325.6499781917
20
200.2821325615
30
0.0000000000
10
327.6877652427
20
199.3326273353
30
0.0000000000
10
329.0459139266
20
198.8763964140
30
0.0000000000
10
329.7084335732
20
198.6956939981
30
0.0000000000
11
323.6432925120
21
201.5525763359
31
0.0000000000
11
325.7340191670
21
200.2862296423
31
0.0000000000
11
327.7546428279
21
199.3491253490
31
0.0000000000
11
329.7084335732
21
198.6956939981
31
0.0000000000
0
SPLINE
5
3DD
100
AcDbEntity
8
0
100
AcDbSpline
62
7
6
CONTINUOUS
70
0
71
3
72
10
73
6
74
4
42
0.0000001000
43
0.0000001000
44
0.0000000001
40
0.0000000000
40
0.0000000000
40
0.0000000000
40
0.0000000000
40
0.3060194650
40
0.6368819625
40
1.0000000000
40
1.0000000000
40
1.0000000000
40
1.0000000000
10
338.6684335732
20
198.6956939981
30
0.0000000000
10
339.3309253377
20
198.8763888091
30
0.0000000000
10
340.6890367476
20
199.3326035221
30
0.0000000000
10
342.7268286463
20
200.2820980712
30
0.0000000000
10
344.0602558440
20
201.0936965135
30
0.0000000000
10
344.7335746344
20
201.5525763359
30
0.0000000000
11
338.6684335732
21
198.6956939981
31
0.0000000000
11
340.6221436111
21
199.3490933112
31
0.0000000000
11
342.6427416126
21
200.2861730674
31
0.0000000000
11
344.7335746344
21
201.5525763359
31
0.0000000000
0
ENDSEC
0
SECTION
2
OBJECTS
0
DICTIONARY
5
3DE
100
AcDbDictionary
3
ACAD_GROUP
350
3DF
3
ACAD_MLINESTYLE
350
3E0
0
DICTIONARY
5
3DF
102
{ACAD_REACTORS
330
3DE
102
}
100
AcDbDictionary
0
DICTIONARY
5
3E0
102
{ACAD_REACTORS
330
3DE
102
}
100
AcDbDictionary
3
STANDARD
350
3E1
0
MLINESTYLE
5
3E1
102
{ACAD_REACTORS
330
3E0
102
}
100
AcDbMlineStyle
2
STANDARD
70
0
3

62
256
51
90.0
52
90.0
71
2
49
0.5
62
256
6
BYLAYER
49
-0.5
62
256
6
BYLAYER
0
ENDSEC
0
EOF
