999
DXF file: C:\Aktuell-Internet\CAD-Daten\2vb1-6.dxf
999
Pro/ENGINEER 2001400 by Parametric Technology Corporation
0
SECTION
2
HEADER
9
$ACADVER
1
AC1014
9
$EXTMAX
10
420.0000000000
20
297.0000000000
9
$EXTMIN
10
0.0000000000
20
0.0000000000
9
$LIMMIN
10
0.0000000000
20
0.0000000000
9
$LIMMAX
10
420.0000000000
20
297.0000000000
9
$VIEWCTR
10
210.0000000000
20
148.5000000000
9
$VIEWSIZE
40
297.0000000000
9
$CLAYER
8
0
9
$LTSCALE
40
23.1000000000
9
$CELTYPE
6
BYLAYER
9
$DIMSCALE
40
1
9
$DIMASZ
40
3.5000000000
9
$DIMEXO
40
2.6250000000
9
$DIMDLI
40
15.9600000000
9
$DIMEXE
40
7.5600000000
9
$DIMCEN
40
3.7800000000
9
$DIMLFAC
40
1.0000000000
9
$DIMTXT
40
3.5000000000
9
$DIMTOL
70
1
9
$DIMTFAC
40
0.6000000000
9
$DIMTP
40
0.0050000000
9
$DIMTM
40
0.0050000000
9
$HANDSEED
5
3BC
0
ENDSEC
0
SECTION
2
CLASSES
0
ENDSEC
0
SECTION
2
TABLES
0
TABLE
2
VPORT
5
8
100
AcDbSymbolTable
70
2
0
VPORT
5
1F4
100
AcDbSymbolTableRecord
100
AcDbViewportTableRecord
2
*ACTIVE
70
0
10
0.0
20
0.0
11
1.0
21
1.0
12
210.0000000000
22
148.5000000000
13
0.0
23
0.0
14
1.0
24
1.0
15
0.0
25
0.0
16
0.0
26
0.0
36
1.0
17
0.0
27
0.0
37
0.0
40
297.0000000000
41
1.4141414141
42
50.0
43
0.0
44
0.0
50
0.0
51
0.0
71
0
72
100
73
1
74
1
75
0
76
0
77
0
78
0
0
ENDTAB
0
TABLE
2
LTYPE
5
5
100
AcDbSymbolTable
70
6
0
LTYPE
5
14
100
AcDbSymbolTableRecord
100
AcDbLinetypeTableRecord
2
BYBLOCK
70
0
3

72
65
73
0
40
0.0
0
LTYPE
5
15
100
AcDbSymbolTableRecord
100
AcDbLinetypeTableRecord
2
BYLAYER
70
0
3

72
65
73
0
40
0.0
0
LTYPE
5
16
100
AcDbSymbolTableRecord
100
AcDbLinetypeTableRecord
2
CONTINUOUS
70
64
3
Solid line
72
65
73
0
40
0
0
LTYPE
5
1F5
100
AcDbSymbolTableRecord
100
AcDbLinetypeTableRecord
2
CENTER
70
64
3
____ _ ____ _ ____ _ ____ _ ____ _ ____ _ ____
72
65
73
4
40
0.6
49
0.375
74
0
49
-0.075
74
0
49
0.075
74
0
49
-0.075
74
0
0
LTYPE
5
1F6
100
AcDbSymbolTableRecord
100
AcDbLinetypeTableRecord
2
HIDDEN
70
64
3
- - - - - - - - - - - - - - - - - - - -
72
65
73
2
40
0.2
49
0.1
74
0
49
-0.1
74
0
0
LTYPE
5
1F7
100
AcDbSymbolTableRecord
100
AcDbLinetypeTableRecord
2
PHANTOM
70
64
3
_____ _ _ _____ _ _ _____ _ _ _____
72
65
73
6
40
0.8
49
0.45
74
0
49
-0.05
74
0
49
0.1
74
0
49
-0.05
74
0
49
0.1
74
0
49
-0.05
74
0
0
LTYPE
5
1F8
100
AcDbSymbolTableRecord
100
AcDbLinetypeTableRecord
2
DOT
70
64
3
. . . . . . . . . . . . . . . . . . . .
72
65
73
2
40
0.2
49
0.1
74
0
49
-0.1
74
0
0
LTYPE
5
1F9
100
AcDbSymbolTableRecord
100
AcDbLinetypeTableRecord
2
DASHED
70
64
3
- - - - - - - - - - - - - - - - - - - -
72
65
73
2
40
0.2
49
0.1
74
0
49
-0.1
74
0
0
ENDTAB
0
TABLE
2
LAYER
5
2
100
AcDbSymbolTable
70
36
0
LAYER
5
10
100
AcDbSymbolTableRecord
100
AcDbLayerTableRecord
2
0
70
0
62
7
6
CONTINUOUS
0
LAYER
5
1FA
100
AcDbSymbolTableRecord
100
AcDbLayerTableRecord
2
DEFAULT_1
70
0
62
7
6
CENTER
0
LAYER
5
1FB
100
AcDbSymbolTableRecord
100
AcDbLayerTableRecord
2
DEFAULT_2
70
0
62
8
6
HIDDEN
0
LAYER
5
1FC
100
AcDbSymbolTableRecord
100
AcDbLayerTableRecord
2
DEFAULT_3
70
0
62
7
6
PHANTOM
0
ENDTAB
0
TABLE
2
STYLE
5
3
100
AcDbSymbolTable
70
1
0
STYLE
5
11
100
AcDbSymbolTableRecord
100
AcDbTextStyleTableRecord
2
STANDARD
70
0
40
0.0
41
1.0
50
0.0
71
0
42
0.0
3
txt
4

0
STYLE
5
1FD
100
AcDbSymbolTableRecord
100
AcDbTextStyleTableRecord
2
TEXTSTYLE_0
70
0
40
0.0
41
0.80
50
0.0
71
0
42
0.2
3
txt
4

0
ENDTAB
0
TABLE
2
VIEW
5
6
100
AcDbSymbolTable
70
0
0
ENDTAB
0
TABLE
2
UCS
5
7
100
AcDbSymbolTable
70
0
0
ENDTAB
0
TABLE
2
APPID
5
9
100
AcDbSymbolTable
70
1
0
APPID
5
1FE
100
AcDbSymbolTableRecord
100
AcDbRegAppTableRecord
2
ACAD
70
0
0
ENDTAB
0
TABLE
2
DIMSTYLE
5
A
100
AcDbSymbolTable
70
1
0
DIMSTYLE
105
1FF
100
AcDbSymbolTableRecord
100
AcDbDimStyleTableRecord
2
STANDARD
70
0
3

4

5

6

7

40
1.0
41
0.18
42
0.0625
43
0.38
44
0.18
45
0.0
46
0.0
47
0.0050000000
48
0.0050000000
140
3.5000000000
141
0.09
142
0.0
143
25.4
144
1.0000000000
145
0.0
146
0.6000000000
147
0.09
71
1
72
0
73
1
74
1
75
0
76
0
77
0
78
0
170
0
171
2
172
0
173
0
174
0
175
0
176
0
177
0
178
0
270
2
271
3
272
4
273
2
274
2
340
11
275
0
280
0
281
0
282
0
283
1
284
0
285
0
286
0
287
3
288
0
0
ENDTAB
0
TABLE
2
BLOCK_RECORD
5
1
100
AcDbSymbolTable
70
0
0
BLOCK_RECORD
5
1B
100
AcDbSymbolTableRecord
100
AcDbBlockTableRecord
2
*MODEL_SPACE
0
BLOCK_RECORD
5
1C
100
AcDbSymbolTableRecord
100
AcDbBlockTableRecord
2
*PAPER_SPACE
0
ENDTAB
0
ENDSEC
0
SECTION
2
BLOCKS
0
BLOCK
5
1E
100
AcDbEntity
8
0
100
AcDbBlockBegin
2
*MODEL_SPACE
70
0
10
0.0
20
0.0
30
0.0
3
*MODEL_SPACE
1

0
ENDBLK
5
1F
100
AcDbEntity
8
0
100
AcDbBlockEnd
0
BLOCK
5
20
100
AcDbEntity
8
0
100
AcDbBlockBegin
2
*PAPER_SPACE
70
0
10
0.0
20
0.0
30
0.0
3
*PAPER_SPACE
1

0
ENDBLK
5
21
100
AcDbEntity
8
0
100
AcDbBlockEnd
0
ENDSEC
0
SECTION
2
ENTITIES
0
TEXT
5
200
100
AcDbEntity
8
0
100
AcDbText
62
2
6
CONTINUOUS
10
316.1766730649
20
130.9955289519
7
TEXTSTYLE_0
40
3.5000000000
1
VB 1-6
50
90.0000000000
72
5
11
316.1766730649
21
146.6621956186
100
AcDbText
0
LINE
5
201
100
AcDbEntity
8
0
100
AcDbLine
62
7
6
CONTINUOUS
10
0.0000000000
20
0.0000000000
11
0.0000000000
21
297.0000000000
0
LINE
5
202
100
AcDbEntity
8
0
100
AcDbLine
62
7
6
CONTINUOUS
10
0.0000000000
20
0.0000000000
11
420.0000000000
21
0.0000000000
0
LINE
5
203
100
AcDbEntity
8
0
100
AcDbLine
62
7
6
CONTINUOUS
10
0.0000000000
20
297.0000000000
11
420.0000000000
21
297.0000000000
0
LINE
5
204
100
AcDbEntity
8
0
100
AcDbLine
62
7
6
CONTINUOUS
10
420.0000000000
20
0.0000000000
11
420.0000000000
21
297.0000000000
0
LINE
5
205
100
AcDbEntity
8
0
100
AcDbLine
62
7
6
CONTINUOUS
10
188.3581644952
20
137.4678751386
11
188.1028453171
21
137.6345411695
0
LINE
5
206
100
AcDbEntity
8
0
100
AcDbLine
62
7
6
CONTINUOUS
10
188.1028453171
20
137.1345411695
11
187.7624197959
21
137.3845411695
0
LINE
5
207
100
AcDbEntity
8
0
100
AcDbLine
62
7
6
CONTINUOUS
10
188.1028453171
20
137.6345411695
11
187.9326325714
21
137.8845411695
0
LINE
5
208
100
AcDbEntity
8
0
100
AcDbLine
62
7
6
CONTINUOUS
10
187.7624197959
20
137.3845411695
11
187.5071006551
21
137.8012091077
0
LINE
5
209
100
AcDbEntity
8
0
100
AcDbLine
62
7
6
CONTINUOUS
10
182.9219942748
20
159.2178751386
11
182.9219942748
21
130.2178751386
0
LINE
5
20A
100
AcDbEntity
8
0
100
AcDbLine
62
7
6
CONTINUOUS
10
188.6134836137
20
137.3845411695
11
188.3581644952
21
137.4678751386
0
LINE
5
20B
100
AcDbEntity
8
0
100
AcDbLine
62
7
6
CONTINUOUS
10
189.1241219699
20
139.3845421232
11
188.8688027322
21
139.4678751386
0
LINE
5
20C
100
AcDbEntity
8
0
100
AcDbLine
62
7
6
CONTINUOUS
10
190.4858241736
20
139.3845421232
11
190.2305048167
21
139.4678751386
0
LINE
5
20D
100
AcDbEntity
8
0
100
AcDbLine
62
7
6
CONTINUOUS
10
188.5283772409
20
136.9678751386
11
188.1028453171
21
137.1345411695
0
LINE
5
20E
100
AcDbEntity
8
0
100
AcDbLine
62
7
6
CONTINUOUS
10
190.7411432921
20
139.7178751386
11
190.3156111896
21
139.8845421232
0
LINE
5
20F
100
AcDbEntity
8
0
100
AcDbLine
62
7
6
CONTINUOUS
10
190.7411432921
20
139.2178751386
11
190.4858241736
21
139.3845421232
0
LINE
5
210
100
AcDbEntity
8
0
100
AcDbLine
62
7
6
CONTINUOUS
10
191.0815687835
20
139.4678751386
11
190.7411432921
21
139.7178751386
0
LINE
5
211
100
AcDbEntity
8
0
100
AcDbLine
62
7
6
CONTINUOUS
10
189.2943347156
20
139.2178751386
11
189.1241219699
21
139.3845421232
0
LINE
5
212
100
AcDbEntity
8
0
100
AcDbLine
62
7
6
CONTINUOUS
10
189.4645474612
20
138.9678751386
11
189.2943347156
21
139.2178751386
0
LINE
5
213
100
AcDbEntity
8
0
100
AcDbLine
62
7
6
CONTINUOUS
10
189.8900793254
20
139.0512091077
11
189.5496538341
21
139.5512081540
0
LINE
5
214
100
AcDbEntity
8
0
100
AcDbLine
62
7
6
CONTINUOUS
10
190.9113560378
20
138.9678751386
11
190.7411432921
21
139.2178751386
0
LINE
5
215
100
AcDbEntity
8
0
100
AcDbLine
62
7
6
CONTINUOUS
10
191.3368879020
20
139.0512091077
11
191.0815687835
21
139.4678751386
0
LINE
5
216
100
AcDbEntity
8
0
100
AcDbLine
62
7
6
CONTINUOUS
10
187.9326325714
20
137.8845411695
11
187.8475261986
21
138.1345411695
0
LINE
5
217
100
AcDbEntity
8
0
100
AcDbLine
62
7
6
CONTINUOUS
10
189.5496538341
20
138.7178751386
11
189.4645474612
21
138.9678751386
0
LINE
5
218
100
AcDbEntity
8
0
100
AcDbLine
62
7
6
CONTINUOUS
10
187.5071006551
20
137.8012091077
11
187.4219942748
21
138.2178751386
0
LINE
5
219
100
AcDbEntity
8
0
100
AcDbLine
62
7
6
CONTINUOUS
10
187.4219942748
20
153.8845417655
11
187.4219942748
21
153.2178751386
0
LINE
5
21A
100
AcDbEntity
8
0
100
AcDbLine
62
7
6
CONTINUOUS
10
187.4219942748
20
151.2178751386
11
187.4219942748
21
149.2178751386
0
LINE
5
21B
100
AcDbEntity
8
0
100
AcDbLine
62
7
6
CONTINUOUS
10
187.4219942748
20
142.9678751386
11
187.4219942748
21
142.4678751386
0
LINE
5
21C
100
AcDbEntity
8
0
100
AcDbLine
62
7
6
CONTINUOUS
10
187.4219942748
20
138.6345411695
11
187.4219942748
21
138.2178751386
0
LINE
5
21D
100
AcDbEntity
8
0
100
AcDbLine
62
7
6
CONTINUOUS
10
187.8475261986
20
138.7178751386
11
187.8475261986
21
138.1345411695
0
LINE
5
21E
100
AcDbEntity
8
0
100
AcDbLine
62
7
6
CONTINUOUS
10
187.9326325714
20
150.7178751386
11
187.9326325714
21
149.1345416463
0
LINE
5
21F
100
AcDbEntity
8
0
100
AcDbLine
62
7
6
CONTINUOUS
10
188.8688027322
20
141.8012081540
11
188.8688027322
21
140.6345421232
0
LINE
5
220
100
AcDbEntity
8
0
100
AcDbLine
62
7
6
CONTINUOUS
10
189.2092283427
20
150.7178751386
11
189.2092283427
21
149.1345416463
0
LINE
5
221
100
AcDbEntity
8
0
100
AcDbLine
62
7
6
CONTINUOUS
10
188.9539092242
20
136.9678751386
11
188.5283772409
21
136.9678751386
0
LINE
5
222
100
AcDbEntity
8
0
100
AcDbLine
62
7
6
CONTINUOUS
10
188.8688027322
20
137.3845411695
11
188.6134836137
21
137.3845411695
0
LINE
5
223
100
AcDbEntity
8
0
100
AcDbLine
62
7
6
CONTINUOUS
10
190.3156111896
20
139.8845421232
11
189.7198665797
21
139.9678751386
0
LINE
5
224
100
AcDbEntity
8
0
100
AcDbLine
62
7
6
CONTINUOUS
10
190.2305048167
20
139.4678751386
11
189.7198665797
21
139.5512081540
0
LINE
5
225
100
AcDbEntity
8
0
100
AcDbLine
62
7
6
CONTINUOUS
10
188.1028453171
20
148.2178751386
11
187.7624197959
21
148.4678751386
0
LINE
5
226
100
AcDbEntity
8
0
100
AcDbLine
62
7
6
CONTINUOUS
10
190.7411432921
20
142.9678751386
11
190.1453984439
21
143.4678751386
0
LINE
5
227
100
AcDbEntity
8
0
100
AcDbLine
62
7
6
CONTINUOUS
10
191.4219942748
20
142.9678751386
11
190.8262496650
21
143.4678751386
0
LINE
5
228
100
AcDbEntity
8
0
100
AcDbLine
62
7
6
CONTINUOUS
10
188.1879517495
20
148.7178751386
11
188.0177389442
21
148.8845416463
0
LINE
5
229
100
AcDbEntity
8
0
100
AcDbLine
62
7
6
CONTINUOUS
10
189.9751856982
20
148.7178751386
11
189.8049729526
21
148.8845416463
0
LINE
5
22A
100
AcDbEntity
8
0
100
AcDbLine
62
7
6
CONTINUOUS
10
187.7624197959
20
148.4678751386
11
187.5071006551
21
148.8012086309
0
LINE
5
22B
100
AcDbEntity
8
0
100
AcDbLine
62
7
6
CONTINUOUS
10
189.5496538341
20
148.4678751386
11
189.4645474612
21
148.6345416463
0
LINE
5
22C
100
AcDbEntity
8
0
100
AcDbLine
62
7
6
CONTINUOUS
10
190.9964624106
20
138.7178751386
11
190.9113560378
21
138.9678751386
0
LINE
5
22D
100
AcDbEntity
8
0
100
AcDbLine
62
7
6
CONTINUOUS
10
188.0177389442
20
148.8845416463
11
187.9326325714
21
149.1345416463
0
LINE
5
22E
100
AcDbEntity
8
0
100
AcDbLine
62
7
6
CONTINUOUS
10
189.8049729526
20
148.8845416463
11
189.7198665797
21
149.1345416463
0
LINE
5
22F
100
AcDbEntity
8
0
100
AcDbLine
62
7
6
CONTINUOUS
10
187.5071006551
20
148.8012086309
11
187.4219942748
21
149.2178751386
0
LINE
5
230
100
AcDbEntity
8
0
100
AcDbLine
62
7
6
CONTINUOUS
10
189.9751856982
20
138.6345411695
11
189.8900793254
21
139.0512091077
0
LINE
5
231
100
AcDbEntity
8
0
100
AcDbLine
62
7
6
CONTINUOUS
10
191.4219942748
20
138.6345411695
11
191.3368879020
21
139.0512091077
0
LINE
5
232
100
AcDbEntity
8
0
100
AcDbLine
62
7
6
CONTINUOUS
10
189.2943347156
20
141.8012081540
11
189.2943347156
21
140.6345421232
0
LINE
5
233
100
AcDbEntity
8
0
100
AcDbLine
62
7
6
CONTINUOUS
10
189.5496538341
20
138.7178751386
11
189.5496538341
21
138.1345411695
0
LINE
5
234
100
AcDbEntity
8
0
100
AcDbLine
62
7
6
CONTINUOUS
10
189.7198665797
20
150.7178751386
11
189.7198665797
21
149.1345416463
0
LINE
5
235
100
AcDbEntity
8
0
100
AcDbLine
62
7
6
CONTINUOUS
10
189.9751856982
20
138.6345411695
11
189.9751856982
21
138.2178751386
0
LINE
5
236
100
AcDbEntity
8
0
100
AcDbLine
62
7
6
CONTINUOUS
10
190.4858241736
20
137.5512091077
11
190.4858241736
21
137.1345411695
0
LINE
5
237
100
AcDbEntity
8
0
100
AcDbLine
62
7
6
CONTINUOUS
10
190.9113560378
20
150.7178751386
11
190.9113560378
21
149.1345416463
0
LINE
5
238
100
AcDbEntity
8
0
100
AcDbLine
62
7
6
CONTINUOUS
10
190.9964624106
20
138.7178751386
11
190.9964624106
21
138.2178751386
0
LINE
5
239
100
AcDbEntity
8
0
100
AcDbLine
62
7
6
CONTINUOUS
10
191.4219942748
20
155.2178751386
11
191.4219942748
21
154.7178751386
0
LINE
5
23A
100
AcDbEntity
8
0
100
AcDbLine
62
7
6
CONTINUOUS
10
191.4219942748
20
152.3845418847
11
191.4219942748
21
151.8845418847
0
LINE
5
23B
100
AcDbEntity
8
0
100
AcDbLine
62
7
6
CONTINUOUS
10
191.4219942748
20
151.2178751386
11
191.4219942748
21
149.2178751386
0
LINE
5
23C
100
AcDbEntity
8
0
100
AcDbLine
62
7
6
CONTINUOUS
10
191.4219942748
20
142.9678751386
11
191.4219942748
21
142.4678751386
0
LINE
5
23D
100
AcDbEntity
8
0
100
AcDbLine
62
7
6
CONTINUOUS
10
191.4219942748
20
138.6345411695
11
191.4219942748
21
138.3012091077
0
LINE
5
23E
100
AcDbEntity
8
0
100
AcDbLine
62
7
6
CONTINUOUS
10
187.5071006551
20
139.0512091077
11
187.4219942748
21
138.6345411695
0
LINE
5
23F
100
AcDbEntity
8
0
100
AcDbLine
62
7
6
CONTINUOUS
10
189.2092283427
20
149.1345416463
11
189.1241219699
21
148.8845416463
0
LINE
5
240
100
AcDbEntity
8
0
100
AcDbLine
62
7
6
CONTINUOUS
10
188.8688027322
20
139.4678751386
11
188.6134836137
21
139.4678751386
0
LINE
5
241
100
AcDbEntity
8
0
100
AcDbLine
62
7
6
CONTINUOUS
10
189.7198665797
20
139.5512081540
11
189.5496538341
21
139.5512081540
0
LINE
5
242
100
AcDbEntity
8
0
100
AcDbLine
62
7
6
CONTINUOUS
10
189.7198665797
20
139.9678751386
11
189.1241219699
21
139.9678751386
0
LINE
5
243
100
AcDbEntity
8
0
100
AcDbLine
62
7
6
CONTINUOUS
10
188.8688027322
20
140.6345421232
11
189.2943347156
21
140.6345421232
0
LINE
5
244
100
AcDbEntity
8
0
100
AcDbLine
62
7
6
CONTINUOUS
10
189.2943347156
20
141.8012081540
11
188.8688027322
21
141.8012081540
0
LINE
5
245
100
AcDbEntity
8
0
100
AcDbLine
62
7
6
CONTINUOUS
10
187.4219942748
20
142.4678751386
11
191.4219942748
21
142.4678751386
0
LINE
5
246
100
AcDbEntity
8
0
100
AcDbLine
62
7
6
CONTINUOUS
10
188.3581644952
20
148.1345416463
11
188.1028453171
21
148.2178751386
0
LINE
5
247
100
AcDbEntity
8
0
100
AcDbLine
62
7
6
CONTINUOUS
10
189.8900793254
20
148.2178751386
11
189.5496538341
21
148.4678751386
0
LINE
5
248
100
AcDbEntity
8
0
100
AcDbLine
62
7
6
CONTINUOUS
10
195.9219942748
20
159.2178751386
11
195.9219942748
21
130.2178751386
0
LINE
5
249
100
AcDbEntity
8
0
100
AcDbLine
62
7
6
CONTINUOUS
10
191.4219942748
20
149.2178751386
11
191.3368879020
21
148.8012086309
0
LINE
5
24A
100
AcDbEntity
8
0
100
AcDbLine
62
7
6
CONTINUOUS
10
189.9751856982
20
138.2178751386
11
189.8900793254
21
137.8012091077
0
LINE
5
24B
100
AcDbEntity
8
0
100
AcDbLine
62
7
6
CONTINUOUS
10
191.4219942748
20
138.3012091077
11
191.3368879020
21
137.8845411695
0
LINE
5
24C
100
AcDbEntity
8
0
100
AcDbLine
62
7
6
CONTINUOUS
10
190.9113560378
20
149.1345416463
11
190.8262496650
21
148.8845416463
0
LINE
5
24D
100
AcDbEntity
8
0
100
AcDbLine
62
7
6
CONTINUOUS
10
187.9326325714
20
138.9678751386
11
187.8475261986
21
138.7178751386
0
LINE
5
24E
100
AcDbEntity
8
0
100
AcDbLine
62
7
6
CONTINUOUS
10
189.5496538341
20
138.1345411695
11
189.4645474612
21
137.8845411695
0
LINE
5
24F
100
AcDbEntity
8
0
100
AcDbLine
62
7
6
CONTINUOUS
10
189.4645474612
20
148.6345416463
11
189.3794410884
21
148.4678751386
0
LINE
5
250
100
AcDbEntity
8
0
100
AcDbLine
62
7
6
CONTINUOUS
10
211.1928291502
20
188.2178751386
11
216.8219942748
21
197.9678751386
0
LINE
5
251
100
AcDbEntity
8
0
100
AcDbLine
62
7
6
CONTINUOUS
10
189.1241219699
20
139.9678751386
11
188.5283772409
21
139.8845421232
0
LINE
5
252
100
AcDbEntity
8
0
100
AcDbLine
62
7
6
CONTINUOUS
10
190.7411432921
20
142.9678751386
11
187.4219942748
21
142.9678751386
0
LINE
5
253
100
AcDbEntity
8
0
100
AcDbLine
62
7
6
CONTINUOUS
10
190.8262496650
20
143.4678751386
11
190.1453984439
21
143.4678751386
0
LINE
5
254
100
AcDbEntity
8
0
100
AcDbLine
62
7
6
CONTINUOUS
10
188.4432708680
20
148.6345416463
11
188.1879517495
21
148.7178751386
0
LINE
5
255
100
AcDbEntity
8
0
100
AcDbLine
62
7
6
CONTINUOUS
10
190.1453984439
20
148.1345416463
11
189.8900793254
21
148.2178751386
0
LINE
5
256
100
AcDbEntity
8
0
100
AcDbLine
62
7
6
CONTINUOUS
10
190.2305048167
20
148.6345416463
11
189.9751856982
21
148.7178751386
0
LINE
5
257
100
AcDbEntity
8
0
100
AcDbLine
62
7
6
CONTINUOUS
10
200.0219942748
20
197.9678751386
11
200.0219942748
21
202.7678751386
0
LINE
5
258
100
AcDbEntity
8
0
100
AcDbLine
62
7
6
CONTINUOUS
10
190.9964624106
20
138.2178751386
11
190.9113560378
21
137.9678751386
0
LINE
5
259
100
AcDbEntity
8
0
100
AcDbLine
62
7
6
CONTINUOUS
10
187.7624197959
20
139.4678751386
11
187.5071006551
21
139.0512091077
0
LINE
5
25A
100
AcDbEntity
8
0
100
AcDbLine
62
7
6
CONTINUOUS
10
191.3368879020
20
148.8012086309
11
191.0815687835
21
148.4678751386
0
LINE
5
25B
100
AcDbEntity
8
0
100
AcDbLine
62
7
6
CONTINUOUS
10
190.4858241736
20
148.1345416463
11
190.1453984439
21
148.1345416463
0
LINE
5
25C
100
AcDbEntity
8
0
100
AcDbLine
62
7
6
CONTINUOUS
10
188.7836963594
20
148.1345416463
11
188.3581644952
21
148.1345416463
0
LINE
5
25D
100
AcDbEntity
8
0
100
AcDbLine
62
7
6
CONTINUOUS
10
190.4007175624
20
148.6345416463
11
190.2305048167
21
148.6345416463
0
LINE
5
25E
100
AcDbEntity
8
0
100
AcDbLine
62
7
6
CONTINUOUS
10
188.6985899865
20
148.6345416463
11
188.4432708680
21
148.6345416463
0
LINE
5
25F
100
AcDbEntity
8
0
100
AcDbLine
62
7
6
CONTINUOUS
10
187.4219942748
20
153.2178751386
11
191.4219942748
21
151.8845418847
0
LINE
5
260
100
AcDbEntity
8
0
100
AcDbLine
62
7
6
CONTINUOUS
10
191.4219942748
20
152.3845418847
11
187.9326325714
21
153.5512085117
0
LINE
5
261
100
AcDbEntity
8
0
100
AcDbLine
62
7
6
CONTINUOUS
10
202.4219942748
20
193.4894141695
11
202.4219942748
21
188.8178751386
0
LINE
5
262
100
AcDbEntity
8
0
100
AcDbLine
62
7
6
CONTINUOUS
10
204.6719942748
20
167.9678751386
11
204.6719942748
21
187.6528743551
0
LINE
5
263
100
AcDbEntity
8
0
100
AcDbLine
62
7
6
CONTINUOUS
10
189.6347602069
20
137.3845411695
11
189.8900793254
21
137.8012091077
0
LINE
5
264
100
AcDbEntity
8
0
100
AcDbLine
62
7
6
CONTINUOUS
10
191.3368879020
20
137.8845411695
11
191.0815687835
21
137.4678751386
0
LINE
5
265
100
AcDbEntity
8
0
100
AcDbLine
62
7
6
CONTINUOUS
10
188.1028453171
20
139.2178751386
11
187.9326325714
21
138.9678751386
0
LINE
5
266
100
AcDbEntity
8
0
100
AcDbLine
62
7
6
CONTINUOUS
10
189.4645474612
20
137.8845411695
11
189.2943347156
21
137.6345411695
0
LINE
5
267
100
AcDbEntity
8
0
100
AcDbLine
62
7
6
CONTINUOUS
10
189.1241219699
20
148.8845416463
11
188.9539092242
21
148.7178751386
0
LINE
5
268
100
AcDbEntity
8
0
100
AcDbLine
62
7
6
CONTINUOUS
10
190.8262496650
20
148.8845416463
11
190.6560369193
21
148.7178751386
0
LINE
5
269
100
AcDbEntity
8
0
100
AcDbLine
62
7
6
CONTINUOUS
10
189.3794410884
20
148.4678751386
11
189.0390155971
21
148.2178751386
0
LINE
5
26A
100
AcDbEntity
8
0
100
AcDbLine
62
7
6
CONTINUOUS
10
190.9113560378
20
150.7178751386
11
189.7198665797
21
150.7178751386
0
LINE
5
26B
100
AcDbEntity
8
0
100
AcDbLine
62
7
6
CONTINUOUS
10
189.2092283427
20
150.7178751386
11
187.9326325714
21
150.7178751386
0
LINE
5
26C
100
AcDbEntity
8
0
100
AcDbLine
62
7
6
CONTINUOUS
10
191.4219942748
20
151.2178751386
11
187.4219942748
21
151.2178751386
0
LINE
5
26D
100
AcDbEntity
8
0
100
AcDbLine
62
7
6
CONTINUOUS
10
206.9219942748
20
161.6678751386
11
206.9219942748
21
198.2565165409
0
LINE
5
26E
100
AcDbEntity
8
DEFAULT_1
100
AcDbLine
62
2
6
CENTER
10
208.4219942748
20
202.7678751386
11
208.4219942748
21
196.1678751386
0
LINE
5
26F
100
AcDbEntity
8
DEFAULT_1
100
AcDbLine
62
2
6
CENTER
10
208.4219942748
20
202.7678751386
11
208.4219942748
21
209.3678751386
0
LINE
5
270
100
AcDbEntity
8
DEFAULT_1
100
AcDbLine
62
2
6
CENTER
10
208.4219942748
20
102.2394627171
11
208.4219942748
21
196.1678751386
0
LINE
5
271
100
AcDbEntity
8
DEFAULT_1
100
AcDbLine
62
2
6
CENTER
10
208.4219942748
20
209.3678751386
11
208.4219942748
21
214.1678751386
0
LINE
5
272
100
AcDbEntity
8
0
100
AcDbLine
62
7
6
CONTINUOUS
10
209.9219942748
20
161.6678751386
11
211.8991458363
21
166.5636255104
0
LINE
5
273
100
AcDbEntity
8
0
100
AcDbLine
62
7
6
CONTINUOUS
10
190.9113560378
20
137.9678751386
11
190.7411432921
21
137.7178751386
0
LINE
5
274
100
AcDbEntity
8
0
100
AcDbLine
62
7
6
CONTINUOUS
10
191.0815687835
20
148.4678751386
11
190.7411432921
21
148.2178751386
0
LINE
5
275
100
AcDbEntity
8
0
100
AcDbLine
62
7
6
CONTINUOUS
10
187.9326325714
20
153.5512085117
11
191.4219942748
21
154.7178751386
0
LINE
5
276
100
AcDbEntity
8
0
100
AcDbLine
62
7
6
CONTINUOUS
10
191.4219942748
20
155.2178751386
11
187.4219942748
21
153.8845417655
0
LINE
5
277
100
AcDbEntity
8
0
100
AcDbLine
62
7
6
CONTINUOUS
10
204.9448427133
20
166.5636255104
11
206.9219942748
21
161.6678751386
0
LINE
5
278
100
AcDbEntity
8
0
100
AcDbLine
62
7
6
CONTINUOUS
10
209.9219942748
20
161.6678751386
11
209.9219942748
21
198.2565165409
0
LINE
5
279
100
AcDbEntity
8
0
100
AcDbLine
62
7
6
CONTINUOUS
10
212.1719942748
20
167.9678751386
11
212.1719942748
21
187.6528743551
0
LINE
5
27A
100
AcDbEntity
8
0
100
AcDbLine
62
7
6
CONTINUOUS
10
189.2943347156
20
137.6345411695
11
189.1241219699
21
137.4678751386
0
LINE
5
27B
100
AcDbEntity
8
0
100
AcDbLine
62
7
6
CONTINUOUS
10
189.3794410884
20
137.1345411695
11
189.6347602069
21
137.3845411695
0
LINE
5
27C
100
AcDbEntity
8
0
100
AcDbLine
62
7
6
CONTINUOUS
10
188.1028453171
20
139.7178751386
11
187.7624197959
21
139.4678751386
0
LINE
5
27D
100
AcDbEntity
8
0
100
AcDbLine
62
7
6
CONTINUOUS
10
188.9539092242
20
148.7178751386
11
188.6985899865
21
148.6345416463
0
LINE
5
27E
100
AcDbEntity
8
0
100
AcDbLine
62
7
6
CONTINUOUS
10
189.0390155971
20
148.2178751386
11
188.7836963594
21
148.1345416463
0
LINE
5
27F
100
AcDbEntity
8
0
100
AcDbLine
62
7
6
CONTINUOUS
10
190.6560369193
20
148.7178751386
11
190.4007175624
21
148.6345416463
0
LINE
5
280
100
AcDbEntity
8
0
100
AcDbLine
62
7
6
CONTINUOUS
10
190.7411432921
20
148.2178751386
11
190.4858241736
21
148.1345416463
0
LINE
5
281
100
AcDbEntity
8
0
100
AcDbLine
62
7
6
CONTINUOUS
10
206.9219942748
20
161.6678751386
11
209.9219942748
21
161.6678751386
0
LINE
5
282
100
AcDbEntity
8
0
100
AcDbLine
62
7
6
CONTINUOUS
10
214.4219942748
20
193.4894141695
11
214.4219942748
21
188.8178751386
0
LINE
5
283
100
AcDbEntity
8
0
100
AcDbLine
62
7
6
CONTINUOUS
10
191.0815687835
20
137.4678751386
11
190.7411432921
21
137.2178751386
0
LINE
5
284
100
AcDbEntity
8
0
100
AcDbLine
62
7
6
CONTINUOUS
10
188.3581644952
20
139.3845421232
11
188.1028453171
21
139.2178751386
0
LINE
5
285
100
AcDbEntity
8
0
100
AcDbLine
62
7
6
CONTINUOUS
10
190.7411432921
20
137.7178751386
11
190.4858241736
21
137.5512091077
0
LINE
5
286
100
AcDbEntity
8
0
100
AcDbLine
62
7
6
CONTINUOUS
10
216.8219942748
20
197.9678751386
11
216.8219942748
21
202.7678751386
0
LINE
5
287
100
AcDbEntity
8
0
100
AcDbLine
62
7
6
CONTINUOUS
10
188.5283772409
20
139.8845421232
11
188.1028453171
21
139.7178751386
0
LINE
5
288
100
AcDbEntity
8
0
100
AcDbLine
62
7
6
CONTINUOUS
10
188.6134836137
20
139.4678751386
11
188.3581644952
21
139.3845421232
0
LINE
5
289
100
AcDbEntity
8
0
100
AcDbLine
62
7
6
CONTINUOUS
10
220.9219942748
20
130.2178751386
11
220.9219942748
21
159.2178751386
0
LINE
5
28A
100
AcDbEntity
8
0
100
AcDbLine
62
7
6
CONTINUOUS
10
189.3794410884
20
137.1345411695
11
188.9539092242
21
136.9678751386
0
LINE
5
28B
100
AcDbEntity
8
0
100
AcDbLine
62
7
6
CONTINUOUS
10
189.1241219699
20
137.4678751386
11
188.8688027322
21
137.3845411695
0
LINE
5
28C
100
AcDbEntity
8
0
100
AcDbLine
62
7
6
CONTINUOUS
10
190.7411432921
20
137.2178751386
11
190.4858241736
21
137.1345411695
0
LINE
5
28D
100
AcDbEntity
8
0
100
AcDbLine
62
7
6
CONTINUOUS
10
205.6511593994
20
188.2178751386
11
200.0219942748
21
197.9678751386
0
LINE
5
28E
100
AcDbEntity
8
0
100
AcDbLine
62
7
6
CONTINUOUS
10
233.9219942748
20
130.2178751386
11
233.9219942748
21
159.2178751386
0
LINE
5
28F
100
AcDbEntity
8
0
100
AcDbLine
62
7
6
CONTINUOUS
10
213.2219942748
20
187.6178751386
11
212.1719942748
21
187.6178751386
0
LINE
5
290
100
AcDbEntity
8
0
100
AcDbLine
62
7
6
CONTINUOUS
10
204.6719942748
20
187.6178751386
11
203.6219942748
21
187.6178751386
0
LINE
5
291
100
AcDbEntity
8
DEFAULT_1
100
AcDbLine
62
2
6
CENTER
10
208.4219942748
20
202.7678751386
11
201.8219942748
21
202.7678751386
0
LINE
5
292
100
AcDbEntity
8
DEFAULT_1
100
AcDbLine
62
2
6
CENTER
10
208.4219942748
20
202.7678751386
11
215.0219942748
21
202.7678751386
0
LINE
5
293
100
AcDbEntity
8
0
100
AcDbLine
62
7
6
CONTINUOUS
10
306.2787776697
20
211.1678751386
11
302.5028293294
21
206.6678751386
0
LINE
5
294
100
AcDbEntity
8
0
100
AcDbLine
62
7
6
CONTINUOUS
10
299.7762897752
20
182.7935423366
11
302.5028293294
21
198.2565165409
0
LINE
5
295
100
AcDbEntity
8
0
100
AcDbLine
62
7
6
CONTINUOUS
10
323.9859532975
20
136.9678751386
11
323.9411092702
21
136.9678751386
0
LINE
5
296
100
AcDbEntity
8
DEFAULT_2
100
AcDbLine
62
8
6
HIDDEN
10
323.9411092702
20
136.9678751386
11
323.4028293294
21
136.9678751386
0
LINE
5
297
100
AcDbEntity
8
0
100
AcDbLine
62
7
6
CONTINUOUS
10
324.0026900421
20
137.1345411695
11
323.8675638900
21
137.1345411695
0
LINE
5
298
100
AcDbEntity
8
DEFAULT_2
100
AcDbLine
62
8
6
HIDDEN
10
323.8675638900
20
137.1345411695
11
323.4028293294
21
137.1345411695
0
LINE
5
299
100
AcDbEntity
8
DEFAULT_2
100
AcDbLine
62
8
6
HIDDEN
10
323.8675638777
20
137.2178751386
11
323.4028293294
21
137.2178751386
0
LINE
5
29A
100
AcDbEntity
8
DEFAULT_2
100
AcDbLine
62
8
6
HIDDEN
10
323.7873987298
20
137.3845411695
11
323.4028293294
21
137.3845411695
0
LINE
5
29B
100
AcDbEntity
8
0
100
AcDbLine
62
7
6
CONTINUOUS
10
323.9993461390
20
137.3845411695
11
323.7873987298
21
137.3845411695
0
LINE
5
29C
100
AcDbEntity
8
DEFAULT_2
100
AcDbLine
62
8
6
HIDDEN
10
323.9960005184
20
137.4678751386
11
323.9151819554
21
137.4678751386
0
LINE
5
29D
100
AcDbEntity
8
0
100
AcDbLine
62
7
6
CONTINUOUS
10
323.9151819554
20
137.4678751386
11
323.7736316090
21
137.4678751386
0
LINE
5
29E
100
AcDbEntity
8
DEFAULT_2
100
AcDbLine
62
8
6
HIDDEN
10
323.7736316090
20
137.4678751386
11
323.4028293294
21
137.4678751386
0
LINE
5
29F
100
AcDbEntity
8
DEFAULT_2
100
AcDbLine
62
8
6
HIDDEN
10
323.9151819356
20
137.5512091077
11
323.4028293294
21
137.5512091077
0
LINE
5
2A0
100
AcDbEntity
8
DEFAULT_2
100
AcDbLine
62
8
6
HIDDEN
10
324.0015755959
20
137.6345411695
11
323.8675638900
21
137.6345411695
0
LINE
5
2A1
100
AcDbEntity
8
0
100
AcDbLine
62
7
6
CONTINUOUS
10
323.8675638900
20
137.6345411695
11
323.7448520791
21
137.6345411695
0
LINE
5
2A2
100
AcDbEntity
8
DEFAULT_2
100
AcDbLine
62
8
6
HIDDEN
10
323.7448520791
20
137.6345411695
11
323.4028293294
21
137.6345411695
0
LINE
5
2A3
100
AcDbEntity
8
DEFAULT_2
100
AcDbLine
62
8
6
HIDDEN
10
323.8675638777
20
137.7178751386
11
323.4028293294
21
137.7178751386
0
LINE
5
2A4
100
AcDbEntity
8
DEFAULT_2
100
AcDbLine
62
8
6
HIDDEN
10
323.9859532975
20
137.8012091077
11
323.4028293294
21
137.8012091077
0
LINE
5
2A5
100
AcDbEntity
8
DEFAULT_2
100
AcDbLine
62
8
6
HIDDEN
10
324.0026900395
20
137.8845411695
11
323.8298982966
21
137.8845411695
0
LINE
5
2A6
100
AcDbEntity
8
0
100
AcDbLine
62
7
6
CONTINUOUS
10
323.8298982966
20
137.8845411695
11
323.7090862339
21
137.8845411695
0
LINE
5
2A7
100
AcDbEntity
8
DEFAULT_2
100
AcDbLine
62
8
6
HIDDEN
10
323.7090862339
20
137.8845411695
11
323.4028293294
21
137.8845411695
0
LINE
5
2A8
100
AcDbEntity
8
DEFAULT_2
100
AcDbLine
62
8
6
HIDDEN
10
323.8298982826
20
137.9678751386
11
323.4028293294
21
137.9678751386
0
LINE
5
2A9
100
AcDbEntity
8
DEFAULT_2
100
AcDbLine
62
8
6
HIDDEN
10
324.0015756043
20
138.1345411695
11
323.8092586104
21
138.1345411695
0
LINE
5
2AA
100
AcDbEntity
8
0
100
AcDbLine
62
7
6
CONTINUOUS
10
323.8092586104
20
138.1345411695
11
323.6929599949
21
138.1345411695
0
LINE
5
2AB
100
AcDbEntity
8
DEFAULT_2
100
AcDbLine
62
8
6
HIDDEN
10
323.6929599949
20
138.1345411695
11
323.4028293294
21
138.1345411695
0
LINE
5
2AC
100
AcDbEntity
8
DEFAULT_2
100
AcDbLine
62
8
6
HIDDEN
10
323.9792464908
20
138.2178751386
11
323.4028293294
21
138.2178751386
0
LINE
5
2AD
100
AcDbEntity
8
DEFAULT_2
100
AcDbLine
62
8
6
HIDDEN
10
323.6874877678
20
138.3012091077
11
323.4028293294
21
138.3012091077
0
LINE
5
2AE
100
AcDbEntity
8
DEFAULT_2
100
AcDbLine
62
8
6
HIDDEN
10
323.9792464908
20
138.6345411695
11
323.4028293294
21
138.6345411695
0
LINE
5
2AF
100
AcDbEntity
8
DEFAULT_2
100
AcDbLine
62
8
6
HIDDEN
10
324.0015755959
20
138.7178751386
11
323.8092586104
21
138.7178751386
0
LINE
5
2B0
100
AcDbEntity
8
0
100
AcDbLine
62
7
6
CONTINUOUS
10
323.8092586104
20
138.7178751386
11
323.6929599699
21
138.7178751386
0
LINE
5
2B1
100
AcDbEntity
8
DEFAULT_2
100
AcDbLine
62
8
6
HIDDEN
10
323.6929599699
20
138.7178751386
11
323.4028293294
21
138.7178751386
0
LINE
5
2B2
100
AcDbEntity
8
DEFAULT_2
100
AcDbLine
62
8
6
HIDDEN
10
324.0026900373
20
138.9678751386
11
323.8298982966
21
138.9678751386
0
LINE
5
2B3
100
AcDbEntity
8
0
100
AcDbLine
62
7
6
CONTINUOUS
10
323.8298982966
20
138.9678751386
11
323.7090861372
21
138.9678751386
0
LINE
5
2B4
100
AcDbEntity
8
DEFAULT_2
100
AcDbLine
62
8
6
HIDDEN
10
323.7090861372
20
138.9678751386
11
323.4028293294
21
138.9678751386
0
LINE
5
2B5
100
AcDbEntity
8
DEFAULT_2
100
AcDbLine
62
8
6
HIDDEN
10
323.9859532975
20
139.0512091077
11
323.4028293294
21
139.0512091077
0
LINE
5
2B6
100
AcDbEntity
8
DEFAULT_2
100
AcDbLine
62
8
6
HIDDEN
10
324.0015756469
20
139.2178751386
11
323.8675638900
21
139.2178751386
0
LINE
5
2B7
100
AcDbEntity
8
0
100
AcDbLine
62
7
6
CONTINUOUS
10
323.8675638900
20
139.2178751386
11
323.7448518747
21
139.2178751386
0
LINE
5
2B8
100
AcDbEntity
8
DEFAULT_2
100
AcDbLine
62
8
6
HIDDEN
10
323.7448518747
20
139.2178751386
11
323.4028293294
21
139.2178751386
0
LINE
5
2B9
100
AcDbEntity
8
DEFAULT_2
100
AcDbLine
62
8
6
HIDDEN
10
323.9960005184
20
139.3845421232
11
323.9151819554
21
139.3845421232
0
LINE
5
2BA
100
AcDbEntity
8
0
100
AcDbLine
62
7
6
CONTINUOUS
10
323.9151819554
20
139.3845421232
11
323.7736317036
21
139.3845421232
0
LINE
5
2BB
100
AcDbEntity
8
DEFAULT_2
100
AcDbLine
62
8
6
HIDDEN
10
323.7736317036
20
139.3845421232
11
323.4028293294
21
139.3845421232
0
LINE
5
2BC
100
AcDbEntity
8
DEFAULT_2
100
AcDbLine
62
8
6
HIDDEN
10
323.7873987298
20
139.4678751386
11
323.4028293294
21
139.4678751386
0
LINE
5
2BD
100
AcDbEntity
8
0
100
AcDbLine
62
7
6
CONTINUOUS
10
323.9792464806
20
139.4678751386
11
323.7873987298
21
139.4678751386
0
LINE
5
2BE
100
AcDbEntity
8
DEFAULT_2
100
AcDbLine
62
8
6
HIDDEN
10
323.8161389539
20
139.5512081540
11
323.4028293294
21
139.5512081540
0
LINE
5
2BF
100
AcDbEntity
8
0
100
AcDbLine
62
7
6
CONTINUOUS
10
324.0015755959
20
139.5512081540
11
323.8161389539
21
139.5512081540
0
LINE
5
2C0
100
AcDbEntity
8
DEFAULT_2
100
AcDbLine
62
8
6
HIDDEN
10
323.8675638900
20
139.7178751386
11
323.4028293294
21
139.7178751386
0
LINE
5
2C1
100
AcDbEntity
8
0
100
AcDbLine
62
7
6
CONTINUOUS
10
302.5028293294
20
187.7300507933
11
302.5028293294
21
206.6678751386
0
LINE
5
2C2
100
AcDbEntity
8
DEFAULT_2
100
AcDbLine
62
8
6
HIDDEN
10
323.9411092702
20
139.8845421232
11
323.4028293294
21
139.8845421232
0
LINE
5
2C3
100
AcDbEntity
8
0
100
AcDbLine
62
7
6
CONTINUOUS
10
324.0028291923
20
139.9678751386
11
323.9960005184
21
139.9678751386
0
LINE
5
2C4
100
AcDbEntity
8
DEFAULT_2
100
AcDbLine
62
8
6
HIDDEN
10
323.9960005184
20
139.9678751386
11
323.4028293294
21
139.9678751386
0
LINE
5
2C5
100
AcDbEntity
8
DEFAULT_2
100
AcDbLine
62
8
6
HIDDEN
10
323.9792464806
20
140.6345421232
11
323.4028293294
21
140.6345421232
0
LINE
5
2C6
100
AcDbEntity
8
0
100
AcDbLine
62
7
6
CONTINUOUS
10
323.9792464806
20
140.6345421232
11
324.0015755959
21
140.6345421232
0
LINE
5
2C7
100
AcDbEntity
8
0
100
AcDbLine
62
7
6
CONTINUOUS
10
324.0015755959
20
141.8012081540
11
323.9792464806
21
141.8012081540
0
LINE
5
2C8
100
AcDbEntity
8
DEFAULT_2
100
AcDbLine
62
8
6
HIDDEN
10
323.9792464806
20
141.8012081540
11
323.4028293294
21
141.8012081540
0
LINE
5
2C9
100
AcDbEntity
8
DEFAULT_2
100
AcDbLine
62
8
6
HIDDEN
10
323.6874877678
20
142.4678751386
11
323.4028293294
21
142.4678751386
0
LINE
5
2CA
100
AcDbEntity
8
0
100
AcDbLine
62
7
6
CONTINUOUS
10
323.6874877678
20
142.4678751386
11
324.0028293294
21
142.4678751386
0
LINE
5
2CB
100
AcDbEntity
8
DEFAULT_2
100
AcDbLine
62
8
6
HIDDEN
10
323.6874877678
20
142.9678751386
11
323.4028293294
21
142.9678751386
0
LINE
5
2CC
100
AcDbEntity
8
0
100
AcDbLine
62
7
6
CONTINUOUS
10
324.0027884263
20
142.9678751386
11
323.6874877678
21
142.9678751386
0
LINE
5
2CD
100
AcDbEntity
8
DEFAULT_2
100
AcDbLine
62
8
6
HIDDEN
10
323.9624490092
20
143.4678751386
11
323.4028293294
21
143.4678751386
0
LINE
5
2CE
100
AcDbEntity
8
0
100
AcDbLine
62
7
6
CONTINUOUS
10
309.5939735335
20
197.9678751386
11
309.5939735335
21
211.1678751386
0
LINE
5
2CF
100
AcDbEntity
8
0
100
AcDbLine
62
7
6
CONTINUOUS
10
323.9714130825
20
148.1345416463
11
323.9151819554
21
148.1345416463
0
LINE
5
2D0
100
AcDbEntity
8
DEFAULT_2
100
AcDbLine
62
8
6
HIDDEN
10
323.9151819554
20
148.1345416463
11
323.4028293294
21
148.1345416463
0
LINE
5
2D1
100
AcDbEntity
8
0
100
AcDbLine
62
7
6
CONTINUOUS
10
323.9915370075
20
148.2178751386
11
323.8675638900
21
148.2178751386
0
LINE
5
2D2
100
AcDbEntity
8
DEFAULT_2
100
AcDbLine
62
8
6
HIDDEN
10
323.8675638900
20
148.2178751386
11
323.4028293294
21
148.2178751386
0
LINE
5
2D3
100
AcDbEntity
8
DEFAULT_2
100
AcDbLine
62
8
6
HIDDEN
10
323.7873987298
20
148.4678751386
11
323.4028293294
21
148.4678751386
0
LINE
5
2D4
100
AcDbEntity
8
0
100
AcDbLine
62
7
6
CONTINUOUS
10
324.0026900382
20
148.4678751386
11
323.7873987298
21
148.4678751386
0
LINE
5
2D5
100
AcDbEntity
8
DEFAULT_2
100
AcDbLine
62
8
6
HIDDEN
10
323.7522893527
20
148.6345416463
11
323.4028293294
21
148.6345416463
0
LINE
5
2D6
100
AcDbEntity
8
0
100
AcDbLine
62
7
6
CONTINUOUS
10
324.0026900376
20
148.6345416463
11
323.7522893527
21
148.6345416463
0
LINE
5
2D7
100
AcDbEntity
8
DEFAULT_2
100
AcDbLine
62
8
6
HIDDEN
10
323.9859532975
20
148.7178751386
11
323.8846111374
21
148.7178751386
0
LINE
5
2D8
100
AcDbEntity
8
0
100
AcDbLine
62
7
6
CONTINUOUS
10
323.8846111374
20
148.7178751386
11
323.7336846126
21
148.7178751386
0
LINE
5
2D9
100
AcDbEntity
8
DEFAULT_2
100
AcDbLine
62
8
6
HIDDEN
10
323.7336846126
20
148.7178751386
11
323.4028293294
21
148.7178751386
0
LINE
5
2DA
100
AcDbEntity
8
DEFAULT_2
100
AcDbLine
62
8
6
HIDDEN
10
323.7143655665
20
148.8012086309
11
323.4028293294
21
148.8012086309
0
LINE
5
2DB
100
AcDbEntity
8
DEFAULT_2
100
AcDbLine
62
8
6
HIDDEN
10
323.9960005184
20
148.8845416463
11
323.8493297010
21
148.8845416463
0
LINE
5
2DC
100
AcDbEntity
8
0
100
AcDbLine
62
7
6
CONTINUOUS
10
323.8493297010
20
148.8845416463
11
323.7090861795
21
148.8845416463
0
LINE
5
2DD
100
AcDbEntity
8
DEFAULT_2
100
AcDbLine
62
8
6
HIDDEN
10
323.7090861795
20
148.8845416463
11
323.4028293294
21
148.8845416463
0
LINE
5
2DE
100
AcDbEntity
8
DEFAULT_2
100
AcDbLine
62
8
6
HIDDEN
10
323.9993461390
20
149.1345416463
11
323.8298982966
21
149.1345416463
0
LINE
5
2DF
100
AcDbEntity
8
0
100
AcDbLine
62
7
6
CONTINUOUS
10
323.8298982966
20
149.1345416463
11
323.6929599574
21
149.1345416463
0
LINE
5
2E0
100
AcDbEntity
8
DEFAULT_2
100
AcDbLine
62
8
6
HIDDEN
10
323.6929599574
20
149.1345416463
11
323.4028293294
21
149.1345416463
0
LINE
5
2E1
100
AcDbEntity
8
DEFAULT_2
100
AcDbLine
62
8
6
HIDDEN
10
323.6874877678
20
149.2178751386
11
323.4028293294
21
149.2178751386
0
LINE
5
2E2
100
AcDbEntity
8
DEFAULT_2
100
AcDbLine
62
8
6
HIDDEN
10
323.6874877678
20
150.7178751386
11
323.4028293294
21
150.7178751386
0
LINE
5
2E3
100
AcDbEntity
8
0
100
AcDbLine
62
7
6
CONTINUOUS
10
323.9993461390
20
150.7178751386
11
323.6874877678
21
150.7178751386
0
LINE
5
2E4
100
AcDbEntity
8
0
100
AcDbLine
62
7
6
CONTINUOUS
10
311.0028293294
20
178.2178751386
11
311.0028293294
21
111.2178751386
0
LINE
5
2E5
100
AcDbEntity
8
0
100
AcDbLine
62
7
6
CONTINUOUS
10
314.1428293294
20
209.9308087985
11
314.1428293294
21
194.7278751386
0
LINE
5
2E6
100
AcDbEntity
8
DEFAULT_2
100
AcDbLine
62
8
6
HIDDEN
10
323.6874877678
20
151.2178751386
11
323.4028293294
21
151.2178751386
0
LINE
5
2E7
100
AcDbEntity
8
0
100
AcDbLine
62
7
6
CONTINUOUS
10
324.0028293294
20
151.2178751386
11
323.6874877678
21
151.2178751386
0
LINE
5
2E8
100
AcDbEntity
8
DEFAULT_2
100
AcDbLine
62
8
6
HIDDEN
10
323.6874877678
20
151.8845418847
11
323.4028293294
21
151.8845418847
0
LINE
5
2E9
100
AcDbEntity
8
DEFAULT_2
100
AcDbLine
62
8
6
HIDDEN
10
323.6874877678
20
152.3845418847
11
323.4028293294
21
152.3845418847
0
LINE
5
2EA
100
AcDbEntity
8
DEFAULT_2
100
AcDbLine
62
8
6
HIDDEN
10
323.6874877678
20
153.2178751386
11
323.4028293294
21
153.2178751386
0
LINE
5
2EB
100
AcDbEntity
8
DEFAULT_2
100
AcDbLine
62
8
6
HIDDEN
10
323.6874877678
20
153.5512085117
11
323.4028293294
21
153.5512085117
0
LINE
5
2EC
100
AcDbEntity
8
0
100
AcDbLine
62
7
6
CONTINUOUS
10
323.8298982966
20
153.5512085117
11
323.6874877678
21
153.5512085117
0
LINE
5
2ED
100
AcDbEntity
8
DEFAULT_2
100
AcDbLine
62
8
6
HIDDEN
10
323.6874877678
20
153.8845417655
11
323.4028293294
21
153.8845417655
0
LINE
5
2EE
100
AcDbEntity
8
DEFAULT_2
100
AcDbLine
62
8
6
HIDDEN
10
323.6874877678
20
154.7178751386
11
323.4028293294
21
154.7178751386
0
LINE
5
2EF
100
AcDbEntity
8
DEFAULT_1
100
AcDbLine
62
2
6
CENTER
10
317.5028293294
20
101.7178751386
11
317.5028293294
21
214.1678751386
0
LINE
5
2F0
100
AcDbEntity
8
DEFAULT_2
100
AcDbLine
62
8
6
HIDDEN
10
323.6874877678
20
155.2178751386
11
323.4028293294
21
155.2178751386
0
LINE
5
2F1
100
AcDbEntity
8
0
100
AcDbLine
62
7
6
CONTINUOUS
10
320.8628293294
20
194.7278751386
11
320.8628293294
21
209.9308087985
0
LINE
5
2F2
100
AcDbEntity
8
DEFAULT_2
100
AcDbLine
62
8
6
HIDDEN
10
323.4028293294
20
155.2178751386
11
323.4028293294
21
151.8845418847
0
LINE
5
2F3
100
AcDbEntity
8
DEFAULT_2
100
AcDbLine
62
8
6
HIDDEN
10
323.4028293294
20
151.2178751386
11
323.4028293294
21
148.1345416463
0
LINE
5
2F4
100
AcDbEntity
8
DEFAULT_2
100
AcDbLine
62
8
6
HIDDEN
10
323.4028293294
20
143.4678751386
11
323.4028293294
21
142.4678751386
0
LINE
5
2F5
100
AcDbEntity
8
DEFAULT_2
100
AcDbLine
62
8
6
HIDDEN
10
323.4028293294
20
141.8012081540
11
323.4028293294
21
140.6345421232
0
LINE
5
2F6
100
AcDbEntity
8
DEFAULT_2
100
AcDbLine
62
8
6
HIDDEN
10
323.4028293294
20
139.9678751386
11
323.4028293294
21
136.9678751386
0
LINE
5
2F7
100
AcDbEntity
8
DEFAULT_2
100
AcDbLine
62
8
6
HIDDEN
10
323.6874877678
20
155.2178751386
11
323.6874877678
21
154.7178751386
0
LINE
5
2F8
100
AcDbEntity
8
0
100
AcDbLine
62
7
6
CONTINUOUS
10
323.6874877678
20
153.8845417655
11
323.6874877678
21
153.2178751386
0
LINE
5
2F9
100
AcDbEntity
8
DEFAULT_2
100
AcDbLine
62
8
6
HIDDEN
10
323.6874877678
20
152.3845418847
11
323.6874877678
21
151.8845418847
0
LINE
5
2FA
100
AcDbEntity
8
0
100
AcDbLine
62
7
6
CONTINUOUS
10
323.6874877678
20
151.2178751386
11
323.6874877678
21
149.2178751386
0
LINE
5
2FB
100
AcDbEntity
8
0
100
AcDbLine
62
7
6
CONTINUOUS
10
323.6874877678
20
142.9678751386
11
323.6874877678
21
142.4678751386
0
LINE
5
2FC
100
AcDbEntity
8
0
100
AcDbLine
62
7
6
CONTINUOUS
10
323.6874877678
20
138.6345411695
11
323.6874877678
21
138.2178751386
0
LINE
5
2FD
100
AcDbEntity
8
0
100
AcDbLine
62
7
6
CONTINUOUS
10
323.8092586104
20
138.7178751386
11
323.8092586104
21
138.1345411695
0
LINE
5
2FE
100
AcDbEntity
8
0
100
AcDbLine
62
7
6
CONTINUOUS
10
323.8298982966
20
150.7178751386
11
323.8298982966
21
149.1345416463
0
LINE
5
2FF
100
AcDbEntity
8
DEFAULT_2
100
AcDbLine
62
8
6
HIDDEN
10
323.9151819356
20
137.5512091077
11
323.9151819356
21
137.1345411695
0
LINE
5
300
100
AcDbEntity
8
0
100
AcDbLine
62
7
6
CONTINUOUS
10
323.9792464806
20
141.8012081540
11
323.9792464806
21
140.6345421232
0
LINE
5
301
100
AcDbEntity
8
DEFAULT_2
100
AcDbLine
62
8
6
HIDDEN
10
323.9792464908
20
138.6345411695
11
323.9792464908
21
138.2178751386
0
LINE
5
302
100
AcDbEntity
8
DEFAULT_2
100
AcDbLine
62
8
6
HIDDEN
10
323.9960005184
20
150.7178751386
11
323.9960005184
21
149.1345416463
0
LINE
5
303
100
AcDbEntity
8
0
100
AcDbLine
62
7
6
CONTINUOUS
10
323.9993461390
20
150.7178751386
11
323.9993461390
21
149.1345416463
0
LINE
5
304
100
AcDbEntity
8
0
100
AcDbLine
62
7
6
CONTINUOUS
10
324.0015755959
20
141.8012081540
11
324.0015755959
21
140.6345421232
0
LINE
5
305
100
AcDbEntity
8
DEFAULT_2
100
AcDbLine
62
8
6
HIDDEN
10
324.0015755959
20
138.7178751386
11
324.0015755959
21
138.1345411695
0
LINE
5
306
100
AcDbEntity
8
DEFAULT_2
100
AcDbLine
62
8
6
HIDDEN
10
324.0028293793
20
137.1762066049
11
324.0028293294
21
137.4678751386
0
LINE
5
307
100
AcDbEntity
8
DEFAULT_2
100
AcDbLine
62
8
6
HIDDEN
10
324.0028293294
20
137.8012091077
11
324.0028293294
21
137.8220400978
0
LINE
5
308
100
AcDbEntity
8
0
100
AcDbLine
62
7
6
CONTINUOUS
10
324.0028293294
20
137.4678751386
11
324.0028293294
21
137.8012091077
0
LINE
5
309
100
AcDbEntity
8
DEFAULT_2
100
AcDbLine
62
8
6
HIDDEN
10
324.0028293294
20
139.3845421232
11
324.0028293294
21
139.5512081540
0
LINE
5
30A
100
AcDbEntity
8
0
100
AcDbLine
62
7
6
CONTINUOUS
10
324.0028293294
20
137.8220411695
11
324.0028293294
21
139.3845421232
0
LINE
5
30B
100
AcDbEntity
8
0
100
AcDbLine
62
7
6
CONTINUOUS
10
324.0028293294
20
139.5512081540
11
324.0028293294
21
140.6345421232
0
LINE
5
30C
100
AcDbEntity
8
DEFAULT_2
100
AcDbLine
62
8
6
HIDDEN
10
324.0028293294
20
140.6345421232
11
324.0028293294
21
141.8012081540
0
LINE
5
30D
100
AcDbEntity
8
0
100
AcDbLine
62
7
6
CONTINUOUS
10
324.0028293294
20
141.8012081540
11
324.0028293294
21
148.2178751386
0
LINE
5
30E
100
AcDbEntity
8
DEFAULT_2
100
AcDbLine
62
8
6
HIDDEN
10
324.0028293294
20
148.2178751386
11
324.0028293294
21
148.6345416463
0
LINE
5
30F
100
AcDbEntity
8
0
100
AcDbLine
62
7
6
CONTINUOUS
10
324.0028293294
20
148.6345416463
11
324.0028293294
21
178.2178751386
0
LINE
5
310
100
AcDbEntity
8
0
100
AcDbLine
62
7
6
CONTINUOUS
10
325.4116851253
20
211.1678751386
11
325.4116851253
21
197.9678751386
0
LINE
5
311
100
AcDbEntity
8
0
100
AcDbLine
62
7
6
CONTINUOUS
10
324.0028293294
20
111.2178751386
11
324.0028293793
21
137.1762066049
0
LINE
5
312
100
AcDbEntity
8
0
100
AcDbLine
62
7
6
CONTINUOUS
10
332.5028293294
20
187.7300507933
11
332.5028293294
21
206.6678751386
0
LINE
5
313
100
AcDbEntity
8
0
100
AcDbLine
62
7
6
CONTINUOUS
10
335.2293688836
20
182.7935423366
11
332.5028293294
21
198.2565165409
0
LINE
5
314
100
AcDbEntity
8
0
100
AcDbLine
62
7
6
CONTINUOUS
10
307.6057150123
20
187.6178751386
11
327.3999436464
21
187.6178751386
0
LINE
5
315
100
AcDbEntity
8
0
100
AcDbLine
62
7
6
CONTINUOUS
10
314.1428293294
20
199.1678751386
11
320.8628293294
21
199.1678751386
0
LINE
5
316
100
AcDbEntity
8
DEFAULT_1
100
AcDbLine
62
2
6
CENTER
10
323.8628293294
20
202.7678751386
11
311.1428293294
21
202.7678751386
0
LINE
5
317
100
AcDbEntity
8
0
100
AcDbLine
62
7
6
CONTINUOUS
10
332.5028293294
20
206.6678751386
11
328.7268809891
21
211.1678751386
0
LINE
5
318
100
AcDbEntity
8
0
100
AcDbLine
62
7
6
CONTINUOUS
10
314.1428293294
20
206.3678751386
11
320.8628293294
21
206.3678751386
0
LINE
5
319
100
AcDbEntity
8
0
100
AcDbLine
62
7
6
CONTINUOUS
10
328.7268809891
20
211.1678751386
11
325.4116851253
21
211.1678751386
0
LINE
5
31A
100
AcDbEntity
8
0
100
AcDbLine
62
7
6
CONTINUOUS
10
309.5939735335
20
211.1678751386
11
306.2787776697
21
211.1678751386
0
ARC
5
31B
100
AcDbEntity
8
DEFAULT_2
100
AcDbCircle
62
8
6
HIDDEN
10
208.4219942748
20
159.2178751386
40
12.5000000000
100
AcDbArc
50
72.5318858821
51
107.4681141179
0
ARC
5
31C
100
AcDbEntity
8
DEFAULT_2
100
AcDbCircle
62
8
6
HIDDEN
10
208.4219942748
20
159.2178751386
40
25.5000000000
100
AcDbArc
50
81.5399317978
51
98.4600682022
0
CIRCLE
5
31D
100
AcDbEntity
8
0
100
AcDbCircle
62
7
6
CONTINUOUS
10
208.4219942748
20
202.7678751386
40
3.6000000000
0
ARC
5
31E
100
AcDbEntity
8
0
100
AcDbCircle
62
7
6
CONTINUOUS
10
208.4219942748
20
167.9678751386
40
3.7500000000
100
AcDbArc
50
338.0086527045
51
360.0000000000
0
ARC
5
31F
100
AcDbEntity
8
0
100
AcDbCircle
62
7
6
CONTINUOUS
10
208.4219942748
20
167.9678751386
40
3.7500000000
100
AcDbArc
50
180.0000000000
51
201.9913472955
0
ARC
5
320
100
AcDbEntity
8
0
100
AcDbCircle
62
7
6
CONTINUOUS
10
206.6903898839
20
188.8178751386
40
1.2000000000
100
AcDbArc
50
210.0000000000
51
245.0288249861
0
ARC
5
321
100
AcDbEntity
8
0
100
AcDbCircle
62
7
6
CONTINUOUS
10
203.6219942748
20
188.8178751386
40
1.2000000000
100
AcDbArc
50
180.0000000000
51
270.0000000000
0
ARC
5
322
100
AcDbEntity
8
0
100
AcDbCircle
62
7
6
CONTINUOUS
10
208.4219942748
20
202.7678751386
40
8.4000000000
100
AcDbArc
50
0.0000000000
51
180.0000000000
0
ARC
5
323
100
AcDbEntity
8
0
100
AcDbCircle
62
7
6
CONTINUOUS
10
215.6219942748
20
193.4894141695
40
1.2000000000
100
AcDbArc
50
150.0000000000
51
180.0000000000
0
ARC
5
324
100
AcDbEntity
8
0
100
AcDbCircle
62
7
6
CONTINUOUS
10
201.2219942748
20
193.4894141695
40
1.2000000000
100
AcDbArc
50
0.0000000000
51
30.0000000000
0
ARC
5
325
100
AcDbEntity
8
0
100
AcDbCircle
62
7
6
CONTINUOUS
10
213.2219942748
20
188.8178751386
40
1.2000000000
100
AcDbArc
50
270.0000000000
51
360.0000000000
0
ARC
5
326
100
AcDbEntity
8
0
100
AcDbCircle
62
7
6
CONTINUOUS
10
210.1535986657
20
188.8178751386
40
1.2000000000
100
AcDbArc
50
294.9711750139
51
330.0000000000
0
ARC
5
327
100
AcDbEntity
8
0
100
AcDbCircle
62
7
6
CONTINUOUS
10
208.4219942748
20
159.2178751386
40
12.5000000000
100
AcDbArc
50
0.0000000000
51
72.5318858821
0
ARC
5
328
100
AcDbEntity
8
0
100
AcDbCircle
62
7
6
CONTINUOUS
10
208.4219942748
20
159.2178751386
40
12.5000000000
100
AcDbArc
50
107.4681141179
51
180.0000000000
0
ARC
5
329
100
AcDbEntity
8
0
100
AcDbCircle
62
7
6
CONTINUOUS
10
208.4219942748
20
159.2178751386
40
25.5000000000
100
AcDbArc
50
0.0000000000
51
81.5399317978
0
ARC
5
32A
100
AcDbEntity
8
0
100
AcDbCircle
62
7
6
CONTINUOUS
10
208.4219942748
20
159.2178751386
40
25.5000000000
100
AcDbArc
50
98.4600682022
51
180.0000000000
0
ARC
5
32B
100
AcDbEntity
8
0
100
AcDbCircle
62
7
6
CONTINUOUS
10
208.4219942748
20
130.2178751386
40
12.5000000000
100
AcDbArc
50
180.0000000000
51
360.0000000000
0
ARC
5
32C
100
AcDbEntity
8
0
100
AcDbCircle
62
7
6
CONTINUOUS
10
208.4219942748
20
130.2178751386
40
25.5000000000
100
AcDbArc
50
180.0000000000
51
360.0000000000
0
ARC
5
32D
100
AcDbEntity
8
DEFAULT_2
100
AcDbCircle
62
8
6
HIDDEN
10
317.5028293294
20
178.2178751386
40
6.5000000000
100
AcDbArc
50
180.0000000000
51
360.0000000000
0
ARC
5
32E
100
AcDbEntity
8
DEFAULT_2
100
AcDbCircle
62
8
6
HIDDEN
10
317.5028293294
20
111.2178751386
40
6.5000000000
100
AcDbArc
50
0.0000000000
51
180.0000000000
0
ARC
5
32F
100
AcDbEntity
8
DEFAULT_2
100
AcDbCircle
62
8
6
HIDDEN
10
317.5028293294
20
179.6678751386
40
7.9500000000
100
AcDbArc
50
215.0867605971
51
324.9132394029
0
ARC
5
330
100
AcDbEntity
8
DEFAULT_2
100
AcDbCircle
62
8
6
HIDDEN
10
317.5028293294
20
179.6678751386
40
18.0000000000
100
AcDbArc
50
248.8287616740
51
291.1711648163
0
ARC
5
331
100
AcDbEntity
8
0
100
AcDbCircle
62
7
6
CONTINUOUS
10
317.5028293294
20
178.2178751386
40
6.5000000000
100
AcDbArc
50
0.0000000000
51
180.0000000000
0
ARC
5
332
100
AcDbEntity
8
0
100
AcDbCircle
62
7
6
CONTINUOUS
10
317.5028293294
20
111.2178751386
40
6.5000000000
100
AcDbArc
50
180.0000000000
51
360.0000000000
0
ARC
5
333
100
AcDbEntity
8
0
100
AcDbCircle
62
7
6
CONTINUOUS
10
317.5028293294
20
231.2678751386
40
21.6000000000
100
AcDbArc
50
248.5215821589
51
261.0509819347
0
ARC
5
334
100
AcDbEntity
8
0
100
AcDbCircle
62
7
6
CONTINUOUS
10
317.5028293294
20
231.2678751386
40
21.6000000000
100
AcDbArc
50
278.9490180653
51
291.4784178411
0
ARC
5
335
100
AcDbEntity
8
0
100
AcDbCircle
62
7
6
CONTINUOUS
10
317.5028293294
20
179.6678751386
40
7.9500000000
100
AcDbArc
50
324.9132394029
51
215.0867605971
0
CIRCLE
5
336
100
AcDbEntity
8
0
100
AcDbCircle
62
7
6
CONTINUOUS
10
306.8828293294
20
202.7678751386
40
1.5000000000
0
ARC
5
337
100
AcDbEntity
8
0
100
AcDbCircle
62
7
6
CONTINUOUS
10
317.5028293294
20
194.7278751386
40
3.3600000000
100
AcDbArc
50
180.0000000000
51
360.0000000000
0
ARC
5
338
100
AcDbEntity
8
0
100
AcDbCircle
62
7
6
CONTINUOUS
10
317.5028293294
20
179.6678751386
40
18.0000000000
100
AcDbArc
50
170.0000000000
51
248.8287616740
0
ARC
5
339
100
AcDbEntity
8
0
100
AcDbCircle
62
7
6
CONTINUOUS
10
317.5028293294
20
179.6678751386
40
18.0000000000
100
AcDbArc
50
291.1711648163
51
10.0000000000
0
SPLINE
5
33A
100
AcDbEntity
8
DEFAULT_2
100
AcDbSpline
62
8
6
HIDDEN
70
0
71
3
72
10
73
6
74
4
42
0.0000001000
43
0.0000001000
44
0.0000000001
40
0.0000000000
40
0.0000000000
40
0.0000000000
40
0.0000000000
40
0.4287722285
40
0.7749239067
40
1.0000000000
40
1.0000000000
40
1.0000000000
40
1.0000000000
10
204.9448427133
20
187.8768430688
30
0.0000000000
10
204.8943064177
20
187.8622214295
30
0.0000000000
10
204.8048588072
20
187.8242181263
30
0.0000000000
10
204.7107968999
20
187.7460569654
30
0.0000000000
10
204.6719942931
20
187.6804904949
30
0.0000000000
10
204.6719942748
20
187.6528743551
30
0.0000000000
11
204.9448427133
21
187.8768430688
31
0.0000000000
11
204.8003909869
21
187.8132578162
31
0.0000000000
11
204.7048900685
21
187.7289120259
31
0.0000000000
11
204.6719942748
21
187.6528743551
31
0.0000000000
0
SPLINE
5
33B
100
AcDbEntity
8
DEFAULT_2
100
AcDbSpline
62
8
6
HIDDEN
70
0
71
3
72
10
73
6
74
4
42
0.0000001000
43
0.0000001000
44
0.0000000001
40
0.0000000000
40
0.0000000000
40
0.0000000000
40
0.0000000000
40
0.4287722285
40
0.7749239067
40
1.0000000000
40
1.0000000000
40
1.0000000000
40
1.0000000000
10
211.8991458363
20
187.8768430688
30
0.0000000000
10
211.9496821319
20
187.8622214295
30
0.0000000000
10
212.0391297424
20
187.8242181263
30
0.0000000000
10
212.1331916497
20
187.7460569654
30
0.0000000000
10
212.1719942566
20
187.6804904949
30
0.0000000000
10
212.1719942748
20
187.6528743551
30
0.0000000000
11
211.8991458363
21
187.8768430688
31
0.0000000000
11
212.0435975628
21
187.8132578162
31
0.0000000000
11
212.1390984811
21
187.7289120259
31
0.0000000000
11
212.1719942748
21
187.6528743551
31
0.0000000000
0
SPLINE
5
33C
100
AcDbEntity
8
0
100
AcDbSpline
62
7
6
CONTINUOUS
70
0
71
3
72
11
73
7
74
5
42
0.0000001000
43
0.0000001000
44
0.0000000001
40
0.0000000000
40
0.0000000000
40
0.0000000000
40
0.0000000000
40
0.2736616635
40
0.5152985427
40
0.7560098449
40
1.0000000000
40
1.0000000000
40
1.0000000000
40
1.0000000000
10
205.2552763271
20
187.9780332844
30
0.0000000000
10
205.3260804657
20
188.0039652141
30
0.0000000000
10
205.4663674966
20
188.0401712709
30
0.0000000000
10
205.6775399583
20
188.0132665036
30
0.0000000000
10
205.8602059230
20
187.9273459264
30
0.0000000000
10
205.9720087994
20
187.8543169833
30
0.0000000000
10
206.0280684599
20
187.8172101941
30
0.0000000000
11
205.2552763271
21
187.9780332844
31
0.0000000000
11
205.4761151477
21
188.0270377175
31
0.0000000000
11
205.6744289148
21
188.0032221106
31
0.0000000000
11
205.8568918253
21
187.9238636224
31
0.0000000000
11
206.0280684599
21
187.8172101941
31
0.0000000000
0
SPLINE
5
33D
100
AcDbEntity
8
0
100
AcDbSpline
62
7
6
CONTINUOUS
70
0
71
3
72
10
73
6
74
4
42
0.0000001000
43
0.0000001000
44
0.0000000001
40
0.0000000000
40
0.0000000000
40
0.0000000000
40
0.0000000000
40
0.2250746189
40
0.5712258987
40
1.0000000000
40
1.0000000000
40
1.0000000000
40
1.0000000000
10
204.6719942748
20
187.6528743551
30
0.0000000000
10
204.6719942931
20
187.6804903145
30
0.0000000000
10
204.7107966018
20
187.7460566167
30
0.0000000000
10
204.8048584249
20
187.8242179385
30
0.0000000000
10
204.8943061960
20
187.8622213653
30
0.0000000000
10
204.9448427133
20
187.8768430688
30
0.0000000000
11
204.6719942748
21
187.6528743551
31
0.0000000000
11
204.7048897299
21
187.7289115828
31
0.0000000000
11
204.8003903951
21
187.8132574419
31
0.0000000000
11
204.9448427133
21
187.8768430688
31
0.0000000000
0
SPLINE
5
33E
100
AcDbEntity
8
0
100
AcDbSpline
62
7
6
CONTINUOUS
70
0
71
3
72
10
73
6
74
4
42
0.0000001000
43
0.0000001000
44
0.0000000001
40
0.0000000000
40
0.0000000000
40
0.0000000000
40
0.0000000000
40
0.3498842906
40
0.6843122001
40
1.0000000000
40
1.0000000000
40
1.0000000000
40
1.0000000000
10
204.9448427133
20
187.8768430688
30
0.0000000000
10
204.9814291028
20
187.8874285894
30
0.0000000000
10
205.0527624720
20
187.9089147804
30
0.0000000000
10
205.1562553666
20
187.9426896565
30
0.0000000000
10
205.2230080035
20
187.9662149651
30
0.0000000000
10
205.2552763271
20
187.9780332844
30
0.0000000000
11
204.9448427133
21
187.8768430688
31
0.0000000000
11
205.0542398339
21
187.9098252502
31
0.0000000000
11
205.1580546600
21
187.9437374554
31
0.0000000000
11
205.2552763271
21
187.9780332844
31
0.0000000000
0
SPLINE
5
33F
100
AcDbEntity
8
0
100
AcDbSpline
62
7
6
CONTINUOUS
70
0
71
3
72
10
73
6
74
4
42
0.0000001000
43
0.0000001000
44
0.0000000001
40
0.0000000000
40
0.0000000000
40
0.0000000000
40
0.0000000000
40
0.2250746189
40
0.5712258987
40
1.0000000000
40
1.0000000000
40
1.0000000000
40
1.0000000000
10
212.1719942748
20
187.6528743551
30
0.0000000000
10
212.1719942565
20
187.6804903145
30
0.0000000000
10
212.1331919478
20
187.7460566167
30
0.0000000000
10
212.0391301247
20
187.8242179385
30
0.0000000000
10
211.9496823537
20
187.8622213653
30
0.0000000000
10
211.8991458363
20
187.8768430688
30
0.0000000000
11
212.1719942748
21
187.6528743551
31
0.0000000000
11
212.1390988197
21
187.7289115828
31
0.0000000000
11
212.0435981545
21
187.8132574419
31
0.0000000000
11
211.8991458363
21
187.8768430688
31
0.0000000000
0
SPLINE
5
340
100
AcDbEntity
8
0
100
AcDbSpline
62
7
6
CONTINUOUS
70
0
71
3
72
10
73
6
74
4
42
0.0000001000
43
0.0000001000
44
0.0000000001
40
0.0000000000
40
0.0000000000
40
0.0000000000
40
0.0000000000
40
0.3498842906
40
0.6843122001
40
1.0000000000
40
1.0000000000
40
1.0000000000
40
1.0000000000
10
211.8991458363
20
187.8768430688
30
0.0000000000
10
211.8625594468
20
187.8874285894
30
0.0000000000
10
211.7912260776
20
187.9089147804
30
0.0000000000
10
211.6877331830
20
187.9426896565
30
0.0000000000
10
211.6209805461
20
187.9662149651
30
0.0000000000
10
211.5887122225
20
187.9780332844
30
0.0000000000
11
211.8991458363
21
187.8768430688
31
0.0000000000
11
211.7897487157
21
187.9098252502
31
0.0000000000
11
211.6859338896
21
187.9437374554
31
0.0000000000
11
211.5887122225
21
187.9780332844
31
0.0000000000
0
SPLINE
5
341
100
AcDbEntity
8
0
100
AcDbSpline
62
7
6
CONTINUOUS
70
0
71
3
72
11
73
7
74
5
42
0.0000001000
43
0.0000001000
44
0.0000000001
40
0.0000000000
40
0.0000000000
40
0.0000000000
40
0.0000000000
40
0.2736616635
40
0.5152985427
40
0.7560098449
40
1.0000000000
40
1.0000000000
40
1.0000000000
40
1.0000000000
10
211.5887122225
20
187.9780332844
30
0.0000000000
10
211.5179080839
20
188.0039652141
30
0.0000000000
10
211.3776210530
20
188.0401712709
30
0.0000000000
10
211.1664485913
20
188.0132665036
30
0.0000000000
10
210.9837826266
20
187.9273459264
30
0.0000000000
10
210.8719797502
20
187.8543169833
30
0.0000000000
10
210.8159200897
20
187.8172101941
30
0.0000000000
11
211.5887122225
21
187.9780332844
31
0.0000000000
11
211.3678734019
21
188.0270377175
31
0.0000000000
11
211.1695596348
21
188.0032221106
31
0.0000000000
11
210.9870967244
21
187.9238636224
31
0.0000000000
11
210.8159200897
21
187.8172101941
31
0.0000000000
0
SPLINE
5
342
100
AcDbEntity
8
DEFAULT_2
100
AcDbSpline
62
8
6
HIDDEN
70
0
71
3
72
9
73
5
74
3
42
0.0000001000
43
0.0000001000
44
0.0000000001
40
0.0000000000
40
0.0000000000
40
0.0000000000
40
0.0000000000
40
0.5381456395
40
1.0000000000
40
1.0000000000
40
1.0000000000
40
1.0000000000
10
323.6874877678
20
155.2178751386
30
0.0000000000
10
323.7813822511
20
155.1210909177
30
0.0000000000
10
323.9378140493
20
154.9188494068
30
0.0000000000
10
324.0028293294
20
154.6673599530
30
0.0000000000
10
324.0028293294
20
154.5512084521
30
0.0000000000
11
323.6874877678
21
155.2178751386
31
0.0000000000
11
323.9232741409
21
154.8891579031
31
0.0000000000
11
324.0028293294
21
154.5512084521
31
0.0000000000
0
SPLINE
5
343
100
AcDbEntity
8
DEFAULT_2
100
AcDbSpline
62
8
6
HIDDEN
70
0
71
3
72
9
73
5
74
3
42
0.0000001000
43
0.0000001000
44
0.0000000001
40
0.0000000000
40
0.0000000000
40
0.0000000000
40
0.0000000000
40
0.4618543540
40
1.0000000000
40
1.0000000000
40
1.0000000000
40
1.0000000000
10
324.0028293294
20
152.5512085117
30
0.0000000000
10
324.0028293294
20
152.4350570207
30
0.0000000000
10
323.9378140471
20
152.1835675848
30
0.0000000000
10
323.7813822499
20
151.9813260958
30
0.0000000000
10
323.6874877678
20
151.8845418847
30
0.0000000000
11
324.0028293294
21
152.5512085117
31
0.0000000000
11
323.9232741410
21
152.2132590910
31
0.0000000000
11
323.6874877678
21
151.8845418847
31
0.0000000000
0
SPLINE
5
344
100
AcDbEntity
8
DEFAULT_2
100
AcDbSpline
62
8
6
HIDDEN
70
0
71
3
72
9
73
5
74
3
42
0.0000001000
43
0.0000001000
44
0.0000000001
40
0.0000000000
40
0.0000000000
40
0.0000000000
40
0.0000000000
40
0.4999871253
40
1.0000000000
40
1.0000000000
40
1.0000000000
40
1.0000000000
10
324.0015756043
20
138.1345411695
30
0.0000000000
10
324.0018542281
20
138.0928760675
30
0.0000000000
10
324.0023185736
20
138.0095430704
30
0.0000000000
10
324.0025971720
20
137.9262092454
30
0.0000000000
10
324.0026900373
20
137.8845411695
30
0.0000000000
11
324.0015756043
21
138.1345411695
31
0.0000000000
11
324.0022721272
21
138.0095450092
31
0.0000000000
11
324.0026900373
21
137.8845411695
31
0.0000000000
0
SPLINE
5
345
100
AcDbEntity
8
DEFAULT_2
100
AcDbSpline
62
8
6
HIDDEN
70
0
71
3
72
9
73
5
74
3
42
0.0000001000
43
0.0000001000
44
0.0000000001
40
0.0000000000
40
0.0000000000
40
0.0000000000
40
0.0000000000
40
0.4999871253
40
1.0000000000
40
1.0000000000
40
1.0000000000
40
1.0000000000
10
324.0015756043
20
138.7178751386
30
0.0000000000
10
324.0018542281
20
138.7595402406
30
0.0000000000
10
324.0023185736
20
138.8428732377
30
0.0000000000
10
324.0025971720
20
138.9262070627
30
0.0000000000
10
324.0026900373
20
138.9678751386
30
0.0000000000
11
324.0015756043
21
138.7178751386
31
0.0000000000
11
324.0022721272
21
138.8428712989
31
0.0000000000
11
324.0026900373
21
138.9678751386
31
0.0000000000
0
SPLINE
5
346
100
AcDbEntity
8
DEFAULT_2
100
AcDbSpline
62
8
6
HIDDEN
70
0
71
3
72
9
73
5
74
3
42
0.0000001000
43
0.0000001000
44
0.0000000001
40
0.0000000000
40
0.0000000000
40
0.0000000000
40
0.0000000000
40
0.5008484352
40
1.0000000000
40
1.0000000000
40
1.0000000000
40
1.0000000000
10
323.8675638777
20
137.7178751386
30
0.0000000000
10
323.8763220170
20
137.6902908337
30
0.0000000000
10
323.8930133437
20
137.6349598990
30
0.0000000000
10
323.9080772723
20
137.5791636547
30
0.0000000000
10
323.9151819356
20
137.5512091077
30
0.0000000000
11
323.8675638777
21
137.7178751386
31
0.0000000000
11
323.8926334353
21
137.6347492871
31
0.0000000000
11
323.9151819356
21
137.5512091077
31
0.0000000000
0
SPLINE
5
347
100
AcDbEntity
8
DEFAULT_2
100
AcDbSpline
62
8
6
HIDDEN
70
0
71
3
72
9
73
5
74
3
42
0.0000001000
43
0.0000001000
44
0.0000000001
40
0.0000000000
40
0.0000000000
40
0.0000000000
40
0.0000000000
40
0.4990056170
40
1.0000000000
40
1.0000000000
40
1.0000000000
40
1.0000000000
10
323.8298982826
20
137.9678751386
30
0.0000000000
10
323.8365532411
20
137.9263514766
30
0.0000000000
10
323.8494990213
20
137.8430755872
30
0.0000000000
10
323.8616643880
20
137.7596821198
30
0.0000000000
10
323.8675638777
20
137.7178751386
30
0.0000000000
11
323.8298982826
21
137.9678751386
31
0.0000000000
11
323.8492789471
21
137.8432119258
31
0.0000000000
11
323.8675638777
21
137.7178751386
31
0.0000000000
0
SPLINE
5
348
100
AcDbEntity
8
DEFAULT_2
100
AcDbSpline
62
8
6
HIDDEN
70
0
71
3
72
9
73
5
74
3
42
0.0000001000
43
0.0000001000
44
0.0000000001
40
0.0000000000
40
0.0000000000
40
0.0000000000
40
0.0000000000
40
0.4994613782
40
1.0000000000
40
1.0000000000
40
1.0000000000
40
1.0000000000
10
323.8092585955
20
138.2178751386
30
0.0000000000
10
323.8127953550
20
138.1762617474
30
0.0000000000
10
323.8197757084
20
138.0929366159
30
0.0000000000
10
323.8265550896
20
138.0095948931
30
0.0000000000
10
323.8298982826
20
137.9678751386
30
0.0000000000
11
323.8092585955
21
138.2178751386
31
0.0000000000
11
323.8197180540
21
138.0930222385
31
0.0000000000
11
323.8298982826
21
137.9678751386
31
0.0000000000
0
SPLINE
5
349
100
AcDbEntity
8
DEFAULT_2
100
AcDbSpline
62
8
6
HIDDEN
70
0
71
3
72
9
73
5
74
3
42
0.0000001000
43
0.0000001000
44
0.0000000001
40
0.0000000000
40
0.0000000000
40
0.0000000000
40
0.0000000000
40
0.4994613757
40
1.0000000000
40
1.0000000000
40
1.0000000000
40
1.0000000000
10
323.8092585957
20
138.7178751399
30
0.0000000000
10
323.8127953551
20
138.7594885306
30
0.0000000000
10
323.8197757084
20
138.8428136617
30
0.0000000000
10
323.8265550896
20
138.9261553841
30
0.0000000000
10
323.8298982826
20
138.9678751386
30
0.0000000000
11
323.8092585957
21
138.7178751399
31
0.0000000000
11
323.8197180540
21
138.8427280387
31
0.0000000000
11
323.8298982826
21
138.9678751386
31
0.0000000000
0
SPLINE
5
34A
100
AcDbEntity
8
DEFAULT_2
100
AcDbSpline
62
8
6
HIDDEN
70
0
71
3
72
9
73
5
74
3
42
0.0000001000
43
0.0000001000
44
0.0000000001
40
0.0000000000
40
0.0000000000
40
0.0000000000
40
0.0000000000
40
0.4990056126
40
1.0000000000
40
1.0000000000
40
1.0000000000
40
1.0000000000
10
323.8298982830
20
138.9678751408
30
0.0000000000
10
323.8365532413
20
139.0093988021
30
0.0000000000
10
323.8494990214
20
139.0926746907
30
0.0000000000
10
323.8616643880
20
139.1760681574
30
0.0000000000
10
323.8675638777
20
139.2178751386
30
0.0000000000
11
323.8298982830
21
138.9678751408
31
0.0000000000
11
323.8492789471
21
139.0925383514
31
0.0000000000
11
323.8675638777
21
139.2178751386
31
0.0000000000
0
SPLINE
5
34B
100
AcDbEntity
8
DEFAULT_2
100
AcDbSpline
62
8
6
HIDDEN
70
0
71
3
72
9
73
5
74
3
42
0.0000001000
43
0.0000001000
44
0.0000000001
40
0.0000000000
40
0.0000000000
40
0.0000000000
40
0.0000000000
40
0.5008483997
40
1.0000000000
40
1.0000000000
40
1.0000000000
40
1.0000000000
10
323.8675638788
20
139.2178751422
30
0.0000000000
10
323.8763220181
20
139.2454596048
30
0.0000000000
10
323.8930133450
20
139.3007908574
30
0.0000000000
10
323.9080772726
20
139.3565874172
30
0.0000000000
10
323.9151819356
20
139.3845421232
30
0.0000000000
11
323.8675638788
21
139.2178751422
31
0.0000000000
11
323.8926334351
21
139.3010014653
31
0.0000000000
11
323.9151819356
21
139.3845421232
31
0.0000000000
0
SPLINE
5
34C
100
AcDbEntity
8
DEFAULT_2
100
AcDbSpline
62
8
6
HIDDEN
70
0
71
3
72
9
73
5
74
3
42
0.0000001000
43
0.0000001000
44
0.0000000001
40
0.0000000000
40
0.0000000000
40
0.0000000000
40
0.0000000000
40
0.5049809334
40
1.0000000000
40
1.0000000000
40
1.0000000000
40
1.0000000000
10
323.9151819356
20
139.3845421232
30
0.0000000000
10
323.9221438721
20
139.3982385922
30
0.0000000000
10
323.9352665623
20
139.4257047220
30
0.0000000000
10
323.9469493852
20
139.4538153186
30
0.0000000000
10
323.9523495211
20
139.4678751386
30
0.0000000000
11
323.9151819356
21
139.3845421232
31
0.0000000000
11
323.9350301144
21
139.4261426787
31
0.0000000000
11
323.9523495211
21
139.4678751386
31
0.0000000000
0
SPLINE
5
34D
100
AcDbEntity
8
DEFAULT_2
100
AcDbSpline
62
8
6
HIDDEN
70
0
71
3
72
9
73
5
74
3
42
0.0000001000
43
0.0000001000
44
0.0000000001
40
0.0000000000
40
0.0000000000
40
0.0000000000
40
0.0000000000
40
0.5239455556
40
1.0000000000
40
1.0000000000
40
1.0000000000
40
1.0000000000
10
323.9523495211
20
139.4678751386
30
0.0000000000
10
323.9624038586
20
139.4809639118
30
0.0000000000
10
323.9798371743
20
139.5073977713
30
0.0000000000
10
323.9919423204
20
139.5367715938
30
0.0000000000
10
323.9960005184
20
139.5512081540
30
0.0000000000
11
323.9523495211
21
139.4678751386
31
0.0000000000
11
323.9792093917
21
139.5094707937
31
0.0000000000
11
323.9960005184
21
139.5512081540
31
0.0000000000
0
SPLINE
5
34E
100
AcDbEntity
8
DEFAULT_2
100
AcDbSpline
62
8
6
HIDDEN
70
0
71
3
72
9
73
5
74
3
42
0.0000001000
43
0.0000001000
44
0.0000000001
40
0.0000000000
40
0.0000000000
40
0.0000000000
40
0.0000000000
40
0.4998841576
40
1.0000000000
40
1.0000000000
40
1.0000000000
40
1.0000000000
10
323.8675638777
20
142.9678751386
30
0.0000000000
10
323.8879021014
20
143.0502337786
30
0.0000000000
10
323.9241304506
20
143.2161228302
30
0.0000000000
10
323.9512237401
20
143.3837487176
30
0.0000000000
10
323.9624490092
20
143.4678751386
30
0.0000000000
11
323.8675638777
21
142.9678751386
31
0.0000000000
11
323.9218393502
21
143.2165184040
31
0.0000000000
11
323.9624490092
21
143.4678751386
31
0.0000000000
0
SPLINE
5
34F
100
AcDbEntity
8
DEFAULT_2
100
AcDbSpline
62
8
6
HIDDEN
70
0
71
3
72
9
73
5
74
3
42
0.0000001000
43
0.0000001000
44
0.0000000001
40
0.0000000000
40
0.0000000000
40
0.0000000000
40
0.0000000000
40
0.4999943102
40
1.0000000000
40
1.0000000000
40
1.0000000000
40
1.0000000000
10
324.0015756126
20
148.4678751386
30
0.0000000000
10
324.0018542363
20
148.4956518362
30
0.0000000000
10
324.0023185675
20
148.5512068344
30
0.0000000000
10
324.0025971727
20
148.6067630744
30
0.0000000000
10
324.0026900376
20
148.6345416463
30
0.0000000000
11
324.0015756126
21
148.4678751386
31
0.0000000000
11
324.0022721318
21
148.5512065126
31
0.0000000000
11
324.0026900376
21
148.6345416463
31
0.0000000000
0
SPLINE
5
350
100
AcDbEntity
8
DEFAULT_2
100
AcDbSpline
62
8
6
HIDDEN
70
0
71
3
72
9
73
5
74
3
42
0.0000001000
43
0.0000001000
44
0.0000000001
40
0.0000000000
40
0.0000000000
40
0.0000000000
40
0.0000000000
40
0.5001347362
40
1.0000000000
40
1.0000000000
40
1.0000000000
40
1.0000000000
10
323.9859532975
20
148.2178751386
30
0.0000000000
10
323.9900398270
20
148.2594405554
30
0.0000000000
10
323.9967354289
20
148.3427007180
30
0.0000000000
10
324.0004594077
20
148.4261467493
30
0.0000000000
10
324.0015755959
20
148.4678751386
30
0.0000000000
11
323.9859532975
21
148.2178751386
31
0.0000000000
11
323.9959939270
21
148.3427696465
31
0.0000000000
11
324.0015755959
21
148.4678751386
31
0.0000000000
0
SPLINE
5
351
100
AcDbEntity
8
DEFAULT_2
100
AcDbSpline
62
8
6
HIDDEN
70
0
71
3
72
9
73
5
74
3
42
0.0000001000
43
0.0000001000
44
0.0000000001
40
0.0000000000
40
0.0000000000
40
0.0000000000
40
0.0000000000
40
0.5034799447
40
1.0000000000
40
1.0000000000
40
1.0000000000
40
1.0000000000
10
323.9624490092
20
148.1345416463
30
0.0000000000
10
323.9671668725
20
148.1482917997
30
0.0000000000
10
323.9757972691
20
148.1758622646
30
0.0000000000
10
323.9828568752
20
148.2038774611
30
0.0000000000
10
323.9859532975
20
148.2178751386
30
0.0000000000
11
323.9624490092
21
148.1345416463
31
0.0000000000
11
323.9754591528
21
148.1761668879
31
0.0000000000
11
323.9859532975
21
148.2178751386
31
0.0000000000
0
SPLINE
5
352
100
AcDbEntity
8
DEFAULT_2
100
AcDbSpline
62
8
6
HIDDEN
70
0
71
3
72
9
73
5
74
3
42
0.0000001000
43
0.0000001000
44
0.0000000001
40
0.0000000000
40
0.0000000000
40
0.0000000000
40
0.0000000000
40
0.5055555848
40
1.0000000000
40
1.0000000000
40
1.0000000000
40
1.0000000000
10
323.8846111144
20
148.7178751386
30
0.0000000000
10
323.8927125341
20
148.7042007237
30
0.0000000000
10
323.9081131923
20
148.6767769277
30
0.0000000000
10
323.9221488581
20
148.6486281612
30
0.0000000000
10
323.9287223200
20
148.6345416463
30
0.0000000000
11
323.8846111144
21
148.7178751386
31
0.0000000000
11
323.9079354381
21
148.6762869246
31
0.0000000000
11
323.9287223200
21
148.6345416463
31
0.0000000000
0
SPLINE
5
353
100
AcDbEntity
8
DEFAULT_2
100
AcDbSpline
62
8
6
HIDDEN
70
0
71
3
72
9
73
5
74
3
42
0.0000001000
43
0.0000001000
44
0.0000000001
40
0.0000000000
40
0.0000000000
40
0.0000000000
40
0.0000000000
40
0.4996339250
40
1.0000000000
40
1.0000000000
40
1.0000000000
40
1.0000000000
10
323.8493296884
20
148.8845416435
30
0.0000000000
10
323.8555835639
20
148.8568662569
30
0.0000000000
10
323.8677234690
20
148.8013890609
30
0.0000000000
10
323.8791059750
20
148.7457515177
30
0.0000000000
10
323.8846111144
20
148.7178751386
30
0.0000000000
11
323.8493296884
21
148.8845416435
31
0.0000000000
11
323.8675255082
21
148.8013896504
31
0.0000000000
11
323.8846111144
21
148.7178751386
31
0.0000000000
0
SPLINE
5
354
100
AcDbEntity
8
DEFAULT_2
100
AcDbSpline
62
8
6
HIDDEN
70
0
71
3
72
9
73
5
74
3
42
0.0000001000
43
0.0000001000
44
0.0000000001
40
0.0000000000
40
0.0000000000
40
0.0000000000
40
0.0000000000
40
0.4994941381
40
1.0000000000
40
1.0000000000
40
1.0000000000
40
1.0000000000
10
323.8298982827
20
149.1345416452
30
0.0000000000
10
323.8332332156
20
149.0929249687
30
0.0000000000
10
323.8398099367
20
149.0095992860
30
0.0000000000
10
323.8461874327
20
148.9262581190
30
0.0000000000
10
323.8493296878
20
148.8845416463
30
0.0000000000
11
323.8298982827
21
149.1345416452
31
0.0000000000
11
323.8397535773
21
149.0096797253
31
0.0000000000
11
323.8493296878
21
148.8845416463
31
0.0000000000
0
SPLINE
5
355
100
AcDbEntity
8
DEFAULT_2
100
AcDbSpline
62
8
6
HIDDEN
70
0
71
3
72
8
73
4
74
2
42
0.0000001000
43
0.0000001000
44
0.0000000001
40
0.0000000000
40
0.0000000000
40
0.0000000000
40
0.0000000000
40
1.0000000000
40
1.0000000000
40
1.0000000000
40
1.0000000000
10
323.6874877678
20
152.3845418847
30
0.0000000000
10
323.7596947975
20
152.4591981033
30
0.0000000000
10
323.8257819763
20
152.5408872610
30
0.0000000000
10
323.8788662768
20
152.6306971615
30
0.0000000000
11
323.6874877678
21
152.3845418847
31
0.0000000000
11
323.8788662768
21
152.6306971615
31
0.0000000000
0
SPLINE
5
356
100
AcDbEntity
8
DEFAULT_2
100
AcDbSpline
62
8
6
HIDDEN
70
0
71
3
72
8
73
4
74
2
42
0.0000001000
43
0.0000001000
44
0.0000000001
40
0.0000000000
40
0.0000000000
40
0.0000000000
40
0.0000000000
40
1.0000000000
40
1.0000000000
40
1.0000000000
40
1.0000000000
10
323.8788662768
20
152.6306971615
30
0.0000000000
10
323.8865890625
20
152.6437628438
30
0.0000000000
10
323.8940366438
20
152.6570004007
30
0.0000000000
10
323.9011878272
20
152.6704131816
30
0.0000000000
11
323.8788662768
21
152.6306971615
31
0.0000000000
11
323.9011878272
21
152.6704131816
31
0.0000000000
0
SPLINE
5
357
100
AcDbEntity
8
DEFAULT_2
100
AcDbSpline
62
8
6
HIDDEN
70
0
71
3
72
8
73
4
74
2
42
0.0000001000
43
0.0000001000
44
0.0000000001
40
0.0000000000
40
0.0000000000
40
0.0000000000
40
0.0000000000
40
1.0000000000
40
1.0000000000
40
1.0000000000
40
1.0000000000
10
323.9011878272
20
152.6704131816
30
0.0000000000
10
323.9228505320
20
152.7110438149
30
0.0000000000
10
323.9417933892
20
152.7532823632
30
0.0000000000
10
323.9572480240
20
152.7966847252
30
0.0000000000
11
323.9011878272
21
152.6704131816
31
0.0000000000
11
323.9572480240
21
152.7966847252
31
0.0000000000
0
SPLINE
5
358
100
AcDbEntity
8
DEFAULT_2
100
AcDbSpline
62
8
6
HIDDEN
70
0
71
3
72
8
73
4
74
2
42
0.0000001000
43
0.0000001000
44
0.0000000001
40
0.0000000000
40
0.0000000000
40
0.0000000000
40
0.0000000000
40
1.0000000000
40
1.0000000000
40
1.0000000000
40
1.0000000000
10
323.9572480374
20
154.3057322604
30
0.0000000000
10
323.9417934002
20
154.3491346357
30
0.0000000000
10
323.9228505383
20
154.3913731967
30
0.0000000000
10
323.9011878272
20
154.4320038417
30
0.0000000000
11
323.9572480374
21
154.3057322604
31
0.0000000000
11
323.9011878272
21
154.4320038417
31
0.0000000000
0
SPLINE
5
359
100
AcDbEntity
8
DEFAULT_2
100
AcDbSpline
62
8
6
HIDDEN
70
0
71
3
72
8
73
4
74
2
42
0.0000001000
43
0.0000001000
44
0.0000000001
40
0.0000000000
40
0.0000000000
40
0.0000000000
40
0.0000000000
40
1.0000000000
40
1.0000000000
40
1.0000000000
40
1.0000000000
10
323.9011878272
20
154.4320038417
30
0.0000000000
10
323.8940366517
20
154.4454166078
30
0.0000000000
10
323.8865890789
20
154.4586541503
30
0.0000000000
10
323.8788663024
20
154.4717198186
30
0.0000000000
11
323.9011878272
21
154.4320038417
31
0.0000000000
11
323.8788663024
21
154.4717198186
31
0.0000000000
0
SPLINE
5
35A
100
AcDbEntity
8
DEFAULT_2
100
AcDbSpline
62
8
6
HIDDEN
70
0
71
3
72
8
73
4
74
2
42
0.0000001000
43
0.0000001000
44
0.0000000001
40
0.0000000000
40
0.0000000000
40
0.0000000000
40
0.0000000000
40
1.0000000000
40
1.0000000000
40
1.0000000000
40
1.0000000000
10
323.8788663024
20
154.4717198186
30
0.0000000000
10
323.8257819976
20
154.5615297361
30
0.0000000000
10
323.7596948091
20
154.6432189080
30
0.0000000000
10
323.6874877678
20
154.7178751386
30
0.0000000000
11
323.8788663024
21
154.4717198186
31
0.0000000000
11
323.6874877678
21
154.7178751386
31
0.0000000000
0
SPLINE
5
35B
100
AcDbEntity
8
DEFAULT_2
100
AcDbSpline
62
8
6
HIDDEN
70
0
71
3
72
9
73
5
74
3
42
0.0000001000
43
0.0000001000
44
0.0000000001
40
0.0000000000
40
0.0000000000
40
0.0000000000
40
0.0000000000
40
0.5064318057
40
1.0000000000
40
1.0000000000
40
1.0000000000
40
1.0000000000
10
323.8675638777
20
139.7178751386
30
0.0000000000
10
323.8819571721
20
139.7450748249
30
0.0000000000
10
323.9085587069
20
139.7997703147
30
0.0000000000
10
323.9310914374
20
139.8562731377
30
0.0000000000
10
323.9411092868
20
139.8845421232
30
0.0000000000
11
323.8675638777
21
139.7178751386
31
0.0000000000
11
323.9078573595
21
139.8009374287
31
0.0000000000
11
323.9411092868
21
139.8845421232
31
0.0000000000
0
SPLINE
5
35C
100
AcDbEntity
8
DEFAULT_2
100
AcDbSpline
62
8
6
HIDDEN
70
0
71
3
72
8
73
4
74
2
42
0.0000001000
43
0.0000001000
44
0.0000000001
40
0.0000000000
40
0.0000000000
40
0.0000000000
40
0.0000000000
40
1.0000000000
40
1.0000000000
40
1.0000000000
40
1.0000000000
10
323.7873987220
20
139.4678751386
30
0.0000000000
10
323.7973412753
20
139.4955251068
30
0.0000000000
10
323.8069637642
20
139.5232917853
30
0.0000000000
10
323.8162598809
20
139.5511678240
30
0.0000000000
11
323.7873987220
21
139.4678751386
31
0.0000000000
11
323.8162598809
21
139.5511678240
31
0.0000000000
0
SPLINE
5
35D
100
AcDbEntity
8
DEFAULT_2
100
AcDbSpline
62
8
6
HIDDEN
70
0
71
3
72
9
73
5
74
3
42
0.0000001000
43
0.0000001000
44
0.0000000001
40
0.0000000000
40
0.0000000000
40
0.0000000000
40
0.0000000000
40
0.2482402783
40
1.0000000000
40
1.0000000000
40
1.0000000000
40
1.0000000000
10
323.8162598809
20
139.5511678240
30
0.0000000000
10
323.8208262575
20
139.5648609061
30
0.0000000000
10
323.8389040090
20
139.6201278024
30
0.0000000000
10
323.8556916928
20
139.6758087700
30
0.0000000000
10
323.8675638777
20
139.7178751386
30
0.0000000000
11
323.8162598809
21
139.5511678240
31
0.0000000000
11
323.8297220115
21
139.5923253619
31
0.0000000000
11
323.8675638777
21
139.7178751386
31
0.0000000000
0
SPLINE
5
35E
100
AcDbEntity
8
DEFAULT_2
100
AcDbSpline
62
8
6
HIDDEN
70
0
71
3
72
9
73
5
74
3
42
0.0000001000
43
0.0000001000
44
0.0000000001
40
0.0000000000
40
0.0000000000
40
0.0000000000
40
0.0000000000
40
0.4978540480
40
1.0000000000
40
1.0000000000
40
1.0000000000
40
1.0000000000
10
323.7143655643
20
139.0512091081
30
0.0000000000
10
323.7273965221
20
139.1201910585
30
0.0000000000
10
323.7526547719
20
139.2589241960
30
0.0000000000
10
323.7760882414
20
139.3979771648
30
0.0000000000
10
323.7873987220
20
139.4678751386
30
0.0000000000
11
323.7143655643
21
139.0512091081
31
0.0000000000
11
323.7520940784
21
139.2584080396
31
0.0000000000
11
323.7873987220
21
139.4678751386
31
0.0000000000
0
SPLINE
5
35F
100
AcDbEntity
8
DEFAULT_2
100
AcDbSpline
62
8
6
HIDDEN
70
0
71
3
72
8
73
4
74
2
42
0.0000001000
43
0.0000001000
44
0.0000000001
40
0.0000000000
40
0.0000000000
40
0.0000000000
40
0.0000000000
40
1.0000000000
40
1.0000000000
40
1.0000000000
40
1.0000000000
10
323.6874877678
20
138.3012091077
30
0.0000000000
10
323.6897756863
20
138.2665709914
30
0.0000000000
10
323.6920502535
20
138.2319319906
30
0.0000000000
10
323.6943115106
20
138.1972921197
30
0.0000000000
11
323.6874877678
21
138.3012091077
31
0.0000000000
11
323.6943115106
21
138.1972921197
31
0.0000000000
0
SPLINE
5
360
100
AcDbEntity
8
DEFAULT_2
100
AcDbSpline
62
8
6
HIDDEN
70
0
71
3
72
9
73
5
74
3
42
0.0000001000
43
0.0000001000
44
0.0000000001
40
0.0000000000
40
0.0000000000
40
0.0000000000
40
0.0000000000
40
0.3328168385
40
1.0000000000
40
1.0000000000
40
1.0000000000
40
1.0000000000
10
323.6943115106
20
138.1972921197
30
0.0000000000
10
323.6965762803
20
138.1625984388
30
0.0000000000
10
323.7033410165
20
138.0583532511
30
0.0000000000
10
323.7099855870
20
137.9541003123
30
0.0000000000
10
323.7143655642
20
137.8845411695
30
0.0000000000
11
323.6943115106
21
138.1972921197
31
0.0000000000
11
323.7010658061
21
138.0932084726
31
0.0000000000
11
323.7143655642
21
137.8845411695
31
0.0000000000
0
SPLINE
5
361
100
AcDbEntity
8
DEFAULT_2
100
AcDbSpline
62
8
6
HIDDEN
70
0
71
3
72
8
73
4
74
2
42
0.0000001000
43
0.0000001000
44
0.0000000001
40
0.0000000000
40
0.0000000000
40
0.0000000000
40
0.0000000000
40
1.0000000000
40
1.0000000000
40
1.0000000000
40
1.0000000000
10
323.7143655642
20
137.8845411695
30
0.0000000000
10
323.7208671608
20
137.8501236835
30
0.0000000000
10
323.7272552336
20
137.8156845640
30
0.0000000000
10
323.7335302484
20
137.7812247588
30
0.0000000000
11
323.7143655642
21
137.8845411695
31
0.0000000000
11
323.7335302484
21
137.7812247588
31
0.0000000000
0
SPLINE
5
362
100
AcDbEntity
8
DEFAULT_2
100
AcDbSpline
62
8
6
HIDDEN
70
0
71
3
72
9
73
5
74
3
42
0.0000001000
43
0.0000001000
44
0.0000000001
40
0.0000000000
40
0.0000000000
40
0.0000000000
40
0.0000000000
40
0.3319003366
40
1.0000000000
40
1.0000000000
40
1.0000000000
40
1.0000000000
10
323.7335302484
20
137.7812247588
30
0.0000000000
10
323.7398320603
20
137.7466177945
30
0.0000000000
10
323.7584755670
20
137.6422857910
30
0.0000000000
10
323.7760882414
20
137.5377731124
30
0.0000000000
10
323.7873987220
20
137.4678751386
30
0.0000000000
11
323.7335302484
21
137.7812247588
31
0.0000000000
11
323.7520940784
21
137.6773422376
31
0.0000000000
11
323.7873987220
21
137.4678751386
31
0.0000000000
0
SPLINE
5
363
100
AcDbEntity
8
DEFAULT_2
100
AcDbSpline
62
8
6
HIDDEN
70
0
71
3
72
8
73
4
74
2
42
0.0000001000
43
0.0000001000
44
0.0000000001
40
0.0000000000
40
0.0000000000
40
0.0000000000
40
0.0000000000
40
1.0000000000
40
1.0000000000
40
1.0000000000
40
1.0000000000
10
323.7873987220
20
137.4678751386
30
0.0000000000
10
323.7973413886
20
137.4402248554
30
0.0000000000
10
323.8069639835
20
137.4124578592
30
0.0000000000
10
323.8162601987
20
137.3845815004
30
0.0000000000
11
323.7873987220
21
137.4678751386
31
0.0000000000
11
323.8162601987
21
137.3845815004
31
0.0000000000
0
SPLINE
5
364
100
AcDbEntity
8
DEFAULT_2
100
AcDbSpline
62
8
6
HIDDEN
70
0
71
3
72
8
73
4
74
2
42
0.0000001000
43
0.0000001000
44
0.0000000001
40
0.0000000000
40
0.0000000000
40
0.0000000000
40
0.0000000000
40
1.0000000000
40
1.0000000000
40
1.0000000000
40
1.0000000000
10
323.8162601987
20
137.3845815004
30
0.0000000000
10
323.8208264657
20
137.3708887347
30
0.0000000000
10
323.8253139858
20
137.3571695826
30
0.0000000000
10
323.8297220115
20
137.3434249153
30
0.0000000000
11
323.8162601987
21
137.3845815004
31
0.0000000000
11
323.8297220115
21
137.3434249153
31
0.0000000000
0
SPLINE
5
365
100
AcDbEntity
8
DEFAULT_2
100
AcDbSpline
62
8
6
HIDDEN
70
0
71
3
72
8
73
4
74
2
42
0.0000001000
43
0.0000001000
44
0.0000000001
40
0.0000000000
40
0.0000000000
40
0.0000000000
40
0.0000000000
40
1.0000000000
40
1.0000000000
40
1.0000000000
40
1.0000000000
10
323.8297220115
20
137.3434249153
30
0.0000000000
10
323.8363996297
20
137.3226034301
30
0.0000000000
10
323.8428948198
20
137.3017233912
30
0.0000000000
10
323.8492051978
20
137.2807880966
30
0.0000000000
11
323.8297220115
21
137.3434249153
31
0.0000000000
11
323.8492051978
21
137.2807880966
31
0.0000000000
0
SPLINE
5
366
100
AcDbEntity
8
DEFAULT_2
100
AcDbSpline
62
8
6
HIDDEN
70
0
71
3
72
8
73
4
74
2
42
0.0000001000
43
0.0000001000
44
0.0000000001
40
0.0000000000
40
0.0000000000
40
0.0000000000
40
0.0000000000
40
1.0000000000
40
1.0000000000
40
1.0000000000
40
1.0000000000
10
323.8492051978
20
137.2807880966
30
0.0000000000
10
323.8555100383
20
137.2598711729
30
0.0000000000
10
323.8616303909
20
137.2388990905
30
0.0000000000
10
323.8675638777
20
137.2178751386
30
0.0000000000
11
323.8492051978
21
137.2807880966
31
0.0000000000
11
323.8675638777
21
137.2178751386
31
0.0000000000
0
SPLINE
5
367
100
AcDbEntity
8
DEFAULT_2
100
AcDbSpline
62
8
6
HIDDEN
70
0
71
3
72
9
73
5
74
3
42
0.0000001000
43
0.0000001000
44
0.0000000001
40
0.0000000000
40
0.0000000000
40
0.0000000000
40
0.0000000000
40
0.6570676175
40
1.0000000000
40
1.0000000000
40
1.0000000000
40
1.0000000000
10
323.8675638777
20
137.2178751386
30
0.0000000000
10
323.8762408705
20
137.2042106177
30
0.0000000000
10
323.8889812521
20
137.1831146337
30
0.0000000000
10
323.9009355941
20
137.1615680213
30
0.0000000000
10
323.9049375838
20
137.1541269771
30
0.0000000000
11
323.8675638777
21
137.2178751386
31
0.0000000000
11
323.8926440918
21
137.1762930885
31
0.0000000000
11
323.9049375838
21
137.1541269771
31
0.0000000000
0
SPLINE
5
368
100
AcDbEntity
8
DEFAULT_2
100
AcDbSpline
62
8
6
HIDDEN
70
0
71
3
72
8
73
4
74
2
42
0.0000001000
43
0.0000001000
44
0.0000000001
40
0.0000000000
40
0.0000000000
40
0.0000000000
40
0.0000000000
40
1.0000000000
40
1.0000000000
40
1.0000000000
40
1.0000000000
10
323.9049375838
20
137.1541269771
30
0.0000000000
10
323.9084276796
20
137.1476377156
30
0.0000000000
10
323.9118435913
20
137.1411088959
30
0.0000000000
10
323.9151819356
20
137.1345411695
30
0.0000000000
11
323.9049375838
21
137.1541269771
31
0.0000000000
11
323.9151819356
21
137.1345411695
31
0.0000000000
0
SPLINE
5
369
100
AcDbEntity
8
DEFAULT_2
100
AcDbSpline
62
8
6
HIDDEN
70
0
71
3
72
8
73
4
74
2
42
0.0000001000
43
0.0000001000
44
0.0000000001
40
0.0000000000
40
0.0000000000
40
0.0000000000
40
0.0000000000
40
1.0000000000
40
1.0000000000
40
1.0000000000
40
1.0000000000
10
323.9859532975
20
139.0512091077
30
0.0000000000
10
323.9879977355
20
139.0927983113
30
0.0000000000
10
323.9898561732
20
139.1343970723
30
0.0000000000
10
323.9915287611
20
139.1760035136
30
0.0000000000
11
323.9859532975
21
139.0512091077
31
0.0000000000
11
323.9915287611
21
139.1760035136
31
0.0000000000
0
SPLINE
5
36A
100
AcDbEntity
8
DEFAULT_2
100
AcDbSpline
62
8
6
HIDDEN
70
0
71
3
72
8
73
4
74
2
42
0.0000001000
43
0.0000001000
44
0.0000000001
40
0.0000000000
40
0.0000000000
40
0.0000000000
40
0.0000000000
40
1.0000000000
40
1.0000000000
40
1.0000000000
40
1.0000000000
10
323.9915287611
20
139.1760035136
30
0.0000000000
10
323.9932025650
20
139.2176402057
30
0.0000000000
10
323.9946902485
20
139.2592845893
30
0.0000000000
10
323.9959919624
20
139.3009347832
30
0.0000000000
11
323.9915287611
21
139.1760035136
31
0.0000000000
11
323.9959919624
21
139.3009347832
31
0.0000000000
0
SPLINE
5
36B
100
AcDbEntity
8
DEFAULT_2
100
AcDbSpline
62
8
6
HIDDEN
70
0
71
3
72
8
73
4
74
2
42
0.0000001000
43
0.0000001000
44
0.0000000001
40
0.0000000000
40
0.0000000000
40
0.0000000000
40
0.0000000000
40
1.0000000000
40
1.0000000000
40
1.0000000000
40
1.0000000000
10
323.9959919624
20
139.3009347832
30
0.0000000000
10
323.9965323173
20
139.3182242117
30
0.0000000000
10
323.9970406266
20
139.3355146414
30
0.0000000000
10
323.9975168968
20
139.3528059386
30
0.0000000000
11
323.9959919624
21
139.3009347832
31
0.0000000000
11
323.9975168968
21
139.3528059386
31
0.0000000000
0
SPLINE
5
36C
100
AcDbEntity
8
DEFAULT_2
100
AcDbSpline
62
8
6
HIDDEN
70
0
71
3
72
9
73
5
74
3
42
0.0000001000
43
0.0000001000
44
0.0000000001
40
0.0000000000
40
0.0000000000
40
0.0000000000
40
0.0000000000
40
0.6665428699
40
1.0000000000
40
1.0000000000
40
1.0000000000
40
1.0000000000
10
323.9792464908
20
138.6345411695
30
0.0000000000
10
323.9804575918
20
138.7039584718
30
0.0000000000
10
323.9822042367
20
138.8081050036
30
0.0000000000
10
323.9838455067
20
138.9122532315
30
0.0000000000
10
323.9843810911
20
138.9469823803
30
0.0000000000
11
323.9792464908
21
138.6345411695
31
0.0000000000
11
323.9827392033
21
138.8427954818
31
0.0000000000
11
323.9843810911
21
138.9469823803
31
0.0000000000
0
SPLINE
5
36D
100
AcDbEntity
8
DEFAULT_2
100
AcDbSpline
62
8
6
HIDDEN
70
0
71
3
72
8
73
4
74
2
42
0.0000001000
43
0.0000001000
44
0.0000000001
40
0.0000000000
40
0.0000000000
40
0.0000000000
40
0.0000000000
40
1.0000000000
40
1.0000000000
40
1.0000000000
40
1.0000000000
10
323.9843810911
20
138.9469823803
30
0.0000000000
10
323.9848111146
20
138.9748665984
30
0.0000000000
10
323.9852335900
20
139.0027509322
30
0.0000000000
10
323.9856485214
20
139.0306353771
30
0.0000000000
11
323.9843810911
21
138.9469823803
31
0.0000000000
11
323.9856485214
21
139.0306353771
31
0.0000000000
0
SPLINE
5
36E
100
AcDbEntity
8
DEFAULT_2
100
AcDbSpline
62
8
6
HIDDEN
70
0
71
3
72
8
73
4
74
2
42
0.0000001000
43
0.0000001000
44
0.0000000001
40
0.0000000000
40
0.0000000000
40
0.0000000000
40
0.0000000000
40
1.0000000000
40
1.0000000000
40
1.0000000000
40
1.0000000000
10
323.9856485214
20
139.0306353771
30
0.0000000000
10
323.9857505697
20
139.0374932806
30
0.0000000000
10
323.9858521617
20
139.0443511909
30
0.0000000000
10
323.9859532975
20
139.0512091077
30
0.0000000000
11
323.9856485214
21
139.0306353771
31
0.0000000000
11
323.9859532975
21
139.0512091077
31
0.0000000000
0
SPLINE
5
36F
100
AcDbEntity
8
DEFAULT_2
100
AcDbSpline
62
8
6
HIDDEN
70
0
71
3
72
9
73
5
74
3
42
0.0000001000
43
0.0000001000
44
0.0000000001
40
0.0000000000
40
0.0000000000
40
0.0000000000
40
0.0000000000
40
0.6665428699
40
1.0000000000
40
1.0000000000
40
1.0000000000
40
1.0000000000
10
323.9792464908
20
138.2178751386
30
0.0000000000
10
323.9804575918
20
138.1484581541
30
0.0000000000
10
323.9822042367
20
138.0443120990
30
0.0000000000
10
323.9838455067
20
137.9401643478
30
0.0000000000
10
323.9843810911
20
137.9054353580
30
0.0000000000
11
323.9792464908
21
138.2178751386
31
0.0000000000
11
323.9827392033
21
138.0096217796
31
0.0000000000
11
323.9843810911
21
137.9054353580
31
0.0000000000
0
SPLINE
5
370
100
AcDbEntity
8
DEFAULT_2
100
AcDbSpline
62
8
6
HIDDEN
70
0
71
3
72
8
73
4
74
2
42
0.0000001000
43
0.0000001000
44
0.0000000001
40
0.0000000000
40
0.0000000000
40
0.0000000000
40
0.0000000000
40
1.0000000000
40
1.0000000000
40
1.0000000000
40
1.0000000000
10
323.9843810911
20
137.9054353580
30
0.0000000000
10
323.9848111239
20
137.8775506630
30
0.0000000000
10
323.9852336083
20
137.8496658521
30
0.0000000000
10
323.9856485484
20
137.8217809302
30
0.0000000000
11
323.9843810911
21
137.9054353580
31
0.0000000000
11
323.9856485484
21
137.8217809302
31
0.0000000000
0
SPLINE
5
371
100
AcDbEntity
8
DEFAULT_2
100
AcDbSpline
62
8
6
HIDDEN
70
0
71
3
72
8
73
4
74
2
42
0.0000001000
43
0.0000001000
44
0.0000000001
40
0.0000000000
40
0.0000000000
40
0.0000000000
40
0.0000000000
40
1.0000000000
40
1.0000000000
40
1.0000000000
40
1.0000000000
10
323.9856485484
20
137.8217809302
30
0.0000000000
10
323.9857505876
20
137.8149236627
30
0.0000000000
10
323.9858521706
20
137.8080663885
30
0.0000000000
10
323.9859532975
20
137.8012091077
30
0.0000000000
11
323.9856485484
21
137.8217809302
31
0.0000000000
11
323.9859532975
21
137.8012091077
31
0.0000000000
0
SPLINE
5
372
100
AcDbEntity
8
DEFAULT_2
100
AcDbSpline
62
8
6
HIDDEN
70
0
71
3
72
8
73
4
74
2
42
0.0000001000
43
0.0000001000
44
0.0000000001
40
0.0000000000
40
0.0000000000
40
0.0000000000
40
0.0000000000
40
1.0000000000
40
1.0000000000
40
1.0000000000
40
1.0000000000
10
323.9969376947
20
137.4888597463
30
0.0000000000
10
323.9960306669
20
137.5236018079
30
0.0000000000
10
323.9950188350
20
137.5583412121
30
0.0000000000
10
323.9939021336
20
137.5930772458
30
0.0000000000
11
323.9969376947
21
137.4888597463
31
0.0000000000
11
323.9939021336
21
137.5930772458
31
0.0000000000
0
SPLINE
5
373
100
AcDbEntity
8
DEFAULT_2
100
AcDbSpline
62
8
6
HIDDEN
70
0
71
3
72
8
73
4
74
2
42
0.0000001000
43
0.0000001000
44
0.0000000001
40
0.0000000000
40
0.0000000000
40
0.0000000000
40
0.0000000000
40
1.0000000000
40
1.0000000000
40
1.0000000000
40
1.0000000000
10
323.9939021336
20
137.5930772458
30
0.0000000000
10
323.9927862987
20
137.6277863309
30
0.0000000000
10
323.9915657570
20
137.6624920506
30
0.0000000000
10
323.9902404171
20
137.6971936882
30
0.0000000000
11
323.9939021336
21
137.5930772458
31
0.0000000000
11
323.9902404171
21
137.6971936882
31
0.0000000000
0
SPLINE
5
374
100
AcDbEntity
8
DEFAULT_2
100
AcDbSpline
62
8
6
HIDDEN
70
0
71
3
72
8
73
4
74
2
42
0.0000001000
43
0.0000001000
44
0.0000000001
40
0.0000000000
40
0.0000000000
40
0.0000000000
40
0.0000000000
40
1.0000000000
40
1.0000000000
40
1.0000000000
40
1.0000000000
10
323.9902404171
20
137.6971936882
30
0.0000000000
10
323.9889160518
20
137.7318698092
30
0.0000000000
10
323.9874870424
20
137.7665418541
30
0.0000000000
10
323.9859532975
20
137.8012091077
30
0.0000000000
11
323.9902404171
21
137.6971936882
31
0.0000000000
11
323.9859532975
21
137.8012091077
31
0.0000000000
0
SPLINE
5
375
100
AcDbEntity
8
DEFAULT_2
100
AcDbSpline
62
8
6
HIDDEN
70
0
71
3
72
9
73
5
74
3
42
0.0000001000
43
0.0000001000
44
0.0000000001
40
0.0000000000
40
0.0000000000
40
0.0000000000
40
0.0000000000
40
0.4997599120
40
1.0000000000
40
1.0000000000
40
1.0000000000
40
1.0000000000
10
323.6874877678
20
142.9678751386
30
0.0000000000
10
323.7189766431
20
143.0495997297
30
0.0000000000
10
323.7775686762
20
143.2148644902
30
0.0000000000
10
323.8269816899
20
143.3831062063
30
0.0000000000
10
323.8493296878
20
143.4678751386
30
0.0000000000
11
323.6874877678
21
142.9678751386
31
0.0000000000
11
323.7752479901
21
143.2155286584
31
0.0000000000
11
323.8493296878
21
143.4678751386
31
0.0000000000
0
SPLINE
5
376
100
AcDbEntity
8
DEFAULT_2
100
AcDbSpline
62
8
6
HIDDEN
70
0
71
3
72
9
73
5
74
3
42
0.0000001000
43
0.0000001000
44
0.0000000001
40
0.0000000000
40
0.0000000000
40
0.0000000000
40
0.0000000000
40
0.5057992889
40
1.0000000000
40
1.0000000000
40
1.0000000000
40
1.0000000000
10
323.8675638812
20
148.2178751330
30
0.0000000000
10
323.8762408718
20
148.2042106937
30
0.0000000000
10
323.8927914903
20
148.1768057388
30
0.0000000000
10
323.9080156099
20
148.1486403112
30
0.0000000000
10
323.9151819356
20
148.1345416463
30
0.0000000000
11
323.8675638812
21
148.2178751330
31
0.0000000000
11
323.8926440919
21
148.1762933263
31
0.0000000000
11
323.9151819356
21
148.1345416463
31
0.0000000000
0
SPLINE
5
377
100
AcDbEntity
8
DEFAULT_2
100
AcDbSpline
62
8
6
HIDDEN
70
0
71
3
72
9
73
5
74
3
42
0.0000001000
43
0.0000001000
44
0.0000000001
40
0.0000000000
40
0.0000000000
40
0.0000000000
40
0.0000000000
40
0.4998859060
40
1.0000000000
40
1.0000000000
40
1.0000000000
40
1.0000000000
10
323.9915370075
20
148.8845416463
30
0.0000000000
10
323.9923739776
20
148.9261970625
30
0.0000000000
10
323.9939550221
20
149.0095288100
30
0.0000000000
10
323.9953496402
20
149.0928638858
30
0.0000000000
10
323.9960005184
20
149.1345416463
30
0.0000000000
11
323.9915370075
21
148.8845416463
31
0.0000000000
11
323.9939080760
21
149.0095106264
31
0.0000000000
11
323.9960005184
21
149.1345416463
31
0.0000000000
0
SPLINE
5
378
100
AcDbEntity
8
DEFAULT_2
100
AcDbSpline
62
8
6
HIDDEN
70
0
71
3
72
9
73
5
74
3
42
0.0000001000
43
0.0000001000
44
0.0000000001
40
0.0000000000
40
0.0000000000
40
0.0000000000
40
0.0000000000
40
0.5006118046
40
1.0000000000
40
1.0000000000
40
1.0000000000
40
1.0000000000
10
323.7873987229
20
148.4678751361
30
0.0000000000
10
323.8022251907
20
148.4266431355
30
0.0000000000
10
323.8304201613
20
148.3437614876
30
0.0000000000
10
323.8556916928
20
148.2599415072
30
0.0000000000
10
323.8675638777
20
148.2178751386
30
0.0000000000
11
323.7873987229
21
148.4678751361
31
0.0000000000
11
323.8297220115
21
148.3434249153
31
0.0000000000
11
323.8675638777
21
148.2178751386
31
0.0000000000
0
SPLINE
5
379
100
AcDbEntity
8
DEFAULT_2
100
AcDbSpline
62
8
6
HIDDEN
70
0
71
3
72
8
73
4
74
2
42
0.0000001000
43
0.0000001000
44
0.0000000001
40
0.0000000000
40
0.0000000000
40
0.0000000000
40
0.0000000000
40
1.0000000000
40
1.0000000000
40
1.0000000000
40
1.0000000000
10
323.7143655642
20
148.8012086309
30
0.0000000000
10
323.7274591309
20
148.7457578137
30
0.0000000000
10
323.7401010784
20
148.6901994096
30
0.0000000000
10
323.7522927464
20
148.6345423909
30
0.0000000000
11
323.7143655642
21
148.8012086309
31
0.0000000000
11
323.7522927464
21
148.6345423909
31
0.0000000000
0
SPLINE
5
37A
100
AcDbEntity
8
DEFAULT_2
100
AcDbSpline
62
8
6
HIDDEN
70
0
71
3
72
8
73
4
74
2
42
0.0000001000
43
0.0000001000
44
0.0000000001
40
0.0000000000
40
0.0000000000
40
0.0000000000
40
0.0000000000
40
1.0000000000
40
1.0000000000
40
1.0000000000
40
1.0000000000
10
323.7522927464
20
148.6345423909
30
0.0000000000
10
323.7644414171
20
148.5790816618
30
0.0000000000
10
323.7761429786
20
148.5235230116
30
0.0000000000
10
323.7873987220
20
148.4678751386
30
0.0000000000
11
323.7522927464
21
148.6345423909
31
0.0000000000
11
323.7873987220
21
148.4678751386
31
0.0000000000
0
SPLINE
5
37B
100
AcDbEntity
8
DEFAULT_2
100
AcDbSpline
62
8
6
HIDDEN
70
0
71
3
72
8
73
4
74
2
42
0.0000001000
43
0.0000001000
44
0.0000000001
40
0.0000000000
40
0.0000000000
40
0.0000000000
40
0.0000000000
40
1.0000000000
40
1.0000000000
40
1.0000000000
40
1.0000000000
10
323.9792464908
20
148.7178751386
30
0.0000000000
10
323.9804563577
20
148.7317443959
30
0.0000000000
10
323.9816197770
20
148.7456177834
30
0.0000000000
10
323.9827367168
20
148.7594949511
30
0.0000000000
11
323.9792464908
21
148.7178751386
31
0.0000000000
11
323.9827367168
21
148.7594949511
31
0.0000000000
0
SPLINE
5
37C
100
AcDbEntity
8
DEFAULT_2
100
AcDbSpline
62
8
6
HIDDEN
70
0
71
3
72
8
73
4
74
2
42
0.0000001000
43
0.0000001000
44
0.0000000001
40
0.0000000000
40
0.0000000000
40
0.0000000000
40
0.0000000000
40
1.0000000000
40
1.0000000000
40
1.0000000000
40
1.0000000000
10
323.9827367168
20
148.7594949511
30
0.0000000000
10
323.9838538850
20
148.7733749561
30
0.0000000000
10
323.9849245546
20
148.7872587429
30
0.0000000000
10
323.9859486937
20
148.8011459613
30
0.0000000000
11
323.9827367168
21
148.7594949511
31
0.0000000000
11
323.9859486937
21
148.8011459613
31
0.0000000000
0
SPLINE
5
37D
100
AcDbEntity
8
DEFAULT_2
100
AcDbSpline
62
8
6
HIDDEN
70
0
71
3
72
8
73
4
74
2
42
0.0000001000
43
0.0000001000
44
0.0000000001
40
0.0000000000
40
0.0000000000
40
0.0000000000
40
0.0000000000
40
1.0000000000
40
1.0000000000
40
1.0000000000
40
1.0000000000
10
323.9859486937
20
148.8011459613
30
0.0000000000
10
323.9879978068
20
148.8289317223
30
0.0000000000
10
323.9898606457
20
148.8567312209
30
0.0000000000
10
323.9915370075
20
148.8845416463
30
0.0000000000
11
323.9859486937
21
148.8011459613
31
0.0000000000
11
323.9915370075
21
148.8845416463
31
0.0000000000
0
SPLINE
5
37E
100
AcDbEntity
8
DEFAULT_2
100
AcDbSpline
62
8
6
HIDDEN
70
0
71
3
72
8
73
4
74
2
42
0.0000001000
43
0.0000001000
44
0.0000000001
40
0.0000000000
40
0.0000000000
40
0.0000000000
40
0.0000000000
40
1.0000000000
40
1.0000000000
40
1.0000000000
40
1.0000000000
10
323.9523495211
20
148.6345416463
30
0.0000000000
10
323.9576250838
20
148.6482772183
30
0.0000000000
10
323.9625368961
20
148.6621556347
30
0.0000000000
10
323.9670573240
20
148.6761608490
30
0.0000000000
11
323.9523495211
21
148.6345416463
31
0.0000000000
11
323.9670573240
21
148.6761608490
31
0.0000000000
0
SPLINE
5
37F
100
AcDbEntity
8
DEFAULT_2
100
AcDbSpline
62
8
6
HIDDEN
70
0
71
3
72
8
73
4
74
2
42
0.0000001000
43
0.0000001000
44
0.0000000001
40
0.0000000000
40
0.0000000000
40
0.0000000000
40
0.0000000000
40
1.0000000000
40
1.0000000000
40
1.0000000000
40
1.0000000000
10
323.9670573240
20
148.6761608490
30
0.0000000000
10
323.9692903329
20
148.6830791694
30
0.0000000000
10
323.9714278370
20
148.6900284308
30
0.0000000000
10
323.9734667773
20
148.6970060961
30
0.0000000000
11
323.9670573240
21
148.6761608490
31
0.0000000000
11
323.9734667773
21
148.6970060961
31
0.0000000000
0
SPLINE
5
380
100
AcDbEntity
8
DEFAULT_2
100
AcDbSpline
62
8
6
HIDDEN
70
0
71
3
72
8
73
4
74
2
42
0.0000001000
43
0.0000001000
44
0.0000000001
40
0.0000000000
40
0.0000000000
40
0.0000000000
40
0.0000000000
40
1.0000000000
40
1.0000000000
40
1.0000000000
40
1.0000000000
10
323.9734667773
20
148.6970060961
30
0.0000000000
10
323.9754915453
20
148.7039352613
30
0.0000000000
10
323.9774191150
20
148.7108924369
30
0.0000000000
10
323.9792464908
20
148.7178751386
30
0.0000000000
11
323.9734667773
21
148.6970060961
31
0.0000000000
11
323.9792464908
21
148.7178751386
31
0.0000000000
0
SPLINE
5
381
100
AcDbEntity
8
0
100
AcDbSpline
62
7
6
CONTINUOUS
70
0
71
3
72
8
73
4
74
2
42
0.0000001000
43
0.0000001000
44
0.0000000001
40
0.0000000000
40
0.0000000000
40
0.0000000000
40
0.0000000000
40
1.0000000000
40
1.0000000000
40
1.0000000000
40
1.0000000000
10
323.6874877678
20
153.2178751386
30
0.0000000000
10
323.7581898405
20
153.1449971145
30
0.0000000000
10
323.8233855404
20
153.0652860623
30
0.0000000000
10
323.8759179610
20
152.9777979648
30
0.0000000000
11
323.6874877678
21
153.2178751386
31
0.0000000000
11
323.8759179610
21
152.9777979648
31
0.0000000000
0
SPLINE
5
382
100
AcDbEntity
8
0
100
AcDbSpline
62
7
6
CONTINUOUS
70
0
71
3
72
9
73
5
74
3
42
0.0000001000
43
0.0000001000
44
0.0000000001
40
0.0000000000
40
0.0000000000
40
0.0000000000
40
0.0000000000
40
0.2234858218
40
1.0000000000
40
1.0000000000
40
1.0000000000
40
1.0000000000
10
323.8759179610
20
152.9777979648
30
0.0000000000
10
323.8931501772
20
152.9490992337
30
0.0000000000
10
323.9641596025
20
152.8169406468
30
0.0000000000
10
324.0028293294
20
152.6673600026
30
0.0000000000
10
324.0028293294
20
152.5512085117
30
0.0000000000
11
323.8759179610
21
152.9777979648
31
0.0000000000
11
323.9232741410
21
152.8891579323
31
0.0000000000
11
324.0028293294
21
152.5512085117
31
0.0000000000
0
SPLINE
5
383
100
AcDbEntity
8
0
100
AcDbSpline
62
7
6
CONTINUOUS
70
0
71
3
72
9
73
5
74
3
42
0.0000001000
43
0.0000001000
44
0.0000000001
40
0.0000000000
40
0.0000000000
40
0.0000000000
40
0.0000000000
40
0.6594934426
40
1.0000000000
40
1.0000000000
40
1.0000000000
40
1.0000000000
10
323.9572480240
20
152.7966847252
30
0.0000000000
10
323.9765864356
20
152.8509941767
30
0.0000000000
10
323.9976278978
20
152.9361075325
30
0.0000000000
10
324.0026504492
20
153.0234100852
30
0.0000000000
10
324.0025707374
20
153.0531637165
30
0.0000000000
11
323.9572480240
21
152.7966847252
31
0.0000000000
11
323.9973727178
21
152.9642097277
31
0.0000000000
11
324.0025707374
21
153.0531637165
31
0.0000000000
0
SPLINE
5
384
100
AcDbEntity
8
0
100
AcDbSpline
62
7
6
CONTINUOUS
70
0
71
3
72
9
73
5
74
3
42
0.0000001000
43
0.0000001000
44
0.0000000001
40
0.0000000000
40
0.0000000000
40
0.0000000000
40
0.0000000000
40
0.3333432784
40
1.0000000000
40
1.0000000000
40
1.0000000000
40
1.0000000000
10
324.0028293262
20
137.8220400978
30
0.0000000000
10
324.0028293226
20
137.8012056411
30
0.0000000000
10
324.0026900143
20
137.7387040580
30
0.0000000000
10
324.0021328687
20
137.6762043369
30
0.0000000000
10
324.0015756469
20
137.6345411695
30
0.0000000000
11
324.0028293262
21
137.8220400978
31
0.0000000000
11
324.0026900185
21
137.7595368827
31
0.0000000000
11
324.0015756469
21
137.6345411695
31
0.0000000000
0
SPLINE
5
385
100
AcDbEntity
8
0
100
AcDbSpline
62
7
6
CONTINUOUS
70
0
71
3
72
9
73
5
74
3
42
0.0000001000
43
0.0000001000
44
0.0000000001
40
0.0000000000
40
0.0000000000
40
0.0000000000
40
0.0000000000
40
0.3333432784
40
1.0000000000
40
1.0000000000
40
1.0000000000
40
1.0000000000
10
324.0028293262
20
139.0303762103
30
0.0000000000
10
324.0028293226
20
139.0512106670
30
0.0000000000
10
324.0026900143
20
139.1137122501
30
0.0000000000
10
324.0021328687
20
139.1762119712
30
0.0000000000
10
324.0015756469
20
139.2178751386
30
0.0000000000
11
324.0028293262
21
139.0303762103
31
0.0000000000
11
324.0026900185
21
139.0928794254
31
0.0000000000
11
324.0015756469
21
139.2178751386
31
0.0000000000
0
SPLINE
5
386
100
AcDbEntity
8
0
100
AcDbSpline
62
7
6
CONTINUOUS
70
0
71
3
72
9
73
5
74
3
42
0.0000001000
43
0.0000001000
44
0.0000000001
40
0.0000000000
40
0.0000000000
40
0.0000000000
40
0.0000000000
40
0.3999261117
40
1.0000000000
40
1.0000000000
40
1.0000000000
40
1.0000000000
10
324.0028292979
20
137.1762066049
30
0.0000000000
10
324.0028292684
20
137.2039844588
30
0.0000000000
10
324.0023648120
20
137.2734427002
30
0.0000000000
10
324.0007399941
20
137.3428854339
30
0.0000000000
10
323.9993467100
20
137.3845411695
30
0.0000000000
11
324.0028292979
21
137.1762066049
31
0.0000000000
11
324.0022721826
21
137.2595383073
31
0.0000000000
11
323.9993467100
21
137.3845411695
31
0.0000000000
0
SPLINE
5
387
100
AcDbEntity
8
0
100
AcDbSpline
62
7
6
CONTINUOUS
70
0
71
3
72
9
73
5
74
3
42
0.0000001000
43
0.0000001000
44
0.0000000001
40
0.0000000000
40
0.0000000000
40
0.0000000000
40
0.0000000000
40
0.3405066094
40
1.0000000000
40
1.0000000000
40
1.0000000000
40
1.0000000000
10
324.0025707374
20
154.0492533068
30
0.0000000000
10
324.0026504492
20
154.0790069381
30
0.0000000000
10
323.9976278985
20
154.1663094775
30
0.0000000000
10
323.9765864420
20
154.2514228207
30
0.0000000000
10
323.9572480374
20
154.3057322604
30
0.0000000000
11
324.0025707374
21
154.0492533068
31
0.0000000000
11
323.9973727178
21
154.1382072957
31
0.0000000000
11
323.9572480374
21
154.3057322604
31
0.0000000000
0
SPLINE
5
388
100
AcDbEntity
8
0
100
AcDbSpline
62
7
6
CONTINUOUS
70
0
71
3
72
9
73
5
74
3
42
0.0000001000
43
0.0000001000
44
0.0000000001
40
0.0000000000
40
0.0000000000
40
0.0000000000
40
0.0000000000
40
0.7765143167
40
1.0000000000
40
1.0000000000
40
1.0000000000
40
1.0000000000
10
324.0028293294
20
154.5512084521
30
0.0000000000
10
324.0028293294
20
154.4350569512
30
0.0000000000
10
323.9641596102
20
154.2854763210
30
0.0000000000
10
323.8931502020
20
154.1533177408
30
0.0000000000
10
323.8759180014
20
154.1246190282
30
0.0000000000
11
324.0028293294
21
154.5512084521
31
0.0000000000
11
323.9232741410
21
154.2132590011
31
0.0000000000
11
323.8759180014
21
154.1246190282
31
0.0000000000
0
SPLINE
5
389
100
AcDbEntity
8
0
100
AcDbSpline
62
7
6
CONTINUOUS
70
0
71
3
72
8
73
4
74
2
42
0.0000001000
43
0.0000001000
44
0.0000000001
40
0.0000000000
40
0.0000000000
40
0.0000000000
40
0.0000000000
40
1.0000000000
40
1.0000000000
40
1.0000000000
40
1.0000000000
10
323.8759180014
20
154.1246190282
30
0.0000000000
10
323.8233855743
20
154.0371308974
30
0.0000000000
10
323.7581898593
20
153.9574198155
30
0.0000000000
10
323.6874877678
20
153.8845417655
30
0.0000000000
11
323.8759180014
21
154.1246190282
31
0.0000000000
11
323.6874877678
21
153.8845417655
31
0.0000000000
0
SPLINE
5
38A
100
AcDbEntity
8
0
100
AcDbSpline
62
7
6
CONTINUOUS
70
0
71
3
72
9
73
5
74
3
42
0.0000001000
43
0.0000001000
44
0.0000000001
40
0.0000000000
40
0.0000000000
40
0.0000000000
40
0.0000000000
40
0.5000578214
40
1.0000000000
40
1.0000000000
40
1.0000000000
40
1.0000000000
10
324.0015755959
20
137.6345411695
30
0.0000000000
10
324.0010180509
20
137.6067497173
30
0.0000000000
10
323.9995312362
20
137.5511800776
30
0.0000000000
10
323.9973011081
20
137.4956353044
30
0.0000000000
10
323.9960005184
20
137.4678751386
30
0.0000000000
11
324.0015755959
21
137.6345411695
31
0.0000000000
11
323.9993451929
21
137.5511798694
31
0.0000000000
11
323.9960005184
21
137.4678751386
31
0.0000000000
0
SPLINE
5
38B
100
AcDbEntity
8
0
100
AcDbSpline
62
7
6
CONTINUOUS
70
0
71
3
72
9
73
5
74
3
42
0.0000001000
43
0.0000001000
44
0.0000000001
40
0.0000000000
40
0.0000000000
40
0.0000000000
40
0.0000000000
40
0.5000578231
40
1.0000000000
40
1.0000000000
40
1.0000000000
40
1.0000000000
10
324.0015755959
20
139.2178751386
30
0.0000000000
10
324.0010180509
20
139.2456667498
30
0.0000000000
10
323.9995312362
20
139.3012367073
30
0.0000000000
10
323.9973011081
20
139.3567817985
30
0.0000000000
10
323.9960005184
20
139.3845421232
30
0.0000000000
11
324.0015755959
21
139.2178751386
31
0.0000000000
11
323.9993451929
21
139.3012369157
31
0.0000000000
11
323.9960005184
21
139.3845421232
31
0.0000000000
0
SPLINE
5
38C
100
AcDbEntity
8
0
100
AcDbSpline
62
7
6
CONTINUOUS
70
0
71
3
72
9
73
5
74
3
42
0.0000001000
43
0.0000001000
44
0.0000000001
40
0.0000000000
40
0.0000000000
40
0.0000000000
40
0.0000000000
40
0.4974305706
40
1.0000000000
40
1.0000000000
40
1.0000000000
40
1.0000000000
10
323.9960005184
20
139.3845421232
30
0.0000000000
10
323.9940380237
20
139.3985048033
30
0.0000000000
10
323.9892557780
20
139.4264627660
30
0.0000000000
10
323.9828531196
20
139.4540936697
30
0.0000000000
10
323.9792464806
20
139.4678751386
30
0.0000000000
11
323.9960005184
21
139.3845421232
31
0.0000000000
11
323.9888794029
21
139.4262381674
31
0.0000000000
11
323.9792464806
21
139.4678751386
31
0.0000000000
0
SPLINE
5
38D
100
AcDbEntity
8
0
100
AcDbSpline
62
7
6
CONTINUOUS
70
0
71
3
72
9
73
5
74
3
42
0.0000001000
43
0.0000001000
44
0.0000000001
40
0.0000000000
40
0.0000000000
40
0.0000000000
40
0.0000000000
40
0.4974306356
40
1.0000000000
40
1.0000000000
40
1.0000000000
40
1.0000000000
10
323.9960005184
20
137.4678751386
30
0.0000000000
10
323.9940380239
20
137.4539123001
30
0.0000000000
10
323.9892557790
20
137.4259540214
30
0.0000000000
10
323.9828531201
20
137.3983227982
30
0.0000000000
10
323.9792464806
20
137.3845411695
30
0.0000000000
11
323.9960005184
21
137.4678751386
31
0.0000000000
11
323.9888794029
21
137.4261786171
31
0.0000000000
11
323.9792464806
21
137.3845411695
31
0.0000000000
0
SPLINE
5
38E
100
AcDbEntity
8
0
100
AcDbSpline
62
7
6
CONTINUOUS
70
0
71
3
72
9
73
5
74
3
42
0.0000001000
43
0.0000001000
44
0.0000000001
40
0.0000000000
40
0.0000000000
40
0.0000000000
40
0.0000000000
40
0.4935681104
40
1.0000000000
40
1.0000000000
40
1.0000000000
40
1.0000000000
10
323.9411092702
20
136.9678751386
30
0.0000000000
10
323.9310914227
20
136.9961439650
30
0.0000000000
10
323.9085586963
20
137.0526464726
30
0.0000000000
10
323.8819571761
20
137.1073416419
30
0.0000000000
10
323.8675638900
20
137.1345411695
30
0.0000000000
11
323.9411092702
21
136.9678751386
31
0.0000000000
11
323.9078573556
21
137.0514793521
31
0.0000000000
11
323.8675638900
21
137.1345411695
31
0.0000000000
0
SPLINE
5
38F
100
AcDbEntity
8
0
100
AcDbSpline
62
7
6
CONTINUOUS
70
0
71
3
72
9
73
5
74
3
42
0.0000001000
43
0.0000001000
44
0.0000000001
40
0.0000000000
40
0.0000000000
40
0.0000000000
40
0.0000000000
40
0.4993882031
40
1.0000000000
40
1.0000000000
40
1.0000000000
40
1.0000000000
10
323.8675638900
20
137.1345411695
30
0.0000000000
10
323.8556917043
20
137.1766075392
30
0.0000000000
10
323.8304201713
20
137.2604275206
30
0.0000000000
10
323.8022251986
20
137.3433091692
30
0.0000000000
10
323.7873987298
20
137.3845411695
30
0.0000000000
11
323.8675638900
21
137.1345411695
31
0.0000000000
11
323.8297220209
21
137.2600909495
31
0.0000000000
11
323.7873987298
21
137.3845411695
31
0.0000000000
0
SPLINE
5
390
100
AcDbEntity
8
0
100
AcDbSpline
62
7
6
CONTINUOUS
70
0
71
3
72
9
73
5
74
3
42
0.0000001000
43
0.0000001000
44
0.0000000001
40
0.0000000000
40
0.0000000000
40
0.0000000000
40
0.0000000000
40
0.5021460088
40
1.0000000000
40
1.0000000000
40
1.0000000000
40
1.0000000000
10
323.7873987298
20
137.3845411695
30
0.0000000000
10
323.7760882474
20
137.4544394699
30
0.0000000000
10
323.7526547764
20
137.5934930740
30
0.0000000000
10
323.7273965242
20
137.7322268480
30
0.0000000000
10
323.7143655665
20
137.8012091077
30
0.0000000000
11
323.7873987298
21
137.3845411695
31
0.0000000000
11
323.7520940798
21
137.5940092492
31
0.0000000000
11
323.7143655665
21
137.8012091077
31
0.0000000000
0
SPLINE
5
391
100
AcDbEntity
8
0
100
AcDbSpline
62
7
6
CONTINUOUS
70
0
71
3
72
9
73
5
74
3
42
0.0000001000
43
0.0000001000
44
0.0000000001
40
0.0000000000
40
0.0000000000
40
0.0000000000
40
0.0000000000
40
0.5007752319
40
1.0000000000
40
1.0000000000
40
1.0000000000
40
1.0000000000
10
323.7143655665
20
137.8012091077
30
0.0000000000
10
323.7099855889
20
137.8707679322
30
0.0000000000
10
323.7011330227
20
138.0096635534
30
0.0000000000
10
323.6920671592
20
138.1485454161
30
0.0000000000
10
323.6874877678
20
138.2178751386
30
0.0000000000
11
323.7143655665
21
137.8012091077
31
0.0000000000
11
323.7010658073
21
138.0098754557
31
0.0000000000
11
323.6874877678
21
138.2178751386
31
0.0000000000
0
SPLINE
5
392
100
AcDbEntity
8
0
100
AcDbSpline
62
7
6
CONTINUOUS
70
0
71
3
72
9
73
5
74
3
42
0.0000001000
43
0.0000001000
44
0.0000000001
40
0.0000000000
40
0.0000000000
40
0.0000000000
40
0.0000000000
40
0.5007752322
40
1.0000000000
40
1.0000000000
40
1.0000000000
40
1.0000000000
10
323.7143655665
20
139.0512091077
30
0.0000000000
10
323.7099855889
20
138.9816499648
30
0.0000000000
10
323.7011330227
20
138.8427537079
30
0.0000000000
10
323.6920671592
20
138.7038712094
30
0.0000000000
10
323.6874877678
20
138.6345411695
30
0.0000000000
11
323.7143655665
21
139.0512091077
31
0.0000000000
11
323.7010658073
21
138.8425418045
31
0.0000000000
11
323.6874877678
21
138.6345411695
31
0.0000000000
0
SPLINE
5
393
100
AcDbEntity
8
0
100
AcDbSpline
62
7
6
CONTINUOUS
70
0
71
3
72
9
73
5
74
3
42
0.0000001000
43
0.0000001000
44
0.0000000001
40
0.0000000000
40
0.0000000000
40
0.0000000000
40
0.0000000000
40
0.5021460002
40
1.0000000000
40
1.0000000000
40
1.0000000000
40
1.0000000000
10
323.7873987298
20
139.4678751386
30
0.0000000000
10
323.7760882474
20
139.3979771580
30
0.0000000000
10
323.7526547761
20
139.2589241890
30
0.0000000000
10
323.7273965242
20
139.1201910514
30
0.0000000000
10
323.7143655665
20
139.0512091077
30
0.0000000000
11
323.7873987298
21
139.4678751386
31
0.0000000000
11
323.7520940801
21
139.2584080193
31
0.0000000000
11
323.7143655665
21
139.0512091077
31
0.0000000000
0
SPLINE
5
394
100
AcDbEntity
8
0
100
AcDbSpline
62
7
6
CONTINUOUS
70
0
71
3
72
9
73
5
74
3
42
0.0000001000
43
0.0000001000
44
0.0000000001
40
0.0000000000
40
0.0000000000
40
0.0000000000
40
0.0000000000
40
0.4993882031
40
1.0000000000
40
1.0000000000
40
1.0000000000
40
1.0000000000
10
323.8675638900
20
139.7178751386
30
0.0000000000
10
323.8556917043
20
139.6758087688
30
0.0000000000
10
323.8304201713
20
139.5919887875
30
0.0000000000
10
323.8022251986
20
139.5091071389
30
0.0000000000
10
323.7873987298
20
139.4678751386
30
0.0000000000
11
323.8675638900
21
139.7178751386
31
0.0000000000
11
323.8297220209
21
139.5923253586
31
0.0000000000
11
323.7873987298
21
139.4678751386
31
0.0000000000
0
SPLINE
5
395
100
AcDbEntity
8
0
100
AcDbSpline
62
7
6
CONTINUOUS
70
0
71
3
72
9
73
5
74
3
42
0.0000001000
43
0.0000001000
44
0.0000000001
40
0.0000000000
40
0.0000000000
40
0.0000000000
40
0.0000000000
40
0.4935681897
40
1.0000000000
40
1.0000000000
40
1.0000000000
40
1.0000000000
10
323.9411092702
20
139.8845421232
30
0.0000000000
10
323.9310914241
20
139.8562731389
30
0.0000000000
10
323.9085587020
20
139.7997703169
30
0.0000000000
10
323.8819571784
20
139.7450748261
30
0.0000000000
10
323.8675638900
20
139.7178751386
30
0.0000000000
11
323.9411092702
21
139.8845421232
31
0.0000000000
11
323.9078573554
21
139.8009374309
31
0.0000000000
11
323.8675638900
21
139.7178751386
31
0.0000000000
0
SPLINE
5
396
100
AcDbEntity
8
0
100
AcDbSpline
62
7
6
CONTINUOUS
70
0
71
3
72
9
73
5
74
3
42
0.0000001000
43
0.0000001000
44
0.0000000001
40
0.0000000000
40
0.0000000000
40
0.0000000000
40
0.0000000000
40
0.4634275496
40
1.0000000000
40
1.0000000000
40
1.0000000000
40
1.0000000000
10
323.9960005184
20
139.9678751386
30
0.0000000000
10
323.9911646530
20
139.9531296958
30
0.0000000000
10
323.9756421161
20
139.9229314884
30
0.0000000000
10
323.9537647289
20
139.8972963224
30
0.0000000000
10
323.9411092702
20
139.8845421232
30
0.0000000000
11
323.9960005184
21
139.9678751386
31
0.0000000000
11
323.9754127105
21
139.9261203153
31
0.0000000000
11
323.9411092702
21
139.8845421232
31
0.0000000000
0
SPLINE
5
397
100
AcDbEntity
8
0
100
AcDbSpline
62
7
6
CONTINUOUS
70
0
71
3
72
8
73
4
74
2
42
0.0000001000
43
0.0000001000
44
0.0000000001
40
0.0000000000
40
0.0000000000
40
0.0000000000
40
0.0000000000
40
1.0000000000
40
1.0000000000
40
1.0000000000
40
1.0000000000
10
323.9975168968
20
139.3528059386
30
0.0000000000
10
323.9981888973
20
139.3772033525
30
0.0000000000
10
323.9987971138
20
139.4016024936
30
0.0000000000
10
323.9993415646
20
139.4260029865
30
0.0000000000
11
323.9975168968
21
139.3528059386
31
0.0000000000
11
323.9993415646
21
139.4260029865
31
0.0000000000
0
SPLINE
5
398
100
AcDbEntity
8
0
100
AcDbSpline
62
7
6
CONTINUOUS
70
0
71
3
72
8
73
4
74
2
42
0.0000001000
43
0.0000001000
44
0.0000000001
40
0.0000000000
40
0.0000000000
40
0.0000000000
40
0.0000000000
40
1.0000000000
40
1.0000000000
40
1.0000000000
40
1.0000000000
10
323.9993415646
20
139.4260029865
30
0.0000000000
10
324.0002727293
20
139.4677347145
30
0.0000000000
10
324.0010173754
20
139.5094703964
30
0.0000000000
10
324.0015755959
20
139.5512081540
30
0.0000000000
11
323.9993415646
21
139.4260029865
31
0.0000000000
11
324.0015755959
21
139.5512081540
31
0.0000000000
0
SPLINE
5
399
100
AcDbEntity
8
0
100
AcDbSpline
62
7
6
CONTINUOUS
70
0
71
3
72
8
73
4
74
2
42
0.0000001000
43
0.0000001000
44
0.0000000001
40
0.0000000000
40
0.0000000000
40
0.0000000000
40
0.0000000000
40
1.0000000000
40
1.0000000000
40
1.0000000000
40
1.0000000000
10
323.9993461390
20
137.3845411695
30
0.0000000000
10
323.9986482562
20
137.4193162133
30
0.0000000000
10
323.9978454632
20
137.4540893106
30
0.0000000000
10
323.9969376947
20
137.4888597463
30
0.0000000000
11
323.9993461390
21
137.3845411695
31
0.0000000000
11
323.9969376947
21
137.4888597463
31
0.0000000000
0
SPLINE
5
39A
100
AcDbEntity
8
0
100
AcDbSpline
62
7
6
CONTINUOUS
70
0
71
3
72
9
73
5
74
3
42
0.0000001000
43
0.0000001000
44
0.0000000001
40
0.0000000000
40
0.0000000000
40
0.0000000000
40
0.0000000000
40
0.4965200446
40
1.0000000000
40
1.0000000000
40
1.0000000000
40
1.0000000000
10
323.9859532975
20
148.7178751386
30
0.0000000000
10
323.9828568737
20
148.7038774612
30
0.0000000000
10
323.9757972638
20
148.6758622643
30
0.0000000000
10
323.9671668622
20
148.6482917997
30
0.0000000000
10
323.9624489959
20
148.6345416463
30
0.0000000000
11
323.9859532975
21
148.7178751386
31
0.0000000000
11
323.9754591474
21
148.6761668884
31
0.0000000000
11
323.9624489959
21
148.6345416463
31
0.0000000000
0
SPLINE
5
39B
100
AcDbEntity
8
0
100
AcDbSpline
62
7
6
CONTINUOUS
70
0
71
3
72
9
73
5
74
3
42
0.0000001000
43
0.0000001000
44
0.0000000001
40
0.0000000000
40
0.0000000000
40
0.0000000000
40
0.0000000000
40
0.5001042055
40
1.0000000000
40
1.0000000000
40
1.0000000000
40
1.0000000000
10
323.9960005184
20
148.8845416463
30
0.0000000000
10
323.9946978739
20
148.8567375418
30
0.0000000000
10
323.9917206633
20
148.8011577448
30
0.0000000000
10
323.9879993215
20
148.7456228103
30
0.0000000000
10
323.9859532975
20
148.7178751386
30
0.0000000000
11
323.9960005184
21
148.8845416463
31
0.0000000000
11
323.9915339325
21
148.8011573817
31
0.0000000000
11
323.9859532975
21
148.7178751386
31
0.0000000000
0
SPLINE
5
39C
100
AcDbEntity
8
0
100
AcDbSpline
62
7
6
CONTINUOUS
70
0
71
3
72
9
73
5
74
3
42
0.0000001000
43
0.0000001000
44
0.0000000001
40
0.0000000000
40
0.0000000000
40
0.0000000000
40
0.0000000000
40
0.5000854808
40
1.0000000000
40
1.0000000000
40
1.0000000000
40
1.0000000000
10
323.9993461390
20
149.1345416463
30
0.0000000000
10
323.9988814967
20
149.0928666889
30
0.0000000000
10
323.9978593523
20
149.0095320322
30
0.0000000000
10
323.9966510914
20
148.9261998662
30
0.0000000000
10
323.9960005184
20
148.8845416463
30
0.0000000000
11
323.9993461390
21
149.1345416463
31
0.0000000000
11
323.9978126325
21
149.0095184080
31
0.0000000000
11
323.9960005184
21
148.8845416463
31
0.0000000000
0
SPLINE
5
39D
100
AcDbEntity
8
0
100
AcDbSpline
62
7
6
CONTINUOUS
70
0
71
3
72
9
73
5
74
3
42
0.0000001000
43
0.0000001000
44
0.0000000001
40
0.0000000000
40
0.0000000000
40
0.0000000000
40
0.0000000000
40
0.5007752320
40
1.0000000000
40
1.0000000000
40
1.0000000000
40
1.0000000000
10
323.7143655665
20
148.8012086309
30
0.0000000000
10
323.7099855889
20
148.8707675350
30
0.0000000000
10
323.7011330227
20
149.0096633151
30
0.0000000000
10
323.6920671592
20
149.1485453368
30
0.0000000000
10
323.6874877678
20
149.2178751386
30
0.0000000000
11
323.7143655665
21
148.8012086309
31
0.0000000000
11
323.7010658073
21
149.0098752177
31
0.0000000000
11
323.6874877678
21
149.2178751386
31
0.0000000000
0
SPLINE
5
39E
100
AcDbEntity
8
0
100
AcDbSpline
62
7
6
CONTINUOUS
70
0
71
3
72
9
73
5
74
3
42
0.0000001000
43
0.0000001000
44
0.0000000001
40
0.0000000000
40
0.0000000000
40
0.0000000000
40
0.0000000000
40
0.5016497996
40
1.0000000000
40
1.0000000000
40
1.0000000000
40
1.0000000000
10
323.7873987298
20
148.4678751386
30
0.0000000000
10
323.7760858620
20
148.5238054283
30
0.0000000000
10
323.7526367894
20
148.6351184579
30
0.0000000000
10
323.7273929179
20
148.7460382378
30
0.0000000000
10
323.7143655665
20
148.8012086309
30
0.0000000000
11
323.7873987298
21
148.4678751386
31
0.0000000000
11
323.7521077512
21
148.6353867840
31
0.0000000000
11
323.7143655665
21
148.8012086309
31
0.0000000000
0
SPLINE
5
39F
100
AcDbEntity
8
0
100
AcDbSpline
62
7
6
CONTINUOUS
70
0
71
3
72
9
73
5
74
3
42
0.0000001000
43
0.0000001000
44
0.0000000001
40
0.0000000000
40
0.0000000000
40
0.0000000000
40
0.0000000000
40
0.4993882031
40
1.0000000000
40
1.0000000000
40
1.0000000000
40
1.0000000000
10
323.8675638900
20
148.2178751386
30
0.0000000000
10
323.8556917043
20
148.2599415084
30
0.0000000000
10
323.8304201713
20
148.3437614897
30
0.0000000000
10
323.8022251986
20
148.4266431383
30
0.0000000000
10
323.7873987298
20
148.4678751386
30
0.0000000000
11
323.8675638900
21
148.2178751386
31
0.0000000000
11
323.8297220209
21
148.3434249186
31
0.0000000000
11
323.7873987298
21
148.4678751386
31
0.0000000000
0
SPLINE
5
3A0
100
AcDbEntity
8
0
100
AcDbSpline
62
7
6
CONTINUOUS
70
0
71
3
72
9
73
5
74
3
42
0.0000001000
43
0.0000001000
44
0.0000000001
40
0.0000000000
40
0.0000000000
40
0.0000000000
40
0.0000000000
40
0.4942006677
40
1.0000000000
40
1.0000000000
40
1.0000000000
40
1.0000000000
10
323.9151819554
20
148.1345416463
30
0.0000000000
10
323.9080156289
20
148.1486403112
30
0.0000000000
10
323.8927915060
20
148.1768057409
30
0.0000000000
10
323.8762408835
20
148.2042106974
30
0.0000000000
10
323.8675638900
20
148.2178751386
30
0.0000000000
11
323.9151819554
21
148.1345416463
31
0.0000000000
11
323.8926441088
21
148.1762933259
31
0.0000000000
11
323.8675638900
21
148.2178751386
31
0.0000000000
0
SPLINE
5
3A1
100
AcDbEntity
8
0
100
AcDbSpline
62
7
6
CONTINUOUS
70
0
71
3
72
8
73
4
74
2
42
0.0000001000
43
0.0000001000
44
0.0000000001
40
0.0000000000
40
0.0000000000
40
0.0000000000
40
0.0000000000
40
1.0000000000
40
1.0000000000
40
1.0000000000
40
1.0000000000
10
324.0026900376
20
148.6345416463
30
0.0000000000
10
324.0027364686
20
148.6206528070
30
0.0000000000
10
324.0027712915
20
148.6067639239
30
0.0000000000
10
324.0027945067
20
148.5928750191
30
0.0000000000
11
324.0026900376
21
148.6345416463
31
0.0000000000
11
324.0027945067
21
148.5928750191
31
0.0000000000
0
SPLINE
5
3A2
100
AcDbEntity
8
0
100
AcDbSpline
62
7
6
CONTINUOUS
70
0
71
3
72
8
73
4
74
2
42
0.0000001000
43
0.0000001000
44
0.0000000001
40
0.0000000000
40
0.0000000000
40
0.0000000000
40
0.0000000000
40
1.0000000000
40
1.0000000000
40
1.0000000000
40
1.0000000000
10
324.0027945067
20
148.5928750191
30
0.0000000000
10
324.0028177218
20
148.5789861581
30
0.0000000000
10
324.0028293293
20
148.5650972753
30
0.0000000000
10
324.0028293294
20
148.5512083925
30
0.0000000000
11
324.0027945067
21
148.5928750191
31
0.0000000000
11
324.0028293294
21
148.5512083925
31
0.0000000000
0
SPLINE
5
3A3
100
AcDbEntity
8
0
100
AcDbSpline
62
7
6
CONTINUOUS
70
0
71
3
72
9
73
5
74
3
42
0.0000001000
43
0.0000001000
44
0.0000000001
40
0.0000000000
40
0.0000000000
40
0.0000000000
40
0.0000000000
40
0.6096919155
40
1.0000000000
40
1.0000000000
40
1.0000000000
40
1.0000000000
10
323.8298982966
20
153.5512085117
30
0.0000000000
10
323.8922183467
20
153.6397263835
30
0.0000000000
10
323.9767191119
20
153.8005028471
30
0.0000000000
10
324.0023839315
20
153.9795251948
30
0.0000000000
10
324.0025707374
20
154.0492533068
30
0.0000000000
11
323.8298982966
21
153.5512085117
31
0.0000000000
11
323.9733864668
21
153.8425570409
31
0.0000000000
11
324.0025707374
21
154.0492533068
31
0.0000000000
0
SPLINE
5
3A4
100
AcDbEntity
8
0
100
AcDbSpline
62
7
6
CONTINUOUS
70
0
71
3
72
9
73
5
74
3
42
0.0000001000
43
0.0000001000
44
0.0000000001
40
0.0000000000
40
0.0000000000
40
0.0000000000
40
0.0000000000
40
0.4950190749
40
1.0000000000
40
1.0000000000
40
1.0000000000
40
1.0000000000
10
323.9523495062
20
139.4678751386
30
0.0000000000
10
323.9469493747
20
139.4538153191
30
0.0000000000
10
323.9352665623
20
139.4257047234
30
0.0000000000
10
323.9221438849
20
139.3982385928
30
0.0000000000
10
323.9151819554
20
139.3845421232
30
0.0000000000
11
323.9523495062
21
139.4678751386
31
0.0000000000
11
323.9350301147
21
139.4261426792
31
0.0000000000
11
323.9151819554
21
139.3845421232
31
0.0000000000
0
SPLINE
5
3A5
100
AcDbEntity
8
0
100
AcDbSpline
62
7
6
CONTINUOUS
70
0
71
3
72
9
73
5
74
3
42
0.0000001000
43
0.0000001000
44
0.0000000001
40
0.0000000000
40
0.0000000000
40
0.0000000000
40
0.0000000000
40
0.4991515917
40
1.0000000000
40
1.0000000000
40
1.0000000000
40
1.0000000000
10
323.9151819554
20
139.3845421232
30
0.0000000000
10
323.9080772915
20
139.3565874170
30
0.0000000000
10
323.8930133614
20
139.3007908558
30
0.0000000000
10
323.8763220313
20
139.2454596022
30
0.0000000000
10
323.8675638900
20
139.2178751386
30
0.0000000000
11
323.9151819554
21
139.3845421232
31
0.0000000000
11
323.8926334516
21
139.3010014648
31
0.0000000000
11
323.8675638900
21
139.2178751386
31
0.0000000000
0
SPLINE
5
3A6
100
AcDbEntity
8
0
100
AcDbSpline
62
7
6
CONTINUOUS
70
0
71
3
72
9
73
5
74
3
42
0.0000001000
43
0.0000001000
44
0.0000000001
40
0.0000000000
40
0.0000000000
40
0.0000000000
40
0.0000000000
40
0.5009944036
40
1.0000000000
40
1.0000000000
40
1.0000000000
40
1.0000000000
10
323.8675638900
20
139.2178751386
30
0.0000000000
10
323.8616644004
20
139.1760681557
30
0.0000000000
10
323.8494990342
20
139.0926746883
30
0.0000000000
10
323.8365532545
20
139.0093987989
30
0.0000000000
10
323.8298982966
20
138.9678751386
30
0.0000000000
11
323.8675638900
21
139.2178751386
31
0.0000000000
11
323.8492789595
21
139.0925383463
31
0.0000000000
11
323.8298982966
21
138.9678751386
31
0.0000000000
0
SPLINE
5
3A7
100
AcDbEntity
8
0
100
AcDbSpline
62
7
6
CONTINUOUS
70
0
71
3
72
9
73
5
74
3
42
0.0000001000
43
0.0000001000
44
0.0000000001
40
0.0000000000
40
0.0000000000
40
0.0000000000
40
0.0000000000
40
0.5005386220
40
1.0000000000
40
1.0000000000
40
1.0000000000
40
1.0000000000
10
323.8298982966
20
138.9678751386
30
0.0000000000
10
323.8265551038
20
138.9261553841
30
0.0000000000
10
323.8197757228
20
138.8428136613
30
0.0000000000
10
323.8127953698
20
138.7594885298
30
0.0000000000
10
323.8092586104
20
138.7178751386
30
0.0000000000
11
323.8298982966
21
138.9678751386
31
0.0000000000
11
323.8197180684
21
138.8427280387
31
0.0000000000
11
323.8092586104
21
138.7178751386
31
0.0000000000
0
SPLINE
5
3A8
100
AcDbEntity
8
0
100
AcDbSpline
62
7
6
CONTINUOUS
70
0
71
3
72
9
73
5
74
3
42
0.0000001000
43
0.0000001000
44
0.0000000001
40
0.0000000000
40
0.0000000000
40
0.0000000000
40
0.0000000000
40
0.5005386220
40
1.0000000000
40
1.0000000000
40
1.0000000000
40
1.0000000000
10
323.8298982966
20
137.8845411695
30
0.0000000000
10
323.8265551038
20
137.9262609240
30
0.0000000000
10
323.8197757228
20
138.0096026468
30
0.0000000000
10
323.8127953698
20
138.0929277783
30
0.0000000000
10
323.8092586104
20
138.1345411695
30
0.0000000000
11
323.8298982966
21
137.8845411695
31
0.0000000000
11
323.8197180684
21
138.0096882694
31
0.0000000000
11
323.8092586104
21
138.1345411695
31
0.0000000000
0
SPLINE
5
3A9
100
AcDbEntity
8
0
100
AcDbSpline
62
7
6
CONTINUOUS
70
0
71
3
72
9
73
5
74
3
42
0.0000001000
43
0.0000001000
44
0.0000000001
40
0.0000000000
40
0.0000000000
40
0.0000000000
40
0.0000000000
40
0.5009944036
40
1.0000000000
40
1.0000000000
40
1.0000000000
40
1.0000000000
10
323.8675638900
20
137.6345411695
30
0.0000000000
10
323.8616644004
20
137.6763481524
30
0.0000000000
10
323.8494990342
20
137.7597416198
30
0.0000000000
10
323.8365532545
20
137.8430175092
30
0.0000000000
10
323.8298982966
20
137.8845411695
30
0.0000000000
11
323.8675638900
21
137.6345411695
31
0.0000000000
11
323.8492789595
21
137.7598779618
31
0.0000000000
11
323.8298982966
21
137.8845411695
31
0.0000000000
0
SPLINE
5
3AA
100
AcDbEntity
8
0
100
AcDbSpline
62
7
6
CONTINUOUS
70
0
71
3
72
9
73
5
74
3
42
0.0000001000
43
0.0000001000
44
0.0000000001
40
0.0000000000
40
0.0000000000
40
0.0000000000
40
0.0000000000
40
0.4991515669
40
1.0000000000
40
1.0000000000
40
1.0000000000
40
1.0000000000
10
323.9151819554
20
137.4678751386
30
0.0000000000
10
323.9080772912
20
137.4958296858
30
0.0000000000
10
323.8930133604
20
137.5516259303
30
0.0000000000
10
323.8763220309
20
137.6069568649
30
0.0000000000
10
323.8675638900
20
137.6345411695
30
0.0000000000
11
323.9151819554
21
137.4678751386
31
0.0000000000
11
323.8926334518
21
137.5514153185
31
0.0000000000
11
323.8675638900
21
137.6345411695
31
0.0000000000
0
SPLINE
5
3AB
100
AcDbEntity
8
0
100
AcDbSpline
62
7
6
CONTINUOUS
70
0
71
3
72
9
73
5
74
3
42
0.0000001000
43
0.0000001000
44
0.0000000001
40
0.0000000000
40
0.0000000000
40
0.0000000000
40
0.0000000000
40
0.4950191868
40
1.0000000000
40
1.0000000000
40
1.0000000000
40
1.0000000000
10
323.9523495062
20
137.3845411695
30
0.0000000000
10
323.9469493759
20
137.3986011470
30
0.0000000000
10
323.9352665664
20
137.4267120581
30
0.0000000000
10
323.9221438865
20
137.4541785092
30
0.0000000000
10
323.9151819554
20
137.4678751386
30
0.0000000000
11
323.9523495062
21
137.3845411695
31
0.0000000000
11
323.9350301146
21
137.4262741067
31
0.0000000000
11
323.9151819554
21
137.4678751386
31
0.0000000000
0
SPLINE
5
3AC
100
AcDbEntity
8
0
100
AcDbSpline
62
7
6
CONTINUOUS
70
0
71
3
72
9
73
5
74
3
42
0.0000001000
43
0.0000001000
44
0.0000000001
40
0.0000000000
40
0.0000000000
40
0.0000000000
40
0.0000000000
40
0.5005058599
40
1.0000000000
40
1.0000000000
40
1.0000000000
40
1.0000000000
10
323.8493297010
20
148.8845416463
30
0.0000000000
10
323.8461874460
20
148.9262581190
30
0.0000000000
10
323.8398099503
20
149.0095992864
30
0.0000000000
10
323.8332332294
20
149.0929249695
30
0.0000000000
10
323.8298982966
20
149.1345416463
30
0.0000000000
11
323.8493297010
21
148.8845416463
31
0.0000000000
11
323.8397535909
21
149.0096797254
31
0.0000000000
11
323.8298982966
21
149.1345416463
31
0.0000000000
0
SPLINE
5
3AD
100
AcDbEntity
8
0
100
AcDbSpline
62
7
6
CONTINUOUS
70
0
71
3
72
8
73
4
74
2
42
0.0000001000
43
0.0000001000
44
0.0000000001
40
0.0000000000
40
0.0000000000
40
0.0000000000
40
0.0000000000
40
1.0000000000
40
1.0000000000
40
1.0000000000
40
1.0000000000
10
324.0026900376
20
137.1345411695
30
0.0000000000
10
324.0024575202
20
137.1206306771
30
0.0000000000
10
324.0019332246
20
137.1067220462
30
0.0000000000
10
324.0011195815
20
137.0928288476
30
0.0000000000
11
324.0026900376
21
137.1345411695
31
0.0000000000
11
324.0011195815
21
137.0928288476
31
0.0000000000
0
SPLINE
5
3AE
100
AcDbEntity
8
0
100
AcDbSpline
62
7
6
CONTINUOUS
70
0
71
3
72
8
73
4
74
2
42
0.0000001000
43
0.0000001000
44
0.0000000001
40
0.0000000000
40
0.0000000000
40
0.0000000000
40
0.0000000000
40
1.0000000000
40
1.0000000000
40
1.0000000000
40
1.0000000000
10
324.0011195815
20
137.0928288476
30
0.0000000000
10
324.0003047230
20
137.0789148956
30
0.0000000000
10
323.9991996519
20
137.0650164220
30
0.0000000000
10
323.9978068097
20
137.0511470585
30
0.0000000000
11
324.0011195815
21
137.0928288476
31
0.0000000000
11
323.9978068097
21
137.0511470585
31
0.0000000000
0
SPLINE
5
3AF
100
AcDbEntity
8
0
100
AcDbSpline
62
7
6
CONTINUOUS
70
0
71
3
72
8
73
4
74
2
42
0.0000001000
43
0.0000001000
44
0.0000000001
40
0.0000000000
40
0.0000000000
40
0.0000000000
40
0.0000000000
40
1.0000000000
40
1.0000000000
40
1.0000000000
40
1.0000000000
10
323.9978068097
20
137.0511470585
30
0.0000000000
10
323.9950040631
20
137.0232384340
30
0.0000000000
10
323.9910360883
20
136.9954476804
30
0.0000000000
10
323.9859532975
20
136.9678751386
30
0.0000000000
11
323.9978068097
21
137.0511470585
31
0.0000000000
11
323.9859532975
21
136.9678751386
31
0.0000000000
0
SPLINE
5
3B0
100
AcDbEntity
8
0
100
AcDbSpline
62
7
6
CONTINUOUS
70
0
71
3
72
9
73
5
74
3
42
0.0000001000
43
0.0000001000
44
0.0000000001
40
0.0000000000
40
0.0000000000
40
0.0000000000
40
0.0000000000
40
0.5003660790
40
1.0000000000
40
1.0000000000
40
1.0000000000
40
1.0000000000
10
323.8846111374
20
148.7178751386
30
0.0000000000
10
323.8791059965
20
148.7457515184
30
0.0000000000
10
323.8677234873
20
148.8013890627
30
0.0000000000
10
323.8555835784
20
148.8568662596
30
0.0000000000
10
323.8493297010
20
148.8845416463
30
0.0000000000
11
323.8846111374
21
148.7178751386
31
0.0000000000
11
323.8675255262
21
148.8013896526
31
0.0000000000
11
323.8493297010
21
148.8845416463
31
0.0000000000
0
SPLINE
5
3B1
100
AcDbEntity
8
0
100
AcDbSpline
62
7
6
CONTINUOUS
70
0
71
3
72
9
73
5
74
3
42
0.0000001000
43
0.0000001000
44
0.0000000001
40
0.0000000000
40
0.0000000000
40
0.0000000000
40
0.0000000000
40
0.4944444244
40
1.0000000000
40
1.0000000000
40
1.0000000000
40
1.0000000000
10
323.9287223018
20
148.6345416463
30
0.0000000000
10
323.9221488455
20
148.6486281606
30
0.0000000000
10
323.9081131926
20
148.6767769262
30
0.0000000000
10
323.8927125491
20
148.7042007231
30
0.0000000000
10
323.8846111374
20
148.7178751386
30
0.0000000000
11
323.9287223018
21
148.6345416463
31
0.0000000000
11
323.9079354384
21
148.6762869241
31
0.0000000000
11
323.8846111374
21
148.7178751386
31
0.0000000000
0
SPLINE
5
3B2
100
AcDbEntity
8
0
100
AcDbSpline
62
7
6
CONTINUOUS
70
0
71
3
72
8
73
4
74
2
42
0.0000001000
43
0.0000001000
44
0.0000000001
40
0.0000000000
40
0.0000000000
40
0.0000000000
40
0.0000000000
40
1.0000000000
40
1.0000000000
40
1.0000000000
40
1.0000000000
10
324.0028293294
20
148.5512083925
30
0.0000000000
10
324.0028293295
20
148.5234305830
30
0.0000000000
10
324.0027829000
20
148.4956527735
30
0.0000000000
10
324.0026900382
20
148.4678751386
30
0.0000000000
11
324.0028293294
21
148.5512083925
31
0.0000000000
11
324.0026900382
21
148.4678751386
31
0.0000000000
0
SPLINE
5
3B3
100
AcDbEntity
8
0
100
AcDbSpline
62
7
6
CONTINUOUS
70
0
71
3
72
9
73
5
74
3
42
0.0000001000
43
0.0000001000
44
0.0000000001
40
0.0000000000
40
0.0000000000
40
0.0000000000
40
0.0000000000
40
0.3903080845
40
1.0000000000
40
1.0000000000
40
1.0000000000
40
1.0000000000
10
324.0025707374
20
153.0531637165
30
0.0000000000
10
324.0023839315
20
153.1228918286
30
0.0000000000
10
323.9767191119
20
153.3019141762
30
0.0000000000
10
323.8922183467
20
153.4626906398
30
0.0000000000
10
323.8298982966
20
153.5512085117
30
0.0000000000
11
324.0025707374
21
153.0531637165
31
0.0000000000
11
323.9733864668
21
153.2598599825
31
0.0000000000
11
323.8298982966
21
153.5512085117
31
0.0000000000
0
SPLINE
5
3B4
100
AcDbEntity
8
0
100
AcDbSpline
62
7
6
CONTINUOUS
70
0
71
3
72
9
73
5
74
3
42
0.0000001000
43
0.0000001000
44
0.0000000001
40
0.0000000000
40
0.0000000000
40
0.0000000000
40
0.0000000000
40
0.4969635839
40
1.0000000000
40
1.0000000000
40
1.0000000000
40
1.0000000000
10
323.9915370075
20
148.2178751386
30
0.0000000000
10
323.9890088604
20
148.2038946614
30
0.0000000000
10
323.9830904447
20
148.1759072962
30
0.0000000000
10
323.9755747744
20
148.1483071387
30
0.0000000000
10
323.9714130825
20
148.1345416463
30
0.0000000000
11
323.9915370075
21
148.2178751386
31
0.0000000000
11
323.9827319078
21
148.1761728885
31
0.0000000000
11
323.9714130825
21
148.1345416463
31
0.0000000000
0
SPLINE
5
3B5
100
AcDbEntity
8
0
100
AcDbSpline
62
7
6
CONTINUOUS
70
0
71
3
72
9
73
5
74
3
42
0.0000001000
43
0.0000001000
44
0.0000000001
40
0.0000000000
40
0.0000000000
40
0.0000000000
40
0.0000000000
40
0.4999035840
40
1.0000000000
40
1.0000000000
40
1.0000000000
40
1.0000000000
10
324.0026900376
20
148.4678751386
30
0.0000000000
10
324.0023182469
20
148.4261701045
30
0.0000000000
10
324.0000852412
20
148.3427505873
30
0.0000000000
10
323.9948795238
20
148.2594638136
30
0.0000000000
10
323.9915370075
20
148.2178751386
30
0.0000000000
11
324.0026900376
21
148.4678751386
31
0.0000000000
11
323.9993427804
21
148.3427998463
31
0.0000000000
11
323.9915370075
21
148.2178751386
31
0.0000000000
0
SPLINE
5
3B6
100
AcDbEntity
8
0
100
AcDbSpline
62
7
6
CONTINUOUS
70
0
71
3
72
10
73
6
74
4
42
0.0000001000
43
0.0000001000
44
0.0000000001
40
0.0000000000
40
0.0000000000
40
0.0000000000
40
0.0000000000
40
0.3060941150
40
0.6370937308
40
1.0000000000
40
1.0000000000
40
1.0000000000
40
1.0000000000
10
314.1428293294
20
195.8252133853
30
0.0000000000
10
313.6458392913
20
195.9607675549
30
0.0000000000
10
312.6269208535
20
196.3030570639
30
0.0000000000
10
311.0986090729
20
197.0152547001
30
0.0000000000
10
310.0986681291
20
197.6239159774
30
0.0000000000
10
309.5939735335
20
197.9678751386
30
0.0000000000
11
314.1428293294
21
195.8252133853
31
0.0000000000
11
312.6771959348
21
196.3154021550
31
0.0000000000
11
311.1611529034
21
197.0185755664
31
0.0000000000
11
309.5939735335
21
197.9678751386
31
0.0000000000
0
SPLINE
5
3B7
100
AcDbEntity
8
0
100
AcDbSpline
62
7
6
CONTINUOUS
70
0
71
3
72
10
73
6
74
4
42
0.0000001000
43
0.0000001000
44
0.0000000001
40
0.0000000000
40
0.0000000000
40
0.0000000000
40
0.0000000000
40
0.3628857364
40
0.6938906331
40
1.0000000000
40
1.0000000000
40
1.0000000000
40
1.0000000000
10
325.4116851253
20
197.9678751386
30
0.0000000000
10
324.9070190834
20
197.6239354374
30
0.0000000000
10
323.9071022100
20
197.0152848215
30
0.0000000000
10
322.3787946710
20
196.3030778790
30
0.0000000000
10
321.3598441324
20
195.9607743095
30
0.0000000000
10
320.8628293294
20
195.8252133853
30
0.0000000000
11
325.4116851253
21
197.9678751386
31
0.0000000000
11
323.8445974172
21
197.0186243279
31
0.0000000000
11
322.3285344080
21
196.3154306131
31
0.0000000000
11
320.8628293294
21
195.8252133853
31
0.0000000000
0
ENDSEC
0
SECTION
2
OBJECTS
0
DICTIONARY
5
3B8
100
AcDbDictionary
3
ACAD_GROUP
350
3B9
3
ACAD_MLINESTYLE
350
3BA
0
DICTIONARY
5
3B9
102
{ACAD_REACTORS
330
3B8
102
}
100
AcDbDictionary
0
DICTIONARY
5
3BA
102
{ACAD_REACTORS
330
3B8
102
}
100
AcDbDictionary
3
STANDARD
350
3BB
0
MLINESTYLE
5
3BB
102
{ACAD_REACTORS
330
3BA
102
}
100
AcDbMlineStyle
2
STANDARD
70
0
3

62
256
51
90.0
52
90.0
71
2
49
0.5
62
256
6
BYLAYER
49
-0.5
62
256
6
BYLAYER
0
ENDSEC
0
EOF
