999
DXF file: C:\Aktuell-Internet\CAD-Daten\2vb1-22.dxf
999
Pro/ENGINEER 2001400 by Parametric Technology Corporation
0
SECTION
2
HEADER
9
$ACADVER
1
AC1014
9
$EXTMAX
10
420.0000000000
20
297.0000000000
9
$EXTMIN
10
0.0000000000
20
0.0000000000
9
$LIMMIN
10
0.0000000000
20
0.0000000000
9
$LIMMAX
10
420.0000000000
20
297.0000000000
9
$VIEWCTR
10
210.0000000000
20
148.5000000000
9
$VIEWSIZE
40
297.0000000000
9
$CLAYER
8
0
9
$LTSCALE
40
23.1000000000
9
$CELTYPE
6
BYLAYER
9
$DIMSCALE
40
1
9
$DIMASZ
40
3.5000000000
9
$DIMEXO
40
2.6250000000
9
$DIMDLI
40
15.9600000000
9
$DIMEXE
40
7.5600000000
9
$DIMCEN
40
3.7800000000
9
$DIMLFAC
40
1.0000000000
9
$DIMTXT
40
3.5000000000
9
$DIMTOL
70
1
9
$DIMTFAC
40
0.6000000000
9
$DIMTP
40
0.0050000000
9
$DIMTM
40
0.0050000000
9
$HANDSEED
5
3D3
0
ENDSEC
0
SECTION
2
CLASSES
0
ENDSEC
0
SECTION
2
TABLES
0
TABLE
2
VPORT
5
8
100
AcDbSymbolTable
70
2
0
VPORT
5
1F4
100
AcDbSymbolTableRecord
100
AcDbViewportTableRecord
2
*ACTIVE
70
0
10
0.0
20
0.0
11
1.0
21
1.0
12
210.0000000000
22
148.5000000000
13
0.0
23
0.0
14
1.0
24
1.0
15
0.0
25
0.0
16
0.0
26
0.0
36
1.0
17
0.0
27
0.0
37
0.0
40
297.0000000000
41
1.4141414141
42
50.0
43
0.0
44
0.0
50
0.0
51
0.0
71
0
72
100
73
1
74
1
75
0
76
0
77
0
78
0
0
ENDTAB
0
TABLE
2
LTYPE
5
5
100
AcDbSymbolTable
70
6
0
LTYPE
5
14
100
AcDbSymbolTableRecord
100
AcDbLinetypeTableRecord
2
BYBLOCK
70
0
3

72
65
73
0
40
0.0
0
LTYPE
5
15
100
AcDbSymbolTableRecord
100
AcDbLinetypeTableRecord
2
BYLAYER
70
0
3

72
65
73
0
40
0.0
0
LTYPE
5
16
100
AcDbSymbolTableRecord
100
AcDbLinetypeTableRecord
2
CONTINUOUS
70
64
3
Solid line
72
65
73
0
40
0
0
LTYPE
5
1F5
100
AcDbSymbolTableRecord
100
AcDbLinetypeTableRecord
2
CENTER
70
64
3
____ _ ____ _ ____ _ ____ _ ____ _ ____ _ ____
72
65
73
4
40
0.6
49
0.375
74
0
49
-0.075
74
0
49
0.075
74
0
49
-0.075
74
0
0
LTYPE
5
1F6
100
AcDbSymbolTableRecord
100
AcDbLinetypeTableRecord
2
HIDDEN
70
64
3
- - - - - - - - - - - - - - - - - - - -
72
65
73
2
40
0.2
49
0.1
74
0
49
-0.1
74
0
0
LTYPE
5
1F7
100
AcDbSymbolTableRecord
100
AcDbLinetypeTableRecord
2
PHANTOM
70
64
3
_____ _ _ _____ _ _ _____ _ _ _____
72
65
73
6
40
0.8
49
0.45
74
0
49
-0.05
74
0
49
0.1
74
0
49
-0.05
74
0
49
0.1
74
0
49
-0.05
74
0
0
LTYPE
5
1F8
100
AcDbSymbolTableRecord
100
AcDbLinetypeTableRecord
2
DOT
70
64
3
. . . . . . . . . . . . . . . . . . . .
72
65
73
2
40
0.2
49
0.1
74
0
49
-0.1
74
0
0
LTYPE
5
1F9
100
AcDbSymbolTableRecord
100
AcDbLinetypeTableRecord
2
DASHED
70
64
3
- - - - - - - - - - - - - - - - - - - -
72
65
73
2
40
0.2
49
0.1
74
0
49
-0.1
74
0
0
ENDTAB
0
TABLE
2
LAYER
5
2
100
AcDbSymbolTable
70
36
0
LAYER
5
10
100
AcDbSymbolTableRecord
100
AcDbLayerTableRecord
2
0
70
0
62
7
6
CONTINUOUS
0
LAYER
5
1FA
100
AcDbSymbolTableRecord
100
AcDbLayerTableRecord
2
DEFAULT_1
70
0
62
7
6
CENTER
0
LAYER
5
1FB
100
AcDbSymbolTableRecord
100
AcDbLayerTableRecord
2
DEFAULT_2
70
0
62
8
6
HIDDEN
0
LAYER
5
1FC
100
AcDbSymbolTableRecord
100
AcDbLayerTableRecord
2
DEFAULT_3
70
0
62
7
6
PHANTOM
0
ENDTAB
0
TABLE
2
STYLE
5
3
100
AcDbSymbolTable
70
1
0
STYLE
5
11
100
AcDbSymbolTableRecord
100
AcDbTextStyleTableRecord
2
STANDARD
70
0
40
0.0
41
1.0
50
0.0
71
0
42
0.0
3
txt
4

0
STYLE
5
1FD
100
AcDbSymbolTableRecord
100
AcDbTextStyleTableRecord
2
TEXTSTYLE_0
70
0
40
0.0
41
0.80
50
0.0
71
0
42
0.2
3
txt
4

0
ENDTAB
0
TABLE
2
VIEW
5
6
100
AcDbSymbolTable
70
0
0
ENDTAB
0
TABLE
2
UCS
5
7
100
AcDbSymbolTable
70
0
0
ENDTAB
0
TABLE
2
APPID
5
9
100
AcDbSymbolTable
70
1
0
APPID
5
1FE
100
AcDbSymbolTableRecord
100
AcDbRegAppTableRecord
2
ACAD
70
0
0
ENDTAB
0
TABLE
2
DIMSTYLE
5
A
100
AcDbSymbolTable
70
1
0
DIMSTYLE
105
1FF
100
AcDbSymbolTableRecord
100
AcDbDimStyleTableRecord
2
STANDARD
70
0
3

4

5

6

7

40
1.0
41
0.18
42
0.0625
43
0.38
44
0.18
45
0.0
46
0.0
47
0.0050000000
48
0.0050000000
140
3.5000000000
141
0.09
142
0.0
143
25.4
144
1.0000000000
145
0.0
146
0.6000000000
147
0.09
71
1
72
0
73
1
74
1
75
0
76
0
77
0
78
0
170
0
171
2
172
0
173
0
174
0
175
0
176
0
177
0
178
0
270
2
271
3
272
4
273
2
274
2
340
11
275
0
280
0
281
0
282
0
283
1
284
0
285
0
286
0
287
3
288
0
0
ENDTAB
0
TABLE
2
BLOCK_RECORD
5
1
100
AcDbSymbolTable
70
0
0
BLOCK_RECORD
5
1B
100
AcDbSymbolTableRecord
100
AcDbBlockTableRecord
2
*MODEL_SPACE
0
BLOCK_RECORD
5
1C
100
AcDbSymbolTableRecord
100
AcDbBlockTableRecord
2
*PAPER_SPACE
0
ENDTAB
0
ENDSEC
0
SECTION
2
BLOCKS
0
BLOCK
5
1E
100
AcDbEntity
8
0
100
AcDbBlockBegin
2
*MODEL_SPACE
70
0
10
0.0
20
0.0
30
0.0
3
*MODEL_SPACE
1

0
ENDBLK
5
1F
100
AcDbEntity
8
0
100
AcDbBlockEnd
0
BLOCK
5
20
100
AcDbEntity
8
0
100
AcDbBlockBegin
2
*PAPER_SPACE
70
0
10
0.0
20
0.0
30
0.0
3
*PAPER_SPACE
1

0
ENDBLK
5
21
100
AcDbEntity
8
0
100
AcDbBlockEnd
0
ENDSEC
0
SECTION
2
ENTITIES
0
TEXT
5
200
100
AcDbEntity
8
0
100
AcDbText
62
2
6
CONTINUOUS
10
341.8987953023
20
114.4715059983
7
TEXTSTYLE_0
40
12.0000000000
1
VB 1-22
50
90.0000000000
72
5
11
341.8987953023
21
177.6143631411
100
AcDbText
0
LINE
5
201
100
AcDbEntity
8
0
100
AcDbLine
62
7
6
CONTINUOUS
10
0.0000000000
20
0.0000000000
11
0.0000000000
21
297.0000000000
0
LINE
5
202
100
AcDbEntity
8
0
100
AcDbLine
62
7
6
CONTINUOUS
10
0.0000000000
20
0.0000000000
11
420.0000000000
21
0.0000000000
0
LINE
5
203
100
AcDbEntity
8
0
100
AcDbLine
62
7
6
CONTINUOUS
10
0.0000000000
20
297.0000000000
11
420.0000000000
21
297.0000000000
0
LINE
5
204
100
AcDbEntity
8
0
100
AcDbLine
62
7
6
CONTINUOUS
10
420.0000000000
20
0.0000000000
11
420.0000000000
21
297.0000000000
0
LINE
5
205
100
AcDbEntity
8
0
100
AcDbLine
62
7
6
CONTINUOUS
10
55.7395957879
20
109.3547592300
11
54.8885320595
21
109.7714243073
0
LINE
5
206
100
AcDbEntity
8
0
100
AcDbLine
62
7
6
CONTINUOUS
10
54.8885320595
20
108.3130893845
11
54.2502342633
21
108.7297592300
0
LINE
5
207
100
AcDbEntity
8
0
100
AcDbLine
62
7
6
CONTINUOUS
10
54.8885320595
20
109.7714243073
11
49.5693833104
21
115.6047592300
0
LINE
5
208
100
AcDbEntity
8
0
100
AcDbLine
62
7
6
CONTINUOUS
10
49.5693833104
20
113.9380893845
11
54.2502342633
21
108.7297592300
0
LINE
5
209
100
AcDbEntity
8
0
100
AcDbLine
62
7
6
CONTINUOUS
10
55.7395957879
20
108.1047592300
11
54.8885320595
21
108.3130893845
0
LINE
5
20A
100
AcDbEntity
8
0
100
AcDbLine
62
7
6
CONTINUOUS
10
57.0161919764
20
115.1880893845
11
56.1651282481
21
115.3964243073
0
LINE
5
20B
100
AcDbEntity
8
0
100
AcDbLine
62
7
6
CONTINUOUS
10
55.7395957879
20
118.5214243073
11
54.8885320595
21
118.9380893845
0
LINE
5
20C
100
AcDbEntity
8
0
100
AcDbLine
62
7
6
CONTINUOUS
10
56.8034260443
20
113.9380893845
11
56.1651282481
21
114.3547592300
0
LINE
5
20D
100
AcDbEntity
8
0
100
AcDbLine
62
7
6
CONTINUOUS
10
54.8885320595
20
117.4797592300
11
54.2502342633
21
117.8964243073
0
LINE
5
20E
100
AcDbEntity
8
0
100
AcDbLine
62
7
6
CONTINUOUS
10
56.8034260443
20
123.1047568459
11
56.1651282481
21
123.5214243073
0
LINE
5
20F
100
AcDbEntity
8
0
100
AcDbLine
62
7
6
CONTINUOUS
10
57.8672557047
20
114.3547592300
11
57.0161919764
21
115.1880893845
0
LINE
5
210
100
AcDbEntity
8
0
100
AcDbLine
62
7
6
CONTINUOUS
10
57.8672557047
20
123.5214243073
11
57.0161919764
21
124.3547568459
0
LINE
5
211
100
AcDbEntity
8
0
100
AcDbLine
62
7
6
CONTINUOUS
10
54.8885320595
20
118.9380893845
11
49.5693833104
21
124.7714243073
0
LINE
5
212
100
AcDbEntity
8
0
100
AcDbLine
62
7
6
CONTINUOUS
10
49.5693833104
20
123.1047568459
11
54.2502342633
21
117.8964243073
0
LINE
5
213
100
AcDbEntity
8
0
100
AcDbLine
62
7
6
CONTINUOUS
10
57.2289579085
20
113.3130893845
11
56.8034260443
21
113.9380893845
0
LINE
5
214
100
AcDbEntity
8
0
100
AcDbLine
62
7
6
CONTINUOUS
10
57.2289579085
20
122.4797592300
11
56.8034260443
21
123.1047568459
0
LINE
5
215
100
AcDbEntity
8
0
100
AcDbLine
62
7
6
CONTINUOUS
10
58.2927875689
20
113.5214243073
11
57.8672557047
21
114.3547592300
0
LINE
5
216
100
AcDbEntity
8
0
100
AcDbLine
62
7
6
CONTINUOUS
10
35.5055535010
20
190.8964243073
11
35.5055535010
21
100.8964243073
0
LINE
5
217
100
AcDbEntity
8
0
100
AcDbLine
62
7
6
CONTINUOUS
10
56.1651282481
20
108.1047592300
11
55.7395957879
21
108.1047592300
0
LINE
5
218
100
AcDbEntity
8
0
100
AcDbLine
62
7
6
CONTINUOUS
10
49.5693833104
20
108.1047592300
11
48.5055535010
21
108.1047592300
0
LINE
5
219
100
AcDbEntity
8
0
100
AcDbLine
62
7
6
CONTINUOUS
10
56.1651282481
20
109.3547592300
11
55.7395957879
21
109.3547592300
0
LINE
5
21A
100
AcDbEntity
8
0
100
AcDbLine
62
7
6
CONTINUOUS
10
55.7395957879
20
117.2714243073
11
54.8885320595
21
117.4797592300
0
LINE
5
21B
100
AcDbEntity
8
0
100
AcDbLine
62
7
6
CONTINUOUS
10
57.0161919764
20
124.3547568459
11
56.1651282481
21
124.5630917686
0
LINE
5
21C
100
AcDbEntity
8
0
100
AcDbLine
62
7
6
CONTINUOUS
10
50.2076811067
20
145.3964243073
11
49.3566173038
21
146.0214243073
0
LINE
5
21D
100
AcDbEntity
8
0
100
AcDbLine
62
7
6
CONTINUOUS
10
54.6757661274
20
145.3964243073
11
53.8247023991
21
146.0214243073
0
LINE
5
21E
100
AcDbEntity
8
0
100
AcDbLine
62
7
6
CONTINUOUS
10
56.8034260443
20
132.2714243073
11
55.3140639237
21
133.5214243073
0
LINE
5
21F
100
AcDbEntity
8
0
100
AcDbLine
62
7
6
CONTINUOUS
10
58.5055535010
20
132.2714243073
11
57.0161919764
21
133.5214243073
0
LINE
5
220
100
AcDbEntity
8
0
100
AcDbLine
62
7
6
CONTINUOUS
10
50.4204471878
20
146.6464243073
11
49.9949151746
21
147.0630905766
0
LINE
5
221
100
AcDbEntity
8
0
100
AcDbLine
62
7
6
CONTINUOUS
10
54.8885320595
20
146.6464243073
11
54.4630001954
21
147.0630905766
0
LINE
5
222
100
AcDbEntity
8
0
100
AcDbLine
62
7
6
CONTINUOUS
10
49.3566173038
20
146.0214243073
11
48.7183194517
21
146.8547580380
0
LINE
5
223
100
AcDbEntity
8
0
100
AcDbLine
62
7
6
CONTINUOUS
10
58.2927875689
20
122.6880893845
11
57.8672557047
21
123.5214243073
0
LINE
5
224
100
AcDbEntity
8
0
100
AcDbLine
62
7
6
CONTINUOUS
10
53.8247023991
20
146.0214243073
11
53.6119364670
21
146.4380905766
0
LINE
5
225
100
AcDbEntity
8
0
100
AcDbLine
62
7
6
CONTINUOUS
10
49.9949151746
20
147.0630905766
11
49.7821492425
21
147.6880905766
0
LINE
5
226
100
AcDbEntity
8
0
100
AcDbLine
62
7
6
CONTINUOUS
10
54.4630001954
20
147.0630905766
11
54.2502342633
21
147.6880905766
0
LINE
5
227
100
AcDbEntity
8
0
100
AcDbLine
62
7
6
CONTINUOUS
10
48.7183194517
20
146.8547580380
11
48.5055535010
21
147.8964243073
0
LINE
5
228
100
AcDbEntity
8
0
100
AcDbLine
62
7
6
CONTINUOUS
10
57.4417238406
20
112.2714243073
11
57.2289579085
21
113.3130893845
0
LINE
5
229
100
AcDbEntity
8
0
100
AcDbLine
62
7
6
CONTINUOUS
10
57.4417238406
20
121.4380893845
11
57.2289579085
21
122.4797592300
0
LINE
5
22A
100
AcDbEntity
8
0
100
AcDbLine
62
7
6
CONTINUOUS
10
48.5055535010
20
159.5630908746
11
48.5055535010
21
157.8964243073
0
LINE
5
22B
100
AcDbEntity
8
0
100
AcDbLine
62
7
6
CONTINUOUS
10
48.5055535010
20
152.8964243073
11
48.5055535010
21
147.8964243073
0
LINE
5
22C
100
AcDbEntity
8
0
100
AcDbLine
62
7
6
CONTINUOUS
10
48.5055535010
20
132.2714243073
11
48.5055535010
21
131.0214243073
0
LINE
5
22D
100
AcDbEntity
8
0
100
AcDbLine
62
7
6
CONTINUOUS
10
48.5055535010
20
124.7714243073
11
48.5055535010
21
117.2714243073
0
LINE
5
22E
100
AcDbEntity
8
0
100
AcDbLine
62
7
6
CONTINUOUS
10
48.5055535010
20
115.6047592300
11
48.5055535010
21
108.1047592300
0
LINE
5
22F
100
AcDbEntity
8
0
100
AcDbLine
62
7
6
CONTINUOUS
10
49.5693833104
20
123.1047568459
11
49.5693833104
21
117.2714243073
0
LINE
5
230
100
AcDbEntity
8
0
100
AcDbLine
62
7
6
CONTINUOUS
10
49.5693833104
20
113.9380893845
11
49.5693833104
21
108.1047592300
0
LINE
5
231
100
AcDbEntity
8
0
100
AcDbLine
62
7
6
CONTINUOUS
10
49.7821492425
20
151.6464243073
11
49.7821492425
21
147.6880905766
0
LINE
5
232
100
AcDbEntity
8
0
100
AcDbLine
62
7
6
CONTINUOUS
10
52.1225746444
20
129.3547568459
11
52.1225746444
21
126.4380917686
0
LINE
5
233
100
AcDbEntity
8
0
100
AcDbLine
62
7
6
CONTINUOUS
10
52.9736386708
20
151.6464243073
11
52.9736386708
21
147.6880905766
0
LINE
5
234
100
AcDbEntity
8
0
100
AcDbLine
62
7
6
CONTINUOUS
10
53.1864046029
20
129.3547568459
11
53.1864046029
21
126.4380917686
0
LINE
5
235
100
AcDbEntity
8
0
100
AcDbLine
62
7
6
CONTINUOUS
10
54.2502342633
20
151.6464243073
11
54.2502342633
21
147.6880905766
0
LINE
5
236
100
AcDbEntity
8
0
100
AcDbLine
62
7
6
CONTINUOUS
10
56.1651282481
20
124.5630917686
11
56.1651282481
21
123.5214243073
0
LINE
5
237
100
AcDbEntity
8
0
100
AcDbLine
62
7
6
CONTINUOUS
10
56.1651282481
20
115.3964243073
11
56.1651282481
21
114.3547592300
0
LINE
5
238
100
AcDbEntity
8
0
100
AcDbLine
62
7
6
CONTINUOUS
10
57.2289579085
20
151.6464243073
11
57.2289579085
21
147.6880905766
0
LINE
5
239
100
AcDbEntity
8
0
100
AcDbLine
62
7
6
CONTINUOUS
10
57.4417238406
20
121.4380893845
11
57.4417238406
21
120.6047592300
0
LINE
5
23A
100
AcDbEntity
8
0
100
AcDbLine
62
7
6
CONTINUOUS
10
57.4417238406
20
112.2714243073
11
57.4417238406
21
111.4380893845
0
LINE
5
23B
100
AcDbEntity
8
0
100
AcDbLine
62
7
6
CONTINUOUS
10
58.5055535010
20
162.8964243073
11
58.5055535010
21
161.6464243073
0
LINE
5
23C
100
AcDbEntity
8
0
100
AcDbLine
62
7
6
CONTINUOUS
10
58.5055535010
20
155.8130911726
11
58.5055535010
21
154.5630911726
0
LINE
5
23D
100
AcDbEntity
8
0
100
AcDbLine
62
7
6
CONTINUOUS
10
58.5055535010
20
152.8964243073
11
58.5055535010
21
147.8964243073
0
LINE
5
23E
100
AcDbEntity
8
0
100
AcDbLine
62
7
6
CONTINUOUS
10
58.5055535010
20
132.2714243073
11
58.5055535010
21
131.0214243073
0
LINE
5
23F
100
AcDbEntity
8
0
100
AcDbLine
62
7
6
CONTINUOUS
10
58.5055535010
20
121.2297592300
11
58.5055535010
21
120.3964243073
0
LINE
5
240
100
AcDbEntity
8
0
100
AcDbLine
62
7
6
CONTINUOUS
10
58.5055535010
20
112.0630893845
11
58.5055535010
21
111.2297592300
0
LINE
5
241
100
AcDbEntity
8
0
100
AcDbLine
62
7
6
CONTINUOUS
10
57.0161919764
20
108.3130893845
11
56.1651282481
21
108.1047592300
0
LINE
5
242
100
AcDbEntity
8
0
100
AcDbLine
62
7
6
CONTINUOUS
10
49.5693833104
20
115.6047592300
11
48.5055535010
21
115.6047592300
0
LINE
5
243
100
AcDbEntity
8
0
100
AcDbLine
62
7
6
CONTINUOUS
10
56.1651282481
20
117.2714243073
11
55.7395957879
21
117.2714243073
0
LINE
5
244
100
AcDbEntity
8
0
100
AcDbLine
62
7
6
CONTINUOUS
10
49.5693833104
20
117.2714243073
11
48.5055535010
21
117.2714243073
0
LINE
5
245
100
AcDbEntity
8
0
100
AcDbLine
62
7
6
CONTINUOUS
10
55.7395957879
20
118.5214243073
11
56.1651282481
21
118.5214243073
0
LINE
5
246
100
AcDbEntity
8
0
100
AcDbLine
62
7
6
CONTINUOUS
10
49.5693833104
20
124.7714243073
11
48.5055535010
21
124.7714243073
0
LINE
5
247
100
AcDbEntity
8
0
100
AcDbLine
62
7
6
CONTINUOUS
10
52.1225746444
20
126.4380917686
11
53.1864046029
21
126.4380917686
0
LINE
5
248
100
AcDbEntity
8
0
100
AcDbLine
62
7
6
CONTINUOUS
10
53.1864046029
20
129.3547568459
11
52.1225746444
21
129.3547568459
0
LINE
5
249
100
AcDbEntity
8
0
100
AcDbLine
62
7
6
CONTINUOUS
10
50.8459790519
20
145.1880905766
11
50.2076811067
21
145.3964243073
0
LINE
5
24A
100
AcDbEntity
8
0
100
AcDbLine
62
7
6
CONTINUOUS
10
51.0587449840
20
146.4380905766
11
50.4204471878
21
146.6464243073
0
LINE
5
24B
100
AcDbEntity
8
0
100
AcDbLine
62
7
6
CONTINUOUS
10
55.3140639237
20
145.1880905766
11
54.6757661274
21
145.3964243073
0
LINE
5
24C
100
AcDbEntity
8
0
100
AcDbLine
62
7
6
CONTINUOUS
10
55.5268298558
20
146.4380905766
11
54.8885320595
21
146.6464243073
0
LINE
5
24D
100
AcDbEntity
8
0
100
AcDbLine
62
7
6
CONTINUOUS
10
58.5055535010
20
112.0630893845
11
58.2927875689
21
113.5214243073
0
LINE
5
24E
100
AcDbEntity
8
0
100
AcDbLine
62
7
6
CONTINUOUS
10
58.5055535010
20
121.2297592300
11
58.2927875689
21
122.6880893845
0
LINE
5
24F
100
AcDbEntity
8
0
100
AcDbLine
62
7
6
CONTINUOUS
10
71.5055535010
20
190.8964243073
11
71.5055535010
21
100.8964243073
0
LINE
5
250
100
AcDbEntity
8
0
100
AcDbLine
62
7
6
CONTINUOUS
10
58.5055535010
20
120.3964243073
11
58.2927875689
21
119.1464243073
0
LINE
5
251
100
AcDbEntity
8
0
100
AcDbLine
62
7
6
CONTINUOUS
10
58.5055535010
20
147.8964243073
11
58.2927875689
21
146.8547580380
0
LINE
5
252
100
AcDbEntity
8
0
100
AcDbLine
62
7
6
CONTINUOUS
10
52.9736386708
20
147.6880905766
11
52.7608727387
21
147.0630905766
0
LINE
5
253
100
AcDbEntity
8
0
100
AcDbLine
62
7
6
CONTINUOUS
10
57.0161919764
20
117.4797592300
11
56.1651282481
21
117.2714243073
0
LINE
5
254
100
AcDbEntity
8
0
100
AcDbLine
62
7
6
CONTINUOUS
10
48.5055535010
20
131.0214243073
11
58.5055535010
21
131.0214243073
0
LINE
5
255
100
AcDbEntity
8
0
100
AcDbLine
62
7
6
CONTINUOUS
10
56.8034260443
20
132.2714243073
11
48.5055535010
21
132.2714243073
0
LINE
5
256
100
AcDbEntity
8
0
100
AcDbLine
62
7
6
CONTINUOUS
10
57.0161919764
20
133.5214243073
11
55.3140639237
21
133.5214243073
0
LINE
5
257
100
AcDbEntity
8
0
100
AcDbLine
62
7
6
CONTINUOUS
10
48.5055535010
20
157.8964243073
11
58.5055535010
21
154.5630911726
0
LINE
5
258
100
AcDbEntity
8
0
100
AcDbLine
62
7
6
CONTINUOUS
10
58.5055535010
20
155.8130911726
11
49.7821492425
21
158.7297577399
0
LINE
5
259
100
AcDbEntity
8
0
100
AcDbLine
62
7
6
CONTINUOUS
10
58.5055535010
20
111.2297592300
11
58.2927875689
21
109.9797592300
0
LINE
5
25A
100
AcDbEntity
8
0
100
AcDbLine
62
7
6
CONTINUOUS
10
57.4417238406
20
120.6047592300
11
57.2289579085
21
119.5630893845
0
LINE
5
25B
100
AcDbEntity
8
0
100
AcDbLine
62
7
6
CONTINUOUS
10
57.4417238406
20
111.4380893845
11
57.2289579085
21
110.3964243073
0
LINE
5
25C
100
AcDbEntity
8
0
100
AcDbLine
62
7
6
CONTINUOUS
10
57.2289579085
20
147.6880905766
11
57.0161919764
21
147.0630905766
0
LINE
5
25D
100
AcDbEntity
8
0
100
AcDbLine
62
7
6
CONTINUOUS
10
53.6119364670
20
146.4380905766
11
53.3991705349
21
146.0214243073
0
LINE
5
25E
100
AcDbEntity
8
0
100
AcDbLine
62
7
6
CONTINUOUS
10
139.5231652100
20
304.6964243073
11
157.3055535010
21
335.4964243073
0
LINE
5
25F
100
AcDbEntity
8
0
100
AcDbLine
62
7
6
CONTINUOUS
10
56.1651282481
20
145.1880905766
11
55.3140639237
21
145.1880905766
0
LINE
5
260
100
AcDbEntity
8
0
100
AcDbLine
62
7
6
CONTINUOUS
10
51.9098087123
20
145.1880905766
11
50.8459790519
21
145.1880905766
0
LINE
5
261
100
AcDbEntity
8
0
100
AcDbLine
62
7
6
CONTINUOUS
10
55.9523617199
20
146.4380905766
11
55.5268298558
21
146.4380905766
0
LINE
5
262
100
AcDbEntity
8
0
100
AcDbLine
62
7
6
CONTINUOUS
10
51.6970427803
20
146.4380905766
11
51.0587449840
21
146.4380905766
0
LINE
5
263
100
AcDbEntity
8
0
100
AcDbLine
62
7
6
CONTINUOUS
10
57.2289579085
20
151.6464243073
11
54.2502342633
21
151.6464243073
0
LINE
5
264
100
AcDbEntity
8
0
100
AcDbLine
62
7
6
CONTINUOUS
10
52.9736386708
20
151.6464243073
11
49.7821492425
21
151.6464243073
0
LINE
5
265
100
AcDbEntity
8
0
100
AcDbLine
62
7
6
CONTINUOUS
10
58.5055535010
20
152.8964243073
11
48.5055535010
21
152.8964243073
0
LINE
5
266
100
AcDbEntity
8
0
100
AcDbLine
62
7
6
CONTINUOUS
10
95.7055535010
20
335.4964243073
11
95.7055535010
21
353.0964243073
0
LINE
5
267
100
AcDbEntity
8
0
100
AcDbLine
62
7
6
CONTINUOUS
10
104.5055535010
20
319.0754007539
11
104.5055535010
21
305.1964243073
0
LINE
5
268
100
AcDbEntity
8
0
100
AcDbLine
62
7
6
CONTINUOUS
10
110.5055535010
20
229.8964243073
11
110.5055535010
21
304.1964243073
0
LINE
5
269
100
AcDbEntity
8
0
100
AcDbLine
62
7
6
CONTINUOUS
10
120.0085981749
20
341.6060121523
11
116.1302361375
21
304.1964243073
0
LINE
5
26A
100
AcDbEntity
8
0
100
AcDbLine
62
7
6
CONTINUOUS
10
58.2927875689
20
119.1464243073
11
57.8672557047
21
118.3130893845
0
LINE
5
26B
100
AcDbEntity
8
0
100
AcDbLine
62
7
6
CONTINUOUS
10
58.2927875689
20
109.9797592300
11
57.8672557047
21
109.1464243073
0
LINE
5
26C
100
AcDbEntity
8
0
100
AcDbLine
62
7
6
CONTINUOUS
10
57.2289579085
20
119.5630893845
11
56.8034260443
21
118.9380893845
0
LINE
5
26D
100
AcDbEntity
8
0
100
AcDbLine
62
7
6
CONTINUOUS
10
58.2927875689
20
146.8547580380
11
57.6544897727
21
146.0214243073
0
LINE
5
26E
100
AcDbEntity
8
0
100
AcDbLine
62
7
6
CONTINUOUS
10
52.7608727387
20
147.0630905766
11
52.3353408745
21
146.6464243073
0
LINE
5
26F
100
AcDbEntity
8
0
100
AcDbLine
62
7
6
CONTINUOUS
10
57.0161919764
20
147.0630905766
11
56.5906601122
21
146.6464243073
0
LINE
5
270
100
AcDbEntity
8
0
100
AcDbLine
62
7
6
CONTINUOUS
10
121.0055535010
20
207.8964243073
11
121.0055535010
21
341.0968409812
0
LINE
5
271
100
AcDbEntity
8
DEFAULT_1
100
AcDbLine
62
2
6
CENTER
10
126.5055535010
20
353.0964243073
11
126.5055535010
21
336.8964243073
0
LINE
5
272
100
AcDbEntity
8
DEFAULT_1
100
AcDbLine
62
2
6
CENTER
10
126.5055535010
20
353.0964243073
11
126.5055535010
21
369.2964243073
0
LINE
5
273
100
AcDbEntity
8
DEFAULT_1
100
AcDbLine
62
2
6
CENTER
10
126.5055535010
20
8.1884289717
11
126.5055535010
21
336.8964243073
0
LINE
5
274
100
AcDbEntity
8
DEFAULT_1
100
AcDbLine
62
2
6
CENTER
10
126.5055535010
20
369.2964243073
11
126.5055535010
21
386.8964243073
0
LINE
5
275
100
AcDbEntity
8
0
100
AcDbLine
62
7
6
CONTINUOUS
10
140.2434161269
20
221.6945263274
11
132.0055535010
21
207.8964243073
0
LINE
5
276
100
AcDbEntity
8
0
100
AcDbLine
62
7
6
CONTINUOUS
10
57.2289579085
20
110.3964243073
11
56.8034260443
21
109.7714243073
0
LINE
5
277
100
AcDbEntity
8
0
100
AcDbLine
62
7
6
CONTINUOUS
10
53.3991705349
20
146.0214243073
11
52.5481068066
21
145.3964243073
0
LINE
5
278
100
AcDbEntity
8
0
100
AcDbLine
62
7
6
CONTINUOUS
10
57.6544897727
20
146.0214243073
11
56.8034260443
21
145.3964243073
0
LINE
5
279
100
AcDbEntity
8
0
100
AcDbLine
62
7
6
CONTINUOUS
10
121.0055535010
20
207.8964243073
11
112.7676908751
21
221.6945263274
0
LINE
5
27A
100
AcDbEntity
8
0
100
AcDbLine
62
7
6
CONTINUOUS
10
132.0055535010
20
207.8964243073
11
132.0055535010
21
341.0968409812
0
LINE
5
27B
100
AcDbEntity
8
0
100
AcDbLine
62
7
6
CONTINUOUS
10
57.8672557047
20
118.3130893845
11
57.0161919764
21
117.4797592300
0
LINE
5
27C
100
AcDbEntity
8
0
100
AcDbLine
62
7
6
CONTINUOUS
10
57.8672557047
20
109.1464243073
11
57.0161919764
21
108.3130893845
0
LINE
5
27D
100
AcDbEntity
8
0
100
AcDbLine
62
7
6
CONTINUOUS
10
49.7821492425
20
158.7297577399
11
58.5055535010
21
161.6464243073
0
LINE
5
27E
100
AcDbEntity
8
0
100
AcDbLine
62
7
6
CONTINUOUS
10
58.5055535010
20
162.8964243073
11
48.5055535010
21
159.5630908746
0
LINE
5
27F
100
AcDbEntity
8
0
100
AcDbLine
62
7
6
CONTINUOUS
10
132.0055535010
20
207.8964243073
11
121.0055535010
21
207.8964243073
0
LINE
5
280
100
AcDbEntity
8
0
100
AcDbLine
62
7
6
CONTINUOUS
10
133.0025088271
20
341.6060121523
11
136.8808708645
21
304.1964243073
0
LINE
5
281
100
AcDbEntity
8
0
100
AcDbLine
62
7
6
CONTINUOUS
10
142.5055535010
20
229.8964243073
11
142.5055535010
21
304.1964243073
0
LINE
5
282
100
AcDbEntity
8
0
100
AcDbLine
62
7
6
CONTINUOUS
10
148.5055535010
20
319.0754007539
11
148.5055535010
21
305.1964243073
0
LINE
5
283
100
AcDbEntity
8
0
100
AcDbLine
62
7
6
CONTINUOUS
10
56.1651282481
20
118.5214243073
11
56.8034260443
21
118.9380893845
0
LINE
5
284
100
AcDbEntity
8
0
100
AcDbLine
62
7
6
CONTINUOUS
10
52.3353408745
20
146.6464243073
11
51.6970427803
21
146.4380905766
0
LINE
5
285
100
AcDbEntity
8
0
100
AcDbLine
62
7
6
CONTINUOUS
10
52.5481068066
20
145.3964243073
11
51.9098087123
21
145.1880905766
0
LINE
5
286
100
AcDbEntity
8
0
100
AcDbLine
62
7
6
CONTINUOUS
10
56.5906601122
20
146.6464243073
11
55.9523617199
21
146.4380905766
0
LINE
5
287
100
AcDbEntity
8
0
100
AcDbLine
62
7
6
CONTINUOUS
10
56.8034260443
20
145.3964243073
11
56.1651282481
21
145.1880905766
0
LINE
5
288
100
AcDbEntity
8
0
100
AcDbLine
62
7
6
CONTINUOUS
10
157.3055535010
20
335.4964243073
11
157.3055535010
21
353.0964243073
0
LINE
5
289
100
AcDbEntity
8
0
100
AcDbLine
62
7
6
CONTINUOUS
10
56.8034260443
20
109.7714243073
11
56.1651282481
21
109.3547592300
0
LINE
5
28A
100
AcDbEntity
8
0
100
AcDbLine
62
7
6
CONTINUOUS
10
113.4879417920
20
304.6964243073
11
95.7055535010
21
335.4964243073
0
LINE
5
28B
100
AcDbEntity
8
0
100
AcDbLine
62
7
6
CONTINUOUS
10
181.5055535010
20
100.8964243073
11
181.5055535010
21
190.8964243073
0
LINE
5
28C
100
AcDbEntity
8
0
100
AcDbLine
62
7
6
CONTINUOUS
10
217.5055535010
20
100.8964243073
11
217.5055535010
21
190.8964243073
0
LINE
5
28D
100
AcDbEntity
8
0
100
AcDbLine
62
7
6
CONTINUOUS
10
147.5055535010
20
304.1964243073
11
142.3000251527
21
304.1964243073
0
LINE
5
28E
100
AcDbEntity
8
DEFAULT_2
100
AcDbLine
62
8
6
HIDDEN
10
138.6948513090
20
304.1964243073
11
138.6571398062
21
304.1964243073
0
LINE
5
28F
100
AcDbEntity
8
0
100
AcDbLine
62
7
6
CONTINUOUS
10
116.1302361375
20
304.1964243073
11
114.3539671958
21
304.1964243073
0
LINE
5
290
100
AcDbEntity
8
0
100
AcDbLine
62
7
6
CONTINUOUS
10
110.7110818493
20
304.1964243073
11
105.5055535010
21
304.1964243073
0
LINE
5
291
100
AcDbEntity
8
DEFAULT_2
100
AcDbLine
62
8
6
HIDDEN
10
114.3160433524
20
304.1964243073
11
114.3539671958
21
304.1964243073
0
LINE
5
292
100
AcDbEntity
8
0
100
AcDbLine
62
7
6
CONTINUOUS
10
136.8808708645
20
304.1964243073
11
138.6571398062
21
304.1964243073
0
LINE
5
293
100
AcDbEntity
8
DEFAULT_1
100
AcDbLine
62
2
6
CENTER
10
126.5055535010
20
353.0964243073
11
110.3055535010
21
353.0964243073
0
LINE
5
294
100
AcDbEntity
8
DEFAULT_1
100
AcDbLine
62
2
6
CENTER
10
126.5055535010
20
353.0964243073
11
142.7055535010
21
353.0964243073
0
LINE
5
295
100
AcDbEntity
8
0
100
AcDbLine
62
7
6
CONTINUOUS
10
307.6312606467
20
383.8964243073
11
293.9752072730
21
367.2781590327
0
LINE
5
296
100
AcDbEntity
8
DEFAULT_2
100
AcDbLine
62
8
6
HIDDEN
10
362.8360318637
20
108.1047592300
11
362.5395622065
21
108.1047592300
0
LINE
5
297
100
AcDbEntity
8
0
100
AcDbLine
62
7
6
CONTINUOUS
10
362.5395622065
20
108.1047592300
11
362.2668237388
21
108.1047592300
0
LINE
5
298
100
AcDbEntity
8
DEFAULT_2
100
AcDbLine
62
8
6
HIDDEN
10
362.2668237388
20
108.1047592300
11
362.1752072730
21
108.1047592300
0
LINE
5
299
100
AcDbEntity
8
DEFAULT_2
100
AcDbLine
62
8
6
HIDDEN
10
362.9220000312
20
108.3130893845
11
362.1752072730
21
108.3130893845
0
LINE
5
29A
100
AcDbEntity
8
DEFAULT_2
100
AcDbLine
62
8
6
HIDDEN
10
362.9597965249
20
108.7297592300
11
362.1752072730
21
108.7297592300
0
LINE
5
29B
100
AcDbEntity
8
DEFAULT_2
100
AcDbLine
62
8
6
HIDDEN
10
362.4387565653
20
109.1464243073
11
362.1752072730
21
109.1464243073
0
LINE
5
29C
100
AcDbEntity
8
DEFAULT_2
100
AcDbLine
62
8
6
HIDDEN
10
362.8360318637
20
109.3547592300
11
362.1752072730
21
109.3547592300
0
LINE
5
29D
100
AcDbEntity
8
DEFAULT_2
100
AcDbLine
62
8
6
HIDDEN
10
362.9220000312
20
109.7714243073
11
362.1752072730
21
109.7714243073
0
LINE
5
29E
100
AcDbEntity
8
DEFAULT_2
100
AcDbLine
62
8
6
HIDDEN
10
362.3269331231
20
109.9797592300
11
362.1752072730
21
109.9797592300
0
LINE
5
29F
100
AcDbEntity
8
DEFAULT_2
100
AcDbLine
62
8
6
HIDDEN
10
362.5858932226
20
110.3964243073
11
362.1752072730
21
110.3964243073
0
LINE
5
2A0
100
AcDbEntity
8
DEFAULT_2
100
AcDbLine
62
8
6
HIDDEN
10
362.2668237388
20
111.2297592300
11
362.1752072730
21
111.2297592300
0
LINE
5
2A1
100
AcDbEntity
8
DEFAULT_2
100
AcDbLine
62
8
6
HIDDEN
10
362.5395621731
20
111.4380893845
11
362.1752072730
21
111.4380893845
0
LINE
5
2A2
100
AcDbEntity
8
DEFAULT_2
100
AcDbLine
62
8
6
HIDDEN
10
362.2668237388
20
112.0630893845
11
362.1752072730
21
112.0630893845
0
LINE
5
2A3
100
AcDbEntity
8
DEFAULT_2
100
AcDbLine
62
8
6
HIDDEN
10
362.5395621731
20
112.2714243073
11
362.1752072730
21
112.2714243073
0
LINE
5
2A4
100
AcDbEntity
8
DEFAULT_2
100
AcDbLine
62
8
6
HIDDEN
10
362.5858932226
20
113.3130893845
11
362.1752072730
21
113.3130893845
0
LINE
5
2A5
100
AcDbEntity
8
DEFAULT_2
100
AcDbLine
62
8
6
HIDDEN
10
362.3269331231
20
113.5214243073
11
362.1752072730
21
113.5214243073
0
LINE
5
2A6
100
AcDbEntity
8
DEFAULT_2
100
AcDbLine
62
8
6
HIDDEN
10
362.6705184228
20
113.9380893845
11
362.5395622065
21
113.9380893845
0
LINE
5
2A7
100
AcDbEntity
8
0
100
AcDbLine
62
7
6
CONTINUOUS
10
362.5395622065
20
113.9380893845
11
362.2668237388
21
113.9380893845
0
LINE
5
2A8
100
AcDbEntity
8
DEFAULT_2
100
AcDbLine
62
8
6
HIDDEN
10
362.2668237388
20
113.9380893845
11
362.1752072730
21
113.9380893845
0
LINE
5
2A9
100
AcDbEntity
8
DEFAULT_2
100
AcDbLine
62
8
6
HIDDEN
10
362.7776414370
20
114.3547592300
11
362.1752072730
21
114.3547592300
0
LINE
5
2AA
100
AcDbEntity
8
DEFAULT_2
100
AcDbLine
62
8
6
HIDDEN
10
362.6295386819
20
115.1880893845
11
362.1752072730
21
115.1880893845
0
LINE
5
2AB
100
AcDbEntity
8
DEFAULT_2
100
AcDbLine
62
8
6
HIDDEN
10
362.7776414370
20
115.3964243073
11
362.1752072730
21
115.3964243073
0
LINE
5
2AC
100
AcDbEntity
8
DEFAULT_2
100
AcDbLine
62
8
6
HIDDEN
10
362.2668237388
20
115.6047592300
11
362.1752072730
21
115.6047592300
0
LINE
5
2AD
100
AcDbEntity
8
0
100
AcDbLine
62
7
6
CONTINUOUS
10
362.5395622065
20
115.6047592300
11
362.2668237388
21
115.6047592300
0
LINE
5
2AE
100
AcDbEntity
8
DEFAULT_2
100
AcDbLine
62
8
6
HIDDEN
10
362.8360318637
20
117.2714243073
11
362.5395622065
21
117.2714243073
0
LINE
5
2AF
100
AcDbEntity
8
0
100
AcDbLine
62
7
6
CONTINUOUS
10
362.5395622065
20
117.2714243073
11
362.2668237388
21
117.2714243073
0
LINE
5
2B0
100
AcDbEntity
8
DEFAULT_2
100
AcDbLine
62
8
6
HIDDEN
10
362.2668237388
20
117.2714243073
11
362.1752072730
21
117.2714243073
0
LINE
5
2B1
100
AcDbEntity
8
DEFAULT_2
100
AcDbLine
62
8
6
HIDDEN
10
362.9220000312
20
117.4797592300
11
362.1752072730
21
117.4797592300
0
LINE
5
2B2
100
AcDbEntity
8
DEFAULT_2
100
AcDbLine
62
8
6
HIDDEN
10
362.9597965249
20
117.8964243073
11
362.1752072730
21
117.8964243073
0
LINE
5
2B3
100
AcDbEntity
8
DEFAULT_2
100
AcDbLine
62
8
6
HIDDEN
10
362.4387565653
20
118.3130893845
11
362.1752072730
21
118.3130893845
0
LINE
5
2B4
100
AcDbEntity
8
DEFAULT_2
100
AcDbLine
62
8
6
HIDDEN
10
362.8360318637
20
118.5214243073
11
362.1752072730
21
118.5214243073
0
LINE
5
2B5
100
AcDbEntity
8
DEFAULT_2
100
AcDbLine
62
8
6
HIDDEN
10
362.9220000312
20
118.9380893845
11
362.1752072730
21
118.9380893845
0
LINE
5
2B6
100
AcDbEntity
8
DEFAULT_2
100
AcDbLine
62
8
6
HIDDEN
10
362.3269331231
20
119.1464243073
11
362.1752072730
21
119.1464243073
0
LINE
5
2B7
100
AcDbEntity
8
DEFAULT_2
100
AcDbLine
62
8
6
HIDDEN
10
362.5858932226
20
119.5630893845
11
362.1752072730
21
119.5630893845
0
LINE
5
2B8
100
AcDbEntity
8
0
100
AcDbLine
62
7
6
CONTINUOUS
10
281.9475110802
20
283.0099076779
11
293.9752072730
21
351.2223624279
0
LINE
5
2B9
100
AcDbEntity
8
DEFAULT_2
100
AcDbLine
62
8
6
HIDDEN
10
362.2668237388
20
120.3964243073
11
362.1752072730
21
120.3964243073
0
LINE
5
2BA
100
AcDbEntity
8
DEFAULT_2
100
AcDbLine
62
8
6
HIDDEN
10
362.5395621731
20
120.6047592300
11
362.1752072730
21
120.6047592300
0
LINE
5
2BB
100
AcDbEntity
8
DEFAULT_2
100
AcDbLine
62
8
6
HIDDEN
10
362.2668237388
20
121.2297592300
11
362.1752072730
21
121.2297592300
0
LINE
5
2BC
100
AcDbEntity
8
DEFAULT_2
100
AcDbLine
62
8
6
HIDDEN
10
362.5395621731
20
121.4380893845
11
362.1752072730
21
121.4380893845
0
LINE
5
2BD
100
AcDbEntity
8
DEFAULT_2
100
AcDbLine
62
8
6
HIDDEN
10
362.5858932226
20
122.4797592300
11
362.1752072730
21
122.4797592300
0
LINE
5
2BE
100
AcDbEntity
8
DEFAULT_2
100
AcDbLine
62
8
6
HIDDEN
10
362.3269331231
20
122.6880893845
11
362.1752072730
21
122.6880893845
0
LINE
5
2BF
100
AcDbEntity
8
DEFAULT_2
100
AcDbLine
62
8
6
HIDDEN
10
362.6705184228
20
123.1047568459
11
362.5395622065
21
123.1047568459
0
LINE
5
2C0
100
AcDbEntity
8
0
100
AcDbLine
62
7
6
CONTINUOUS
10
362.5395622065
20
123.1047568459
11
362.2668237388
21
123.1047568459
0
LINE
5
2C1
100
AcDbEntity
8
DEFAULT_2
100
AcDbLine
62
8
6
HIDDEN
10
362.2668237388
20
123.1047568459
11
362.1752072730
21
123.1047568459
0
LINE
5
2C2
100
AcDbEntity
8
DEFAULT_2
100
AcDbLine
62
8
6
HIDDEN
10
362.7776414370
20
123.5214243073
11
362.1752072730
21
123.5214243073
0
LINE
5
2C3
100
AcDbEntity
8
DEFAULT_2
100
AcDbLine
62
8
6
HIDDEN
10
362.6295386819
20
124.3547568459
11
362.1752072730
21
124.3547568459
0
LINE
5
2C4
100
AcDbEntity
8
DEFAULT_2
100
AcDbLine
62
8
6
HIDDEN
10
362.7776414370
20
124.5630917686
11
362.1752072730
21
124.5630917686
0
LINE
5
2C5
100
AcDbEntity
8
DEFAULT_2
100
AcDbLine
62
8
6
HIDDEN
10
362.2668237388
20
124.7714243073
11
362.1752072730
21
124.7714243073
0
LINE
5
2C6
100
AcDbEntity
8
0
100
AcDbLine
62
7
6
CONTINUOUS
10
362.5395622065
20
124.7714243073
11
362.2668237388
21
124.7714243073
0
LINE
5
2C7
100
AcDbEntity
8
DEFAULT_2
100
AcDbLine
62
8
6
HIDDEN
10
362.9220000082
20
126.4380917686
11
362.1752072730
21
126.4380917686
0
LINE
5
2C8
100
AcDbEntity
8
0
100
AcDbLine
62
7
6
CONTINUOUS
10
362.9220000082
20
126.4380917686
11
362.9723777167
21
126.4380917686
0
LINE
5
2C9
100
AcDbEntity
8
0
100
AcDbLine
62
7
6
CONTINUOUS
10
362.9723777167
20
129.3547568459
11
362.9220000082
21
129.3547568459
0
LINE
5
2CA
100
AcDbEntity
8
DEFAULT_2
100
AcDbLine
62
8
6
HIDDEN
10
362.9220000082
20
129.3547568459
11
362.1752072730
21
129.3547568459
0
LINE
5
2CB
100
AcDbEntity
8
DEFAULT_2
100
AcDbLine
62
8
6
HIDDEN
10
362.2668237388
20
131.0214243073
11
362.1752072730
21
131.0214243073
0
LINE
5
2CC
100
AcDbEntity
8
0
100
AcDbLine
62
7
6
CONTINUOUS
10
362.2668237388
20
131.0214243073
11
362.9752072730
21
131.0214243073
0
LINE
5
2CD
100
AcDbEntity
8
DEFAULT_2
100
AcDbLine
62
8
6
HIDDEN
10
362.2668237388
20
132.2714243073
11
362.1752072730
21
132.2714243073
0
LINE
5
2CE
100
AcDbEntity
8
0
100
AcDbLine
62
7
6
CONTINUOUS
10
362.9751038656
20
132.2714243073
11
362.2668237388
21
132.2714243073
0
LINE
5
2CF
100
AcDbEntity
8
0
100
AcDbLine
62
7
6
CONTINUOUS
10
293.9752072730
20
304.1964243073
11
293.9752072730
21
367.2781590327
0
LINE
5
2D0
100
AcDbEntity
8
DEFAULT_2
100
AcDbLine
62
8
6
HIDDEN
10
362.8841237687
20
133.5214243073
11
362.1752072730
21
133.5214243073
0
LINE
5
2D1
100
AcDbEntity
8
0
100
AcDbLine
62
7
6
CONTINUOUS
10
362.9043343730
20
145.1880905766
11
362.7776414815
21
145.1880905766
0
LINE
5
2D2
100
AcDbEntity
8
DEFAULT_2
100
AcDbLine
62
8
6
HIDDEN
10
362.7776414815
20
145.1880905766
11
362.1752072730
21
145.1880905766
0
LINE
5
2D3
100
AcDbEntity
8
0
100
AcDbLine
62
7
6
CONTINUOUS
10
362.9497252311
20
145.3964243073
11
362.6705184505
21
145.3964243073
0
LINE
5
2D4
100
AcDbEntity
8
DEFAULT_2
100
AcDbLine
62
8
6
HIDDEN
10
362.6705184505
20
145.3964243073
11
362.1752072730
21
145.3964243073
0
LINE
5
2D5
100
AcDbEntity
8
0
100
AcDbLine
62
7
6
CONTINUOUS
10
362.9748929009
20
146.0214243073
11
362.4905242393
21
146.0214243073
0
LINE
5
2D6
100
AcDbEntity
8
DEFAULT_2
100
AcDbLine
62
8
6
HIDDEN
10
362.4905242393
20
146.0214243073
11
362.1752072730
21
146.0214243073
0
LINE
5
2D7
100
AcDbEntity
8
DEFAULT_2
100
AcDbLine
62
8
6
HIDDEN
10
362.4118353842
20
146.4380905766
11
362.1752072730
21
146.4380905766
0
LINE
5
2D8
100
AcDbEntity
8
0
100
AcDbLine
62
7
6
CONTINUOUS
10
362.9748928998
20
146.4380905766
11
362.4118353842
21
146.4380905766
0
LINE
5
2D9
100
AcDbEntity
8
DEFAULT_2
100
AcDbLine
62
8
6
HIDDEN
10
362.9371281727
20
146.6464243073
11
362.7088509774
21
146.6464243073
0
LINE
5
2DA
100
AcDbEntity
8
0
100
AcDbLine
62
7
6
CONTINUOUS
10
362.7088509774
20
146.6464243073
11
362.3701703751
21
146.6464243073
0
LINE
5
2DB
100
AcDbEntity
8
DEFAULT_2
100
AcDbLine
62
8
6
HIDDEN
10
362.3701703751
20
146.6464243073
11
362.1752072730
21
146.6464243073
0
LINE
5
2DC
100
AcDbEntity
8
DEFAULT_2
100
AcDbLine
62
8
6
HIDDEN
10
362.3269331283
20
146.8547580380
11
362.1752072730
21
146.8547580380
0
LINE
5
2DD
100
AcDbEntity
8
DEFAULT_2
100
AcDbLine
62
8
6
HIDDEN
10
362.9597965249
20
147.0630905766
11
362.6295387115
21
147.0630905766
0
LINE
5
2DE
100
AcDbEntity
8
0
100
AcDbLine
62
7
6
CONTINUOUS
10
362.6295387115
20
147.0630905766
11
362.3151225364
21
147.0630905766
0
LINE
5
2DF
100
AcDbEntity
8
DEFAULT_2
100
AcDbLine
62
8
6
HIDDEN
10
362.3151225364
20
147.0630905766
11
362.1752072730
21
147.0630905766
0
LINE
5
2E0
100
AcDbEntity
8
DEFAULT_2
100
AcDbLine
62
8
6
HIDDEN
10
362.9673462243
20
147.6880905766
11
362.5858932542
21
147.6880905766
0
LINE
5
2E1
100
AcDbEntity
8
0
100
AcDbLine
62
7
6
CONTINUOUS
10
362.5858932542
20
147.6880905766
11
362.2790577030
21
147.6880905766
0
LINE
5
2E2
100
AcDbEntity
8
DEFAULT_2
100
AcDbLine
62
8
6
HIDDEN
10
362.2790577030
20
147.6880905766
11
362.1752072730
21
147.6880905766
0
LINE
5
2E3
100
AcDbEntity
8
DEFAULT_2
100
AcDbLine
62
8
6
HIDDEN
10
362.2668237388
20
147.8964243073
11
362.1752072730
21
147.8964243073
0
LINE
5
2E4
100
AcDbEntity
8
DEFAULT_2
100
AcDbLine
62
8
6
HIDDEN
10
362.2668237388
20
151.6464243073
11
362.1752072730
21
151.6464243073
0
LINE
5
2E5
100
AcDbEntity
8
0
100
AcDbLine
62
7
6
CONTINUOUS
10
362.9673462957
20
151.6464243073
11
362.2668237388
21
151.6464243073
0
LINE
5
2E6
100
AcDbEntity
8
DEFAULT_2
100
AcDbLine
62
8
6
HIDDEN
10
362.2668237388
20
152.8964243073
11
362.1752072730
21
152.8964243073
0
LINE
5
2E7
100
AcDbEntity
8
0
100
AcDbLine
62
7
6
CONTINUOUS
10
362.9752072730
20
152.8964243073
11
362.2668237388
21
152.8964243073
0
LINE
5
2E8
100
AcDbEntity
8
DEFAULT_2
100
AcDbLine
62
8
6
HIDDEN
10
362.2668237388
20
154.5630911726
11
362.1752072730
21
154.5630911726
0
LINE
5
2E9
100
AcDbEntity
8
DEFAULT_2
100
AcDbLine
62
8
6
HIDDEN
10
362.2668237388
20
155.8130911726
11
362.1752072730
21
155.8130911726
0
LINE
5
2EA
100
AcDbEntity
8
DEFAULT_2
100
AcDbLine
62
8
6
HIDDEN
10
362.2668237388
20
157.8964243073
11
362.1752072730
21
157.8964243073
0
LINE
5
2EB
100
AcDbEntity
8
DEFAULT_2
100
AcDbLine
62
8
6
HIDDEN
10
362.2668237388
20
158.7297577399
11
362.1752072730
21
158.7297577399
0
LINE
5
2EC
100
AcDbEntity
8
0
100
AcDbLine
62
7
6
CONTINUOUS
10
362.5858932542
20
158.7297577399
11
362.2668237388
21
158.7297577399
0
LINE
5
2ED
100
AcDbEntity
8
0
100
AcDbLine
62
7
6
CONTINUOUS
10
315.9760693547
20
335.4964243073
11
315.9760693547
21
383.8964243073
0
LINE
5
2EE
100
AcDbEntity
8
DEFAULT_2
100
AcDbLine
62
8
6
HIDDEN
10
362.2668237388
20
159.5630908746
11
362.1752072730
21
159.5630908746
0
LINE
5
2EF
100
AcDbEntity
8
DEFAULT_2
100
AcDbLine
62
8
6
HIDDEN
10
362.2668237388
20
161.6464243073
11
362.1752072730
21
161.6464243073
0
LINE
5
2F0
100
AcDbEntity
8
DEFAULT_2
100
AcDbLine
62
8
6
HIDDEN
10
362.2668237388
20
162.8964243073
11
362.1752072730
21
162.8964243073
0
LINE
5
2F1
100
AcDbEntity
8
0
100
AcDbLine
62
7
6
CONTINUOUS
10
326.9752072730
20
263.8964243073
11
326.9752072730
21
27.8964243073
0
LINE
5
2F2
100
AcDbEntity
8
0
100
AcDbLine
62
7
6
CONTINUOUS
10
332.6552072730
20
379.3605143937
11
332.6552072730
21
323.6164239763
0
LINE
5
2F3
100
AcDbEntity
8
DEFAULT_1
100
AcDbLine
62
2
6
CENTER
10
344.9752072730
20
6.8964243073
11
344.9752072730
21
386.8964243073
0
LINE
5
2F4
100
AcDbEntity
8
0
100
AcDbLine
62
7
6
CONTINUOUS
10
357.2952072730
20
323.6164243073
11
357.2952072730
21
379.3605143937
0
LINE
5
2F5
100
AcDbEntity
8
DEFAULT_2
100
AcDbLine
62
8
6
HIDDEN
10
362.1752072730
20
162.8964243073
11
362.1752072730
21
154.5630911726
0
LINE
5
2F6
100
AcDbEntity
8
DEFAULT_2
100
AcDbLine
62
8
6
HIDDEN
10
362.1752072730
20
152.8964243073
11
362.1752072730
21
145.1880905766
0
LINE
5
2F7
100
AcDbEntity
8
DEFAULT_2
100
AcDbLine
62
8
6
HIDDEN
10
362.1752072730
20
133.5214243073
11
362.1752072730
21
131.0214243073
0
LINE
5
2F8
100
AcDbEntity
8
DEFAULT_2
100
AcDbLine
62
8
6
HIDDEN
10
362.1752072730
20
129.3547568459
11
362.1752072730
21
126.4380917686
0
LINE
5
2F9
100
AcDbEntity
8
DEFAULT_2
100
AcDbLine
62
8
6
HIDDEN
10
362.1752072730
20
124.7714243073
11
362.1752072730
21
117.2714243073
0
LINE
5
2FA
100
AcDbEntity
8
DEFAULT_2
100
AcDbLine
62
8
6
HIDDEN
10
362.1752072730
20
115.6047592300
11
362.1752072730
21
108.1047592300
0
LINE
5
2FB
100
AcDbEntity
8
DEFAULT_2
100
AcDbLine
62
8
6
HIDDEN
10
362.2668237388
20
162.8964243073
11
362.2668237388
21
161.6464243073
0
LINE
5
2FC
100
AcDbEntity
8
0
100
AcDbLine
62
7
6
CONTINUOUS
10
362.2668237388
20
159.5630908746
11
362.2668237388
21
157.8964243073
0
LINE
5
2FD
100
AcDbEntity
8
DEFAULT_2
100
AcDbLine
62
8
6
HIDDEN
10
362.2668237388
20
155.8130911726
11
362.2668237388
21
154.5630911726
0
LINE
5
2FE
100
AcDbEntity
8
0
100
AcDbLine
62
7
6
CONTINUOUS
10
362.2668237388
20
152.8964243073
11
362.2668237388
21
147.8964243073
0
LINE
5
2FF
100
AcDbEntity
8
0
100
AcDbLine
62
7
6
CONTINUOUS
10
362.2668237388
20
132.2714243073
11
362.2668237388
21
131.0214243073
0
LINE
5
300
100
AcDbEntity
8
0
100
AcDbLine
62
7
6
CONTINUOUS
10
362.2668237388
20
124.7714243073
11
362.2668237388
21
117.2714243073
0
LINE
5
301
100
AcDbEntity
8
0
100
AcDbLine
62
7
6
CONTINUOUS
10
362.2668237388
20
115.6047592300
11
362.2668237388
21
108.1047592300
0
LINE
5
302
100
AcDbEntity
8
0
100
AcDbLine
62
7
6
CONTINUOUS
10
362.5395622065
20
123.1047568459
11
362.5395622065
21
117.2714243073
0
LINE
5
303
100
AcDbEntity
8
0
100
AcDbLine
62
7
6
CONTINUOUS
10
362.5395622065
20
113.9380893845
11
362.5395622065
21
108.1047592300
0
LINE
5
304
100
AcDbEntity
8
0
100
AcDbLine
62
7
6
CONTINUOUS
10
362.5858932542
20
151.6464243073
11
362.5858932542
21
147.6880905766
0
LINE
5
305
100
AcDbEntity
8
DEFAULT_2
100
AcDbLine
62
8
6
HIDDEN
10
362.7776414370
20
124.5630917686
11
362.7776414370
21
123.5214243073
0
LINE
5
306
100
AcDbEntity
8
DEFAULT_2
100
AcDbLine
62
8
6
HIDDEN
10
362.7776414370
20
115.3964243073
11
362.7776414370
21
114.3547592300
0
LINE
5
307
100
AcDbEntity
8
0
100
AcDbLine
62
7
6
CONTINUOUS
10
362.9220000082
20
129.3547568459
11
362.9220000082
21
126.4380917686
0
LINE
5
308
100
AcDbEntity
8
DEFAULT_2
100
AcDbLine
62
8
6
HIDDEN
10
362.9597965249
20
151.6464243073
11
362.9597965249
21
147.6880905766
0
LINE
5
309
100
AcDbEntity
8
0
100
AcDbLine
62
7
6
CONTINUOUS
10
362.9673462957
20
151.6464243073
11
362.9673462957
21
147.6880905766
0
LINE
5
30A
100
AcDbEntity
8
0
100
AcDbLine
62
7
6
CONTINUOUS
10
362.9723777167
20
129.3547568459
11
362.9723777167
21
126.4380917686
0
LINE
5
30B
100
AcDbEntity
8
0
100
AcDbLine
62
7
6
CONTINUOUS
10
362.9752072730
20
126.4380917686
11
362.9752072730
21
120.4550671369
0
LINE
5
30C
100
AcDbEntity
8
0
100
AcDbLine
62
7
6
CONTINUOUS
10
362.9752072730
20
118.7249906795
11
362.9752072730
21
111.2884020597
0
LINE
5
30D
100
AcDbEntity
8
0
100
AcDbLine
62
7
6
CONTINUOUS
10
362.9752072730
20
109.5583252230
11
362.9752072730
21
27.8964243073
0
LINE
5
30E
100
AcDbEntity
8
DEFAULT_2
100
AcDbLine
62
8
6
HIDDEN
10
362.9752072730
20
109.5583252230
11
362.9752072730
21
109.5600964340
0
LINE
5
30F
100
AcDbEntity
8
0
100
AcDbLine
62
7
6
CONTINUOUS
10
362.9752072730
20
109.5600964340
11
362.9752072730
21
109.7714243073
0
LINE
5
310
100
AcDbEntity
8
DEFAULT_2
100
AcDbLine
62
8
6
HIDDEN
10
362.9752072730
20
109.7714243073
11
362.9752072730
21
111.2892192724
0
LINE
5
311
100
AcDbEntity
8
DEFAULT_2
100
AcDbLine
62
8
6
HIDDEN
10
362.9752072730
20
118.7249906795
11
362.9752072730
21
118.7267618917
0
LINE
5
312
100
AcDbEntity
8
0
100
AcDbLine
62
7
6
CONTINUOUS
10
362.9752072730
20
118.7267618917
11
362.9752072730
21
118.9380893845
0
LINE
5
313
100
AcDbEntity
8
DEFAULT_2
100
AcDbLine
62
8
6
HIDDEN
10
362.9752072730
20
118.9380893845
11
362.9752072730
21
120.4558843496
0
LINE
5
314
100
AcDbEntity
8
DEFAULT_2
100
AcDbLine
62
8
6
HIDDEN
10
362.9752072730
20
126.4380917686
11
362.9752072730
21
129.3547568459
0
LINE
5
315
100
AcDbEntity
8
0
100
AcDbLine
62
7
6
CONTINUOUS
10
362.9752072730
20
129.3547568459
11
362.9752072730
21
145.3964243073
0
LINE
5
316
100
AcDbEntity
8
DEFAULT_2
100
AcDbLine
62
8
6
HIDDEN
10
362.9752072730
20
145.3964243073
11
362.9752072730
21
146.4380905766
0
LINE
5
317
100
AcDbEntity
8
0
100
AcDbLine
62
7
6
CONTINUOUS
10
362.9752072730
20
146.4380905766
11
362.9752072730
21
147.0630905766
0
LINE
5
318
100
AcDbEntity
8
DEFAULT_2
100
AcDbLine
62
8
6
HIDDEN
10
362.9752072730
20
147.0630905766
11
362.9752072730
21
151.6464243073
0
LINE
5
319
100
AcDbEntity
8
0
100
AcDbLine
62
7
6
CONTINUOUS
10
362.9752072730
20
151.6464243073
11
362.9752072730
21
263.8964243073
0
LINE
5
31A
100
AcDbEntity
8
DEFAULT_2
100
AcDbLine
62
8
6
HIDDEN
10
362.9750787842
20
118.7267618917
11
362.9598091155
21
117.8964243073
0
LINE
5
31B
100
AcDbEntity
8
DEFAULT_2
100
AcDbLine
62
8
6
HIDDEN
10
362.9750787843
20
109.5600964340
11
362.9598091155
21
108.7297592300
0
LINE
5
31C
100
AcDbEntity
8
0
100
AcDbLine
62
7
6
CONTINUOUS
10
373.9743451912
20
383.8964243073
11
373.9743451912
21
335.4964243073
0
LINE
5
31D
100
AcDbEntity
8
0
100
AcDbLine
62
7
6
CONTINUOUS
10
395.9752072730
20
304.1964243073
11
395.9752072730
21
367.2781590327
0
LINE
5
31E
100
AcDbEntity
8
0
100
AcDbLine
62
7
6
CONTINUOUS
10
408.0029034657
20
283.0099076779
11
397.7606098978
21
341.0968409812
0
LINE
5
31F
100
AcDbEntity
8
0
100
AcDbLine
62
7
6
CONTINUOUS
10
395.9752072730
20
304.1964243073
11
392.8896274727
21
304.1964243073
0
LINE
5
320
100
AcDbEntity
8
0
100
AcDbLine
62
7
6
CONTINUOUS
10
384.5234976600
20
304.1964243073
11
305.4269168859
21
304.1964243073
0
LINE
5
321
100
AcDbEntity
8
0
100
AcDbLine
62
7
6
CONTINUOUS
10
297.0604259243
20
304.1964243073
11
293.9752072730
21
304.1964243073
0
LINE
5
322
100
AcDbEntity
8
0
100
AcDbLine
62
7
6
CONTINUOUS
10
357.2952072730
20
339.8964243073
11
332.6552072730
21
339.8964243073
0
LINE
5
323
100
AcDbEntity
8
DEFAULT_1
100
AcDbLine
62
2
6
CENTER
10
329.6552072730
20
353.0964243073
11
360.2952072730
21
353.0964243073
0
LINE
5
324
100
AcDbEntity
8
0
100
AcDbLine
62
7
6
CONTINUOUS
10
395.9752072730
20
367.2781590327
11
382.3191538993
21
383.8964243073
0
LINE
5
325
100
AcDbEntity
8
0
100
AcDbLine
62
7
6
CONTINUOUS
10
357.2952072730
20
366.2964243073
11
332.6552072730
21
366.2964243073
0
LINE
5
326
100
AcDbEntity
8
0
100
AcDbLine
62
7
6
CONTINUOUS
10
307.6312606467
20
383.8964243073
11
315.9760693547
21
383.8964243073
0
LINE
5
327
100
AcDbEntity
8
0
100
AcDbLine
62
7
6
CONTINUOUS
10
373.9743451912
20
383.8964243073
11
382.3191538993
21
383.8964243073
0
ARC
5
328
100
AcDbEntity
8
DEFAULT_2
100
AcDbCircle
62
8
6
HIDDEN
10
126.5055535010
20
190.8964243073
40
55.0000000000
100
AcDbArc
50
73.0805830992
51
106.9194169008
0
ARC
5
329
100
AcDbEntity
8
DEFAULT_2
100
AcDbCircle
62
8
6
HIDDEN
10
126.5055535010
20
190.8964243073
40
91.0000000000
100
AcDbArc
50
79.8711587333
51
100.1288412667
0
ARC
5
32A
100
AcDbEntity
8
0
100
AcDbCircle
62
7
6
CONTINUOUS
10
126.5055535010
20
229.8964243073
40
16.0000000000
100
AcDbArc
50
180.0000000000
51
210.8384129101
0
ARC
5
32B
100
AcDbEntity
8
0
100
AcDbCircle
62
7
6
CONTINUOUS
10
126.5055535010
20
229.8964243073
40
16.0000000000
100
AcDbArc
50
329.1615870899
51
360.0000000000
0
ARC
5
32C
100
AcDbEntity
8
0
100
AcDbCircle
62
7
6
CONTINUOUS
10
138.6571398062
20
305.1964243073
40
1.0000000000
100
AcDbArc
50
270.0000000000
51
330.0000000000
0
ARC
5
32D
100
AcDbEntity
8
0
100
AcDbCircle
62
7
6
CONTINUOUS
10
147.5055535010
20
305.1964243073
40
1.0000000000
100
AcDbArc
50
270.0000000000
51
360.0000000000
0
ARC
5
32E
100
AcDbEntity
8
0
100
AcDbCircle
62
7
6
CONTINUOUS
10
152.9055535010
20
319.0754007539
40
4.4000000000
100
AcDbArc
50
150.0000000000
51
180.0000000000
0
ARC
5
32F
100
AcDbEntity
8
0
100
AcDbCircle
62
7
6
CONTINUOUS
10
126.5055535010
20
353.0964243073
40
30.8000000000
100
AcDbArc
50
0.0000000000
51
180.0000000000
0
ARC
5
330
100
AcDbEntity
8
0
100
AcDbCircle
62
7
6
CONTINUOUS
10
100.1055535010
20
319.0754007539
40
4.4000000000
100
AcDbArc
50
0.0000000000
51
30.0000000000
0
CIRCLE
5
331
100
AcDbEntity
8
0
100
AcDbCircle
62
7
6
CONTINUOUS
10
126.5055535010
20
353.0964243073
40
13.2000000000
0
ARC
5
332
100
AcDbEntity
8
0
100
AcDbCircle
62
7
6
CONTINUOUS
10
105.5055535010
20
305.1964243073
40
1.0000000000
100
AcDbArc
50
180.0000000000
51
270.0000000000
0
ARC
5
333
100
AcDbEntity
8
0
100
AcDbCircle
62
7
6
CONTINUOUS
10
114.3539671958
20
305.1964243073
40
1.0000000000
100
AcDbArc
50
210.0000000000
51
270.0000000000
0
ARC
5
334
100
AcDbEntity
8
0
100
AcDbCircle
62
7
6
CONTINUOUS
10
126.5055535010
20
190.8964243073
40
55.0000000000
100
AcDbArc
50
0.0000000000
51
73.0805830992
0
ARC
5
335
100
AcDbEntity
8
0
100
AcDbCircle
62
7
6
CONTINUOUS
10
126.5055535010
20
190.8964243073
40
55.0000000000
100
AcDbArc
50
106.9194169008
51
180.0000000000
0
ARC
5
336
100
AcDbEntity
8
0
100
AcDbCircle
62
7
6
CONTINUOUS
10
126.5055535010
20
190.8964243073
40
91.0000000000
100
AcDbArc
50
0.0000000000
51
79.8711587333
0
ARC
5
337
100
AcDbEntity
8
0
100
AcDbCircle
62
7
6
CONTINUOUS
10
126.5055535010
20
190.8964243073
40
91.0000000000
100
AcDbArc
50
100.1288412667
51
180.0000000000
0
ARC
5
338
100
AcDbEntity
8
0
100
AcDbCircle
62
7
6
CONTINUOUS
10
126.5055535010
20
100.8964243073
40
55.0000000000
100
AcDbArc
50
180.0000000000
51
360.0000000000
0
ARC
5
339
100
AcDbEntity
8
0
100
AcDbCircle
62
7
6
CONTINUOUS
10
126.5055535010
20
100.8964243073
40
91.0000000000
100
AcDbArc
50
180.0000000000
51
360.0000000000
0
ARC
5
33A
100
AcDbEntity
8
DEFAULT_2
100
AcDbCircle
62
8
6
HIDDEN
10
344.9752072730
20
263.8964243073
40
18.0000000000
100
AcDbArc
50
180.0000000000
51
360.0000000000
0
ARC
5
33B
100
AcDbEntity
8
DEFAULT_2
100
AcDbCircle
62
8
6
HIDDEN
10
344.9752072730
20
27.8964243073
40
18.0000000000
100
AcDbArc
50
0.0000000000
51
180.0000000000
0
ARC
5
33C
100
AcDbEntity
8
DEFAULT_2
100
AcDbCircle
62
8
6
HIDDEN
10
344.9752072730
20
271.8964243073
40
64.0000000000
100
AcDbArc
50
253.6565608395
51
286.3434391605
0
ARC
5
33D
100
AcDbEntity
8
DEFAULT_2
100
AcDbCircle
62
8
6
HIDDEN
10
344.9752072730
20
271.8964243073
40
26.0000000000
100
AcDbArc
50
226.1504415040
51
313.8495584960
0
ARC
5
33E
100
AcDbEntity
8
0
100
AcDbCircle
62
7
6
CONTINUOUS
10
344.9752072730
20
263.8964243073
40
18.0000000000
100
AcDbArc
50
0.0000000000
51
180.0000000000
0
ARC
5
33F
100
AcDbEntity
8
0
100
AcDbCircle
62
7
6
CONTINUOUS
10
344.9752072730
20
27.8964243073
40
18.0000000000
100
AcDbArc
50
180.0000000000
51
360.0000000000
0
ARC
5
340
100
AcDbEntity
8
0
100
AcDbCircle
62
7
6
CONTINUOUS
10
344.9752072730
20
271.8964243073
40
64.0000000000
100
AcDbArc
50
286.3434391605
51
10.0000000000
0
ARC
5
341
100
AcDbEntity
8
0
100
AcDbCircle
62
7
6
CONTINUOUS
10
344.9752072730
20
457.5964243073
40
79.2000000000
100
AcDbArc
50
278.9490180653
51
291.4784178411
0
ARC
5
342
100
AcDbEntity
8
0
100
AcDbCircle
62
7
6
CONTINUOUS
10
344.9752072730
20
457.5964243073
40
79.2000000000
100
AcDbArc
50
248.5215821589
51
261.0509819347
0
ARC
5
343
100
AcDbEntity
8
0
100
AcDbCircle
62
7
6
CONTINUOUS
10
344.9752072730
20
271.8964243073
40
26.0000000000
100
AcDbArc
50
313.8495584960
51
226.1504415040
0
CIRCLE
5
344
100
AcDbEntity
8
0
100
AcDbCircle
62
7
6
CONTINUOUS
10
383.9152072730
20
353.0964243073
40
5.5000000000
0
ARC
5
345
100
AcDbEntity
8
0
100
AcDbCircle
62
7
6
CONTINUOUS
10
344.9752072730
20
323.6164243073
40
12.3200000000
100
AcDbArc
50
180.0000007695
51
360.0000000000
0
ARC
5
346
100
AcDbEntity
8
0
100
AcDbCircle
62
7
6
CONTINUOUS
10
344.9752072730
20
271.8964243073
40
64.0000000000
100
AcDbArc
50
170.0000000000
51
253.6565608395
0
SPLINE
5
347
100
AcDbEntity
8
DEFAULT_2
100
AcDbSpline
62
8
6
HIDDEN
70
0
71
3
72
10
73
6
74
4
42
0.0000001000
43
0.0000001000
44
0.0000000001
40
0.0000000000
40
0.0000000000
40
0.0000000000
40
0.0000000000
40
0.3393366007
40
0.6643118141
40
1.0000000000
40
1.0000000000
40
1.0000000000
40
1.0000000000
10
141.0369158963
20
304.8779417811
30
0.0000000000
10
140.9530459548
20
304.9246035340
30
0.0000000000
10
140.7675365288
20
305.0002676629
30
0.0000000000
10
140.4850979166
20
304.9104524292
30
0.0000000000
10
140.3254513023
20
304.8166576278
30
0.0000000000
10
140.2434161269
20
304.7688590455
30
0.0000000000
11
141.0369158963
21
304.8779417811
31
0.0000000000
11
140.7629734935
21
304.9665924234
31
0.0000000000
11
140.4946444996
21
304.9030774310
31
0.0000000000
11
140.2434161269
21
304.7688590455
31
0.0000000000
0
SPLINE
5
348
100
AcDbEntity
8
DEFAULT_2
100
AcDbSpline
62
8
6
HIDDEN
70
0
71
3
72
10
73
6
74
4
42
0.0000001000
43
0.0000001000
44
0.0000000001
40
0.0000000000
40
0.0000000000
40
0.0000000000
40
0.0000000000
40
0.2533365914
40
0.6085622710
40
1.0000000000
40
1.0000000000
40
1.0000000000
40
1.0000000000
10
139.1919290374
20
304.2797511381
30
0.0000000000
10
139.1510210407
20
304.2675539240
30
0.0000000000
10
139.0520259198
20
304.2406827022
30
0.0000000000
10
138.8865630217
20
304.2079799245
30
0.0000000000
10
138.7607914019
20
304.1971778347
30
0.0000000000
10
138.6948513090
20
304.1964243073
30
0.0000000000
11
139.1919290374
21
304.2797511381
31
0.0000000000
11
139.0683057776
21
304.2463894274
31
0.0000000000
11
138.8920508227
21
304.2122459602
31
0.0000000000
11
138.6948513090
21
304.1964243073
31
0.0000000000
0
SPLINE
5
349
100
AcDbEntity
8
DEFAULT_2
100
AcDbSpline
62
8
6
HIDDEN
70
0
71
3
72
10
73
6
74
4
42
0.0000001000
43
0.0000001000
44
0.0000000001
40
0.0000000000
40
0.0000000000
40
0.0000000000
40
0.0000000000
40
0.3393366007
40
0.6643118141
40
1.0000000000
40
1.0000000000
40
1.0000000000
40
1.0000000000
10
111.9741911057
20
304.8779417811
30
0.0000000000
10
112.0580610472
20
304.9246035340
30
0.0000000000
10
112.2435704732
20
305.0002676629
30
0.0000000000
10
112.5260090853
20
304.9104524292
30
0.0000000000
10
112.6856556997
20
304.8166576278
30
0.0000000000
10
112.7676908751
20
304.7688590455
30
0.0000000000
11
111.9741911057
21
304.8779417811
31
0.0000000000
11
112.2481335085
21
304.9665924234
31
0.0000000000
11
112.5164625023
21
304.9030774310
31
0.0000000000
11
112.7676908751
21
304.7688590455
31
0.0000000000
0
SPLINE
5
34A
100
AcDbEntity
8
DEFAULT_2
100
AcDbSpline
62
8
6
HIDDEN
70
0
71
3
72
10
73
6
74
4
42
0.0000001000
43
0.0000001000
44
0.0000000001
40
0.0000000000
40
0.0000000000
40
0.0000000000
40
0.0000000000
40
0.2533365914
40
0.6085622710
40
1.0000000000
40
1.0000000000
40
1.0000000000
40
1.0000000000
10
113.8191779646
20
304.2797511381
30
0.0000000000
10
113.8600859612
20
304.2675539240
30
0.0000000000
10
113.9590810822
20
304.2406827022
30
0.0000000000
10
114.1245439802
20
304.2079799245
30
0.0000000000
10
114.2503156001
20
304.1971778347
30
0.0000000000
10
114.3162556930
20
304.1964243073
30
0.0000000000
11
113.8191779646
21
304.2797511381
31
0.0000000000
11
113.9428012244
21
304.2463894274
31
0.0000000000
11
114.1190561793
21
304.2122459602
31
0.0000000000
11
114.3162556930
21
304.1964243073
31
0.0000000000
0
SPLINE
5
34B
100
AcDbEntity
8
DEFAULT_2
100
AcDbSpline
62
8
6
HIDDEN
70
0
71
3
72
8
73
4
74
2
42
0.0000001000
43
0.0000001000
44
0.0000000001
40
0.0000000000
40
0.0000000000
40
0.0000000000
40
0.0000000000
40
1.0000000000
40
1.0000000000
40
1.0000000000
40
1.0000000000
10
138.6950636495
20
304.1964243073
30
0.0000000000
10
138.7324082047
20
304.1968573861
30
0.0000000000
10
138.7697509487
20
304.1988642049
30
0.0000000000
10
138.8069858265
20
304.2022343238
30
0.0000000000
11
138.6950636495
21
304.1964243073
31
0.0000000000
11
138.8069858265
21
304.2022343238
31
0.0000000000
0
SPLINE
5
34C
100
AcDbEntity
8
DEFAULT_2
100
AcDbSpline
62
8
6
HIDDEN
70
0
71
3
72
9
73
5
74
3
42
0.0000001000
43
0.0000001000
44
0.0000000001
40
0.0000000000
40
0.0000000000
40
0.0000000000
40
0.0000000000
40
0.5136469617
40
1.0000000000
40
1.0000000000
40
1.0000000000
40
1.0000000000
10
138.8069858265
20
304.2022343238
30
0.0000000000
10
138.8422412078
20
304.2054252790
30
0.0000000000
10
138.9106903210
20
304.2140170862
30
0.0000000000
10
138.9784316909
20
304.2265643105
30
0.0000000000
10
139.0112019848
20
304.2334834246
30
0.0000000000
11
138.8069858265
21
304.2022343238
31
0.0000000000
11
138.9123718397
21
304.2152951607
31
0.0000000000
11
139.0112019848
21
304.2334834246
31
0.0000000000
0
SPLINE
5
34D
100
AcDbEntity
8
DEFAULT_2
100
AcDbSpline
62
8
6
HIDDEN
70
0
71
3
72
8
73
4
74
2
42
0.0000001000
43
0.0000001000
44
0.0000000001
40
0.0000000000
40
0.0000000000
40
0.0000000000
40
0.0000000000
40
1.0000000000
40
1.0000000000
40
1.0000000000
40
1.0000000000
10
114.3160433524
20
304.1964243073
30
0.0000000000
10
114.2786987973
20
304.1968573861
30
0.0000000000
10
114.2413560532
20
304.1988642049
30
0.0000000000
10
114.2041211755
20
304.2022343238
30
0.0000000000
11
114.3160433524
21
304.1964243073
31
0.0000000000
11
114.2041211755
21
304.2022343238
31
0.0000000000
0
SPLINE
5
34E
100
AcDbEntity
8
DEFAULT_2
100
AcDbSpline
62
8
6
HIDDEN
70
0
71
3
72
9
73
5
74
3
42
0.0000001000
43
0.0000001000
44
0.0000000001
40
0.0000000000
40
0.0000000000
40
0.0000000000
40
0.0000000000
40
0.5136469617
40
1.0000000000
40
1.0000000000
40
1.0000000000
40
1.0000000000
10
114.2041211755
20
304.2022343238
30
0.0000000000
10
114.1688657942
20
304.2054252790
30
0.0000000000
10
114.1004166810
20
304.2140170862
30
0.0000000000
10
114.0326753111
20
304.2265643105
30
0.0000000000
10
113.9999050172
20
304.2334834246
30
0.0000000000
11
114.2041211755
21
304.2022343238
31
0.0000000000
11
114.0987351623
21
304.2152951607
31
0.0000000000
11
113.9999050172
21
304.2334834246
31
0.0000000000
0
SPLINE
5
34F
100
AcDbEntity
8
0
100
AcDbSpline
62
7
6
CONTINUOUS
70
0
71
3
72
9
73
5
74
3
42
0.0000001000
43
0.0000001000
44
0.0000000001
40
0.0000000000
40
0.0000000000
40
0.0000000000
40
0.0000000000
40
0.5122018035
40
1.0000000000
40
1.0000000000
40
1.0000000000
40
1.0000000000
10
139.0112019848
20
304.2334834246
30
0.0000000000
10
139.0423774820
20
304.2400658135
30
0.0000000000
10
139.1029322798
20
304.2543601062
30
0.0000000000
10
139.1628522228
20
304.2710817620
30
0.0000000000
10
139.1919291994
20
304.2797505949
30
0.0000000000
11
139.0112019848
21
304.2334834246
31
0.0000000000
11
139.1042434807
21
304.2553457589
31
0.0000000000
11
139.1919291994
21
304.2797505949
31
0.0000000000
0
SPLINE
5
350
100
AcDbEntity
8
0
100
AcDbSpline
62
7
6
CONTINUOUS
70
0
71
3
72
14
73
10
74
8
42
0.0000001000
43
0.0000001000
44
0.0000000001
40
0.0000000000
40
0.0000000000
40
0.0000000000
40
0.0000000000
40
0.1044828358
40
0.2998071845
40
0.4784203339
40
0.6422593778
40
0.7933578758
40
0.9336411073
40
1.0000000000
40
1.0000000000
40
1.0000000000
40
1.0000000000
10
139.1919291994
20
304.2797505949
30
0.0000000000
10
139.2196768816
20
304.2880231200
30
0.0000000000
10
139.2989003485
20
304.3130986286
30
0.0000000000
10
139.4234957750
20
304.3584913344
30
0.0000000000
10
139.5611727645
20
304.4155573650
30
0.0000000000
10
139.6857109392
20
304.4720809045
30
0.0000000000
10
139.7991925989
20
304.5271488740
30
0.0000000000
10
139.8874694165
20
304.5722335731
30
0.0000000000
10
139.9381269859
20
304.5989147855
30
0.0000000000
10
139.9543617780
20
304.6075447078
30
0.0000000000
11
139.1919291994
21
304.2797505949
31
0.0000000000
11
139.2747566626
21
304.3059100872
31
0.0000000000
11
139.4273969950
21
304.3612231057
31
0.0000000000
11
139.5646122372
21
304.4179085419
31
0.0000000000
11
139.6886665124
21
304.4740893810
31
0.0000000000
11
139.8016907135
21
304.5288533820
31
0.0000000000
11
139.9055572708
21
304.5818444186
31
0.0000000000
11
139.9543617780
21
304.6075447078
31
0.0000000000
0
SPLINE
5
351
100
AcDbEntity
8
0
100
AcDbSpline
62
7
6
CONTINUOUS
70
0
71
3
72
11
73
7
74
5
42
0.0000001000
43
0.0000001000
44
0.0000000001
40
0.0000000000
40
0.0000000000
40
0.0000000000
40
0.0000000000
40
0.1604372062
40
0.4631950378
40
0.7426794457
40
1.0000000000
40
1.0000000000
40
1.0000000000
40
1.0000000000
10
139.9543617780
20
304.6075447078
30
0.0000000000
10
139.9699942396
20
304.6158544496
30
0.0000000000
10
140.0150384709
20
304.6400107570
30
0.0000000000
10
140.0868734510
20
304.6794595530
30
0.0000000000
10
140.1675696796
20
304.7249688210
30
0.0000000000
10
140.2188823938
20
304.7545634386
30
0.0000000000
10
140.2434161269
20
304.7688581196
30
0.0000000000
11
139.9543617780
21
304.6075447078
31
0.0000000000
11
140.0011691988
21
304.6326421721
31
0.0000000000
11
140.0890289747
21
304.6808672144
31
0.0000000000
11
140.1696231941
21
304.7263048504
31
0.0000000000
11
140.2434161269
21
304.7688581196
31
0.0000000000
0
SPLINE
5
352
100
AcDbEntity
8
0
100
AcDbSpline
62
7
6
CONTINUOUS
70
0
71
3
72
10
73
6
74
4
42
0.0000001000
43
0.0000001000
44
0.0000000001
40
0.0000000000
40
0.0000000000
40
0.0000000000
40
0.0000000000
40
0.3643305126
40
0.6798044506
40
1.0000000000
40
1.0000000000
40
1.0000000000
40
1.0000000000
10
140.2434161269
20
304.7688581196
30
0.0000000000
10
140.3324895895
20
304.8207571408
30
0.0000000000
10
140.4965889484
20
304.9188020960
30
0.0000000000
10
140.7826769836
20
304.9965710671
30
0.0000000000
10
140.9577424894
20
304.9219902755
30
0.0000000000
10
141.0369158963
20
304.8779417811
30
0.0000000000
11
140.2434161269
21
304.7688581196
31
0.0000000000
11
140.5171097573
21
304.9128723824
31
0.0000000000
11
140.7796533357
21
304.9656587055
31
0.0000000000
11
141.0369158963
21
304.8779417811
31
0.0000000000
0
SPLINE
5
353
100
AcDbEntity
8
0
100
AcDbSpline
62
7
6
CONTINUOUS
70
0
71
3
72
12
73
8
74
6
42
0.0000001000
43
0.0000001000
44
0.0000000001
40
0.0000000000
40
0.0000000000
40
0.0000000000
40
0.0000000000
40
0.2313132883
40
0.4573349766
40
0.6705259195
40
0.8583165148
40
1.0000000000
40
1.0000000000
40
1.0000000000
40
1.0000000000
10
111.9741911057
20
304.8779417811
30
0.0000000000
10
111.8771099478
20
304.8239803916
30
0.0000000000
10
111.6870331227
20
304.7137836897
30
0.0000000000
10
111.4122051287
20
304.5466513298
30
0.0000000000
10
111.1550343507
20
304.3881154256
30
0.0000000000
10
110.9309656866
20
304.2610698013
30
0.0000000000
10
110.7791142955
20
304.1964243073
30
0.0000000000
10
110.7110818493
20
304.1964243073
30
0.0000000000
11
111.9741911057
21
304.8779417811
31
0.0000000000
11
111.6855064491
21
304.7115374121
31
0.0000000000
11
111.4069125494
21
304.5430354703
31
0.0000000000
11
111.1443049743
21
304.3838163408
31
0.0000000000
11
110.9067916728
21
304.2543327578
31
0.0000000000
11
110.7110818493
21
304.1964243073
31
0.0000000000
0
SPLINE
5
354
100
AcDbEntity
8
0
100
AcDbSpline
62
7
6
CONTINUOUS
70
0
71
3
72
10
73
6
74
4
42
0.0000001000
43
0.0000001000
44
0.0000000001
40
0.0000000000
40
0.0000000000
40
0.0000000000
40
0.0000000000
40
0.3643305126
40
0.6798044506
40
1.0000000000
40
1.0000000000
40
1.0000000000
40
1.0000000000
10
112.7676908751
20
304.7688581196
30
0.0000000000
10
112.6786174125
20
304.8207571408
30
0.0000000000
10
112.5145180536
20
304.9188020960
30
0.0000000000
10
112.2284300183
20
304.9965710671
30
0.0000000000
10
112.0533645125
20
304.9219902755
30
0.0000000000
10
111.9741911057
20
304.8779417811
30
0.0000000000
11
112.7676908751
21
304.7688581196
31
0.0000000000
11
112.4939972447
21
304.9128723824
31
0.0000000000
11
112.2314536663
21
304.9656587055
31
0.0000000000
11
111.9741911057
21
304.8779417811
31
0.0000000000
0
SPLINE
5
355
100
AcDbEntity
8
0
100
AcDbSpline
62
7
6
CONTINUOUS
70
0
71
3
72
9
73
5
74
3
42
0.0000001000
43
0.0000001000
44
0.0000000001
40
0.0000000000
40
0.0000000000
40
0.0000000000
40
0.0000000000
40
0.5122018035
40
1.0000000000
40
1.0000000000
40
1.0000000000
40
1.0000000000
10
113.9999050172
20
304.2334834246
30
0.0000000000
10
113.9687295200
20
304.2400658135
30
0.0000000000
10
113.9081747222
20
304.2543601062
30
0.0000000000
10
113.8482547792
20
304.2710817620
30
0.0000000000
10
113.8191778026
20
304.2797505949
30
0.0000000000
11
113.9999050172
21
304.2334834246
31
0.0000000000
11
113.9068635213
21
304.2553457589
31
0.0000000000
11
113.8191778026
21
304.2797505949
31
0.0000000000
0
SPLINE
5
356
100
AcDbEntity
8
0
100
AcDbSpline
62
7
6
CONTINUOUS
70
0
71
3
72
14
73
10
74
8
42
0.0000001000
43
0.0000001000
44
0.0000000001
40
0.0000000000
40
0.0000000000
40
0.0000000000
40
0.0000000000
40
0.1044828358
40
0.2998071845
40
0.4784203339
40
0.6422593778
40
0.7933578758
40
0.9336411073
40
1.0000000000
40
1.0000000000
40
1.0000000000
40
1.0000000000
10
113.8191778026
20
304.2797505949
30
0.0000000000
10
113.7914301203
20
304.2880231200
30
0.0000000000
10
113.7122066535
20
304.3130986286
30
0.0000000000
10
113.5876112269
20
304.3584913344
30
0.0000000000
10
113.4499342375
20
304.4155573650
30
0.0000000000
10
113.3253960628
20
304.4720809045
30
0.0000000000
10
113.2119144030
20
304.5271488740
30
0.0000000000
10
113.1236375855
20
304.5722335731
30
0.0000000000
10
113.0729800161
20
304.5989147855
30
0.0000000000
10
113.0567452240
20
304.6075447078
30
0.0000000000
11
113.8191778026
21
304.2797505949
31
0.0000000000
11
113.7363503394
21
304.3059100872
31
0.0000000000
11
113.5837100069
21
304.3612231057
31
0.0000000000
11
113.4464947648
21
304.4179085419
31
0.0000000000
11
113.3224404895
21
304.4740893810
31
0.0000000000
11
113.2094162885
21
304.5288533820
31
0.0000000000
11
113.1055497312
21
304.5818444186
31
0.0000000000
11
113.0567452240
21
304.6075447078
31
0.0000000000
0
SPLINE
5
357
100
AcDbEntity
8
0
100
AcDbSpline
62
7
6
CONTINUOUS
70
0
71
3
72
11
73
7
74
5
42
0.0000001000
43
0.0000001000
44
0.0000000001
40
0.0000000000
40
0.0000000000
40
0.0000000000
40
0.0000000000
40
0.1604372062
40
0.4631950378
40
0.7426794457
40
1.0000000000
40
1.0000000000
40
1.0000000000
40
1.0000000000
10
113.0567452240
20
304.6075447078
30
0.0000000000
10
113.0411127624
20
304.6158544496
30
0.0000000000
10
112.9960685311
20
304.6400107570
30
0.0000000000
10
112.9242335510
20
304.6794595530
30
0.0000000000
10
112.8435373224
20
304.7249688210
30
0.0000000000
10
112.7922246082
20
304.7545634386
30
0.0000000000
10
112.7676908751
20
304.7688581196
30
0.0000000000
11
113.0567452240
21
304.6075447078
31
0.0000000000
11
113.0099378032
21
304.6326421721
31
0.0000000000
11
112.9220780272
21
304.6808672144
31
0.0000000000
11
112.8414838079
21
304.7263048504
31
0.0000000000
11
112.7676908751
21
304.7688581196
31
0.0000000000
0
SPLINE
5
358
100
AcDbEntity
8
0
100
AcDbSpline
62
7
6
CONTINUOUS
70
0
71
3
72
12
73
8
74
6
42
0.0000001000
43
0.0000001000
44
0.0000000001
40
0.0000000000
40
0.0000000000
40
0.0000000000
40
0.0000000000
40
0.2313132883
40
0.4573349766
40
0.6705259195
40
0.8583165148
40
1.0000000000
40
1.0000000000
40
1.0000000000
40
1.0000000000
10
141.0369158963
20
304.8779417811
30
0.0000000000
10
141.1339970542
20
304.8239803916
30
0.0000000000
10
141.3240738793
20
304.7137836897
30
0.0000000000
10
141.5989018732
20
304.5466513298
30
0.0000000000
10
141.8560726513
20
304.3881154256
30
0.0000000000
10
142.0801413154
20
304.2610698013
30
0.0000000000
10
142.2319927065
20
304.1964243073
30
0.0000000000
10
142.3000251527
20
304.1964243073
30
0.0000000000
11
141.0369158963
21
304.8779417811
31
0.0000000000
11
141.3256005529
21
304.7115374121
31
0.0000000000
11
141.6041944526
21
304.5430354703
31
0.0000000000
11
141.8668020277
21
304.3838163408
31
0.0000000000
11
142.1043153292
21
304.2543327578
31
0.0000000000
11
142.3000251527
21
304.1964243073
31
0.0000000000
0
SPLINE
5
359
100
AcDbEntity
8
DEFAULT_2
100
AcDbSpline
62
8
6
HIDDEN
70
0
71
3
72
9
73
5
74
3
42
0.0000001000
43
0.0000001000
44
0.0000000001
40
0.0000000000
40
0.0000000000
40
0.0000000000
40
0.0000000000
40
0.5321504000
40
1.0000000000
40
1.0000000000
40
1.0000000000
40
1.0000000000
10
362.2668237388
20
162.8964243073
30
0.0000000000
10
362.4808209342
20
162.6497338047
30
0.0000000000
10
362.8342411158
20
162.1339762805
30
0.0000000000
10
362.9752072730
20
161.5179603824
30
0.0000000000
10
362.9752072730
20
161.2297575909
30
0.0000000000
11
362.2668237388
21
162.8964243073
31
0.0000000000
11
362.7968027255
21
162.0724210869
31
0.0000000000
11
362.9752072730
21
161.2297575909
31
0.0000000000
0
SPLINE
5
35A
100
AcDbEntity
8
DEFAULT_2
100
AcDbSpline
62
8
6
HIDDEN
70
0
71
3
72
9
73
5
74
3
42
0.0000001000
43
0.0000001000
44
0.0000000001
40
0.0000000000
40
0.0000000000
40
0.0000000000
40
0.0000000000
40
0.4678495943
40
1.0000000000
40
1.0000000000
40
1.0000000000
40
1.0000000000
10
362.9752072730
20
156.2297577399
30
0.0000000000
10
362.9752072730
20
155.9415549731
30
0.0000000000
10
362.8342411116
20
155.3255391204
30
0.0000000000
10
362.4808209316
20
154.8097816502
30
0.0000000000
10
362.2668237388
20
154.5630911726
30
0.0000000000
11
362.9752072730
21
156.2297577399
31
0.0000000000
11
362.7968027256
21
155.3870943195
31
0.0000000000
11
362.2668237388
21
154.5630911726
31
0.0000000000
0
SPLINE
5
35B
100
AcDbEntity
8
DEFAULT_2
100
AcDbSpline
62
8
6
HIDDEN
70
0
71
3
72
9
73
5
74
3
42
0.0000001000
43
0.0000001000
44
0.0000000001
40
0.0000000000
40
0.0000000000
40
0.0000000000
40
0.0000000000
40
0.5007074538
40
1.0000000000
40
1.0000000000
40
1.0000000000
40
1.0000000000
10
362.6705184228
20
109.7714243073
30
0.0000000000
10
362.6902327979
20
109.7023731266
30
0.0000000000
10
362.7277948718
20
109.5639422302
30
0.0000000000
10
362.7616664198
20
109.4245619394
30
0.0000000000
10
362.7776414370
20
109.3547592300
30
0.0000000000
11
362.6705184228
21
109.7714243073
31
0.0000000000
11
362.7269227744
21
109.5635083426
31
0.0000000000
11
362.7776414370
21
109.3547592300
31
0.0000000000
0
SPLINE
5
35C
100
AcDbEntity
8
DEFAULT_2
100
AcDbSpline
62
8
6
HIDDEN
70
0
71
3
72
9
73
5
74
3
42
0.0000001000
43
0.0000001000
44
0.0000000001
40
0.0000000000
40
0.0000000000
40
0.0000000000
40
0.0000000000
40
0.4991994609
40
1.0000000000
40
1.0000000000
40
1.0000000000
40
1.0000000000
10
362.5858932226
20
110.3964243073
30
0.0000000000
10
362.6008467588
20
110.2925452739
30
0.0000000000
10
362.6299283864
20
110.0843273835
30
0.0000000000
10
362.6572648919
20
109.8758732049
30
0.0000000000
10
362.6705184228
20
109.7714243073
30
0.0000000000
11
362.5858932226
21
110.3964243073
31
0.0000000000
11
362.6294469398
21
110.0846018736
31
0.0000000000
11
362.6705184228
21
109.7714243073
31
0.0000000000
0
SPLINE
5
35D
100
AcDbEntity
8
DEFAULT_2
100
AcDbSpline
62
8
6
HIDDEN
70
0
71
3
72
9
73
5
74
3
42
0.0000001000
43
0.0000001000
44
0.0000000001
40
0.0000000000
40
0.0000000000
40
0.0000000000
40
0.0000000000
40
0.4995282904
40
1.0000000000
40
1.0000000000
40
1.0000000000
40
1.0000000000
10
362.5395621731
20
111.4380893845
30
0.0000000000
10
362.5475010187
20
111.2646524110
30
0.0000000000
10
362.5631688526
20
110.9174405793
30
0.0000000000
10
362.5783882528
20
110.5702088027
30
0.0000000000
10
362.5858932226
20
110.3964243073
30
0.0000000000
11
362.5395621731
21
111.4380893845
31
0.0000000000
11
362.5630421743
21
110.9177631688
31
0.0000000000
11
362.5858932226
21
110.3964243073
31
0.0000000000
0
SPLINE
5
35E
100
AcDbEntity
8
DEFAULT_2
100
AcDbSpline
62
8
6
HIDDEN
70
0
71
3
72
9
73
5
74
3
42
0.0000001000
43
0.0000001000
44
0.0000000001
40
0.0000000000
40
0.0000000000
40
0.0000000000
40
0.0000000000
40
0.4995282904
40
1.0000000000
40
1.0000000000
40
1.0000000000
40
1.0000000000
10
362.5395621731
20
112.2714243073
30
0.0000000000
10
362.5475010187
20
112.4448612807
30
0.0000000000
10
362.5631688526
20
112.7920731125
30
0.0000000000
10
362.5783882528
20
113.1393048890
30
0.0000000000
10
362.5858932226
20
113.3130893845
30
0.0000000000
11
362.5395621731
21
112.2714243073
31
0.0000000000
11
362.5630421743
21
112.7917505229
31
0.0000000000
11
362.5858932226
21
113.3130893845
31
0.0000000000
0
SPLINE
5
35F
100
AcDbEntity
8
DEFAULT_2
100
AcDbSpline
62
8
6
HIDDEN
70
0
71
3
72
9
73
5
74
3
42
0.0000001000
43
0.0000001000
44
0.0000000001
40
0.0000000000
40
0.0000000000
40
0.0000000000
40
0.0000000000
40
0.4991994609
40
1.0000000000
40
1.0000000000
40
1.0000000000
40
1.0000000000
10
362.5858932226
20
113.3130893845
30
0.0000000000
10
362.6008467588
20
113.4169684179
30
0.0000000000
10
362.6299283864
20
113.6251863082
30
0.0000000000
10
362.6572648919
20
113.8336404868
30
0.0000000000
10
362.6705184228
20
113.9380893845
30
0.0000000000
11
362.5858932226
21
113.3130893845
31
0.0000000000
11
362.6294469398
21
113.6249118181
31
0.0000000000
11
362.6705184228
21
113.9380893845
31
0.0000000000
0
SPLINE
5
360
100
AcDbEntity
8
DEFAULT_2
100
AcDbSpline
62
8
6
HIDDEN
70
0
71
3
72
9
73
5
74
3
42
0.0000001000
43
0.0000001000
44
0.0000000001
40
0.0000000000
40
0.0000000000
40
0.0000000000
40
0.0000000000
40
0.5007074128
40
1.0000000000
40
1.0000000000
40
1.0000000000
40
1.0000000000
10
362.6705184228
20
113.9380893845
30
0.0000000000
10
362.6902327992
20
114.0071413602
30
0.0000000000
10
362.7277948755
20
114.1455738506
30
0.0000000000
10
362.7616664207
20
114.2849557260
30
0.0000000000
10
362.7776414370
20
114.3547592300
30
0.0000000000
11
362.6705184228
21
113.9380893845
31
0.0000000000
11
362.7269227740
21
114.1460077268
31
0.0000000000
11
362.7776414370
21
114.3547592300
31
0.0000000000
0
SPLINE
5
361
100
AcDbEntity
8
DEFAULT_2
100
AcDbSpline
62
8
6
HIDDEN
70
0
71
3
72
9
73
5
74
3
42
0.0000001000
43
0.0000001000
44
0.0000000001
40
0.0000000000
40
0.0000000000
40
0.0000000000
40
0.0000000000
40
0.5080067674
40
1.0000000000
40
1.0000000000
40
1.0000000000
40
1.0000000000
10
362.8360318637
20
108.1047592300
30
0.0000000000
10
362.8534119781
20
108.1387728457
30
0.0000000000
10
362.8850684761
20
108.2070734363
30
0.0000000000
10
362.9108920219
20
108.2778037697
30
0.0000000000
10
362.9220000312
20
108.3130893845
30
0.0000000000
11
362.8360318637
21
108.1047592300
31
0.0000000000
11
362.8840700934
21
108.2087942160
31
0.0000000000
11
362.9220000312
21
108.3130893845
31
0.0000000000
0
SPLINE
5
362
100
AcDbEntity
8
DEFAULT_2
100
AcDbSpline
62
8
6
HIDDEN
70
0
71
3
72
9
73
5
74
3
42
0.0000001000
43
0.0000001000
44
0.0000000001
40
0.0000000000
40
0.0000000000
40
0.0000000000
40
0.0000000000
40
0.5002639653
40
1.0000000000
40
1.0000000000
40
1.0000000000
40
1.0000000000
10
362.9220000312
20
108.3130893845
30
0.0000000000
10
362.9301798571
20
108.3823815585
30
0.0000000000
10
362.9446636144
20
108.5211196724
30
0.0000000000
10
362.9553842810
20
108.6601993468
30
0.0000000000
10
362.9597965249
20
108.7297592300
30
0.0000000000
11
362.9220000312
21
108.3130893845
31
0.0000000000
11
362.9437294946
21
108.5212783968
31
0.0000000000
11
362.9597965249
21
108.7297592300
31
0.0000000000
0
SPLINE
5
363
100
AcDbEntity
8
DEFAULT_2
100
AcDbSpline
62
8
6
HIDDEN
70
0
71
3
72
9
73
5
74
3
42
0.0000001000
43
0.0000001000
44
0.0000000001
40
0.0000000000
40
0.0000000000
40
0.0000000000
40
0.0000000000
40
0.4992925462
40
1.0000000000
40
1.0000000000
40
1.0000000000
40
1.0000000000
10
362.7776414370
20
118.5214243073
30
0.0000000000
10
362.7616664198
20
118.5912270166
30
0.0000000000
10
362.7277948718
20
118.7306073074
30
0.0000000000
10
362.6902327979
20
118.8690382038
30
0.0000000000
10
362.6705184228
20
118.9380893845
30
0.0000000000
11
362.7776414370
21
118.5214243073
31
0.0000000000
11
362.7269227744
21
118.7301734198
31
0.0000000000
11
362.6705184228
21
118.9380893845
31
0.0000000000
0
SPLINE
5
364
100
AcDbEntity
8
DEFAULT_2
100
AcDbSpline
62
8
6
HIDDEN
70
0
71
3
72
9
73
5
74
3
42
0.0000001000
43
0.0000001000
44
0.0000000001
40
0.0000000000
40
0.0000000000
40
0.0000000000
40
0.0000000000
40
0.4991994609
40
1.0000000000
40
1.0000000000
40
1.0000000000
40
1.0000000000
10
362.5858932226
20
119.5630893845
30
0.0000000000
10
362.6008467588
20
119.4592103511
30
0.0000000000
10
362.6299283864
20
119.2509924607
30
0.0000000000
10
362.6572648919
20
119.0425382822
30
0.0000000000
10
362.6705184228
20
118.9380893845
30
0.0000000000
11
362.5858932226
21
119.5630893845
31
0.0000000000
11
362.6294469398
21
119.2512669508
31
0.0000000000
11
362.6705184228
21
118.9380893845
31
0.0000000000
0
SPLINE
5
365
100
AcDbEntity
8
DEFAULT_2
100
AcDbSpline
62
8
6
HIDDEN
70
0
71
3
72
9
73
5
74
3
42
0.0000001000
43
0.0000001000
44
0.0000000001
40
0.0000000000
40
0.0000000000
40
0.0000000000
40
0.0000000000
40
0.4995282902
40
1.0000000000
40
1.0000000000
40
1.0000000000
40
1.0000000000
10
362.5395621731
20
120.6047592300
30
0.0000000000
10
362.5475010187
20
120.4313214627
30
0.0000000000
10
362.5631688526
20
120.0841080414
30
0.0000000000
10
362.5783882528
20
119.7368746754
30
0.0000000000
10
362.5858932226
20
119.5630893845
30
0.0000000000
11
362.5395621731
21
120.6047592300
31
0.0000000000
11
362.5630421743
21
120.0844306326
31
0.0000000000
11
362.5858932226
21
119.5630893845
31
0.0000000000
0
SPLINE
5
366
100
AcDbEntity
8
DEFAULT_2
100
AcDbSpline
62
8
6
HIDDEN
70
0
71
3
72
9
73
5
74
3
42
0.0000001000
43
0.0000001000
44
0.0000000001
40
0.0000000000
40
0.0000000000
40
0.0000000000
40
0.0000000000
40
0.4995282902
40
1.0000000000
40
1.0000000000
40
1.0000000000
40
1.0000000000
10
362.5395621731
20
121.4380893845
30
0.0000000000
10
362.5475010187
20
121.6115271518
30
0.0000000000
10
362.5631688526
20
121.9587405731
30
0.0000000000
10
362.5783882528
20
122.3059739391
30
0.0000000000
10
362.5858932226
20
122.4797592300
30
0.0000000000
11
362.5395621731
21
121.4380893845
31
0.0000000000
11
362.5630421743
21
121.9584179819
31
0.0000000000
11
362.5858932226
21
122.4797592300
31
0.0000000000
0
SPLINE
5
367
100
AcDbEntity
8
DEFAULT_2
100
AcDbSpline
62
8
6
HIDDEN
70
0
71
3
72
9
73
5
74
3
42
0.0000001000
43
0.0000001000
44
0.0000000001
40
0.0000000000
40
0.0000000000
40
0.0000000000
40
0.0000000000
40
0.4991994643
40
1.0000000000
40
1.0000000000
40
1.0000000000
40
1.0000000000
10
362.5858932226
20
122.4797592300
30
0.0000000000
10
362.6008467588
20
122.5836378670
30
0.0000000000
10
362.6299283862
20
122.7918549622
30
0.0000000000
10
362.6572648919
20
123.0003083465
30
0.0000000000
10
362.6705184228
20
123.1047568459
30
0.0000000000
11
362.5858932226
21
122.4797592300
31
0.0000000000
11
362.6294469399
21
122.7915804750
31
0.0000000000
11
362.6705184228
21
123.1047568459
31
0.0000000000
0
SPLINE
5
368
100
AcDbEntity
8
DEFAULT_2
100
AcDbSpline
62
8
6
HIDDEN
70
0
71
3
72
9
73
5
74
3
42
0.0000001000
43
0.0000001000
44
0.0000000001
40
0.0000000000
40
0.0000000000
40
0.0000000000
40
0.0000000000
40
0.5007074333
40
1.0000000000
40
1.0000000000
40
1.0000000000
40
1.0000000000
10
362.6705184228
20
123.1047568459
30
0.0000000000
10
362.6902327986
20
123.1738084241
30
0.0000000000
10
362.7277948736
20
123.3122401174
30
0.0000000000
10
362.7616664202
20
123.4516212005
30
0.0000000000
10
362.7776414370
20
123.5214243073
30
0.0000000000
11
362.6705184228
21
123.1047568459
31
0.0000000000
11
362.7269227742
21
123.3126739994
31
0.0000000000
11
362.7776414370
21
123.5214243073
31
0.0000000000
0
SPLINE
5
369
100
AcDbEntity
8
DEFAULT_2
100
AcDbSpline
62
8
6
HIDDEN
70
0
71
3
72
9
73
5
74
3
42
0.0000001000
43
0.0000001000
44
0.0000000001
40
0.0000000000
40
0.0000000000
40
0.0000000000
40
0.0000000000
40
0.5080064286
40
1.0000000000
40
1.0000000000
40
1.0000000000
40
1.0000000000
10
362.8360318637
20
117.2714243073
30
0.0000000000
10
362.8534119904
20
117.3054387257
30
0.0000000000
10
362.8850685052
20
117.3737409261
30
0.0000000000
10
362.9108920287
20
117.4444728290
30
0.0000000000
10
362.9220000312
20
117.4797592300
30
0.0000000000
11
362.8360318637
21
117.2714243073
31
0.0000000000
11
362.8840700933
21
117.3754616741
31
0.0000000000
11
362.9220000312
21
117.4797592300
31
0.0000000000
0
SPLINE
5
36A
100
AcDbEntity
8
DEFAULT_2
100
AcDbSpline
62
8
6
HIDDEN
70
0
71
3
72
9
73
5
74
3
42
0.0000001000
43
0.0000001000
44
0.0000000001
40
0.0000000000
40
0.0000000000
40
0.0000000000
40
0.0000000000
40
0.5002639808
40
1.0000000000
40
1.0000000000
40
1.0000000000
40
1.0000000000
10
362.9220000312
20
117.4797592300
30
0.0000000000
10
362.9301798568
20
117.5490506090
30
0.0000000000
10
362.9446636139
20
117.6877871317
30
0.0000000000
10
362.9553842809
20
117.8268652187
30
0.0000000000
10
362.9597965249
20
117.8964243073
30
0.0000000000
11
362.9220000312
21
117.4797592300
31
0.0000000000
11
362.9437294946
21
117.6879458605
31
0.0000000000
11
362.9597965249
21
117.8964243073
31
0.0000000000
0
SPLINE
5
36B
100
AcDbEntity
8
DEFAULT_2
100
AcDbSpline
62
8
6
HIDDEN
70
0
71
3
72
9
73
5
74
3
42
0.0000001000
43
0.0000001000
44
0.0000000001
40
0.0000000000
40
0.0000000000
40
0.0000000000
40
0.0000000000
40
0.4999319147
40
1.0000000000
40
1.0000000000
40
1.0000000000
40
1.0000000000
10
362.6705184228
20
132.2714243073
30
0.0000000000
10
362.7163427799
20
132.4777866389
30
0.0000000000
10
362.7979048402
20
132.8928763145
30
0.0000000000
10
362.8588644641
20
133.3114919441
30
0.0000000000
10
362.8841237687
20
133.5214243073
30
0.0000000000
11
362.6705184228
21
132.2714243073
31
0.0000000000
11
362.7927445274
21
132.8937010399
31
0.0000000000
11
362.8841237687
21
133.5214243073
31
0.0000000000
0
SPLINE
5
36C
100
AcDbEntity
8
DEFAULT_2
100
AcDbSpline
62
8
6
HIDDEN
70
0
71
3
72
9
73
5
74
3
42
0.0000001000
43
0.0000001000
44
0.0000000001
40
0.0000000000
40
0.0000000000
40
0.0000000000
40
0.0000000000
40
0.5047059410
40
1.0000000000
40
1.0000000000
40
1.0000000000
40
1.0000000000
10
362.7088509256
20
146.6464243073
30
0.0000000000
10
362.7271178652
20
146.6121530975
30
0.0000000000
10
362.7618333422
20
146.5434502176
30
0.0000000000
10
362.7933606372
20
146.4732237476
30
0.0000000000
10
362.8081299033
20
146.4380905766
30
0.0000000000
11
362.7088509256
21
146.6464243073
31
0.0000000000
11
362.7613479607
21
146.5424154930
31
0.0000000000
11
362.8081299033
21
146.4380905766
31
0.0000000000
0
SPLINE
5
36D
100
AcDbEntity
8
DEFAULT_2
100
AcDbSpline
62
8
6
HIDDEN
70
0
71
3
72
9
73
5
74
3
42
0.0000001000
43
0.0000001000
44
0.0000000001
40
0.0000000000
40
0.0000000000
40
0.0000000000
40
0.0000000000
40
0.4997088442
40
1.0000000000
40
1.0000000000
40
1.0000000000
40
1.0000000000
10
362.6295386830
20
147.0630905708
30
0.0000000000
10
362.6435999150
20
146.9938525255
30
0.0000000000
10
362.6708902411
20
146.8551220762
30
0.0000000000
10
362.6964773842
20
146.7160674039
30
0.0000000000
10
362.7088509256
20
146.6464243073
30
0.0000000000
11
362.6295386830
21
147.0630905708
31
0.0000000000
11
362.6704490496
21
146.8551218992
31
0.0000000000
11
362.7088509256
21
146.6464243073
31
0.0000000000
0
SPLINE
5
36E
100
AcDbEntity
8
DEFAULT_2
100
AcDbSpline
62
8
6
HIDDEN
70
0
71
3
72
9
73
5
74
3
42
0.0000001000
43
0.0000001000
44
0.0000000001
40
0.0000000000
40
0.0000000000
40
0.0000000000
40
0.0000000000
40
0.4994612599
40
1.0000000000
40
1.0000000000
40
1.0000000000
40
1.0000000000
10
362.5858932228
20
147.6880905743
30
0.0000000000
10
362.5933814871
20
147.5840518170
30
0.0000000000
10
362.6081518473
20
147.3757338001
30
0.0000000000
10
362.6224784795
20
147.1673847970
30
0.0000000000
10
362.6295386819
20
147.0630905766
30
0.0000000000
11
362.5858932228
21
147.6880905743
31
0.0000000000
11
362.6080252395
21
147.3759505288
31
0.0000000000
11
362.6295386819
21
147.0630905766
31
0.0000000000
0
SPLINE
5
36F
100
AcDbEntity
8
DEFAULT_2
100
AcDbSpline
62
8
6
HIDDEN
70
0
71
3
72
9
73
5
74
3
42
0.0000001000
43
0.0000001000
44
0.0000000001
40
0.0000000000
40
0.0000000000
40
0.0000000000
40
0.0000000000
40
0.4999954764
40
1.0000000000
40
1.0000000000
40
1.0000000000
40
1.0000000000
10
362.9723777474
20
146.0214243073
30
0.0000000000
10
362.9730065678
20
146.0908665544
30
0.0000000000
10
362.9740545248
20
146.2297542832
30
0.0000000000
10
362.9746833108
20
146.3686445420
30
0.0000000000
10
362.9748928998
20
146.4380905766
30
0.0000000000
11
362.9723777474
21
146.0214243073
31
0.0000000000
11
362.9739497245
21
146.2297536592
31
0.0000000000
11
362.9748928998
21
146.4380905766
31
0.0000000000
0
SPLINE
5
370
100
AcDbEntity
8
DEFAULT_2
100
AcDbSpline
62
8
6
HIDDEN
70
0
71
3
72
9
73
5
74
3
42
0.0000001000
43
0.0000001000
44
0.0000000001
40
0.0000000000
40
0.0000000000
40
0.0000000000
40
0.0000000000
40
0.5001126578
40
1.0000000000
40
1.0000000000
40
1.0000000000
40
1.0000000000
10
362.9371281727
20
145.3964243073
30
0.0000000000
10
362.9463510023
20
145.5003852282
30
0.0000000000
10
362.9614585460
20
145.7085695985
30
0.0000000000
10
362.9698593363
20
145.9171325125
30
0.0000000000
10
362.9723777167
20
146.0214243073
30
0.0000000000
11
362.9371281727
21
145.3964243073
31
0.0000000000
11
362.9597845060
21
145.7087111842
31
0.0000000000
11
362.9723777167
21
146.0214243073
31
0.0000000000
0
SPLINE
5
371
100
AcDbEntity
8
DEFAULT_2
100
AcDbSpline
62
8
6
HIDDEN
70
0
71
3
72
9
73
5
74
3
42
0.0000001000
43
0.0000001000
44
0.0000000001
40
0.0000000000
40
0.0000000000
40
0.0000000000
40
0.0000000000
40
0.5028747497
40
1.0000000000
40
1.0000000000
40
1.0000000000
40
1.0000000000
10
362.8841237687
20
145.1880905766
30
0.0000000000
10
362.8947781087
20
145.2225264493
30
0.0000000000
10
362.9142581934
20
145.2915453835
30
0.0000000000
10
362.9301529193
20
145.3614793721
30
0.0000000000
10
362.9371281727
20
145.3964243073
30
0.0000000000
11
362.8841237687
21
145.1880905766
31
0.0000000000
11
362.9134635178
21
145.2921736095
31
0.0000000000
11
362.9371281727
21
145.3964243073
31
0.0000000000
0
SPLINE
5
372
100
AcDbEntity
8
DEFAULT_2
100
AcDbSpline
62
8
6
HIDDEN
70
0
71
3
72
8
73
4
74
2
42
0.0000001000
43
0.0000001000
44
0.0000000001
40
0.0000000000
40
0.0000000000
40
0.0000000000
40
0.0000000000
40
1.0000000000
40
1.0000000000
40
1.0000000000
40
1.0000000000
10
362.2668237388
20
155.8130911726
30
0.0000000000
10
362.3954789289
20
155.9618537470
30
0.0000000000
10
362.5152483023
20
156.1211112779
30
0.0000000000
10
362.6180306719
20
156.2904080986
30
0.0000000000
11
362.2668237388
21
155.8130911726
31
0.0000000000
11
362.6180306719
21
156.2904080986
31
0.0000000000
0
SPLINE
5
373
100
AcDbEntity
8
DEFAULT_2
100
AcDbSpline
62
8
6
HIDDEN
70
0
71
3
72
8
73
4
74
2
42
0.0000001000
43
0.0000001000
44
0.0000000001
40
0.0000000000
40
0.0000000000
40
0.0000000000
40
0.0000000000
40
1.0000000000
40
1.0000000000
40
1.0000000000
40
1.0000000000
10
362.6180306719
20
156.2904080986
30
0.0000000000
10
362.6352705553
20
156.3188045782
30
0.0000000000
10
362.6520325264
20
156.3474835030
30
0.0000000000
10
362.6682783561
20
156.3764427229
30
0.0000000000
11
362.6180306719
21
156.2904080986
31
0.0000000000
11
362.6682783561
21
156.3764427229
31
0.0000000000
0
SPLINE
5
374
100
AcDbEntity
8
DEFAULT_2
100
AcDbSpline
62
8
6
HIDDEN
70
0
71
3
72
9
73
5
74
3
42
0.0000001000
43
0.0000001000
44
0.0000000001
40
0.0000000000
40
0.0000000000
40
0.0000000000
40
0.0000000000
40
0.8469588192
40
1.0000000000
40
1.0000000000
40
1.0000000000
40
1.0000000000
10
362.6682783561
20
156.3764427229
30
0.0000000000
10
362.7396040933
20
156.5035853654
30
0.0000000000
10
362.8120713480
20
156.6600811775
30
0.0000000000
10
362.8661592729
20
156.8238551257
30
0.0000000000
10
362.8739982031
20
156.8490703542
30
0.0000000000
11
362.6682783561
21
156.3764427229
31
0.0000000000
11
362.8491734397
21
156.7738972745
31
0.0000000000
11
362.8739982031
21
156.8490703542
31
0.0000000000
0
SPLINE
5
375
100
AcDbEntity
8
DEFAULT_2
100
AcDbSpline
62
8
6
HIDDEN
70
0
71
3
72
8
73
4
74
2
42
0.0000001000
43
0.0000001000
44
0.0000000001
40
0.0000000000
40
0.0000000000
40
0.0000000000
40
0.0000000000
40
1.0000000000
40
1.0000000000
40
1.0000000000
40
1.0000000000
10
362.9220000312
20
118.9380893845
30
0.0000000000
10
362.9387335533
20
119.1762300375
30
0.0000000000
10
362.9515214608
20
119.4147015821
30
0.0000000000
10
362.9603612328
20
119.6533471224
30
0.0000000000
11
362.9220000312
21
118.9380893845
31
0.0000000000
11
362.9603612328
21
119.6533471224
31
0.0000000000
0
SPLINE
5
376
100
AcDbEntity
8
DEFAULT_2
100
AcDbSpline
62
8
6
HIDDEN
70
0
71
3
72
8
73
4
74
2
42
0.0000001000
43
0.0000001000
44
0.0000000001
40
0.0000000000
40
0.0000000000
40
0.0000000000
40
0.0000000000
40
1.0000000000
40
1.0000000000
40
1.0000000000
40
1.0000000000
10
362.9220000312
20
109.7714243073
30
0.0000000000
10
362.9387335427
20
110.0095648087
30
0.0000000000
10
362.9515214446
20
110.2480362014
30
0.0000000000
10
362.9603612159
20
110.4866815897
30
0.0000000000
11
362.9220000312
21
109.7714243073
31
0.0000000000
11
362.9603612159
21
110.4866815897
31
0.0000000000
0
SPLINE
5
377
100
AcDbEntity
8
DEFAULT_2
100
AcDbSpline
62
8
6
HIDDEN
70
0
71
3
72
9
73
5
74
3
42
0.0000001000
43
0.0000001000
44
0.0000000001
40
0.0000000000
40
0.0000000000
40
0.0000000000
40
0.0000000000
40
0.1530414195
40
1.0000000000
40
1.0000000000
40
1.0000000000
40
1.0000000000
10
362.8739982392
20
160.6104450096
30
0.0000000000
10
362.8661592983
20
160.6356602772
30
0.0000000000
10
362.8120713791
20
160.7994342229
30
0.0000000000
10
362.7396041310
20
160.9559300329
30
0.0000000000
10
362.6682784219
20
161.0830726397
30
0.0000000000
11
362.8739982392
21
160.6104450096
31
0.0000000000
11
362.8491734397
21
160.6856182053
31
0.0000000000
11
362.6682784219
21
161.0830726397
31
0.0000000000
0
SPLINE
5
378
100
AcDbEntity
8
DEFAULT_2
100
AcDbSpline
62
8
6
HIDDEN
70
0
71
3
72
8
73
4
74
2
42
0.0000001000
43
0.0000001000
44
0.0000000001
40
0.0000000000
40
0.0000000000
40
0.0000000000
40
0.0000000000
40
1.0000000000
40
1.0000000000
40
1.0000000000
40
1.0000000000
10
362.6682784219
20
161.0830726397
30
0.0000000000
10
362.6520325717
20
161.1120318994
30
0.0000000000
10
362.6352705786
20
161.1407108634
30
0.0000000000
10
362.6180306719
20
161.1691073812
30
0.0000000000
11
362.6682784219
21
161.0830726397
31
0.0000000000
11
362.6180306719
21
161.1691073812
31
0.0000000000
0
SPLINE
5
379
100
AcDbEntity
8
DEFAULT_2
100
AcDbSpline
62
8
6
HIDDEN
70
0
71
3
72
8
73
4
74
2
42
0.0000001000
43
0.0000001000
44
0.0000000001
40
0.0000000000
40
0.0000000000
40
0.0000000000
40
0.0000000000
40
1.0000000000
40
1.0000000000
40
1.0000000000
40
1.0000000000
10
362.6180306719
20
161.1691073812
30
0.0000000000
10
362.5152483023
20
161.3384042020
30
0.0000000000
10
362.3954789289
20
161.4976617329
30
0.0000000000
10
362.2668237388
20
161.6464243073
30
0.0000000000
11
362.6180306719
21
161.1691073812
31
0.0000000000
11
362.2668237388
21
161.6464243073
31
0.0000000000
0
SPLINE
5
37A
100
AcDbEntity
8
DEFAULT_2
100
AcDbSpline
62
8
6
HIDDEN
70
0
71
3
72
9
73
5
74
3
42
0.0000001000
43
0.0000001000
44
0.0000000001
40
0.0000000000
40
0.0000000000
40
0.0000000000
40
0.0000000000
40
0.6678705025
40
1.0000000000
40
1.0000000000
40
1.0000000000
40
1.0000000000
10
362.8360318637
20
109.3547592300
30
0.0000000000
10
362.8536484157
20
109.4237126873
30
0.0000000000
10
362.8776498051
20
109.5275789198
30
0.0000000000
10
362.8979605090
20
109.6322083401
30
0.0000000000
10
362.9042932056
20
109.6670326844
30
0.0000000000
11
362.8360318637
21
109.3547592300
31
0.0000000000
11
362.8840618217
21
109.5627914938
31
0.0000000000
11
362.9042932056
21
109.6670326844
31
0.0000000000
0
SPLINE
5
37B
100
AcDbEntity
8
DEFAULT_2
100
AcDbSpline
62
8
6
HIDDEN
70
0
71
3
72
8
73
4
74
2
42
0.0000001000
43
0.0000001000
44
0.0000000001
40
0.0000000000
40
0.0000000000
40
0.0000000000
40
0.0000000000
40
1.0000000000
40
1.0000000000
40
1.0000000000
40
1.0000000000
10
362.9042932056
20
109.6670326844
30
0.0000000000
10
362.9106082397
20
109.7017599002
30
0.0000000000
10
362.9165124875
20
109.7365605323
30
0.0000000000
10
362.9220000312
20
109.7714243073
30
0.0000000000
11
362.9042932056
21
109.6670326844
31
0.0000000000
11
362.9220000312
21
109.7714243073
31
0.0000000000
0
SPLINE
5
37C
100
AcDbEntity
8
DEFAULT_2
100
AcDbSpline
62
8
6
HIDDEN
70
0
71
3
72
9
73
5
74
3
42
0.0000001000
43
0.0000001000
44
0.0000000001
40
0.0000000000
40
0.0000000000
40
0.0000000000
40
0.0000000000
40
0.5108281772
40
1.0000000000
40
1.0000000000
40
1.0000000000
40
1.0000000000
10
362.6295386819
20
115.1880893845
30
0.0000000000
10
362.6569971314
20
115.2218912891
30
0.0000000000
10
362.7087825019
20
115.2896930879
30
0.0000000000
10
362.7559168308
20
115.3608268403
30
0.0000000000
10
362.7776414370
20
115.3964243073
30
0.0000000000
11
362.6295386819
21
115.1880893845
31
0.0000000000
11
362.7086903162
21
115.2920308858
31
0.0000000000
11
362.7776414370
21
115.3964243073
31
0.0000000000
0
SPLINE
5
37D
100
AcDbEntity
8
DEFAULT_2
100
AcDbSpline
62
8
6
HIDDEN
70
0
71
3
72
9
73
5
74
3
42
0.0000001000
43
0.0000001000
44
0.0000000001
40
0.0000000000
40
0.0000000000
40
0.0000000000
40
0.0000000000
40
0.4993096444
40
1.0000000000
40
1.0000000000
40
1.0000000000
40
1.0000000000
10
362.4387565653
20
114.3547592300
30
0.0000000000
10
362.4739266004
20
114.4926401972
30
0.0000000000
10
362.5409638680
20
114.7696618263
30
0.0000000000
10
362.6011402138
20
115.0482546392
30
0.0000000000
10
362.6295386819
20
115.1880893845
30
0.0000000000
11
362.4387565653
21
114.3547592300
31
0.0000000000
11
362.5391608116
21
114.7696710514
31
0.0000000000
11
362.6295386819
21
115.1880893845
31
0.0000000000
0
SPLINE
5
37E
100
AcDbEntity
8
DEFAULT_2
100
AcDbSpline
62
8
6
HIDDEN
70
0
71
3
72
8
73
4
74
2
42
0.0000001000
43
0.0000001000
44
0.0000000001
40
0.0000000000
40
0.0000000000
40
0.0000000000
40
0.0000000000
40
1.0000000000
40
1.0000000000
40
1.0000000000
40
1.0000000000
10
362.3269331231
20
113.5214243073
30
0.0000000000
10
362.3366683690
20
113.5905265966
30
0.0000000000
10
362.3462900560
20
113.6596449777
30
0.0000000000
10
362.3557985306
20
113.7287789776
30
0.0000000000
11
362.3269331231
21
113.5214243073
31
0.0000000000
11
362.3557985306
21
113.7287789776
31
0.0000000000
0
SPLINE
5
37F
100
AcDbEntity
8
DEFAULT_2
100
AcDbSpline
62
8
6
HIDDEN
70
0
71
3
72
8
73
4
74
2
42
0.0000001000
43
0.0000001000
44
0.0000000001
40
0.0000000000
40
0.0000000000
40
0.0000000000
40
0.0000000000
40
1.0000000000
40
1.0000000000
40
1.0000000000
40
1.0000000000
10
362.3557985306
20
113.7287789776
30
0.0000000000
10
362.3653326082
20
113.7980991309
30
0.0000000000
10
362.3747528629
20
113.8674349874
30
0.0000000000
10
362.3840596442
20
113.9367860700
30
0.0000000000
11
362.3557985306
21
113.7287789776
31
0.0000000000
11
362.3840596442
21
113.9367860700
31
0.0000000000
0
SPLINE
5
380
100
AcDbEntity
8
DEFAULT_2
100
AcDbSpline
62
8
6
HIDDEN
70
0
71
3
72
8
73
4
74
2
42
0.0000001000
43
0.0000001000
44
0.0000000001
40
0.0000000000
40
0.0000000000
40
0.0000000000
40
0.0000000000
40
1.0000000000
40
1.0000000000
40
1.0000000000
40
1.0000000000
10
362.3840596442
20
113.9367860700
30
0.0000000000
10
362.3850226492
20
113.9439620673
30
0.0000000000
10
362.3859844392
20
113.9511382276
30
0.0000000000
10
362.3869450146
20
113.9583145504
30
0.0000000000
11
362.3840596442
21
113.9367860700
31
0.0000000000
11
362.3869450146
21
113.9583145504
31
0.0000000000
0
SPLINE
5
381
100
AcDbEntity
8
DEFAULT_2
100
AcDbSpline
62
8
6
HIDDEN
70
0
71
3
72
8
73
4
74
2
42
0.0000001000
43
0.0000001000
44
0.0000000001
40
0.0000000000
40
0.0000000000
40
0.0000000000
40
0.0000000000
40
1.0000000000
40
1.0000000000
40
1.0000000000
40
1.0000000000
10
362.3869450146
20
113.9583145504
30
0.0000000000
10
362.4046262823
20
114.0904087881
30
0.0000000000
10
362.4218960357
20
114.2225580863
30
0.0000000000
10
362.4387565653
20
114.3547592300
30
0.0000000000
11
362.3869450146
21
113.9583145504
31
0.0000000000
11
362.4387565653
21
114.3547592300
31
0.0000000000
0
SPLINE
5
382
100
AcDbEntity
8
DEFAULT_2
100
AcDbSpline
62
8
6
HIDDEN
70
0
71
3
72
9
73
5
74
3
42
0.0000001000
43
0.0000001000
44
0.0000000001
40
0.0000000000
40
0.0000000000
40
0.0000000000
40
0.0000000000
40
0.4993649202
40
1.0000000000
40
1.0000000000
40
1.0000000000
40
1.0000000000
10
362.2668237388
20
112.0630893845
30
0.0000000000
10
362.2770641124
20
112.3058267191
30
0.0000000000
10
362.2973352421
20
112.7919287730
30
0.0000000000
10
362.3171368427
20
113.2780501792
30
0.0000000000
10
362.3269331231
20
113.5214243073
30
0.0000000000
11
362.2668237388
21
112.0630893845
31
0.0000000000
11
362.2971924102
21
112.7913161716
31
0.0000000000
11
362.3269331231
21
113.5214243073
31
0.0000000000
0
SPLINE
5
383
100
AcDbEntity
8
DEFAULT_2
100
AcDbSpline
62
8
6
HIDDEN
70
0
71
3
72
9
73
5
74
3
42
0.0000001000
43
0.0000001000
44
0.0000000001
40
0.0000000000
40
0.0000000000
40
0.0000000000
40
0.0000000000
40
0.4993704113
40
1.0000000000
40
1.0000000000
40
1.0000000000
40
1.0000000000
10
362.2668237388
20
111.2297592300
30
0.0000000000
10
362.2770640766
20
111.0216996121
30
0.0000000000
10
362.2973350647
20
110.6050441236
30
0.0000000000
10
362.3171368111
20
110.1883660711
30
0.0000000000
10
362.3269331231
20
109.9797592300
30
0.0000000000
11
362.2668237388
21
111.2297592300
31
0.0000000000
11
362.2971925248
21
110.6055631399
31
0.0000000000
11
362.3269331231
21
109.9797592300
31
0.0000000000
0
SPLINE
5
384
100
AcDbEntity
8
DEFAULT_2
100
AcDbSpline
62
8
6
HIDDEN
70
0
71
3
72
9
73
5
74
3
42
0.0000001000
43
0.0000001000
44
0.0000000001
40
0.0000000000
40
0.0000000000
40
0.0000000000
40
0.0000000000
40
0.6657688241
40
1.0000000000
40
1.0000000000
40
1.0000000000
40
1.0000000000
10
362.3269331231
20
109.9797592300
30
0.0000000000
10
362.3464298284
20
109.8413685834
30
0.0000000000
10
362.3750302151
20
109.6334057257
30
0.0000000000
10
362.4026093322
20
109.4253058303
30
0.0000000000
10
362.4117133806
20
109.3557375181
30
0.0000000000
11
362.3269331231
21
109.9797592300
31
0.0000000000
11
362.3840596442
21
109.5643974672
31
0.0000000000
11
362.4117133806
21
109.3557375181
31
0.0000000000
0
SPLINE
5
385
100
AcDbEntity
8
DEFAULT_2
100
AcDbSpline
62
8
6
HIDDEN
70
0
71
3
72
8
73
4
74
2
42
0.0000001000
43
0.0000001000
44
0.0000000001
40
0.0000000000
40
0.0000000000
40
0.0000000000
40
0.0000000000
40
1.0000000000
40
1.0000000000
40
1.0000000000
40
1.0000000000
10
362.4117133806
20
109.3557375181
30
0.0000000000
10
362.4208420312
20
109.2859812100
30
0.0000000000
10
362.4298563137
20
109.2162099820
30
0.0000000000
10
362.4387565653
20
109.1464243073
30
0.0000000000
11
362.4117133806
21
109.3557375181
31
0.0000000000
11
362.4387565653
21
109.1464243073
31
0.0000000000
0
SPLINE
5
386
100
AcDbEntity
8
DEFAULT_2
100
AcDbSpline
62
8
6
HIDDEN
70
0
71
3
72
9
73
5
74
3
42
0.0000001000
43
0.0000001000
44
0.0000000001
40
0.0000000000
40
0.0000000000
40
0.0000000000
40
0.0000000000
40
0.4993096241
40
1.0000000000
40
1.0000000000
40
1.0000000000
40
1.0000000000
10
362.4387565653
20
109.1464243073
30
0.0000000000
10
362.4739266012
20
109.0085425480
30
0.0000000000
10
362.5409638706
20
108.7315193255
30
0.0000000000
10
362.6011402143
20
108.4529249273
30
0.0000000000
10
362.6295386819
20
108.3130893845
30
0.0000000000
11
362.4387565653
21
109.1464243073
31
0.0000000000
11
362.5391608107
21
108.7315101158
31
0.0000000000
11
362.6295386819
21
108.3130893845
31
0.0000000000
0
SPLINE
5
387
100
AcDbEntity
8
DEFAULT_2
100
AcDbSpline
62
8
6
HIDDEN
70
0
71
3
72
8
73
4
74
2
42
0.0000001000
43
0.0000001000
44
0.0000000001
40
0.0000000000
40
0.0000000000
40
0.0000000000
40
0.0000000000
40
1.0000000000
40
1.0000000000
40
1.0000000000
40
1.0000000000
10
362.6295386819
20
108.3130893845
30
0.0000000000
10
362.6569971124
20
108.2792882769
30
0.0000000000
10
362.6834505399
20
108.2446540021
30
0.0000000000
10
362.7086903166
20
108.2091502616
30
0.0000000000
11
362.6295386819
21
108.3130893845
31
0.0000000000
11
362.7086903166
21
108.2091502616
31
0.0000000000
0
SPLINE
5
388
100
AcDbEntity
8
DEFAULT_2
100
AcDbSpline
62
8
6
HIDDEN
70
0
71
3
72
8
73
4
74
2
42
0.0000001000
43
0.0000001000
44
0.0000000001
40
0.0000000000
40
0.0000000000
40
0.0000000000
40
0.0000000000
40
1.0000000000
40
1.0000000000
40
1.0000000000
40
1.0000000000
10
362.7086903166
20
108.2091502616
30
0.0000000000
10
362.7328600279
20
108.1751517374
30
0.0000000000
10
362.7559168148
20
108.1403559084
30
0.0000000000
10
362.7776414370
20
108.1047592300
30
0.0000000000
11
362.7086903166
21
108.2091502616
31
0.0000000000
11
362.7776414370
21
108.1047592300
31
0.0000000000
0
SPLINE
5
389
100
AcDbEntity
8
DEFAULT_2
100
AcDbSpline
62
8
6
HIDDEN
70
0
71
3
72
9
73
5
74
3
42
0.0000001000
43
0.0000001000
44
0.0000000001
40
0.0000000000
40
0.0000000000
40
0.0000000000
40
0.0000000000
40
0.6678705025
40
1.0000000000
40
1.0000000000
40
1.0000000000
40
1.0000000000
10
362.8360318637
20
118.5214243073
30
0.0000000000
10
362.8536484157
20
118.5903777646
30
0.0000000000
10
362.8776498051
20
118.6942439970
30
0.0000000000
10
362.8979605090
20
118.7988734173
30
0.0000000000
10
362.9042932056
20
118.8336977616
30
0.0000000000
11
362.8360318637
21
118.5214243073
31
0.0000000000
11
362.8840618217
21
118.7294565710
31
0.0000000000
11
362.9042932056
21
118.8336977616
31
0.0000000000
0
SPLINE
5
38A
100
AcDbEntity
8
DEFAULT_2
100
AcDbSpline
62
8
6
HIDDEN
70
0
71
3
72
8
73
4
74
2
42
0.0000001000
43
0.0000001000
44
0.0000000001
40
0.0000000000
40
0.0000000000
40
0.0000000000
40
0.0000000000
40
1.0000000000
40
1.0000000000
40
1.0000000000
40
1.0000000000
10
362.9042932056
20
118.8336977616
30
0.0000000000
10
362.9106082397
20
118.8684249774
30
0.0000000000
10
362.9165124875
20
118.9032256095
30
0.0000000000
10
362.9220000312
20
118.9380893845
30
0.0000000000
11
362.9042932056
21
118.8336977616
31
0.0000000000
11
362.9220000312
21
118.9380893845
31
0.0000000000
0
SPLINE
5
38B
100
AcDbEntity
8
DEFAULT_2
100
AcDbSpline
62
8
6
HIDDEN
70
0
71
3
72
9
73
5
74
3
42
0.0000001000
43
0.0000001000
44
0.0000000001
40
0.0000000000
40
0.0000000000
40
0.0000000000
40
0.0000000000
40
0.5108281772
40
1.0000000000
40
1.0000000000
40
1.0000000000
40
1.0000000000
10
362.6295386819
20
124.3547568459
30
0.0000000000
10
362.6569971314
20
124.3885587505
30
0.0000000000
10
362.7087825019
20
124.4563605493
30
0.0000000000
10
362.7559168308
20
124.5274943017
30
0.0000000000
10
362.7776414370
20
124.5630917686
30
0.0000000000
11
362.6295386819
21
124.3547568459
31
0.0000000000
11
362.7086903162
21
124.4586983471
31
0.0000000000
11
362.7776414370
21
124.5630917686
31
0.0000000000
0
SPLINE
5
38C
100
AcDbEntity
8
DEFAULT_2
100
AcDbSpline
62
8
6
HIDDEN
70
0
71
3
72
9
73
5
74
3
42
0.0000001000
43
0.0000001000
44
0.0000000001
40
0.0000000000
40
0.0000000000
40
0.0000000000
40
0.0000000000
40
0.4993096343
40
1.0000000000
40
1.0000000000
40
1.0000000000
40
1.0000000000
10
362.4387565653
20
123.5214243073
30
0.0000000000
10
362.4739266008
20
123.6593056705
30
0.0000000000
10
362.5409638693
20
123.9363280963
30
0.0000000000
10
362.6011402140
20
124.2149217018
30
0.0000000000
10
362.6295386819
20
124.3547568459
30
0.0000000000
11
362.4387565653
21
123.5214243073
31
0.0000000000
11
362.5391608112
21
123.9363373137
31
0.0000000000
11
362.6295386819
21
124.3547568459
31
0.0000000000
0
SPLINE
5
38D
100
AcDbEntity
8
DEFAULT_2
100
AcDbSpline
62
8
6
HIDDEN
70
0
71
3
72
8
73
4
74
2
42
0.0000001000
43
0.0000001000
44
0.0000000001
40
0.0000000000
40
0.0000000000
40
0.0000000000
40
0.0000000000
40
1.0000000000
40
1.0000000000
40
1.0000000000
40
1.0000000000
10
362.3269331231
20
122.6880893845
30
0.0000000000
10
362.3366683690
20
122.7571916738
30
0.0000000000
10
362.3462900560
20
122.8263100549
30
0.0000000000
10
362.3557985306
20
122.8954440548
30
0.0000000000
11
362.3269331231
21
122.6880893845
31
0.0000000000
11
362.3557985306
21
122.8954440548
31
0.0000000000
0
SPLINE
5
38E
100
AcDbEntity
8
DEFAULT_2
100
AcDbSpline
62
8
6
HIDDEN
70
0
71
3
72
8
73
4
74
2
42
0.0000001000
43
0.0000001000
44
0.0000000001
40
0.0000000000
40
0.0000000000
40
0.0000000000
40
0.0000000000
40
1.0000000000
40
1.0000000000
40
1.0000000000
40
1.0000000000
10
362.3557985306
20
122.8954440548
30
0.0000000000
10
362.3653326082
20
122.9647642082
30
0.0000000000
10
362.3747528629
20
123.0341000646
30
0.0000000000
10
362.3840596442
20
123.1034511473
30
0.0000000000
11
362.3557985306
21
122.8954440548
31
0.0000000000
11
362.3840596442
21
123.1034511473
31
0.0000000000
0
SPLINE
5
38F
100
AcDbEntity
8
DEFAULT_2
100
AcDbSpline
62
8
6
HIDDEN
70
0
71
3
72
8
73
4
74
2
42
0.0000001000
43
0.0000001000
44
0.0000000001
40
0.0000000000
40
0.0000000000
40
0.0000000000
40
0.0000000000
40
1.0000000000
40
1.0000000000
40
1.0000000000
40
1.0000000000
10
362.3840596442
20
123.1034511473
30
0.0000000000
10
362.3850227539
20
123.1106279254
30
0.0000000000
10
362.3859846485
20
123.1178048665
30
0.0000000000
10
362.3869453282
20
123.1249819702
30
0.0000000000
11
362.3840596442
21
123.1034511473
31
0.0000000000
11
362.3869453282
21
123.1249819702
31
0.0000000000
0
SPLINE
5
390
100
AcDbEntity
8
DEFAULT_2
100
AcDbSpline
62
8
6
HIDDEN
70
0
71
3
72
8
73
4
74
2
42
0.0000001000
43
0.0000001000
44
0.0000000001
40
0.0000000000
40
0.0000000000
40
0.0000000000
40
0.0000000000
40
1.0000000000
40
1.0000000000
40
1.0000000000
40
1.0000000000
10
362.3869453282
20
123.1249819702
30
0.0000000000
10
362.4046264865
20
123.2570754277
30
0.0000000000
10
362.4218961354
20
123.3892239450
30
0.0000000000
10
362.4387565653
20
123.5214243073
30
0.0000000000
11
362.3869453282
21
123.1249819702
31
0.0000000000
11
362.4387565653
21
123.5214243073
31
0.0000000000
0
SPLINE
5
391
100
AcDbEntity
8
DEFAULT_2
100
AcDbSpline
62
8
6
HIDDEN
70
0
71
3
72
9
73
5
74
3
42
0.0000001000
43
0.0000001000
44
0.0000000001
40
0.0000000000
40
0.0000000000
40
0.0000000000
40
0.0000000000
40
0.4993649203
40
1.0000000000
40
1.0000000000
40
1.0000000000
40
1.0000000000
10
362.2668237388
20
121.2297592300
30
0.0000000000
10
362.2770641124
20
121.4724957709
30
0.0000000000
10
362.2973352420
20
121.9585962354
30
0.0000000000
10
362.3171368427
20
122.4447160522
30
0.0000000000
10
362.3269331231
20
122.6880893845
30
0.0000000000
11
362.2668237388
21
121.2297592300
31
0.0000000000
11
362.2971924102
21
121.9579836362
31
0.0000000000
11
362.3269331231
21
122.6880893845
31
0.0000000000
0
SPLINE
5
392
100
AcDbEntity
8
DEFAULT_2
100
AcDbSpline
62
8
6
HIDDEN
70
0
71
3
72
9
73
5
74
3
42
0.0000001000
43
0.0000001000
44
0.0000000001
40
0.0000000000
40
0.0000000000
40
0.0000000000
40
0.0000000000
40
0.4993704113
40
1.0000000000
40
1.0000000000
40
1.0000000000
40
1.0000000000
10
362.2668237388
20
120.3964243073
30
0.0000000000
10
362.2770640766
20
120.1883646894
30
0.0000000000
10
362.2973350647
20
119.7717092008
30
0.0000000000
10
362.3171368111
20
119.3550311483
30
0.0000000000
10
362.3269331231
20
119.1464243073
30
0.0000000000
11
362.2668237388
21
120.3964243073
31
0.0000000000
11
362.2971925248
21
119.7722282171
31
0.0000000000
11
362.3269331231
21
119.1464243073
31
0.0000000000
0
SPLINE
5
393
100
AcDbEntity
8
DEFAULT_2
100
AcDbSpline
62
8
6
HIDDEN
70
0
71
3
72
9
73
5
74
3
42
0.0000001000
43
0.0000001000
44
0.0000000001
40
0.0000000000
40
0.0000000000
40
0.0000000000
40
0.0000000000
40
0.6657688241
40
1.0000000000
40
1.0000000000
40
1.0000000000
40
1.0000000000
10
362.3269331231
20
119.1464243073
30
0.0000000000
10
362.3464298284
20
119.0080336606
30
0.0000000000
10
362.3750302151
20
118.8000708029
30
0.0000000000
10
362.4026093322
20
118.5919709075
30
0.0000000000
10
362.4117133806
20
118.5224025953
30
0.0000000000
11
362.3269331231
21
119.1464243073
31
0.0000000000
11
362.3840596442
21
118.7310625445
31
0.0000000000
11
362.4117133806
21
118.5224025953
31
0.0000000000
0
SPLINE
5
394
100
AcDbEntity
8
DEFAULT_2
100
AcDbSpline
62
8
6
HIDDEN
70
0
71
3
72
8
73
4
74
2
42
0.0000001000
43
0.0000001000
44
0.0000000001
40
0.0000000000
40
0.0000000000
40
0.0000000000
40
0.0000000000
40
1.0000000000
40
1.0000000000
40
1.0000000000
40
1.0000000000
10
362.4117133806
20
118.5224025953
30
0.0000000000
10
362.4208420312
20
118.4526462872
30
0.0000000000
10
362.4298563137
20
118.3828750592
30
0.0000000000
10
362.4387565653
20
118.3130893845
30
0.0000000000
11
362.4117133806
21
118.5224025953
31
0.0000000000
11
362.4387565653
21
118.3130893845
31
0.0000000000
0
SPLINE
5
395
100
AcDbEntity
8
DEFAULT_2
100
AcDbSpline
62
8
6
HIDDEN
70
0
71
3
72
9
73
5
74
3
42
0.0000001000
43
0.0000001000
44
0.0000000001
40
0.0000000000
40
0.0000000000
40
0.0000000000
40
0.0000000000
40
0.4993096444
40
1.0000000000
40
1.0000000000
40
1.0000000000
40
1.0000000000
10
362.4387565653
20
118.3130893845
30
0.0000000000
10
362.4739266004
20
118.1752084173
30
0.0000000000
10
362.5409638680
20
117.8981867882
30
0.0000000000
10
362.6011402138
20
117.6195939753
30
0.0000000000
10
362.6295386819
20
117.4797592300
30
0.0000000000
11
362.4387565653
21
118.3130893845
31
0.0000000000
11
362.5391608116
21
117.8981775631
31
0.0000000000
11
362.6295386819
21
117.4797592300
31
0.0000000000
0
SPLINE
5
396
100
AcDbEntity
8
DEFAULT_2
100
AcDbSpline
62
8
6
HIDDEN
70
0
71
3
72
8
73
4
74
2
42
0.0000001000
43
0.0000001000
44
0.0000000001
40
0.0000000000
40
0.0000000000
40
0.0000000000
40
0.0000000000
40
1.0000000000
40
1.0000000000
40
1.0000000000
40
1.0000000000
10
362.6295386819
20
117.4797592300
30
0.0000000000
10
362.6569971314
20
117.4459573254
30
0.0000000000
10
362.6834505578
20
117.4113222561
30
0.0000000000
10
362.7086903162
20
117.3758177288
30
0.0000000000
11
362.6295386819
21
117.4797592300
31
0.0000000000
11
362.7086903162
21
117.3758177288
31
0.0000000000
0
SPLINE
5
397
100
AcDbEntity
8
DEFAULT_2
100
AcDbSpline
62
8
6
HIDDEN
70
0
71
3
72
8
73
4
74
2
42
0.0000001000
43
0.0000001000
44
0.0000000001
40
0.0000000000
40
0.0000000000
40
0.0000000000
40
0.0000000000
40
1.0000000000
40
1.0000000000
40
1.0000000000
40
1.0000000000
10
362.7086903162
20
117.3758177288
30
0.0000000000
10
362.7328600452
20
117.3418184015
30
0.0000000000
10
362.7559168308
20
117.3070217742
30
0.0000000000
10
362.7776414370
20
117.2714243073
30
0.0000000000
11
362.7086903162
21
117.3758177288
31
0.0000000000
11
362.7776414370
21
117.2714243073
31
0.0000000000
0
SPLINE
5
398
100
AcDbEntity
8
DEFAULT_2
100
AcDbSpline
62
8
6
HIDDEN
70
0
71
3
72
9
73
5
74
3
42
0.0000001000
43
0.0000001000
44
0.0000000001
40
0.0000000000
40
0.0000000000
40
0.0000000000
40
0.0000000000
40
0.4998567432
40
1.0000000000
40
1.0000000000
40
1.0000000000
40
1.0000000000
10
362.2668237388
20
132.2714243073
30
0.0000000000
10
362.3374864395
20
132.4765243282
30
0.0000000000
10
362.4688310362
20
132.8903651854
30
0.0000000000
10
362.5794965156
20
133.3102159248
30
0.0000000000
10
362.6295386819
20
133.5214243073
30
0.0000000000
11
362.2668237388
21
132.2714243073
31
0.0000000000
11
362.4636265869
21
132.8917482241
31
0.0000000000
11
362.6295386819
21
133.5214243073
31
0.0000000000
0
SPLINE
5
399
100
AcDbEntity
8
DEFAULT_2
100
AcDbSpline
62
8
6
HIDDEN
70
0
71
3
72
9
73
5
74
3
42
0.0000001000
43
0.0000001000
44
0.0000000001
40
0.0000000000
40
0.0000000000
40
0.0000000000
40
0.0000000000
40
0.4999071666
40
1.0000000000
40
1.0000000000
40
1.0000000000
40
1.0000000000
10
362.9497252311
20
147.0630905766
30
0.0000000000
10
362.9516137127
20
147.1672343558
30
0.0000000000
10
362.9551810295
20
147.3755644609
30
0.0000000000
10
362.9583278877
20
147.5839013411
30
0.0000000000
10
362.9597965249
20
147.6880905766
30
0.0000000000
11
362.9497252311
21
147.0630905766
31
0.0000000000
11
362.9550752915
21
147.3755274741
31
0.0000000000
11
362.9597965249
21
147.6880905766
31
0.0000000000
0
SPLINE
5
39A
100
AcDbEntity
8
DEFAULT_2
100
AcDbSpline
62
8
6
HIDDEN
70
0
71
3
72
9
73
5
74
3
42
0.0000001000
43
0.0000001000
44
0.0000000001
40
0.0000000000
40
0.0000000000
40
0.0000000000
40
0.0000000000
40
0.4998982565
40
1.0000000000
40
1.0000000000
40
1.0000000000
40
1.0000000000
10
362.9220000312
20
146.6464243073
30
0.0000000000
10
362.9274594642
20
146.7157948675
30
0.0000000000
10
362.9375416581
20
146.8546315223
30
0.0000000000
10
362.9459438352
20
146.9935799738
30
0.0000000000
10
362.9497252311
20
147.0630905766
30
0.0000000000
11
362.9220000312
21
146.6464243073
31
0.0000000000
11
362.9371197732
21
146.8546312086
31
0.0000000000
11
362.9497252311
21
147.0630905766
31
0.0000000000
0
SPLINE
5
39B
100
AcDbEntity
8
DEFAULT_2
100
AcDbSpline
62
8
6
HIDDEN
70
0
71
3
72
9
73
5
74
3
42
0.0000001000
43
0.0000001000
44
0.0000000001
40
0.0000000000
40
0.0000000000
40
0.0000000000
40
0.0000000000
40
0.6688952332
40
1.0000000000
40
1.0000000000
40
1.0000000000
40
1.0000000000
10
362.8613595114
20
146.4380905766
30
0.0000000000
10
362.8732717185
20
146.4724954296
30
0.0000000000
10
362.8898228767
20
146.5243757689
30
0.0000000000
10
362.9043761043
20
146.5768394551
30
0.0000000000
10
362.9089699650
20
146.5942688698
30
0.0000000000
11
362.8613595114
21
146.4380905766
31
0.0000000000
11
362.8945197844
21
146.5421614544
31
0.0000000000
11
362.9089699650
21
146.5942688698
31
0.0000000000
0
SPLINE
5
39C
100
AcDbEntity
8
DEFAULT_2
100
AcDbSpline
62
8
6
HIDDEN
70
0
71
3
72
8
73
4
74
2
42
0.0000001000
43
0.0000001000
44
0.0000000001
40
0.0000000000
40
0.0000000000
40
0.0000000000
40
0.0000000000
40
1.0000000000
40
1.0000000000
40
1.0000000000
40
1.0000000000
10
362.9089699650
20
146.5942688698
30
0.0000000000
10
362.9135374081
20
146.6115980543
30
0.0000000000
10
362.9178826468
20
146.6289850068
30
0.0000000000
10
362.9220000312
20
146.6464243073
30
0.0000000000
11
362.9089699650
21
146.5942688698
31
0.0000000000
11
362.9220000312
21
146.6464243073
31
0.0000000000
0
SPLINE
5
39D
100
AcDbEntity
8
DEFAULT_2
100
AcDbSpline
62
8
6
HIDDEN
70
0
71
3
72
9
73
5
74
3
42
0.0000001000
43
0.0000001000
44
0.0000000001
40
0.0000000000
40
0.0000000000
40
0.0000000000
40
0.0000000000
40
0.5049360144
40
1.0000000000
40
1.0000000000
40
1.0000000000
40
1.0000000000
10
362.6705184296
20
145.3964242953
30
0.0000000000
10
362.6900746250
20
145.3621755272
30
0.0000000000
10
362.7273672341
20
145.2935151060
30
0.0000000000
10
362.7615482495
20
145.2232503044
30
0.0000000000
10
362.7776414370
20
145.1880905766
30
0.0000000000
11
362.6705184296
21
145.3964242953
31
0.0000000000
11
362.7269420547
21
145.2924282349
31
0.0000000000
11
362.7776414370
21
145.1880905766
31
0.0000000000
0
SPLINE
5
39E
100
AcDbEntity
8
DEFAULT_2
100
AcDbSpline
62
8
6
HIDDEN
70
0
71
3
72
9
73
5
74
3
42
0.0000001000
43
0.0000001000
44
0.0000000001
40
0.0000000000
40
0.0000000000
40
0.0000000000
40
0.0000000000
40
0.5005224581
40
1.0000000000
40
1.0000000000
40
1.0000000000
40
1.0000000000
10
362.4905242233
20
146.0214243021
30
0.0000000000
10
362.5238397993
20
145.9181371036
30
0.0000000000
10
362.5871673063
20
145.7107207376
30
0.0000000000
10
362.6438783283
20
145.5013974098
30
0.0000000000
10
362.6705184228
20
145.3964243073
30
0.0000000000
11
362.4905242233
21
146.0214243021
31
0.0000000000
11
362.5855758983
21
145.7100262676
31
0.0000000000
11
362.6705184228
21
145.3964243073
31
0.0000000000
0
SPLINE
5
39F
100
AcDbEntity
8
DEFAULT_2
100
AcDbSpline
62
8
6
HIDDEN
70
0
71
3
72
8
73
4
74
2
42
0.0000001000
43
0.0000001000
44
0.0000000001
40
0.0000000000
40
0.0000000000
40
0.0000000000
40
0.0000000000
40
1.0000000000
40
1.0000000000
40
1.0000000000
40
1.0000000000
10
362.3269331231
20
146.8547580380
30
0.0000000000
10
362.3561208107
20
146.7166390714
30
0.0000000000
10
362.3843122158
20
146.5783077216
30
0.0000000000
10
362.4115097769
20
146.4397812676
30
0.0000000000
11
362.3269331231
21
146.8547580380
31
0.0000000000
11
362.4115097769
21
146.4397812676
31
0.0000000000
0
SPLINE
5
3A0
100
AcDbEntity
8
DEFAULT_2
100
AcDbSpline
62
8
6
HIDDEN
70
0
71
3
72
8
73
4
74
2
42
0.0000001000
43
0.0000001000
44
0.0000000001
40
0.0000000000
40
0.0000000000
40
0.0000000000
40
0.0000000000
40
1.0000000000
40
1.0000000000
40
1.0000000000
40
1.0000000000
10
362.4115097769
20
146.4397812676
30
0.0000000000
10
362.4388515345
20
146.3005203716
30
0.0000000000
10
362.4651888817
20
146.1610622970
30
0.0000000000
10
362.4905242217
20
146.0214243073
30
0.0000000000
11
362.4115097769
21
146.4397812676
31
0.0000000000
11
362.4905242217
21
146.0214243073
31
0.0000000000
0
SPLINE
5
3A1
100
AcDbEntity
8
DEFAULT_2
100
AcDbSpline
62
8
6
HIDDEN
70
0
71
3
72
8
73
4
74
2
42
0.0000001000
43
0.0000001000
44
0.0000000001
40
0.0000000000
40
0.0000000000
40
0.0000000000
40
0.0000000000
40
1.0000000000
40
1.0000000000
40
1.0000000000
40
1.0000000000
10
397.7606098978
20
341.0968409812
30
0.0000000000
10
397.4579616684
20
341.1747019220
30
0.0000000000
10
397.1563051719
20
341.2564735554
30
0.0000000000
10
396.8557830318
20
341.3422240168
30
0.0000000000
11
397.7606098978
21
341.0968409812
31
0.0000000000
11
396.8557830318
21
341.3422240168
31
0.0000000000
0
SPLINE
5
3A2
100
AcDbEntity
8
DEFAULT_2
100
AcDbSpline
62
8
6
HIDDEN
70
0
71
3
72
8
73
4
74
2
42
0.0000001000
43
0.0000001000
44
0.0000000001
40
0.0000000000
40
0.0000000000
40
0.0000000000
40
0.0000000000
40
1.0000000000
40
1.0000000000
40
1.0000000000
40
1.0000000000
10
396.8557830318
20
341.3422240168
30
0.0000000000
10
396.5611180744
20
341.4263032000
30
0.0000000000
10
396.2675436870
20
341.5142076277
30
0.0000000000
10
395.9752072730
20
341.6060121523
30
0.0000000000
11
396.8557830318
21
341.3422240168
31
0.0000000000
11
395.9752072730
21
341.6060121523
31
0.0000000000
0
SPLINE
5
3A3
100
AcDbEntity
8
0
100
AcDbSpline
62
7
6
CONTINUOUS
70
0
71
3
72
8
73
4
74
2
42
0.0000001000
43
0.0000001000
44
0.0000000001
40
0.0000000000
40
0.0000000000
40
0.0000000000
40
0.0000000000
40
1.0000000000
40
1.0000000000
40
1.0000000000
40
1.0000000000
10
362.2668237388
20
157.8964243073
30
0.0000000000
10
362.3786188768
20
157.7675497382
30
0.0000000000
10
362.4833387928
20
157.6310962610
30
0.0000000000
10
362.5761018355
20
157.4869752642
30
0.0000000000
11
362.2668237388
21
157.8964243073
31
0.0000000000
11
362.5761018355
21
157.4869752642
31
0.0000000000
0
SPLINE
5
3A4
100
AcDbEntity
8
0
100
AcDbSpline
62
7
6
CONTINUOUS
70
0
71
3
72
8
73
4
74
2
42
0.0000001000
43
0.0000001000
44
0.0000000001
40
0.0000000000
40
0.0000000000
40
0.0000000000
40
0.0000000000
40
1.0000000000
40
1.0000000000
40
1.0000000000
40
1.0000000000
10
362.5761018355
20
157.4869752642
30
0.0000000000
10
362.6102634705
20
157.4339001520
30
0.0000000000
10
362.6428035010
20
157.3797851623
30
0.0000000000
10
362.6734781135
20
157.3246258693
30
0.0000000000
11
362.5761018355
21
157.4869752642
31
0.0000000000
11
362.6734781135
21
157.3246258693
31
0.0000000000
0
SPLINE
5
3A5
100
AcDbEntity
8
0
100
AcDbSpline
62
7
6
CONTINUOUS
70
0
71
3
72
9
73
5
74
3
42
0.0000001000
43
0.0000001000
44
0.0000000001
40
0.0000000000
40
0.0000000000
40
0.0000000000
40
0.0000000000
40
0.2449382776
40
1.0000000000
40
1.0000000000
40
1.0000000000
40
1.0000000000
10
362.6734781135
20
157.3246258693
30
0.0000000000
10
362.7189503846
20
157.2428573277
30
0.0000000000
10
362.8878621471
20
156.8996548203
30
0.0000000000
10
362.9752072730
20
156.5179605062
30
0.0000000000
10
362.9752072730
20
156.2297577399
30
0.0000000000
11
362.6734781135
21
157.3246258693
31
0.0000000000
11
362.7968027262
21
157.0724211590
31
0.0000000000
11
362.9752072730
21
156.2297577399
31
0.0000000000
0
SPLINE
5
3A6
100
AcDbEntity
8
0
100
AcDbSpline
62
7
6
CONTINUOUS
70
0
71
3
72
8
73
4
74
2
42
0.0000001000
43
0.0000001000
44
0.0000000001
40
0.0000000000
40
0.0000000000
40
0.0000000000
40
0.0000000000
40
1.0000000000
40
1.0000000000
40
1.0000000000
40
1.0000000000
10
362.8739982031
20
156.8490703542
30
0.0000000000
10
362.9378916817
20
157.0545944004
30
0.0000000000
10
362.9726366584
20
157.2701548468
30
0.0000000000
10
362.9737515230
20
157.4852490037
30
0.0000000000
11
362.8739982031
21
156.8490703542
31
0.0000000000
11
362.9737515230
21
157.4852490037
31
0.0000000000
0
SPLINE
5
3A7
100
AcDbEntity
8
0
100
AcDbSpline
62
7
6
CONTINUOUS
70
0
71
3
72
8
73
4
74
2
42
0.0000001000
43
0.0000001000
44
0.0000000001
40
0.0000000000
40
0.0000000000
40
0.0000000000
40
0.0000000000
40
1.0000000000
40
1.0000000000
40
1.0000000000
40
1.0000000000
10
362.9603612328
20
119.6533471224
30
0.0000000000
10
362.9702649093
20
119.9207146795
30
0.0000000000
10
362.9752129108
20
120.1883006349
30
0.0000000000
10
362.9752016921
20
120.4558843518
30
0.0000000000
11
362.9603612328
21
119.6533471224
31
0.0000000000
11
362.9752016921
21
120.4558843518
31
0.0000000000
0
SPLINE
5
3A8
100
AcDbEntity
8
0
100
AcDbSpline
62
7
6
CONTINUOUS
70
0
71
3
72
9
73
5
74
3
42
0.0000001000
43
0.0000001000
44
0.0000000001
40
0.0000000000
40
0.0000000000
40
0.0000000000
40
0.0000000000
40
0.6649056663
40
1.0000000000
40
1.0000000000
40
1.0000000000
40
1.0000000000
10
362.5395622065
20
123.1047568459
30
0.0000000000
10
362.6535001844
20
122.5390378828
30
0.0000000000
10
362.7914034764
20
121.6810730946
30
0.0000000000
10
362.8786454549
20
120.8171892230
30
0.0000000000
10
362.9021885272
20
120.5272440950
30
0.0000000000
11
362.5395622065
21
123.1047568459
31
0.0000000000
11
362.8144882012
21
121.3954897603
31
0.0000000000
11
362.9021885272
21
120.5272440950
31
0.0000000000
0
SPLINE
5
3A9
100
AcDbEntity
8
0
100
AcDbSpline
62
7
6
CONTINUOUS
70
0
71
3
72
8
73
4
74
2
42
0.0000001000
43
0.0000001000
44
0.0000000001
40
0.0000000000
40
0.0000000000
40
0.0000000000
40
0.0000000000
40
1.0000000000
40
1.0000000000
40
1.0000000000
40
1.0000000000
10
362.9021885272
20
120.5272440950
30
0.0000000000
10
362.9042305047
20
120.5020960853
30
0.0000000000
10
362.9062296686
20
120.4769445960
30
0.0000000000
10
362.9081860173
20
120.4517897590
30
0.0000000000
11
362.9021885272
21
120.5272440950
31
0.0000000000
11
362.9081860173
21
120.4517897590
31
0.0000000000
0
SPLINE
5
3AA
100
AcDbEntity
8
0
100
AcDbSpline
62
7
6
CONTINUOUS
70
0
71
3
72
9
73
5
74
3
42
0.0000001000
43
0.0000001000
44
0.0000000001
40
0.0000000000
40
0.0000000000
40
0.0000000000
40
0.0000000000
40
0.5284111576
40
1.0000000000
40
1.0000000000
40
1.0000000000
40
1.0000000000
10
362.9081860173
20
120.4517897590
30
0.0000000000
10
362.9288671674
20
120.1858704221
30
0.0000000000
10
362.9589506541
20
119.6819192013
30
0.0000000000
10
362.9718910444
20
119.1771860633
30
0.0000000000
10
362.9741803724
20
118.9391323058
30
0.0000000000
11
362.9081860173
21
120.4517897590
31
0.0000000000
11
362.9558734003
21
119.6530652005
31
0.0000000000
11
362.9741803724
21
118.9391323058
31
0.0000000000
0
SPLINE
5
3AB
100
AcDbEntity
8
0
100
AcDbSpline
62
7
6
CONTINUOUS
70
0
71
3
72
8
73
4
74
2
42
0.0000001000
43
0.0000001000
44
0.0000000001
40
0.0000000000
40
0.0000000000
40
0.0000000000
40
0.0000000000
40
1.0000000000
40
1.0000000000
40
1.0000000000
40
1.0000000000
10
362.9741803724
20
118.9391323058
30
0.0000000000
10
362.9748611399
20
118.8683432951
30
0.0000000000
10
362.9752047188
20
118.7975518757
30
0.0000000000
10
362.9752110916
20
118.7267619036
30
0.0000000000
11
362.9741803724
21
118.9391323058
31
0.0000000000
11
362.9752110916
21
118.7267619036
31
0.0000000000
0
SPLINE
5
3AC
100
AcDbEntity
8
0
100
AcDbSpline
62
7
6
CONTINUOUS
70
0
71
3
72
9
73
5
74
3
42
0.0000001000
43
0.0000001000
44
0.0000000001
40
0.0000000000
40
0.0000000000
40
0.0000000000
40
0.0000000000
40
0.6649056685
40
1.0000000000
40
1.0000000000
40
1.0000000000
40
1.0000000000
10
362.5395622065
20
113.9380893845
30
0.0000000000
10
362.6535001840
20
113.3723706824
30
0.0000000000
10
362.7914034764
20
112.5144062865
30
0.0000000000
10
362.8786454553
20
111.6505228046
30
0.0000000000
10
362.9021885276
20
111.3605778088
30
0.0000000000
11
362.5395622065
21
113.9380893845
31
0.0000000000
11
362.8144882018
21
112.2288230768
31
0.0000000000
11
362.9021885276
21
111.3605778088
31
0.0000000000
0
SPLINE
5
3AD
100
AcDbEntity
8
0
100
AcDbSpline
62
7
6
CONTINUOUS
70
0
71
3
72
8
73
4
74
2
42
0.0000001000
43
0.0000001000
44
0.0000000001
40
0.0000000000
40
0.0000000000
40
0.0000000000
40
0.0000000000
40
1.0000000000
40
1.0000000000
40
1.0000000000
40
1.0000000000
10
362.9021885276
20
111.3605778088
30
0.0000000000
10
362.9042304735
20
111.3354301994
30
0.0000000000
10
362.9062296072
20
111.3102791105
30
0.0000000000
10
362.9081859270
20
111.2851246741
30
0.0000000000
11
362.9021885276
21
111.3605778088
31
0.0000000000
11
362.9081859270
21
111.2851246741
31
0.0000000000
0
SPLINE
5
3AE
100
AcDbEntity
8
0
100
AcDbSpline
62
7
6
CONTINUOUS
70
0
71
3
72
9
73
5
74
3
42
0.0000001000
43
0.0000001000
44
0.0000000001
40
0.0000000000
40
0.0000000000
40
0.0000000000
40
0.0000000000
40
0.5284116901
40
1.0000000000
40
1.0000000000
40
1.0000000000
40
1.0000000000
10
362.9081859270
20
111.2851246741
30
0.0000000000
10
362.9288671212
20
111.0192050717
30
0.0000000000
10
362.9589506347
20
110.5152538535
30
0.0000000000
10
362.9718910363
20
110.0105207170
30
0.0000000000
10
362.9741803678
20
109.7724672289
30
0.0000000000
11
362.9081859270
21
111.2851246741
31
0.0000000000
11
362.9558734005
21
110.4863993155
31
0.0000000000
11
362.9741803678
21
109.7724672289
31
0.0000000000
0
SPLINE
5
3AF
100
AcDbEntity
8
0
100
AcDbSpline
62
7
6
CONTINUOUS
70
0
71
3
72
8
73
4
74
2
42
0.0000001000
43
0.0000001000
44
0.0000000001
40
0.0000000000
40
0.0000000000
40
0.0000000000
40
0.0000000000
40
1.0000000000
40
1.0000000000
40
1.0000000000
40
1.0000000000
10
362.9741803678
20
109.7724672289
30
0.0000000000
10
362.9748611384
20
109.7016780914
30
0.0000000000
10
362.9752047187
20
109.6308865450
30
0.0000000000
10
362.9752110916
20
109.5600964459
30
0.0000000000
11
362.9741803678
21
109.7724672289
31
0.0000000000
11
362.9752110916
21
109.5600964459
31
0.0000000000
0
SPLINE
5
3B0
100
AcDbEntity
8
0
100
AcDbSpline
62
7
6
CONTINUOUS
70
0
71
3
72
8
73
4
74
2
42
0.0000001000
43
0.0000001000
44
0.0000000001
40
0.0000000000
40
0.0000000000
40
0.0000000000
40
0.0000000000
40
1.0000000000
40
1.0000000000
40
1.0000000000
40
1.0000000000
10
362.9603612159
20
110.4866815897
30
0.0000000000
10
362.9702649037
20
110.7540492984
30
0.0000000000
10
362.9752129108
20
111.0216354057
30
0.0000000000
10
362.9752016921
20
111.2892192746
30
0.0000000000
11
362.9603612159
21
110.4866815897
31
0.0000000000
11
362.9752016921
21
111.2892192746
31
0.0000000000
0
SPLINE
5
3B1
100
AcDbEntity
8
0
100
AcDbSpline
62
7
6
CONTINUOUS
70
0
71
3
72
8
73
4
74
2
42
0.0000001000
43
0.0000001000
44
0.0000000001
40
0.0000000000
40
0.0000000000
40
0.0000000000
40
0.0000000000
40
1.0000000000
40
1.0000000000
40
1.0000000000
40
1.0000000000
10
362.9737515230
20
159.9742664762
30
0.0000000000
10
362.9726366586
20
160.1893605925
30
0.0000000000
10
362.9378916948
20
160.4049209983
30
0.0000000000
10
362.8739982392
20
160.6104450096
30
0.0000000000
11
362.9737515230
21
159.9742664762
31
0.0000000000
11
362.8739982392
21
160.6104450096
31
0.0000000000
0
SPLINE
5
3B2
100
AcDbEntity
8
0
100
AcDbSpline
62
7
6
CONTINUOUS
70
0
71
3
72
9
73
5
74
3
42
0.0000001000
43
0.0000001000
44
0.0000000001
40
0.0000000000
40
0.0000000000
40
0.0000000000
40
0.0000000000
40
0.7550618606
40
1.0000000000
40
1.0000000000
40
1.0000000000
40
1.0000000000
10
362.9752072730
20
161.2297575909
30
0.0000000000
10
362.9752072730
20
160.9415547999
30
0.0000000000
10
362.8878621646
20
160.5598605229
30
0.0000000000
10
362.7189504454
20
160.2166580363
30
0.0000000000
10
362.6734782134
20
160.1348895437
30
0.0000000000
11
362.9752072730
21
161.2297575909
31
0.0000000000
11
362.7968027261
21
160.3870940964
31
0.0000000000
11
362.6734782134
21
160.1348895437
31
0.0000000000
0
SPLINE
5
3B3
100
AcDbEntity
8
0
100
AcDbSpline
62
7
6
CONTINUOUS
70
0
71
3
72
8
73
4
74
2
42
0.0000001000
43
0.0000001000
44
0.0000000001
40
0.0000000000
40
0.0000000000
40
0.0000000000
40
0.0000000000
40
1.0000000000
40
1.0000000000
40
1.0000000000
40
1.0000000000
10
362.6734782134
20
160.1348895437
30
0.0000000000
10
362.6428035717
20
160.0797301836
30
0.0000000000
10
362.6102635075
20
160.0256151291
30
0.0000000000
10
362.5761018353
20
159.9725399543
30
0.0000000000
11
362.6734782134
21
160.1348895437
31
0.0000000000
11
362.5761018353
21
159.9725399543
31
0.0000000000
0
SPLINE
5
3B4
100
AcDbEntity
8
0
100
AcDbSpline
62
7
6
CONTINUOUS
70
0
71
3
72
8
73
4
74
2
42
0.0000001000
43
0.0000001000
44
0.0000000001
40
0.0000000000
40
0.0000000000
40
0.0000000000
40
0.0000000000
40
1.0000000000
40
1.0000000000
40
1.0000000000
40
1.0000000000
10
362.5761018353
20
159.9725399543
30
0.0000000000
10
362.4833387932
20
159.8284189455
30
0.0000000000
10
362.3786188775
20
159.6919654559
30
0.0000000000
10
362.2668237388
20
159.5630908746
30
0.0000000000
11
362.5761018353
21
159.9725399543
31
0.0000000000
11
362.2668237388
21
159.5630908746
31
0.0000000000
0
SPLINE
5
3B5
100
AcDbEntity
8
0
100
AcDbSpline
62
7
6
CONTINUOUS
70
0
71
3
72
9
73
5
74
3
42
0.0000001000
43
0.0000001000
44
0.0000000001
40
0.0000000000
40
0.0000000000
40
0.0000000000
40
0.0000000000
40
0.4971252385
40
1.0000000000
40
1.0000000000
40
1.0000000000
40
1.0000000000
10
362.9371281727
20
146.6464243073
30
0.0000000000
10
362.9301529161
20
146.6114793724
30
0.0000000000
10
362.9142581817
20
146.5415453830
30
0.0000000000
10
362.8947780854
20
146.4725264494
30
0.0000000000
10
362.8841237386
20
146.4380905766
30
0.0000000000
11
362.9371281727
21
146.6464243073
31
0.0000000000
11
362.9134635058
21
146.5421736110
31
0.0000000000
11
362.8841237386
21
146.4380905766
31
0.0000000000
0
SPLINE
5
3B6
100
AcDbEntity
8
0
100
AcDbSpline
62
7
6
CONTINUOUS
70
0
71
3
72
9
73
5
74
3
42
0.0000001000
43
0.0000001000
44
0.0000000001
40
0.0000000000
40
0.0000000000
40
0.0000000000
40
0.0000000000
40
0.5000831990
40
1.0000000000
40
1.0000000000
40
1.0000000000
40
1.0000000000
10
362.9597965249
20
147.0630905766
30
0.0000000000
10
362.9568576275
20
146.9935927721
30
0.0000000000
10
362.9501406107
20
146.8546545458
30
0.0000000000
10
362.9417446539
20
146.7158076669
30
0.0000000000
10
362.9371281727
20
146.6464243073
30
0.0000000000
11
362.9597965249
21
147.0630905766
31
0.0000000000
11
362.9497196183
21
146.8546542712
31
0.0000000000
11
362.9371281727
21
146.6464243073
31
0.0000000000
0
SPLINE
5
3B7
100
AcDbEntity
8
0
100
AcDbSpline
62
7
6
CONTINUOUS
70
0
71
3
72
9
73
5
74
3
42
0.0000001000
43
0.0000001000
44
0.0000000001
40
0.0000000000
40
0.0000000000
40
0.0000000000
40
0.0000000000
40
0.4998571123
40
1.0000000000
40
1.0000000000
40
1.0000000000
40
1.0000000000
10
362.9673462243
20
147.6880905766
30
0.0000000000
10
362.9662981407
20
147.5839513024
30
0.0000000000
10
362.9639916009
20
147.3756152747
30
0.0000000000
10
362.9612654219
20
147.1672843148
30
0.0000000000
10
362.9597967212
20
147.0630905766
30
0.0000000000
11
362.9673462243
21
147.6880905766
31
0.0000000000
11
362.9638874102
21
147.3756760782
31
0.0000000000
11
362.9597967212
21
147.0630905766
31
0.0000000000
0
SPLINE
5
3B8
100
AcDbEntity
8
0
100
AcDbSpline
62
7
6
CONTINUOUS
70
0
71
3
72
8
73
4
74
2
42
0.0000001000
43
0.0000001000
44
0.0000000001
40
0.0000000000
40
0.0000000000
40
0.0000000000
40
0.0000000000
40
1.0000000000
40
1.0000000000
40
1.0000000000
40
1.0000000000
10
362.9748928998
20
146.4380905766
30
0.0000000000
10
362.9749976915
20
146.4033684612
30
0.0000000000
10
362.9750762848
20
146.3686462569
30
0.0000000000
10
362.9751286802
20
146.3339240082
30
0.0000000000
11
362.9748928998
21
146.4380905766
31
0.0000000000
11
362.9751286802
21
146.3339240082
31
0.0000000000
0
SPLINE
5
3B9
100
AcDbEntity
8
0
100
AcDbSpline
62
7
6
CONTINUOUS
70
0
71
3
72
8
73
4
74
2
42
0.0000001000
43
0.0000001000
44
0.0000000001
40
0.0000000000
40
0.0000000000
40
0.0000000000
40
0.0000000000
40
1.0000000000
40
1.0000000000
40
1.0000000000
40
1.0000000000
10
362.9751286802
20
146.3339240082
30
0.0000000000
10
362.9751810754
20
146.2992018491
30
0.0000000000
10
362.9752072728
20
146.2644796455
30
0.0000000000
10
362.9752072730
20
146.2297574419
30
0.0000000000
11
362.9751286802
21
146.3339240082
31
0.0000000000
11
362.9752072730
21
146.2297574419
31
0.0000000000
0
SPLINE
5
3BA
100
AcDbEntity
8
0
100
AcDbSpline
62
7
6
CONTINUOUS
70
0
71
3
72
9
73
5
74
3
42
0.0000001000
43
0.0000001000
44
0.0000000001
40
0.0000000000
40
0.0000000000
40
0.0000000000
40
0.0000000000
40
0.4950639456
40
1.0000000000
40
1.0000000000
40
1.0000000000
40
1.0000000000
10
362.7776414815
20
145.1880905766
30
0.0000000000
10
362.7615482923
20
145.2232503041
30
0.0000000000
10
362.7273672699
20
145.2935151102
30
0.0000000000
10
362.6900746522
20
145.3621755350
30
0.0000000000
10
362.6705184505
20
145.3964243073
30
0.0000000000
11
362.7776414815
21
145.1880905766
31
0.0000000000
11
362.7269420930
21
145.2924282333
31
0.0000000000
11
362.6705184505
21
145.3964243073
31
0.0000000000
0
SPLINE
5
3BB
100
AcDbEntity
8
0
100
AcDbSpline
62
7
6
CONTINUOUS
70
0
71
3
72
9
73
5
74
3
42
0.0000001000
43
0.0000001000
44
0.0000000001
40
0.0000000000
40
0.0000000000
40
0.0000000000
40
0.0000000000
40
0.4994775544
40
1.0000000000
40
1.0000000000
40
1.0000000000
40
1.0000000000
10
362.6705184505
20
145.3964243073
30
0.0000000000
10
362.6438783540
20
145.5013974135
30
0.0000000000
10
362.5871673286
20
145.7107207432
30
0.0000000000
10
362.5238398170
20
145.9181371107
30
0.0000000000
10
362.4905242393
20
146.0214243073
30
0.0000000000
11
362.6705184505
21
145.3964243073
31
0.0000000000
11
362.5855759188
21
145.7100262783
31
0.0000000000
11
362.4905242393
21
146.0214243073
31
0.0000000000
0
SPLINE
5
3BC
100
AcDbEntity
8
0
100
AcDbSpline
62
7
6
CONTINUOUS
70
0
71
3
72
9
73
5
74
3
42
0.0000001000
43
0.0000001000
44
0.0000000001
40
0.0000000000
40
0.0000000000
40
0.0000000000
40
0.0000000000
40
0.5013220030
40
1.0000000000
40
1.0000000000
40
1.0000000000
40
1.0000000000
10
362.4905242393
20
146.0214243073
30
0.0000000000
10
362.4651888950
20
146.1610623119
30
0.0000000000
10
362.4126530958
20
146.4392429790
30
0.0000000000
10
362.3561208152
20
146.7166390861
30
0.0000000000
10
362.3269331283
20
146.8547580380
30
0.0000000000
11
362.4905242393
21
146.0214243073
31
0.0000000000
11
362.4115097801
21
146.4397813118
31
0.0000000000
11
362.3269331283
21
146.8547580380
31
0.0000000000
0
SPLINE
5
3BD
100
AcDbEntity
8
0
100
AcDbSpline
62
7
6
CONTINUOUS
70
0
71
3
72
9
73
5
74
3
42
0.0000001000
43
0.0000001000
44
0.0000000001
40
0.0000000000
40
0.0000000000
40
0.0000000000
40
0.0000000000
40
0.5006205738
40
1.0000000000
40
1.0000000000
40
1.0000000000
40
1.0000000000
10
362.3269331283
20
146.8547580380
30
0.0000000000
10
362.3171367616
20
147.0285979613
30
0.0000000000
10
362.2973347722
20
147.3758337000
30
0.0000000000
10
362.2770640166
20
147.7230423894
30
0.0000000000
10
362.2668237388
20
147.8964243073
30
0.0000000000
11
362.3269331283
21
146.8547580380
31
0.0000000000
11
362.2971927124
21
147.3762578917
31
0.0000000000
11
362.2668237388
21
147.8964243073
31
0.0000000000
0
SPLINE
5
3BE
100
AcDbEntity
8
0
100
AcDbSpline
62
7
6
CONTINUOUS
70
0
71
3
72
9
73
5
74
3
42
0.0000001000
43
0.0000001000
44
0.0000000001
40
0.0000000000
40
0.0000000000
40
0.0000000000
40
0.0000000000
40
0.5005387384
40
1.0000000000
40
1.0000000000
40
1.0000000000
40
1.0000000000
10
362.6295387115
20
147.0630905766
30
0.0000000000
10
362.6224785094
20
147.1673847970
30
0.0000000000
10
362.6081518778
20
147.3757338009
30
0.0000000000
10
362.5933815182
20
147.5840518185
30
0.0000000000
10
362.5858932542
20
147.6880905766
30
0.0000000000
11
362.6295387115
21
147.0630905766
31
0.0000000000
11
362.6080252700
21
147.3759505288
31
0.0000000000
11
362.5858932542
21
147.6880905766
31
0.0000000000
0
SPLINE
5
3BF
100
AcDbEntity
8
0
100
AcDbSpline
62
7
6
CONTINUOUS
70
0
71
3
72
9
73
5
74
3
42
0.0000001000
43
0.0000001000
44
0.0000000001
40
0.0000000000
40
0.0000000000
40
0.0000000000
40
0.0000000000
40
0.5002911660
40
1.0000000000
40
1.0000000000
40
1.0000000000
40
1.0000000000
10
362.7088509774
20
146.6464243073
30
0.0000000000
10
362.6964774325
20
146.7160674065
30
0.0000000000
10
362.6708902822
20
146.8551220809
30
0.0000000000
10
362.6435999477
20
146.9938525319
30
0.0000000000
10
362.6295387115
20
147.0630905766
30
0.0000000000
11
362.7088509774
21
146.6464243073
31
0.0000000000
11
362.6704490898
21
146.8551219066
31
0.0000000000
11
362.6295387115
21
147.0630905766
31
0.0000000000
0
SPLINE
5
3C0
100
AcDbEntity
8
0
100
AcDbSpline
62
7
6
CONTINUOUS
70
0
71
3
72
9
73
5
74
3
42
0.0000001000
43
0.0000001000
44
0.0000000001
40
0.0000000000
40
0.0000000000
40
0.0000000000
40
0.0000000000
40
0.4952940642
40
1.0000000000
40
1.0000000000
40
1.0000000000
40
1.0000000000
10
362.8081298624
20
146.4380905766
30
0.0000000000
10
362.7933606089
20
146.4732237461
30
0.0000000000
10
362.7618333425
20
146.5434502142
30
0.0000000000
10
362.7271178990
20
146.6121530959
30
0.0000000000
10
362.7088509774
20
146.6464243073
30
0.0000000000
11
362.8081298624
21
146.4380905766
31
0.0000000000
11
362.7613479616
21
146.5424154913
31
0.0000000000
11
362.7088509774
21
146.6464243073
31
0.0000000000
0
SPLINE
5
3C1
100
AcDbEntity
8
0
100
AcDbSpline
62
7
6
CONTINUOUS
70
0
71
3
72
9
73
5
74
3
42
0.0000001000
43
0.0000001000
44
0.0000000001
40
0.0000000000
40
0.0000000000
40
0.0000000000
40
0.0000000000
40
0.1853592514
40
1.0000000000
40
1.0000000000
40
1.0000000000
40
1.0000000000
10
362.9752016921
20
111.2892192746
30
0.0000000000
10
362.9751954613
20
111.4378348437
30
0.0000000000
10
362.9669089124
20
112.2396015611
30
0.0000000000
10
362.9140806936
20
113.0402480029
30
0.0000000000
10
362.8415375937
20
113.6893264632
30
0.0000000000
11
362.9752016921
21
111.2892192746
31
0.0000000000
11
362.9705931193
21
111.7350261103
31
0.0000000000
11
362.8415375937
21
113.6893264632
31
0.0000000000
0
SPLINE
5
3C2
100
AcDbEntity
8
0
100
AcDbSpline
62
7
6
CONTINUOUS
70
0
71
3
72
8
73
4
74
2
42
0.0000001000
43
0.0000001000
44
0.0000000001
40
0.0000000000
40
0.0000000000
40
0.0000000000
40
0.0000000000
40
1.0000000000
40
1.0000000000
40
1.0000000000
40
1.0000000000
10
362.8415375937
20
113.6893264632
30
0.0000000000
10
362.8309206014
20
113.7843218663
30
0.0000000000
10
362.8196715801
20
113.8792495675
30
0.0000000000
10
362.8077913734
20
113.9740993785
30
0.0000000000
11
362.8415375937
21
113.6893264632
31
0.0000000000
11
362.8077913734
21
113.9740993785
31
0.0000000000
0
SPLINE
5
3C3
100
AcDbEntity
8
0
100
AcDbSpline
62
7
6
CONTINUOUS
70
0
71
3
72
8
73
4
74
2
42
0.0000001000
43
0.0000001000
44
0.0000000001
40
0.0000000000
40
0.0000000000
40
0.0000000000
40
0.0000000000
40
1.0000000000
40
1.0000000000
40
1.0000000000
40
1.0000000000
10
362.8077913734
20
113.9740993785
30
0.0000000000
10
362.7393040770
20
114.5208918134
30
0.0000000000
10
362.6498404767
20
115.0650957137
30
0.0000000000
10
362.5395622065
20
115.6047592300
30
0.0000000000
11
362.8077913734
21
113.9740993785
31
0.0000000000
11
362.5395622065
21
115.6047592300
31
0.0000000000
0
SPLINE
5
3C4
100
AcDbEntity
8
0
100
AcDbSpline
62
7
6
CONTINUOUS
70
0
71
3
72
9
73
5
74
3
42
0.0000001000
43
0.0000001000
44
0.0000000001
40
0.0000000000
40
0.0000000000
40
0.0000000000
40
0.0000000000
40
0.1853592514
40
1.0000000000
40
1.0000000000
40
1.0000000000
40
1.0000000000
10
362.9752016921
20
120.4558843518
30
0.0000000000
10
362.9751954613
20
120.6044999209
30
0.0000000000
10
362.9669089124
20
121.4062666383
30
0.0000000000
10
362.9140806936
20
122.2069130801
30
0.0000000000
10
362.8415375937
20
122.8559915404
30
0.0000000000
11
362.9752016921
21
120.4558843518
31
0.0000000000
11
362.9705931193
21
120.9016911875
31
0.0000000000
11
362.8415375937
21
122.8559915404
31
0.0000000000
0
SPLINE
5
3C5
100
AcDbEntity
8
0
100
AcDbSpline
62
7
6
CONTINUOUS
70
0
71
3
72
8
73
4
74
2
42
0.0000001000
43
0.0000001000
44
0.0000000001
40
0.0000000000
40
0.0000000000
40
0.0000000000
40
0.0000000000
40
1.0000000000
40
1.0000000000
40
1.0000000000
40
1.0000000000
10
362.8415375937
20
122.8559915404
30
0.0000000000
10
362.8309205139
20
122.9509877264
30
0.0000000000
10
362.8196713947
20
123.0459162093
30
0.0000000000
10
362.8077910797
20
123.1407668008
30
0.0000000000
11
362.8415375937
21
122.8559915404
31
0.0000000000
11
362.8077910797
21
123.1407668008
31
0.0000000000
0
SPLINE
5
3C6
100
AcDbEntity
8
0
100
AcDbSpline
62
7
6
CONTINUOUS
70
0
71
3
72
8
73
4
74
2
42
0.0000001000
43
0.0000001000
44
0.0000000001
40
0.0000000000
40
0.0000000000
40
0.0000000000
40
0.0000000000
40
1.0000000000
40
1.0000000000
40
1.0000000000
40
1.0000000000
10
362.8077910797
20
123.1407668008
30
0.0000000000
10
362.7393038212
20
123.6875584465
30
0.0000000000
10
362.6498403191
20
124.2317615624
30
0.0000000000
10
362.5395622065
20
124.7714243073
30
0.0000000000
11
362.8077910797
21
123.1407668008
31
0.0000000000
11
362.5395622065
21
124.7714243073
31
0.0000000000
0
SPLINE
5
3C7
100
AcDbEntity
8
0
100
AcDbSpline
62
7
6
CONTINUOUS
70
0
71
3
72
8
73
4
74
2
42
0.0000001000
43
0.0000001000
44
0.0000000001
40
0.0000000000
40
0.0000000000
40
0.0000000000
40
0.0000000000
40
1.0000000000
40
1.0000000000
40
1.0000000000
40
1.0000000000
10
362.9752072730
20
146.2297574419
30
0.0000000000
10
362.9752072733
20
146.1603129451
30
0.0000000000
10
362.9751024842
20
146.0908684483
30
0.0000000000
10
362.9748929009
20
146.0214243073
30
0.0000000000
11
362.9752072730
21
146.2297574419
31
0.0000000000
11
362.9748929009
21
146.0214243073
31
0.0000000000
0
SPLINE
5
3C8
100
AcDbEntity
8
0
100
AcDbSpline
62
7
6
CONTINUOUS
70
0
71
3
72
9
73
5
74
3
42
0.0000001000
43
0.0000001000
44
0.0000000001
40
0.0000000000
40
0.0000000000
40
0.0000000000
40
0.0000000000
40
0.4999194219
40
1.0000000000
40
1.0000000000
40
1.0000000000
40
1.0000000000
10
362.9748928998
20
146.0214243073
30
0.0000000000
10
362.9740539383
20
145.9171798998
30
0.0000000000
10
362.9690160059
20
145.7086709999
30
0.0000000000
10
362.9572693197
20
145.5004324552
30
0.0000000000
10
362.9497252311
20
145.3964243073
30
0.0000000000
11
362.9748928998
21
146.0214243073
31
0.0000000000
11
362.9673401699
21
145.7087721694
31
0.0000000000
11
362.9497252311
21
145.3964243073
31
0.0000000000
0
SPLINE
5
3C9
100
AcDbEntity
8
0
100
AcDbSpline
62
7
6
CONTINUOUS
70
0
71
3
72
9
73
5
74
3
42
0.0000001000
43
0.0000001000
44
0.0000000001
40
0.0000000000
40
0.0000000000
40
0.0000000000
40
0.0000000000
40
0.4974995441
40
1.0000000000
40
1.0000000000
40
1.0000000000
40
1.0000000000
10
362.9497252311
20
145.3964243073
30
0.0000000000
10
362.9440280057
20
145.3615149307
30
0.0000000000
10
362.9306982408
20
145.2916396212
30
0.0000000000
10
362.9137334931
20
145.2225588043
30
0.0000000000
10
362.9043343730
20
145.1880905766
30
0.0000000000
11
362.9497252311
21
145.3964243073
31
0.0000000000
11
362.9298652225
21
145.2921857030
31
0.0000000000
11
362.9043343730
21
145.1880905766
31
0.0000000000
0
SPLINE
5
3CA
100
AcDbEntity
8
0
100
AcDbSpline
62
7
6
CONTINUOUS
70
0
71
3
72
9
73
5
74
3
42
0.0000001000
43
0.0000001000
44
0.0000000001
40
0.0000000000
40
0.0000000000
40
0.0000000000
40
0.0000000000
40
0.2054672447
40
1.0000000000
40
1.0000000000
40
1.0000000000
40
1.0000000000
10
362.9737515230
20
157.4852490037
30
0.0000000000
10
362.9742210036
20
157.5758273016
30
0.0000000000
10
362.9474806393
20
158.0162654319
30
0.0000000000
10
362.7715479077
20
158.4361667615
30
0.0000000000
10
362.5858932542
20
158.7297577399
30
0.0000000000
11
362.9737515230
21
157.4852490037
31
0.0000000000
11
362.9569340430
21
157.7559515220
31
0.0000000000
11
362.5858932542
21
158.7297577399
31
0.0000000000
0
SPLINE
5
3CB
100
AcDbEntity
8
0
100
AcDbSpline
62
7
6
CONTINUOUS
70
0
71
3
72
9
73
5
74
3
42
0.0000001000
43
0.0000001000
44
0.0000000001
40
0.0000000000
40
0.0000000000
40
0.0000000000
40
0.0000000000
40
0.7945327553
40
1.0000000000
40
1.0000000000
40
1.0000000000
40
1.0000000000
10
362.5858932542
20
158.7297577399
30
0.0000000000
10
362.7715479077
20
159.0233487184
30
0.0000000000
10
362.9474806393
20
159.4432500479
30
0.0000000000
10
362.9742210036
20
159.8836881783
30
0.0000000000
10
362.9737515230
20
159.9742664762
30
0.0000000000
11
362.5858932542
21
158.7297577399
31
0.0000000000
11
362.9569340430
21
159.7035639579
31
0.0000000000
11
362.9737515230
21
159.9742664762
31
0.0000000000
0
SPLINE
5
3CC
100
AcDbEntity
8
0
100
AcDbSpline
62
7
6
CONTINUOUS
70
0
71
3
72
9
73
5
74
3
42
0.0000001000
43
0.0000001000
44
0.0000000001
40
0.0000000000
40
0.0000000000
40
0.0000000000
40
0.0000000000
40
0.4950795995
40
1.0000000000
40
1.0000000000
40
1.0000000000
40
1.0000000000
10
395.9752072730
20
341.6060121523
30
0.0000000000
10
396.2675437193
20
341.5142076176
30
0.0000000000
10
396.8605279994
20
341.3366514487
30
0.0000000000
10
397.4579617012
20
341.1747019136
30
0.0000000000
10
397.7606098978
20
341.0968409812
30
0.0000000000
11
395.9752072730
21
341.6060121523
31
0.0000000000
11
396.8557831293
21
341.3422239890
31
0.0000000000
11
397.7606098978
21
341.0968409812
31
0.0000000000
0
SPLINE
5
3CD
100
AcDbEntity
8
0
100
AcDbSpline
62
7
6
CONTINUOUS
70
0
71
3
72
10
73
6
74
4
42
0.0000001000
43
0.0000001000
44
0.0000000001
40
0.0000000000
40
0.0000000000
40
0.0000000000
40
0.0000000000
40
0.3628188053
40
0.6938666772
40
1.0000000000
40
1.0000000000
40
1.0000000000
40
1.0000000000
10
315.9760693547
20
335.4964243073
30
0.0000000000
10
317.8261702207
20
334.2355446634
30
0.0000000000
10
321.4923801646
20
332.0038704282
30
0.0000000000
10
327.0961370351
20
329.3923557520
30
0.0000000000
10
330.8326770325
20
328.1370935029
30
0.0000000000
10
332.6552072730
20
327.6399978784
30
0.0000000000
11
315.9760693547
21
335.4964243073
31
0.0000000000
11
321.7209620464
21
332.0164208337
31
0.0000000000
11
327.2805424691
21
329.4376249482
31
0.0000000000
11
332.6552072730
21
327.6399978784
31
0.0000000000
0
SPLINE
5
3CE
100
AcDbEntity
8
0
100
AcDbSpline
62
7
6
CONTINUOUS
70
0
71
3
72
10
73
6
74
4
42
0.0000001000
43
0.0000001000
44
0.0000000001
40
0.0000000000
40
0.0000000000
40
0.0000000000
40
0.0000000000
40
0.3061175061
40
0.6371601429
40
1.0000000000
40
1.0000000000
40
1.0000000000
40
1.0000000000
10
357.2952072730
20
327.6399978784
30
0.0000000000
10
359.1176433461
20
328.1370678187
30
0.0000000000
10
362.8540626961
20
329.3922770767
30
0.0000000000
10
368.4578356054
20
332.0037566146
30
0.0000000000
10
372.1241369815
20
334.2354715065
30
0.0000000000
10
373.9743451912
20
335.4964243073
30
0.0000000000
11
357.2952072730
21
327.6399978784
31
0.0000000000
11
362.6695995040
21
329.4375167362
31
0.0000000000
11
368.2291079152
21
332.0162375152
31
0.0000000000
11
373.9743451912
21
335.4964243073
31
0.0000000000
0
ENDSEC
0
SECTION
2
OBJECTS
0
DICTIONARY
5
3CF
100
AcDbDictionary
3
ACAD_GROUP
350
3D0
3
ACAD_MLINESTYLE
350
3D1
0
DICTIONARY
5
3D0
102
{ACAD_REACTORS
330
3CF
102
}
100
AcDbDictionary
0
DICTIONARY
5
3D1
102
{ACAD_REACTORS
330
3CF
102
}
100
AcDbDictionary
3
STANDARD
350
3D2
0
MLINESTYLE
5
3D2
102
{ACAD_REACTORS
330
3D1
102
}
100
AcDbMlineStyle
2
STANDARD
70
0
3

62
256
51
90.0
52
90.0
71
2
49
0.5
62
256
6
BYLAYER
49
-0.5
62
256
6
BYLAYER
0
ENDSEC
0
EOF
