999
DXF file: C:\Aktuell-Internet\CAD-Daten\2vb1-16.dxf
999
Pro/ENGINEER 2001400 by Parametric Technology Corporation
0
SECTION
2
HEADER
9
$ACADVER
1
AC1014
9
$EXTMAX
10
420.0000000000
20
297.0000000000
9
$EXTMIN
10
0.0000000000
20
0.0000000000
9
$LIMMIN
10
0.0000000000
20
0.0000000000
9
$LIMMAX
10
420.0000000000
20
297.0000000000
9
$VIEWCTR
10
210.0000000000
20
148.5000000000
9
$VIEWSIZE
40
297.0000000000
9
$CLAYER
8
0
9
$LTSCALE
40
23.1000000000
9
$CELTYPE
6
BYLAYER
9
$DIMSCALE
40
1
9
$DIMASZ
40
3.5000000000
9
$DIMEXO
40
2.6250000000
9
$DIMDLI
40
15.9600000000
9
$DIMEXE
40
7.5600000000
9
$DIMCEN
40
3.7800000000
9
$DIMLFAC
40
1.0000000000
9
$DIMTXT
40
3.5000000000
9
$DIMTOL
70
1
9
$DIMTFAC
40
0.6000000000
9
$DIMTP
40
0.0050000000
9
$DIMTM
40
0.0050000000
9
$HANDSEED
5
3E2
0
ENDSEC
0
SECTION
2
CLASSES
0
ENDSEC
0
SECTION
2
TABLES
0
TABLE
2
VPORT
5
8
100
AcDbSymbolTable
70
2
0
VPORT
5
1F4
100
AcDbSymbolTableRecord
100
AcDbViewportTableRecord
2
*ACTIVE
70
0
10
0.0
20
0.0
11
1.0
21
1.0
12
210.0000000000
22
148.5000000000
13
0.0
23
0.0
14
1.0
24
1.0
15
0.0
25
0.0
16
0.0
26
0.0
36
1.0
17
0.0
27
0.0
37
0.0
40
297.0000000000
41
1.4141414141
42
50.0
43
0.0
44
0.0
50
0.0
51
0.0
71
0
72
100
73
1
74
1
75
0
76
0
77
0
78
0
0
ENDTAB
0
TABLE
2
LTYPE
5
5
100
AcDbSymbolTable
70
6
0
LTYPE
5
14
100
AcDbSymbolTableRecord
100
AcDbLinetypeTableRecord
2
BYBLOCK
70
0
3

72
65
73
0
40
0.0
0
LTYPE
5
15
100
AcDbSymbolTableRecord
100
AcDbLinetypeTableRecord
2
BYLAYER
70
0
3

72
65
73
0
40
0.0
0
LTYPE
5
16
100
AcDbSymbolTableRecord
100
AcDbLinetypeTableRecord
2
CONTINUOUS
70
64
3
Solid line
72
65
73
0
40
0
0
LTYPE
5
1F5
100
AcDbSymbolTableRecord
100
AcDbLinetypeTableRecord
2
CENTER
70
64
3
____ _ ____ _ ____ _ ____ _ ____ _ ____ _ ____
72
65
73
4
40
0.6
49
0.375
74
0
49
-0.075
74
0
49
0.075
74
0
49
-0.075
74
0
0
LTYPE
5
1F6
100
AcDbSymbolTableRecord
100
AcDbLinetypeTableRecord
2
HIDDEN
70
64
3
- - - - - - - - - - - - - - - - - - - -
72
65
73
2
40
0.2
49
0.1
74
0
49
-0.1
74
0
0
LTYPE
5
1F7
100
AcDbSymbolTableRecord
100
AcDbLinetypeTableRecord
2
PHANTOM
70
64
3
_____ _ _ _____ _ _ _____ _ _ _____
72
65
73
6
40
0.8
49
0.45
74
0
49
-0.05
74
0
49
0.1
74
0
49
-0.05
74
0
49
0.1
74
0
49
-0.05
74
0
0
LTYPE
5
1F8
100
AcDbSymbolTableRecord
100
AcDbLinetypeTableRecord
2
DOT
70
64
3
. . . . . . . . . . . . . . . . . . . .
72
65
73
2
40
0.2
49
0.1
74
0
49
-0.1
74
0
0
LTYPE
5
1F9
100
AcDbSymbolTableRecord
100
AcDbLinetypeTableRecord
2
DASHED
70
64
3
- - - - - - - - - - - - - - - - - - - -
72
65
73
2
40
0.2
49
0.1
74
0
49
-0.1
74
0
0
ENDTAB
0
TABLE
2
LAYER
5
2
100
AcDbSymbolTable
70
36
0
LAYER
5
10
100
AcDbSymbolTableRecord
100
AcDbLayerTableRecord
2
0
70
0
62
7
6
CONTINUOUS
0
LAYER
5
1FA
100
AcDbSymbolTableRecord
100
AcDbLayerTableRecord
2
DEFAULT_1
70
0
62
7
6
CENTER
0
LAYER
5
1FB
100
AcDbSymbolTableRecord
100
AcDbLayerTableRecord
2
DEFAULT_2
70
0
62
8
6
HIDDEN
0
LAYER
5
1FC
100
AcDbSymbolTableRecord
100
AcDbLayerTableRecord
2
DEFAULT_3
70
0
62
7
6
PHANTOM
0
ENDTAB
0
TABLE
2
STYLE
5
3
100
AcDbSymbolTable
70
1
0
STYLE
5
11
100
AcDbSymbolTableRecord
100
AcDbTextStyleTableRecord
2
STANDARD
70
0
40
0.0
41
1.0
50
0.0
71
0
42
0.0
3
txt
4

0
STYLE
5
1FD
100
AcDbSymbolTableRecord
100
AcDbTextStyleTableRecord
2
TEXTSTYLE_0
70
0
40
0.0
41
0.80
50
0.0
71
0
42
0.2
3
txt
4

0
ENDTAB
0
TABLE
2
VIEW
5
6
100
AcDbSymbolTable
70
0
0
ENDTAB
0
TABLE
2
UCS
5
7
100
AcDbSymbolTable
70
0
0
ENDTAB
0
TABLE
2
APPID
5
9
100
AcDbSymbolTable
70
1
0
APPID
5
1FE
100
AcDbSymbolTableRecord
100
AcDbRegAppTableRecord
2
ACAD
70
0
0
ENDTAB
0
TABLE
2
DIMSTYLE
5
A
100
AcDbSymbolTable
70
1
0
DIMSTYLE
105
1FF
100
AcDbSymbolTableRecord
100
AcDbDimStyleTableRecord
2
STANDARD
70
0
3

4

5

6

7

40
1.0
41
0.18
42
0.0625
43
0.38
44
0.18
45
0.0
46
0.0
47
0.0050000000
48
0.0050000000
140
3.5000000000
141
0.09
142
0.0
143
25.4
144
1.0000000000
145
0.0
146
0.6000000000
147
0.09
71
1
72
0
73
1
74
1
75
0
76
0
77
0
78
0
170
0
171
2
172
0
173
0
174
0
175
0
176
0
177
0
178
0
270
2
271
3
272
4
273
2
274
2
340
11
275
0
280
0
281
0
282
0
283
1
284
0
285
0
286
0
287
3
288
0
0
ENDTAB
0
TABLE
2
BLOCK_RECORD
5
1
100
AcDbSymbolTable
70
0
0
BLOCK_RECORD
5
1B
100
AcDbSymbolTableRecord
100
AcDbBlockTableRecord
2
*MODEL_SPACE
0
BLOCK_RECORD
5
1C
100
AcDbSymbolTableRecord
100
AcDbBlockTableRecord
2
*PAPER_SPACE
0
ENDTAB
0
ENDSEC
0
SECTION
2
BLOCKS
0
BLOCK
5
1E
100
AcDbEntity
8
0
100
AcDbBlockBegin
2
*MODEL_SPACE
70
0
10
0.0
20
0.0
30
0.0
3
*MODEL_SPACE
1

0
ENDBLK
5
1F
100
AcDbEntity
8
0
100
AcDbBlockEnd
0
BLOCK
5
20
100
AcDbEntity
8
0
100
AcDbBlockBegin
2
*PAPER_SPACE
70
0
10
0.0
20
0.0
30
0.0
3
*PAPER_SPACE
1

0
ENDBLK
5
21
100
AcDbEntity
8
0
100
AcDbBlockEnd
0
ENDSEC
0
SECTION
2
ENTITIES
0
TEXT
5
200
100
AcDbEntity
8
0
100
AcDbText
62
2
6
CONTINUOUS
10
292.7128263337
20
87.4254398411
7
TEXTSTYLE_0
40
9.0000000000
1
VB 1-16
50
90.0000000000
72
5
11
292.7128263337
21
132.8540112697
100
AcDbText
0
LINE
5
201
100
AcDbEntity
8
0
100
AcDbLine
62
7
6
CONTINUOUS
10
0.0000000000
20
0.0000000000
11
0.0000000000
21
297.0000000000
0
LINE
5
202
100
AcDbEntity
8
0
100
AcDbLine
62
7
6
CONTINUOUS
10
0.0000000000
20
0.0000000000
11
420.0000000000
21
0.0000000000
0
LINE
5
203
100
AcDbEntity
8
0
100
AcDbLine
62
7
6
CONTINUOUS
10
0.0000000000
20
297.0000000000
11
420.0000000000
21
297.0000000000
0
LINE
5
204
100
AcDbEntity
8
0
100
AcDbLine
62
7
6
CONTINUOUS
10
420.0000000000
20
0.0000000000
11
420.0000000000
21
297.0000000000
0
LINE
5
205
100
AcDbEntity
8
0
100
AcDbLine
62
7
6
CONTINUOUS
10
44.6972180168
20
98.8197423437
11
44.2504094551
21
99.1114078978
0
LINE
5
206
100
AcDbEntity
8
0
100
AcDbLine
62
7
6
CONTINUOUS
10
44.2504094551
20
98.2364078978
11
43.6546647931
21
98.6739078978
0
LINE
5
207
100
AcDbEntity
8
0
100
AcDbLine
62
7
6
CONTINUOUS
10
44.2504094551
20
99.1114078978
11
43.9525371502
21
99.5489078978
0
LINE
5
208
100
AcDbEntity
8
0
100
AcDbLine
62
7
6
CONTINUOUS
10
43.6546647931
20
98.6739078978
11
43.2078562966
21
99.4030734518
0
LINE
5
209
100
AcDbEntity
8
0
100
AcDbLine
62
7
6
CONTINUOUS
10
33.5589201311
20
147.7989078978
11
33.5589201311
21
72.7989078978
0
LINE
5
20A
100
AcDbEntity
8
0
100
AcDbLine
62
7
6
CONTINUOUS
10
45.1440264741
20
98.6739078978
11
44.6972180168
21
98.8197423437
0
LINE
5
20B
100
AcDbEntity
8
0
100
AcDbLine
62
7
6
CONTINUOUS
10
46.0376435975
20
102.1739078978
11
45.5908349315
21
102.3197423437
0
LINE
5
20C
100
AcDbEntity
8
0
100
AcDbLine
62
7
6
CONTINUOUS
10
48.4206224541
20
102.1739078978
11
47.9738135794
21
102.3197423437
0
LINE
5
20D
100
AcDbEntity
8
0
100
AcDbLine
62
7
6
CONTINUOUS
10
44.9950903217
20
97.9447423437
11
44.2504094551
21
98.2364078978
0
LINE
5
20E
100
AcDbEntity
8
0
100
AcDbLine
62
7
6
CONTINUOUS
10
48.8674309114
20
102.7572423437
11
48.1227497319
21
103.0489078978
0
LINE
5
20F
100
AcDbEntity
8
0
100
AcDbLine
62
7
6
CONTINUOUS
10
48.8674309114
20
101.8822423437
11
48.4206224541
21
102.1739078978
0
LINE
5
210
100
AcDbEntity
8
0
100
AcDbLine
62
7
6
CONTINUOUS
10
49.4631755213
20
102.3197423437
11
48.8674309114
21
102.7572423437
0
LINE
5
211
100
AcDbEntity
8
0
100
AcDbLine
62
7
6
CONTINUOUS
10
48.8674309114
20
105.2364078978
11
47.8248774270
21
106.1114078978
0
LINE
5
212
100
AcDbEntity
8
0
100
AcDbLine
62
7
6
CONTINUOUS
10
50.0589201311
20
105.2364078978
11
49.0163670639
21
106.1114078978
0
LINE
5
213
100
AcDbEntity
8
0
100
AcDbLine
62
7
6
CONTINUOUS
10
46.3355159024
20
101.8822423437
11
46.0376435975
21
102.1739078978
0
LINE
5
214
100
AcDbEntity
8
0
100
AcDbLine
62
7
6
CONTINUOUS
10
46.6333882073
20
101.4447423437
11
46.3355159024
21
101.8822423437
0
LINE
5
215
100
AcDbEntity
8
0
100
AcDbLine
62
7
6
CONTINUOUS
10
46.7823243598
20
102.4655734518
11
47.3780689696
21
101.5905734518
0
LINE
5
216
100
AcDbEntity
8
0
100
AcDbLine
62
7
6
CONTINUOUS
10
49.1653032163
20
101.4447423437
11
48.8674309114
21
101.8822423437
0
LINE
5
217
100
AcDbEntity
8
0
100
AcDbLine
62
7
6
CONTINUOUS
10
49.9099839786
20
101.5905734518
11
49.4631755213
21
102.3197423437
0
LINE
5
218
100
AcDbEntity
8
0
100
AcDbLine
62
7
6
CONTINUOUS
10
43.9525371502
20
99.5489078978
11
43.8036009977
21
99.9864078978
0
LINE
5
219
100
AcDbEntity
8
0
100
AcDbLine
62
7
6
CONTINUOUS
10
46.7823243598
20
101.0072423437
11
46.6333882073
21
101.4447423437
0
LINE
5
21A
100
AcDbEntity
8
0
100
AcDbLine
62
7
6
CONTINUOUS
10
43.2078562966
20
99.4030734518
11
43.0589201311
21
100.1322423437
0
LINE
5
21B
100
AcDbEntity
8
0
100
AcDbLine
62
7
6
CONTINUOUS
10
43.0589201311
20
130.4655744949
11
43.0589201311
21
129.2989078978
0
LINE
5
21C
100
AcDbEntity
8
0
100
AcDbLine
62
7
6
CONTINUOUS
10
43.0589201311
20
125.7989078978
11
43.0589201311
21
122.2989078978
0
LINE
5
21D
100
AcDbEntity
8
0
100
AcDbLine
62
7
6
CONTINUOUS
10
43.0589201311
20
111.3614078978
11
43.0589201311
21
110.4864078978
0
LINE
5
21E
100
AcDbEntity
8
0
100
AcDbLine
62
7
6
CONTINUOUS
10
43.0589201311
20
105.2364078978
11
43.0589201311
21
104.3614078978
0
LINE
5
21F
100
AcDbEntity
8
0
100
AcDbLine
62
7
6
CONTINUOUS
10
43.0589201311
20
100.8614078978
11
43.0589201311
21
100.1322423437
0
LINE
5
220
100
AcDbEntity
8
0
100
AcDbLine
62
7
6
CONTINUOUS
10
43.8036009977
20
101.0072423437
11
43.8036009977
21
99.9864078978
0
LINE
5
221
100
AcDbEntity
8
0
100
AcDbLine
62
7
6
CONTINUOUS
10
43.9525371502
20
124.9239078978
11
43.9525371502
21
122.1530742863
0
LINE
5
222
100
AcDbEntity
8
0
100
AcDbLine
62
7
6
CONTINUOUS
10
45.7397712926
20
97.9447423437
11
44.9950903217
21
97.9447423437
0
LINE
5
223
100
AcDbEntity
8
0
100
AcDbLine
62
7
6
CONTINUOUS
10
45.5908349315
20
98.6739078978
11
45.1440264741
21
98.6739078978
0
LINE
5
224
100
AcDbEntity
8
0
100
AcDbLine
62
7
6
CONTINUOUS
10
48.1227497319
20
103.0489078978
11
47.0801966647
21
103.1947423437
0
LINE
5
225
100
AcDbEntity
8
0
100
AcDbLine
62
7
6
CONTINUOUS
10
47.9738135794
20
102.3197423437
11
47.0801966647
21
102.4655734518
0
LINE
5
226
100
AcDbEntity
8
0
100
AcDbLine
62
7
6
CONTINUOUS
10
44.2504094551
20
120.5489078978
11
43.6546647931
21
120.9864078978
0
LINE
5
227
100
AcDbEntity
8
0
100
AcDbLine
62
7
6
CONTINUOUS
10
47.3780689696
20
120.5489078978
11
46.7823243598
21
120.9864078978
0
LINE
5
228
100
AcDbEntity
8
0
100
AcDbLine
62
7
6
CONTINUOUS
10
48.8674309114
20
111.3614078978
11
47.8248774270
21
112.2364078978
0
LINE
5
229
100
AcDbEntity
8
0
100
AcDbLine
62
7
6
CONTINUOUS
10
50.0589201311
20
111.3614078978
11
49.0163670639
21
112.2364078978
0
LINE
5
22A
100
AcDbEntity
8
0
100
AcDbLine
62
7
6
CONTINUOUS
10
44.3993457118
20
121.4239078978
11
44.1014733026
21
121.7155742863
0
LINE
5
22B
100
AcDbEntity
8
0
100
AcDbLine
62
7
6
CONTINUOUS
10
47.5270051221
20
121.4239078978
11
47.2291328172
21
121.7155742863
0
LINE
5
22C
100
AcDbEntity
8
0
100
AcDbLine
62
7
6
CONTINUOUS
10
43.6546647931
20
120.9864078978
11
43.2078562966
21
121.5697415093
0
LINE
5
22D
100
AcDbEntity
8
0
100
AcDbLine
62
7
6
CONTINUOUS
10
46.7823243598
20
120.9864078978
11
46.6333882073
21
121.2780742863
0
LINE
5
22E
100
AcDbEntity
8
0
100
AcDbLine
62
7
6
CONTINUOUS
10
49.3142393688
20
101.0072423437
11
49.1653032163
21
101.4447423437
0
LINE
5
22F
100
AcDbEntity
8
0
100
AcDbLine
62
7
6
CONTINUOUS
10
44.1014733026
20
121.7155742863
11
43.9525371502
21
122.1530742863
0
LINE
5
230
100
AcDbEntity
8
0
100
AcDbLine
62
7
6
CONTINUOUS
10
47.2291328172
20
121.7155742863
11
47.0801966647
21
122.1530742863
0
LINE
5
231
100
AcDbEntity
8
0
100
AcDbLine
62
7
6
CONTINUOUS
10
43.2078562966
20
121.5697415093
11
43.0589201311
21
122.2989078978
0
LINE
5
232
100
AcDbEntity
8
0
100
AcDbLine
62
7
6
CONTINUOUS
10
47.5270051221
20
100.8614078978
11
47.3780689696
21
101.5905734518
0
LINE
5
233
100
AcDbEntity
8
0
100
AcDbLine
62
7
6
CONTINUOUS
10
50.0589201311
20
100.8614078978
11
49.9099839786
21
101.5905734518
0
LINE
5
234
100
AcDbEntity
8
0
100
AcDbLine
62
7
6
CONTINUOUS
10
45.5908349315
20
109.3197406748
11
45.5908349315
21
107.2780751208
0
LINE
5
235
100
AcDbEntity
8
0
100
AcDbLine
62
7
6
CONTINUOUS
10
46.1865797500
20
124.9239078978
11
46.1865797500
21
122.1530742863
0
LINE
5
236
100
AcDbEntity
8
0
100
AcDbLine
62
7
6
CONTINUOUS
10
46.3355159024
20
109.3197406748
11
46.3355159024
21
107.2780751208
0
LINE
5
237
100
AcDbEntity
8
0
100
AcDbLine
62
7
6
CONTINUOUS
10
46.7823243598
20
101.0072423437
11
46.7823243598
21
99.9864078978
0
LINE
5
238
100
AcDbEntity
8
0
100
AcDbLine
62
7
6
CONTINUOUS
10
47.0801966647
20
124.9239078978
11
47.0801966647
21
122.1530742863
0
LINE
5
239
100
AcDbEntity
8
0
100
AcDbLine
62
7
6
CONTINUOUS
10
47.5270051221
20
100.1322423437
11
47.5270051221
21
100.8614078978
0
LINE
5
23A
100
AcDbEntity
8
0
100
AcDbLine
62
7
6
CONTINUOUS
10
48.4206224541
20
98.9655734518
11
48.4206224541
21
98.2364078978
0
LINE
5
23B
100
AcDbEntity
8
0
100
AcDbLine
62
7
6
CONTINUOUS
10
49.1653032163
20
124.9239078978
11
49.1653032163
21
122.1530742863
0
LINE
5
23C
100
AcDbEntity
8
0
100
AcDbLine
62
7
6
CONTINUOUS
10
49.3142393688
20
101.0072423437
11
49.3142393688
21
100.1322423437
0
LINE
5
23D
100
AcDbEntity
8
0
100
AcDbLine
62
7
6
CONTINUOUS
10
50.0589201311
20
132.7989078978
11
50.0589201311
21
131.9239078978
0
LINE
5
23E
100
AcDbEntity
8
0
100
AcDbLine
62
7
6
CONTINUOUS
10
50.0589201311
20
127.8405747035
11
50.0589201311
21
126.9655747035
0
LINE
5
23F
100
AcDbEntity
8
0
100
AcDbLine
62
7
6
CONTINUOUS
10
50.0589201311
20
125.7989078978
11
50.0589201311
21
122.2989078978
0
LINE
5
240
100
AcDbEntity
8
0
100
AcDbLine
62
7
6
CONTINUOUS
10
50.0589201311
20
111.3614078978
11
50.0589201311
21
110.4864078978
0
LINE
5
241
100
AcDbEntity
8
0
100
AcDbLine
62
7
6
CONTINUOUS
10
50.0589201311
20
105.2364078978
11
50.0589201311
21
104.3614078978
0
LINE
5
242
100
AcDbEntity
8
0
100
AcDbLine
62
7
6
CONTINUOUS
10
50.0589201311
20
100.8614078978
11
50.0589201311
21
100.2780734518
0
LINE
5
243
100
AcDbEntity
8
0
100
AcDbLine
62
7
6
CONTINUOUS
10
43.2078562966
20
101.5905734518
11
43.0589201311
21
100.8614078978
0
LINE
5
244
100
AcDbEntity
8
0
100
AcDbLine
62
7
6
CONTINUOUS
10
46.0376435975
20
103.1947423437
11
44.9950903217
21
103.0489078978
0
LINE
5
245
100
AcDbEntity
8
0
100
AcDbLine
62
7
6
CONTINUOUS
10
45.5908349315
20
102.3197423437
11
45.1440264741
21
102.3197423437
0
LINE
5
246
100
AcDbEntity
8
0
100
AcDbLine
62
7
6
CONTINUOUS
10
46.7823243598
20
102.4655734518
11
47.0801966647
21
102.4655734518
0
LINE
5
247
100
AcDbEntity
8
0
100
AcDbLine
62
7
6
CONTINUOUS
10
47.0801966647
20
103.1947423437
11
46.0376435975
21
103.1947423437
0
LINE
5
248
100
AcDbEntity
8
0
100
AcDbLine
62
7
6
CONTINUOUS
10
43.0589201311
20
104.3614078978
11
50.0589201311
21
104.3614078978
0
LINE
5
249
100
AcDbEntity
8
0
100
AcDbLine
62
7
6
CONTINUOUS
10
48.8674309114
20
105.2364078978
11
43.0589201311
21
105.2364078978
0
LINE
5
24A
100
AcDbEntity
8
0
100
AcDbLine
62
7
6
CONTINUOUS
10
47.8248774270
20
106.1114078978
11
49.0163670639
21
106.1114078978
0
LINE
5
24B
100
AcDbEntity
8
0
100
AcDbLine
62
7
6
CONTINUOUS
10
45.5908349315
20
107.2780751208
11
46.3355159024
21
107.2780751208
0
LINE
5
24C
100
AcDbEntity
8
0
100
AcDbLine
62
7
6
CONTINUOUS
10
46.3355159024
20
109.3197406748
11
45.5908349315
21
109.3197406748
0
LINE
5
24D
100
AcDbEntity
8
0
100
AcDbLine
62
7
6
CONTINUOUS
10
43.0589201311
20
110.4864078978
11
50.0589201311
21
110.4864078978
0
LINE
5
24E
100
AcDbEntity
8
0
100
AcDbLine
62
7
6
CONTINUOUS
10
48.8674309114
20
111.3614078978
11
43.0589201311
21
111.3614078978
0
LINE
5
24F
100
AcDbEntity
8
0
100
AcDbLine
62
7
6
CONTINUOUS
10
44.6972180168
20
120.4030742863
11
44.2504094551
21
120.5489078978
0
LINE
5
250
100
AcDbEntity
8
0
100
AcDbLine
62
7
6
CONTINUOUS
10
44.8461541692
20
121.2780742863
11
44.3993457118
21
121.4239078978
0
LINE
5
251
100
AcDbEntity
8
0
100
AcDbLine
62
7
6
CONTINUOUS
10
47.8248774270
20
120.4030742863
11
47.3780689696
21
120.5489078978
0
LINE
5
252
100
AcDbEntity
8
0
100
AcDbLine
62
7
6
CONTINUOUS
10
47.9738135794
20
121.2780742863
11
47.5270051221
21
121.4239078978
0
LINE
5
253
100
AcDbEntity
8
0
100
AcDbLine
62
7
6
CONTINUOUS
10
59.5589201311
20
147.7989078978
11
59.5589201311
21
72.7989078978
0
LINE
5
254
100
AcDbEntity
8
0
100
AcDbLine
62
7
6
CONTINUOUS
10
50.0589201311
20
122.2989078978
11
49.9099839786
21
121.5697415093
0
LINE
5
255
100
AcDbEntity
8
0
100
AcDbLine
62
7
6
CONTINUOUS
10
47.5270051221
20
100.1322423437
11
47.3780689696
21
99.4030734518
0
LINE
5
256
100
AcDbEntity
8
0
100
AcDbLine
62
7
6
CONTINUOUS
10
50.0589201311
20
100.2780734518
11
49.9099839786
21
99.5489078978
0
LINE
5
257
100
AcDbEntity
8
0
100
AcDbLine
62
7
6
CONTINUOUS
10
46.1865797500
20
122.1530742863
11
46.0376435975
21
121.7155742863
0
LINE
5
258
100
AcDbEntity
8
0
100
AcDbLine
62
7
6
CONTINUOUS
10
49.1653032163
20
122.1530742863
11
49.0163670639
21
121.7155742863
0
LINE
5
259
100
AcDbEntity
8
0
100
AcDbLine
62
7
6
CONTINUOUS
10
43.9525371502
20
101.4447423437
11
43.8036009977
21
101.0072423437
0
LINE
5
25A
100
AcDbEntity
8
0
100
AcDbLine
62
7
6
CONTINUOUS
10
99.4478131322
20
224.2989078978
11
114.4589201311
21
250.2989078978
0
LINE
5
25B
100
AcDbEntity
8
0
100
AcDbLine
62
7
6
CONTINUOUS
10
49.0163670639
20
112.2364078978
11
47.8248774270
21
112.2364078978
0
LINE
5
25C
100
AcDbEntity
8
0
100
AcDbLine
62
7
6
CONTINUOUS
10
48.4206224541
20
120.4030742863
11
47.8248774270
21
120.4030742863
0
LINE
5
25D
100
AcDbEntity
8
0
100
AcDbLine
62
7
6
CONTINUOUS
10
45.4418987790
20
120.4030742863
11
44.6972180168
21
120.4030742863
0
LINE
5
25E
100
AcDbEntity
8
0
100
AcDbLine
62
7
6
CONTINUOUS
10
48.2716858844
20
121.2780742863
11
47.9738135794
21
121.2780742863
0
LINE
5
25F
100
AcDbEntity
8
0
100
AcDbLine
62
7
6
CONTINUOUS
10
45.2929626266
20
121.2780742863
11
44.8461541692
21
121.2780742863
0
LINE
5
260
100
AcDbEntity
8
0
100
AcDbLine
62
7
6
CONTINUOUS
10
43.0589201311
20
129.2989078978
11
50.0589201311
21
126.9655747035
0
LINE
5
261
100
AcDbEntity
8
0
100
AcDbLine
62
7
6
CONTINUOUS
10
50.0589201311
20
127.8405747035
11
43.9525371502
21
129.8822413007
0
LINE
5
262
100
AcDbEntity
8
0
100
AcDbLine
62
7
6
CONTINUOUS
10
69.6589201311
20
250.2989078978
11
69.6589201311
21
263.0989078978
0
LINE
5
263
100
AcDbEntity
8
0
100
AcDbLine
62
7
6
CONTINUOUS
10
46.7823243598
20
99.9864078978
11
46.6333882073
21
99.5489078978
0
LINE
5
264
100
AcDbEntity
8
0
100
AcDbLine
62
7
6
CONTINUOUS
10
49.3142393688
20
100.1322423437
11
49.1653032163
21
99.6947423437
0
LINE
5
265
100
AcDbEntity
8
0
100
AcDbLine
62
7
6
CONTINUOUS
10
46.6333882073
20
121.2780742863
11
46.4844520549
21
120.9864078978
0
LINE
5
266
100
AcDbEntity
8
0
100
AcDbLine
62
7
6
CONTINUOUS
10
49.1653032163
20
124.9239078978
11
47.0801966647
21
124.9239078978
0
LINE
5
267
100
AcDbEntity
8
0
100
AcDbLine
62
7
6
CONTINUOUS
10
46.1865797500
20
124.9239078978
11
43.9525371502
21
124.9239078978
0
LINE
5
268
100
AcDbEntity
8
0
100
AcDbLine
62
7
6
CONTINUOUS
10
50.0589201311
20
125.7989078978
11
43.0589201311
21
125.7989078978
0
LINE
5
269
100
AcDbEntity
8
0
100
AcDbLine
62
7
6
CONTINUOUS
10
76.0589201311
20
238.3563453136
11
76.0589201311
21
225.8989078978
0
LINE
5
26A
100
AcDbEntity
8
0
100
AcDbLine
62
7
6
CONTINUOUS
10
82.0589201311
20
170.2989078978
11
82.0589201311
21
222.7922391374
0
LINE
5
26B
100
AcDbEntity
8
0
100
AcDbLine
62
7
6
CONTINUOUS
10
43.6546647931
20
102.3197423437
11
43.2078562966
21
101.5905734518
0
LINE
5
26C
100
AcDbEntity
8
0
100
AcDbLine
62
7
6
CONTINUOUS
10
46.9312605122
20
98.6739078978
11
47.3780689696
21
99.4030734518
0
LINE
5
26D
100
AcDbEntity
8
0
100
AcDbLine
62
7
6
CONTINUOUS
10
49.9099839786
20
99.5489078978
11
49.4631755213
21
98.8197423437
0
LINE
5
26E
100
AcDbEntity
8
0
100
AcDbLine
62
7
6
CONTINUOUS
10
44.2504094551
20
101.8822423437
11
43.9525371502
21
101.4447423437
0
LINE
5
26F
100
AcDbEntity
8
0
100
AcDbLine
62
7
6
CONTINUOUS
10
46.6333882073
20
99.5489078978
11
46.3355159024
21
99.1114078978
0
LINE
5
270
100
AcDbEntity
8
0
100
AcDbLine
62
7
6
CONTINUOUS
10
49.9099839786
20
121.5697415093
11
49.4631755213
21
120.9864078978
0
LINE
5
271
100
AcDbEntity
8
0
100
AcDbLine
62
7
6
CONTINUOUS
10
46.0376435975
20
121.7155742863
11
45.7397712926
21
121.4239078978
0
LINE
5
272
100
AcDbEntity
8
0
100
AcDbLine
62
7
6
CONTINUOUS
10
49.0163670639
20
121.7155742863
11
48.7184947590
21
121.4239078978
0
LINE
5
273
100
AcDbEntity
8
0
100
AcDbLine
62
7
6
CONTINUOUS
10
88.0589201311
20
153.4989078978
11
88.0589201311
21
251.0686183040
0
LINE
5
274
100
AcDbEntity
8
DEFAULT_1
100
AcDbLine
62
2
6
CENTER
10
92.0589201311
20
263.0989078978
11
92.0589201311
21
11.2202491330
0
LINE
5
275
100
AcDbEntity
8
DEFAULT_1
100
AcDbLine
62
2
6
CENTER
10
92.0589201311
20
263.0989078978
11
92.0589201311
21
275.6989078978
0
LINE
5
276
100
AcDbEntity
8
0
100
AcDbLine
62
7
6
CONTINUOUS
10
49.1653032163
20
99.6947423437
11
48.8674309114
21
99.2572423437
0
LINE
5
277
100
AcDbEntity
8
0
100
AcDbLine
62
7
6
CONTINUOUS
10
46.4844520549
20
120.9864078978
11
45.8887074450
21
120.5489078978
0
LINE
5
278
100
AcDbEntity
8
0
100
AcDbLine
62
7
6
CONTINUOUS
10
49.4631755213
20
120.9864078978
11
48.8674309114
21
120.5489078978
0
LINE
5
279
100
AcDbEntity
8
0
100
AcDbLine
62
7
6
CONTINUOUS
10
88.0589201311
20
153.4989078978
11
82.7865159671
21
166.5542422225
0
LINE
5
27A
100
AcDbEntity
8
0
100
AcDbLine
62
7
6
CONTINUOUS
10
96.0589201311
20
153.4989078978
11
96.0589201311
21
251.0686183040
0
LINE
5
27B
100
AcDbEntity
8
0
100
AcDbLine
62
7
6
CONTINUOUS
10
102.0589201311
20
170.2989078978
11
102.0589201311
21
222.7922391374
0
LINE
5
27C
100
AcDbEntity
8
0
100
AcDbLine
62
7
6
CONTINUOUS
10
101.3313242951
20
166.5542422225
11
96.0589201311
21
153.4989078978
0
LINE
5
27D
100
AcDbEntity
8
0
100
AcDbLine
62
7
6
CONTINUOUS
10
46.3355159024
20
99.1114078978
11
46.0376435975
21
98.8197423437
0
LINE
5
27E
100
AcDbEntity
8
0
100
AcDbLine
62
7
6
CONTINUOUS
10
46.4844520549
20
98.2364078978
11
46.9312605122
21
98.6739078978
0
LINE
5
27F
100
AcDbEntity
8
0
100
AcDbLine
62
7
6
CONTINUOUS
10
44.2504094551
20
102.7572423437
11
43.6546647931
21
102.3197423437
0
LINE
5
280
100
AcDbEntity
8
0
100
AcDbLine
62
7
6
CONTINUOUS
10
43.9525371502
20
129.8822413007
11
50.0589201311
21
131.9239078978
0
LINE
5
281
100
AcDbEntity
8
0
100
AcDbLine
62
7
6
CONTINUOUS
10
50.0589201311
20
132.7989078978
11
43.0589201311
21
130.4655744949
0
LINE
5
282
100
AcDbEntity
8
0
100
AcDbLine
62
7
6
CONTINUOUS
10
96.0589201311
20
153.4989078978
11
88.0589201311
21
153.4989078978
0
LINE
5
283
100
AcDbEntity
8
0
100
AcDbLine
62
7
6
CONTINUOUS
10
108.0589201311
20
238.3563453136
11
108.0589201311
21
225.8989078978
0
LINE
5
284
100
AcDbEntity
8
0
100
AcDbLine
62
7
6
CONTINUOUS
10
49.4631755213
20
98.8197423437
11
48.8674309114
21
98.3822423437
0
LINE
5
285
100
AcDbEntity
8
0
100
AcDbLine
62
7
6
CONTINUOUS
10
44.6972180168
20
102.1739078978
11
44.2504094551
21
101.8822423437
0
LINE
5
286
100
AcDbEntity
8
0
100
AcDbLine
62
7
6
CONTINUOUS
10
48.8674309114
20
99.2572423437
11
48.4206224541
21
98.9655734518
0
LINE
5
287
100
AcDbEntity
8
0
100
AcDbLine
62
7
6
CONTINUOUS
10
45.7397712926
20
121.4239078978
11
45.2929626266
21
121.2780742863
0
LINE
5
288
100
AcDbEntity
8
0
100
AcDbLine
62
7
6
CONTINUOUS
10
45.8887074450
20
120.5489078978
11
45.4418987790
21
120.4030742863
0
LINE
5
289
100
AcDbEntity
8
0
100
AcDbLine
62
7
6
CONTINUOUS
10
48.7184947590
20
121.4239078978
11
48.2716858844
21
121.2780742863
0
LINE
5
28A
100
AcDbEntity
8
0
100
AcDbLine
62
7
6
CONTINUOUS
10
48.8674309114
20
120.5489078978
11
48.4206224541
21
120.4030742863
0
LINE
5
28B
100
AcDbEntity
8
0
100
AcDbLine
62
7
6
CONTINUOUS
10
114.4589201311
20
250.2989078978
11
114.4589201311
21
263.0989078978
0
LINE
5
28C
100
AcDbEntity
8
0
100
AcDbLine
62
7
6
CONTINUOUS
10
44.9950903217
20
103.0489078978
11
44.2504094551
21
102.7572423437
0
LINE
5
28D
100
AcDbEntity
8
0
100
AcDbLine
62
7
6
CONTINUOUS
10
45.1440264741
20
102.3197423437
11
44.6972180168
21
102.1739078978
0
LINE
5
28E
100
AcDbEntity
8
0
100
AcDbLine
62
7
6
CONTINUOUS
10
84.6700271300
20
224.2989078978
11
69.6589201311
21
250.2989078978
0
LINE
5
28F
100
AcDbEntity
8
0
100
AcDbLine
62
7
6
CONTINUOUS
10
124.5589201311
20
72.7989078978
11
124.5589201311
21
147.7989078978
0
LINE
5
290
100
AcDbEntity
8
0
100
AcDbLine
62
7
6
CONTINUOUS
10
46.4844520549
20
98.2364078978
11
45.7397712926
21
97.9447423437
0
LINE
5
291
100
AcDbEntity
8
0
100
AcDbLine
62
7
6
CONTINUOUS
10
46.0376435975
20
98.8197423437
11
45.5908349315
21
98.6739078978
0
LINE
5
292
100
AcDbEntity
8
0
100
AcDbLine
62
7
6
CONTINUOUS
10
48.8674309114
20
98.3822423437
11
48.4206224541
21
98.2364078978
0
LINE
5
293
100
AcDbEntity
8
0
100
AcDbLine
62
7
6
CONTINUOUS
10
150.5589201311
20
72.7989078978
11
150.5589201311
21
147.7989078978
0
LINE
5
294
100
AcDbEntity
8
0
100
AcDbLine
62
7
6
CONTINUOUS
10
104.8589201311
20
222.6989078978
11
102.0589201311
21
222.6989078978
0
LINE
5
295
100
AcDbEntity
8
0
100
AcDbLine
62
7
6
CONTINUOUS
10
82.0589201311
20
222.6989078978
11
79.2589201311
21
222.6989078978
0
LINE
5
296
100
AcDbEntity
8
DEFAULT_1
100
AcDbLine
62
2
6
CENTER
10
92.0589201311
20
263.0989078978
11
79.4589201311
21
263.0989078978
0
LINE
5
297
100
AcDbEntity
8
DEFAULT_1
100
AcDbLine
62
2
6
CENTER
10
92.0589201311
20
263.0989078978
11
104.6589201311
21
263.0989078978
0
LINE
5
298
100
AcDbEntity
8
0
100
AcDbLine
62
7
6
CONTINUOUS
10
111.8982749593
20
273.4989078978
11
72.2195653029
21
273.4989078978
0
LINE
5
299
100
AcDbEntity
8
0
100
AcDbLine
62
7
6
CONTINUOUS
10
265.1656991256
20
285.4989078978
11
255.0965035515
21
273.4989078978
0
LINE
5
29A
100
AcDbEntity
8
0
100
AcDbLine
62
7
6
CONTINUOUS
10
247.8257314069
20
209.8340204258
11
255.0965035515
21
251.0686183040
0
LINE
5
29B
100
AcDbEntity
8
0
100
AcDbLine
62
7
6
CONTINUOUS
10
308.0706700056
20
97.9447423437
11
308.0021006445
21
97.9447423437
0
LINE
5
29C
100
AcDbEntity
8
DEFAULT_2
100
AcDbLine
62
8
6
HIDDEN
10
308.0021006445
20
97.9447423437
11
307.4965035515
21
97.9447423437
0
LINE
5
29D
100
AcDbEntity
8
0
100
AcDbLine
62
7
6
CONTINUOUS
10
308.0962902667
20
98.2364078978
11
307.8898916273
21
98.2364078978
0
LINE
5
29E
100
AcDbEntity
8
DEFAULT_2
100
AcDbLine
62
8
6
HIDDEN
10
307.8898916273
20
98.2364078978
11
307.4965035515
21
98.2364078978
0
LINE
5
29F
100
AcDbEntity
8
DEFAULT_2
100
AcDbLine
62
8
6
HIDDEN
10
307.8898916085
20
98.3822423437
11
307.4965035515
21
98.3822423437
0
LINE
5
2A0
100
AcDbEntity
8
DEFAULT_2
100
AcDbLine
62
8
6
HIDDEN
10
307.7679399709
20
98.6739078978
11
307.4965035515
21
98.6739078978
0
LINE
5
2A1
100
AcDbEntity
8
0
100
AcDbLine
62
7
6
CONTINUOUS
10
308.0911702513
20
98.6739078978
11
307.7679399709
21
98.6739078978
0
LINE
5
2A2
100
AcDbEntity
8
DEFAULT_2
100
AcDbLine
62
8
6
HIDDEN
10
308.0860482231
20
98.8197423437
11
307.9625077967
21
98.8197423437
0
LINE
5
2A3
100
AcDbEntity
8
0
100
AcDbLine
62
7
6
CONTINUOUS
10
307.9625077967
20
98.8197423437
11
307.7470380301
21
98.8197423437
0
LINE
5
2A4
100
AcDbEntity
8
DEFAULT_2
100
AcDbLine
62
8
6
HIDDEN
10
307.7470380301
20
98.8197423437
11
307.4965035515
21
98.8197423437
0
LINE
5
2A5
100
AcDbEntity
8
DEFAULT_2
100
AcDbLine
62
8
6
HIDDEN
10
307.9625077665
20
98.9655734518
11
307.4965035515
21
98.9655734518
0
LINE
5
2A6
100
AcDbEntity
8
DEFAULT_2
100
AcDbLine
62
8
6
HIDDEN
10
308.0945837185
20
99.1114078978
11
307.8898916273
21
99.1114078978
0
LINE
5
2A7
100
AcDbEntity
8
0
100
AcDbLine
62
7
6
CONTINUOUS
10
307.8898916273
20
99.1114078978
11
307.7033719100
21
99.1114078978
0
LINE
5
2A8
100
AcDbEntity
8
DEFAULT_2
100
AcDbLine
62
8
6
HIDDEN
10
307.7033719100
20
99.1114078978
11
307.4965035515
21
99.1114078978
0
LINE
5
2A9
100
AcDbEntity
8
DEFAULT_2
100
AcDbLine
62
8
6
HIDDEN
10
307.8898916085
20
99.2572423437
11
307.4965035515
21
99.2572423437
0
LINE
5
2AA
100
AcDbEntity
8
DEFAULT_2
100
AcDbLine
62
8
6
HIDDEN
10
308.0706700056
20
99.4030734518
11
307.4965035515
21
99.4030734518
0
LINE
5
2AB
100
AcDbEntity
8
DEFAULT_2
100
AcDbLine
62
8
6
HIDDEN
10
308.0962902637
20
99.5489078978
11
307.8325456273
21
99.5489078978
0
LINE
5
2AC
100
AcDbEntity
8
0
100
AcDbLine
62
7
6
CONTINUOUS
10
307.8325456273
20
99.5489078978
11
307.6571711761
21
99.5489078978
0
LINE
5
2AD
100
AcDbEntity
8
DEFAULT_2
100
AcDbLine
62
8
6
HIDDEN
10
307.6571711761
20
99.5489078978
11
307.4965035515
21
99.5489078978
0
LINE
5
2AE
100
AcDbEntity
8
DEFAULT_2
100
AcDbLine
62
8
6
HIDDEN
10
307.8325456059
20
99.6947423437
11
307.4965035515
21
99.6947423437
0
LINE
5
2AF
100
AcDbEntity
8
DEFAULT_2
100
AcDbLine
62
8
6
HIDDEN
10
308.0945838253
20
99.9864078978
11
307.8011568908
21
99.9864078978
0
LINE
5
2B0
100
AcDbEntity
8
0
100
AcDbLine
62
7
6
CONTINUOUS
10
307.8011568908
20
99.9864078978
11
307.6164875770
21
99.9864078978
0
LINE
5
2B1
100
AcDbEntity
8
DEFAULT_2
100
AcDbLine
62
8
6
HIDDEN
10
307.6164875770
20
99.9864078978
11
307.4965035515
21
99.9864078978
0
LINE
5
2B2
100
AcDbEntity
8
DEFAULT_2
100
AcDbLine
62
8
6
HIDDEN
10
308.0604077262
20
100.1322423437
11
307.4965035515
21
100.1322423437
0
LINE
5
2B3
100
AcDbEntity
8
DEFAULT_2
100
AcDbLine
62
8
6
HIDDEN
10
307.6164875770
20
100.2780734518
11
307.4965035515
21
100.2780734518
0
LINE
5
2B4
100
AcDbEntity
8
DEFAULT_2
100
AcDbLine
62
8
6
HIDDEN
10
308.0604077262
20
100.8614078978
11
307.4965035515
21
100.8614078978
0
LINE
5
2B5
100
AcDbEntity
8
DEFAULT_2
100
AcDbLine
62
8
6
HIDDEN
10
308.0945838155
20
101.0072423437
11
307.8011568908
21
101.0072423437
0
LINE
5
2B6
100
AcDbEntity
8
0
100
AcDbLine
62
7
6
CONTINUOUS
10
307.8011568908
20
101.0072423437
11
307.6164875770
21
101.0072423437
0
LINE
5
2B7
100
AcDbEntity
8
DEFAULT_2
100
AcDbLine
62
8
6
HIDDEN
10
307.6164875770
20
101.0072423437
11
307.4965035515
21
101.0072423437
0
LINE
5
2B8
100
AcDbEntity
8
DEFAULT_2
100
AcDbLine
62
8
6
HIDDEN
10
308.0962902611
20
101.4447423437
11
307.8325456273
21
101.4447423437
0
LINE
5
2B9
100
AcDbEntity
8
0
100
AcDbLine
62
7
6
CONTINUOUS
10
307.8325456273
20
101.4447423437
11
307.6571711761
21
101.4447423437
0
LINE
5
2BA
100
AcDbEntity
8
DEFAULT_2
100
AcDbLine
62
8
6
HIDDEN
10
307.6571711761
20
101.4447423437
11
307.4965035515
21
101.4447423437
0
LINE
5
2BB
100
AcDbEntity
8
DEFAULT_2
100
AcDbLine
62
8
6
HIDDEN
10
308.0706700056
20
101.5905734518
11
307.4965035515
21
101.5905734518
0
LINE
5
2BC
100
AcDbEntity
8
DEFAULT_2
100
AcDbLine
62
8
6
HIDDEN
10
308.0945838752
20
101.8822423437
11
307.8898916273
21
101.8822423437
0
LINE
5
2BD
100
AcDbEntity
8
0
100
AcDbLine
62
7
6
CONTINUOUS
10
307.8898916273
20
101.8822423437
11
307.7033722200
21
101.8822423437
0
LINE
5
2BE
100
AcDbEntity
8
DEFAULT_2
100
AcDbLine
62
8
6
HIDDEN
10
307.7033722200
20
101.8822423437
11
307.4965035515
21
101.8822423437
0
LINE
5
2BF
100
AcDbEntity
8
DEFAULT_2
100
AcDbLine
62
8
6
HIDDEN
10
308.0860494504
20
102.1739078978
11
307.9625077967
21
102.1739078978
0
LINE
5
2C0
100
AcDbEntity
8
0
100
AcDbLine
62
7
6
CONTINUOUS
10
307.9625077967
20
102.1739078978
11
307.7470381258
21
102.1739078978
0
LINE
5
2C1
100
AcDbEntity
8
DEFAULT_2
100
AcDbLine
62
8
6
HIDDEN
10
307.7470381258
20
102.1739078978
11
307.4965035515
21
102.1739078978
0
LINE
5
2C2
100
AcDbEntity
8
DEFAULT_2
100
AcDbLine
62
8
6
HIDDEN
10
307.7679399709
20
102.3197423437
11
307.4965035515
21
102.3197423437
0
LINE
5
2C3
100
AcDbEntity
8
0
100
AcDbLine
62
7
6
CONTINUOUS
10
308.0604077106
20
102.3197423437
11
307.7679399709
21
102.3197423437
0
LINE
5
2C4
100
AcDbEntity
8
DEFAULT_2
100
AcDbLine
62
8
6
HIDDEN
10
307.8116197284
20
102.4655734518
11
307.4965035515
21
102.4655734518
0
LINE
5
2C5
100
AcDbEntity
8
0
100
AcDbLine
62
7
6
CONTINUOUS
10
308.0945838155
20
102.4655734518
11
307.8116197284
21
102.4655734518
0
LINE
5
2C6
100
AcDbEntity
8
DEFAULT_2
100
AcDbLine
62
8
6
HIDDEN
10
307.8898916273
20
102.7572423437
11
307.4965035515
21
102.7572423437
0
LINE
5
2C7
100
AcDbEntity
8
DEFAULT_2
100
AcDbLine
62
8
6
HIDDEN
10
308.0021006445
20
103.0489078978
11
307.4965035515
21
103.0489078978
0
LINE
5
2C8
100
AcDbEntity
8
0
100
AcDbLine
62
7
6
CONTINUOUS
10
308.0965035515
20
103.1947423437
11
308.0860565953
21
103.1947423437
0
LINE
5
2C9
100
AcDbEntity
8
DEFAULT_2
100
AcDbLine
62
8
6
HIDDEN
10
308.0860482231
20
103.1947423437
11
307.4965035515
21
103.1947423437
0
LINE
5
2CA
100
AcDbEntity
8
0
100
AcDbLine
62
7
6
CONTINUOUS
10
255.0965035515
20
222.9980429770
11
255.0965035515
21
273.4989078978
0
LINE
5
2CB
100
AcDbEntity
8
DEFAULT_2
100
AcDbLine
62
8
6
HIDDEN
10
307.6164875770
20
104.3614078978
11
307.4965035515
21
104.3614078978
0
LINE
5
2CC
100
AcDbEntity
8
0
100
AcDbLine
62
7
6
CONTINUOUS
10
307.6164875770
20
104.3614078978
11
308.0961618082
21
104.3614078978
0
LINE
5
2CD
100
AcDbEntity
8
DEFAULT_2
100
AcDbLine
62
8
6
HIDDEN
10
307.6164875770
20
105.2364078978
11
307.4965035515
21
105.2364078978
0
LINE
5
2CE
100
AcDbEntity
8
0
100
AcDbLine
62
7
6
CONTINUOUS
10
308.0964376543
20
105.2364078978
11
307.6164875770
21
105.2364078978
0
LINE
5
2CF
100
AcDbEntity
8
DEFAULT_2
100
AcDbLine
62
8
6
HIDDEN
10
308.0347164159
20
106.1114078978
11
307.4965035515
21
106.1114078978
0
LINE
5
2D0
100
AcDbEntity
8
DEFAULT_2
100
AcDbLine
62
8
6
HIDDEN
10
308.0604077106
20
107.2780751208
11
307.4965035515
21
107.2780751208
0
LINE
5
2D1
100
AcDbEntity
8
0
100
AcDbLine
62
7
6
CONTINUOUS
10
308.0604077106
20
107.2780751208
11
308.0945838155
21
107.2780751208
0
LINE
5
2D2
100
AcDbEntity
8
0
100
AcDbLine
62
7
6
CONTINUOUS
10
308.0945838155
20
109.3197406748
11
308.0604077106
21
109.3197406748
0
LINE
5
2D3
100
AcDbEntity
8
DEFAULT_2
100
AcDbLine
62
8
6
HIDDEN
10
308.0604077106
20
109.3197406748
11
307.4965035515
21
109.3197406748
0
LINE
5
2D4
100
AcDbEntity
8
DEFAULT_2
100
AcDbLine
62
8
6
HIDDEN
10
307.6164875770
20
110.4864078978
11
307.4965035515
21
110.4864078978
0
LINE
5
2D5
100
AcDbEntity
8
0
100
AcDbLine
62
7
6
CONTINUOUS
10
307.6164875770
20
110.4864078978
11
308.0961618082
21
110.4864078978
0
LINE
5
2D6
100
AcDbEntity
8
DEFAULT_2
100
AcDbLine
62
8
6
HIDDEN
10
307.6164875770
20
111.3614078978
11
307.4965035515
21
111.3614078978
0
LINE
5
2D7
100
AcDbEntity
8
0
100
AcDbLine
62
7
6
CONTINUOUS
10
308.0964376543
20
111.3614078978
11
307.6164875770
21
111.3614078978
0
LINE
5
2D8
100
AcDbEntity
8
DEFAULT_2
100
AcDbLine
62
8
6
HIDDEN
10
308.0347164159
20
112.2364078978
11
307.4965035515
21
112.2364078978
0
LINE
5
2D9
100
AcDbEntity
8
0
100
AcDbLine
62
7
6
CONTINUOUS
10
308.0484247719
20
120.4030742863
11
307.9625077967
21
120.4030742863
0
LINE
5
2DA
100
AcDbEntity
8
DEFAULT_2
100
AcDbLine
62
8
6
HIDDEN
10
307.9625077967
20
120.4030742863
11
307.4965035515
21
120.4030742863
0
LINE
5
2DB
100
AcDbEntity
8
0
100
AcDbLine
62
7
6
CONTINUOUS
10
308.0792157086
20
120.5489078978
11
307.8898916273
21
120.5489078978
0
LINE
5
2DC
100
AcDbEntity
8
DEFAULT_2
100
AcDbLine
62
8
6
HIDDEN
10
307.8898916273
20
120.5489078978
11
307.4965035515
21
120.5489078978
0
LINE
5
2DD
100
AcDbEntity
8
DEFAULT_2
100
AcDbLine
62
8
6
HIDDEN
10
307.7679399709
20
120.9864078978
11
307.4965035515
21
120.9864078978
0
LINE
5
2DE
100
AcDbEntity
8
0
100
AcDbLine
62
7
6
CONTINUOUS
10
308.0962902622
20
120.9864078978
11
307.7679399709
21
120.9864078978
0
LINE
5
2DF
100
AcDbEntity
8
DEFAULT_2
100
AcDbLine
62
8
6
HIDDEN
10
307.7146511021
20
121.2780742863
11
307.4965035515
21
121.2780742863
0
LINE
5
2E0
100
AcDbEntity
8
0
100
AcDbLine
62
7
6
CONTINUOUS
10
308.0962902615
20
121.2780742863
11
307.7146511021
21
121.2780742863
0
LINE
5
2E1
100
AcDbEntity
8
DEFAULT_2
100
AcDbLine
62
8
6
HIDDEN
10
308.0706700056
20
121.4239078978
11
307.9158732055
21
121.4239078978
0
LINE
5
2E2
100
AcDbEntity
8
0
100
AcDbLine
62
7
6
CONTINUOUS
10
307.9158732055
20
121.4239078978
11
307.6864409576
21
121.4239078978
0
LINE
5
2E3
100
AcDbEntity
8
DEFAULT_2
100
AcDbLine
62
8
6
HIDDEN
10
307.6864409576
20
121.4239078978
11
307.4965035515
21
121.4239078978
0
LINE
5
2E4
100
AcDbEntity
8
DEFAULT_2
100
AcDbLine
62
8
6
HIDDEN
10
307.6571711761
20
121.5697415093
11
307.4965035515
21
121.5697415093
0
LINE
5
2E5
100
AcDbEntity
8
DEFAULT_2
100
AcDbLine
62
8
6
HIDDEN
10
308.0860482231
20
121.7155742863
11
307.8621196778
21
121.7155742863
0
LINE
5
2E6
100
AcDbEntity
8
0
100
AcDbLine
62
7
6
CONTINUOUS
10
307.8621196778
20
121.7155742863
11
307.6571711761
21
121.7155742863
0
LINE
5
2E7
100
AcDbEntity
8
DEFAULT_2
100
AcDbLine
62
8
6
HIDDEN
10
307.6571711761
20
121.7155742863
11
307.4965035515
21
121.7155742863
0
LINE
5
2E8
100
AcDbEntity
8
DEFAULT_2
100
AcDbLine
62
8
6
HIDDEN
10
308.0911702058
20
122.1530742863
11
307.8325456273
21
122.1530742863
0
LINE
5
2E9
100
AcDbEntity
8
0
100
AcDbLine
62
7
6
CONTINUOUS
10
307.8325456273
20
122.1530742863
11
307.6164875770
21
122.1530742863
0
LINE
5
2EA
100
AcDbEntity
8
DEFAULT_2
100
AcDbLine
62
8
6
HIDDEN
10
307.6164875770
20
122.1530742863
11
307.4965035515
21
122.1530742863
0
LINE
5
2EB
100
AcDbEntity
8
DEFAULT_2
100
AcDbLine
62
8
6
HIDDEN
10
307.6164875770
20
122.2989078978
11
307.4965035515
21
122.2989078978
0
LINE
5
2EC
100
AcDbEntity
8
0
100
AcDbLine
62
7
6
CONTINUOUS
10
274.0062214291
20
250.2989078978
11
274.0062214291
21
285.4989078978
0
LINE
5
2ED
100
AcDbEntity
8
0
100
AcDbLine
62
7
6
CONTINUOUS
10
308.0911702513
20
124.9239078978
11
307.6164875770
21
124.9239078978
0
LINE
5
2EE
100
AcDbEntity
8
DEFAULT_2
100
AcDbLine
62
8
6
HIDDEN
10
307.6164875770
20
124.9239078978
11
307.4965035515
21
124.9239078978
0
LINE
5
2EF
100
AcDbEntity
8
DEFAULT_2
100
AcDbLine
62
8
6
HIDDEN
10
307.6164875770
20
125.7989078978
11
307.4965035515
21
125.7989078978
0
LINE
5
2F0
100
AcDbEntity
8
0
100
AcDbLine
62
7
6
CONTINUOUS
10
308.0961618082
20
125.7989078978
11
307.6164875770
21
125.7989078978
0
LINE
5
2F1
100
AcDbEntity
8
DEFAULT_2
100
AcDbLine
62
8
6
HIDDEN
10
307.6164875770
20
126.9655747035
11
307.4965035515
21
126.9655747035
0
LINE
5
2F2
100
AcDbEntity
8
DEFAULT_2
100
AcDbLine
62
8
6
HIDDEN
10
307.6164875770
20
127.8405747035
11
307.4965035515
21
127.8405747035
0
LINE
5
2F3
100
AcDbEntity
8
DEFAULT_2
100
AcDbLine
62
8
6
HIDDEN
10
307.6164875770
20
129.2989078978
11
307.4965035515
21
129.2989078978
0
LINE
5
2F4
100
AcDbEntity
8
DEFAULT_2
100
AcDbLine
62
8
6
HIDDEN
10
307.6164875770
20
129.8822413007
11
307.4965035515
21
129.8822413007
0
LINE
5
2F5
100
AcDbEntity
8
0
100
AcDbLine
62
7
6
CONTINUOUS
10
307.8325456273
20
129.8822413007
11
307.6164875770
21
129.8822413007
0
LINE
5
2F6
100
AcDbEntity
8
DEFAULT_2
100
AcDbLine
62
8
6
HIDDEN
10
307.6164875770
20
130.4655744949
11
307.4965035515
21
130.4655744949
0
LINE
5
2F7
100
AcDbEntity
8
DEFAULT_2
100
AcDbLine
62
8
6
HIDDEN
10
307.6164875770
20
131.9239078978
11
307.4965035515
21
131.9239078978
0
LINE
5
2F8
100
AcDbEntity
8
0
100
AcDbLine
62
7
6
CONTINUOUS
10
282.0965035515
20
193.2091240413
11
282.0965035515
21
27.2989078978
0
LINE
5
2F9
100
AcDbEntity
8
0
100
AcDbLine
62
7
6
CONTINUOUS
10
286.1365035515
20
282.2000643243
11
286.1365035515
21
241.6589078978
0
LINE
5
2FA
100
AcDbEntity
8
DEFAULT_2
100
AcDbLine
62
8
6
HIDDEN
10
307.6164875770
20
132.7989078978
11
307.4965035515
21
132.7989078978
0
LINE
5
2FB
100
AcDbEntity
8
DEFAULT_1
100
AcDbLine
62
2
6
CENTER
10
295.0965035515
20
11.2989078978
11
295.0965035515
21
288.4989078978
0
LINE
5
2FC
100
AcDbEntity
8
0
100
AcDbLine
62
7
6
CONTINUOUS
10
304.0565035515
20
241.6589078978
11
304.0565035515
21
282.2000643243
0
LINE
5
2FD
100
AcDbEntity
8
DEFAULT_2
100
AcDbLine
62
8
6
HIDDEN
10
307.4965035515
20
132.7989078978
11
307.4965035515
21
126.9655747035
0
LINE
5
2FE
100
AcDbEntity
8
DEFAULT_2
100
AcDbLine
62
8
6
HIDDEN
10
307.4965035515
20
125.7989078978
11
307.4965035515
21
120.4030742863
0
LINE
5
2FF
100
AcDbEntity
8
DEFAULT_2
100
AcDbLine
62
8
6
HIDDEN
10
307.4965035515
20
112.2364078978
11
307.4965035515
21
110.4864078978
0
LINE
5
300
100
AcDbEntity
8
DEFAULT_2
100
AcDbLine
62
8
6
HIDDEN
10
307.4965035515
20
109.3197406748
11
307.4965035515
21
107.2780751208
0
LINE
5
301
100
AcDbEntity
8
DEFAULT_2
100
AcDbLine
62
8
6
HIDDEN
10
307.4965035515
20
106.1114078978
11
307.4965035515
21
104.3614078978
0
LINE
5
302
100
AcDbEntity
8
DEFAULT_2
100
AcDbLine
62
8
6
HIDDEN
10
307.4965035515
20
103.1947423437
11
307.4965035515
21
97.9447423437
0
LINE
5
303
100
AcDbEntity
8
DEFAULT_2
100
AcDbLine
62
8
6
HIDDEN
10
307.6164875770
20
132.7989078978
11
307.6164875770
21
131.9239078978
0
LINE
5
304
100
AcDbEntity
8
0
100
AcDbLine
62
7
6
CONTINUOUS
10
307.6164875770
20
130.4655744949
11
307.6164875770
21
129.2989078978
0
LINE
5
305
100
AcDbEntity
8
DEFAULT_2
100
AcDbLine
62
8
6
HIDDEN
10
307.6164875770
20
127.8405747035
11
307.6164875770
21
126.9655747035
0
LINE
5
306
100
AcDbEntity
8
0
100
AcDbLine
62
7
6
CONTINUOUS
10
307.6164875770
20
125.7989078978
11
307.6164875770
21
122.2989078978
0
LINE
5
307
100
AcDbEntity
8
0
100
AcDbLine
62
7
6
CONTINUOUS
10
307.6164875770
20
111.3614078978
11
307.6164875770
21
110.4864078978
0
LINE
5
308
100
AcDbEntity
8
0
100
AcDbLine
62
7
6
CONTINUOUS
10
307.6164875770
20
105.2364078978
11
307.6164875770
21
104.3614078978
0
LINE
5
309
100
AcDbEntity
8
0
100
AcDbLine
62
7
6
CONTINUOUS
10
307.6164875770
20
100.8614078978
11
307.6164875770
21
100.1322423437
0
LINE
5
30A
100
AcDbEntity
8
0
100
AcDbLine
62
7
6
CONTINUOUS
10
307.8011568908
20
101.0072423437
11
307.8011568908
21
99.9864078978
0
LINE
5
30B
100
AcDbEntity
8
0
100
AcDbLine
62
7
6
CONTINUOUS
10
307.8325456273
20
124.9239078978
11
307.8325456273
21
122.1530742863
0
LINE
5
30C
100
AcDbEntity
8
DEFAULT_2
100
AcDbLine
62
8
6
HIDDEN
10
307.9625077665
20
98.9655734518
11
307.9625077665
21
98.2364078978
0
LINE
5
30D
100
AcDbEntity
8
0
100
AcDbLine
62
7
6
CONTINUOUS
10
308.0604077106
20
109.3197406748
11
308.0604077106
21
107.2780751208
0
LINE
5
30E
100
AcDbEntity
8
DEFAULT_2
100
AcDbLine
62
8
6
HIDDEN
10
308.0604077262
20
100.1322423437
11
308.0604077262
21
100.8614078978
0
LINE
5
30F
100
AcDbEntity
8
DEFAULT_2
100
AcDbLine
62
8
6
HIDDEN
10
308.0860482231
20
124.9239078978
11
308.0860482231
21
122.1530742863
0
LINE
5
310
100
AcDbEntity
8
0
100
AcDbLine
62
7
6
CONTINUOUS
10
308.0911702513
20
124.9239078978
11
308.0911702513
21
122.1530742863
0
LINE
5
311
100
AcDbEntity
8
0
100
AcDbLine
62
7
6
CONTINUOUS
10
308.0945838155
20
109.3197406748
11
308.0945838155
21
107.2780751208
0
LINE
5
312
100
AcDbEntity
8
DEFAULT_2
100
AcDbLine
62
8
6
HIDDEN
10
308.0945838155
20
101.0072423437
11
308.0945838155
21
99.9864078978
0
LINE
5
313
100
AcDbEntity
8
0
100
AcDbLine
62
7
6
CONTINUOUS
10
308.0965035515
20
101.5541173437
11
308.0965035515
21
99.4395328978
0
LINE
5
314
100
AcDbEntity
8
0
100
AcDbLine
62
7
6
CONTINUOUS
10
308.0965035515
20
97.9447423437
11
308.0965035515
21
27.2989078978
0
LINE
5
315
100
AcDbEntity
8
DEFAULT_2
100
AcDbLine
62
8
6
HIDDEN
10
308.0965035515
20
97.9447423437
11
308.0962902667
21
98.2364078978
0
LINE
5
316
100
AcDbEntity
8
0
100
AcDbLine
62
7
6
CONTINUOUS
10
308.0965035515
20
99.1114078978
11
308.0965035515
21
99.4030734518
0
LINE
5
317
100
AcDbEntity
8
DEFAULT_2
100
AcDbLine
62
8
6
HIDDEN
10
308.0965036125
20
98.3093228326
11
308.0965035515
21
99.1114078978
0
LINE
5
318
100
AcDbEntity
8
DEFAULT_2
100
AcDbLine
62
8
6
HIDDEN
10
308.0965035515
20
99.4030734518
11
308.0965035515
21
99.4395314876
0
LINE
5
319
100
AcDbEntity
8
DEFAULT_2
100
AcDbLine
62
8
6
HIDDEN
10
308.0965035515
20
101.5541187539
11
308.0965035515
21
101.5905734518
0
LINE
5
31A
100
AcDbEntity
8
0
100
AcDbLine
62
7
6
CONTINUOUS
10
308.0965035515
20
101.5905734518
11
308.0965035515
21
101.8822423437
0
LINE
5
31B
100
AcDbEntity
8
DEFAULT_2
100
AcDbLine
62
8
6
HIDDEN
10
308.0965035515
20
101.8822423437
11
308.0965035515
21
102.4655734518
0
LINE
5
31C
100
AcDbEntity
8
0
100
AcDbLine
62
7
6
CONTINUOUS
10
308.0965035515
20
102.4655734518
11
308.0965035515
21
107.2780751208
0
LINE
5
31D
100
AcDbEntity
8
DEFAULT_2
100
AcDbLine
62
8
6
HIDDEN
10
308.0965035515
20
107.2780751208
11
308.0965035515
21
109.3197406748
0
LINE
5
31E
100
AcDbEntity
8
0
100
AcDbLine
62
7
6
CONTINUOUS
10
308.0965035515
20
109.3197406748
11
308.0965035515
21
120.5489078978
0
LINE
5
31F
100
AcDbEntity
8
DEFAULT_2
100
AcDbLine
62
8
6
HIDDEN
10
308.0965035515
20
120.5489078978
11
308.0965035515
21
121.2780742863
0
LINE
5
320
100
AcDbEntity
8
0
100
AcDbLine
62
7
6
CONTINUOUS
10
308.0965035515
20
121.2780742863
11
308.0965035515
21
121.7155742863
0
LINE
5
321
100
AcDbEntity
8
DEFAULT_2
100
AcDbLine
62
8
6
HIDDEN
10
308.0965035515
20
121.7155742863
11
308.0965035515
21
124.9239078978
0
LINE
5
322
100
AcDbEntity
8
0
100
AcDbLine
62
7
6
CONTINUOUS
10
308.0965035515
20
124.9239078978
11
308.0965035515
21
193.2091240413
0
LINE
5
323
100
AcDbEntity
8
0
100
AcDbLine
62
7
6
CONTINUOUS
10
308.0962902667
20
98.2364078978
11
308.0965036125
21
98.3093228326
0
LINE
5
324
100
AcDbEntity
8
0
100
AcDbLine
62
7
6
CONTINUOUS
10
316.1867856738
20
285.4989078978
11
316.1867856738
21
250.2989078978
0
LINE
5
325
100
AcDbEntity
8
DEFAULT_2
100
AcDbLine
62
8
6
HIDDEN
10
335.0965035515
20
224.2989078978
11
335.0965035515
21
222.9980429770
0
LINE
5
326
100
AcDbEntity
8
0
100
AcDbLine
62
7
6
CONTINUOUS
10
335.0965035515
20
224.2989078978
11
335.0965035515
21
273.4989078978
0
LINE
5
327
100
AcDbEntity
8
0
100
AcDbLine
62
7
6
CONTINUOUS
10
342.3672756961
20
209.8340204258
11
335.0965035515
21
251.0686183040
0
LINE
5
328
100
AcDbEntity
8
0
100
AcDbLine
62
7
6
CONTINUOUS
10
321.4888083969
20
222.6989078978
11
268.7041987061
21
222.6989078978
0
LINE
5
329
100
AcDbEntity
8
0
100
AcDbLine
62
7
6
CONTINUOUS
10
304.0565035515
20
253.4989078978
11
286.1365035515
21
253.4989078978
0
LINE
5
32A
100
AcDbEntity
8
DEFAULT_1
100
AcDbLine
62
2
6
CENTER
10
283.1365035515
20
263.0989078978
11
307.0565035515
21
263.0989078978
0
LINE
5
32B
100
AcDbEntity
8
0
100
AcDbLine
62
7
6
CONTINUOUS
10
335.0965035515
20
273.4989078978
11
325.0273079773
21
285.4989078978
0
LINE
5
32C
100
AcDbEntity
8
0
100
AcDbLine
62
7
6
CONTINUOUS
10
304.0565035515
20
272.6989078978
11
286.1365035515
21
272.6989078978
0
LINE
5
32D
100
AcDbEntity
8
0
100
AcDbLine
62
7
6
CONTINUOUS
10
265.1656991256
20
285.4989078978
11
274.0062214291
21
285.4989078978
0
LINE
5
32E
100
AcDbEntity
8
0
100
AcDbLine
62
7
6
CONTINUOUS
10
316.1867856738
20
285.4989078978
11
325.0273079773
21
285.4989078978
0
ARC
5
32F
100
AcDbEntity
8
DEFAULT_2
100
AcDbCircle
62
8
6
HIDDEN
10
92.0589201311
20
147.7989078978
40
32.5000000000
100
AcDbArc
50
72.0684257009
51
107.9315742991
0
ARC
5
330
100
AcDbEntity
8
DEFAULT_2
100
AcDbCircle
62
8
6
HIDDEN
10
92.0589201311
20
147.7989078978
40
58.5000000000
100
AcDbArc
50
80.1553152375
51
99.8446847625
0
CIRCLE
5
331
100
AcDbEntity
8
0
100
AcDbCircle
62
7
6
CONTINUOUS
10
92.0589201311
20
263.0989078978
40
9.6000000000
0
ARC
5
332
100
AcDbEntity
8
0
100
AcDbCircle
62
7
6
CONTINUOUS
10
92.0589201311
20
170.2989078978
40
10.0000000000
100
AcDbArc
50
180.0000000000
51
201.9913472955
0
ARC
5
333
100
AcDbEntity
8
0
100
AcDbCircle
62
7
6
CONTINUOUS
10
92.0589201311
20
170.2989078978
40
10.0000000000
100
AcDbArc
50
338.0086527045
51
360.0000000000
0
ARC
5
334
100
AcDbEntity
8
0
100
AcDbCircle
62
7
6
CONTINUOUS
10
96.6765318401
20
225.8989078978
40
3.2000000000
100
AcDbArc
50
294.9711750139
51
330.0000000000
0
ARC
5
335
100
AcDbEntity
8
0
100
AcDbCircle
62
7
6
CONTINUOUS
10
104.8589201311
20
225.8989078978
40
3.2000000000
100
AcDbArc
50
270.0000000000
51
360.0000000000
0
ARC
5
336
100
AcDbEntity
8
0
100
AcDbCircle
62
7
6
CONTINUOUS
10
111.2589201311
20
238.3563453136
40
3.2000000000
100
AcDbArc
50
150.0000000000
51
180.0000000000
0
ARC
5
337
100
AcDbEntity
8
0
100
AcDbCircle
62
7
6
CONTINUOUS
10
92.0589201311
20
263.0989078978
40
22.4000000000
100
AcDbArc
50
0.0000000000
51
180.0000000000
0
ARC
5
338
100
AcDbEntity
8
0
100
AcDbCircle
62
7
6
CONTINUOUS
10
72.8589201311
20
238.3563453136
40
3.2000000000
100
AcDbArc
50
0.0000000000
51
30.0000000000
0
ARC
5
339
100
AcDbEntity
8
0
100
AcDbCircle
62
7
6
CONTINUOUS
10
79.2589201311
20
225.8989078978
40
3.2000000000
100
AcDbArc
50
180.0000000000
51
270.0000000000
0
ARC
5
33A
100
AcDbEntity
8
0
100
AcDbCircle
62
7
6
CONTINUOUS
10
87.4413084221
20
225.8989078978
40
3.2000000000
100
AcDbArc
50
210.0000000000
51
245.0288249861
0
ARC
5
33B
100
AcDbEntity
8
0
100
AcDbCircle
62
7
6
CONTINUOUS
10
92.0589201311
20
147.7989078978
40
32.5000000000
100
AcDbArc
50
0.0000000000
51
72.0684257009
0
ARC
5
33C
100
AcDbEntity
8
0
100
AcDbCircle
62
7
6
CONTINUOUS
10
92.0589201311
20
147.7989078978
40
32.5000000000
100
AcDbArc
50
107.9315742991
51
180.0000000000
0
ARC
5
33D
100
AcDbEntity
8
0
100
AcDbCircle
62
7
6
CONTINUOUS
10
92.0589201311
20
147.7989078978
40
58.5000000000
100
AcDbArc
50
0.0000000000
51
80.1553152375
0
ARC
5
33E
100
AcDbEntity
8
0
100
AcDbCircle
62
7
6
CONTINUOUS
10
92.0589201311
20
147.7989078978
40
58.5000000000
100
AcDbArc
50
99.8446847625
51
180.0000000000
0
ARC
5
33F
100
AcDbEntity
8
0
100
AcDbCircle
62
7
6
CONTINUOUS
10
92.0589201311
20
72.7989078978
40
32.5000000000
100
AcDbArc
50
180.0000000000
51
360.0000000000
0
ARC
5
340
100
AcDbEntity
8
0
100
AcDbCircle
62
7
6
CONTINUOUS
10
92.0589201311
20
72.7989078978
40
58.5000000000
100
AcDbArc
50
180.0000000000
51
360.0000000000
0
ARC
5
341
100
AcDbEntity
8
DEFAULT_2
100
AcDbCircle
62
8
6
HIDDEN
10
295.0965035515
20
193.2989078978
40
13.0000000000
100
AcDbArc
50
180.0000000000
51
360.0000000000
0
ARC
5
342
100
AcDbEntity
8
DEFAULT_2
100
AcDbCircle
62
8
6
HIDDEN
10
295.0965035515
20
27.2989078978
40
13.0000000000
100
AcDbArc
50
0.0000000000
51
180.0000000000
0
ARC
5
343
100
AcDbEntity
8
DEFAULT_2
100
AcDbCircle
62
8
6
HIDDEN
10
295.0965035515
20
201.4989078978
40
48.0000000000
100
AcDbArc
50
254.2784880006
51
285.7214944429
0
ARC
5
344
100
AcDbEntity
8
DEFAULT_2
100
AcDbCircle
62
8
6
HIDDEN
10
295.0965035515
20
201.4989078978
40
21.2000000000
100
AcDbArc
50
232.1760479923
51
307.8239520077
0
ARC
5
345
100
AcDbEntity
8
0
100
AcDbCircle
62
7
6
CONTINUOUS
10
295.0965035515
20
193.2989078978
40
13.0000000000
100
AcDbArc
50
0.0000000000
51
180.0000000000
0
ARC
5
346
100
AcDbEntity
8
0
100
AcDbCircle
62
7
6
CONTINUOUS
10
295.0965035515
20
27.2989078978
40
13.0000000000
100
AcDbArc
50
180.0000000000
51
360.0000000000
0
ARC
5
347
100
AcDbEntity
8
0
100
AcDbCircle
62
7
6
CONTINUOUS
10
295.0965035515
20
201.4989078978
40
48.0000000000
100
AcDbArc
50
285.7214944429
51
10.0000000000
0
ARC
5
348
100
AcDbEntity
8
0
100
AcDbCircle
62
7
6
CONTINUOUS
10
295.0965035515
20
339.0989078978
40
57.6000000000
100
AcDbArc
50
278.9490180653
51
291.4784178411
0
ARC
5
349
100
AcDbEntity
8
0
100
AcDbCircle
62
7
6
CONTINUOUS
10
295.0965035515
20
339.0989078978
40
57.6000000000
100
AcDbArc
50
248.5215821589
51
261.0509819347
0
ARC
5
34A
100
AcDbEntity
8
0
100
AcDbCircle
62
7
6
CONTINUOUS
10
295.0965035515
20
201.4989078978
40
21.2000000000
100
AcDbArc
50
307.8239520077
51
232.1760479923
0
CIRCLE
5
34B
100
AcDbEntity
8
0
100
AcDbCircle
62
7
6
CONTINUOUS
10
323.4165035515
20
263.0989078978
40
4.0000000000
0
ARC
5
34C
100
AcDbEntity
8
0
100
AcDbCircle
62
7
6
CONTINUOUS
10
295.0965035515
20
241.6589078978
40
8.9600000000
100
AcDbArc
50
180.0000000000
51
360.0000000000
0
ARC
5
34D
100
AcDbEntity
8
0
100
AcDbCircle
62
7
6
CONTINUOUS
10
295.0965035515
20
201.4989078978
40
48.0000000000
100
AcDbArc
50
170.0000000000
51
254.2784880006
0
SPLINE
5
34E
100
AcDbEntity
8
DEFAULT_2
100
AcDbSpline
62
8
6
HIDDEN
70
0
71
3
72
11
73
7
74
5
42
0.0000001000
43
0.0000001000
44
0.0000000001
40
0.0000000000
40
0.0000000000
40
0.0000000000
40
0.0000000000
40
0.2736618404
40
0.5152988758
40
0.7560103337
40
1.0000000000
40
1.0000000000
40
1.0000000000
40
1.0000000000
10
100.5035013250
20
223.6593296200
30
0.0000000000
10
100.3146902888
20
223.7284814325
30
0.0000000000
10
99.9405915397
20
223.8250309174
30
0.0000000000
10
99.3774649751
20
223.7532848712
30
0.0000000000
10
98.8903561695
20
223.5241635359
30
0.0000000000
10
98.5922155275
20
223.3294200031
30
0.0000000000
10
98.4427234926
20
223.2304688323
30
0.0000000000
11
100.5035013250
21
223.6593296200
31
0.0000000000
11
99.9145978033
21
223.7900081081
31
0.0000000000
11
99.3857610911
21
223.7264998231
31
0.0000000000
11
98.8991933299
21
223.5148771879
31
0.0000000000
11
98.4427234926
21
223.2304688323
31
0.0000000000
0
SPLINE
5
34F
100
AcDbEntity
8
DEFAULT_2
100
AcDbSpline
62
8
6
HIDDEN
70
0
71
3
72
11
73
7
74
5
42
0.0000001000
43
0.0000001000
44
0.0000000001
40
0.0000000000
40
0.0000000000
40
0.0000000000
40
0.0000000000
40
0.2736618404
40
0.5152988758
40
0.7560103337
40
1.0000000000
40
1.0000000000
40
1.0000000000
40
1.0000000000
10
83.6143389372
20
223.6593296200
30
0.0000000000
10
83.8031499734
20
223.7284814325
30
0.0000000000
10
84.1772487225
20
223.8250309174
30
0.0000000000
10
84.7403752871
20
223.7532848712
30
0.0000000000
10
85.2274840927
20
223.5241635359
30
0.0000000000
10
85.5256247347
20
223.3294200031
30
0.0000000000
10
85.6751167696
20
223.2304688323
30
0.0000000000
11
83.6143389372
21
223.6593296200
31
0.0000000000
11
84.2032424589
21
223.7900081081
31
0.0000000000
11
84.7320791711
21
223.7264998231
31
0.0000000000
11
85.2186469323
21
223.5148771879
31
0.0000000000
11
85.6751167696
21
223.2304688323
31
0.0000000000
0
SPLINE
5
350
100
AcDbEntity
8
0
100
AcDbSpline
62
7
6
CONTINUOUS
70
0
71
3
72
10
73
6
74
4
42
0.0000001000
43
0.0000001000
44
0.0000000001
40
0.0000000000
40
0.0000000000
40
0.0000000000
40
0.0000000000
40
0.3159015172
40
0.6499699058
40
1.0000000000
40
1.0000000000
40
1.0000000000
40
1.0000000000
10
100.5035013250
20
223.6593296200
30
0.0000000000
10
100.5896084422
20
223.6277927660
30
0.0000000000
10
100.7675761034
20
223.5650741378
30
0.0000000000
10
101.0435572562
20
223.4750083484
30
0.0000000000
10
101.2337199330
20
223.4177288630
30
0.0000000000
10
101.3313242951
20
223.3894890451
30
0.0000000000
11
100.5035013250
21
223.6593296200
31
0.0000000000
11
100.7629353406
21
223.5678142077
31
0.0000000000
11
101.0394774919
21
223.4774795721
31
0.0000000000
11
101.3313242951
21
223.3894890451
31
0.0000000000
0
SPLINE
5
351
100
AcDbEntity
8
0
100
AcDbSpline
62
7
6
CONTINUOUS
70
0
71
3
72
10
73
6
74
4
42
0.0000001000
43
0.0000001000
44
0.0000000001
40
0.0000000000
40
0.0000000000
40
0.0000000000
40
0.0000000000
40
0.4287722287
40
0.7749239062
40
1.0000000000
40
1.0000000000
40
1.0000000000
40
1.0000000000
10
101.3313242951
20
223.3894890451
30
0.0000000000
10
101.4660877507
20
223.3504980065
30
0.0000000000
10
101.7046147128
20
223.2491558641
30
0.0000000000
10
101.9554464662
20
223.0407261007
30
0.0000000000
10
102.0589200843
20
222.8658821774
30
0.0000000000
10
102.0589201311
20
222.7922391374
30
0.0000000000
11
101.3313242951
21
223.3894890451
31
0.0000000000
11
101.7165289006
21
223.2199283703
31
0.0000000000
11
101.9711980162
21
222.9950062617
31
0.0000000000
11
102.0589201311
21
222.7922391374
31
0.0000000000
0
SPLINE
5
352
100
AcDbEntity
8
0
100
AcDbSpline
62
7
6
CONTINUOUS
70
0
71
3
72
11
73
7
74
5
42
0.0000001000
43
0.0000001000
44
0.0000000001
40
0.0000000000
40
0.0000000000
40
0.0000000000
40
0.0000000000
40
0.2442083284
40
0.4849817594
40
0.7265734916
40
1.0000000000
40
1.0000000000
40
1.0000000000
40
1.0000000000
10
98.4427223165
20
223.2304706091
30
0.0000000000
10
98.5923483801
20
223.3295110917
30
0.0000000000
10
98.8906644369
20
223.5243649425
30
0.0000000000
10
99.3779929264
20
223.7534604101
30
0.0000000000
10
99.9409860503
20
223.8249524448
30
0.0000000000
10
100.3148522428
20
223.7284221273
30
0.0000000000
10
100.5035013250
20
223.6593296200
30
0.0000000000
11
98.4427223165
21
223.2304706091
31
0.0000000000
11
98.8996160346
21
223.5151123403
31
0.0000000000
11
99.3863596477
21
223.7266760534
31
0.0000000000
11
99.9151215017
21
223.7899796890
31
0.0000000000
11
100.5035013250
21
223.6593296200
31
0.0000000000
0
SPLINE
5
353
100
AcDbEntity
8
0
100
AcDbSpline
62
7
6
CONTINUOUS
70
0
71
3
72
10
73
6
74
4
42
0.0000001000
43
0.0000001000
44
0.0000000001
40
0.0000000000
40
0.0000000000
40
0.0000000000
40
0.0000000000
40
0.3159015172
40
0.6499699058
40
1.0000000000
40
1.0000000000
40
1.0000000000
40
1.0000000000
10
83.6143389372
20
223.6593296200
30
0.0000000000
10
83.5282318200
20
223.6277927660
30
0.0000000000
10
83.3502641588
20
223.5650741378
30
0.0000000000
10
83.0742830060
20
223.4750083484
30
0.0000000000
10
82.8841203292
20
223.4177288630
30
0.0000000000
10
82.7865159671
20
223.3894890451
30
0.0000000000
11
83.6143389372
21
223.6593296200
31
0.0000000000
11
83.3549049216
21
223.5678142077
31
0.0000000000
11
83.0783627703
21
223.4774795721
31
0.0000000000
11
82.7865159671
21
223.3894890451
31
0.0000000000
0
SPLINE
5
354
100
AcDbEntity
8
0
100
AcDbSpline
62
7
6
CONTINUOUS
70
0
71
3
72
10
73
6
74
4
42
0.0000001000
43
0.0000001000
44
0.0000000001
40
0.0000000000
40
0.0000000000
40
0.0000000000
40
0.0000000000
40
0.4287722287
40
0.7749239062
40
1.0000000000
40
1.0000000000
40
1.0000000000
40
1.0000000000
10
82.7865159671
20
223.3894890451
30
0.0000000000
10
82.6517525115
20
223.3504980065
30
0.0000000000
10
82.4132255494
20
223.2491558641
30
0.0000000000
10
82.1623937960
20
223.0407261007
30
0.0000000000
10
82.0589201779
20
222.8658821774
30
0.0000000000
10
82.0589201311
20
222.7922391374
30
0.0000000000
11
82.7865159671
21
223.3894890451
31
0.0000000000
11
82.4013113616
21
223.2199283703
31
0.0000000000
11
82.1466422460
21
222.9950062617
31
0.0000000000
11
82.0589201311
21
222.7922391374
31
0.0000000000
0
SPLINE
5
355
100
AcDbEntity
8
0
100
AcDbSpline
62
7
6
CONTINUOUS
70
0
71
3
72
11
73
7
74
5
42
0.0000001000
43
0.0000001000
44
0.0000000001
40
0.0000000000
40
0.0000000000
40
0.0000000000
40
0.0000000000
40
0.2442083284
40
0.4849817594
40
0.7265734916
40
1.0000000000
40
1.0000000000
40
1.0000000000
40
1.0000000000
10
85.6751179457
20
223.2304706091
30
0.0000000000
10
85.5254918821
20
223.3295110917
30
0.0000000000
10
85.2271758253
20
223.5243649425
30
0.0000000000
10
84.7398473358
20
223.7534604101
30
0.0000000000
10
84.1768542119
20
223.8249524448
30
0.0000000000
10
83.8029880194
20
223.7284221273
30
0.0000000000
10
83.6143389372
20
223.6593296200
30
0.0000000000
11
85.6751179457
21
223.2304706091
31
0.0000000000
11
85.2182242276
21
223.5151123403
31
0.0000000000
11
84.7314806145
21
223.7266760534
31
0.0000000000
11
84.2027187605
21
223.7899796890
31
0.0000000000
11
83.6143389372
21
223.6593296200
31
0.0000000000
0
SPLINE
5
356
100
AcDbEntity
8
DEFAULT_2
100
AcDbSpline
62
8
6
HIDDEN
70
0
71
3
72
9
73
5
74
3
42
0.0000001000
43
0.0000001000
44
0.0000000001
40
0.0000000000
40
0.0000000000
40
0.0000000000
40
0.0000000000
40
0.6915070761
40
1.0000000000
40
1.0000000000
40
1.0000000000
40
1.0000000000
10
307.6164875770
20
132.7989078978
30
0.0000000000
10
307.8055465286
20
132.5734778859
30
0.0000000000
10
308.0386267118
20
132.1961888119
30
0.0000000000
10
308.0935781646
20
131.7651986206
30
0.0000000000
10
308.0935781646
20
131.6322411964
30
0.0000000000
11
307.6164875770
21
132.7989078978
31
0.0000000000
11
308.0427217615
21
132.0260028475
31
0.0000000000
11
308.0935781646
21
131.6322411964
31
0.0000000000
0
SPLINE
5
357
100
AcDbEntity
8
DEFAULT_2
100
AcDbSpline
62
8
6
HIDDEN
70
0
71
3
72
9
73
5
74
3
42
0.0000001000
43
0.0000001000
44
0.0000000001
40
0.0000000000
40
0.0000000000
40
0.0000000000
40
0.0000000000
40
0.3084929194
40
1.0000000000
40
1.0000000000
40
1.0000000000
40
1.0000000000
10
308.0935781638
20
128.1322413006
30
0.0000000000
10
308.0935781638
20
127.9992838880
30
0.0000000000
10
308.0386267110
20
127.5682937281
30
0.0000000000
10
307.8055465256
20
127.1910046916
30
0.0000000000
10
307.6164875770
20
126.9655747035
30
0.0000000000
11
308.0935781638
21
128.1322413006
31
0.0000000000
11
308.0427217615
21
127.7384796848
31
0.0000000000
11
307.6164875770
21
126.9655747035
31
0.0000000000
0
SPLINE
5
358
100
AcDbEntity
8
DEFAULT_2
100
AcDbSpline
62
8
6
HIDDEN
70
0
71
3
72
9
73
5
74
3
42
0.0000001000
43
0.0000001000
44
0.0000000001
40
0.0000000000
40
0.0000000000
40
0.0000000000
40
0.0000000000
40
0.4999901880
40
1.0000000000
40
1.0000000000
40
1.0000000000
40
1.0000000000
10
308.0945838253
20
99.9864078978
30
0.0000000000
10
308.0950104526
20
99.9134933208
30
0.0000000000
10
308.0957214656
20
99.7676604381
30
0.0000000000
10
308.0961480630
20
99.6218264461
30
0.0000000000
10
308.0962902611
20
99.5489078978
30
0.0000000000
11
308.0945838253
21
99.9864078978
31
0.0000000000
11
308.0956503505
21
99.7676630226
31
0.0000000000
11
308.0962902611
21
99.5489078978
31
0.0000000000
0
SPLINE
5
359
100
AcDbEntity
8
DEFAULT_2
100
AcDbSpline
62
8
6
HIDDEN
70
0
71
3
72
9
73
5
74
3
42
0.0000001000
43
0.0000001000
44
0.0000000001
40
0.0000000000
40
0.0000000000
40
0.0000000000
40
0.0000000000
40
0.4999901880
40
1.0000000000
40
1.0000000000
40
1.0000000000
40
1.0000000000
10
308.0945838253
20
101.0072423437
30
0.0000000000
10
308.0950104526
20
101.0801569207
30
0.0000000000
10
308.0957214656
20
101.2259898034
30
0.0000000000
10
308.0961480630
20
101.3718237955
30
0.0000000000
10
308.0962902611
20
101.4447423437
30
0.0000000000
11
308.0945838253
21
101.0072423437
31
0.0000000000
11
308.0956503505
21
101.2259872189
31
0.0000000000
11
308.0962902611
21
101.4447423437
31
0.0000000000
0
SPLINE
5
35A
100
AcDbEntity
8
DEFAULT_2
100
AcDbSpline
62
8
6
HIDDEN
70
0
71
3
72
9
73
5
74
3
42
0.0000001000
43
0.0000001000
44
0.0000000001
40
0.0000000000
40
0.0000000000
40
0.0000000000
40
0.0000000000
40
0.5006721485
40
1.0000000000
40
1.0000000000
40
1.0000000000
40
1.0000000000
10
307.8898916085
20
99.2572423437
30
0.0000000000
10
307.9032577519
20
99.2088887777
30
0.0000000000
10
307.9287225172
20
99.1119666734
30
0.0000000000
10
307.9516801732
20
99.0144200258
30
0.0000000000
10
307.9625077665
20
98.9655734518
30
0.0000000000
11
307.8898916085
21
99.2572423437
31
0.0000000000
11
307.9281282858
21
99.1116798254
31
0.0000000000
11
307.9625077665
21
98.9655734518
31
0.0000000000
0
SPLINE
5
35B
100
AcDbEntity
8
DEFAULT_2
100
AcDbSpline
62
8
6
HIDDEN
70
0
71
3
72
9
73
5
74
3
42
0.0000001000
43
0.0000001000
44
0.0000000001
40
0.0000000000
40
0.0000000000
40
0.0000000000
40
0.0000000000
40
0.4992528213
40
1.0000000000
40
1.0000000000
40
1.0000000000
40
1.0000000000
10
307.8325456059
20
99.6947423437
30
0.0000000000
10
307.8426791321
20
99.6220138219
30
0.0000000000
10
307.8623854289
20
99.4762561248
30
0.0000000000
10
307.8809106366
20
99.3303436159
30
0.0000000000
10
307.8898916085
20
99.2572423437
30
0.0000000000
11
307.8325456059
21
99.6947423437
31
0.0000000000
11
307.8620615902
21
99.4764353515
31
0.0000000000
11
307.8898916085
21
99.2572423437
31
0.0000000000
0
SPLINE
5
35C
100
AcDbEntity
8
DEFAULT_2
100
AcDbSpline
62
8
6
HIDDEN
70
0
71
3
72
9
73
5
74
3
42
0.0000001000
43
0.0000001000
44
0.0000000001
40
0.0000000000
40
0.0000000000
40
0.0000000000
40
0.0000000000
40
0.4995934608
40
1.0000000000
40
1.0000000000
40
1.0000000000
40
1.0000000000
10
307.8011568682
20
100.1322423437
30
0.0000000000
10
307.8065350989
20
100.0593959178
30
0.0000000000
10
307.8171489709
20
99.9135732969
30
0.0000000000
10
307.8274608587
20
99.7677290107
30
0.0000000000
10
307.8325456059
20
99.6947423437
30
0.0000000000
11
307.8011568682
21
100.1322423437
31
0.0000000000
11
307.8170649677
21
99.9136864546
31
0.0000000000
11
307.8325456059
21
99.6947423437
31
0.0000000000
0
SPLINE
5
35D
100
AcDbEntity
8
DEFAULT_2
100
AcDbSpline
62
8
6
HIDDEN
70
0
71
3
72
9
73
5
74
3
42
0.0000001000
43
0.0000001000
44
0.0000000001
40
0.0000000000
40
0.0000000000
40
0.0000000000
40
0.0000000000
40
0.4995934608
40
1.0000000000
40
1.0000000000
40
1.0000000000
40
1.0000000000
10
307.8011568682
20
101.0072423437
30
0.0000000000
10
307.8065350989
20
101.0800887697
30
0.0000000000
10
307.8171489709
20
101.2259113905
30
0.0000000000
10
307.8274608587
20
101.3717556768
30
0.0000000000
10
307.8325456059
20
101.4447423437
30
0.0000000000
11
307.8011568682
21
101.0072423437
31
0.0000000000
11
307.8170649677
21
101.2257982328
31
0.0000000000
11
307.8325456059
21
101.4447423437
31
0.0000000000
0
SPLINE
5
35E
100
AcDbEntity
8
DEFAULT_2
100
AcDbSpline
62
8
6
HIDDEN
70
0
71
3
72
9
73
5
74
3
42
0.0000001000
43
0.0000001000
44
0.0000000001
40
0.0000000000
40
0.0000000000
40
0.0000000000
40
0.0000000000
40
0.4992528179
40
1.0000000000
40
1.0000000000
40
1.0000000000
40
1.0000000000
10
307.8325456063
20
101.4447423467
30
0.0000000000
10
307.8426791324
20
101.5174708675
30
0.0000000000
10
307.8623854290
20
101.6632285636
30
0.0000000000
10
307.8809106366
20
101.8091410716
30
0.0000000000
10
307.8898916085
20
101.8822423437
30
0.0000000000
11
307.8325456063
21
101.4447423467
31
0.0000000000
11
307.8620615902
21
101.6630493359
31
0.0000000000
11
307.8898916085
21
101.8822423437
31
0.0000000000
0
SPLINE
5
35F
100
AcDbEntity
8
DEFAULT_2
100
AcDbSpline
62
8
6
HIDDEN
70
0
71
3
72
9
73
5
74
3
42
0.0000001000
43
0.0000001000
44
0.0000000001
40
0.0000000000
40
0.0000000000
40
0.0000000000
40
0.0000000000
40
0.5006721871
40
1.0000000000
40
1.0000000000
40
1.0000000000
40
1.0000000000
10
307.8898916085
20
101.8822423437
30
0.0000000000
10
307.9032577510
20
101.9305953532
30
0.0000000000
10
307.9287225148
20
102.0275163419
30
0.0000000000
10
307.9516801726
20
102.1250618800
30
0.0000000000
10
307.9625077665
20
102.1739078978
30
0.0000000000
11
307.8898916085
21
101.8822423437
31
0.0000000000
11
307.9281282861
21
102.0278031974
31
0.0000000000
11
307.9625077665
21
102.1739078978
31
0.0000000000
0
SPLINE
5
360
100
AcDbEntity
8
DEFAULT_2
100
AcDbSpline
62
8
6
HIDDEN
70
0
71
3
72
9
73
5
74
3
42
0.0000001000
43
0.0000001000
44
0.0000000001
40
0.0000000000
40
0.0000000000
40
0.0000000000
40
0.0000000000
40
0.5039604764
40
1.0000000000
40
1.0000000000
40
1.0000000000
40
1.0000000000
10
307.9625077665
20
102.1739078978
30
0.0000000000
10
307.9731653020
20
102.1979475711
30
0.0000000000
10
307.9932447318
20
102.2461307018
30
0.0000000000
10
308.0110454672
20
102.2952033349
30
0.0000000000
10
308.0192771133
20
102.3197423437
30
0.0000000000
11
307.9625077665
21
102.1739078978
31
0.0000000000
11
307.9928250460
21
102.2467382705
31
0.0000000000
11
308.0192771133
21
102.3197423437
31
0.0000000000
0
SPLINE
5
361
100
AcDbEntity
8
DEFAULT_2
100
AcDbSpline
62
8
6
HIDDEN
70
0
71
3
72
9
73
5
74
3
42
0.0000001000
43
0.0000001000
44
0.0000000001
40
0.0000000000
40
0.0000000000
40
0.0000000000
40
0.0000000000
40
0.5193120354
40
1.0000000000
40
1.0000000000
40
1.0000000000
40
1.0000000000
10
308.0192771133
20
102.3197423437
30
0.0000000000
10
308.0348053352
20
102.3428870952
30
0.0000000000
10
308.0616484205
20
102.3896502451
30
0.0000000000
10
308.0798877102
20
102.4405215087
30
0.0000000000
10
308.0860482231
20
102.4655734518
30
0.0000000000
11
308.0192771133
21
102.3197423437
31
0.0000000000
11
308.0603648952
21
102.3925643250
31
0.0000000000
11
308.0860482231
21
102.4655734518
31
0.0000000000
0
SPLINE
5
362
100
AcDbEntity
8
DEFAULT_2
100
AcDbSpline
62
8
6
HIDDEN
70
0
71
3
72
9
73
5
74
3
42
0.0000001000
43
0.0000001000
44
0.0000000001
40
0.0000000000
40
0.0000000000
40
0.0000000000
40
0.0000000000
40
0.4999501349
40
1.0000000000
40
1.0000000000
40
1.0000000000
40
1.0000000000
10
307.8898916085
20
105.2364078978
30
0.0000000000
10
307.9209680112
20
105.3809499164
30
0.0000000000
10
307.9762680241
20
105.6715808888
30
0.0000000000
10
308.0175927493
20
105.9645282211
30
0.0000000000
10
308.0347164159
20
106.1114078978
30
0.0000000000
11
307.8898916085
21
105.2364078978
31
0.0000000000
11
307.9727693840
21
105.6721308786
31
0.0000000000
11
308.0347164159
21
106.1114078978
31
0.0000000000
0
SPLINE
5
363
100
AcDbEntity
8
DEFAULT_2
100
AcDbSpline
62
8
6
HIDDEN
70
0
71
3
72
9
73
5
74
3
42
0.0000001000
43
0.0000001000
44
0.0000000001
40
0.0000000000
40
0.0000000000
40
0.0000000000
40
0.0000000000
40
0.4999501349
40
1.0000000000
40
1.0000000000
40
1.0000000000
40
1.0000000000
10
307.8898916085
20
111.3614078978
30
0.0000000000
10
307.9209680112
20
111.5059499164
30
0.0000000000
10
307.9762680241
20
111.7965808888
30
0.0000000000
10
308.0175927493
20
112.0895282211
30
0.0000000000
10
308.0347164159
20
112.2364078978
30
0.0000000000
11
307.8898916085
21
111.3614078978
31
0.0000000000
11
307.9727693840
21
111.7971308786
31
0.0000000000
11
308.0347164159
21
112.2364078978
31
0.0000000000
0
SPLINE
5
364
100
AcDbEntity
8
DEFAULT_2
100
AcDbSpline
62
8
6
HIDDEN
70
0
71
3
72
9
73
5
74
3
42
0.0000001000
43
0.0000001000
44
0.0000000001
40
0.0000000000
40
0.0000000000
40
0.0000000000
40
0.0000000000
40
0.4999958301
40
1.0000000000
40
1.0000000000
40
1.0000000000
40
1.0000000000
10
308.0945838351
20
120.9864078978
30
0.0000000000
10
308.0950104623
20
121.0350175690
30
0.0000000000
10
308.0957214586
20
121.1322390227
30
0.0000000000
10
308.0961480638
20
121.2294621401
30
0.0000000000
10
308.0962902615
20
121.2780742863
30
0.0000000000
11
308.0945838351
21
120.9864078978
31
0.0000000000
11
308.0956503561
21
121.1322386278
31
0.0000000000
11
308.0962902615
21
121.2780742863
31
0.0000000000
0
SPLINE
5
365
100
AcDbEntity
8
DEFAULT_2
100
AcDbSpline
62
8
6
HIDDEN
70
0
71
3
72
9
73
5
74
3
42
0.0000001000
43
0.0000001000
44
0.0000000001
40
0.0000000000
40
0.0000000000
40
0.0000000000
40
0.0000000000
40
0.5001077977
40
1.0000000000
40
1.0000000000
40
1.0000000000
40
1.0000000000
10
308.0706700056
20
120.5489078978
30
0.0000000000
10
308.0769273106
20
120.6216895483
30
0.0000000000
10
308.0871764585
20
120.7674249479
30
0.0000000000
10
308.0928753387
20
120.9134092426
30
0.0000000000
10
308.0945838155
20
120.9864078978
30
0.0000000000
11
308.0706700056
21
120.5489078978
31
0.0000000000
11
308.0860406107
21
120.7675186184
31
0.0000000000
11
308.0945838155
21
120.9864078978
31
0.0000000000
0
SPLINE
5
366
100
AcDbEntity
8
DEFAULT_2
100
AcDbSpline
62
8
6
HIDDEN
70
0
71
3
72
9
73
5
74
3
42
0.0000001000
43
0.0000001000
44
0.0000000001
40
0.0000000000
40
0.0000000000
40
0.0000000000
40
0.0000000000
40
0.5027117010
40
1.0000000000
40
1.0000000000
40
1.0000000000
40
1.0000000000
10
308.0347164159
20
120.4030742863
30
0.0000000000
10
308.0419462060
20
120.4271909469
30
0.0000000000
10
308.0551630404
20
120.4755217023
30
0.0000000000
10
308.0659399763
20
120.5244557661
30
0.0000000000
10
308.0706700056
20
120.5489078978
30
0.0000000000
11
308.0347164159
21
120.4030742863
31
0.0000000000
11
308.0546181117
21
120.4759362869
31
0.0000000000
11
308.0706700056
21
120.5489078978
31
0.0000000000
0
SPLINE
5
367
100
AcDbEntity
8
DEFAULT_2
100
AcDbSpline
62
8
6
HIDDEN
70
0
71
3
72
9
73
5
74
3
42
0.0000001000
43
0.0000001000
44
0.0000000001
40
0.0000000000
40
0.0000000000
40
0.0000000000
40
0.0000000000
40
0.5044700587
40
1.0000000000
40
1.0000000000
40
1.0000000000
40
1.0000000000
10
307.9158731704
20
121.4239078978
30
0.0000000000
10
307.9282638274
20
121.3999014099
30
0.0000000000
10
307.9518096314
20
121.3517816546
30
0.0000000000
10
307.9731719996
20
121.3026514718
30
0.0000000000
10
307.9831801391
20
121.2780742863
30
0.0000000000
11
307.9158731704
21
121.4239078978
31
0.0000000000
11
307.9514644710
21
121.3510943146
31
0.0000000000
11
307.9831801391
21
121.2780742863
31
0.0000000000
0
SPLINE
5
368
100
AcDbEntity
8
DEFAULT_2
100
AcDbSpline
62
8
6
HIDDEN
70
0
71
3
72
9
73
5
74
3
42
0.0000001000
43
0.0000001000
44
0.0000000001
40
0.0000000000
40
0.0000000000
40
0.0000000000
40
0.0000000000
40
0.4997309646
40
1.0000000000
40
1.0000000000
40
1.0000000000
40
1.0000000000
10
307.8621196577
20
121.7155742863
30
0.0000000000
10
307.8716501030
20
121.6670982525
30
0.0000000000
10
307.8901459879
20
121.5699800056
30
0.0000000000
10
307.9074874473
20
121.4726489866
30
0.0000000000
10
307.9158731704
20
121.4239078978
30
0.0000000000
11
307.8621196577
21
121.7155742863
31
0.0000000000
11
307.8898477399
21
121.5699791263
31
0.0000000000
11
307.9158731704
21
121.4239078978
31
0.0000000000
0
SPLINE
5
369
100
AcDbEntity
8
DEFAULT_2
100
AcDbSpline
62
8
6
HIDDEN
70
0
71
3
72
9
73
5
74
3
42
0.0000001000
43
0.0000001000
44
0.0000000001
40
0.0000000000
40
0.0000000000
40
0.0000000000
40
0.0000000000
40
0.4996176710
40
1.0000000000
40
1.0000000000
40
1.0000000000
40
1.0000000000
10
307.8325456060
20
122.1530742848
30
0.0000000000
10
307.8376208775
20
122.0802236330
30
0.0000000000
10
307.8476288623
20
121.9344003211
30
0.0000000000
10
307.8573368508
20
121.7885567307
30
0.0000000000
10
307.8621196577
20
121.7155742863
30
0.0000000000
11
307.8325456060
21
122.1530742848
31
0.0000000000
11
307.8475463252
21
121.9345067642
31
0.0000000000
11
307.8621196577
21
121.7155742863
31
0.0000000000
0
SPLINE
5
36A
100
AcDbEntity
8
DEFAULT_2
100
AcDbSpline
62
8
6
HIDDEN
70
0
71
3
72
8
73
4
74
2
42
0.0000001000
43
0.0000001000
44
0.0000000001
40
0.0000000000
40
0.0000000000
40
0.0000000000
40
0.0000000000
40
1.0000000000
40
1.0000000000
40
1.0000000000
40
1.0000000000
10
307.6164875770
20
127.8405747035
30
0.0000000000
10
307.7039105703
20
127.9451338880
30
0.0000000000
10
307.7849869482
20
128.0568038852
30
0.0000000000
10
307.8544707996
20
128.1751224248
30
0.0000000000
11
307.6164875770
21
127.8405747035
31
0.0000000000
11
307.8544707996
21
128.1751224248
31
0.0000000000
0
SPLINE
5
36B
100
AcDbEntity
8
DEFAULT_2
100
AcDbSpline
62
8
6
HIDDEN
70
0
71
3
72
8
73
4
74
2
42
0.0000001000
43
0.0000001000
44
0.0000000001
40
0.0000000000
40
0.0000000000
40
0.0000000000
40
0.0000000000
40
1.0000000000
40
1.0000000000
40
1.0000000000
40
1.0000000000
10
307.8544707996
20
128.1751224248
30
0.0000000000
10
307.8650563165
20
128.1931476619
30
0.0000000000
10
307.8753727824
20
128.2113272050
30
0.0000000000
10
307.8854016491
20
128.2296594196
30
0.0000000000
11
307.8544707996
21
128.1751224248
31
0.0000000000
11
307.8854016491
21
128.2296594196
31
0.0000000000
0
SPLINE
5
36C
100
AcDbEntity
8
DEFAULT_2
100
AcDbSpline
62
8
6
HIDDEN
70
0
71
3
72
9
73
5
74
3
42
0.0000001000
43
0.0000001000
44
0.0000000001
40
0.0000000000
40
0.0000000000
40
0.0000000000
40
0.0000000000
40
0.8409793697
40
1.0000000000
40
1.0000000000
40
1.0000000000
40
1.0000000000
10
307.8854016491
20
128.2296594196
30
0.0000000000
10
307.9351664889
20
128.3206267994
30
0.0000000000
10
307.9859207353
20
128.4332652524
30
0.0000000000
10
308.0234577087
20
128.5509366461
30
0.0000000000
10
308.0290862632
20
128.5697607232
30
0.0000000000
11
307.8854016491
21
128.2296594196
31
0.0000000000
11
308.0111851698
21
128.5136395585
31
0.0000000000
11
308.0290862632
21
128.5697607232
31
0.0000000000
0
SPLINE
5
36D
100
AcDbEntity
8
DEFAULT_2
100
AcDbSpline
62
8
6
HIDDEN
70
0
71
3
72
9
73
5
74
3
42
0.0000001000
43
0.0000001000
44
0.0000000001
40
0.0000000000
40
0.0000000000
40
0.0000000000
40
0.0000000000
40
0.1590208874
40
1.0000000000
40
1.0000000000
40
1.0000000000
40
1.0000000000
10
308.0290862905
20
131.1947217868
30
0.0000000000
10
308.0234577280
20
131.2135458946
30
0.0000000000
10
307.9859207579
20
131.3312172899
30
0.0000000000
10
307.9351665148
20
131.4438557443
30
0.0000000000
10
307.8854016945
20
131.5348230987
30
0.0000000000
11
308.0290862905
21
131.1947217868
31
0.0000000000
11
308.0111851698
21
131.2508430428
31
0.0000000000
11
307.8854016945
21
131.5348230987
31
0.0000000000
0
SPLINE
5
36E
100
AcDbEntity
8
DEFAULT_2
100
AcDbSpline
62
8
6
HIDDEN
70
0
71
3
72
8
73
4
74
2
42
0.0000001000
43
0.0000001000
44
0.0000000001
40
0.0000000000
40
0.0000000000
40
0.0000000000
40
0.0000000000
40
1.0000000000
40
1.0000000000
40
1.0000000000
40
1.0000000000
10
307.8854016945
20
131.5348230987
30
0.0000000000
10
307.8753728136
20
131.5531553414
30
0.0000000000
10
307.8650563324
20
131.5713349122
30
0.0000000000
10
307.8544707996
20
131.5893601765
30
0.0000000000
11
307.8854016945
21
131.5348230987
31
0.0000000000
11
307.8544707996
21
131.5893601765
31
0.0000000000
0
SPLINE
5
36F
100
AcDbEntity
8
DEFAULT_2
100
AcDbSpline
62
8
6
HIDDEN
70
0
71
3
72
8
73
4
74
2
42
0.0000001000
43
0.0000001000
44
0.0000000001
40
0.0000000000
40
0.0000000000
40
0.0000000000
40
0.0000000000
40
1.0000000000
40
1.0000000000
40
1.0000000000
40
1.0000000000
10
307.8544707996
20
131.5893601765
30
0.0000000000
10
307.7849869482
20
131.7076787161
30
0.0000000000
10
307.7039105703
20
131.8193487133
30
0.0000000000
10
307.6164875770
20
131.9239078978
30
0.0000000000
11
307.8544707996
21
131.5893601765
31
0.0000000000
11
307.6164875770
21
131.9239078978
31
0.0000000000
0
SPLINE
5
370
100
AcDbEntity
8
DEFAULT_2
100
AcDbSpline
62
8
6
HIDDEN
70
0
71
3
72
8
73
4
74
2
42
0.0000001000
43
0.0000001000
44
0.0000000001
40
0.0000000000
40
0.0000000000
40
0.0000000000
40
0.0000000000
40
1.0000000000
40
1.0000000000
40
1.0000000000
40
1.0000000000
10
307.8898916085
20
102.7572423437
30
0.0000000000
10
307.9048136704
20
102.7896313234
30
0.0000000000
10
307.9190552362
20
102.8223413621
30
0.0000000000
10
307.9325684100
20
102.8553517610
30
0.0000000000
11
307.8898916085
21
102.7572423437
31
0.0000000000
11
307.9325684100
21
102.8553517610
31
0.0000000000
0
SPLINE
5
371
100
AcDbEntity
8
DEFAULT_2
100
AcDbSpline
62
8
6
HIDDEN
70
0
71
3
72
8
73
4
74
2
42
0.0000001000
43
0.0000001000
44
0.0000000001
40
0.0000000000
40
0.0000000000
40
0.0000000000
40
0.0000000000
40
1.0000000000
40
1.0000000000
40
1.0000000000
40
1.0000000000
10
307.9325684100
20
102.8553517610
30
0.0000000000
10
307.9390042718
20
102.8710734831
30
0.0000000000
10
307.9452749131
20
102.8868633357
30
0.0000000000
10
307.9513751597
20
102.9027190825
30
0.0000000000
11
307.9325684100
21
102.8553517610
31
0.0000000000
11
307.9513751597
21
102.9027190825
31
0.0000000000
0
SPLINE
5
372
100
AcDbEntity
8
DEFAULT_2
100
AcDbSpline
62
8
6
HIDDEN
70
0
71
3
72
8
73
4
74
2
42
0.0000001000
43
0.0000001000
44
0.0000000001
40
0.0000000000
40
0.0000000000
40
0.0000000000
40
0.0000000000
40
1.0000000000
40
1.0000000000
40
1.0000000000
40
1.0000000000
10
307.9513751597
20
102.9027190825
30
0.0000000000
10
307.9699012028
20
102.9508719309
30
0.0000000000
10
307.9868557015
20
102.9996325201
30
0.0000000000
10
308.0021006698
20
103.0489078978
30
0.0000000000
11
307.9513751597
21
102.9027190825
31
0.0000000000
11
308.0021006698
21
103.0489078978
31
0.0000000000
0
SPLINE
5
373
100
AcDbEntity
8
DEFAULT_2
100
AcDbSpline
62
8
6
HIDDEN
70
0
71
3
72
8
73
4
74
2
42
0.0000001000
43
0.0000001000
44
0.0000000001
40
0.0000000000
40
0.0000000000
40
0.0000000000
40
0.0000000000
40
1.0000000000
40
1.0000000000
40
1.0000000000
40
1.0000000000
10
307.7679399590
20
102.3197423437
30
0.0000000000
10
307.7792357722
20
102.3559355022
30
0.0000000000
10
307.7902560971
20
102.3922158240
30
0.0000000000
10
307.8009978250
20
102.4285790150
30
0.0000000000
11
307.7679399590
21
102.3197423437
31
0.0000000000
11
307.8009978250
21
102.4285790150
31
0.0000000000
0
SPLINE
5
374
100
AcDbEntity
8
DEFAULT_2
100
AcDbSpline
62
8
6
HIDDEN
70
0
71
3
72
8
73
4
74
2
42
0.0000001000
43
0.0000001000
44
0.0000000001
40
0.0000000000
40
0.0000000000
40
0.0000000000
40
0.0000000000
40
1.0000000000
40
1.0000000000
40
1.0000000000
40
1.0000000000
10
307.8009978250
20
102.4285790150
30
0.0000000000
10
307.8046324588
20
102.4408830768
30
0.0000000000
10
307.8082351956
20
102.4531966264
30
0.0000000000
10
307.8118059150
20
102.4655194974
30
0.0000000000
11
307.8009978250
21
102.4285790150
31
0.0000000000
11
307.8118059150
21
102.4655194974
31
0.0000000000
0
SPLINE
5
375
100
AcDbEntity
8
DEFAULT_2
100
AcDbSpline
62
8
6
HIDDEN
70
0
71
3
72
9
73
5
74
3
42
0.0000001000
43
0.0000001000
44
0.0000000001
40
0.0000000000
40
0.0000000000
40
0.0000000000
40
0.0000000000
40
0.2487176682
40
1.0000000000
40
1.0000000000
40
1.0000000000
40
1.0000000000
10
307.8118059150
20
102.4655194974
30
0.0000000000
10
307.8187746269
20
102.4895691432
30
0.0000000000
10
307.8463028780
20
102.5864064523
30
0.0000000000
10
307.8718452953
20
102.6837977060
30
0.0000000000
10
307.8898916085
20
102.7572423437
30
0.0000000000
11
307.8118059150
21
102.4655194974
31
0.0000000000
11
307.8323453071
21
102.5377737099
31
0.0000000000
11
307.8898916085
21
102.7572423437
31
0.0000000000
0
SPLINE
5
376
100
AcDbEntity
8
DEFAULT_2
100
AcDbSpline
62
8
6
HIDDEN
70
0
71
3
72
9
73
5
74
3
42
0.0000001000
43
0.0000001000
44
0.0000000001
40
0.0000000000
40
0.0000000000
40
0.0000000000
40
0.0000000000
40
0.3322606958
40
1.0000000000
40
1.0000000000
40
1.0000000000
40
1.0000000000
10
307.6862661655
20
101.7717541805
30
0.0000000000
10
307.6958248311
20
101.8323678826
30
0.0000000000
10
307.7240788075
20
102.0148775552
30
0.0000000000
10
307.7507888934
20
102.1976217522
30
0.0000000000
10
307.7679399590
20
102.3197423437
30
0.0000000000
11
307.6862661655
21
101.7717541805
31
0.0000000000
11
307.7144297617
21
101.9536753551
31
0.0000000000
11
307.7679399590
21
102.3197423437
31
0.0000000000
0
SPLINE
5
377
100
AcDbEntity
8
DEFAULT_2
100
AcDbSpline
62
8
6
HIDDEN
70
0
71
3
72
8
73
4
74
2
42
0.0000001000
43
0.0000001000
44
0.0000000001
40
0.0000000000
40
0.0000000000
40
0.0000000000
40
0.0000000000
40
1.0000000000
40
1.0000000000
40
1.0000000000
40
1.0000000000
10
307.6164875770
20
100.2780734518
30
0.0000000000
10
307.6199509161
20
100.2174198279
30
0.0000000000
10
307.6233944943
20
100.1567650725
30
0.0000000000
10
307.6268183571
20
100.0961092025
30
0.0000000000
11
307.6164875770
21
100.2780734518
31
0.0000000000
11
307.6268183571
21
100.0961092025
31
0.0000000000
0
SPLINE
5
378
100
AcDbEntity
8
DEFAULT_2
100
AcDbSpline
62
8
6
HIDDEN
70
0
71
3
72
8
73
4
74
2
42
0.0000001000
43
0.0000001000
44
0.0000000001
40
0.0000000000
40
0.0000000000
40
0.0000000000
40
0.0000000000
40
1.0000000000
40
1.0000000000
40
1.0000000000
40
1.0000000000
10
307.6268183571
20
100.0961092025
30
0.0000000000
10
307.6302461975
20
100.0353828682
30
0.0000000000
10
307.6336542767
20
99.9746554169
30
0.0000000000
10
307.6370426404
20
99.9139268655
30
0.0000000000
11
307.6268183571
21
100.0961092025
31
0.0000000000
11
307.6370426404
21
99.9139268655
31
0.0000000000
0
SPLINE
5
379
100
AcDbEntity
8
DEFAULT_2
100
AcDbSpline
62
8
6
HIDDEN
70
0
71
3
72
8
73
4
74
2
42
0.0000001000
43
0.0000001000
44
0.0000000001
40
0.0000000000
40
0.0000000000
40
0.0000000000
40
0.0000000000
40
1.0000000000
40
1.0000000000
40
1.0000000000
40
1.0000000000
10
307.6370426404
20
99.9139268655
30
0.0000000000
10
307.6438311693
20
99.7922582465
30
0.0000000000
10
307.6505405612
20
99.6705852122
30
0.0000000000
10
307.6571711727
20
99.5489078978
30
0.0000000000
11
307.6370426404
21
99.9139268655
31
0.0000000000
11
307.6571711727
21
99.5489078978
31
0.0000000000
0
SPLINE
5
37A
100
AcDbEntity
8
DEFAULT_2
100
AcDbSpline
62
8
6
HIDDEN
70
0
71
3
72
8
73
4
74
2
42
0.0000001000
43
0.0000001000
44
0.0000000001
40
0.0000000000
40
0.0000000000
40
0.0000000000
40
0.0000000000
40
1.0000000000
40
1.0000000000
40
1.0000000000
40
1.0000000000
10
307.6571711727
20
99.5489078978
30
0.0000000000
10
307.6670397551
20
99.4885422933
30
0.0000000000
10
307.6767379102
20
99.4281485855
30
0.0000000000
10
307.6862661714
20
99.3677279611
30
0.0000000000
11
307.6571711727
21
99.5489078978
31
0.0000000000
11
307.6862661714
21
99.3677279611
31
0.0000000000
0
SPLINE
5
37B
100
AcDbEntity
8
DEFAULT_2
100
AcDbSpline
62
8
6
HIDDEN
70
0
71
3
72
8
73
4
74
2
42
0.0000001000
43
0.0000001000
44
0.0000000001
40
0.0000000000
40
0.0000000000
40
0.0000000000
40
0.0000000000
40
1.0000000000
40
1.0000000000
40
1.0000000000
40
1.0000000000
10
307.6862661714
20
99.3677279611
30
0.0000000000
10
307.6958248351
20
99.3071145484
30
0.0000000000
10
307.7052125190
20
99.2464740470
30
0.0000000000
10
307.7144297620
20
99.1858076547
30
0.0000000000
11
307.6862661714
21
99.3677279611
31
0.0000000000
11
307.7144297620
21
99.1858076547
31
0.0000000000
0
SPLINE
5
37C
100
AcDbEntity
8
DEFAULT_2
100
AcDbSpline
62
8
6
HIDDEN
70
0
71
3
72
8
73
4
74
2
42
0.0000001000
43
0.0000001000
44
0.0000000001
40
0.0000000000
40
0.0000000000
40
0.0000000000
40
0.0000000000
40
1.0000000000
40
1.0000000000
40
1.0000000000
40
1.0000000000
10
307.7144297620
20
99.1858076547
30
0.0000000000
10
307.7329535192
20
99.0638873002
30
0.0000000000
10
307.7507888933
20
98.9418623765
30
0.0000000000
10
307.7679399590
20
98.8197423437
30
0.0000000000
11
307.7144297620
21
99.1858076547
31
0.0000000000
11
307.7679399590
21
98.8197423437
31
0.0000000000
0
SPLINE
5
37D
100
AcDbEntity
8
DEFAULT_2
100
AcDbSpline
62
8
6
HIDDEN
70
0
71
3
72
8
73
4
74
2
42
0.0000001000
43
0.0000001000
44
0.0000000001
40
0.0000000000
40
0.0000000000
40
0.0000000000
40
0.0000000000
40
1.0000000000
40
1.0000000000
40
1.0000000000
40
1.0000000000
10
307.7679399590
20
98.8197423437
30
0.0000000000
10
307.7830582345
20
98.7713015517
30
0.0000000000
10
307.7976830263
20
98.7227046234
30
0.0000000000
10
307.8118068815
20
98.6739618545
30
0.0000000000
11
307.7679399590
21
98.8197423437
31
0.0000000000
11
307.8118068815
21
98.6739618545
31
0.0000000000
0
SPLINE
5
37E
100
AcDbEntity
8
DEFAULT_2
100
AcDbSpline
62
8
6
HIDDEN
70
0
71
3
72
8
73
4
74
2
42
0.0000001000
43
0.0000001000
44
0.0000000001
40
0.0000000000
40
0.0000000000
40
0.0000000000
40
0.0000000000
40
1.0000000000
40
1.0000000000
40
1.0000000000
40
1.0000000000
10
307.8118068815
20
98.6739618545
30
0.0000000000
10
307.8187752599
20
98.6499133173
30
0.0000000000
10
307.8256217002
20
98.6258292795
30
0.0000000000
10
307.8323453071
20
98.6017109776
30
0.0000000000
11
307.8118068815
21
98.6739618545
31
0.0000000000
11
307.8323453071
21
98.6017109776
31
0.0000000000
0
SPLINE
5
37F
100
AcDbEntity
8
DEFAULT_2
100
AcDbSpline
62
8
6
HIDDEN
70
0
71
3
72
8
73
4
74
2
42
0.0000001000
43
0.0000001000
44
0.0000000001
40
0.0000000000
40
0.0000000000
40
0.0000000000
40
0.0000000000
40
1.0000000000
40
1.0000000000
40
1.0000000000
40
1.0000000000
10
307.8323453071
20
98.6017109776
30
0.0000000000
10
307.8425042749
20
98.5652696662
30
0.0000000000
10
307.8523828218
20
98.5287501320
30
0.0000000000
10
307.8619781446
20
98.4921569238
30
0.0000000000
11
307.8323453071
21
98.6017109776
31
0.0000000000
11
307.8619781446
21
98.4921569238
31
0.0000000000
0
SPLINE
5
380
100
AcDbEntity
8
DEFAULT_2
100
AcDbSpline
62
8
6
HIDDEN
70
0
71
3
72
8
73
4
74
2
42
0.0000001000
43
0.0000001000
44
0.0000000001
40
0.0000000000
40
0.0000000000
40
0.0000000000
40
0.0000000000
40
1.0000000000
40
1.0000000000
40
1.0000000000
40
1.0000000000
10
307.8619781446
20
98.4921569238
30
0.0000000000
10
307.8715663700
20
98.4555907826
30
0.0000000000
10
307.8808717902
20
98.4189510763
30
0.0000000000
10
307.8898916085
20
98.3822423437
30
0.0000000000
11
307.8619781446
21
98.4921569238
31
0.0000000000
11
307.8898916085
21
98.3822423437
31
0.0000000000
0
SPLINE
5
381
100
AcDbEntity
8
DEFAULT_2
100
AcDbSpline
62
8
6
HIDDEN
70
0
71
3
72
9
73
5
74
3
42
0.0000001000
43
0.0000001000
44
0.0000000001
40
0.0000000000
40
0.0000000000
40
0.0000000000
40
0.0000000000
40
0.6194188375
40
1.0000000000
40
1.0000000000
40
1.0000000000
40
1.0000000000
10
307.8898916085
20
98.3822423437
30
0.0000000000
10
307.9031553008
20
98.3582508750
30
0.0000000000
10
307.9237622085
20
98.3190666309
30
0.0000000000
10
307.9429526833
20
98.2791752426
30
0.0000000000
10
307.9500405393
20
98.2638942608
30
0.0000000000
11
307.8898916085
21
98.3822423437
31
0.0000000000
11
307.9281404579
21
98.3094366403
31
0.0000000000
11
307.9500405393
21
98.2638942608
31
0.0000000000
0
SPLINE
5
382
100
AcDbEntity
8
DEFAULT_2
100
AcDbSpline
62
8
6
HIDDEN
70
0
71
3
72
8
73
4
74
2
42
0.0000001000
43
0.0000001000
44
0.0000000001
40
0.0000000000
40
0.0000000000
40
0.0000000000
40
0.0000000000
40
1.0000000000
40
1.0000000000
40
1.0000000000
40
1.0000000000
10
307.9500405393
20
98.2638942608
30
0.0000000000
10
307.9527833917
20
98.2579808395
30
0.0000000000
10
307.9554939459
20
98.2520525821
30
0.0000000000
10
307.9581715923
20
98.2461096829
30
0.0000000000
11
307.9500405393
21
98.2638942608
31
0.0000000000
11
307.9581715923
21
98.2461096829
31
0.0000000000
0
SPLINE
5
383
100
AcDbEntity
8
DEFAULT_2
100
AcDbSpline
62
8
6
HIDDEN
70
0
71
3
72
8
73
4
74
2
42
0.0000001000
43
0.0000001000
44
0.0000000001
40
0.0000000000
40
0.0000000000
40
0.0000000000
40
0.0000000000
40
1.0000000000
40
1.0000000000
40
1.0000000000
40
1.0000000000
10
307.9581715923
20
98.2461096829
30
0.0000000000
10
307.9596267349
20
98.2428800682
30
0.0000000000
10
307.9610721589
20
98.2396461295
30
0.0000000000
10
307.9625077665
20
98.2364078978
30
0.0000000000
11
307.9581715923
21
98.2461096829
31
0.0000000000
11
307.9625077665
21
98.2364078978
31
0.0000000000
0
SPLINE
5
384
100
AcDbEntity
8
DEFAULT_2
100
AcDbSpline
62
8
6
HIDDEN
70
0
71
3
72
8
73
4
74
2
42
0.0000001000
43
0.0000001000
44
0.0000000001
40
0.0000000000
40
0.0000000000
40
0.0000000000
40
0.0000000000
40
1.0000000000
40
1.0000000000
40
1.0000000000
40
1.0000000000
10
308.0883696112
20
102.1183665730
30
0.0000000000
10
308.0876414205
20
102.0881465935
30
0.0000000000
10
308.0868643187
20
102.0579277728
30
0.0000000000
10
308.0860382981
20
102.0277102889
30
0.0000000000
11
308.0883696112
21
102.1183665730
31
0.0000000000
11
308.0860382981
21
102.0277102889
31
0.0000000000
0
SPLINE
5
385
100
AcDbEntity
8
DEFAULT_2
100
AcDbSpline
62
8
6
HIDDEN
70
0
71
3
72
8
73
4
74
2
42
0.0000001000
43
0.0000001000
44
0.0000000001
40
0.0000000000
40
0.0000000000
40
0.0000000000
40
0.0000000000
40
1.0000000000
40
1.0000000000
40
1.0000000000
40
1.0000000000
10
308.0860382981
20
102.0277102889
30
0.0000000000
10
308.0840456509
20
101.9548152776
30
0.0000000000
10
308.0817683249
20
101.8819280463
30
0.0000000000
10
308.0792061437
20
101.8090511097
30
0.0000000000
11
308.0860382981
21
102.0277102889
31
0.0000000000
11
308.0792061437
21
101.8090511097
31
0.0000000000
0
SPLINE
5
386
100
AcDbEntity
8
DEFAULT_2
100
AcDbSpline
62
8
6
HIDDEN
70
0
71
3
72
8
73
4
74
2
42
0.0000001000
43
0.0000001000
44
0.0000000001
40
0.0000000000
40
0.0000000000
40
0.0000000000
40
0.0000000000
40
1.0000000000
40
1.0000000000
40
1.0000000000
40
1.0000000000
10
308.0792061437
20
101.8090511097
30
0.0000000000
10
308.0766453663
20
101.7362141036
30
0.0000000000
10
308.0738000456
20
101.6633873808
30
0.0000000000
10
308.0706700056
20
101.5905734518
30
0.0000000000
11
308.0792061437
21
101.8090511097
31
0.0000000000
11
308.0706700056
21
101.5905734518
31
0.0000000000
0
SPLINE
5
387
100
AcDbEntity
8
DEFAULT_2
100
AcDbSpline
62
8
6
HIDDEN
70
0
71
3
72
9
73
5
74
3
42
0.0000001000
43
0.0000001000
44
0.0000000001
40
0.0000000000
40
0.0000000000
40
0.0000000000
40
0.0000000000
40
0.6665720850
40
1.0000000000
40
1.0000000000
40
1.0000000000
40
1.0000000000
10
308.0604077262
20
100.8614078978
30
0.0000000000
10
308.0622608133
20
100.9828989177
30
0.0000000000
10
308.0649333765
20
101.1651629606
30
0.0000000000
10
308.0674449118
20
101.3474292697
30
0.0000000000
10
308.0682644353
20
101.4082021851
30
0.0000000000
11
308.0604077262
21
100.8614078978
31
0.0000000000
11
308.0657521777
21
101.2258841708
31
0.0000000000
11
308.0682644353
21
101.4082021851
31
0.0000000000
0
SPLINE
5
388
100
AcDbEntity
8
DEFAULT_2
100
AcDbSpline
62
8
6
HIDDEN
70
0
71
3
72
8
73
4
74
2
42
0.0000001000
43
0.0000001000
44
0.0000000001
40
0.0000000000
40
0.0000000000
40
0.0000000000
40
0.0000000000
40
1.0000000000
40
1.0000000000
40
1.0000000000
40
1.0000000000
10
308.0682644353
20
101.4082021851
30
0.0000000000
10
308.0690841916
20
101.4689923713
30
0.0000000000
10
308.0698860452
20
101.5297827975
30
0.0000000000
10
308.0706700056
20
101.5905734518
30
0.0000000000
11
308.0682644353
21
101.4082021851
31
0.0000000000
11
308.0706700056
21
101.5905734518
31
0.0000000000
0
SPLINE
5
389
100
AcDbEntity
8
DEFAULT_2
100
AcDbSpline
62
8
6
HIDDEN
70
0
71
3
72
9
73
5
74
3
42
0.0000001000
43
0.0000001000
44
0.0000000001
40
0.0000000000
40
0.0000000000
40
0.0000000000
40
0.0000000000
40
0.6665720850
40
1.0000000000
40
1.0000000000
40
1.0000000000
40
1.0000000000
10
308.0604077262
20
100.1322423437
30
0.0000000000
10
308.0622608133
20
100.0107507676
30
0.0000000000
10
308.0649333765
20
99.8284858904
30
0.0000000000
10
308.0674449118
20
99.6462187469
30
0.0000000000
10
308.0682644353
20
99.5854455534
30
0.0000000000
11
308.0604077262
21
100.1322423437
31
0.0000000000
11
308.0657521777
21
99.7677644022
31
0.0000000000
11
308.0682644353
21
99.5854455534
31
0.0000000000
0
SPLINE
5
38A
100
AcDbEntity
8
DEFAULT_2
100
AcDbSpline
62
8
6
HIDDEN
70
0
71
3
72
8
73
4
74
2
42
0.0000001000
43
0.0000001000
44
0.0000000001
40
0.0000000000
40
0.0000000000
40
0.0000000000
40
0.0000000000
40
1.0000000000
40
1.0000000000
40
1.0000000000
40
1.0000000000
10
308.0682644353
20
99.5854455534
30
0.0000000000
10
308.0690841916
20
99.5246550890
30
0.0000000000
10
308.0698860452
20
99.4638643844
30
0.0000000000
10
308.0706700056
20
99.4030734518
30
0.0000000000
11
308.0682644353
21
99.5854455534
31
0.0000000000
11
308.0706700056
21
99.4030734518
31
0.0000000000
0
SPLINE
5
38B
100
AcDbEntity
8
DEFAULT_2
100
AcDbSpline
62
8
6
HIDDEN
70
0
71
3
72
8
73
4
74
2
42
0.0000001000
43
0.0000001000
44
0.0000000001
40
0.0000000000
40
0.0000000000
40
0.0000000000
40
0.0000000000
40
1.0000000000
40
1.0000000000
40
1.0000000000
40
1.0000000000
10
308.0874844048
20
98.8564005915
30
0.0000000000
10
308.0860961160
20
98.9171906242
30
0.0000000000
10
308.0845474677
20
98.9779771002
30
0.0000000000
10
308.0828383839
20
99.0387590659
30
0.0000000000
11
308.0874844048
21
98.8564005915
31
0.0000000000
11
308.0828383839
21
99.0387590659
31
0.0000000000
0
SPLINE
5
38C
100
AcDbEntity
8
DEFAULT_2
100
AcDbSpline
62
8
6
HIDDEN
70
0
71
3
72
8
73
4
74
2
42
0.0000001000
43
0.0000001000
44
0.0000000001
40
0.0000000000
40
0.0000000000
40
0.0000000000
40
0.0000000000
40
1.0000000000
40
1.0000000000
40
1.0000000000
40
1.0000000000
10
308.0828383839
20
99.0387590659
30
0.0000000000
10
308.0811303043
20
99.0995053152
30
0.0000000000
10
308.0792619775
20
99.1602470594
30
0.0000000000
10
308.0772332964
20
99.2209833412
30
0.0000000000
11
308.0828383839
21
99.0387590659
31
0.0000000000
11
308.0772332964
21
99.2209833412
31
0.0000000000
0
SPLINE
5
38D
100
AcDbEntity
8
DEFAULT_2
100
AcDbSpline
62
8
6
HIDDEN
70
0
71
3
72
8
73
4
74
2
42
0.0000001000
43
0.0000001000
44
0.0000000001
40
0.0000000000
40
0.0000000000
40
0.0000000000
40
0.0000000000
40
1.0000000000
40
1.0000000000
40
1.0000000000
40
1.0000000000
10
308.0772332964
20
99.2209833412
30
0.0000000000
10
308.0752057444
20
99.2816858196
30
0.0000000000
10
308.0730180165
20
99.3423828417
30
0.0000000000
10
308.0706700056
20
99.4030734518
30
0.0000000000
11
308.0772332964
21
99.2209833412
31
0.0000000000
11
308.0706700056
21
99.4030734518
31
0.0000000000
0
SPLINE
5
38E
100
AcDbEntity
8
DEFAULT_2
100
AcDbSpline
62
8
6
HIDDEN
70
0
71
3
72
9
73
5
74
3
42
0.0000001000
43
0.0000001000
44
0.0000000001
40
0.0000000000
40
0.0000000000
40
0.0000000000
40
0.0000000000
40
0.4998912237
40
1.0000000000
40
1.0000000000
40
1.0000000000
40
1.0000000000
10
307.6164875770
20
105.2364078978
30
0.0000000000
10
307.6643579849
20
105.3801264192
30
0.0000000000
10
307.7533104182
20
105.6699401907
30
0.0000000000
10
307.8282393881
20
105.9636963758
30
0.0000000000
10
307.8621196577
20
106.1114078978
30
0.0000000000
11
307.6164875770
21
105.2364078978
31
0.0000000000
11
307.7497867257
21
105.6708623155
31
0.0000000000
11
307.8621196577
21
106.1114078978
31
0.0000000000
0
SPLINE
5
38F
100
AcDbEntity
8
DEFAULT_2
100
AcDbSpline
62
8
6
HIDDEN
70
0
71
3
72
9
73
5
74
3
42
0.0000001000
43
0.0000001000
44
0.0000000001
40
0.0000000000
40
0.0000000000
40
0.0000000000
40
0.0000000000
40
0.4998912237
40
1.0000000000
40
1.0000000000
40
1.0000000000
40
1.0000000000
10
307.6164875770
20
111.3614078978
30
0.0000000000
10
307.6643579849
20
111.5051264192
30
0.0000000000
10
307.7533104182
20
111.7949401907
30
0.0000000000
10
307.8282393881
20
112.0886963758
30
0.0000000000
10
307.8621196577
20
112.2364078978
30
0.0000000000
11
307.6164875770
21
111.3614078978
31
0.0000000000
11
307.7497867257
21
111.7958623155
31
0.0000000000
11
307.8621196577
21
112.2364078978
31
0.0000000000
0
SPLINE
5
390
100
AcDbEntity
8
DEFAULT_2
100
AcDbSpline
62
8
6
HIDDEN
70
0
71
3
72
9
73
5
74
3
42
0.0000001000
43
0.0000001000
44
0.0000000001
40
0.0000000000
40
0.0000000000
40
0.0000000000
40
0.0000000000
40
0.4999128800
40
1.0000000000
40
1.0000000000
40
1.0000000000
40
1.0000000000
10
308.0792157086
20
121.7155742863
30
0.0000000000
10
308.0804968779
20
121.7884759160
30
0.0000000000
10
308.0829169818
20
121.9343071271
30
0.0000000000
10
308.0850518742
20
122.0801427922
30
0.0000000000
10
308.0860482231
20
122.1530742863
30
0.0000000000
11
308.0792157086
21
121.7155742863
31
0.0000000000
11
308.0828452821
21
121.9342828306
31
0.0000000000
11
308.0860482231
21
122.1530742863
31
0.0000000000
0
SPLINE
5
391
100
AcDbEntity
8
DEFAULT_2
100
AcDbSpline
62
8
6
HIDDEN
70
0
71
3
72
9
73
5
74
3
42
0.0000001000
43
0.0000001000
44
0.0000000001
40
0.0000000000
40
0.0000000000
40
0.0000000000
40
0.0000000000
40
0.5046949818
40
1.0000000000
40
1.0000000000
40
1.0000000000
40
1.0000000000
10
307.8898916129
20
120.5489078898
30
0.0000000000
10
307.9031553023
20
120.5249165634
30
0.0000000000
10
307.9284464305
20
120.4768255019
30
0.0000000000
10
307.9516039937
20
120.4276692671
30
0.0000000000
10
307.9625077665
20
120.4030742863
30
0.0000000000
11
307.8898916129
21
120.5489078898
31
0.0000000000
11
307.9281404579
21
120.4761026108
31
0.0000000000
11
307.9625077665
21
120.4030742863
31
0.0000000000
0
SPLINE
5
392
100
AcDbEntity
8
DEFAULT_2
100
AcDbSpline
62
8
6
HIDDEN
70
0
71
3
72
9
73
5
74
3
42
0.0000001000
43
0.0000001000
44
0.0000000001
40
0.0000000000
40
0.0000000000
40
0.0000000000
40
0.0000000000
40
0.6670316932
40
1.0000000000
40
1.0000000000
40
1.0000000000
40
1.0000000000
10
307.7679399600
20
120.9864078944
30
0.0000000000
10
307.7905172371
20
120.9140675545
30
0.0000000000
10
307.8227146923
20
120.8050943957
30
0.0000000000
10
307.8523828218
20
120.6954156861
30
0.0000000000
10
307.8619781446
20
120.6588224778
30
0.0000000000
11
307.7679399600
21
120.9864078944
31
0.0000000000
11
307.8323453071
21
120.7683765316
31
0.0000000000
11
307.8619781446
21
120.6588224778
31
0.0000000000
0
SPLINE
5
393
100
AcDbEntity
8
DEFAULT_2
100
AcDbSpline
62
8
6
HIDDEN
70
0
71
3
72
8
73
4
74
2
42
0.0000001000
43
0.0000001000
44
0.0000000001
40
0.0000000000
40
0.0000000000
40
0.0000000000
40
0.0000000000
40
1.0000000000
40
1.0000000000
40
1.0000000000
40
1.0000000000
10
307.8619781446
20
120.6588224778
30
0.0000000000
10
307.8715663700
20
120.6222563366
30
0.0000000000
10
307.8808717902
20
120.5856166303
30
0.0000000000
10
307.8898916085
20
120.5489078978
30
0.0000000000
11
307.8619781446
21
120.6588224778
31
0.0000000000
11
307.8898916085
21
120.5489078978
31
0.0000000000
0
SPLINE
5
394
100
AcDbEntity
8
DEFAULT_2
100
AcDbSpline
62
8
6
HIDDEN
70
0
71
3
72
8
73
4
74
2
42
0.0000001000
43
0.0000001000
44
0.0000000001
40
0.0000000000
40
0.0000000000
40
0.0000000000
40
0.0000000000
40
1.0000000000
40
1.0000000000
40
1.0000000000
40
1.0000000000
10
307.6571711727
20
121.5697415093
30
0.0000000000
10
307.6770106903
20
121.4726554785
30
0.0000000000
10
307.6961714132
20
121.3754295236
30
0.0000000000
10
307.7146549150
20
121.2780750117
30
0.0000000000
11
307.6571711727
21
121.5697415093
31
0.0000000000
11
307.7146549150
21
121.2780750117
31
0.0000000000
0
SPLINE
5
395
100
AcDbEntity
8
DEFAULT_2
100
AcDbSpline
62
8
6
HIDDEN
70
0
71
3
72
8
73
4
74
2
42
0.0000001000
43
0.0000001000
44
0.0000000001
40
0.0000000000
40
0.0000000000
40
0.0000000000
40
0.0000000000
40
1.0000000000
40
1.0000000000
40
1.0000000000
40
1.0000000000
10
307.7146549150
20
121.2780750117
30
0.0000000000
10
307.7330897520
20
121.1809768220
30
0.0000000000
10
307.7508509291
20
121.0837507505
30
0.0000000000
10
307.7679399590
20
120.9864078978
30
0.0000000000
11
307.7146549150
21
121.2780750117
31
0.0000000000
11
307.7679399590
21
120.9864078978
31
0.0000000000
0
SPLINE
5
396
100
AcDbEntity
8
DEFAULT_2
100
AcDbSpline
62
8
6
HIDDEN
70
0
71
3
72
9
73
5
74
3
42
0.0000001000
43
0.0000001000
44
0.0000000001
40
0.0000000000
40
0.0000000000
40
0.0000000000
40
0.0000000000
40
0.4994199195
40
1.0000000000
40
1.0000000000
40
1.0000000000
40
1.0000000000
10
307.6164875770
20
122.2989078978
30
0.0000000000
10
307.6234182785
20
122.1775300493
30
0.0000000000
10
307.6371373273
20
121.9344833162
30
0.0000000000
10
307.6505405612
20
121.6914189629
30
0.0000000000
10
307.6571711727
20
121.5697415093
30
0.0000000000
11
307.6164875770
21
122.2989078978
31
0.0000000000
11
307.6370426404
21
121.9347608947
31
0.0000000000
11
307.6571711727
21
121.5697415093
31
0.0000000000
0
SPLINE
5
397
100
AcDbEntity
8
DEFAULT_2
100
AcDbSpline
62
8
6
HIDDEN
70
0
71
3
72
8
73
4
74
2
42
0.0000001000
43
0.0000001000
44
0.0000000001
40
0.0000000000
40
0.0000000000
40
0.0000000000
40
0.0000000000
40
1.0000000000
40
1.0000000000
40
1.0000000000
40
1.0000000000
10
308.0604077262
20
121.4239078978
30
0.0000000000
10
308.0641113257
20
121.4724705730
30
0.0000000000
10
308.0675304109
20
121.5210553657
30
0.0000000000
10
308.0706646815
20
121.5696585257
30
0.0000000000
11
308.0604077262
21
121.4239078978
31
0.0000000000
11
308.0706646815
21
121.5696585257
31
0.0000000000
0
SPLINE
5
398
100
AcDbEntity
8
DEFAULT_2
100
AcDbSpline
62
8
6
HIDDEN
70
0
71
3
72
8
73
4
74
2
42
0.0000001000
43
0.0000001000
44
0.0000000001
40
0.0000000000
40
0.0000000000
40
0.0000000000
40
0.0000000000
40
1.0000000000
40
1.0000000000
40
1.0000000000
40
1.0000000000
10
308.0706646815
20
121.5696585257
30
0.0000000000
10
308.0738001321
20
121.6182799850
30
0.0000000000
10
308.0766505536
20
121.6669198254
30
0.0000000000
10
308.0792157086
20
121.7155742863
30
0.0000000000
11
308.0706646815
21
121.5696585257
31
0.0000000000
11
308.0792157086
21
121.7155742863
31
0.0000000000
0
SPLINE
5
399
100
AcDbEntity
8
DEFAULT_2
100
AcDbSpline
62
8
6
HIDDEN
70
0
71
3
72
9
73
5
74
3
42
0.0000001000
43
0.0000001000
44
0.0000000001
40
0.0000000000
40
0.0000000000
40
0.0000000000
40
0.0000000000
40
0.6687713974
40
1.0000000000
40
1.0000000000
40
1.0000000000
40
1.0000000000
10
308.0192771133
20
121.2780742863
30
0.0000000000
10
308.0273602008
20
121.3021703180
30
0.0000000000
10
308.0385876140
20
121.3384950834
30
0.0000000000
10
308.0484546576
20
121.3752046449
30
0.0000000000
10
308.0515699704
20
121.3874024303
30
0.0000000000
11
308.0192771133
21
121.2780742863
31
0.0000000000
11
308.0417689141
21
121.3509283483
31
0.0000000000
11
308.0515699704
21
121.3874024303
31
0.0000000000
0
SPLINE
5
39A
100
AcDbEntity
8
DEFAULT_2
100
AcDbSpline
62
8
6
HIDDEN
70
0
71
3
72
8
73
4
74
2
42
0.0000001000
43
0.0000001000
44
0.0000000001
40
0.0000000000
40
0.0000000000
40
0.0000000000
40
0.0000000000
40
1.0000000000
40
1.0000000000
40
1.0000000000
40
1.0000000000
10
308.0515699704
20
121.3874024303
30
0.0000000000
10
308.0546683762
20
121.3995340174
30
0.0000000000
10
308.0576155032
20
121.4117037161
30
0.0000000000
10
308.0604077262
20
121.4239078978
30
0.0000000000
11
308.0515699704
21
121.3874024303
31
0.0000000000
11
308.0604077262
21
121.4239078978
31
0.0000000000
0
SPLINE
5
39B
100
AcDbEntity
8
0
100
AcDbSpline
62
7
6
CONTINUOUS
70
0
71
3
72
8
73
4
74
2
42
0.0000001000
43
0.0000001000
44
0.0000000001
40
0.0000000000
40
0.0000000000
40
0.0000000000
40
0.0000000000
40
1.0000000000
40
1.0000000000
40
1.0000000000
40
1.0000000000
10
307.6164875770
20
129.2989078978
30
0.0000000000
10
307.7160493192
20
129.1801925313
30
0.0000000000
10
307.8078785625
20
129.0516409539
30
0.0000000000
10
307.8836075873
20
128.9146828171
30
0.0000000000
11
307.6164875770
21
129.2989078978
31
0.0000000000
11
307.8836075873
21
128.9146828171
31
0.0000000000
0
SPLINE
5
39C
100
AcDbEntity
8
0
100
AcDbSpline
62
7
6
CONTINUOUS
70
0
71
3
72
9
73
5
74
3
42
0.0000001000
43
0.0000001000
44
0.0000000001
40
0.0000000000
40
0.0000000000
40
0.0000000000
40
0.0000000000
40
0.5148264142
40
1.0000000000
40
1.0000000000
40
1.0000000000
40
1.0000000000
10
307.8836075873
20
128.9146828171
30
0.0000000000
10
307.9516812873
20
128.7915695573
30
0.0000000000
10
308.0586378156
20
128.5392396264
30
0.0000000000
10
308.0935781638
20
128.2651987132
30
0.0000000000
10
308.0935781638
20
128.1322413006
30
0.0000000000
11
307.8836075873
21
128.9146828171
31
0.0000000000
11
308.0427217617
21
128.5260029161
31
0.0000000000
11
308.0935781638
21
128.1322413006
31
0.0000000000
0
SPLINE
5
39D
100
AcDbEntity
8
0
100
AcDbSpline
62
7
6
CONTINUOUS
70
0
71
3
72
8
73
4
74
2
42
0.0000001000
43
0.0000001000
44
0.0000000001
40
0.0000000000
40
0.0000000000
40
0.0000000000
40
0.0000000000
40
1.0000000000
40
1.0000000000
40
1.0000000000
40
1.0000000000
10
308.0290862632
20
128.5697607232
30
0.0000000000
10
308.0718131470
20
128.7126560543
30
0.0000000000
10
308.0949131301
20
128.8619994638
30
0.0000000000
10
308.0956014434
20
129.0110662800
30
0.0000000000
11
308.0290862632
21
128.5697607232
31
0.0000000000
11
308.0956014434
21
129.0110662800
31
0.0000000000
0
SPLINE
5
39E
100
AcDbEntity
8
0
100
AcDbSpline
62
7
6
CONTINUOUS
70
0
71
3
72
9
73
5
74
3
42
0.0000001000
43
0.0000001000
44
0.0000000001
40
0.0000000000
40
0.0000000000
40
0.0000000000
40
0.0000000000
40
0.3333406864
40
1.0000000000
40
1.0000000000
40
1.0000000000
40
1.0000000000
10
308.0965035477
20
99.4395314876
30
0.0000000000
10
308.0965035435
20
99.4030716748
30
0.0000000000
10
308.0962902345
20
99.2936945452
30
0.0000000000
10
308.0954370997
20
99.1843199106
30
0.0000000000
10
308.0945838752
20
99.1114078978
30
0.0000000000
11
308.0965035477
21
99.4395314876
31
0.0000000000
11
308.0962902395
21
99.3301522571
31
0.0000000000
11
308.0945838752
21
99.1114078978
31
0.0000000000
0
SPLINE
5
39F
100
AcDbEntity
8
0
100
AcDbSpline
62
7
6
CONTINUOUS
70
0
71
3
72
9
73
5
74
3
42
0.0000001000
43
0.0000001000
44
0.0000000001
40
0.0000000000
40
0.0000000000
40
0.0000000000
40
0.0000000000
40
0.5000090899
40
1.0000000000
40
1.0000000000
40
1.0000000000
40
1.0000000000
10
308.0965035477
20
101.5541187539
30
0.0000000000
10
308.0965035435
20
101.5905785667
30
0.0000000000
10
308.0963613369
20
101.6634969360
30
0.0000000000
10
308.0959347612
20
101.7364141964
30
0.0000000000
10
308.0956503733
20
101.7728715744
30
0.0000000000
11
308.0965035477
21
101.5541187539
31
0.0000000000
11
308.0962902395
21
101.6634979844
31
0.0000000000
11
308.0956503733
21
101.7728715744
31
0.0000000000
0
SPLINE
5
3A0
100
AcDbEntity
8
0
100
AcDbSpline
62
7
6
CONTINUOUS
70
0
71
3
72
8
73
4
74
2
42
0.0000001000
43
0.0000001000
44
0.0000000001
40
0.0000000000
40
0.0000000000
40
0.0000000000
40
0.0000000000
40
1.0000000000
40
1.0000000000
40
1.0000000000
40
1.0000000000
10
308.0956503733
20
101.7728715744
30
0.0000000000
10
308.0953659835
20
101.8093291909
30
0.0000000000
10
308.0950104889
20
101.8457862181
30
0.0000000000
10
308.0945838752
20
101.8822423437
30
0.0000000000
11
308.0956503733
21
101.7728715744
31
0.0000000000
11
308.0945838752
21
101.8822423437
31
0.0000000000
0
SPLINE
5
3A1
100
AcDbEntity
8
0
100
AcDbSpline
62
7
6
CONTINUOUS
70
0
71
3
72
8
73
4
74
2
42
0.0000001000
43
0.0000001000
44
0.0000000001
40
0.0000000000
40
0.0000000000
40
0.0000000000
40
0.0000000000
40
1.0000000000
40
1.0000000000
40
1.0000000000
40
1.0000000000
10
308.0965035146
20
98.3093228326
30
0.0000000000
10
308.0965035060
20
98.3214751300
30
0.0000000000
10
308.0964857251
20
98.3336274533
30
0.0000000000
10
308.0964501740
20
98.3457797442
30
0.0000000000
11
308.0965035146
21
98.3093228326
31
0.0000000000
11
308.0964501740
21
98.3457797442
31
0.0000000000
0
SPLINE
5
3A2
100
AcDbEntity
8
0
100
AcDbSpline
62
7
6
CONTINUOUS
70
0
71
3
72
9
73
5
74
3
42
0.0000001000
43
0.0000001000
44
0.0000000001
40
0.0000000000
40
0.0000000000
40
0.0000000000
40
0.0000000000
40
0.4999695248
40
1.0000000000
40
1.0000000000
40
1.0000000000
40
1.0000000000
10
308.0964501740
20
98.3457797442
30
0.0000000000
10
308.0963435153
20
98.3822385453
30
0.0000000000
10
308.0958102706
20
98.4551600080
30
0.0000000000
10
308.0946374143
20
98.5280739902
30
0.0000000000
10
308.0938909636
20
98.5645297515
30
0.0000000000
11
308.0964501740
21
98.3457797442
31
0.0000000000
11
308.0956504197
21
98.4551536935
31
0.0000000000
11
308.0938909636
21
98.5645297515
31
0.0000000000
0
SPLINE
5
3A3
100
AcDbEntity
8
0
100
AcDbSpline
62
7
6
CONTINUOUS
70
0
71
3
72
8
73
4
74
2
42
0.0000001000
43
0.0000001000
44
0.0000000001
40
0.0000000000
40
0.0000000000
40
0.0000000000
40
0.0000000000
40
1.0000000000
40
1.0000000000
40
1.0000000000
40
1.0000000000
10
308.0938909636
20
98.5645297515
30
0.0000000000
10
308.0931443572
20
98.6009931145
30
0.0000000000
10
308.0922376974
20
98.6374530241
30
0.0000000000
10
308.0911709196
20
98.6739078978
30
0.0000000000
11
308.0938909636
21
98.5645297515
31
0.0000000000
11
308.0911709196
21
98.6739078978
31
0.0000000000
0
SPLINE
5
3A4
100
AcDbEntity
8
0
100
AcDbSpline
62
7
6
CONTINUOUS
70
0
71
3
72
8
73
4
74
2
42
0.0000001000
43
0.0000001000
44
0.0000000001
40
0.0000000000
40
0.0000000000
40
0.0000000000
40
0.0000000000
40
1.0000000000
40
1.0000000000
40
1.0000000000
40
1.0000000000
10
308.0956014434
20
130.7534163214
30
0.0000000000
10
308.0949131302
20
130.9024831058
30
0.0000000000
10
308.0718131568
20
131.0518264834
30
0.0000000000
10
308.0290862905
20
131.1947217868
30
0.0000000000
11
308.0956014434
21
130.7534163214
31
0.0000000000
11
308.0290862905
21
131.1947217868
31
0.0000000000
0
SPLINE
5
3A5
100
AcDbEntity
8
0
100
AcDbSpline
62
7
6
CONTINUOUS
70
0
71
3
72
9
73
5
74
3
42
0.0000001000
43
0.0000001000
44
0.0000000001
40
0.0000000000
40
0.0000000000
40
0.0000000000
40
0.0000000000
40
0.4851735891
40
1.0000000000
40
1.0000000000
40
1.0000000000
40
1.0000000000
10
308.0935781646
20
131.6322411964
30
0.0000000000
10
308.0935781646
20
131.4992837722
30
0.0000000000
10
308.0586378160
20
131.2252428369
30
0.0000000000
10
307.9516812873
20
130.9729128818
30
0.0000000000
10
307.8836075869
20
130.8497996101
30
0.0000000000
11
308.0935781646
21
131.6322411964
31
0.0000000000
11
308.0427217616
21
131.2384795456
31
0.0000000000
11
307.8836075869
21
130.8497996101
31
0.0000000000
0
SPLINE
5
3A6
100
AcDbEntity
8
0
100
AcDbSpline
62
7
6
CONTINUOUS
70
0
71
3
72
8
73
4
74
2
42
0.0000001000
43
0.0000001000
44
0.0000000001
40
0.0000000000
40
0.0000000000
40
0.0000000000
40
0.0000000000
40
1.0000000000
40
1.0000000000
40
1.0000000000
40
1.0000000000
10
307.8836075869
20
130.8497996101
30
0.0000000000
10
307.8078785628
20
130.7128414622
30
0.0000000000
10
307.7160493201
20
130.5842898731
30
0.0000000000
10
307.6164875770
20
130.4655744949
30
0.0000000000
11
307.8836075869
21
130.8497996101
31
0.0000000000
11
307.6164875770
21
130.4655744949
31
0.0000000000
0
SPLINE
5
3A7
100
AcDbEntity
8
0
100
AcDbSpline
62
7
6
CONTINUOUS
70
0
71
3
72
9
73
5
74
3
42
0.0000001000
43
0.0000001000
44
0.0000000001
40
0.0000000000
40
0.0000000000
40
0.0000000000
40
0.0000000000
40
0.4996553677
40
1.0000000000
40
1.0000000000
40
1.0000000000
40
1.0000000000
10
308.0945837185
20
99.1114078978
30
0.0000000000
10
308.0937307796
20
99.0628163411
30
0.0000000000
10
308.0914544492
20
98.9655753684
30
0.0000000000
10
308.0880423303
20
98.8683676057
30
0.0000000000
10
308.0860494504
20
98.8197423437
30
0.0000000000
11
308.0945837185
21
99.1114078978
31
0.0000000000
11
308.0911724623
21
98.9656506843
31
0.0000000000
11
308.0860494504
21
98.8197423437
31
0.0000000000
0
SPLINE
5
3A8
100
AcDbEntity
8
0
100
AcDbSpline
62
7
6
CONTINUOUS
70
0
71
3
72
9
73
5
74
3
42
0.0000001000
43
0.0000001000
44
0.0000000001
40
0.0000000000
40
0.0000000000
40
0.0000000000
40
0.0000000000
40
0.4996553677
40
1.0000000000
40
1.0000000000
40
1.0000000000
40
1.0000000000
10
308.0945837185
20
101.8822423437
30
0.0000000000
10
308.0937307796
20
101.9308339004
30
0.0000000000
10
308.0914544492
20
102.0280748731
30
0.0000000000
10
308.0880423303
20
102.1252826358
30
0.0000000000
10
308.0860494504
20
102.1739078978
30
0.0000000000
11
308.0945837185
21
101.8822423437
31
0.0000000000
11
308.0911724623
21
102.0279995573
31
0.0000000000
11
308.0860494504
21
102.1739078978
31
0.0000000000
0
SPLINE
5
3A9
100
AcDbEntity
8
0
100
AcDbSpline
62
7
6
CONTINUOUS
70
0
71
3
72
9
73
5
74
3
42
0.0000001000
43
0.0000001000
44
0.0000000001
40
0.0000000000
40
0.0000000000
40
0.0000000000
40
0.0000000000
40
0.4980128349
40
1.0000000000
40
1.0000000000
40
1.0000000000
40
1.0000000000
10
308.0860482231
20
102.1739078978
30
0.0000000000
10
308.0830476042
20
102.1983126934
30
0.0000000000
10
308.0757411615
20
102.2471676373
30
0.0000000000
10
308.0659354229
20
102.2955818284
30
0.0000000000
10
308.0604077106
20
102.3197423437
30
0.0000000000
11
308.0860482231
21
102.1739078978
31
0.0000000000
11
308.0751503324
21
102.2468641575
31
0.0000000000
11
308.0604077106
21
102.3197423437
31
0.0000000000
0
SPLINE
5
3AA
100
AcDbEntity
8
0
100
AcDbSpline
62
7
6
CONTINUOUS
70
0
71
3
72
9
73
5
74
3
42
0.0000001000
43
0.0000001000
44
0.0000000001
40
0.0000000000
40
0.0000000000
40
0.0000000000
40
0.0000000000
40
0.4980128349
40
1.0000000000
40
1.0000000000
40
1.0000000000
40
1.0000000000
10
308.0860482231
20
98.8197423437
30
0.0000000000
10
308.0830476042
20
98.7953375481
30
0.0000000000
10
308.0757411615
20
98.7464826043
30
0.0000000000
10
308.0659354229
20
98.6980684131
30
0.0000000000
10
308.0604077106
20
98.6739078978
30
0.0000000000
11
308.0860482231
21
98.8197423437
31
0.0000000000
11
308.0751503324
21
98.7467860840
31
0.0000000000
11
308.0604077106
21
98.6739078978
31
0.0000000000
0
SPLINE
5
3AB
100
AcDbEntity
8
0
100
AcDbSpline
62
7
6
CONTINUOUS
70
0
71
3
72
9
73
5
74
3
42
0.0000001000
43
0.0000001000
44
0.0000000001
40
0.0000000000
40
0.0000000000
40
0.0000000000
40
0.0000000000
40
0.4948884723
40
1.0000000000
40
1.0000000000
40
1.0000000000
40
1.0000000000
10
308.0021006445
20
97.9447423437
30
0.0000000000
10
307.9868556814
20
97.9940177187
30
0.0000000000
10
307.9525964634
20
98.0925461549
30
0.0000000000
10
307.9119205471
20
98.1885931539
30
0.0000000000
10
307.8898916273
20
98.2364078978
30
0.0000000000
11
308.0021006445
21
97.9447423437
31
0.0000000000
11
307.9513751542
21
98.0909311530
31
0.0000000000
11
307.8898916273
21
98.2364078978
31
0.0000000000
0
SPLINE
5
3AC
100
AcDbEntity
8
0
100
AcDbSpline
62
7
6
CONTINUOUS
70
0
71
3
72
9
73
5
74
3
42
0.0000001000
43
0.0000001000
44
0.0000000001
40
0.0000000000
40
0.0000000000
40
0.0000000000
40
0.0000000000
40
0.4994967725
40
1.0000000000
40
1.0000000000
40
1.0000000000
40
1.0000000000
10
307.8898916273
20
98.2364078978
30
0.0000000000
10
307.8718453126
20
98.3098525386
30
0.0000000000
10
307.8334275096
20
98.4563366306
30
0.0000000000
10
307.7905172490
20
98.6015675599
30
0.0000000000
10
307.7679399709
20
98.6739078978
30
0.0000000000
11
307.8898916273
21
98.2364078978
31
0.0000000000
11
307.8323453206
21
98.4558765406
31
0.0000000000
11
307.7679399709
21
98.6739078978
31
0.0000000000
0
SPLINE
5
3AD
100
AcDbEntity
8
0
100
AcDbSpline
62
7
6
CONTINUOUS
70
0
71
3
72
9
73
5
74
3
42
0.0000001000
43
0.0000001000
44
0.0000000001
40
0.0000000000
40
0.0000000000
40
0.0000000000
40
0.0000000000
40
0.6677393885
40
1.0000000000
40
1.0000000000
40
1.0000000000
40
1.0000000000
10
307.7679399709
20
98.6739078978
30
0.0000000000
10
307.7507889018
20
98.7960279470
30
0.0000000000
10
307.7240788137
20
98.9787713079
30
0.0000000000
10
307.6958248353
20
99.1612801435
30
0.0000000000
10
307.6862661714
20
99.2218935520
30
0.0000000000
11
307.7679399709
21
98.6739078978
31
0.0000000000
11
307.7144297626
21
99.0399732579
31
0.0000000000
11
307.6862661714
21
99.2218935520
31
0.0000000000
0
SPLINE
5
3AE
100
AcDbEntity
8
0
100
AcDbSpline
62
7
6
CONTINUOUS
70
0
71
3
72
8
73
4
74
2
42
0.0000001000
43
0.0000001000
44
0.0000000001
40
0.0000000000
40
0.0000000000
40
0.0000000000
40
0.0000000000
40
1.0000000000
40
1.0000000000
40
1.0000000000
40
1.0000000000
10
307.6862661714
20
99.2218935520
30
0.0000000000
10
307.6767379113
20
99.2823141642
30
0.0000000000
10
307.6670397574
20
99.3427078596
30
0.0000000000
10
307.6571711761
20
99.4030734518
30
0.0000000000
11
307.6862661714
21
99.2218935520
31
0.0000000000
11
307.6571711761
21
99.4030734518
31
0.0000000000
0
SPLINE
5
3AF
100
AcDbEntity
8
0
100
AcDbSpline
62
7
6
CONTINUOUS
70
0
71
3
72
9
73
5
74
3
42
0.0000001000
43
0.0000001000
44
0.0000000001
40
0.0000000000
40
0.0000000000
40
0.0000000000
40
0.0000000000
40
0.5005800810
40
1.0000000000
40
1.0000000000
40
1.0000000000
40
1.0000000000
10
307.6571711761
20
99.4030734518
30
0.0000000000
10
307.6505405641
20
99.5247513233
30
0.0000000000
10
307.6371373291
20
99.7678165110
30
0.0000000000
10
307.6234182791
20
100.0108640786
30
0.0000000000
10
307.6164875770
20
100.1322423437
30
0.0000000000
11
307.6571711761
21
99.4030734518
31
0.0000000000
11
307.6370426421
21
99.7680940907
31
0.0000000000
11
307.6164875770
21
100.1322423437
31
0.0000000000
0
SPLINE
5
3B0
100
AcDbEntity
8
0
100
AcDbSpline
62
7
6
CONTINUOUS
70
0
71
3
72
9
73
5
74
3
42
0.0000001000
43
0.0000001000
44
0.0000000001
40
0.0000000000
40
0.0000000000
40
0.0000000000
40
0.0000000000
40
0.5005800807
40
1.0000000000
40
1.0000000000
40
1.0000000000
40
1.0000000000
10
307.6571711761
20
101.5905734518
30
0.0000000000
10
307.6505405641
20
101.4688961374
30
0.0000000000
10
307.6371373291
20
101.2258320622
30
0.0000000000
10
307.6234182791
20
100.9827856073
30
0.0000000000
10
307.6164875770
20
100.8614078978
30
0.0000000000
11
307.6571711761
21
101.5905734518
31
0.0000000000
11
307.6370426421
21
101.2255544839
31
0.0000000000
11
307.6164875770
21
100.8614078978
31
0.0000000000
0
SPLINE
5
3B1
100
AcDbEntity
8
0
100
AcDbSpline
62
7
6
CONTINUOUS
70
0
71
3
72
9
73
5
74
3
42
0.0000001000
43
0.0000001000
44
0.0000000001
40
0.0000000000
40
0.0000000000
40
0.0000000000
40
0.0000000000
40
0.6677393928
40
1.0000000000
40
1.0000000000
40
1.0000000000
40
1.0000000000
10
307.7679399709
20
102.3197423437
30
0.0000000000
10
307.7507889018
20
102.1976217357
30
0.0000000000
10
307.7240788138
20
102.0148775385
30
0.0000000000
10
307.6958248351
20
101.8323678656
30
0.0000000000
10
307.6862661712
20
101.7717541796
30
0.0000000000
11
307.7679399709
21
102.3197423437
31
0.0000000000
11
307.7144297623
21
101.9536753059
31
0.0000000000
11
307.6862661712
21
101.7717541796
31
0.0000000000
0
SPLINE
5
3B2
100
AcDbEntity
8
0
100
AcDbSpline
62
7
6
CONTINUOUS
70
0
71
3
72
8
73
4
74
2
42
0.0000001000
43
0.0000001000
44
0.0000000001
40
0.0000000000
40
0.0000000000
40
0.0000000000
40
0.0000000000
40
1.0000000000
40
1.0000000000
40
1.0000000000
40
1.0000000000
10
307.6862661712
20
101.7717541796
30
0.0000000000
10
307.6767379112
20
101.7113332915
30
0.0000000000
10
307.6670397574
20
101.6509393201
30
0.0000000000
10
307.6571711761
20
101.5905734518
30
0.0000000000
11
307.6862661712
21
101.7717541796
31
0.0000000000
11
307.6571711761
21
101.5905734518
31
0.0000000000
0
SPLINE
5
3B3
100
AcDbEntity
8
0
100
AcDbSpline
62
7
6
CONTINUOUS
70
0
71
3
72
9
73
5
74
3
42
0.0000001000
43
0.0000001000
44
0.0000000001
40
0.0000000000
40
0.0000000000
40
0.0000000000
40
0.0000000000
40
0.4994967725
40
1.0000000000
40
1.0000000000
40
1.0000000000
40
1.0000000000
10
307.8898916273
20
102.7572423437
30
0.0000000000
10
307.8718453126
20
102.6837977030
30
0.0000000000
10
307.8334275096
20
102.5373136109
30
0.0000000000
10
307.7905172490
20
102.3920826816
30
0.0000000000
10
307.7679399709
20
102.3197423437
30
0.0000000000
11
307.8898916273
21
102.7572423437
31
0.0000000000
11
307.8323453206
21
102.5377737009
31
0.0000000000
11
307.7679399709
21
102.3197423437
31
0.0000000000
0
SPLINE
5
3B4
100
AcDbEntity
8
0
100
AcDbSpline
62
7
6
CONTINUOUS
70
0
71
3
72
9
73
5
74
3
42
0.0000001000
43
0.0000001000
44
0.0000000001
40
0.0000000000
40
0.0000000000
40
0.0000000000
40
0.0000000000
40
0.4948884723
40
1.0000000000
40
1.0000000000
40
1.0000000000
40
1.0000000000
10
308.0021006445
20
103.0489078978
30
0.0000000000
10
307.9868556814
20
102.9996325228
30
0.0000000000
10
307.9525964634
20
102.9011040866
30
0.0000000000
10
307.9119205471
20
102.8050570876
30
0.0000000000
10
307.8898916273
20
102.7572423437
30
0.0000000000
11
308.0021006445
21
103.0489078978
31
0.0000000000
11
307.9513751542
21
102.9027190885
31
0.0000000000
11
307.8898916273
21
102.7572423437
31
0.0000000000
0
SPLINE
5
3B5
100
AcDbEntity
8
0
100
AcDbSpline
62
7
6
CONTINUOUS
70
0
71
3
72
9
73
5
74
3
42
0.0000001000
43
0.0000001000
44
0.0000000001
40
0.0000000000
40
0.0000000000
40
0.0000000000
40
0.0000000000
40
0.4698572740
40
1.0000000000
40
1.0000000000
40
1.0000000000
40
1.0000000000
10
308.0860482231
20
103.1947423437
30
0.0000000000
10
308.0787376397
20
103.1692599837
30
0.0000000000
10
308.0554972940
20
103.1171245387
30
0.0000000000
10
308.0216855200
20
103.0715163738
30
0.0000000000
10
308.0021006445
20
103.0489078978
30
0.0000000000
11
308.0860482231
21
103.1947423437
31
0.0000000000
11
308.0545645383
21
103.1217085482
31
0.0000000000
11
308.0021006445
21
103.0489078978
31
0.0000000000
0
SPLINE
5
3B6
100
AcDbEntity
8
0
100
AcDbSpline
62
7
6
CONTINUOUS
70
0
71
3
72
8
73
4
74
2
42
0.0000001000
43
0.0000001000
44
0.0000000001
40
0.0000000000
40
0.0000000000
40
0.0000000000
40
0.0000000000
40
1.0000000000
40
1.0000000000
40
1.0000000000
40
1.0000000000
10
308.0945838155
20
102.4655734518
30
0.0000000000
10
308.0937294317
20
102.3925623713
30
0.0000000000
10
308.0925898442
20
102.3195540700
30
0.0000000000
10
308.0911649446
20
102.2465510593
30
0.0000000000
11
308.0945838155
21
102.4655734518
31
0.0000000000
11
308.0911649446
21
102.2465510593
31
0.0000000000
0
SPLINE
5
3B7
100
AcDbEntity
8
0
100
AcDbSpline
62
7
6
CONTINUOUS
70
0
71
3
72
8
73
4
74
2
42
0.0000001000
43
0.0000001000
44
0.0000000001
40
0.0000000000
40
0.0000000000
40
0.0000000000
40
0.0000000000
40
1.0000000000
40
1.0000000000
40
1.0000000000
40
1.0000000000
10
308.0911649446
20
102.2465510593
30
0.0000000000
10
308.0903309220
20
102.2038209168
30
0.0000000000
10
308.0893991514
20
102.1610925868
30
0.0000000000
10
308.0883696112
20
102.1183665730
30
0.0000000000
11
308.0911649446
21
102.2465510593
31
0.0000000000
11
308.0883696112
21
102.1183665730
31
0.0000000000
0
SPLINE
5
3B8
100
AcDbEntity
8
0
100
AcDbSpline
62
7
6
CONTINUOUS
70
0
71
3
72
8
73
4
74
2
42
0.0000001000
43
0.0000001000
44
0.0000000001
40
0.0000000000
40
0.0000000000
40
0.0000000000
40
0.0000000000
40
1.0000000000
40
1.0000000000
40
1.0000000000
40
1.0000000000
10
308.0911702513
20
98.6739078978
30
0.0000000000
10
308.0901021429
20
98.7347417196
30
0.0000000000
10
308.0888735528
20
98.7955729361
30
0.0000000000
10
308.0874844048
20
98.8564005915
30
0.0000000000
11
308.0911702513
21
98.6739078978
31
0.0000000000
11
308.0874844048
21
98.8564005915
31
0.0000000000
0
SPLINE
5
3B9
100
AcDbEntity
8
0
100
AcDbSpline
62
7
6
CONTINUOUS
70
0
71
3
72
9
73
5
74
3
42
0.0000001000
43
0.0000001000
44
0.0000000001
40
0.0000000000
40
0.0000000000
40
0.0000000000
40
0.0000000000
40
0.4972882857
40
1.0000000000
40
1.0000000000
40
1.0000000000
40
1.0000000000
10
308.0706700056
20
121.4239078978
30
0.0000000000
10
308.0659399741
20
121.3994557664
30
0.0000000000
10
308.0551630325
20
121.3505217021
30
0.0000000000
10
308.0419461902
20
121.3021909470
30
0.0000000000
10
308.0347163955
20
121.2780742863
30
0.0000000000
11
308.0706700056
21
121.4239078978
31
0.0000000000
11
308.0546181037
21
121.3509362882
31
0.0000000000
11
308.0347163955
21
121.2780742863
31
0.0000000000
0
SPLINE
5
3BA
100
AcDbEntity
8
0
100
AcDbSpline
62
7
6
CONTINUOUS
70
0
71
3
72
9
73
5
74
3
42
0.0000001000
43
0.0000001000
44
0.0000000001
40
0.0000000000
40
0.0000000000
40
0.0000000000
40
0.0000000000
40
0.5000769637
40
1.0000000000
40
1.0000000000
40
1.0000000000
40
1.0000000000
10
308.0860482231
20
121.7155742863
30
0.0000000000
10
308.0840544956
20
121.6669282104
30
0.0000000000
10
308.0794976898
20
121.5696735555
30
0.0000000000
10
308.0738018826
20
121.4724789587
30
0.0000000000
10
308.0706700056
20
121.4239078978
30
0.0000000000
11
308.0860482231
21
121.7155742863
31
0.0000000000
11
308.0792121504
21
121.5696736045
31
0.0000000000
11
308.0706700056
21
121.4239078978
31
0.0000000000
0
SPLINE
5
3BB
100
AcDbEntity
8
0
100
AcDbSpline
62
7
6
CONTINUOUS
70
0
71
3
72
9
73
5
74
3
42
0.0000001000
43
0.0000001000
44
0.0000000001
40
0.0000000000
40
0.0000000000
40
0.0000000000
40
0.0000000000
40
0.4998657180
40
1.0000000000
40
1.0000000000
40
1.0000000000
40
1.0000000000
10
308.0911702058
20
122.1530742863
30
0.0000000000
10
308.0904591290
20
122.0801756403
30
0.0000000000
10
308.0888942781
20
121.9343405354
30
0.0000000000
10
308.0870447377
20
121.7885087628
30
0.0000000000
10
308.0860483481
20
121.7155742863
30
0.0000000000
11
308.0911702058
21
122.1530742863
31
0.0000000000
11
308.0888235642
21
121.9343805341
31
0.0000000000
11
308.0860483481
21
121.7155742863
31
0.0000000000
0
SPLINE
5
3BC
100
AcDbEntity
8
0
100
AcDbSpline
62
7
6
CONTINUOUS
70
0
71
3
72
9
73
5
74
3
42
0.0000001000
43
0.0000001000
44
0.0000000001
40
0.0000000000
40
0.0000000000
40
0.0000000000
40
0.0000000000
40
0.5005800808
40
1.0000000000
40
1.0000000000
40
1.0000000000
40
1.0000000000
10
307.6571711761
20
121.5697415093
30
0.0000000000
10
307.6505405641
20
121.6914189630
30
0.0000000000
10
307.6371373291
20
121.9344833163
30
0.0000000000
10
307.6234182791
20
122.1775300494
30
0.0000000000
10
307.6164875770
20
122.2989078978
30
0.0000000000
11
307.6571711761
21
121.5697415093
31
0.0000000000
11
307.6370426421
21
121.9347608949
31
0.0000000000
11
307.6164875770
21
122.2989078978
31
0.0000000000
0
SPLINE
5
3BD
100
AcDbEntity
8
0
100
AcDbSpline
62
7
6
CONTINUOUS
70
0
71
3
72
9
73
5
74
3
42
0.0000001000
43
0.0000001000
44
0.0000000001
40
0.0000000000
40
0.0000000000
40
0.0000000000
40
0.0000000000
40
0.5012310918
40
1.0000000000
40
1.0000000000
40
1.0000000000
40
1.0000000000
10
307.7679399709
20
120.9864078978
30
0.0000000000
10
307.7507862519
20
121.0841192269
30
0.0000000000
10
307.7152119135
20
121.2788271444
30
0.0000000000
10
307.6769357937
20
121.4730220151
30
0.0000000000
10
307.6571711761
20
121.5697415093
30
0.0000000000
11
307.7679399709
21
120.9864078978
31
0.0000000000
11
307.7144455474
21
121.2791776570
31
0.0000000000
11
307.6571711761
21
121.5697415093
31
0.0000000000
0
SPLINE
5
3BE
100
AcDbEntity
8
0
100
AcDbSpline
62
7
6
CONTINUOUS
70
0
71
3
72
9
73
5
74
3
42
0.0000001000
43
0.0000001000
44
0.0000000001
40
0.0000000000
40
0.0000000000
40
0.0000000000
40
0.0000000000
40
0.4994967725
40
1.0000000000
40
1.0000000000
40
1.0000000000
40
1.0000000000
10
307.8898916273
20
120.5489078978
30
0.0000000000
10
307.8718453126
20
120.6223525386
30
0.0000000000
10
307.8334275096
20
120.7688366306
30
0.0000000000
10
307.7905172490
20
120.9140675599
30
0.0000000000
10
307.7679399709
20
120.9864078978
30
0.0000000000
11
307.8898916273
21
120.5489078978
31
0.0000000000
11
307.8323453206
21
120.7683765406
31
0.0000000000
11
307.7679399709
21
120.9864078978
31
0.0000000000
0
SPLINE
5
3BF
100
AcDbEntity
8
0
100
AcDbSpline
62
7
6
CONTINUOUS
70
0
71
3
72
8
73
4
74
2
42
0.0000001000
43
0.0000001000
44
0.0000000001
40
0.0000000000
40
0.0000000000
40
0.0000000000
40
0.0000000000
40
1.0000000000
40
1.0000000000
40
1.0000000000
40
1.0000000000
10
308.0962902615
20
121.2780742863
30
0.0000000000
10
308.0963613586
20
121.2537688023
30
0.0000000000
10
308.0964146811
20
121.2294632599
30
0.0000000000
10
308.0964502293
20
121.2051576882
30
0.0000000000
11
308.0962902615
21
121.2780742863
31
0.0000000000
11
308.0964502293
21
121.2051576882
31
0.0000000000
0
SPLINE
5
3C0
100
AcDbEntity
8
0
100
AcDbSpline
62
7
6
CONTINUOUS
70
0
71
3
72
8
73
4
74
2
42
0.0000001000
43
0.0000001000
44
0.0000000001
40
0.0000000000
40
0.0000000000
40
0.0000000000
40
0.0000000000
40
1.0000000000
40
1.0000000000
40
1.0000000000
40
1.0000000000
10
308.0964502293
20
121.2051576882
30
0.0000000000
10
308.0964857774
20
121.1808521756
30
0.0000000000
10
308.0965035514
20
121.1565466338
30
0.0000000000
10
308.0965035515
20
121.1322410920
30
0.0000000000
11
308.0964502293
21
121.2051576882
31
0.0000000000
11
308.0965035515
21
121.1322410920
31
0.0000000000
0
SPLINE
5
3C1
100
AcDbEntity
8
0
100
AcDbSpline
62
7
6
CONTINUOUS
70
0
71
3
72
9
73
5
74
3
42
0.0000001000
43
0.0000001000
44
0.0000000001
40
0.0000000000
40
0.0000000000
40
0.0000000000
40
0.0000000000
40
0.4953049779
40
1.0000000000
40
1.0000000000
40
1.0000000000
40
1.0000000000
10
307.9625077967
20
120.4030742863
30
0.0000000000
10
307.9516040227
20
120.4276692668
30
0.0000000000
10
307.9284464548
20
120.4768255046
30
0.0000000000
10
307.9031553209
20
120.5249165685
30
0.0000000000
10
307.8898916273
20
120.5489078978
30
0.0000000000
11
307.9625077967
21
120.4030742863
31
0.0000000000
11
307.9281404840
21
120.4761026094
31
0.0000000000
11
307.8898916273
21
120.5489078978
31
0.0000000000
0
SPLINE
5
3C2
100
AcDbEntity
8
0
100
AcDbSpline
62
7
6
CONTINUOUS
70
0
71
3
72
9
73
5
74
3
42
0.0000001000
43
0.0000001000
44
0.0000000001
40
0.0000000000
40
0.0000000000
40
0.0000000000
40
0.0000000000
40
0.4960395254
40
1.0000000000
40
1.0000000000
40
1.0000000000
40
1.0000000000
10
308.0192770904
20
102.3197423437
30
0.0000000000
10
308.0110454511
20
102.2952033359
30
0.0000000000
10
307.9932447317
20
102.2461307040
30
0.0000000000
10
307.9731653215
20
102.1979475722
30
0.0000000000
10
307.9625077967
20
102.1739078978
30
0.0000000000
11
308.0192770904
21
102.3197423437
31
0.0000000000
11
307.9928250466
21
102.2467382719
31
0.0000000000
11
307.9625077967
21
102.1739078978
31
0.0000000000
0
SPLINE
5
3C3
100
AcDbEntity
8
0
100
AcDbSpline
62
7
6
CONTINUOUS
70
0
71
3
72
8
73
4
74
2
42
0.0000001000
43
0.0000001000
44
0.0000000001
40
0.0000000000
40
0.0000000000
40
0.0000000000
40
0.0000000000
40
1.0000000000
40
1.0000000000
40
1.0000000000
40
1.0000000000
10
307.9625077967
20
102.1739078978
30
0.0000000000
10
307.9516802014
20
102.1250618794
30
0.0000000000
10
307.9402168026
20
102.0763546786
30
0.0000000000
10
307.9281283111
20
102.0278031958
30
0.0000000000
11
307.9625077967
21
102.1739078978
31
0.0000000000
11
307.9281283111
21
102.0278031958
31
0.0000000000
0
SPLINE
5
3C4
100
AcDbEntity
8
0
100
AcDbSpline
62
7
6
CONTINUOUS
70
0
71
3
72
8
73
4
74
2
42
0.0000001000
43
0.0000001000
44
0.0000000001
40
0.0000000000
40
0.0000000000
40
0.0000000000
40
0.0000000000
40
1.0000000000
40
1.0000000000
40
1.0000000000
40
1.0000000000
10
307.9281283111
20
102.0278031958
30
0.0000000000
10
307.9160072732
20
101.9791209954
30
0.0000000000
10
307.9032577721
20
101.9305953526
30
0.0000000000
10
307.8898916273
20
101.8822423437
30
0.0000000000
11
307.9281283111
21
102.0278031958
31
0.0000000000
11
307.8898916273
21
101.8822423437
31
0.0000000000
0
SPLINE
5
3C5
100
AcDbEntity
8
0
100
AcDbSpline
62
7
6
CONTINUOUS
70
0
71
3
72
9
73
5
74
3
42
0.0000001000
43
0.0000001000
44
0.0000000001
40
0.0000000000
40
0.0000000000
40
0.0000000000
40
0.0000000000
40
0.5007472115
40
1.0000000000
40
1.0000000000
40
1.0000000000
40
1.0000000000
10
307.8898916273
20
101.8822423437
30
0.0000000000
10
307.8809106552
20
101.8091410668
30
0.0000000000
10
307.8623854484
20
101.6632285579
30
0.0000000000
10
307.8426791524
20
101.5174708608
30
0.0000000000
10
307.8325456273
20
101.4447423437
30
0.0000000000
11
307.8898916273
21
101.8822423437
31
0.0000000000
11
307.8620616084
21
101.6630493216
31
0.0000000000
11
307.8325456273
21
101.4447423437
31
0.0000000000
0
SPLINE
5
3C6
100
AcDbEntity
8
0
100
AcDbSpline
62
7
6
CONTINUOUS
70
0
71
3
72
8
73
4
74
2
42
0.0000001000
43
0.0000001000
44
0.0000000001
40
0.0000000000
40
0.0000000000
40
0.0000000000
40
0.0000000000
40
1.0000000000
40
1.0000000000
40
1.0000000000
40
1.0000000000
10
307.8325456273
20
101.4447423437
30
0.0000000000
10
307.8300022195
20
101.4082341644
30
0.0000000000
10
307.8274399492
20
101.3717272941
30
0.0000000000
10
307.8248587875
20
101.3352217572
30
0.0000000000
11
307.8325456273
21
101.4447423437
31
0.0000000000
11
307.8248587875
21
101.3352217572
31
0.0000000000
0
SPLINE
5
3C7
100
AcDbEntity
8
0
100
AcDbSpline
62
7
6
CONTINUOUS
70
0
71
3
72
9
73
5
74
3
42
0.0000001000
43
0.0000001000
44
0.0000000001
40
0.0000000000
40
0.0000000000
40
0.0000000000
40
0.0000000000
40
0.3336043360
40
1.0000000000
40
1.0000000000
40
1.0000000000
40
1.0000000000
10
307.8248587875
20
101.3352217572
30
0.0000000000
10
307.8222797251
20
101.2987459099
30
0.0000000000
10
307.8144922872
20
101.1894112513
30
0.0000000000
10
307.8065351213
20
101.0800887697
30
0.0000000000
10
307.8011568908
20
101.0072423437
30
0.0000000000
11
307.8248587875
21
101.3352217572
31
0.0000000000
11
307.8170649896
21
101.2257982327
31
0.0000000000
11
307.8011568908
21
101.0072423437
31
0.0000000000
0
SPLINE
5
3C8
100
AcDbEntity
8
0
100
AcDbSpline
62
7
6
CONTINUOUS
70
0
71
3
72
8
73
4
74
2
42
0.0000001000
43
0.0000001000
44
0.0000000001
40
0.0000000000
40
0.0000000000
40
0.0000000000
40
0.0000000000
40
1.0000000000
40
1.0000000000
40
1.0000000000
40
1.0000000000
10
307.8325456273
20
99.5489078978
30
0.0000000000
10
307.8300022195
20
99.5854160772
30
0.0000000000
10
307.8274399492
20
99.6219229474
30
0.0000000000
10
307.8248587875
20
99.6584284843
30
0.0000000000
11
307.8325456273
21
99.5489078978
31
0.0000000000
11
307.8248587875
21
99.6584284843
31
0.0000000000
0
SPLINE
5
3C9
100
AcDbEntity
8
0
100
AcDbSpline
62
7
6
CONTINUOUS
70
0
71
3
72
9
73
5
74
3
42
0.0000001000
43
0.0000001000
44
0.0000000001
40
0.0000000000
40
0.0000000000
40
0.0000000000
40
0.0000000000
40
0.3336043360
40
1.0000000000
40
1.0000000000
40
1.0000000000
40
1.0000000000
10
307.8248587875
20
99.6584284843
30
0.0000000000
10
307.8222797251
20
99.6949043316
30
0.0000000000
10
307.8144922872
20
99.8042389902
30
0.0000000000
10
307.8065351213
20
99.9135614718
30
0.0000000000
10
307.8011568908
20
99.9864078978
30
0.0000000000
11
307.8248587875
21
99.6584284843
31
0.0000000000
11
307.8170649896
21
99.7678520088
31
0.0000000000
11
307.8011568908
21
99.9864078978
31
0.0000000000
0
SPLINE
5
3CA
100
AcDbEntity
8
0
100
AcDbSpline
62
7
6
CONTINUOUS
70
0
71
3
72
9
73
5
74
3
42
0.0000001000
43
0.0000001000
44
0.0000000001
40
0.0000000000
40
0.0000000000
40
0.0000000000
40
0.0000000000
40
0.5007472115
40
1.0000000000
40
1.0000000000
40
1.0000000000
40
1.0000000000
10
307.8898916273
20
99.1114078978
30
0.0000000000
10
307.8809106552
20
99.1845091747
30
0.0000000000
10
307.8623854484
20
99.3304216836
30
0.0000000000
10
307.8426791524
20
99.4761793807
30
0.0000000000
10
307.8325456273
20
99.5489078978
30
0.0000000000
11
307.8898916273
21
99.1114078978
31
0.0000000000
11
307.8620616084
21
99.3306009199
31
0.0000000000
11
307.8325456273
21
99.5489078978
31
0.0000000000
0
SPLINE
5
3CB
100
AcDbEntity
8
0
100
AcDbSpline
62
7
6
CONTINUOUS
70
0
71
3
72
8
73
4
74
2
42
0.0000001000
43
0.0000001000
44
0.0000000001
40
0.0000000000
40
0.0000000000
40
0.0000000000
40
0.0000000000
40
1.0000000000
40
1.0000000000
40
1.0000000000
40
1.0000000000
10
307.9625077967
20
98.8197423437
30
0.0000000000
10
307.9516802014
20
98.8685883621
30
0.0000000000
10
307.9402168026
20
98.9172955629
30
0.0000000000
10
307.9281283111
20
98.9658470457
30
0.0000000000
11
307.9625077967
21
98.8197423437
31
0.0000000000
11
307.9281283111
21
98.9658470457
31
0.0000000000
0
SPLINE
5
3CC
100
AcDbEntity
8
0
100
AcDbSpline
62
7
6
CONTINUOUS
70
0
71
3
72
8
73
4
74
2
42
0.0000001000
43
0.0000001000
44
0.0000000001
40
0.0000000000
40
0.0000000000
40
0.0000000000
40
0.0000000000
40
1.0000000000
40
1.0000000000
40
1.0000000000
40
1.0000000000
10
307.9281283111
20
98.9658470457
30
0.0000000000
10
307.9160072732
20
99.0145292461
30
0.0000000000
10
307.9032577721
20
99.0630548889
30
0.0000000000
10
307.8898916273
20
99.1114078978
30
0.0000000000
11
307.9281283111
21
98.9658470457
31
0.0000000000
11
307.8898916273
21
99.1114078978
31
0.0000000000
0
SPLINE
5
3CD
100
AcDbEntity
8
0
100
AcDbSpline
62
7
6
CONTINUOUS
70
0
71
3
72
9
73
5
74
3
42
0.0000001000
43
0.0000001000
44
0.0000000001
40
0.0000000000
40
0.0000000000
40
0.0000000000
40
0.0000000000
40
0.4960395254
40
1.0000000000
40
1.0000000000
40
1.0000000000
40
1.0000000000
10
308.0192770904
20
98.6739078978
30
0.0000000000
10
308.0110454511
20
98.6984469056
30
0.0000000000
10
307.9932447317
20
98.7475195376
30
0.0000000000
10
307.9731653215
20
98.7957026693
30
0.0000000000
10
307.9625077967
20
98.8197423437
30
0.0000000000
11
308.0192770904
21
98.6739078978
31
0.0000000000
11
307.9928250466
21
98.7469119696
31
0.0000000000
11
307.9625077967
21
98.8197423437
31
0.0000000000
0
SPLINE
5
3CE
100
AcDbEntity
8
0
100
AcDbSpline
62
7
6
CONTINUOUS
70
0
71
3
72
9
73
5
74
3
42
0.0000001000
43
0.0000001000
44
0.0000000001
40
0.0000000000
40
0.0000000000
40
0.0000000000
40
0.0000000000
40
0.7937779232
40
1.0000000000
40
1.0000000000
40
1.0000000000
40
1.0000000000
10
307.8325456273
20
129.8822413007
30
0.0000000000
10
307.9589730163
20
130.0887974875
30
0.0000000000
10
308.0776447341
20
130.3827219706
30
0.0000000000
10
308.0958942719
20
130.6899989615
30
0.0000000000
10
308.0956014434
20
130.7534163214
30
0.0000000000
11
307.8325456273
21
129.8822413007
31
0.0000000000
11
308.0840966480
21
130.5638322124
31
0.0000000000
11
308.0956014434
21
130.7534163214
31
0.0000000000
0
SPLINE
5
3CF
100
AcDbEntity
8
0
100
AcDbSpline
62
7
6
CONTINUOUS
70
0
71
3
72
8
73
4
74
2
42
0.0000001000
43
0.0000001000
44
0.0000000001
40
0.0000000000
40
0.0000000000
40
0.0000000000
40
0.0000000000
40
1.0000000000
40
1.0000000000
40
1.0000000000
40
1.0000000000
10
308.0962902615
20
98.2364078978
30
0.0000000000
10
308.0959343552
20
98.2120737192
30
0.0000000000
10
308.0951322492
20
98.1877420203
30
0.0000000000
10
308.0938867873
20
98.1634310070
30
0.0000000000
11
308.0962902615
21
98.2364078978
31
0.0000000000
11
308.0938867873
21
98.1634310070
31
0.0000000000
0
SPLINE
5
3D0
100
AcDbEntity
8
0
100
AcDbSpline
62
7
6
CONTINUOUS
70
0
71
3
72
9
73
5
74
3
42
0.0000001000
43
0.0000001000
44
0.0000000001
40
0.0000000000
40
0.0000000000
40
0.0000000000
40
0.0000000000
40
0.4993384973
40
1.0000000000
40
1.0000000000
40
1.0000000000
40
1.0000000000
10
308.0938867873
20
98.1634310070
30
0.0000000000
10
308.0926398911
20
98.1390919947
30
0.0000000000
10
308.0892528624
20
98.0903910050
30
0.0000000000
10
308.0840950567
20
98.0418464387
30
0.0000000000
10
308.0810762722
20
98.0175982910
30
0.0000000000
11
308.0938867873
21
98.1634310070
31
0.0000000000
11
308.0888158198
21
98.0904944391
31
0.0000000000
11
308.0810762722
21
98.0175982910
31
0.0000000000
0
SPLINE
5
3D1
100
AcDbEntity
8
0
100
AcDbSpline
62
7
6
CONTINUOUS
70
0
71
3
72
8
73
4
74
2
42
0.0000001000
43
0.0000001000
44
0.0000000001
40
0.0000000000
40
0.0000000000
40
0.0000000000
40
0.0000000000
40
1.0000000000
40
1.0000000000
40
1.0000000000
40
1.0000000000
10
308.0810762722
20
98.0175982910
30
0.0000000000
10
308.0780450844
20
97.9932505145
30
0.0000000000
10
308.0745738328
20
97.9689594490
30
0.0000000000
10
308.0706700056
20
97.9447423437
30
0.0000000000
11
308.0810762722
21
98.0175982910
31
0.0000000000
11
308.0706700056
21
97.9447423437
31
0.0000000000
0
SPLINE
5
3D2
100
AcDbEntity
8
0
100
AcDbSpline
62
7
6
CONTINUOUS
70
0
71
3
72
9
73
5
74
3
42
0.0000001000
43
0.0000001000
44
0.0000000001
40
0.0000000000
40
0.0000000000
40
0.0000000000
40
0.0000000000
40
0.5003823275
40
1.0000000000
40
1.0000000000
40
1.0000000000
40
1.0000000000
10
307.8621196778
20
121.7155742863
30
0.0000000000
10
307.8573368711
20
121.7885567307
30
0.0000000000
10
307.8476288830
20
121.9344003216
30
0.0000000000
10
307.8376208986
20
122.0802236340
30
0.0000000000
10
307.8325456273
20
122.1530742863
30
0.0000000000
11
307.8621196778
21
121.7155742863
31
0.0000000000
11
307.8475463459
21
121.9345067643
31
0.0000000000
11
307.8325456273
21
122.1530742863
31
0.0000000000
0
SPLINE
5
3D3
100
AcDbEntity
8
0
100
AcDbSpline
62
7
6
CONTINUOUS
70
0
71
3
72
9
73
5
74
3
42
0.0000001000
43
0.0000001000
44
0.0000000001
40
0.0000000000
40
0.0000000000
40
0.0000000000
40
0.0000000000
40
0.5002690568
40
1.0000000000
40
1.0000000000
40
1.0000000000
40
1.0000000000
10
307.9158732055
20
121.4239078978
30
0.0000000000
10
307.9074874800
20
121.4726489888
30
0.0000000000
10
307.8901460159
20
121.5699800079
30
0.0000000000
10
307.8716501255
20
121.6670982547
30
0.0000000000
10
307.8621196778
20
121.7155742863
30
0.0000000000
11
307.9158732055
21
121.4239078978
31
0.0000000000
11
307.8898477670
21
121.5699791327
31
0.0000000000
11
307.8621196778
21
121.7155742863
31
0.0000000000
0
SPLINE
5
3D4
100
AcDbEntity
8
0
100
AcDbSpline
62
7
6
CONTINUOUS
70
0
71
3
72
9
73
5
74
3
42
0.0000001000
43
0.0000001000
44
0.0000000001
40
0.0000000000
40
0.0000000000
40
0.0000000000
40
0.0000000000
40
0.4955299440
40
1.0000000000
40
1.0000000000
40
1.0000000000
40
1.0000000000
10
307.9831801114
20
121.2780742863
30
0.0000000000
10
307.9731719805
20
121.3026514707
30
0.0000000000
10
307.9518096316
20
121.3517816523
30
0.0000000000
10
307.9282638503
20
121.3999014088
30
0.0000000000
10
307.9158732055
20
121.4239078978
30
0.0000000000
11
307.9831801114
21
121.2780742863
31
0.0000000000
11
307.9514644717
21
121.3510943132
31
0.0000000000
11
307.9158732055
21
121.4239078978
31
0.0000000000
0
SPLINE
5
3D5
100
AcDbEntity
8
0
100
AcDbSpline
62
7
6
CONTINUOUS
70
0
71
3
72
8
73
4
74
2
42
0.0000001000
43
0.0000001000
44
0.0000000001
40
0.0000000000
40
0.0000000000
40
0.0000000000
40
0.0000000000
40
1.0000000000
40
1.0000000000
40
1.0000000000
40
1.0000000000
10
308.0965035515
20
121.1322410920
30
0.0000000000
10
308.0965035517
20
121.0836299493
30
0.0000000000
10
308.0964324562
20
121.0350188066
30
0.0000000000
10
308.0962902622
20
120.9864078978
30
0.0000000000
11
308.0965035515
21
121.1322410920
31
0.0000000000
11
308.0962902622
21
120.9864078978
31
0.0000000000
0
SPLINE
5
3D6
100
AcDbEntity
8
0
100
AcDbSpline
62
7
6
CONTINUOUS
70
0
71
3
72
9
73
5
74
3
42
0.0000001000
43
0.0000001000
44
0.0000000001
40
0.0000000000
40
0.0000000000
40
0.0000000000
40
0.0000000000
40
0.2062220768
40
1.0000000000
40
1.0000000000
40
1.0000000000
40
1.0000000000
10
308.0956014434
20
129.0110662800
30
0.0000000000
10
308.0958942719
20
129.0744836398
30
0.0000000000
10
308.0776447341
20
129.3817606307
30
0.0000000000
10
307.9589730163
20
129.6756851138
30
0.0000000000
10
307.8325456273
20
129.8822413007
30
0.0000000000
11
308.0956014434
21
129.0110662800
31
0.0000000000
11
308.0840966480
21
129.2006503889
31
0.0000000000
11
307.8325456273
21
129.8822413007
31
0.0000000000
0
SPLINE
5
3D7
100
AcDbEntity
8
0
100
AcDbSpline
62
7
6
CONTINUOUS
70
0
71
3
72
8
73
4
74
2
42
0.0000001000
43
0.0000001000
44
0.0000000001
40
0.0000000000
40
0.0000000000
40
0.0000000000
40
0.0000000000
40
1.0000000000
40
1.0000000000
40
1.0000000000
40
1.0000000000
10
308.0962902615
20
120.9864078978
30
0.0000000000
10
308.0960056569
20
120.9499219267
30
0.0000000000
10
308.0954361645
20
120.9134370667
30
0.0000000000
10
308.0945820194
20
120.8769583165
30
0.0000000000
11
308.0962902615
21
120.9864078978
31
0.0000000000
11
308.0945820194
21
120.8769583165
31
0.0000000000
0
SPLINE
5
3D8
100
AcDbEntity
8
0
100
AcDbSpline
62
7
6
CONTINUOUS
70
0
71
3
72
9
73
5
74
3
42
0.0000001000
43
0.0000001000
44
0.0000000001
40
0.0000000000
40
0.0000000000
40
0.0000000000
40
0.0000000000
40
0.4999614237
40
1.0000000000
40
1.0000000000
40
1.0000000000
40
1.0000000000
10
308.0945820194
20
120.8769583165
30
0.0000000000
10
308.0937279763
20
120.8404839261
30
0.0000000000
10
308.0914505451
20
120.7675417342
30
0.0000000000
10
308.0880355396
20
120.6946439707
30
0.0000000000
10
308.0860440991
20
120.6582083406
30
0.0000000000
11
308.0945820194
21
120.8769583165
31
0.0000000000
11
308.0911663711
21
120.7675584673
31
0.0000000000
11
308.0860440991
21
120.6582083406
31
0.0000000000
0
SPLINE
5
3D9
100
AcDbEntity
8
0
100
AcDbSpline
62
7
6
CONTINUOUS
70
0
71
3
72
8
73
4
74
2
42
0.0000001000
43
0.0000001000
44
0.0000000001
40
0.0000000000
40
0.0000000000
40
0.0000000000
40
0.0000000000
40
1.0000000000
40
1.0000000000
40
1.0000000000
40
1.0000000000
10
308.0860440991
20
120.6582083406
30
0.0000000000
10
308.0840518070
20
120.6217571284
30
0.0000000000
10
308.0817754660
20
120.5853219936
30
0.0000000000
10
308.0792157086
20
120.5489078978
30
0.0000000000
11
308.0860440991
21
120.6582083406
31
0.0000000000
11
308.0792157086
21
120.5489078978
31
0.0000000000
0
SPLINE
5
3DA
100
AcDbEntity
8
0
100
AcDbSpline
62
7
6
CONTINUOUS
70
0
71
3
72
9
73
5
74
3
42
0.0000001000
43
0.0000001000
44
0.0000000001
40
0.0000000000
40
0.0000000000
40
0.0000000000
40
0.0000000000
40
0.6651716071
40
1.0000000000
40
1.0000000000
40
1.0000000000
40
1.0000000000
10
308.0792157086
20
120.5489078978
30
0.0000000000
10
308.0753519415
20
120.5244792310
30
0.0000000000
10
308.0685897293
20
120.4878986941
30
0.0000000000
10
308.0604440685
20
120.4516111291
30
0.0000000000
10
308.0575650323
20
120.4394975396
30
0.0000000000
11
308.0792157086
21
120.5489078978
31
0.0000000000
11
308.0657437670
21
120.4759441883
31
0.0000000000
11
308.0575650323
21
120.4394975396
31
0.0000000000
0
SPLINE
5
3DB
100
AcDbEntity
8
0
100
AcDbSpline
62
7
6
CONTINUOUS
70
0
71
3
72
8
73
4
74
2
42
0.0000001000
43
0.0000001000
44
0.0000000001
40
0.0000000000
40
0.0000000000
40
0.0000000000
40
0.0000000000
40
1.0000000000
40
1.0000000000
40
1.0000000000
40
1.0000000000
10
308.0575650323
20
120.4394975396
30
0.0000000000
10
308.0546703922
20
120.4273182965
30
0.0000000000
10
308.0516224663
20
120.4151759679
30
0.0000000000
10
308.0484247719
20
120.4030742863
30
0.0000000000
11
308.0575650323
21
120.4394975396
31
0.0000000000
11
308.0484247719
21
120.4030742863
31
0.0000000000
0
SPLINE
5
3DC
100
AcDbEntity
8
0
100
AcDbSpline
62
7
6
CONTINUOUS
70
0
71
3
72
10
73
6
74
4
42
0.0000001000
43
0.0000001000
44
0.0000000001
40
0.0000000000
40
0.0000000000
40
0.0000000000
40
0.0000000000
40
0.3628857360
40
0.6938906325
40
1.0000000000
40
1.0000000000
40
1.0000000000
40
1.0000000000
10
274.0062214291
20
250.2989078978
30
0.0000000000
10
275.3519975390
20
249.3817353622
30
0.0000000000
10
278.0184425326
20
247.7586670545
30
0.0000000000
10
282.0939293028
20
245.8594485404
30
0.0000000000
10
284.8111307408
20
244.9466390210
30
0.0000000000
10
286.1365035515
20
244.5851432223
30
0.0000000000
11
274.0062214291
21
250.2989078978
31
0.0000000000
11
278.1851219790
21
247.7675724052
31
0.0000000000
11
282.2279566681
21
245.8923891658
31
0.0000000000
11
286.1365035515
21
244.5851432223
31
0.0000000000
0
SPLINE
5
3DD
100
AcDbEntity
8
0
100
AcDbSpline
62
7
6
CONTINUOUS
70
0
71
3
72
10
73
6
74
4
42
0.0000001000
43
0.0000001000
44
0.0000000001
40
0.0000000000
40
0.0000000000
40
0.0000000000
40
0.0000000000
40
0.3060941155
40
0.6370937312
40
1.0000000000
40
1.0000000000
40
1.0000000000
40
1.0000000000
10
304.0565035515
20
244.5851432223
30
0.0000000000
10
305.3818103221
20
244.9466210085
30
0.0000000000
10
308.0989261580
20
245.8593930336
30
0.0000000000
10
312.1744242395
20
247.7585867307
30
0.0000000000
10
314.8409334204
20
249.3816834689
30
0.0000000000
10
316.1867856738
20
250.2989078978
30
0.0000000000
11
304.0565035515
21
244.5851432223
31
0.0000000000
11
307.9648592776
21
245.8923132777
31
0.0000000000
11
312.0076406927
21
247.7674423746
31
0.0000000000
11
316.1867856738
21
250.2989078978
31
0.0000000000
0
ENDSEC
0
SECTION
2
OBJECTS
0
DICTIONARY
5
3DE
100
AcDbDictionary
3
ACAD_GROUP
350
3DF
3
ACAD_MLINESTYLE
350
3E0
0
DICTIONARY
5
3DF
102
{ACAD_REACTORS
330
3DE
102
}
100
AcDbDictionary
0
DICTIONARY
5
3E0
102
{ACAD_REACTORS
330
3DE
102
}
100
AcDbDictionary
3
STANDARD
350
3E1
0
MLINESTYLE
5
3E1
102
{ACAD_REACTORS
330
3E0
102
}
100
AcDbMlineStyle
2
STANDARD
70
0
3

62
256
51
90.0
52
90.0
71
2
49
0.5
62
256
6
BYLAYER
49
-0.5
62
256
6
BYLAYER
0
ENDSEC
0
EOF
