999
DXF file: C:\Aktuell-Internet\CAD-Daten\2vb1-13.dxf
999
Pro/ENGINEER 2001400 by Parametric Technology Corporation
0
SECTION
2
HEADER
9
$ACADVER
1
AC1014
9
$EXTMAX
10
420.0000000000
20
297.0000000000
9
$EXTMIN
10
0.0000000000
20
0.0000000000
9
$LIMMIN
10
0.0000000000
20
0.0000000000
9
$LIMMAX
10
420.0000000000
20
297.0000000000
9
$VIEWCTR
10
210.0000000000
20
148.5000000000
9
$VIEWSIZE
40
297.0000000000
9
$CLAYER
8
0
9
$LTSCALE
40
23.1000000000
9
$CELTYPE
6
BYLAYER
9
$DIMSCALE
40
1
9
$DIMASZ
40
3.5000000000
9
$DIMEXO
40
2.6250000000
9
$DIMDLI
40
15.9600000000
9
$DIMEXE
40
7.5600000000
9
$DIMCEN
40
3.7800000000
9
$DIMLFAC
40
1.0000000000
9
$DIMTXT
40
3.5000000000
9
$DIMTOL
70
1
9
$DIMTFAC
40
0.6000000000
9
$DIMTP
40
0.0050000000
9
$DIMTM
40
0.0050000000
9
$HANDSEED
5
3D6
0
ENDSEC
0
SECTION
2
CLASSES
0
ENDSEC
0
SECTION
2
TABLES
0
TABLE
2
VPORT
5
8
100
AcDbSymbolTable
70
2
0
VPORT
5
1F4
100
AcDbSymbolTableRecord
100
AcDbViewportTableRecord
2
*ACTIVE
70
0
10
0.0
20
0.0
11
1.0
21
1.0
12
210.0000000000
22
148.5000000000
13
0.0
23
0.0
14
1.0
24
1.0
15
0.0
25
0.0
16
0.0
26
0.0
36
1.0
17
0.0
27
0.0
37
0.0
40
297.0000000000
41
1.4141414141
42
50.0
43
0.0
44
0.0
50
0.0
51
0.0
71
0
72
100
73
1
74
1
75
0
76
0
77
0
78
0
0
ENDTAB
0
TABLE
2
LTYPE
5
5
100
AcDbSymbolTable
70
6
0
LTYPE
5
14
100
AcDbSymbolTableRecord
100
AcDbLinetypeTableRecord
2
BYBLOCK
70
0
3

72
65
73
0
40
0.0
0
LTYPE
5
15
100
AcDbSymbolTableRecord
100
AcDbLinetypeTableRecord
2
BYLAYER
70
0
3

72
65
73
0
40
0.0
0
LTYPE
5
16
100
AcDbSymbolTableRecord
100
AcDbLinetypeTableRecord
2
CONTINUOUS
70
64
3
Solid line
72
65
73
0
40
0
0
LTYPE
5
1F5
100
AcDbSymbolTableRecord
100
AcDbLinetypeTableRecord
2
CENTER
70
64
3
____ _ ____ _ ____ _ ____ _ ____ _ ____ _ ____
72
65
73
4
40
0.6
49
0.375
74
0
49
-0.075
74
0
49
0.075
74
0
49
-0.075
74
0
0
LTYPE
5
1F6
100
AcDbSymbolTableRecord
100
AcDbLinetypeTableRecord
2
HIDDEN
70
64
3
- - - - - - - - - - - - - - - - - - - -
72
65
73
2
40
0.2
49
0.1
74
0
49
-0.1
74
0
0
LTYPE
5
1F7
100
AcDbSymbolTableRecord
100
AcDbLinetypeTableRecord
2
PHANTOM
70
64
3
_____ _ _ _____ _ _ _____ _ _ _____
72
65
73
6
40
0.8
49
0.45
74
0
49
-0.05
74
0
49
0.1
74
0
49
-0.05
74
0
49
0.1
74
0
49
-0.05
74
0
0
LTYPE
5
1F8
100
AcDbSymbolTableRecord
100
AcDbLinetypeTableRecord
2
DOT
70
64
3
. . . . . . . . . . . . . . . . . . . .
72
65
73
2
40
0.2
49
0.1
74
0
49
-0.1
74
0
0
LTYPE
5
1F9
100
AcDbSymbolTableRecord
100
AcDbLinetypeTableRecord
2
DASHED
70
64
3
- - - - - - - - - - - - - - - - - - - -
72
65
73
2
40
0.2
49
0.1
74
0
49
-0.1
74
0
0
ENDTAB
0
TABLE
2
LAYER
5
2
100
AcDbSymbolTable
70
36
0
LAYER
5
10
100
AcDbSymbolTableRecord
100
AcDbLayerTableRecord
2
0
70
0
62
7
6
CONTINUOUS
0
LAYER
5
1FA
100
AcDbSymbolTableRecord
100
AcDbLayerTableRecord
2
DEFAULT_1
70
0
62
7
6
CENTER
0
LAYER
5
1FB
100
AcDbSymbolTableRecord
100
AcDbLayerTableRecord
2
DEFAULT_2
70
0
62
8
6
HIDDEN
0
LAYER
5
1FC
100
AcDbSymbolTableRecord
100
AcDbLayerTableRecord
2
DEFAULT_3
70
0
62
7
6
PHANTOM
0
ENDTAB
0
TABLE
2
STYLE
5
3
100
AcDbSymbolTable
70
1
0
STYLE
5
11
100
AcDbSymbolTableRecord
100
AcDbTextStyleTableRecord
2
STANDARD
70
0
40
0.0
41
1.0
50
0.0
71
0
42
0.0
3
txt
4

0
STYLE
5
1FD
100
AcDbSymbolTableRecord
100
AcDbTextStyleTableRecord
2
TEXTSTYLE_0
70
0
40
0.0
41
0.80
50
0.0
71
0
42
0.2
3
txt
4

0
ENDTAB
0
TABLE
2
VIEW
5
6
100
AcDbSymbolTable
70
0
0
ENDTAB
0
TABLE
2
UCS
5
7
100
AcDbSymbolTable
70
0
0
ENDTAB
0
TABLE
2
APPID
5
9
100
AcDbSymbolTable
70
1
0
APPID
5
1FE
100
AcDbSymbolTableRecord
100
AcDbRegAppTableRecord
2
ACAD
70
0
0
ENDTAB
0
TABLE
2
DIMSTYLE
5
A
100
AcDbSymbolTable
70
1
0
DIMSTYLE
105
1FF
100
AcDbSymbolTableRecord
100
AcDbDimStyleTableRecord
2
STANDARD
70
0
3

4

5

6

7

40
1.0
41
0.18
42
0.0625
43
0.38
44
0.18
45
0.0
46
0.0
47
0.0050000000
48
0.0050000000
140
3.5000000000
141
0.09
142
0.0
143
25.4
144
1.0000000000
145
0.0
146
0.6000000000
147
0.09
71
1
72
0
73
1
74
1
75
0
76
0
77
0
78
0
170
0
171
2
172
0
173
0
174
0
175
0
176
0
177
0
178
0
270
2
271
3
272
4
273
2
274
2
340
11
275
0
280
0
281
0
282
0
283
1
284
0
285
0
286
0
287
3
288
0
0
ENDTAB
0
TABLE
2
BLOCK_RECORD
5
1
100
AcDbSymbolTable
70
0
0
BLOCK_RECORD
5
1B
100
AcDbSymbolTableRecord
100
AcDbBlockTableRecord
2
*MODEL_SPACE
0
BLOCK_RECORD
5
1C
100
AcDbSymbolTableRecord
100
AcDbBlockTableRecord
2
*PAPER_SPACE
0
ENDTAB
0
ENDSEC
0
SECTION
2
BLOCKS
0
BLOCK
5
1E
100
AcDbEntity
8
0
100
AcDbBlockBegin
2
*MODEL_SPACE
70
0
10
0.0
20
0.0
30
0.0
3
*MODEL_SPACE
1

0
ENDBLK
5
1F
100
AcDbEntity
8
0
100
AcDbBlockEnd
0
BLOCK
5
20
100
AcDbEntity
8
0
100
AcDbBlockBegin
2
*PAPER_SPACE
70
0
10
0.0
20
0.0
30
0.0
3
*PAPER_SPACE
1

0
ENDBLK
5
21
100
AcDbEntity
8
0
100
AcDbBlockEnd
0
ENDSEC
0
SECTION
2
ENTITIES
0
TEXT
5
200
100
AcDbEntity
8
0
100
AcDbText
62
2
6
CONTINUOUS
10
353.6962904113
20
90.5656496154
7
TEXTSTYLE_0
40
6.0000000000
1
VB 1-13
50
90.0000000000
72
5
11
353.6962904113
21
120.4227921878
100
AcDbText
0
LINE
5
201
100
AcDbEntity
8
0
100
AcDbLine
62
7
6
CONTINUOUS
10
0.0000000000
20
0.0000000000
11
0.0000000000
21
297.0000000000
0
LINE
5
202
100
AcDbEntity
8
0
100
AcDbLine
62
7
6
CONTINUOUS
10
0.0000000000
20
0.0000000000
11
420.0000000000
21
0.0000000000
0
LINE
5
203
100
AcDbEntity
8
0
100
AcDbLine
62
7
6
CONTINUOUS
10
0.0000000000
20
297.0000000000
11
420.0000000000
21
297.0000000000
0
LINE
5
204
100
AcDbEntity
8
0
100
AcDbLine
62
7
6
CONTINUOUS
10
420.0000000000
20
0.0000000000
11
420.0000000000
21
297.0000000000
0
LINE
5
205
100
AcDbEntity
8
0
100
AcDbLine
62
7
6
CONTINUOUS
10
167.2872593878
20
100.1456922215
11
166.9042807101
21
100.3956941289
0
LINE
5
206
100
AcDbEntity
8
0
100
AcDbLine
62
7
6
CONTINUOUS
10
167.4149190365
20
100.7706941289
11
167.1595998286
21
101.0206931752
0
LINE
5
207
100
AcDbEntity
8
0
100
AcDbLine
62
7
6
CONTINUOUS
10
170.6064081966
20
100.1456922215
11
170.0957699596
21
100.2706931752
0
LINE
5
208
100
AcDbEntity
8
0
100
AcDbLine
62
7
6
CONTINUOUS
10
167.6702381550
20
100.0206941289
11
167.2872593878
21
100.1456922215
0
LINE
5
209
100
AcDbEntity
8
0
100
AcDbLine
62
7
6
CONTINUOUS
10
167.6702381550
20
100.6456931752
11
167.4149190365
21
100.7706941289
0
LINE
5
20A
100
AcDbEntity
8
0
100
AcDbLine
62
7
6
CONTINUOUS
10
170.6064081966
20
100.7706941289
11
170.0957699596
21
101.0206931752
0
LINE
5
20B
100
AcDbEntity
8
0
100
AcDbLine
62
7
6
CONTINUOUS
10
170.0957699596
20
100.2706931752
11
169.7127912818
21
100.5206922215
0
LINE
5
20C
100
AcDbEntity
8
0
100
AcDbLine
62
7
6
CONTINUOUS
10
171.2447063504
20
103.5206922215
11
170.8617276727
21
103.7706941289
0
LINE
5
20D
100
AcDbEntity
8
0
100
AcDbLine
62
7
6
CONTINUOUS
10
171.2447063504
20
106.2706931752
11
170.3510890781
21
107.0206931752
0
LINE
5
20E
100
AcDbEntity
8
0
100
AcDbLine
62
7
6
CONTINUOUS
10
172.2659828244
20
106.2706931752
11
171.3723659097
21
107.0206931752
0
LINE
5
20F
100
AcDbEntity
8
0
100
AcDbLine
62
7
6
CONTINUOUS
10
170.0957699596
20
101.0206931752
11
169.8404508411
21
101.2706922215
0
LINE
5
210
100
AcDbEntity
8
0
100
AcDbLine
62
7
6
CONTINUOUS
10
171.8830041467
20
103.7706941289
11
171.3723659097
21
104.2706922215
0
LINE
5
211
100
AcDbEntity
8
0
100
AcDbLine
62
7
6
CONTINUOUS
10
169.7127912818
20
100.5206922215
11
169.3298126041
21
101.0206931752
0
LINE
5
212
100
AcDbEntity
8
0
100
AcDbLine
62
7
6
CONTINUOUS
10
166.6489615469
20
100.7706941289
11
166.9042807101
21
100.3956941289
0
LINE
5
213
100
AcDbEntity
8
0
100
AcDbLine
62
7
6
CONTINUOUS
10
171.5000254689
20
103.1456922215
11
171.2447063504
21
103.5206922215
0
LINE
5
214
100
AcDbEntity
8
0
100
AcDbLine
62
7
6
CONTINUOUS
10
166.3936423949
20
101.2706922215
11
166.6489615469
21
100.7706941289
0
LINE
5
215
100
AcDbEntity
8
0
100
AcDbLine
62
7
6
CONTINUOUS
10
167.1595998286
20
101.0206931752
11
167.0319402693
21
101.2706922215
0
LINE
5
216
100
AcDbEntity
8
0
100
AcDbLine
62
7
6
CONTINUOUS
10
166.3936423949
20
101.2706922215
11
166.2659828244
21
101.7706931752
0
LINE
5
217
100
AcDbEntity
8
0
100
AcDbLine
62
7
6
CONTINUOUS
10
158.2659828244
20
142.8956931752
11
158.2659828244
21
77.8956931752
0
LINE
5
218
100
AcDbEntity
8
0
100
AcDbLine
62
7
6
CONTINUOUS
10
168.1808763920
20
100.0206941289
11
167.6702381550
21
100.0206941289
0
LINE
5
219
100
AcDbEntity
8
0
100
AcDbLine
62
7
6
CONTINUOUS
10
170.8617276727
20
100.1456922215
11
170.6064081966
21
100.1456922215
0
LINE
5
21A
100
AcDbEntity
8
0
100
AcDbLine
62
7
6
CONTINUOUS
10
168.1808763920
20
100.6456931752
11
167.6702381550
21
100.6456931752
0
LINE
5
21B
100
AcDbEntity
8
0
100
AcDbLine
62
7
6
CONTINUOUS
10
170.8617276727
20
100.7706941289
11
170.6064081966
21
100.7706941289
0
LINE
5
21C
100
AcDbEntity
8
0
100
AcDbLine
62
7
6
CONTINUOUS
10
169.5851317226
20
102.5206931752
11
169.0744934856
21
102.5206931752
0
LINE
5
21D
100
AcDbEntity
8
0
100
AcDbLine
62
7
6
CONTINUOUS
10
171.3723659097
20
104.2706922215
11
170.8617276727
21
104.3956931752
0
LINE
5
21E
100
AcDbEntity
8
0
100
AcDbLine
62
7
6
CONTINUOUS
10
167.2872593878
20
119.3956931752
11
166.7766211061
21
119.7706931752
0
LINE
5
21F
100
AcDbEntity
8
0
100
AcDbLine
62
7
6
CONTINUOUS
10
169.9681104003
20
119.3956931752
11
169.4574721633
21
119.7706931752
0
LINE
5
220
100
AcDbEntity
8
0
100
AcDbLine
62
7
6
CONTINUOUS
10
171.2447063504
20
111.5206931752
11
170.3510890781
21
112.2706931752
0
LINE
5
221
100
AcDbEntity
8
0
100
AcDbLine
62
7
6
CONTINUOUS
10
172.2659828244
20
111.5206931752
11
171.3723659097
21
112.2706931752
0
LINE
5
222
100
AcDbEntity
8
0
100
AcDbLine
62
7
6
CONTINUOUS
10
167.4149190365
20
120.1456931752
11
167.1595998286
21
120.3956929368
0
LINE
5
223
100
AcDbEntity
8
0
100
AcDbLine
62
7
6
CONTINUOUS
10
170.0957699596
20
120.1456931752
11
169.8404508411
21
120.3956929368
0
LINE
5
224
100
AcDbEntity
8
0
100
AcDbLine
62
7
6
CONTINUOUS
10
166.7766211061
20
119.7706931752
11
166.3936423949
21
120.2706934136
0
LINE
5
225
100
AcDbEntity
8
0
100
AcDbLine
62
7
6
CONTINUOUS
10
172.1383232652
20
103.2706931752
11
171.8830041467
21
103.7706941289
0
LINE
5
226
100
AcDbEntity
8
0
100
AcDbLine
62
7
6
CONTINUOUS
10
169.4574721633
20
119.7706931752
11
169.3298126041
21
120.0206929368
0
LINE
5
227
100
AcDbEntity
8
0
100
AcDbLine
62
7
6
CONTINUOUS
10
169.8404508411
20
101.2706922215
11
169.5851317226
21
102.0206922215
0
LINE
5
228
100
AcDbEntity
8
0
100
AcDbLine
62
7
6
CONTINUOUS
10
167.1595998286
20
120.3956929368
11
167.0319402693
21
120.7706929368
0
LINE
5
229
100
AcDbEntity
8
0
100
AcDbLine
62
7
6
CONTINUOUS
10
169.8404508411
20
120.3956929368
11
169.7127912818
21
120.7706929368
0
LINE
5
22A
100
AcDbEntity
8
0
100
AcDbLine
62
7
6
CONTINUOUS
10
167.0319402693
20
101.2706922215
11
166.9042807101
21
101.8956941289
0
LINE
5
22B
100
AcDbEntity
8
0
100
AcDbLine
62
7
6
CONTINUOUS
10
166.3936423949
20
120.2706934136
11
166.2659828244
21
120.8956931752
0
LINE
5
22C
100
AcDbEntity
8
0
100
AcDbLine
62
7
6
CONTINUOUS
10
171.6276850282
20
102.5206931752
11
171.5000254689
21
103.1456922215
0
LINE
5
22D
100
AcDbEntity
8
0
100
AcDbLine
62
7
6
CONTINUOUS
10
166.2659828244
20
127.8956931156
11
166.2659828244
21
126.8956931752
0
LINE
5
22E
100
AcDbEntity
8
0
100
AcDbLine
62
7
6
CONTINUOUS
10
166.2659828244
20
123.8956931752
11
166.2659828244
21
120.8956931752
0
LINE
5
22F
100
AcDbEntity
8
0
100
AcDbLine
62
7
6
CONTINUOUS
10
166.2659828244
20
111.5206931752
11
166.2659828244
21
110.7706931752
0
LINE
5
230
100
AcDbEntity
8
0
100
AcDbLine
62
7
6
CONTINUOUS
10
166.2659828244
20
106.2706931752
11
166.2659828244
21
105.5206931752
0
LINE
5
231
100
AcDbEntity
8
0
100
AcDbLine
62
7
6
CONTINUOUS
10
166.2659828244
20
102.7706922215
11
166.2659828244
21
101.7706931752
0
LINE
5
232
100
AcDbEntity
8
0
100
AcDbLine
62
7
6
CONTINUOUS
10
166.9042807101
20
102.6456941289
11
166.9042807101
21
101.8956941289
0
LINE
5
233
100
AcDbEntity
8
0
100
AcDbLine
62
7
6
CONTINUOUS
10
167.0319402693
20
123.1456931752
11
167.0319402693
21
120.7706929368
0
LINE
5
234
100
AcDbEntity
8
0
100
AcDbLine
62
7
6
CONTINUOUS
10
167.6702381550
20
104.5206941289
11
167.6702381550
21
103.8956922215
0
LINE
5
235
100
AcDbEntity
8
0
100
AcDbLine
62
7
6
CONTINUOUS
10
168.4361955105
20
109.7706926984
11
168.4361955105
21
108.0206936521
0
LINE
5
236
100
AcDbEntity
8
0
100
AcDbLine
62
7
6
CONTINUOUS
10
168.9468339263
20
123.1456931752
11
168.9468339263
21
120.7706929368
0
LINE
5
237
100
AcDbEntity
8
0
100
AcDbLine
62
7
6
CONTINUOUS
10
169.0744934856
20
109.7706926984
11
169.0744934856
21
108.0206936521
0
LINE
5
238
100
AcDbEntity
8
0
100
AcDbLine
62
7
6
CONTINUOUS
10
169.0744934856
20
102.5206931752
11
169.0744934856
21
102.0206922215
0
LINE
5
239
100
AcDbEntity
8
0
100
AcDbLine
62
7
6
CONTINUOUS
10
169.5851317226
20
102.5206931752
11
169.5851317226
21
102.0206922215
0
LINE
5
23A
100
AcDbEntity
8
0
100
AcDbLine
62
7
6
CONTINUOUS
10
169.7127912818
20
123.1456931752
11
169.7127912818
21
120.7706929368
0
LINE
5
23B
100
AcDbEntity
8
0
100
AcDbLine
62
7
6
CONTINUOUS
10
170.8617276727
20
104.3956931752
11
170.8617276727
21
103.7706941289
0
LINE
5
23C
100
AcDbEntity
8
0
100
AcDbLine
62
7
6
CONTINUOUS
10
171.5000254689
20
123.1456931752
11
171.5000254689
21
120.7706929368
0
LINE
5
23D
100
AcDbEntity
8
0
100
AcDbLine
62
7
6
CONTINUOUS
10
171.6276850282
20
102.5206931752
11
171.6276850282
21
102.0206922215
0
LINE
5
23E
100
AcDbEntity
8
0
100
AcDbLine
62
7
6
CONTINUOUS
10
172.2659828244
20
129.8956931752
11
172.2659828244
21
129.1456931752
0
LINE
5
23F
100
AcDbEntity
8
0
100
AcDbLine
62
7
6
CONTINUOUS
10
172.2659828244
20
125.6456932944
11
172.2659828244
21
124.8956932944
0
LINE
5
240
100
AcDbEntity
8
0
100
AcDbLine
62
7
6
CONTINUOUS
10
172.2659828244
20
123.8956931752
11
172.2659828244
21
120.8956931752
0
LINE
5
241
100
AcDbEntity
8
0
100
AcDbLine
62
7
6
CONTINUOUS
10
172.2659828244
20
111.5206931752
11
172.2659828244
21
110.7706931752
0
LINE
5
242
100
AcDbEntity
8
0
100
AcDbLine
62
7
6
CONTINUOUS
10
172.2659828244
20
106.2706931752
11
172.2659828244
21
105.5206931752
0
LINE
5
243
100
AcDbEntity
8
0
100
AcDbLine
62
7
6
CONTINUOUS
10
172.2659828244
20
102.3956922215
11
172.2659828244
21
102.1456931752
0
LINE
5
244
100
AcDbEntity
8
0
100
AcDbLine
62
7
6
CONTINUOUS
10
171.3723659097
20
100.2706931752
11
170.8617276727
21
100.1456922215
0
LINE
5
245
100
AcDbEntity
8
0
100
AcDbLine
62
7
6
CONTINUOUS
10
168.6915148078
20
100.1456922215
11
168.1808763920
21
100.0206941289
0
LINE
5
246
100
AcDbEntity
8
0
100
AcDbLine
62
7
6
CONTINUOUS
10
166.2659828244
20
105.5206931752
11
172.2659828244
21
105.5206931752
0
LINE
5
247
100
AcDbEntity
8
0
100
AcDbLine
62
7
6
CONTINUOUS
10
171.2447063504
20
106.2706931752
11
166.2659828244
21
106.2706931752
0
LINE
5
248
100
AcDbEntity
8
0
100
AcDbLine
62
7
6
CONTINUOUS
10
170.3510890781
20
107.0206931752
11
171.3723659097
21
107.0206931752
0
LINE
5
249
100
AcDbEntity
8
0
100
AcDbLine
62
7
6
CONTINUOUS
10
168.4361955105
20
108.0206936521
11
169.0744934856
21
108.0206936521
0
LINE
5
24A
100
AcDbEntity
8
0
100
AcDbLine
62
7
6
CONTINUOUS
10
169.0744934856
20
109.7706926984
11
168.4361955105
21
109.7706926984
0
LINE
5
24B
100
AcDbEntity
8
0
100
AcDbLine
62
7
6
CONTINUOUS
10
166.2659828244
20
110.7706931752
11
172.2659828244
21
110.7706931752
0
LINE
5
24C
100
AcDbEntity
8
0
100
AcDbLine
62
7
6
CONTINUOUS
10
167.6702381550
20
119.2706929368
11
167.2872593878
21
119.3956931752
0
LINE
5
24D
100
AcDbEntity
8
0
100
AcDbLine
62
7
6
CONTINUOUS
10
167.7978977142
20
120.0206929368
11
167.4149190365
21
120.1456931752
0
LINE
5
24E
100
AcDbEntity
8
0
100
AcDbLine
62
7
6
CONTINUOUS
10
170.3510890781
20
119.2706929368
11
169.9681104003
21
119.3956931752
0
LINE
5
24F
100
AcDbEntity
8
0
100
AcDbLine
62
7
6
CONTINUOUS
10
170.4787486373
20
120.0206929368
11
170.0957699596
21
120.1456931752
0
LINE
5
250
100
AcDbEntity
8
0
100
AcDbLine
62
7
6
CONTINUOUS
10
172.2659828244
20
102.3956922215
11
172.1383232652
21
103.2706931752
0
LINE
5
251
100
AcDbEntity
8
0
100
AcDbLine
62
7
6
CONTINUOUS
10
180.2659828244
20
142.8956931752
11
180.2659828244
21
77.8956931752
0
LINE
5
252
100
AcDbEntity
8
0
100
AcDbLine
62
7
6
CONTINUOUS
10
172.2659828244
20
102.1456931752
11
172.1383232652
21
101.2706922215
0
LINE
5
253
100
AcDbEntity
8
0
100
AcDbLine
62
7
6
CONTINUOUS
10
169.0744934856
20
102.0206922215
11
168.9468339263
21
101.2706922215
0
LINE
5
254
100
AcDbEntity
8
0
100
AcDbLine
62
7
6
CONTINUOUS
10
167.0319402693
20
103.2706931752
11
166.9042807101
21
102.6456941289
0
LINE
5
255
100
AcDbEntity
8
0
100
AcDbLine
62
7
6
CONTINUOUS
10
172.2659828244
20
120.8956931752
11
172.1383232652
21
120.2706934136
0
LINE
5
256
100
AcDbEntity
8
0
100
AcDbLine
62
7
6
CONTINUOUS
10
171.6276850282
20
102.0206922215
11
171.5000254689
21
101.3956931752
0
LINE
5
257
100
AcDbEntity
8
0
100
AcDbLine
62
7
6
CONTINUOUS
10
166.3936423949
20
103.2706931752
11
166.2659828244
21
102.7706922215
0
LINE
5
258
100
AcDbEntity
8
0
100
AcDbLine
62
7
6
CONTINUOUS
10
168.9468339263
20
120.7706929368
11
168.8191743671
21
120.3956929368
0
LINE
5
259
100
AcDbEntity
8
0
100
AcDbLine
62
7
6
CONTINUOUS
10
171.5000254689
20
120.7706929368
11
171.3723659097
21
120.3956929368
0
LINE
5
25A
100
AcDbEntity
8
0
100
AcDbLine
62
7
6
CONTINUOUS
10
211.2694583878
20
203.6456931752
11
223.4659828244
21
224.7706931752
0
LINE
5
25B
100
AcDbEntity
8
0
100
AcDbLine
62
7
6
CONTINUOUS
10
171.2447063504
20
111.5206931752
11
166.2659828244
21
111.5206931752
0
LINE
5
25C
100
AcDbEntity
8
0
100
AcDbLine
62
7
6
CONTINUOUS
10
171.3723659097
20
112.2706931752
11
170.3510890781
21
112.2706931752
0
LINE
5
25D
100
AcDbEntity
8
0
100
AcDbLine
62
7
6
CONTINUOUS
10
166.2659828244
20
126.8956931752
11
172.2659828244
21
124.8956932944
0
LINE
5
25E
100
AcDbEntity
8
0
100
AcDbLine
62
7
6
CONTINUOUS
10
172.2659828244
20
125.6456932944
11
167.0319402693
21
127.3956932348
0
LINE
5
25F
100
AcDbEntity
8
0
100
AcDbLine
62
7
6
CONTINUOUS
10
187.0659828244
20
224.7706931752
11
187.0659828244
21
235.1706931752
0
LINE
5
260
100
AcDbEntity
8
0
100
AcDbLine
62
7
6
CONTINUOUS
10
169.3298126041
20
101.0206931752
11
169.0744934856
21
100.3956941289
0
LINE
5
261
100
AcDbEntity
8
0
100
AcDbLine
62
7
6
CONTINUOUS
10
169.3298126041
20
120.0206929368
11
169.2021530448
21
119.7706931752
0
LINE
5
262
100
AcDbEntity
8
0
100
AcDbLine
62
7
6
CONTINUOUS
10
166.3936423949
20
103.2706931752
11
166.6489615469
21
103.7706941289
0
LINE
5
263
100
AcDbEntity
8
0
100
AcDbLine
62
7
6
CONTINUOUS
10
167.1595998286
20
103.5206922215
11
167.0319402693
21
103.2706931752
0
LINE
5
264
100
AcDbEntity
8
0
100
AcDbLine
62
7
6
CONTINUOUS
10
170.8617276727
20
119.2706929368
11
170.3510890781
21
119.2706929368
0
LINE
5
265
100
AcDbEntity
8
0
100
AcDbLine
62
7
6
CONTINUOUS
10
168.3085359512
20
119.2706929368
11
167.6702381550
21
119.2706929368
0
LINE
5
266
100
AcDbEntity
8
0
100
AcDbLine
62
7
6
CONTINUOUS
10
170.7340677558
20
120.0206929368
11
170.4787486373
21
120.0206929368
0
LINE
5
267
100
AcDbEntity
8
0
100
AcDbLine
62
7
6
CONTINUOUS
10
168.1808763920
20
120.0206929368
11
167.7978977142
21
120.0206929368
0
LINE
5
268
100
AcDbEntity
8
0
100
AcDbLine
62
7
6
CONTINUOUS
10
171.5000254689
20
123.1456931752
11
169.7127912818
21
123.1456931752
0
LINE
5
269
100
AcDbEntity
8
0
100
AcDbLine
62
7
6
CONTINUOUS
10
168.9468339263
20
123.1456931752
11
167.0319402693
21
123.1456931752
0
LINE
5
26A
100
AcDbEntity
8
0
100
AcDbLine
62
7
6
CONTINUOUS
10
172.2659828244
20
123.8956931752
11
166.2659828244
21
123.8956931752
0
LINE
5
26B
100
AcDbEntity
8
0
100
AcDbLine
62
7
6
CONTINUOUS
10
192.2659828244
20
215.0673610755
11
192.2659828244
21
204.9456931752
0
LINE
5
26C
100
AcDbEntity
8
0
100
AcDbLine
62
7
6
CONTINUOUS
10
197.1409828244
20
159.7706931752
11
197.1409828244
21
202.4215248081
0
LINE
5
26D
100
AcDbEntity
8
0
100
AcDbLine
62
7
6
CONTINUOUS
10
172.1383232652
20
101.2706922215
11
171.8830041467
21
100.7706941289
0
LINE
5
26E
100
AcDbEntity
8
0
100
AcDbLine
62
7
6
CONTINUOUS
10
166.9042807101
20
104.1456941289
11
166.6489615469
21
103.7706941289
0
LINE
5
26F
100
AcDbEntity
8
0
100
AcDbLine
62
7
6
CONTINUOUS
10
168.9468339263
20
101.2706922215
11
168.6915148078
21
100.8956922215
0
LINE
5
270
100
AcDbEntity
8
0
100
AcDbLine
62
7
6
CONTINUOUS
10
172.1383232652
20
120.2706934136
11
171.7553445874
21
119.7706931752
0
LINE
5
271
100
AcDbEntity
8
0
100
AcDbLine
62
7
6
CONTINUOUS
10
168.8191743671
20
120.3956929368
11
168.5638552486
21
120.1456931752
0
LINE
5
272
100
AcDbEntity
8
0
100
AcDbLine
62
7
6
CONTINUOUS
10
171.3723659097
20
120.3956929368
11
171.1170467912
21
120.1456931752
0
LINE
5
273
100
AcDbEntity
8
0
100
AcDbLine
62
7
6
CONTINUOUS
10
202.0159828244
20
146.1206931752
11
202.0159828244
21
225.3960828802
0
LINE
5
274
100
AcDbEntity
8
DEFAULT_1
100
AcDbLine
62
2
6
CENTER
10
205.2659828244
20
235.1706931752
11
205.2659828244
21
28.5933065529
0
LINE
5
275
100
AcDbEntity
8
DEFAULT_1
100
AcDbLine
62
2
6
CENTER
10
205.2659828244
20
235.1706931752
11
205.2659828244
21
245.9706931752
0
LINE
5
276
100
AcDbEntity
8
0
100
AcDbLine
62
7
6
CONTINUOUS
10
171.5000254689
20
101.3956931752
11
171.2447063504
21
101.0206931752
0
LINE
5
277
100
AcDbEntity
8
0
100
AcDbLine
62
7
6
CONTINUOUS
10
167.4149190365
20
103.7706941289
11
167.1595998286
21
103.5206922215
0
LINE
5
278
100
AcDbEntity
8
0
100
AcDbLine
62
7
6
CONTINUOUS
10
169.2021530448
20
119.7706931752
11
168.6915148078
21
119.3956931752
0
LINE
5
279
100
AcDbEntity
8
0
100
AcDbLine
62
7
6
CONTINUOUS
10
171.7553445874
20
119.7706931752
11
171.2447063504
21
119.3956931752
0
LINE
5
27A
100
AcDbEntity
8
0
100
AcDbLine
62
7
6
CONTINUOUS
10
202.0159828244
20
146.1206931752
11
197.7321544412
21
156.7281523141
0
LINE
5
27B
100
AcDbEntity
8
0
100
AcDbLine
62
7
6
CONTINUOUS
10
208.5159828244
20
146.1206931752
11
208.5159828244
21
225.3960828802
0
LINE
5
27C
100
AcDbEntity
8
0
100
AcDbLine
62
7
6
CONTINUOUS
10
213.3909828244
20
159.7706931752
11
213.3909828244
21
202.4215248081
0
LINE
5
27D
100
AcDbEntity
8
0
100
AcDbLine
62
7
6
CONTINUOUS
10
212.7998112077
20
156.7281523141
11
208.5159828244
21
146.1206931752
0
LINE
5
27E
100
AcDbEntity
8
0
100
AcDbLine
62
7
6
CONTINUOUS
10
171.8830041467
20
100.7706941289
11
171.3723659097
21
100.2706931752
0
LINE
5
27F
100
AcDbEntity
8
0
100
AcDbLine
62
7
6
CONTINUOUS
10
167.0319402693
20
127.3956932348
11
172.2659828244
21
129.1456931752
0
LINE
5
280
100
AcDbEntity
8
0
100
AcDbLine
62
7
6
CONTINUOUS
10
172.2659828244
20
129.8956931752
11
166.2659828244
21
127.8956931156
0
LINE
5
281
100
AcDbEntity
8
0
100
AcDbLine
62
7
6
CONTINUOUS
10
208.5159828244
20
146.1206931752
11
202.0159828244
21
146.1206931752
0
LINE
5
282
100
AcDbEntity
8
0
100
AcDbLine
62
7
6
CONTINUOUS
10
218.2659828244
20
215.0673610755
11
218.2659828244
21
204.9456931752
0
LINE
5
283
100
AcDbEntity
8
0
100
AcDbLine
62
7
6
CONTINUOUS
10
167.2872593878
20
104.3956931752
11
166.9042807101
21
104.1456941289
0
LINE
5
284
100
AcDbEntity
8
0
100
AcDbLine
62
7
6
CONTINUOUS
10
169.0744934856
20
100.3956941289
11
168.6915148078
21
100.1456922215
0
LINE
5
285
100
AcDbEntity
8
0
100
AcDbLine
62
7
6
CONTINUOUS
10
171.2447063504
20
101.0206931752
11
170.8617276727
21
100.7706941289
0
LINE
5
286
100
AcDbEntity
8
0
100
AcDbLine
62
7
6
CONTINUOUS
10
168.5638552486
20
120.1456931752
11
168.1808763920
21
120.0206929368
0
LINE
5
287
100
AcDbEntity
8
0
100
AcDbLine
62
7
6
CONTINUOUS
10
168.6915148078
20
119.3956931752
11
168.3085359512
21
119.2706929368
0
LINE
5
288
100
AcDbEntity
8
0
100
AcDbLine
62
7
6
CONTINUOUS
10
171.1170467912
20
120.1456931752
11
170.7340677558
21
120.0206929368
0
LINE
5
289
100
AcDbEntity
8
0
100
AcDbLine
62
7
6
CONTINUOUS
10
171.2447063504
20
119.3956931752
11
170.8617276727
21
119.2706929368
0
LINE
5
28A
100
AcDbEntity
8
0
100
AcDbLine
62
7
6
CONTINUOUS
10
223.4659828244
20
224.7706931752
11
223.4659828244
21
235.1706931752
0
LINE
5
28B
100
AcDbEntity
8
0
100
AcDbLine
62
7
6
CONTINUOUS
10
230.2659828244
20
77.8956931752
11
230.2659828244
21
142.8956931752
0
LINE
5
28C
100
AcDbEntity
8
0
100
AcDbLine
62
7
6
CONTINUOUS
10
167.6702381550
20
103.8956922215
11
167.4149190365
21
103.7706941289
0
LINE
5
28D
100
AcDbEntity
8
0
100
AcDbLine
62
7
6
CONTINUOUS
10
168.6915148078
20
100.8956922215
11
168.1808763920
21
100.6456931752
0
LINE
5
28E
100
AcDbEntity
8
0
100
AcDbLine
62
7
6
CONTINUOUS
10
167.6702381550
20
104.5206941289
11
167.2872593878
21
104.3956931752
0
LINE
5
28F
100
AcDbEntity
8
0
100
AcDbLine
62
7
6
CONTINUOUS
10
199.2625072611
20
203.6456931752
11
187.0659828244
21
224.7706931752
0
LINE
5
290
100
AcDbEntity
8
0
100
AcDbLine
62
7
6
CONTINUOUS
10
252.2659828244
20
77.8956931752
11
252.2659828244
21
142.8956931752
0
LINE
5
291
100
AcDbEntity
8
0
100
AcDbLine
62
7
6
CONTINUOUS
10
197.1409828244
20
202.3456931752
11
194.8659828244
21
202.3456931752
0
LINE
5
292
100
AcDbEntity
8
0
100
AcDbLine
62
7
6
CONTINUOUS
10
213.3909828244
20
202.3456931752
11
215.6659828244
21
202.3456931752
0
LINE
5
293
100
AcDbEntity
8
DEFAULT_1
100
AcDbLine
62
2
6
CENTER
10
205.2659828244
20
235.1706931752
11
194.4659828244
21
235.1706931752
0
LINE
5
294
100
AcDbEntity
8
DEFAULT_1
100
AcDbLine
62
2
6
CENTER
10
205.2659828244
20
235.1706931752
11
216.0659828244
21
235.1706931752
0
LINE
5
295
100
AcDbEntity
8
0
100
AcDbLine
62
7
6
CONTINUOUS
10
221.3854586224
20
243.6206931752
11
189.1465070265
21
243.6206931752
0
LINE
5
296
100
AcDbEntity
8
0
100
AcDbLine
62
7
6
CONTINUOUS
10
331.3225561922
20
253.3706931752
11
323.1413347882
21
243.6206931752
0
LINE
5
297
100
AcDbEntity
8
0
100
AcDbLine
62
7
6
CONTINUOUS
10
317.2338324208
20
191.8929721042
11
323.1413347882
21
225.3960828802
0
LINE
5
298
100
AcDbEntity
8
0
100
AcDbLine
62
7
6
CONTINUOUS
10
366.5876832219
20
100.0206941289
11
366.5249738373
21
100.0206941289
0
LINE
5
299
100
AcDbEntity
8
DEFAULT_2
100
AcDbLine
62
8
6
HIDDEN
10
366.5249738373
20
100.0206941289
11
366.0413347882
21
100.0206941289
0
LINE
5
29A
100
AcDbEntity
8
0
100
AcDbLine
62
7
6
CONTINUOUS
10
366.6263239324
20
100.1456922215
11
366.4619010193
21
100.1456922215
0
LINE
5
29B
100
AcDbEntity
8
DEFAULT_2
100
AcDbLine
62
8
6
HIDDEN
10
366.4619010193
20
100.1456922215
11
366.0413347882
21
100.1456922215
0
LINE
5
29C
100
AcDbEntity
8
DEFAULT_2
100
AcDbLine
62
8
6
HIDDEN
10
366.6099925598
20
100.2706931752
11
366.0413347882
21
100.2706931752
0
LINE
5
29D
100
AcDbEntity
8
0
100
AcDbLine
62
7
6
CONTINUOUS
10
366.6396679271
20
100.3956941289
11
366.3848148168
21
100.3956941289
0
LINE
5
29E
100
AcDbEntity
8
DEFAULT_2
100
AcDbLine
62
8
6
HIDDEN
10
366.3848148168
20
100.3956941289
11
366.0413347882
21
100.3956941289
0
LINE
5
29F
100
AcDbEntity
8
DEFAULT_2
100
AcDbLine
62
8
6
HIDDEN
10
366.6322565968
20
100.5206922215
11
366.0413347882
21
100.5206922215
0
LINE
5
2A0
100
AcDbEntity
8
0
100
AcDbLine
62
7
6
CONTINUOUS
10
366.5876832219
20
100.6456931752
11
366.3459347606
21
100.6456931752
0
LINE
5
2A1
100
AcDbEntity
8
DEFAULT_2
100
AcDbLine
62
8
6
HIDDEN
10
366.3459347606
20
100.6456931752
11
366.0413347882
21
100.6456931752
0
LINE
5
2A2
100
AcDbEntity
8
DEFAULT_2
100
AcDbLine
62
8
6
HIDDEN
10
366.5593593267
20
100.7706941289
11
366.4844691530
21
100.7706941289
0
LINE
5
2A3
100
AcDbEntity
8
0
100
AcDbLine
62
7
6
CONTINUOUS
10
366.4844691530
20
100.7706941289
11
366.3254912656
21
100.7706941289
0
LINE
5
2A4
100
AcDbEntity
8
DEFAULT_2
100
AcDbLine
62
8
6
HIDDEN
10
366.3254912656
20
100.7706941289
11
366.0413347882
21
100.7706941289
0
LINE
5
2A5
100
AcDbEntity
8
DEFAULT_2
100
AcDbLine
62
8
6
HIDDEN
10
366.6263239324
20
100.8956922215
11
366.0413347882
21
100.8956922215
0
LINE
5
2A6
100
AcDbEntity
8
0
100
AcDbLine
62
7
6
CONTINUOUS
10
366.6411495939
20
101.0206931752
11
366.6263239324
21
101.0206931752
0
LINE
5
2A7
100
AcDbEntity
8
0
100
AcDbLine
62
7
6
CONTINUOUS
10
366.4377763629
20
101.0206931752
11
366.2934097458
21
101.0206931752
0
LINE
5
2A8
100
AcDbEntity
8
DEFAULT_2
100
AcDbLine
62
8
6
HIDDEN
10
366.6263239324
20
101.0206931752
11
366.4377763629
21
101.0206931752
0
LINE
5
2A9
100
AcDbEntity
8
DEFAULT_2
100
AcDbLine
62
8
6
HIDDEN
10
366.2934097458
20
101.0206931752
11
366.0413347882
21
101.0206931752
0
LINE
5
2AA
100
AcDbEntity
8
0
100
AcDbLine
62
7
6
CONTINUOUS
10
366.4120847093
20
101.2706922215
11
366.2596990906
21
101.2706922215
0
LINE
5
2AB
100
AcDbEntity
8
DEFAULT_2
100
AcDbLine
62
8
6
HIDDEN
10
366.2596990906
20
101.2706922215
11
366.0413347882
21
101.2706922215
0
LINE
5
2AC
100
AcDbEntity
8
DEFAULT_2
100
AcDbLine
62
8
6
HIDDEN
10
366.6367039944
20
101.2706922215
11
366.4120847093
21
101.2706922215
0
LINE
5
2AD
100
AcDbEntity
8
DEFAULT_2
100
AcDbLine
62
8
6
HIDDEN
10
366.4120846908
20
101.3956931752
11
366.0413347882
21
101.3956931752
0
LINE
5
2AE
100
AcDbEntity
8
DEFAULT_2
100
AcDbLine
62
8
6
HIDDEN
10
366.2243400325
20
101.7706931752
11
366.0413347882
21
101.7706931752
0
LINE
5
2AF
100
AcDbEntity
8
DEFAULT_2
100
AcDbLine
62
8
6
HIDDEN
10
366.2243400325
20
101.8956941289
11
366.0413347882
21
101.8956941289
0
LINE
5
2B0
100
AcDbEntity
8
0
100
AcDbLine
62
7
6
CONTINUOUS
10
366.3848148168
20
101.8956941289
11
366.2243400325
21
101.8956941289
0
LINE
5
2B1
100
AcDbEntity
8
DEFAULT_2
100
AcDbLine
62
8
6
HIDDEN
10
366.6396679247
20
102.0206922215
11
366.0413347882
21
102.0206922215
0
LINE
5
2B2
100
AcDbEntity
8
DEFAULT_2
100
AcDbLine
62
8
6
HIDDEN
10
366.2243400325
20
102.1456931752
11
366.0413347882
21
102.1456931752
0
LINE
5
2B3
100
AcDbEntity
8
DEFAULT_2
100
AcDbLine
62
8
6
HIDDEN
10
366.2243400325
20
102.3956922215
11
366.0413347882
21
102.3956922215
0
LINE
5
2B4
100
AcDbEntity
8
0
100
AcDbLine
62
7
6
CONTINUOUS
10
366.6413350531
20
102.5206931752
11
366.6396679271
21
102.5206931752
0
LINE
5
2B5
100
AcDbEntity
8
DEFAULT_2
100
AcDbLine
62
8
6
HIDDEN
10
366.6396679271
20
102.5206931752
11
366.0413347882
21
102.5206931752
0
LINE
5
2B6
100
AcDbEntity
8
DEFAULT_2
100
AcDbLine
62
8
6
HIDDEN
10
366.2243400325
20
102.6456941289
11
366.0413347882
21
102.6456941289
0
LINE
5
2B7
100
AcDbEntity
8
0
100
AcDbLine
62
7
6
CONTINUOUS
10
366.3848148168
20
102.6456941289
11
366.2243400325
21
102.6456941289
0
LINE
5
2B8
100
AcDbEntity
8
DEFAULT_2
100
AcDbLine
62
8
6
HIDDEN
10
366.2243400325
20
102.7706922215
11
366.0413347882
21
102.7706922215
0
LINE
5
2B9
100
AcDbEntity
8
DEFAULT_2
100
AcDbLine
62
8
6
HIDDEN
10
366.4120846908
20
103.1456922215
11
366.0413347882
21
103.1456922215
0
LINE
5
2BA
100
AcDbEntity
8
0
100
AcDbLine
62
7
6
CONTINUOUS
10
366.4120847093
20
103.2706931752
11
366.2596990906
21
103.2706931752
0
LINE
5
2BB
100
AcDbEntity
8
DEFAULT_2
100
AcDbLine
62
8
6
HIDDEN
10
366.2596990906
20
103.2706931752
11
366.0413347882
21
103.2706931752
0
LINE
5
2BC
100
AcDbEntity
8
0
100
AcDbLine
62
7
6
CONTINUOUS
10
366.4377763629
20
103.5206922215
11
366.2934095599
21
103.5206922215
0
LINE
5
2BD
100
AcDbEntity
8
DEFAULT_2
100
AcDbLine
62
8
6
HIDDEN
10
366.4619010030
20
103.5206922215
11
366.4377763629
21
103.5206922215
0
LINE
5
2BE
100
AcDbEntity
8
DEFAULT_2
100
AcDbLine
62
8
6
HIDDEN
10
366.2934095599
20
103.5206922215
11
366.0413347882
21
103.5206922215
0
LINE
5
2BF
100
AcDbEntity
8
0
100
AcDbLine
62
7
6
CONTINUOUS
10
366.4844691530
20
103.7706941289
11
366.3254912656
21
103.7706941289
0
LINE
5
2C0
100
AcDbEntity
8
DEFAULT_2
100
AcDbLine
62
8
6
HIDDEN
10
366.3254912656
20
103.7706941289
11
366.0413347882
21
103.7706941289
0
LINE
5
2C1
100
AcDbEntity
8
DEFAULT_2
100
AcDbLine
62
8
6
HIDDEN
10
366.5249738111
20
103.7706941289
11
366.4844691530
21
103.7706941289
0
LINE
5
2C2
100
AcDbEntity
8
0
100
AcDbLine
62
7
6
CONTINUOUS
10
366.5249738373
20
103.8956922215
11
366.3459343019
21
103.8956922215
0
LINE
5
2C3
100
AcDbEntity
8
DEFAULT_2
100
AcDbLine
62
8
6
HIDDEN
10
366.3459343019
20
103.8956922215
11
366.0413347882
21
103.8956922215
0
LINE
5
2C4
100
AcDbEntity
8
DEFAULT_2
100
AcDbLine
62
8
6
HIDDEN
10
323.1413347882
20
202.5887404271
11
323.1413347882
21
203.6456931752
0
LINE
5
2C5
100
AcDbEntity
8
0
100
AcDbLine
62
7
6
CONTINUOUS
10
323.1413347882
20
203.6456931752
11
323.1413347882
21
243.6206931752
0
LINE
5
2C6
100
AcDbEntity
8
DEFAULT_2
100
AcDbLine
62
8
6
HIDDEN
10
366.3848148168
20
104.1456941289
11
366.0413347882
21
104.1456941289
0
LINE
5
2C7
100
AcDbEntity
8
DEFAULT_2
100
AcDbLine
62
8
6
HIDDEN
10
366.4377763454
20
104.2706922215
11
366.0413347882
21
104.2706922215
0
LINE
5
2C8
100
AcDbEntity
8
DEFAULT_2
100
AcDbLine
62
8
6
HIDDEN
10
366.5249738111
20
104.3956931752
11
366.0413347882
21
104.3956931752
0
LINE
5
2C9
100
AcDbEntity
8
DEFAULT_2
100
AcDbLine
62
8
6
HIDDEN
10
366.5249738373
20
104.5206941289
11
366.0413347882
21
104.5206941289
0
LINE
5
2CA
100
AcDbEntity
8
DEFAULT_2
100
AcDbLine
62
8
6
HIDDEN
10
366.2243400325
20
105.5206931752
11
366.0413347882
21
105.5206931752
0
LINE
5
2CB
100
AcDbEntity
8
0
100
AcDbLine
62
7
6
CONTINUOUS
10
366.2243400325
20
105.5206931752
11
366.6413347882
21
105.5206931752
0
LINE
5
2CC
100
AcDbEntity
8
DEFAULT_2
100
AcDbLine
62
8
6
HIDDEN
10
366.2243400325
20
106.2706931752
11
366.0413347882
21
106.2706931752
0
LINE
5
2CD
100
AcDbEntity
8
0
100
AcDbLine
62
7
6
CONTINUOUS
10
366.6412760723
20
106.2706931752
11
366.2243400325
21
106.2706931752
0
LINE
5
2CE
100
AcDbEntity
8
DEFAULT_2
100
AcDbLine
62
8
6
HIDDEN
10
366.5876832396
20
107.0206931752
11
366.0413347882
21
107.0206931752
0
LINE
5
2CF
100
AcDbEntity
8
DEFAULT_2
100
AcDbLine
62
8
6
HIDDEN
10
366.6099925463
20
108.0206936521
11
366.0413347882
21
108.0206936521
0
LINE
5
2D0
100
AcDbEntity
8
0
100
AcDbLine
62
7
6
CONTINUOUS
10
366.6099925463
20
108.0206936521
11
366.6396679271
21
108.0206936521
0
LINE
5
2D1
100
AcDbEntity
8
0
100
AcDbLine
62
7
6
CONTINUOUS
10
366.6396679271
20
109.7706926984
11
366.6099925463
21
109.7706926984
0
LINE
5
2D2
100
AcDbEntity
8
DEFAULT_2
100
AcDbLine
62
8
6
HIDDEN
10
366.6099925463
20
109.7706926984
11
366.0413347882
21
109.7706926984
0
LINE
5
2D3
100
AcDbEntity
8
DEFAULT_2
100
AcDbLine
62
8
6
HIDDEN
10
366.2243400325
20
110.7706931752
11
366.0413347882
21
110.7706931752
0
LINE
5
2D4
100
AcDbEntity
8
0
100
AcDbLine
62
7
6
CONTINUOUS
10
366.2243400325
20
110.7706931752
11
366.6413347882
21
110.7706931752
0
LINE
5
2D5
100
AcDbEntity
8
DEFAULT_2
100
AcDbLine
62
8
6
HIDDEN
10
366.2243400325
20
111.5206931752
11
366.0413347882
21
111.5206931752
0
LINE
5
2D6
100
AcDbEntity
8
0
100
AcDbLine
62
7
6
CONTINUOUS
10
366.6412760723
20
111.5206931752
11
366.2243400325
21
111.5206931752
0
LINE
5
2D7
100
AcDbEntity
8
DEFAULT_2
100
AcDbLine
62
8
6
HIDDEN
10
366.5876832396
20
112.2706931752
11
366.0413347882
21
112.2706931752
0
LINE
5
2D8
100
AcDbEntity
8
0
100
AcDbLine
62
7
6
CONTINUOUS
10
366.5995871802
20
119.2706929368
11
366.5249738373
21
119.2706929368
0
LINE
5
2D9
100
AcDbEntity
8
DEFAULT_2
100
AcDbLine
62
8
6
HIDDEN
10
366.5249738373
20
119.2706929368
11
366.0413347882
21
119.2706929368
0
LINE
5
2DA
100
AcDbEntity
8
0
100
AcDbLine
62
7
6
CONTINUOUS
10
366.6263239324
20
119.3956931752
11
366.4619010193
21
119.3956931752
0
LINE
5
2DB
100
AcDbEntity
8
DEFAULT_2
100
AcDbLine
62
8
6
HIDDEN
10
366.4619010193
20
119.3956931752
11
366.0413347882
21
119.3956931752
0
LINE
5
2DC
100
AcDbEntity
8
0
100
AcDbLine
62
7
6
CONTINUOUS
10
338.5054805638
20
224.7706931752
11
338.5054805638
21
253.3706931752
0
LINE
5
2DD
100
AcDbEntity
8
0
100
AcDbLine
62
7
6
CONTINUOUS
10
366.6411495946
20
119.7706931752
11
366.3559546245
21
119.7706931752
0
LINE
5
2DE
100
AcDbEntity
8
DEFAULT_2
100
AcDbLine
62
8
6
HIDDEN
10
366.3559546245
20
119.7706931752
11
366.0413347882
21
119.7706931752
0
LINE
5
2DF
100
AcDbEntity
8
0
100
AcDbLine
62
7
6
CONTINUOUS
10
366.6411495939
20
120.0206929368
11
366.3096506496
21
120.0206929368
0
LINE
5
2E0
100
AcDbEntity
8
DEFAULT_2
100
AcDbLine
62
8
6
HIDDEN
10
366.3096506496
20
120.0206929368
11
366.0413347882
21
120.0206929368
0
LINE
5
2E1
100
AcDbEntity
8
0
100
AcDbLine
62
7
6
CONTINUOUS
10
366.4844691530
20
120.1456931752
11
366.2851361373
21
120.1456931752
0
LINE
5
2E2
100
AcDbEntity
8
DEFAULT_2
100
AcDbLine
62
8
6
HIDDEN
10
366.6189035932
20
120.1456931752
11
366.4844691530
21
120.1456931752
0
LINE
5
2E3
100
AcDbEntity
8
DEFAULT_2
100
AcDbLine
62
8
6
HIDDEN
10
366.2851361373
20
120.1456931752
11
366.0413347882
21
120.1456931752
0
LINE
5
2E4
100
AcDbEntity
8
DEFAULT_2
100
AcDbLine
62
8
6
HIDDEN
10
366.2596990906
20
120.2706934136
11
366.0413347882
21
120.2706934136
0
LINE
5
2E5
100
AcDbEntity
8
0
100
AcDbLine
62
7
6
CONTINUOUS
10
366.4377763629
20
120.3956929368
11
366.2596990906
21
120.3956929368
0
LINE
5
2E6
100
AcDbEntity
8
DEFAULT_2
100
AcDbLine
62
8
6
HIDDEN
10
366.6322565968
20
120.3956929368
11
366.4377763629
21
120.3956929368
0
LINE
5
2E7
100
AcDbEntity
8
DEFAULT_2
100
AcDbLine
62
8
6
HIDDEN
10
366.2596990906
20
120.3956929368
11
366.0413347882
21
120.3956929368
0
LINE
5
2E8
100
AcDbEntity
8
DEFAULT_2
100
AcDbLine
62
8
6
HIDDEN
10
366.6367039539
20
120.7706929368
11
366.4120847093
21
120.7706929368
0
LINE
5
2E9
100
AcDbEntity
8
0
100
AcDbLine
62
7
6
CONTINUOUS
10
366.4120847093
20
120.7706929368
11
366.2243400325
21
120.7706929368
0
LINE
5
2EA
100
AcDbEntity
8
DEFAULT_2
100
AcDbLine
62
8
6
HIDDEN
10
366.2243400325
20
120.7706929368
11
366.0413347882
21
120.7706929368
0
LINE
5
2EB
100
AcDbEntity
8
DEFAULT_2
100
AcDbLine
62
8
6
HIDDEN
10
366.2243400325
20
120.8956931752
11
366.0413347882
21
120.8956931752
0
LINE
5
2EC
100
AcDbEntity
8
DEFAULT_2
100
AcDbLine
62
8
6
HIDDEN
10
366.2243400325
20
123.1456931752
11
366.0413347882
21
123.1456931752
0
LINE
5
2ED
100
AcDbEntity
8
0
100
AcDbLine
62
7
6
CONTINUOUS
10
366.6367039944
20
123.1456931752
11
366.2243400325
21
123.1456931752
0
LINE
5
2EE
100
AcDbEntity
8
DEFAULT_2
100
AcDbLine
62
8
6
HIDDEN
10
366.2243400325
20
123.8956931752
11
366.0413347882
21
123.8956931752
0
LINE
5
2EF
100
AcDbEntity
8
0
100
AcDbLine
62
7
6
CONTINUOUS
10
366.6413347882
20
123.8956931752
11
366.2243400325
21
123.8956931752
0
LINE
5
2F0
100
AcDbEntity
8
DEFAULT_2
100
AcDbLine
62
8
6
HIDDEN
10
366.2243400325
20
124.8956932944
11
366.0413347882
21
124.8956932944
0
LINE
5
2F1
100
AcDbEntity
8
DEFAULT_2
100
AcDbLine
62
8
6
HIDDEN
10
366.2243400325
20
125.6456932944
11
366.0413347882
21
125.6456932944
0
LINE
5
2F2
100
AcDbEntity
8
DEFAULT_2
100
AcDbLine
62
8
6
HIDDEN
10
366.2243400325
20
126.8956931752
11
366.0413347882
21
126.8956931752
0
LINE
5
2F3
100
AcDbEntity
8
DEFAULT_2
100
AcDbLine
62
8
6
HIDDEN
10
366.2243400325
20
127.3956932348
11
366.0413347882
21
127.3956932348
0
LINE
5
2F4
100
AcDbEntity
8
0
100
AcDbLine
62
7
6
CONTINUOUS
10
366.4120847093
20
127.3956932348
11
366.2243400325
21
127.3956932348
0
LINE
5
2F5
100
AcDbEntity
8
0
100
AcDbLine
62
7
6
CONTINUOUS
10
344.6413347882
20
178.8246553986
11
344.6413347882
21
41.8956931752
0
LINE
5
2F6
100
AcDbEntity
8
0
100
AcDbLine
62
7
6
CONTINUOUS
10
348.3613347882
20
250.6903827718
11
348.3613347882
21
217.7506931752
0
LINE
5
2F7
100
AcDbEntity
8
DEFAULT_2
100
AcDbLine
62
8
6
HIDDEN
10
366.2243400325
20
127.8956931156
11
366.0413347882
21
127.8956931156
0
LINE
5
2F8
100
AcDbEntity
8
DEFAULT_2
100
AcDbLine
62
8
6
HIDDEN
10
366.2243400325
20
129.1456931752
11
366.0413347882
21
129.1456931752
0
LINE
5
2F9
100
AcDbEntity
8
DEFAULT_2
100
AcDbLine
62
8
6
HIDDEN
10
366.2243400325
20
129.8956931752
11
366.0413347882
21
129.8956931752
0
LINE
5
2FA
100
AcDbEntity
8
DEFAULT_1
100
AcDbLine
62
2
6
CENTER
10
355.6413347882
20
27.8956931752
11
355.6413347882
21
256.3706931752
0
LINE
5
2FB
100
AcDbEntity
8
0
100
AcDbLine
62
7
6
CONTINUOUS
10
362.9213347882
20
217.7506931752
11
362.9213347882
21
250.6903827718
0
LINE
5
2FC
100
AcDbEntity
8
DEFAULT_2
100
AcDbLine
62
8
6
HIDDEN
10
366.0413347882
20
129.8956931752
11
366.0413347882
21
124.8956932944
0
LINE
5
2FD
100
AcDbEntity
8
DEFAULT_2
100
AcDbLine
62
8
6
HIDDEN
10
366.0413347882
20
123.8956931752
11
366.0413347882
21
119.2706929368
0
LINE
5
2FE
100
AcDbEntity
8
DEFAULT_2
100
AcDbLine
62
8
6
HIDDEN
10
366.0413347882
20
112.2706931752
11
366.0413347882
21
110.7706931752
0
LINE
5
2FF
100
AcDbEntity
8
DEFAULT_2
100
AcDbLine
62
8
6
HIDDEN
10
366.0413347882
20
109.7706926984
11
366.0413347882
21
108.0206936521
0
LINE
5
300
100
AcDbEntity
8
DEFAULT_2
100
AcDbLine
62
8
6
HIDDEN
10
366.0413347882
20
107.0206931752
11
366.0413347882
21
105.5206931752
0
LINE
5
301
100
AcDbEntity
8
DEFAULT_2
100
AcDbLine
62
8
6
HIDDEN
10
366.0413347882
20
104.5206941289
11
366.0413347882
21
100.0206941289
0
LINE
5
302
100
AcDbEntity
8
DEFAULT_2
100
AcDbLine
62
8
6
HIDDEN
10
366.2243400325
20
129.8956931752
11
366.2243400325
21
129.1456931752
0
LINE
5
303
100
AcDbEntity
8
0
100
AcDbLine
62
7
6
CONTINUOUS
10
366.2243400325
20
127.8956931156
11
366.2243400325
21
126.8956931752
0
LINE
5
304
100
AcDbEntity
8
DEFAULT_2
100
AcDbLine
62
8
6
HIDDEN
10
366.2243400325
20
125.6456932944
11
366.2243400325
21
124.8956932944
0
LINE
5
305
100
AcDbEntity
8
0
100
AcDbLine
62
7
6
CONTINUOUS
10
366.2243400325
20
123.8956931752
11
366.2243400325
21
120.8956931752
0
LINE
5
306
100
AcDbEntity
8
0
100
AcDbLine
62
7
6
CONTINUOUS
10
366.2243400325
20
111.5206931752
11
366.2243400325
21
110.7706931752
0
LINE
5
307
100
AcDbEntity
8
0
100
AcDbLine
62
7
6
CONTINUOUS
10
366.2243400325
20
106.2706931752
11
366.2243400325
21
105.5206931752
0
LINE
5
308
100
AcDbEntity
8
0
100
AcDbLine
62
7
6
CONTINUOUS
10
366.2243400325
20
102.7706922215
11
366.2243400325
21
101.7706931752
0
LINE
5
309
100
AcDbEntity
8
0
100
AcDbLine
62
7
6
CONTINUOUS
10
366.3848148168
20
102.6456941289
11
366.3848148168
21
101.8956941289
0
LINE
5
30A
100
AcDbEntity
8
0
100
AcDbLine
62
7
6
CONTINUOUS
10
366.4120847093
20
123.1456931752
11
366.4120847093
21
120.7706929368
0
LINE
5
30B
100
AcDbEntity
8
DEFAULT_2
100
AcDbLine
62
8
6
HIDDEN
10
366.5249738373
20
103.8956922215
11
366.5249738111
21
103.7706941289
0
LINE
5
30C
100
AcDbEntity
8
0
100
AcDbLine
62
7
6
CONTINUOUS
10
366.5249738373
20
104.5206941289
11
366.5249738373
21
103.8956922215
0
LINE
5
30D
100
AcDbEntity
8
0
100
AcDbLine
62
7
6
CONTINUOUS
10
366.6099925463
20
109.7706926984
11
366.6099925463
21
108.0206936521
0
LINE
5
30E
100
AcDbEntity
8
DEFAULT_2
100
AcDbLine
62
8
6
HIDDEN
10
366.6322565968
20
123.1456931752
11
366.6322565968
21
120.7706929368
0
LINE
5
30F
100
AcDbEntity
8
0
100
AcDbLine
62
7
6
CONTINUOUS
10
366.6367039944
20
123.1456931752
11
366.6367039944
21
120.7706929368
0
LINE
5
310
100
AcDbEntity
8
0
100
AcDbLine
62
7
6
CONTINUOUS
10
366.6367039944
20
102.5206931752
11
366.6367039944
21
102.0206922215
0
LINE
5
311
100
AcDbEntity
8
0
100
AcDbLine
62
7
6
CONTINUOUS
10
366.6396679271
20
109.7706926984
11
366.6396679271
21
108.0206936521
0
LINE
5
312
100
AcDbEntity
8
0
100
AcDbLine
62
7
6
CONTINUOUS
10
366.6396679271
20
102.5206931752
11
366.6396679271
21
102.0206922215
0
LINE
5
313
100
AcDbEntity
8
0
100
AcDbLine
62
7
6
CONTINUOUS
10
366.6413347882
20
100.1456922215
11
366.6413347882
21
41.8956931752
0
LINE
5
314
100
AcDbEntity
8
DEFAULT_2
100
AcDbLine
62
8
6
HIDDEN
10
366.6413347882
20
100.1456922215
11
366.6413347882
21
101.0206931752
0
LINE
5
315
100
AcDbEntity
8
0
100
AcDbLine
62
7
6
CONTINUOUS
10
366.6413347882
20
101.0206931752
11
366.6413347882
21
101.2706922215
0
LINE
5
316
100
AcDbEntity
8
DEFAULT_2
100
AcDbLine
62
8
6
HIDDEN
10
366.6413347882
20
101.2706922215
11
366.6413347882
21
102.5206931752
0
LINE
5
317
100
AcDbEntity
8
0
100
AcDbLine
62
7
6
CONTINUOUS
10
366.6413347882
20
102.5206931752
11
366.6413347882
21
108.0206936521
0
LINE
5
318
100
AcDbEntity
8
DEFAULT_2
100
AcDbLine
62
8
6
HIDDEN
10
366.6413347882
20
108.0206936521
11
366.6413347882
21
109.7706926984
0
LINE
5
319
100
AcDbEntity
8
0
100
AcDbLine
62
7
6
CONTINUOUS
10
366.6413347882
20
109.7706926984
11
366.6413347882
21
119.3956931752
0
LINE
5
31A
100
AcDbEntity
8
DEFAULT_2
100
AcDbLine
62
8
6
HIDDEN
10
366.6413347882
20
119.3956931752
11
366.6413347882
21
120.0206929368
0
LINE
5
31B
100
AcDbEntity
8
0
100
AcDbLine
62
7
6
CONTINUOUS
10
366.6413347882
20
120.0206929368
11
366.6413347882
21
120.3956929368
0
LINE
5
31C
100
AcDbEntity
8
DEFAULT_2
100
AcDbLine
62
8
6
HIDDEN
10
366.6413347882
20
120.3956929368
11
366.6413347882
21
123.1456931752
0
LINE
5
31D
100
AcDbEntity
8
0
100
AcDbLine
62
7
6
CONTINUOUS
10
366.6413347882
20
123.1456931752
11
366.6413347882
21
178.8246553986
0
LINE
5
31E
100
AcDbEntity
8
0
100
AcDbLine
62
7
6
CONTINUOUS
10
372.7771890126
20
253.3706931752
11
372.7771890126
21
224.7706931752
0
LINE
5
31F
100
AcDbEntity
8
0
100
AcDbLine
62
7
6
CONTINUOUS
10
388.1413347882
20
202.5887404271
11
388.1413347882
21
243.6206931752
0
LINE
5
320
100
AcDbEntity
8
0
100
AcDbLine
62
7
6
CONTINUOUS
10
394.0488371557
20
191.8929721042
11
388.1413347882
21
225.3960828802
0
LINE
5
321
100
AcDbEntity
8
0
100
AcDbLine
62
7
6
CONTINUOUS
10
377.0850824751
20
202.3456931752
11
334.1975871013
21
202.3456931752
0
LINE
5
322
100
AcDbEntity
8
0
100
AcDbLine
62
7
6
CONTINUOUS
10
362.9213347882
20
227.3706931752
11
348.3613347882
21
227.3706931752
0
LINE
5
323
100
AcDbEntity
8
DEFAULT_1
100
AcDbLine
62
2
6
CENTER
10
345.3613347882
20
235.1706931752
11
365.9213347882
21
235.1706931752
0
LINE
5
324
100
AcDbEntity
8
0
100
AcDbLine
62
7
6
CONTINUOUS
10
388.1413347882
20
243.6206931752
11
379.9601133843
21
253.3706931752
0
LINE
5
325
100
AcDbEntity
8
0
100
AcDbLine
62
7
6
CONTINUOUS
10
362.9213347882
20
242.9706931752
11
348.3613347882
21
242.9706931752
0
LINE
5
326
100
AcDbEntity
8
0
100
AcDbLine
62
7
6
CONTINUOUS
10
331.3225561922
20
253.3706931752
11
338.5054805638
21
253.3706931752
0
LINE
5
327
100
AcDbEntity
8
0
100
AcDbLine
62
7
6
CONTINUOUS
10
372.7771890126
20
253.3706931752
11
379.9601133843
21
253.3706931752
0
ARC
5
328
100
AcDbEntity
8
DEFAULT_2
100
AcDbCircle
62
8
6
HIDDEN
10
205.2659828244
20
142.8956931752
40
25.0000000000
100
AcDbArc
50
71.0230617642
51
108.9769382358
0
ARC
5
329
100
AcDbEntity
8
DEFAULT_2
100
AcDbCircle
62
8
6
HIDDEN
10
205.2659828244
20
142.8956931752
40
47.0000000000
100
AcDbArc
50
80.0433182024
51
99.9566817976
0
ARC
5
32A
100
AcDbEntity
8
0
100
AcDbCircle
62
7
6
CONTINUOUS
10
205.2659828244
20
159.7706931752
40
8.1250000000
100
AcDbArc
50
180.0000000000
51
201.9913472955
0
ARC
5
32B
100
AcDbEntity
8
0
100
AcDbCircle
62
7
6
CONTINUOUS
10
205.2659828244
20
159.7706931752
40
8.1250000000
100
AcDbArc
50
338.0086527045
51
360.0000000000
0
CIRCLE
5
32C
100
AcDbEntity
8
0
100
AcDbCircle
62
7
6
CONTINUOUS
10
205.2659828244
20
235.1706931752
40
7.8000000000
0
ARC
5
32D
100
AcDbEntity
8
0
100
AcDbCircle
62
7
6
CONTINUOUS
10
209.0177923380
20
204.9456931752
40
2.6000000000
100
AcDbArc
50
294.9711750139
51
330.0000000000
0
ARC
5
32E
100
AcDbEntity
8
0
100
AcDbCircle
62
7
6
CONTINUOUS
10
215.6659828244
20
204.9456931752
40
2.6000000000
100
AcDbArc
50
270.0000000000
51
360.0000000000
0
ARC
5
32F
100
AcDbEntity
8
0
100
AcDbCircle
62
7
6
CONTINUOUS
10
220.8659828244
20
215.0673610755
40
2.6000000000
100
AcDbArc
50
150.0000000000
51
180.0000000000
0
ARC
5
330
100
AcDbEntity
8
0
100
AcDbCircle
62
7
6
CONTINUOUS
10
205.2659828244
20
235.1706931752
40
18.2000000000
100
AcDbArc
50
0.0000000000
51
180.0000000000
0
ARC
5
331
100
AcDbEntity
8
0
100
AcDbCircle
62
7
6
CONTINUOUS
10
189.6659828244
20
215.0673610755
40
2.6000000000
100
AcDbArc
50
0.0000000000
51
30.0000000000
0
ARC
5
332
100
AcDbEntity
8
0
100
AcDbCircle
62
7
6
CONTINUOUS
10
194.8659828244
20
204.9456931752
40
2.6000000000
100
AcDbArc
50
180.0000000000
51
270.0000000000
0
ARC
5
333
100
AcDbEntity
8
0
100
AcDbCircle
62
7
6
CONTINUOUS
10
201.5141733109
20
204.9456931752
40
2.6000000000
100
AcDbArc
50
210.0000000000
51
245.0288249861
0
ARC
5
334
100
AcDbEntity
8
0
100
AcDbCircle
62
7
6
CONTINUOUS
10
205.2659828244
20
142.8956931752
40
25.0000000000
100
AcDbArc
50
0.0000000000
51
71.0230617642
0
ARC
5
335
100
AcDbEntity
8
0
100
AcDbCircle
62
7
6
CONTINUOUS
10
205.2659828244
20
142.8956931752
40
25.0000000000
100
AcDbArc
50
108.9769382358
51
180.0000000000
0
ARC
5
336
100
AcDbEntity
8
0
100
AcDbCircle
62
7
6
CONTINUOUS
10
205.2659828244
20
142.8956931752
40
47.0000000000
100
AcDbArc
50
0.0000000000
51
80.0433182024
0
ARC
5
337
100
AcDbEntity
8
0
100
AcDbCircle
62
7
6
CONTINUOUS
10
205.2659828244
20
142.8956931752
40
47.0000000000
100
AcDbArc
50
99.9566817976
51
180.0000000000
0
ARC
5
338
100
AcDbEntity
8
0
100
AcDbCircle
62
7
6
CONTINUOUS
10
205.2659828244
20
77.8956931752
40
25.0000000000
100
AcDbArc
50
180.0000000000
51
360.0000000000
0
ARC
5
339
100
AcDbEntity
8
0
100
AcDbCircle
62
7
6
CONTINUOUS
10
205.2659828244
20
77.8956931752
40
47.0000000000
100
AcDbArc
50
180.0000000000
51
360.0000000000
0
ARC
5
33A
100
AcDbEntity
8
DEFAULT_2
100
AcDbCircle
62
8
6
HIDDEN
10
355.6413347882
20
178.8956931752
40
11.0000000000
100
AcDbArc
50
180.0000000000
51
360.0000000000
0
ARC
5
33B
100
AcDbEntity
8
DEFAULT_2
100
AcDbCircle
62
8
6
HIDDEN
10
355.6413347882
20
41.8956931752
40
11.0000000000
100
AcDbArc
50
0.0000000000
51
180.0000000000
0
ARC
5
33C
100
AcDbEntity
8
DEFAULT_2
100
AcDbCircle
62
8
6
HIDDEN
10
355.6413347882
20
185.1206931752
40
39.0000000000
100
AcDbArc
50
253.6095097286
51
286.3905001810
0
ARC
5
33D
100
AcDbEntity
8
DEFAULT_2
100
AcDbCircle
62
8
6
HIDDEN
10
355.6413347882
20
185.1206931752
40
17.2250000000
100
AcDbArc
50
230.2731330687
51
309.7268669313
0
ARC
5
33E
100
AcDbEntity
8
0
100
AcDbCircle
62
7
6
CONTINUOUS
10
355.6413347882
20
178.8956931752
40
11.0000000000
100
AcDbArc
50
0.0000000000
51
180.0000000000
0
ARC
5
33F
100
AcDbEntity
8
0
100
AcDbCircle
62
7
6
CONTINUOUS
10
355.6413347882
20
41.8956931752
40
11.0000000000
100
AcDbArc
50
180.0000000000
51
360.0000000000
0
ARC
5
340
100
AcDbEntity
8
0
100
AcDbCircle
62
7
6
CONTINUOUS
10
355.6413347882
20
185.1206931752
40
39.0000000000
100
AcDbArc
50
286.3905001810
51
10.0000000000
0
ARC
5
341
100
AcDbEntity
8
0
100
AcDbCircle
62
7
6
CONTINUOUS
10
355.6413347882
20
296.9206931752
40
46.8000000000
100
AcDbArc
50
278.9490180653
51
291.4784178411
0
ARC
5
342
100
AcDbEntity
8
0
100
AcDbCircle
62
7
6
CONTINUOUS
10
355.6413347882
20
296.9206931752
40
46.8000000000
100
AcDbArc
50
248.5215821589
51
261.0509819347
0
ARC
5
343
100
AcDbEntity
8
0
100
AcDbCircle
62
7
6
CONTINUOUS
10
355.6413347882
20
185.1206931752
40
17.2250000000
100
AcDbArc
50
309.7268669313
51
230.2731330687
0
CIRCLE
5
344
100
AcDbEntity
8
0
100
AcDbCircle
62
7
6
CONTINUOUS
10
378.6513347882
20
235.1706931752
40
3.2500000000
0
ARC
5
345
100
AcDbEntity
8
0
100
AcDbCircle
62
7
6
CONTINUOUS
10
355.6413347882
20
217.7506931752
40
7.2800000000
100
AcDbArc
50
180.0000000000
51
360.0000000000
0
ARC
5
346
100
AcDbEntity
8
0
100
AcDbCircle
62
7
6
CONTINUOUS
10
355.6413347882
20
185.1206931752
40
39.0000000000
100
AcDbArc
50
170.0000000000
51
253.6095097286
0
SPLINE
5
347
100
AcDbEntity
8
DEFAULT_2
100
AcDbSpline
62
8
6
HIDDEN
70
0
71
3
72
11
73
7
74
5
42
0.0000001000
43
0.0000001000
44
0.0000000001
40
0.0000000000
40
0.0000000000
40
0.0000000000
40
0.0000000000
40
0.2736618404
40
0.5152988758
40
0.7560103337
40
1.0000000000
40
1.0000000000
40
1.0000000000
40
1.0000000000
10
212.1272050445
20
203.1260358245
30
0.0000000000
10
211.9737960775
20
203.1822216721
30
0.0000000000
10
211.6698408439
20
203.2606681286
30
0.0000000000
10
211.2123005102
20
203.2023744661
30
0.0000000000
10
210.8165246056
20
203.0162133812
30
0.0000000000
10
210.5742853340
20
202.8579842608
30
0.0000000000
10
210.4528230557
20
202.7775864345
30
0.0000000000
11
212.1272050445
21
203.1260358245
31
0.0000000000
11
211.6487209331
21
203.2322120961
31
0.0000000000
11
211.2190411044
21
203.1806116145
31
0.0000000000
11
210.8237047984
21
203.0086682234
31
0.0000000000
11
210.4528230557
21
202.7775864345
31
0.0000000000
0
SPLINE
5
348
100
AcDbEntity
8
DEFAULT_2
100
AcDbSpline
62
8
6
HIDDEN
70
0
71
3
72
10
73
6
74
4
42
0.0000001000
43
0.0000001000
44
0.0000000001
40
0.0000000000
40
0.0000000000
40
0.0000000000
40
0.0000000000
40
0.2250746165
40
0.5712258964
40
1.0000000000
40
1.0000000000
40
1.0000000000
40
1.0000000000
10
213.3909828244
20
202.4215248066
30
0.0000000000
10
213.3909827868
20
202.4813593852
30
0.0000000000
10
213.3069111187
20
202.6234197084
30
0.0000000000
10
213.1031105019
20
202.7927692402
30
0.0000000000
10
212.9093069964
20
202.8751099994
30
0.0000000000
10
212.7998112077
20
202.9067903574
30
0.0000000000
11
213.3909828244
21
202.4215248066
31
0.0000000000
11
213.3197093415
21
202.5862721336
31
0.0000000000
11
213.1127912335
21
202.7690214971
31
0.0000000000
11
212.7998112077
21
202.9067903574
31
0.0000000000
0
SPLINE
5
349
100
AcDbEntity
8
DEFAULT_2
100
AcDbSpline
62
8
6
HIDDEN
70
0
71
3
72
10
73
6
74
4
42
0.0000001000
43
0.0000001000
44
0.0000000001
40
0.0000000000
40
0.0000000000
40
0.0000000000
40
0.0000000000
40
0.2250746165
40
0.5712258964
40
1.0000000000
40
1.0000000000
40
1.0000000000
40
1.0000000000
10
197.1409828244
20
202.4215248066
30
0.0000000000
10
197.1409828621
20
202.4813593852
30
0.0000000000
10
197.2250545301
20
202.6234197084
30
0.0000000000
10
197.4288551469
20
202.7927692402
30
0.0000000000
10
197.6226586525
20
202.8751099994
30
0.0000000000
10
197.7321544412
20
202.9067903574
30
0.0000000000
11
197.1409828244
21
202.4215248066
31
0.0000000000
11
197.2122563074
21
202.5862721336
31
0.0000000000
11
197.4191744153
21
202.7690214971
31
0.0000000000
11
197.7321544412
21
202.9067903574
31
0.0000000000
0
SPLINE
5
34A
100
AcDbEntity
8
DEFAULT_2
100
AcDbSpline
62
8
6
HIDDEN
70
0
71
3
72
11
73
7
74
5
42
0.0000001000
43
0.0000001000
44
0.0000000001
40
0.0000000000
40
0.0000000000
40
0.0000000000
40
0.0000000000
40
0.2736618404
40
0.5152988758
40
0.7560103337
40
1.0000000000
40
1.0000000000
40
1.0000000000
40
1.0000000000
10
198.4047606044
20
203.1260358245
30
0.0000000000
10
198.5581695713
20
203.1822216721
30
0.0000000000
10
198.8621248050
20
203.2606681286
30
0.0000000000
10
199.3196651386
20
203.2023744661
30
0.0000000000
10
199.7154410433
20
203.0162133812
30
0.0000000000
10
199.9576803149
20
202.8579842608
30
0.0000000000
10
200.0791425932
20
202.7775864345
30
0.0000000000
11
198.4047606044
21
203.1260358245
31
0.0000000000
11
198.8832447158
21
203.2322120961
31
0.0000000000
11
199.3129245445
21
203.1806116145
31
0.0000000000
11
199.7082608504
21
203.0086682234
31
0.0000000000
11
200.0791425932
21
202.7775864345
31
0.0000000000
0
SPLINE
5
34B
100
AcDbEntity
8
0
100
AcDbSpline
62
7
6
CONTINUOUS
70
0
71
3
72
10
73
6
74
4
42
0.0000001000
43
0.0000001000
44
0.0000000001
40
0.0000000000
40
0.0000000000
40
0.0000000000
40
0.0000000000
40
0.3159015172
40
0.6499699058
40
1.0000000000
40
1.0000000000
40
1.0000000000
40
1.0000000000
10
212.1272050445
20
203.1260358245
30
0.0000000000
10
212.1971670772
20
203.1004121307
30
0.0000000000
10
212.3417658019
20
203.0494532452
30
0.0000000000
10
212.5660004886
20
202.9762747913
30
0.0000000000
10
212.7205076635
20
202.9297352094
30
0.0000000000
10
212.7998112077
20
202.9067903574
30
0.0000000000
11
212.1272050445
21
203.1260358245
31
0.0000000000
11
212.3379951821
21
203.0516795520
31
0.0000000000
11
212.5626856801
21
202.9782826606
31
0.0000000000
11
212.7998112077
21
202.9067903574
31
0.0000000000
0
SPLINE
5
34C
100
AcDbEntity
8
0
100
AcDbSpline
62
7
6
CONTINUOUS
70
0
71
3
72
10
73
6
74
4
42
0.0000001000
43
0.0000001000
44
0.0000000001
40
0.0000000000
40
0.0000000000
40
0.0000000000
40
0.0000000000
40
0.4287722282
40
0.7749239057
40
1.0000000000
40
1.0000000000
40
1.0000000000
40
1.0000000000
10
212.7998112077
20
202.9067903574
30
0.0000000000
10
212.9093065152
20
202.8751101386
30
0.0000000000
10
213.1031096715
20
202.7927696481
30
0.0000000000
10
213.3069104712
20
202.6234204656
30
0.0000000000
10
213.3909827860
20
202.4813597783
30
0.0000000000
10
213.3909828244
20
202.4215248081
30
0.0000000000
11
212.7998112077
21
202.9067903574
31
0.0000000000
11
213.1127899491
21
202.7690223095
31
0.0000000000
11
213.3197086055
21
202.5862730967
31
0.0000000000
11
213.3909828244
21
202.4215248081
31
0.0000000000
0
SPLINE
5
34D
100
AcDbEntity
8
0
100
AcDbSpline
62
7
6
CONTINUOUS
70
0
71
3
72
11
73
7
74
5
42
0.0000001000
43
0.0000001000
44
0.0000000001
40
0.0000000000
40
0.0000000000
40
0.0000000000
40
0.0000000000
40
0.2442083284
40
0.4849817594
40
0.7265734916
40
1.0000000000
40
1.0000000000
40
1.0000000000
40
1.0000000000
10
210.4528221001
20
202.7775878782
30
0.0000000000
10
210.5743932767
20
202.8580582703
30
0.0000000000
10
210.8167750729
20
203.0163770241
30
0.0000000000
10
211.2127294706
20
203.2025170915
30
0.0000000000
10
211.6701613838
20
203.2606043697
30
0.0000000000
10
211.9739276652
20
203.1821734867
30
0.0000000000
10
212.1272050445
20
203.1260358245
30
0.0000000000
11
210.4528221001
21
202.7775878782
31
0.0000000000
11
210.8240482461
21
203.0088592847
31
0.0000000000
11
211.2195274316
21
203.1807548016
31
0.0000000000
11
211.6491464381
21
203.2321890056
31
0.0000000000
11
212.1272050445
21
203.1260358245
31
0.0000000000
0
SPLINE
5
34E
100
AcDbEntity
8
0
100
AcDbSpline
62
7
6
CONTINUOUS
70
0
71
3
72
10
73
6
74
4
42
0.0000001000
43
0.0000001000
44
0.0000000001
40
0.0000000000
40
0.0000000000
40
0.0000000000
40
0.0000000000
40
0.3159015172
40
0.6499699058
40
1.0000000000
40
1.0000000000
40
1.0000000000
40
1.0000000000
10
198.4047606044
20
203.1260358245
30
0.0000000000
10
198.3347985716
20
203.1004121307
30
0.0000000000
10
198.1901998469
20
203.0494532452
30
0.0000000000
10
197.9659651603
20
202.9762747913
30
0.0000000000
10
197.8114579854
20
202.9297352094
30
0.0000000000
10
197.7321544412
20
202.9067903574
30
0.0000000000
11
198.4047606044
21
203.1260358245
31
0.0000000000
11
198.1939704667
21
203.0516795520
31
0.0000000000
11
197.9692799688
21
202.9782826606
31
0.0000000000
11
197.7321544412
21
202.9067903574
31
0.0000000000
0
SPLINE
5
34F
100
AcDbEntity
8
0
100
AcDbSpline
62
7
6
CONTINUOUS
70
0
71
3
72
10
73
6
74
4
42
0.0000001000
43
0.0000001000
44
0.0000000001
40
0.0000000000
40
0.0000000000
40
0.0000000000
40
0.0000000000
40
0.4287722282
40
0.7749239057
40
1.0000000000
40
1.0000000000
40
1.0000000000
40
1.0000000000
10
197.7321544412
20
202.9067903574
30
0.0000000000
10
197.6226591337
20
202.8751101386
30
0.0000000000
10
197.4288559773
20
202.7927696481
30
0.0000000000
10
197.2250551777
20
202.6234204656
30
0.0000000000
10
197.1409828628
20
202.4813597783
30
0.0000000000
10
197.1409828244
20
202.4215248081
30
0.0000000000
11
197.7321544412
21
202.9067903574
31
0.0000000000
11
197.4191756998
21
202.7690223095
31
0.0000000000
11
197.2122570434
21
202.5862730967
31
0.0000000000
11
197.1409828244
21
202.4215248081
31
0.0000000000
0
SPLINE
5
350
100
AcDbEntity
8
0
100
AcDbSpline
62
7
6
CONTINUOUS
70
0
71
3
72
11
73
7
74
5
42
0.0000001000
43
0.0000001000
44
0.0000000001
40
0.0000000000
40
0.0000000000
40
0.0000000000
40
0.0000000000
40
0.2442083284
40
0.4849817594
40
0.7265734916
40
1.0000000000
40
1.0000000000
40
1.0000000000
40
1.0000000000
10
200.0791435488
20
202.7775878782
30
0.0000000000
10
199.9575723721
20
202.8580582703
30
0.0000000000
10
199.7151905760
20
203.0163770241
30
0.0000000000
10
199.3192361783
20
203.2025170915
30
0.0000000000
10
198.8618042651
20
203.2606043697
30
0.0000000000
10
198.5580379836
20
203.1821734867
30
0.0000000000
10
198.4047606044
20
203.1260358245
30
0.0000000000
11
200.0791435488
21
202.7775878782
31
0.0000000000
11
199.7079174028
21
203.0088592847
31
0.0000000000
11
199.3124382172
21
203.1807548016
31
0.0000000000
11
198.8828192108
21
203.2321890056
31
0.0000000000
11
198.4047606044
21
203.1260358245
31
0.0000000000
0
SPLINE
5
351
100
AcDbEntity
8
DEFAULT_2
100
AcDbSpline
62
8
6
HIDDEN
70
0
71
3
72
9
73
5
74
3
42
0.0000001000
43
0.0000001000
44
0.0000000001
40
0.0000000000
40
0.0000000000
40
0.0000000000
40
0.0000000000
40
0.6920802234
40
1.0000000000
40
1.0000000000
40
1.0000000000
40
1.0000000000
10
366.2243400325
20
129.8956931752
30
0.0000000000
10
366.3882076275
20
129.7030029898
30
0.0000000000
10
366.5909643251
20
129.3800910974
30
0.0000000000
10
366.6386987489
20
129.0097335566
30
0.0000000000
10
366.6386987490
20
128.8956931454
30
0.0000000000
11
366.2243400325
21
129.8956931752
31
0.0000000000
11
366.5946036295
21
129.2333158394
31
0.0000000000
11
366.6386987490
21
128.8956931454
31
0.0000000000
0
SPLINE
5
352
100
AcDbEntity
8
DEFAULT_2
100
AcDbSpline
62
8
6
HIDDEN
70
0
71
3
72
9
73
5
74
3
42
0.0000001000
43
0.0000001000
44
0.0000000001
40
0.0000000000
40
0.0000000000
40
0.0000000000
40
0.0000000000
40
0.3079197720
40
1.0000000000
40
1.0000000000
40
1.0000000000
40
1.0000000000
10
366.6386987482
20
125.8956932348
30
0.0000000000
10
366.6386987482
20
125.7816528335
30
0.0000000000
10
366.5909643244
20
125.4112953196
30
0.0000000000
10
366.3882076248
20
125.0883834595
30
0.0000000000
10
366.2243400325
20
124.8956932944
30
0.0000000000
11
366.6386987482
21
125.8956932348
31
0.0000000000
11
366.5946036295
21
125.5580705711
31
0.0000000000
11
366.2243400325
21
124.8956932944
31
0.0000000000
0
SPLINE
5
353
100
AcDbEntity
8
DEFAULT_2
100
AcDbSpline
62
8
6
HIDDEN
70
0
71
3
72
9
73
5
74
3
42
0.0000001000
43
0.0000001000
44
0.0000000001
40
0.0000000000
40
0.0000000000
40
0.0000000000
40
0.0000000000
40
0.5006865192
40
1.0000000000
40
1.0000000000
40
1.0000000000
40
1.0000000000
10
366.4619010030
20
101.0206931752
30
0.0000000000
10
366.4735097552
20
100.9792537076
30
0.0000000000
10
366.4956270742
20
100.8961853012
30
0.0000000000
10
366.5155686740
20
100.8125676581
30
0.0000000000
10
366.5249738111
20
100.7706941289
30
0.0000000000
11
366.4619010030
21
101.0206931752
31
0.0000000000
11
366.4951120176
21
100.8959335586
31
0.0000000000
11
366.5249738111
21
100.7706941289
31
0.0000000000
0
SPLINE
5
354
100
AcDbEntity
8
DEFAULT_2
100
AcDbSpline
62
8
6
HIDDEN
70
0
71
3
72
9
73
5
74
3
42
0.0000001000
43
0.0000001000
44
0.0000000001
40
0.0000000000
40
0.0000000000
40
0.0000000000
40
0.0000000000
40
0.4992312164
40
1.0000000000
40
1.0000000000
40
1.0000000000
40
1.0000000000
10
366.4120846908
20
101.3956931752
30
0.0000000000
10
366.4208875480
20
101.3333590206
30
0.0000000000
10
366.4380066264
20
101.2084256453
30
0.0000000000
10
366.4540991728
20
101.0833559029
30
0.0000000000
10
366.4619010030
20
101.0206931752
30
0.0000000000
11
366.4120846908
21
101.3956931752
31
0.0000000000
11
366.4377244603
21
101.2085837517
31
0.0000000000
11
366.4619010030
21
101.0206931752
31
0.0000000000
0
SPLINE
5
355
100
AcDbEntity
8
DEFAULT_2
100
AcDbSpline
62
8
6
HIDDEN
70
0
71
3
72
9
73
5
74
3
42
0.0000001000
43
0.0000001000
44
0.0000000001
40
0.0000000000
40
0.0000000000
40
0.0000000000
40
0.0000000000
40
0.4995461262
40
1.0000000000
40
1.0000000000
40
1.0000000000
40
1.0000000000
10
366.3848147971
20
102.0206922215
30
0.0000000000
10
366.3894874506
20
101.9166260840
30
0.0000000000
10
366.3987091339
20
101.7082987529
30
0.0000000000
10
366.4076673049
20
101.4999599247
30
0.0000000000
10
366.4120846908
20
101.3956931752
30
0.0000000000
11
366.3848147971
21
102.0206922215
31
0.0000000000
11
366.3986350044
21
101.7084849925
31
0.0000000000
11
366.4120846908
21
101.3956931752
31
0.0000000000
0
SPLINE
5
356
100
AcDbEntity
8
DEFAULT_2
100
AcDbSpline
62
8
6
HIDDEN
70
0
71
3
72
9
73
5
74
3
42
0.0000001000
43
0.0000001000
44
0.0000000001
40
0.0000000000
40
0.0000000000
40
0.0000000000
40
0.0000000000
40
0.4995461262
40
1.0000000000
40
1.0000000000
40
1.0000000000
40
1.0000000000
10
366.3848147971
20
102.5206931752
30
0.0000000000
10
366.3894874506
20
102.6247593127
30
0.0000000000
10
366.3987091339
20
102.8330866438
30
0.0000000000
10
366.4076673049
20
103.0414254721
30
0.0000000000
10
366.4120846908
20
103.1456922215
30
0.0000000000
11
366.3848147971
21
102.5206931752
31
0.0000000000
11
366.3986350044
21
102.8329004042
31
0.0000000000
11
366.4120846908
21
103.1456922215
31
0.0000000000
0
SPLINE
5
357
100
AcDbEntity
8
DEFAULT_2
100
AcDbSpline
62
8
6
HIDDEN
70
0
71
3
72
9
73
5
74
3
42
0.0000001000
43
0.0000001000
44
0.0000000001
40
0.0000000000
40
0.0000000000
40
0.0000000000
40
0.0000000000
40
0.4992312164
40
1.0000000000
40
1.0000000000
40
1.0000000000
40
1.0000000000
10
366.4120846908
20
103.1456922215
30
0.0000000000
10
366.4208875480
20
103.2080263761
30
0.0000000000
10
366.4380066264
20
103.3329597515
30
0.0000000000
10
366.4540991728
20
103.4580294939
30
0.0000000000
10
366.4619010030
20
103.5206922215
30
0.0000000000
11
366.4120846908
21
103.1456922215
31
0.0000000000
11
366.4377244603
21
103.3328016450
31
0.0000000000
11
366.4619010030
21
103.5206922215
31
0.0000000000
0
SPLINE
5
358
100
AcDbEntity
8
DEFAULT_2
100
AcDbSpline
62
8
6
HIDDEN
70
0
71
3
72
9
73
5
74
3
42
0.0000001000
43
0.0000001000
44
0.0000000001
40
0.0000000000
40
0.0000000000
40
0.0000000000
40
0.0000000000
40
0.5006864796
40
1.0000000000
40
1.0000000000
40
1.0000000000
40
1.0000000000
10
366.4619010030
20
103.5206922215
30
0.0000000000
10
366.4735097560
20
103.5621321662
30
0.0000000000
10
366.4956270763
20
103.6452015290
30
0.0000000000
10
366.5155686745
20
103.7288201229
30
0.0000000000
10
366.5249738111
20
103.7706941289
30
0.0000000000
11
366.4619010030
21
103.5206922215
31
0.0000000000
11
366.4951120173
21
103.6454532649
31
0.0000000000
11
366.5249738111
21
103.7706941289
31
0.0000000000
0
SPLINE
5
359
100
AcDbEntity
8
DEFAULT_2
100
AcDbSpline
62
8
6
HIDDEN
70
0
71
3
72
9
73
5
74
3
42
0.0000001000
43
0.0000001000
44
0.0000000001
40
0.0000000000
40
0.0000000000
40
0.0000000000
40
0.0000000000
40
0.5077584050
40
1.0000000000
40
1.0000000000
40
1.0000000000
40
1.0000000000
10
366.5593593267
20
100.1456922215
30
0.0000000000
10
366.5696013985
20
100.1661137967
30
0.0000000000
10
366.5882536060
20
100.2071175965
30
0.0000000000
10
366.6034531611
20
100.2495327397
30
0.0000000000
10
366.6099925598
20
100.2706931752
30
0.0000000000
11
366.5593593267
21
100.1456922215
31
0.0000000000
11
366.5876528707
21
100.2081177153
31
0.0000000000
11
366.6099925598
21
100.2706931752
31
0.0000000000
0
SPLINE
5
35A
100
AcDbEntity
8
DEFAULT_2
100
AcDbSpline
62
8
6
HIDDEN
70
0
71
3
72
9
73
5
74
3
42
0.0000001000
43
0.0000001000
44
0.0000000001
40
0.0000000000
40
0.0000000000
40
0.0000000000
40
0.0000000000
40
0.5002556891
40
1.0000000000
40
1.0000000000
40
1.0000000000
40
1.0000000000
10
366.6099925598
20
100.2706931752
30
0.0000000000
10
366.6148110987
20
100.3122713967
30
0.0000000000
10
366.6233428626
20
100.3955165990
30
0.0000000000
10
366.6296576245
20
100.4789593549
30
0.0000000000
10
366.6322565968
20
100.5206922215
30
0.0000000000
11
366.6099925598
21
100.2706931752
31
0.0000000000
11
366.6227924080
21
100.3956086077
31
0.0000000000
11
366.6322565968
21
100.5206922215
31
0.0000000000
0
SPLINE
5
35B
100
AcDbEntity
8
DEFAULT_2
100
AcDbSpline
62
8
6
HIDDEN
70
0
71
3
72
9
73
5
74
3
42
0.0000001000
43
0.0000001000
44
0.0000000001
40
0.0000000000
40
0.0000000000
40
0.0000000000
40
0.0000000000
40
0.5000616918
40
1.0000000000
40
1.0000000000
40
1.0000000000
40
1.0000000000
10
366.6322577835
20
100.5206922215
30
0.0000000000
10
366.6348521540
20
100.6040106450
30
0.0000000000
10
366.6389262518
20
100.7706634656
30
0.0000000000
10
366.6407791847
20
100.9373557606
30
0.0000000000
10
366.6411495939
20
101.0206931752
30
0.0000000000
11
366.6322577835
21
100.5206922215
31
0.0000000000
11
366.6383713262
21
100.7706938989
31
0.0000000000
11
366.6411495939
21
101.0206931752
31
0.0000000000
0
SPLINE
5
35C
100
AcDbEntity
8
DEFAULT_2
100
AcDbSpline
62
8
6
HIDDEN
70
0
71
3
72
9
73
5
74
3
42
0.0000001000
43
0.0000001000
44
0.0000000001
40
0.0000000000
40
0.0000000000
40
0.0000000000
40
0.0000000000
40
0.4999428158
40
1.0000000000
40
1.0000000000
40
1.0000000000
40
1.0000000000
10
366.4619010030
20
106.2706931752
30
0.0000000000
10
366.4888886602
20
106.3945556533
30
0.0000000000
10
366.5369171653
20
106.6436442400
30
0.0000000000
10
366.5728103433
20
106.8947709871
30
0.0000000000
10
366.5876832396
20
107.0206931752
30
0.0000000000
11
366.4619010030
21
106.2706931752
31
0.0000000000
11
366.5338785345
21
106.6441251757
31
0.0000000000
11
366.5876832396
21
107.0206931752
31
0.0000000000
0
SPLINE
5
35D
100
AcDbEntity
8
DEFAULT_2
100
AcDbSpline
62
8
6
HIDDEN
70
0
71
3
72
9
73
5
74
3
42
0.0000001000
43
0.0000001000
44
0.0000000001
40
0.0000000000
40
0.0000000000
40
0.0000000000
40
0.0000000000
40
0.4999428158
40
1.0000000000
40
1.0000000000
40
1.0000000000
40
1.0000000000
10
366.4619010030
20
111.5206931752
30
0.0000000000
10
366.4888886602
20
111.6445556533
30
0.0000000000
10
366.5369171653
20
111.8936442400
30
0.0000000000
10
366.5728103433
20
112.1447709871
30
0.0000000000
10
366.5876832396
20
112.2706931752
30
0.0000000000
11
366.4619010030
21
111.5206931752
31
0.0000000000
11
366.5338785345
21
111.8941251757
31
0.0000000000
11
366.5876832396
21
112.2706931752
31
0.0000000000
0
SPLINE
5
35E
100
AcDbEntity
8
DEFAULT_2
100
AcDbSpline
62
8
6
HIDDEN
70
0
71
3
72
9
73
5
74
3
42
0.0000001000
43
0.0000001000
44
0.0000000001
40
0.0000000000
40
0.0000000000
40
0.0000000000
40
0.0000000000
40
0.4999956868
40
1.0000000000
40
1.0000000000
40
1.0000000000
40
1.0000000000
10
366.6396679445
20
119.7706931752
30
0.0000000000
10
366.6400383752
20
119.8123585736
30
0.0000000000
10
366.6406557160
20
119.8956912330
30
0.0000000000
10
366.6410261272
20
119.9790253558
30
0.0000000000
10
366.6411495939
20
120.0206929368
30
0.0000000000
11
366.6396679445
21
119.7706931752
31
0.0000000000
11
366.6405939794
21
119.8956908800
31
0.0000000000
11
366.6411495939
21
120.0206929368
31
0.0000000000
0
SPLINE
5
35F
100
AcDbEntity
8
DEFAULT_2
100
AcDbSpline
62
8
6
HIDDEN
70
0
71
3
72
9
73
5
74
3
42
0.0000001000
43
0.0000001000
44
0.0000000001
40
0.0000000000
40
0.0000000000
40
0.0000000000
40
0.0000000000
40
0.5001097713
40
1.0000000000
40
1.0000000000
40
1.0000000000
40
1.0000000000
10
366.6189035932
20
119.3956931752
30
0.0000000000
10
366.6243366627
20
119.4580743187
30
0.0000000000
10
366.6332359975
20
119.5829881731
30
0.0000000000
10
366.6381844482
20
119.7081209540
30
0.0000000000
10
366.6396679271
20
119.7706931752
30
0.0000000000
11
366.6189035932
21
119.3956931752
31
0.0000000000
11
366.6322497965
21
119.5830703527
31
0.0000000000
11
366.6396679271
21
119.7706931752
31
0.0000000000
0
SPLINE
5
360
100
AcDbEntity
8
DEFAULT_2
100
AcDbSpline
62
8
6
HIDDEN
70
0
71
3
72
9
73
5
74
3
42
0.0000001000
43
0.0000001000
44
0.0000000001
40
0.0000000000
40
0.0000000000
40
0.0000000000
40
0.0000000000
40
0.5027779217
40
1.0000000000
40
1.0000000000
40
1.0000000000
40
1.0000000000
10
366.5876832396
20
119.2706929368
30
0.0000000000
10
366.5939602470
20
119.2913603391
30
0.0000000000
10
366.6054359653
20
119.3327806135
30
0.0000000000
10
366.6147957797
20
119.3747309635
30
0.0000000000
10
366.6189035932
20
119.3956931752
30
0.0000000000
11
366.5876832396
21
119.2706929368
31
0.0000000000
11
366.6049648525
21
119.3331447335
31
0.0000000000
11
366.6189035932
21
119.3956931752
31
0.0000000000
0
SPLINE
5
361
100
AcDbEntity
8
DEFAULT_2
100
AcDbSpline
62
8
6
HIDDEN
70
0
71
3
72
9
73
5
74
3
42
0.0000001000
43
0.0000001000
44
0.0000000001
40
0.0000000000
40
0.0000000000
40
0.0000000000
40
0.0000000000
40
0.5045662602
40
1.0000000000
40
1.0000000000
40
1.0000000000
40
1.0000000000
10
366.4844691225
20
120.1456931752
30
0.0000000000
10
366.4952285694
20
120.1251219955
30
0.0000000000
10
366.5156753444
20
120.0838861706
30
0.0000000000
10
366.5342335106
20
120.0417646842
30
0.0000000000
10
366.5429276367
20
120.0206929368
30
0.0000000000
11
366.4844691225
21
120.1456931752
31
0.0000000000
11
366.5153812595
21
120.0832841056
31
0.0000000000
11
366.5429276367
21
120.0206929368
31
0.0000000000
0
SPLINE
5
362
100
AcDbEntity
8
DEFAULT_2
100
AcDbSpline
62
8
6
HIDDEN
70
0
71
3
72
9
73
5
74
3
42
0.0000001000
43
0.0000001000
44
0.0000000001
40
0.0000000000
40
0.0000000000
40
0.0000000000
40
0.0000000000
40
0.4997220035
40
1.0000000000
40
1.0000000000
40
1.0000000000
40
1.0000000000
10
366.4377763461
20
120.3956929335
30
0.0000000000
10
366.4460547506
20
120.3541453107
30
0.0000000000
10
366.4621211314
20
120.2709035052
30
0.0000000000
10
366.4771847606
20
120.1874744018
30
0.0000000000
10
366.4844691225
20
120.1456931752
30
0.0000000000
11
366.4377763461
21
120.3956929335
31
0.0000000000
11
366.4618617894
21
120.2709030146
31
0.0000000000
11
366.4844691225
21
120.1456931752
31
0.0000000000
0
SPLINE
5
363
100
AcDbEntity
8
DEFAULT_2
100
AcDbSpline
62
8
6
HIDDEN
70
0
71
3
72
9
73
5
74
3
42
0.0000001000
43
0.0000001000
44
0.0000000001
40
0.0000000000
40
0.0000000000
40
0.0000000000
40
0.0000000000
40
0.4996071648
40
1.0000000000
40
1.0000000000
40
1.0000000000
40
1.0000000000
10
366.4120846908
20
120.7706929355
30
0.0000000000
10
366.4164937242
20
120.7082510805
30
0.0000000000
10
366.4251880069
20
120.5832599118
30
0.0000000000
10
366.4336214394
20
120.4582508725
30
0.0000000000
10
366.4377763454
20
120.3956929368
30
0.0000000000
11
366.4120846908
21
120.7706929355
31
0.0000000000
11
366.4251160659
21
120.5833536530
31
0.0000000000
11
366.4377763454
21
120.3956929368
31
0.0000000000
0
SPLINE
5
364
100
AcDbEntity
8
DEFAULT_2
100
AcDbSpline
62
8
6
HIDDEN
70
0
71
3
72
8
73
4
74
2
42
0.0000001000
43
0.0000001000
44
0.0000000001
40
0.0000000000
40
0.0000000000
40
0.0000000000
40
0.0000000000
40
1.0000000000
40
1.0000000000
40
1.0000000000
40
1.0000000000
10
366.2243400325
20
125.6456932944
30
0.0000000000
10
366.3001985468
20
125.7351664747
30
0.0000000000
10
366.3706595278
20
125.8308185509
30
0.0000000000
10
366.4310790909
20
125.9323013792
30
0.0000000000
11
366.2243400325
21
125.6456932944
31
0.0000000000
11
366.4310790909
21
125.9323013792
31
0.0000000000
0
SPLINE
5
365
100
AcDbEntity
8
DEFAULT_2
100
AcDbSpline
62
8
6
HIDDEN
70
0
71
3
72
8
73
4
74
2
42
0.0000001000
43
0.0000001000
44
0.0000000001
40
0.0000000000
40
0.0000000000
40
0.0000000000
40
0.0000000000
40
1.0000000000
40
1.0000000000
40
1.0000000000
40
1.0000000000
10
366.4310790909
20
125.9323013792
30
0.0000000000
10
366.4406491500
20
125.9483755878
30
0.0000000000
10
366.4499672853
20
125.9645960811
30
0.0000000000
10
366.4590150428
20
125.9809614754
30
0.0000000000
11
366.4310790909
21
125.9323013792
31
0.0000000000
11
366.4590150428
21
125.9809614754
31
0.0000000000
0
SPLINE
5
366
100
AcDbEntity
8
DEFAULT_2
100
AcDbSpline
62
8
6
HIDDEN
70
0
71
3
72
9
73
5
74
3
42
0.0000001000
43
0.0000001000
44
0.0000000001
40
0.0000000000
40
0.0000000000
40
0.0000000000
40
0.0000000000
40
0.8395059263
40
1.0000000000
40
1.0000000000
40
1.0000000000
40
1.0000000000
10
366.4590150428
20
125.9809614754
30
0.0000000000
10
366.5017541674
20
126.0582671094
30
0.0000000000
10
366.5454775345
20
126.1542031776
30
0.0000000000
10
366.5778805888
20
126.2545200237
30
0.0000000000
10
366.5827837481
20
126.2707194195
30
0.0000000000
11
366.4590150428
21
125.9809614754
31
0.0000000000
11
366.5671879999
21
126.2224323467
31
0.0000000000
11
366.5827837481
21
126.2707194195
31
0.0000000000
0
SPLINE
5
367
100
AcDbEntity
8
DEFAULT_2
100
AcDbSpline
62
8
6
HIDDEN
70
0
71
3
72
9
73
5
74
3
42
0.0000001000
43
0.0000001000
44
0.0000000001
40
0.0000000000
40
0.0000000000
40
0.0000000000
40
0.0000000000
40
0.1604943319
40
1.0000000000
40
1.0000000000
40
1.0000000000
40
1.0000000000
10
366.5827837718
20
128.5206669719
30
0.0000000000
10
366.5778806055
20
128.5368663941
30
0.0000000000
10
366.5454775542
20
128.6371832415
30
0.0000000000
10
366.5017541898
20
128.7331193111
30
0.0000000000
10
366.4590150820
20
128.8104249234
30
0.0000000000
11
366.5827837718
21
128.5206669719
31
0.0000000000
11
366.5671879999
21
128.5689541229
31
0.0000000000
11
366.4590150820
21
128.8104249234
31
0.0000000000
0
SPLINE
5
368
100
AcDbEntity
8
DEFAULT_2
100
AcDbSpline
62
8
6
HIDDEN
70
0
71
3
72
8
73
4
74
2
42
0.0000001000
43
0.0000001000
44
0.0000000001
40
0.0000000000
40
0.0000000000
40
0.0000000000
40
0.0000000000
40
1.0000000000
40
1.0000000000
40
1.0000000000
40
1.0000000000
10
366.4590150820
20
128.8104249234
30
0.0000000000
10
366.4499673122
20
128.8267903418
30
0.0000000000
10
366.4406491638
20
128.8430108586
30
0.0000000000
10
366.4310790909
20
128.8590850904
30
0.0000000000
11
366.4590150820
21
128.8104249234
31
0.0000000000
11
366.4310790909
21
128.8590850904
31
0.0000000000
0
SPLINE
5
369
100
AcDbEntity
8
DEFAULT_2
100
AcDbSpline
62
8
6
HIDDEN
70
0
71
3
72
8
73
4
74
2
42
0.0000001000
43
0.0000001000
44
0.0000000001
40
0.0000000000
40
0.0000000000
40
0.0000000000
40
0.0000000000
40
1.0000000000
40
1.0000000000
40
1.0000000000
40
1.0000000000
10
366.4310790909
20
128.8590850904
30
0.0000000000
10
366.3706595278
20
128.9605679188
30
0.0000000000
10
366.3001985468
20
129.0562199950
30
0.0000000000
10
366.2243400325
20
129.1456931752
30
0.0000000000
11
366.4310790909
21
128.8590850904
31
0.0000000000
11
366.2243400325
21
129.1456931752
31
0.0000000000
0
SPLINE
5
36A
100
AcDbEntity
8
DEFAULT_2
100
AcDbSpline
62
8
6
HIDDEN
70
0
71
3
72
9
73
5
74
3
42
0.0000001000
43
0.0000001000
44
0.0000000001
40
0.0000000000
40
0.0000000000
40
0.0000000000
40
0.0000000000
40
0.4998436910
40
1.0000000000
40
1.0000000000
40
1.0000000000
40
1.0000000000
10
366.6263239324
20
101.2706922215
30
0.0000000000
10
366.6285484516
20
101.3956455569
30
0.0000000000
10
366.6325033971
20
101.6456394431
30
0.0000000000
10
366.6354684095
20
101.8956470286
30
0.0000000000
10
366.6367039944
20
102.0206922215
30
0.0000000000
11
366.6263239324
21
101.2706922215
31
0.0000000000
11
366.6322548321
21
101.6455647132
31
0.0000000000
11
366.6367039944
21
102.0206922215
31
0.0000000000
0
SPLINE
5
36B
100
AcDbEntity
8
DEFAULT_2
100
AcDbSpline
62
8
6
HIDDEN
70
0
71
3
72
8
73
4
74
2
42
0.0000001000
43
0.0000001000
44
0.0000000001
40
0.0000000000
40
0.0000000000
40
0.0000000000
40
0.0000000000
40
1.0000000000
40
1.0000000000
40
1.0000000000
40
1.0000000000
10
366.6099925598
20
101.0206931752
30
0.0000000000
10
366.6132084475
20
101.0623170659
30
0.0000000000
10
366.6161772963
20
101.1039604117
30
0.0000000000
10
366.6188988386
20
101.1456199140
30
0.0000000000
11
366.6099925598
21
101.0206931752
31
0.0000000000
11
366.6188988386
21
101.1456199140
31
0.0000000000
0
SPLINE
5
36C
100
AcDbEntity
8
DEFAULT_2
100
AcDbSpline
62
8
6
HIDDEN
70
0
71
3
72
8
73
4
74
2
42
0.0000001000
43
0.0000001000
44
0.0000000001
40
0.0000000000
40
0.0000000000
40
0.0000000000
40
0.0000000000
40
1.0000000000
40
1.0000000000
40
1.0000000000
40
1.0000000000
10
366.6188988386
20
101.1456199140
30
0.0000000000
10
366.6216214392
20
101.1872956168
30
0.0000000000
10
366.6240965410
20
101.2289874887
30
0.0000000000
10
366.6263239324
20
101.2706922215
30
0.0000000000
11
366.6188988386
21
101.1456199140
31
0.0000000000
11
366.6263239324
21
101.2706922215
31
0.0000000000
0
SPLINE
5
36D
100
AcDbEntity
8
DEFAULT_2
100
AcDbSpline
62
8
6
HIDDEN
70
0
71
3
72
8
73
4
74
2
42
0.0000001000
43
0.0000001000
44
0.0000000001
40
0.0000000000
40
0.0000000000
40
0.0000000000
40
0.0000000000
40
1.0000000000
40
1.0000000000
40
1.0000000000
40
1.0000000000
10
366.5593593267
20
100.7706941289
30
0.0000000000
10
366.5697367984
20
100.8120767509
30
0.0000000000
10
366.5791777162
20
100.8537002133
30
0.0000000000
10
366.5876482039
20
100.8955206458
30
0.0000000000
11
366.5593593267
21
100.7706941289
31
0.0000000000
11
366.5876482039
21
100.8955206458
31
0.0000000000
0
SPLINE
5
36E
100
AcDbEntity
8
DEFAULT_2
100
AcDbSpline
62
8
6
HIDDEN
70
0
71
3
72
8
73
4
74
2
42
0.0000001000
43
0.0000001000
44
0.0000000001
40
0.0000000000
40
0.0000000000
40
0.0000000000
40
0.0000000000
40
1.0000000000
40
1.0000000000
40
1.0000000000
40
1.0000000000
10
366.5876482039
20
100.8955206458
30
0.0000000000
10
366.5918613102
20
100.9163215652
30
0.0000000000
10
366.5958343387
20
100.9371712137
30
0.0000000000
10
366.5995638966
20
100.9580635787
30
0.0000000000
11
366.5876482039
21
100.8955206458
31
0.0000000000
11
366.5995638966
21
100.9580635787
31
0.0000000000
0
SPLINE
5
36F
100
AcDbEntity
8
DEFAULT_2
100
AcDbSpline
62
8
6
HIDDEN
70
0
71
3
72
8
73
4
74
2
42
0.0000001000
43
0.0000001000
44
0.0000000001
40
0.0000000000
40
0.0000000000
40
0.0000000000
40
0.0000000000
40
1.0000000000
40
1.0000000000
40
1.0000000000
40
1.0000000000
10
366.5995638966
20
100.9580635787
30
0.0000000000
10
366.6032833987
20
100.9788996125
30
0.0000000000
10
366.6067607415
20
100.9997781327
30
0.0000000000
10
366.6099925598
20
101.0206931752
30
0.0000000000
11
366.5995638966
21
100.9580635787
31
0.0000000000
11
366.6099925598
21
101.0206931752
31
0.0000000000
0
SPLINE
5
370
100
AcDbEntity
8
DEFAULT_2
100
AcDbSpline
62
8
6
HIDDEN
70
0
71
3
72
9
73
5
74
3
42
0.0000001000
43
0.0000001000
44
0.0000000001
40
0.0000000000
40
0.0000000000
40
0.0000000000
40
0.0000000000
40
0.6535917039
40
1.0000000000
40
1.0000000000
40
1.0000000000
40
1.0000000000
10
366.4377763454
20
104.2706922215
30
0.0000000000
10
366.4539515747
20
104.2909874394
30
0.0000000000
10
366.4777806435
20
104.3227867567
30
0.0000000000
10
366.4999191258
20
104.3557742670
30
0.0000000000
10
366.5073637563
20
104.3673439864
30
0.0000000000
11
366.4377763454
21
104.2706922215
31
0.0000000000
11
366.4843783497
21
104.3330625541
31
0.0000000000
11
366.5073637563
21
104.3673439864
31
0.0000000000
0
SPLINE
5
371
100
AcDbEntity
8
DEFAULT_2
100
AcDbSpline
62
8
6
HIDDEN
70
0
71
3
72
8
73
4
74
2
42
0.0000001000
43
0.0000001000
44
0.0000000001
40
0.0000000000
40
0.0000000000
40
0.0000000000
40
0.0000000000
40
1.0000000000
40
1.0000000000
40
1.0000000000
40
1.0000000000
10
366.5073637563
20
104.3673439864
30
0.0000000000
10
366.5133842654
20
104.3767004749
30
0.0000000000
10
366.5192580661
20
104.3861502062
30
0.0000000000
10
366.5249738111
20
104.3956931752
30
0.0000000000
11
366.5073637563
21
104.3673439864
31
0.0000000000
11
366.5249738111
21
104.3956931752
31
0.0000000000
0
SPLINE
5
372
100
AcDbEntity
8
DEFAULT_2
100
AcDbSpline
62
8
6
HIDDEN
70
0
71
3
72
8
73
4
74
2
42
0.0000001000
43
0.0000001000
44
0.0000000001
40
0.0000000000
40
0.0000000000
40
0.0000000000
40
0.0000000000
40
1.0000000000
40
1.0000000000
40
1.0000000000
40
1.0000000000
10
366.3254912547
20
103.7706941289
30
0.0000000000
10
366.3358358097
20
103.8120464421
30
0.0000000000
10
366.3459307385
20
103.8534620024
30
0.0000000000
10
366.3557751347
20
103.8949374288
30
0.0000000000
11
366.3254912547
21
103.7706941289
31
0.0000000000
11
366.3557751347
21
103.8949374288
31
0.0000000000
0
SPLINE
5
373
100
AcDbEntity
8
DEFAULT_2
100
AcDbSpline
62
8
6
HIDDEN
70
0
71
3
72
9
73
5
74
3
42
0.0000001000
43
0.0000001000
44
0.0000000001
40
0.0000000000
40
0.0000000000
40
0.0000000000
40
0.0000000000
40
0.4996707415
40
1.0000000000
40
1.0000000000
40
1.0000000000
40
1.0000000000
10
366.3557751347
20
103.8949374288
30
0.0000000000
10
366.3656308884
20
103.9364607050
30
0.0000000000
10
366.3848528318
20
104.0196820690
30
0.0000000000
10
366.4030653650
20
104.1031301790
30
0.0000000000
10
366.4119241467
20
104.1449350244
30
0.0000000000
11
366.3557751347
21
103.8949374288
31
0.0000000000
11
366.3845881535
21
104.0196838782
31
0.0000000000
11
366.4119241467
21
104.1449350244
31
0.0000000000
0
SPLINE
5
374
100
AcDbEntity
8
DEFAULT_2
100
AcDbSpline
62
8
6
HIDDEN
70
0
71
3
72
8
73
4
74
2
42
0.0000001000
43
0.0000001000
44
0.0000000001
40
0.0000000000
40
0.0000000000
40
0.0000000000
40
0.0000000000
40
1.0000000000
40
1.0000000000
40
1.0000000000
40
1.0000000000
10
366.4119241467
20
104.1449350244
30
0.0000000000
10
366.4207960458
20
104.1868017717
30
0.0000000000
10
366.4294137121
20
104.2287219914
30
0.0000000000
10
366.4377763454
20
104.2706922215
30
0.0000000000
11
366.4119241467
21
104.1449350244
31
0.0000000000
11
366.4377763454
21
104.2706922215
31
0.0000000000
0
SPLINE
5
375
100
AcDbEntity
8
DEFAULT_2
100
AcDbSpline
62
8
6
HIDDEN
70
0
71
3
72
9
73
5
74
3
42
0.0000001000
43
0.0000001000
44
0.0000000001
40
0.0000000000
40
0.0000000000
40
0.0000000000
40
0.0000000000
40
0.3324706979
40
1.0000000000
40
1.0000000000
40
1.0000000000
40
1.0000000000
10
366.2766838464
20
103.3951292305
30
0.0000000000
10
366.2822933332
20
103.4367242906
30
0.0000000000
10
366.2989643949
20
103.5618604395
30
0.0000000000
10
366.3150324910
20
103.6870759268
30
0.0000000000
10
366.3254912547
20
103.7706941289
30
0.0000000000
11
366.2766838464
21
103.3951292305
31
0.0000000000
11
366.2933119624
21
103.5199412659
31
0.0000000000
11
366.3254912547
21
103.7706941289
31
0.0000000000
0
SPLINE
5
376
100
AcDbEntity
8
DEFAULT_2
100
AcDbSpline
62
8
6
HIDDEN
70
0
71
3
72
8
73
4
74
2
42
0.0000001000
43
0.0000001000
44
0.0000000001
40
0.0000000000
40
0.0000000000
40
0.0000000000
40
0.0000000000
40
1.0000000000
40
1.0000000000
40
1.0000000000
40
1.0000000000
10
366.2243400325
20
102.3956922215
30
0.0000000000
10
366.2273500680
20
102.4684726431
30
0.0000000000
10
366.2303428683
20
102.5412537796
30
0.0000000000
10
366.2333184754
20
102.6140356199
30
0.0000000000
11
366.2243400325
21
102.3956922215
31
0.0000000000
11
366.2333184754
21
102.6140356199
31
0.0000000000
0
SPLINE
5
377
100
AcDbEntity
8
DEFAULT_2
100
AcDbSpline
62
8
6
HIDDEN
70
0
71
3
72
8
73
4
74
2
42
0.0000001000
43
0.0000001000
44
0.0000000001
40
0.0000000000
40
0.0000000000
40
0.0000000000
40
0.0000000000
40
1.0000000000
40
1.0000000000
40
1.0000000000
40
1.0000000000
10
366.2333184754
20
102.6140356199
30
0.0000000000
10
366.2362977210
20
102.6869064584
30
0.0000000000
10
366.2392597314
20
102.7597780026
30
0.0000000000
10
366.2422045487
20
102.8326502416
30
0.0000000000
11
366.2333184754
21
102.6140356199
31
0.0000000000
11
366.2422045487
21
102.8326502416
31
0.0000000000
0
SPLINE
5
378
100
AcDbEntity
8
DEFAULT_2
100
AcDbSpline
62
8
6
HIDDEN
70
0
71
3
72
8
73
4
74
2
42
0.0000001000
43
0.0000001000
44
0.0000000001
40
0.0000000000
40
0.0000000000
40
0.0000000000
40
0.0000000000
40
1.0000000000
40
1.0000000000
40
1.0000000000
40
1.0000000000
10
366.2422045487
20
102.8326502416
30
0.0000000000
10
366.2481049760
20
102.9786617924
30
0.0000000000
10
366.2539363790
20
103.1246761323
30
0.0000000000
10
366.2596990875
20
103.2706931752
30
0.0000000000
11
366.2422045487
21
102.8326502416
31
0.0000000000
11
366.2596990875
21
103.2706931752
31
0.0000000000
0
SPLINE
5
379
100
AcDbEntity
8
DEFAULT_2
100
AcDbSpline
62
8
6
HIDDEN
70
0
71
3
72
8
73
4
74
2
42
0.0000001000
43
0.0000001000
44
0.0000000001
40
0.0000000000
40
0.0000000000
40
0.0000000000
40
0.0000000000
40
1.0000000000
40
1.0000000000
40
1.0000000000
40
1.0000000000
10
366.2243400325
20
102.1456931752
30
0.0000000000
10
366.2273500680
20
102.0729127536
30
0.0000000000
10
366.2303428683
20
102.0001316172
30
0.0000000000
10
366.2333184754
20
101.9273497768
30
0.0000000000
11
366.2243400325
21
102.1456931752
31
0.0000000000
11
366.2333184754
21
101.9273497768
31
0.0000000000
0
SPLINE
5
37A
100
AcDbEntity
8
DEFAULT_2
100
AcDbSpline
62
8
6
HIDDEN
70
0
71
3
72
8
73
4
74
2
42
0.0000001000
43
0.0000001000
44
0.0000000001
40
0.0000000000
40
0.0000000000
40
0.0000000000
40
0.0000000000
40
1.0000000000
40
1.0000000000
40
1.0000000000
40
1.0000000000
10
366.2333184754
20
101.9273497768
30
0.0000000000
10
366.2362977210
20
101.8544789383
30
0.0000000000
10
366.2392597314
20
101.7816073941
30
0.0000000000
10
366.2422045487
20
101.7087351552
30
0.0000000000
11
366.2333184754
21
101.9273497768
31
0.0000000000
11
366.2422045487
21
101.7087351552
31
0.0000000000
0
SPLINE
5
37B
100
AcDbEntity
8
DEFAULT_2
100
AcDbSpline
62
8
6
HIDDEN
70
0
71
3
72
8
73
4
74
2
42
0.0000001000
43
0.0000001000
44
0.0000000001
40
0.0000000000
40
0.0000000000
40
0.0000000000
40
0.0000000000
40
1.0000000000
40
1.0000000000
40
1.0000000000
40
1.0000000000
10
366.2422045487
20
101.7087351552
30
0.0000000000
10
366.2481049760
20
101.5627236044
30
0.0000000000
10
366.2539363790
20
101.4167092644
30
0.0000000000
10
366.2596990875
20
101.2706922215
30
0.0000000000
11
366.2422045487
21
101.7087351552
31
0.0000000000
11
366.2596990875
21
101.2706922215
31
0.0000000000
0
SPLINE
5
37C
100
AcDbEntity
8
DEFAULT_2
100
AcDbSpline
62
8
6
HIDDEN
70
0
71
3
72
8
73
4
74
2
42
0.0000001000
43
0.0000001000
44
0.0000000001
40
0.0000000000
40
0.0000000000
40
0.0000000000
40
0.0000000000
40
1.0000000000
40
1.0000000000
40
1.0000000000
40
1.0000000000
10
366.2596990875
20
101.2706922215
30
0.0000000000
10
366.2712049458
20
101.1873959157
30
0.0000000000
10
366.2824417017
20
101.1040622216
30
0.0000000000
10
366.2934109434
20
101.0206933337
30
0.0000000000
11
366.2596990875
21
101.2706922215
31
0.0000000000
11
366.2934109434
21
101.0206933337
31
0.0000000000
0
SPLINE
5
37D
100
AcDbEntity
8
DEFAULT_2
100
AcDbSpline
62
8
6
HIDDEN
70
0
71
3
72
8
73
4
74
2
42
0.0000001000
43
0.0000001000
44
0.0000000001
40
0.0000000000
40
0.0000000000
40
0.0000000000
40
0.0000000000
40
1.0000000000
40
1.0000000000
40
1.0000000000
40
1.0000000000
10
366.2934109434
20
101.0206933337
30
0.0000000000
10
366.3043709430
20
100.9373946874
30
0.0000000000
10
366.3150638789
20
100.8540609064
30
0.0000000000
10
366.3254912547
20
100.7706941289
30
0.0000000000
11
366.2934109434
21
101.0206933337
31
0.0000000000
11
366.3254912547
21
100.7706941289
31
0.0000000000
0
SPLINE
5
37E
100
AcDbEntity
8
DEFAULT_2
100
AcDbSpline
62
8
6
HIDDEN
70
0
71
3
72
8
73
4
74
2
42
0.0000001000
43
0.0000001000
44
0.0000000001
40
0.0000000000
40
0.0000000000
40
0.0000000000
40
0.0000000000
40
1.0000000000
40
1.0000000000
40
1.0000000000
40
1.0000000000
10
366.3254912547
20
100.7706941289
30
0.0000000000
10
366.3358358097
20
100.7293415789
30
0.0000000000
10
366.3459307383
20
100.6879257823
30
0.0000000000
10
366.3557751343
20
100.6464501198
30
0.0000000000
11
366.3254912547
21
100.7706941289
31
0.0000000000
11
366.3557751343
21
100.6464501198
31
0.0000000000
0
SPLINE
5
37F
100
AcDbEntity
8
DEFAULT_2
100
AcDbSpline
62
8
6
HIDDEN
70
0
71
3
72
8
73
4
74
2
42
0.0000001000
43
0.0000001000
44
0.0000000001
40
0.0000000000
40
0.0000000000
40
0.0000000000
40
0.0000000000
40
1.0000000000
40
1.0000000000
40
1.0000000000
40
1.0000000000
10
366.3557751343
20
100.6464501198
30
0.0000000000
10
366.3656308880
20
100.6049266055
30
0.0000000000
10
366.3752355307
20
100.5633430872
30
0.0000000000
10
366.3845881530
20
100.5217029572
30
0.0000000000
11
366.3557751343
21
100.6464501198
31
0.0000000000
11
366.3845881530
21
100.5217029572
31
0.0000000000
0
SPLINE
5
380
100
AcDbEntity
8
DEFAULT_2
100
AcDbSpline
62
8
6
HIDDEN
70
0
71
3
72
8
73
4
74
2
42
0.0000001000
43
0.0000001000
44
0.0000000001
40
0.0000000000
40
0.0000000000
40
0.0000000000
40
0.0000000000
40
1.0000000000
40
1.0000000000
40
1.0000000000
40
1.0000000000
10
366.3845881530
20
100.5217029572
30
0.0000000000
10
366.3939531014
20
100.4800079480
30
0.0000000000
10
366.4030653647
20
100.4382561779
30
0.0000000000
10
366.4119241463
20
100.3964510937
30
0.0000000000
11
366.3845881530
21
100.5217029572
31
0.0000000000
11
366.4119241463
21
100.3964510937
31
0.0000000000
0
SPLINE
5
381
100
AcDbEntity
8
DEFAULT_2
100
AcDbSpline
62
8
6
HIDDEN
70
0
71
3
72
8
73
4
74
2
42
0.0000001000
43
0.0000001000
44
0.0000000001
40
0.0000000000
40
0.0000000000
40
0.0000000000
40
0.0000000000
40
1.0000000000
40
1.0000000000
40
1.0000000000
40
1.0000000000
10
366.4119241463
20
100.3964510937
30
0.0000000000
10
366.4207960457
20
100.3545841057
30
0.0000000000
10
366.4294137121
20
100.3126636456
30
0.0000000000
10
366.4377763454
20
100.2706931752
30
0.0000000000
11
366.4119241463
21
100.3964510937
31
0.0000000000
11
366.4377763454
21
100.2706931752
31
0.0000000000
0
SPLINE
5
382
100
AcDbEntity
8
DEFAULT_2
100
AcDbSpline
62
8
6
HIDDEN
70
0
71
3
72
9
73
5
74
3
42
0.0000001000
43
0.0000001000
44
0.0000000001
40
0.0000000000
40
0.0000000000
40
0.0000000000
40
0.0000000000
40
0.6535917039
40
1.0000000000
40
1.0000000000
40
1.0000000000
40
1.0000000000
10
366.4377763454
20
100.2706931752
30
0.0000000000
10
366.4539515747
20
100.2503979573
30
0.0000000000
10
366.4777806435
20
100.2185986401
30
0.0000000000
10
366.4999191258
20
100.1856111298
30
0.0000000000
10
366.5073637563
20
100.1740414103
30
0.0000000000
11
366.4377763454
21
100.2706931752
31
0.0000000000
11
366.4843783497
21
100.2083228426
31
0.0000000000
11
366.5073637563
21
100.1740414103
31
0.0000000000
0
SPLINE
5
383
100
AcDbEntity
8
DEFAULT_2
100
AcDbSpline
62
8
6
HIDDEN
70
0
71
3
72
8
73
4
74
2
42
0.0000001000
43
0.0000001000
44
0.0000000001
40
0.0000000000
40
0.0000000000
40
0.0000000000
40
0.0000000000
40
1.0000000000
40
1.0000000000
40
1.0000000000
40
1.0000000000
10
366.5073637563
20
100.1740414103
30
0.0000000000
10
366.5133842654
20
100.1646849218
30
0.0000000000
10
366.5192580661
20
100.1552351906
30
0.0000000000
10
366.5249738111
20
100.1456922215
30
0.0000000000
11
366.5073637563
21
100.1740414103
31
0.0000000000
11
366.5249738111
21
100.1456922215
31
0.0000000000
0
SPLINE
5
384
100
AcDbEntity
8
DEFAULT_2
100
AcDbSpline
62
8
6
HIDDEN
70
0
71
3
72
9
73
5
74
3
42
0.0000001000
43
0.0000001000
44
0.0000000001
40
0.0000000000
40
0.0000000000
40
0.0000000000
40
0.0000000000
40
0.4998773988
40
1.0000000000
40
1.0000000000
40
1.0000000000
40
1.0000000000
10
366.2243400325
20
106.2706931752
30
0.0000000000
10
366.2659298209
20
106.3938289791
30
0.0000000000
10
366.3432211031
20
106.6421973730
30
0.0000000000
10
366.4083338836
20
106.8940367334
30
0.0000000000
10
366.4377763454
20
107.0206931752
30
0.0000000000
11
366.2243400325
21
106.2706931752
31
0.0000000000
11
366.3401590186
21
106.6430037886
31
0.0000000000
11
366.4377763454
21
107.0206931752
31
0.0000000000
0
SPLINE
5
385
100
AcDbEntity
8
DEFAULT_2
100
AcDbSpline
62
8
6
HIDDEN
70
0
71
3
72
9
73
5
74
3
42
0.0000001000
43
0.0000001000
44
0.0000000001
40
0.0000000000
40
0.0000000000
40
0.0000000000
40
0.0000000000
40
0.4998773988
40
1.0000000000
40
1.0000000000
40
1.0000000000
40
1.0000000000
10
366.2243400325
20
111.5206931752
30
0.0000000000
10
366.2659298209
20
111.6438289791
30
0.0000000000
10
366.3432211031
20
111.8921973730
30
0.0000000000
10
366.4083338836
20
112.1440367334
30
0.0000000000
10
366.4377763454
20
112.2706931752
30
0.0000000000
11
366.2243400325
21
111.5206931752
31
0.0000000000
11
366.3401590186
21
111.8930037886
31
0.0000000000
11
366.4377763454
21
112.2706931752
31
0.0000000000
0
SPLINE
5
386
100
AcDbEntity
8
DEFAULT_2
100
AcDbSpline
62
8
6
HIDDEN
70
0
71
3
72
9
73
5
74
3
42
0.0000001000
43
0.0000001000
44
0.0000000001
40
0.0000000000
40
0.0000000000
40
0.0000000000
40
0.0000000000
40
0.4999105645
40
1.0000000000
40
1.0000000000
40
1.0000000000
40
1.0000000000
10
366.6263239324
20
120.3956929368
30
0.0000000000
10
366.6274363718
20
120.4581797061
30
0.0000000000
10
366.6295377510
20
120.5831778392
30
0.0000000000
10
366.6313914696
20
120.7081798904
30
0.0000000000
10
366.6322565968
20
120.7706929368
30
0.0000000000
11
366.6263239324
21
120.3956929368
31
0.0000000000
11
366.6294754821
21
120.5831564598
31
0.0000000000
11
366.6322565968
21
120.7706929368
31
0.0000000000
0
SPLINE
5
387
100
AcDbEntity
8
DEFAULT_2
100
AcDbSpline
62
8
6
HIDDEN
70
0
71
3
72
9
73
5
74
3
42
0.0000001000
43
0.0000001000
44
0.0000000001
40
0.0000000000
40
0.0000000000
40
0.0000000000
40
0.0000000000
40
0.5047933644
40
1.0000000000
40
1.0000000000
40
1.0000000000
40
1.0000000000
10
366.4619010069
20
119.3956931682
30
0.0000000000
10
366.4734190722
20
119.3751351779
30
0.0000000000
10
366.4953823735
20
119.3339243120
30
0.0000000000
10
366.5155011142
20
119.2917802167
30
0.0000000000
10
366.5249738111
20
119.2706929368
30
0.0000000000
11
366.4619010069
21
119.3956931682
31
0.0000000000
11
366.4951229055
21
119.3332914325
31
0.0000000000
11
366.5249738111
21
119.2706929368
31
0.0000000000
0
SPLINE
5
388
100
AcDbEntity
8
DEFAULT_2
100
AcDbSpline
62
8
6
HIDDEN
70
0
71
3
72
8
73
4
74
2
42
0.0000001000
43
0.0000001000
44
0.0000000001
40
0.0000000000
40
0.0000000000
40
0.0000000000
40
0.0000000000
40
1.0000000000
40
1.0000000000
40
1.0000000000
40
1.0000000000
10
366.6099925598
20
120.1456931752
30
0.0000000000
10
366.6132084475
20
120.1873171851
30
0.0000000000
10
366.6161772963
20
120.2289606500
30
0.0000000000
10
366.6188988386
20
120.2706202714
30
0.0000000000
11
366.6099925598
21
120.1456931752
31
0.0000000000
11
366.6188988386
21
120.2706202714
31
0.0000000000
0
SPLINE
5
389
100
AcDbEntity
8
DEFAULT_2
100
AcDbSpline
62
8
6
HIDDEN
70
0
71
3
72
8
73
4
74
2
42
0.0000001000
43
0.0000001000
44
0.0000000001
40
0.0000000000
40
0.0000000000
40
0.0000000000
40
0.0000000000
40
1.0000000000
40
1.0000000000
40
1.0000000000
40
1.0000000000
10
366.6188988386
20
120.2706202714
30
0.0000000000
10
366.6216214392
20
120.3122960935
30
0.0000000000
10
366.6240965410
20
120.3539880847
30
0.0000000000
10
366.6263239324
20
120.3956929368
30
0.0000000000
11
366.6188988386
21
120.2706202714
31
0.0000000000
11
366.6263239324
21
120.3956929368
31
0.0000000000
0
SPLINE
5
38A
100
AcDbEntity
8
DEFAULT_2
100
AcDbSpline
62
8
6
HIDDEN
70
0
71
3
72
9
73
5
74
3
42
0.0000001000
43
0.0000001000
44
0.0000000001
40
0.0000000000
40
0.0000000000
40
0.0000000000
40
0.0000000000
40
0.6670376785
40
1.0000000000
40
1.0000000000
40
1.0000000000
40
1.0000000000
10
366.3559546151
20
119.7706931722
30
0.0000000000
10
366.3755670494
20
119.7087008094
30
0.0000000000
10
366.4035379781
20
119.6153049014
30
0.0000000000
10
366.4293134091
20
119.5212882519
30
0.0000000000
10
366.4376497582
20
119.4899194234
30
0.0000000000
11
366.3559546151
21
119.7706931722
31
0.0000000000
11
366.4119055129
21
119.5838274378
31
0.0000000000
11
366.4376497582
21
119.4899194234
31
0.0000000000
0
SPLINE
5
38B
100
AcDbEntity
8
DEFAULT_2
100
AcDbSpline
62
8
6
HIDDEN
70
0
71
3
72
8
73
4
74
2
42
0.0000001000
43
0.0000001000
44
0.0000000001
40
0.0000000000
40
0.0000000000
40
0.0000000000
40
0.0000000000
40
1.0000000000
40
1.0000000000
40
1.0000000000
40
1.0000000000
10
366.4376497582
20
119.4899194234
30
0.0000000000
10
366.4459798671
20
119.4585740762
30
0.0000000000
10
366.4540644457
20
119.4271639994
30
0.0000000000
10
366.4619010030
20
119.3956931752
30
0.0000000000
11
366.4376497582
21
119.4899194234
31
0.0000000000
11
366.4619010030
21
119.3956931752
31
0.0000000000
0
SPLINE
5
38C
100
AcDbEntity
8
DEFAULT_2
100
AcDbSpline
62
8
6
HIDDEN
70
0
71
3
72
8
73
4
74
2
42
0.0000001000
43
0.0000001000
44
0.0000000001
40
0.0000000000
40
0.0000000000
40
0.0000000000
40
0.0000000000
40
1.0000000000
40
1.0000000000
40
1.0000000000
40
1.0000000000
10
366.2596990875
20
120.2706934136
30
0.0000000000
10
366.2769405901
20
120.1874801732
30
0.0000000000
10
366.2935917810
20
120.1041435518
30
0.0000000000
10
366.3096540624
20
120.0206935950
30
0.0000000000
11
366.2596990875
21
120.2706934136
31
0.0000000000
11
366.3096540624
21
120.0206935950
31
0.0000000000
0
SPLINE
5
38D
100
AcDbEntity
8
DEFAULT_2
100
AcDbSpline
62
8
6
HIDDEN
70
0
71
3
72
8
73
4
74
2
42
0.0000001000
43
0.0000001000
44
0.0000000001
40
0.0000000000
40
0.0000000000
40
0.0000000000
40
0.0000000000
40
1.0000000000
40
1.0000000000
40
1.0000000000
40
1.0000000000
10
366.3096540624
20
120.0206935950
30
0.0000000000
10
366.3256728555
20
119.9374695768
30
0.0000000000
10
366.3411059235
20
119.8541328355
30
0.0000000000
10
366.3559546141
20
119.7706931752
30
0.0000000000
11
366.3096540624
21
120.0206935950
31
0.0000000000
11
366.3559546141
21
119.7706931752
31
0.0000000000
0
SPLINE
5
38E
100
AcDbEntity
8
DEFAULT_2
100
AcDbSpline
62
8
6
HIDDEN
70
0
71
3
72
9
73
5
74
3
42
0.0000001000
43
0.0000001000
44
0.0000000001
40
0.0000000000
40
0.0000000000
40
0.0000000000
40
0.0000000000
40
0.4994035525
40
1.0000000000
40
1.0000000000
40
1.0000000000
40
1.0000000000
10
366.2243400325
20
120.8956931752
30
0.0000000000
10
366.2303637304
20
120.7916586586
30
0.0000000000
10
366.2422875281
20
120.5833331121
30
0.0000000000
10
366.2539363314
20
120.3749920085
30
0.0000000000
10
366.2596990875
20
120.2706934136
30
0.0000000000
11
366.2243400325
21
120.8956931752
31
0.0000000000
11
366.2422047196
21
120.5835777426
31
0.0000000000
11
366.2596990875
21
120.2706934136
31
0.0000000000
0
SPLINE
5
38F
100
AcDbEntity
8
DEFAULT_2
100
AcDbSpline
62
8
6
HIDDEN
70
0
71
3
72
9
73
5
74
3
42
0.0000001000
43
0.0000001000
44
0.0000000001
40
0.0000000000
40
0.0000000000
40
0.0000000000
40
0.0000000000
40
0.6688217295
40
1.0000000000
40
1.0000000000
40
1.0000000000
40
1.0000000000
10
366.5742757962
20
120.0206929368
30
0.0000000000
10
366.5812937400
20
120.0413422775
30
0.0000000000
10
366.5910428898
20
120.0724748256
30
0.0000000000
10
366.5996125756
20
120.1039453945
30
0.0000000000
10
366.6023180313
20
120.1144016151
30
0.0000000000
11
366.5742757962
21
120.0206929368
31
0.0000000000
11
366.5938070256
21
120.0831377312
31
0.0000000000
11
366.6023180313
21
120.1144016151
31
0.0000000000
0
SPLINE
5
390
100
AcDbEntity
8
DEFAULT_2
100
AcDbSpline
62
8
6
HIDDEN
70
0
71
3
72
8
73
4
74
2
42
0.0000001000
43
0.0000001000
44
0.0000000001
40
0.0000000000
40
0.0000000000
40
0.0000000000
40
0.0000000000
40
1.0000000000
40
1.0000000000
40
1.0000000000
40
1.0000000000
10
366.6023180313
20
120.1144016151
30
0.0000000000
10
366.6050084487
20
120.1247997146
30
0.0000000000
10
366.6075676986
20
120.1352312908
30
0.0000000000
10
366.6099925598
20
120.1456931752
30
0.0000000000
11
366.6023180313
21
120.1144016151
31
0.0000000000
11
366.6099925598
21
120.1456931752
31
0.0000000000
0
SPLINE
5
391
100
AcDbEntity
8
0
100
AcDbSpline
62
7
6
CONTINUOUS
70
0
71
3
72
8
73
4
74
2
42
0.0000001000
43
0.0000001000
44
0.0000000001
40
0.0000000000
40
0.0000000000
40
0.0000000000
40
0.0000000000
40
1.0000000000
40
1.0000000000
40
1.0000000000
40
1.0000000000
10
366.2243400325
20
126.8956931752
30
0.0000000000
10
366.3107195923
20
126.7941203663
30
0.0000000000
10
366.3905571550
20
126.6839918470
30
0.0000000000
10
366.4564254169
20
126.5664889797
30
0.0000000000
11
366.2243400325
21
126.8956931752
31
0.0000000000
11
366.4564254169
21
126.5664889797
31
0.0000000000
0
SPLINE
5
392
100
AcDbEntity
8
0
100
AcDbSpline
62
7
6
CONTINUOUS
70
0
71
3
72
9
73
5
74
3
42
0.0000001000
43
0.0000001000
44
0.0000000001
40
0.0000000000
40
0.0000000000
40
0.0000000000
40
0.0000000000
40
0.5152271364
40
1.0000000000
40
1.0000000000
40
1.0000000000
40
1.0000000000
10
366.4564254169
20
126.5664889797
30
0.0000000000
10
366.5155134933
20
126.4610813342
30
0.0000000000
10
366.6083786252
20
126.2449786542
30
0.0000000000
10
366.6386987482
20
126.0097336359
30
0.0000000000
10
366.6386987482
20
125.8956932348
30
0.0000000000
11
366.4564254169
21
126.5664889797
31
0.0000000000
11
366.5946036296
21
126.2333158982
31
0.0000000000
11
366.6386987482
21
125.8956932348
31
0.0000000000
0
SPLINE
5
393
100
AcDbEntity
8
0
100
AcDbSpline
62
7
6
CONTINUOUS
70
0
71
3
72
8
73
4
74
2
42
0.0000001000
43
0.0000001000
44
0.0000000001
40
0.0000000000
40
0.0000000000
40
0.0000000000
40
0.0000000000
40
1.0000000000
40
1.0000000000
40
1.0000000000
40
1.0000000000
10
366.5827837481
20
126.2707194195
30
0.0000000000
10
366.6198304078
20
126.3931167260
30
0.0000000000
10
366.6399025404
20
126.5211735512
30
0.0000000000
10
366.6405215637
20
126.6489783282
30
0.0000000000
11
366.5827837481
21
126.2707194195
31
0.0000000000
11
366.6405215637
21
126.6489783282
31
0.0000000000
0
SPLINE
5
394
100
AcDbEntity
8
0
100
AcDbSpline
62
7
6
CONTINUOUS
70
0
71
3
72
8
73
4
74
2
42
0.0000001000
43
0.0000001000
44
0.0000000001
40
0.0000000000
40
0.0000000000
40
0.0000000000
40
0.0000000000
40
1.0000000000
40
1.0000000000
40
1.0000000000
40
1.0000000000
10
366.6405215637
20
128.1424081414
30
0.0000000000
10
366.6399025406
20
128.2702128912
30
0.0000000000
10
366.6198304163
20
128.3982696890
30
0.0000000000
10
366.5827837718
20
128.5206669719
30
0.0000000000
11
366.6405215637
21
128.1424081414
31
0.0000000000
11
366.5827837718
21
128.5206669719
31
0.0000000000
0
SPLINE
5
395
100
AcDbEntity
8
0
100
AcDbSpline
62
7
6
CONTINUOUS
70
0
71
3
72
9
73
5
74
3
42
0.0000001000
43
0.0000001000
44
0.0000000001
40
0.0000000000
40
0.0000000000
40
0.0000000000
40
0.0000000000
40
0.4847728670
40
1.0000000000
40
1.0000000000
40
1.0000000000
40
1.0000000000
10
366.6386987490
20
128.8956931454
30
0.0000000000
10
366.6386987490
20
128.7816527343
30
0.0000000000
10
366.6083786256
20
128.5464076972
30
0.0000000000
10
366.5155134933
20
128.3303049964
30
0.0000000000
10
366.4564254166
20
128.2248973407
30
0.0000000000
11
366.6386987490
21
128.8956931454
31
0.0000000000
11
366.5946036296
21
128.5580704517
31
0.0000000000
11
366.4564254166
21
128.2248973407
31
0.0000000000
0
SPLINE
5
396
100
AcDbEntity
8
0
100
AcDbSpline
62
7
6
CONTINUOUS
70
0
71
3
72
8
73
4
74
2
42
0.0000001000
43
0.0000001000
44
0.0000000001
40
0.0000000000
40
0.0000000000
40
0.0000000000
40
0.0000000000
40
1.0000000000
40
1.0000000000
40
1.0000000000
40
1.0000000000
10
366.4564254166
20
128.2248973407
30
0.0000000000
10
366.3905571553
20
128.1073944638
30
0.0000000000
10
366.3107195931
20
127.9972659345
30
0.0000000000
10
366.2243400325
20
127.8956931156
30
0.0000000000
11
366.4564254166
21
128.2248973407
31
0.0000000000
11
366.2243400325
21
127.8956931156
31
0.0000000000
0
SPLINE
5
397
100
AcDbEntity
8
0
100
AcDbSpline
62
7
6
CONTINUOUS
70
0
71
3
72
8
73
4
74
2
42
0.0000001000
43
0.0000001000
44
0.0000000001
40
0.0000000000
40
0.0000000000
40
0.0000000000
40
0.0000000000
40
1.0000000000
40
1.0000000000
40
1.0000000000
40
1.0000000000
10
366.3254912656
20
100.7706941289
30
0.0000000000
10
366.3306815478
20
100.7395718195
30
0.0000000000
10
366.3358068306
20
100.7084386011
30
0.0000000000
10
366.3408672083
20
100.6772948016
30
0.0000000000
11
366.3254912656
21
100.7706941289
31
0.0000000000
11
366.3408672083
21
100.6772948016
31
0.0000000000
0
SPLINE
5
398
100
AcDbEntity
8
0
100
AcDbSpline
62
7
6
CONTINUOUS
70
0
71
3
72
9
73
5
74
3
42
0.0000001000
43
0.0000001000
44
0.0000000001
40
0.0000000000
40
0.0000000000
40
0.0000000000
40
0.0000000000
40
0.3327201850
40
1.0000000000
40
1.0000000000
40
1.0000000000
40
1.0000000000
10
366.3408672083
20
100.6772948016
30
0.0000000000
10
366.3459367958
20
100.6460943216
30
0.0000000000
10
366.3609778009
20
100.5522884720
30
0.0000000000
10
366.3754312285
20
100.4583896705
30
0.0000000000
10
366.3848148168
20
100.3956941289
30
0.0000000000
11
366.3408672083
21
100.6772948016
31
0.0000000000
11
366.3558806414
21
100.5836618323
31
0.0000000000
11
366.3848148168
21
100.3956941289
31
0.0000000000
0
SPLINE
5
399
100
AcDbEntity
8
0
100
AcDbSpline
62
7
6
CONTINUOUS
70
0
71
3
72
8
73
4
74
2
42
0.0000001000
43
0.0000001000
44
0.0000000001
40
0.0000000000
40
0.0000000000
40
0.0000000000
40
0.0000000000
40
1.0000000000
40
1.0000000000
40
1.0000000000
40
1.0000000000
10
366.2596990906
20
101.2706922215
30
0.0000000000
10
366.2654273112
20
101.2292229504
30
0.0000000000
10
366.2710888329
20
101.1877444124
30
0.0000000000
10
366.2766838515
20
101.1462568782
30
0.0000000000
11
366.2596990906
21
101.2706922215
31
0.0000000000
11
366.2766838515
21
101.1462568782
31
0.0000000000
0
SPLINE
5
39A
100
AcDbEntity
8
0
100
AcDbSpline
62
7
6
CONTINUOUS
70
0
71
3
72
9
73
5
74
3
42
0.0000001000
43
0.0000001000
44
0.0000000001
40
0.0000000000
40
0.0000000000
40
0.0000000000
40
0.0000000000
40
0.3324706586
40
1.0000000000
40
1.0000000000
40
1.0000000000
40
1.0000000000
10
366.2766838515
20
101.1462568782
30
0.0000000000
10
366.2822933384
20
101.1046620614
30
0.0000000000
10
366.2989644020
20
100.9795266291
30
0.0000000000
10
366.3150325000
20
100.8543118580
30
0.0000000000
10
366.3254912656
20
100.7706941289
30
0.0000000000
11
366.2766838515
21
101.1462568782
31
0.0000000000
11
366.2933119675
21
101.0214455723
31
0.0000000000
11
366.3254912656
21
100.7706941289
31
0.0000000000
0
SPLINE
5
39B
100
AcDbEntity
8
0
100
AcDbSpline
62
7
6
CONTINUOUS
70
0
71
3
72
9
73
5
74
3
42
0.0000001000
43
0.0000001000
44
0.0000000001
40
0.0000000000
40
0.0000000000
40
0.0000000000
40
0.0000000000
40
0.5005807349
40
1.0000000000
40
1.0000000000
40
1.0000000000
40
1.0000000000
10
366.2596990906
20
101.2706922215
30
0.0000000000
10
366.2539362765
20
101.3541321212
30
0.0000000000
10
366.2422872223
20
101.5208089001
30
0.0000000000
10
366.2303636661
20
101.6874662674
30
0.0000000000
10
366.2243400325
20
101.7706931752
30
0.0000000000
11
366.2596990906
21
101.2706922215
31
0.0000000000
11
366.2422049073
21
101.5209976260
31
0.0000000000
11
366.2243400325
21
101.7706931752
31
0.0000000000
0
SPLINE
5
39C
100
AcDbEntity
8
0
100
AcDbSpline
62
7
6
CONTINUOUS
70
0
71
3
72
9
73
5
74
3
42
0.0000001000
43
0.0000001000
44
0.0000000001
40
0.0000000000
40
0.0000000000
40
0.0000000000
40
0.0000000000
40
0.5005807349
40
1.0000000000
40
1.0000000000
40
1.0000000000
40
1.0000000000
10
366.2596990906
20
103.2706931752
30
0.0000000000
10
366.2539362765
20
103.1872532755
30
0.0000000000
10
366.2422872223
20
103.0205764966
30
0.0000000000
10
366.2303636661
20
102.8539191293
30
0.0000000000
10
366.2243400325
20
102.7706922215
30
0.0000000000
11
366.2596990906
21
103.2706931752
31
0.0000000000
11
366.2422049073
21
103.0203877708
31
0.0000000000
11
366.2243400325
21
102.7706922215
31
0.0000000000
0
SPLINE
5
39D
100
AcDbEntity
8
0
100
AcDbSpline
62
7
6
CONTINUOUS
70
0
71
3
72
8
73
4
74
2
42
0.0000001000
43
0.0000001000
44
0.0000000001
40
0.0000000000
40
0.0000000000
40
0.0000000000
40
0.0000000000
40
1.0000000000
40
1.0000000000
40
1.0000000000
40
1.0000000000
10
366.2596990906
20
103.2706931752
30
0.0000000000
10
366.2654273112
20
103.3121626835
30
0.0000000000
10
366.2710888328
20
103.3536414586
30
0.0000000000
10
366.2766838514
20
103.3951292298
30
0.0000000000
11
366.2596990906
21
103.2706931752
31
0.0000000000
11
366.2766838514
21
103.3951292298
31
0.0000000000
0
SPLINE
5
39E
100
AcDbEntity
8
0
100
AcDbSpline
62
7
6
CONTINUOUS
70
0
71
3
72
9
73
5
74
3
42
0.0000001000
43
0.0000001000
44
0.0000000001
40
0.0000000000
40
0.0000000000
40
0.0000000000
40
0.0000000000
40
0.3324706557
40
1.0000000000
40
1.0000000000
40
1.0000000000
40
1.0000000000
10
366.2766838514
20
103.3951292298
30
0.0000000000
10
366.2822933383
20
103.4367242847
30
0.0000000000
10
366.2989644020
20
103.5618604339
30
0.0000000000
10
366.3150325000
20
103.6870759213
30
0.0000000000
10
366.3254912656
20
103.7706941289
30
0.0000000000
11
366.2766838514
21
103.3951292298
31
0.0000000000
11
366.2933119674
21
103.5199412496
31
0.0000000000
11
366.3254912656
21
103.7706941289
31
0.0000000000
0
SPLINE
5
39F
100
AcDbEntity
8
0
100
AcDbSpline
62
7
6
CONTINUOUS
70
0
71
3
72
9
73
5
74
3
42
0.0000001000
43
0.0000001000
44
0.0000000001
40
0.0000000000
40
0.0000000000
40
0.0000000000
40
0.0000000000
40
0.5374770525
40
1.0000000000
40
1.0000000000
40
1.0000000000
40
1.0000000000
10
366.3848148168
20
104.1456941289
30
0.0000000000
10
366.3754312285
20
104.0829985872
30
0.0000000000
10
366.3574872429
20
103.9664228664
30
0.0000000000
10
366.3386376054
20
103.8499904150
30
0.0000000000
10
366.3297249833
20
103.7961700782
30
0.0000000000
11
366.3848148168
21
104.1456941289
31
0.0000000000
11
366.3558806414
21
103.9577264255
31
0.0000000000
11
366.3297249833
21
103.7961700782
31
0.0000000000
0
SPLINE
5
3A0
100
AcDbEntity
8
0
100
AcDbSpline
62
7
6
CONTINUOUS
70
0
71
3
72
8
73
4
74
2
42
0.0000001000
43
0.0000001000
44
0.0000000001
40
0.0000000000
40
0.0000000000
40
0.0000000000
40
0.0000000000
40
1.0000000000
40
1.0000000000
40
1.0000000000
40
1.0000000000
10
366.3297249833
20
103.7961700782
30
0.0000000000
10
366.3283185812
20
103.7876772875
30
0.0000000000
10
366.3269073426
20
103.7791853022
30
0.0000000000
10
366.3254912656
20
103.7706941289
30
0.0000000000
11
366.3297249833
21
103.7961700782
31
0.0000000000
11
366.3254912656
21
103.7706941289
31
0.0000000000
0
SPLINE
5
3A1
100
AcDbEntity
8
0
100
AcDbSpline
62
7
6
CONTINUOUS
70
0
71
3
72
9
73
5
74
3
42
0.0000001000
43
0.0000001000
44
0.0000000001
40
0.0000000000
40
0.0000000000
40
0.0000000000
40
0.0000000000
40
0.4991849321
40
1.0000000000
40
1.0000000000
40
1.0000000000
40
1.0000000000
10
366.4619010193
20
104.3956931752
30
0.0000000000
10
366.4501573690
20
104.3537721632
30
0.0000000000
10
366.4255331070
20
104.2700972431
30
0.0000000000
10
366.3987541789
20
104.1870870924
30
0.0000000000
10
366.3848148168
20
104.1456941289
30
0.0000000000
11
366.4619010193
21
104.3956931752
31
0.0000000000
11
366.4250363362
21
104.2703992956
31
0.0000000000
11
366.3848148168
21
104.1456941289
31
0.0000000000
0
SPLINE
5
3A2
100
AcDbEntity
8
0
100
AcDbSpline
62
7
6
CONTINUOUS
70
0
71
3
72
9
73
5
74
3
42
0.0000001000
43
0.0000001000
44
0.0000000001
40
0.0000000000
40
0.0000000000
40
0.0000000000
40
0.0000000000
40
0.4952066472
40
1.0000000000
40
1.0000000000
40
1.0000000000
40
1.0000000000
10
366.5249738373
20
104.5206941289
30
0.0000000000
10
366.5155011404
20
104.4996067306
30
0.0000000000
10
366.4953823978
20
104.4574623957
30
0.0000000000
10
366.4734190895
20
104.4162512878
30
0.0000000000
10
366.4619010193
20
104.3956931752
30
0.0000000000
11
366.5249738373
21
104.5206941289
31
0.0000000000
11
366.4951229281
21
104.4580952760
31
0.0000000000
11
366.4619010193
21
104.3956931752
31
0.0000000000
0
SPLINE
5
3A3
100
AcDbEntity
8
0
100
AcDbSpline
62
7
6
CONTINUOUS
70
0
71
3
72
9
73
5
74
3
42
0.0000001000
43
0.0000001000
44
0.0000000001
40
0.0000000000
40
0.0000000000
40
0.0000000000
40
0.0000000000
40
0.4987232708
40
1.0000000000
40
1.0000000000
40
1.0000000000
40
1.0000000000
10
366.6263239324
20
100.8956922215
30
0.0000000000
10
366.6218560730
20
100.8538650837
30
0.0000000000
10
366.6109135827
20
100.7701970507
30
0.0000000000
10
366.5960738223
20
100.6871327069
30
0.0000000000
10
366.5876832219
20
100.6456931752
30
0.0000000000
11
366.6263239324
21
100.8956922215
31
0.0000000000
11
366.6099721758
21
100.7705608461
31
0.0000000000
11
366.5876832219
21
100.6456931752
31
0.0000000000
0
SPLINE
5
3A4
100
AcDbEntity
8
0
100
AcDbSpline
62
7
6
CONTINUOUS
70
0
71
3
72
9
73
5
74
3
42
0.0000001000
43
0.0000001000
44
0.0000000001
40
0.0000000000
40
0.0000000000
40
0.0000000000
40
0.0000000000
40
0.5001594609
40
1.0000000000
40
1.0000000000
40
1.0000000000
40
1.0000000000
10
366.6367039944
20
101.2706922215
30
0.0000000000
10
366.6354682205
20
101.2081600622
30
0.0000000000
10
366.6325028265
20
101.0831449013
30
0.0000000000
10
366.6285480328
20
100.9581571270
30
0.0000000000
10
366.6263239324
20
100.8956922215
30
0.0000000000
11
366.6367039944
21
101.2706922215
31
0.0000000000
11
366.6322543730
21
101.0831118823
31
0.0000000000
11
366.6263239324
21
100.8956922215
31
0.0000000000
0
SPLINE
5
3A5
100
AcDbEntity
8
0
100
AcDbSpline
62
7
6
CONTINUOUS
70
0
71
3
72
9
73
5
74
3
42
0.0000001000
43
0.0000001000
44
0.0000000001
40
0.0000000000
40
0.0000000000
40
0.0000000000
40
0.0000000000
40
0.5000309849
40
1.0000000000
40
1.0000000000
40
1.0000000000
40
1.0000000000
10
366.6396679247
20
102.0206922215
30
0.0000000000
10
366.6392974588
20
101.8956840328
30
0.0000000000
10
366.6384330464
20
101.6456834988
30
0.0000000000
10
366.6373215337
20
101.3956839411
30
0.0000000000
10
366.6367040054
20
101.2706922215
30
0.0000000000
11
366.6396679247
21
102.0206922215
31
0.0000000000
11
366.6383712101
21
101.6456682504
31
0.0000000000
11
366.6367040054
21
101.2706922215
31
0.0000000000
0
SPLINE
5
3A6
100
AcDbEntity
8
0
100
AcDbSpline
62
7
6
CONTINUOUS
70
0
71
3
72
8
73
4
74
2
42
0.0000001000
43
0.0000001000
44
0.0000000001
40
0.0000000000
40
0.0000000000
40
0.0000000000
40
0.0000000000
40
1.0000000000
40
1.0000000000
40
1.0000000000
40
1.0000000000
10
366.6411495939
20
101.0206931752
30
0.0000000000
10
366.6412483517
20
100.9790321995
30
0.0000000000
10
366.6413076117
20
100.9373711068
30
0.0000000000
10
366.6413273737
20
100.8957099812
30
0.0000000000
11
366.6411495939
21
101.0206931752
31
0.0000000000
11
366.6413273737
21
100.8957099812
31
0.0000000000
0
SPLINE
5
3A7
100
AcDbEntity
8
0
100
AcDbSpline
62
7
6
CONTINUOUS
70
0
71
3
72
8
73
4
74
2
42
0.0000001000
43
0.0000001000
44
0.0000000001
40
0.0000000000
40
0.0000000000
40
0.0000000000
40
0.0000000000
40
1.0000000000
40
1.0000000000
40
1.0000000000
40
1.0000000000
10
366.6413273737
20
100.8957099812
30
0.0000000000
10
366.6413323182
20
100.8852864053
30
0.0000000000
10
366.6413347901
20
100.8748628273
30
0.0000000000
10
366.6413347894
20
100.8644392486
30
0.0000000000
11
366.6413273737
21
100.8957099812
31
0.0000000000
11
366.6413347894
21
100.8644392486
31
0.0000000000
0
SPLINE
5
3A8
100
AcDbEntity
8
0
100
AcDbSpline
62
7
6
CONTINUOUS
70
0
71
3
72
9
73
5
74
3
42
0.0000001000
43
0.0000001000
44
0.0000000001
40
0.0000000000
40
0.0000000000
40
0.0000000000
40
0.0000000000
40
0.4952064403
40
1.0000000000
40
1.0000000000
40
1.0000000000
40
1.0000000000
10
366.5249738373
20
100.0206941289
30
0.0000000000
10
366.5155011367
20
100.0417810527
30
0.0000000000
10
366.4953823850
20
100.0839244401
30
0.0000000000
10
366.4734190848
20
100.1251345879
30
0.0000000000
10
366.4619010193
20
100.1456922215
30
0.0000000000
11
366.5249738373
21
100.0206941289
31
0.0000000000
11
366.4951229283
21
100.0832915486
31
0.0000000000
11
366.4619010193
21
100.1456922215
31
0.0000000000
0
SPLINE
5
3A9
100
AcDbEntity
8
0
100
AcDbSpline
62
7
6
CONTINUOUS
70
0
71
3
72
9
73
5
74
3
42
0.0000001000
43
0.0000001000
44
0.0000000001
40
0.0000000000
40
0.0000000000
40
0.0000000000
40
0.0000000000
40
0.4991849788
40
1.0000000000
40
1.0000000000
40
1.0000000000
40
1.0000000000
10
366.4619010193
20
100.1456922215
30
0.0000000000
10
366.4501573698
20
100.1876137104
30
0.0000000000
10
366.4255331101
20
100.2712895810
30
0.0000000000
10
366.3987541800
20
100.3543006885
30
0.0000000000
10
366.3848148168
20
100.3956941289
30
0.0000000000
11
366.4619010193
21
100.1456922215
31
0.0000000000
11
366.4250363358
21
100.2709875363
31
0.0000000000
11
366.3848148168
21
100.3956941289
31
0.0000000000
0
SPLINE
5
3AA
100
AcDbEntity
8
0
100
AcDbSpline
62
7
6
CONTINUOUS
70
0
71
3
72
9
73
5
74
3
42
0.0000001000
43
0.0000001000
44
0.0000000001
40
0.0000000000
40
0.0000000000
40
0.0000000000
40
0.0000000000
40
0.4972220657
40
1.0000000000
40
1.0000000000
40
1.0000000000
40
1.0000000000
10
366.6189035932
20
120.1456931752
30
0.0000000000
10
366.6147957778
20
120.1247309637
30
0.0000000000
10
366.6054359584
20
120.0827806132
30
0.0000000000
10
366.5939602333
20
120.0413603392
30
0.0000000000
10
366.5876832219
20
120.0206929368
30
0.0000000000
11
366.6189035932
21
120.1456931752
31
0.0000000000
11
366.6049648454
21
120.0831447346
31
0.0000000000
11
366.5876832219
21
120.0206929368
31
0.0000000000
0
SPLINE
5
3AB
100
AcDbEntity
8
0
100
AcDbSpline
62
7
6
CONTINUOUS
70
0
71
3
72
9
73
5
74
3
42
0.0000001000
43
0.0000001000
44
0.0000000001
40
0.0000000000
40
0.0000000000
40
0.0000000000
40
0.0000000000
40
0.5000794901
40
1.0000000000
40
1.0000000000
40
1.0000000000
40
1.0000000000
10
366.6322565968
20
120.3956929368
30
0.0000000000
10
366.6305254231
20
120.3539954711
30
0.0000000000
10
366.6265687125
20
120.2706336076
30
0.0000000000
10
366.6216230025
20
120.1873245721
30
0.0000000000
10
366.6189035932
20
120.1456931752
30
0.0000000000
11
366.6322565968
21
120.3956929368
31
0.0000000000
11
366.6263207550
21
120.2706335659
31
0.0000000000
11
366.6189035932
21
120.1456931752
31
0.0000000000
0
SPLINE
5
3AC
100
AcDbEntity
8
0
100
AcDbSpline
62
7
6
CONTINUOUS
70
0
71
3
72
9
73
5
74
3
42
0.0000001000
43
0.0000001000
44
0.0000000001
40
0.0000000000
40
0.0000000000
40
0.0000000000
40
0.0000000000
40
0.4998622301
40
1.0000000000
40
1.0000000000
40
1.0000000000
40
1.0000000000
10
366.6367039539
20
120.7706929368
30
0.0000000000
10
366.6360865413
20
120.7082087840
30
0.0000000000
10
366.6347278043
20
120.5832072258
30
0.0000000000
10
366.6331218717
20
120.4582085985
30
0.0000000000
10
366.6322567083
20
120.3956929368
30
0.0000000000
11
366.6367039539
21
120.7706929368
31
0.0000000000
11
366.6346664138
21
120.5832424010
31
0.0000000000
11
366.6322567083
21
120.3956929368
31
0.0000000000
0
SPLINE
5
3AD
100
AcDbEntity
8
0
100
AcDbSpline
62
7
6
CONTINUOUS
70
0
71
3
72
9
73
5
74
3
42
0.0000001000
43
0.0000001000
44
0.0000000001
40
0.0000000000
40
0.0000000000
40
0.0000000000
40
0.0000000000
40
0.5005964477
40
1.0000000000
40
1.0000000000
40
1.0000000000
40
1.0000000000
10
366.2596990906
20
120.2706934136
30
0.0000000000
10
366.2539363340
20
120.3749920085
30
0.0000000000
10
366.2422875297
20
120.5833331122
30
0.0000000000
10
366.2303637310
20
120.7916586586
30
0.0000000000
10
366.2243400325
20
120.8956931752
30
0.0000000000
11
366.2596990906
21
120.2706934136
31
0.0000000000
11
366.2422047211
21
120.5835777427
31
0.0000000000
11
366.2243400325
21
120.8956931752
31
0.0000000000
0
SPLINE
5
3AE
100
AcDbEntity
8
0
100
AcDbSpline
62
7
6
CONTINUOUS
70
0
71
3
72
9
73
5
74
3
42
0.0000001000
43
0.0000001000
44
0.0000000001
40
0.0000000000
40
0.0000000000
40
0.0000000000
40
0.0000000000
40
0.5012678768
40
1.0000000000
40
1.0000000000
40
1.0000000000
40
1.0000000000
10
366.3559546245
20
119.7706931752
30
0.0000000000
10
366.3410480733
20
119.8544579672
30
0.0000000000
10
366.3101354767
20
120.0213568913
30
0.0000000000
10
366.2768735930
20
120.1878035447
30
0.0000000000
10
366.2596990906
20
120.2706934136
30
0.0000000000
11
366.3559546245
21
119.7706931752
31
0.0000000000
11
366.3094667858
21
120.0216664640
31
0.0000000000
11
366.2596990906
21
120.2706934136
31
0.0000000000
0
SPLINE
5
3AF
100
AcDbEntity
8
0
100
AcDbSpline
62
7
6
CONTINUOUS
70
0
71
3
72
8
73
4
74
2
42
0.0000001000
43
0.0000001000
44
0.0000000001
40
0.0000000000
40
0.0000000000
40
0.0000000000
40
0.0000000000
40
1.0000000000
40
1.0000000000
40
1.0000000000
40
1.0000000000
10
366.6411495939
20
120.0206929368
30
0.0000000000
10
366.6412113258
20
119.9998596660
30
0.0000000000
10
366.6412576243
20
119.9790263437
30
0.0000000000
10
366.6412884900
20
119.9581929957
30
0.0000000000
11
366.6411495939
21
120.0206929368
31
0.0000000000
11
366.6412884900
21
119.9581929957
31
0.0000000000
0
SPLINE
5
3B0
100
AcDbEntity
8
0
100
AcDbSpline
62
7
6
CONTINUOUS
70
0
71
3
72
8
73
4
74
2
42
0.0000001000
43
0.0000001000
44
0.0000000001
40
0.0000000000
40
0.0000000000
40
0.0000000000
40
0.0000000000
40
1.0000000000
40
1.0000000000
40
1.0000000000
40
1.0000000000
10
366.6412884900
20
119.9581929957
30
0.0000000000
10
366.6413193555
20
119.9373596996
30
0.0000000000
10
366.6413347882
20
119.9165263778
30
0.0000000000
10
366.6413347882
20
119.8956930560
30
0.0000000000
11
366.6412884900
21
119.9581929957
31
0.0000000000
11
366.6413347882
21
119.8956930560
31
0.0000000000
0
SPLINE
5
3B1
100
AcDbEntity
8
0
100
AcDbSpline
62
7
6
CONTINUOUS
70
0
71
3
72
9
73
5
74
3
42
0.0000001000
43
0.0000001000
44
0.0000000001
40
0.0000000000
40
0.0000000000
40
0.0000000000
40
0.0000000000
40
0.4994889230
40
1.0000000000
40
1.0000000000
40
1.0000000000
40
1.0000000000
10
366.4619010193
20
119.3956931752
30
0.0000000000
10
366.4462220330
20
119.4586584014
30
0.0000000000
10
366.4128442850
20
119.5842308648
30
0.0000000000
10
366.3755670597
20
119.7087008138
30
0.0000000000
10
366.3559546245
20
119.7706931752
30
0.0000000000
11
366.4619010193
21
119.3956931752
31
0.0000000000
11
366.4119055248
21
119.5838274450
31
0.0000000000
11
366.3559546245
21
119.7706931752
31
0.0000000000
0
SPLINE
5
3B2
100
AcDbEntity
8
0
100
AcDbSpline
62
7
6
CONTINUOUS
70
0
71
3
72
9
73
5
74
3
42
0.0000001000
43
0.0000001000
44
0.0000000001
40
0.0000000000
40
0.0000000000
40
0.0000000000
40
0.0000000000
40
0.4952065955
40
1.0000000000
40
1.0000000000
40
1.0000000000
40
1.0000000000
10
366.5249738373
20
119.2706929368
30
0.0000000000
10
366.5155011394
20
119.2917802164
30
0.0000000000
10
366.4953823946
20
119.3339243145
30
0.0000000000
10
366.4734190883
20
119.3751351824
30
0.0000000000
10
366.4619010193
20
119.3956931752
30
0.0000000000
11
366.5249738373
21
119.2706929368
31
0.0000000000
11
366.4951229282
21
119.3332914314
31
0.0000000000
11
366.4619010193
21
119.3956931752
31
0.0000000000
0
SPLINE
5
3B3
100
AcDbEntity
8
0
100
AcDbSpline
62
7
6
CONTINUOUS
70
0
71
3
72
8
73
4
74
2
42
0.0000001000
43
0.0000001000
44
0.0000000001
40
0.0000000000
40
0.0000000000
40
0.0000000000
40
0.0000000000
40
1.0000000000
40
1.0000000000
40
1.0000000000
40
1.0000000000
10
366.6396679271
20
100.3956941289
30
0.0000000000
10
366.6385556598
20
100.3539918148
30
0.0000000000
10
366.6368868588
20
100.3123024922
30
0.0000000000
10
366.6346631389
20
100.2706428061
30
0.0000000000
11
366.6396679271
21
100.3956941289
31
0.0000000000
11
366.6346631389
21
100.2706428061
31
0.0000000000
0
SPLINE
5
3B4
100
AcDbEntity
8
0
100
AcDbSpline
62
7
6
CONTINUOUS
70
0
71
3
72
8
73
4
74
2
42
0.0000001000
43
0.0000001000
44
0.0000000001
40
0.0000000000
40
0.0000000000
40
0.0000000000
40
0.0000000000
40
1.0000000000
40
1.0000000000
40
1.0000000000
40
1.0000000000
10
366.6346631389
20
100.2706428061
30
0.0000000000
10
366.6324380486
20
100.2289574481
30
0.0000000000
10
366.6296573554
20
100.1873017631
30
0.0000000000
10
366.6263239324
20
100.1456922215
30
0.0000000000
11
366.6346631389
21
100.2706428061
31
0.0000000000
11
366.6263239324
21
100.1456922215
31
0.0000000000
0
SPLINE
5
3B5
100
AcDbEntity
8
0
100
AcDbSpline
62
7
6
CONTINUOUS
70
0
71
3
72
9
73
5
74
3
42
0.0000001000
43
0.0000001000
44
0.0000000001
40
0.0000000000
40
0.0000000000
40
0.0000000000
40
0.0000000000
40
0.6626866181
40
1.0000000000
40
1.0000000000
40
1.0000000000
40
1.0000000000
10
366.6263239324
20
100.1456922215
30
0.0000000000
10
366.6218211461
20
100.1246154050
30
0.0000000000
10
366.6135546775
20
100.0931094471
30
0.0000000000
10
366.6032613700
20
100.0622360671
30
0.0000000000
10
366.5995717163
20
100.0519008701
30
0.0000000000
11
366.6263239324
21
100.1456922215
31
0.0000000000
11
366.6099748964
21
100.0831360504
31
0.0000000000
11
366.5995717163
21
100.0519008701
31
0.0000000000
0
SPLINE
5
3B6
100
AcDbEntity
8
0
100
AcDbSpline
62
7
6
CONTINUOUS
70
0
71
3
72
8
73
4
74
2
42
0.0000001000
43
0.0000001000
44
0.0000000001
40
0.0000000000
40
0.0000000000
40
0.0000000000
40
0.0000000000
40
1.0000000000
40
1.0000000000
40
1.0000000000
40
1.0000000000
10
366.5995717163
20
100.0519008701
30
0.0000000000
10
366.5958283170
20
100.0414151247
30
0.0000000000
10
366.5918609492
20
100.0310104992
30
0.0000000000
10
366.5876832219
20
100.0206941289
30
0.0000000000
11
366.5995717163
21
100.0519008701
31
0.0000000000
11
366.5876832219
21
100.0206941289
31
0.0000000000
0
SPLINE
5
3B7
100
AcDbEntity
8
0
100
AcDbSpline
62
7
6
CONTINUOUS
70
0
71
3
72
8
73
4
74
2
42
0.0000001000
43
0.0000001000
44
0.0000000001
40
0.0000000000
40
0.0000000000
40
0.0000000000
40
0.0000000000
40
1.0000000000
40
1.0000000000
40
1.0000000000
40
1.0000000000
10
366.6413347894
20
100.8644392486
30
0.0000000000
10
366.6413347861
20
100.8123517931
30
0.0000000000
10
366.6412730412
20
100.7602643192
30
0.0000000000
10
366.6411495544
20
100.7081769917
30
0.0000000000
11
366.6413347894
21
100.8644392486
31
0.0000000000
11
366.6411495544
21
100.7081769917
31
0.0000000000
0
SPLINE
5
3B8
100
AcDbEntity
8
0
100
AcDbSpline
62
7
6
CONTINUOUS
70
0
71
3
72
8
73
4
74
2
42
0.0000001000
43
0.0000001000
44
0.0000000001
40
0.0000000000
40
0.0000000000
40
0.0000000000
40
0.0000000000
40
1.0000000000
40
1.0000000000
40
1.0000000000
40
1.0000000000
10
366.6411495544
20
100.7081769917
30
0.0000000000
10
366.6410260802
20
100.6560949250
30
0.0000000000
10
366.6408408766
20
100.6040130046
30
0.0000000000
10
366.6405939342
20
100.5519313952
30
0.0000000000
11
366.6411495544
21
100.7081769917
31
0.0000000000
11
366.6405939342
21
100.5519313952
31
0.0000000000
0
SPLINE
5
3B9
100
AcDbEntity
8
0
100
AcDbSpline
62
7
6
CONTINUOUS
70
0
71
3
72
8
73
4
74
2
42
0.0000001000
43
0.0000001000
44
0.0000000001
40
0.0000000000
40
0.0000000000
40
0.0000000000
40
0.0000000000
40
1.0000000000
40
1.0000000000
40
1.0000000000
40
1.0000000000
10
366.6405939342
20
100.5519313952
30
0.0000000000
10
366.6403470020
20
100.4998519405
30
0.0000000000
10
366.6400383361
20
100.4477727969
30
0.0000000000
10
366.6396679271
20
100.3956941289
30
0.0000000000
11
366.6405939342
21
100.5519313952
31
0.0000000000
11
366.6396679271
21
100.3956941289
31
0.0000000000
0
SPLINE
5
3BA
100
AcDbEntity
8
0
100
AcDbSpline
62
7
6
CONTINUOUS
70
0
71
3
72
9
73
5
74
3
42
0.0000001000
43
0.0000001000
44
0.0000000001
40
0.0000000000
40
0.0000000000
40
0.0000000000
40
0.0000000000
40
0.4987551006
40
1.0000000000
40
1.0000000000
40
1.0000000000
40
1.0000000000
10
366.5249738373
20
103.8956922215
30
0.0000000000
10
366.5187063106
20
103.8747642580
30
0.0000000000
10
366.5056661799
20
103.8329443447
30
0.0000000000
10
366.4916980250
20
103.7914253097
30
0.0000000000
10
366.4844691530
20
103.7706941289
30
0.0000000000
11
366.5249738373
21
103.8956922215
31
0.0000000000
11
366.5054677950
21
103.8331233134
31
0.0000000000
11
366.4844691530
21
103.7706941289
31
0.0000000000
0
SPLINE
5
3BB
100
AcDbEntity
8
0
100
AcDbSpline
62
7
6
CONTINUOUS
70
0
71
3
72
8
73
4
74
2
42
0.0000001000
43
0.0000001000
44
0.0000000001
40
0.0000000000
40
0.0000000000
40
0.0000000000
40
0.0000000000
40
1.0000000000
40
1.0000000000
40
1.0000000000
40
1.0000000000
10
366.4844691530
20
103.7706941289
30
0.0000000000
10
366.4771847891
20
103.7289125425
30
0.0000000000
10
366.4696487845
20
103.6871744376
30
0.0000000000
10
366.4618618128
20
103.6454832090
30
0.0000000000
11
366.4844691530
21
103.7706941289
31
0.0000000000
11
366.4618618128
21
103.6454832090
31
0.0000000000
0
SPLINE
5
3BC
100
AcDbEntity
8
0
100
AcDbSpline
62
7
6
CONTINUOUS
70
0
71
3
72
8
73
4
74
2
42
0.0000001000
43
0.0000001000
44
0.0000000001
40
0.0000000000
40
0.0000000000
40
0.0000000000
40
0.0000000000
40
1.0000000000
40
1.0000000000
40
1.0000000000
40
1.0000000000
10
366.4618618128
20
103.6454832090
30
0.0000000000
10
366.4579716518
20
103.6246553960
30
0.0000000000
10
366.4540188562
20
103.6038392820
30
0.0000000000
10
366.4500035171
20
103.5830352883
30
0.0000000000
11
366.4618618128
21
103.6454832090
31
0.0000000000
11
366.4500035171
21
103.5830352883
31
0.0000000000
0
SPLINE
5
3BD
100
AcDbEntity
8
0
100
AcDbSpline
62
7
6
CONTINUOUS
70
0
71
3
72
8
73
4
74
2
42
0.0000001000
43
0.0000001000
44
0.0000000001
40
0.0000000000
40
0.0000000000
40
0.0000000000
40
0.0000000000
40
1.0000000000
40
1.0000000000
40
1.0000000000
40
1.0000000000
10
366.4500035171
20
103.5830352883
30
0.0000000000
10
366.4459902477
20
103.5622420181
30
0.0000000000
10
366.4419144993
20
103.5414608557
30
0.0000000000
10
366.4377763629
20
103.5206922215
30
0.0000000000
11
366.4500035171
21
103.5830352883
31
0.0000000000
11
366.4377763629
21
103.5206922215
31
0.0000000000
0
SPLINE
5
3BE
100
AcDbEntity
8
0
100
AcDbSpline
62
7
6
CONTINUOUS
70
0
71
3
72
9
73
5
74
3
42
0.0000001000
43
0.0000001000
44
0.0000000001
40
0.0000000000
40
0.0000000000
40
0.0000000000
40
0.0000000000
40
0.5005029076
40
1.0000000000
40
1.0000000000
40
1.0000000000
40
1.0000000000
10
366.4377763629
20
103.5206922215
30
0.0000000000
10
366.4336198171
20
103.4789706285
30
0.0000000000
10
366.4251855680
20
103.3956241380
30
0.0000000000
10
366.4164919821
20
103.3123042986
30
0.0000000000
10
366.4120847093
20
103.2706931752
30
0.0000000000
11
366.4377763629
21
103.5206922215
31
0.0000000000
11
366.4251121200
21
103.3955469830
31
0.0000000000
11
366.4120847093
21
103.2706931752
31
0.0000000000
0
SPLINE
5
3BF
100
AcDbEntity
8
0
100
AcDbSpline
62
7
6
CONTINUOUS
70
0
71
3
72
9
73
5
74
3
42
0.0000001000
43
0.0000001000
44
0.0000000001
40
0.0000000000
40
0.0000000000
40
0.0000000000
40
0.0000000000
40
0.5004538739
40
1.0000000000
40
1.0000000000
40
1.0000000000
40
1.0000000000
10
366.4120847093
20
103.2706931752
30
0.0000000000
10
366.4076673236
20
103.1664264258
30
0.0000000000
10
366.3987091530
20
102.9580875975
30
0.0000000000
10
366.3894874701
20
102.7497602664
30
0.0000000000
10
366.3848148168
20
102.6456941289
30
0.0000000000
11
366.4120847093
21
103.2706931752
31
0.0000000000
11
366.3986350235
21
102.9579013579
31
0.0000000000
11
366.3848148168
21
102.6456941289
31
0.0000000000
0
SPLINE
5
3C0
100
AcDbEntity
8
0
100
AcDbSpline
62
7
6
CONTINUOUS
70
0
71
3
72
9
73
5
74
3
42
0.0000001000
43
0.0000001000
44
0.0000000001
40
0.0000000000
40
0.0000000000
40
0.0000000000
40
0.0000000000
40
0.5004538741
40
1.0000000000
40
1.0000000000
40
1.0000000000
40
1.0000000000
10
366.4120847093
20
101.2706922215
30
0.0000000000
10
366.4076673236
20
101.3749594483
30
0.0000000000
10
366.3987091530
20
101.5832992302
30
0.0000000000
10
366.3894874701
20
101.7916275150
30
0.0000000000
10
366.3848148168
20
101.8956941289
30
0.0000000000
11
366.4120847093
21
101.2706922215
31
0.0000000000
11
366.3986350235
21
101.5834854708
31
0.0000000000
11
366.3848148168
21
101.8956941289
31
0.0000000000
0
SPLINE
5
3C1
100
AcDbEntity
8
0
100
AcDbSpline
62
7
6
CONTINUOUS
70
0
71
3
72
9
73
5
74
3
42
0.0000001000
43
0.0000001000
44
0.0000000001
40
0.0000000000
40
0.0000000000
40
0.0000000000
40
0.0000000000
40
0.5005029076
40
1.0000000000
40
1.0000000000
40
1.0000000000
40
1.0000000000
10
366.4377763629
20
101.0206931752
30
0.0000000000
10
366.4336198171
20
101.0624147682
30
0.0000000000
10
366.4251855680
20
101.1457612588
30
0.0000000000
10
366.4164919821
20
101.2290810982
30
0.0000000000
10
366.4120847093
20
101.2706922215
30
0.0000000000
11
366.4377763629
21
101.0206931752
31
0.0000000000
11
366.4251121200
21
101.1458384137
31
0.0000000000
11
366.4120847093
21
101.2706922215
31
0.0000000000
0
SPLINE
5
3C2
100
AcDbEntity
8
0
100
AcDbSpline
62
7
6
CONTINUOUS
70
0
71
3
72
9
73
5
74
3
42
0.0000001000
43
0.0000001000
44
0.0000000001
40
0.0000000000
40
0.0000000000
40
0.0000000000
40
0.0000000000
40
0.5003928336
40
1.0000000000
40
1.0000000000
40
1.0000000000
40
1.0000000000
10
366.4377763629
20
120.3956929368
30
0.0000000000
10
366.4336214571
20
120.4582508725
30
0.0000000000
10
366.4251880248
20
120.5832599123
30
0.0000000000
10
366.4164937425
20
120.7082510814
30
0.0000000000
10
366.4120847093
20
120.7706929368
30
0.0000000000
11
366.4377763629
21
120.3956929368
31
0.0000000000
11
366.4251160839
21
120.5833536531
31
0.0000000000
11
366.4120847093
21
120.7706929368
31
0.0000000000
0
SPLINE
5
3C3
100
AcDbEntity
8
0
100
AcDbSpline
62
7
6
CONTINUOUS
70
0
71
3
72
9
73
5
74
3
42
0.0000001000
43
0.0000001000
44
0.0000000001
40
0.0000000000
40
0.0000000000
40
0.0000000000
40
0.0000000000
40
0.5002780094
40
1.0000000000
40
1.0000000000
40
1.0000000000
40
1.0000000000
10
366.4844691530
20
120.1456931752
30
0.0000000000
10
366.4771847890
20
120.1874744035
30
0.0000000000
10
366.4621211555
20
120.2709035081
30
0.0000000000
10
366.4460547698
20
120.3541453147
30
0.0000000000
10
366.4377763629
20
120.3956929368
30
0.0000000000
11
366.4844691530
21
120.1456931752
31
0.0000000000
11
366.4618618129
21
120.2709030197
31
0.0000000000
11
366.4377763629
21
120.3956929368
31
0.0000000000
0
SPLINE
5
3C4
100
AcDbEntity
8
0
100
AcDbSpline
62
7
6
CONTINUOUS
70
0
71
3
72
8
73
4
74
2
42
0.0000001000
43
0.0000001000
44
0.0000000001
40
0.0000000000
40
0.0000000000
40
0.0000000000
40
0.0000000000
40
1.0000000000
40
1.0000000000
40
1.0000000000
40
1.0000000000
10
366.4844691530
20
100.7706941289
30
0.0000000000
10
366.4771847890
20
100.8124752378
30
0.0000000000
10
366.4696487844
20
100.8542128647
30
0.0000000000
10
366.4618618130
20
100.8959036149
30
0.0000000000
11
366.4844691530
21
100.7706941289
31
0.0000000000
11
366.4618618130
21
100.8959036149
31
0.0000000000
0
SPLINE
5
3C5
100
AcDbEntity
8
0
100
AcDbSpline
62
7
6
CONTINUOUS
70
0
71
3
72
8
73
4
74
2
42
0.0000001000
43
0.0000001000
44
0.0000000001
40
0.0000000000
40
0.0000000000
40
0.0000000000
40
0.0000000000
40
1.0000000000
40
1.0000000000
40
1.0000000000
40
1.0000000000
10
366.4618618130
20
100.8959036149
30
0.0000000000
10
366.4579716520
20
100.9167311899
30
0.0000000000
10
366.4540188563
20
100.9375470657
30
0.0000000000
10
366.4500035172
20
100.9583508212
30
0.0000000000
11
366.4618618130
21
100.8959036149
31
0.0000000000
11
366.4500035172
21
100.9583508212
31
0.0000000000
0
SPLINE
5
3C6
100
AcDbEntity
8
0
100
AcDbSpline
62
7
6
CONTINUOUS
70
0
71
3
72
8
73
4
74
2
42
0.0000001000
43
0.0000001000
44
0.0000000001
40
0.0000000000
40
0.0000000000
40
0.0000000000
40
0.0000000000
40
1.0000000000
40
1.0000000000
40
1.0000000000
40
1.0000000000
10
366.4500035172
20
100.9583508212
30
0.0000000000
10
366.4459902478
20
100.9791438539
30
0.0000000000
10
366.4419144993
20
100.9999247787
30
0.0000000000
10
366.4377763629
20
101.0206931752
30
0.0000000000
11
366.4500035172
21
100.9583508212
31
0.0000000000
11
366.4377763629
21
101.0206931752
31
0.0000000000
0
SPLINE
5
3C7
100
AcDbEntity
8
0
100
AcDbSpline
62
7
6
CONTINUOUS
70
0
71
3
72
9
73
5
74
3
42
0.0000001000
43
0.0000001000
44
0.0000000001
40
0.0000000000
40
0.0000000000
40
0.0000000000
40
0.0000000000
40
0.4987551792
40
1.0000000000
40
1.0000000000
40
1.0000000000
40
1.0000000000
10
366.5249738373
20
100.6456931752
30
0.0000000000
10
366.5187063114
20
100.6666216150
30
0.0000000000
10
366.5056661829
20
100.7084424790
30
0.0000000000
10
366.4916980261
20
100.7499624705
30
0.0000000000
10
366.4844691530
20
100.7706941289
30
0.0000000000
11
366.5249738373
21
100.6456931752
31
0.0000000000
11
366.5054677949
21
100.7082635160
31
0.0000000000
11
366.4844691530
21
100.7706941289
31
0.0000000000
0
SPLINE
5
3C8
100
AcDbEntity
8
0
100
AcDbSpline
62
7
6
CONTINUOUS
70
0
71
3
72
9
73
5
74
3
42
0.0000001000
43
0.0000001000
44
0.0000000001
40
0.0000000000
40
0.0000000000
40
0.0000000000
40
0.0000000000
40
0.4954337435
40
1.0000000000
40
1.0000000000
40
1.0000000000
40
1.0000000000
10
366.5429276127
20
120.0206929368
30
0.0000000000
10
366.5342334940
20
120.0417646833
30
0.0000000000
10
366.5156753446
20
120.0838861686
30
0.0000000000
10
366.4952285893
20
120.1251219946
30
0.0000000000
10
366.4844691530
20
120.1456931752
30
0.0000000000
11
366.5429276127
21
120.0206929368
31
0.0000000000
11
366.5153812601
21
120.0832841044
31
0.0000000000
11
366.4844691530
21
120.1456931752
31
0.0000000000
0
SPLINE
5
3C9
100
AcDbEntity
8
0
100
AcDbSpline
62
7
6
CONTINUOUS
70
0
71
3
72
9
73
5
74
3
42
0.0000001000
43
0.0000001000
44
0.0000000001
40
0.0000000000
40
0.0000000000
40
0.0000000000
40
0.0000000000
40
0.7940848338
40
1.0000000000
40
1.0000000000
40
1.0000000000
40
1.0000000000
10
366.4120847093
20
127.3956932348
30
0.0000000000
10
366.5216922442
20
127.5723766136
30
0.0000000000
10
366.6249765526
20
127.8243160133
30
0.0000000000
10
366.6407848247
20
128.0880547487
30
0.0000000000
10
366.6405215637
20
128.1424081414
30
0.0000000000
11
366.4120847093
21
127.3956932348
31
0.0000000000
11
366.6305654225
21
127.9799394419
31
0.0000000000
11
366.6405215637
21
128.1424081414
31
0.0000000000
0
SPLINE
5
3CA
100
AcDbEntity
8
0
100
AcDbSpline
62
7
6
CONTINUOUS
70
0
71
3
72
8
73
4
74
2
42
0.0000001000
43
0.0000001000
44
0.0000000001
40
0.0000000000
40
0.0000000000
40
0.0000000000
40
0.0000000000
40
1.0000000000
40
1.0000000000
40
1.0000000000
40
1.0000000000
10
366.6413347882
20
119.8956930560
30
0.0000000000
10
366.6413347884
20
119.8540263605
30
0.0000000000
10
366.6412730581
20
119.8123596650
30
0.0000000000
10
366.6411495946
20
119.7706931752
30
0.0000000000
11
366.6413347882
21
119.8956930560
31
0.0000000000
11
366.6411495946
21
119.7706931752
31
0.0000000000
0
SPLINE
5
3CB
100
AcDbEntity
8
0
100
AcDbSpline
62
7
6
CONTINUOUS
70
0
71
3
72
9
73
5
74
3
42
0.0000001000
43
0.0000001000
44
0.0000000001
40
0.0000000000
40
0.0000000000
40
0.0000000000
40
0.0000000000
40
0.2059151662
40
1.0000000000
40
1.0000000000
40
1.0000000000
40
1.0000000000
10
366.6405215637
20
126.6489783282
30
0.0000000000
10
366.6407848247
20
126.7033317209
30
0.0000000000
10
366.6249765526
20
126.9670704564
30
0.0000000000
10
366.5216922442
20
127.2190098560
30
0.0000000000
10
366.4120847093
20
127.3956932348
30
0.0000000000
11
366.6405215637
21
126.6489783282
31
0.0000000000
11
366.6305654225
21
126.8114470277
31
0.0000000000
11
366.4120847093
21
127.3956932348
31
0.0000000000
0
SPLINE
5
3CC
100
AcDbEntity
8
0
100
AcDbSpline
62
7
6
CONTINUOUS
70
0
71
3
72
8
73
4
74
2
42
0.0000001000
43
0.0000001000
44
0.0000000001
40
0.0000000000
40
0.0000000000
40
0.0000000000
40
0.0000000000
40
1.0000000000
40
1.0000000000
40
1.0000000000
40
1.0000000000
10
366.6411495939
20
119.7706931752
30
0.0000000000
10
366.6409024736
20
119.7394188097
30
0.0000000000
10
366.6404079800
20
119.7081454216
30
0.0000000000
10
366.6396663227
20
119.6768774077
30
0.0000000000
11
366.6411495939
21
119.7706931752
31
0.0000000000
11
366.6396663227
21
119.6768774077
31
0.0000000000
0
SPLINE
5
3CD
100
AcDbEntity
8
0
100
AcDbSpline
62
7
6
CONTINUOUS
70
0
71
3
72
9
73
5
74
3
42
0.0000001000
43
0.0000001000
44
0.0000000001
40
0.0000000000
40
0.0000000000
40
0.0000000000
40
0.0000000000
40
0.4999607136
40
1.0000000000
40
1.0000000000
40
1.0000000000
40
1.0000000000
10
366.6396663227
20
119.6768774077
30
0.0000000000
10
366.6389247573
20
119.6456132656
30
0.0000000000
10
366.6369472660
20
119.5830908146
30
0.0000000000
10
366.6339820471
20
119.5206074421
30
0.0000000000
10
366.6322529131
20
119.4893774296
30
0.0000000000
11
366.6396663227
21
119.6768774077
31
0.0000000000
11
366.6367005283
21
119.5831054953
31
0.0000000000
11
366.6322529131
21
119.4893774296
31
0.0000000000
0
SPLINE
5
3CE
100
AcDbEntity
8
0
100
AcDbSpline
62
7
6
CONTINUOUS
70
0
71
3
72
8
73
4
74
2
42
0.0000001000
43
0.0000001000
44
0.0000000001
40
0.0000000000
40
0.0000000000
40
0.0000000000
40
0.0000000000
40
1.0000000000
40
1.0000000000
40
1.0000000000
40
1.0000000000
10
366.6322529131
20
119.4893774296
30
0.0000000000
10
366.6305230223
20
119.4581337496
30
0.0000000000
10
366.6285465076
20
119.4269042105
30
0.0000000000
10
366.6263239324
20
119.3956931752
30
0.0000000000
11
366.6322529131
21
119.4893774296
31
0.0000000000
11
366.6263239324
21
119.3956931752
31
0.0000000000
0
SPLINE
5
3CF
100
AcDbEntity
8
0
100
AcDbSpline
62
7
6
CONTINUOUS
70
0
71
3
72
9
73
5
74
3
42
0.0000001000
43
0.0000001000
44
0.0000000001
40
0.0000000000
40
0.0000000000
40
0.0000000000
40
0.0000000000
40
0.4975849985
40
1.0000000000
40
1.0000000000
40
1.0000000000
40
1.0000000000
10
366.6263239324
20
119.3956931752
30
0.0000000000
10
366.6229685650
20
119.3747515730
30
0.0000000000
10
366.6151187371
20
119.3328353469
30
0.0000000000
10
366.6051247394
20
119.2913791523
30
0.0000000000
10
366.5995871802
20
119.2706929368
30
0.0000000000
11
366.6263239324
21
119.3956931752
31
0.0000000000
11
366.6146257750
21
119.3331517020
31
0.0000000000
11
366.5995871802
21
119.2706929368
31
0.0000000000
0
SPLINE
5
3D0
100
AcDbEntity
8
0
100
AcDbSpline
62
7
6
CONTINUOUS
70
0
71
3
72
10
73
6
74
4
42
0.0000001000
43
0.0000001000
44
0.0000000001
40
0.0000000000
40
0.0000000000
40
0.0000000000
40
0.0000000000
40
0.3628857361
40
0.6938906327
40
1.0000000000
40
1.0000000000
40
1.0000000000
40
1.0000000000
10
338.5054805638
20
224.7706931752
30
0.0000000000
10
339.5989236535
20
224.0254904898
30
0.0000000000
10
341.7654102113
20
222.7067474895
30
0.0000000000
10
345.0767432122
20
221.1636324470
30
0.0000000000
10
347.2844693802
20
220.4219747126
30
0.0000000000
10
348.3613347882
20
220.1282593764
30
0.0000000000
11
338.5054805638
21
224.7706931752
31
0.0000000000
11
341.9008372618
21
222.7139830868
31
0.0000000000
11
345.1856404472
21
221.1903967048
31
0.0000000000
11
348.3613347882
21
220.1282593764
31
0.0000000000
0
SPLINE
5
3D1
100
AcDbEntity
8
0
100
AcDbSpline
62
7
6
CONTINUOUS
70
0
71
3
72
10
73
6
74
4
42
0.0000001000
43
0.0000001000
44
0.0000000001
40
0.0000000000
40
0.0000000000
40
0.0000000000
40
0.0000000000
40
0.3060941154
40
0.6370937311
40
1.0000000000
40
1.0000000000
40
1.0000000000
40
1.0000000000
10
362.9213347882
20
220.1282593764
30
0.0000000000
10
363.9981465388
20
220.4219600775
30
0.0000000000
10
366.2058031550
20
221.1635873477
30
0.0000000000
10
369.5171453463
20
222.7066822264
30
0.0000000000
10
371.6836840563
20
224.0254483265
30
0.0000000000
10
372.7771890126
20
224.7706931752
30
0.0000000000
11
362.9213347882
21
220.1282593764
31
0.0000000000
11
366.0968738140
21
221.1903350457
31
0.0000000000
11
369.3816337142
21
222.7138774370
31
0.0000000000
11
372.7771890126
21
224.7706931752
31
0.0000000000
0
ENDSEC
0
SECTION
2
OBJECTS
0
DICTIONARY
5
3D2
100
AcDbDictionary
3
ACAD_GROUP
350
3D3
3
ACAD_MLINESTYLE
350
3D4
0
DICTIONARY
5
3D3
102
{ACAD_REACTORS
330
3D2
102
}
100
AcDbDictionary
0
DICTIONARY
5
3D4
102
{ACAD_REACTORS
330
3D2
102
}
100
AcDbDictionary
3
STANDARD
350
3D5
0
MLINESTYLE
5
3D5
102
{ACAD_REACTORS
330
3D4
102
}
100
AcDbMlineStyle
2
STANDARD
70
0
3

62
256
51
90.0
52
90.0
71
2
49
0.5
62
256
6
BYLAYER
49
-0.5
62
256
6
BYLAYER
0
ENDSEC
0
EOF
