999
DXF file: C:\Aktuell-Internet\CAD-Daten\2vb1-10.dxf
999
Pro/ENGINEER 2001400 by Parametric Technology Corporation
0
SECTION
2
HEADER
9
$ACADVER
1
AC1014
9
$EXTMAX
10
420.0000000000
20
297.0000000000
9
$EXTMIN
10
0.0000000000
20
0.0000000000
9
$LIMMIN
10
0.0000000000
20
0.0000000000
9
$LIMMAX
10
420.0000000000
20
297.0000000000
9
$VIEWCTR
10
210.0000000000
20
148.5000000000
9
$VIEWSIZE
40
297.0000000000
9
$CLAYER
8
0
9
$LTSCALE
40
23.1000000000
9
$CELTYPE
6
BYLAYER
9
$DIMSCALE
40
1
9
$DIMASZ
40
3.5000000000
9
$DIMEXO
40
2.6250000000
9
$DIMDLI
40
15.9600000000
9
$DIMEXE
40
7.5600000000
9
$DIMCEN
40
3.7800000000
9
$DIMLFAC
40
1.0000000000
9
$DIMTXT
40
3.5000000000
9
$DIMTOL
70
1
9
$DIMTFAC
40
0.6000000000
9
$DIMTP
40
0.0050000000
9
$DIMTM
40
0.0050000000
9
$HANDSEED
5
387
0
ENDSEC
0
SECTION
2
CLASSES
0
ENDSEC
0
SECTION
2
TABLES
0
TABLE
2
VPORT
5
8
100
AcDbSymbolTable
70
2
0
VPORT
5
1F4
100
AcDbSymbolTableRecord
100
AcDbViewportTableRecord
2
*ACTIVE
70
0
10
0.0
20
0.0
11
1.0
21
1.0
12
210.0000000000
22
148.5000000000
13
0.0
23
0.0
14
1.0
24
1.0
15
0.0
25
0.0
16
0.0
26
0.0
36
1.0
17
0.0
27
0.0
37
0.0
40
297.0000000000
41
1.4141414141
42
50.0
43
0.0
44
0.0
50
0.0
51
0.0
71
0
72
100
73
1
74
1
75
0
76
0
77
0
78
0
0
ENDTAB
0
TABLE
2
LTYPE
5
5
100
AcDbSymbolTable
70
6
0
LTYPE
5
14
100
AcDbSymbolTableRecord
100
AcDbLinetypeTableRecord
2
BYBLOCK
70
0
3

72
65
73
0
40
0.0
0
LTYPE
5
15
100
AcDbSymbolTableRecord
100
AcDbLinetypeTableRecord
2
BYLAYER
70
0
3

72
65
73
0
40
0.0
0
LTYPE
5
16
100
AcDbSymbolTableRecord
100
AcDbLinetypeTableRecord
2
CONTINUOUS
70
64
3
Solid line
72
65
73
0
40
0
0
LTYPE
5
1F5
100
AcDbSymbolTableRecord
100
AcDbLinetypeTableRecord
2
CENTER
70
64
3
____ _ ____ _ ____ _ ____ _ ____ _ ____ _ ____
72
65
73
4
40
0.6
49
0.375
74
0
49
-0.075
74
0
49
0.075
74
0
49
-0.075
74
0
0
LTYPE
5
1F6
100
AcDbSymbolTableRecord
100
AcDbLinetypeTableRecord
2
HIDDEN
70
64
3
- - - - - - - - - - - - - - - - - - - -
72
65
73
2
40
0.2
49
0.1
74
0
49
-0.1
74
0
0
LTYPE
5
1F7
100
AcDbSymbolTableRecord
100
AcDbLinetypeTableRecord
2
PHANTOM
70
64
3
_____ _ _ _____ _ _ _____ _ _ _____
72
65
73
6
40
0.8
49
0.45
74
0
49
-0.05
74
0
49
0.1
74
0
49
-0.05
74
0
49
0.1
74
0
49
-0.05
74
0
0
LTYPE
5
1F8
100
AcDbSymbolTableRecord
100
AcDbLinetypeTableRecord
2
DOT
70
64
3
. . . . . . . . . . . . . . . . . . . .
72
65
73
2
40
0.2
49
0.1
74
0
49
-0.1
74
0
0
LTYPE
5
1F9
100
AcDbSymbolTableRecord
100
AcDbLinetypeTableRecord
2
DASHED
70
64
3
- - - - - - - - - - - - - - - - - - - -
72
65
73
2
40
0.2
49
0.1
74
0
49
-0.1
74
0
0
ENDTAB
0
TABLE
2
LAYER
5
2
100
AcDbSymbolTable
70
36
0
LAYER
5
10
100
AcDbSymbolTableRecord
100
AcDbLayerTableRecord
2
0
70
0
62
7
6
CONTINUOUS
0
LAYER
5
1FA
100
AcDbSymbolTableRecord
100
AcDbLayerTableRecord
2
DEFAULT_1
70
0
62
7
6
CENTER
0
LAYER
5
1FB
100
AcDbSymbolTableRecord
100
AcDbLayerTableRecord
2
DEFAULT_2
70
0
62
8
6
HIDDEN
0
LAYER
5
1FC
100
AcDbSymbolTableRecord
100
AcDbLayerTableRecord
2
DEFAULT_3
70
0
62
7
6
PHANTOM
0
ENDTAB
0
TABLE
2
STYLE
5
3
100
AcDbSymbolTable
70
1
0
STYLE
5
11
100
AcDbSymbolTableRecord
100
AcDbTextStyleTableRecord
2
STANDARD
70
0
40
0.0
41
1.0
50
0.0
71
0
42
0.0
3
txt
4

0
STYLE
5
1FD
100
AcDbSymbolTableRecord
100
AcDbTextStyleTableRecord
2
TEXTSTYLE_0
70
0
40
0.0
41
0.80
50
0.0
71
0
42
0.2
3
txt
4

0
ENDTAB
0
TABLE
2
VIEW
5
6
100
AcDbSymbolTable
70
0
0
ENDTAB
0
TABLE
2
UCS
5
7
100
AcDbSymbolTable
70
0
0
ENDTAB
0
TABLE
2
APPID
5
9
100
AcDbSymbolTable
70
1
0
APPID
5
1FE
100
AcDbSymbolTableRecord
100
AcDbRegAppTableRecord
2
ACAD
70
0
0
ENDTAB
0
TABLE
2
DIMSTYLE
5
A
100
AcDbSymbolTable
70
1
0
DIMSTYLE
105
1FF
100
AcDbSymbolTableRecord
100
AcDbDimStyleTableRecord
2
STANDARD
70
0
3

4

5

6

7

40
1.0
41
0.18
42
0.0625
43
0.38
44
0.18
45
0.0
46
0.0
47
0.0050000000
48
0.0050000000
140
3.5000000000
141
0.09
142
0.0
143
25.4
144
1.0000000000
145
0.0
146
0.6000000000
147
0.09
71
1
72
0
73
1
74
1
75
0
76
0
77
0
78
0
170
0
171
2
172
0
173
0
174
0
175
0
176
0
177
0
178
0
270
2
271
3
272
4
273
2
274
2
340
11
275
0
280
0
281
0
282
0
283
1
284
0
285
0
286
0
287
3
288
0
0
ENDTAB
0
TABLE
2
BLOCK_RECORD
5
1
100
AcDbSymbolTable
70
0
0
BLOCK_RECORD
5
1B
100
AcDbSymbolTableRecord
100
AcDbBlockTableRecord
2
*MODEL_SPACE
0
BLOCK_RECORD
5
1C
100
AcDbSymbolTableRecord
100
AcDbBlockTableRecord
2
*PAPER_SPACE
0
ENDTAB
0
ENDSEC
0
SECTION
2
BLOCKS
0
BLOCK
5
1E
100
AcDbEntity
8
0
100
AcDbBlockBegin
2
*MODEL_SPACE
70
0
10
0.0
20
0.0
30
0.0
3
*MODEL_SPACE
1

0
ENDBLK
5
1F
100
AcDbEntity
8
0
100
AcDbBlockEnd
0
BLOCK
5
20
100
AcDbEntity
8
0
100
AcDbBlockBegin
2
*PAPER_SPACE
70
0
10
0.0
20
0.0
30
0.0
3
*PAPER_SPACE
1

0
ENDBLK
5
21
100
AcDbEntity
8
0
100
AcDbBlockEnd
0
ENDSEC
0
SECTION
2
ENTITIES
0
TEXT
5
200
100
AcDbEntity
8
0
100
AcDbText
62
2
6
CONTINUOUS
10
326.8982421845
20
104.6366586390
7
TEXTSTYLE_0
40
6.0000000000
1
VB 1-10
50
90.0000000000
72
5
11
326.8982421845
21
134.9223726359
100
AcDbText
0
LINE
5
201
100
AcDbEntity
8
0
100
AcDbLine
62
7
6
CONTINUOUS
10
0.0000000000
20
0.0000000000
11
0.0000000000
21
297.0000000000
0
LINE
5
202
100
AcDbEntity
8
0
100
AcDbLine
62
7
6
CONTINUOUS
10
0.0000000000
20
0.0000000000
11
420.0000000000
21
0.0000000000
0
LINE
5
203
100
AcDbEntity
8
0
100
AcDbLine
62
7
6
CONTINUOUS
10
0.0000000000
20
297.0000000000
11
420.0000000000
21
297.0000000000
0
LINE
5
204
100
AcDbEntity
8
0
100
AcDbLine
62
7
6
CONTINUOUS
10
420.0000000000
20
0.0000000000
11
420.0000000000
21
297.0000000000
0
LINE
5
205
100
AcDbEntity
8
0
100
AcDbLine
62
7
6
CONTINUOUS
10
167.8709528508
20
110.2014085430
11
167.4879741731
21
110.3264094967
0
LINE
5
206
100
AcDbEntity
8
0
100
AcDbLine
62
7
6
CONTINUOUS
10
167.4879741731
20
110.3264094967
11
166.9773358467
21
110.5764085430
0
LINE
5
207
100
AcDbEntity
8
0
100
AcDbLine
62
7
6
CONTINUOUS
10
167.8709528508
20
110.8264104504
11
167.1049954059
21
111.3264085430
0
LINE
5
208
100
AcDbEntity
8
0
100
AcDbLine
62
7
6
CONTINUOUS
10
171.0624423685
20
113.3264094967
11
170.2964846554
21
113.8264104504
0
LINE
5
209
100
AcDbEntity
8
0
100
AcDbLine
62
7
6
CONTINUOUS
10
166.9773358467
20
110.5764085430
11
166.5943571242
21
110.9514085430
0
LINE
5
20A
100
AcDbEntity
8
0
100
AcDbLine
62
7
6
CONTINUOUS
10
171.5730806055
20
113.7014094967
11
171.1901019278
21
114.0764094967
0
LINE
5
20B
100
AcDbEntity
8
0
100
AcDbLine
62
7
6
CONTINUOUS
10
167.1049954059
20
111.3264085430
11
166.8496762874
21
111.7014085430
0
LINE
5
20C
100
AcDbEntity
8
0
100
AcDbLine
62
7
6
CONTINUOUS
10
166.5943571242
20
110.9514085430
11
166.2113784130
21
111.5764104504
0
LINE
5
20D
100
AcDbEntity
8
0
100
AcDbLine
62
7
6
CONTINUOUS
10
160.0837188425
20
145.9514094967
11
160.0837188425
21
100.9514094967
0
LINE
5
20E
100
AcDbEntity
8
0
100
AcDbLine
62
7
6
CONTINUOUS
10
168.5092508259
20
110.0764104504
11
169.6581868592
21
110.0764104504
0
LINE
5
20F
100
AcDbEntity
8
0
100
AcDbLine
62
7
6
CONTINUOUS
10
169.5305272999
20
110.7014094967
11
168.6369103852
21
110.7014094967
0
LINE
5
210
100
AcDbEntity
8
0
100
AcDbLine
62
7
6
CONTINUOUS
10
168.6369103852
20
110.7014094967
11
167.8709528508
21
110.8264104504
0
LINE
5
211
100
AcDbEntity
8
0
100
AcDbLine
62
7
6
CONTINUOUS
10
170.2964846554
20
113.8264104504
11
169.5305272999
21
113.9514085430
0
LINE
5
212
100
AcDbEntity
8
0
100
AcDbLine
62
7
6
CONTINUOUS
10
168.5092508259
20
110.0764104504
11
167.8709528508
21
110.2014085430
0
LINE
5
213
100
AcDbEntity
8
0
100
AcDbLine
62
7
6
CONTINUOUS
10
170.2964846554
20
114.4514094967
11
169.6581868592
21
114.5764104504
0
LINE
5
214
100
AcDbEntity
8
0
100
AcDbLine
62
7
6
CONTINUOUS
10
170.6794636908
20
114.3264085430
11
170.2964846554
21
114.4514094967
0
LINE
5
215
100
AcDbEntity
8
0
100
AcDbLine
62
7
6
CONTINUOUS
10
171.1901019278
20
114.0764094967
11
170.6794636908
21
114.3264085430
0
LINE
5
216
100
AcDbEntity
8
0
100
AcDbLine
62
7
6
CONTINUOUS
10
171.0624423685
20
116.3264094967
11
170.1688250962
21
117.0764094967
0
LINE
5
217
100
AcDbEntity
8
0
100
AcDbLine
62
7
6
CONTINUOUS
10
172.0837188425
20
116.3264094967
11
171.1901019278
21
117.0764094967
0
LINE
5
218
100
AcDbEntity
8
0
100
AcDbLine
62
7
6
CONTINUOUS
10
171.0624423685
20
121.5764094967
11
170.1688250962
21
122.3264094967
0
LINE
5
219
100
AcDbEntity
8
0
100
AcDbLine
62
7
6
CONTINUOUS
10
172.0837188425
20
121.5764094967
11
171.1901019278
21
122.3264094967
0
LINE
5
21A
100
AcDbEntity
8
0
100
AcDbLine
62
7
6
CONTINUOUS
10
171.3177614870
20
112.9514094967
11
171.0624423685
21
113.3264094967
0
LINE
5
21B
100
AcDbEntity
8
0
100
AcDbLine
62
7
6
CONTINUOUS
10
171.9560592833
20
113.0764104504
11
171.5730806055
21
113.7014094967
0
LINE
5
21C
100
AcDbEntity
8
0
100
AcDbLine
62
7
6
CONTINUOUS
10
166.8496762874
20
111.7014085430
11
166.7220167282
21
112.3264104504
0
LINE
5
21D
100
AcDbEntity
8
0
100
AcDbLine
62
7
6
CONTINUOUS
10
166.2113784130
20
111.5764104504
11
166.0837188425
21
112.3264104504
0
LINE
5
21E
100
AcDbEntity
8
0
100
AcDbLine
62
7
6
CONTINUOUS
10
166.0837188425
20
137.9514094371
11
166.0837188425
21
136.9514094967
0
LINE
5
21F
100
AcDbEntity
8
0
100
AcDbLine
62
7
6
CONTINUOUS
10
166.0837188425
20
133.9514094967
11
166.0837188425
21
130.9514094967
0
LINE
5
220
100
AcDbEntity
8
0
100
AcDbLine
62
7
6
CONTINUOUS
10
166.0837188425
20
121.5764094967
11
166.0837188425
21
120.8264094967
0
LINE
5
221
100
AcDbEntity
8
0
100
AcDbLine
62
7
6
CONTINUOUS
10
166.0837188425
20
116.3264094967
11
166.0837188425
21
115.5764094967
0
LINE
5
222
100
AcDbEntity
8
0
100
AcDbLine
62
7
6
CONTINUOUS
10
166.8496762874
20
133.2014094967
11
166.8496762874
21
130.8264092583
0
LINE
5
223
100
AcDbEntity
8
0
100
AcDbLine
62
7
6
CONTINUOUS
10
170.2964846554
20
110.2014085430
11
169.6581868592
21
110.0764104504
0
LINE
5
224
100
AcDbEntity
8
0
100
AcDbLine
62
7
6
CONTINUOUS
10
170.2964846554
20
110.8264104504
11
169.5305272999
21
110.7014094967
0
LINE
5
225
100
AcDbEntity
8
0
100
AcDbLine
62
7
6
CONTINUOUS
10
168.6369103852
20
113.9514085430
11
169.5305272999
21
113.9514085430
0
LINE
5
226
100
AcDbEntity
8
0
100
AcDbLine
62
7
6
CONTINUOUS
10
169.6581868592
20
114.5764104504
11
168.5092508259
21
114.5764104504
0
LINE
5
227
100
AcDbEntity
8
0
100
AcDbLine
62
7
6
CONTINUOUS
10
166.0837188425
20
115.5764094967
11
172.0837188425
21
115.5764094967
0
LINE
5
228
100
AcDbEntity
8
0
100
AcDbLine
62
7
6
CONTINUOUS
10
171.0624423685
20
116.3264094967
11
166.0837188425
21
116.3264094967
0
LINE
5
229
100
AcDbEntity
8
0
100
AcDbLine
62
7
6
CONTINUOUS
10
170.1688250962
20
117.0764094967
11
171.1901019278
21
117.0764094967
0
LINE
5
22A
100
AcDbEntity
8
0
100
AcDbLine
62
7
6
CONTINUOUS
10
167.1049954059
20
129.4514094967
11
166.5943571242
21
129.8264094967
0
LINE
5
22B
100
AcDbEntity
8
0
100
AcDbLine
62
7
6
CONTINUOUS
10
169.7858464184
20
129.4514094967
11
169.2752081814
21
129.8264094967
0
LINE
5
22C
100
AcDbEntity
8
0
100
AcDbLine
62
7
6
CONTINUOUS
10
167.2326550546
20
130.2014094967
11
166.9773358467
21
130.4514092583
0
LINE
5
22D
100
AcDbEntity
8
0
100
AcDbLine
62
7
6
CONTINUOUS
10
169.9135059777
20
130.2014094967
11
169.6581868592
21
130.4514092583
0
LINE
5
22E
100
AcDbEntity
8
0
100
AcDbLine
62
7
6
CONTINUOUS
10
166.5943571242
20
129.8264094967
11
166.2113784130
21
130.3264097351
0
LINE
5
22F
100
AcDbEntity
8
0
100
AcDbLine
62
7
6
CONTINUOUS
10
169.2752081814
20
129.8264094967
11
169.1475486222
21
130.0764092583
0
LINE
5
230
100
AcDbEntity
8
0
100
AcDbLine
62
7
6
CONTINUOUS
10
166.9773358467
20
130.4514092583
11
166.8496762874
21
130.8264092583
0
LINE
5
231
100
AcDbEntity
8
0
100
AcDbLine
62
7
6
CONTINUOUS
10
169.6581868592
20
130.4514092583
11
169.5305272999
21
130.8264092583
0
LINE
5
232
100
AcDbEntity
8
0
100
AcDbLine
62
7
6
CONTINUOUS
10
166.2113784130
20
130.3264097351
11
166.0837188425
21
130.9514094967
0
LINE
5
233
100
AcDbEntity
8
0
100
AcDbLine
62
7
6
CONTINUOUS
10
171.4454210463
20
112.3264104504
11
171.3177614870
21
112.9514094967
0
LINE
5
234
100
AcDbEntity
8
0
100
AcDbLine
62
7
6
CONTINUOUS
10
172.0837188425
20
112.3264104504
11
171.9560592833
21
113.0764104504
0
LINE
5
235
100
AcDbEntity
8
0
100
AcDbLine
62
7
6
CONTINUOUS
10
168.2539315286
20
119.8264090199
11
168.2539315286
21
118.0764099736
0
LINE
5
236
100
AcDbEntity
8
0
100
AcDbLine
62
7
6
CONTINUOUS
10
168.7645699444
20
133.2014094967
11
168.7645699444
21
130.8264092583
0
LINE
5
237
100
AcDbEntity
8
0
100
AcDbLine
62
7
6
CONTINUOUS
10
168.8922295037
20
119.8264090199
11
168.8922295037
21
118.0764099736
0
LINE
5
238
100
AcDbEntity
8
0
100
AcDbLine
62
7
6
CONTINUOUS
10
169.5305272999
20
133.2014094967
11
169.5305272999
21
130.8264092583
0
LINE
5
239
100
AcDbEntity
8
0
100
AcDbLine
62
7
6
CONTINUOUS
10
171.3177614870
20
133.2014094967
11
171.3177614870
21
130.8264092583
0
LINE
5
23A
100
AcDbEntity
8
0
100
AcDbLine
62
7
6
CONTINUOUS
10
172.0837188425
20
139.9514094967
11
172.0837188425
21
139.2014094967
0
LINE
5
23B
100
AcDbEntity
8
0
100
AcDbLine
62
7
6
CONTINUOUS
10
172.0837188425
20
135.7014096159
11
172.0837188425
21
134.9514096159
0
LINE
5
23C
100
AcDbEntity
8
0
100
AcDbLine
62
7
6
CONTINUOUS
10
172.0837188425
20
133.9514094967
11
172.0837188425
21
130.9514094967
0
LINE
5
23D
100
AcDbEntity
8
0
100
AcDbLine
62
7
6
CONTINUOUS
10
172.0837188425
20
121.5764094967
11
172.0837188425
21
120.8264094967
0
LINE
5
23E
100
AcDbEntity
8
0
100
AcDbLine
62
7
6
CONTINUOUS
10
172.0837188425
20
116.3264094967
11
172.0837188425
21
115.5764094967
0
LINE
5
23F
100
AcDbEntity
8
0
100
AcDbLine
62
7
6
CONTINUOUS
10
166.2113784130
20
113.0764104504
11
166.0837188425
21
112.3264104504
0
LINE
5
240
100
AcDbEntity
8
0
100
AcDbLine
62
7
6
CONTINUOUS
10
168.5092508259
20
114.5764104504
11
167.8709528508
21
114.4514094967
0
LINE
5
241
100
AcDbEntity
8
0
100
AcDbLine
62
7
6
CONTINUOUS
10
168.6369103852
20
113.9514085430
11
167.8709528508
21
113.8264104504
0
LINE
5
242
100
AcDbEntity
8
0
100
AcDbLine
62
7
6
CONTINUOUS
10
168.2539315286
20
118.0764099736
11
168.8922295037
21
118.0764099736
0
LINE
5
243
100
AcDbEntity
8
0
100
AcDbLine
62
7
6
CONTINUOUS
10
168.8922295037
20
119.8264090199
11
168.2539315286
21
119.8264090199
0
LINE
5
244
100
AcDbEntity
8
0
100
AcDbLine
62
7
6
CONTINUOUS
10
166.0837188425
20
120.8264094967
11
172.0837188425
21
120.8264094967
0
LINE
5
245
100
AcDbEntity
8
0
100
AcDbLine
62
7
6
CONTINUOUS
10
171.0624423685
20
121.5764094967
11
166.0837188425
21
121.5764094967
0
LINE
5
246
100
AcDbEntity
8
0
100
AcDbLine
62
7
6
CONTINUOUS
10
171.1901019278
20
122.3264094967
11
170.1688250962
21
122.3264094967
0
LINE
5
247
100
AcDbEntity
8
0
100
AcDbLine
62
7
6
CONTINUOUS
10
167.4879741731
20
129.3264092583
11
167.1049954059
21
129.4514094967
0
LINE
5
248
100
AcDbEntity
8
0
100
AcDbLine
62
7
6
CONTINUOUS
10
167.6156337323
20
130.0764092583
11
167.2326550546
21
130.2014094967
0
LINE
5
249
100
AcDbEntity
8
0
100
AcDbLine
62
7
6
CONTINUOUS
10
170.1688250962
20
129.3264092583
11
169.7858464184
21
129.4514094967
0
LINE
5
24A
100
AcDbEntity
8
0
100
AcDbLine
62
7
6
CONTINUOUS
10
170.2964846554
20
130.0764092583
11
169.9135059777
21
130.2014094967
0
LINE
5
24B
100
AcDbEntity
8
0
100
AcDbLine
62
7
6
CONTINUOUS
10
178.0837188425
20
145.9514094967
11
178.0837188425
21
100.9514094967
0
LINE
5
24C
100
AcDbEntity
8
0
100
AcDbLine
62
7
6
CONTINUOUS
10
172.0837188425
20
112.3264104504
11
171.9560592833
21
111.5764104504
0
LINE
5
24D
100
AcDbEntity
8
0
100
AcDbLine
62
7
6
CONTINUOUS
10
166.8496762874
20
112.9514094967
11
166.7220167282
21
112.3264104504
0
LINE
5
24E
100
AcDbEntity
8
0
100
AcDbLine
62
7
6
CONTINUOUS
10
172.0837188425
20
130.9514094967
11
171.9560592833
21
130.3264097351
0
LINE
5
24F
100
AcDbEntity
8
0
100
AcDbLine
62
7
6
CONTINUOUS
10
171.4454210463
20
112.3264104504
11
171.3177614870
21
111.7014085430
0
LINE
5
250
100
AcDbEntity
8
0
100
AcDbLine
62
7
6
CONTINUOUS
10
168.7645699444
20
130.8264092583
11
168.6369103852
21
130.4514092583
0
LINE
5
251
100
AcDbEntity
8
0
100
AcDbLine
62
7
6
CONTINUOUS
10
171.3177614870
20
130.8264092583
11
171.1901019278
21
130.4514092583
0
LINE
5
252
100
AcDbEntity
8
0
100
AcDbLine
62
7
6
CONTINUOUS
10
169.1475486222
20
130.0764092583
11
169.0198890629
21
129.8264094967
0
LINE
5
253
100
AcDbEntity
8
0
100
AcDbLine
62
7
6
CONTINUOUS
10
202.7017769682
20
193.4514094967
11
212.0837188425
21
209.7014094967
0
LINE
5
254
100
AcDbEntity
8
0
100
AcDbLine
62
7
6
CONTINUOUS
10
170.6794636908
20
129.3264092583
11
170.1688250962
21
129.3264092583
0
LINE
5
255
100
AcDbEntity
8
0
100
AcDbLine
62
7
6
CONTINUOUS
10
168.1262719693
20
129.3264092583
11
167.4879741731
21
129.3264092583
0
LINE
5
256
100
AcDbEntity
8
0
100
AcDbLine
62
7
6
CONTINUOUS
10
166.0837188425
20
136.9514094967
11
172.0837188425
21
134.9514096159
0
LINE
5
257
100
AcDbEntity
8
0
100
AcDbLine
62
7
6
CONTINUOUS
10
172.0837188425
20
135.7014096159
11
166.8496762874
21
137.4514095563
0
LINE
5
258
100
AcDbEntity
8
0
100
AcDbLine
62
7
6
CONTINUOUS
10
184.0837188425
20
209.7014094967
11
184.0837188425
21
217.7014094967
0
LINE
5
259
100
AcDbEntity
8
0
100
AcDbLine
62
7
6
CONTINUOUS
10
170.5518037739
20
130.0764092583
11
170.2964846554
21
130.0764092583
0
LINE
5
25A
100
AcDbEntity
8
0
100
AcDbLine
62
7
6
CONTINUOUS
10
167.9986124101
20
130.0764092583
11
167.6156337323
21
130.0764092583
0
LINE
5
25B
100
AcDbEntity
8
0
100
AcDbLine
62
7
6
CONTINUOUS
10
171.3177614870
20
133.2014094967
11
169.5305272999
21
133.2014094967
0
LINE
5
25C
100
AcDbEntity
8
0
100
AcDbLine
62
7
6
CONTINUOUS
10
168.7645699444
20
133.2014094967
11
166.8496762874
21
133.2014094967
0
LINE
5
25D
100
AcDbEntity
8
0
100
AcDbLine
62
7
6
CONTINUOUS
10
172.0837188425
20
133.9514094967
11
166.0837188425
21
133.9514094967
0
LINE
5
25E
100
AcDbEntity
8
0
100
AcDbLine
62
7
6
CONTINUOUS
10
188.0837188425
20
202.2373078816
11
188.0837188425
21
194.4514094967
0
LINE
5
25F
100
AcDbEntity
8
0
100
AcDbLine
62
7
6
CONTINUOUS
10
191.8337188425
20
159.7014094967
11
191.8337188425
21
192.5097415034
0
LINE
5
260
100
AcDbEntity
8
0
100
AcDbLine
62
7
6
CONTINUOUS
10
166.2113784130
20
113.0764104504
11
166.5943571242
21
113.7014094967
0
LINE
5
261
100
AcDbEntity
8
0
100
AcDbLine
62
7
6
CONTINUOUS
10
167.1049954059
20
113.3264094967
11
166.8496762874
21
112.9514094967
0
LINE
5
262
100
AcDbEntity
8
0
100
AcDbLine
62
7
6
CONTINUOUS
10
171.9560592833
20
130.3264097351
11
171.5730806055
21
129.8264094967
0
LINE
5
263
100
AcDbEntity
8
0
100
AcDbLine
62
7
6
CONTINUOUS
10
168.6369103852
20
130.4514092583
11
168.3815912667
21
130.2014094967
0
LINE
5
264
100
AcDbEntity
8
0
100
AcDbLine
62
7
6
CONTINUOUS
10
171.1901019278
20
130.4514092583
11
170.9347828093
21
130.2014094967
0
LINE
5
265
100
AcDbEntity
8
0
100
AcDbLine
62
7
6
CONTINUOUS
10
195.5837188425
20
149.2014094967
11
195.5837188425
21
210.1824785006
0
LINE
5
266
100
AcDbEntity
8
DEFAULT_1
100
AcDbLine
62
2
6
CENTER
10
198.0837188425
20
217.7014094967
11
198.0837188425
21
59.7597586850
0
LINE
5
267
100
AcDbEntity
8
DEFAULT_1
100
AcDbLine
62
2
6
CENTER
10
198.0837188425
20
217.7014094967
11
198.0837188425
21
226.7014094967
0
LINE
5
268
100
AcDbEntity
8
0
100
AcDbLine
62
7
6
CONTINUOUS
10
171.9560592833
20
111.5764104504
11
171.5730806055
21
110.9514085430
0
LINE
5
269
100
AcDbEntity
8
0
100
AcDbLine
62
7
6
CONTINUOUS
10
171.3177614870
20
111.7014085430
11
171.0624423685
21
111.3264085430
0
LINE
5
26A
100
AcDbEntity
8
0
100
AcDbLine
62
7
6
CONTINUOUS
10
169.0198890629
20
129.8264094967
11
168.5092508259
21
129.4514094967
0
LINE
5
26B
100
AcDbEntity
8
0
100
AcDbLine
62
7
6
CONTINUOUS
10
171.5730806055
20
129.8264094967
11
171.0624423685
21
129.4514094967
0
LINE
5
26C
100
AcDbEntity
8
0
100
AcDbLine
62
7
6
CONTINUOUS
10
166.8496762874
20
137.4514095563
11
172.0837188425
21
139.2014094967
0
LINE
5
26D
100
AcDbEntity
8
0
100
AcDbLine
62
7
6
CONTINUOUS
10
172.0837188425
20
139.9514094967
11
166.0837188425
21
137.9514094371
0
LINE
5
26E
100
AcDbEntity
8
0
100
AcDbLine
62
7
6
CONTINUOUS
10
195.5837188425
20
149.2014094967
11
192.2884662400
21
157.3609934497
0
LINE
5
26F
100
AcDbEntity
8
0
100
AcDbLine
62
7
6
CONTINUOUS
10
200.5837188425
20
149.2014094967
11
200.5837188425
21
210.1824785006
0
LINE
5
270
100
AcDbEntity
8
0
100
AcDbLine
62
7
6
CONTINUOUS
10
204.3337188425
20
159.7014094967
11
204.3337188425
21
192.5097415034
0
LINE
5
271
100
AcDbEntity
8
0
100
AcDbLine
62
7
6
CONTINUOUS
10
203.8789714450
20
157.3609934497
11
200.5837188425
21
149.2014094967
0
LINE
5
272
100
AcDbEntity
8
0
100
AcDbLine
62
7
6
CONTINUOUS
10
166.9773358467
20
114.0764094967
11
166.5943571242
21
113.7014094967
0
LINE
5
273
100
AcDbEntity
8
0
100
AcDbLine
62
7
6
CONTINUOUS
10
200.5837188425
20
149.2014094967
11
195.5837188425
21
149.2014094967
0
LINE
5
274
100
AcDbEntity
8
0
100
AcDbLine
62
7
6
CONTINUOUS
10
208.0837188425
20
202.2373078816
11
208.0837188425
21
194.4514094967
0
LINE
5
275
100
AcDbEntity
8
0
100
AcDbLine
62
7
6
CONTINUOUS
10
171.5730806055
20
110.9514085430
11
171.1901019278
21
110.5764085430
0
LINE
5
276
100
AcDbEntity
8
0
100
AcDbLine
62
7
6
CONTINUOUS
10
167.8709528508
20
113.8264104504
11
167.1049954059
21
113.3264094967
0
LINE
5
277
100
AcDbEntity
8
0
100
AcDbLine
62
7
6
CONTINUOUS
10
168.3815912667
20
130.2014094967
11
167.9986124101
21
130.0764092583
0
LINE
5
278
100
AcDbEntity
8
0
100
AcDbLine
62
7
6
CONTINUOUS
10
168.5092508259
20
129.4514094967
11
168.1262719693
21
129.3264092583
0
LINE
5
279
100
AcDbEntity
8
0
100
AcDbLine
62
7
6
CONTINUOUS
10
170.9347828093
20
130.2014094967
11
170.5518037739
21
130.0764092583
0
LINE
5
27A
100
AcDbEntity
8
0
100
AcDbLine
62
7
6
CONTINUOUS
10
171.0624423685
20
129.4514094967
11
170.6794636908
21
129.3264092583
0
LINE
5
27B
100
AcDbEntity
8
0
100
AcDbLine
62
7
6
CONTINUOUS
10
212.0837188425
20
209.7014094967
11
212.0837188425
21
217.7014094967
0
LINE
5
27C
100
AcDbEntity
8
0
100
AcDbLine
62
7
6
CONTINUOUS
10
171.0624423685
20
111.3264085430
11
170.2964846554
21
110.8264104504
0
LINE
5
27D
100
AcDbEntity
8
0
100
AcDbLine
62
7
6
CONTINUOUS
10
167.4879741731
20
114.3264085430
11
166.9773358467
21
114.0764094967
0
LINE
5
27E
100
AcDbEntity
8
0
100
AcDbLine
62
7
6
CONTINUOUS
10
193.4656607169
20
193.4514094967
11
184.0837188425
21
209.7014094967
0
LINE
5
27F
100
AcDbEntity
8
0
100
AcDbLine
62
7
6
CONTINUOUS
10
218.0837188425
20
100.9514094967
11
218.0837188425
21
145.9514094967
0
LINE
5
280
100
AcDbEntity
8
0
100
AcDbLine
62
7
6
CONTINUOUS
10
171.1901019278
20
110.5764085430
11
170.6794636908
21
110.3264094967
0
LINE
5
281
100
AcDbEntity
8
0
100
AcDbLine
62
7
6
CONTINUOUS
10
167.4879741731
20
114.3264085430
11
167.8709528508
21
114.4514094967
0
LINE
5
282
100
AcDbEntity
8
0
100
AcDbLine
62
7
6
CONTINUOUS
10
170.6794636908
20
110.3264094967
11
170.2964846554
21
110.2014085430
0
LINE
5
283
100
AcDbEntity
8
0
100
AcDbLine
62
7
6
CONTINUOUS
10
236.0837188425
20
100.9514094967
11
236.0837188425
21
145.9514094967
0
LINE
5
284
100
AcDbEntity
8
0
100
AcDbLine
62
7
6
CONTINUOUS
10
206.0837188425
20
192.4514094967
11
204.3337188425
21
192.4514094967
0
LINE
5
285
100
AcDbEntity
8
0
100
AcDbLine
62
7
6
CONTINUOUS
10
191.8337188425
20
192.4514094967
11
190.0837188425
21
192.4514094967
0
LINE
5
286
100
AcDbEntity
8
DEFAULT_1
100
AcDbLine
62
2
6
CENTER
10
198.0837188425
20
217.7014094967
11
189.0837188425
21
217.7014094967
0
LINE
5
287
100
AcDbEntity
8
DEFAULT_1
100
AcDbLine
62
2
6
CENTER
10
198.0837188425
20
217.7014094967
11
207.0837188425
21
217.7014094967
0
LINE
5
288
100
AcDbEntity
8
0
100
AcDbLine
62
7
6
CONTINUOUS
10
210.4833156102
20
224.2014094967
11
185.6841220749
21
224.2014094967
0
LINE
5
289
100
AcDbEntity
8
0
100
AcDbLine
62
7
6
CONTINUOUS
10
309.2841805687
20
231.7014094967
11
302.9909333349
21
224.2014094967
0
LINE
5
28A
100
AcDbEntity
8
0
100
AcDbLine
62
7
6
CONTINUOUS
10
298.4467007445
20
184.4108548267
11
302.9909333349
21
210.1824785006
0
LINE
5
28B
100
AcDbEntity
8
DEFAULT_2
100
AcDbLine
62
8
6
HIDDEN
10
336.9725805389
20
110.0764104504
11
336.3909333349
21
110.0764104504
0
LINE
5
28C
100
AcDbEntity
8
0
100
AcDbLine
62
7
6
CONTINUOUS
10
336.9725805389
20
110.0764104504
11
336.9909326194
21
110.0764104504
0
LINE
5
28D
100
AcDbEntity
8
DEFAULT_2
100
AcDbLine
62
8
6
HIDDEN
10
336.9088478136
20
110.2014085430
11
336.3909333349
21
110.2014085430
0
LINE
5
28E
100
AcDbEntity
8
DEFAULT_2
100
AcDbLine
62
8
6
HIDDEN
10
336.8483369584
20
110.3264094967
11
336.3909333349
21
110.3264094967
0
LINE
5
28F
100
AcDbEntity
8
DEFAULT_2
100
AcDbLine
62
8
6
HIDDEN
10
336.7409705162
20
110.5764085430
11
336.3909333349
21
110.5764085430
0
LINE
5
290
100
AcDbEntity
8
DEFAULT_2
100
AcDbLine
62
8
6
HIDDEN
10
336.9909330734
20
110.7014094967
11
336.9798355038
21
110.7014094967
0
LINE
5
291
100
AcDbEntity
8
0
100
AcDbLine
62
7
6
CONTINUOUS
10
336.9798355038
20
110.7014094967
11
336.7091246376
21
110.7014094967
0
LINE
5
292
100
AcDbEntity
8
DEFAULT_2
100
AcDbLine
62
8
6
HIDDEN
10
336.7091246376
20
110.7014094967
11
336.3909333349
21
110.7014094967
0
LINE
5
293
100
AcDbEntity
8
0
100
AcDbLine
62
7
6
CONTINUOUS
10
336.9088478136
20
110.8264104504
11
336.6754128348
21
110.8264104504
0
LINE
5
294
100
AcDbEntity
8
DEFAULT_2
100
AcDbLine
62
8
6
HIDDEN
10
336.6754128348
20
110.8264104504
11
336.3909333349
21
110.8264104504
0
LINE
5
295
100
AcDbEntity
8
DEFAULT_2
100
AcDbLine
62
8
6
HIDDEN
10
336.6398106167
20
110.9514085430
11
336.3909333349
21
110.9514085430
0
LINE
5
296
100
AcDbEntity
8
0
100
AcDbLine
62
7
6
CONTINUOUS
10
336.7707199816
20
111.3264085430
11
336.5702039561
21
111.3264085430
0
LINE
5
297
100
AcDbEntity
8
DEFAULT_2
100
AcDbLine
62
8
6
HIDDEN
10
336.5702039561
20
111.3264085430
11
336.3909333349
21
111.3264085430
0
LINE
5
298
100
AcDbEntity
8
DEFAULT_2
100
AcDbLine
62
8
6
HIDDEN
10
336.5202744851
20
111.5764104504
11
336.3909333349
21
111.5764104504
0
LINE
5
299
100
AcDbEntity
8
0
100
AcDbLine
62
7
6
CONTINUOUS
10
336.7092504811
20
111.7014085430
11
336.5130648993
21
111.7014085430
0
LINE
5
29A
100
AcDbEntity
8
DEFAULT_2
100
AcDbLine
62
8
6
HIDDEN
10
336.5130648993
20
111.7014085430
11
336.3909333349
21
111.7014085430
0
LINE
5
29B
100
AcDbEntity
8
0
100
AcDbLine
62
7
6
CONTINUOUS
10
336.6755382840
20
112.3264104504
11
336.4762147091
21
112.3264104504
0
LINE
5
29C
100
AcDbEntity
8
DEFAULT_2
100
AcDbLine
62
8
6
HIDDEN
10
336.4762147091
20
112.3264104504
11
336.3909333349
21
112.3264104504
0
LINE
5
29D
100
AcDbEntity
8
0
100
AcDbLine
62
7
6
CONTINUOUS
10
336.7092504811
20
112.9514094967
11
336.5130647342
21
112.9514094967
0
LINE
5
29E
100
AcDbEntity
8
DEFAULT_2
100
AcDbLine
62
8
6
HIDDEN
10
336.5130647342
20
112.9514094967
11
336.3909333349
21
112.9514094967
0
LINE
5
29F
100
AcDbEntity
8
DEFAULT_2
100
AcDbLine
62
8
6
HIDDEN
10
336.5202744851
20
113.0764104504
11
336.3909333349
21
113.0764104504
0
LINE
5
2A0
100
AcDbEntity
8
0
100
AcDbLine
62
7
6
CONTINUOUS
10
336.7707199816
20
113.3264094967
11
336.5702036214
21
113.3264094967
0
LINE
5
2A1
100
AcDbEntity
8
DEFAULT_2
100
AcDbLine
62
8
6
HIDDEN
10
336.5702036214
20
113.3264094967
11
336.3909333349
21
113.3264094967
0
LINE
5
2A2
100
AcDbEntity
8
DEFAULT_2
100
AcDbLine
62
8
6
HIDDEN
10
336.6398106167
20
113.7014094967
11
336.3909333349
21
113.7014094967
0
LINE
5
2A3
100
AcDbEntity
8
0
100
AcDbLine
62
7
6
CONTINUOUS
10
336.9088478136
20
113.8264104504
11
336.6754136239
21
113.8264104504
0
LINE
5
2A4
100
AcDbEntity
8
DEFAULT_2
100
AcDbLine
62
8
6
HIDDEN
10
336.6754136239
20
113.8264104504
11
336.3909333349
21
113.8264104504
0
LINE
5
2A5
100
AcDbEntity
8
0
100
AcDbLine
62
7
6
CONTINUOUS
10
336.9798355038
20
113.9514085430
11
336.7091246376
21
113.9514085430
0
LINE
5
2A6
100
AcDbEntity
8
DEFAULT_2
100
AcDbLine
62
8
6
HIDDEN
10
336.7091246376
20
113.9514085430
11
336.3909333349
21
113.9514085430
0
LINE
5
2A7
100
AcDbEntity
8
DEFAULT_2
100
AcDbLine
62
8
6
HIDDEN
10
336.9798355038
20
113.9514085430
11
336.9909330734
21
113.9514085430
0
LINE
5
2A8
100
AcDbEntity
8
DEFAULT_2
100
AcDbLine
62
8
6
HIDDEN
10
336.7409705162
20
114.0764094967
11
336.3909333349
21
114.0764094967
0
LINE
5
2A9
100
AcDbEntity
8
DEFAULT_2
100
AcDbLine
62
8
6
HIDDEN
10
336.8483369584
20
114.3264085430
11
336.3909333349
21
114.3264085430
0
LINE
5
2AA
100
AcDbEntity
8
DEFAULT_2
100
AcDbLine
62
8
6
HIDDEN
10
336.9088478136
20
114.4514094967
11
336.3909333349
21
114.4514094967
0
LINE
5
2AB
100
AcDbEntity
8
0
100
AcDbLine
62
7
6
CONTINUOUS
10
336.9909326194
20
114.5764104504
11
336.9725805389
21
114.5764104504
0
LINE
5
2AC
100
AcDbEntity
8
DEFAULT_2
100
AcDbLine
62
8
6
HIDDEN
10
336.9725805389
20
114.5764104504
11
336.3909333349
21
114.5764104504
0
LINE
5
2AD
100
AcDbEntity
8
DEFAULT_2
100
AcDbLine
62
8
6
HIDDEN
10
336.4762147091
20
115.5764094967
11
336.3909333349
21
115.5764094967
0
LINE
5
2AE
100
AcDbEntity
8
0
100
AcDbLine
62
7
6
CONTINUOUS
10
336.4762147091
20
115.5764094967
11
336.9909333349
21
115.5764094967
0
LINE
5
2AF
100
AcDbEntity
8
0
100
AcDbLine
62
7
6
CONTINUOUS
10
336.9908544565
20
116.3264094967
11
336.4762147091
21
116.3264094967
0
LINE
5
2B0
100
AcDbEntity
8
DEFAULT_2
100
AcDbLine
62
8
6
HIDDEN
10
336.4762147091
20
116.3264094967
11
336.3909333349
21
116.3264094967
0
LINE
5
2B1
100
AcDbEntity
8
DEFAULT_2
100
AcDbLine
62
8
6
HIDDEN
10
336.9252796690
20
117.0764094967
11
336.3909333349
21
117.0764094967
0
LINE
5
2B2
100
AcDbEntity
8
DEFAULT_2
100
AcDbLine
62
8
6
HIDDEN
10
336.9525990848
20
118.0764099736
11
336.3909333349
21
118.0764099736
0
LINE
5
2B3
100
AcDbEntity
8
0
100
AcDbLine
62
7
6
CONTINUOUS
10
336.9525990848
20
118.0764099736
11
336.9888959839
21
118.0764099736
0
LINE
5
2B4
100
AcDbEntity
8
DEFAULT_2
100
AcDbLine
62
8
6
HIDDEN
10
302.9909333349
20
192.6383689212
11
302.9909333349
21
193.4514094967
0
LINE
5
2B5
100
AcDbEntity
8
0
100
AcDbLine
62
7
6
CONTINUOUS
10
302.9909333349
20
193.4514094967
11
302.9909333349
21
224.2014094967
0
LINE
5
2B6
100
AcDbEntity
8
0
100
AcDbLine
62
7
6
CONTINUOUS
10
336.9888959839
20
119.8264090199
11
336.9525990848
21
119.8264090199
0
LINE
5
2B7
100
AcDbEntity
8
DEFAULT_2
100
AcDbLine
62
8
6
HIDDEN
10
336.9525990848
20
119.8264090199
11
336.3909333349
21
119.8264090199
0
LINE
5
2B8
100
AcDbEntity
8
DEFAULT_2
100
AcDbLine
62
8
6
HIDDEN
10
336.4762147091
20
120.8264094967
11
336.3909333349
21
120.8264094967
0
LINE
5
2B9
100
AcDbEntity
8
0
100
AcDbLine
62
7
6
CONTINUOUS
10
336.4762147091
20
120.8264094967
11
336.9909333349
21
120.8264094967
0
LINE
5
2BA
100
AcDbEntity
8
0
100
AcDbLine
62
7
6
CONTINUOUS
10
336.9908544565
20
121.5764094967
11
336.4762147091
21
121.5764094967
0
LINE
5
2BB
100
AcDbEntity
8
DEFAULT_2
100
AcDbLine
62
8
6
HIDDEN
10
336.4762147091
20
121.5764094967
11
336.3909333349
21
121.5764094967
0
LINE
5
2BC
100
AcDbEntity
8
DEFAULT_2
100
AcDbLine
62
8
6
HIDDEN
10
336.9252796690
20
122.3264094967
11
336.3909333349
21
122.3264094967
0
LINE
5
2BD
100
AcDbEntity
8
0
100
AcDbLine
62
7
6
CONTINUOUS
10
336.9398603926
20
129.3264092583
11
336.8483369584
21
129.3264092583
0
LINE
5
2BE
100
AcDbEntity
8
DEFAULT_2
100
AcDbLine
62
8
6
HIDDEN
10
336.8483369584
20
129.3264092583
11
336.3909333349
21
129.3264092583
0
LINE
5
2BF
100
AcDbEntity
8
0
100
AcDbLine
62
7
6
CONTINUOUS
10
336.9725805389
20
129.4514094967
11
336.7707199816
21
129.4514094967
0
LINE
5
2C0
100
AcDbEntity
8
DEFAULT_2
100
AcDbLine
62
8
6
HIDDEN
10
336.7707199816
20
129.4514094967
11
336.3909333349
21
129.4514094967
0
LINE
5
2C1
100
AcDbEntity
8
0
100
AcDbLine
62
7
6
CONTINUOUS
10
336.9907069865
20
129.8264094967
11
336.6398106167
21
129.8264094967
0
LINE
5
2C2
100
AcDbEntity
8
DEFAULT_2
100
AcDbLine
62
8
6
HIDDEN
10
336.6398106167
20
129.8264094967
11
336.3909333349
21
129.8264094967
0
LINE
5
2C3
100
AcDbEntity
8
0
100
AcDbLine
62
7
6
CONTINUOUS
10
336.9907069853
20
130.0764092583
11
336.5823778702
21
130.0764092583
0
LINE
5
2C4
100
AcDbEntity
8
DEFAULT_2
100
AcDbLine
62
8
6
HIDDEN
10
336.5823778702
20
130.0764092583
11
336.3909333349
21
130.0764092583
0
LINE
5
2C5
100
AcDbEntity
8
0
100
AcDbLine
62
7
6
CONTINUOUS
10
336.7985188640
20
130.2014094967
11
336.5519204944
21
130.2014094967
0
LINE
5
2C6
100
AcDbEntity
8
DEFAULT_2
100
AcDbLine
62
8
6
HIDDEN
10
336.9635035835
20
130.2014094967
11
336.7985188640
21
130.2014094967
0
LINE
5
2C7
100
AcDbEntity
8
DEFAULT_2
100
AcDbLine
62
8
6
HIDDEN
10
336.5519204944
20
130.2014094967
11
336.3909333349
21
130.2014094967
0
LINE
5
2C8
100
AcDbEntity
8
0
100
AcDbLine
62
7
6
CONTINUOUS
10
314.8095070084
20
209.7014094967
11
314.8095070084
21
231.7014094967
0
LINE
5
2C9
100
AcDbEntity
8
DEFAULT_2
100
AcDbLine
62
8
6
HIDDEN
10
336.5202744851
20
130.3264097351
11
336.3909333349
21
130.3264097351
0
LINE
5
2CA
100
AcDbEntity
8
0
100
AcDbLine
62
7
6
CONTINUOUS
10
336.7409705162
20
130.4514092583
11
336.5116228811
21
130.4514092583
0
LINE
5
2CB
100
AcDbEntity
8
DEFAULT_2
100
AcDbLine
62
8
6
HIDDEN
10
336.9798355038
20
130.4514092583
11
336.7409705162
21
130.4514092583
0
LINE
5
2CC
100
AcDbEntity
8
DEFAULT_2
100
AcDbLine
62
8
6
HIDDEN
10
336.5116228811
20
130.4514092583
11
336.3909333349
21
130.4514092583
0
LINE
5
2CD
100
AcDbEntity
8
0
100
AcDbLine
62
7
6
CONTINUOUS
10
336.7092504811
20
130.8264092583
11
336.4851879359
21
130.8264092583
0
LINE
5
2CE
100
AcDbEntity
8
DEFAULT_2
100
AcDbLine
62
8
6
HIDDEN
10
336.9852728871
20
130.8264092583
11
336.7092504811
21
130.8264092583
0
LINE
5
2CF
100
AcDbEntity
8
DEFAULT_2
100
AcDbLine
62
8
6
HIDDEN
10
336.4851879359
20
130.8264092583
11
336.3909333349
21
130.8264092583
0
LINE
5
2D0
100
AcDbEntity
8
DEFAULT_2
100
AcDbLine
62
8
6
HIDDEN
10
336.4762147091
20
130.9514094967
11
336.3909333349
21
130.9514094967
0
LINE
5
2D1
100
AcDbEntity
8
0
100
AcDbLine
62
7
6
CONTINUOUS
10
336.9852728871
20
133.2014094967
11
336.4762147091
21
133.2014094967
0
LINE
5
2D2
100
AcDbEntity
8
DEFAULT_2
100
AcDbLine
62
8
6
HIDDEN
10
336.4762147091
20
133.2014094967
11
336.3909333349
21
133.2014094967
0
LINE
5
2D3
100
AcDbEntity
8
0
100
AcDbLine
62
7
6
CONTINUOUS
10
336.9909333349
20
133.9514094967
11
336.4762147091
21
133.9514094967
0
LINE
5
2D4
100
AcDbEntity
8
DEFAULT_2
100
AcDbLine
62
8
6
HIDDEN
10
336.4762147091
20
133.9514094967
11
336.3909333349
21
133.9514094967
0
LINE
5
2D5
100
AcDbEntity
8
DEFAULT_2
100
AcDbLine
62
8
6
HIDDEN
10
336.4762147091
20
134.9514096159
11
336.3909333349
21
134.9514096159
0
LINE
5
2D6
100
AcDbEntity
8
DEFAULT_2
100
AcDbLine
62
8
6
HIDDEN
10
336.4762147091
20
135.7014096159
11
336.3909333349
21
135.7014096159
0
LINE
5
2D7
100
AcDbEntity
8
0
100
AcDbLine
62
7
6
CONTINUOUS
10
318.9909333349
20
174.8941846211
11
318.9909333349
21
71.9514094967
0
LINE
5
2D8
100
AcDbEntity
8
0
100
AcDbLine
62
7
6
CONTINUOUS
10
322.3909333349
20
229.6396322633
11
322.3909333349
21
204.3014094967
0
LINE
5
2D9
100
AcDbEntity
8
DEFAULT_2
100
AcDbLine
62
8
6
HIDDEN
10
336.4762147091
20
136.9514094967
11
336.3909333349
21
136.9514094967
0
LINE
5
2DA
100
AcDbEntity
8
0
100
AcDbLine
62
7
6
CONTINUOUS
10
336.7092504811
20
137.4514095563
11
336.4762147091
21
137.4514095563
0
LINE
5
2DB
100
AcDbEntity
8
DEFAULT_2
100
AcDbLine
62
8
6
HIDDEN
10
336.4762147091
20
137.4514095563
11
336.3909333349
21
137.4514095563
0
LINE
5
2DC
100
AcDbEntity
8
DEFAULT_2
100
AcDbLine
62
8
6
HIDDEN
10
336.4762147091
20
137.9514094371
11
336.3909333349
21
137.9514094371
0
LINE
5
2DD
100
AcDbEntity
8
DEFAULT_2
100
AcDbLine
62
8
6
HIDDEN
10
336.4762147091
20
139.2014094967
11
336.3909333349
21
139.2014094967
0
LINE
5
2DE
100
AcDbEntity
8
DEFAULT_2
100
AcDbLine
62
8
6
HIDDEN
10
336.4762147091
20
139.9514094967
11
336.3909333349
21
139.9514094967
0
LINE
5
2DF
100
AcDbEntity
8
DEFAULT_1
100
AcDbLine
62
2
6
CENTER
10
327.9909333349
20
59.9514094967
11
327.9909333349
21
234.7014094967
0
LINE
5
2E0
100
AcDbEntity
8
0
100
AcDbLine
62
7
6
CONTINUOUS
10
333.5909333349
20
204.3014094967
11
333.5909333349
21
229.6396322633
0
LINE
5
2E1
100
AcDbEntity
8
DEFAULT_2
100
AcDbLine
62
8
6
HIDDEN
10
336.3909333349
20
139.9514094967
11
336.3909333349
21
134.9514096159
0
LINE
5
2E2
100
AcDbEntity
8
DEFAULT_2
100
AcDbLine
62
8
6
HIDDEN
10
336.3909333349
20
133.9514094967
11
336.3909333349
21
129.3264092583
0
LINE
5
2E3
100
AcDbEntity
8
DEFAULT_2
100
AcDbLine
62
8
6
HIDDEN
10
336.3909333349
20
122.3264094967
11
336.3909333349
21
120.8264094967
0
LINE
5
2E4
100
AcDbEntity
8
DEFAULT_2
100
AcDbLine
62
8
6
HIDDEN
10
336.3909333349
20
119.8264090199
11
336.3909333349
21
118.0764099736
0
LINE
5
2E5
100
AcDbEntity
8
DEFAULT_2
100
AcDbLine
62
8
6
HIDDEN
10
336.3909333349
20
117.0764094967
11
336.3909333349
21
115.5764094967
0
LINE
5
2E6
100
AcDbEntity
8
DEFAULT_2
100
AcDbLine
62
8
6
HIDDEN
10
336.3909333349
20
114.5764104504
11
336.3909333349
21
110.0764104504
0
LINE
5
2E7
100
AcDbEntity
8
DEFAULT_2
100
AcDbLine
62
8
6
HIDDEN
10
336.4762147091
20
139.9514094967
11
336.4762147091
21
139.2014094967
0
LINE
5
2E8
100
AcDbEntity
8
0
100
AcDbLine
62
7
6
CONTINUOUS
10
336.4762147091
20
137.9514094371
11
336.4762147091
21
136.9514094967
0
LINE
5
2E9
100
AcDbEntity
8
DEFAULT_2
100
AcDbLine
62
8
6
HIDDEN
10
336.4762147091
20
135.7014096159
11
336.4762147091
21
134.9514096159
0
LINE
5
2EA
100
AcDbEntity
8
0
100
AcDbLine
62
7
6
CONTINUOUS
10
336.4762147091
20
133.9514094967
11
336.4762147091
21
130.9514094967
0
LINE
5
2EB
100
AcDbEntity
8
0
100
AcDbLine
62
7
6
CONTINUOUS
10
336.4762147091
20
121.5764094967
11
336.4762147091
21
120.8264094967
0
LINE
5
2EC
100
AcDbEntity
8
0
100
AcDbLine
62
7
6
CONTINUOUS
10
336.4762147091
20
116.3264094967
11
336.4762147091
21
115.5764094967
0
LINE
5
2ED
100
AcDbEntity
8
0
100
AcDbLine
62
7
6
CONTINUOUS
10
336.7092504811
20
133.2014094967
11
336.7092504811
21
130.8264092583
0
LINE
5
2EE
100
AcDbEntity
8
0
100
AcDbLine
62
7
6
CONTINUOUS
10
336.9525990848
20
119.8264090199
11
336.9525990848
21
118.0764099736
0
LINE
5
2EF
100
AcDbEntity
8
DEFAULT_2
100
AcDbLine
62
8
6
HIDDEN
10
336.9798355038
20
133.2014094967
11
336.9798355038
21
130.8264092583
0
LINE
5
2F0
100
AcDbEntity
8
0
100
AcDbLine
62
7
6
CONTINUOUS
10
336.9852728871
20
133.2014094967
11
336.9852728871
21
130.8264092583
0
LINE
5
2F1
100
AcDbEntity
8
0
100
AcDbLine
62
7
6
CONTINUOUS
10
336.9888959839
20
119.8264090199
11
336.9888959839
21
118.0764099736
0
LINE
5
2F2
100
AcDbEntity
8
0
100
AcDbLine
62
7
6
CONTINUOUS
10
336.9909333349
20
71.9514094967
11
336.9909333349
21
118.0764099736
0
LINE
5
2F3
100
AcDbEntity
8
DEFAULT_2
100
AcDbLine
62
8
6
HIDDEN
10
336.9909333349
20
118.0764099736
11
336.9909333349
21
119.8264090199
0
LINE
5
2F4
100
AcDbEntity
8
0
100
AcDbLine
62
7
6
CONTINUOUS
10
336.9909333349
20
119.8264090199
11
336.9909333349
21
129.4514094967
0
LINE
5
2F5
100
AcDbEntity
8
DEFAULT_2
100
AcDbLine
62
8
6
HIDDEN
10
336.9909333349
20
129.4514094967
11
336.9909333349
21
130.0764092583
0
LINE
5
2F6
100
AcDbEntity
8
0
100
AcDbLine
62
7
6
CONTINUOUS
10
336.9909333349
20
130.0764092583
11
336.9909333349
21
174.8941846211
0
LINE
5
2F7
100
AcDbEntity
8
0
100
AcDbLine
62
7
6
CONTINUOUS
10
341.1723596613
20
231.7014094967
11
341.1723596613
21
209.7014094967
0
LINE
5
2F8
100
AcDbEntity
8
0
100
AcDbLine
62
7
6
CONTINUOUS
10
352.9909333349
20
192.6383689212
11
352.9909333349
21
224.2014094967
0
LINE
5
2F9
100
AcDbEntity
8
0
100
AcDbLine
62
7
6
CONTINUOUS
10
357.5351659252
20
184.4108548267
11
352.9909333349
21
210.1824785006
0
LINE
5
2FA
100
AcDbEntity
8
0
100
AcDbLine
62
7
6
CONTINUOUS
10
344.4861238633
20
192.4514094967
11
311.4957428065
21
192.4514094967
0
LINE
5
2FB
100
AcDbEntity
8
0
100
AcDbLine
62
7
6
CONTINUOUS
10
333.5909333349
20
211.7014094967
11
322.3909333349
21
211.7014094967
0
LINE
5
2FC
100
AcDbEntity
8
DEFAULT_1
100
AcDbLine
62
2
6
CENTER
10
319.3909333349
20
217.7014094967
11
336.5909333349
21
217.7014094967
0
LINE
5
2FD
100
AcDbEntity
8
0
100
AcDbLine
62
7
6
CONTINUOUS
10
352.9909333349
20
224.2014094967
11
346.6976861011
21
231.7014094967
0
LINE
5
2FE
100
AcDbEntity
8
0
100
AcDbLine
62
7
6
CONTINUOUS
10
333.5909333349
20
223.7014094967
11
322.3909333349
21
223.7014094967
0
LINE
5
2FF
100
AcDbEntity
8
0
100
AcDbLine
62
7
6
CONTINUOUS
10
309.2841805687
20
231.7014094967
11
314.8095070084
21
231.7014094967
0
LINE
5
300
100
AcDbEntity
8
0
100
AcDbLine
62
7
6
CONTINUOUS
10
341.1723596613
20
231.7014094967
11
346.6976861011
21
231.7014094967
0
ARC
5
301
100
AcDbEntity
8
DEFAULT_2
100
AcDbCircle
62
8
6
HIDDEN
10
198.0837188425
20
145.9514094967
40
20.0000000000
100
AcDbArc
50
71.7780468296
51
108.2219531704
0
ARC
5
302
100
AcDbEntity
8
DEFAULT_2
100
AcDbCircle
62
8
6
HIDDEN
10
198.0837188425
20
145.9514094967
40
38.0000000000
100
AcDbArc
50
80.5301412280
51
99.4698587720
0
CIRCLE
5
303
100
AcDbEntity
8
0
100
AcDbCircle
62
7
6
CONTINUOUS
10
198.0837188425
20
217.7014094967
40
6.0000000000
0
ARC
5
304
100
AcDbEntity
8
0
100
AcDbCircle
62
7
6
CONTINUOUS
10
198.0837188425
20
159.7014094967
40
6.2500000000
100
AcDbArc
50
180.0000000000
51
201.9913472955
0
ARC
5
305
100
AcDbEntity
8
0
100
AcDbCircle
62
7
6
CONTINUOUS
10
198.0837188425
20
159.7014094967
40
6.2500000000
100
AcDbArc
50
338.0086527045
51
360.0000000000
0
ARC
5
306
100
AcDbEntity
8
0
100
AcDbCircle
62
7
6
CONTINUOUS
10
200.9697261606
20
194.4514094967
40
2.0000000000
100
AcDbArc
50
294.9711750139
51
330.0000000000
0
ARC
5
307
100
AcDbEntity
8
0
100
AcDbCircle
62
7
6
CONTINUOUS
10
206.0837188425
20
194.4514094967
40
2.0000000000
100
AcDbArc
50
270.0000000000
51
360.0000000000
0
ARC
5
308
100
AcDbEntity
8
0
100
AcDbCircle
62
7
6
CONTINUOUS
10
210.0837188425
20
202.2373078816
40
2.0000000000
100
AcDbArc
50
150.0000000000
51
180.0000000000
0
ARC
5
309
100
AcDbEntity
8
0
100
AcDbCircle
62
7
6
CONTINUOUS
10
198.0837188425
20
217.7014094967
40
14.0000000000
100
AcDbArc
50
0.0000000000
51
180.0000000000
0
ARC
5
30A
100
AcDbEntity
8
0
100
AcDbCircle
62
7
6
CONTINUOUS
10
186.0837188425
20
202.2373078816
40
2.0000000000
100
AcDbArc
50
0.0000000000
51
30.0000000000
0
ARC
5
30B
100
AcDbEntity
8
0
100
AcDbCircle
62
7
6
CONTINUOUS
10
190.0837188425
20
194.4514094967
40
2.0000000000
100
AcDbArc
50
180.0000000000
51
270.0000000000
0
ARC
5
30C
100
AcDbEntity
8
0
100
AcDbCircle
62
7
6
CONTINUOUS
10
195.1977115244
20
194.4514094967
40
2.0000000000
100
AcDbArc
50
210.0000000000
51
245.0288249861
0
ARC
5
30D
100
AcDbEntity
8
0
100
AcDbCircle
62
7
6
CONTINUOUS
10
198.0837188425
20
145.9514094967
40
20.0000000000
100
AcDbArc
50
0.0000000000
51
71.7780468296
0
ARC
5
30E
100
AcDbEntity
8
0
100
AcDbCircle
62
7
6
CONTINUOUS
10
198.0837188425
20
145.9514094967
40
20.0000000000
100
AcDbArc
50
108.2219531704
51
180.0000000000
0
ARC
5
30F
100
AcDbEntity
8
0
100
AcDbCircle
62
7
6
CONTINUOUS
10
198.0837188425
20
145.9514094967
40
38.0000000000
100
AcDbArc
50
0.0000000000
51
80.5301412280
0
ARC
5
310
100
AcDbEntity
8
0
100
AcDbCircle
62
7
6
CONTINUOUS
10
198.0837188425
20
145.9514094967
40
38.0000000000
100
AcDbArc
50
99.4698587720
51
180.0000000000
0
ARC
5
311
100
AcDbEntity
8
0
100
AcDbCircle
62
7
6
CONTINUOUS
10
198.0837188425
20
100.9514094967
40
20.0000000000
100
AcDbArc
50
180.0000000000
51
360.0000000000
0
ARC
5
312
100
AcDbEntity
8
0
100
AcDbCircle
62
7
6
CONTINUOUS
10
198.0837188425
20
100.9514094967
40
38.0000000000
100
AcDbArc
50
180.0000000000
51
360.0000000000
0
ARC
5
313
100
AcDbEntity
8
DEFAULT_2
100
AcDbCircle
62
8
6
HIDDEN
10
327.9909333349
20
174.9514094967
40
9.0000000000
100
AcDbArc
50
180.0000000000
51
360.0000000000
0
ARC
5
314
100
AcDbEntity
8
DEFAULT_2
100
AcDbCircle
62
8
6
HIDDEN
10
327.9909333349
20
71.9514094967
40
9.0000000000
100
AcDbArc
50
0.0000000000
51
180.0000000000
0
ARC
5
315
100
AcDbEntity
8
DEFAULT_2
100
AcDbCircle
62
8
6
HIDDEN
10
327.9909333349
20
179.2014094967
40
30.0000000000
100
AcDbArc
50
252.5391468174
51
287.4609093619
0
ARC
5
316
100
AcDbEntity
8
DEFAULT_2
100
AcDbCircle
62
8
6
HIDDEN
10
327.9909333349
20
179.2014094967
40
13.2500000000
100
AcDbArc
50
227.2092592025
51
312.7907407975
0
ARC
5
317
100
AcDbEntity
8
0
100
AcDbCircle
62
7
6
CONTINUOUS
10
327.9909333349
20
174.9514094967
40
9.0000000000
100
AcDbArc
50
0.0000000000
51
180.0000000000
0
ARC
5
318
100
AcDbEntity
8
0
100
AcDbCircle
62
7
6
CONTINUOUS
10
327.9909333349
20
71.9514094967
40
9.0000000000
100
AcDbArc
50
180.0000000000
51
360.0000000000
0
ARC
5
319
100
AcDbEntity
8
0
100
AcDbCircle
62
7
6
CONTINUOUS
10
327.9909333349
20
179.2014094967
40
30.0000000000
100
AcDbArc
50
287.4609093619
51
10.0000000000
0
ARC
5
31A
100
AcDbEntity
8
0
100
AcDbCircle
62
7
6
CONTINUOUS
10
327.9909333349
20
265.2014094967
40
36.0000000000
100
AcDbArc
50
278.9490180653
51
291.4784178411
0
ARC
5
31B
100
AcDbEntity
8
0
100
AcDbCircle
62
7
6
CONTINUOUS
10
327.9909333349
20
265.2014094967
40
36.0000000000
100
AcDbArc
50
248.5215821589
51
261.0509819347
0
ARC
5
31C
100
AcDbEntity
8
0
100
AcDbCircle
62
7
6
CONTINUOUS
10
327.9909333349
20
179.2014094967
40
13.2500000000
100
AcDbArc
50
312.7907407975
51
227.2092592025
0
CIRCLE
5
31D
100
AcDbEntity
8
0
100
AcDbCircle
62
7
6
CONTINUOUS
10
345.6909333349
20
217.7014094967
40
2.5000000000
0
ARC
5
31E
100
AcDbEntity
8
0
100
AcDbCircle
62
7
6
CONTINUOUS
10
327.9909333349
20
204.3014094967
40
5.6000000000
100
AcDbArc
50
180.0000000000
51
360.0000000000
0
ARC
5
31F
100
AcDbEntity
8
0
100
AcDbCircle
62
7
6
CONTINUOUS
10
327.9909333349
20
179.2014094967
40
30.0000000000
100
AcDbArc
50
170.0000000000
51
252.5391468174
0
SPLINE
5
320
100
AcDbEntity
8
DEFAULT_2
100
AcDbSpline
62
8
6
HIDDEN
70
0
71
3
72
11
73
7
74
5
42
0.0000001000
43
0.0000001000
44
0.0000000001
40
0.0000000000
40
0.0000000000
40
0.0000000000
40
0.0000000000
40
0.2736618404
40
0.5152988758
40
0.7560103337
40
1.0000000000
40
1.0000000000
40
1.0000000000
40
1.0000000000
10
203.3615820887
20
193.0516730731
30
0.0000000000
10
203.2435751911
20
193.0948929559
30
0.0000000000
10
203.0097634729
20
193.1552363840
30
0.0000000000
10
202.6578093701
20
193.1103951051
30
0.0000000000
10
202.3533663665
20
192.9671942705
30
0.0000000000
10
202.1670284653
20
192.8454795625
30
0.0000000000
10
202.0735959435
20
192.7836350808
30
0.0000000000
11
203.3615820887
21
193.0516730731
31
0.0000000000
11
202.9935173877
21
193.1333471282
31
0.0000000000
11
202.6629944425
21
193.0936544500
31
0.0000000000
11
202.3588895918
21
192.9613903030
31
0.0000000000
11
202.0735959435
21
192.7836350808
31
0.0000000000
0
SPLINE
5
321
100
AcDbEntity
8
DEFAULT_2
100
AcDbSpline
62
8
6
HIDDEN
70
0
71
3
72
11
73
7
74
5
42
0.0000001000
43
0.0000001000
44
0.0000000001
40
0.0000000000
40
0.0000000000
40
0.0000000000
40
0.0000000000
40
0.2736618404
40
0.5152988758
40
0.7560103337
40
1.0000000000
40
1.0000000000
40
1.0000000000
40
1.0000000000
10
192.8058555963
20
193.0516730731
30
0.0000000000
10
192.9238624940
20
193.0948929559
30
0.0000000000
10
193.1576742122
20
193.1552363840
30
0.0000000000
10
193.5096283150
20
193.1103951051
30
0.0000000000
10
193.8140713186
20
192.9671942705
30
0.0000000000
10
194.0004092198
20
192.8454795625
30
0.0000000000
10
194.0938417416
20
192.7836350808
30
0.0000000000
11
192.8058555963
21
193.0516730731
31
0.0000000000
11
193.1739202974
21
193.1333471282
31
0.0000000000
11
193.5044432426
21
193.0936544500
31
0.0000000000
11
193.8085480933
21
192.9613903030
31
0.0000000000
11
194.0938417416
21
192.7836350808
31
0.0000000000
0
SPLINE
5
322
100
AcDbEntity
8
0
100
AcDbSpline
62
7
6
CONTINUOUS
70
0
71
3
72
10
73
6
74
4
42
0.0000001000
43
0.0000001000
44
0.0000000001
40
0.0000000000
40
0.0000000000
40
0.0000000000
40
0.0000000000
40
0.3159015172
40
0.6499699058
40
1.0000000000
40
1.0000000000
40
1.0000000000
40
1.0000000000
10
203.3615820887
20
193.0516730731
30
0.0000000000
10
203.4153990370
20
193.0319625394
30
0.0000000000
10
203.5266288252
20
192.9927633967
30
0.0000000000
10
203.6991170457
20
192.9364722784
30
0.0000000000
10
203.8179687187
20
192.9006726000
30
0.0000000000
10
203.8789714450
20
192.8830227138
30
0.0000000000
11
203.3615820887
21
193.0516730731
31
0.0000000000
11
203.5237283485
21
192.9944759404
31
0.0000000000
11
203.6965671930
21
192.9380167932
31
0.0000000000
11
203.8789714450
21
192.8830227138
31
0.0000000000
0
SPLINE
5
323
100
AcDbEntity
8
0
100
AcDbSpline
62
7
6
CONTINUOUS
70
0
71
3
72
10
73
6
74
4
42
0.0000001000
43
0.0000001000
44
0.0000000001
40
0.0000000000
40
0.0000000000
40
0.0000000000
40
0.0000000000
40
0.4287722405
40
0.7749239187
40
1.0000000000
40
1.0000000000
40
1.0000000000
40
1.0000000000
10
203.8789714450
20
192.8830227138
30
0.0000000000
10
203.9631986094
20
192.8586533133
30
0.0000000000
10
204.1122779675
20
192.7953144699
30
0.0000000000
10
204.2690478134
20
192.6650458620
30
0.0000000000
10
204.3337188221
20
192.5557684022
30
0.0000000000
10
204.3337188425
20
192.5097415034
30
0.0000000000
11
203.8789714450
21
192.8830227138
31
0.0000000000
11
204.1197243358
21
192.7770472842
31
0.0000000000
11
204.2788925335
21
192.6364709574
31
0.0000000000
11
204.3337188425
21
192.5097415034
31
0.0000000000
0
SPLINE
5
324
100
AcDbEntity
8
0
100
AcDbSpline
62
7
6
CONTINUOUS
70
0
71
3
72
11
73
7
74
5
42
0.0000001000
43
0.0000001000
44
0.0000000001
40
0.0000000000
40
0.0000000000
40
0.0000000000
40
0.0000000000
40
0.2442083284
40
0.4849817594
40
0.7265734916
40
1.0000000000
40
1.0000000000
40
1.0000000000
40
1.0000000000
10
202.0735952084
20
192.7836361913
30
0.0000000000
10
202.1671114981
20
192.8455364929
30
0.0000000000
10
202.3535590336
20
192.9673201497
30
0.0000000000
10
202.6581393396
20
193.1105048169
30
0.0000000000
10
203.0100100420
20
193.1551873386
30
0.0000000000
10
203.2436764124
20
193.0948558902
30
0.0000000000
10
203.3615820887
20
193.0516730731
30
0.0000000000
11
202.0735952084
21
192.7836361913
31
0.0000000000
11
202.3591537822
21
192.9615372733
31
0.0000000000
11
202.6633685404
21
193.0937645940
31
0.0000000000
11
202.9938446992
21
193.1333293662
31
0.0000000000
11
203.3615820887
21
193.0516730731
31
0.0000000000
0
SPLINE
5
325
100
AcDbEntity
8
0
100
AcDbSpline
62
7
6
CONTINUOUS
70
0
71
3
72
10
73
6
74
4
42
0.0000001000
43
0.0000001000
44
0.0000000001
40
0.0000000000
40
0.0000000000
40
0.0000000000
40
0.0000000000
40
0.3159015172
40
0.6499699058
40
1.0000000000
40
1.0000000000
40
1.0000000000
40
1.0000000000
10
192.8058555963
20
193.0516730731
30
0.0000000000
10
192.7520386481
20
193.0319625394
30
0.0000000000
10
192.6408088598
20
192.9927633967
30
0.0000000000
10
192.4683206393
20
192.9364722784
30
0.0000000000
10
192.3494689664
20
192.9006726000
30
0.0000000000
10
192.2884662400
20
192.8830227138
30
0.0000000000
11
192.8058555963
21
193.0516730731
31
0.0000000000
11
192.6437093366
21
192.9944759404
31
0.0000000000
11
192.4708704920
21
192.9380167932
31
0.0000000000
11
192.2884662400
21
192.8830227138
31
0.0000000000
0
SPLINE
5
326
100
AcDbEntity
8
0
100
AcDbSpline
62
7
6
CONTINUOUS
70
0
71
3
72
10
73
6
74
4
42
0.0000001000
43
0.0000001000
44
0.0000000001
40
0.0000000000
40
0.0000000000
40
0.0000000000
40
0.0000000000
40
0.4287722405
40
0.7749239187
40
1.0000000000
40
1.0000000000
40
1.0000000000
40
1.0000000000
10
192.2884662400
20
192.8830227138
30
0.0000000000
10
192.2042390756
20
192.8586533133
30
0.0000000000
10
192.0551597175
20
192.7953144699
30
0.0000000000
10
191.8983898717
20
192.6650458620
30
0.0000000000
10
191.8337188630
20
192.5557684022
30
0.0000000000
10
191.8337188425
20
192.5097415034
30
0.0000000000
11
192.2884662400
21
192.8830227138
31
0.0000000000
11
192.0477133492
21
192.7770472842
31
0.0000000000
11
191.8885451516
21
192.6364709574
31
0.0000000000
11
191.8337188425
21
192.5097415034
31
0.0000000000
0
SPLINE
5
327
100
AcDbEntity
8
0
100
AcDbSpline
62
7
6
CONTINUOUS
70
0
71
3
72
11
73
7
74
5
42
0.0000001000
43
0.0000001000
44
0.0000000001
40
0.0000000000
40
0.0000000000
40
0.0000000000
40
0.0000000000
40
0.2442083284
40
0.4849817594
40
0.7265734916
40
1.0000000000
40
1.0000000000
40
1.0000000000
40
1.0000000000
10
194.0938424766
20
192.7836361913
30
0.0000000000
10
194.0003261869
20
192.8455364929
30
0.0000000000
10
193.8138786514
20
192.9673201497
30
0.0000000000
10
193.5092983455
20
193.1105048169
30
0.0000000000
10
193.1574276430
20
193.1551873386
30
0.0000000000
10
192.9237612727
20
193.0948558902
30
0.0000000000
10
192.8058555963
20
193.0516730731
30
0.0000000000
11
194.0938424766
21
192.7836361913
31
0.0000000000
11
193.8082839028
21
192.9615372733
31
0.0000000000
11
193.5040691447
21
193.0937645940
31
0.0000000000
11
193.1735929859
21
193.1333293662
31
0.0000000000
11
192.8058555963
21
193.0516730731
31
0.0000000000
0
SPLINE
5
328
100
AcDbEntity
8
DEFAULT_2
100
AcDbSpline
62
8
6
HIDDEN
70
0
71
3
72
9
73
5
74
3
42
0.0000001000
43
0.0000001000
44
0.0000000001
40
0.0000000000
40
0.0000000000
40
0.0000000000
40
0.0000000000
40
0.5434344230
40
1.0000000000
40
1.0000000000
40
1.0000000000
40
1.0000000000
10
336.4762147091
20
139.9514094967
30
0.0000000000
10
336.6276471621
20
139.8086376066
30
0.0000000000
10
336.8814313560
20
139.5110147765
30
0.0000000000
10
336.9909333349
20
139.1268197094
30
0.0000000000
10
336.9909333349
20
138.9514094669
30
0.0000000000
11
336.4762147091
21
139.9514094967
31
0.0000000000
11
336.8608677320
21
139.4595940275
31
0.0000000000
11
336.9909333349
21
138.9514094669
31
0.0000000000
0
SPLINE
5
329
100
AcDbEntity
8
DEFAULT_2
100
AcDbSpline
62
8
6
HIDDEN
70
0
71
3
72
9
73
5
74
3
42
0.0000001000
43
0.0000001000
44
0.0000000001
40
0.0000000000
40
0.0000000000
40
0.0000000000
40
0.0000000000
40
0.4565655698
40
1.0000000000
40
1.0000000000
40
1.0000000000
40
1.0000000000
10
336.9909333349
20
135.9514095563
30
0.0000000000
10
336.9909333349
20
135.7759993288
30
0.0000000000
10
336.8814313519
20
135.3918042883
30
0.0000000000
10
336.6276471601
20
135.0941814914
30
0.0000000000
10
336.4762147091
20
134.9514096159
30
0.0000000000
11
336.9909333349
21
135.9514095563
31
0.0000000000
11
336.8608677321
21
135.4432250413
31
0.0000000000
11
336.4762147091
21
134.9514096159
31
0.0000000000
0
SPLINE
5
32A
100
AcDbEntity
8
DEFAULT_2
100
AcDbSpline
62
8
6
HIDDEN
70
0
71
3
72
9
73
5
74
3
42
0.0000001000
43
0.0000001000
44
0.0000000001
40
0.0000000000
40
0.0000000000
40
0.0000000000
40
0.0000000000
40
0.5018313214
40
1.0000000000
40
1.0000000000
40
1.0000000000
40
1.0000000000
10
336.7707199614
20
111.3264085430
30
0.0000000000
10
336.7990520264
20
111.2443468207
30
0.0000000000
10
336.8504683533
20
111.0790346671
30
0.0000000000
10
336.8912711302
20
110.9107803328
30
0.0000000000
10
336.9088478379
20
110.8264104504
30
0.0000000000
11
336.7707199614
21
111.3264085430
31
0.0000000000
11
336.8479838130
21
111.0776882446
31
0.0000000000
11
336.9088478379
21
110.8264104504
31
0.0000000000
0
SPLINE
5
32B
100
AcDbEntity
8
DEFAULT_2
100
AcDbSpline
62
8
6
HIDDEN
70
0
71
3
72
9
73
5
74
3
42
0.0000001000
43
0.0000001000
44
0.0000000001
40
0.0000000000
40
0.0000000000
40
0.0000000000
40
0.0000000000
40
0.4988357792
40
1.0000000000
40
1.0000000000
40
1.0000000000
40
1.0000000000
10
336.7092504589
20
111.7014085392
30
0.0000000000
10
336.7201104815
20
111.6391613326
30
0.0000000000
10
336.7412406895
20
111.5142637807
30
0.0000000000
10
336.7610915861
20
111.3891565282
30
0.0000000000
10
336.7707199614
20
111.3264085430
30
0.0000000000
11
336.7092504589
21
111.7014085392
31
0.0000000000
11
336.7408731489
21
111.5145024161
31
0.0000000000
11
336.7707199614
21
111.3264085430
31
0.0000000000
0
SPLINE
5
32C
100
AcDbEntity
8
DEFAULT_2
100
AcDbSpline
62
8
6
HIDDEN
70
0
71
3
72
9
73
5
74
3
42
0.0000001000
43
0.0000001000
44
0.0000000001
40
0.0000000000
40
0.0000000000
40
0.0000000000
40
0.0000000000
40
0.4993069518
40
1.0000000000
40
1.0000000000
40
1.0000000000
40
1.0000000000
10
336.6755382598
20
112.3264104490
30
0.0000000000
10
336.6813157184
20
112.2223969340
30
0.0000000000
10
336.6927195141
20
112.0140718402
30
0.0000000000
10
336.7037903733
20
111.8057287888
30
0.0000000000
10
336.7092504582
20
111.7014085430
30
0.0000000000
11
336.6755382598
21
112.3264104490
31
0.0000000000
11
336.6926207038
21
112.0143561219
31
0.0000000000
11
336.7092504582
21
111.7014085430
31
0.0000000000
0
SPLINE
5
32D
100
AcDbEntity
8
DEFAULT_2
100
AcDbSpline
62
8
6
HIDDEN
70
0
71
3
72
9
73
5
74
3
42
0.0000001000
43
0.0000001000
44
0.0000000001
40
0.0000000000
40
0.0000000000
40
0.0000000000
40
0.0000000000
40
0.4993069521
40
1.0000000000
40
1.0000000000
40
1.0000000000
40
1.0000000000
10
336.6755382598
20
112.3264104517
30
0.0000000000
10
336.6813157184
20
112.4304234906
30
0.0000000000
10
336.6927195141
20
112.6387476307
30
0.0000000000
10
336.7037903733
20
112.8470897285
30
0.0000000000
10
336.7092504582
20
112.9514094967
30
0.0000000000
11
336.6755382598
21
112.3264104517
31
0.0000000000
11
336.6926207038
21
112.6384633505
31
0.0000000000
11
336.7092504582
21
112.9514094967
31
0.0000000000
0
SPLINE
5
32E
100
AcDbEntity
8
DEFAULT_2
100
AcDbSpline
62
8
6
HIDDEN
70
0
71
3
72
9
73
5
74
3
42
0.0000001000
43
0.0000001000
44
0.0000000001
40
0.0000000000
40
0.0000000000
40
0.0000000000
40
0.0000000000
40
0.4988357792
40
1.0000000000
40
1.0000000000
40
1.0000000000
40
1.0000000000
10
336.7092504589
20
112.9514095006
30
0.0000000000
10
336.7201104815
20
113.0136567072
30
0.0000000000
10
336.7412406895
20
113.1385542590
30
0.0000000000
10
336.7610915861
20
113.2636615115
30
0.0000000000
10
336.7707199614
20
113.3264094967
30
0.0000000000
11
336.7092504589
21
112.9514095006
31
0.0000000000
11
336.7408731489
21
113.1383156237
31
0.0000000000
11
336.7707199614
21
113.3264094967
31
0.0000000000
0
SPLINE
5
32F
100
AcDbEntity
8
DEFAULT_2
100
AcDbSpline
62
8
6
HIDDEN
70
0
71
3
72
9
73
5
74
3
42
0.0000001000
43
0.0000001000
44
0.0000000001
40
0.0000000000
40
0.0000000000
40
0.0000000000
40
0.0000000000
40
0.5018312692
40
1.0000000000
40
1.0000000000
40
1.0000000000
40
1.0000000000
10
336.7707199614
20
113.3264094967
30
0.0000000000
10
336.7990520291
20
113.4084716964
30
0.0000000000
10
336.8504683595
20
113.5737848106
30
0.0000000000
10
336.8912711314
20
113.7420400910
30
0.0000000000
10
336.9088478379
20
113.8264104504
30
0.0000000000
11
336.7707199614
21
113.3264094967
31
0.0000000000
11
336.8479838123
21
113.5751312155
31
0.0000000000
11
336.9088478379
21
113.8264104504
31
0.0000000000
0
SPLINE
5
330
100
AcDbEntity
8
DEFAULT_2
100
AcDbSpline
62
8
6
HIDDEN
70
0
71
3
72
9
73
5
74
3
42
0.0000001000
43
0.0000001000
44
0.0000000001
40
0.0000000000
40
0.0000000000
40
0.0000000000
40
0.0000000000
40
0.4999044269
40
1.0000000000
40
1.0000000000
40
1.0000000000
40
1.0000000000
10
336.7707199614
20
116.3264094967
30
0.0000000000
10
336.8038271137
20
116.4497002140
30
0.0000000000
10
336.8628357138
20
116.6983255076
30
0.0000000000
10
336.9069896109
20
116.9500187406
30
0.0000000000
10
336.9252796690
20
117.0764094967
30
0.0000000000
11
336.7707199614
21
116.3264094967
31
0.0000000000
11
336.8591121784
21
116.6990446755
31
0.0000000000
11
336.9252796690
21
117.0764094967
31
0.0000000000
0
SPLINE
5
331
100
AcDbEntity
8
DEFAULT_2
100
AcDbSpline
62
8
6
HIDDEN
70
0
71
3
72
9
73
5
74
3
42
0.0000001000
43
0.0000001000
44
0.0000000001
40
0.0000000000
40
0.0000000000
40
0.0000000000
40
0.0000000000
40
0.4999044269
40
1.0000000000
40
1.0000000000
40
1.0000000000
40
1.0000000000
10
336.7707199614
20
121.5764094967
30
0.0000000000
10
336.8038271137
20
121.6997002140
30
0.0000000000
10
336.8628357138
20
121.9483255076
30
0.0000000000
10
336.9069896109
20
122.2000187406
30
0.0000000000
10
336.9252796690
20
122.3264094967
30
0.0000000000
11
336.7707199614
21
121.5764094967
31
0.0000000000
11
336.8591121784
21
121.9490446755
31
0.0000000000
11
336.9252796690
21
122.3264094967
31
0.0000000000
0
SPLINE
5
332
100
AcDbEntity
8
DEFAULT_2
100
AcDbSpline
62
8
6
HIDDEN
70
0
71
3
72
9
73
5
74
3
42
0.0000001000
43
0.0000001000
44
0.0000000001
40
0.0000000000
40
0.0000000000
40
0.0000000000
40
0.0000000000
40
0.4999935062
40
1.0000000000
40
1.0000000000
40
1.0000000000
40
1.0000000000
10
336.9888960157
20
129.8264094967
30
0.0000000000
10
336.9893487916
20
129.8680742839
30
0.0000000000
10
336.9901033383
20
129.9514066499
30
0.0000000000
10
336.9905560785
20
130.0347412019
30
0.0000000000
10
336.9907069853
20
130.0764092583
30
0.0000000000
11
336.9888960157
21
129.8264094967
31
0.0000000000
11
336.9900278789
21
129.9514061141
31
0.0000000000
11
336.9907069853
21
130.0764092583
31
0.0000000000
0
SPLINE
5
333
100
AcDbEntity
8
DEFAULT_2
100
AcDbSpline
62
8
6
HIDDEN
70
0
71
3
72
9
73
5
74
3
42
0.0000001000
43
0.0000001000
44
0.0000000001
40
0.0000000000
40
0.0000000000
40
0.0000000000
40
0.0000000000
40
0.5001629394
40
1.0000000000
40
1.0000000000
40
1.0000000000
40
1.0000000000
10
336.9635035835
20
129.4514094967
30
0.0000000000
10
336.9701444587
20
129.5137318856
30
0.0000000000
10
336.9810275182
20
129.6386029789
30
0.0000000000
10
336.9870816680
20
129.7638014100
30
0.0000000000
10
336.9888959839
20
129.8264094967
30
0.0000000000
11
336.9635035835
21
129.4514094967
31
0.0000000000
11
336.9798230504
21
129.6387255595
31
0.0000000000
11
336.9888959839
21
129.8264094967
31
0.0000000000
0
SPLINE
5
334
100
AcDbEntity
8
DEFAULT_2
100
AcDbSpline
62
8
6
HIDDEN
70
0
71
3
72
9
73
5
74
3
42
0.0000001000
43
0.0000001000
44
0.0000000001
40
0.0000000000
40
0.0000000000
40
0.0000000000
40
0.0000000000
40
0.5040420323
40
1.0000000000
40
1.0000000000
40
1.0000000000
40
1.0000000000
10
336.9252796690
20
129.3264092583
30
0.0000000000
10
336.9329423198
20
129.3470016028
30
0.0000000000
10
336.9469656798
20
129.3883058219
30
0.0000000000
10
336.9584631170
20
129.4303858611
30
0.0000000000
10
336.9635035835
20
129.4514094967
30
0.0000000000
11
336.9252796690
21
129.3264092583
31
0.0000000000
11
336.9464373137
21
129.3888368315
31
0.0000000000
11
336.9635035835
21
129.4514094967
31
0.0000000000
0
SPLINE
5
335
100
AcDbEntity
8
DEFAULT_2
100
AcDbSpline
62
8
6
HIDDEN
70
0
71
3
72
9
73
5
74
3
42
0.0000001000
43
0.0000001000
44
0.0000000001
40
0.0000000000
40
0.0000000000
40
0.0000000000
40
0.0000000000
40
0.5063124133
40
1.0000000000
40
1.0000000000
40
1.0000000000
40
1.0000000000
10
336.7985188264
20
130.2014094967
30
0.0000000000
10
336.8116977626
20
130.1809426171
30
0.0000000000
10
336.8367553854
20
130.1398836009
30
0.0000000000
10
336.8596626770
20
130.0975834846
30
0.0000000000
10
336.8703886467
20
130.0764092583
30
0.0000000000
11
336.7985188264
21
130.2014094967
31
0.0000000000
11
336.8365204913
21
130.1390470791
31
0.0000000000
11
336.8703886467
21
130.0764092583
31
0.0000000000
0
SPLINE
5
336
100
AcDbEntity
8
DEFAULT_2
100
AcDbSpline
62
8
6
HIDDEN
70
0
71
3
72
9
73
5
74
3
42
0.0000001000
43
0.0000001000
44
0.0000000001
40
0.0000000000
40
0.0000000000
40
0.0000000000
40
0.0000000000
40
0.4995786887
40
1.0000000000
40
1.0000000000
40
1.0000000000
40
1.0000000000
10
336.7409704959
20
130.4514092533
30
0.0000000000
10
336.7511698749
20
130.4099231613
30
0.0000000000
10
336.7709715600
20
130.3267287793
30
0.0000000000
10
336.7895382142
20
130.2432500716
30
0.0000000000
10
336.7985188264
20
130.2014094967
30
0.0000000000
11
336.7409704959
21
130.4514092533
31
0.0000000000
11
336.7706466370
21
130.3267279191
31
0.0000000000
11
336.7985188264
21
130.2014094967
31
0.0000000000
0
SPLINE
5
337
100
AcDbEntity
8
DEFAULT_2
100
AcDbSpline
62
8
6
HIDDEN
70
0
71
3
72
9
73
5
74
3
42
0.0000001000
43
0.0000001000
44
0.0000000001
40
0.0000000000
40
0.0000000000
40
0.0000000000
40
0.0000000000
40
0.4994023774
40
1.0000000000
40
1.0000000000
40
1.0000000000
40
1.0000000000
10
336.7092504584
20
130.8264092563
30
0.0000000000
10
336.7146947810
20
130.7639979919
30
0.0000000000
10
336.7254319862
20
130.6390116900
30
0.0000000000
10
336.7358413684
20
130.5139976598
30
0.0000000000
10
336.7409704947
20
130.4514092583
30
0.0000000000
11
336.7092504584
21
130.8264092563
31
0.0000000000
11
336.7253373926
21
130.6391541637
31
0.0000000000
11
336.7409704947
21
130.4514092583
31
0.0000000000
0
SPLINE
5
338
100
AcDbEntity
8
DEFAULT_2
100
AcDbSpline
62
8
6
HIDDEN
70
0
71
3
72
8
73
4
74
2
42
0.0000001000
43
0.0000001000
44
0.0000000001
40
0.0000000000
40
0.0000000000
40
0.0000000000
40
0.0000000000
40
1.0000000000
40
1.0000000000
40
1.0000000000
40
1.0000000000
10
336.4762147091
20
135.7014096159
30
0.0000000000
10
336.5976687330
20
135.8162666734
30
0.0000000000
10
336.7095901928
20
135.9432596746
30
0.0000000000
10
336.7987477294
20
136.0857373001
30
0.0000000000
11
336.4762147091
21
135.7014096159
31
0.0000000000
11
336.7987477294
21
136.0857373001
31
0.0000000000
0
SPLINE
5
339
100
AcDbEntity
8
DEFAULT_2
100
AcDbSpline
62
8
6
HIDDEN
70
0
71
3
72
8
73
4
74
2
42
0.0000001000
43
0.0000001000
44
0.0000000001
40
0.0000000000
40
0.0000000000
40
0.0000000000
40
0.0000000000
40
1.0000000000
40
1.0000000000
40
1.0000000000
40
1.0000000000
10
336.7987477294
20
136.0857373001
30
0.0000000000
10
336.8076249439
20
136.0999234753
30
0.0000000000
10
336.8162764828
20
136.1142631609
30
0.0000000000
10
336.8246892857
20
136.1287596625
30
0.0000000000
11
336.7987477294
21
136.0857373001
31
0.0000000000
11
336.8246892857
21
136.1287596625
31
0.0000000000
0
SPLINE
5
33A
100
AcDbEntity
8
DEFAULT_2
100
AcDbSpline
62
8
6
HIDDEN
70
0
71
3
72
8
73
4
74
2
42
0.0000001000
43
0.0000001000
44
0.0000000001
40
0.0000000000
40
0.0000000000
40
0.0000000000
40
0.0000000000
40
1.0000000000
40
1.0000000000
40
1.0000000000
40
1.0000000000
10
336.8246892857
20
136.1287596625
30
0.0000000000
10
336.8600901617
20
136.1897605986
30
0.0000000000
10
336.8912637235
20
136.2535382842
30
0.0000000000
10
336.9167225965
20
136.3193572589
30
0.0000000000
11
336.8246892857
21
136.1287596625
31
0.0000000000
11
336.9167225965
21
136.3193572589
31
0.0000000000
0
SPLINE
5
33B
100
AcDbEntity
8
DEFAULT_2
100
AcDbSpline
62
8
6
HIDDEN
70
0
71
3
72
8
73
4
74
2
42
0.0000001000
43
0.0000001000
44
0.0000000001
40
0.0000000000
40
0.0000000000
40
0.0000000000
40
0.0000000000
40
1.0000000000
40
1.0000000000
40
1.0000000000
40
1.0000000000
10
336.9167226184
20
138.5834617970
30
0.0000000000
10
336.8912637414
20
138.6492807918
30
0.0000000000
10
336.8600901719
20
138.7130584965
30
0.0000000000
10
336.8246892857
20
138.7740594502
30
0.0000000000
11
336.9167226184
21
138.5834617970
31
0.0000000000
11
336.8246892857
21
138.7740594502
31
0.0000000000
0
SPLINE
5
33C
100
AcDbEntity
8
DEFAULT_2
100
AcDbSpline
62
8
6
HIDDEN
70
0
71
3
72
8
73
4
74
2
42
0.0000001000
43
0.0000001000
44
0.0000000001
40
0.0000000000
40
0.0000000000
40
0.0000000000
40
0.0000000000
40
1.0000000000
40
1.0000000000
40
1.0000000000
40
1.0000000000
10
336.8246892857
20
138.7740594502
30
0.0000000000
10
336.8162764951
20
138.7885559305
30
0.0000000000
10
336.8076249691
20
138.8028955955
30
0.0000000000
10
336.7987477683
20
138.8170817504
30
0.0000000000
11
336.8246892857
21
138.7740594502
31
0.0000000000
11
336.7987477683
21
138.8170817504
31
0.0000000000
0
SPLINE
5
33D
100
AcDbEntity
8
DEFAULT_2
100
AcDbSpline
62
8
6
HIDDEN
70
0
71
3
72
8
73
4
74
2
42
0.0000001000
43
0.0000001000
44
0.0000000001
40
0.0000000000
40
0.0000000000
40
0.0000000000
40
0.0000000000
40
1.0000000000
40
1.0000000000
40
1.0000000000
40
1.0000000000
10
336.7987477683
20
138.8170817504
30
0.0000000000
10
336.7095902254
20
138.9595594010
30
0.0000000000
10
336.5976687507
20
139.0865524225
30
0.0000000000
10
336.4762147091
20
139.2014094967
30
0.0000000000
11
336.7987477683
21
138.8170817504
31
0.0000000000
11
336.4762147091
21
139.2014094967
31
0.0000000000
0
SPLINE
5
33E
100
AcDbEntity
8
DEFAULT_2
100
AcDbSpline
62
8
6
HIDDEN
70
0
71
3
72
8
73
4
74
2
42
0.0000001000
43
0.0000001000
44
0.0000000001
40
0.0000000000
40
0.0000000000
40
0.0000000000
40
0.0000000000
40
1.0000000000
40
1.0000000000
40
1.0000000000
40
1.0000000000
10
336.8483369262
20
114.3264085430
30
0.0000000000
10
336.8596855918
20
114.3469686849
30
0.0000000000
10
336.8705046358
20
114.3678264366
30
0.0000000000
10
336.8807358983
20
114.3889697645
30
0.0000000000
11
336.8483369262
21
114.3264085430
31
0.0000000000
11
336.8807358983
21
114.3889697645
31
0.0000000000
0
SPLINE
5
33F
100
AcDbEntity
8
DEFAULT_2
100
AcDbSpline
62
8
6
HIDDEN
70
0
71
3
72
8
73
4
74
2
42
0.0000001000
43
0.0000001000
44
0.0000000001
40
0.0000000000
40
0.0000000000
40
0.0000000000
40
0.0000000000
40
1.0000000000
40
1.0000000000
40
1.0000000000
40
1.0000000000
10
336.8807358983
20
114.3889697645
30
0.0000000000
10
336.8906801146
20
114.4095198997
30
0.0000000000
10
336.9000690637
20
114.4303397865
30
0.0000000000
10
336.9088478379
20
114.4514094967
30
0.0000000000
11
336.8807358983
21
114.3889697645
31
0.0000000000
11
336.9088478379
21
114.4514094967
31
0.0000000000
0
SPLINE
5
340
100
AcDbEntity
8
DEFAULT_2
100
AcDbSpline
62
8
6
HIDDEN
70
0
71
3
72
9
73
5
74
3
42
0.0000001000
43
0.0000001000
44
0.0000000001
40
0.0000000000
40
0.0000000000
40
0.0000000000
40
0.0000000000
40
0.5037866359
40
1.0000000000
40
1.0000000000
40
1.0000000000
40
1.0000000000
10
336.7409704989
20
114.0764095052
30
0.0000000000
10
336.7611379137
20
114.1174249848
30
0.0000000000
10
336.7991411677
20
114.1998545172
30
0.0000000000
10
336.8327899734
20
114.2841598497
30
0.0000000000
10
336.8483369262
20
114.3264085430
30
0.0000000000
11
336.7409704989
21
114.0764095052
31
0.0000000000
11
336.7983238135
21
114.2009548583
31
0.0000000000
11
336.8483369262
21
114.3264085430
31
0.0000000000
0
SPLINE
5
341
100
AcDbEntity
8
DEFAULT_2
100
AcDbSpline
62
8
6
HIDDEN
70
0
71
3
72
9
73
5
74
3
42
0.0000001000
43
0.0000001000
44
0.0000000001
40
0.0000000000
40
0.0000000000
40
0.0000000000
40
0.0000000000
40
0.7475054037
40
1.0000000000
40
1.0000000000
40
1.0000000000
40
1.0000000000
10
336.6398106048
20
113.7014095002
30
0.0000000000
10
336.6580410825
20
113.7634287404
30
0.0000000000
10
336.6815024565
20
113.8466723426
30
0.0000000000
10
336.7037137940
20
113.9302532345
30
0.0000000000
10
336.7092421513
20
113.9513777844
30
0.0000000000
11
336.6398106048
21
113.7014095002
31
0.0000000000
11
336.6924176144
21
113.8880672908
31
0.0000000000
11
336.7092421513
21
113.9513777844
31
0.0000000000
0
SPLINE
5
342
100
AcDbEntity
8
DEFAULT_2
100
AcDbSpline
62
8
6
HIDDEN
70
0
71
3
72
8
73
4
74
2
42
0.0000001000
43
0.0000001000
44
0.0000000001
40
0.0000000000
40
0.0000000000
40
0.0000000000
40
0.0000000000
40
1.0000000000
40
1.0000000000
40
1.0000000000
40
1.0000000000
10
336.7092421513
20
113.9513777844
30
0.0000000000
10
336.7201285240
20
113.9929759866
30
0.0000000000
10
336.7307051251
20
114.0346549473
30
0.0000000000
10
336.7409704947
20
114.0764094967
30
0.0000000000
11
336.7092421513
21
113.9513777844
31
0.0000000000
11
336.7409704947
21
114.0764094967
31
0.0000000000
0
SPLINE
5
343
100
AcDbEntity
8
DEFAULT_2
100
AcDbSpline
62
8
6
HIDDEN
70
0
71
3
72
9
73
5
74
3
42
0.0000001000
43
0.0000001000
44
0.0000000001
40
0.0000000000
40
0.0000000000
40
0.0000000000
40
0.0000000000
40
0.4974745219
40
1.0000000000
40
1.0000000000
40
1.0000000000
40
1.0000000000
10
336.5202744815
20
113.0764104511
30
0.0000000000
10
336.5416001221
20
113.1797547247
30
0.0000000000
10
336.5829546274
20
113.3878075940
30
0.0000000000
10
336.6212965851
20
113.5964366009
30
0.0000000000
10
336.6398106038
20
113.7014094967
30
0.0000000000
11
336.5202744815
21
113.0764104511
31
0.0000000000
11
336.5820001996
21
113.3868993112
31
0.0000000000
11
336.6398106038
21
113.7014094967
31
0.0000000000
0
SPLINE
5
344
100
AcDbEntity
8
DEFAULT_2
100
AcDbSpline
62
8
6
HIDDEN
70
0
71
3
72
9
73
5
74
3
42
0.0000001000
43
0.0000001000
44
0.0000000001
40
0.0000000000
40
0.0000000000
40
0.0000000000
40
0.0000000000
40
0.4974745121
40
1.0000000000
40
1.0000000000
40
1.0000000000
40
1.0000000000
10
336.5202744813
20
111.5764104504
30
0.0000000000
10
336.5416001220
20
111.4730657030
30
0.0000000000
10
336.5829546279
20
111.2650118786
30
0.0000000000
10
336.6212965851
20
111.0563819191
30
0.0000000000
10
336.6398106038
20
110.9514085430
30
0.0000000000
11
336.5202744813
21
111.5764104504
31
0.0000000000
11
336.5820001991
21
111.2659201710
31
0.0000000000
11
336.6398106038
21
110.9514085430
31
0.0000000000
0
SPLINE
5
345
100
AcDbEntity
8
DEFAULT_2
100
AcDbSpline
62
8
6
HIDDEN
70
0
71
3
72
9
73
5
74
3
42
0.0000001000
43
0.0000001000
44
0.0000000001
40
0.0000000000
40
0.0000000000
40
0.0000000000
40
0.0000000000
40
0.7475054073
40
1.0000000000
40
1.0000000000
40
1.0000000000
40
1.0000000000
10
336.6398106038
20
110.9514085430
30
0.0000000000
10
336.6580410819
20
110.8893893017
30
0.0000000000
10
336.6815024562
20
110.8061456984
30
0.0000000000
10
336.7037137940
20
110.7225648053
30
0.0000000000
10
336.7092421513
20
110.7014402554
30
0.0000000000
11
336.6398106038
21
110.9514085430
31
0.0000000000
11
336.6924176144
21
110.7647507490
31
0.0000000000
11
336.7092421513
21
110.7014402554
31
0.0000000000
0
SPLINE
5
346
100
AcDbEntity
8
DEFAULT_2
100
AcDbSpline
62
8
6
HIDDEN
70
0
71
3
72
8
73
4
74
2
42
0.0000001000
43
0.0000001000
44
0.0000000001
40
0.0000000000
40
0.0000000000
40
0.0000000000
40
0.0000000000
40
1.0000000000
40
1.0000000000
40
1.0000000000
40
1.0000000000
10
336.7092421513
20
110.7014402554
30
0.0000000000
10
336.7201285240
20
110.6598420532
30
0.0000000000
10
336.7307051251
20
110.6181630925
30
0.0000000000
10
336.7409704947
20
110.5764085430
30
0.0000000000
11
336.7092421513
21
110.7014402554
31
0.0000000000
11
336.7409704947
21
110.5764085430
31
0.0000000000
0
SPLINE
5
347
100
AcDbEntity
8
DEFAULT_2
100
AcDbSpline
62
8
6
HIDDEN
70
0
71
3
72
9
73
5
74
3
42
0.0000001000
43
0.0000001000
44
0.0000000001
40
0.0000000000
40
0.0000000000
40
0.0000000000
40
0.0000000000
40
0.5037866532
40
1.0000000000
40
1.0000000000
40
1.0000000000
40
1.0000000000
10
336.7409704947
20
110.5764085430
30
0.0000000000
10
336.7611379111
20
110.5353930607
30
0.0000000000
10
336.7991411665
20
110.4529635255
30
0.0000000000
10
336.8327899734
20
110.3686581901
30
0.0000000000
10
336.8483369262
20
110.3264094967
30
0.0000000000
11
336.7409704947
21
110.5764085430
31
0.0000000000
11
336.7983238135
21
110.4518631814
31
0.0000000000
11
336.8483369262
21
110.3264094967
31
0.0000000000
0
SPLINE
5
348
100
AcDbEntity
8
DEFAULT_2
100
AcDbSpline
62
8
6
HIDDEN
70
0
71
3
72
8
73
4
74
2
42
0.0000001000
43
0.0000001000
44
0.0000000001
40
0.0000000000
40
0.0000000000
40
0.0000000000
40
0.0000000000
40
1.0000000000
40
1.0000000000
40
1.0000000000
40
1.0000000000
10
336.8483369262
20
110.3264094967
30
0.0000000000
10
336.8596855918
20
110.3058493548
30
0.0000000000
10
336.8705046359
20
110.2849916031
30
0.0000000000
10
336.8807358984
20
110.2638482751
30
0.0000000000
11
336.8483369262
21
110.3264094967
31
0.0000000000
11
336.8807358984
21
110.2638482751
31
0.0000000000
0
SPLINE
5
349
100
AcDbEntity
8
DEFAULT_2
100
AcDbSpline
62
8
6
HIDDEN
70
0
71
3
72
8
73
4
74
2
42
0.0000001000
43
0.0000001000
44
0.0000000001
40
0.0000000000
40
0.0000000000
40
0.0000000000
40
0.0000000000
40
1.0000000000
40
1.0000000000
40
1.0000000000
40
1.0000000000
10
336.8807358984
20
110.2638482751
30
0.0000000000
10
336.8906801146
20
110.2432981400
30
0.0000000000
10
336.9000690637
20
110.2224782532
30
0.0000000000
10
336.9088478379
20
110.2014085430
30
0.0000000000
11
336.8807358984
21
110.2638482751
31
0.0000000000
11
336.9088478379
21
110.2014085430
31
0.0000000000
0
SPLINE
5
34A
100
AcDbEntity
8
DEFAULT_2
100
AcDbSpline
62
8
6
HIDDEN
70
0
71
3
72
9
73
5
74
3
42
0.0000001000
43
0.0000001000
44
0.0000000001
40
0.0000000000
40
0.0000000000
40
0.0000000000
40
0.0000000000
40
0.4997763330
40
1.0000000000
40
1.0000000000
40
1.0000000000
40
1.0000000000
10
336.4762147091
20
116.3264094967
30
0.0000000000
10
336.5276763717
20
116.4485722154
30
0.0000000000
10
336.6235045828
20
116.6960794522
30
0.0000000000
10
336.7043900014
20
116.9488737352
30
0.0000000000
10
336.7409704947
20
117.0764094967
30
0.0000000000
11
336.4762147091
21
116.3264094967
31
0.0000000000
11
336.6197293589
21
116.6972893131
31
0.0000000000
11
336.7409704947
21
117.0764094967
31
0.0000000000
0
SPLINE
5
34B
100
AcDbEntity
8
DEFAULT_2
100
AcDbSpline
62
8
6
HIDDEN
70
0
71
3
72
9
73
5
74
3
42
0.0000001000
43
0.0000001000
44
0.0000000001
40
0.0000000000
40
0.0000000000
40
0.0000000000
40
0.0000000000
40
0.4997763330
40
1.0000000000
40
1.0000000000
40
1.0000000000
40
1.0000000000
10
336.4762147091
20
121.5764094967
30
0.0000000000
10
336.5276763717
20
121.6985722154
30
0.0000000000
10
336.6235045828
20
121.9460794522
30
0.0000000000
10
336.7043900014
20
122.1988737352
30
0.0000000000
10
336.7409704947
20
122.3264094967
30
0.0000000000
11
336.4762147091
21
121.5764094967
31
0.0000000000
11
336.6197293589
21
121.9472893131
31
0.0000000000
11
336.7409704947
21
122.3264094967
31
0.0000000000
0
SPLINE
5
34C
100
AcDbEntity
8
DEFAULT_2
100
AcDbSpline
62
8
6
HIDDEN
70
0
71
3
72
9
73
5
74
3
42
0.0000001000
43
0.0000001000
44
0.0000000001
40
0.0000000000
40
0.0000000000
40
0.0000000000
40
0.0000000000
40
0.4998662252
40
1.0000000000
40
1.0000000000
40
1.0000000000
40
1.0000000000
10
336.9725805389
20
130.4514092583
30
0.0000000000
10
336.9739409633
20
130.5138894658
30
0.0000000000
10
336.9765108455
20
130.6388866716
30
0.0000000000
10
336.9787775848
20
130.7638897420
30
0.0000000000
10
336.9798355038
20
130.8264092583
30
0.0000000000
11
336.9725805389
21
130.4514092583
31
0.0000000000
11
336.9764344127
21
130.6388546940
31
0.0000000000
11
336.9798355038
21
130.8264092583
31
0.0000000000
0
SPLINE
5
34D
100
AcDbEntity
8
DEFAULT_2
100
AcDbSpline
62
8
6
HIDDEN
70
0
71
3
72
8
73
4
74
2
42
0.0000001000
43
0.0000001000
44
0.0000000001
40
0.0000000000
40
0.0000000000
40
0.0000000000
40
0.0000000000
40
1.0000000000
40
1.0000000000
40
1.0000000000
40
1.0000000000
10
336.9525991014
20
130.2014094967
30
0.0000000000
10
336.9545659161
20
130.2222084630
30
0.0000000000
10
336.9564572472
20
130.2430147056
30
0.0000000000
10
336.9582730335
20
130.2638276080
30
0.0000000000
11
336.9525991014
21
130.2014094967
31
0.0000000000
11
336.9582730335
21
130.2638276080
31
0.0000000000
0
SPLINE
5
34E
100
AcDbEntity
8
DEFAULT_2
100
AcDbSpline
62
8
6
HIDDEN
70
0
71
3
72
9
73
5
74
3
42
0.0000001000
43
0.0000001000
44
0.0000000001
40
0.0000000000
40
0.0000000000
40
0.0000000000
40
0.0000000000
40
0.4999268778
40
1.0000000000
40
1.0000000000
40
1.0000000000
40
1.0000000000
10
336.9582730335
20
130.2638276080
30
0.0000000000
10
336.9600892433
20
130.2846453638
30
0.0000000000
10
336.9635710119
20
130.3263002933
30
0.0000000000
10
336.9667501269
20
130.3679794150
30
0.0000000000
10
336.9682641830
20
130.3888274544
30
0.0000000000
11
336.9582730335
21
130.2638276080
31
0.0000000000
11
336.9634948615
21
130.3263002478
31
0.0000000000
11
336.9682641830
21
130.3888274544
31
0.0000000000
0
SPLINE
5
34F
100
AcDbEntity
8
DEFAULT_2
100
AcDbSpline
62
8
6
HIDDEN
70
0
71
3
72
8
73
4
74
2
42
0.0000001000
43
0.0000001000
44
0.0000000001
40
0.0000000000
40
0.0000000000
40
0.0000000000
40
0.0000000000
40
1.0000000000
40
1.0000000000
40
1.0000000000
40
1.0000000000
10
336.9682641830
20
130.3888274544
30
0.0000000000
10
336.9697787717
20
130.4096828274
30
0.0000000000
10
336.9712175731
20
130.4305436352
30
0.0000000000
10
336.9725805389
20
130.4514092583
30
0.0000000000
11
336.9682641830
21
130.3888274544
31
0.0000000000
11
336.9725805389
21
130.4514092583
31
0.0000000000
0
SPLINE
5
350
100
AcDbEntity
8
DEFAULT_2
100
AcDbSpline
62
8
6
HIDDEN
70
0
71
3
72
9
73
5
74
3
42
0.0000001000
43
0.0000001000
44
0.0000000001
40
0.0000000000
40
0.0000000000
40
0.0000000000
40
0.0000000000
40
0.6697730308
40
1.0000000000
40
1.0000000000
40
1.0000000000
40
1.0000000000
10
336.9088478379
20
130.0764092583
30
0.0000000000
10
336.9174174986
20
130.0969769821
30
0.0000000000
10
336.9293493418
20
130.1280532900
30
0.0000000000
10
336.9398790030
20
130.1596225044
30
0.0000000000
10
336.9431975548
20
130.1700970656
30
0.0000000000
11
336.9088478379
21
130.0764092583
31
0.0000000000
11
336.9327717391
21
130.1388262438
31
0.0000000000
11
336.9431975548
21
130.1700970656
31
0.0000000000
0
SPLINE
5
351
100
AcDbEntity
8
DEFAULT_2
100
AcDbSpline
62
8
6
HIDDEN
70
0
71
3
72
8
73
4
74
2
42
0.0000001000
43
0.0000001000
44
0.0000000001
40
0.0000000000
40
0.0000000000
40
0.0000000000
40
0.0000000000
40
1.0000000000
40
1.0000000000
40
1.0000000000
40
1.0000000000
10
336.9431975548
20
130.1700970656
30
0.0000000000
10
336.9464893422
20
130.1804871488
30
0.0000000000
10
336.9496250515
20
130.1909259910
30
0.0000000000
10
336.9525991014
20
130.2014094967
30
0.0000000000
11
336.9431975548
21
130.1700970656
31
0.0000000000
11
336.9525991014
21
130.2014094967
31
0.0000000000
0
SPLINE
5
352
100
AcDbEntity
8
DEFAULT_2
100
AcDbSpline
62
8
6
HIDDEN
70
0
71
3
72
9
73
5
74
3
42
0.0000001000
43
0.0000001000
44
0.0000000001
40
0.0000000000
40
0.0000000000
40
0.0000000000
40
0.0000000000
40
0.5065624715
40
1.0000000000
40
1.0000000000
40
1.0000000000
40
1.0000000000
10
336.7707199679
20
129.4514094873
30
0.0000000000
10
336.7848413072
20
129.4309586552
30
0.0000000000
10
336.8117807321
20
129.3899298840
30
0.0000000000
10
336.8366381886
20
129.3476035169
30
0.0000000000
10
336.8483369262
20
129.3264092583
30
0.0000000000
11
336.7707199679
21
129.4514094873
31
0.0000000000
11
336.8116000659
21
129.3890584134
31
0.0000000000
11
336.8483369262
21
129.3264092583
31
0.0000000000
0
SPLINE
5
353
100
AcDbEntity
8
DEFAULT_2
100
AcDbSpline
62
8
6
HIDDEN
70
0
71
3
72
9
73
5
74
3
42
0.0000001000
43
0.0000001000
44
0.0000000001
40
0.0000000000
40
0.0000000000
40
0.0000000000
40
0.0000000000
40
0.5007314689
40
1.0000000000
40
1.0000000000
40
1.0000000000
40
1.0000000000
10
336.6398106055
20
129.8264094923
30
0.0000000000
10
336.6640066220
20
129.7646741972
30
0.0000000000
10
336.7100341823
20
129.6404721102
30
0.0000000000
10
336.7513231242
20
129.5146139534
30
0.0000000000
10
336.7707199614
20
129.4514094967
30
0.0000000000
11
336.6398106055
21
129.8264094923
31
0.0000000000
11
336.7089133945
21
129.6398751806
31
0.0000000000
11
336.7707199614
21
129.4514094967
31
0.0000000000
0
SPLINE
5
354
100
AcDbEntity
8
DEFAULT_2
100
AcDbSpline
62
8
6
HIDDEN
70
0
71
3
72
8
73
4
74
2
42
0.0000001000
43
0.0000001000
44
0.0000000001
40
0.0000000000
40
0.0000000000
40
0.0000000000
40
0.0000000000
40
1.0000000000
40
1.0000000000
40
1.0000000000
40
1.0000000000
10
336.5202744813
20
130.3264097351
30
0.0000000000
10
336.5417211462
20
130.2432649618
30
0.0000000000
10
336.5624236216
20
130.1599265061
30
0.0000000000
10
336.5823844560
20
130.0764108344
30
0.0000000000
11
336.5202744813
21
130.3264097351
31
0.0000000000
11
336.5823844560
21
130.0764108344
31
0.0000000000
0
SPLINE
5
355
100
AcDbEntity
8
DEFAULT_2
100
AcDbSpline
62
8
6
HIDDEN
70
0
71
3
72
8
73
4
74
2
42
0.0000001000
43
0.0000001000
44
0.0000000001
40
0.0000000000
40
0.0000000000
40
0.0000000000
40
0.0000000000
40
1.0000000000
40
1.0000000000
40
1.0000000000
40
1.0000000000
10
336.5823844560
20
130.0764108344
30
0.0000000000
10
336.6022610817
20
129.9932474893
30
0.0000000000
10
336.6214023104
20
129.9099084179
30
0.0000000000
10
336.6398106038
20
129.8264094967
30
0.0000000000
11
336.5823844560
21
130.0764108344
31
0.0000000000
11
336.6398106038
21
129.8264094967
31
0.0000000000
0
SPLINE
5
356
100
AcDbEntity
8
0
100
AcDbSpline
62
7
6
CONTINUOUS
70
0
71
3
72
8
73
4
74
2
42
0.0000001000
43
0.0000001000
44
0.0000000001
40
0.0000000000
40
0.0000000000
40
0.0000000000
40
0.0000000000
40
1.0000000000
40
1.0000000000
40
1.0000000000
40
1.0000000000
10
336.4762147091
20
136.9514094967
30
0.0000000000
10
336.5951347226
20
136.8392906394
30
0.0000000000
10
336.7057186033
20
136.7154751328
30
0.0000000000
10
336.7938772184
20
136.5767666443
30
0.0000000000
11
336.4762147091
21
136.9514094967
31
0.0000000000
11
336.7938772184
21
136.5767666443
31
0.0000000000
0
SPLINE
5
357
100
AcDbEntity
8
0
100
AcDbSpline
62
7
6
CONTINUOUS
70
0
71
3
72
9
73
5
74
3
42
0.0000001000
43
0.0000001000
44
0.0000000001
40
0.0000000000
40
0.0000000000
40
0.0000000000
40
0.0000000000
40
0.2035358086
40
1.0000000000
40
1.0000000000
40
1.0000000000
40
1.0000000000
10
336.7938772184
20
136.5767666443
30
0.0000000000
10
336.8179795657
20
136.5388440866
30
0.0000000000
10
336.9281623581
20
136.3470559594
30
0.0000000000
10
336.9909333349
20
136.1268197838
30
0.0000000000
10
336.9909333349
20
135.9514095563
30
0.0000000000
11
336.7938772184
21
136.5767666443
31
0.0000000000
11
336.8608677322
21
136.4595940712
31
0.0000000000
11
336.9909333349
21
135.9514095563
31
0.0000000000
0
SPLINE
5
358
100
AcDbEntity
8
0
100
AcDbSpline
62
7
6
CONTINUOUS
70
0
71
3
72
9
73
5
74
3
42
0.0000001000
43
0.0000001000
44
0.0000000001
40
0.0000000000
40
0.0000000000
40
0.0000000000
40
0.0000000000
40
0.6586450699
40
1.0000000000
40
1.0000000000
40
1.0000000000
40
1.0000000000
10
336.9167225965
20
136.3193572589
30
0.0000000000
10
336.9480273303
20
136.4002895721
30
0.0000000000
10
336.9824378597
20
136.5278524651
30
0.0000000000
10
336.9905567847
20
136.6593779671
30
0.0000000000
10
336.9903942849
20
136.7043283568
30
0.0000000000
11
336.9167225965
21
136.3193572589
31
0.0000000000
11
336.9819503330
21
136.5700459458
31
0.0000000000
11
336.9903942849
21
136.7043283568
31
0.0000000000
0
SPLINE
5
359
100
AcDbEntity
8
0
100
AcDbSpline
62
7
6
CONTINUOUS
70
0
71
3
72
9
73
5
74
3
42
0.0000001000
43
0.0000001000
44
0.0000000001
40
0.0000000000
40
0.0000000000
40
0.0000000000
40
0.0000000000
40
0.3413549827
40
1.0000000000
40
1.0000000000
40
1.0000000000
40
1.0000000000
10
336.9903942849
20
138.1984907558
30
0.0000000000
10
336.9905567847
20
138.2434411456
30
0.0000000000
10
336.9824378610
20
138.3749666273
30
0.0000000000
10
336.9480273409
20
138.5025295013
30
0.0000000000
10
336.9167226184
20
138.5834617970
30
0.0000000000
11
336.9903942849
21
138.1984907558
31
0.0000000000
11
336.9819503330
21
138.3327731668
31
0.0000000000
11
336.9167226184
21
138.5834617970
31
0.0000000000
0
SPLINE
5
35A
100
AcDbEntity
8
0
100
AcDbSpline
62
7
6
CONTINUOUS
70
0
71
3
72
9
73
5
74
3
42
0.0000001000
43
0.0000001000
44
0.0000000001
40
0.0000000000
40
0.0000000000
40
0.0000000000
40
0.0000000000
40
0.7964643301
40
1.0000000000
40
1.0000000000
40
1.0000000000
40
1.0000000000
10
336.9909333349
20
138.9514094669
30
0.0000000000
10
336.9909333349
20
138.7759992245
30
0.0000000000
10
336.9281623704
20
138.5557630685
30
0.0000000000
10
336.8179796032
20
138.3639749497
30
0.0000000000
10
336.7938772788
20
138.3260524185
30
0.0000000000
11
336.9909333349
21
138.9514094669
31
0.0000000000
11
336.8608677321
21
138.4432249065
31
0.0000000000
11
336.7938772788
21
138.3260524185
31
0.0000000000
0
SPLINE
5
35B
100
AcDbEntity
8
0
100
AcDbSpline
62
7
6
CONTINUOUS
70
0
71
3
72
8
73
4
74
2
42
0.0000001000
43
0.0000001000
44
0.0000000001
40
0.0000000000
40
0.0000000000
40
0.0000000000
40
0.0000000000
40
1.0000000000
40
1.0000000000
40
1.0000000000
40
1.0000000000
10
336.7938772788
20
138.3260524185
30
0.0000000000
10
336.7057186547
20
138.1873438808
30
0.0000000000
10
336.5951347511
20
138.0635283312
30
0.0000000000
10
336.4762147091
20
137.9514094371
30
0.0000000000
11
336.7938772788
21
138.3260524185
31
0.0000000000
11
336.4762147091
21
137.9514094371
31
0.0000000000
0
SPLINE
5
35C
100
AcDbEntity
8
0
100
AcDbSpline
62
7
6
CONTINUOUS
70
0
71
3
72
9
73
5
74
3
42
0.0000001000
43
0.0000001000
44
0.0000000001
40
0.0000000000
40
0.0000000000
40
0.0000000000
40
0.0000000000
40
0.4823962778
40
1.0000000000
40
1.0000000000
40
1.0000000000
40
1.0000000000
10
336.9725805389
20
110.0764104504
30
0.0000000000
10
336.9655572594
20
110.0979139929
30
0.0000000000
10
336.9471736663
20
110.1412955167
30
0.0000000000
10
336.9226926296
20
110.1814718372
30
0.0000000000
10
336.9088478136
20
110.2014085430
30
0.0000000000
11
336.9725805389
21
110.0764104504
31
0.0000000000
11
336.9464019929
21
110.1390222936
31
0.0000000000
11
336.9088478136
21
110.2014085430
31
0.0000000000
0
SPLINE
5
35D
100
AcDbEntity
8
0
100
AcDbSpline
62
7
6
CONTINUOUS
70
0
71
3
72
9
73
5
74
3
42
0.0000001000
43
0.0000001000
44
0.0000000001
40
0.0000000000
40
0.0000000000
40
0.0000000000
40
0.0000000000
40
0.4942953447
40
1.0000000000
40
1.0000000000
40
1.0000000000
40
1.0000000000
10
336.9088478136
20
110.2014085430
30
0.0000000000
10
336.9000439497
20
110.2225384868
30
0.0000000000
10
336.8809915116
20
110.2647777894
30
0.0000000000
10
336.8596540791
20
110.3059064826
30
0.0000000000
10
336.8483369584
20
110.3264094967
30
0.0000000000
11
336.9088478136
21
110.2014085430
31
0.0000000000
11
336.8806505989
21
110.2640245152
31
0.0000000000
11
336.8483369584
21
110.3264094967
31
0.0000000000
0
SPLINE
5
35E
100
AcDbEntity
8
0
100
AcDbSpline
62
7
6
CONTINUOUS
70
0
71
3
72
9
73
5
74
3
42
0.0000001000
43
0.0000001000
44
0.0000000001
40
0.0000000000
40
0.0000000000
40
0.0000000000
40
0.0000000000
40
0.4962133322
40
1.0000000000
40
1.0000000000
40
1.0000000000
40
1.0000000000
10
336.8483369584
20
110.3264094967
30
0.0000000000
10
336.8327900050
20
110.3686581892
30
0.0000000000
10
336.7991411953
20
110.4529635251
30
0.0000000000
10
336.7611379356
20
110.5353930599
30
0.0000000000
10
336.7409705162
20
110.5764085430
30
0.0000000000
11
336.8483369584
21
110.3264094967
31
0.0000000000
11
336.7983238429
21
110.4518631784
31
0.0000000000
11
336.7409705162
21
110.5764085430
31
0.0000000000
0
SPLINE
5
35F
100
AcDbEntity
8
0
100
AcDbSpline
62
7
6
CONTINUOUS
70
0
71
3
72
9
73
5
74
3
42
0.0000001000
43
0.0000001000
44
0.0000000001
40
0.0000000000
40
0.0000000000
40
0.0000000000
40
0.0000000000
40
0.5007342151
40
1.0000000000
40
1.0000000000
40
1.0000000000
40
1.0000000000
10
336.7409705162
20
110.5764085430
30
0.0000000000
10
336.7254921469
20
110.6393670450
30
0.0000000000
10
336.6931676843
20
110.7647562166
30
0.0000000000
10
336.6580410948
20
110.8893893074
30
0.0000000000
10
336.6398106167
20
110.9514085430
30
0.0000000000
11
336.7409705162
21
110.5764085430
31
0.0000000000
11
336.6924176275
21
110.7647507661
31
0.0000000000
11
336.6398106167
21
110.9514085430
31
0.0000000000
0
SPLINE
5
360
100
AcDbEntity
8
0
100
AcDbSpline
62
7
6
CONTINUOUS
70
0
71
3
72
9
73
5
74
3
42
0.0000001000
43
0.0000001000
44
0.0000000001
40
0.0000000000
40
0.0000000000
40
0.0000000000
40
0.0000000000
40
0.5025255799
40
1.0000000000
40
1.0000000000
40
1.0000000000
40
1.0000000000
10
336.6398106167
20
110.9514085430
30
0.0000000000
10
336.6212965933
20
111.0563819383
30
0.0000000000
10
336.5829546331
20
111.2650118979
30
0.0000000000
10
336.5416001236
20
111.4730657222
30
0.0000000000
10
336.5202744851
20
111.5764104504
30
0.0000000000
11
336.6398106167
21
110.9514085430
31
0.0000000000
11
336.5820001968
21
111.2659202286
31
0.0000000000
11
336.5202744851
21
111.5764104504
31
0.0000000000
0
SPLINE
5
361
100
AcDbEntity
8
0
100
AcDbSpline
62
7
6
CONTINUOUS
70
0
71
3
72
9
73
5
74
3
42
0.0000001000
43
0.0000001000
44
0.0000000001
40
0.0000000000
40
0.0000000000
40
0.0000000000
40
0.0000000000
40
0.5009453584
40
1.0000000000
40
1.0000000000
40
1.0000000000
40
1.0000000000
10
336.5202744851
20
111.5764104504
30
0.0000000000
10
336.5130952393
20
111.7016571480
30
0.0000000000
10
336.4985867815
20
111.9516677076
30
0.0000000000
10
336.4837222631
20
112.2016573511
30
0.0000000000
10
336.4762147091
20
112.3264104504
30
0.0000000000
11
336.5202744851
21
111.5764104504
31
0.0000000000
11
336.4984699980
21
111.9521351579
31
0.0000000000
11
336.4762147091
21
112.3264104504
31
0.0000000000
0
SPLINE
5
362
100
AcDbEntity
8
0
100
AcDbSpline
62
7
6
CONTINUOUS
70
0
71
3
72
9
73
5
74
3
42
0.0000001000
43
0.0000001000
44
0.0000000001
40
0.0000000000
40
0.0000000000
40
0.0000000000
40
0.0000000000
40
0.5009453584
40
1.0000000000
40
1.0000000000
40
1.0000000000
40
1.0000000000
10
336.5202744851
20
113.0764104504
30
0.0000000000
10
336.5130952393
20
112.9511637528
30
0.0000000000
10
336.4985867815
20
112.7011531932
30
0.0000000000
10
336.4837222631
20
112.4511635497
30
0.0000000000
10
336.4762147091
20
112.3264104504
30
0.0000000000
11
336.5202744851
21
113.0764104504
31
0.0000000000
11
336.4984699980
21
112.7006857429
31
0.0000000000
11
336.4762147091
21
112.3264104504
31
0.0000000000
0
SPLINE
5
363
100
AcDbEntity
8
0
100
AcDbSpline
62
7
6
CONTINUOUS
70
0
71
3
72
9
73
5
74
3
42
0.0000001000
43
0.0000001000
44
0.0000000001
40
0.0000000000
40
0.0000000000
40
0.0000000000
40
0.0000000000
40
0.4974744305
40
1.0000000000
40
1.0000000000
40
1.0000000000
40
1.0000000000
10
336.5202744851
20
113.0764104504
30
0.0000000000
10
336.5416001235
20
113.1797547051
30
0.0000000000
10
336.5829546325
20
113.3878075745
30
0.0000000000
10
336.6212965933
20
113.5964365816
30
0.0000000000
10
336.6398106167
20
113.7014094967
30
0.0000000000
11
336.5202744851
21
113.0764104504
31
0.0000000000
11
336.5820001973
21
113.3868992536
31
0.0000000000
11
336.6398106167
21
113.7014094967
31
0.0000000000
0
SPLINE
5
364
100
AcDbEntity
8
0
100
AcDbSpline
62
7
6
CONTINUOUS
70
0
71
3
72
9
73
5
74
3
42
0.0000001000
43
0.0000001000
44
0.0000000001
40
0.0000000000
40
0.0000000000
40
0.0000000000
40
0.0000000000
40
0.5007342151
40
1.0000000000
40
1.0000000000
40
1.0000000000
40
1.0000000000
10
336.7409705162
20
114.0764094967
30
0.0000000000
10
336.7254921469
20
114.0134509947
30
0.0000000000
10
336.6931676843
20
113.8880618231
30
0.0000000000
10
336.6580410948
20
113.7634287323
30
0.0000000000
10
336.6398106167
20
113.7014094967
30
0.0000000000
11
336.7409705162
21
114.0764094967
31
0.0000000000
11
336.6924176275
21
113.8880672736
31
0.0000000000
11
336.6398106167
21
113.7014094967
31
0.0000000000
0
SPLINE
5
365
100
AcDbEntity
8
0
100
AcDbSpline
62
7
6
CONTINUOUS
70
0
71
3
72
9
73
5
74
3
42
0.0000001000
43
0.0000001000
44
0.0000000001
40
0.0000000000
40
0.0000000000
40
0.0000000000
40
0.0000000000
40
0.4962133322
40
1.0000000000
40
1.0000000000
40
1.0000000000
40
1.0000000000
10
336.8483369584
20
114.3264085430
30
0.0000000000
10
336.8327900050
20
114.2841598506
30
0.0000000000
10
336.7991411953
20
114.1998545147
30
0.0000000000
10
336.7611379356
20
114.1174249799
30
0.0000000000
10
336.7409705162
20
114.0764094967
30
0.0000000000
11
336.8483369584
21
114.3264085430
31
0.0000000000
11
336.7983238429
21
114.2009548614
31
0.0000000000
11
336.7409705162
21
114.0764094967
31
0.0000000000
0
SPLINE
5
366
100
AcDbEntity
8
0
100
AcDbSpline
62
7
6
CONTINUOUS
70
0
71
3
72
9
73
5
74
3
42
0.0000001000
43
0.0000001000
44
0.0000000001
40
0.0000000000
40
0.0000000000
40
0.0000000000
40
0.0000000000
40
0.5057046553
40
1.0000000000
40
1.0000000000
40
1.0000000000
40
1.0000000000
10
336.8483369584
20
114.3264085430
30
0.0000000000
10
336.8596540791
20
114.3469115572
30
0.0000000000
10
336.8809915116
20
114.3880402503
30
0.0000000000
10
336.9000439497
20
114.4302795529
30
0.0000000000
10
336.9088478136
20
114.4514094967
30
0.0000000000
11
336.8483369584
21
114.3264085430
31
0.0000000000
11
336.8806505989
21
114.3887935245
31
0.0000000000
11
336.9088478136
21
114.4514094967
31
0.0000000000
0
SPLINE
5
367
100
AcDbEntity
8
0
100
AcDbSpline
62
7
6
CONTINUOUS
70
0
71
3
72
9
73
5
74
3
42
0.0000001000
43
0.0000001000
44
0.0000000001
40
0.0000000000
40
0.0000000000
40
0.0000000000
40
0.0000000000
40
0.4823969491
40
1.0000000000
40
1.0000000000
40
1.0000000000
40
1.0000000000
10
336.9725805389
20
114.5764104504
30
0.0000000000
10
336.9655572678
20
114.5549064414
30
0.0000000000
10
336.9471737102
20
114.5115239846
30
0.0000000000
10
336.9226926483
20
114.4713466859
30
0.0000000000
10
336.9088478136
20
114.4514094967
30
0.0000000000
11
336.9725805389
21
114.5764104504
31
0.0000000000
11
336.9464019928
21
114.5137971739
31
0.0000000000
11
336.9088478136
21
114.4514094967
31
0.0000000000
0
SPLINE
5
368
100
AcDbEntity
8
0
100
AcDbSpline
62
7
6
CONTINUOUS
70
0
71
3
72
9
73
5
74
3
42
0.0000001000
43
0.0000001000
44
0.0000000001
40
0.0000000000
40
0.0000000000
40
0.0000000000
40
0.0000000000
40
0.4959579520
40
1.0000000000
40
1.0000000000
40
1.0000000000
40
1.0000000000
10
336.9635035835
20
130.2014094967
30
0.0000000000
10
336.9584631147
20
130.1803858613
30
0.0000000000
10
336.9469656713
20
130.1383058214
30
0.0000000000
10
336.9329423029
20
130.0970016029
30
0.0000000000
10
336.9252796473
20
130.0764092583
30
0.0000000000
11
336.9635035835
21
130.2014094967
31
0.0000000000
11
336.9464373051
21
130.1388368326
31
0.0000000000
11
336.9252796473
21
130.0764092583
31
0.0000000000
0
SPLINE
5
369
100
AcDbEntity
8
0
100
AcDbSpline
62
7
6
CONTINUOUS
70
0
71
3
72
9
73
5
74
3
42
0.0000001000
43
0.0000001000
44
0.0000000001
40
0.0000000000
40
0.0000000000
40
0.0000000000
40
0.0000000000
40
0.5001195390
40
1.0000000000
40
1.0000000000
40
1.0000000000
40
1.0000000000
10
336.9798355038
20
130.4514092583
30
0.0000000000
10
336.9777179817
20
130.4096964455
30
0.0000000000
10
336.9728784087
20
130.3263203983
30
0.0000000000
10
336.9668292686
20
130.2430233770
30
0.0000000000
10
336.9635035835
20
130.2014094967
30
0.0000000000
11
336.9798355038
21
130.4514092583
31
0.0000000000
11
336.9725747153
21
130.3263202308
31
0.0000000000
11
336.9635035835
21
130.2014094967
31
0.0000000000
0
SPLINE
5
36A
100
AcDbEntity
8
0
100
AcDbSpline
62
7
6
CONTINUOUS
70
0
71
3
72
9
73
5
74
3
42
0.0000001000
43
0.0000001000
44
0.0000000001
40
0.0000000000
40
0.0000000000
40
0.0000000000
40
0.0000000000
40
0.5001002083
40
1.0000000000
40
1.0000000000
40
1.0000000000
40
1.0000000000
10
336.9852728871
20
130.8264092583
30
0.0000000000
10
336.9845177471
20
130.7638946761
30
0.0000000000
10
336.9828565697
20
130.6388923453
30
0.0000000000
10
336.9808928411
20
130.5138944012
30
0.0000000000
10
336.9798355038
20
130.4514092583
30
0.0000000000
11
336.9852728871
21
130.8264092583
31
0.0000000000
11
336.9827805687
21
130.6388683899
31
0.0000000000
11
336.9798355038
21
130.4514092583
31
0.0000000000
0
SPLINE
5
36B
100
AcDbEntity
8
0
100
AcDbSpline
62
7
6
CONTINUOUS
70
0
71
3
72
8
73
4
74
2
42
0.0000001000
43
0.0000001000
44
0.0000000001
40
0.0000000000
40
0.0000000000
40
0.0000000000
40
0.0000000000
40
1.0000000000
40
1.0000000000
40
1.0000000000
40
1.0000000000
10
336.9907069853
20
130.0764092583
30
0.0000000000
10
336.9907824359
20
130.0555760086
30
0.0000000000
10
336.9908390233
20
130.0347426821
30
0.0000000000
10
336.9908767480
20
130.0139093171
30
0.0000000000
11
336.9907069853
21
130.0764092583
31
0.0000000000
11
336.9908767480
21
130.0139093171
31
0.0000000000
0
SPLINE
5
36C
100
AcDbEntity
8
0
100
AcDbSpline
62
7
6
CONTINUOUS
70
0
71
3
72
8
73
4
74
2
42
0.0000001000
43
0.0000001000
44
0.0000000001
40
0.0000000000
40
0.0000000000
40
0.0000000000
40
0.0000000000
40
1.0000000000
40
1.0000000000
40
1.0000000000
40
1.0000000000
10
336.9908767480
20
130.0139093171
30
0.0000000000
10
336.9909144726
20
129.9930760295
30
0.0000000000
10
336.9909333347
20
129.9722427035
30
0.0000000000
10
336.9909333349
20
129.9514093775
30
0.0000000000
11
336.9908767480
21
130.0139093171
31
0.0000000000
11
336.9909333349
21
129.9514093775
31
0.0000000000
0
SPLINE
5
36D
100
AcDbEntity
8
0
100
AcDbSpline
62
7
6
CONTINUOUS
70
0
71
3
72
9
73
5
74
3
42
0.0000001000
43
0.0000001000
44
0.0000000001
40
0.0000000000
40
0.0000000000
40
0.0000000000
40
0.0000000000
40
0.5009334860
40
1.0000000000
40
1.0000000000
40
1.0000000000
40
1.0000000000
10
336.5202744851
20
130.3264097351
30
0.0000000000
10
336.5130951494
20
130.4307832494
30
0.0000000000
10
336.4985864179
20
130.6391291554
30
0.0000000000
10
336.4837221635
20
130.8474499998
30
0.0000000000
10
336.4762147091
20
130.9514094967
30
0.0000000000
11
336.5202744851
21
130.3264097351
31
0.0000000000
11
336.4984701176
21
130.6395118425
31
0.0000000000
11
336.4762147091
21
130.9514094967
31
0.0000000000
0
SPLINE
5
36E
100
AcDbEntity
8
0
100
AcDbSpline
62
7
6
CONTINUOUS
70
0
71
3
72
9
73
5
74
3
42
0.0000001000
43
0.0000001000
44
0.0000000001
40
0.0000000000
40
0.0000000000
40
0.0000000000
40
0.0000000000
40
0.5019308183
40
1.0000000000
40
1.0000000000
40
1.0000000000
40
1.0000000000
10
336.6398106167
20
129.8264094967
30
0.0000000000
10
336.6212920913
20
129.9104084176
30
0.0000000000
10
336.5829197418
20
130.0774377131
30
0.0000000000
10
336.5415932688
20
130.2437607404
30
0.0000000000
10
336.5202744851
20
130.3264097351
30
0.0000000000
11
336.6398106167
21
129.8264094967
31
0.0000000000
11
336.5820273160
21
130.0779047862
31
0.0000000000
11
336.5202744851
21
130.3264097351
31
0.0000000000
0
SPLINE
5
36F
100
AcDbEntity
8
0
100
AcDbSpline
62
7
6
CONTINUOUS
70
0
71
3
72
9
73
5
74
3
42
0.0000001000
43
0.0000001000
44
0.0000000001
40
0.0000000000
40
0.0000000000
40
0.0000000000
40
0.0000000000
40
0.4992685472
40
1.0000000000
40
1.0000000000
40
1.0000000000
40
1.0000000000
10
336.7707199816
20
129.4514094967
30
0.0000000000
10
336.7513231426
20
129.5146139563
30
0.0000000000
10
336.7100341981
20
129.6404721148
30
0.0000000000
10
336.6640066343
20
129.7646742030
30
0.0000000000
10
336.6398106167
20
129.8264094967
30
0.0000000000
11
336.7707199816
21
129.4514094967
31
0.0000000000
11
336.7089134087
21
129.6398751891
31
0.0000000000
11
336.6398106167
21
129.8264094967
31
0.0000000000
0
SPLINE
5
370
100
AcDbEntity
8
0
100
AcDbSpline
62
7
6
CONTINUOUS
70
0
71
3
72
9
73
5
74
3
42
0.0000001000
43
0.0000001000
44
0.0000000001
40
0.0000000000
40
0.0000000000
40
0.0000000000
40
0.0000000000
40
0.4934374757
40
1.0000000000
40
1.0000000000
40
1.0000000000
40
1.0000000000
10
336.8483369584
20
129.3264092583
30
0.0000000000
10
336.8366382196
20
129.3476035166
30
0.0000000000
10
336.8117807575
20
129.3899298873
30
0.0000000000
10
336.7848413260
20
129.4309586613
30
0.0000000000
10
336.7707199816
20
129.4514094967
30
0.0000000000
11
336.8483369584
21
129.3264092583
31
0.0000000000
11
336.8116000938
21
129.3890584121
31
0.0000000000
11
336.7707199816
21
129.4514094967
31
0.0000000000
0
SPLINE
5
371
100
AcDbEntity
8
0
100
AcDbSpline
62
7
6
CONTINUOUS
70
0
71
3
72
9
73
5
74
3
42
0.0000001000
43
0.0000001000
44
0.0000000001
40
0.0000000000
40
0.0000000000
40
0.0000000000
40
0.0000000000
40
0.3865980183
40
1.0000000000
40
1.0000000000
40
1.0000000000
40
1.0000000000
10
336.9903942849
20
136.7043283568
30
0.0000000000
10
336.9900152940
20
136.8091641037
30
0.0000000000
10
336.9477546838
20
137.0810920791
30
0.0000000000
10
336.8097202450
20
137.3203171944
30
0.0000000000
10
336.7092504811
20
137.4514095563
30
0.0000000000
11
336.9903942849
21
136.7043283568
31
0.0000000000
11
336.9430253901
21
137.0145300315
31
0.0000000000
11
336.7092504811
21
137.4514095563
31
0.0000000000
0
SPLINE
5
372
100
AcDbEntity
8
0
100
AcDbSpline
62
7
6
CONTINUOUS
70
0
71
3
72
9
73
5
74
3
42
0.0000001000
43
0.0000001000
44
0.0000000001
40
0.0000000000
40
0.0000000000
40
0.0000000000
40
0.0000000000
40
0.4728938881
40
1.0000000000
40
1.0000000000
40
1.0000000000
40
1.0000000000
10
336.9798355038
20
113.9514085430
30
0.0000000000
10
336.9732002013
20
113.9296241890
30
0.0000000000
10
336.9533132898
20
113.8852585419
30
0.0000000000
10
336.9250975881
20
113.8459103478
30
0.0000000000
10
336.9088478136
20
113.8264104504
30
0.0000000000
11
336.9798355038
21
113.9514085430
31
0.0000000000
11
336.9525288476
21
113.8887857484
31
0.0000000000
11
336.9088478136
21
113.8264104504
31
0.0000000000
0
SPLINE
5
373
100
AcDbEntity
8
0
100
AcDbSpline
62
7
6
CONTINUOUS
70
0
71
3
72
9
73
5
74
3
42
0.0000001000
43
0.0000001000
44
0.0000000001
40
0.0000000000
40
0.0000000000
40
0.0000000000
40
0.0000000000
40
0.4981687516
40
1.0000000000
40
1.0000000000
40
1.0000000000
40
1.0000000000
10
336.9088478136
20
113.8264104504
30
0.0000000000
10
336.8912711101
20
113.7420400887
30
0.0000000000
10
336.8504683495
20
113.5737848100
30
0.0000000000
10
336.7990520374
20
113.4084716945
30
0.0000000000
10
336.7707199816
20
113.3264094967
30
0.0000000000
11
336.9088478136
21
113.8264104504
31
0.0000000000
11
336.8479838021
21
113.5751312073
31
0.0000000000
11
336.7707199816
21
113.3264094967
31
0.0000000000
0
SPLINE
5
374
100
AcDbEntity
8
0
100
AcDbSpline
62
7
6
CONTINUOUS
70
0
71
3
72
9
73
5
74
3
42
0.0000001000
43
0.0000001000
44
0.0000000001
40
0.0000000000
40
0.0000000000
40
0.0000000000
40
0.0000000000
40
0.5011642542
40
1.0000000000
40
1.0000000000
40
1.0000000000
40
1.0000000000
10
336.7707199816
20
113.3264094967
30
0.0000000000
10
336.7610916060
20
113.2636615067
30
0.0000000000
10
336.7412407101
20
113.1385542529
30
0.0000000000
10
336.7201105027
20
113.0136566998
30
0.0000000000
10
336.7092504811
20
112.9514094967
30
0.0000000000
11
336.7707199816
21
113.3264094967
31
0.0000000000
11
336.7408731681
21
113.1383156092
31
0.0000000000
11
336.7092504811
21
112.9514094967
31
0.0000000000
0
SPLINE
5
375
100
AcDbEntity
8
0
100
AcDbSpline
62
7
6
CONTINUOUS
70
0
71
3
72
9
73
5
74
3
42
0.0000001000
43
0.0000001000
44
0.0000000001
40
0.0000000000
40
0.0000000000
40
0.0000000000
40
0.0000000000
40
0.5006930470
40
1.0000000000
40
1.0000000000
40
1.0000000000
40
1.0000000000
10
336.7092504811
20
112.9514094967
30
0.0000000000
10
336.7037903964
20
112.8470897284
30
0.0000000000
10
336.6927195377
20
112.6387476302
30
0.0000000000
10
336.6813157424
20
112.4304234897
30
0.0000000000
10
336.6755382840
20
112.3264104504
30
0.0000000000
11
336.7092504811
21
112.9514094967
31
0.0000000000
11
336.6926207274
21
112.6384633504
31
0.0000000000
11
336.6755382840
21
112.3264104504
31
0.0000000000
0
SPLINE
5
376
100
AcDbEntity
8
0
100
AcDbSpline
62
7
6
CONTINUOUS
70
0
71
3
72
9
73
5
74
3
42
0.0000001000
43
0.0000001000
44
0.0000000001
40
0.0000000000
40
0.0000000000
40
0.0000000000
40
0.0000000000
40
0.5006930473
40
1.0000000000
40
1.0000000000
40
1.0000000000
40
1.0000000000
10
336.7092504811
20
111.7014085430
30
0.0000000000
10
336.7037903964
20
111.8057287888
30
0.0000000000
10
336.6927195377
20
112.0140718407
30
0.0000000000
10
336.6813157424
20
112.2223969350
30
0.0000000000
10
336.6755382840
20
112.3264104504
30
0.0000000000
11
336.7092504811
21
111.7014085430
31
0.0000000000
11
336.6926207274
21
112.0143561220
31
0.0000000000
11
336.6755382840
21
112.3264104504
31
0.0000000000
0
SPLINE
5
377
100
AcDbEntity
8
0
100
AcDbSpline
62
7
6
CONTINUOUS
70
0
71
3
72
9
73
5
74
3
42
0.0000001000
43
0.0000001000
44
0.0000000001
40
0.0000000000
40
0.0000000000
40
0.0000000000
40
0.0000000000
40
0.5011642542
40
1.0000000000
40
1.0000000000
40
1.0000000000
40
1.0000000000
10
336.7707199816
20
111.3264085430
30
0.0000000000
10
336.7610916060
20
111.3891565330
30
0.0000000000
10
336.7412407101
20
111.5142637868
30
0.0000000000
10
336.7201105027
20
111.6391613400
30
0.0000000000
10
336.7092504811
20
111.7014085430
30
0.0000000000
11
336.7707199816
21
111.3264085430
31
0.0000000000
11
336.7408731681
21
111.5145024305
31
0.0000000000
11
336.7092504811
21
111.7014085430
31
0.0000000000
0
SPLINE
5
378
100
AcDbEntity
8
0
100
AcDbSpline
62
7
6
CONTINUOUS
70
0
71
3
72
9
73
5
74
3
42
0.0000001000
43
0.0000001000
44
0.0000000001
40
0.0000000000
40
0.0000000000
40
0.0000000000
40
0.0000000000
40
0.4981686994
40
1.0000000000
40
1.0000000000
40
1.0000000000
40
1.0000000000
10
336.9088478136
20
110.8264104504
30
0.0000000000
10
336.8912711089
20
110.9107803350
30
0.0000000000
10
336.8504683434
20
111.0790346677
30
0.0000000000
10
336.7990520347
20
111.2443468226
30
0.0000000000
10
336.7707199816
20
111.3264085430
30
0.0000000000
11
336.9088478136
21
110.8264104504
31
0.0000000000
11
336.8479838028
21
111.0776882529
31
0.0000000000
11
336.7707199816
21
111.3264085430
31
0.0000000000
0
SPLINE
5
379
100
AcDbEntity
8
0
100
AcDbSpline
62
7
6
CONTINUOUS
70
0
71
3
72
9
73
5
74
3
42
0.0000001000
43
0.0000001000
44
0.0000000001
40
0.0000000000
40
0.0000000000
40
0.0000000000
40
0.0000000000
40
0.4728948552
40
1.0000000000
40
1.0000000000
40
1.0000000000
40
1.0000000000
10
336.9798355038
20
110.7014094967
30
0.0000000000
10
336.9732002127
20
110.7231943121
30
0.0000000000
10
336.9533133623
20
110.7675608863
30
0.0000000000
10
336.9250976181
20
110.8069100707
30
0.0000000000
10
336.9088478136
20
110.8264104504
30
0.0000000000
11
336.9798355038
21
110.7014094967
31
0.0000000000
11
336.9525288475
21
110.7640337248
31
0.0000000000
11
336.9088478136
21
110.8264104504
31
0.0000000000
0
SPLINE
5
37A
100
AcDbEntity
8
0
100
AcDbSpline
62
7
6
CONTINUOUS
70
0
71
3
72
9
73
5
74
3
42
0.0000001000
43
0.0000001000
44
0.0000000001
40
0.0000000000
40
0.0000000000
40
0.0000000000
40
0.0000000000
40
0.5005976203
40
1.0000000000
40
1.0000000000
40
1.0000000000
40
1.0000000000
10
336.7409705162
20
130.4514092583
30
0.0000000000
10
336.7358413901
20
130.5139976598
30
0.0000000000
10
336.7254320083
20
130.6390116907
30
0.0000000000
10
336.7146948035
20
130.7639979933
30
0.0000000000
10
336.7092504811
20
130.8264092583
30
0.0000000000
11
336.7409705162
21
130.4514092583
31
0.0000000000
11
336.7253374148
21
130.6391541639
31
0.0000000000
11
336.7092504811
21
130.8264092583
31
0.0000000000
0
SPLINE
5
37B
100
AcDbEntity
8
0
100
AcDbSpline
62
7
6
CONTINUOUS
70
0
71
3
72
9
73
5
74
3
42
0.0000001000
43
0.0000001000
44
0.0000000001
40
0.0000000000
40
0.0000000000
40
0.0000000000
40
0.0000000000
40
0.5004213245
40
1.0000000000
40
1.0000000000
40
1.0000000000
40
1.0000000000
10
336.7985188640
20
130.2014094967
30
0.0000000000
10
336.7895382491
20
130.2432500737
30
0.0000000000
10
336.7709715895
20
130.3267287831
30
0.0000000000
10
336.7511698982
20
130.4099231667
30
0.0000000000
10
336.7409705162
20
130.4514092583
30
0.0000000000
11
336.7985188640
21
130.2014094967
31
0.0000000000
11
336.7706466659
21
130.3267279251
31
0.0000000000
11
336.7409705162
21
130.4514092583
31
0.0000000000
0
SPLINE
5
37C
100
AcDbEntity
8
0
100
AcDbSpline
62
7
6
CONTINUOUS
70
0
71
3
72
9
73
5
74
3
42
0.0000001000
43
0.0000001000
44
0.0000000001
40
0.0000000000
40
0.0000000000
40
0.0000000000
40
0.0000000000
40
0.4936875930
40
1.0000000000
40
1.0000000000
40
1.0000000000
40
1.0000000000
10
336.8703886171
20
130.0764092583
30
0.0000000000
10
336.8596626567
20
130.0975834834
30
0.0000000000
10
336.8367553861
20
130.1398835982
30
0.0000000000
10
336.8116977873
20
130.1809426159
30
0.0000000000
10
336.7985188640
20
130.2014094967
30
0.0000000000
11
336.8703886171
21
130.0764092583
31
0.0000000000
11
336.8365204922
21
130.1390470777
31
0.0000000000
11
336.7985188640
21
130.2014094967
31
0.0000000000
0
SPLINE
5
37D
100
AcDbEntity
8
0
100
AcDbSpline
62
7
6
CONTINUOUS
70
0
71
3
72
9
73
5
74
3
42
0.0000001000
43
0.0000001000
44
0.0000000001
40
0.0000000000
40
0.0000000000
40
0.0000000000
40
0.0000000000
40
0.4998833806
40
1.0000000000
40
1.0000000000
40
1.0000000000
40
1.0000000000
10
336.9907069853
20
129.8264094967
30
0.0000000000
10
336.9901027307
20
129.7638423740
30
0.0000000000
10
336.9864728799
20
129.6386906266
30
0.0000000000
10
336.9780120416
20
129.5137726508
30
0.0000000000
10
336.9725805389
20
129.4514094967
30
0.0000000000
11
336.9907069853
21
129.8264094967
31
0.0000000000
11
336.9852665429
21
129.6387782325
31
0.0000000000
11
336.9725805389
21
129.4514094967
31
0.0000000000
0
SPLINE
5
37E
100
AcDbEntity
8
0
100
AcDbSpline
62
7
6
CONTINUOUS
70
0
71
3
72
9
73
5
74
3
42
0.0000001000
43
0.0000001000
44
0.0000000001
40
0.0000000000
40
0.0000000000
40
0.0000000000
40
0.0000000000
40
0.4964630542
40
1.0000000000
40
1.0000000000
40
1.0000000000
40
1.0000000000
10
336.9725805389
20
129.4514094967
30
0.0000000000
10
336.9684665301
20
129.4304156801
30
0.0000000000
10
336.9588305615
20
129.3883830949
30
0.0000000000
10
336.9466190997
20
129.3470277054
30
0.0000000000
10
336.9398603926
20
129.3264092583
30
0.0000000000
11
336.9725805389
21
129.4514094967
31
0.0000000000
11
336.9582639292
21
129.3888473410
31
0.0000000000
11
336.9398603926
21
129.3264092583
31
0.0000000000
0
SPLINE
5
37F
100
AcDbEntity
8
0
100
AcDbSpline
62
7
6
CONTINUOUS
70
0
71
3
72
8
73
4
74
2
42
0.0000001000
43
0.0000001000
44
0.0000000001
40
0.0000000000
40
0.0000000000
40
0.0000000000
40
0.0000000000
40
1.0000000000
40
1.0000000000
40
1.0000000000
40
1.0000000000
10
336.9909333349
20
129.9514093775
30
0.0000000000
10
336.9909333352
20
129.9097426481
30
0.0000000000
10
336.9908578874
20
129.8680759187
30
0.0000000000
10
336.9907069865
20
129.8264094967
30
0.0000000000
11
336.9909333349
21
129.9514093775
31
0.0000000000
11
336.9907069865
21
129.8264094967
31
0.0000000000
0
SPLINE
5
380
100
AcDbEntity
8
0
100
AcDbSpline
62
7
6
CONTINUOUS
70
0
71
3
72
9
73
5
74
3
42
0.0000001000
43
0.0000001000
44
0.0000000001
40
0.0000000000
40
0.0000000000
40
0.0000000000
40
0.0000000000
40
0.6134019817
40
1.0000000000
40
1.0000000000
40
1.0000000000
40
1.0000000000
10
336.7092504811
20
137.4514095563
30
0.0000000000
10
336.8097202450
20
137.5825019182
30
0.0000000000
10
336.9477546838
20
137.8217270336
30
0.0000000000
10
336.9900152940
20
138.0936550089
30
0.0000000000
10
336.9903942849
20
138.1984907558
30
0.0000000000
11
336.7092504811
21
137.4514095563
31
0.0000000000
11
336.9430253901
21
137.8882890811
31
0.0000000000
11
336.9903942849
21
138.1984907558
31
0.0000000000
0
SPLINE
5
381
100
AcDbEntity
8
0
100
AcDbSpline
62
7
6
CONTINUOUS
70
0
71
3
72
10
73
6
74
4
42
0.0000001000
43
0.0000001000
44
0.0000000001
40
0.0000000000
40
0.0000000000
40
0.0000000000
40
0.0000000000
40
0.3628857363
40
0.6938906328
40
1.0000000000
40
1.0000000000
40
1.0000000000
40
1.0000000000
10
314.8095070084
20
209.7014094967
30
0.0000000000
10
315.6506170777
20
209.1281766616
30
0.0000000000
10
317.3171451995
20
208.1137589688
30
0.0000000000
10
319.8643244310
20
206.9267473978
30
0.0000000000
10
321.5625753292
20
206.3562414485
30
0.0000000000
10
322.3909333349
20
206.1303065745
30
0.0000000000
11
314.8095070084
21
209.7014094967
31
0.0000000000
11
317.4213198540
21
208.1193248128
31
0.0000000000
11
319.9480915354
21
206.9473352882
31
0.0000000000
11
322.3909333349
21
206.1303065745
31
0.0000000000
0
SPLINE
5
382
100
AcDbEntity
8
0
100
AcDbSpline
62
7
6
CONTINUOUS
70
0
71
3
72
10
73
6
74
4
42
0.0000001000
43
0.0000001000
44
0.0000000001
40
0.0000000000
40
0.0000000000
40
0.0000000000
40
0.0000000000
40
0.3060941152
40
0.6370937309
40
1.0000000000
40
1.0000000000
40
1.0000000000
40
1.0000000000
10
333.5909333349
20
206.1303065745
30
0.0000000000
10
334.4192500656
20
206.3562301907
30
0.0000000000
10
336.1174474624
20
206.9267127060
30
0.0000000000
10
338.6646337634
20
208.1137087664
30
0.0000000000
10
340.3312020023
20
209.1281442283
30
0.0000000000
10
341.1723596613
20
209.7014094967
30
0.0000000000
11
333.5909333349
21
206.1303065745
31
0.0000000000
11
336.0336556610
21
206.9472878581
31
0.0000000000
11
338.5603940462
21
208.1192435437
31
0.0000000000
11
341.1723596613
21
209.7014094967
31
0.0000000000
0
ENDSEC
0
SECTION
2
OBJECTS
0
DICTIONARY
5
383
100
AcDbDictionary
3
ACAD_GROUP
350
384
3
ACAD_MLINESTYLE
350
385
0
DICTIONARY
5
384
102
{ACAD_REACTORS
330
383
102
}
100
AcDbDictionary
0
DICTIONARY
5
385
102
{ACAD_REACTORS
330
383
102
}
100
AcDbDictionary
3
STANDARD
350
386
0
MLINESTYLE
5
386
102
{ACAD_REACTORS
330
385
102
}
100
AcDbMlineStyle
2
STANDARD
70
0
3

62
256
51
90.0
52
90.0
71
2
49
0.5
62
256
6
BYLAYER
49
-0.5
62
256
6
BYLAYER
0
ENDSEC
0
EOF
