999
DXF file: C:\Aktuell-Internet\CAD-Daten\2va1-8.dxf
999
Pro/ENGINEER 2001400 by Parametric Technology Corporation
0
SECTION
2
HEADER
9
$ACADVER
1
AC1014
9
$EXTMAX
10
420.0000000000
20
297.0000000000
9
$EXTMIN
10
0.0000000000
20
0.0000000000
9
$LIMMIN
10
0.0000000000
20
0.0000000000
9
$LIMMAX
10
420.0000000000
20
297.0000000000
9
$VIEWCTR
10
210.0000000000
20
148.5000000000
9
$VIEWSIZE
40
297.0000000000
9
$CLAYER
8
0
9
$LTSCALE
40
23.1000000000
9
$CELTYPE
6
BYLAYER
9
$DIMSCALE
40
1
9
$DIMASZ
40
3.5000000000
9
$DIMEXO
40
2.6250000000
9
$DIMDLI
40
15.9600000000
9
$DIMEXE
40
7.5600000000
9
$DIMCEN
40
3.7800000000
9
$DIMLFAC
40
1.0000000000
9
$DIMTXT
40
3.5000000000
9
$DIMTOL
70
1
9
$DIMTFAC
40
0.6000000000
9
$DIMTP
40
0.0050000000
9
$DIMTM
40
0.0050000000
9
$HANDSEED
5
3B8
0
ENDSEC
0
SECTION
2
CLASSES
0
ENDSEC
0
SECTION
2
TABLES
0
TABLE
2
VPORT
5
8
100
AcDbSymbolTable
70
2
0
VPORT
5
1F4
100
AcDbSymbolTableRecord
100
AcDbViewportTableRecord
2
*ACTIVE
70
0
10
0.0
20
0.0
11
1.0
21
1.0
12
210.0000000000
22
148.5000000000
13
0.0
23
0.0
14
1.0
24
1.0
15
0.0
25
0.0
16
0.0
26
0.0
36
1.0
17
0.0
27
0.0
37
0.0
40
297.0000000000
41
1.4141414141
42
50.0
43
0.0
44
0.0
50
0.0
51
0.0
71
0
72
100
73
1
74
1
75
0
76
0
77
0
78
0
0
ENDTAB
0
TABLE
2
LTYPE
5
5
100
AcDbSymbolTable
70
6
0
LTYPE
5
14
100
AcDbSymbolTableRecord
100
AcDbLinetypeTableRecord
2
BYBLOCK
70
0
3

72
65
73
0
40
0.0
0
LTYPE
5
15
100
AcDbSymbolTableRecord
100
AcDbLinetypeTableRecord
2
BYLAYER
70
0
3

72
65
73
0
40
0.0
0
LTYPE
5
16
100
AcDbSymbolTableRecord
100
AcDbLinetypeTableRecord
2
CONTINUOUS
70
64
3
Solid line
72
65
73
0
40
0
0
LTYPE
5
1F5
100
AcDbSymbolTableRecord
100
AcDbLinetypeTableRecord
2
CENTER
70
64
3
____ _ ____ _ ____ _ ____ _ ____ _ ____ _ ____
72
65
73
4
40
0.6
49
0.375
74
0
49
-0.075
74
0
49
0.075
74
0
49
-0.075
74
0
0
LTYPE
5
1F6
100
AcDbSymbolTableRecord
100
AcDbLinetypeTableRecord
2
HIDDEN
70
64
3
- - - - - - - - - - - - - - - - - - - -
72
65
73
2
40
0.2
49
0.1
74
0
49
-0.1
74
0
0
LTYPE
5
1F7
100
AcDbSymbolTableRecord
100
AcDbLinetypeTableRecord
2
PHANTOM
70
64
3
_____ _ _ _____ _ _ _____ _ _ _____
72
65
73
6
40
0.8
49
0.45
74
0
49
-0.05
74
0
49
0.1
74
0
49
-0.05
74
0
49
0.1
74
0
49
-0.05
74
0
0
LTYPE
5
1F8
100
AcDbSymbolTableRecord
100
AcDbLinetypeTableRecord
2
DOT
70
64
3
. . . . . . . . . . . . . . . . . . . .
72
65
73
2
40
0.2
49
0.1
74
0
49
-0.1
74
0
0
LTYPE
5
1F9
100
AcDbSymbolTableRecord
100
AcDbLinetypeTableRecord
2
DASHED
70
64
3
- - - - - - - - - - - - - - - - - - - -
72
65
73
2
40
0.2
49
0.1
74
0
49
-0.1
74
0
0
ENDTAB
0
TABLE
2
LAYER
5
2
100
AcDbSymbolTable
70
36
0
LAYER
5
10
100
AcDbSymbolTableRecord
100
AcDbLayerTableRecord
2
0
70
0
62
7
6
CONTINUOUS
0
LAYER
5
1FA
100
AcDbSymbolTableRecord
100
AcDbLayerTableRecord
2
DEFAULT_1
70
0
62
7
6
CENTER
0
LAYER
5
1FB
100
AcDbSymbolTableRecord
100
AcDbLayerTableRecord
2
DEFAULT_2
70
0
62
8
6
HIDDEN
0
LAYER
5
1FC
100
AcDbSymbolTableRecord
100
AcDbLayerTableRecord
2
DEFAULT_3
70
0
62
7
6
PHANTOM
0
ENDTAB
0
TABLE
2
STYLE
5
3
100
AcDbSymbolTable
70
1
0
STYLE
5
11
100
AcDbSymbolTableRecord
100
AcDbTextStyleTableRecord
2
STANDARD
70
0
40
0.0
41
1.0
50
0.0
71
0
42
0.0
3
txt
4

0
STYLE
5
1FD
100
AcDbSymbolTableRecord
100
AcDbTextStyleTableRecord
2
TEXTSTYLE_0
70
0
40
0.0
41
0.80
50
0.0
71
0
42
0.2
3
txt
4

0
ENDTAB
0
TABLE
2
VIEW
5
6
100
AcDbSymbolTable
70
0
0
ENDTAB
0
TABLE
2
UCS
5
7
100
AcDbSymbolTable
70
0
0
ENDTAB
0
TABLE
2
APPID
5
9
100
AcDbSymbolTable
70
1
0
APPID
5
1FE
100
AcDbSymbolTableRecord
100
AcDbRegAppTableRecord
2
ACAD
70
0
0
ENDTAB
0
TABLE
2
DIMSTYLE
5
A
100
AcDbSymbolTable
70
1
0
DIMSTYLE
105
1FF
100
AcDbSymbolTableRecord
100
AcDbDimStyleTableRecord
2
STANDARD
70
0
3

4

5

6

7

40
1.0
41
0.18
42
0.0625
43
0.38
44
0.18
45
0.0
46
0.0
47
0.0050000000
48
0.0050000000
140
3.5000000000
141
0.09
142
0.0
143
25.4
144
1.0000000000
145
0.0
146
0.6000000000
147
0.09
71
1
72
0
73
1
74
1
75
0
76
0
77
0
78
0
170
0
171
2
172
0
173
0
174
0
175
0
176
0
177
0
178
0
270
2
271
3
272
4
273
2
274
2
340
11
275
0
280
0
281
0
282
0
283
1
284
0
285
0
286
0
287
3
288
0
0
ENDTAB
0
TABLE
2
BLOCK_RECORD
5
1
100
AcDbSymbolTable
70
0
0
BLOCK_RECORD
5
1B
100
AcDbSymbolTableRecord
100
AcDbBlockTableRecord
2
*MODEL_SPACE
0
BLOCK_RECORD
5
1C
100
AcDbSymbolTableRecord
100
AcDbBlockTableRecord
2
*PAPER_SPACE
0
ENDTAB
0
ENDSEC
0
SECTION
2
BLOCKS
0
BLOCK
5
1E
100
AcDbEntity
8
0
100
AcDbBlockBegin
2
*MODEL_SPACE
70
0
10
0.0
20
0.0
30
0.0
3
*MODEL_SPACE
1

0
ENDBLK
5
1F
100
AcDbEntity
8
0
100
AcDbBlockEnd
0
BLOCK
5
20
100
AcDbEntity
8
0
100
AcDbBlockBegin
2
*PAPER_SPACE
70
0
10
0.0
20
0.0
30
0.0
3
*PAPER_SPACE
1

0
ENDBLK
5
21
100
AcDbEntity
8
0
100
AcDbBlockEnd
0
ENDSEC
0
SECTION
2
ENTITIES
0
TEXT
5
200
100
AcDbEntity
8
0
100
AcDbText
62
2
6
CONTINUOUS
10
341.7601419198
20
106.5299860953
7
TEXTSTYLE_0
40
6.0000000000
1
VA 1-8
50
90.0000000000
72
5
11
341.7601419198
21
133.8157003810
100
AcDbText
0
LINE
5
201
100
AcDbEntity
8
0
100
AcDbLine
62
7
6
CONTINUOUS
10
0.0000000000
20
0.0000000000
11
0.0000000000
21
297.0000000000
0
LINE
5
202
100
AcDbEntity
8
0
100
AcDbLine
62
7
6
CONTINUOUS
10
0.0000000000
20
0.0000000000
11
420.0000000000
21
0.0000000000
0
LINE
5
203
100
AcDbEntity
8
0
100
AcDbLine
62
7
6
CONTINUOUS
10
0.0000000000
20
297.0000000000
11
420.0000000000
21
297.0000000000
0
LINE
5
204
100
AcDbEntity
8
0
100
AcDbLine
62
7
6
CONTINUOUS
10
420.0000000000
20
0.0000000000
11
420.0000000000
21
297.0000000000
0
LINE
5
205
100
AcDbEntity
8
0
100
AcDbLine
62
7
6
CONTINUOUS
10
155.4152971615
20
148.0105840071
11
155.4152971615
21
98.0105840071
0
LINE
5
206
100
AcDbEntity
8
0
100
AcDbLine
62
7
6
CONTINUOUS
10
161.9472120514
20
111.8855830534
11
161.4365737250
21
112.2605830534
0
LINE
5
207
100
AcDbEntity
8
0
100
AcDbLine
62
7
6
CONTINUOUS
10
161.3089141657
20
111.5105830534
11
160.9259354433
21
111.8855830534
0
LINE
5
208
100
AcDbEntity
8
0
100
AcDbLine
62
7
6
CONTINUOUS
10
163.9897651782
20
111.6355840071
11
163.6067865004
21
112.0105840071
0
LINE
5
209
100
AcDbEntity
8
0
100
AcDbLine
62
7
6
CONTINUOUS
10
164.2450842967
20
112.2605830534
11
163.8621056189
21
112.7605840071
0
LINE
5
20A
100
AcDbEntity
8
0
100
AcDbLine
62
7
6
CONTINUOUS
10
163.3514673819
20
115.0105840071
11
162.9684887042
21
115.5105835302
0
LINE
5
20B
100
AcDbEntity
8
0
100
AcDbLine
62
7
6
CONTINUOUS
10
160.9259354433
20
111.8855830534
11
160.5429567320
21
112.5105849607
0
LINE
5
20C
100
AcDbEntity
8
0
100
AcDbLine
62
7
6
CONTINUOUS
10
161.4365737250
20
112.2605830534
11
161.1812546065
21
112.7605840071
0
LINE
5
20D
100
AcDbEntity
8
0
100
AcDbLine
62
7
6
CONTINUOUS
10
163.6067865004
20
112.0105840071
11
163.4791269412
21
112.2605830534
0
LINE
5
20E
100
AcDbEntity
8
0
100
AcDbLine
62
7
6
CONTINUOUS
10
163.0961482634
20
114.2605840071
11
162.8408291449
21
114.7605849607
0
LINE
5
20F
100
AcDbEntity
8
0
100
AcDbLine
62
7
6
CONTINUOUS
10
161.1812546065
20
112.7605840071
11
161.0535950472
21
113.2605849607
0
LINE
5
210
100
AcDbEntity
8
0
100
AcDbLine
62
7
6
CONTINUOUS
10
160.4152971615
20
137.0105839475
11
160.4152971615
21
136.0105840071
0
LINE
5
211
100
AcDbEntity
8
0
100
AcDbLine
62
7
6
CONTINUOUS
10
160.4152971615
20
133.0105840071
11
160.4152971615
21
132.2605840071
0
LINE
5
212
100
AcDbEntity
8
0
100
AcDbLine
62
7
6
CONTINUOUS
10
160.4152971615
20
128.7605837687
11
160.4152971615
21
128.0105837687
0
LINE
5
213
100
AcDbEntity
8
0
100
AcDbLine
62
7
6
CONTINUOUS
10
160.4152971615
20
120.2605840071
11
160.4152971615
21
119.5105840071
0
LINE
5
214
100
AcDbEntity
8
0
100
AcDbLine
62
7
6
CONTINUOUS
10
160.4152971615
20
113.8855840071
11
160.4152971615
21
113.1355840071
0
LINE
5
215
100
AcDbEntity
8
0
100
AcDbLine
62
7
6
CONTINUOUS
10
161.0535950472
20
113.7605830534
11
161.0535950472
21
113.2605849607
0
LINE
5
216
100
AcDbEntity
8
0
100
AcDbLine
62
7
6
CONTINUOUS
10
161.9472120514
20
131.7605837687
11
161.9472120514
21
129.2605840071
0
LINE
5
217
100
AcDbEntity
8
0
100
AcDbLine
62
7
6
CONTINUOUS
10
161.9472120514
20
111.2605840071
11
161.3089141657
21
111.5105830534
0
LINE
5
218
100
AcDbEntity
8
0
100
AcDbLine
62
7
6
CONTINUOUS
10
164.5004034152
20
111.3855849607
11
163.9897651782
21
111.6355840071
0
LINE
5
219
100
AcDbEntity
8
0
100
AcDbLine
62
7
6
CONTINUOUS
10
164.6280629744
20
112.0105840071
11
164.2450842967
21
112.2605830534
0
LINE
5
21A
100
AcDbEntity
8
0
100
AcDbLine
62
7
6
CONTINUOUS
10
165.2663611283
20
114.7605849607
11
164.8833820929
21
115.0105840071
0
LINE
5
21B
100
AcDbEntity
8
0
100
AcDbLine
62
7
6
CONTINUOUS
10
162.8408291449
20
114.7605849607
11
162.3301907291
21
115.1355835302
0
LINE
5
21C
100
AcDbEntity
8
0
100
AcDbLine
62
7
6
CONTINUOUS
10
165.9046589245
20
115.0105840071
11
165.5216802468
21
115.3855840071
0
LINE
5
21D
100
AcDbEntity
8
0
100
AcDbLine
62
7
6
CONTINUOUS
10
165.6493398060
20
114.2605840071
11
165.2663611283
21
114.7605849607
0
LINE
5
21E
100
AcDbEntity
8
0
100
AcDbLine
62
7
6
CONTINUOUS
10
166.2876376023
20
114.3855849607
11
165.9046589245
21
115.0105840071
0
LINE
5
21F
100
AcDbEntity
8
0
100
AcDbLine
62
7
6
CONTINUOUS
10
163.4791269412
20
114.7605849607
11
163.3514673819
21
115.0105840071
0
LINE
5
220
100
AcDbEntity
8
0
100
AcDbLine
62
7
6
CONTINUOUS
10
163.2238078227
20
113.7605830534
11
163.0961482634
21
114.2605840071
0
LINE
5
221
100
AcDbEntity
8
0
100
AcDbLine
62
7
6
CONTINUOUS
10
163.8621056189
20
112.7605840071
11
163.7344460597
21
113.2605849607
0
LINE
5
222
100
AcDbEntity
8
0
100
AcDbLine
62
7
6
CONTINUOUS
10
165.7769993653
20
113.7605830534
11
165.6493398060
21
114.2605840071
0
LINE
5
223
100
AcDbEntity
8
0
100
AcDbLine
62
7
6
CONTINUOUS
10
160.5429567320
20
112.5105849607
11
160.4152971615
21
113.1355840071
0
LINE
5
224
100
AcDbEntity
8
0
100
AcDbLine
62
7
6
CONTINUOUS
10
166.4152971615
20
113.7605830534
11
166.2876376023
21
114.3855849607
0
LINE
5
225
100
AcDbEntity
8
0
100
AcDbLine
62
7
6
CONTINUOUS
10
162.4578502884
20
131.6355842455
11
162.4578502884
21
129.3855842455
0
LINE
5
226
100
AcDbEntity
8
0
100
AcDbLine
62
7
6
CONTINUOUS
10
162.5855098476
20
118.5105835302
11
162.5855098476
21
116.7605844839
0
LINE
5
227
100
AcDbEntity
8
0
100
AcDbLine
62
7
6
CONTINUOUS
10
163.2238078227
20
118.5105835302
11
163.2238078227
21
116.7605844839
0
LINE
5
228
100
AcDbEntity
8
0
100
AcDbLine
62
7
6
CONTINUOUS
10
163.2238078227
20
113.7605830534
11
163.2238078227
21
113.2605849607
0
LINE
5
229
100
AcDbEntity
8
0
100
AcDbLine
62
7
6
CONTINUOUS
10
163.7344460597
20
113.7605830534
11
163.7344460597
21
113.2605849607
0
LINE
5
22A
100
AcDbEntity
8
0
100
AcDbLine
62
7
6
CONTINUOUS
10
165.7769993653
20
113.7605830534
11
165.7769993653
21
113.2605849607
0
LINE
5
22B
100
AcDbEntity
8
0
100
AcDbLine
62
7
6
CONTINUOUS
10
166.4152971615
20
139.0105840071
11
166.4152971615
21
138.2605840071
0
LINE
5
22C
100
AcDbEntity
8
0
100
AcDbLine
62
7
6
CONTINUOUS
10
166.4152971615
20
134.7605841263
11
166.4152971615
21
134.0105841263
0
LINE
5
22D
100
AcDbEntity
8
0
100
AcDbLine
62
7
6
CONTINUOUS
10
166.4152971615
20
131.0105837687
11
166.4152971615
21
130.0105840071
0
LINE
5
22E
100
AcDbEntity
8
0
100
AcDbLine
62
7
6
CONTINUOUS
10
166.4152971615
20
120.2605840071
11
166.4152971615
21
119.5105840071
0
LINE
5
22F
100
AcDbEntity
8
0
100
AcDbLine
62
7
6
CONTINUOUS
10
166.4152971615
20
113.7605830534
11
166.4152971615
21
113.2605849607
0
LINE
5
230
100
AcDbEntity
8
0
100
AcDbLine
62
7
6
CONTINUOUS
10
160.5429567320
20
114.5105830534
11
160.4152971615
21
113.8855840071
0
LINE
5
231
100
AcDbEntity
8
0
100
AcDbLine
62
7
6
CONTINUOUS
10
162.3301907291
20
115.7605840071
11
162.9684887042
21
115.5105835302
0
LINE
5
232
100
AcDbEntity
8
0
100
AcDbLine
62
7
6
CONTINUOUS
10
165.5216802468
20
115.3855840071
11
164.8833820929
21
115.6355844839
0
LINE
5
233
100
AcDbEntity
8
0
100
AcDbLine
62
7
6
CONTINUOUS
10
165.3940206875
20
120.2605840071
11
164.5004034152
21
121.0105840071
0
LINE
5
234
100
AcDbEntity
8
0
100
AcDbLine
62
7
6
CONTINUOUS
10
166.4152971615
20
120.2605840071
11
165.5216802468
21
121.0105840071
0
LINE
5
235
100
AcDbEntity
8
0
100
AcDbLine
62
7
6
CONTINUOUS
10
171.4152971615
20
148.0105840071
11
171.4152971615
21
98.0105840071
0
LINE
5
236
100
AcDbEntity
8
0
100
AcDbLine
62
7
6
CONTINUOUS
10
166.4152971615
20
113.2605849607
11
166.2876376023
21
112.6355830534
0
LINE
5
237
100
AcDbEntity
8
0
100
AcDbLine
62
7
6
CONTINUOUS
10
161.1812546065
20
114.2605840071
11
161.0535950472
21
113.7605830534
0
LINE
5
238
100
AcDbEntity
8
0
100
AcDbLine
62
7
6
CONTINUOUS
10
163.2238078227
20
113.2605849607
11
163.0961482634
21
112.7605840071
0
LINE
5
239
100
AcDbEntity
8
0
100
AcDbLine
62
7
6
CONTINUOUS
10
163.8621056189
20
114.2605840071
11
163.7344460597
21
113.7605830534
0
LINE
5
23A
100
AcDbEntity
8
0
100
AcDbLine
62
7
6
CONTINUOUS
10
165.7769993653
20
113.2605849607
11
165.6493398060
21
112.7605840071
0
LINE
5
23B
100
AcDbEntity
8
0
100
AcDbLine
62
7
6
CONTINUOUS
10
204.7964950080
20
199.4680214229
11
212.6152971615
21
213.0105840071
0
LINE
5
23C
100
AcDbEntity
8
0
100
AcDbLine
62
7
6
CONTINUOUS
10
162.3301907291
20
111.2605840071
11
161.9472120514
21
111.2605840071
0
LINE
5
23D
100
AcDbEntity
8
0
100
AcDbLine
62
7
6
CONTINUOUS
10
164.8833820929
20
111.3855849607
11
164.5004034152
21
111.3855849607
0
LINE
5
23E
100
AcDbEntity
8
0
100
AcDbLine
62
7
6
CONTINUOUS
10
162.3301907291
20
111.8855830534
11
161.9472120514
21
111.8855830534
0
LINE
5
23F
100
AcDbEntity
8
0
100
AcDbLine
62
7
6
CONTINUOUS
10
164.8833820929
20
112.0105840071
11
164.6280629744
21
112.0105840071
0
LINE
5
240
100
AcDbEntity
8
0
100
AcDbLine
62
7
6
CONTINUOUS
10
164.8833820929
20
115.0105840071
11
164.6280629744
21
115.0105840071
0
LINE
5
241
100
AcDbEntity
8
0
100
AcDbLine
62
7
6
CONTINUOUS
10
162.3301907291
20
115.1355835302
11
161.9472120514
21
115.1355835302
0
LINE
5
242
100
AcDbEntity
8
0
100
AcDbLine
62
7
6
CONTINUOUS
10
161.4365737250
20
114.7605849607
11
161.1812546065
21
114.2605840071
0
LINE
5
243
100
AcDbEntity
8
0
100
AcDbLine
62
7
6
CONTINUOUS
10
163.6067865004
20
115.0105840071
11
163.4791269412
21
114.7605849607
0
LINE
5
244
100
AcDbEntity
8
0
100
AcDbLine
62
7
6
CONTINUOUS
10
163.0961482634
20
112.7605840071
11
162.8408291449
21
112.2605830534
0
LINE
5
245
100
AcDbEntity
8
0
100
AcDbLine
62
7
6
CONTINUOUS
10
163.4791269412
20
112.2605830534
11
163.3514673819
21
112.0105840071
0
LINE
5
246
100
AcDbEntity
8
0
100
AcDbLine
62
7
6
CONTINUOUS
10
160.9259354433
20
115.1355835302
11
160.5429567320
21
114.5105830534
0
LINE
5
247
100
AcDbEntity
8
0
100
AcDbLine
62
7
6
CONTINUOUS
10
164.8833820929
20
115.6355844839
11
164.5004034152
21
115.6355844839
0
LINE
5
248
100
AcDbEntity
8
0
100
AcDbLine
62
7
6
CONTINUOUS
10
161.9472120514
20
115.7605840071
11
162.3301907291
21
115.7605840071
0
LINE
5
249
100
AcDbEntity
8
0
100
AcDbLine
62
7
6
CONTINUOUS
10
162.5855098476
20
116.7605844839
11
163.2238078227
21
116.7605844839
0
LINE
5
24A
100
AcDbEntity
8
0
100
AcDbLine
62
7
6
CONTINUOUS
10
163.2238078227
20
118.5105835302
11
162.5855098476
21
118.5105835302
0
LINE
5
24B
100
AcDbEntity
8
0
100
AcDbLine
62
7
6
CONTINUOUS
10
160.4152971615
20
119.5105840071
11
166.4152971615
21
119.5105840071
0
LINE
5
24C
100
AcDbEntity
8
0
100
AcDbLine
62
7
6
CONTINUOUS
10
165.3940206875
20
120.2605840071
11
160.4152971615
21
120.2605840071
0
LINE
5
24D
100
AcDbEntity
8
0
100
AcDbLine
62
7
6
CONTINUOUS
10
165.5216802468
20
121.0105840071
11
164.5004034152
21
121.0105840071
0
LINE
5
24E
100
AcDbEntity
8
0
100
AcDbLine
62
7
6
CONTINUOUS
10
161.9472120514
20
131.7605837687
11
160.4152971615
21
132.2605840071
0
LINE
5
24F
100
AcDbEntity
8
0
100
AcDbLine
62
7
6
CONTINUOUS
10
162.4578502884
20
131.6355842455
11
165.9046589245
21
130.5105842455
0
LINE
5
250
100
AcDbEntity
8
0
100
AcDbLine
62
7
6
CONTINUOUS
10
166.4152971615
20
131.0105837687
11
160.4152971615
21
133.0105840071
0
LINE
5
251
100
AcDbEntity
8
0
100
AcDbLine
62
7
6
CONTINUOUS
10
197.6441747689
20
199.2105840071
11
197.6657036587
21
199.3061014169
0
LINE
5
252
100
AcDbEntity
8
0
100
AcDbLine
62
7
6
CONTINUOUS
10
166.2876376023
20
112.6355830534
11
165.9046589245
21
112.0105840071
0
LINE
5
253
100
AcDbEntity
8
0
100
AcDbLine
62
7
6
CONTINUOUS
10
164.2450842967
20
114.7605849607
11
163.8621056189
21
114.2605840071
0
LINE
5
254
100
AcDbEntity
8
0
100
AcDbLine
62
7
6
CONTINUOUS
10
160.4152971615
20
136.0105840071
11
166.4152971615
21
134.0105841263
0
LINE
5
255
100
AcDbEntity
8
0
100
AcDbLine
62
7
6
CONTINUOUS
10
166.4152971615
20
134.7605841263
11
161.1812546065
21
136.5105840667
0
LINE
5
256
100
AcDbEntity
8
0
100
AcDbLine
62
7
6
CONTINUOUS
10
190.2152971615
20
213.0105840071
11
190.2152971615
21
219.4105840071
0
LINE
5
257
100
AcDbEntity
8
0
100
AcDbLine
62
7
6
CONTINUOUS
10
193.4152971615
20
207.0393027150
11
193.4152971615
21
201.2105840071
0
LINE
5
258
100
AcDbEntity
8
0
100
AcDbLine
62
7
6
CONTINUOUS
10
206.0514992436
20
171.1382511695
11
203.4152971615
21
164.6105840071
0
LINE
5
259
100
AcDbEntity
8
0
100
AcDbLine
62
7
6
CONTINUOUS
10
163.3514673819
20
112.0105840071
11
162.9684887042
21
111.5105830534
0
LINE
5
25A
100
AcDbEntity
8
0
100
AcDbLine
62
7
6
CONTINUOUS
10
165.6493398060
20
112.7605840071
11
165.2663611283
21
112.2605830534
0
LINE
5
25B
100
AcDbEntity
8
0
100
AcDbLine
62
7
6
CONTINUOUS
10
161.3089141657
20
115.5105835302
11
160.9259354433
21
115.1355835302
0
LINE
5
25C
100
AcDbEntity
8
0
100
AcDbLine
62
7
6
CONTINUOUS
10
163.9897651782
20
115.3855840071
11
163.6067865004
21
115.0105840071
0
LINE
5
25D
100
AcDbEntity
8
0
100
AcDbLine
62
7
6
CONTINUOUS
10
161.1812546065
20
136.5105840667
11
166.4152971615
21
138.2605840071
0
LINE
5
25E
100
AcDbEntity
8
0
100
AcDbLine
62
7
6
CONTINUOUS
10
166.4152971615
20
139.0105840071
11
160.4152971615
21
137.0105839475
0
LINE
5
25F
100
AcDbEntity
8
0
100
AcDbLine
62
7
6
CONTINUOUS
10
196.4152971615
20
173.0550257438
11
196.4152971615
21
199.2105840071
0
LINE
5
260
100
AcDbEntity
8
0
100
AcDbLine
62
7
6
CONTINUOUS
10
199.4152971615
20
193.2475995421
11
199.4152971615
21
215.0470991612
0
LINE
5
261
100
AcDbEntity
8
DEFAULT_1
100
AcDbLine
62
2
6
CENTER
10
201.4152971615
20
219.4105840071
11
201.4152971615
21
160.8448320075
0
LINE
5
262
100
AcDbEntity
8
DEFAULT_1
100
AcDbLine
62
2
6
CENTER
10
201.4152971615
20
219.4105840071
11
201.4152971615
21
227.2105840071
0
LINE
5
263
100
AcDbEntity
8
0
100
AcDbLine
62
7
6
CONTINUOUS
10
165.9046589245
20
112.0105840071
11
165.5216802468
21
111.6355840071
0
LINE
5
264
100
AcDbEntity
8
0
100
AcDbLine
62
7
6
CONTINUOUS
10
161.9472120514
20
115.1355835302
11
161.4365737250
21
114.7605849607
0
LINE
5
265
100
AcDbEntity
8
0
100
AcDbLine
62
7
6
CONTINUOUS
10
162.8408291449
20
112.2605830534
11
162.3301907291
21
111.8855830534
0
LINE
5
266
100
AcDbEntity
8
0
100
AcDbLine
62
7
6
CONTINUOUS
10
160.4152971615
20
128.0105837687
11
166.4152971615
21
130.0105840071
0
LINE
5
267
100
AcDbEntity
8
0
100
AcDbLine
62
7
6
CONTINUOUS
10
161.9472120514
20
129.2605840071
11
160.4152971615
21
128.7605837687
0
LINE
5
268
100
AcDbEntity
8
0
100
AcDbLine
62
7
6
CONTINUOUS
10
165.9046589245
20
130.5105842455
11
162.4578502884
21
129.3855842455
0
LINE
5
269
100
AcDbEntity
8
0
100
AcDbLine
62
7
6
CONTINUOUS
10
203.4152971615
20
193.2475995421
11
203.4152971615
21
215.0470991612
0
LINE
5
26A
100
AcDbEntity
8
0
100
AcDbLine
62
7
6
CONTINUOUS
10
206.4152971615
20
173.0550257438
11
206.4152971615
21
199.2105840071
0
LINE
5
26B
100
AcDbEntity
8
0
100
AcDbLine
62
7
6
CONTINUOUS
10
164.6280629744
20
115.0105840071
11
164.2450842967
21
114.7605849607
0
LINE
5
26C
100
AcDbEntity
8
0
100
AcDbLine
62
7
6
CONTINUOUS
10
165.2663611283
20
112.2605830534
11
164.8833820929
21
112.0105840071
0
LINE
5
26D
100
AcDbEntity
8
0
100
AcDbLine
62
7
6
CONTINUOUS
10
164.5004034152
20
115.6355844839
11
163.9897651782
21
115.3855840071
0
LINE
5
26E
100
AcDbEntity
8
0
100
AcDbLine
62
7
6
CONTINUOUS
10
199.4152971615
20
164.6105840071
11
196.7790950795
21
171.1382511695
0
LINE
5
26F
100
AcDbEntity
8
0
100
AcDbLine
62
7
6
CONTINUOUS
10
209.4152971615
20
201.2105840071
11
209.4152971615
21
207.0393027150
0
LINE
5
270
100
AcDbEntity
8
0
100
AcDbLine
62
7
6
CONTINUOUS
10
212.6152971615
20
213.0105840071
11
212.6152971615
21
219.4105840071
0
LINE
5
271
100
AcDbEntity
8
0
100
AcDbLine
62
7
6
CONTINUOUS
10
161.9472120514
20
115.7605840071
11
161.3089141657
21
115.5105835302
0
LINE
5
272
100
AcDbEntity
8
0
100
AcDbLine
62
7
6
CONTINUOUS
10
162.9684887042
20
111.5105830534
11
162.3301907291
21
111.2605840071
0
LINE
5
273
100
AcDbEntity
8
0
100
AcDbLine
62
7
6
CONTINUOUS
10
165.5216802468
20
111.6355840071
11
164.8833820929
21
111.3855849607
0
LINE
5
274
100
AcDbEntity
8
0
100
AcDbLine
62
7
6
CONTINUOUS
10
205.1864195542
20
199.2105840071
11
205.1648906644
21
199.3061014169
0
LINE
5
275
100
AcDbEntity
8
0
100
AcDbLine
62
7
6
CONTINUOUS
10
203.4152971615
20
164.6105840071
11
199.4152971615
21
164.6105840071
0
LINE
5
276
100
AcDbEntity
8
0
100
AcDbLine
62
7
6
CONTINUOUS
10
198.0340993151
20
199.4680214229
11
190.2152971615
21
213.0105840071
0
LINE
5
277
100
AcDbEntity
8
0
100
AcDbLine
62
7
6
CONTINUOUS
10
231.4152971615
20
98.0105840071
11
231.4152971615
21
148.0105840071
0
LINE
5
278
100
AcDbEntity
8
0
100
AcDbLine
62
7
6
CONTINUOUS
10
247.4152971615
20
98.0105840071
11
247.4152971615
21
148.0105840071
0
LINE
5
279
100
AcDbEntity
8
0
100
AcDbLine
62
7
6
CONTINUOUS
10
207.4152971615
20
199.2105840071
11
205.1864195542
21
199.2105840071
0
LINE
5
27A
100
AcDbEntity
8
DEFAULT_2
100
AcDbLine
62
8
6
HIDDEN
10
204.6755139748
20
199.2105840071
11
204.6609791826
21
199.2105840071
0
LINE
5
27B
100
AcDbEntity
8
0
100
AcDbLine
62
7
6
CONTINUOUS
10
198.2309514499
20
199.2105840071
11
198.1696151405
21
199.2105840071
0
LINE
5
27C
100
AcDbEntity
8
0
100
AcDbLine
62
7
6
CONTINUOUS
10
198.1550803483
20
199.2105840071
11
198.1349939172
21
199.2105840071
0
LINE
5
27D
100
AcDbEntity
8
0
100
AcDbLine
62
7
6
CONTINUOUS
10
195.4152971615
20
199.2105840071
11
197.6441747689
21
199.2105840071
0
LINE
5
27E
100
AcDbEntity
8
DEFAULT_2
100
AcDbLine
62
8
6
HIDDEN
10
198.1550803483
20
199.2105840071
11
198.1696151405
21
199.2105840071
0
LINE
5
27F
100
AcDbEntity
8
0
100
AcDbLine
62
7
6
CONTINUOUS
10
204.6755139748
20
199.2105840071
11
204.6956004059
21
199.2105840071
0
LINE
5
280
100
AcDbEntity
8
0
100
AcDbLine
62
7
6
CONTINUOUS
10
204.5996428732
20
199.2105840071
11
204.6609791826
21
199.2105840071
0
LINE
5
281
100
AcDbEntity
8
DEFAULT_1
100
AcDbLine
62
2
6
CENTER
10
201.4152971615
20
219.4105840071
11
193.6152971615
21
219.4105840071
0
LINE
5
282
100
AcDbEntity
8
DEFAULT_1
100
AcDbLine
62
2
6
CENTER
10
201.4152971615
20
219.4105840071
11
209.2152971615
21
219.4105840071
0
LINE
5
283
100
AcDbEntity
8
0
100
AcDbLine
62
7
6
CONTINUOUS
10
211.3349745757
20
224.6105840071
11
191.4956197474
21
224.6105840071
0
LINE
5
284
100
AcDbEntity
8
0
100
AcDbLine
62
7
6
CONTINUOUS
10
323.9903412354
20
230.6105840071
11
318.9557434484
21
224.6105840071
0
LINE
5
285
100
AcDbEntity
8
0
100
AcDbLine
62
7
6
CONTINUOUS
10
314.9264342749
20
193.2475995421
11
318.7702742236
21
215.0470991612
0
LINE
5
286
100
AcDbEntity
8
0
100
AcDbLine
62
7
6
CONTINUOUS
10
346.8818108232
20
111.2605840071
11
346.8198852394
21
111.2605840071
0
LINE
5
287
100
AcDbEntity
8
DEFAULT_2
100
AcDbLine
62
8
6
HIDDEN
10
346.8198852394
20
111.2605840071
11
346.3557434484
21
111.2605840071
0
LINE
5
288
100
AcDbEntity
8
DEFAULT_2
100
AcDbLine
62
8
6
HIDDEN
10
346.8818108477
20
111.3855849607
11
346.3557434484
21
111.3855849607
0
LINE
5
289
100
AcDbEntity
8
0
100
AcDbLine
62
7
6
CONTINUOUS
10
346.9432563405
20
111.5105830534
11
346.6734601233
21
111.5105830534
0
LINE
5
28A
100
AcDbEntity
8
DEFAULT_2
100
AcDbLine
62
8
6
HIDDEN
10
346.6734601233
20
111.5105830534
11
346.3557434484
21
111.5105830534
0
LINE
5
28B
100
AcDbEntity
8
DEFAULT_2
100
AcDbLine
62
8
6
HIDDEN
10
346.9350909466
20
111.6355840071
11
346.3557434484
21
111.6355840071
0
LINE
5
28C
100
AcDbEntity
8
0
100
AcDbLine
62
7
6
CONTINUOUS
10
346.8818108232
20
111.8855830534
11
346.5585770146
21
111.8855830534
0
LINE
5
28D
100
AcDbEntity
8
DEFAULT_2
100
AcDbLine
62
8
6
HIDDEN
10
346.5585770146
20
111.8855830534
11
346.3557434484
21
111.8855830534
0
LINE
5
28E
100
AcDbEntity
8
0
100
AcDbLine
62
7
6
CONTINUOUS
10
346.9554888059
20
112.0105840071
11
346.9030266700
21
112.0105840071
0
LINE
5
28F
100
AcDbEntity
8
DEFAULT_2
100
AcDbLine
62
8
6
HIDDEN
10
346.9030266700
20
112.0105840071
11
346.3557434484
21
112.0105840071
0
LINE
5
290
100
AcDbEntity
8
0
100
AcDbLine
62
7
6
CONTINUOUS
10
346.9554888043
20
112.2605830534
11
346.9350909466
21
112.2605830534
0
LINE
5
291
100
AcDbEntity
8
DEFAULT_2
100
AcDbLine
62
8
6
HIDDEN
10
346.9350909466
20
112.2605830534
11
346.7071725786
21
112.2605830534
0
LINE
5
292
100
AcDbEntity
8
0
100
AcDbLine
62
7
6
CONTINUOUS
10
346.7071725786
20
112.2605830534
11
346.4792960448
21
112.2605830534
0
LINE
5
293
100
AcDbEntity
8
DEFAULT_2
100
AcDbLine
62
8
6
HIDDEN
10
346.4792960448
20
112.2605830534
11
346.3557434484
21
112.2605830534
0
LINE
5
294
100
AcDbEntity
8
DEFAULT_2
100
AcDbLine
62
8
6
HIDDEN
10
346.4223129723
20
112.5105849607
11
346.3557434484
21
112.5105849607
0
LINE
5
295
100
AcDbEntity
8
DEFAULT_2
100
AcDbLine
62
8
6
HIDDEN
10
346.4223129680
20
112.6355830534
11
346.3557434484
21
112.6355830534
0
LINE
5
296
100
AcDbEntity
8
DEFAULT_2
100
AcDbLine
62
8
6
HIDDEN
10
346.9493749123
20
112.7605840071
11
346.6374785298
21
112.7605840071
0
LINE
5
297
100
AcDbEntity
8
0
100
AcDbLine
62
7
6
CONTINUOUS
10
346.6374785298
20
112.7605840071
11
346.4024490273
21
112.7605840071
0
LINE
5
298
100
AcDbEntity
8
DEFAULT_2
100
AcDbLine
62
8
6
HIDDEN
10
346.4024490273
20
112.7605840071
11
346.3557434484
21
112.7605840071
0
LINE
5
299
100
AcDbEntity
8
DEFAULT_2
100
AcDbLine
62
8
6
HIDDEN
10
346.3719419354
20
113.1355840071
11
346.3557434484
21
113.1355840071
0
LINE
5
29A
100
AcDbEntity
8
DEFAULT_2
100
AcDbLine
62
8
6
HIDDEN
10
346.9534513462
20
113.2605849607
11
346.5991957523
21
113.2605849607
0
LINE
5
29B
100
AcDbEntity
8
0
100
AcDbLine
62
7
6
CONTINUOUS
10
346.5991957523
20
113.2605849607
11
346.3719419354
21
113.2605849607
0
LINE
5
29C
100
AcDbEntity
8
DEFAULT_2
100
AcDbLine
62
8
6
HIDDEN
10
346.3719419354
20
113.2605849607
11
346.3557434484
21
113.2605849607
0
LINE
5
29D
100
AcDbEntity
8
DEFAULT_2
100
AcDbLine
62
8
6
HIDDEN
10
346.9534513596
20
113.7605830534
11
346.5991957523
21
113.7605830534
0
LINE
5
29E
100
AcDbEntity
8
0
100
AcDbLine
62
7
6
CONTINUOUS
10
346.5991957523
20
113.7605830534
11
346.3719419354
21
113.7605830534
0
LINE
5
29F
100
AcDbEntity
8
DEFAULT_2
100
AcDbLine
62
8
6
HIDDEN
10
346.3719419354
20
113.7605830534
11
346.3557434484
21
113.7605830534
0
LINE
5
2A0
100
AcDbEntity
8
DEFAULT_2
100
AcDbLine
62
8
6
HIDDEN
10
346.3719419354
20
113.8855840071
11
346.3557434484
21
113.8855840071
0
LINE
5
2A1
100
AcDbEntity
8
DEFAULT_2
100
AcDbLine
62
8
6
HIDDEN
10
346.9493749745
20
114.2605840071
11
346.6374785298
21
114.2605840071
0
LINE
5
2A2
100
AcDbEntity
8
0
100
AcDbLine
62
7
6
CONTINUOUS
10
346.6374785298
20
114.2605840071
11
346.4024490273
21
114.2605840071
0
LINE
5
2A3
100
AcDbEntity
8
DEFAULT_2
100
AcDbLine
62
8
6
HIDDEN
10
346.4024490273
20
114.2605840071
11
346.3557434484
21
114.2605840071
0
LINE
5
2A4
100
AcDbEntity
8
DEFAULT_2
100
AcDbLine
62
8
6
HIDDEN
10
346.4223129680
20
114.3855849607
11
346.3557434484
21
114.3855849607
0
LINE
5
2A5
100
AcDbEntity
8
DEFAULT_2
100
AcDbLine
62
8
6
HIDDEN
10
346.4223129723
20
114.5105830534
11
346.3557434484
21
114.5105830534
0
LINE
5
2A6
100
AcDbEntity
8
0
100
AcDbLine
62
7
6
CONTINUOUS
10
346.9554888043
20
114.7605849607
11
346.9350909466
21
114.7605849607
0
LINE
5
2A7
100
AcDbEntity
8
DEFAULT_2
100
AcDbLine
62
8
6
HIDDEN
10
346.9350909466
20
114.7605849607
11
346.7071725786
21
114.7605849607
0
LINE
5
2A8
100
AcDbEntity
8
0
100
AcDbLine
62
7
6
CONTINUOUS
10
346.7071725786
20
114.7605849607
11
346.4792961720
21
114.7605849607
0
LINE
5
2A9
100
AcDbEntity
8
DEFAULT_2
100
AcDbLine
62
8
6
HIDDEN
10
346.4792961720
20
114.7605849607
11
346.3557434484
21
114.7605849607
0
LINE
5
2AA
100
AcDbEntity
8
0
100
AcDbLine
62
7
6
CONTINUOUS
10
346.9554888043
20
115.0105840071
11
346.9030265239
21
115.0105840071
0
LINE
5
2AB
100
AcDbEntity
8
DEFAULT_2
100
AcDbLine
62
8
6
HIDDEN
10
346.9030265239
20
115.0105840071
11
346.3557434484
21
115.0105840071
0
LINE
5
2AC
100
AcDbEntity
8
0
100
AcDbLine
62
7
6
CONTINUOUS
10
346.8818108232
20
115.1355835302
11
346.5585770146
21
115.1355835302
0
LINE
5
2AD
100
AcDbEntity
8
DEFAULT_2
100
AcDbLine
62
8
6
HIDDEN
10
346.5585770146
20
115.1355835302
11
346.3557434484
21
115.1355835302
0
LINE
5
2AE
100
AcDbEntity
8
DEFAULT_2
100
AcDbLine
62
8
6
HIDDEN
10
346.9350909466
20
115.3855840071
11
346.3557434484
21
115.3855840071
0
LINE
5
2AF
100
AcDbEntity
8
0
100
AcDbLine
62
7
6
CONTINUOUS
10
346.9432563405
20
115.5105835302
11
346.6734601233
21
115.5105835302
0
LINE
5
2B0
100
AcDbEntity
8
DEFAULT_2
100
AcDbLine
62
8
6
HIDDEN
10
346.6734601233
20
115.5105835302
11
346.3557434484
21
115.5105835302
0
LINE
5
2B1
100
AcDbEntity
8
DEFAULT_2
100
AcDbLine
62
8
6
HIDDEN
10
346.8818108477
20
115.6355844839
11
346.3557434484
21
115.6355844839
0
LINE
5
2B2
100
AcDbEntity
8
DEFAULT_2
100
AcDbLine
62
8
6
HIDDEN
10
346.8198852394
20
115.7605840071
11
346.3557434484
21
115.7605840071
0
LINE
5
2B3
100
AcDbEntity
8
0
100
AcDbLine
62
7
6
CONTINUOUS
10
346.8198852394
20
115.7605840071
11
346.8818108232
21
115.7605840071
0
LINE
5
2B4
100
AcDbEntity
8
DEFAULT_2
100
AcDbLine
62
8
6
HIDDEN
10
346.9125928885
20
116.7605844839
11
346.3557434484
21
116.7605844839
0
LINE
5
2B5
100
AcDbEntity
8
0
100
AcDbLine
62
7
6
CONTINUOUS
10
346.9125928885
20
116.7605844839
11
346.9534513596
21
116.7605844839
0
LINE
5
2B6
100
AcDbEntity
8
0
100
AcDbLine
62
7
6
CONTINUOUS
10
318.9557434484
20
199.2105840071
11
318.9557434484
21
224.6105840071
0
LINE
5
2B7
100
AcDbEntity
8
0
100
AcDbLine
62
7
6
CONTINUOUS
10
346.9534513596
20
118.5105835302
11
346.9125928885
21
118.5105835302
0
LINE
5
2B8
100
AcDbEntity
8
DEFAULT_2
100
AcDbLine
62
8
6
HIDDEN
10
346.9125928885
20
118.5105835302
11
346.3557434484
21
118.5105835302
0
LINE
5
2B9
100
AcDbEntity
8
DEFAULT_2
100
AcDbLine
62
8
6
HIDDEN
10
346.3719419354
20
119.5105840071
11
346.3557434484
21
119.5105840071
0
LINE
5
2BA
100
AcDbEntity
8
0
100
AcDbLine
62
7
6
CONTINUOUS
10
346.3719419354
20
119.5105840071
11
346.9556378764
21
119.5105840071
0
LINE
5
2BB
100
AcDbEntity
8
DEFAULT_2
100
AcDbLine
62
8
6
HIDDEN
10
346.3719419354
20
120.2605840071
11
346.3557434484
21
120.2605840071
0
LINE
5
2BC
100
AcDbEntity
8
0
100
AcDbLine
62
7
6
CONTINUOUS
10
346.9556289059
20
120.2605840071
11
346.3719419354
21
120.2605840071
0
LINE
5
2BD
100
AcDbEntity
8
DEFAULT_2
100
AcDbLine
62
8
6
HIDDEN
10
346.8818108477
20
121.0105840071
11
346.3557434484
21
121.0105840071
0
LINE
5
2BE
100
AcDbEntity
8
DEFAULT_2
100
AcDbLine
62
8
6
HIDDEN
10
346.3719419354
20
128.0105837687
11
346.3557434484
21
128.0105837687
0
LINE
5
2BF
100
AcDbEntity
8
DEFAULT_2
100
AcDbLine
62
8
6
HIDDEN
10
346.3719419354
20
128.7605837687
11
346.3557434484
21
128.7605837687
0
LINE
5
2C0
100
AcDbEntity
8
DEFAULT_2
100
AcDbLine
62
8
6
HIDDEN
10
346.8198852394
20
129.2605840071
11
346.3557434484
21
129.2605840071
0
LINE
5
2C1
100
AcDbEntity
8
0
100
AcDbLine
62
7
6
CONTINUOUS
10
346.8982427707
20
129.3855842455
11
346.8198852394
21
129.3855842455
0
LINE
5
2C2
100
AcDbEntity
8
DEFAULT_2
100
AcDbLine
62
8
6
HIDDEN
10
346.8198852394
20
129.3855842455
11
346.3557434484
21
129.3855842455
0
LINE
5
2C3
100
AcDbEntity
8
0
100
AcDbLine
62
7
6
CONTINUOUS
10
328.4106023872
20
213.0105840071
11
328.4106023872
21
230.6105840071
0
LINE
5
2C4
100
AcDbEntity
8
0
100
AcDbLine
62
7
6
CONTINUOUS
10
330.9557434484
20
186.0105840071
11
330.9557434484
21
60.0105840071
0
LINE
5
2C5
100
AcDbEntity
8
DEFAULT_2
100
AcDbLine
62
8
6
HIDDEN
10
346.3719419354
20
130.0105840071
11
346.3557434484
21
130.0105840071
0
LINE
5
2C6
100
AcDbEntity
8
DEFAULT_2
100
AcDbLine
62
8
6
HIDDEN
10
346.5585769999
20
130.5105842455
11
346.3557434484
21
130.5105842455
0
LINE
5
2C7
100
AcDbEntity
8
DEFAULT_2
100
AcDbLine
62
8
6
HIDDEN
10
346.3719419354
20
131.0105837687
11
346.3557434484
21
131.0105837687
0
LINE
5
2C8
100
AcDbEntity
8
0
100
AcDbLine
62
7
6
CONTINUOUS
10
346.8982427707
20
131.6355842455
11
346.8198852394
21
131.6355842455
0
LINE
5
2C9
100
AcDbEntity
8
DEFAULT_2
100
AcDbLine
62
8
6
HIDDEN
10
346.8198852394
20
131.6355842455
11
346.3557434484
21
131.6355842455
0
LINE
5
2CA
100
AcDbEntity
8
DEFAULT_2
100
AcDbLine
62
8
6
HIDDEN
10
346.8198852394
20
131.7605837687
11
346.3557434484
21
131.7605837687
0
LINE
5
2CB
100
AcDbEntity
8
DEFAULT_2
100
AcDbLine
62
8
6
HIDDEN
10
346.3719419354
20
132.2605840071
11
346.3557434484
21
132.2605840071
0
LINE
5
2CC
100
AcDbEntity
8
DEFAULT_2
100
AcDbLine
62
8
6
HIDDEN
10
346.3719419354
20
133.0105840071
11
346.3557434484
21
133.0105840071
0
LINE
5
2CD
100
AcDbEntity
8
DEFAULT_2
100
AcDbLine
62
8
6
HIDDEN
10
346.3719419354
20
134.0105841263
11
346.3557434484
21
134.0105841263
0
LINE
5
2CE
100
AcDbEntity
8
DEFAULT_2
100
AcDbLine
62
8
6
HIDDEN
10
346.3719419354
20
134.7605841263
11
346.3557434484
21
134.7605841263
0
LINE
5
2CF
100
AcDbEntity
8
0
100
AcDbLine
62
7
6
CONTINUOUS
10
334.4757434484
20
228.9611622203
11
334.4757434484
21
208.6905840071
0
LINE
5
2D0
100
AcDbEntity
8
DEFAULT_1
100
AcDbLine
62
2
6
CENTER
10
338.9557434484
20
49.0105840071
11
338.9557434484
21
102.3364364991
0
LINE
5
2D1
100
AcDbEntity
8
DEFAULT_1
100
AcDbLine
62
2
6
CENTER
10
338.9557434484
20
136.1600153885
11
338.9557434484
21
230.8784252825
0
LINE
5
2D2
100
AcDbEntity
8
DEFAULT_2
100
AcDbLine
62
8
6
HIDDEN
10
346.3719419354
20
136.0105840071
11
346.3557434484
21
136.0105840071
0
LINE
5
2D3
100
AcDbEntity
8
DEFAULT_2
100
AcDbLine
62
8
6
HIDDEN
10
346.3719419354
20
136.5105840667
11
346.3557434484
21
136.5105840667
0
LINE
5
2D4
100
AcDbEntity
8
0
100
AcDbLine
62
7
6
CONTINUOUS
10
346.6374785298
20
136.5105840667
11
346.3719419354
21
136.5105840667
0
LINE
5
2D5
100
AcDbEntity
8
DEFAULT_2
100
AcDbLine
62
8
6
HIDDEN
10
346.3719419354
20
137.0105839475
11
346.3557434484
21
137.0105839475
0
LINE
5
2D6
100
AcDbEntity
8
DEFAULT_2
100
AcDbLine
62
8
6
HIDDEN
10
346.3719419354
20
138.2605840071
11
346.3557434484
21
138.2605840071
0
LINE
5
2D7
100
AcDbEntity
8
DEFAULT_2
100
AcDbLine
62
8
6
HIDDEN
10
346.3719419354
20
139.0105840071
11
346.3557434484
21
139.0105840071
0
LINE
5
2D8
100
AcDbEntity
8
0
100
AcDbLine
62
7
6
CONTINUOUS
10
343.4357434484
20
208.6905840071
11
343.4357434484
21
228.9611622203
0
LINE
5
2D9
100
AcDbEntity
8
DEFAULT_2
100
AcDbLine
62
8
6
HIDDEN
10
346.3557434484
20
139.0105840071
11
346.3557434484
21
134.0105841263
0
LINE
5
2DA
100
AcDbEntity
8
DEFAULT_2
100
AcDbLine
62
8
6
HIDDEN
10
346.3557434484
20
133.0105840071
11
346.3557434484
21
128.0105837687
0
LINE
5
2DB
100
AcDbEntity
8
DEFAULT_2
100
AcDbLine
62
8
6
HIDDEN
10
346.3557434484
20
121.0105840071
11
346.3557434484
21
119.5105840071
0
LINE
5
2DC
100
AcDbEntity
8
DEFAULT_2
100
AcDbLine
62
8
6
HIDDEN
10
346.3557434484
20
118.5105835302
11
346.3557434484
21
116.7605844839
0
LINE
5
2DD
100
AcDbEntity
8
DEFAULT_2
100
AcDbLine
62
8
6
HIDDEN
10
346.3557434484
20
115.7605840071
11
346.3557434484
21
111.2605840071
0
LINE
5
2DE
100
AcDbEntity
8
DEFAULT_2
100
AcDbLine
62
8
6
HIDDEN
10
346.3719419354
20
139.0105840071
11
346.3719419354
21
138.2605840071
0
LINE
5
2DF
100
AcDbEntity
8
0
100
AcDbLine
62
7
6
CONTINUOUS
10
346.3719419354
20
137.0105839475
11
346.3719419354
21
136.0105840071
0
LINE
5
2E0
100
AcDbEntity
8
DEFAULT_2
100
AcDbLine
62
8
6
HIDDEN
10
346.3719419354
20
134.7605841263
11
346.3719419354
21
134.0105841263
0
LINE
5
2E1
100
AcDbEntity
8
0
100
AcDbLine
62
7
6
CONTINUOUS
10
346.3719419354
20
133.0105840071
11
346.3719419354
21
132.2605840071
0
LINE
5
2E2
100
AcDbEntity
8
DEFAULT_2
100
AcDbLine
62
8
6
HIDDEN
10
346.3719419354
20
131.0105837687
11
346.3719419354
21
130.0105840071
0
LINE
5
2E3
100
AcDbEntity
8
0
100
AcDbLine
62
7
6
CONTINUOUS
10
346.3719419354
20
128.7605837687
11
346.3719419354
21
128.0105837687
0
LINE
5
2E4
100
AcDbEntity
8
0
100
AcDbLine
62
7
6
CONTINUOUS
10
346.3719419354
20
120.2605840071
11
346.3719419354
21
119.5105840071
0
LINE
5
2E5
100
AcDbEntity
8
0
100
AcDbLine
62
7
6
CONTINUOUS
10
346.3719419354
20
113.8855840071
11
346.3719419354
21
113.1355840071
0
LINE
5
2E6
100
AcDbEntity
8
0
100
AcDbLine
62
7
6
CONTINUOUS
10
346.5991957523
20
113.7605830534
11
346.5991957523
21
113.2605849607
0
LINE
5
2E7
100
AcDbEntity
8
0
100
AcDbLine
62
7
6
CONTINUOUS
10
346.8198852394
20
131.7605837687
11
346.8198852394
21
129.2605840071
0
LINE
5
2E8
100
AcDbEntity
8
0
100
AcDbLine
62
7
6
CONTINUOUS
10
346.8982427707
20
131.6355842455
11
346.8982427707
21
129.3855842455
0
LINE
5
2E9
100
AcDbEntity
8
0
100
AcDbLine
62
7
6
CONTINUOUS
10
346.9125928885
20
118.5105835302
11
346.9125928885
21
116.7605844839
0
LINE
5
2EA
100
AcDbEntity
8
DEFAULT_2
100
AcDbLine
62
8
6
HIDDEN
10
346.9493749123
20
113.7605830534
11
346.9493749123
21
113.2605849607
0
LINE
5
2EB
100
AcDbEntity
8
0
100
AcDbLine
62
7
6
CONTINUOUS
10
346.9534513596
20
118.5105835302
11
346.9534513596
21
116.7605844839
0
LINE
5
2EC
100
AcDbEntity
8
0
100
AcDbLine
62
7
6
CONTINUOUS
10
346.9534513596
20
113.7605830534
11
346.9534513596
21
113.2605849607
0
LINE
5
2ED
100
AcDbEntity
8
0
100
AcDbLine
62
7
6
CONTINUOUS
10
346.9557434484
20
116.7605844839
11
346.9557434484
21
115.5105835302
0
LINE
5
2EE
100
AcDbEntity
8
0
100
AcDbLine
62
7
6
CONTINUOUS
10
346.9557434484
20
115.0105840071
11
346.9557434484
21
114.8855844839
0
LINE
5
2EF
100
AcDbEntity
8
0
100
AcDbLine
62
7
6
CONTINUOUS
10
346.9557434484
20
111.5105830534
11
346.9557434484
21
60.0105840071
0
LINE
5
2F0
100
AcDbEntity
8
DEFAULT_2
100
AcDbLine
62
8
6
HIDDEN
10
346.9557434484
20
111.5105830534
11
346.9557434484
21
112.2605830534
0
LINE
5
2F1
100
AcDbEntity
8
0
100
AcDbLine
62
7
6
CONTINUOUS
10
346.9557434484
20
112.2605830534
11
346.9557434484
21
112.7605840071
0
LINE
5
2F2
100
AcDbEntity
8
DEFAULT_2
100
AcDbLine
62
8
6
HIDDEN
10
346.9557434484
20
112.7605840071
11
346.9557434484
21
114.2605840071
0
LINE
5
2F3
100
AcDbEntity
8
DEFAULT_2
100
AcDbLine
62
8
6
HIDDEN
10
346.9557434484
20
114.7605849607
11
346.9557434484
21
114.8855844839
0
LINE
5
2F4
100
AcDbEntity
8
0
100
AcDbLine
62
7
6
CONTINUOUS
10
346.9557434484
20
114.2605840071
11
346.9557434484
21
114.7605849607
0
LINE
5
2F5
100
AcDbEntity
8
DEFAULT_2
100
AcDbLine
62
8
6
HIDDEN
10
346.9557434484
20
115.0105840071
11
346.9557434484
21
115.5105835302
0
LINE
5
2F6
100
AcDbEntity
8
DEFAULT_2
100
AcDbLine
62
8
6
HIDDEN
10
346.9557434484
20
116.7605844839
11
346.9557434484
21
118.5105835302
0
LINE
5
2F7
100
AcDbEntity
8
0
100
AcDbLine
62
7
6
CONTINUOUS
10
346.9557434484
20
118.5105835302
11
346.9557434484
21
186.0105840071
0
LINE
5
2F8
100
AcDbEntity
8
0
100
AcDbLine
62
7
6
CONTINUOUS
10
349.5008845095
20
230.6105840071
11
349.5008845095
21
213.0105840071
0
LINE
5
2F9
100
AcDbEntity
8
0
100
AcDbLine
62
7
6
CONTINUOUS
10
358.9557434484
20
199.2105840071
11
358.9557434484
21
224.6105840071
0
LINE
5
2FA
100
AcDbEntity
8
0
100
AcDbLine
62
7
6
CONTINUOUS
10
362.9850526219
20
193.2475995421
11
359.1412126731
21
215.0470991612
0
LINE
5
2FB
100
AcDbEntity
8
0
100
AcDbLine
62
7
6
CONTINUOUS
10
353.6198450635
20
199.2105840071
11
324.2916418332
21
199.2105840071
0
LINE
5
2FC
100
AcDbEntity
8
DEFAULT_2
100
AcDbLine
62
8
6
HIDDEN
10
324.2916418332
20
199.2105840071
11
322.6062362718
21
199.2105840071
0
LINE
5
2FD
100
AcDbEntity
8
DEFAULT_2
100
AcDbLine
62
8
6
HIDDEN
10
353.6198450635
20
199.2105840071
11
357.4803743233
21
199.2105840071
0
LINE
5
2FE
100
AcDbEntity
8
0
100
AcDbLine
62
7
6
CONTINUOUS
10
343.4357434484
20
214.6105840071
11
334.4757434484
21
214.6105840071
0
LINE
5
2FF
100
AcDbEntity
8
0
100
AcDbLine
62
7
6
CONTINUOUS
10
358.9557434484
20
224.6105840071
11
353.9211456613
21
230.6105840071
0
LINE
5
300
100
AcDbEntity
8
DEFAULT_1
100
AcDbLine
62
2
6
CENTER
10
331.4757434484
20
219.4105840071
11
346.4357434484
21
219.4105840071
0
LINE
5
301
100
AcDbEntity
8
0
100
AcDbLine
62
7
6
CONTINUOUS
10
343.4357434484
20
224.2105840071
11
334.4757434484
21
224.2105840071
0
LINE
5
302
100
AcDbEntity
8
0
100
AcDbLine
62
7
6
CONTINUOUS
10
323.9903412354
20
230.6105840071
11
328.4106023872
21
230.6105840071
0
LINE
5
303
100
AcDbEntity
8
0
100
AcDbLine
62
7
6
CONTINUOUS
10
349.5008845095
20
230.6105840071
11
353.9211456613
21
230.6105840071
0
ARC
5
304
100
AcDbEntity
8
DEFAULT_2
100
AcDbCircle
62
8
6
HIDDEN
10
201.4152971615
20
148.0105840071
40
30.0000000000
100
AcDbArc
50
80.4018539700
51
99.5981460300
0
ARC
5
305
100
AcDbEntity
8
DEFAULT_2
100
AcDbCircle
62
8
6
HIDDEN
10
201.4152971615
20
148.0105840071
40
46.0000000000
100
AcDbArc
50
83.7594081154
51
96.2405918846
0
ARC
5
306
100
AcDbEntity
8
0
100
AcDbCircle
62
7
6
CONTINUOUS
10
201.4152971615
20
173.0105840071
40
5.0000000000
100
AcDbArc
50
180.0000000000
51
201.9913472955
0
ARC
5
307
100
AcDbEntity
8
0
100
AcDbCircle
62
7
6
CONTINUOUS
10
201.4152971615
20
173.0105840071
40
5.0000000000
100
AcDbArc
50
338.0086527045
51
360.0000000000
0
ARC
5
308
100
AcDbEntity
8
0
100
AcDbCircle
62
7
6
CONTINUOUS
10
211.0152971615
20
207.0393027150
40
1.6000000000
100
AcDbArc
50
150.0000000000
51
180.0000000000
0
ARC
5
309
100
AcDbEntity
8
0
100
AcDbCircle
62
7
6
CONTINUOUS
10
195.4152971615
20
201.2105840071
40
2.0000000000
100
AcDbArc
50
180.0000000000
51
270.0000000000
0
ARC
5
30A
100
AcDbEntity
8
0
100
AcDbCircle
62
7
6
CONTINUOUS
10
191.8152971615
20
207.0393027150
40
1.6000000000
100
AcDbArc
50
0.0000000000
51
30.0000000000
0
ARC
5
30B
100
AcDbEntity
8
0
100
AcDbCircle
62
7
6
CONTINUOUS
10
201.4152971615
20
219.4105840071
40
11.2000000000
100
AcDbArc
50
0.0000000000
51
180.0000000000
0
ARC
5
30C
100
AcDbEntity
8
0
100
AcDbCircle
62
7
6
CONTINUOUS
10
207.4152971615
20
201.2105840071
40
2.0000000000
100
AcDbArc
50
270.0000000000
51
360.0000000000
0
CIRCLE
5
30D
100
AcDbEntity
8
0
100
AcDbCircle
62
7
6
CONTINUOUS
10
201.4152971615
20
219.4105840071
40
4.8000000000
0
ARC
5
30E
100
AcDbEntity
8
0
100
AcDbCircle
62
7
6
CONTINUOUS
10
201.4152971615
20
148.0105840071
40
30.0000000000
100
AcDbArc
50
0.0000000000
51
80.4018539700
0
ARC
5
30F
100
AcDbEntity
8
0
100
AcDbCircle
62
7
6
CONTINUOUS
10
201.4152971615
20
148.0105840071
40
30.0000000000
100
AcDbArc
50
99.5981460300
51
180.0000000000
0
ARC
5
310
100
AcDbEntity
8
0
100
AcDbCircle
62
7
6
CONTINUOUS
10
201.4152971615
20
148.0105840071
40
46.0000000000
100
AcDbArc
50
0.0000000000
51
83.7594081154
0
ARC
5
311
100
AcDbEntity
8
0
100
AcDbCircle
62
7
6
CONTINUOUS
10
201.4152971615
20
148.0105840071
40
46.0000000000
100
AcDbArc
50
96.2405918846
51
180.0000000000
0
ARC
5
312
100
AcDbEntity
8
0
100
AcDbCircle
62
7
6
CONTINUOUS
10
201.4152971615
20
98.0105840071
40
30.0000000000
100
AcDbArc
50
180.0000000000
51
360.0000000000
0
ARC
5
313
100
AcDbEntity
8
0
100
AcDbCircle
62
7
6
CONTINUOUS
10
201.4152971615
20
98.0105840071
40
46.0000000000
100
AcDbArc
50
180.0000000000
51
360.0000000000
0
ARC
5
314
100
AcDbEntity
8
DEFAULT_2
100
AcDbCircle
62
8
6
HIDDEN
10
338.9557434484
20
186.0105840071
40
8.0000000000
100
AcDbArc
50
180.0000000000
51
360.0000000000
0
ARC
5
315
100
AcDbEntity
8
DEFAULT_2
100
AcDbCircle
62
8
6
HIDDEN
10
338.9557434484
20
60.0105840071
40
8.0000000000
100
AcDbArc
50
0.0000000000
51
180.0000000000
0
ARC
5
316
100
AcDbEntity
8
DEFAULT_2
100
AcDbCircle
62
8
6
HIDDEN
10
338.9557434484
20
189.0105840071
40
24.4000000000
100
AcDbArc
50
250.8514430826
51
289.1485306379
0
ARC
5
317
100
AcDbEntity
8
DEFAULT_2
100
AcDbCircle
62
8
6
HIDDEN
10
338.9557434484
20
189.0105840071
40
11.0000000000
100
AcDbArc
50
223.3025477871
51
316.6974520809
0
ARC
5
318
100
AcDbEntity
8
0
100
AcDbCircle
62
7
6
CONTINUOUS
10
338.9557434484
20
186.0105840071
40
8.0000000000
100
AcDbArc
50
0.0000000000
51
180.0000000000
0
ARC
5
319
100
AcDbEntity
8
0
100
AcDbCircle
62
7
6
CONTINUOUS
10
338.9557434484
20
60.0105840071
40
8.0000000000
100
AcDbArc
50
180.0000000000
51
360.0000000000
0
ARC
5
31A
100
AcDbEntity
8
0
100
AcDbCircle
62
7
6
CONTINUOUS
10
338.9557434484
20
189.0105840071
40
24.4000000000
100
AcDbArc
50
289.1485306379
51
10.0000000000
0
ARC
5
31B
100
AcDbEntity
8
0
100
AcDbCircle
62
7
6
CONTINUOUS
10
338.9557434484
20
257.4105840071
40
28.8000000000
100
AcDbArc
50
278.9490180653
51
291.4784178411
0
ARC
5
31C
100
AcDbEntity
8
0
100
AcDbCircle
62
7
6
CONTINUOUS
10
338.9557434484
20
257.4105840071
40
28.8000000000
100
AcDbArc
50
248.5215821589
51
261.0509819347
0
ARC
5
31D
100
AcDbEntity
8
0
100
AcDbCircle
62
7
6
CONTINUOUS
10
338.9557434484
20
189.0105840071
40
11.0000000000
100
AcDbArc
50
316.6974520809
51
67.9283190651
0
CIRCLE
5
31E
100
AcDbEntity
8
0
100
AcDbCircle
62
7
6
CONTINUOUS
10
353.1157434484
20
219.4105840071
40
2.0000000000
0
ARC
5
31F
100
AcDbEntity
8
0
100
AcDbCircle
62
7
6
CONTINUOUS
10
338.9557434484
20
208.6905840071
40
4.4800000000
100
AcDbArc
50
180.0000000000
51
360.0000000000
0
ARC
5
320
100
AcDbEntity
8
0
100
AcDbCircle
62
7
6
CONTINUOUS
10
338.9557434484
20
189.0105840071
40
24.4000000000
100
AcDbArc
50
170.0000000000
51
250.8514430826
0
ARC
5
321
100
AcDbEntity
8
0
100
AcDbCircle
62
7
6
CONTINUOUS
10
338.9557434484
20
189.0105840071
40
11.0000000000
100
AcDbArc
50
112.0716240949
51
223.3025477871
0
SPLINE
5
322
100
AcDbEntity
8
DEFAULT_2
100
AcDbSpline
62
8
6
HIDDEN
70
0
71
3
72
16
73
12
74
10
42
0.0000001000
43
0.0000001000
44
0.0000000001
40
0.0000000000
40
0.0000000000
40
0.0000000000
40
0.0000000000
40
0.1408977104
40
0.2427293822
40
0.3208685091
40
0.3962499384
40
0.4824138548
40
0.5843763791
40
0.7038173916
40
0.8422036720
40
1.0000000000
40
1.0000000000
40
1.0000000000
40
1.0000000000
10
205.1648906644
20
199.3061014169
30
0.0000000000
10
205.1579979525
20
199.3366823707
30
0.0000000000
10
205.1424606932
20
199.3886993823
30
0.0000000000
10
205.1022585035
20
199.4503232450
30
0.0000000000
10
205.0487134877
20
199.4769749468
30
0.0000000000
10
204.9938017126
20
199.4720661381
30
0.0000000000
10
204.9397035052
20
199.4482888576
30
0.0000000000
10
204.8831652456
20
199.4092546953
30
0.0000000000
10
204.8233174449
20
199.3559042344
30
0.0000000000
10
204.7597141202
20
199.2886716910
30
0.0000000000
10
204.7174804967
20
199.2380398535
30
0.0000000000
10
204.6956004059
20
199.2105840071
30
0.0000000000
11
205.1648906644
21
199.3061014169
31
0.0000000000
11
205.1349480347
21
199.3952517215
31
0.0000000000
11
205.0944270575
21
199.4498214082
31
0.0000000000
11
205.0473632834
21
199.4722972147
31
0.0000000000
11
204.9971091522
21
199.4698333909
31
0.0000000000
11
204.9437944994
21
199.4482669296
31
0.0000000000
11
204.8871991488
21
199.4104694826
31
0.0000000000
11
204.8272052886
21
199.3579675625
31
0.0000000000
11
204.7633593590
21
199.2912176301
31
0.0000000000
11
204.6956004059
21
199.2105840071
31
0.0000000000
0
SPLINE
5
323
100
AcDbEntity
8
DEFAULT_2
100
AcDbSpline
62
8
6
HIDDEN
70
0
71
3
72
16
73
12
74
10
42
0.0000001000
43
0.0000001000
44
0.0000000001
40
0.0000000000
40
0.0000000000
40
0.0000000000
40
0.0000000000
40
0.1408977104
40
0.2427293822
40
0.3208685091
40
0.3962499384
40
0.4824138548
40
0.5843763791
40
0.7038173916
40
0.8422036720
40
1.0000000000
40
1.0000000000
40
1.0000000000
40
1.0000000000
10
197.6657036587
20
199.3061014169
30
0.0000000000
10
197.6725963706
20
199.3366823707
30
0.0000000000
10
197.6881336299
20
199.3886993823
30
0.0000000000
10
197.7283358196
20
199.4503232450
30
0.0000000000
10
197.7818808354
20
199.4769749468
30
0.0000000000
10
197.8367926105
20
199.4720661381
30
0.0000000000
10
197.8908908179
20
199.4482888576
30
0.0000000000
10
197.9474290775
20
199.4092546953
30
0.0000000000
10
198.0072768782
20
199.3559042344
30
0.0000000000
10
198.0708802029
20
199.2886716910
30
0.0000000000
10
198.1131138264
20
199.2380398535
30
0.0000000000
10
198.1349939172
20
199.2105840071
30
0.0000000000
11
197.6657036587
21
199.3061014169
31
0.0000000000
11
197.6956462884
21
199.3952517215
31
0.0000000000
11
197.7361672656
21
199.4498214082
31
0.0000000000
11
197.7832310397
21
199.4722972147
31
0.0000000000
11
197.8334851709
21
199.4698333909
31
0.0000000000
11
197.8867998237
21
199.4482669296
31
0.0000000000
11
197.9433951743
21
199.4104694826
31
0.0000000000
11
198.0033890345
21
199.3579675625
31
0.0000000000
11
198.0672349641
21
199.2912176301
31
0.0000000000
11
198.1349939172
21
199.2105840071
31
0.0000000000
0
SPLINE
5
324
100
AcDbEntity
8
0
100
AcDbSpline
62
7
6
CONTINUOUS
70
0
71
3
72
8
73
4
74
2
42
0.0000001000
43
0.0000001000
44
0.0000000001
40
0.0000000000
40
0.0000000000
40
0.0000000000
40
0.0000000000
40
1.0000000000
40
1.0000000000
40
1.0000000000
40
1.0000000000
10
204.6956004059
20
199.2105840071
30
0.0000000000
10
204.7081904223
20
199.2263823672
30
0.0000000000
10
204.7209859596
20
199.2420237272
30
0.0000000000
10
204.7340363566
20
199.2574492760
30
0.0000000000
11
204.6956004059
21
199.2105840071
31
0.0000000000
11
204.7340363566
21
199.2574492760
31
0.0000000000
0
SPLINE
5
325
100
AcDbEntity
8
0
100
AcDbSpline
62
7
6
CONTINUOUS
70
0
71
3
72
11
73
7
74
5
42
0.0000001000
43
0.0000001000
44
0.0000000001
40
0.0000000000
40
0.0000000000
40
0.0000000000
40
0.0000000000
40
0.2017425447
40
0.5608891209
40
0.8656582296
40
1.0000000000
40
1.0000000000
40
1.0000000000
40
1.0000000000
10
204.7340363566
20
199.2574492760
30
0.0000000000
10
204.7461770918
20
199.2717996060
30
0.0000000000
10
204.7805442640
20
199.3111774401
30
0.0000000000
10
204.8366906526
20
199.3691588957
30
0.0000000000
10
204.8937808267
20
199.4171927666
30
0.0000000000
10
204.9281674132
20
199.4394539829
30
0.0000000000
10
204.9390613572
20
199.4456377515
30
0.0000000000
11
204.7340363566
21
199.2574492760
31
0.0000000000
11
204.7711599915
21
199.2998925936
31
0.0000000000
11
204.8415112284
21
199.3714787600
31
0.0000000000
11
204.9074060364
21
199.4254432487
31
0.0000000000
11
204.9390613572
21
199.4456377515
31
0.0000000000
0
SPLINE
5
326
100
AcDbEntity
8
0
100
AcDbSpline
62
7
6
CONTINUOUS
70
0
71
3
72
12
73
8
74
6
42
0.0000001000
43
0.0000001000
44
0.0000000001
40
0.0000000000
40
0.0000000000
40
0.0000000000
40
0.0000000000
40
0.1046230607
40
0.2898307566
40
0.4670156556
40
0.6942583823
40
1.0000000000
40
1.0000000000
40
1.0000000000
40
1.0000000000
10
204.9390613572
20
199.4456377515
30
0.0000000000
10
204.9489827790
20
199.4512694837
30
0.0000000000
10
204.9773261228
20
199.4654304325
30
0.0000000000
10
205.0277131401
20
199.4796026416
30
0.0000000000
10
205.0934595527
20
199.4604158081
30
0.0000000000
10
205.1409522159
20
199.3943632006
30
0.0000000000
10
205.1575672939
20
199.3385930772
30
0.0000000000
10
205.1648906644
20
199.3061014169
30
0.0000000000
11
204.9390613572
21
199.4456377515
31
0.0000000000
11
204.9698269283
21
199.4607939390
31
0.0000000000
11
205.0289206239
21
199.4738936488
31
0.0000000000
11
205.0844135629
21
199.4573506346
31
0.0000000000
11
205.1322435841
21
199.4005377758
31
0.0000000000
11
205.1648906644
21
199.3061014169
31
0.0000000000
0
SPLINE
5
327
100
AcDbEntity
8
0
100
AcDbSpline
62
7
6
CONTINUOUS
70
0
71
3
72
8
73
4
74
2
42
0.0000001000
43
0.0000001000
44
0.0000000001
40
0.0000000000
40
0.0000000000
40
0.0000000000
40
0.0000000000
40
1.0000000000
40
1.0000000000
40
1.0000000000
40
1.0000000000
10
198.1349939172
20
199.2105840071
30
0.0000000000
10
198.1224039008
20
199.2263823672
30
0.0000000000
10
198.1096083634
20
199.2420237272
30
0.0000000000
10
198.0965579665
20
199.2574492760
30
0.0000000000
11
198.1349939172
21
199.2105840071
31
0.0000000000
11
198.0965579665
21
199.2574492760
31
0.0000000000
0
SPLINE
5
328
100
AcDbEntity
8
0
100
AcDbSpline
62
7
6
CONTINUOUS
70
0
71
3
72
11
73
7
74
5
42
0.0000001000
43
0.0000001000
44
0.0000000001
40
0.0000000000
40
0.0000000000
40
0.0000000000
40
0.0000000000
40
0.2017425447
40
0.5608891209
40
0.8656582296
40
1.0000000000
40
1.0000000000
40
1.0000000000
40
1.0000000000
10
198.0965579665
20
199.2574492760
30
0.0000000000
10
198.0844172313
20
199.2717996060
30
0.0000000000
10
198.0500500591
20
199.3111774401
30
0.0000000000
10
197.9939036705
20
199.3691588957
30
0.0000000000
10
197.9368134964
20
199.4171927666
30
0.0000000000
10
197.9024269099
20
199.4394539829
30
0.0000000000
10
197.8915329659
20
199.4456377515
30
0.0000000000
11
198.0965579665
21
199.2574492760
31
0.0000000000
11
198.0594343316
21
199.2998925936
31
0.0000000000
11
197.9890830947
21
199.3714787600
31
0.0000000000
11
197.9231882867
21
199.4254432487
31
0.0000000000
11
197.8915329659
21
199.4456377515
31
0.0000000000
0
SPLINE
5
329
100
AcDbEntity
8
0
100
AcDbSpline
62
7
6
CONTINUOUS
70
0
71
3
72
12
73
8
74
6
42
0.0000001000
43
0.0000001000
44
0.0000000001
40
0.0000000000
40
0.0000000000
40
0.0000000000
40
0.0000000000
40
0.1046230607
40
0.2898307566
40
0.4670156556
40
0.6942583823
40
1.0000000000
40
1.0000000000
40
1.0000000000
40
1.0000000000
10
197.8915329659
20
199.4456377515
30
0.0000000000
10
197.8816115441
20
199.4512694837
30
0.0000000000
10
197.8532682003
20
199.4654304325
30
0.0000000000
10
197.8028811830
20
199.4796026416
30
0.0000000000
10
197.7371347704
20
199.4604158081
30
0.0000000000
10
197.6896421072
20
199.3943632006
30
0.0000000000
10
197.6730270292
20
199.3385930772
30
0.0000000000
10
197.6657036587
20
199.3061014169
30
0.0000000000
11
197.8915329659
21
199.4456377515
31
0.0000000000
11
197.8607673948
21
199.4607939390
31
0.0000000000
11
197.8016736992
21
199.4738936488
31
0.0000000000
11
197.7461807602
21
199.4573506346
31
0.0000000000
11
197.6983507390
21
199.4005377758
31
0.0000000000
11
197.6657036587
21
199.3061014169
31
0.0000000000
0
SPLINE
5
32A
100
AcDbEntity
8
0
100
AcDbSpline
62
7
6
CONTINUOUS
70
0
71
3
72
9
73
5
74
3
42
0.0000001000
43
0.0000001000
44
0.0000000001
40
0.0000000000
40
0.0000000000
40
0.0000000000
40
0.0000000000
40
0.5067537968
40
1.0000000000
40
1.0000000000
40
1.0000000000
40
1.0000000000
10
204.7964950080
20
199.4680214229
30
0.0000000000
10
204.7719189095
20
199.4254543716
30
0.0000000000
10
204.7250752771
20
199.3404890476
30
0.0000000000
10
204.6815876189
20
199.2537598450
30
0.0000000000
10
204.6609791826
20
199.2105840071
30
0.0000000000
11
204.7964950080
21
199.4680214229
31
0.0000000000
11
204.7253043446
21
199.3388884075
31
0.0000000000
11
204.6609791826
21
199.2105840071
31
0.0000000000
0
SPLINE
5
32B
100
AcDbEntity
8
0
100
AcDbSpline
62
7
6
CONTINUOUS
70
0
71
3
72
9
73
5
74
3
42
0.0000001000
43
0.0000001000
44
0.0000000001
40
0.0000000000
40
0.0000000000
40
0.0000000000
40
0.0000000000
40
0.5067537968
40
1.0000000000
40
1.0000000000
40
1.0000000000
40
1.0000000000
10
198.0340993151
20
199.4680214229
30
0.0000000000
10
198.0586754136
20
199.4254543716
30
0.0000000000
10
198.1055190460
20
199.3404890476
30
0.0000000000
10
198.1490067041
20
199.2537598450
30
0.0000000000
10
198.1696151405
20
199.2105840071
30
0.0000000000
11
198.0340993151
21
199.4680214229
31
0.0000000000
11
198.1052899785
21
199.3388884075
31
0.0000000000
11
198.1696151405
21
199.2105840071
31
0.0000000000
0
SPLINE
5
32C
100
AcDbEntity
8
DEFAULT_2
100
AcDbSpline
62
8
6
HIDDEN
70
0
71
3
72
10
73
6
74
4
42
0.0000001000
43
0.0000001000
44
0.0000000001
40
0.0000000000
40
0.0000000000
40
0.0000000000
40
0.0000000000
40
0.4518047857
40
0.8274537308
40
1.0000000000
40
1.0000000000
40
1.0000000000
40
1.0000000000
10
346.3719419354
20
139.0105840071
30
0.0000000000
10
346.5103012749
20
138.8965728566
30
0.0000000000
10
346.7462380642
20
138.6627926364
30
0.0000000000
10
346.9306266926
20
138.2994066063
30
0.0000000000
10
346.9548255816
20
138.0797284184
30
0.0000000000
10
346.9548255816
20
138.0105839773
30
0.0000000000
11
346.3719419354
21
139.0105840071
31
0.0000000000
11
346.7430991130
21
138.6213296010
31
0.0000000000
11
346.9319755389
21
138.2159891759
31
0.0000000000
11
346.9548255816
21
138.0105839773
31
0.0000000000
0
SPLINE
5
32D
100
AcDbEntity
8
DEFAULT_2
100
AcDbSpline
62
8
6
HIDDEN
70
0
71
3
72
10
73
6
74
4
42
0.0000001000
43
0.0000001000
44
0.0000000001
40
0.0000000000
40
0.0000000000
40
0.0000000000
40
0.0000000000
40
0.5004464809
40
0.9281393751
40
1.0000000000
40
1.0000000000
40
1.0000000000
40
1.0000000000
10
346.5585769999
20
130.5105842455
30
0.0000000000
10
346.6676672050
20
130.4018394261
30
0.0000000000
10
346.8508368172
20
130.1763946344
30
0.0000000000
10
346.9500396480
20
129.8755200164
30
0.0000000000
10
346.9556258250
20
129.7206224226
30
0.0000000000
10
346.9555536423
20
129.6983213614
30
0.0000000000
11
346.5585769999
21
130.5105842455
31
0.0000000000
11
346.8387106869
21
130.1430790145
31
0.0000000000
11
346.9531088060
21
129.7650912928
31
0.0000000000
11
346.9555536423
21
129.6983213614
31
0.0000000000
0
SPLINE
5
32E
100
AcDbEntity
8
DEFAULT_2
100
AcDbSpline
62
8
6
HIDDEN
70
0
71
3
72
10
73
6
74
4
42
0.0000001000
43
0.0000001000
44
0.0000000001
40
0.0000000000
40
0.0000000000
40
0.0000000000
40
0.0000000000
40
0.0718606249
40
0.4995535191
40
1.0000000000
40
1.0000000000
40
1.0000000000
40
1.0000000000
10
346.9555536423
20
131.3228471296
30
0.0000000000
10
346.9556258250
20
131.3005460684
30
0.0000000000
10
346.9500396480
20
131.1456484746
30
0.0000000000
10
346.8508368172
20
130.8447738566
30
0.0000000000
10
346.6676672050
20
130.6193290649
30
0.0000000000
10
346.5585769999
20
130.5105842455
30
0.0000000000
11
346.9555536423
21
131.3228471296
31
0.0000000000
11
346.9531088060
21
131.2560771982
31
0.0000000000
11
346.8387106869
21
130.8780894765
31
0.0000000000
11
346.5585769999
21
130.5105842455
31
0.0000000000
0
SPLINE
5
32F
100
AcDbEntity
8
DEFAULT_2
100
AcDbSpline
62
8
6
HIDDEN
70
0
71
3
72
10
73
6
74
4
42
0.0000001000
43
0.0000001000
44
0.0000000001
40
0.0000000000
40
0.0000000000
40
0.0000000000
40
0.0000000000
40
0.1725462647
40
0.5481952063
40
1.0000000000
40
1.0000000000
40
1.0000000000
40
1.0000000000
10
346.9548255813
20
135.0105840667
30
0.0000000000
10
346.9548255813
20
134.9414396316
30
0.0000000000
10
346.9306266923
20
134.7217614607
30
0.0000000000
10
346.7462380599
20
134.3583754604
30
0.0000000000
10
346.5103012734
20
134.1245952654
30
0.0000000000
10
346.3719419354
20
134.0105841263
30
0.0000000000
11
346.9548255813
21
135.0105840667
31
0.0000000000
11
346.9319755389
21
134.8051788865
31
0.0000000000
11
346.7430991132
21
134.3998384978
31
0.0000000000
11
346.3719419354
21
134.0105841263
31
0.0000000000
0
SPLINE
5
330
100
AcDbEntity
8
DEFAULT_2
100
AcDbSpline
62
8
6
HIDDEN
70
0
71
3
72
9
73
5
74
3
42
0.0000001000
43
0.0000001000
44
0.0000000001
40
0.0000000000
40
0.0000000000
40
0.0000000000
40
0.0000000000
40
0.4991314232
40
1.0000000000
40
1.0000000000
40
1.0000000000
40
1.0000000000
10
346.5991957249
20
113.7605830556
30
0.0000000000
10
346.6057572513
20
113.8437569049
30
0.0000000000
10
346.6187101163
20
114.0104093607
30
0.0000000000
10
346.6312789049
20
114.1770912217
30
0.0000000000
10
346.6374785038
20
114.2605840071
30
0.0000000000
11
346.5991957249
21
113.7605830556
31
0.0000000000
11
346.6185919294
21
114.0101271856
31
0.0000000000
11
346.6374785038
21
114.2605840071
31
0.0000000000
0
SPLINE
5
331
100
AcDbEntity
8
DEFAULT_2
100
AcDbSpline
62
8
6
HIDDEN
70
0
71
3
72
9
73
5
74
3
42
0.0000001000
43
0.0000001000
44
0.0000000001
40
0.0000000000
40
0.0000000000
40
0.0000000000
40
0.0000000000
40
0.4981821154
40
1.0000000000
40
1.0000000000
40
1.0000000000
40
1.0000000000
10
346.6374785038
20
114.2605840071
30
0.0000000000
10
346.6558985375
20
114.3432742986
30
0.0000000000
10
346.6912491723
20
114.5096241649
30
0.0000000000
10
346.7233512904
20
114.6766313315
30
0.0000000000
10
346.7386453616
20
114.7605849607
30
0.0000000000
11
346.6374785038
21
114.2605840071
31
0.0000000000
11
346.6903144111
21
114.5091824875
31
0.0000000000
11
346.7386453616
21
114.7605849607
31
0.0000000000
0
SPLINE
5
332
100
AcDbEntity
8
DEFAULT_2
100
AcDbSpline
62
8
6
HIDDEN
70
0
71
3
72
9
73
5
74
3
42
0.0000001000
43
0.0000001000
44
0.0000000001
40
0.0000000000
40
0.0000000000
40
0.0000000000
40
0.0000000000
40
0.5011812427
40
1.0000000000
40
1.0000000000
40
1.0000000000
40
1.0000000000
10
346.7386453616
20
114.7605849607
30
0.0000000000
10
346.7536812316
20
114.8018528298
30
0.0000000000
10
346.7822505584
20
114.8847230171
30
0.0000000000
10
346.8078655901
20
114.9685542861
30
0.0000000000
10
346.8198852728
20
115.0105840071
30
0.0000000000
11
346.7386453616
21
114.7605849607
31
0.0000000000
11
346.7815759854
21
114.8851602037
31
0.0000000000
11
346.8198852728
21
115.0105840071
31
0.0000000000
0
SPLINE
5
333
100
AcDbEntity
8
DEFAULT_2
100
AcDbSpline
62
8
6
HIDDEN
70
0
71
3
72
9
73
5
74
3
42
0.0000001000
43
0.0000001000
44
0.0000000001
40
0.0000000000
40
0.0000000000
40
0.0000000000
40
0.0000000000
40
0.5011812427
40
1.0000000000
40
1.0000000000
40
1.0000000000
40
1.0000000000
10
346.7386453616
20
112.2605830534
30
0.0000000000
10
346.7536812316
20
112.2193151844
30
0.0000000000
10
346.7822505584
20
112.1364449971
30
0.0000000000
10
346.8078655901
20
112.0526137281
30
0.0000000000
10
346.8198852728
20
112.0105840071
30
0.0000000000
11
346.7386453616
21
112.2605830534
31
0.0000000000
11
346.7815759854
21
112.1360078104
31
0.0000000000
11
346.8198852728
21
112.0105840071
31
0.0000000000
0
SPLINE
5
334
100
AcDbEntity
8
DEFAULT_2
100
AcDbSpline
62
8
6
HIDDEN
70
0
71
3
72
9
73
5
74
3
42
0.0000001000
43
0.0000001000
44
0.0000000001
40
0.0000000000
40
0.0000000000
40
0.0000000000
40
0.0000000000
40
0.4981821154
40
1.0000000000
40
1.0000000000
40
1.0000000000
40
1.0000000000
10
346.6374785038
20
112.7605840071
30
0.0000000000
10
346.6558985375
20
112.6778937156
30
0.0000000000
10
346.6912491723
20
112.5115438493
30
0.0000000000
10
346.7233512904
20
112.3445366827
30
0.0000000000
10
346.7386453616
20
112.2605830534
30
0.0000000000
11
346.6374785038
21
112.7605840071
31
0.0000000000
11
346.6903144111
21
112.5119855267
31
0.0000000000
11
346.7386453616
21
112.2605830534
31
0.0000000000
0
SPLINE
5
335
100
AcDbEntity
8
DEFAULT_2
100
AcDbSpline
62
8
6
HIDDEN
70
0
71
3
72
9
73
5
74
3
42
0.0000001000
43
0.0000001000
44
0.0000000001
40
0.0000000000
40
0.0000000000
40
0.0000000000
40
0.0000000000
40
0.4991314232
40
1.0000000000
40
1.0000000000
40
1.0000000000
40
1.0000000000
10
346.5991957249
20
113.2605849586
30
0.0000000000
10
346.6057572513
20
113.1774111093
30
0.0000000000
10
346.6187101163
20
113.0107586534
30
0.0000000000
10
346.6312789049
20
112.8440767924
30
0.0000000000
10
346.6374785038
20
112.7605840071
30
0.0000000000
11
346.5991957249
21
113.2605849586
31
0.0000000000
11
346.6185919294
21
113.0110408286
31
0.0000000000
11
346.6374785038
21
112.7605840071
31
0.0000000000
0
SPLINE
5
336
100
AcDbEntity
8
DEFAULT_2
100
AcDbSpline
62
8
6
HIDDEN
70
0
71
3
72
9
73
5
74
3
42
0.0000001000
43
0.0000001000
44
0.0000000001
40
0.0000000000
40
0.0000000000
40
0.0000000000
40
0.0000000000
40
0.4999919917
40
1.0000000000
40
1.0000000000
40
1.0000000000
40
1.0000000000
10
346.9534514048
20
115.0105840071
30
0.0000000000
10
346.9539608026
20
114.9689198105
30
0.0000000000
10
346.9548096848
20
114.8855879187
30
0.0000000000
10
346.9553190315
20
114.8022532601
30
0.0000000000
10
346.9554888043
20
114.7605849607
30
0.0000000000
11
346.9534514048
21
115.0105840071
31
0.0000000000
11
346.9547247901
21
114.8855885617
31
0.0000000000
11
346.9554888043
21
114.7605849607
31
0.0000000000
0
SPLINE
5
337
100
AcDbEntity
8
DEFAULT_2
100
AcDbSpline
62
8
6
HIDDEN
70
0
71
3
72
9
73
5
74
3
42
0.0000001000
43
0.0000001000
44
0.0000000001
40
0.0000000000
40
0.0000000000
40
0.0000000000
40
0.0000000000
40
0.4998537193
40
1.0000000000
40
1.0000000000
40
1.0000000000
40
1.0000000000
10
346.9350909466
20
115.3855840071
30
0.0000000000
10
346.9396784503
20
115.3231911863
30
0.0000000000
10
346.9473297087
20
115.1982521004
30
0.0000000000
10
346.9519211459
20
115.0731631620
30
0.0000000000
10
346.9534513596
20
115.0105840071
30
0.0000000000
11
346.9350909466
21
115.3855840071
31
0.0000000000
11
346.9465629624
21
115.1982512116
31
0.0000000000
11
346.9534513596
21
115.0105840071
31
0.0000000000
0
SPLINE
5
338
100
AcDbEntity
8
DEFAULT_2
100
AcDbSpline
62
8
6
HIDDEN
70
0
71
3
72
9
73
5
74
3
42
0.0000001000
43
0.0000001000
44
0.0000000001
40
0.0000000000
40
0.0000000000
40
0.0000000000
40
0.0000000000
40
0.5023809098
40
1.0000000000
40
1.0000000000
40
1.0000000000
40
1.0000000000
10
346.8818108477
20
115.6355844839
30
0.0000000000
10
346.8933441777
20
115.5943398247
30
0.0000000000
10
346.9137788375
20
115.5115131470
30
0.0000000000
10
346.9289192373
20
115.4275535746
30
0.0000000000
10
346.9350909466
20
115.3855840071
30
0.0000000000
11
346.8818108477
21
115.6355844839
31
0.0000000000
11
346.9125399435
21
115.5108328139
31
0.0000000000
11
346.9350909466
21
115.3855840071
31
0.0000000000
0
SPLINE
5
339
100
AcDbEntity
8
DEFAULT_2
100
AcDbSpline
62
8
6
HIDDEN
70
0
71
3
72
9
73
5
74
3
42
0.0000001000
43
0.0000001000
44
0.0000000001
40
0.0000000000
40
0.0000000000
40
0.0000000000
40
0.0000000000
40
0.5023809484
40
1.0000000000
40
1.0000000000
40
1.0000000000
40
1.0000000000
10
346.8818108477
20
111.3855849607
30
0.0000000000
10
346.8933441767
20
111.4268293804
30
0.0000000000
10
346.9137788356
20
111.5096555786
30
0.0000000000
10
346.9289192369
20
111.5936146774
30
0.0000000000
10
346.9350909466
20
111.6355840071
30
0.0000000000
11
346.8818108477
21
111.3855849607
31
0.0000000000
11
346.9125399436
21
111.5103359174
31
0.0000000000
11
346.9350909466
21
111.6355840071
31
0.0000000000
0
SPLINE
5
33A
100
AcDbEntity
8
DEFAULT_2
100
AcDbSpline
62
8
6
HIDDEN
70
0
71
3
72
9
73
5
74
3
42
0.0000001000
43
0.0000001000
44
0.0000000001
40
0.0000000000
40
0.0000000000
40
0.0000000000
40
0.0000000000
40
0.4998537193
40
1.0000000000
40
1.0000000000
40
1.0000000000
40
1.0000000000
10
346.9350909466
20
111.6355840071
30
0.0000000000
10
346.9396784503
20
111.6979768278
30
0.0000000000
10
346.9473297087
20
111.8229159137
30
0.0000000000
10
346.9519211459
20
111.9480048522
30
0.0000000000
10
346.9534513596
20
112.0105840071
30
0.0000000000
11
346.9350909466
21
111.6355840071
31
0.0000000000
11
346.9465629624
21
111.8229168026
31
0.0000000000
11
346.9534513596
21
112.0105840071
31
0.0000000000
0
SPLINE
5
33B
100
AcDbEntity
8
DEFAULT_2
100
AcDbSpline
62
8
6
HIDDEN
70
0
71
3
72
9
73
5
74
3
42
0.0000001000
43
0.0000001000
44
0.0000000001
40
0.0000000000
40
0.0000000000
40
0.0000000000
40
0.0000000000
40
0.4999919917
40
1.0000000000
40
1.0000000000
40
1.0000000000
40
1.0000000000
10
346.9534514048
20
112.0105840071
30
0.0000000000
10
346.9539608026
20
112.0522482037
30
0.0000000000
10
346.9548096848
20
112.1355800955
30
0.0000000000
10
346.9553190315
20
112.2189147540
30
0.0000000000
10
346.9554888043
20
112.2605830534
30
0.0000000000
11
346.9534514048
21
112.0105840071
31
0.0000000000
11
346.9547247901
21
112.1355794524
31
0.0000000000
11
346.9554888043
21
112.2605830534
31
0.0000000000
0
SPLINE
5
33C
100
AcDbEntity
8
DEFAULT_2
100
AcDbSpline
62
8
6
HIDDEN
70
0
71
3
72
9
73
5
74
3
42
0.0000001000
43
0.0000001000
44
0.0000000001
40
0.0000000000
40
0.0000000000
40
0.0000000000
40
0.0000000000
40
0.4999170730
40
1.0000000000
40
1.0000000000
40
1.0000000000
40
1.0000000000
10
346.7071725558
20
120.2605840071
30
0.0000000000
10
346.7445342713
20
120.3834221326
30
0.0000000000
10
346.8112002207
20
120.6316688472
30
0.0000000000
10
346.8611336158
20
120.8838224393
30
0.0000000000
10
346.8818108477
20
121.0105840071
30
0.0000000000
11
346.7071725558
21
120.2605840071
31
0.0000000000
11
346.8070074128
21
120.6326040699
31
0.0000000000
11
346.8818108477
21
121.0105840071
31
0.0000000000
0
SPLINE
5
33D
100
AcDbEntity
8
DEFAULT_2
100
AcDbSpline
62
8
6
HIDDEN
70
0
71
3
72
8
73
4
74
2
42
0.0000001000
43
0.0000001000
44
0.0000000001
40
0.0000000000
40
0.0000000000
40
0.0000000000
40
0.0000000000
40
1.0000000000
40
1.0000000000
40
1.0000000000
40
1.0000000000
10
346.3719419354
20
134.7605841263
30
0.0000000000
10
346.5159982917
20
134.8796516442
30
0.0000000000
10
346.6501352066
20
135.0133649492
30
0.0000000000
10
346.7558416367
20
135.1693393219
30
0.0000000000
11
346.3719419354
21
134.7605841263
31
0.0000000000
11
346.7558416367
21
135.1693393219
31
0.0000000000
0
SPLINE
5
33E
100
AcDbEntity
8
DEFAULT_2
100
AcDbSpline
62
8
6
HIDDEN
70
0
71
3
72
8
73
4
74
2
42
0.0000001000
43
0.0000001000
44
0.0000000001
40
0.0000000000
40
0.0000000000
40
0.0000000000
40
0.0000000000
40
1.0000000000
40
1.0000000000
40
1.0000000000
40
1.0000000000
10
346.7558416367
20
135.1693393219
30
0.0000000000
10
346.7593407977
20
135.1745024840
30
0.0000000000
10
346.7628088049
20
135.1796900394
30
0.0000000000
10
346.7662449870
20
135.1849022643
30
0.0000000000
11
346.7558416367
21
135.1693393219
31
0.0000000000
11
346.7662449870
21
135.1849022643
31
0.0000000000
0
SPLINE
5
33F
100
AcDbEntity
8
DEFAULT_2
100
AcDbSpline
62
8
6
HIDDEN
70
0
71
3
72
8
73
4
74
2
42
0.0000001000
43
0.0000001000
44
0.0000000001
40
0.0000000000
40
0.0000000000
40
0.0000000000
40
0.0000000000
40
1.0000000000
40
1.0000000000
40
1.0000000000
40
1.0000000000
10
346.7662449870
20
135.1849022643
30
0.0000000000
10
346.8079068209
20
135.2480976488
30
0.0000000000
10
346.8448902839
20
135.3149195173
30
0.0000000000
10
346.8748001687
20
135.3844616271
30
0.0000000000
11
346.7662449870
21
135.1849022643
31
0.0000000000
11
346.8748001687
21
135.3844616271
31
0.0000000000
0
SPLINE
5
340
100
AcDbEntity
8
DEFAULT_2
100
AcDbSpline
62
8
6
HIDDEN
70
0
71
3
72
9
73
5
74
3
42
0.0000001000
43
0.0000001000
44
0.0000000001
40
0.0000000000
40
0.0000000000
40
0.0000000000
40
0.0000000000
40
0.9300987311
40
1.0000000000
40
1.0000000000
40
1.0000000000
40
1.0000000000
10
346.3719419354
20
131.0105837687
30
0.0000000000
10
346.5103012763
20
131.1245949305
30
0.0000000000
10
346.6488089137
20
131.2618365586
30
0.0000000000
10
346.7585867063
20
131.4221357842
30
0.0000000000
10
346.7661059609
20
131.4334504828
30
0.0000000000
11
346.3719419354
21
131.0105837687
31
0.0000000000
11
346.7430991129
21
131.3998382094
31
0.0000000000
11
346.7661059609
21
131.4334504828
31
0.0000000000
0
SPLINE
5
341
100
AcDbEntity
8
DEFAULT_2
100
AcDbSpline
62
8
6
HIDDEN
70
0
71
3
72
8
73
4
74
2
42
0.0000001000
43
0.0000001000
44
0.0000000001
40
0.0000000000
40
0.0000000000
40
0.0000000000
40
0.0000000000
40
1.0000000000
40
1.0000000000
40
1.0000000000
40
1.0000000000
10
346.7661059609
20
131.4334504828
30
0.0000000000
10
346.7867141137
20
131.4644608756
30
0.0000000000
10
346.8061628435
20
131.4962943774
30
0.0000000000
10
346.8241644883
20
131.5288874902
30
0.0000000000
11
346.7661059609
21
131.4334504828
31
0.0000000000
11
346.8241644883
21
131.5288874902
31
0.0000000000
0
SPLINE
5
342
100
AcDbEntity
8
DEFAULT_2
100
AcDbSpline
62
8
6
HIDDEN
70
0
71
3
72
8
73
4
74
2
42
0.0000001000
43
0.0000001000
44
0.0000000001
40
0.0000000000
40
0.0000000000
40
0.0000000000
40
0.0000000000
40
1.0000000000
40
1.0000000000
40
1.0000000000
40
1.0000000000
10
346.8241644883
20
131.5288874902
30
0.0000000000
10
346.8372332706
20
131.5525493443
30
0.0000000000
10
346.8495393772
20
131.5766115458
30
0.0000000000
10
346.8609727428
20
131.6010497993
30
0.0000000000
11
346.8241644883
21
131.5288874902
31
0.0000000000
11
346.8609727428
21
131.6010497993
31
0.0000000000
0
SPLINE
5
343
100
AcDbEntity
8
DEFAULT_2
100
AcDbSpline
62
8
6
HIDDEN
70
0
71
3
72
8
73
4
74
2
42
0.0000001000
43
0.0000001000
44
0.0000000001
40
0.0000000000
40
0.0000000000
40
0.0000000000
40
0.0000000000
40
1.0000000000
40
1.0000000000
40
1.0000000000
40
1.0000000000
10
346.8609727428
20
131.6010497993
30
0.0000000000
10
346.8661153320
20
131.6120418295
30
0.0000000000
10
346.8710813578
20
131.6231099385
30
0.0000000000
10
346.8758608046
20
131.6342519154
30
0.0000000000
11
346.8609727428
21
131.6010497993
31
0.0000000000
11
346.8758608046
21
131.6342519154
31
0.0000000000
0
SPLINE
5
344
100
AcDbEntity
8
DEFAULT_2
100
AcDbSpline
62
8
6
HIDDEN
70
0
71
3
72
8
73
4
74
2
42
0.0000001000
43
0.0000001000
44
0.0000000001
40
0.0000000000
40
0.0000000000
40
0.0000000000
40
0.0000000000
40
1.0000000000
40
1.0000000000
40
1.0000000000
40
1.0000000000
10
346.8758605057
20
129.3869165570
30
0.0000000000
10
346.8710811508
20
129.3980582986
30
0.0000000000
10
346.8661152248
20
129.4091261753
30
0.0000000000
10
346.8609727428
20
129.4201179765
30
0.0000000000
11
346.8758605057
21
129.3869165570
31
0.0000000000
11
346.8609727428
21
129.4201179765
31
0.0000000000
0
SPLINE
5
345
100
AcDbEntity
8
DEFAULT_2
100
AcDbSpline
62
8
6
HIDDEN
70
0
71
3
72
8
73
4
74
2
42
0.0000001000
43
0.0000001000
44
0.0000000001
40
0.0000000000
40
0.0000000000
40
0.0000000000
40
0.0000000000
40
1.0000000000
40
1.0000000000
40
1.0000000000
40
1.0000000000
10
346.8609727428
20
129.4201179765
30
0.0000000000
10
346.8495393772
20
129.4445562299
30
0.0000000000
10
346.8372332706
20
129.4686184315
30
0.0000000000
10
346.8241644883
20
129.4922802856
30
0.0000000000
11
346.8609727428
21
129.4201179765
31
0.0000000000
11
346.8241644883
21
129.4922802856
31
0.0000000000
0
SPLINE
5
346
100
AcDbEntity
8
DEFAULT_2
100
AcDbSpline
62
8
6
HIDDEN
70
0
71
3
72
8
73
4
74
2
42
0.0000001000
43
0.0000001000
44
0.0000000001
40
0.0000000000
40
0.0000000000
40
0.0000000000
40
0.0000000000
40
1.0000000000
40
1.0000000000
40
1.0000000000
40
1.0000000000
10
346.8241644883
20
129.4922802856
30
0.0000000000
10
346.8061627439
20
129.5248735786
30
0.0000000000
10
346.7867138986
20
129.5567072523
30
0.0000000000
10
346.7661056190
20
129.5877178074
30
0.0000000000
11
346.8241644883
21
129.4922802856
31
0.0000000000
11
346.7661056190
21
129.5877178074
31
0.0000000000
0
SPLINE
5
347
100
AcDbEntity
8
DEFAULT_2
100
AcDbSpline
62
8
6
HIDDEN
70
0
71
3
72
9
73
5
74
3
42
0.0000001000
43
0.0000001000
44
0.0000000001
40
0.0000000000
40
0.0000000000
40
0.0000000000
40
0.0000000000
40
0.0699002834
40
1.0000000000
40
1.0000000000
40
1.0000000000
40
1.0000000000
10
346.7661056190
20
129.5877178074
30
0.0000000000
10
346.7585864737
20
129.5990323312
30
0.0000000000
10
346.6488087670
20
129.7593313625
30
0.0000000000
10
346.5103012763
20
129.8965728452
30
0.0000000000
10
346.3719419354
20
130.0105840071
30
0.0000000000
11
346.7661056190
21
129.5877178074
31
0.0000000000
11
346.7430991129
21
129.6213295664
31
0.0000000000
11
346.3719419354
21
130.0105840071
31
0.0000000000
0
SPLINE
5
348
100
AcDbEntity
8
DEFAULT_2
100
AcDbSpline
62
8
6
HIDDEN
70
0
71
3
72
8
73
4
74
2
42
0.0000001000
43
0.0000001000
44
0.0000000001
40
0.0000000000
40
0.0000000000
40
0.0000000000
40
0.0000000000
40
1.0000000000
40
1.0000000000
40
1.0000000000
40
1.0000000000
10
346.8748001904
20
137.6367064556
30
0.0000000000
10
346.8448903019
20
137.7062485837
30
0.0000000000
10
346.8079068310
20
137.7730704693
30
0.0000000000
10
346.7662449870
20
137.8362658690
30
0.0000000000
11
346.8748001904
21
137.6367064556
31
0.0000000000
11
346.7662449870
21
137.8362658690
31
0.0000000000
0
SPLINE
5
349
100
AcDbEntity
8
DEFAULT_2
100
AcDbSpline
62
8
6
HIDDEN
70
0
71
3
72
8
73
4
74
2
42
0.0000001000
43
0.0000001000
44
0.0000000001
40
0.0000000000
40
0.0000000000
40
0.0000000000
40
0.0000000000
40
1.0000000000
40
1.0000000000
40
1.0000000000
40
1.0000000000
10
346.7662449870
20
137.8362658690
30
0.0000000000
10
346.7628088177
20
137.8414780745
30
0.0000000000
10
346.7593408236
20
137.8466656106
30
0.0000000000
10
346.7558416759
20
137.8518287536
30
0.0000000000
11
346.7662449870
21
137.8362658690
31
0.0000000000
11
346.7558416759
21
137.8518287536
31
0.0000000000
0
SPLINE
5
34A
100
AcDbEntity
8
DEFAULT_2
100
AcDbSpline
62
8
6
HIDDEN
70
0
71
3
72
8
73
4
74
2
42
0.0000001000
43
0.0000001000
44
0.0000000001
40
0.0000000000
40
0.0000000000
40
0.0000000000
40
0.0000000000
40
1.0000000000
40
1.0000000000
40
1.0000000000
40
1.0000000000
10
346.7558416759
20
137.8518287536
30
0.0000000000
10
346.6501352398
20
138.0078031511
30
0.0000000000
10
346.5159983095
20
138.1415164745
30
0.0000000000
10
346.3719419354
20
138.2605840071
30
0.0000000000
11
346.7558416759
21
137.8518287536
31
0.0000000000
11
346.3719419354
21
138.2605840071
31
0.0000000000
0
SPLINE
5
34B
100
AcDbEntity
8
DEFAULT_2
100
AcDbSpline
62
8
6
HIDDEN
70
0
71
3
72
8
73
4
74
2
42
0.0000001000
43
0.0000001000
44
0.0000000001
40
0.0000000000
40
0.0000000000
40
0.0000000000
40
0.0000000000
40
1.0000000000
40
1.0000000000
40
1.0000000000
40
1.0000000000
10
346.8632840953
20
115.0105840071
30
0.0000000000
10
346.8681536711
20
114.9898578220
30
0.0000000000
10
346.8728378992
20
114.9690871866
30
0.0000000000
10
346.8773347035
20
114.9482756211
30
0.0000000000
11
346.8632840953
21
115.0105840071
31
0.0000000000
11
346.8773347035
21
114.9482756211
31
0.0000000000
0
SPLINE
5
34C
100
AcDbEntity
8
DEFAULT_2
100
AcDbSpline
62
8
6
HIDDEN
70
0
71
3
72
9
73
5
74
3
42
0.0000001000
43
0.0000001000
44
0.0000000001
40
0.0000000000
40
0.0000000000
40
0.0000000000
40
0.0000000000
40
0.5003814844
40
1.0000000000
40
1.0000000000
40
1.0000000000
40
1.0000000000
10
346.8773347035
20
114.9482756211
30
0.0000000000
10
346.8818230243
20
114.9275033176
30
0.0000000000
10
346.8904196724
20
114.8859088943
30
0.0000000000
10
346.8982623447
20
114.8441655966
30
0.0000000000
10
346.9019907628
20
114.8232764233
30
0.0000000000
11
346.8773347035
21
114.9482756211
31
0.0000000000
11
346.8902374497
21
114.8858398836
31
0.0000000000
11
346.9019907628
21
114.8232764233
31
0.0000000000
0
SPLINE
5
34D
100
AcDbEntity
8
DEFAULT_2
100
AcDbSpline
62
8
6
HIDDEN
70
0
71
3
72
8
73
4
74
2
42
0.0000001000
43
0.0000001000
44
0.0000000001
40
0.0000000000
40
0.0000000000
40
0.0000000000
40
0.0000000000
40
1.0000000000
40
1.0000000000
40
1.0000000000
40
1.0000000000
10
346.9019907628
20
114.8232764233
30
0.0000000000
10
346.9057148693
20
114.8024114073
30
0.0000000000
10
346.9092494886
20
114.7815130197
30
0.0000000000
10
346.9125929072
20
114.7605849607
30
0.0000000000
11
346.9019907628
21
114.8232764233
31
0.0000000000
11
346.9125929072
21
114.7605849607
31
0.0000000000
0
SPLINE
5
34E
100
AcDbEntity
8
DEFAULT_2
100
AcDbSpline
62
8
6
HIDDEN
70
0
71
3
72
8
73
4
74
2
42
0.0000001000
43
0.0000001000
44
0.0000000001
40
0.0000000000
40
0.0000000000
40
0.0000000000
40
0.0000000000
40
1.0000000000
40
1.0000000000
40
1.0000000000
40
1.0000000000
10
346.9125929072
20
114.7605849607
30
0.0000000000
10
346.9159116698
20
114.7190372716
30
0.0000000000
10
346.9190386981
20
114.6774738251
30
0.0000000000
10
346.9219741071
20
114.6358966266
30
0.0000000000
11
346.9125929072
21
114.7605849607
31
0.0000000000
11
346.9219741071
21
114.6358966266
31
0.0000000000
0
SPLINE
5
34F
100
AcDbEntity
8
DEFAULT_2
100
AcDbSpline
62
8
6
HIDDEN
70
0
71
3
72
9
73
5
74
3
42
0.0000001000
43
0.0000001000
44
0.0000000001
40
0.0000000000
40
0.0000000000
40
0.0000000000
40
0.0000000000
40
0.3329567979
40
1.0000000000
40
1.0000000000
40
1.0000000000
40
1.0000000000
10
346.9219741071
20
114.6358966266
30
0.0000000000
10
346.9249124634
20
114.5942776817
30
0.0000000000
10
346.9331608368
20
114.4692382628
30
0.0000000000
10
346.9396783003
20
114.3440926908
30
0.0000000000
10
346.9432563405
20
114.2605840071
30
0.0000000000
11
346.9219741071
21
114.6358966266
31
0.0000000000
11
346.9302132783
21
114.5110004645
31
0.0000000000
11
346.9432563405
21
114.2605840071
31
0.0000000000
0
SPLINE
5
350
100
AcDbEntity
8
DEFAULT_2
100
AcDbSpline
62
8
6
HIDDEN
70
0
71
3
72
9
73
5
74
3
42
0.0000001000
43
0.0000001000
44
0.0000000001
40
0.0000000000
40
0.0000000000
40
0.0000000000
40
0.0000000000
40
0.4998661035
40
1.0000000000
40
1.0000000000
40
1.0000000000
40
1.0000000000
10
346.9432563405
20
114.2605840071
30
0.0000000000
10
346.9444461681
20
114.1772750460
30
0.0000000000
10
346.9466559959
20
114.0106100148
30
0.0000000000
10
346.9485251885
20
113.8439408154
30
0.0000000000
10
346.9493749123
20
113.7605830534
30
0.0000000000
11
346.9432563405
21
114.2605840071
31
0.0000000000
11
346.9465702909
21
114.0106536051
31
0.0000000000
11
346.9493749123
21
113.7605830534
31
0.0000000000
0
SPLINE
5
351
100
AcDbEntity
8
DEFAULT_2
100
AcDbSpline
62
8
6
HIDDEN
70
0
71
3
72
9
73
5
74
3
42
0.0000001000
43
0.0000001000
44
0.0000000001
40
0.0000000000
40
0.0000000000
40
0.0000000000
40
0.0000000000
40
0.4998661035
40
1.0000000000
40
1.0000000000
40
1.0000000000
40
1.0000000000
10
346.9432563405
20
112.7605840071
30
0.0000000000
10
346.9444461681
20
112.8438929681
30
0.0000000000
10
346.9466559959
20
113.0105579993
30
0.0000000000
10
346.9485251885
20
113.1772271987
30
0.0000000000
10
346.9493749123
20
113.2605849607
30
0.0000000000
11
346.9432563405
21
112.7605840071
31
0.0000000000
11
346.9465702909
21
113.0105144091
31
0.0000000000
11
346.9493749123
21
113.2605849607
31
0.0000000000
0
SPLINE
5
352
100
AcDbEntity
8
DEFAULT_2
100
AcDbSpline
62
8
6
HIDDEN
70
0
71
3
72
8
73
4
74
2
42
0.0000001000
43
0.0000001000
44
0.0000000001
40
0.0000000000
40
0.0000000000
40
0.0000000000
40
0.0000000000
40
1.0000000000
40
1.0000000000
40
1.0000000000
40
1.0000000000
10
346.9125929072
20
112.2605830534
30
0.0000000000
10
346.9159116698
20
112.3021307426
30
0.0000000000
10
346.9190386981
20
112.3436941891
30
0.0000000000
10
346.9219741071
20
112.3852713875
30
0.0000000000
11
346.9125929072
21
112.2605830534
31
0.0000000000
11
346.9219741071
21
112.3852713875
31
0.0000000000
0
SPLINE
5
353
100
AcDbEntity
8
DEFAULT_2
100
AcDbSpline
62
8
6
HIDDEN
70
0
71
3
72
9
73
5
74
3
42
0.0000001000
43
0.0000001000
44
0.0000000001
40
0.0000000000
40
0.0000000000
40
0.0000000000
40
0.0000000000
40
0.3329567979
40
1.0000000000
40
1.0000000000
40
1.0000000000
40
1.0000000000
10
346.9219741071
20
112.3852713875
30
0.0000000000
10
346.9249124634
20
112.4268903325
30
0.0000000000
10
346.9331608368
20
112.5519297514
30
0.0000000000
10
346.9396783003
20
112.6770753234
30
0.0000000000
10
346.9432563405
20
112.7605840071
30
0.0000000000
11
346.9219741071
21
112.3852713875
31
0.0000000000
11
346.9302132783
21
112.5101675497
31
0.0000000000
11
346.9432563405
21
112.7605840071
31
0.0000000000
0
SPLINE
5
354
100
AcDbEntity
8
DEFAULT_2
100
AcDbSpline
62
8
6
HIDDEN
70
0
71
3
72
8
73
4
74
2
42
0.0000001000
43
0.0000001000
44
0.0000000001
40
0.0000000000
40
0.0000000000
40
0.0000000000
40
0.0000000000
40
1.0000000000
40
1.0000000000
40
1.0000000000
40
1.0000000000
10
346.8632840953
20
112.0105840071
30
0.0000000000
10
346.8681536711
20
112.0313101921
30
0.0000000000
10
346.8728378992
20
112.0520808275
30
0.0000000000
10
346.8773347035
20
112.0728923931
30
0.0000000000
11
346.8632840953
21
112.0105840071
31
0.0000000000
11
346.8773347035
21
112.0728923931
31
0.0000000000
0
SPLINE
5
355
100
AcDbEntity
8
DEFAULT_2
100
AcDbSpline
62
8
6
HIDDEN
70
0
71
3
72
9
73
5
74
3
42
0.0000001000
43
0.0000001000
44
0.0000000001
40
0.0000000000
40
0.0000000000
40
0.0000000000
40
0.0000000000
40
0.5003814844
40
1.0000000000
40
1.0000000000
40
1.0000000000
40
1.0000000000
10
346.8773347035
20
112.0728923931
30
0.0000000000
10
346.8818230243
20
112.0936646965
30
0.0000000000
10
346.8904196724
20
112.1352591199
30
0.0000000000
10
346.8982623447
20
112.1770024176
30
0.0000000000
10
346.9019907628
20
112.1978915908
30
0.0000000000
11
346.8773347035
21
112.0728923931
31
0.0000000000
11
346.8902374497
21
112.1353281305
31
0.0000000000
11
346.9019907628
21
112.1978915908
31
0.0000000000
0
SPLINE
5
356
100
AcDbEntity
8
DEFAULT_2
100
AcDbSpline
62
8
6
HIDDEN
70
0
71
3
72
8
73
4
74
2
42
0.0000001000
43
0.0000001000
44
0.0000000001
40
0.0000000000
40
0.0000000000
40
0.0000000000
40
0.0000000000
40
1.0000000000
40
1.0000000000
40
1.0000000000
40
1.0000000000
10
346.9019907628
20
112.1978915908
30
0.0000000000
10
346.9057148693
20
112.2187566069
30
0.0000000000
10
346.9092494886
20
112.2396549944
30
0.0000000000
10
346.9125929072
20
112.2605830534
30
0.0000000000
11
346.9019907628
21
112.1978915908
31
0.0000000000
11
346.9125929072
21
112.2605830534
31
0.0000000000
0
SPLINE
5
357
100
AcDbEntity
8
DEFAULT_2
100
AcDbSpline
62
8
6
HIDDEN
70
0
71
3
72
8
73
4
74
2
42
0.0000001000
43
0.0000001000
44
0.0000000001
40
0.0000000000
40
0.0000000000
40
0.0000000000
40
0.0000000000
40
1.0000000000
40
1.0000000000
40
1.0000000000
40
1.0000000000
10
346.6734600989
20
115.3855840071
30
0.0000000000
10
346.7016085973
20
115.4259786666
30
0.0000000000
10
346.7282750582
20
115.4674328243
30
0.0000000000
10
346.7531698613
20
115.5099341259
30
0.0000000000
11
346.6734600989
21
115.3855840071
31
0.0000000000
11
346.7531698613
21
115.5099341259
31
0.0000000000
0
SPLINE
5
358
100
AcDbEntity
8
DEFAULT_2
100
AcDbSpline
62
8
6
HIDDEN
70
0
71
3
72
8
73
4
74
2
42
0.0000001000
43
0.0000001000
44
0.0000000001
40
0.0000000000
40
0.0000000000
40
0.0000000000
40
0.0000000000
40
1.0000000000
40
1.0000000000
40
1.0000000000
40
1.0000000000
10
346.7531698613
20
115.5099341259
30
0.0000000000
10
346.7652614504
20
115.5305773208
30
0.0000000000
10
346.7769350847
20
115.5514675491
30
0.0000000000
10
346.7881539149
20
115.5725956844
30
0.0000000000
11
346.7531698613
21
115.5099341259
31
0.0000000000
11
346.7881539149
21
115.5725956844
31
0.0000000000
0
SPLINE
5
359
100
AcDbEntity
8
DEFAULT_2
100
AcDbSpline
62
8
6
HIDDEN
70
0
71
3
72
8
73
4
74
2
42
0.0000001000
43
0.0000001000
44
0.0000000001
40
0.0000000000
40
0.0000000000
40
0.0000000000
40
0.0000000000
40
1.0000000000
40
1.0000000000
40
1.0000000000
40
1.0000000000
10
346.7881539149
20
115.5725956844
30
0.0000000000
10
346.7991821871
20
115.5933649470
30
0.0000000000
10
346.8097709743
20
115.6143641032
30
0.0000000000
10
346.8198852728
20
115.6355844839
30
0.0000000000
11
346.7881539149
21
115.5725956844
31
0.0000000000
11
346.8198852728
21
115.6355844839
31
0.0000000000
0
SPLINE
5
35A
100
AcDbEntity
8
DEFAULT_2
100
AcDbSpline
62
8
6
HIDDEN
70
0
71
3
72
8
73
4
74
2
42
0.0000001000
43
0.0000001000
44
0.0000000001
40
0.0000000000
40
0.0000000000
40
0.0000000000
40
0.0000000000
40
1.0000000000
40
1.0000000000
40
1.0000000000
40
1.0000000000
10
346.5585769999
20
115.0105840071
30
0.0000000000
10
346.5724661633
20
115.0521195821
30
0.0000000000
10
346.5860021311
20
115.0937745071
30
0.0000000000
10
346.5991824790
20
115.1355420657
30
0.0000000000
11
346.5585769999
21
115.0105840071
31
0.0000000000
11
346.5991824790
21
115.1355420657
31
0.0000000000
0
SPLINE
5
35B
100
AcDbEntity
8
DEFAULT_2
100
AcDbSpline
62
8
6
HIDDEN
70
0
71
3
72
8
73
4
74
2
42
0.0000001000
43
0.0000001000
44
0.0000000001
40
0.0000000000
40
0.0000000000
40
0.0000000000
40
0.0000000000
40
1.0000000000
40
1.0000000000
40
1.0000000000
40
1.0000000000
10
346.5991824790
20
115.1355420657
30
0.0000000000
10
346.6056397463
20
115.1560046738
30
0.0000000000
10
346.6120116585
20
115.1764943161
30
0.0000000000
10
346.6182979304
20
115.1970102026
30
0.0000000000
11
346.5991824790
21
115.1355420657
31
0.0000000000
11
346.6182979304
21
115.1970102026
31
0.0000000000
0
SPLINE
5
35C
100
AcDbEntity
8
DEFAULT_2
100
AcDbSpline
62
8
6
HIDDEN
70
0
71
3
72
8
73
4
74
2
42
0.0000001000
43
0.0000001000
44
0.0000000001
40
0.0000000000
40
0.0000000000
40
0.0000000000
40
0.0000000000
40
1.0000000000
40
1.0000000000
40
1.0000000000
40
1.0000000000
10
346.6182979304
20
115.1970102026
30
0.0000000000
10
346.6278821507
20
115.2282892787
30
0.0000000000
10
346.6372673012
20
115.2596293592
30
0.0000000000
10
346.6464524699
20
115.2910275977
30
0.0000000000
11
346.6182979304
21
115.1970102026
31
0.0000000000
11
346.6464524699
21
115.2910275977
31
0.0000000000
0
SPLINE
5
35D
100
AcDbEntity
8
DEFAULT_2
100
AcDbSpline
62
8
6
HIDDEN
70
0
71
3
72
8
73
4
74
2
42
0.0000001000
43
0.0000001000
44
0.0000000001
40
0.0000000000
40
0.0000000000
40
0.0000000000
40
0.0000000000
40
1.0000000000
40
1.0000000000
40
1.0000000000
40
1.0000000000
10
346.6464524699
20
115.2910275977
30
0.0000000000
10
346.6556561056
20
115.3224889633
30
0.0000000000
10
346.6646589544
20
115.3540087210
30
0.0000000000
10
346.6734600989
20
115.3855840071
30
0.0000000000
11
346.6464524699
21
115.2910275977
31
0.0000000000
11
346.6734600989
21
115.3855840071
31
0.0000000000
0
SPLINE
5
35E
100
AcDbEntity
8
DEFAULT_2
100
AcDbSpline
62
8
6
HIDDEN
70
0
71
3
72
8
73
4
74
2
42
0.0000001000
43
0.0000001000
44
0.0000000001
40
0.0000000000
40
0.0000000000
40
0.0000000000
40
0.0000000000
40
1.0000000000
40
1.0000000000
40
1.0000000000
40
1.0000000000
10
346.4223129680
20
114.3855849607
30
0.0000000000
10
346.4344233328
20
114.4369594107
30
0.0000000000
10
346.4463172963
20
114.4883853327
30
0.0000000000
10
346.4579961836
20
114.5398602976
30
0.0000000000
11
346.4223129680
21
114.3855849607
31
0.0000000000
11
346.4579961836
21
114.5398602976
31
0.0000000000
0
SPLINE
5
35F
100
AcDbEntity
8
DEFAULT_2
100
AcDbSpline
62
8
6
HIDDEN
70
0
71
3
72
8
73
4
74
2
42
0.0000001000
43
0.0000001000
44
0.0000000001
40
0.0000000000
40
0.0000000000
40
0.0000000000
40
0.0000000000
40
1.0000000000
40
1.0000000000
40
1.0000000000
40
1.0000000000
10
346.4579961836
20
114.5398602976
30
0.0000000000
10
346.4697520480
20
114.5916745411
30
0.0000000000
10
346.4812899916
20
114.6435384761
30
0.0000000000
10
346.4926113657
20
114.6954496249
30
0.0000000000
11
346.4579961836
21
114.5398602976
31
0.0000000000
11
346.4926113657
21
114.6954496249
31
0.0000000000
0
SPLINE
5
360
100
AcDbEntity
8
DEFAULT_2
100
AcDbSpline
62
8
6
HIDDEN
70
0
71
3
72
8
73
4
74
2
42
0.0000001000
43
0.0000001000
44
0.0000000001
40
0.0000000000
40
0.0000000000
40
0.0000000000
40
0.0000000000
40
1.0000000000
40
1.0000000000
40
1.0000000000
40
1.0000000000
10
346.4926113657
20
114.6954496249
30
0.0000000000
10
346.4973421973
20
114.7171415940
30
0.0000000000
10
346.5020352129
20
114.7388418072
30
0.0000000000
10
346.5066905042
20
114.7605500930
30
0.0000000000
11
346.4926113657
21
114.6954496249
31
0.0000000000
11
346.5066905042
21
114.7605500930
31
0.0000000000
0
SPLINE
5
361
100
AcDbEntity
8
DEFAULT_2
100
AcDbSpline
62
8
6
HIDDEN
70
0
71
3
72
8
73
4
74
2
42
0.0000001000
43
0.0000001000
44
0.0000000001
40
0.0000000000
40
0.0000000000
40
0.0000000000
40
0.0000000000
40
1.0000000000
40
1.0000000000
40
1.0000000000
40
1.0000000000
10
346.5066905042
20
114.7605500930
30
0.0000000000
10
346.5132496567
20
114.7911363549
30
0.0000000000
10
346.5197339192
20
114.8217386422
30
0.0000000000
10
346.5261435473
20
114.8523564748
30
0.0000000000
11
346.5066905042
21
114.7605500930
31
0.0000000000
11
346.5261435473
21
114.8523564748
31
0.0000000000
0
SPLINE
5
362
100
AcDbEntity
8
DEFAULT_2
100
AcDbSpline
62
8
6
HIDDEN
70
0
71
3
72
8
73
4
74
2
42
0.0000001000
43
0.0000001000
44
0.0000000001
40
0.0000000000
40
0.0000000000
40
0.0000000000
40
0.0000000000
40
1.0000000000
40
1.0000000000
40
1.0000000000
40
1.0000000000
10
346.5261435473
20
114.8523564748
30
0.0000000000
10
346.5343927879
20
114.8917618602
30
0.0000000000
10
346.5425184050
20
114.9311929947
30
0.0000000000
10
346.5505209439
20
114.9706488547
30
0.0000000000
11
346.5261435473
21
114.8523564748
31
0.0000000000
11
346.5505209439
21
114.9706488547
31
0.0000000000
0
SPLINE
5
363
100
AcDbEntity
8
DEFAULT_2
100
AcDbSpline
62
8
6
HIDDEN
70
0
71
3
72
8
73
4
74
2
42
0.0000001000
43
0.0000001000
44
0.0000000001
40
0.0000000000
40
0.0000000000
40
0.0000000000
40
0.0000000000
40
1.0000000000
40
1.0000000000
40
1.0000000000
40
1.0000000000
10
346.5505209439
20
114.9706488547
30
0.0000000000
10
346.5532202926
20
114.9839577720
30
0.0000000000
10
346.5559056377
20
114.9972695026
30
0.0000000000
10
346.5585769999
20
115.0105840071
30
0.0000000000
11
346.5505209439
21
114.9706488547
31
0.0000000000
11
346.5585769999
21
115.0105840071
31
0.0000000000
0
SPLINE
5
364
100
AcDbEntity
8
DEFAULT_2
100
AcDbSpline
62
8
6
HIDDEN
70
0
71
3
72
8
73
4
74
2
42
0.0000001000
43
0.0000001000
44
0.0000000001
40
0.0000000000
40
0.0000000000
40
0.0000000000
40
0.0000000000
40
1.0000000000
40
1.0000000000
40
1.0000000000
40
1.0000000000
10
346.3719419354
20
113.7605830534
30
0.0000000000
10
346.3762311228
20
113.8124944968
30
0.0000000000
10
346.3804940304
20
113.8644081181
30
0.0000000000
10
346.3847307836
20
113.9163238772
30
0.0000000000
11
346.3719419354
21
113.7605830534
31
0.0000000000
11
346.3847307836
21
113.9163238772
31
0.0000000000
0
SPLINE
5
365
100
AcDbEntity
8
DEFAULT_2
100
AcDbSpline
62
8
6
HIDDEN
70
0
71
3
72
8
73
4
74
2
42
0.0000001000
43
0.0000001000
44
0.0000000001
40
0.0000000000
40
0.0000000000
40
0.0000000000
40
0.0000000000
40
1.0000000000
40
1.0000000000
40
1.0000000000
40
1.0000000000
10
346.3847307836
20
113.9163238772
30
0.0000000000
10
346.3889764295
20
113.9683486040
30
0.0000000000
10
346.3931958112
20
114.0203754776
30
0.0000000000
10
346.3973890547
20
114.0724044575
30
0.0000000000
11
346.3847307836
21
113.9163238772
31
0.0000000000
11
346.3973890547
21
114.0724044575
31
0.0000000000
0
SPLINE
5
366
100
AcDbEntity
8
DEFAULT_2
100
AcDbSpline
62
8
6
HIDDEN
70
0
71
3
72
8
73
4
74
2
42
0.0000001000
43
0.0000001000
44
0.0000000001
40
0.0000000000
40
0.0000000000
40
0.0000000000
40
0.0000000000
40
1.0000000000
40
1.0000000000
40
1.0000000000
40
1.0000000000
10
346.3973890547
20
114.0724044575
30
0.0000000000
10
346.4058019096
20
114.1767895852
30
0.0000000000
10
346.4141095535
20
114.2811831914
30
0.0000000000
10
346.4223129680
20
114.3855849607
30
0.0000000000
11
346.3973890547
21
114.0724044575
31
0.0000000000
11
346.4223129680
21
114.3855849607
31
0.0000000000
0
SPLINE
5
367
100
AcDbEntity
8
DEFAULT_2
100
AcDbSpline
62
8
6
HIDDEN
70
0
71
3
72
8
73
4
74
2
42
0.0000001000
43
0.0000001000
44
0.0000000001
40
0.0000000000
40
0.0000000000
40
0.0000000000
40
0.0000000000
40
1.0000000000
40
1.0000000000
40
1.0000000000
40
1.0000000000
10
346.3719419354
20
113.2605849607
30
0.0000000000
10
346.3762311228
20
113.2086735173
30
0.0000000000
10
346.3804940304
20
113.1567598960
30
0.0000000000
10
346.3847307836
20
113.1048441369
30
0.0000000000
11
346.3719419354
21
113.2605849607
31
0.0000000000
11
346.3847307836
21
113.1048441369
31
0.0000000000
0
SPLINE
5
368
100
AcDbEntity
8
DEFAULT_2
100
AcDbSpline
62
8
6
HIDDEN
70
0
71
3
72
8
73
4
74
2
42
0.0000001000
43
0.0000001000
44
0.0000000001
40
0.0000000000
40
0.0000000000
40
0.0000000000
40
0.0000000000
40
1.0000000000
40
1.0000000000
40
1.0000000000
40
1.0000000000
10
346.3847307836
20
113.1048441369
30
0.0000000000
10
346.3889764295
20
113.0528194101
30
0.0000000000
10
346.3931958112
20
113.0007925366
30
0.0000000000
10
346.3973890547
20
112.9487635566
30
0.0000000000
11
346.3847307836
21
113.1048441369
31
0.0000000000
11
346.3973890547
21
112.9487635566
31
0.0000000000
0
SPLINE
5
369
100
AcDbEntity
8
DEFAULT_2
100
AcDbSpline
62
8
6
HIDDEN
70
0
71
3
72
8
73
4
74
2
42
0.0000001000
43
0.0000001000
44
0.0000000001
40
0.0000000000
40
0.0000000000
40
0.0000000000
40
0.0000000000
40
1.0000000000
40
1.0000000000
40
1.0000000000
40
1.0000000000
10
346.3973890547
20
112.9487635566
30
0.0000000000
10
346.4058019096
20
112.8443784290
30
0.0000000000
10
346.4141095535
20
112.7399848227
30
0.0000000000
10
346.4223129680
20
112.6355830534
30
0.0000000000
11
346.3973890547
21
112.9487635566
31
0.0000000000
11
346.4223129680
21
112.6355830534
31
0.0000000000
0
SPLINE
5
36A
100
AcDbEntity
8
DEFAULT_2
100
AcDbSpline
62
8
6
HIDDEN
70
0
71
3
72
8
73
4
74
2
42
0.0000001000
43
0.0000001000
44
0.0000000001
40
0.0000000000
40
0.0000000000
40
0.0000000000
40
0.0000000000
40
1.0000000000
40
1.0000000000
40
1.0000000000
40
1.0000000000
10
346.4223129680
20
112.6355830534
30
0.0000000000
10
346.4344233328
20
112.5842086034
30
0.0000000000
10
346.4463172963
20
112.5327826814
30
0.0000000000
10
346.4579961836
20
112.4813077166
30
0.0000000000
11
346.4223129680
21
112.6355830534
31
0.0000000000
11
346.4579961836
21
112.4813077166
31
0.0000000000
0
SPLINE
5
36B
100
AcDbEntity
8
DEFAULT_2
100
AcDbSpline
62
8
6
HIDDEN
70
0
71
3
72
8
73
4
74
2
42
0.0000001000
43
0.0000001000
44
0.0000000001
40
0.0000000000
40
0.0000000000
40
0.0000000000
40
0.0000000000
40
1.0000000000
40
1.0000000000
40
1.0000000000
40
1.0000000000
10
346.4579961836
20
112.4813077166
30
0.0000000000
10
346.4697520480
20
112.4294934730
30
0.0000000000
10
346.4812899916
20
112.3776295380
30
0.0000000000
10
346.4926113657
20
112.3257183893
30
0.0000000000
11
346.4579961836
21
112.4813077166
31
0.0000000000
11
346.4926113657
21
112.3257183893
31
0.0000000000
0
SPLINE
5
36C
100
AcDbEntity
8
DEFAULT_2
100
AcDbSpline
62
8
6
HIDDEN
70
0
71
3
72
8
73
4
74
2
42
0.0000001000
43
0.0000001000
44
0.0000000001
40
0.0000000000
40
0.0000000000
40
0.0000000000
40
0.0000000000
40
1.0000000000
40
1.0000000000
40
1.0000000000
40
1.0000000000
10
346.4926113657
20
112.3257183893
30
0.0000000000
10
346.4973421973
20
112.3040264202
30
0.0000000000
10
346.5020352129
20
112.2823262069
30
0.0000000000
10
346.5066905042
20
112.2606179212
30
0.0000000000
11
346.4926113657
21
112.3257183893
31
0.0000000000
11
346.5066905042
21
112.2606179212
31
0.0000000000
0
SPLINE
5
36D
100
AcDbEntity
8
DEFAULT_2
100
AcDbSpline
62
8
6
HIDDEN
70
0
71
3
72
8
73
4
74
2
42
0.0000001000
43
0.0000001000
44
0.0000000001
40
0.0000000000
40
0.0000000000
40
0.0000000000
40
0.0000000000
40
1.0000000000
40
1.0000000000
40
1.0000000000
40
1.0000000000
10
346.5066905042
20
112.2606179212
30
0.0000000000
10
346.5132496567
20
112.2300316593
30
0.0000000000
10
346.5197339192
20
112.1994293720
30
0.0000000000
10
346.5261435473
20
112.1688115393
30
0.0000000000
11
346.5066905042
21
112.2606179212
31
0.0000000000
11
346.5261435473
21
112.1688115393
31
0.0000000000
0
SPLINE
5
36E
100
AcDbEntity
8
DEFAULT_2
100
AcDbSpline
62
8
6
HIDDEN
70
0
71
3
72
8
73
4
74
2
42
0.0000001000
43
0.0000001000
44
0.0000000001
40
0.0000000000
40
0.0000000000
40
0.0000000000
40
0.0000000000
40
1.0000000000
40
1.0000000000
40
1.0000000000
40
1.0000000000
10
346.5261435473
20
112.1688115393
30
0.0000000000
10
346.5343927879
20
112.1294061539
30
0.0000000000
10
346.5425184050
20
112.0899750195
30
0.0000000000
10
346.5505209439
20
112.0505191594
30
0.0000000000
11
346.5261435473
21
112.1688115393
31
0.0000000000
11
346.5505209439
21
112.0505191594
31
0.0000000000
0
SPLINE
5
36F
100
AcDbEntity
8
DEFAULT_2
100
AcDbSpline
62
8
6
HIDDEN
70
0
71
3
72
8
73
4
74
2
42
0.0000001000
43
0.0000001000
44
0.0000000001
40
0.0000000000
40
0.0000000000
40
0.0000000000
40
0.0000000000
40
1.0000000000
40
1.0000000000
40
1.0000000000
40
1.0000000000
10
346.5505209439
20
112.0505191594
30
0.0000000000
10
346.5532202926
20
112.0372102421
30
0.0000000000
10
346.5559056377
20
112.0238985116
30
0.0000000000
10
346.5585769999
20
112.0105840071
30
0.0000000000
11
346.5505209439
21
112.0505191594
31
0.0000000000
11
346.5585769999
21
112.0105840071
31
0.0000000000
0
SPLINE
5
370
100
AcDbEntity
8
DEFAULT_2
100
AcDbSpline
62
8
6
HIDDEN
70
0
71
3
72
8
73
4
74
2
42
0.0000001000
43
0.0000001000
44
0.0000000001
40
0.0000000000
40
0.0000000000
40
0.0000000000
40
0.0000000000
40
1.0000000000
40
1.0000000000
40
1.0000000000
40
1.0000000000
10
346.5585769999
20
112.0105840071
30
0.0000000000
10
346.5724663218
20
111.9690479582
30
0.0000000000
10
346.5860024400
20
111.9273925565
30
0.0000000000
10
346.5991829301
20
111.8856245189
30
0.0000000000
11
346.5585769999
21
112.0105840071
31
0.0000000000
11
346.5991829301
21
111.8856245189
31
0.0000000000
0
SPLINE
5
371
100
AcDbEntity
8
DEFAULT_2
100
AcDbSpline
62
8
6
HIDDEN
70
0
71
3
72
8
73
4
74
2
42
0.0000001000
43
0.0000001000
44
0.0000000001
40
0.0000000000
40
0.0000000000
40
0.0000000000
40
0.0000000000
40
1.0000000000
40
1.0000000000
40
1.0000000000
40
1.0000000000
10
346.5991829301
20
111.8856245189
30
0.0000000000
10
346.6056400431
20
111.8651623860
30
0.0000000000
10
346.6120118049
20
111.8446732203
30
0.0000000000
10
346.6182979304
20
111.8241578115
30
0.0000000000
11
346.5991829301
21
111.8856245189
31
0.0000000000
11
346.6182979304
21
111.8241578115
31
0.0000000000
0
SPLINE
5
372
100
AcDbEntity
8
DEFAULT_2
100
AcDbSpline
62
8
6
HIDDEN
70
0
71
3
72
8
73
4
74
2
42
0.0000001000
43
0.0000001000
44
0.0000000001
40
0.0000000000
40
0.0000000000
40
0.0000000000
40
0.0000000000
40
1.0000000000
40
1.0000000000
40
1.0000000000
40
1.0000000000
10
346.6182979304
20
111.8241578115
30
0.0000000000
10
346.6278821507
20
111.7928787355
30
0.0000000000
10
346.6372673012
20
111.7615386550
30
0.0000000000
10
346.6464524699
20
111.7301404165
30
0.0000000000
11
346.6182979304
21
111.8241578115
31
0.0000000000
11
346.6464524699
21
111.7301404165
31
0.0000000000
0
SPLINE
5
373
100
AcDbEntity
8
DEFAULT_2
100
AcDbSpline
62
8
6
HIDDEN
70
0
71
3
72
8
73
4
74
2
42
0.0000001000
43
0.0000001000
44
0.0000000001
40
0.0000000000
40
0.0000000000
40
0.0000000000
40
0.0000000000
40
1.0000000000
40
1.0000000000
40
1.0000000000
40
1.0000000000
10
346.6464524699
20
111.7301404165
30
0.0000000000
10
346.6556561056
20
111.6986790508
30
0.0000000000
10
346.6646589544
20
111.6671592931
30
0.0000000000
10
346.6734600989
20
111.6355840071
30
0.0000000000
11
346.6464524699
21
111.7301404165
31
0.0000000000
11
346.6734600989
21
111.6355840071
31
0.0000000000
0
SPLINE
5
374
100
AcDbEntity
8
DEFAULT_2
100
AcDbSpline
62
8
6
HIDDEN
70
0
71
3
72
8
73
4
74
2
42
0.0000001000
43
0.0000001000
44
0.0000000001
40
0.0000000000
40
0.0000000000
40
0.0000000000
40
0.0000000000
40
1.0000000000
40
1.0000000000
40
1.0000000000
40
1.0000000000
10
346.6734600989
20
111.6355840071
30
0.0000000000
10
346.7016085917
20
111.5951895867
30
0.0000000000
10
346.7282750535
20
111.5537356664
30
0.0000000000
10
346.7531698619
20
111.5112345989
30
0.0000000000
11
346.6734600989
21
111.6355840071
31
0.0000000000
11
346.7531698619
21
111.5112345989
31
0.0000000000
0
SPLINE
5
375
100
AcDbEntity
8
DEFAULT_2
100
AcDbSpline
62
8
6
HIDDEN
70
0
71
3
72
8
73
4
74
2
42
0.0000001000
43
0.0000001000
44
0.0000000001
40
0.0000000000
40
0.0000000000
40
0.0000000000
40
0.0000000000
40
1.0000000000
40
1.0000000000
40
1.0000000000
40
1.0000000000
10
346.7531698619
20
111.5112345989
30
0.0000000000
10
346.7652614496
20
111.4905915243
30
0.0000000000
10
346.7769350840
20
111.4697014156
30
0.0000000000
10
346.7881539152
20
111.4485733992
30
0.0000000000
11
346.7531698619
21
111.5112345989
31
0.0000000000
11
346.7881539152
21
111.4485733992
31
0.0000000000
0
SPLINE
5
376
100
AcDbEntity
8
DEFAULT_2
100
AcDbSpline
62
8
6
HIDDEN
70
0
71
3
72
8
73
4
74
2
42
0.0000001000
43
0.0000001000
44
0.0000000001
40
0.0000000000
40
0.0000000000
40
0.0000000000
40
0.0000000000
40
1.0000000000
40
1.0000000000
40
1.0000000000
40
1.0000000000
10
346.7881539152
20
111.4485733992
30
0.0000000000
10
346.7991821863
20
111.4278042577
30
0.0000000000
10
346.8097709734
20
111.4068052219
30
0.0000000000
10
346.8198852728
20
111.3855849607
30
0.0000000000
11
346.7881539152
21
111.4485733992
31
0.0000000000
11
346.8198852728
21
111.3855849607
31
0.0000000000
0
SPLINE
5
377
100
AcDbEntity
8
DEFAULT_2
100
AcDbSpline
62
8
6
HIDDEN
70
0
71
3
72
9
73
5
74
3
42
0.0000001000
43
0.0000001000
44
0.0000000001
40
0.0000000000
40
0.0000000000
40
0.0000000000
40
0.0000000000
40
0.4997606208
40
1.0000000000
40
1.0000000000
40
1.0000000000
40
1.0000000000
10
346.3719419354
20
120.2605840071
30
0.0000000000
10
346.4304414133
20
120.3819569724
30
0.0000000000
10
346.5395318843
20
120.6287429913
30
0.0000000000
10
346.6317532506
20
120.8823306545
30
0.0000000000
10
346.6734600989
20
121.0105840071
30
0.0000000000
11
346.3719419354
21
120.2605840071
31
0.0000000000
11
346.5352664173
21
120.6303236237
31
0.0000000000
11
346.6734600989
21
121.0105840071
31
0.0000000000
0
SPLINE
5
378
100
AcDbEntity
8
DEFAULT_2
100
AcDbSpline
62
8
6
HIDDEN
70
0
71
3
72
8
73
4
74
2
42
0.0000001000
43
0.0000001000
44
0.0000000001
40
0.0000000000
40
0.0000000000
40
0.0000000000
40
0.0000000000
40
1.0000000000
40
1.0000000000
40
1.0000000000
40
1.0000000000
10
359.1412126731
20
215.0470991612
30
0.0000000000
10
359.1102242758
20
215.0525721920
30
0.0000000000
10
359.0792456948
20
215.0581009520
30
0.0000000000
10
359.0482772314
20
215.0636858178
30
0.0000000000
11
359.1412126731
21
215.0470991612
31
0.0000000000
11
359.0482772314
21
215.0636858178
31
0.0000000000
0
SPLINE
5
379
100
AcDbEntity
8
DEFAULT_2
100
AcDbSpline
62
8
6
HIDDEN
70
0
71
3
72
8
73
4
74
2
42
0.0000001000
43
0.0000001000
44
0.0000000001
40
0.0000000000
40
0.0000000000
40
0.0000000000
40
0.0000000000
40
1.0000000000
40
1.0000000000
40
1.0000000000
40
1.0000000000
10
359.0482772314
20
215.0636858178
30
0.0000000000
10
359.0328356749
20
215.0664705547
30
0.0000000000
10
359.0173966339
20
215.0692692408
30
0.0000000000
10
359.0019601467
20
215.0720819244
30
0.0000000000
11
359.0482772314
21
215.0636858178
31
0.0000000000
11
359.0019601467
21
215.0720819244
31
0.0000000000
0
SPLINE
5
37A
100
AcDbEntity
8
DEFAULT_2
100
AcDbSpline
62
8
6
HIDDEN
70
0
71
3
72
8
73
4
74
2
42
0.0000001000
43
0.0000001000
44
0.0000000001
40
0.0000000000
40
0.0000000000
40
0.0000000000
40
0.0000000000
40
1.0000000000
40
1.0000000000
40
1.0000000000
40
1.0000000000
10
359.0019601467
20
215.0720819244
30
0.0000000000
10
358.9865520235
20
215.0748894398
30
0.0000000000
10
358.9711464446
20
215.0777109013
30
0.0000000000
10
358.9557434484
20
215.0805463568
30
0.0000000000
11
359.0019601467
21
215.0720819244
31
0.0000000000
11
358.9557434484
21
215.0805463568
31
0.0000000000
0
SPLINE
5
37B
100
AcDbEntity
8
0
100
AcDbSpline
62
7
6
CONTINUOUS
70
0
71
3
72
8
73
4
74
2
42
0.0000001000
43
0.0000001000
44
0.0000000001
40
0.0000000000
40
0.0000000000
40
0.0000000000
40
0.0000000000
40
1.0000000000
40
1.0000000000
40
1.0000000000
40
1.0000000000
10
346.3719419354
20
136.0105840071
30
0.0000000000
10
346.5103012737
20
135.8965728678
30
0.0000000000
10
346.6391270518
20
135.7689246278
30
0.0000000000
10
346.7430991137
20
135.6213296348
30
0.0000000000
11
346.3719419354
21
136.0105840071
31
0.0000000000
11
346.7430991137
21
135.6213296348
31
0.0000000000
0
SPLINE
5
37C
100
AcDbEntity
8
0
100
AcDbSpline
62
7
6
CONTINUOUS
70
0
71
3
72
9
73
5
74
3
42
0.0000001000
43
0.0000001000
44
0.0000000001
40
0.0000000000
40
0.0000000000
40
0.0000000000
40
0.0000000000
40
0.6852466739
40
1.0000000000
40
1.0000000000
40
1.0000000000
40
1.0000000000
10
346.7430991137
20
135.6213296348
30
0.0000000000
10
346.8295457283
20
135.4986131354
30
0.0000000000
10
346.9306266924
20
135.2994066722
30
0.0000000000
10
346.9548255813
20
135.0797285016
30
0.0000000000
10
346.9548255813
20
135.0105840667
30
0.0000000000
11
346.7430991137
21
135.6213296348
31
0.0000000000
11
346.9319755390
21
135.2159892463
31
0.0000000000
11
346.9548255813
21
135.0105840667
31
0.0000000000
0
SPLINE
5
37D
100
AcDbEntity
8
0
100
AcDbSpline
62
7
6
CONTINUOUS
70
0
71
3
72
9
73
5
74
3
42
0.0000001000
43
0.0000001000
44
0.0000000001
40
0.0000000000
40
0.0000000000
40
0.0000000000
40
0.0000000000
40
0.6498160100
40
1.0000000000
40
1.0000000000
40
1.0000000000
40
1.0000000000
10
346.8748001687
20
135.3844616271
30
0.0000000000
10
346.9083119665
20
135.4623783810
30
0.0000000000
10
346.9462180160
20
135.5875393753
30
0.0000000000
10
346.9551164719
20
135.7177688165
30
0.0000000000
10
346.9548622174
20
135.7634558893
30
0.0000000000
11
346.8748001687
21
135.3844616271
31
0.0000000000
11
346.9453271111
21
135.6271818235
31
0.0000000000
11
346.9548622174
21
135.7634558893
31
0.0000000000
0
SPLINE
5
37E
100
AcDbEntity
8
0
100
AcDbSpline
62
7
6
CONTINUOUS
70
0
71
3
72
8
73
4
74
2
42
0.0000001000
43
0.0000001000
44
0.0000000001
40
0.0000000000
40
0.0000000000
40
0.0000000000
40
0.0000000000
40
1.0000000000
40
1.0000000000
40
1.0000000000
40
1.0000000000
10
346.8758608046
20
131.6342519154
30
0.0000000000
10
346.8891513522
20
131.6652352034
30
0.0000000000
10
346.9009991423
20
131.6967896890
30
0.0000000000
10
346.9111888125
20
131.7288678334
30
0.0000000000
11
346.8758608046
21
131.6342519154
31
0.0000000000
11
346.9111888125
21
131.7288678334
31
0.0000000000
0
SPLINE
5
37F
100
AcDbEntity
8
0
100
AcDbSpline
62
7
6
CONTINUOUS
70
0
71
3
72
9
73
5
74
3
42
0.0000001000
43
0.0000001000
44
0.0000000001
40
0.0000000000
40
0.0000000000
40
0.0000000000
40
0.0000000000
40
0.2772252376
40
1.0000000000
40
1.0000000000
40
1.0000000000
40
1.0000000000
10
346.9111888125
20
131.7288678334
30
0.0000000000
10
346.9191692823
20
131.7539911847
30
0.0000000000
10
346.9442874704
20
131.8457741645
30
0.0000000000
10
346.9548255818
20
131.9414394406
30
0.0000000000
10
346.9548255818
20
132.0105838879
30
0.0000000000
11
346.9111888125
21
131.7288678334
31
0.0000000000
11
346.9319755389
21
131.8051786708
31
0.0000000000
11
346.9548255818
21
132.0105838879
31
0.0000000000
0
SPLINE
5
380
100
AcDbEntity
8
0
100
AcDbSpline
62
7
6
CONTINUOUS
70
0
71
3
72
8
73
4
74
2
42
0.0000001000
43
0.0000001000
44
0.0000000001
40
0.0000000000
40
0.0000000000
40
0.0000000000
40
0.0000000000
40
1.0000000000
40
1.0000000000
40
1.0000000000
40
1.0000000000
10
346.8982427707
20
131.6355842455
30
0.0000000000
10
346.9348635536
20
131.5364313330
30
0.0000000000
10
346.9552086897
20
131.4294212624
30
0.0000000000
10
346.9555536423
20
131.3228471296
30
0.0000000000
11
346.8982427707
21
131.6355842455
31
0.0000000000
11
346.9555536423
21
131.3228471296
31
0.0000000000
0
SPLINE
5
381
100
AcDbEntity
8
0
100
AcDbSpline
62
7
6
CONTINUOUS
70
0
71
3
72
8
73
4
74
2
42
0.0000001000
43
0.0000001000
44
0.0000000001
40
0.0000000000
40
0.0000000000
40
0.0000000000
40
0.0000000000
40
1.0000000000
40
1.0000000000
40
1.0000000000
40
1.0000000000
10
346.9555536423
20
129.6983213614
30
0.0000000000
10
346.9552086897
20
129.5917472286
30
0.0000000000
10
346.9348635536
20
129.4847371580
30
0.0000000000
10
346.8982427707
20
129.3855842455
30
0.0000000000
11
346.9555536423
21
129.6983213614
31
0.0000000000
11
346.8982427707
21
129.3855842455
31
0.0000000000
0
SPLINE
5
382
100
AcDbEntity
8
0
100
AcDbSpline
62
7
6
CONTINUOUS
70
0
71
3
72
9
73
5
74
3
42
0.0000001000
43
0.0000001000
44
0.0000000001
40
0.0000000000
40
0.0000000000
40
0.0000000000
40
0.0000000000
40
0.7227747624
40
1.0000000000
40
1.0000000000
40
1.0000000000
40
1.0000000000
10
346.9548255818
20
129.0105838878
30
0.0000000000
10
346.9548255818
20
129.0797283351
30
0.0000000000
10
346.9442874704
20
129.1753936113
30
0.0000000000
10
346.9191692823
20
129.2671765911
30
0.0000000000
10
346.9111888125
20
129.2922999424
30
0.0000000000
11
346.9548255818
21
129.0105838878
31
0.0000000000
11
346.9319755389
21
129.2159891049
31
0.0000000000
11
346.9111888125
21
129.2922999424
31
0.0000000000
0
SPLINE
5
383
100
AcDbEntity
8
0
100
AcDbSpline
62
7
6
CONTINUOUS
70
0
71
3
72
8
73
4
74
2
42
0.0000001000
43
0.0000001000
44
0.0000000001
40
0.0000000000
40
0.0000000000
40
0.0000000000
40
0.0000000000
40
1.0000000000
40
1.0000000000
40
1.0000000000
40
1.0000000000
10
346.9111888125
20
129.2922999424
30
0.0000000000
10
346.9009990660
20
129.3243783272
30
0.0000000000
10
346.8891511746
20
129.3559330453
30
0.0000000000
10
346.8758605057
20
129.3869165570
30
0.0000000000
11
346.9111888125
21
129.2922999424
31
0.0000000000
11
346.8758605057
21
129.3869165570
31
0.0000000000
0
SPLINE
5
384
100
AcDbEntity
8
0
100
AcDbSpline
62
7
6
CONTINUOUS
70
0
71
3
72
9
73
5
74
3
42
0.0000001000
43
0.0000001000
44
0.0000000001
40
0.0000000000
40
0.0000000000
40
0.0000000000
40
0.0000000000
40
0.3501840393
40
1.0000000000
40
1.0000000000
40
1.0000000000
40
1.0000000000
10
346.9548622174
20
137.2577122441
30
0.0000000000
10
346.9551164719
20
137.3033993169
30
0.0000000000
10
346.9462180172
20
137.4336287398
30
0.0000000000
10
346.9083119772
20
137.5587897172
30
0.0000000000
10
346.8748001904
20
137.6367064556
30
0.0000000000
11
346.9548622174
21
137.2577122441
31
0.0000000000
11
346.9453271111
21
137.3939863099
31
0.0000000000
11
346.8748001904
21
137.6367064556
31
0.0000000000
0
SPLINE
5
385
100
AcDbEntity
8
0
100
AcDbSpline
62
7
6
CONTINUOUS
70
0
71
3
72
9
73
5
74
3
42
0.0000001000
43
0.0000001000
44
0.0000000001
40
0.0000000000
40
0.0000000000
40
0.0000000000
40
0.0000000000
40
0.3147533296
40
1.0000000000
40
1.0000000000
40
1.0000000000
40
1.0000000000
10
346.9548255816
20
138.0105839773
30
0.0000000000
10
346.9548255816
20
137.9414395363
30
0.0000000000
10
346.9306266927
20
137.7217613487
30
0.0000000000
10
346.8295457293
20
137.5225548663
30
0.0000000000
10
346.7430991136
20
137.3998383543
30
0.0000000000
11
346.9548255816
21
138.0105839773
31
0.0000000000
11
346.9319755390
21
137.8051787791
31
0.0000000000
11
346.7430991136
21
137.3998383543
31
0.0000000000
0
SPLINE
5
386
100
AcDbEntity
8
0
100
AcDbSpline
62
7
6
CONTINUOUS
70
0
71
3
72
8
73
4
74
2
42
0.0000001000
43
0.0000001000
44
0.0000000001
40
0.0000000000
40
0.0000000000
40
0.0000000000
40
0.0000000000
40
1.0000000000
40
1.0000000000
40
1.0000000000
40
1.0000000000
10
346.7430991136
20
137.3998383543
30
0.0000000000
10
346.6391270532
20
137.2522433503
30
0.0000000000
10
346.5103012751
20
137.1245950981
30
0.0000000000
10
346.3719419354
20
137.0105839475
30
0.0000000000
11
346.7430991136
21
137.3998383543
31
0.0000000000
11
346.3719419354
21
137.0105839475
31
0.0000000000
0
SPLINE
5
387
100
AcDbEntity
8
0
100
AcDbSpline
62
7
6
CONTINUOUS
70
0
71
3
72
9
73
5
74
3
42
0.0000001000
43
0.0000001000
44
0.0000000001
40
0.0000000000
40
0.0000000000
40
0.0000000000
40
0.0000000000
40
0.6664662417
40
1.0000000000
40
1.0000000000
40
1.0000000000
40
1.0000000000
10
346.9350909466
20
112.2605830534
30
0.0000000000
10
346.9289350959
20
112.1977906093
30
0.0000000000
10
346.9176434087
20
112.1037639409
30
0.0000000000
10
346.9033069893
20
112.0101704650
30
0.0000000000
10
346.8981896151
20
111.9790099268
30
0.0000000000
11
346.9350909466
21
112.2605830534
31
0.0000000000
11
346.9125316385
21
112.0726518229
31
0.0000000000
11
346.8981896151
21
111.9790099268
31
0.0000000000
0
SPLINE
5
388
100
AcDbEntity
8
0
100
AcDbSpline
62
7
6
CONTINUOUS
70
0
71
3
72
8
73
4
74
2
42
0.0000001000
43
0.0000001000
44
0.0000000001
40
0.0000000000
40
0.0000000000
40
0.0000000000
40
0.0000000000
40
1.0000000000
40
1.0000000000
40
1.0000000000
40
1.0000000000
10
346.8981896151
20
111.9790099268
30
0.0000000000
10
346.8930655776
20
111.9478088154
30
0.0000000000
10
346.8876049710
20
111.9166638956
30
0.0000000000
10
346.8818108232
20
111.8855830534
30
0.0000000000
11
346.8981896151
21
111.9790099268
31
0.0000000000
11
346.8818108232
21
111.8855830534
31
0.0000000000
0
SPLINE
5
389
100
AcDbEntity
8
0
100
AcDbSpline
62
7
6
CONTINUOUS
70
0
71
3
72
9
73
5
74
3
42
0.0000001000
43
0.0000001000
44
0.0000000001
40
0.0000000000
40
0.0000000000
40
0.0000000000
40
0.0000000000
40
0.5003783876
40
1.0000000000
40
1.0000000000
40
1.0000000000
40
1.0000000000
10
346.9493749123
20
112.7605840071
30
0.0000000000
10
346.9476743193
20
112.6771700617
30
0.0000000000
10
346.9435945371
20
112.5104815148
30
0.0000000000
10
346.9381514247
20
112.3438319132
30
0.0000000000
10
346.9350909466
20
112.2605830534
30
0.0000000000
11
346.9493749123
21
112.7605840071
31
0.0000000000
11
346.9432501010
21
112.5103651201
31
0.0000000000
11
346.9350909466
21
112.2605830534
31
0.0000000000
0
SPLINE
5
38A
100
AcDbEntity
8
0
100
AcDbSpline
62
7
6
CONTINUOUS
70
0
71
3
72
9
73
5
74
3
42
0.0000001000
43
0.0000001000
44
0.0000000001
40
0.0000000000
40
0.0000000000
40
0.0000000000
40
0.0000000000
40
0.5000150457
40
1.0000000000
40
1.0000000000
40
1.0000000000
40
1.0000000000
10
346.9534513462
20
113.2605849607
30
0.0000000000
10
346.9529418971
20
113.1772477051
30
0.0000000000
10
346.9517531109
20
113.0105792047
30
0.0000000000
10
346.9502244098
20
112.8439134751
30
0.0000000000
10
346.9493749745
20
112.7605840071
30
0.0000000000
11
346.9534513462
21
113.2605849607
31
0.0000000000
11
346.9516680913
21
113.0105748822
31
0.0000000000
11
346.9493749745
21
112.7605840071
31
0.0000000000
0
SPLINE
5
38B
100
AcDbEntity
8
0
100
AcDbSpline
62
7
6
CONTINUOUS
70
0
71
3
72
9
73
5
74
3
42
0.0000001000
43
0.0000001000
44
0.0000000001
40
0.0000000000
40
0.0000000000
40
0.0000000000
40
0.0000000000
40
0.5000150457
40
1.0000000000
40
1.0000000000
40
1.0000000000
40
1.0000000000
10
346.9534513462
20
113.7605830534
30
0.0000000000
10
346.9529418971
20
113.8439203090
30
0.0000000000
10
346.9517531109
20
114.0105888095
30
0.0000000000
10
346.9502244098
20
114.1772545391
30
0.0000000000
10
346.9493749745
20
114.2605840071
30
0.0000000000
11
346.9534513462
21
113.7605830534
31
0.0000000000
11
346.9516680913
21
114.0105931320
31
0.0000000000
11
346.9493749745
21
114.2605840071
31
0.0000000000
0
SPLINE
5
38C
100
AcDbEntity
8
0
100
AcDbSpline
62
7
6
CONTINUOUS
70
0
71
3
72
9
73
5
74
3
42
0.0000001000
43
0.0000001000
44
0.0000000001
40
0.0000000000
40
0.0000000000
40
0.0000000000
40
0.0000000000
40
0.5003783876
40
1.0000000000
40
1.0000000000
40
1.0000000000
40
1.0000000000
10
346.9493749123
20
114.2605840071
30
0.0000000000
10
346.9476743193
20
114.3439979525
30
0.0000000000
10
346.9435945371
20
114.5106864994
30
0.0000000000
10
346.9381514247
20
114.6773361010
30
0.0000000000
10
346.9350909466
20
114.7605849607
30
0.0000000000
11
346.9493749123
21
114.2605840071
31
0.0000000000
11
346.9432501010
21
114.5108028941
31
0.0000000000
11
346.9350909466
21
114.7605849607
31
0.0000000000
0
SPLINE
5
38D
100
AcDbEntity
8
0
100
AcDbSpline
62
7
6
CONTINUOUS
70
0
71
3
72
9
73
5
74
3
42
0.0000001000
43
0.0000001000
44
0.0000000001
40
0.0000000000
40
0.0000000000
40
0.0000000000
40
0.0000000000
40
0.6664662333
40
1.0000000000
40
1.0000000000
40
1.0000000000
40
1.0000000000
10
346.9350909466
20
114.7605849607
30
0.0000000000
10
346.9289350958
20
114.8233771662
30
0.0000000000
10
346.9176434084
20
114.9174034770
30
0.0000000000
10
346.9033069893
20
115.0109965938
30
0.0000000000
10
346.8981896152
20
115.0421570127
30
0.0000000000
11
346.9350909466
21
114.7605849607
31
0.0000000000
11
346.9125316386
21
114.9485154737
31
0.0000000000
11
346.8981896152
21
115.0421570127
31
0.0000000000
0
SPLINE
5
38E
100
AcDbEntity
8
0
100
AcDbSpline
62
7
6
CONTINUOUS
70
0
71
3
72
8
73
4
74
2
42
0.0000001000
43
0.0000001000
44
0.0000000001
40
0.0000000000
40
0.0000000000
40
0.0000000000
40
0.0000000000
40
1.0000000000
40
1.0000000000
40
1.0000000000
40
1.0000000000
10
346.8981896152
20
115.0421570127
30
0.0000000000
10
346.8930655776
20
115.0733580058
30
0.0000000000
10
346.8876049710
20
115.1045028069
30
0.0000000000
10
346.8818108232
20
115.1355835302
30
0.0000000000
11
346.8981896152
21
115.0421570127
31
0.0000000000
11
346.8818108232
21
115.1355835302
31
0.0000000000
0
SPLINE
5
38F
100
AcDbEntity
8
0
100
AcDbSpline
62
7
6
CONTINUOUS
70
0
71
3
72
8
73
4
74
2
42
0.0000001000
43
0.0000001000
44
0.0000000001
40
0.0000000000
40
0.0000000000
40
0.0000000000
40
0.0000000000
40
1.0000000000
40
1.0000000000
40
1.0000000000
40
1.0000000000
10
346.9554888043
20
112.2605830534
30
0.0000000000
10
346.9555736866
20
112.2397498802
30
0.0000000000
10
346.9556373477
20
112.2189166097
30
0.0000000000
10
346.9556797881
20
112.1980832905
30
0.0000000000
11
346.9554888043
21
112.2605830534
31
0.0000000000
11
346.9556797881
21
112.1980832905
31
0.0000000000
0
SPLINE
5
390
100
AcDbEntity
8
0
100
AcDbSpline
62
7
6
CONTINUOUS
70
0
71
3
72
8
73
4
74
2
42
0.0000001000
43
0.0000001000
44
0.0000000001
40
0.0000000000
40
0.0000000000
40
0.0000000000
40
0.0000000000
40
1.0000000000
40
1.0000000000
40
1.0000000000
40
1.0000000000
10
346.9556797881
20
112.1980832905
30
0.0000000000
10
346.9557222283
20
112.1772500695
30
0.0000000000
10
346.9557434481
20
112.1564167999
30
0.0000000000
10
346.9557434484
20
112.1355835302
30
0.0000000000
11
346.9556797881
21
112.1980832905
31
0.0000000000
11
346.9557434484
21
112.1355835302
31
0.0000000000
0
SPLINE
5
391
100
AcDbEntity
8
0
100
AcDbSpline
62
7
6
CONTINUOUS
70
0
71
3
72
9
73
5
74
3
42
0.0000001000
43
0.0000001000
44
0.0000000001
40
0.0000000000
40
0.0000000000
40
0.0000000000
40
0.0000000000
40
0.4906182577
40
1.0000000000
40
1.0000000000
40
1.0000000000
40
1.0000000000
10
346.8198852394
20
111.2605840071
30
0.0000000000
10
346.7994818813
20
111.3033911949
30
0.0000000000
10
346.7539592300
20
111.3888077699
30
0.0000000000
10
346.7016086060
20
111.4701886287
30
0.0000000000
10
346.6734601233
20
111.5105830534
30
0.0000000000
11
346.8198852394
21
111.2605840071
31
0.0000000000
11
346.7531698577
21
111.3862336351
31
0.0000000000
11
346.6734601233
21
111.5105830534
31
0.0000000000
0
SPLINE
5
392
100
AcDbEntity
8
0
100
AcDbSpline
62
7
6
CONTINUOUS
70
0
71
3
72
9
73
5
74
3
42
0.0000001000
43
0.0000001000
44
0.0000000001
40
0.0000000000
40
0.0000000000
40
0.0000000000
40
0.0000000000
40
0.5009153578
40
1.0000000000
40
1.0000000000
40
1.0000000000
40
1.0000000000
10
346.6734601233
20
111.5105830534
30
0.0000000000
10
346.6558754899
20
111.5736702794
30
0.0000000000
10
346.6191630332
20
111.6991716381
30
0.0000000000
10
346.5792707044
20
111.8236985322
30
0.0000000000
10
346.5585770146
20
111.8855830534
30
0.0000000000
11
346.6734601233
21
111.5105830534
31
0.0000000000
11
346.6182979417
21
111.6991568865
31
0.0000000000
11
346.5585770146
21
111.8855830534
31
0.0000000000
0
SPLINE
5
393
100
AcDbEntity
8
0
100
AcDbSpline
62
7
6
CONTINUOUS
70
0
71
3
72
9
73
5
74
3
42
0.0000001000
43
0.0000001000
44
0.0000000001
40
0.0000000000
40
0.0000000000
40
0.0000000000
40
0.0000000000
40
0.5033029486
40
1.0000000000
40
1.0000000000
40
1.0000000000
40
1.0000000000
10
346.5585770146
20
111.8855830534
30
0.0000000000
10
346.5374652364
20
111.9908080692
30
0.0000000000
10
346.4937835755
20
112.1995327781
30
0.0000000000
10
346.4466135200
20
112.4074969944
30
0.0000000000
10
346.4223129723
20
112.5105849607
30
0.0000000000
11
346.5585770146
21
111.8855830534
31
0.0000000000
11
346.4926113602
21
112.2007189488
31
0.0000000000
11
346.4223129723
21
112.5105849607
31
0.0000000000
0
SPLINE
5
394
100
AcDbEntity
8
0
100
AcDbSpline
62
7
6
CONTINUOUS
70
0
71
3
72
9
73
5
74
3
42
0.0000001000
43
0.0000001000
44
0.0000000001
40
0.0000000000
40
0.0000000000
40
0.0000000000
40
0.0000000000
40
0.5010467428
40
1.0000000000
40
1.0000000000
40
1.0000000000
40
1.0000000000
10
346.4223129723
20
112.5105849607
30
0.0000000000
10
346.4141095571
20
112.6149862524
30
0.0000000000
10
346.3975289790
20
112.8233363315
30
0.0000000000
10
346.3805293135
20
113.0316526376
30
0.0000000000
10
346.3719419354
20
113.1355840071
30
0.0000000000
11
346.4223129723
21
112.5105849607
31
0.0000000000
11
346.3973890568
21
112.8237640307
31
0.0000000000
11
346.3719419354
21
113.1355840071
31
0.0000000000
0
SPLINE
5
395
100
AcDbEntity
8
0
100
AcDbSpline
62
7
6
CONTINUOUS
70
0
71
3
72
9
73
5
74
3
42
0.0000001000
43
0.0000001000
44
0.0000000001
40
0.0000000000
40
0.0000000000
40
0.0000000000
40
0.0000000000
40
0.4666985154
40
1.0000000000
40
1.0000000000
40
1.0000000000
40
1.0000000000
10
346.8198852394
20
131.7605837687
30
0.0000000000
10
346.7678147662
20
131.8516227102
30
0.0000000000
10
346.6314409881
20
132.0327189774
30
0.0000000000
10
346.4652127460
20
132.1853279579
30
0.0000000000
10
346.3719419354
20
132.2605840071
30
0.0000000000
11
346.8198852394
21
131.7605837687
31
0.0000000000
11
346.6340213603
21
132.0144526835
31
0.0000000000
11
346.3719419354
21
132.2605840071
31
0.0000000000
0
SPLINE
5
396
100
AcDbEntity
8
0
100
AcDbSpline
62
7
6
CONTINUOUS
70
0
71
3
72
9
73
5
74
3
42
0.0000001000
43
0.0000001000
44
0.0000000001
40
0.0000000000
40
0.0000000000
40
0.0000000000
40
0.0000000000
40
0.5010467428
40
1.0000000000
40
1.0000000000
40
1.0000000000
40
1.0000000000
10
346.4223129723
20
114.5105830534
30
0.0000000000
10
346.4141095571
20
114.4061817618
30
0.0000000000
10
346.3975289790
20
114.1978316827
30
0.0000000000
10
346.3805293135
20
113.9895153766
30
0.0000000000
10
346.3719419354
20
113.8855840071
30
0.0000000000
11
346.4223129723
21
114.5105830534
31
0.0000000000
11
346.3973890568
21
114.1974039834
31
0.0000000000
11
346.3719419354
21
113.8855840071
31
0.0000000000
0
SPLINE
5
397
100
AcDbEntity
8
0
100
AcDbSpline
62
7
6
CONTINUOUS
70
0
71
3
72
9
73
5
74
3
42
0.0000001000
43
0.0000001000
44
0.0000000001
40
0.0000000000
40
0.0000000000
40
0.0000000000
40
0.0000000000
40
0.5033029390
40
1.0000000000
40
1.0000000000
40
1.0000000000
40
1.0000000000
10
346.5585770146
20
115.1355835302
30
0.0000000000
10
346.5374652365
20
115.0303587557
30
0.0000000000
10
346.4937835752
20
114.8216345227
30
0.0000000000
10
346.4466135200
20
114.6136707841
30
0.0000000000
10
346.4223129723
20
114.5105830534
30
0.0000000000
11
346.5585770146
21
115.1355835302
31
0.0000000000
11
346.4926113610
21
114.8204483597
31
0.0000000000
11
346.4223129723
21
114.5105830534
31
0.0000000000
0
SPLINE
5
398
100
AcDbEntity
8
0
100
AcDbSpline
62
7
6
CONTINUOUS
70
0
71
3
72
9
73
5
74
3
42
0.0000001000
43
0.0000001000
44
0.0000000001
40
0.0000000000
40
0.0000000000
40
0.0000000000
40
0.0000000000
40
0.4666985154
40
1.0000000000
40
1.0000000000
40
1.0000000000
40
1.0000000000
10
346.8198852394
20
129.2605840071
30
0.0000000000
10
346.7678147662
20
129.1695450656
30
0.0000000000
10
346.6314409881
20
128.9884487984
30
0.0000000000
10
346.4652127460
20
128.8358398179
30
0.0000000000
10
346.3719419354
20
128.7605837687
30
0.0000000000
11
346.8198852394
21
129.2605840071
31
0.0000000000
11
346.6340213603
21
129.0067150923
31
0.0000000000
11
346.3719419354
21
128.7605837687
31
0.0000000000
0
SPLINE
5
399
100
AcDbEntity
8
0
100
AcDbSpline
62
7
6
CONTINUOUS
70
0
71
3
72
9
73
5
74
3
42
0.0000001000
43
0.0000001000
44
0.0000000001
40
0.0000000000
40
0.0000000000
40
0.0000000000
40
0.0000000000
40
0.5009153578
40
1.0000000000
40
1.0000000000
40
1.0000000000
40
1.0000000000
10
346.6734601233
20
115.5105835302
30
0.0000000000
10
346.6558754899
20
115.4474963042
30
0.0000000000
10
346.6191630332
20
115.3219949455
30
0.0000000000
10
346.5792707044
20
115.1974680514
30
0.0000000000
10
346.5585770146
20
115.1355835302
30
0.0000000000
11
346.6734601233
21
115.5105835302
31
0.0000000000
11
346.6182979417
21
115.3220096972
31
0.0000000000
11
346.5585770146
21
115.1355835302
31
0.0000000000
0
SPLINE
5
39A
100
AcDbEntity
8
0
100
AcDbSpline
62
7
6
CONTINUOUS
70
0
71
3
72
9
73
5
74
3
42
0.0000001000
43
0.0000001000
44
0.0000000001
40
0.0000000000
40
0.0000000000
40
0.0000000000
40
0.0000000000
40
0.4906183631
40
1.0000000000
40
1.0000000000
40
1.0000000000
40
1.0000000000
10
346.8198852394
20
115.7605840071
30
0.0000000000
10
346.7994818852
20
115.7177765825
30
0.0000000000
10
346.7539592449
20
115.6323595360
30
0.0000000000
10
346.7016086115
20
115.5509781940
30
0.0000000000
10
346.6734601233
20
115.5105835302
30
0.0000000000
11
346.8198852394
21
115.7605840071
31
0.0000000000
11
346.7531698572
21
115.6349336592
31
0.0000000000
11
346.6734601233
21
115.5105835302
31
0.0000000000
0
SPLINE
5
39B
100
AcDbEntity
8
0
100
AcDbSpline
62
7
6
CONTINUOUS
70
0
71
3
72
8
73
4
74
2
42
0.0000001000
43
0.0000001000
44
0.0000000001
40
0.0000000000
40
0.0000000000
40
0.0000000000
40
0.0000000000
40
1.0000000000
40
1.0000000000
40
1.0000000000
40
1.0000000000
10
346.9554888043
20
114.7605849607
30
0.0000000000
10
346.9555736866
20
114.7814181340
30
0.0000000000
10
346.9556373477
20
114.8022514045
30
0.0000000000
10
346.9556797881
20
114.8230847236
30
0.0000000000
11
346.9554888043
21
114.7605849607
31
0.0000000000
11
346.9556797881
21
114.8230847236
31
0.0000000000
0
SPLINE
5
39C
100
AcDbEntity
8
0
100
AcDbSpline
62
7
6
CONTINUOUS
70
0
71
3
72
8
73
4
74
2
42
0.0000001000
43
0.0000001000
44
0.0000000001
40
0.0000000000
40
0.0000000000
40
0.0000000000
40
0.0000000000
40
1.0000000000
40
1.0000000000
40
1.0000000000
40
1.0000000000
10
346.9556797881
20
114.8230847236
30
0.0000000000
10
346.9557222283
20
114.8439179446
30
0.0000000000
10
346.9557434481
20
114.8647512143
30
0.0000000000
10
346.9557434484
20
114.8855844839
30
0.0000000000
11
346.9556797881
21
114.8230847236
31
0.0000000000
11
346.9557434484
21
114.8855844839
31
0.0000000000
0
SPLINE
5
39D
100
AcDbEntity
8
0
100
AcDbSpline
62
7
6
CONTINUOUS
70
0
71
3
72
9
73
5
74
3
42
0.0000001000
43
0.0000001000
44
0.0000000001
40
0.0000000000
40
0.0000000000
40
0.0000000000
40
0.0000000000
40
0.5018818662
40
1.0000000000
40
1.0000000000
40
1.0000000000
40
1.0000000000
10
346.7071725786
20
114.7605849607
30
0.0000000000
10
346.6962558873
20
114.6768368131
30
0.0000000000
10
346.6737657459
20
114.5100639935
30
0.0000000000
10
346.6497917713
20
114.3434979900
30
0.0000000000
10
346.6374785298
20
114.2605840071
30
0.0000000000
11
346.7071725786
21
114.7605849607
31
0.0000000000
11
346.6733073431
21
114.5094883992
31
0.0000000000
11
346.6374785298
21
114.2605840071
31
0.0000000000
0
SPLINE
5
39E
100
AcDbEntity
8
0
100
AcDbSpline
62
7
6
CONTINUOUS
70
0
71
3
72
9
73
5
74
3
42
0.0000001000
43
0.0000001000
44
0.0000000001
40
0.0000000000
40
0.0000000000
40
0.0000000000
40
0.0000000000
40
0.5008685751
40
1.0000000000
40
1.0000000000
40
1.0000000000
40
1.0000000000
10
346.6374785298
20
114.2605840071
30
0.0000000000
10
346.6312789312
20
114.1770912216
30
0.0000000000
10
346.6187101430
20
114.0104093599
30
0.0000000000
10
346.6057572786
20
113.8437569034
30
0.0000000000
10
346.5991957523
20
113.7605830534
30
0.0000000000
11
346.6374785298
21
114.2605840071
31
0.0000000000
11
346.6185919562
21
114.0101271853
31
0.0000000000
11
346.5991957523
21
113.7605830534
31
0.0000000000
0
SPLINE
5
39F
100
AcDbEntity
8
0
100
AcDbSpline
62
7
6
CONTINUOUS
70
0
71
3
72
9
73
5
74
3
42
0.0000001000
43
0.0000001000
44
0.0000000001
40
0.0000000000
40
0.0000000000
40
0.0000000000
40
0.0000000000
40
0.3798907707
40
1.0000000000
40
1.0000000000
40
1.0000000000
40
1.0000000000
10
346.9548622174
20
135.7634558893
30
0.0000000000
10
346.9542768858
20
135.8686342820
30
0.0000000000
10
346.9057160749
20
136.1466543625
30
0.0000000000
10
346.7491769182
20
136.3821691200
30
0.0000000000
10
346.6374785298
20
136.5105840667
30
0.0000000000
11
346.9548622174
21
135.7634558893
31
0.0000000000
11
346.9017981674
21
136.0737345667
31
0.0000000000
11
346.6374785298
21
136.5105840667
31
0.0000000000
0
SPLINE
5
3A0
100
AcDbEntity
8
0
100
AcDbSpline
62
7
6
CONTINUOUS
70
0
71
3
72
8
73
4
74
2
42
0.0000001000
43
0.0000001000
44
0.0000000001
40
0.0000000000
40
0.0000000000
40
0.0000000000
40
0.0000000000
40
1.0000000000
40
1.0000000000
40
1.0000000000
40
1.0000000000
10
346.9554888043
20
112.0105840071
30
0.0000000000
10
346.9552312178
20
111.9684364886
30
0.0000000000
10
346.9547782080
20
111.9262897156
30
0.0000000000
10
346.9541297410
20
111.8841457285
30
0.0000000000
11
346.9554888043
21
112.0105840071
31
0.0000000000
11
346.9541297410
21
111.8841457285
31
0.0000000000
0
SPLINE
5
3A1
100
AcDbEntity
8
0
100
AcDbSpline
62
7
6
CONTINUOUS
70
0
71
3
72
9
73
5
74
3
42
0.0000001000
43
0.0000001000
44
0.0000000001
40
0.0000000000
40
0.0000000000
40
0.0000000000
40
0.0000000000
40
0.3311255421
40
1.0000000000
40
1.0000000000
40
1.0000000000
40
1.0000000000
10
346.9541297410
20
111.8841457285
30
0.0000000000
10
346.9534950925
20
111.8428998021
30
0.0000000000
10
346.9510130604
20
111.7183450555
30
0.0000000000
10
346.9468232558
20
111.5938320900
30
0.0000000000
10
346.9432563405
20
111.5105830534
30
0.0000000000
11
346.9541297410
21
111.8841457285
31
0.0000000000
11
346.9516641168
21
111.7604178672
31
0.0000000000
11
346.9432563405
21
111.5105830534
31
0.0000000000
0
SPLINE
5
3A2
100
AcDbEntity
8
0
100
AcDbSpline
62
7
6
CONTINUOUS
70
0
71
3
72
9
73
5
74
3
42
0.0000001000
43
0.0000001000
44
0.0000000001
40
0.0000000000
40
0.0000000000
40
0.0000000000
40
0.0000000000
40
0.4951001758
40
1.0000000000
40
1.0000000000
40
1.0000000000
40
1.0000000000
10
346.9432563405
20
111.5105830534
30
0.0000000000
10
346.9372422242
20
111.4684738629
30
0.0000000000
10
346.9207638399
20
111.3839899559
30
0.0000000000
10
346.8961242073
20
111.3015329440
30
0.0000000000
10
346.8818108232
20
111.2605840071
30
0.0000000000
11
346.9432563405
21
111.5105830534
31
0.0000000000
11
346.9189248030
21
111.3853147095
31
0.0000000000
11
346.8818108232
21
111.2605840071
31
0.0000000000
0
SPLINE
5
3A3
100
AcDbEntity
8
0
100
AcDbSpline
62
7
6
CONTINUOUS
70
0
71
3
72
9
73
5
74
3
42
0.0000001000
43
0.0000001000
44
0.0000000001
40
0.0000000000
40
0.0000000000
40
0.0000000000
40
0.0000000000
40
0.5008685751
40
1.0000000000
40
1.0000000000
40
1.0000000000
40
1.0000000000
10
346.6374785298
20
112.7605840071
30
0.0000000000
10
346.6312789312
20
112.8440767925
30
0.0000000000
10
346.6187101430
20
113.0107586542
30
0.0000000000
10
346.6057572786
20
113.1774111108
30
0.0000000000
10
346.5991957523
20
113.2605849607
30
0.0000000000
11
346.6374785298
21
112.7605840071
31
0.0000000000
11
346.6185919562
21
113.0110408288
31
0.0000000000
11
346.5991957523
21
113.2605849607
31
0.0000000000
0
SPLINE
5
3A4
100
AcDbEntity
8
0
100
AcDbSpline
62
7
6
CONTINUOUS
70
0
71
3
72
9
73
5
74
3
42
0.0000001000
43
0.0000001000
44
0.0000000001
40
0.0000000000
40
0.0000000000
40
0.0000000000
40
0.0000000000
40
0.5018818662
40
1.0000000000
40
1.0000000000
40
1.0000000000
40
1.0000000000
10
346.7071725786
20
112.2605830534
30
0.0000000000
10
346.6962558873
20
112.3443312010
30
0.0000000000
10
346.6737657459
20
112.5111040206
30
0.0000000000
10
346.6497917713
20
112.6776700242
30
0.0000000000
10
346.6374785298
20
112.7605840071
30
0.0000000000
11
346.7071725786
21
112.2605830534
31
0.0000000000
11
346.6733073431
21
112.5116796149
31
0.0000000000
11
346.6374785298
21
112.7605840071
31
0.0000000000
0
SPLINE
5
3A5
100
AcDbEntity
8
0
100
AcDbSpline
62
7
6
CONTINUOUS
70
0
71
3
72
9
73
5
74
3
42
0.0000001000
43
0.0000001000
44
0.0000000001
40
0.0000000000
40
0.0000000000
40
0.0000000000
40
0.0000000000
40
0.4992422124
40
1.0000000000
40
1.0000000000
40
1.0000000000
40
1.0000000000
10
346.8198852394
20
111.8855830534
30
0.0000000000
10
346.8038274145
20
111.9487521519
30
0.0000000000
10
346.7689104299
20
112.0745977728
30
0.0000000000
10
346.7286377375
20
112.1988313915
30
0.0000000000
10
346.7071725786
20
112.2605830534
30
0.0000000000
11
346.8198852394
21
111.8855830534
31
0.0000000000
11
346.7676284777
21
112.0740052644
31
0.0000000000
11
346.7071725786
21
112.2605830534
31
0.0000000000
0
SPLINE
5
3A6
100
AcDbEntity
8
0
100
AcDbSpline
62
7
6
CONTINUOUS
70
0
71
3
72
8
73
4
74
2
42
0.0000001000
43
0.0000001000
44
0.0000000001
40
0.0000000000
40
0.0000000000
40
0.0000000000
40
0.0000000000
40
1.0000000000
40
1.0000000000
40
1.0000000000
40
1.0000000000
10
346.9557434484
20
112.1355835302
30
0.0000000000
10
346.9557434488
20
112.0939168928
30
0.0000000000
10
346.9556585703
20
112.0522502554
30
0.0000000000
10
346.9554888059
20
112.0105840071
30
0.0000000000
11
346.9557434484
21
112.1355835302
31
0.0000000000
11
346.9554888059
21
112.0105840071
31
0.0000000000
0
SPLINE
5
3A7
100
AcDbEntity
8
0
100
AcDbSpline
62
7
6
CONTINUOUS
70
0
71
3
72
9
73
5
74
3
42
0.0000001000
43
0.0000001000
44
0.0000000001
40
0.0000000000
40
0.0000000000
40
0.0000000000
40
0.0000000000
40
0.6201092293
40
1.0000000000
40
1.0000000000
40
1.0000000000
40
1.0000000000
10
346.6374785298
20
136.5105840667
30
0.0000000000
10
346.7491769182
20
136.6389990133
30
0.0000000000
10
346.9057160749
20
136.8745137709
30
0.0000000000
10
346.9542768858
20
137.1525338514
30
0.0000000000
10
346.9548622174
20
137.2577122441
30
0.0000000000
11
346.6374785298
21
136.5105840667
31
0.0000000000
11
346.9017981674
21
136.9474335667
31
0.0000000000
11
346.9548622174
21
137.2577122441
31
0.0000000000
0
SPLINE
5
3A8
100
AcDbEntity
8
0
100
AcDbSpline
62
7
6
CONTINUOUS
70
0
71
3
72
8
73
4
74
2
42
0.0000001000
43
0.0000001000
44
0.0000000001
40
0.0000000000
40
0.0000000000
40
0.0000000000
40
0.0000000000
40
1.0000000000
40
1.0000000000
40
1.0000000000
40
1.0000000000
10
346.8818108232
20
115.7605840071
30
0.0000000000
10
346.8961242095
20
115.7196348295
30
0.0000000000
10
346.9085647549
20
115.6780020609
30
0.0000000000
10
346.9189248029
20
115.6358525913
30
0.0000000000
11
346.8818108232
21
115.7605840071
31
0.0000000000
11
346.9189248029
21
115.6358525913
31
0.0000000000
0
SPLINE
5
3A9
100
AcDbEntity
8
0
100
AcDbSpline
62
7
6
CONTINUOUS
70
0
71
3
72
8
73
4
74
2
42
0.0000001000
43
0.0000001000
44
0.0000000001
40
0.0000000000
40
0.0000000000
40
0.0000000000
40
0.0000000000
40
1.0000000000
40
1.0000000000
40
1.0000000000
40
1.0000000000
10
346.9189248029
20
115.6358525913
30
0.0000000000
10
346.9290837744
20
115.5945211939
30
0.0000000000
10
346.9372422248
20
115.5526929579
30
0.0000000000
10
346.9432563405
20
115.5105835302
30
0.0000000000
11
346.9189248029
21
115.6358525913
31
0.0000000000
11
346.9432563405
21
115.5105835302
31
0.0000000000
0
SPLINE
5
3AA
100
AcDbEntity
8
0
100
AcDbSpline
62
7
6
CONTINUOUS
70
0
71
3
72
8
73
4
74
2
42
0.0000001000
43
0.0000001000
44
0.0000000001
40
0.0000000000
40
0.0000000000
40
0.0000000000
40
0.0000000000
40
1.0000000000
40
1.0000000000
40
1.0000000000
40
1.0000000000
10
346.9557434484
20
114.8855844839
30
0.0000000000
10
346.9557434488
20
114.9272511213
30
0.0000000000
10
346.9556585703
20
114.9689177587
30
0.0000000000
10
346.9554888059
20
115.0105840071
30
0.0000000000
11
346.9557434484
21
114.8855844839
31
0.0000000000
11
346.9554888059
21
115.0105840071
31
0.0000000000
0
SPLINE
5
3AB
100
AcDbEntity
8
0
100
AcDbSpline
62
7
6
CONTINUOUS
70
0
71
3
72
8
73
4
74
2
42
0.0000001000
43
0.0000001000
44
0.0000000001
40
0.0000000000
40
0.0000000000
40
0.0000000000
40
0.0000000000
40
1.0000000000
40
1.0000000000
40
1.0000000000
40
1.0000000000
10
346.9554888043
20
115.0105840071
30
0.0000000000
10
346.9552312200
20
115.0527310502
30
0.0000000000
10
346.9547782156
20
115.0948773478
30
0.0000000000
10
346.9541297574
20
115.1370208596
30
0.0000000000
11
346.9554888043
21
115.0105840071
31
0.0000000000
11
346.9541297574
21
115.1370208596
31
0.0000000000
0
SPLINE
5
3AC
100
AcDbEntity
8
0
100
AcDbSpline
62
7
6
CONTINUOUS
70
0
71
3
72
9
73
5
74
3
42
0.0000001000
43
0.0000001000
44
0.0000000001
40
0.0000000000
40
0.0000000000
40
0.0000000000
40
0.0000000000
40
0.3311274462
40
1.0000000000
40
1.0000000000
40
1.0000000000
40
1.0000000000
10
346.9541297574
20
115.1370208596
30
0.0000000000
10
346.9534951066
20
115.1782670227
30
0.0000000000
10
346.9510130723
20
115.3028217681
30
0.0000000000
10
346.9468232558
20
115.4273347319
30
0.0000000000
10
346.9432563405
20
115.5105835302
30
0.0000000000
11
346.9541297574
21
115.1370208596
31
0.0000000000
11
346.9516641168
21
115.2607494311
31
0.0000000000
11
346.9432563405
21
115.5105835302
31
0.0000000000
0
SPLINE
5
3AD
100
AcDbEntity
8
0
100
AcDbSpline
62
7
6
CONTINUOUS
70
0
71
3
72
10
73
6
74
4
42
0.0000001000
43
0.0000001000
44
0.0000000001
40
0.0000000000
40
0.0000000000
40
0.0000000000
40
0.0000000000
40
0.4518047785
40
0.8274537268
40
1.0000000000
40
1.0000000000
40
1.0000000000
40
1.0000000000
10
346.3719419354
20
128.0105837687
30
0.0000000000
10
346.5103012765
20
128.1245949307
30
0.0000000000
10
346.7462380688
20
128.3583751764
30
0.0000000000
10
346.9306266929
20
128.7217612363
30
0.0000000000
10
346.9548255818
20
128.9414394408
30
0.0000000000
10
346.9548255818
20
129.0105838878
30
0.0000000000
11
346.3719419354
21
128.0105837687
31
0.0000000000
11
346.7430991134
21
128.3998382101
31
0.0000000000
11
346.9319755390
21
128.8051786713
31
0.0000000000
11
346.9548255818
21
129.0105838878
31
0.0000000000
0
SPLINE
5
3AE
100
AcDbEntity
8
0
100
AcDbSpline
62
7
6
CONTINUOUS
70
0
71
3
72
10
73
6
74
4
42
0.0000001000
43
0.0000001000
44
0.0000000001
40
0.0000000000
40
0.0000000000
40
0.0000000000
40
0.0000000000
40
0.1725462732
40
0.5481952215
40
1.0000000000
40
1.0000000000
40
1.0000000000
40
1.0000000000
10
346.9548255818
20
132.0105838879
30
0.0000000000
10
346.9548255818
20
132.0797283350
30
0.0000000000
10
346.9306266929
20
132.2994065395
30
0.0000000000
10
346.7462380688
20
132.6627925994
30
0.0000000000
10
346.5103012765
20
132.8965728450
30
0.0000000000
10
346.3719419354
20
133.0105840071
30
0.0000000000
11
346.9548255818
21
132.0105838879
31
0.0000000000
11
346.9319755390
21
132.2159891044
31
0.0000000000
11
346.7430991134
21
132.6213295656
31
0.0000000000
11
346.3719419354
21
133.0105840071
31
0.0000000000
0
SPLINE
5
3AF
100
AcDbEntity
8
0
100
AcDbSpline
62
7
6
CONTINUOUS
70
0
71
3
72
9
73
5
74
3
42
0.0000001000
43
0.0000001000
44
0.0000000001
40
0.0000000000
40
0.0000000000
40
0.0000000000
40
0.0000000000
40
0.4992421861
40
1.0000000000
40
1.0000000000
40
1.0000000000
40
1.0000000000
10
346.8198852394
20
115.1355835302
30
0.0000000000
10
346.8038274139
20
115.0724146706
30
0.0000000000
10
346.7689104276
20
114.9465695239
30
0.0000000000
10
346.7286377366
20
114.8223363845
30
0.0000000000
10
346.7071725786
20
114.7605849607
30
0.0000000000
11
346.8198852394
21
115.1355835302
31
0.0000000000
11
346.7676284781
21
114.9471620395
31
0.0000000000
11
346.7071725786
21
114.7605849607
31
0.0000000000
0
SPLINE
5
3B0
100
AcDbEntity
8
0
100
AcDbSpline
62
7
6
CONTINUOUS
70
0
71
3
72
9
73
5
74
3
42
0.0000001000
43
0.0000001000
44
0.0000000001
40
0.0000000000
40
0.0000000000
40
0.0000000000
40
0.0000000000
40
0.4990802538
40
1.0000000000
40
1.0000000000
40
1.0000000000
40
1.0000000000
10
358.9557434484
20
215.0805463568
30
0.0000000000
10
358.9865777956
20
215.0748702260
30
0.0000000000
10
359.0483808749
20
215.0636094090
30
0.0000000000
10
359.1102242760
20
215.0525721920
30
0.0000000000
10
359.1412126731
20
215.0470991612
30
0.0000000000
11
358.9557434484
21
215.0805463568
31
0.0000000000
11
359.0482772320
21
215.0636858177
31
0.0000000000
11
359.1412126731
21
215.0470991612
31
0.0000000000
0
SPLINE
5
3B1
100
AcDbEntity
8
0
100
AcDbSpline
62
7
6
CONTINUOUS
70
0
71
3
72
9
73
5
74
3
42
0.0000001000
43
0.0000001000
44
0.0000000001
40
0.0000000000
40
0.0000000000
40
0.0000000000
40
0.0000000000
40
0.4990802538
40
1.0000000000
40
1.0000000000
40
1.0000000000
40
1.0000000000
10
318.9557434484
20
215.0805463568
30
0.0000000000
10
318.9249091011
20
215.0748702260
30
0.0000000000
10
318.8631060218
20
215.0636094090
30
0.0000000000
10
318.8012626207
20
215.0525721920
30
0.0000000000
10
318.7702742236
20
215.0470991612
30
0.0000000000
11
318.9557434484
21
215.0805463568
31
0.0000000000
11
318.8632096647
21
215.0636858177
31
0.0000000000
11
318.7702742236
21
215.0470991612
31
0.0000000000
0
SPLINE
5
3B2
100
AcDbEntity
8
0
100
AcDbSpline
62
7
6
CONTINUOUS
70
0
71
3
72
10
73
6
74
4
42
0.0000001000
43
0.0000001000
44
0.0000000001
40
0.0000000000
40
0.0000000000
40
0.0000000000
40
0.0000000000
40
0.3631001680
40
0.6939676562
40
1.0000000000
40
1.0000000000
40
1.0000000000
40
1.0000000000
10
328.4106023872
20
213.0105840071
30
0.0000000000
10
329.0838880442
20
212.5517267658
30
0.0000000000
10
330.4172880669
20
211.7401402327
30
0.0000000000
10
332.4550751179
20
210.7906350065
30
0.0000000000
10
333.8132238018
20
210.3344040852
30
0.0000000000
10
334.4757434484
20
210.1537016693
30
0.0000000000
11
328.4106023872
21
213.0105840071
31
0.0000000000
11
330.5013290421
21
211.7442373135
31
0.0000000000
11
332.5219527031
21
210.8071330202
31
0.0000000000
11
334.4757434484
21
210.1537016693
31
0.0000000000
0
SPLINE
5
3B3
100
AcDbEntity
8
0
100
AcDbSpline
62
7
6
CONTINUOUS
70
0
71
3
72
10
73
6
74
4
42
0.0000001000
43
0.0000001000
44
0.0000000001
40
0.0000000000
40
0.0000000000
40
0.0000000000
40
0.0000000000
40
0.3060194650
40
0.6368819625
40
1.0000000000
40
1.0000000000
40
1.0000000000
40
1.0000000000
10
343.4357434484
20
210.1537016693
30
0.0000000000
10
344.0982352128
20
210.3343964803
30
0.0000000000
10
345.4563466228
20
210.7906111933
30
0.0000000000
10
347.4941385215
20
211.7401057424
30
0.0000000000
10
348.8275657191
20
212.5517041847
30
0.0000000000
10
349.5008845095
20
213.0105840071
30
0.0000000000
11
343.4357434484
21
210.1537016693
31
0.0000000000
11
345.3894534862
21
210.8071009824
31
0.0000000000
11
347.4100514877
21
211.7441807386
31
0.0000000000
11
349.5008845095
21
213.0105840071
31
0.0000000000
0
ENDSEC
0
SECTION
2
OBJECTS
0
DICTIONARY
5
3B4
100
AcDbDictionary
3
ACAD_GROUP
350
3B5
3
ACAD_MLINESTYLE
350
3B6
0
DICTIONARY
5
3B5
102
{ACAD_REACTORS
330
3B4
102
}
100
AcDbDictionary
0
DICTIONARY
5
3B6
102
{ACAD_REACTORS
330
3B4
102
}
100
AcDbDictionary
3
STANDARD
350
3B7
0
MLINESTYLE
5
3B7
102
{ACAD_REACTORS
330
3B6
102
}
100
AcDbMlineStyle
2
STANDARD
70
0
3

62
256
51
90.0
52
90.0
71
2
49
0.5
62
256
6
BYLAYER
49
-0.5
62
256
6
BYLAYER
0
ENDSEC
0
EOF
