999
DXF file: C:\Aktuell-Internet\CAD-Daten\2va1-6.dxf
999
Pro/ENGINEER 2001400 by Parametric Technology Corporation
0
SECTION
2
HEADER
9
$ACADVER
1
AC1014
9
$EXTMAX
10
420.0000000000
20
297.0000000000
9
$EXTMIN
10
0.0000000000
20
0.0000000000
9
$LIMMIN
10
0.0000000000
20
0.0000000000
9
$LIMMAX
10
420.0000000000
20
297.0000000000
9
$VIEWCTR
10
210.0000000000
20
148.5000000000
9
$VIEWSIZE
40
297.0000000000
9
$CLAYER
8
0
9
$LTSCALE
40
23.1000000000
9
$CELTYPE
6
BYLAYER
9
$DIMSCALE
40
1
9
$DIMASZ
40
3.5000000000
9
$DIMEXO
40
2.6250000000
9
$DIMDLI
40
15.9600000000
9
$DIMEXE
40
7.5600000000
9
$DIMCEN
40
3.7800000000
9
$DIMLFAC
40
1.0000000000
9
$DIMTXT
40
3.5000000000
9
$DIMTOL
70
1
9
$DIMTFAC
40
0.6000000000
9
$DIMTP
40
0.0050000000
9
$DIMTM
40
0.0050000000
9
$HANDSEED
5
381
0
ENDSEC
0
SECTION
2
CLASSES
0
ENDSEC
0
SECTION
2
TABLES
0
TABLE
2
VPORT
5
8
100
AcDbSymbolTable
70
2
0
VPORT
5
1F4
100
AcDbSymbolTableRecord
100
AcDbViewportTableRecord
2
*ACTIVE
70
0
10
0.0
20
0.0
11
1.0
21
1.0
12
210.0000000000
22
148.5000000000
13
0.0
23
0.0
14
1.0
24
1.0
15
0.0
25
0.0
16
0.0
26
0.0
36
1.0
17
0.0
27
0.0
37
0.0
40
297.0000000000
41
1.4141414141
42
50.0
43
0.0
44
0.0
50
0.0
51
0.0
71
0
72
100
73
1
74
1
75
0
76
0
77
0
78
0
0
ENDTAB
0
TABLE
2
LTYPE
5
5
100
AcDbSymbolTable
70
6
0
LTYPE
5
14
100
AcDbSymbolTableRecord
100
AcDbLinetypeTableRecord
2
BYBLOCK
70
0
3

72
65
73
0
40
0.0
0
LTYPE
5
15
100
AcDbSymbolTableRecord
100
AcDbLinetypeTableRecord
2
BYLAYER
70
0
3

72
65
73
0
40
0.0
0
LTYPE
5
16
100
AcDbSymbolTableRecord
100
AcDbLinetypeTableRecord
2
CONTINUOUS
70
64
3
Solid line
72
65
73
0
40
0
0
LTYPE
5
1F5
100
AcDbSymbolTableRecord
100
AcDbLinetypeTableRecord
2
CENTER
70
64
3
____ _ ____ _ ____ _ ____ _ ____ _ ____ _ ____
72
65
73
4
40
0.6
49
0.375
74
0
49
-0.075
74
0
49
0.075
74
0
49
-0.075
74
0
0
LTYPE
5
1F6
100
AcDbSymbolTableRecord
100
AcDbLinetypeTableRecord
2
HIDDEN
70
64
3
- - - - - - - - - - - - - - - - - - - -
72
65
73
2
40
0.2
49
0.1
74
0
49
-0.1
74
0
0
LTYPE
5
1F7
100
AcDbSymbolTableRecord
100
AcDbLinetypeTableRecord
2
PHANTOM
70
64
3
_____ _ _ _____ _ _ _____ _ _ _____
72
65
73
6
40
0.8
49
0.45
74
0
49
-0.05
74
0
49
0.1
74
0
49
-0.05
74
0
49
0.1
74
0
49
-0.05
74
0
0
LTYPE
5
1F8
100
AcDbSymbolTableRecord
100
AcDbLinetypeTableRecord
2
DOT
70
64
3
. . . . . . . . . . . . . . . . . . . .
72
65
73
2
40
0.2
49
0.1
74
0
49
-0.1
74
0
0
LTYPE
5
1F9
100
AcDbSymbolTableRecord
100
AcDbLinetypeTableRecord
2
DASHED
70
64
3
- - - - - - - - - - - - - - - - - - - -
72
65
73
2
40
0.2
49
0.1
74
0
49
-0.1
74
0
0
ENDTAB
0
TABLE
2
LAYER
5
2
100
AcDbSymbolTable
70
36
0
LAYER
5
10
100
AcDbSymbolTableRecord
100
AcDbLayerTableRecord
2
0
70
0
62
7
6
CONTINUOUS
0
LAYER
5
1FA
100
AcDbSymbolTableRecord
100
AcDbLayerTableRecord
2
DEFAULT_1
70
0
62
7
6
CENTER
0
LAYER
5
1FB
100
AcDbSymbolTableRecord
100
AcDbLayerTableRecord
2
DEFAULT_2
70
0
62
8
6
HIDDEN
0
LAYER
5
1FC
100
AcDbSymbolTableRecord
100
AcDbLayerTableRecord
2
DEFAULT_3
70
0
62
7
6
PHANTOM
0
ENDTAB
0
TABLE
2
STYLE
5
3
100
AcDbSymbolTable
70
1
0
STYLE
5
11
100
AcDbSymbolTableRecord
100
AcDbTextStyleTableRecord
2
STANDARD
70
0
40
0.0
41
1.0
50
0.0
71
0
42
0.0
3
txt
4

0
STYLE
5
1FD
100
AcDbSymbolTableRecord
100
AcDbTextStyleTableRecord
2
TEXTSTYLE_0
70
0
40
0.0
41
0.80
50
0.0
71
0
42
0.2
3
txt
4

0
ENDTAB
0
TABLE
2
VIEW
5
6
100
AcDbSymbolTable
70
0
0
ENDTAB
0
TABLE
2
UCS
5
7
100
AcDbSymbolTable
70
0
0
ENDTAB
0
TABLE
2
APPID
5
9
100
AcDbSymbolTable
70
1
0
APPID
5
1FE
100
AcDbSymbolTableRecord
100
AcDbRegAppTableRecord
2
ACAD
70
0
0
ENDTAB
0
TABLE
2
DIMSTYLE
5
A
100
AcDbSymbolTable
70
1
0
DIMSTYLE
105
1FF
100
AcDbSymbolTableRecord
100
AcDbDimStyleTableRecord
2
STANDARD
70
0
3

4

5

6

7

40
1.0
41
0.18
42
0.0625
43
0.38
44
0.18
45
0.0
46
0.0
47
0.0050000000
48
0.0050000000
140
3.5000000000
141
0.09
142
0.0
143
25.4
144
1.0000000000
145
0.0
146
0.6000000000
147
0.09
71
1
72
0
73
1
74
1
75
0
76
0
77
0
78
0
170
0
171
2
172
0
173
0
174
0
175
0
176
0
177
0
178
0
270
2
271
3
272
4
273
2
274
2
340
11
275
0
280
0
281
0
282
0
283
1
284
0
285
0
286
0
287
3
288
0
0
ENDTAB
0
TABLE
2
BLOCK_RECORD
5
1
100
AcDbSymbolTable
70
0
0
BLOCK_RECORD
5
1B
100
AcDbSymbolTableRecord
100
AcDbBlockTableRecord
2
*MODEL_SPACE
0
BLOCK_RECORD
5
1C
100
AcDbSymbolTableRecord
100
AcDbBlockTableRecord
2
*PAPER_SPACE
0
ENDTAB
0
ENDSEC
0
SECTION
2
BLOCKS
0
BLOCK
5
1E
100
AcDbEntity
8
0
100
AcDbBlockBegin
2
*MODEL_SPACE
70
0
10
0.0
20
0.0
30
0.0
3
*MODEL_SPACE
1

0
ENDBLK
5
1F
100
AcDbEntity
8
0
100
AcDbBlockEnd
0
BLOCK
5
20
100
AcDbEntity
8
0
100
AcDbBlockBegin
2
*PAPER_SPACE
70
0
10
0.0
20
0.0
30
0.0
3
*PAPER_SPACE
1

0
ENDBLK
5
21
100
AcDbEntity
8
0
100
AcDbBlockEnd
0
ENDSEC
0
SECTION
2
ENTITIES
0
TEXT
5
200
100
AcDbEntity
8
0
100
AcDbText
62
2
6
CONTINUOUS
10
343.1507073250
20
138.3563200889
7
TEXTSTYLE_0
40
6.0000000000
1
VA 1-6
50
90.0000000000
72
5
11
343.1507073250
21
165.6420341144
100
AcDbText
0
LINE
5
201
100
AcDbEntity
8
0
100
AcDbLine
62
7
6
CONTINUOUS
10
0.0000000000
20
0.0000000000
11
0.0000000000
21
297.0000000000
0
LINE
5
202
100
AcDbEntity
8
0
100
AcDbLine
62
7
6
CONTINUOUS
10
0.0000000000
20
0.0000000000
11
420.0000000000
21
0.0000000000
0
LINE
5
203
100
AcDbEntity
8
0
100
AcDbLine
62
7
6
CONTINUOUS
10
0.0000000000
20
297.0000000000
11
420.0000000000
21
297.0000000000
0
LINE
5
204
100
AcDbEntity
8
0
100
AcDbLine
62
7
6
CONTINUOUS
10
420.0000000000
20
0.0000000000
11
420.0000000000
21
297.0000000000
0
LINE
5
205
100
AcDbEntity
8
0
100
AcDbLine
62
7
6
CONTINUOUS
10
169.9305820611
20
173.8007633588
11
169.9305820611
21
123.8007633588
0
LINE
5
206
100
AcDbEntity
8
0
100
AcDbLine
62
7
6
CONTINUOUS
10
174.7816458639
20
141.5090958974
11
174.5688799318
21
141.8215958974
0
LINE
5
207
100
AcDbEntity
8
0
100
AcDbLine
62
7
6
CONTINUOUS
10
174.3561139625
20
141.1965958974
11
174.0369650364
21
141.7174308202
0
LINE
5
208
100
AcDbEntity
8
0
100
AcDbLine
62
7
6
CONTINUOUS
10
174.5688799318
20
141.8215958974
11
174.4624969658
21
142.1340958974
0
LINE
5
209
100
AcDbEntity
8
0
100
AcDbLine
62
7
6
CONTINUOUS
10
174.0369650364
20
141.7174308202
11
173.9305820611
21
142.2382633588
0
LINE
5
20A
100
AcDbEntity
8
0
100
AcDbLine
62
7
6
CONTINUOUS
10
173.9305820611
20
155.2590964934
11
173.9305820611
21
154.6340964934
0
LINE
5
20B
100
AcDbEntity
8
0
100
AcDbLine
62
7
6
CONTINUOUS
10
173.9305820611
20
148.1757633588
11
173.9305820611
21
147.5507633588
0
LINE
5
20C
100
AcDbEntity
8
0
100
AcDbLine
62
7
6
CONTINUOUS
10
173.9305820611
20
142.7590958974
11
173.9305820611
21
142.2382633588
0
LINE
5
20D
100
AcDbEntity
8
0
100
AcDbLine
62
7
6
CONTINUOUS
10
173.9305820611
20
158.1757633588
11
173.9305820611
21
158.8007633588
0
LINE
5
20E
100
AcDbEntity
8
0
100
AcDbLine
62
7
6
CONTINUOUS
10
173.9305820611
20
161.3007633588
11
173.9305820611
21
162.1340966424
0
LINE
5
20F
100
AcDbEntity
8
0
100
AcDbLine
62
7
6
CONTINUOUS
10
174.4624969658
20
142.8632633588
11
174.4624969658
21
142.1340958974
0
LINE
5
210
100
AcDbEntity
8
0
100
AcDbLine
62
7
6
CONTINUOUS
10
175.2071778026
20
157.7590964934
11
175.2071778026
21
155.6757633588
0
LINE
5
211
100
AcDbEntity
8
0
100
AcDbLine
62
7
6
CONTINUOUS
10
175.6327096667
20
157.6549302241
11
175.6327096667
21
155.7799302241
0
LINE
5
212
100
AcDbEntity
8
0
100
AcDbLine
62
7
6
CONTINUOUS
10
175.7390926328
20
146.7174296281
11
175.7390926328
21
145.2590970895
0
LINE
5
213
100
AcDbEntity
8
0
100
AcDbLine
62
7
6
CONTINUOUS
10
176.2710076120
20
146.7174296281
11
176.2710076120
21
145.2590970895
0
LINE
5
214
100
AcDbEntity
8
0
100
AcDbLine
62
7
6
CONTINUOUS
10
176.5901565101
20
142.8632633588
11
176.5901565101
21
142.1340958974
0
LINE
5
215
100
AcDbEntity
8
0
100
AcDbLine
62
7
6
CONTINUOUS
10
175.1007948365
20
141.3007633588
11
174.7816458639
21
141.5090958974
0
LINE
5
216
100
AcDbEntity
8
0
100
AcDbLine
62
7
6
CONTINUOUS
10
174.7816458639
20
140.8840958974
11
174.3561139625
21
141.1965958974
0
LINE
5
217
100
AcDbEntity
8
0
100
AcDbLine
62
7
6
CONTINUOUS
10
176.2710076120
20
143.4882633588
11
176.0582416799
21
143.6965958974
0
LINE
5
218
100
AcDbEntity
8
0
100
AcDbLine
62
7
6
CONTINUOUS
10
176.4837735441
20
143.1757633588
11
176.2710076120
21
143.4882633588
0
LINE
5
219
100
AcDbEntity
8
0
100
AcDbLine
62
7
6
CONTINUOUS
10
177.0156883743
20
143.2799308202
11
176.5901565101
21
143.9049296281
0
LINE
5
21A
100
AcDbEntity
8
0
100
AcDbLine
62
7
6
CONTINUOUS
10
178.2922842648
20
143.1757633588
11
178.0795183327
21
143.4882633588
0
LINE
5
21B
100
AcDbEntity
8
0
100
AcDbLine
62
7
6
CONTINUOUS
10
178.8241990950
20
143.2799308202
11
178.5050501969
21
143.8007633588
0
LINE
5
21C
100
AcDbEntity
8
0
100
AcDbLine
62
7
6
CONTINUOUS
10
176.5901565101
20
142.8632633588
11
176.4837735441
21
143.1757633588
0
LINE
5
21D
100
AcDbEntity
8
0
100
AcDbLine
62
7
6
CONTINUOUS
10
178.3986672309
20
142.8632633588
11
178.2922842648
21
143.1757633588
0
LINE
5
21E
100
AcDbEntity
8
0
100
AcDbLine
62
7
6
CONTINUOUS
10
177.1220713403
20
142.7590958974
11
177.0156883743
21
143.2799308202
0
LINE
5
21F
100
AcDbEntity
8
0
100
AcDbLine
62
7
6
CONTINUOUS
10
178.9305820611
20
142.7590958974
11
178.8241990950
21
143.2799308202
0
LINE
5
220
100
AcDbEntity
8
0
100
AcDbLine
62
7
6
CONTINUOUS
10
177.1220713403
20
142.7590958974
11
177.1220713403
21
142.2382633588
0
LINE
5
221
100
AcDbEntity
8
0
100
AcDbLine
62
7
6
CONTINUOUS
10
177.7603694346
20
141.4049308202
11
177.7603694346
21
140.8840958974
0
LINE
5
222
100
AcDbEntity
8
0
100
AcDbLine
62
7
6
CONTINUOUS
10
178.3986672309
20
142.8632633588
11
178.3986672309
21
142.2382633588
0
LINE
5
223
100
AcDbEntity
8
0
100
AcDbLine
62
7
6
CONTINUOUS
10
178.9305820611
20
163.8007633588
11
178.9305820611
21
163.1757633588
0
LINE
5
224
100
AcDbEntity
8
0
100
AcDbLine
62
7
6
CONTINUOUS
10
178.9305820611
20
160.2590967915
11
178.9305820611
21
159.6340967915
0
LINE
5
225
100
AcDbEntity
8
0
100
AcDbLine
62
7
6
CONTINUOUS
10
178.9305820611
20
157.1340964934
11
178.9305820611
21
156.3007633588
0
LINE
5
226
100
AcDbEntity
8
0
100
AcDbLine
62
7
6
CONTINUOUS
10
178.9305820611
20
148.1757633588
11
178.9305820611
21
147.5507633588
0
LINE
5
227
100
AcDbEntity
8
0
100
AcDbLine
62
7
6
CONTINUOUS
10
178.9305820611
20
142.7590958974
11
178.9305820611
21
142.3424308202
0
LINE
5
228
100
AcDbEntity
8
0
100
AcDbLine
62
7
6
CONTINUOUS
10
182.9305820611
20
173.8007633588
11
182.9305820611
21
123.8007633588
0
LINE
5
229
100
AcDbEntity
8
0
100
AcDbLine
62
7
6
CONTINUOUS
10
174.0369650364
20
143.2799308202
11
173.9305820611
21
142.7590958974
0
LINE
5
22A
100
AcDbEntity
8
0
100
AcDbLine
62
7
6
CONTINUOUS
10
177.1220713403
20
142.2382633588
11
177.0156883743
21
141.7174308202
0
LINE
5
22B
100
AcDbEntity
8
0
100
AcDbLine
62
7
6
CONTINUOUS
10
174.5688799318
20
143.1757633588
11
174.4624969658
21
142.8632633588
0
LINE
5
22C
100
AcDbEntity
8
0
100
AcDbLine
62
7
6
CONTINUOUS
10
175.4199437347
20
141.1965958974
11
175.1007948365
21
141.3007633588
0
LINE
5
22D
100
AcDbEntity
8
0
100
AcDbLine
62
7
6
CONTINUOUS
10
175.3135607686
20
140.6757633588
11
174.7816458639
21
140.8840958974
0
LINE
5
22E
100
AcDbEntity
8
0
100
AcDbLine
62
7
6
CONTINUOUS
10
178.0795183327
20
143.4882633588
11
177.7603694346
21
143.6965958974
0
LINE
5
22F
100
AcDbEntity
8
0
100
AcDbLine
62
7
6
CONTINUOUS
10
178.5050501969
20
143.8007633588
11
178.0795183327
21
144.1132633588
0
LINE
5
230
100
AcDbEntity
8
0
100
AcDbLine
62
7
6
CONTINUOUS
10
178.0795183327
20
148.1757633588
11
177.3348372724
21
148.8007633588
0
LINE
5
231
100
AcDbEntity
8
0
100
AcDbLine
62
7
6
CONTINUOUS
10
178.9305820611
20
148.1757633588
11
178.1859012988
21
148.8007633588
0
LINE
5
232
100
AcDbEntity
8
0
100
AcDbLine
62
7
6
CONTINUOUS
10
178.9305820611
20
142.3424308202
11
178.8241990950
21
141.8215958974
0
LINE
5
233
100
AcDbEntity
8
0
100
AcDbLine
62
7
6
CONTINUOUS
10
176.5901565101
20
142.1340958974
11
176.4837735441
21
141.8215958974
0
LINE
5
234
100
AcDbEntity
8
0
100
AcDbLine
62
7
6
CONTINUOUS
10
178.3986672309
20
142.2382633588
11
178.2922842648
21
141.9257633588
0
LINE
5
235
100
AcDbEntity
8
0
100
AcDbLine
62
7
6
CONTINUOUS
10
215.7014169365
20
220.3007633588
11
221.3305820611
21
230.0507633588
0
LINE
5
236
100
AcDbEntity
8
0
100
AcDbLine
62
7
6
CONTINUOUS
10
177.4412202385
20
143.8007633588
11
176.8029224422
21
143.9049296281
0
LINE
5
237
100
AcDbEntity
8
0
100
AcDbLine
62
7
6
CONTINUOUS
10
176.0582416799
20
143.6965958974
11
175.7390926328
21
143.8007633588
0
LINE
5
238
100
AcDbEntity
8
0
100
AcDbLine
62
7
6
CONTINUOUS
10
177.7603694346
20
143.6965958974
11
177.4412202385
21
143.8007633588
0
LINE
5
239
100
AcDbEntity
8
0
100
AcDbLine
62
7
6
CONTINUOUS
10
178.0795183327
20
144.1132633588
11
177.5476032045
21
144.3215970895
0
LINE
5
23A
100
AcDbEntity
8
0
100
AcDbLine
62
7
6
CONTINUOUS
10
174.3561139625
20
143.8007633588
11
174.0369650364
21
143.2799308202
0
LINE
5
23B
100
AcDbEntity
8
0
100
AcDbLine
62
7
6
CONTINUOUS
10
176.6965394762
20
141.1965958974
11
177.0156883743
21
141.7174308202
0
LINE
5
23C
100
AcDbEntity
8
0
100
AcDbLine
62
7
6
CONTINUOUS
10
178.8241990950
20
141.8215958974
11
178.5050501969
21
141.3007633588
0
LINE
5
23D
100
AcDbEntity
8
0
100
AcDbLine
62
7
6
CONTINUOUS
10
174.7816458639
20
143.4882633588
11
174.5688799318
21
143.1757633588
0
LINE
5
23E
100
AcDbEntity
8
0
100
AcDbLine
62
7
6
CONTINUOUS
10
176.4837735441
20
141.8215958974
11
176.2710076120
21
141.5090958974
0
LINE
5
23F
100
AcDbEntity
8
0
100
AcDbLine
62
7
6
CONTINUOUS
10
175.8454757478
20
140.6757633588
11
175.3135607686
21
140.6757633588
0
LINE
5
240
100
AcDbEntity
8
0
100
AcDbLine
62
7
6
CONTINUOUS
10
175.7390926328
20
141.1965958974
11
175.4199437347
21
141.1965958974
0
LINE
5
241
100
AcDbEntity
8
0
100
AcDbLine
62
7
6
CONTINUOUS
10
175.7390926328
20
143.8007633588
11
175.4199437347
21
143.8007633588
0
LINE
5
242
100
AcDbEntity
8
0
100
AcDbLine
62
7
6
CONTINUOUS
10
176.8029224422
20
143.9049296281
11
176.5901565101
21
143.9049296281
0
LINE
5
243
100
AcDbEntity
8
0
100
AcDbLine
62
7
6
CONTINUOUS
10
176.8029224422
20
144.4257633588
11
176.0582416799
21
144.4257633588
0
LINE
5
244
100
AcDbEntity
8
0
100
AcDbLine
62
7
6
CONTINUOUS
10
177.5476032045
20
144.3215970895
11
176.8029224422
21
144.4257633588
0
LINE
5
245
100
AcDbEntity
8
0
100
AcDbLine
62
7
6
CONTINUOUS
10
178.2922842648
20
141.9257633588
11
178.0795183327
21
141.6132633588
0
LINE
5
246
100
AcDbEntity
8
0
100
AcDbLine
62
7
6
CONTINUOUS
10
174.5688799318
20
161.7174300751
11
178.9305820611
21
163.1757633588
0
LINE
5
247
100
AcDbEntity
8
0
100
AcDbLine
62
7
6
CONTINUOUS
10
178.9305820611
20
163.8007633588
11
173.9305820611
21
162.1340966424
0
LINE
5
248
100
AcDbEntity
8
0
100
AcDbLine
62
7
6
CONTINUOUS
10
176.0582416799
20
144.4257633588
11
175.3135607686
21
144.3215970895
0
LINE
5
249
100
AcDbEntity
8
0
100
AcDbLine
62
7
6
CONTINUOUS
10
175.7390926328
20
145.2590970895
11
176.2710076120
21
145.2590970895
0
LINE
5
24A
100
AcDbEntity
8
0
100
AcDbLine
62
7
6
CONTINUOUS
10
176.2710076120
20
146.7174296281
11
175.7390926328
21
146.7174296281
0
LINE
5
24B
100
AcDbEntity
8
0
100
AcDbLine
62
7
6
CONTINUOUS
10
173.9305820611
20
147.5507633588
11
178.9305820611
21
147.5507633588
0
LINE
5
24C
100
AcDbEntity
8
0
100
AcDbLine
62
7
6
CONTINUOUS
10
178.0795183327
20
148.1757633588
11
173.9305820611
21
148.1757633588
0
LINE
5
24D
100
AcDbEntity
8
0
100
AcDbLine
62
7
6
CONTINUOUS
10
178.1859012988
20
148.8007633588
11
177.3348372724
21
148.8007633588
0
LINE
5
24E
100
AcDbEntity
8
0
100
AcDbLine
62
7
6
CONTINUOUS
10
175.2071778026
20
157.7590964934
11
173.9305820611
21
158.1757633588
0
LINE
5
24F
100
AcDbEntity
8
0
100
AcDbLine
62
7
6
CONTINUOUS
10
175.6327096667
20
157.6549302241
11
178.5050501969
21
156.7174302241
0
LINE
5
250
100
AcDbEntity
8
0
100
AcDbLine
62
7
6
CONTINUOUS
10
178.9305820611
20
157.1340964934
11
173.9305820611
21
158.8007633588
0
LINE
5
251
100
AcDbEntity
8
0
100
AcDbLine
62
7
6
CONTINUOUS
10
173.9305820611
20
161.3007633588
11
178.9305820611
21
159.6340967915
0
LINE
5
252
100
AcDbEntity
8
0
100
AcDbLine
62
7
6
CONTINUOUS
10
178.9305820611
20
160.2590967915
11
174.5688799318
21
161.7174300751
0
LINE
5
253
100
AcDbEntity
8
0
100
AcDbLine
62
7
6
CONTINUOUS
10
204.5305820611
20
230.0507633588
11
204.5305820611
21
234.8507633588
0
LINE
5
254
100
AcDbEntity
8
0
100
AcDbLine
62
7
6
CONTINUOUS
10
206.9305820611
20
225.5723023897
11
206.9305820611
21
220.9007633588
0
LINE
5
255
100
AcDbEntity
8
0
100
AcDbLine
62
7
6
CONTINUOUS
10
216.4077336226
20
198.6465137306
11
214.4305820611
21
193.7507633588
0
LINE
5
256
100
AcDbEntity
8
0
100
AcDbLine
62
7
6
CONTINUOUS
10
176.2710076120
20
141.5090958974
11
176.0582416799
21
141.3007633588
0
LINE
5
257
100
AcDbEntity
8
0
100
AcDbLine
62
7
6
CONTINUOUS
10
176.3773905780
20
140.8840958974
11
176.6965394762
21
141.1965958974
0
LINE
5
258
100
AcDbEntity
8
0
100
AcDbLine
62
7
6
CONTINUOUS
10
174.7816458639
20
144.1132633588
11
174.3561139625
21
143.8007633588
0
LINE
5
259
100
AcDbEntity
8
0
100
AcDbLine
62
7
6
CONTINUOUS
10
175.1007948365
20
143.6965958974
11
174.7816458639
21
143.4882633588
0
LINE
5
25A
100
AcDbEntity
8
0
100
AcDbLine
62
7
6
CONTINUOUS
10
173.9305820611
20
154.6340964934
11
178.9305820611
21
156.3007633588
0
LINE
5
25B
100
AcDbEntity
8
0
100
AcDbLine
62
7
6
CONTINUOUS
10
175.2071778026
20
155.6757633588
11
173.9305820611
21
155.2590964934
0
LINE
5
25C
100
AcDbEntity
8
0
100
AcDbLine
62
7
6
CONTINUOUS
10
178.5050501969
20
156.7174302241
11
175.6327096667
21
155.7799302241
0
LINE
5
25D
100
AcDbEntity
8
0
100
AcDbLine
62
7
6
CONTINUOUS
10
209.1805820611
20
200.0507633588
11
209.1805820611
21
219.7357625744
0
LINE
5
25E
100
AcDbEntity
8
0
100
AcDbLine
62
7
6
CONTINUOUS
10
211.4305820611
20
214.8764305568
11
211.4305820611
21
230.3394047611
0
LINE
5
25F
100
AcDbEntity
8
DEFAULT_1
100
AcDbLine
62
2
6
CENTER
10
212.9305820611
20
234.8507633588
11
212.9305820611
21
76.4890598566
0
LINE
5
260
100
AcDbEntity
8
DEFAULT_1
100
AcDbLine
62
2
6
CENTER
10
212.9305820611
20
234.8507633588
11
212.9305820611
21
241.4507633588
0
LINE
5
261
100
AcDbEntity
8
0
100
AcDbLine
62
7
6
CONTINUOUS
10
178.5050501969
20
141.3007633588
11
178.0795183327
21
140.9882633588
0
LINE
5
262
100
AcDbEntity
8
0
100
AcDbLine
62
7
6
CONTINUOUS
10
178.0795183327
20
141.6132633588
11
177.7603694346
21
141.4049308202
0
LINE
5
263
100
AcDbEntity
8
0
100
AcDbLine
62
7
6
CONTINUOUS
10
214.4305820611
20
214.8764305568
11
214.4305820611
21
230.3394047611
0
LINE
5
264
100
AcDbEntity
8
0
100
AcDbLine
62
7
6
CONTINUOUS
10
216.6805820611
20
200.0507633588
11
216.6805820611
21
219.7357625744
0
LINE
5
265
100
AcDbEntity
8
0
100
AcDbLine
62
7
6
CONTINUOUS
10
218.9305820611
20
225.5723023897
11
218.9305820611
21
220.9007633588
0
LINE
5
266
100
AcDbEntity
8
0
100
AcDbLine
62
7
6
CONTINUOUS
10
175.3135607686
20
144.3215970895
11
174.7816458639
21
144.1132633588
0
LINE
5
267
100
AcDbEntity
8
0
100
AcDbLine
62
7
6
CONTINUOUS
10
176.3773905780
20
140.8840958974
11
175.8454757478
21
140.6757633588
0
LINE
5
268
100
AcDbEntity
8
0
100
AcDbLine
62
7
6
CONTINUOUS
10
175.4199437347
20
143.8007633588
11
175.1007948365
21
143.6965958974
0
LINE
5
269
100
AcDbEntity
8
0
100
AcDbLine
62
7
6
CONTINUOUS
10
221.3305820611
20
230.0507633588
11
221.3305820611
21
234.8507633588
0
LINE
5
26A
100
AcDbEntity
8
0
100
AcDbLine
62
7
6
CONTINUOUS
10
176.0582416799
20
141.3007633588
11
175.7390926328
21
141.1965958974
0
LINE
5
26B
100
AcDbEntity
8
0
100
AcDbLine
62
7
6
CONTINUOUS
10
178.0795183327
20
140.9882633588
11
177.7603694346
21
140.8840958974
0
LINE
5
26C
100
AcDbEntity
8
0
100
AcDbLine
62
7
6
CONTINUOUS
10
211.4305820611
20
193.7507633588
11
209.4534304996
21
198.6465137306
0
LINE
5
26D
100
AcDbEntity
8
0
100
AcDbLine
62
7
6
CONTINUOUS
10
242.9305820611
20
123.8007633588
11
242.9305820611
21
173.8007633588
0
LINE
5
26E
100
AcDbEntity
8
0
100
AcDbLine
62
7
6
CONTINUOUS
10
210.1597471857
20
220.3007633588
11
204.5305820611
21
230.0507633588
0
LINE
5
26F
100
AcDbEntity
8
0
100
AcDbLine
62
7
6
CONTINUOUS
10
214.4305820611
20
193.7507633588
11
211.4305820611
21
193.7507633588
0
LINE
5
270
100
AcDbEntity
8
0
100
AcDbLine
62
7
6
CONTINUOUS
10
255.9305820611
20
123.8007633588
11
255.9305820611
21
173.8007633588
0
LINE
5
271
100
AcDbEntity
8
0
100
AcDbLine
62
7
6
CONTINUOUS
10
209.1805820611
20
219.7007633588
11
208.1305820611
21
219.7007633588
0
LINE
5
272
100
AcDbEntity
8
0
100
AcDbLine
62
7
6
CONTINUOUS
10
216.6805820611
20
219.7007633588
11
217.7305820611
21
219.7007633588
0
LINE
5
273
100
AcDbEntity
8
DEFAULT_1
100
AcDbLine
62
2
6
CENTER
10
212.9305820611
20
234.8507633588
11
206.3305820611
21
234.8507633588
0
LINE
5
274
100
AcDbEntity
8
DEFAULT_1
100
AcDbLine
62
2
6
CENTER
10
212.9305820611
20
234.8507633588
11
219.5305820611
21
234.8507633588
0
LINE
5
275
100
AcDbEntity
8
0
100
AcDbLine
62
7
6
CONTINUOUS
10
220.3703401217
20
238.7507633588
11
205.4908240005
21
238.7507633588
0
LINE
5
276
100
AcDbEntity
8
0
100
AcDbLine
62
7
6
CONTINUOUS
10
329.1618817805
20
243.2507633588
11
325.3859334402
21
238.7507633588
0
LINE
5
277
100
AcDbEntity
8
0
100
AcDbLine
62
7
6
CONTINUOUS
10
322.6593938860
20
214.8764305568
11
325.3859334402
21
230.3394047611
0
LINE
5
278
100
AcDbEntity
8
0
100
AcDbLine
62
7
6
CONTINUOUS
10
346.8595453070
20
140.6757633588
11
346.7892344196
21
140.6757633588
0
LINE
5
279
100
AcDbEntity
8
DEFAULT_2
100
AcDbLine
62
8
6
HIDDEN
10
346.7892344196
20
140.6757633588
11
346.3859334402
21
140.6757633588
0
LINE
5
27A
100
AcDbEntity
8
0
100
AcDbLine
62
7
6
CONTINUOUS
10
346.8857158063
20
140.8840958974
11
346.6733024780
21
140.8840958974
0
LINE
5
27B
100
AcDbEntity
8
DEFAULT_2
100
AcDbLine
62
8
6
HIDDEN
10
346.6733024780
20
140.8840958974
11
346.3859334402
21
140.8840958974
0
LINE
5
27C
100
AcDbEntity
8
DEFAULT_2
100
AcDbLine
62
8
6
HIDDEN
10
346.6733024585
20
140.9882633588
11
346.3859334402
21
140.9882633588
0
LINE
5
27D
100
AcDbEntity
8
0
100
AcDbLine
62
7
6
CONTINUOUS
10
346.8804901343
20
141.1965958974
11
346.5460131562
21
141.1965958974
0
LINE
5
27E
100
AcDbEntity
8
DEFAULT_2
100
AcDbLine
62
8
6
HIDDEN
10
346.5460131562
20
141.1965958974
11
346.3859334402
21
141.1965958974
0
LINE
5
27F
100
AcDbEntity
8
0
100
AcDbLine
62
7
6
CONTINUOUS
10
346.7484538478
20
141.3007633588
11
346.5240431865
21
141.3007633588
0
LINE
5
280
100
AcDbEntity
8
DEFAULT_2
100
AcDbLine
62
8
6
HIDDEN
10
346.8752602651
20
141.3007633588
11
346.7484538478
21
141.3007633588
0
LINE
5
281
100
AcDbEntity
8
DEFAULT_2
100
AcDbLine
62
8
6
HIDDEN
10
346.5240431865
20
141.3007633588
11
346.3859334402
21
141.3007633588
0
LINE
5
282
100
AcDbEntity
8
DEFAULT_2
100
AcDbLine
62
8
6
HIDDEN
10
346.7484538167
20
141.4049308202
11
346.3859334402
21
141.4049308202
0
LINE
5
283
100
AcDbEntity
8
DEFAULT_2
100
AcDbLine
62
8
6
HIDDEN
10
346.8839743754
20
141.5090958974
11
346.6733024780
21
141.5090958974
0
LINE
5
284
100
AcDbEntity
8
0
100
AcDbLine
62
7
6
CONTINUOUS
10
346.6733024780
20
141.5090958974
11
346.4780409834
21
141.5090958974
0
LINE
5
285
100
AcDbEntity
8
DEFAULT_2
100
AcDbLine
62
8
6
HIDDEN
10
346.4780409834
20
141.5090958974
11
346.3859334402
21
141.5090958974
0
LINE
5
286
100
AcDbEntity
8
DEFAULT_2
100
AcDbLine
62
8
6
HIDDEN
10
346.6733024585
20
141.6132633588
11
346.3859334402
21
141.6132633588
0
LINE
5
287
100
AcDbEntity
8
DEFAULT_2
100
AcDbLine
62
8
6
HIDDEN
10
346.8595453070
20
141.7174308202
11
346.3859334402
21
141.7174308202
0
LINE
5
288
100
AcDbEntity
8
DEFAULT_2
100
AcDbLine
62
8
6
HIDDEN
10
346.8857158000
20
141.8215958974
11
346.6136188194
21
141.8215958974
0
LINE
5
289
100
AcDbEntity
8
0
100
AcDbLine
62
7
6
CONTINUOUS
10
346.6136188194
20
141.8215958974
11
346.4206792150
21
141.8215958974
0
LINE
5
28A
100
AcDbEntity
8
DEFAULT_2
100
AcDbLine
62
8
6
HIDDEN
10
346.4206792150
20
141.8215958974
11
346.3859334402
21
141.8215958974
0
LINE
5
28B
100
AcDbEntity
8
DEFAULT_2
100
AcDbLine
62
8
6
HIDDEN
10
346.6136187971
20
141.9257633588
11
346.3859334402
21
141.9257633588
0
LINE
5
28C
100
AcDbEntity
8
DEFAULT_2
100
AcDbLine
62
8
6
HIDDEN
10
346.8839743958
20
142.1340958974
11
346.5808217409
21
142.1340958974
0
LINE
5
28D
100
AcDbEntity
8
0
100
AcDbLine
62
7
6
CONTINUOUS
10
346.5808217409
20
142.1340958974
11
346.3859334402
21
142.1340958974
0
LINE
5
28E
100
AcDbEntity
8
DEFAULT_2
100
AcDbLine
62
8
6
HIDDEN
10
346.8490474402
20
142.2382633588
11
346.3859334402
21
142.2382633588
0
LINE
5
28F
100
AcDbEntity
8
DEFAULT_2
100
AcDbLine
62
8
6
HIDDEN
10
346.8490474402
20
142.7590958974
11
346.3859334402
21
142.7590958974
0
LINE
5
290
100
AcDbEntity
8
DEFAULT_2
100
AcDbLine
62
8
6
HIDDEN
10
346.8839743754
20
142.8632633588
11
346.5808217409
21
142.8632633588
0
LINE
5
291
100
AcDbEntity
8
0
100
AcDbLine
62
7
6
CONTINUOUS
10
346.5808217409
20
142.8632633588
11
346.3859334402
21
142.8632633588
0
LINE
5
292
100
AcDbEntity
8
DEFAULT_2
100
AcDbLine
62
8
6
HIDDEN
10
346.8857157947
20
143.1757633588
11
346.6136188194
21
143.1757633588
0
LINE
5
293
100
AcDbEntity
8
0
100
AcDbLine
62
7
6
CONTINUOUS
10
346.6136188194
20
143.1757633588
11
346.4206790596
21
143.1757633588
0
LINE
5
294
100
AcDbEntity
8
DEFAULT_2
100
AcDbLine
62
8
6
HIDDEN
10
346.4206790596
20
143.1757633588
11
346.3859334402
21
143.1757633588
0
LINE
5
295
100
AcDbEntity
8
DEFAULT_2
100
AcDbLine
62
8
6
HIDDEN
10
346.8595453070
20
143.2799308202
11
346.3859334402
21
143.2799308202
0
LINE
5
296
100
AcDbEntity
8
DEFAULT_2
100
AcDbLine
62
8
6
HIDDEN
10
346.8839744995
20
143.4882633588
11
346.6733024780
21
143.4882633588
0
LINE
5
297
100
AcDbEntity
8
0
100
AcDbLine
62
7
6
CONTINUOUS
10
346.6733024780
20
143.4882633588
11
346.4780406559
21
143.4882633588
0
LINE
5
298
100
AcDbEntity
8
DEFAULT_2
100
AcDbLine
62
8
6
HIDDEN
10
346.4780406559
20
143.4882633588
11
346.3859334402
21
143.4882633588
0
LINE
5
299
100
AcDbEntity
8
0
100
AcDbLine
62
7
6
CONTINUOUS
10
346.7484538478
20
143.6965958974
11
346.5240430860
21
143.6965958974
0
LINE
5
29A
100
AcDbEntity
8
DEFAULT_2
100
AcDbLine
62
8
6
HIDDEN
10
346.8752602651
20
143.6965958974
11
346.7484538478
21
143.6965958974
0
LINE
5
29B
100
AcDbEntity
8
DEFAULT_2
100
AcDbLine
62
8
6
HIDDEN
10
346.5240430860
20
143.6965958974
11
346.3859334402
21
143.6965958974
0
LINE
5
29C
100
AcDbEntity
8
0
100
AcDbLine
62
7
6
CONTINUOUS
10
346.8490474242
20
143.8007633588
11
346.5460131562
21
143.8007633588
0
LINE
5
29D
100
AcDbEntity
8
DEFAULT_2
100
AcDbLine
62
8
6
HIDDEN
10
346.5460131562
20
143.8007633588
11
346.3859334402
21
143.8007633588
0
LINE
5
29E
100
AcDbEntity
8
0
100
AcDbLine
62
7
6
CONTINUOUS
10
346.8839743754
20
143.9049296281
11
346.5917548945
21
143.9049296281
0
LINE
5
29F
100
AcDbEntity
8
DEFAULT_2
100
AcDbLine
62
8
6
HIDDEN
10
346.5917548945
20
143.9049296281
11
346.3859334402
21
143.9049296281
0
LINE
5
2A0
100
AcDbEntity
8
DEFAULT_2
100
AcDbLine
62
8
6
HIDDEN
10
346.6733024780
20
144.1132633588
11
346.3859334402
21
144.1132633588
0
LINE
5
2A1
100
AcDbEntity
8
DEFAULT_2
100
AcDbLine
62
8
6
HIDDEN
10
346.7892344196
20
144.3215970895
11
346.3859334402
21
144.3215970895
0
LINE
5
2A2
100
AcDbEntity
8
0
100
AcDbLine
62
7
6
CONTINUOUS
10
346.8859331052
20
144.4257633588
11
346.8752602651
21
144.4257633588
0
LINE
5
2A3
100
AcDbEntity
8
DEFAULT_2
100
AcDbLine
62
8
6
HIDDEN
10
346.8752602651
20
144.4257633588
11
346.3859334402
21
144.4257633588
0
LINE
5
2A4
100
AcDbEntity
8
DEFAULT_2
100
AcDbLine
62
8
6
HIDDEN
10
346.8490474242
20
145.2590970895
11
346.3859334402
21
145.2590970895
0
LINE
5
2A5
100
AcDbEntity
8
0
100
AcDbLine
62
7
6
CONTINUOUS
10
346.8490474242
20
145.2590970895
11
346.8839743754
21
145.2590970895
0
LINE
5
2A6
100
AcDbEntity
8
0
100
AcDbLine
62
7
6
CONTINUOUS
10
325.3859334402
20
219.8129390135
11
325.3859334402
21
238.7507633588
0
LINE
5
2A7
100
AcDbEntity
8
0
100
AcDbLine
62
7
6
CONTINUOUS
10
346.8839743754
20
146.7174296281
11
346.8490474242
21
146.7174296281
0
LINE
5
2A8
100
AcDbEntity
8
DEFAULT_2
100
AcDbLine
62
8
6
HIDDEN
10
346.8490474242
20
146.7174296281
11
346.3859334402
21
146.7174296281
0
LINE
5
2A9
100
AcDbEntity
8
0
100
AcDbLine
62
7
6
CONTINUOUS
10
346.3859334402
20
147.5507633588
11
346.8858380308
21
147.5507633588
0
LINE
5
2AA
100
AcDbEntity
8
0
100
AcDbLine
62
7
6
CONTINUOUS
10
346.8858299552
20
148.1757633588
11
346.3859334402
21
148.1757633588
0
LINE
5
2AB
100
AcDbEntity
8
DEFAULT_2
100
AcDbLine
62
8
6
HIDDEN
10
346.8227278685
20
148.8007633588
11
346.3859334402
21
148.8007633588
0
LINE
5
2AC
100
AcDbEntity
8
0
100
AcDbLine
62
7
6
CONTINUOUS
10
332.4770776443
20
230.0507633588
11
332.4770776443
21
243.2507633588
0
LINE
5
2AD
100
AcDbEntity
8
0
100
AcDbLine
62
7
6
CONTINUOUS
10
333.8859334402
20
210.2390111357
11
333.8859334402
21
87.3007633588
0
LINE
5
2AE
100
AcDbEntity
8
DEFAULT_2
100
AcDbLine
62
8
6
HIDDEN
10
346.7697631701
20
155.6757633588
11
346.3859334402
21
155.6757633588
0
LINE
5
2AF
100
AcDbEntity
8
0
100
AcDbLine
62
7
6
CONTINUOUS
10
346.8367783184
20
155.7799302241
11
346.7697631701
21
155.7799302241
0
LINE
5
2B0
100
AcDbEntity
8
DEFAULT_2
100
AcDbLine
62
8
6
HIDDEN
10
346.7697631701
20
155.7799302241
11
346.3859334402
21
155.7799302241
0
LINE
5
2B1
100
AcDbEntity
8
DEFAULT_2
100
AcDbLine
62
8
6
HIDDEN
10
346.5460131437
20
156.7174302241
11
346.3859334402
21
156.7174302241
0
LINE
5
2B2
100
AcDbEntity
8
0
100
AcDbLine
62
7
6
CONTINUOUS
10
337.0259334402
20
242.0136970187
11
337.0259334402
21
226.8107633588
0
LINE
5
2B3
100
AcDbEntity
8
DEFAULT_1
100
AcDbLine
62
2
6
CENTER
10
340.3859334402
20
77.8007633588
11
340.3859334402
21
134.8863240412
0
LINE
5
2B4
100
AcDbEntity
8
DEFAULT_1
100
AcDbLine
62
2
6
CENTER
10
340.3859334402
20
168.4834506127
11
340.3859334402
21
244.5190528534
0
LINE
5
2B5
100
AcDbEntity
8
0
100
AcDbLine
62
7
6
CONTINUOUS
10
346.8367783184
20
157.6549302241
11
346.7697631701
21
157.6549302241
0
LINE
5
2B6
100
AcDbEntity
8
DEFAULT_2
100
AcDbLine
62
8
6
HIDDEN
10
346.7697631701
20
157.6549302241
11
346.3859334402
21
157.6549302241
0
LINE
5
2B7
100
AcDbEntity
8
DEFAULT_2
100
AcDbLine
62
8
6
HIDDEN
10
346.7697631701
20
157.7590964934
11
346.3859334402
21
157.7590964934
0
LINE
5
2B8
100
AcDbEntity
8
0
100
AcDbLine
62
7
6
CONTINUOUS
10
346.6136188194
20
161.7174300751
11
346.3859334402
21
161.7174300751
0
LINE
5
2B9
100
AcDbEntity
8
0
100
AcDbLine
62
7
6
CONTINUOUS
10
343.7459334402
20
226.8107633588
11
343.7459334402
21
242.0136970187
0
LINE
5
2BA
100
AcDbEntity
8
DEFAULT_2
100
AcDbLine
62
8
6
HIDDEN
10
346.3859334402
20
163.8007633588
11
346.3859334402
21
162.1340966424
0
LINE
5
2BB
100
AcDbEntity
8
DEFAULT_2
100
AcDbLine
62
8
6
HIDDEN
10
346.3859334402
20
161.3007633588
11
346.3859334402
21
159.6340967915
0
LINE
5
2BC
100
AcDbEntity
8
DEFAULT_2
100
AcDbLine
62
8
6
HIDDEN
10
346.3859334402
20
158.1757633588
11
346.3859334402
21
155.2590964934
0
LINE
5
2BD
100
AcDbEntity
8
0
100
AcDbLine
62
7
6
CONTINUOUS
10
346.3859334402
20
155.2590964934
11
346.3859334402
21
154.6340964934
0
LINE
5
2BE
100
AcDbEntity
8
DEFAULT_2
100
AcDbLine
62
8
6
HIDDEN
10
346.3859334402
20
148.8007633588
11
346.3859334402
21
148.1757633588
0
LINE
5
2BF
100
AcDbEntity
8
0
100
AcDbLine
62
7
6
CONTINUOUS
10
346.3859334402
20
148.1757633588
11
346.3859334402
21
147.5507633588
0
LINE
5
2C0
100
AcDbEntity
8
DEFAULT_2
100
AcDbLine
62
8
6
HIDDEN
10
346.3859334402
20
146.7174296281
11
346.3859334402
21
145.2590970895
0
LINE
5
2C1
100
AcDbEntity
8
DEFAULT_2
100
AcDbLine
62
8
6
HIDDEN
10
346.3859334402
20
144.4257633588
11
346.3859334402
21
142.7590958974
0
LINE
5
2C2
100
AcDbEntity
8
0
100
AcDbLine
62
7
6
CONTINUOUS
10
346.3859334402
20
142.7590958974
11
346.3859334402
21
142.2382633588
0
LINE
5
2C3
100
AcDbEntity
8
DEFAULT_2
100
AcDbLine
62
8
6
HIDDEN
10
346.3859334402
20
142.2382633588
11
346.3859334402
21
140.6757633588
0
LINE
5
2C4
100
AcDbEntity
8
0
100
AcDbLine
62
7
6
CONTINUOUS
10
346.3859334402
20
158.1757633588
11
346.3859334402
21
158.8007633588
0
LINE
5
2C5
100
AcDbEntity
8
0
100
AcDbLine
62
7
6
CONTINUOUS
10
346.3859334402
20
161.3007633588
11
346.3859334402
21
162.1340966424
0
LINE
5
2C6
100
AcDbEntity
8
0
100
AcDbLine
62
7
6
CONTINUOUS
10
346.5808217409
20
142.8632633588
11
346.5808217409
21
142.1340958974
0
LINE
5
2C7
100
AcDbEntity
8
DEFAULT_2
100
AcDbLine
62
8
6
HIDDEN
10
346.7484538167
20
141.4049308202
11
346.7484538167
21
140.8840958974
0
LINE
5
2C8
100
AcDbEntity
8
0
100
AcDbLine
62
7
6
CONTINUOUS
10
346.7697631701
20
157.7590964934
11
346.7697631701
21
155.6757633588
0
LINE
5
2C9
100
AcDbEntity
8
0
100
AcDbLine
62
7
6
CONTINUOUS
10
346.8367783184
20
157.6549302241
11
346.8367783184
21
155.7799302241
0
LINE
5
2CA
100
AcDbEntity
8
0
100
AcDbLine
62
7
6
CONTINUOUS
10
346.8490474242
20
146.7174296281
11
346.8490474242
21
145.2590970895
0
LINE
5
2CB
100
AcDbEntity
8
DEFAULT_2
100
AcDbLine
62
8
6
HIDDEN
10
346.8490474402
20
142.7590958974
11
346.8490474402
21
142.2382633588
0
LINE
5
2CC
100
AcDbEntity
8
0
100
AcDbLine
62
7
6
CONTINUOUS
10
346.8839743754
20
146.7174296281
11
346.8839743754
21
145.2590970895
0
LINE
5
2CD
100
AcDbEntity
8
DEFAULT_2
100
AcDbLine
62
8
6
HIDDEN
10
346.8839743754
20
142.8632633588
11
346.8839743754
21
142.1340958974
0
LINE
5
2CE
100
AcDbEntity
8
0
100
AcDbLine
62
7
6
CONTINUOUS
10
346.8859334402
20
143.2538883587
11
346.8859334402
21
141.7434708975
0
LINE
5
2CF
100
AcDbEntity
8
DEFAULT_2
100
AcDbLine
62
8
6
HIDDEN
10
346.8859335765
20
140.9361764914
11
346.8859334402
21
141.3007633588
0
LINE
5
2D0
100
AcDbEntity
8
DEFAULT_2
100
AcDbLine
62
8
6
HIDDEN
10
346.8859334402
20
141.7174308202
11
346.8859334402
21
141.7434689050
0
LINE
5
2D1
100
AcDbEntity
8
0
100
AcDbLine
62
7
6
CONTINUOUS
10
346.8859334402
20
141.3007633588
11
346.8859334402
21
141.7174308202
0
LINE
5
2D2
100
AcDbEntity
8
DEFAULT_2
100
AcDbLine
62
8
6
HIDDEN
10
346.8859334402
20
143.2538903511
11
346.8859334402
21
143.2799308202
0
LINE
5
2D3
100
AcDbEntity
8
0
100
AcDbLine
62
7
6
CONTINUOUS
10
346.8859334402
20
143.2799308202
11
346.8859334402
21
143.4882633588
0
LINE
5
2D4
100
AcDbEntity
8
DEFAULT_2
100
AcDbLine
62
8
6
HIDDEN
10
346.8859334402
20
143.4882633588
11
346.8859334402
21
143.9049296281
0
LINE
5
2D5
100
AcDbEntity
8
0
100
AcDbLine
62
7
6
CONTINUOUS
10
346.8859334402
20
143.9049296281
11
346.8859334402
21
145.2590970895
0
LINE
5
2D6
100
AcDbEntity
8
DEFAULT_2
100
AcDbLine
62
8
6
HIDDEN
10
346.8859334402
20
145.2590970895
11
346.8859334402
21
146.7174296281
0
LINE
5
2D7
100
AcDbEntity
8
0
100
AcDbLine
62
7
6
CONTINUOUS
10
346.8859334402
20
146.7174296281
11
346.8859334402
21
157.6549302241
0
LINE
5
2D8
100
AcDbEntity
8
DEFAULT_2
100
AcDbLine
62
8
6
HIDDEN
10
346.8859334402
20
157.6549302241
11
346.8859334402
21
157.9674299261
0
LINE
5
2D9
100
AcDbEntity
8
0
100
AcDbLine
62
7
6
CONTINUOUS
10
346.8859334402
20
157.9674299261
11
346.8859334402
21
210.2390111357
0
LINE
5
2DA
100
AcDbEntity
8
0
100
AcDbLine
62
7
6
CONTINUOUS
10
348.2947892361
20
243.2507633588
11
348.2947892361
21
230.0507633588
0
LINE
5
2DB
100
AcDbEntity
8
0
100
AcDbLine
62
7
6
CONTINUOUS
10
346.8859334402
20
87.3007633588
11
346.8859335765
21
140.9361764914
0
LINE
5
2DC
100
AcDbEntity
8
0
100
AcDbLine
62
7
6
CONTINUOUS
10
355.3859334402
20
219.8129390135
11
355.3859334402
21
238.7507633588
0
LINE
5
2DD
100
AcDbEntity
8
0
100
AcDbLine
62
7
6
CONTINUOUS
10
358.1124729944
20
214.8764305568
11
355.3859334402
21
230.3394047611
0
LINE
5
2DE
100
AcDbEntity
8
0
100
AcDbLine
62
7
6
CONTINUOUS
10
350.2830477572
20
219.7007633588
11
330.4888191232
21
219.7007633588
0
LINE
5
2DF
100
AcDbEntity
8
0
100
AcDbLine
62
7
6
CONTINUOUS
10
355.3859334402
20
238.7507633588
11
351.6099850999
21
243.2507633588
0
LINE
5
2E0
100
AcDbEntity
8
0
100
AcDbLine
62
7
6
CONTINUOUS
10
343.7459334402
20
231.2507633588
11
337.0259334402
21
231.2507633588
0
LINE
5
2E1
100
AcDbEntity
8
DEFAULT_1
100
AcDbLine
62
2
6
CENTER
10
334.0259334402
20
234.8507633588
11
346.7459334402
21
234.8507633588
0
LINE
5
2E2
100
AcDbEntity
8
0
100
AcDbLine
62
7
6
CONTINUOUS
10
343.7459334402
20
238.4507633588
11
337.0259334402
21
238.4507633588
0
LINE
5
2E3
100
AcDbEntity
8
0
100
AcDbLine
62
7
6
CONTINUOUS
10
329.1618817805
20
243.2507633588
11
332.4770776443
21
243.2507633588
0
LINE
5
2E4
100
AcDbEntity
8
0
100
AcDbLine
62
7
6
CONTINUOUS
10
348.2947892361
20
243.2507633588
11
351.6099850999
21
243.2507633588
0
ARC
5
2E5
100
AcDbEntity
8
DEFAULT_2
100
AcDbCircle
62
8
6
HIDDEN
10
212.9305820611
20
173.8007633588
40
30.0000000000
100
AcDbArc
50
82.8191811444
51
97.1808188556
0
ARC
5
2E6
100
AcDbEntity
8
DEFAULT_2
100
AcDbCircle
62
8
6
HIDDEN
10
212.9305820611
20
173.8007633588
40
43.0000000000
100
AcDbArc
50
84.9947981711
51
95.0052018289
0
CIRCLE
5
2E7
100
AcDbEntity
8
0
100
AcDbCircle
62
7
6
CONTINUOUS
10
212.9305820611
20
234.8507633588
40
3.6000000000
0
ARC
5
2E8
100
AcDbEntity
8
0
100
AcDbCircle
62
7
6
CONTINUOUS
10
212.9305820611
20
200.0507633588
40
3.7500000000
100
AcDbArc
50
180.0000000000
51
201.9913472955
0
ARC
5
2E9
100
AcDbEntity
8
0
100
AcDbCircle
62
7
6
CONTINUOUS
10
212.9305820611
20
200.0507633588
40
3.7500000000
100
AcDbArc
50
338.0086527045
51
360.0000000000
0
ARC
5
2EA
100
AcDbEntity
8
0
100
AcDbCircle
62
7
6
CONTINUOUS
10
214.6621864519
20
220.9007633588
40
1.2000000000
100
AcDbArc
50
294.9711750139
51
330.0000000000
0
ARC
5
2EB
100
AcDbEntity
8
0
100
AcDbCircle
62
7
6
CONTINUOUS
10
217.7305820611
20
220.9007633588
40
1.2000000000
100
AcDbArc
50
270.0000000000
51
360.0000000000
0
ARC
5
2EC
100
AcDbEntity
8
0
100
AcDbCircle
62
7
6
CONTINUOUS
10
220.1305820611
20
225.5723023897
40
1.2000000000
100
AcDbArc
50
150.0000000000
51
180.0000000000
0
ARC
5
2ED
100
AcDbEntity
8
0
100
AcDbCircle
62
7
6
CONTINUOUS
10
212.9305820611
20
234.8507633588
40
8.4000000000
100
AcDbArc
50
0.0000000000
51
180.0000000000
0
ARC
5
2EE
100
AcDbEntity
8
0
100
AcDbCircle
62
7
6
CONTINUOUS
10
205.7305820611
20
225.5723023897
40
1.2000000000
100
AcDbArc
50
0.0000000000
51
30.0000000000
0
ARC
5
2EF
100
AcDbEntity
8
0
100
AcDbCircle
62
7
6
CONTINUOUS
10
208.1305820611
20
220.9007633588
40
1.2000000000
100
AcDbArc
50
180.0000000000
51
270.0000000000
0
ARC
5
2F0
100
AcDbEntity
8
0
100
AcDbCircle
62
7
6
CONTINUOUS
10
211.1989776702
20
220.9007633588
40
1.2000000000
100
AcDbArc
50
210.0000000000
51
245.0288249861
0
ARC
5
2F1
100
AcDbEntity
8
0
100
AcDbCircle
62
7
6
CONTINUOUS
10
212.9305820611
20
173.8007633588
40
30.0000000000
100
AcDbArc
50
0.0000000000
51
82.8191811444
0
ARC
5
2F2
100
AcDbEntity
8
0
100
AcDbCircle
62
7
6
CONTINUOUS
10
212.9305820611
20
173.8007633588
40
30.0000000000
100
AcDbArc
50
97.1808188556
51
180.0000000000
0
ARC
5
2F3
100
AcDbEntity
8
0
100
AcDbCircle
62
7
6
CONTINUOUS
10
212.9305820611
20
173.8007633588
40
43.0000000000
100
AcDbArc
50
0.0000000000
51
84.9947981711
0
ARC
5
2F4
100
AcDbEntity
8
0
100
AcDbCircle
62
7
6
CONTINUOUS
10
212.9305820611
20
173.8007633588
40
43.0000000000
100
AcDbArc
50
95.0052018289
51
180.0000000000
0
ARC
5
2F5
100
AcDbEntity
8
0
100
AcDbCircle
62
7
6
CONTINUOUS
10
212.9305820611
20
123.8007633588
40
30.0000000000
100
AcDbArc
50
180.0000000000
51
360.0000000000
0
ARC
5
2F6
100
AcDbEntity
8
0
100
AcDbCircle
62
7
6
CONTINUOUS
10
212.9305820611
20
123.8007633588
40
43.0000000000
100
AcDbArc
50
180.0000000000
51
360.0000000000
0
ARC
5
2F7
100
AcDbEntity
8
DEFAULT_2
100
AcDbCircle
62
8
6
HIDDEN
10
340.3859334402
20
210.3007633588
40
6.5000000000
100
AcDbArc
50
180.0000000000
51
360.0000000000
0
ARC
5
2F8
100
AcDbEntity
8
DEFAULT_2
100
AcDbCircle
62
8
6
HIDDEN
10
340.3859334402
20
87.3007633588
40
6.5000000000
100
AcDbArc
50
0.0000000000
51
180.0000000000
0
ARC
5
2F9
100
AcDbEntity
8
DEFAULT_2
100
AcDbCircle
62
8
6
HIDDEN
10
340.3859334402
20
211.7507633588
40
18.0000000000
100
AcDbArc
50
248.8288351837
51
291.1712383260
0
ARC
5
2FA
100
AcDbEntity
8
DEFAULT_2
100
AcDbCircle
62
8
6
HIDDEN
10
340.3859334402
20
211.7507633588
40
7.9500000000
100
AcDbArc
50
215.0867605971
51
324.9132394029
0
ARC
5
2FB
100
AcDbEntity
8
0
100
AcDbCircle
62
7
6
CONTINUOUS
10
340.3859334402
20
211.7507633588
40
18.0000000000
100
AcDbArc
50
291.1712383260
51
10.0000000000
0
ARC
5
2FC
100
AcDbEntity
8
0
100
AcDbCircle
62
7
6
CONTINUOUS
10
340.3859334402
20
263.3507633588
40
21.6000000000
100
AcDbArc
50
278.9490180653
51
291.4784178411
0
ARC
5
2FD
100
AcDbEntity
8
0
100
AcDbCircle
62
7
6
CONTINUOUS
10
340.3859334402
20
263.3507633588
40
21.6000000000
100
AcDbArc
50
248.5215821589
51
261.0509819347
0
ARC
5
2FE
100
AcDbEntity
8
0
100
AcDbCircle
62
7
6
CONTINUOUS
10
340.3859334402
20
211.7507633588
40
7.9500000000
100
AcDbArc
50
324.9132394029
51
215.0867605971
0
CIRCLE
5
2FF
100
AcDbEntity
8
0
100
AcDbCircle
62
7
6
CONTINUOUS
10
351.0059334402
20
234.8507633588
40
1.5000000000
0
ARC
5
300
100
AcDbEntity
8
0
100
AcDbCircle
62
7
6
CONTINUOUS
10
340.3859334402
20
226.8107633588
40
3.3600000000
100
AcDbArc
50
180.0000000000
51
360.0000000000
0
ARC
5
301
100
AcDbEntity
8
0
100
AcDbCircle
62
7
6
CONTINUOUS
10
340.3859334402
20
211.7507633588
40
18.0000000000
100
AcDbArc
50
170.0000000000
51
248.8288351837
0
ARC
5
302
100
AcDbEntity
8
0
100
AcDbCircle
62
7
6
CONTINUOUS
10
340.3859334402
20
210.3007633588
40
6.5000000000
100
AcDbArc
50
0.0000000000
51
180.0000000000
0
ARC
5
303
100
AcDbEntity
8
0
100
AcDbCircle
62
7
6
CONTINUOUS
10
340.3859334402
20
87.3007633588
40
6.5000000000
100
AcDbArc
50
180.0000000000
51
360.0000000000
0
SPLINE
5
304
100
AcDbEntity
8
DEFAULT_2
100
AcDbSpline
62
8
6
HIDDEN
70
0
71
3
72
11
73
7
74
5
42
0.0000001000
43
0.0000001000
44
0.0000000001
40
0.0000000000
40
0.0000000000
40
0.0000000000
40
0.0000000000
40
0.2736618404
40
0.5152988758
40
0.7560103337
40
1.0000000000
40
1.0000000000
40
1.0000000000
40
1.0000000000
10
216.0973000088
20
220.0609215046
30
0.0000000000
10
216.0264958702
20
220.0868534343
30
0.0000000000
10
215.8862088393
20
220.1230594911
30
0.0000000000
10
215.6750363776
20
220.0961547238
30
0.0000000000
10
215.4923705755
20
220.0102342231
30
0.0000000000
10
215.3805678347
20
219.9372053983
30
0.0000000000
10
215.3245083216
20
219.9000987092
30
0.0000000000
11
216.0973000088
21
220.0609215046
31
0.0000000000
11
215.8764611881
21
220.1099259376
31
0.0000000000
11
215.6781474211
21
220.0861103308
31
0.0000000000
11
215.4956845106
21
220.0067518426
31
0.0000000000
11
215.3245083216
21
219.9000987092
31
0.0000000000
0
SPLINE
5
305
100
AcDbEntity
8
DEFAULT_2
100
AcDbSpline
62
8
6
HIDDEN
70
0
71
3
72
11
73
7
74
5
42
0.0000001000
43
0.0000001000
44
0.0000000001
40
0.0000000000
40
0.0000000000
40
0.0000000000
40
0.0000000000
40
0.2736618404
40
0.5152988758
40
0.7560103337
40
1.0000000000
40
1.0000000000
40
1.0000000000
40
1.0000000000
10
209.7638641134
20
220.0609215046
30
0.0000000000
10
209.8346682519
20
220.0868534343
30
0.0000000000
10
209.9749552829
20
220.1230594911
30
0.0000000000
10
210.1861277446
20
220.0961547238
30
0.0000000000
10
210.3687935467
20
220.0102342231
30
0.0000000000
10
210.4805962874
20
219.9372053983
30
0.0000000000
10
210.5366558005
20
219.9000987092
30
0.0000000000
11
209.7638641134
21
220.0609215046
31
0.0000000000
11
209.9847029340
21
220.1099259376
31
0.0000000000
11
210.1830167011
21
220.0861103308
31
0.0000000000
11
210.3654796115
21
220.0067518426
31
0.0000000000
11
210.5366558005
21
219.9000987092
31
0.0000000000
0
SPLINE
5
306
100
AcDbEntity
8
0
100
AcDbSpline
62
7
6
CONTINUOUS
70
0
71
3
72
10
73
6
74
4
42
0.0000001000
43
0.0000001000
44
0.0000000001
40
0.0000000000
40
0.0000000000
40
0.0000000000
40
0.0000000000
40
0.3159015172
40
0.6499699058
40
1.0000000000
40
1.0000000000
40
1.0000000000
40
1.0000000000
10
216.0973000088
20
220.0609215046
30
0.0000000000
10
216.1295901777
20
220.0490951844
30
0.0000000000
10
216.1963280507
20
220.0255756988
30
0.0000000000
10
216.2998209830
20
219.9918010278
30
0.0000000000
10
216.3711319868
20
219.9703212207
30
0.0000000000
10
216.4077336226
20
219.9597312890
30
0.0000000000
11
216.0973000088
21
220.0609215046
31
0.0000000000
11
216.1945877646
21
220.0266032250
31
0.0000000000
11
216.2982910714
21
219.9927277367
31
0.0000000000
11
216.4077336226
21
219.9597312890
31
0.0000000000
0
SPLINE
5
307
100
AcDbEntity
8
0
100
AcDbSpline
62
7
6
CONTINUOUS
70
0
71
3
72
10
73
6
74
4
42
0.0000001000
43
0.0000001000
44
0.0000000001
40
0.0000000000
40
0.0000000000
40
0.0000000000
40
0.0000000000
40
0.4287722276
40
0.7749239051
40
1.0000000000
40
1.0000000000
40
1.0000000000
40
1.0000000000
10
216.4077336226
20
219.9597312890
30
0.0000000000
10
216.4582699182
20
219.9451096496
30
0.0000000000
10
216.5477175286
20
219.9071063464
30
0.0000000000
10
216.6417794362
20
219.8289451854
30
0.0000000000
10
216.6805820431
20
219.7633787145
30
0.0000000000
10
216.6805820611
20
219.7357625744
30
0.0000000000
11
216.4077336226
21
219.9597312890
31
0.0000000000
11
216.5521853490
21
219.8961460364
31
0.0000000000
11
216.6476862674
21
219.8118002461
31
0.0000000000
11
216.6805820611
21
219.7357625744
31
0.0000000000
0
SPLINE
5
308
100
AcDbEntity
8
0
100
AcDbSpline
62
7
6
CONTINUOUS
70
0
71
3
72
11
73
7
74
5
42
0.0000001000
43
0.0000001000
44
0.0000000001
40
0.0000000000
40
0.0000000000
40
0.0000000000
40
0.0000000000
40
0.2442083284
40
0.4849817594
40
0.7265734916
40
1.0000000000
40
1.0000000000
40
1.0000000000
40
1.0000000000
10
215.3245078806
20
219.9000993755
30
0.0000000000
10
215.3806176544
20
219.9372395565
30
0.0000000000
10
215.4924861757
20
220.0103097506
30
0.0000000000
10
215.6752343593
20
220.0962205509
30
0.0000000000
10
215.8863567808
20
220.1230300639
30
0.0000000000
10
216.0265566030
20
220.0868311949
30
0.0000000000
10
216.0973000088
20
220.0609215046
30
0.0000000000
11
215.3245078806
21
219.9000993755
31
0.0000000000
11
215.4958430249
21
220.0068400247
31
0.0000000000
11
215.6783718798
21
220.0861764171
31
0.0000000000
11
215.8766575750
21
220.1099152805
31
0.0000000000
11
216.0973000088
21
220.0609215046
31
0.0000000000
0
SPLINE
5
309
100
AcDbEntity
8
0
100
AcDbSpline
62
7
6
CONTINUOUS
70
0
71
3
72
10
73
6
74
4
42
0.0000001000
43
0.0000001000
44
0.0000000001
40
0.0000000000
40
0.0000000000
40
0.0000000000
40
0.0000000000
40
0.3159015172
40
0.6499699058
40
1.0000000000
40
1.0000000000
40
1.0000000000
40
1.0000000000
10
209.7638641134
20
220.0609215046
30
0.0000000000
10
209.7315739444
20
220.0490951844
30
0.0000000000
10
209.6648360715
20
220.0255756988
30
0.0000000000
10
209.5613431392
20
219.9918010278
30
0.0000000000
10
209.4900321354
20
219.9703212207
30
0.0000000000
10
209.4534304996
20
219.9597312890
30
0.0000000000
11
209.7638641134
21
220.0609215046
31
0.0000000000
11
209.6665763575
21
220.0266032250
31
0.0000000000
11
209.5628730508
21
219.9927277367
31
0.0000000000
11
209.4534304996
21
219.9597312890
31
0.0000000000
0
SPLINE
5
30A
100
AcDbEntity
8
0
100
AcDbSpline
62
7
6
CONTINUOUS
70
0
71
3
72
10
73
6
74
4
42
0.0000001000
43
0.0000001000
44
0.0000000001
40
0.0000000000
40
0.0000000000
40
0.0000000000
40
0.0000000000
40
0.4287722276
40
0.7749239051
40
1.0000000000
40
1.0000000000
40
1.0000000000
40
1.0000000000
10
209.4534304996
20
219.9597312890
30
0.0000000000
10
209.4028942039
20
219.9451096496
30
0.0000000000
10
209.3134465935
20
219.9071063464
30
0.0000000000
10
209.2193846860
20
219.8289451854
30
0.0000000000
10
209.1805820790
20
219.7633787145
30
0.0000000000
10
209.1805820611
20
219.7357625744
30
0.0000000000
11
209.4534304996
21
219.9597312890
31
0.0000000000
11
209.3089787731
21
219.8961460364
31
0.0000000000
11
209.2134778548
21
219.8118002461
31
0.0000000000
11
209.1805820611
21
219.7357625744
31
0.0000000000
0
SPLINE
5
30B
100
AcDbEntity
8
0
100
AcDbSpline
62
7
6
CONTINUOUS
70
0
71
3
72
11
73
7
74
5
42
0.0000001000
43
0.0000001000
44
0.0000000001
40
0.0000000000
40
0.0000000000
40
0.0000000000
40
0.0000000000
40
0.2442083284
40
0.4849817594
40
0.7265734916
40
1.0000000000
40
1.0000000000
40
1.0000000000
40
1.0000000000
10
210.5366562415
20
219.9000993755
30
0.0000000000
10
210.4805464677
20
219.9372395565
30
0.0000000000
10
210.3686779464
20
220.0103097506
30
0.0000000000
10
210.1859297628
20
220.0962205509
30
0.0000000000
10
209.9748073414
20
220.1230300639
30
0.0000000000
10
209.8346075192
20
220.0868311949
30
0.0000000000
10
209.7638641134
20
220.0609215046
30
0.0000000000
11
210.5366562415
21
219.9000993755
31
0.0000000000
11
210.3653210972
21
220.0068400247
31
0.0000000000
11
210.1827922424
21
220.0861764171
31
0.0000000000
11
209.9845065471
21
220.1099152805
31
0.0000000000
11
209.7638641134
21
220.0609215046
31
0.0000000000
0
SPLINE
5
30C
100
AcDbEntity
8
DEFAULT_2
100
AcDbSpline
62
8
6
HIDDEN
70
0
71
3
72
10
73
6
74
4
42
0.0000001000
43
0.0000001000
44
0.0000000001
40
0.0000000000
40
0.0000000000
40
0.0000000000
40
0.0000000000
40
0.4537623861
40
0.8285678033
40
1.0000000000
40
1.0000000000
40
1.0000000000
40
1.0000000000
10
346.3859334402
20
163.8007633588
30
0.0000000000
10
346.5040357585
20
163.7062815013
30
0.0000000000
10
346.7054067566
20
163.5127103532
30
0.0000000000
10
346.8643451177
20
163.2091316626
30
0.0000000000
10
346.8850836514
20
163.0251660879
30
0.0000000000
10
346.8850836514
20
162.9674300006
30
0.0000000000
11
346.3859334402
21
163.8007633588
31
0.0000000000
11
346.7036979221
21
163.4768798227
31
0.0000000000
11
346.8655577951
21
163.1388515846
31
0.0000000000
11
346.8850836514
21
162.9674300006
31
0.0000000000
0
SPLINE
5
30D
100
AcDbEntity
8
DEFAULT_2
100
AcDbSpline
62
8
6
HIDDEN
70
0
71
3
72
10
73
6
74
4
42
0.0000001000
43
0.0000001000
44
0.0000000001
40
0.0000000000
40
0.0000000000
40
0.0000000000
40
0.0000000000
40
0.5021087133
40
0.9284096498
40
1.0000000000
40
1.0000000000
40
1.0000000000
40
1.0000000000
10
346.5460131437
20
156.7174302241
30
0.0000000000
10
346.6390489564
20
156.6272596015
30
0.0000000000
10
346.7954402025
20
156.4404486799
30
0.0000000000
10
346.8810519878
20
156.1886358454
30
0.0000000000
10
346.8858257590
20
156.0591815807
30
0.0000000000
10
346.8857601621
20
156.0405503048
30
0.0000000000
11
346.5460131437
21
156.7174302241
31
0.0000000000
11
346.7857148562
21
156.4114551896
31
0.0000000000
11
346.8836703739
21
156.0963249614
31
0.0000000000
11
346.8857601621
21
156.0405503048
31
0.0000000000
0
SPLINE
5
30E
100
AcDbEntity
8
DEFAULT_2
100
AcDbSpline
62
8
6
HIDDEN
70
0
71
3
72
10
73
6
74
4
42
0.0000001000
43
0.0000001000
44
0.0000000001
40
0.0000000000
40
0.0000000000
40
0.0000000000
40
0.0000000000
40
0.0715903502
40
0.4978912867
40
1.0000000000
40
1.0000000000
40
1.0000000000
40
1.0000000000
10
346.8857601621
20
157.3943101434
30
0.0000000000
10
346.8858257590
20
157.3756788675
30
0.0000000000
10
346.8810519878
20
157.2462246029
30
0.0000000000
10
346.7954402025
20
156.9944117683
30
0.0000000000
10
346.6390489564
20
156.8076008468
30
0.0000000000
10
346.5460131437
20
156.7174302241
30
0.0000000000
11
346.8857601621
21
157.3943101434
31
0.0000000000
11
346.8836703739
21
157.3385354869
31
0.0000000000
11
346.7857148562
21
157.0234052586
31
0.0000000000
11
346.5460131437
21
156.7174302241
31
0.0000000000
0
SPLINE
5
30F
100
AcDbEntity
8
DEFAULT_2
100
AcDbSpline
62
8
6
HIDDEN
70
0
71
3
72
10
73
6
74
4
42
0.0000001000
43
0.0000001000
44
0.0000000001
40
0.0000000000
40
0.0000000000
40
0.0000000000
40
0.0000000000
40
0.1714321921
40
0.5462376057
40
1.0000000000
40
1.0000000000
40
1.0000000000
40
1.0000000000
10
346.8850836511
20
160.4674300751
30
0.0000000000
10
346.8850836511
20
160.4096939929
30
0.0000000000
10
346.8643451175
20
160.2257284323
30
0.0000000000
10
346.7054067528
20
159.9221497666
30
0.0000000000
10
346.5040357573
20
159.7285786395
30
0.0000000000
10
346.3859334402
20
159.6340967915
30
0.0000000000
11
346.8850836511
21
160.4674300751
31
0.0000000000
11
346.8655577951
21
160.2960085066
31
0.0000000000
11
346.7036979222
21
159.9579802987
31
0.0000000000
11
346.3859334402
21
159.6340967915
31
0.0000000000
0
SPLINE
5
310
100
AcDbEntity
8
DEFAULT_2
100
AcDbSpline
62
8
6
HIDDEN
70
0
71
3
72
9
73
5
74
3
42
0.0000001000
43
0.0000001000
44
0.0000000001
40
0.0000000000
40
0.0000000000
40
0.0000000000
40
0.0000000000
40
0.4999581597
40
1.0000000000
40
1.0000000000
40
1.0000000000
40
1.0000000000
10
346.8839743958
20
142.1340958974
30
0.0000000000
10
346.8844097647
20
142.0820178831
30
0.0000000000
10
346.8851353499
20
141.9778518733
30
0.0000000000
10
346.8855706819
20
141.8736842462
30
0.0000000000
10
346.8857157947
20
141.8215958974
30
0.0000000000
11
346.8839743958
21
142.1340958974
31
0.0000000000
11
346.8850627380
21
141.9778601857
31
0.0000000000
11
346.8857157947
21
141.8215958974
31
0.0000000000
0
SPLINE
5
311
100
AcDbEntity
8
DEFAULT_2
100
AcDbSpline
62
8
6
HIDDEN
70
0
71
3
72
9
73
5
74
3
42
0.0000001000
43
0.0000001000
44
0.0000000001
40
0.0000000000
40
0.0000000000
40
0.0000000000
40
0.0000000000
40
0.4999581597
40
1.0000000000
40
1.0000000000
40
1.0000000000
40
1.0000000000
10
346.8839743958
20
142.8632633588
30
0.0000000000
10
346.8844097647
20
142.9153413731
30
0.0000000000
10
346.8851353499
20
143.0195073829
30
0.0000000000
10
346.8855706819
20
143.1236750099
30
0.0000000000
10
346.8857157947
20
143.1757633588
30
0.0000000000
11
346.8839743958
21
142.8632633588
31
0.0000000000
11
346.8850627380
21
143.0194990704
31
0.0000000000
11
346.8857157947
21
143.1757633588
31
0.0000000000
0
SPLINE
5
312
100
AcDbEntity
8
DEFAULT_2
100
AcDbSpline
62
8
6
HIDDEN
70
0
71
3
72
9
73
5
74
3
42
0.0000001000
43
0.0000001000
44
0.0000000001
40
0.0000000000
40
0.0000000000
40
0.0000000000
40
0.0000000000
40
0.5013528371
40
1.0000000000
40
1.0000000000
40
1.0000000000
40
1.0000000000
10
346.6733024585
20
141.6132633588
30
0.0000000000
10
346.6871028291
20
141.5789139249
30
0.0000000000
10
346.7134185376
20
141.5099075169
30
0.0000000000
10
346.7372269003
20
141.4399956089
30
0.0000000000
10
346.7484538167
20
141.4049308202
30
0.0000000000
11
346.6733024585
21
141.6132633588
31
0.0000000000
11
346.7128595062
21
141.5094932064
31
0.0000000000
11
346.7484538167
21
141.4049308202
31
0.0000000000
0
SPLINE
5
313
100
AcDbEntity
8
DEFAULT_2
100
AcDbSpline
62
8
6
HIDDEN
70
0
71
3
72
9
73
5
74
3
42
0.0000001000
43
0.0000001000
44
0.0000000001
40
0.0000000000
40
0.0000000000
40
0.0000000000
40
0.0000000000
40
0.4984658567
40
1.0000000000
40
1.0000000000
40
1.0000000000
40
1.0000000000
10
346.6136187971
20
141.9257633588
30
0.0000000000
10
346.6241620153
20
141.8739624265
30
0.0000000000
10
346.6446848410
20
141.7699128119
30
0.0000000000
10
346.6639529588
20
141.6656235688
30
0.0000000000
10
346.6733024585
20
141.6132633588
30
0.0000000000
11
346.6136187971
21
141.9257633588
31
0.0000000000
11
346.6443101161
21
141.7701725259
31
0.0000000000
11
346.6733024585
21
141.6132633588
31
0.0000000000
0
SPLINE
5
314
100
AcDbEntity
8
DEFAULT_2
100
AcDbSpline
62
8
6
HIDDEN
70
0
71
3
72
9
73
5
74
3
42
0.0000001000
43
0.0000001000
44
0.0000000001
40
0.0000000000
40
0.0000000000
40
0.0000000000
40
0.0000000000
40
0.4989863946
40
1.0000000000
40
1.0000000000
40
1.0000000000
40
1.0000000000
10
346.5808217172
20
142.2382633588
30
0.0000000000
10
346.5864412996
20
142.1863030697
30
0.0000000000
10
346.5975380841
20
142.0821534618
30
0.0000000000
10
346.6083059678
20
141.9779693372
30
0.0000000000
10
346.6136187971
20
141.9257633588
30
0.0000000000
11
346.5808217172
21
142.2382633588
31
0.0000000000
11
346.5974336964
21
142.0823560008
31
0.0000000000
11
346.6136187971
21
141.9257633588
31
0.0000000000
0
SPLINE
5
315
100
AcDbEntity
8
DEFAULT_2
100
AcDbSpline
62
8
6
HIDDEN
70
0
71
3
72
9
73
5
74
3
42
0.0000001000
43
0.0000001000
44
0.0000000001
40
0.0000000000
40
0.0000000000
40
0.0000000000
40
0.0000000000
40
0.4989863946
40
1.0000000000
40
1.0000000000
40
1.0000000000
40
1.0000000000
10
346.5808217172
20
142.8632633588
30
0.0000000000
10
346.5864412996
20
142.9152236479
30
0.0000000000
10
346.5975380841
20
143.0193732558
30
0.0000000000
10
346.6083059678
20
143.1235573804
30
0.0000000000
10
346.6136187971
20
143.1757633588
30
0.0000000000
11
346.5808217172
21
142.8632633588
31
0.0000000000
11
346.5974336964
21
143.0191707168
31
0.0000000000
11
346.6136187971
21
143.1757633588
31
0.0000000000
0
SPLINE
5
316
100
AcDbEntity
8
DEFAULT_2
100
AcDbSpline
62
8
6
HIDDEN
70
0
71
3
72
9
73
5
74
3
42
0.0000001000
43
0.0000001000
44
0.0000000001
40
0.0000000000
40
0.0000000000
40
0.0000000000
40
0.0000000000
40
0.4984658567
40
1.0000000000
40
1.0000000000
40
1.0000000000
40
1.0000000000
10
346.6136187971
20
143.1757633588
30
0.0000000000
10
346.6241620153
20
143.2275642911
30
0.0000000000
10
346.6446848410
20
143.3316139056
30
0.0000000000
10
346.6639529588
20
143.4359031488
30
0.0000000000
10
346.6733024585
20
143.4882633588
30
0.0000000000
11
346.6136187971
21
143.1757633588
31
0.0000000000
11
346.6443101161
21
143.3313541917
31
0.0000000000
11
346.6733024585
21
143.4882633588
31
0.0000000000
0
SPLINE
5
317
100
AcDbEntity
8
DEFAULT_2
100
AcDbSpline
62
8
6
HIDDEN
70
0
71
3
72
9
73
5
74
3
42
0.0000001000
43
0.0000001000
44
0.0000000001
40
0.0000000000
40
0.0000000000
40
0.0000000000
40
0.0000000000
40
0.5013528371
40
1.0000000000
40
1.0000000000
40
1.0000000000
40
1.0000000000
10
346.6733024585
20
143.4882633588
30
0.0000000000
10
346.6871028291
20
143.5226127927
30
0.0000000000
10
346.7134185376
20
143.5916192006
30
0.0000000000
10
346.7372269003
20
143.6615311086
30
0.0000000000
10
346.7484538167
20
143.6965958974
30
0.0000000000
11
346.6733024585
21
143.4882633588
31
0.0000000000
11
346.7128595062
21
143.5920335111
31
0.0000000000
11
346.7484538167
21
143.6965958974
31
0.0000000000
0
SPLINE
5
318
100
AcDbEntity
8
DEFAULT_2
100
AcDbSpline
62
8
6
HIDDEN
70
0
71
3
72
9
73
5
74
3
42
0.0000001000
43
0.0000001000
44
0.0000000001
40
0.0000000000
40
0.0000000000
40
0.0000000000
40
0.0000000000
40
0.5072169349
40
1.0000000000
40
1.0000000000
40
1.0000000000
40
1.0000000000
10
346.7484538167
20
143.6965958974
30
0.0000000000
10
346.7593482058
20
143.7136091828
30
0.0000000000
10
346.7798974414
20
143.7477580527
30
0.0000000000
10
346.7983587959
20
143.7830840961
30
0.0000000000
10
346.8068843413
20
143.8007633588
30
0.0000000000
11
346.7484538167
21
143.6965958974
31
0.0000000000
11
346.7796568992
21
143.7485538033
31
0.0000000000
11
346.8068843413
21
143.8007633588
31
0.0000000000
0
SPLINE
5
319
100
AcDbEntity
8
DEFAULT_2
100
AcDbSpline
62
8
6
HIDDEN
70
0
71
3
72
9
73
5
74
3
42
0.0000001000
43
0.0000001000
44
0.0000000001
40
0.0000000000
40
0.0000000000
40
0.0000000000
40
0.0000000000
40
0.5334515453
40
1.0000000000
40
1.0000000000
40
1.0000000000
40
1.0000000000
10
346.8068843413
20
143.8007633588
30
0.0000000000
10
346.8223537942
20
143.8168025464
30
0.0000000000
10
346.8492534897
20
143.8490741748
30
0.0000000000
10
346.8687960579
20
143.8865439970
30
0.0000000000
10
346.8752602651
20
143.9049296281
30
0.0000000000
11
346.8068843413
21
143.8007633588
31
0.0000000000
11
346.8489595407
21
143.8527124993
31
0.0000000000
11
346.8752602651
21
143.9049296281
31
0.0000000000
0
SPLINE
5
31A
100
AcDbEntity
8
DEFAULT_2
100
AcDbSpline
62
8
6
HIDDEN
70
0
71
3
72
9
73
5
74
3
42
0.0000001000
43
0.0000001000
44
0.0000000001
40
0.0000000000
40
0.0000000000
40
0.0000000000
40
0.0000000000
40
0.5000083079
40
1.0000000000
40
1.0000000000
40
1.0000000000
40
1.0000000000
10
346.6733024585
20
148.1757633588
30
0.0000000000
10
346.7052660452
20
148.2780526797
30
0.0000000000
10
346.7623043023
20
148.4848465400
30
0.0000000000
10
346.8050366261
20
148.6950702526
30
0.0000000000
10
346.8227278685
20
148.8007633588
30
0.0000000000
11
346.6733024585
21
148.1757633588
31
0.0000000000
11
346.7587286479
21
148.4857074676
31
0.0000000000
11
346.8227278685
21
148.8007633588
31
0.0000000000
0
SPLINE
5
31B
100
AcDbEntity
8
DEFAULT_2
100
AcDbSpline
62
8
6
HIDDEN
70
0
71
3
72
8
73
4
74
2
42
0.0000001000
43
0.0000001000
44
0.0000000001
40
0.0000000000
40
0.0000000000
40
0.0000000000
40
0.0000000000
40
1.0000000000
40
1.0000000000
40
1.0000000000
40
1.0000000000
10
346.3859334402
20
160.2590967915
30
0.0000000000
10
346.5105037796
20
160.3590568896
30
0.0000000000
10
346.6267529942
20
160.4716855528
30
0.0000000000
10
346.7181942934
20
160.6043931873
30
0.0000000000
11
346.3859334402
21
160.2590967915
31
0.0000000000
11
346.7181942934
21
160.6043931873
31
0.0000000000
0
SPLINE
5
31C
100
AcDbEntity
8
DEFAULT_2
100
AcDbSpline
62
8
6
HIDDEN
70
0
71
3
72
8
73
4
74
2
42
0.0000001000
43
0.0000001000
44
0.0000000001
40
0.0000000000
40
0.0000000000
40
0.0000000000
40
0.0000000000
40
1.0000000000
40
1.0000000000
40
1.0000000000
40
1.0000000000
10
346.7181942934
20
160.6043931873
30
0.0000000000
10
346.7199560045
20
160.6069499371
30
0.0000000000
10
346.7217085075
20
160.6095141398
30
0.0000000000
10
346.7234516843
20
160.6120858484
30
0.0000000000
11
346.7181942934
21
160.6043931873
31
0.0000000000
11
346.7234516843
21
160.6120858484
31
0.0000000000
0
SPLINE
5
31D
100
AcDbEntity
8
DEFAULT_2
100
AcDbSpline
62
8
6
HIDDEN
70
0
71
3
72
8
73
4
74
2
42
0.0000001000
43
0.0000001000
44
0.0000000001
40
0.0000000000
40
0.0000000000
40
0.0000000000
40
0.0000000000
40
1.0000000000
40
1.0000000000
40
1.0000000000
40
1.0000000000
10
346.7234516843
20
160.6120858484
30
0.0000000000
10
346.7591712544
20
160.6647829256
30
0.0000000000
10
346.7909749409
20
160.7206316147
30
0.0000000000
10
346.8166979191
20
160.7788642689
30
0.0000000000
11
346.7234516843
21
160.6120858484
31
0.0000000000
11
346.8166979191
21
160.7788642689
31
0.0000000000
0
SPLINE
5
31E
100
AcDbEntity
8
DEFAULT_2
100
AcDbSpline
62
8
6
HIDDEN
70
0
71
3
72
9
73
5
74
3
42
0.0000001000
43
0.0000001000
44
0.0000000001
40
0.0000000000
40
0.0000000000
40
0.0000000000
40
0.0000000000
40
0.9211088731
40
1.0000000000
40
1.0000000000
40
1.0000000000
40
1.0000000000
10
346.3859334402
20
157.1340964934
30
0.0000000000
10
346.5040357597
20
157.2285783603
30
0.0000000000
10
346.6237611872
20
157.3436663864
30
0.0000000000
10
346.7188554014
20
157.4792443259
30
0.0000000000
10
346.7261854024
20
157.4900640457
30
0.0000000000
11
346.3859334402
21
157.1340964934
31
0.0000000000
11
346.7036979219
21
157.4579800583
31
0.0000000000
11
346.7261854024
21
157.4900640457
31
0.0000000000
0
SPLINE
5
31F
100
AcDbEntity
8
DEFAULT_2
100
AcDbSpline
62
8
6
HIDDEN
70
0
71
3
72
8
73
4
74
2
42
0.0000001000
43
0.0000001000
44
0.0000000001
40
0.0000000000
40
0.0000000000
40
0.0000000000
40
0.0000000000
40
1.0000000000
40
1.0000000000
40
1.0000000000
40
1.0000000000
10
346.7261854024
20
157.4900640457
30
0.0000000000
10
346.7428907847
20
157.5147226446
30
0.0000000000
10
346.7587023326
20
157.5400243862
30
0.0000000000
10
346.7733976363
20
157.5659254487
30
0.0000000000
11
346.7261854024
21
157.4900640457
31
0.0000000000
11
346.7733976363
21
157.5659254487
31
0.0000000000
0
SPLINE
5
320
100
AcDbEntity
8
DEFAULT_2
100
AcDbSpline
62
8
6
HIDDEN
70
0
71
3
72
8
73
4
74
2
42
0.0000001000
43
0.0000001000
44
0.0000000001
40
0.0000000000
40
0.0000000000
40
0.0000000000
40
0.0000000000
40
1.0000000000
40
1.0000000000
40
1.0000000000
40
1.0000000000
10
346.7733976363
20
157.5659254487
30
0.0000000000
10
346.7845105002
20
157.5855123175
30
0.0000000000
10
346.7949850212
20
157.6054419179
30
0.0000000000
10
346.8047250167
20
157.6256952991
30
0.0000000000
11
346.7733976363
21
157.5659254487
31
0.0000000000
11
346.8047250167
21
157.6256952991
31
0.0000000000
0
SPLINE
5
321
100
AcDbEntity
8
DEFAULT_2
100
AcDbSpline
62
8
6
HIDDEN
70
0
71
3
72
8
73
4
74
2
42
0.0000001000
43
0.0000001000
44
0.0000000001
40
0.0000000000
40
0.0000000000
40
0.0000000000
40
0.0000000000
40
1.0000000000
40
1.0000000000
40
1.0000000000
40
1.0000000000
10
346.8047250167
20
157.6256952991
30
0.0000000000
10
346.8091881028
20
157.6349758562
30
0.0000000000
10
346.8134969621
20
157.6443243968
30
0.0000000000
10
346.8176423407
20
157.6537390977
30
0.0000000000
11
346.8047250167
21
157.6256952991
31
0.0000000000
11
346.8176423407
21
157.6537390977
31
0.0000000000
0
SPLINE
5
322
100
AcDbEntity
8
DEFAULT_2
100
AcDbSpline
62
8
6
HIDDEN
70
0
71
3
72
8
73
4
74
2
42
0.0000001000
43
0.0000001000
44
0.0000000001
40
0.0000000000
40
0.0000000000
40
0.0000000000
40
0.0000000000
40
1.0000000000
40
1.0000000000
40
1.0000000000
40
1.0000000000
10
346.8176423407
20
157.6537390977
30
0.0000000000
10
346.8186346847
20
157.6559928418
30
0.0000000000
10
346.8196176605
20
157.6582503773
30
0.0000000000
10
346.8205911409
20
157.6605116792
30
0.0000000000
11
346.8176423407
21
157.6537390977
31
0.0000000000
11
346.8205911409
21
157.6605116792
31
0.0000000000
0
SPLINE
5
323
100
AcDbEntity
8
DEFAULT_2
100
AcDbSpline
62
8
6
HIDDEN
70
0
71
3
72
8
73
4
74
2
42
0.0000001000
43
0.0000001000
44
0.0000000001
40
0.0000000000
40
0.0000000000
40
0.0000000000
40
0.0000000000
40
1.0000000000
40
1.0000000000
40
1.0000000000
40
1.0000000000
10
346.8176420853
20
155.7811213346
30
0.0000000000
10
346.8134967851
20
155.7905358394
30
0.0000000000
10
346.8091880112
20
155.7998841866
30
0.0000000000
10
346.8047250167
20
155.8091645531
30
0.0000000000
11
346.8176420853
21
155.7811213346
31
0.0000000000
11
346.8047250167
21
155.8091645531
31
0.0000000000
0
SPLINE
5
324
100
AcDbEntity
8
DEFAULT_2
100
AcDbSpline
62
8
6
HIDDEN
70
0
71
3
72
8
73
4
74
2
42
0.0000001000
43
0.0000001000
44
0.0000000001
40
0.0000000000
40
0.0000000000
40
0.0000000000
40
0.0000000000
40
1.0000000000
40
1.0000000000
40
1.0000000000
40
1.0000000000
10
346.8047250167
20
155.8091645531
30
0.0000000000
10
346.7949850212
20
155.8294179343
30
0.0000000000
10
346.7845105002
20
155.8493475348
30
0.0000000000
10
346.7733976363
20
155.8689344035
30
0.0000000000
11
346.8047250167
21
155.8091645531
31
0.0000000000
11
346.7733976363
21
155.8689344035
31
0.0000000000
0
SPLINE
5
325
100
AcDbEntity
8
DEFAULT_2
100
AcDbSpline
62
8
6
HIDDEN
70
0
71
3
72
8
73
4
74
2
42
0.0000001000
43
0.0000001000
44
0.0000000001
40
0.0000000000
40
0.0000000000
40
0.0000000000
40
0.0000000000
40
1.0000000000
40
1.0000000000
40
1.0000000000
40
1.0000000000
10
346.7733976363
20
155.8689344035
30
0.0000000000
10
346.7587022485
20
155.8948356143
30
0.0000000000
10
346.7428906038
20
155.9201374972
30
0.0000000000
10
346.7261851156
20
155.9447962299
30
0.0000000000
11
346.7733976363
21
155.8689344035
31
0.0000000000
11
346.7261851156
21
155.9447962299
31
0.0000000000
0
SPLINE
5
326
100
AcDbEntity
8
DEFAULT_2
100
AcDbSpline
62
8
6
HIDDEN
70
0
71
3
72
9
73
5
74
3
42
0.0000001000
43
0.0000001000
44
0.0000000001
40
0.0000000000
40
0.0000000000
40
0.0000000000
40
0.0000000000
40
0.0788901791
40
1.0000000000
40
1.0000000000
40
1.0000000000
40
1.0000000000
10
346.7261851156
20
155.9447962299
30
0.0000000000
10
346.7188552057
20
155.9556158054
30
0.0000000000
10
346.6237610640
20
156.0911935843
30
0.0000000000
10
346.5040357597
20
156.2062814919
30
0.0000000000
10
346.3859334402
20
156.3007633588
30
0.0000000000
11
346.7261851156
21
155.9447962299
31
0.0000000000
11
346.7036979219
21
155.9768797939
31
0.0000000000
11
346.3859334402
21
156.3007633588
31
0.0000000000
0
SPLINE
5
327
100
AcDbEntity
8
DEFAULT_2
100
AcDbSpline
62
8
6
HIDDEN
70
0
71
3
72
8
73
4
74
2
42
0.0000001000
43
0.0000001000
44
0.0000000001
40
0.0000000000
40
0.0000000000
40
0.0000000000
40
0.0000000000
40
1.0000000000
40
1.0000000000
40
1.0000000000
40
1.0000000000
10
346.8166979377
20
162.6559958391
30
0.0000000000
10
346.7909749563
20
162.7142285086
30
0.0000000000
10
346.7591712630
20
162.7700772119
30
0.0000000000
10
346.7234516843
20
162.8227743018
30
0.0000000000
11
346.8166979377
21
162.6559958391
31
0.0000000000
11
346.7234516843
21
162.8227743018
31
0.0000000000
0
SPLINE
5
328
100
AcDbEntity
8
DEFAULT_2
100
AcDbSpline
62
8
6
HIDDEN
70
0
71
3
72
8
73
4
74
2
42
0.0000001000
43
0.0000001000
44
0.0000000001
40
0.0000000000
40
0.0000000000
40
0.0000000000
40
0.0000000000
40
1.0000000000
40
1.0000000000
40
1.0000000000
40
1.0000000000
10
346.7234516843
20
162.8227743018
30
0.0000000000
10
346.7217085183
20
162.8253459945
30
0.0000000000
10
346.7199560262
20
162.8279101814
30
0.0000000000
10
346.7181943260
20
162.8304669155
30
0.0000000000
11
346.7234516843
21
162.8227743018
31
0.0000000000
11
346.7181943260
21
162.8304669155
31
0.0000000000
0
SPLINE
5
329
100
AcDbEntity
8
DEFAULT_2
100
AcDbSpline
62
8
6
HIDDEN
70
0
71
3
72
8
73
4
74
2
42
0.0000001000
43
0.0000001000
44
0.0000000001
40
0.0000000000
40
0.0000000000
40
0.0000000000
40
0.0000000000
40
1.0000000000
40
1.0000000000
40
1.0000000000
40
1.0000000000
10
346.7181943260
20
162.8304669155
30
0.0000000000
10
346.6267530219
20
162.9631745707
30
0.0000000000
10
346.5105037944
20
163.0758032487
30
0.0000000000
10
346.3859334402
20
163.1757633588
30
0.0000000000
11
346.7181943260
21
162.8304669155
31
0.0000000000
11
346.3859334402
21
163.1757633588
31
0.0000000000
0
SPLINE
5
32A
100
AcDbEntity
8
DEFAULT_2
100
AcDbSpline
62
8
6
HIDDEN
70
0
71
3
72
8
73
4
74
2
42
0.0000001000
43
0.0000001000
44
0.0000000001
40
0.0000000000
40
0.0000000000
40
0.0000000000
40
0.0000000000
40
1.0000000000
40
1.0000000000
40
1.0000000000
40
1.0000000000
10
346.6733024585
20
144.1132633588
30
0.0000000000
10
346.6884612098
20
144.1359017602
30
0.0000000000
10
346.7030369623
20
144.1589412845
30
0.0000000000
10
346.7169528659
20
144.1823756606
30
0.0000000000
11
346.6733024585
21
144.1132633588
31
0.0000000000
11
346.7169528659
21
144.1823756606
31
0.0000000000
0
SPLINE
5
32B
100
AcDbEntity
8
DEFAULT_2
100
AcDbSpline
62
8
6
HIDDEN
70
0
71
3
72
9
73
5
74
3
42
0.0000001000
43
0.0000001000
44
0.0000000001
40
0.0000000000
40
0.0000000000
40
0.0000000000
40
0.0000000000
40
0.2538417537
40
1.0000000000
40
1.0000000000
40
1.0000000000
40
1.0000000000
10
346.7169528659
20
144.1823756606
30
0.0000000000
10
346.7237338832
20
144.1937948911
30
0.0000000000
10
346.7498302130
20
144.2391498682
30
0.0000000000
10
346.7733569847
20
144.2859486253
30
0.0000000000
10
346.7892344456
20
144.3215970895
30
0.0000000000
11
346.7169528659
21
144.1823756606
31
0.0000000000
11
346.7368169883
21
144.2169138958
31
0.0000000000
11
346.7892344456
21
144.3215970895
31
0.0000000000
0
SPLINE
5
32C
100
AcDbEntity
8
DEFAULT_2
100
AcDbSpline
62
8
6
HIDDEN
70
0
71
3
72
8
73
4
74
2
42
0.0000001000
43
0.0000001000
44
0.0000000001
40
0.0000000000
40
0.0000000000
40
0.0000000000
40
0.0000000000
40
1.0000000000
40
1.0000000000
40
1.0000000000
40
1.0000000000
10
346.5460131437
20
143.8007633588
30
0.0000000000
10
346.5618202787
20
143.8352341031
30
0.0000000000
10
346.5771349714
20
143.8699340152
30
0.0000000000
10
346.5919420748
20
143.9048502430
30
0.0000000000
11
346.5460131437
21
143.8007633588
31
0.0000000000
11
346.5919420748
21
143.9048502430
31
0.0000000000
0
SPLINE
5
32D
100
AcDbEntity
8
DEFAULT_2
100
AcDbSpline
62
8
6
HIDDEN
70
0
71
3
72
9
73
5
74
3
42
0.0000001000
43
0.0000001000
44
0.0000000001
40
0.0000000000
40
0.0000000000
40
0.0000000000
40
0.0000000000
40
0.2473319451
40
1.0000000000
40
1.0000000000
40
1.0000000000
40
1.0000000000
10
346.5919420748
20
143.9048502430
30
0.0000000000
10
346.5991445827
20
143.9218342811
30
0.0000000000
10
346.6277798196
20
143.9907102201
30
0.0000000000
10
346.6544232918
20
144.0603986510
30
0.0000000000
10
346.6733024585
20
144.1132633588
30
0.0000000000
11
346.5919420748
21
143.9048502430
31
0.0000000000
11
346.6131875580
21
143.9559544237
31
0.0000000000
11
346.6733024585
21
144.1132633588
31
0.0000000000
0
SPLINE
5
32E
100
AcDbEntity
8
DEFAULT_2
100
AcDbSpline
62
8
6
HIDDEN
70
0
71
3
72
9
73
5
74
3
42
0.0000001000
43
0.0000001000
44
0.0000000001
40
0.0000000000
40
0.0000000000
40
0.0000000000
40
0.0000000000
40
0.5292083148
40
1.0000000000
40
1.0000000000
40
1.0000000000
40
1.0000000000
10
346.4291608476
20
143.2799308210
30
0.0000000000
10
346.4499957220
20
143.3657748154
30
0.0000000000
10
346.4879485981
20
143.5283339550
30
0.0000000000
10
346.5232584940
20
143.6914860286
30
0.0000000000
10
346.5393026259
20
143.7684163554
30
0.0000000000
11
346.4291608476
21
143.2799308210
31
0.0000000000
11
346.4894254804
21
143.5379961700
31
0.0000000000
11
346.5393026259
21
143.7684163554
31
0.0000000000
0
SPLINE
5
32F
100
AcDbEntity
8
DEFAULT_2
100
AcDbSpline
62
8
6
HIDDEN
70
0
71
3
72
8
73
4
74
2
42
0.0000001000
43
0.0000001000
44
0.0000000001
40
0.0000000000
40
0.0000000000
40
0.0000000000
40
0.0000000000
40
1.0000000000
40
1.0000000000
40
1.0000000000
40
1.0000000000
10
346.5393026259
20
143.7684163554
30
0.0000000000
10
346.5415508376
20
143.7791963505
30
0.0000000000
10
346.5437876711
20
143.7899786957
30
0.0000000000
10
346.5460131437
20
143.8007633588
30
0.0000000000
11
346.5393026259
21
143.7684163554
31
0.0000000000
11
346.5460131437
21
143.8007633588
31
0.0000000000
0
SPLINE
5
330
100
AcDbEntity
8
DEFAULT_2
100
AcDbSpline
62
8
6
HIDDEN
70
0
71
3
72
8
73
4
74
2
42
0.0000001000
43
0.0000001000
44
0.0000000001
40
0.0000000000
40
0.0000000000
40
0.0000000000
40
0.0000000000
40
1.0000000000
40
1.0000000000
40
1.0000000000
40
1.0000000000
10
346.3859334402
20
142.3424308202
30
0.0000000000
10
346.3896158506
20
142.2991623611
30
0.0000000000
10
346.3932755103
20
142.2558919600
30
0.0000000000
10
346.3969125345
20
142.2126196533
30
0.0000000000
11
346.3859334402
21
142.3424308202
31
0.0000000000
11
346.3969125345
21
142.2126196533
31
0.0000000000
0
SPLINE
5
331
100
AcDbEntity
8
DEFAULT_2
100
AcDbSpline
62
8
6
HIDDEN
70
0
71
3
72
8
73
4
74
2
42
0.0000001000
43
0.0000001000
44
0.0000000001
40
0.0000000000
40
0.0000000000
40
0.0000000000
40
0.0000000000
40
1.0000000000
40
1.0000000000
40
1.0000000000
40
1.0000000000
10
346.3969125345
20
142.2126196533
30
0.0000000000
10
346.4005566632
20
142.1692628193
30
0.0000000000
10
346.4041780678
20
142.1259040723
30
0.0000000000
10
346.4077768640
20
142.0825434492
30
0.0000000000
11
346.3969125345
21
142.2126196533
31
0.0000000000
11
346.4077768640
21
142.0825434492
31
0.0000000000
0
SPLINE
5
332
100
AcDbEntity
8
DEFAULT_2
100
AcDbSpline
62
8
6
HIDDEN
70
0
71
3
72
8
73
4
74
2
42
0.0000001000
43
0.0000001000
44
0.0000000001
40
0.0000000000
40
0.0000000000
40
0.0000000000
40
0.0000000000
40
1.0000000000
40
1.0000000000
40
1.0000000000
40
1.0000000000
10
346.4077768640
20
142.0825434492
30
0.0000000000
10
346.4149955225
20
141.9955683853
30
0.0000000000
10
346.4221232173
20
141.9085857725
30
0.0000000000
10
346.4291608474
20
141.8215958974
30
0.0000000000
11
346.4077768640
21
142.0825434492
31
0.0000000000
11
346.4291608474
21
141.8215958974
31
0.0000000000
0
SPLINE
5
333
100
AcDbEntity
8
DEFAULT_2
100
AcDbSpline
62
8
6
HIDDEN
70
0
71
3
72
8
73
4
74
2
42
0.0000001000
43
0.0000001000
44
0.0000000001
40
0.0000000000
40
0.0000000000
40
0.0000000000
40
0.0000000000
40
1.0000000000
40
1.0000000000
40
1.0000000000
40
1.0000000000
10
346.4291608474
20
141.8215958974
30
0.0000000000
10
346.4395415560
20
141.7788252297
30
0.0000000000
10
346.4497361100
20
141.7360089718
30
0.0000000000
10
346.4597457091
20
141.6931492998
30
0.0000000000
11
346.4291608474
21
141.8215958974
31
0.0000000000
11
346.4597457091
21
141.6931492998
31
0.0000000000
0
SPLINE
5
334
100
AcDbEntity
8
DEFAULT_2
100
AcDbSpline
62
8
6
HIDDEN
70
0
71
3
72
8
73
4
74
2
42
0.0000001000
43
0.0000001000
44
0.0000000001
40
0.0000000000
40
0.0000000000
40
0.0000000000
40
0.0000000000
40
1.0000000000
40
1.0000000000
40
1.0000000000
40
1.0000000000
10
346.4597457091
20
141.6931492998
30
0.0000000000
10
346.4698261395
20
141.6499863387
30
0.0000000000
10
346.4797189881
20
141.6067793470
30
0.0000000000
10
346.4894254804
20
141.5635305476
30
0.0000000000
11
346.4597457091
21
141.6931492998
31
0.0000000000
11
346.4894254804
21
141.5635305476
31
0.0000000000
0
SPLINE
5
335
100
AcDbEntity
8
DEFAULT_2
100
AcDbSpline
62
8
6
HIDDEN
70
0
71
3
72
8
73
4
74
2
42
0.0000001000
43
0.0000001000
44
0.0000000001
40
0.0000000000
40
0.0000000000
40
0.0000000000
40
0.0000000000
40
1.0000000000
40
1.0000000000
40
1.0000000000
40
1.0000000000
10
346.4894254804
20
141.5635305476
30
0.0000000000
10
346.5090463867
20
141.4761065205
30
0.0000000000
10
346.5279058144
20
141.3885116609
30
0.0000000000
10
346.5460131437
20
141.3007633588
30
0.0000000000
11
346.4894254804
21
141.5635305476
31
0.0000000000
11
346.5460131437
21
141.3007633588
31
0.0000000000
0
SPLINE
5
336
100
AcDbEntity
8
DEFAULT_2
100
AcDbSpline
62
8
6
HIDDEN
70
0
71
3
72
8
73
4
74
2
42
0.0000001000
43
0.0000001000
44
0.0000000001
40
0.0000000000
40
0.0000000000
40
0.0000000000
40
0.0000000000
40
1.0000000000
40
1.0000000000
40
1.0000000000
40
1.0000000000
10
346.5460131437
20
141.3007633588
30
0.0000000000
10
346.5618204584
20
141.2662922227
30
0.0000000000
10
346.5771353195
20
141.2315919137
30
0.0000000000
10
346.5919425796
20
141.1966752842
30
0.0000000000
11
346.5460131437
21
141.3007633588
31
0.0000000000
11
346.5919425796
21
141.1966752842
31
0.0000000000
0
SPLINE
5
337
100
AcDbEntity
8
DEFAULT_2
100
AcDbSpline
62
8
6
HIDDEN
70
0
71
3
72
8
73
4
74
2
42
0.0000001000
43
0.0000001000
44
0.0000000001
40
0.0000000000
40
0.0000000000
40
0.0000000000
40
0.0000000000
40
1.0000000000
40
1.0000000000
40
1.0000000000
40
1.0000000000
10
346.5919425796
20
141.1966752842
30
0.0000000000
10
346.5991449137
20
141.1796916404
30
0.0000000000
10
346.6062271542
20
141.1626568173
30
0.0000000000
10
346.6131875580
20
141.1455722939
30
0.0000000000
11
346.5919425796
21
141.1966752842
31
0.0000000000
11
346.6131875580
21
141.1455722939
31
0.0000000000
0
SPLINE
5
338
100
AcDbEntity
8
DEFAULT_2
100
AcDbSpline
62
8
6
HIDDEN
70
0
71
3
72
8
73
4
74
2
42
0.0000001000
43
0.0000001000
44
0.0000000001
40
0.0000000000
40
0.0000000000
40
0.0000000000
40
0.0000000000
40
1.0000000000
40
1.0000000000
40
1.0000000000
40
1.0000000000
10
346.6131875580
20
141.1455722939
30
0.0000000000
10
346.6237867741
20
141.1195561946
30
0.0000000000
10
346.6341034653
20
141.0934248462
30
0.0000000000
10
346.6441318469
20
141.0671842414
30
0.0000000000
11
346.6131875580
21
141.1455722939
31
0.0000000000
11
346.6441318469
21
141.0671842414
31
0.0000000000
0
SPLINE
5
339
100
AcDbEntity
8
DEFAULT_2
100
AcDbSpline
62
8
6
HIDDEN
70
0
71
3
72
8
73
4
74
2
42
0.0000001000
43
0.0000001000
44
0.0000000001
40
0.0000000000
40
0.0000000000
40
0.0000000000
40
0.0000000000
40
1.0000000000
40
1.0000000000
40
1.0000000000
40
1.0000000000
10
346.6441318469
20
141.0671842414
30
0.0000000000
10
346.6541447222
20
141.0409842108
30
0.0000000000
10
346.6638701787
20
141.0146752615
30
0.0000000000
10
346.6733024585
20
140.9882633588
30
0.0000000000
11
346.6441318469
21
141.0671842414
31
0.0000000000
11
346.6733024585
21
140.9882633588
31
0.0000000000
0
SPLINE
5
33A
100
AcDbEntity
8
DEFAULT_2
100
AcDbSpline
62
8
6
HIDDEN
70
0
71
3
72
9
73
5
74
3
42
0.0000001000
43
0.0000001000
44
0.0000000001
40
0.0000000000
40
0.0000000000
40
0.0000000000
40
0.0000000000
40
0.6721191130
40
1.0000000000
40
1.0000000000
40
1.0000000000
40
1.0000000000
10
346.6733024585
20
140.9882633588
30
0.0000000000
10
346.6869338430
20
140.9712987528
30
0.0000000000
10
346.7065965001
20
140.9455534175
30
0.0000000000
10
346.7251957484
20
140.9190373182
30
0.0000000000
10
346.7311711657
20
140.9102602236
30
0.0000000000
11
346.6733024585
21
140.9882633588
31
0.0000000000
11
346.7128847496
21
140.9363427008
31
0.0000000000
11
346.7311711657
21
140.9102602236
31
0.0000000000
0
SPLINE
5
33B
100
AcDbEntity
8
DEFAULT_2
100
AcDbSpline
62
8
6
HIDDEN
70
0
71
3
72
8
73
4
74
2
42
0.0000001000
43
0.0000001000
44
0.0000000001
40
0.0000000000
40
0.0000000000
40
0.0000000000
40
0.0000000000
40
1.0000000000
40
1.0000000000
40
1.0000000000
40
1.0000000000
10
346.7311711657
20
140.9102602236
30
0.0000000000
10
346.7370539220
20
140.9016192358
30
0.0000000000
10
346.7428175404
20
140.8928978290
30
0.0000000000
10
346.7484538167
20
140.8840958974
30
0.0000000000
11
346.7311711657
21
140.9102602236
31
0.0000000000
11
346.7484538167
21
140.8840958974
31
0.0000000000
0
SPLINE
5
33C
100
AcDbEntity
8
DEFAULT_2
100
AcDbSpline
62
8
6
HIDDEN
70
0
71
3
72
9
73
5
74
3
42
0.0000001000
43
0.0000001000
44
0.0000000001
40
0.0000000000
40
0.0000000000
40
0.0000000000
40
0.0000000000
40
0.4999186097
40
1.0000000000
40
1.0000000000
40
1.0000000000
40
1.0000000000
10
346.3859334402
20
148.1757633588
30
0.0000000000
10
346.4360807346
20
148.2767743496
30
0.0000000000
10
346.5295965692
20
148.4822782034
30
0.0000000000
10
346.6086809552
20
148.6937688199
30
0.0000000000
10
346.6444360066
20
148.8007633588
30
0.0000000000
11
346.3859334402
21
148.1757633588
31
0.0000000000
11
346.5259746590
21
148.4837409548
31
0.0000000000
11
346.6444360066
21
148.8007633588
31
0.0000000000
0
SPLINE
5
33D
100
AcDbEntity
8
DEFAULT_2
100
AcDbSpline
62
8
6
HIDDEN
70
0
71
3
72
8
73
4
74
2
42
0.0000001000
43
0.0000001000
44
0.0000000001
40
0.0000000000
40
0.0000000000
40
0.0000000000
40
0.0000000000
40
1.0000000000
40
1.0000000000
40
1.0000000000
40
1.0000000000
10
346.8595453070
20
143.2799308202
30
0.0000000000
10
346.8627412998
20
143.3318663732
30
0.0000000000
10
346.8656463804
20
143.3838206370
30
0.0000000000
10
346.8682609158
20
143.4357899288
30
0.0000000000
11
346.8595453070
21
143.2799308202
31
0.0000000000
11
346.8682609158
21
143.4357899288
31
0.0000000000
0
SPLINE
5
33E
100
AcDbEntity
8
DEFAULT_2
100
AcDbSpline
62
8
6
HIDDEN
70
0
71
3
72
8
73
4
74
2
42
0.0000001000
43
0.0000001000
44
0.0000000001
40
0.0000000000
40
0.0000000000
40
0.0000000000
40
0.0000000000
40
1.0000000000
40
1.0000000000
40
1.0000000000
40
1.0000000000
10
346.8682609158
20
143.4357899288
30
0.0000000000
10
346.8708783025
20
143.4878158963
30
0.0000000000
10
346.8732045099
20
143.5398569246
30
0.0000000000
10
346.8752399060
20
143.5919093185
30
0.0000000000
11
346.8682609158
21
143.4357899288
31
0.0000000000
11
346.8752399060
21
143.5919093185
31
0.0000000000
0
SPLINE
5
33F
100
AcDbEntity
8
DEFAULT_2
100
AcDbSpline
62
8
6
HIDDEN
70
0
71
3
72
8
73
4
74
2
42
0.0000001000
43
0.0000001000
44
0.0000000001
40
0.0000000000
40
0.0000000000
40
0.0000000000
40
0.0000000000
40
1.0000000000
40
1.0000000000
40
1.0000000000
40
1.0000000000
10
346.8752399060
20
143.5919093185
30
0.0000000000
10
346.8760873603
20
143.6135817711
30
0.0000000000
10
346.8768844012
20
143.6352561940
30
0.0000000000
10
346.8776310449
20
143.6569323232
30
0.0000000000
11
346.8752399060
21
143.5919093185
31
0.0000000000
11
346.8776310449
21
143.6569323232
31
0.0000000000
0
SPLINE
5
340
100
AcDbEntity
8
DEFAULT_2
100
AcDbSpline
62
8
6
HIDDEN
70
0
71
3
72
9
73
5
74
3
42
0.0000001000
43
0.0000001000
44
0.0000000001
40
0.0000000000
40
0.0000000000
40
0.0000000000
40
0.0000000000
40
0.6664730536
40
1.0000000000
40
1.0000000000
40
1.0000000000
40
1.0000000000
10
346.8490474402
20
142.7590958974
30
0.0000000000
10
346.8509432588
20
142.8458482284
30
0.0000000000
10
346.8536772779
20
142.9760169667
30
0.0000000000
10
346.8562458421
20
143.1061890397
30
0.0000000000
10
346.8570841425
20
143.1496052867
30
0.0000000000
11
346.8490474402
21
142.7590958974
31
0.0000000000
11
346.8545140661
21
143.0193576226
31
0.0000000000
11
346.8570841425
21
143.1496052867
31
0.0000000000
0
SPLINE
5
341
100
AcDbEntity
8
DEFAULT_2
100
AcDbSpline
62
8
6
HIDDEN
70
0
71
3
72
8
73
4
74
2
42
0.0000001000
43
0.0000001000
44
0.0000000001
40
0.0000000000
40
0.0000000000
40
0.0000000000
40
0.0000000000
40
1.0000000000
40
1.0000000000
40
1.0000000000
40
1.0000000000
10
346.8570841425
20
143.1496052867
30
0.0000000000
10
346.8577585973
20
143.1845358440
30
0.0000000000
10
346.8584211515
20
143.2194666298
30
0.0000000000
10
346.8590718155
20
143.2543976348
30
0.0000000000
11
346.8570841425
21
143.1496052867
31
0.0000000000
11
346.8590718155
21
143.2543976348
31
0.0000000000
0
SPLINE
5
342
100
AcDbEntity
8
DEFAULT_2
100
AcDbSpline
62
8
6
HIDDEN
70
0
71
3
72
8
73
4
74
2
42
0.0000001000
43
0.0000001000
44
0.0000000001
40
0.0000000000
40
0.0000000000
40
0.0000000000
40
0.0000000000
40
1.0000000000
40
1.0000000000
40
1.0000000000
40
1.0000000000
10
346.8590718155
20
143.2543976348
30
0.0000000000
10
346.8592303518
20
143.2629086836
30
0.0000000000
10
346.8593881823
20
143.2714197455
30
0.0000000000
10
346.8595453070
20
143.2799308202
30
0.0000000000
11
346.8590718155
21
143.2543976348
31
0.0000000000
11
346.8595453070
21
143.2799308202
31
0.0000000000
0
SPLINE
5
343
100
AcDbEntity
8
DEFAULT_2
100
AcDbSpline
62
8
6
HIDDEN
70
0
71
3
72
9
73
5
74
3
42
0.0000001000
43
0.0000001000
44
0.0000000001
40
0.0000000000
40
0.0000000000
40
0.0000000000
40
0.0000000000
40
0.6664730537
40
1.0000000000
40
1.0000000000
40
1.0000000000
40
1.0000000000
10
346.8490474402
20
142.2382633588
30
0.0000000000
10
346.8509432588
20
142.1515114249
30
0.0000000000
10
346.8536772779
20
142.0213432825
30
0.0000000000
10
346.8562458421
20
141.8911718053
30
0.0000000000
10
346.8570841425
20
141.8477557570
30
0.0000000000
11
346.8490474402
21
142.2382633588
31
0.0000000000
11
346.8545140661
21
141.9780028249
31
0.0000000000
11
346.8570841425
21
141.8477557570
31
0.0000000000
0
SPLINE
5
344
100
AcDbEntity
8
DEFAULT_2
100
AcDbSpline
62
8
6
HIDDEN
70
0
71
3
72
8
73
4
74
2
42
0.0000001000
43
0.0000001000
44
0.0000000001
40
0.0000000000
40
0.0000000000
40
0.0000000000
40
0.0000000000
40
1.0000000000
40
1.0000000000
40
1.0000000000
40
1.0000000000
10
346.8570841425
20
141.8477557570
30
0.0000000000
10
346.8577586119
20
141.8128246034
30
0.0000000000
10
346.8584211802
20
141.7778932212
30
0.0000000000
10
346.8590718578
20
141.7429616198
30
0.0000000000
11
346.8570841425
21
141.8477557570
31
0.0000000000
11
346.8590718578
21
141.7429616198
31
0.0000000000
0
SPLINE
5
345
100
AcDbEntity
8
DEFAULT_2
100
AcDbSpline
62
8
6
HIDDEN
70
0
71
3
72
8
73
4
74
2
42
0.0000001000
43
0.0000001000
44
0.0000000001
40
0.0000000000
40
0.0000000000
40
0.0000000000
40
0.0000000000
40
1.0000000000
40
1.0000000000
40
1.0000000000
40
1.0000000000
10
346.8590718578
20
141.7429616198
30
0.0000000000
10
346.8592303799
20
141.7344513662
30
0.0000000000
10
346.8593881963
20
141.7259410996
30
0.0000000000
10
346.8595453070
20
141.7174308202
30
0.0000000000
11
346.8590718578
21
141.7429616198
31
0.0000000000
11
346.8595453070
21
141.7174308202
31
0.0000000000
0
SPLINE
5
346
100
AcDbEntity
8
DEFAULT_2
100
AcDbSpline
62
8
6
HIDDEN
70
0
71
3
72
8
73
4
74
2
42
0.0000001000
43
0.0000001000
44
0.0000000001
40
0.0000000000
40
0.0000000000
40
0.0000000000
40
0.0000000000
40
1.0000000000
40
1.0000000000
40
1.0000000000
40
1.0000000000
10
346.8767221371
20
141.3270944621
30
0.0000000000
10
346.8753034986
20
141.3705352302
30
0.0000000000
10
346.8737208117
20
141.4139707955
30
0.0000000000
10
346.8719739172
20
141.4573997579
30
0.0000000000
11
346.8767221371
21
141.3270944621
31
0.0000000000
11
346.8719739172
21
141.4573997579
31
0.0000000000
0
SPLINE
5
347
100
AcDbEntity
8
DEFAULT_2
100
AcDbSpline
62
8
6
HIDDEN
70
0
71
3
72
8
73
4
74
2
42
0.0000001000
43
0.0000001000
44
0.0000000001
40
0.0000000000
40
0.0000000000
40
0.0000000000
40
0.0000000000
40
1.0000000000
40
1.0000000000
40
1.0000000000
40
1.0000000000
10
346.8719739172
20
141.4573997579
30
0.0000000000
10
346.8702290825
20
141.5007775107
30
0.0000000000
10
346.8683204270
20
141.5441486763
30
0.0000000000
10
346.8662477270
20
141.5875118442
30
0.0000000000
11
346.8719739172
21
141.4573997579
31
0.0000000000
11
346.8662477270
21
141.5875118442
31
0.0000000000
0
SPLINE
5
348
100
AcDbEntity
8
DEFAULT_2
100
AcDbSpline
62
8
6
HIDDEN
70
0
71
3
72
8
73
4
74
2
42
0.0000001000
43
0.0000001000
44
0.0000000001
40
0.0000000000
40
0.0000000000
40
0.0000000000
40
0.0000000000
40
1.0000000000
40
1.0000000000
40
1.0000000000
40
1.0000000000
10
346.8662477270
20
141.5875118442
30
0.0000000000
10
346.8641773400
20
141.6308266179
30
0.0000000000
10
346.8619432745
20
141.6741334118
30
0.0000000000
10
346.8595453070
20
141.7174308202
30
0.0000000000
11
346.8662477270
21
141.5875118442
31
0.0000000000
11
346.8595453070
21
141.7174308202
31
0.0000000000
0
SPLINE
5
349
100
AcDbEntity
8
0
100
AcDbSpline
62
7
6
CONTINUOUS
70
0
71
3
72
10
73
6
74
4
42
0.0000001000
43
0.0000001000
44
0.0000000001
40
0.0000000000
40
0.0000000000
40
0.0000000000
40
0.0000000000
40
0.3628857364
40
0.6938906331
40
1.0000000000
40
1.0000000000
40
1.0000000000
40
1.0000000000
10
332.4770776443
20
230.0507633588
30
0.0000000000
10
332.9817436861
20
229.7068236575
30
0.0000000000
10
333.9816605596
20
229.0981730417
30
0.0000000000
10
335.5099680985
20
228.3859660992
30
0.0000000000
10
336.5289186371
20
228.0436625297
30
0.0000000000
10
337.0259334402
20
227.9081016055
30
0.0000000000
11
332.4770776443
21
230.0507633588
31
0.0000000000
11
334.0441653524
21
229.1015125480
31
0.0000000000
11
335.5602283616
21
228.3983188332
31
0.0000000000
11
337.0259334402
21
227.9081016055
31
0.0000000000
0
SPLINE
5
34A
100
AcDbEntity
8
0
100
AcDbSpline
62
7
6
CONTINUOUS
70
0
71
3
72
10
73
6
74
4
42
0.0000001000
43
0.0000001000
44
0.0000000001
40
0.0000000000
40
0.0000000000
40
0.0000000000
40
0.0000000000
40
0.3060941150
40
0.6370937308
40
1.0000000000
40
1.0000000000
40
1.0000000000
40
1.0000000000
10
343.7459334402
20
227.9081016055
30
0.0000000000
10
344.2429234783
20
228.0436557751
30
0.0000000000
10
345.2618419160
20
228.3859452841
30
0.0000000000
10
346.7901536967
20
229.0981429203
30
0.0000000000
10
347.7900946404
20
229.7068041976
30
0.0000000000
10
348.2947892361
20
230.0507633588
30
0.0000000000
11
343.7459334402
21
227.9081016055
31
0.0000000000
11
345.2115668348
21
228.3982903752
31
0.0000000000
11
346.7276098662
21
229.1014637866
31
0.0000000000
11
348.2947892361
21
230.0507633588
31
0.0000000000
0
SPLINE
5
34B
100
AcDbEntity
8
0
100
AcDbSpline
62
7
6
CONTINUOUS
70
0
71
3
72
8
73
4
74
2
42
0.0000001000
43
0.0000001000
44
0.0000000001
40
0.0000000000
40
0.0000000000
40
0.0000000000
40
0.0000000000
40
1.0000000000
40
1.0000000000
40
1.0000000000
40
1.0000000000
10
346.3859334402
20
161.3007633588
30
0.0000000000
10
346.5040357576
20
161.2062815105
30
0.0000000000
10
346.6143159115
20
161.1002729285
30
0.0000000000
10
346.7036979229
20
160.9768798505
30
0.0000000000
11
346.3859334402
21
161.3007633588
31
0.0000000000
11
346.7036979229
21
160.9768798505
31
0.0000000000
0
SPLINE
5
34C
100
AcDbEntity
8
0
100
AcDbSpline
62
7
6
CONTINUOUS
70
0
71
3
72
9
73
5
74
3
42
0.0000001000
43
0.0000001000
44
0.0000000001
40
0.0000000000
40
0.0000000000
40
0.0000000000
40
0.0000000000
40
0.6861582028
40
1.0000000000
40
1.0000000000
40
1.0000000000
40
1.0000000000
10
346.7036979229
20
160.9768798505
30
0.0000000000
10
346.7775270062
20
160.8749578005
30
0.0000000000
10
346.8643451177
20
160.7091317173
30
0.0000000000
10
346.8850836511
20
160.5251661572
30
0.0000000000
10
346.8850836511
20
160.4674300751
30
0.0000000000
11
346.7036979229
21
160.9768798505
31
0.0000000000
11
346.8655577953
21
160.6388516430
31
0.0000000000
11
346.8850836511
21
160.4674300751
31
0.0000000000
0
SPLINE
5
34D
100
AcDbEntity
8
0
100
AcDbSpline
62
7
6
CONTINUOUS
70
0
71
3
72
9
73
5
74
3
42
0.0000001000
43
0.0000001000
44
0.0000000001
40
0.0000000000
40
0.0000000000
40
0.0000000000
40
0.0000000000
40
0.6492349840
40
1.0000000000
40
1.0000000000
40
1.0000000000
40
1.0000000000
10
346.8166979191
20
160.7788642689
30
0.0000000000
10
346.8452946448
20
160.8436026220
30
0.0000000000
10
346.8777658784
20
160.9478556942
30
0.0000000000
10
346.8853508184
20
161.0565965929
30
0.0000000000
10
346.8851175977
20
161.0948147686
30
0.0000000000
11
346.8166979191
21
160.7788642689
31
0.0000000000
11
346.8769678428
21
160.9808637514
31
0.0000000000
11
346.8851175977
21
161.0948147686
31
0.0000000000
0
SPLINE
5
34E
100
AcDbEntity
8
0
100
AcDbSpline
62
7
6
CONTINUOUS
70
0
71
3
72
8
73
4
74
2
42
0.0000001000
43
0.0000001000
44
0.0000000001
40
0.0000000000
40
0.0000000000
40
0.0000000000
40
0.0000000000
40
1.0000000000
40
1.0000000000
40
1.0000000000
40
1.0000000000
10
346.8205911409
20
157.6605116792
30
0.0000000000
10
346.8394521704
20
157.7043240440
30
0.0000000000
10
346.8547488158
20
157.7495502318
30
0.0000000000
10
346.8655577951
20
157.7960083267
30
0.0000000000
11
346.8205911409
21
157.6605116792
31
0.0000000000
11
346.8655577951
21
157.7960083267
31
0.0000000000
0
SPLINE
5
34F
100
AcDbEntity
8
0
100
AcDbSpline
62
7
6
CONTINUOUS
70
0
71
3
72
8
73
4
74
2
42
0.0000001000
43
0.0000001000
44
0.0000000001
40
0.0000000000
40
0.0000000000
40
0.0000000000
40
0.0000000000
40
1.0000000000
40
1.0000000000
40
1.0000000000
40
1.0000000000
10
346.8655577951
20
157.7960083267
30
0.0000000000
10
346.8785750328
20
157.8519577413
30
0.0000000000
10
346.8850836516
20
157.9096938337
30
0.0000000000
10
346.8850836516
20
157.9674299261
30
0.0000000000
11
346.8655577951
21
157.7960083267
31
0.0000000000
11
346.8850836516
21
157.9674299261
31
0.0000000000
0
SPLINE
5
350
100
AcDbEntity
8
0
100
AcDbSpline
62
7
6
CONTINUOUS
70
0
71
3
72
8
73
4
74
2
42
0.0000001000
43
0.0000001000
44
0.0000000001
40
0.0000000000
40
0.0000000000
40
0.0000000000
40
0.0000000000
40
1.0000000000
40
1.0000000000
40
1.0000000000
40
1.0000000000
10
346.8367783184
20
157.6549302241
30
0.0000000000
10
346.8680129651
20
157.5725059546
30
0.0000000000
10
346.8854471649
20
157.4832097326
30
0.0000000000
10
346.8857601621
20
157.3943101434
30
0.0000000000
11
346.8367783184
21
157.6549302241
31
0.0000000000
11
346.8857601621
21
157.3943101434
31
0.0000000000
0
SPLINE
5
351
100
AcDbEntity
8
0
100
AcDbSpline
62
7
6
CONTINUOUS
70
0
71
3
72
9
73
5
74
3
42
0.0000001000
43
0.0000001000
44
0.0000000001
40
0.0000000000
40
0.0000000000
40
0.0000000000
40
0.0000000000
40
0.3333474393
40
1.0000000000
40
1.0000000000
40
1.0000000000
40
1.0000000000
10
346.8859334324
20
141.7434689050
30
0.0000000000
10
346.8859334238
20
141.7174251449
30
0.0000000000
10
346.8857157402
20
141.6392970191
30
0.0000000000
10
346.8848452142
20
141.5611725297
30
0.0000000000
10
346.8839744995
20
141.5090958974
30
0.0000000000
11
346.8859334324
21
141.7434689050
31
0.0000000000
11
346.8857157511
21
141.6653379276
31
0.0000000000
11
346.8839744995
21
141.5090958974
31
0.0000000000
0
SPLINE
5
352
100
AcDbEntity
8
0
100
AcDbSpline
62
7
6
CONTINUOUS
70
0
71
3
72
9
73
5
74
3
42
0.0000001000
43
0.0000001000
44
0.0000000001
40
0.0000000000
40
0.0000000000
40
0.0000000000
40
0.0000000000
40
0.5000177413
40
1.0000000000
40
1.0000000000
40
1.0000000000
40
1.0000000000
10
346.8859334324
20
143.2538903511
30
0.0000000000
10
346.8859334238
20
143.2799341112
30
0.0000000000
10
346.8857883004
20
143.3320198845
30
0.0000000000
10
346.8853530209
20
143.3841040415
30
0.0000000000
10
346.8850628254
20
143.4101443366
30
0.0000000000
11
346.8859334324
21
143.2538903511
31
0.0000000000
11
346.8857157511
21
143.3320213285
31
0.0000000000
11
346.8850628254
21
143.4101443366
31
0.0000000000
0
SPLINE
5
353
100
AcDbEntity
8
0
100
AcDbSpline
62
7
6
CONTINUOUS
70
0
71
3
72
8
73
4
74
2
42
0.0000001000
43
0.0000001000
44
0.0000000001
40
0.0000000000
40
0.0000000000
40
0.0000000000
40
0.0000000000
40
1.0000000000
40
1.0000000000
40
1.0000000000
40
1.0000000000
10
346.8850628254
20
143.4101443366
30
0.0000000000
10
346.8847726256
20
143.4361850218
30
0.0000000000
10
346.8844098601
20
143.4622248476
30
0.0000000000
10
346.8839744995
20
143.4882633588
30
0.0000000000
11
346.8850628254
21
143.4101443366
31
0.0000000000
11
346.8839744995
21
143.4882633588
31
0.0000000000
0
SPLINE
5
354
100
AcDbEntity
8
0
100
AcDbSpline
62
7
6
CONTINUOUS
70
0
71
3
72
8
73
4
74
2
42
0.0000001000
43
0.0000001000
44
0.0000000001
40
0.0000000000
40
0.0000000000
40
0.0000000000
40
0.0000000000
40
1.0000000000
40
1.0000000000
40
1.0000000000
40
1.0000000000
10
346.8857601621
20
156.0405503048
30
0.0000000000
10
346.8854471649
20
155.9516507157
30
0.0000000000
10
346.8680129651
20
155.8623544937
30
0.0000000000
10
346.8367783184
20
155.7799302241
30
0.0000000000
11
346.8857601621
21
156.0405503048
31
0.0000000000
11
346.8367783184
21
155.7799302241
31
0.0000000000
0
SPLINE
5
355
100
AcDbEntity
8
0
100
AcDbSpline
62
7
6
CONTINUOUS
70
0
71
3
72
8
73
4
74
2
42
0.0000001000
43
0.0000001000
44
0.0000000001
40
0.0000000000
40
0.0000000000
40
0.0000000000
40
0.0000000000
40
1.0000000000
40
1.0000000000
40
1.0000000000
40
1.0000000000
10
346.8859333634
20
140.9361764914
30
0.0000000000
10
346.8859333460
20
140.9448561763
30
0.0000000000
10
346.8859151958
20
140.9535358991
30
0.0000000000
10
346.8858789178
20
140.9622155747
30
0.0000000000
11
346.8859333634
21
140.9361764914
31
0.0000000000
11
346.8858789178
21
140.9622155747
31
0.0000000000
0
SPLINE
5
356
100
AcDbEntity
8
0
100
AcDbSpline
62
7
6
CONTINUOUS
70
0
71
3
72
9
73
5
74
3
42
0.0000001000
43
0.0000001000
44
0.0000000001
40
0.0000000000
40
0.0000000000
40
0.0000000000
40
0.0000000000
40
0.3332287152
40
1.0000000000
40
1.0000000000
40
1.0000000000
40
1.0000000000
10
346.8858789178
20
140.9622155747
30
0.0000000000
10
346.8857700703
20
140.9882578414
30
0.0000000000
10
346.8849536996
20
141.0664078947
30
0.0000000000
10
346.8826688874
20
141.1445334248
30
0.0000000000
10
346.8804915245
20
141.1965958974
30
0.0000000000
11
346.8858789178
21
140.9622155747
31
0.0000000000
11
346.8850629362
21
141.0403388020
31
0.0000000000
11
346.8804915245
21
141.1965958974
31
0.0000000000
0
SPLINE
5
357
100
AcDbEntity
8
0
100
AcDbSpline
62
7
6
CONTINUOUS
70
0
71
3
72
8
73
4
74
2
42
0.0000001000
43
0.0000001000
44
0.0000000001
40
0.0000000000
40
0.0000000000
40
0.0000000000
40
0.0000000000
40
1.0000000000
40
1.0000000000
40
1.0000000000
40
1.0000000000
10
346.8850836516
20
155.4674299261
30
0.0000000000
10
346.8850836516
20
155.5251660185
30
0.0000000000
10
346.8785750328
20
155.5829021109
30
0.0000000000
10
346.8655577951
20
155.6388515255
30
0.0000000000
11
346.8850836516
21
155.4674299261
31
0.0000000000
11
346.8655577951
21
155.6388515255
31
0.0000000000
0
SPLINE
5
358
100
AcDbEntity
8
0
100
AcDbSpline
62
7
6
CONTINUOUS
70
0
71
3
72
8
73
4
74
2
42
0.0000001000
43
0.0000001000
44
0.0000000001
40
0.0000000000
40
0.0000000000
40
0.0000000000
40
0.0000000000
40
1.0000000000
40
1.0000000000
40
1.0000000000
40
1.0000000000
10
346.8655577951
20
155.6388515255
30
0.0000000000
10
346.8541908806
20
155.6877076828
30
0.0000000000
10
346.8378610565
20
155.7352014743
30
0.0000000000
10
346.8176420853
20
155.7811213346
30
0.0000000000
11
346.8655577951
21
155.6388515255
31
0.0000000000
11
346.8176420853
21
155.7811213346
31
0.0000000000
0
SPLINE
5
359
100
AcDbEntity
8
0
100
AcDbSpline
62
7
6
CONTINUOUS
70
0
71
3
72
9
73
5
74
3
42
0.0000001000
43
0.0000001000
44
0.0000000001
40
0.0000000000
40
0.0000000000
40
0.0000000000
40
0.0000000000
40
0.3507650655
40
1.0000000000
40
1.0000000000
40
1.0000000000
40
1.0000000000
10
346.8851175977
20
162.3400453816
30
0.0000000000
10
346.8853508184
20
162.3782635573
30
0.0000000000
10
346.8777658794
20
162.4870044406
30
0.0000000000
10
346.8452946540
20
162.5912574988
30
0.0000000000
10
346.8166979377
20
162.6559958391
30
0.0000000000
11
346.8851175977
21
162.3400453816
31
0.0000000000
11
346.8769678428
21
162.4539963988
31
0.0000000000
11
346.8166979377
21
162.6559958391
31
0.0000000000
0
SPLINE
5
35A
100
AcDbEntity
8
0
100
AcDbSpline
62
7
6
CONTINUOUS
70
0
71
3
72
9
73
5
74
3
42
0.0000001000
43
0.0000001000
44
0.0000000001
40
0.0000000000
40
0.0000000000
40
0.0000000000
40
0.0000000000
40
0.3138418008
40
1.0000000000
40
1.0000000000
40
1.0000000000
40
1.0000000000
10
346.8850836514
20
162.9674300006
30
0.0000000000
10
346.8850836514
20
162.9096939135
30
0.0000000000
10
346.8643451179
20
162.7257283393
30
0.0000000000
10
346.7775270071
20
162.5599022400
30
0.0000000000
10
346.7036979228
20
162.4579801796
30
0.0000000000
11
346.8850836514
21
162.9674300006
31
0.0000000000
11
346.8655577953
21
162.7960084173
31
0.0000000000
11
346.7036979228
21
162.4579801796
31
0.0000000000
0
SPLINE
5
35B
100
AcDbEntity
8
0
100
AcDbSpline
62
7
6
CONTINUOUS
70
0
71
3
72
8
73
4
74
2
42
0.0000001000
43
0.0000001000
44
0.0000000001
40
0.0000000000
40
0.0000000000
40
0.0000000000
40
0.0000000000
40
1.0000000000
40
1.0000000000
40
1.0000000000
40
1.0000000000
10
346.7036979228
20
162.4579801796
30
0.0000000000
10
346.6143159127
20
162.3345870923
30
0.0000000000
10
346.5040357589
20
162.2285785002
30
0.0000000000
10
346.3859334402
20
162.1340966424
30
0.0000000000
11
346.7036979228
21
162.4579801796
31
0.0000000000
11
346.3859334402
21
162.1340966424
31
0.0000000000
0
SPLINE
5
35C
100
AcDbEntity
8
0
100
AcDbSpline
62
7
6
CONTINUOUS
70
0
71
3
72
9
73
5
74
3
42
0.0000001000
43
0.0000001000
44
0.0000000001
40
0.0000000000
40
0.0000000000
40
0.0000000000
40
0.0000000000
40
0.5000823173
40
1.0000000000
40
1.0000000000
40
1.0000000000
40
1.0000000000
10
346.8839743754
20
141.5090958974
30
0.0000000000
10
346.8831028873
20
141.4743474359
30
0.0000000000
10
346.8807788228
20
141.4048753163
30
0.0000000000
10
346.8772929509
20
141.3354517987
30
0.0000000000
10
346.8752602651
20
141.3007633588
30
0.0000000000
11
346.8839743754
21
141.5090958974
31
0.0000000000
11
346.8804878927
21
141.4048760333
31
0.0000000000
11
346.8752602651
21
141.3007633588
31
0.0000000000
0
SPLINE
5
35D
100
AcDbEntity
8
0
100
AcDbSpline
62
7
6
CONTINUOUS
70
0
71
3
72
9
73
5
74
3
42
0.0000001000
43
0.0000001000
44
0.0000000001
40
0.0000000000
40
0.0000000000
40
0.0000000000
40
0.0000000000
40
0.5000823173
40
1.0000000000
40
1.0000000000
40
1.0000000000
40
1.0000000000
10
346.8839743754
20
143.4882633588
30
0.0000000000
10
346.8831028873
20
143.5230118203
30
0.0000000000
10
346.8807788228
20
143.5924839398
30
0.0000000000
10
346.8772929509
20
143.6619074575
30
0.0000000000
10
346.8752602651
20
143.6965958974
30
0.0000000000
11
346.8839743754
21
143.4882633588
31
0.0000000000
11
346.8804878927
21
143.5924832229
31
0.0000000000
11
346.8752602651
21
143.6965958974
31
0.0000000000
0
SPLINE
5
35E
100
AcDbEntity
8
0
100
AcDbSpline
62
7
6
CONTINUOUS
70
0
71
3
72
9
73
5
74
3
42
0.0000001000
43
0.0000001000
44
0.0000000001
40
0.0000000000
40
0.0000000000
40
0.0000000000
40
0.0000000000
40
0.4960458962
40
1.0000000000
40
1.0000000000
40
1.0000000000
40
1.0000000000
10
346.8752602651
20
143.6965958974
30
0.0000000000
10
346.8721832086
20
143.7140997444
30
0.0000000000
10
346.8646716185
20
143.7491678697
30
0.0000000000
10
346.8546715436
20
143.7836060436
30
0.0000000000
10
346.8490474242
20
143.8007633588
30
0.0000000000
11
346.8752602651
21
143.6965958974
31
0.0000000000
11
346.8641187013
21
143.7487355369
31
0.0000000000
11
346.8490474242
21
143.8007633588
31
0.0000000000
0
SPLINE
5
35F
100
AcDbEntity
8
0
100
AcDbSpline
62
7
6
CONTINUOUS
70
0
71
3
72
9
73
5
74
3
42
0.0000001000
43
0.0000001000
44
0.0000000001
40
0.0000000000
40
0.0000000000
40
0.0000000000
40
0.0000000000
40
0.4960458962
40
1.0000000000
40
1.0000000000
40
1.0000000000
40
1.0000000000
10
346.8752602651
20
141.3007633588
30
0.0000000000
10
346.8721832086
20
141.2832595117
30
0.0000000000
10
346.8646716185
20
141.2481913865
30
0.0000000000
10
346.8546715436
20
141.2137532126
30
0.0000000000
10
346.8490474242
20
141.1965958974
30
0.0000000000
11
346.8752602651
21
141.3007633588
31
0.0000000000
11
346.8641187013
21
141.2486237193
31
0.0000000000
11
346.8490474242
21
141.1965958974
31
0.0000000000
0
SPLINE
5
360
100
AcDbEntity
8
0
100
AcDbSpline
62
7
6
CONTINUOUS
70
0
71
3
72
9
73
5
74
3
42
0.0000001000
43
0.0000001000
44
0.0000000001
40
0.0000000000
40
0.0000000000
40
0.0000000000
40
0.0000000000
40
0.4905931599
40
1.0000000000
40
1.0000000000
40
1.0000000000
40
1.0000000000
10
346.7892344196
20
140.6757633588
30
0.0000000000
10
346.7733569626
20
140.7114116202
30
0.0000000000
10
346.7375743877
20
140.7825888735
30
0.0000000000
10
346.6958478567
20
140.8504263265
30
0.0000000000
10
346.6733024780
20
140.8840958974
30
0.0000000000
11
346.7892344196
21
140.6757633588
31
0.0000000000
11
346.7368169885
21
140.7804459388
31
0.0000000000
11
346.6733024780
21
140.8840958974
31
0.0000000000
0
SPLINE
5
361
100
AcDbEntity
8
0
100
AcDbSpline
62
7
6
CONTINUOUS
70
0
71
3
72
9
73
5
74
3
42
0.0000001000
43
0.0000001000
44
0.0000000001
40
0.0000000000
40
0.0000000000
40
0.0000000000
40
0.0000000000
40
0.4989608065
40
1.0000000000
40
1.0000000000
40
1.0000000000
40
1.0000000000
10
346.6733024780
20
140.8840958974
30
0.0000000000
10
346.6544233086
20
140.9369606107
30
0.0000000000
10
346.6142323891
20
141.0420836195
30
0.0000000000
10
346.5695092362
20
141.1453578134
30
0.0000000000
10
346.5460131562
20
141.1965958974
30
0.0000000000
11
346.6733024780
21
140.8840958974
31
0.0000000000
11
346.6131875680
21
141.0414048488
31
0.0000000000
11
346.5460131562
21
141.1965958974
31
0.0000000000
0
SPLINE
5
362
100
AcDbEntity
8
0
100
AcDbSpline
62
7
6
CONTINUOUS
70
0
71
3
72
9
73
5
74
3
42
0.0000001000
43
0.0000001000
44
0.0000000001
40
0.0000000000
40
0.0000000000
40
0.0000000000
40
0.0000000000
40
0.5035432448
40
1.0000000000
40
1.0000000000
40
1.0000000000
40
1.0000000000
10
346.5460131562
20
141.1965958974
30
0.0000000000
10
346.5279058243
20
141.2843446083
30
0.0000000000
10
346.4904523759
20
141.4583023960
30
0.0000000000
10
346.4499957256
20
141.6315864394
30
0.0000000000
10
346.4291608511
20
141.7174308202
30
0.0000000000
11
346.5460131562
21
141.1965958974
31
0.0000000000
11
346.4894254832
21
141.4593643143
31
0.0000000000
11
346.4291608511
21
141.7174308202
31
0.0000000000
0
SPLINE
5
363
100
AcDbEntity
8
0
100
AcDbSpline
62
7
6
CONTINUOUS
70
0
71
3
72
9
73
5
74
3
42
0.0000001000
43
0.0000001000
44
0.0000000001
40
0.0000000000
40
0.0000000000
40
0.0000000000
40
0.0000000000
40
0.5009744507
40
1.0000000000
40
1.0000000000
40
1.0000000000
40
1.0000000000
10
346.4291608511
20
141.7174308202
30
0.0000000000
10
346.4221232204
20
141.8044202973
30
0.0000000000
10
346.4078955578
20
141.9780463467
30
0.0000000000
10
346.3933054547
20
142.1516423176
30
0.0000000000
10
346.3859334402
20
142.2382633588
30
0.0000000000
11
346.4291608511
21
141.7174308202
31
0.0000000000
11
346.4077768659
21
141.9783771778
31
0.0000000000
11
346.3859334402
21
142.2382633588
31
0.0000000000
0
SPLINE
5
364
100
AcDbEntity
8
0
100
AcDbSpline
62
7
6
CONTINUOUS
70
0
71
3
72
9
73
5
74
3
42
0.0000001000
43
0.0000001000
44
0.0000000001
40
0.0000000000
40
0.0000000000
40
0.0000000000
40
0.0000000000
40
0.5009744508
40
1.0000000000
40
1.0000000000
40
1.0000000000
40
1.0000000000
10
346.4291608511
20
143.2799308202
30
0.0000000000
10
346.4221232204
20
143.1929409450
30
0.0000000000
10
346.4078955579
20
143.0193141009
30
0.0000000000
10
346.3933054547
20
142.8457173352
30
0.0000000000
10
346.3859334402
20
142.7590958974
30
0.0000000000
11
346.4291608511
21
143.2799308202
31
0.0000000000
11
346.4077768659
21
143.0189832682
31
0.0000000000
11
346.3859334402
21
142.7590958974
31
0.0000000000
0
SPLINE
5
365
100
AcDbEntity
8
0
100
AcDbSpline
62
7
6
CONTINUOUS
70
0
71
3
72
9
73
5
74
3
42
0.0000001000
43
0.0000001000
44
0.0000000001
40
0.0000000000
40
0.0000000000
40
0.0000000000
40
0.0000000000
40
0.5035432288
40
1.0000000000
40
1.0000000000
40
1.0000000000
40
1.0000000000
10
346.5460131562
20
143.8007633588
30
0.0000000000
10
346.5279058242
20
143.7130150494
30
0.0000000000
10
346.4904523752
20
143.5390580550
30
0.0000000000
10
346.4499957256
20
143.3657748077
30
0.0000000000
10
346.4291608511
20
143.2799308202
30
0.0000000000
11
346.5460131562
21
143.8007633588
31
0.0000000000
11
346.4894254841
21
143.5379961486
31
0.0000000000
11
346.4291608511
21
143.2799308202
31
0.0000000000
0
SPLINE
5
366
100
AcDbEntity
8
0
100
AcDbSpline
62
7
6
CONTINUOUS
70
0
71
3
72
9
73
5
74
3
42
0.0000001000
43
0.0000001000
44
0.0000000001
40
0.0000000000
40
0.0000000000
40
0.0000000000
40
0.0000000000
40
0.4989608065
40
1.0000000000
40
1.0000000000
40
1.0000000000
40
1.0000000000
10
346.6733024780
20
144.1132633588
30
0.0000000000
10
346.6544233086
20
144.0603986454
30
0.0000000000
10
346.6142323891
20
143.9552756367
30
0.0000000000
10
346.5695092362
20
143.8520014427
30
0.0000000000
10
346.5460131562
20
143.8007633588
30
0.0000000000
11
346.6733024780
21
144.1132633588
31
0.0000000000
11
346.6131875680
21
143.9559544074
31
0.0000000000
11
346.5460131562
21
143.8007633588
31
0.0000000000
0
SPLINE
5
367
100
AcDbEntity
8
0
100
AcDbSpline
62
7
6
CONTINUOUS
70
0
71
3
72
9
73
5
74
3
42
0.0000001000
43
0.0000001000
44
0.0000000001
40
0.0000000000
40
0.0000000000
40
0.0000000000
40
0.0000000000
40
0.4905932668
40
1.0000000000
40
1.0000000000
40
1.0000000000
40
1.0000000000
10
346.7892344196
20
144.3215970895
30
0.0000000000
10
346.7733569657
20
144.2859486310
30
0.0000000000
10
346.7375743997
20
144.2147709850
30
0.0000000000
10
346.6958478613
20
144.1469331292
30
0.0000000000
10
346.6733024780
20
144.1132633588
30
0.0000000000
11
346.7892344196
21
144.3215970895
31
0.0000000000
11
346.7368169881
21
144.2169139098
31
0.0000000000
11
346.6733024780
21
144.1132633588
31
0.0000000000
0
SPLINE
5
368
100
AcDbEntity
8
0
100
AcDbSpline
62
7
6
CONTINUOUS
70
0
71
3
72
9
73
5
74
3
42
0.0000001000
43
0.0000001000
44
0.0000000001
40
0.0000000000
40
0.0000000000
40
0.0000000000
40
0.0000000000
40
0.4510468659
40
1.0000000000
40
1.0000000000
40
1.0000000000
40
1.0000000000
10
346.8752602651
20
144.4257633588
30
0.0000000000
10
346.8674920707
20
144.4068252553
30
0.0000000000
10
346.8421936250
20
144.3681678295
30
0.0000000000
10
346.8086702218
20
144.3371819107
30
0.0000000000
10
346.7892344196
20
144.3215970895
30
0.0000000000
11
346.8752602651
21
144.4257633588
31
0.0000000000
11
346.8429971891
21
144.3735133503
31
0.0000000000
11
346.7892344196
21
144.3215970895
31
0.0000000000
0
SPLINE
5
369
100
AcDbEntity
8
0
100
AcDbSpline
62
7
6
CONTINUOUS
70
0
71
3
72
9
73
5
74
3
42
0.0000001000
43
0.0000001000
44
0.0000000001
40
0.0000000000
40
0.0000000000
40
0.0000000000
40
0.0000000000
40
0.4663322100
40
1.0000000000
40
1.0000000000
40
1.0000000000
40
1.0000000000
10
346.7697631701
20
157.7590964934
30
0.0000000000
10
346.7249825103
20
157.8353636174
30
0.0000000000
10
346.6077703919
20
157.9866362099
30
0.0000000000
10
346.4656107125
20
158.1133494655
30
0.0000000000
10
346.3859334402
20
158.1757633588
30
0.0000000000
11
346.7697631701
21
157.7590964934
31
0.0000000000
11
346.6102376983
21
157.9711093680
31
0.0000000000
11
346.3859334402
21
158.1757633588
31
0.0000000000
0
SPLINE
5
36A
100
AcDbEntity
8
0
100
AcDbSpline
62
7
6
CONTINUOUS
70
0
71
3
72
9
73
5
74
3
42
0.0000001000
43
0.0000001000
44
0.0000000001
40
0.0000000000
40
0.0000000000
40
0.0000000000
40
0.0000000000
40
0.4663322100
40
1.0000000000
40
1.0000000000
40
1.0000000000
40
1.0000000000
10
346.7697631701
20
155.6757633588
30
0.0000000000
10
346.7249825103
20
155.5994962349
30
0.0000000000
10
346.6077703919
20
155.4482236423
30
0.0000000000
10
346.4656107125
20
155.3215103867
30
0.0000000000
10
346.3859334402
20
155.2590964934
30
0.0000000000
11
346.7697631701
21
155.6757633588
31
0.0000000000
11
346.6102376983
21
155.4637504842
31
0.0000000000
11
346.3859334402
21
155.2590964934
31
0.0000000000
0
SPLINE
5
36B
100
AcDbEntity
8
0
100
AcDbSpline
62
7
6
CONTINUOUS
70
0
71
3
72
8
73
4
74
2
42
0.0000001000
43
0.0000001000
44
0.0000000001
40
0.0000000000
40
0.0000000000
40
0.0000000000
40
0.0000000000
40
1.0000000000
40
1.0000000000
40
1.0000000000
40
1.0000000000
10
346.8776310449
20
143.6569323232
30
0.0000000000
10
346.8786798798
20
143.6873814882
30
0.0000000000
10
346.8796292673
20
143.7178340205
30
0.0000000000
10
346.8804792526
20
143.7482891884
30
0.0000000000
11
346.8776310449
21
143.6569323232
31
0.0000000000
11
346.8804792526
21
143.7482891884
31
0.0000000000
0
SPLINE
5
36C
100
AcDbEntity
8
0
100
AcDbSpline
62
7
6
CONTINUOUS
70
0
71
3
72
8
73
4
74
2
42
0.0000001000
43
0.0000001000
44
0.0000000001
40
0.0000000000
40
0.0000000000
40
0.0000000000
40
0.0000000000
40
1.0000000000
40
1.0000000000
40
1.0000000000
40
1.0000000000
10
346.8804792526
20
143.7482891884
30
0.0000000000
10
346.8819363173
20
143.8004961512
30
0.0000000000
10
346.8831012825
20
143.8527108593
30
0.0000000000
10
346.8839743754
20
143.9049296281
30
0.0000000000
11
346.8804792526
21
143.7482891884
31
0.0000000000
11
346.8839743754
21
143.9049296281
31
0.0000000000
0
SPLINE
5
36D
100
AcDbEntity
8
0
100
AcDbSpline
62
7
6
CONTINUOUS
70
0
71
3
72
8
73
4
74
2
42
0.0000001000
43
0.0000001000
44
0.0000000001
40
0.0000000000
40
0.0000000000
40
0.0000000000
40
0.0000000000
40
1.0000000000
40
1.0000000000
40
1.0000000000
40
1.0000000000
10
346.8804901343
20
141.1965958974
30
0.0000000000
10
346.8793984850
20
141.2400996980
30
0.0000000000
10
346.8781425393
20
141.2835996879
30
0.0000000000
10
346.8767221371
20
141.3270944621
30
0.0000000000
11
346.8804901343
21
141.1965958974
31
0.0000000000
11
346.8767221371
21
141.3270944621
31
0.0000000000
0
SPLINE
5
36E
100
AcDbEntity
8
0
100
AcDbSpline
62
7
6
CONTINUOUS
70
0
71
3
72
9
73
5
74
3
42
0.0000001000
43
0.0000001000
44
0.0000000001
40
0.0000000000
40
0.0000000000
40
0.0000000000
40
0.0000000000
40
0.4986471726
40
1.0000000000
40
1.0000000000
40
1.0000000000
40
1.0000000000
10
346.7484538478
20
141.3007633588
30
0.0000000000
10
346.7372269298
20
141.3358281484
30
0.0000000000
10
346.7134185637
20
141.4057400567
30
0.0000000000
10
346.6871028508
20
141.4747464644
30
0.0000000000
10
346.6733024780
20
141.5090958974
30
0.0000000000
11
346.7484538478
21
141.3007633588
31
0.0000000000
11
346.7128595317
21
141.4053257474
31
0.0000000000
11
346.6733024780
21
141.5090958974
31
0.0000000000
0
SPLINE
5
36F
100
AcDbEntity
8
0
100
AcDbSpline
62
7
6
CONTINUOUS
70
0
71
3
72
9
73
5
74
3
42
0.0000001000
43
0.0000001000
44
0.0000000001
40
0.0000000000
40
0.0000000000
40
0.0000000000
40
0.0000000000
40
0.4927830556
40
1.0000000000
40
1.0000000000
40
1.0000000000
40
1.0000000000
10
346.8068843179
20
141.1965958974
30
0.0000000000
10
346.7983587799
20
141.2142751583
30
0.0000000000
10
346.7798974423
20
141.2496012003
30
0.0000000000
10
346.7593482265
20
141.2837500717
30
0.0000000000
10
346.7484538478
20
141.3007633588
30
0.0000000000
11
346.8068843179
21
141.1965958974
31
0.0000000000
11
346.7796569010
21
141.2488054498
31
0.0000000000
11
346.7484538478
21
141.3007633588
31
0.0000000000
0
SPLINE
5
370
100
AcDbEntity
8
0
100
AcDbSpline
62
7
6
CONTINUOUS
70
0
71
3
72
8
73
4
74
2
42
0.0000001000
43
0.0000001000
44
0.0000000001
40
0.0000000000
40
0.0000000000
40
0.0000000000
40
0.0000000000
40
1.0000000000
40
1.0000000000
40
1.0000000000
40
1.0000000000
10
346.8857157955
20
140.8840958974
30
0.0000000000
10
346.8853521876
20
140.8666936610
30
0.0000000000
10
346.8845313199
20
140.8492951159
30
0.0000000000
10
346.8832591498
20
140.8319266710
30
0.0000000000
11
346.8857157955
21
140.8840958974
31
0.0000000000
11
346.8832591498
21
140.8319266710
31
0.0000000000
0
SPLINE
5
371
100
AcDbEntity
8
0
100
AcDbSpline
62
7
6
CONTINUOUS
70
0
71
3
72
8
73
4
74
2
42
0.0000001000
43
0.0000001000
44
0.0000000001
40
0.0000000000
40
0.0000000000
40
0.0000000000
40
0.0000000000
40
1.0000000000
40
1.0000000000
40
1.0000000000
40
1.0000000000
10
346.8832591498
20
140.8319266710
30
0.0000000000
10
346.8819839553
20
140.8145169342
30
0.0000000000
10
346.8802553098
20
140.7971374407
30
0.0000000000
10
346.8780792134
20
140.7798147883
30
0.0000000000
11
346.8832591498
21
140.8319266710
31
0.0000000000
11
346.8780792134
21
140.7798147883
31
0.0000000000
0
SPLINE
5
372
100
AcDbEntity
8
0
100
AcDbSpline
62
7
6
CONTINUOUS
70
0
71
3
72
8
73
4
74
2
42
0.0000001000
43
0.0000001000
44
0.0000000001
40
0.0000000000
40
0.0000000000
40
0.0000000000
40
0.0000000000
40
1.0000000000
40
1.0000000000
40
1.0000000000
40
1.0000000000
10
346.8780792134
20
140.7798147883
30
0.0000000000
10
346.8736852507
20
140.7448369786
30
0.0000000000
10
346.8674669642
20
140.7100909178
30
0.0000000000
10
346.8595453070
20
140.6757633588
30
0.0000000000
11
346.8780792134
21
140.7798147883
31
0.0000000000
11
346.8595453070
21
140.6757633588
31
0.0000000000
0
SPLINE
5
373
100
AcDbEntity
8
0
100
AcDbSpline
62
7
6
CONTINUOUS
70
0
71
3
72
10
73
6
74
4
42
0.0000001000
43
0.0000001000
44
0.0000000001
40
0.0000000000
40
0.0000000000
40
0.0000000000
40
0.0000000000
40
0.1714322006
40
0.5462376208
40
1.0000000000
40
1.0000000000
40
1.0000000000
40
1.0000000000
10
346.8850836516
20
157.9674299261
30
0.0000000000
10
346.8850836516
20
158.0251660183
30
0.0000000000
10
346.8643451181
20
158.2091316066
30
0.0000000000
10
346.7054067608
20
158.5127103223
30
0.0000000000
10
346.5040357601
20
158.7062814916
30
0.0000000000
10
346.3859334402
20
158.8007633588
30
0.0000000000
11
346.8850836516
21
157.9674299261
31
0.0000000000
11
346.8655577952
21
158.1388515248
31
0.0000000000
11
346.7036979227
21
158.4768797929
31
0.0000000000
11
346.3859334402
21
158.8007633588
31
0.0000000000
0
SPLINE
5
374
100
AcDbEntity
8
0
100
AcDbSpline
62
7
6
CONTINUOUS
70
0
71
3
72
9
73
5
74
3
42
0.0000001000
43
0.0000001000
44
0.0000000001
40
0.0000000000
40
0.0000000000
40
0.0000000000
40
0.0000000000
40
0.3782935413
40
1.0000000000
40
1.0000000000
40
1.0000000000
40
1.0000000000
10
346.8851175977
20
161.0948147686
30
0.0000000000
10
346.8845823012
20
161.1825344710
30
0.0000000000
10
346.8428689622
20
161.4154709198
30
0.0000000000
10
346.7088375078
20
161.6109325665
30
0.0000000000
10
346.6136188194
20
161.7174300751
30
0.0000000000
11
346.8851175977
21
161.0948147686
31
0.0000000000
11
346.8398112512
21
161.3534083101
31
0.0000000000
11
346.6136188194
21
161.7174300751
31
0.0000000000
0
SPLINE
5
375
100
AcDbEntity
8
0
100
AcDbSpline
62
7
6
CONTINUOUS
70
0
71
3
72
9
73
5
74
3
42
0.0000001000
43
0.0000001000
44
0.0000000001
40
0.0000000000
40
0.0000000000
40
0.0000000000
40
0.0000000000
40
0.6217064587
40
1.0000000000
40
1.0000000000
40
1.0000000000
40
1.0000000000
10
346.6136188194
20
161.7174300751
30
0.0000000000
10
346.7088375078
20
161.8239275837
30
0.0000000000
10
346.8428689622
20
162.0193892304
30
0.0000000000
10
346.8845823012
20
162.2523256792
30
0.0000000000
10
346.8851175977
20
162.3400453816
30
0.0000000000
11
346.6136188194
21
161.7174300751
31
0.0000000000
11
346.8398112512
21
162.0814518402
31
0.0000000000
11
346.8851175977
21
162.3400453816
31
0.0000000000
0
SPLINE
5
376
100
AcDbEntity
8
0
100
AcDbSpline
62
7
6
CONTINUOUS
70
0
71
3
72
10
73
6
74
4
42
0.0000001000
43
0.0000001000
44
0.0000000001
40
0.0000000000
40
0.0000000000
40
0.0000000000
40
0.0000000000
40
0.4537623792
40
0.8285677994
40
1.0000000000
40
1.0000000000
40
1.0000000000
40
1.0000000000
10
346.3859334402
20
154.6340964934
30
0.0000000000
10
346.5040357601
20
154.7285783606
30
0.0000000000
10
346.7054067608
20
154.9221495299
30
0.0000000000
10
346.8643451181
20
155.2257282456
30
0.0000000000
10
346.8850836516
20
155.4096938339
30
0.0000000000
10
346.8850836516
20
155.4674299261
30
0.0000000000
11
346.3859334402
21
154.6340964934
31
0.0000000000
11
346.7036979227
21
154.9579800593
31
0.0000000000
11
346.8655577952
21
155.2960083274
31
0.0000000000
11
346.8850836516
21
155.4674299261
31
0.0000000000
0
SPLINE
5
377
100
AcDbEntity
8
0
100
AcDbSpline
62
7
6
CONTINUOUS
70
0
71
3
72
9
73
5
74
3
42
0.0000001000
43
0.0000001000
44
0.0000000001
40
0.0000000000
40
0.0000000000
40
0.0000000000
40
0.0000000000
40
0.4927830556
40
1.0000000000
40
1.0000000000
40
1.0000000000
40
1.0000000000
10
346.8068843179
20
143.8007633588
30
0.0000000000
10
346.7983587799
20
143.7830840978
30
0.0000000000
10
346.7798974423
20
143.7477580558
30
0.0000000000
10
346.7593482265
20
143.7136091845
30
0.0000000000
10
346.7484538478
20
143.6965958974
30
0.0000000000
11
346.8068843179
21
143.8007633588
31
0.0000000000
11
346.7796569010
21
143.7485538064
31
0.0000000000
11
346.7484538478
21
143.6965958974
31
0.0000000000
0
SPLINE
5
378
100
AcDbEntity
8
0
100
AcDbSpline
62
7
6
CONTINUOUS
70
0
71
3
72
9
73
5
74
3
42
0.0000001000
43
0.0000001000
44
0.0000000001
40
0.0000000000
40
0.0000000000
40
0.0000000000
40
0.0000000000
40
0.4986471726
40
1.0000000000
40
1.0000000000
40
1.0000000000
40
1.0000000000
10
346.7484538478
20
143.6965958974
30
0.0000000000
10
346.7372269298
20
143.6615311077
30
0.0000000000
10
346.7134185637
20
143.5916191994
30
0.0000000000
10
346.6871028508
20
143.5226127918
30
0.0000000000
10
346.6733024780
20
143.4882633588
30
0.0000000000
11
346.7484538478
21
143.6965958974
31
0.0000000000
11
346.7128595317
21
143.5920335088
31
0.0000000000
11
346.6733024780
21
143.4882633588
31
0.0000000000
0
SPLINE
5
379
100
AcDbEntity
8
0
100
AcDbSpline
62
7
6
CONTINUOUS
70
0
71
3
72
9
73
5
74
3
42
0.0000001000
43
0.0000001000
44
0.0000000001
40
0.0000000000
40
0.0000000000
40
0.0000000000
40
0.0000000000
40
0.5015342608
40
1.0000000000
40
1.0000000000
40
1.0000000000
40
1.0000000000
10
346.6733024780
20
143.4882633588
30
0.0000000000
10
346.6639529766
20
143.4359031365
30
0.0000000000
10
346.6446848595
20
143.3316138934
30
0.0000000000
10
346.6241620346
20
143.2275642789
30
0.0000000000
10
346.6136188194
20
143.1757633588
30
0.0000000000
11
346.6733024780
21
143.4882633588
31
0.0000000000
11
346.6443101299
21
143.3313541550
31
0.0000000000
11
346.6136188194
21
143.1757633588
31
0.0000000000
0
SPLINE
5
37A
100
AcDbEntity
8
0
100
AcDbSpline
62
7
6
CONTINUOUS
70
0
71
3
72
9
73
5
74
3
42
0.0000001000
43
0.0000001000
44
0.0000000001
40
0.0000000000
40
0.0000000000
40
0.0000000000
40
0.0000000000
40
0.5010136058
40
1.0000000000
40
1.0000000000
40
1.0000000000
40
1.0000000000
10
346.6136188194
20
143.1757633588
30
0.0000000000
10
346.6083059903
20
143.1235573804
30
0.0000000000
10
346.5975381071
20
143.0193732557
30
0.0000000000
10
346.5864413230
20
142.9152236478
30
0.0000000000
10
346.5808217409
20
142.8632633588
30
0.0000000000
11
346.6136188194
21
143.1757633588
31
0.0000000000
11
346.5974337194
21
143.0191707167
31
0.0000000000
11
346.5808217409
21
142.8632633588
31
0.0000000000
0
SPLINE
5
37B
100
AcDbEntity
8
0
100
AcDbSpline
62
7
6
CONTINUOUS
70
0
71
3
72
9
73
5
74
3
42
0.0000001000
43
0.0000001000
44
0.0000000001
40
0.0000000000
40
0.0000000000
40
0.0000000000
40
0.0000000000
40
0.5010136058
40
1.0000000000
40
1.0000000000
40
1.0000000000
40
1.0000000000
10
346.6136188194
20
141.8215958974
30
0.0000000000
10
346.6083059903
20
141.8738018758
30
0.0000000000
10
346.5975381071
20
141.9779860004
30
0.0000000000
10
346.5864413230
20
142.0821356083
30
0.0000000000
10
346.5808217409
20
142.1340958974
30
0.0000000000
11
346.6136188194
21
141.8215958974
31
0.0000000000
11
346.5974337194
21
141.9781885395
31
0.0000000000
11
346.5808217409
21
142.1340958974
31
0.0000000000
0
SPLINE
5
37C
100
AcDbEntity
8
0
100
AcDbSpline
62
7
6
CONTINUOUS
70
0
71
3
72
9
73
5
74
3
42
0.0000001000
43
0.0000001000
44
0.0000000001
40
0.0000000000
40
0.0000000000
40
0.0000000000
40
0.0000000000
40
0.5015342608
40
1.0000000000
40
1.0000000000
40
1.0000000000
40
1.0000000000
10
346.6733024780
20
141.5090958974
30
0.0000000000
10
346.6639529766
20
141.5614561197
30
0.0000000000
10
346.6446848595
20
141.6657453627
30
0.0000000000
10
346.6241620346
20
141.7697949773
30
0.0000000000
10
346.6136188194
20
141.8215958974
30
0.0000000000
11
346.6733024780
21
141.5090958974
31
0.0000000000
11
346.6443101299
21
141.6660051012
31
0.0000000000
11
346.6136188194
21
141.8215958974
31
0.0000000000
0
ENDSEC
0
SECTION
2
OBJECTS
0
DICTIONARY
5
37D
100
AcDbDictionary
3
ACAD_GROUP
350
37E
3
ACAD_MLINESTYLE
350
37F
0
DICTIONARY
5
37E
102
{ACAD_REACTORS
330
37D
102
}
100
AcDbDictionary
0
DICTIONARY
5
37F
102
{ACAD_REACTORS
330
37D
102
}
100
AcDbDictionary
3
STANDARD
350
380
0
MLINESTYLE
5
380
102
{ACAD_REACTORS
330
37F
102
}
100
AcDbMlineStyle
2
STANDARD
70
0
3

62
256
51
90.0
52
90.0
71
2
49
0.5
62
256
6
BYLAYER
49
-0.5
62
256
6
BYLAYER
0
ENDSEC
0
EOF
