999
DXF file: C:\Aktuell-Internet\CAD-Daten\2va1-22.dxf
999
Pro/ENGINEER 2001400 by Parametric Technology Corporation
0
SECTION
2
HEADER
9
$ACADVER
1
AC1014
9
$EXTMAX
10
420.0000000000
20
297.0000000000
9
$EXTMIN
10
0.0000000000
20
0.0000000000
9
$LIMMIN
10
0.0000000000
20
0.0000000000
9
$LIMMAX
10
420.0000000000
20
297.0000000000
9
$VIEWCTR
10
210.0000000000
20
148.5000000000
9
$VIEWSIZE
40
297.0000000000
9
$CLAYER
8
0
9
$LTSCALE
40
23.1000000000
9
$CELTYPE
6
BYLAYER
9
$DIMSCALE
40
1
9
$DIMASZ
40
3.5000000000
9
$DIMEXO
40
2.6250000000
9
$DIMDLI
40
15.9600000000
9
$DIMEXE
40
7.5600000000
9
$DIMCEN
40
3.7800000000
9
$DIMLFAC
40
1.0000000000
9
$DIMTXT
40
3.5000000000
9
$DIMTOL
70
1
9
$DIMTFAC
40
0.6000000000
9
$DIMTP
40
0.0050000000
9
$DIMTM
40
0.0050000000
9
$HANDSEED
5
376
0
ENDSEC
0
SECTION
2
CLASSES
0
ENDSEC
0
SECTION
2
TABLES
0
TABLE
2
VPORT
5
8
100
AcDbSymbolTable
70
2
0
VPORT
5
1F4
100
AcDbSymbolTableRecord
100
AcDbViewportTableRecord
2
*ACTIVE
70
0
10
0.0
20
0.0
11
1.0
21
1.0
12
210.0000000000
22
148.5000000000
13
0.0
23
0.0
14
1.0
24
1.0
15
0.0
25
0.0
16
0.0
26
0.0
36
1.0
17
0.0
27
0.0
37
0.0
40
297.0000000000
41
1.4141414141
42
50.0
43
0.0
44
0.0
50
0.0
51
0.0
71
0
72
100
73
1
74
1
75
0
76
0
77
0
78
0
0
ENDTAB
0
TABLE
2
LTYPE
5
5
100
AcDbSymbolTable
70
6
0
LTYPE
5
14
100
AcDbSymbolTableRecord
100
AcDbLinetypeTableRecord
2
BYBLOCK
70
0
3

72
65
73
0
40
0.0
0
LTYPE
5
15
100
AcDbSymbolTableRecord
100
AcDbLinetypeTableRecord
2
BYLAYER
70
0
3

72
65
73
0
40
0.0
0
LTYPE
5
16
100
AcDbSymbolTableRecord
100
AcDbLinetypeTableRecord
2
CONTINUOUS
70
64
3
Solid line
72
65
73
0
40
0
0
LTYPE
5
1F5
100
AcDbSymbolTableRecord
100
AcDbLinetypeTableRecord
2
CENTER
70
64
3
____ _ ____ _ ____ _ ____ _ ____ _ ____ _ ____
72
65
73
4
40
0.6
49
0.375
74
0
49
-0.075
74
0
49
0.075
74
0
49
-0.075
74
0
0
LTYPE
5
1F6
100
AcDbSymbolTableRecord
100
AcDbLinetypeTableRecord
2
HIDDEN
70
64
3
- - - - - - - - - - - - - - - - - - - -
72
65
73
2
40
0.2
49
0.1
74
0
49
-0.1
74
0
0
LTYPE
5
1F7
100
AcDbSymbolTableRecord
100
AcDbLinetypeTableRecord
2
PHANTOM
70
64
3
_____ _ _ _____ _ _ _____ _ _ _____
72
65
73
6
40
0.8
49
0.45
74
0
49
-0.05
74
0
49
0.1
74
0
49
-0.05
74
0
49
0.1
74
0
49
-0.05
74
0
0
LTYPE
5
1F8
100
AcDbSymbolTableRecord
100
AcDbLinetypeTableRecord
2
DOT
70
64
3
. . . . . . . . . . . . . . . . . . . .
72
65
73
2
40
0.2
49
0.1
74
0
49
-0.1
74
0
0
LTYPE
5
1F9
100
AcDbSymbolTableRecord
100
AcDbLinetypeTableRecord
2
DASHED
70
64
3
- - - - - - - - - - - - - - - - - - - -
72
65
73
2
40
0.2
49
0.1
74
0
49
-0.1
74
0
0
ENDTAB
0
TABLE
2
LAYER
5
2
100
AcDbSymbolTable
70
36
0
LAYER
5
10
100
AcDbSymbolTableRecord
100
AcDbLayerTableRecord
2
0
70
0
62
7
6
CONTINUOUS
0
LAYER
5
1FA
100
AcDbSymbolTableRecord
100
AcDbLayerTableRecord
2
DEFAULT_1
70
0
62
7
6
CENTER
0
LAYER
5
1FB
100
AcDbSymbolTableRecord
100
AcDbLayerTableRecord
2
DEFAULT_2
70
0
62
8
6
HIDDEN
0
LAYER
5
1FC
100
AcDbSymbolTableRecord
100
AcDbLayerTableRecord
2
DEFAULT_3
70
0
62
7
6
PHANTOM
0
ENDTAB
0
TABLE
2
STYLE
5
3
100
AcDbSymbolTable
70
1
0
STYLE
5
11
100
AcDbSymbolTableRecord
100
AcDbTextStyleTableRecord
2
STANDARD
70
0
40
0.0
41
1.0
50
0.0
71
0
42
0.0
3
txt
4

0
STYLE
5
1FD
100
AcDbSymbolTableRecord
100
AcDbTextStyleTableRecord
2
TEXTSTYLE_0
70
0
40
0.0
41
0.80
50
0.0
71
0
42
0.2
3
txt
4

0
ENDTAB
0
TABLE
2
VIEW
5
6
100
AcDbSymbolTable
70
0
0
ENDTAB
0
TABLE
2
UCS
5
7
100
AcDbSymbolTable
70
0
0
ENDTAB
0
TABLE
2
APPID
5
9
100
AcDbSymbolTable
70
1
0
APPID
5
1FE
100
AcDbSymbolTableRecord
100
AcDbRegAppTableRecord
2
ACAD
70
0
0
ENDTAB
0
TABLE
2
DIMSTYLE
5
A
100
AcDbSymbolTable
70
1
0
DIMSTYLE
105
1FF
100
AcDbSymbolTableRecord
100
AcDbDimStyleTableRecord
2
STANDARD
70
0
3

4

5

6

7

40
1.0
41
0.18
42
0.0625
43
0.38
44
0.18
45
0.0
46
0.0
47
0.0050000000
48
0.0050000000
140
3.5000000000
141
0.09
142
0.0
143
25.4
144
1.0000000000
145
0.0
146
0.6000000000
147
0.09
71
1
72
0
73
1
74
1
75
0
76
0
77
0
78
0
170
0
171
2
172
0
173
0
174
0
175
0
176
0
177
0
178
0
270
2
271
3
272
4
273
2
274
2
340
11
275
0
280
0
281
0
282
0
283
1
284
0
285
0
286
0
287
3
288
0
0
ENDTAB
0
TABLE
2
BLOCK_RECORD
5
1
100
AcDbSymbolTable
70
0
0
BLOCK_RECORD
5
1B
100
AcDbSymbolTableRecord
100
AcDbBlockTableRecord
2
*MODEL_SPACE
0
BLOCK_RECORD
5
1C
100
AcDbSymbolTableRecord
100
AcDbBlockTableRecord
2
*PAPER_SPACE
0
ENDTAB
0
ENDSEC
0
SECTION
2
BLOCKS
0
BLOCK
5
1E
100
AcDbEntity
8
0
100
AcDbBlockBegin
2
*MODEL_SPACE
70
0
10
0.0
20
0.0
30
0.0
3
*MODEL_SPACE
1

0
ENDBLK
5
1F
100
AcDbEntity
8
0
100
AcDbBlockEnd
0
BLOCK
5
20
100
AcDbEntity
8
0
100
AcDbBlockBegin
2
*PAPER_SPACE
70
0
10
0.0
20
0.0
30
0.0
3
*PAPER_SPACE
1

0
ENDBLK
5
21
100
AcDbEntity
8
0
100
AcDbBlockEnd
0
ENDSEC
0
SECTION
2
ENTITIES
0
TEXT
5
200
100
AcDbEntity
8
0
100
AcDbText
62
2
6
CONTINUOUS
10
502.5585815675
20
199.1947652561
7
TEXTSTYLE_0
40
14.0000000000
1
VA 1-22
50
90.0000000000
72
5
11
502.5585815675
21
273.8614319228
100
AcDbText
0
LINE
5
201
100
AcDbEntity
8
0
100
AcDbLine
62
7
6
CONTINUOUS
10
0.0000000000
20
0.0000000000
11
0.0000000000
21
297.0000000000
0
LINE
5
202
100
AcDbEntity
8
0
100
AcDbLine
62
7
6
CONTINUOUS
10
0.0000000000
20
0.0000000000
11
420.0000000000
21
0.0000000000
0
LINE
5
203
100
AcDbEntity
8
0
100
AcDbLine
62
7
6
CONTINUOUS
10
0.0000000000
20
297.0000000000
11
420.0000000000
21
297.0000000000
0
LINE
5
204
100
AcDbEntity
8
0
100
AcDbLine
62
7
6
CONTINUOUS
10
420.0000000000
20
0.0000000000
11
420.0000000000
21
297.0000000000
0
LINE
5
205
100
AcDbEntity
8
0
100
AcDbLine
62
7
6
CONTINUOUS
10
56.2915679869
20
309.3471806346
11
56.2915679869
21
149.3471806346
0
LINE
5
206
100
AcDbEntity
8
0
100
AcDbLine
62
7
6
CONTINUOUS
10
72.8451404880
20
253.8646656352
11
72.8451404880
21
252.3650376602
0
LINE
5
207
100
AcDbEntity
8
0
100
AcDbLine
62
7
6
CONTINUOUS
10
72.8451404880
20
236.8471806346
11
72.8451404880
21
235.3471806346
0
LINE
5
208
100
AcDbEntity
8
0
100
AcDbLine
62
7
6
CONTINUOUS
10
72.8451404880
20
227.8471806346
11
72.8451404880
21
218.8471806346
0
LINE
5
209
100
AcDbEntity
8
0
100
AcDbLine
62
7
6
CONTINUOUS
10
72.8451404880
20
216.8471825419
11
72.8451404880
21
207.8471825419
0
LINE
5
20A
100
AcDbEntity
8
0
100
AcDbLine
62
7
6
CONTINUOUS
10
72.8451404880
20
260.8296951571
11
72.8451404880
21
262.3293231321
0
LINE
5
20B
100
AcDbEntity
8
0
100
AcDbLine
62
7
6
CONTINUOUS
10
72.8451404880
20
268.3293231353
11
72.8451404880
21
270.3650380163
0
LINE
5
20C
100
AcDbEntity
8
0
100
AcDbLine
62
7
6
CONTINUOUS
10
74.0681637582
20
225.8471825419
11
74.0681637582
21
218.8471806346
0
LINE
5
20D
100
AcDbEntity
8
0
100
AcDbLine
62
7
6
CONTINUOUS
10
74.0681637582
20
214.8471787272
11
74.0681637582
21
207.8471825419
0
LINE
5
20E
100
AcDbEntity
8
0
100
AcDbLine
62
7
6
CONTINUOUS
10
75.8553977665
20
259.8471801577
11
75.8553977665
21
254.8471806346
0
LINE
5
20F
100
AcDbEntity
8
0
100
AcDbLine
62
7
6
CONTINUOUS
10
80.4511422572
20
208.0971787272
11
79.6851849017
21
208.5971825419
0
LINE
5
210
100
AcDbEntity
8
0
100
AcDbLine
62
7
6
CONTINUOUS
10
84.0256106314
20
215.3471825419
11
83.0043341574
21
216.3471787272
0
LINE
5
211
100
AcDbEntity
8
0
100
AcDbLine
62
7
6
CONTINUOUS
10
80.4511422572
20
209.8471806346
11
74.0681637582
21
216.8471825419
0
LINE
5
212
100
AcDbEntity
8
0
100
AcDbLine
62
7
6
CONTINUOUS
10
80.4511422572
20
220.8471787272
11
74.0681637582
21
227.8471806346
0
LINE
5
213
100
AcDbEntity
8
0
100
AcDbLine
62
7
6
CONTINUOUS
10
74.0681637582
20
214.8471787272
11
79.6851849017
21
208.5971825419
0
LINE
5
214
100
AcDbEntity
8
0
100
AcDbLine
62
7
6
CONTINUOUS
10
74.0681637582
20
225.8471825419
11
79.6851849017
21
219.5971806346
0
LINE
5
215
100
AcDbEntity
8
0
100
AcDbLine
62
7
6
CONTINUOUS
10
83.2596532759
20
214.0971787272
11
82.7490150389
21
214.8471787272
0
LINE
5
216
100
AcDbEntity
8
0
100
AcDbLine
62
7
6
CONTINUOUS
10
83.2596532759
20
225.0971825419
11
82.7490150389
21
225.8471825419
0
LINE
5
217
100
AcDbEntity
8
0
100
AcDbLine
62
7
6
CONTINUOUS
10
84.5362488684
20
214.3471806346
11
84.0256106314
21
215.3471825419
0
LINE
5
218
100
AcDbEntity
8
0
100
AcDbLine
62
7
6
CONTINUOUS
10
84.5362488684
20
225.3471787272
11
84.0256106314
21
226.3471806346
0
LINE
5
219
100
AcDbEntity
8
0
100
AcDbLine
62
7
6
CONTINUOUS
10
83.5149723944
20
212.8471806346
11
83.2596532759
21
214.0971787272
0
LINE
5
21A
100
AcDbEntity
8
0
100
AcDbLine
62
7
6
CONTINUOUS
10
83.5149723944
20
223.8471787272
11
83.2596532759
21
225.0971825419
0
LINE
5
21B
100
AcDbEntity
8
0
100
AcDbLine
62
7
6
CONTINUOUS
10
76.8766742405
20
259.5971811114
11
76.8766742405
21
255.0971811114
0
LINE
5
21C
100
AcDbEntity
8
0
100
AcDbLine
62
7
6
CONTINUOUS
10
77.1319933590
20
233.3471796809
11
77.1319933590
21
229.8471815882
0
LINE
5
21D
100
AcDbEntity
8
0
100
AcDbLine
62
7
6
CONTINUOUS
10
78.4085893092
20
233.3471796809
11
78.4085893092
21
229.8471815882
0
LINE
5
21E
100
AcDbEntity
8
0
100
AcDbLine
62
7
6
CONTINUOUS
10
81.9830576834
20
227.5971815882
11
81.9830576834
21
226.3471806346
0
LINE
5
21F
100
AcDbEntity
8
0
100
AcDbLine
62
7
6
CONTINUOUS
10
81.9830576834
20
216.5971806346
11
81.9830576834
21
215.3471825419
0
LINE
5
220
100
AcDbEntity
8
0
100
AcDbLine
62
7
6
CONTINUOUS
10
83.5149723944
20
223.8471787272
11
83.5149723944
21
222.8471825419
0
LINE
5
221
100
AcDbEntity
8
0
100
AcDbLine
62
7
6
CONTINUOUS
10
83.5149723944
20
212.8471806346
11
83.5149723944
21
211.8471787272
0
LINE
5
222
100
AcDbEntity
8
0
100
AcDbLine
62
7
6
CONTINUOUS
10
84.7379954858
20
274.3293231337
11
84.7379954858
21
272.8292686912
0
LINE
5
223
100
AcDbEntity
8
0
100
AcDbLine
62
7
6
CONTINUOUS
10
84.7379954858
20
265.8650928163
11
84.7379954858
21
264.3650383723
0
LINE
5
224
100
AcDbEntity
8
0
100
AcDbLine
62
7
6
CONTINUOUS
10
84.7379954858
20
258.3650376602
11
84.7379954858
21
256.3293231321
0
LINE
5
225
100
AcDbEntity
8
0
100
AcDbLine
62
7
6
CONTINUOUS
10
84.7379954858
20
236.8921432748
11
84.7379954858
21
235.3471806346
0
LINE
5
226
100
AcDbEntity
8
0
100
AcDbLine
62
7
6
CONTINUOUS
10
84.7379954858
20
223.9643766364
11
84.7379954858
21
222.2824421532
0
LINE
5
227
100
AcDbEntity
8
0
100
AcDbLine
62
7
6
CONTINUOUS
10
84.7379954858
20
212.9643740223
11
84.7379954858
21
211.2824440606
0
LINE
5
228
100
AcDbEntity
8
0
100
AcDbLine
62
7
6
CONTINUOUS
10
84.7379954858
20
222.2824421532
11
84.5362488684
21
221.0971806346
0
LINE
5
229
100
AcDbEntity
8
0
100
AcDbLine
62
7
6
CONTINUOUS
10
81.4724187312
20
209.3471825419
11
80.4511422572
21
209.8471806346
0
LINE
5
22A
100
AcDbEntity
8
0
100
AcDbLine
62
7
6
CONTINUOUS
10
81.4724187312
20
220.3471806346
11
80.4511422572
21
220.8471787272
0
LINE
5
22B
100
AcDbEntity
8
0
100
AcDbLine
62
7
6
CONTINUOUS
10
82.7490150389
20
214.8471787272
11
81.9830576834
21
215.3471825419
0
LINE
5
22C
100
AcDbEntity
8
0
100
AcDbLine
62
7
6
CONTINUOUS
10
80.4511422572
20
219.0971825419
11
79.6851849017
21
219.5971806346
0
LINE
5
22D
100
AcDbEntity
8
0
100
AcDbLine
62
7
6
CONTINUOUS
10
82.7490150389
20
225.8471825419
11
81.9830576834
21
226.3471806346
0
LINE
5
22E
100
AcDbEntity
8
0
100
AcDbLine
62
7
6
CONTINUOUS
10
82.7490150389
20
236.8471806346
11
80.9617804942
21
238.3471806346
0
LINE
5
22F
100
AcDbEntity
8
0
100
AcDbLine
62
7
6
CONTINUOUS
10
84.7379954858
20
236.8921432748
11
83.0043341574
21
238.3471806346
0
LINE
5
230
100
AcDbEntity
8
0
100
AcDbLine
62
7
6
CONTINUOUS
10
84.0256106314
20
226.3471806346
11
83.0043341574
21
227.3471796809
0
LINE
5
231
100
AcDbEntity
8
0
100
AcDbLine
62
7
6
CONTINUOUS
10
84.7379954858
20
212.9643740223
11
84.5362488684
21
214.3471806346
0
LINE
5
232
100
AcDbEntity
8
0
100
AcDbLine
62
7
6
CONTINUOUS
10
84.7379954858
20
223.9643766364
11
84.5362488684
21
225.3471787272
0
LINE
5
233
100
AcDbEntity
8
0
100
AcDbLine
62
7
6
CONTINUOUS
10
101.2915679869
20
309.3471806346
11
101.2915679869
21
149.3471806346
0
LINE
5
234
100
AcDbEntity
8
0
100
AcDbLine
62
7
6
CONTINUOUS
10
84.7379954858
20
211.2824440606
11
84.5362488684
21
210.0971825419
0
LINE
5
235
100
AcDbEntity
8
0
100
AcDbLine
62
7
6
CONTINUOUS
10
83.5149723944
20
222.8471825419
11
83.2596532759
21
221.5971787272
0
LINE
5
236
100
AcDbEntity
8
0
100
AcDbLine
62
7
6
CONTINUOUS
10
83.5149723944
20
211.8471787272
11
83.2596532759
21
210.5971806346
0
LINE
5
237
100
AcDbEntity
8
0
100
AcDbLine
62
7
6
CONTINUOUS
10
204.3091796959
20
458.1471806346
11
222.0915679869
21
488.9471806346
0
LINE
5
238
100
AcDbEntity
8
0
100
AcDbLine
62
7
6
CONTINUOUS
10
81.4724187312
20
207.8471825419
11
80.4511422572
21
208.0971787272
0
LINE
5
239
100
AcDbEntity
8
0
100
AcDbLine
62
7
6
CONTINUOUS
10
83.0043341574
20
216.3471787272
11
81.9830576834
21
216.5971806346
0
LINE
5
23A
100
AcDbEntity
8
0
100
AcDbLine
62
7
6
CONTINUOUS
10
81.4724187312
20
218.8471806346
11
80.4511422572
21
219.0971825419
0
LINE
5
23B
100
AcDbEntity
8
0
100
AcDbLine
62
7
6
CONTINUOUS
10
84.5362488684
20
221.0971806346
11
84.0256106314
21
220.0971787272
0
LINE
5
23C
100
AcDbEntity
8
0
100
AcDbLine
62
7
6
CONTINUOUS
10
84.5362488684
20
210.0971825419
11
84.0256106314
21
209.0971806346
0
LINE
5
23D
100
AcDbEntity
8
0
100
AcDbLine
62
7
6
CONTINUOUS
10
83.2596532759
20
221.5971787272
11
82.7490150389
21
220.8471787272
0
LINE
5
23E
100
AcDbEntity
8
0
100
AcDbLine
62
7
6
CONTINUOUS
10
81.9830576834
20
207.8471825419
11
81.4724187312
21
207.8471825419
0
LINE
5
23F
100
AcDbEntity
8
0
100
AcDbLine
62
7
6
CONTINUOUS
10
74.0681637582
20
207.8471825419
11
72.8451404880
21
207.8471825419
0
LINE
5
240
100
AcDbEntity
8
0
100
AcDbLine
62
7
6
CONTINUOUS
10
81.9830576834
20
209.3471825419
11
81.4724187312
21
209.3471825419
0
LINE
5
241
100
AcDbEntity
8
0
100
AcDbLine
62
7
6
CONTINUOUS
10
74.0681637582
20
216.8471825419
11
72.8451404880
21
216.8471825419
0
LINE
5
242
100
AcDbEntity
8
0
100
AcDbLine
62
7
6
CONTINUOUS
10
81.9830576834
20
218.8471806346
11
81.4724187312
21
218.8471806346
0
LINE
5
243
100
AcDbEntity
8
0
100
AcDbLine
62
7
6
CONTINUOUS
10
74.0681637582
20
218.8471806346
11
72.8451404880
21
218.8471806346
0
LINE
5
244
100
AcDbEntity
8
0
100
AcDbLine
62
7
6
CONTINUOUS
10
83.0043341574
20
227.3471796809
11
81.9830576834
21
227.5971815882
0
LINE
5
245
100
AcDbEntity
8
0
100
AcDbLine
62
7
6
CONTINUOUS
10
205.0294306128
20
375.1452826547
11
196.7915679869
21
361.3471806346
0
LINE
5
246
100
AcDbEntity
8
0
100
AcDbLine
62
7
6
CONTINUOUS
10
83.2596532759
20
210.5971806346
11
82.7490150389
21
209.8471806346
0
LINE
5
247
100
AcDbEntity
8
0
100
AcDbLine
62
7
6
CONTINUOUS
10
83.0043341574
20
208.0971787272
11
81.9830576834
21
207.8471825419
0
LINE
5
248
100
AcDbEntity
8
0
100
AcDbLine
62
7
6
CONTINUOUS
10
81.4724187312
20
220.3471806346
11
81.9830576834
21
220.3471806346
0
LINE
5
249
100
AcDbEntity
8
0
100
AcDbLine
62
7
6
CONTINUOUS
10
74.0681637582
20
227.8471806346
11
72.8451404880
21
227.8471806346
0
LINE
5
24A
100
AcDbEntity
8
0
100
AcDbLine
62
7
6
CONTINUOUS
10
77.1319933590
20
229.8471815882
11
78.4085893092
21
229.8471815882
0
LINE
5
24B
100
AcDbEntity
8
0
100
AcDbLine
62
7
6
CONTINUOUS
10
78.4085893092
20
233.3471796809
11
77.1319933590
21
233.3471796809
0
LINE
5
24C
100
AcDbEntity
8
0
100
AcDbLine
62
7
6
CONTINUOUS
10
72.8451404880
20
235.3471806346
11
84.7379954858
21
235.3471806346
0
LINE
5
24D
100
AcDbEntity
8
0
100
AcDbLine
62
7
6
CONTINUOUS
10
82.7490150389
20
236.8471806346
11
72.8451404880
21
236.8471806346
0
LINE
5
24E
100
AcDbEntity
8
0
100
AcDbLine
62
7
6
CONTINUOUS
10
83.0043341574
20
238.3471806346
11
80.9617804942
21
238.3471806346
0
LINE
5
24F
100
AcDbEntity
8
0
100
AcDbLine
62
7
6
CONTINUOUS
10
75.8553977665
20
259.8471801577
11
72.8451404880
21
260.8296951571
0
LINE
5
250
100
AcDbEntity
8
0
100
AcDbLine
62
7
6
CONTINUOUS
10
76.8766742405
20
259.5971811114
11
83.7702915129
21
257.3471811114
0
LINE
5
251
100
AcDbEntity
8
0
100
AcDbLine
62
7
6
CONTINUOUS
10
84.7379954858
20
258.3650376602
11
72.8451404880
21
262.3293231321
0
LINE
5
252
100
AcDbEntity
8
0
100
AcDbLine
62
7
6
CONTINUOUS
10
72.8451404880
20
268.3293231353
11
84.7379954858
21
264.3650383723
0
LINE
5
253
100
AcDbEntity
8
0
100
AcDbLine
62
7
6
CONTINUOUS
10
84.7379954858
20
265.8650928163
11
74.3234828767
21
269.3471807538
0
LINE
5
254
100
AcDbEntity
8
0
100
AcDbLine
62
7
6
CONTINUOUS
10
160.4915679869
20
488.9471806346
11
160.4915679869
21
506.5471806346
0
LINE
5
255
100
AcDbEntity
8
0
100
AcDbLine
62
7
6
CONTINUOUS
10
169.2915679869
20
472.5261570813
11
169.2915679869
21
458.6471806346
0
LINE
5
256
100
AcDbEntity
8
0
100
AcDbLine
62
7
6
CONTINUOUS
10
84.0256106314
20
220.0971787272
11
83.0043341574
21
219.0971825419
0
LINE
5
257
100
AcDbEntity
8
0
100
AcDbLine
62
7
6
CONTINUOUS
10
84.0256106314
20
209.0971806346
11
83.0043341574
21
208.0971787272
0
LINE
5
258
100
AcDbEntity
8
0
100
AcDbLine
62
7
6
CONTINUOUS
10
74.3234828767
20
269.3471807538
11
84.7379954858
21
272.8292686912
0
LINE
5
259
100
AcDbEntity
8
0
100
AcDbLine
62
7
6
CONTINUOUS
10
84.7379954858
20
274.3293231337
11
72.8451404880
21
270.3650380163
0
LINE
5
25A
100
AcDbEntity
8
0
100
AcDbLine
62
7
6
CONTINUOUS
10
83.0043341574
20
219.0971825419
11
81.9830576834
21
218.8471806346
0
LINE
5
25B
100
AcDbEntity
8
0
100
AcDbLine
62
7
6
CONTINUOUS
10
175.2915679869
20
383.3471806346
11
175.2915679869
21
457.6471806346
0
LINE
5
25C
100
AcDbEntity
8
0
100
AcDbLine
62
7
6
CONTINUOUS
10
185.7915679869
20
361.3471806346
11
185.7915679869
21
494.5475973085
0
LINE
5
25D
100
AcDbEntity
8
DEFAULT_1
100
AcDbLine
62
2
6
CENTER
10
191.2915679869
20
506.5471806346
11
191.2915679869
21
10.6415892709
0
LINE
5
25E
100
AcDbEntity
8
DEFAULT_1
100
AcDbLine
62
2
6
CENTER
10
191.2915679869
20
506.5471806346
11
191.2915679869
21
522.7471806346
0
LINE
5
25F
100
AcDbEntity
8
0
100
AcDbLine
62
7
6
CONTINUOUS
10
81.9830576834
20
220.3471806346
11
82.7490150389
21
220.8471787272
0
LINE
5
260
100
AcDbEntity
8
0
100
AcDbLine
62
7
6
CONTINUOUS
10
82.7490150389
20
209.8471806346
11
81.9830576834
21
209.3471825419
0
LINE
5
261
100
AcDbEntity
8
0
100
AcDbLine
62
7
6
CONTINUOUS
10
72.8451404880
20
252.3650376602
11
84.7379954858
21
256.3293231321
0
LINE
5
262
100
AcDbEntity
8
0
100
AcDbLine
62
7
6
CONTINUOUS
10
75.8553977665
20
254.8471806346
11
72.8451404880
21
253.8646656352
0
LINE
5
263
100
AcDbEntity
8
0
100
AcDbLine
62
7
6
CONTINUOUS
10
83.7702915129
20
257.3471811114
11
76.8766742405
21
255.0971811114
0
LINE
5
264
100
AcDbEntity
8
0
100
AcDbLine
62
7
6
CONTINUOUS
10
196.7915679869
20
361.3471806346
11
196.7915679869
21
494.5475973085
0
LINE
5
265
100
AcDbEntity
8
0
100
AcDbLine
62
7
6
CONTINUOUS
10
207.2915679869
20
383.3471806346
11
207.2915679869
21
457.6471806346
0
LINE
5
266
100
AcDbEntity
8
0
100
AcDbLine
62
7
6
CONTINUOUS
10
213.2915679869
20
472.5261570813
11
213.2915679869
21
458.6471806346
0
LINE
5
267
100
AcDbEntity
8
0
100
AcDbLine
62
7
6
CONTINUOUS
10
222.0915679869
20
488.9471806346
11
222.0915679869
21
506.5471806346
0
LINE
5
268
100
AcDbEntity
8
0
100
AcDbLine
62
7
6
CONTINUOUS
10
185.7915679869
20
361.3471806346
11
177.5537053610
21
375.1452826547
0
LINE
5
269
100
AcDbEntity
8
0
100
AcDbLine
62
7
6
CONTINUOUS
10
178.2739562780
20
458.1471806346
11
160.4915679869
21
488.9471806346
0
LINE
5
26A
100
AcDbEntity
8
0
100
AcDbLine
62
7
6
CONTINUOUS
10
281.2915679869
20
149.3471806346
11
281.2915679869
21
309.3471806346
0
LINE
5
26B
100
AcDbEntity
8
0
100
AcDbLine
62
7
6
CONTINUOUS
10
196.7915679869
20
361.3471806346
11
185.7915679869
21
361.3471806346
0
LINE
5
26C
100
AcDbEntity
8
0
100
AcDbLine
62
7
6
CONTINUOUS
10
326.2915679869
20
149.3471806346
11
326.2915679869
21
309.3471806346
0
LINE
5
26D
100
AcDbEntity
8
0
100
AcDbLine
62
7
6
CONTINUOUS
10
212.2915679869
20
457.6471806346
11
207.0860396386
21
457.6471806346
0
LINE
5
26E
100
AcDbEntity
8
DEFAULT_2
100
AcDbLine
62
8
6
HIDDEN
10
203.4808657949
20
457.6471806346
11
203.4431542921
21
457.6471806346
0
LINE
5
26F
100
AcDbEntity
8
0
100
AcDbLine
62
7
6
CONTINUOUS
10
180.9162506234
20
457.6471806346
11
179.1399816817
21
457.6471806346
0
LINE
5
270
100
AcDbEntity
8
0
100
AcDbLine
62
7
6
CONTINUOUS
10
175.4970963352
20
457.6471806346
11
170.2915679869
21
457.6471806346
0
LINE
5
271
100
AcDbEntity
8
DEFAULT_2
100
AcDbLine
62
8
6
HIDDEN
10
175.4970963352
20
457.6471806346
11
178.5671819506
21
457.6471806346
0
LINE
5
272
100
AcDbEntity
8
DEFAULT_2
100
AcDbLine
62
8
6
HIDDEN
10
179.1020578384
20
457.6471806346
11
179.1399816817
21
457.6471806346
0
LINE
5
273
100
AcDbEntity
8
0
100
AcDbLine
62
7
6
CONTINUOUS
10
201.6668853504
20
457.6471806346
11
203.4431542921
21
457.6471806346
0
LINE
5
274
100
AcDbEntity
8
DEFAULT_2
100
AcDbLine
62
8
6
HIDDEN
10
204.0159540232
20
457.6471806346
11
207.0860396386
21
457.6471806346
0
LINE
5
275
100
AcDbEntity
8
DEFAULT_1
100
AcDbLine
62
2
6
CENTER
10
191.2915679869
20
506.5471806346
11
175.0915679869
21
506.5471806346
0
LINE
5
276
100
AcDbEntity
8
DEFAULT_1
100
AcDbLine
62
2
6
CENTER
10
191.2915679869
20
506.5471806346
11
207.4915679869
21
506.5471806346
0
LINE
5
277
100
AcDbEntity
8
0
100
AcDbLine
62
7
6
CONTINUOUS
10
218.6323507149
20
520.7289153600
11
163.9507852590
21
520.7289153600
0
LINE
5
278
100
AcDbEntity
8
0
100
AcDbLine
62
7
6
CONTINUOUS
10
457.7942546806
20
537.3471806346
11
444.1382013068
21
520.7289153600
0
LINE
5
279
100
AcDbEntity
8
0
100
AcDbLine
62
7
6
CONTINUOUS
10
432.1105051141
20
436.4606640053
11
444.1382013068
21
504.6731187553
0
LINE
5
27A
100
AcDbEntity
8
DEFAULT_2
100
AcDbLine
62
8
6
HIDDEN
10
517.4779201790
20
207.8471825419
11
517.1368251841
21
207.8471825419
0
LINE
5
27B
100
AcDbEntity
8
0
100
AcDbLine
62
7
6
CONTINUOUS
10
517.1368251841
20
207.8471825419
11
516.8382013068
21
207.8471825419
0
LINE
5
27C
100
AcDbEntity
8
DEFAULT_2
100
AcDbLine
62
8
6
HIDDEN
10
517.5769136862
20
208.0971787272
11
516.8382013068
21
208.0971787272
0
LINE
5
27D
100
AcDbEntity
8
DEFAULT_2
100
AcDbLine
62
8
6
HIDDEN
10
517.6204487214
20
208.5971825419
11
516.8382013068
21
208.5971825419
0
LINE
5
27E
100
AcDbEntity
8
DEFAULT_2
100
AcDbLine
62
8
6
HIDDEN
10
517.0209524501
20
209.0971806346
11
516.8382013068
21
209.0971806346
0
LINE
5
27F
100
AcDbEntity
8
DEFAULT_2
100
AcDbLine
62
8
6
HIDDEN
10
517.4779201790
20
209.3471825419
11
516.8382013068
21
209.3471825419
0
LINE
5
280
100
AcDbEntity
8
DEFAULT_2
100
AcDbLine
62
8
6
HIDDEN
10
517.5769136862
20
209.8471806346
11
516.8382013068
21
209.8471806346
0
LINE
5
281
100
AcDbEntity
8
DEFAULT_2
100
AcDbLine
62
8
6
HIDDEN
10
516.8924800025
20
210.0971825419
11
516.8382013068
21
210.0971825419
0
LINE
5
282
100
AcDbEntity
8
DEFAULT_2
100
AcDbLine
62
8
6
HIDDEN
10
517.1900994984
20
210.5971806346
11
516.8382013068
21
210.5971806346
0
LINE
5
283
100
AcDbEntity
8
DEFAULT_2
100
AcDbLine
62
8
6
HIDDEN
10
517.1368251457
20
211.8471787272
11
516.8382013068
21
211.8471787272
0
LINE
5
284
100
AcDbEntity
8
DEFAULT_2
100
AcDbLine
62
8
6
HIDDEN
10
517.1368251457
20
212.8471806346
11
516.8382013068
21
212.8471806346
0
LINE
5
285
100
AcDbEntity
8
DEFAULT_2
100
AcDbLine
62
8
6
HIDDEN
10
517.1900994984
20
214.0971787272
11
516.8382013068
21
214.0971787272
0
LINE
5
286
100
AcDbEntity
8
DEFAULT_2
100
AcDbLine
62
8
6
HIDDEN
10
516.8924800025
20
214.3471806346
11
516.8382013068
21
214.3471806346
0
LINE
5
287
100
AcDbEntity
8
DEFAULT_2
100
AcDbLine
62
8
6
HIDDEN
10
517.2874363462
20
214.8471787272
11
517.1368251841
21
214.8471787272
0
LINE
5
288
100
AcDbEntity
8
0
100
AcDbLine
62
7
6
CONTINUOUS
10
517.1368251841
20
214.8471787272
11
516.8382013068
21
214.8471787272
0
LINE
5
289
100
AcDbEntity
8
DEFAULT_2
100
AcDbLine
62
8
6
HIDDEN
10
517.4107043884
20
215.3471825419
11
516.8382013068
21
215.3471825419
0
LINE
5
28A
100
AcDbEntity
8
DEFAULT_2
100
AcDbLine
62
8
6
HIDDEN
10
517.2402962572
20
216.3471787272
11
516.8382013068
21
216.3471787272
0
LINE
5
28B
100
AcDbEntity
8
DEFAULT_2
100
AcDbLine
62
8
6
HIDDEN
10
517.4107043884
20
216.5971806346
11
516.8382013068
21
216.5971806346
0
LINE
5
28C
100
AcDbEntity
8
0
100
AcDbLine
62
7
6
CONTINUOUS
10
517.1368251841
20
216.8471825419
11
516.8382013068
21
216.8471825419
0
LINE
5
28D
100
AcDbEntity
8
DEFAULT_2
100
AcDbLine
62
8
6
HIDDEN
10
517.4779201790
20
218.8471806346
11
517.1368251841
21
218.8471806346
0
LINE
5
28E
100
AcDbEntity
8
0
100
AcDbLine
62
7
6
CONTINUOUS
10
517.1368251841
20
218.8471806346
11
516.8382013068
21
218.8471806346
0
LINE
5
28F
100
AcDbEntity
8
DEFAULT_2
100
AcDbLine
62
8
6
HIDDEN
10
517.5769136862
20
219.0971825419
11
516.8382013068
21
219.0971825419
0
LINE
5
290
100
AcDbEntity
8
DEFAULT_2
100
AcDbLine
62
8
6
HIDDEN
10
517.6204487214
20
219.5971806346
11
516.8382013068
21
219.5971806346
0
LINE
5
291
100
AcDbEntity
8
DEFAULT_2
100
AcDbLine
62
8
6
HIDDEN
10
517.0209524501
20
220.0971787272
11
516.8382013068
21
220.0971787272
0
LINE
5
292
100
AcDbEntity
8
DEFAULT_2
100
AcDbLine
62
8
6
HIDDEN
10
517.4779201790
20
220.3471806346
11
516.8382013068
21
220.3471806346
0
LINE
5
293
100
AcDbEntity
8
DEFAULT_2
100
AcDbLine
62
8
6
HIDDEN
10
517.5769136862
20
220.8471787272
11
516.8382013068
21
220.8471787272
0
LINE
5
294
100
AcDbEntity
8
DEFAULT_2
100
AcDbLine
62
8
6
HIDDEN
10
516.8924800025
20
221.0971806346
11
516.8382013068
21
221.0971806346
0
LINE
5
295
100
AcDbEntity
8
DEFAULT_2
100
AcDbLine
62
8
6
HIDDEN
10
517.1900994984
20
221.5971787272
11
516.8382013068
21
221.5971787272
0
LINE
5
296
100
AcDbEntity
8
DEFAULT_2
100
AcDbLine
62
8
6
HIDDEN
10
517.1368251457
20
222.8471825419
11
516.8382013068
21
222.8471825419
0
LINE
5
297
100
AcDbEntity
8
DEFAULT_2
100
AcDbLine
62
8
6
HIDDEN
10
517.1368251457
20
223.8471787272
11
516.8382013068
21
223.8471787272
0
LINE
5
298
100
AcDbEntity
8
0
100
AcDbLine
62
7
6
CONTINUOUS
10
444.1382013068
20
457.6471806346
11
444.1382013068
21
520.7289153600
0
LINE
5
299
100
AcDbEntity
8
DEFAULT_2
100
AcDbLine
62
8
6
HIDDEN
10
517.1900994984
20
225.0971825419
11
516.8382013068
21
225.0971825419
0
LINE
5
29A
100
AcDbEntity
8
DEFAULT_2
100
AcDbLine
62
8
6
HIDDEN
10
516.8924800025
20
225.3471787272
11
516.8382013068
21
225.3471787272
0
LINE
5
29B
100
AcDbEntity
8
DEFAULT_2
100
AcDbLine
62
8
6
HIDDEN
10
517.2874363462
20
225.8471825419
11
517.1368251841
21
225.8471825419
0
LINE
5
29C
100
AcDbEntity
8
0
100
AcDbLine
62
7
6
CONTINUOUS
10
517.1368251841
20
225.8471825419
11
516.8382013068
21
225.8471825419
0
LINE
5
29D
100
AcDbEntity
8
DEFAULT_2
100
AcDbLine
62
8
6
HIDDEN
10
517.4107043884
20
226.3471806346
11
516.8382013068
21
226.3471806346
0
LINE
5
29E
100
AcDbEntity
8
DEFAULT_2
100
AcDbLine
62
8
6
HIDDEN
10
517.2402962572
20
227.3471796809
11
516.8382013068
21
227.3471796809
0
LINE
5
29F
100
AcDbEntity
8
DEFAULT_2
100
AcDbLine
62
8
6
HIDDEN
10
517.4107043884
20
227.5971815882
11
516.8382013068
21
227.5971815882
0
LINE
5
2A0
100
AcDbEntity
8
0
100
AcDbLine
62
7
6
CONTINUOUS
10
517.1368251841
20
227.8471806346
11
516.8382013068
21
227.8471806346
0
LINE
5
2A1
100
AcDbEntity
8
DEFAULT_2
100
AcDbLine
62
8
6
HIDDEN
10
517.5769136597
20
229.8471815882
11
516.8382013068
21
229.8471815882
0
LINE
5
2A2
100
AcDbEntity
8
0
100
AcDbLine
62
7
6
CONTINUOUS
10
517.5769136597
20
229.8471815882
11
517.6349416781
21
229.8471815882
0
LINE
5
2A3
100
AcDbEntity
8
0
100
AcDbLine
62
7
6
CONTINUOUS
10
517.6349416781
20
233.3471796809
11
517.5769136597
21
233.3471796809
0
LINE
5
2A4
100
AcDbEntity
8
DEFAULT_2
100
AcDbLine
62
8
6
HIDDEN
10
517.5769136597
20
233.3471796809
11
516.8382013068
21
233.3471796809
0
LINE
5
2A5
100
AcDbEntity
8
0
100
AcDbLine
62
7
6
CONTINUOUS
10
516.8382013068
20
235.3471806346
11
517.6382013068
21
235.3471806346
0
LINE
5
2A6
100
AcDbEntity
8
0
100
AcDbLine
62
7
6
CONTINUOUS
10
517.6382012612
20
236.8471806346
11
516.8382013068
21
236.8471806346
0
LINE
5
2A7
100
AcDbEntity
8
DEFAULT_2
100
AcDbLine
62
8
6
HIDDEN
10
517.5332940210
20
238.3471806346
11
516.8382013068
21
238.3471806346
0
LINE
5
2A8
100
AcDbEntity
8
0
100
AcDbLine
62
7
6
CONTINUOUS
10
466.1390633886
20
488.9471806346
11
466.1390633886
21
537.3471806346
0
LINE
5
2A9
100
AcDbEntity
8
0
100
AcDbLine
62
7
6
CONTINUOUS
10
472.6382013068
20
421.7843565542
11
472.6382013068
21
36.8471806346
0
LINE
5
2AA
100
AcDbEntity
8
DEFAULT_2
100
AcDbLine
62
8
6
HIDDEN
10
517.4457987668
20
254.8471806346
11
516.8382013068
21
254.8471806346
0
LINE
5
2AB
100
AcDbEntity
8
0
100
AcDbLine
62
7
6
CONTINUOUS
10
517.5565683736
20
255.0971811114
11
517.4457987668
21
255.0971811114
0
LINE
5
2AC
100
AcDbEntity
8
DEFAULT_2
100
AcDbLine
62
8
6
HIDDEN
10
517.4457987668
20
255.0971811114
11
516.8382013068
21
255.0971811114
0
LINE
5
2AD
100
AcDbEntity
8
DEFAULT_2
100
AcDbLine
62
8
6
HIDDEN
10
517.0804507825
20
257.3471811114
11
516.8382013068
21
257.3471811114
0
LINE
5
2AE
100
AcDbEntity
8
0
100
AcDbLine
62
7
6
CONTINUOUS
10
517.5565683736
20
259.5971811114
11
517.4457987668
21
259.5971811114
0
LINE
5
2AF
100
AcDbEntity
8
DEFAULT_2
100
AcDbLine
62
8
6
HIDDEN
10
517.4457987668
20
259.5971811114
11
516.8382013068
21
259.5971811114
0
LINE
5
2B0
100
AcDbEntity
8
DEFAULT_2
100
AcDbLine
62
8
6
HIDDEN
10
517.4457987668
20
259.8471801577
11
516.8382013068
21
259.8471801577
0
LINE
5
2B1
100
AcDbEntity
8
0
100
AcDbLine
62
7
6
CONTINUOUS
10
482.8182013068
20
532.8112707210
11
482.8182013068
21
477.0671803036
0
LINE
5
2B2
100
AcDbEntity
8
DEFAULT_1
100
AcDbLine
62
2
6
CENTER
10
495.1382013068
20
532.7495834063
11
495.1382013068
21
299.2249169385
0
LINE
5
2B3
100
AcDbEntity
8
DEFAULT_1
100
AcDbLine
62
2
6
CENTER
10
495.1382013068
20
11.3471806346
11
495.1382013068
21
184.3611582287
0
LINE
5
2B4
100
AcDbEntity
8
0
100
AcDbLine
62
7
6
CONTINUOUS
10
517.1900995346
20
269.3471807538
11
516.8382013068
21
269.3471807538
0
LINE
5
2B5
100
AcDbEntity
8
0
100
AcDbLine
62
7
6
CONTINUOUS
10
507.4582013068
20
477.0671806346
11
507.4582013068
21
532.8112707210
0
LINE
5
2B6
100
AcDbEntity
8
DEFAULT_2
100
AcDbLine
62
8
6
HIDDEN
10
516.8382013068
20
274.3293231337
11
516.8382013068
21
270.3650380163
0
LINE
5
2B7
100
AcDbEntity
8
DEFAULT_2
100
AcDbLine
62
8
6
HIDDEN
10
516.8382013068
20
268.3293231353
11
516.8382013068
21
264.3650383723
0
LINE
5
2B8
100
AcDbEntity
8
DEFAULT_2
100
AcDbLine
62
8
6
HIDDEN
10
516.8382013068
20
260.8296951571
11
516.8382013068
21
253.8646656352
0
LINE
5
2B9
100
AcDbEntity
8
0
100
AcDbLine
62
7
6
CONTINUOUS
10
516.8382013068
20
253.8646656352
11
516.8382013068
21
252.3650376602
0
LINE
5
2BA
100
AcDbEntity
8
DEFAULT_2
100
AcDbLine
62
8
6
HIDDEN
10
516.8382013068
20
238.3471806346
11
516.8382013068
21
236.8471806346
0
LINE
5
2BB
100
AcDbEntity
8
0
100
AcDbLine
62
7
6
CONTINUOUS
10
516.8382013068
20
236.8471806346
11
516.8382013068
21
235.3471806346
0
LINE
5
2BC
100
AcDbEntity
8
DEFAULT_2
100
AcDbLine
62
8
6
HIDDEN
10
516.8382013068
20
233.3471796809
11
516.8382013068
21
229.8471815882
0
LINE
5
2BD
100
AcDbEntity
8
0
100
AcDbLine
62
7
6
CONTINUOUS
10
516.8382013068
20
227.8471806346
11
516.8382013068
21
218.8471806346
0
LINE
5
2BE
100
AcDbEntity
8
0
100
AcDbLine
62
7
6
CONTINUOUS
10
516.8382013068
20
216.8471825419
11
516.8382013068
21
207.8471825419
0
LINE
5
2BF
100
AcDbEntity
8
0
100
AcDbLine
62
7
6
CONTINUOUS
10
516.8382013068
20
260.8296951571
11
516.8382013068
21
262.3293231321
0
LINE
5
2C0
100
AcDbEntity
8
0
100
AcDbLine
62
7
6
CONTINUOUS
10
516.8382013068
20
268.3293231353
11
516.8382013068
21
270.3650380163
0
LINE
5
2C1
100
AcDbEntity
8
0
100
AcDbLine
62
7
6
CONTINUOUS
10
517.1368251841
20
225.8471825419
11
517.1368251841
21
218.8471806346
0
LINE
5
2C2
100
AcDbEntity
8
0
100
AcDbLine
62
7
6
CONTINUOUS
10
517.1368251841
20
214.8471787272
11
517.1368251841
21
207.8471825419
0
LINE
5
2C3
100
AcDbEntity
8
DEFAULT_2
100
AcDbLine
62
8
6
HIDDEN
10
517.4107043884
20
227.5971815882
11
517.4107043884
21
226.3471806346
0
LINE
5
2C4
100
AcDbEntity
8
DEFAULT_2
100
AcDbLine
62
8
6
HIDDEN
10
517.4107043884
20
216.5971806346
11
517.4107043884
21
215.3471825419
0
LINE
5
2C5
100
AcDbEntity
8
0
100
AcDbLine
62
7
6
CONTINUOUS
10
517.4457987668
20
259.8471801577
11
517.4457987668
21
254.8471806346
0
LINE
5
2C6
100
AcDbEntity
8
0
100
AcDbLine
62
7
6
CONTINUOUS
10
517.5565683736
20
259.5971811114
11
517.5565683736
21
255.0971811114
0
LINE
5
2C7
100
AcDbEntity
8
0
100
AcDbLine
62
7
6
CONTINUOUS
10
517.5769136597
20
233.3471796809
11
517.5769136597
21
229.8471815882
0
LINE
5
2C8
100
AcDbEntity
8
0
100
AcDbLine
62
7
6
CONTINUOUS
10
517.6349416781
20
233.3471796809
11
517.6349416781
21
229.8471815882
0
LINE
5
2C9
100
AcDbEntity
8
0
100
AcDbLine
62
7
6
CONTINUOUS
10
517.6382013068
20
229.8471815882
11
517.6382013068
21
222.6675220418
0
LINE
5
2CA
100
AcDbEntity
8
0
100
AcDbLine
62
7
6
CONTINUOUS
10
517.6382013068
20
220.5914645612
11
517.6382013068
21
211.6675239492
0
LINE
5
2CB
100
AcDbEntity
8
0
100
AcDbLine
62
7
6
CONTINUOUS
10
517.6382013068
20
209.5914655583
11
517.6382013068
21
36.8471806346
0
LINE
5
2CC
100
AcDbEntity
8
DEFAULT_2
100
AcDbLine
62
8
6
HIDDEN
10
517.6382013068
20
209.5914655583
11
517.6382013068
21
209.5933751093
0
LINE
5
2CD
100
AcDbEntity
8
0
100
AcDbLine
62
7
6
CONTINUOUS
10
517.6382013068
20
209.5933751093
11
517.6382013068
21
209.8471806346
0
LINE
5
2CE
100
AcDbEntity
8
DEFAULT_2
100
AcDbLine
62
8
6
HIDDEN
10
517.6382013068
20
209.8471806346
11
517.6382013068
21
211.6684219297
0
LINE
5
2CF
100
AcDbEntity
8
DEFAULT_2
100
AcDbLine
62
8
6
HIDDEN
10
517.6382013068
20
220.5914645612
11
517.6382013068
21
220.5933741148
0
LINE
5
2D0
100
AcDbEntity
8
0
100
AcDbLine
62
7
6
CONTINUOUS
10
517.6382013068
20
220.5933741148
11
517.6382013068
21
220.8471787272
0
LINE
5
2D1
100
AcDbEntity
8
DEFAULT_2
100
AcDbLine
62
8
6
HIDDEN
10
517.6382013068
20
220.8471787272
11
517.6382013068
21
222.6684200223
0
LINE
5
2D2
100
AcDbEntity
8
DEFAULT_2
100
AcDbLine
62
8
6
HIDDEN
10
517.6382013068
20
229.8471815882
11
517.6382013068
21
233.3471796809
0
LINE
5
2D3
100
AcDbEntity
8
0
100
AcDbLine
62
7
6
CONTINUOUS
10
517.6382013068
20
233.3471796809
11
517.6382013068
21
421.7843565542
0
LINE
5
2D4
100
AcDbEntity
8
0
100
AcDbLine
62
7
6
CONTINUOUS
10
524.1373392251
20
537.3471806346
11
524.1373392251
21
488.9471806346
0
LINE
5
2D5
100
AcDbEntity
8
DEFAULT_2
100
AcDbLine
62
8
6
HIDDEN
10
517.6380651247
20
220.5933741148
11
517.6204487214
21
219.5971806346
0
LINE
5
2D6
100
AcDbEntity
8
DEFAULT_2
100
AcDbLine
62
8
6
HIDDEN
10
517.6380651248
20
209.5933751093
11
517.6204487214
21
208.5971825419
0
LINE
5
2D7
100
AcDbEntity
8
0
100
AcDbLine
62
7
6
CONTINUOUS
10
546.1382013068
20
457.6471806346
11
546.1382013068
21
520.7289153600
0
LINE
5
2D8
100
AcDbEntity
8
0
100
AcDbLine
62
7
6
CONTINUOUS
10
558.1658974996
20
436.4606640053
11
547.9236039317
21
494.5475973085
0
LINE
5
2D9
100
AcDbEntity
8
0
100
AcDbLine
62
7
6
CONTINUOUS
10
546.1382013068
20
457.6471806346
11
543.0526215066
21
457.6471806346
0
LINE
5
2DA
100
AcDbEntity
8
0
100
AcDbLine
62
7
6
CONTINUOUS
10
534.6864916939
20
457.6471806346
11
455.5899109198
21
457.6471806346
0
LINE
5
2DB
100
AcDbEntity
8
0
100
AcDbLine
62
7
6
CONTINUOUS
10
447.2234199582
20
457.6471806346
11
444.1382013068
21
457.6471806346
0
LINE
5
2DC
100
AcDbEntity
8
0
100
AcDbLine
62
7
6
CONTINUOUS
10
546.1382013068
20
520.7289153600
11
532.4821479331
21
537.3471806346
0
LINE
5
2DD
100
AcDbEntity
8
0
100
AcDbLine
62
7
6
CONTINUOUS
10
507.4582013068
20
493.3471806346
11
482.8182013068
21
493.3471806346
0
LINE
5
2DE
100
AcDbEntity
8
DEFAULT_1
100
AcDbLine
62
2
6
CENTER
10
479.8182013068
20
506.5471806346
11
510.4582013068
21
506.5471806346
0
LINE
5
2DF
100
AcDbEntity
8
0
100
AcDbLine
62
7
6
CONTINUOUS
10
507.4582013068
20
519.7471806346
11
482.8182013068
21
519.7471806346
0
LINE
5
2E0
100
AcDbEntity
8
0
100
AcDbLine
62
7
6
CONTINUOUS
10
457.7942546806
20
537.3471806346
11
466.1390633886
21
537.3471806346
0
LINE
5
2E1
100
AcDbEntity
8
0
100
AcDbLine
62
7
6
CONTINUOUS
10
524.1373392251
20
537.3471806346
11
532.4821479331
21
537.3471806346
0
ARC
5
2E2
100
AcDbEntity
8
DEFAULT_2
100
AcDbCircle
62
8
6
HIDDEN
10
191.2915679869
20
309.3471806346
40
90.0000000000
100
AcDbArc
50
79.7596069119
51
100.2403930881
0
ARC
5
2E3
100
AcDbEntity
8
DEFAULT_2
100
AcDbCircle
62
8
6
HIDDEN
10
191.2915679869
20
309.3471806346
40
135.0000000000
100
AcDbArc
50
83.1925575149
51
96.8074424851
0
ARC
5
2E4
100
AcDbEntity
8
0
100
AcDbCircle
62
7
6
CONTINUOUS
10
191.2915679869
20
383.3471806346
40
16.0000000000
100
AcDbArc
50
180.0000000000
51
210.8384129101
0
ARC
5
2E5
100
AcDbEntity
8
0
100
AcDbCircle
62
7
6
CONTINUOUS
10
191.2915679869
20
383.3471806346
40
16.0000000000
100
AcDbArc
50
329.1615870899
51
360.0000000000
0
ARC
5
2E6
100
AcDbEntity
8
0
100
AcDbCircle
62
7
6
CONTINUOUS
10
203.4431542921
20
458.6471806346
40
1.0000000000
100
AcDbArc
50
270.0000000000
51
330.0000000000
0
ARC
5
2E7
100
AcDbEntity
8
0
100
AcDbCircle
62
7
6
CONTINUOUS
10
212.2915679869
20
458.6471806346
40
1.0000000000
100
AcDbArc
50
270.0000000000
51
360.0000000000
0
ARC
5
2E8
100
AcDbEntity
8
0
100
AcDbCircle
62
7
6
CONTINUOUS
10
217.6915679869
20
472.5261570813
40
4.4000000000
100
AcDbArc
50
150.0000000000
51
180.0000000000
0
ARC
5
2E9
100
AcDbEntity
8
0
100
AcDbCircle
62
7
6
CONTINUOUS
10
191.2915679869
20
506.5471806346
40
30.8000000000
100
AcDbArc
50
0.0000000000
51
180.0000000000
0
ARC
5
2EA
100
AcDbEntity
8
0
100
AcDbCircle
62
7
6
CONTINUOUS
10
164.8915679869
20
472.5261570813
40
4.4000000000
100
AcDbArc
50
0.0000000000
51
30.0000000000
0
CIRCLE
5
2EB
100
AcDbEntity
8
0
100
AcDbCircle
62
7
6
CONTINUOUS
10
191.2915679869
20
506.5471806346
40
13.2000000000
0
ARC
5
2EC
100
AcDbEntity
8
0
100
AcDbCircle
62
7
6
CONTINUOUS
10
170.2915679869
20
458.6471806346
40
1.0000000000
100
AcDbArc
50
180.0000000000
51
270.0000000000
0
ARC
5
2ED
100
AcDbEntity
8
0
100
AcDbCircle
62
7
6
CONTINUOUS
10
179.1399816817
20
458.6471806346
40
1.0000000000
100
AcDbArc
50
210.0000000000
51
270.0000000000
0
ARC
5
2EE
100
AcDbEntity
8
0
100
AcDbCircle
62
7
6
CONTINUOUS
10
191.2915679869
20
309.3471806346
40
90.0000000000
100
AcDbArc
50
0.0000000000
51
79.7596069119
0
ARC
5
2EF
100
AcDbEntity
8
0
100
AcDbCircle
62
7
6
CONTINUOUS
10
191.2915679869
20
309.3471806346
40
90.0000000000
100
AcDbArc
50
100.2403930881
51
180.0000000000
0
ARC
5
2F0
100
AcDbEntity
8
0
100
AcDbCircle
62
7
6
CONTINUOUS
10
191.2915679869
20
309.3471806346
40
135.0000000000
100
AcDbArc
50
0.0000000000
51
83.1925575149
0
ARC
5
2F1
100
AcDbEntity
8
0
100
AcDbCircle
62
7
6
CONTINUOUS
10
191.2915679869
20
309.3471806346
40
135.0000000000
100
AcDbArc
50
96.8074424851
51
180.0000000000
0
ARC
5
2F2
100
AcDbEntity
8
0
100
AcDbCircle
62
7
6
CONTINUOUS
10
191.2915679869
20
149.3471806346
40
90.0000000000
100
AcDbArc
50
180.0000000000
51
360.0000000000
0
ARC
5
2F3
100
AcDbEntity
8
0
100
AcDbCircle
62
7
6
CONTINUOUS
10
191.2915679869
20
149.3471806346
40
135.0000000000
100
AcDbArc
50
180.0000000000
51
360.0000000000
0
ARC
5
2F4
100
AcDbEntity
8
DEFAULT_2
100
AcDbCircle
62
8
6
HIDDEN
10
495.1382013068
20
421.8471806346
40
22.5000000000
100
AcDbArc
50
180.0000000000
51
360.0000000000
0
ARC
5
2F5
100
AcDbEntity
8
DEFAULT_2
100
AcDbCircle
62
8
6
HIDDEN
10
495.1382013068
20
36.8471806346
40
22.5000000000
100
AcDbArc
50
0.0000000000
51
180.0000000000
0
ARC
5
2F6
100
AcDbEntity
8
DEFAULT_2
100
AcDbCircle
62
8
6
HIDDEN
10
495.1382013068
20
425.3471806346
40
64.0000000000
100
AcDbArc
50
249.4060834873
51
290.5939165127
0
ARC
5
2F7
100
AcDbEntity
8
DEFAULT_2
100
AcDbCircle
62
8
6
HIDDEN
10
495.1382013068
20
425.3471806346
40
26.0000000000
100
AcDbArc
50
210.0683531548
51
329.9316468452
0
ARC
5
2F8
100
AcDbEntity
8
0
100
AcDbCircle
62
7
6
CONTINUOUS
10
495.1382013068
20
425.3471806346
40
64.0000000000
100
AcDbArc
50
290.5939165127
51
10.0000000000
0
ARC
5
2F9
100
AcDbEntity
8
0
100
AcDbCircle
62
7
6
CONTINUOUS
10
495.1382013068
20
611.0471806346
40
79.2000000000
100
AcDbArc
50
278.9490180653
51
291.4784178411
0
ARC
5
2FA
100
AcDbEntity
8
0
100
AcDbCircle
62
7
6
CONTINUOUS
10
495.1382013068
20
611.0471806346
40
79.2000000000
100
AcDbArc
50
248.5215821589
51
261.0509819347
0
ARC
5
2FB
100
AcDbEntity
8
0
100
AcDbCircle
62
7
6
CONTINUOUS
10
495.1382013068
20
425.3471806346
40
26.0000000000
100
AcDbArc
50
329.9316468452
51
210.0683531548
0
CIRCLE
5
2FC
100
AcDbEntity
8
0
100
AcDbCircle
62
7
6
CONTINUOUS
10
534.0782013068
20
506.5471806346
40
5.5000000000
0
ARC
5
2FD
100
AcDbEntity
8
0
100
AcDbCircle
62
7
6
CONTINUOUS
10
495.1382013068
20
477.0671806346
40
12.3200000000
100
AcDbArc
50
180.0000007695
51
360.0000000000
0
ARC
5
2FE
100
AcDbEntity
8
0
100
AcDbCircle
62
7
6
CONTINUOUS
10
495.1382013068
20
425.3471806346
40
64.0000000000
100
AcDbArc
50
170.0000000000
51
249.4060834873
0
ARC
5
2FF
100
AcDbEntity
8
0
100
AcDbCircle
62
7
6
CONTINUOUS
10
495.1382013068
20
421.8471806346
40
22.5000000000
100
AcDbArc
50
0.0000000000
51
180.0000000000
0
ARC
5
300
100
AcDbEntity
8
0
100
AcDbCircle
62
7
6
CONTINUOUS
10
495.1382013068
20
36.8471806346
40
22.5000000000
100
AcDbArc
50
180.0000000000
51
360.0000000000
0
SPLINE
5
301
100
AcDbEntity
8
DEFAULT_2
100
AcDbSpline
62
8
6
HIDDEN
70
0
71
3
72
10
73
6
74
4
42
0.0000001000
43
0.0000001000
44
0.0000000001
40
0.0000000000
40
0.0000000000
40
0.0000000000
40
0.0000000000
40
0.3393366007
40
0.6643118141
40
1.0000000000
40
1.0000000000
40
1.0000000000
40
1.0000000000
10
205.8229303823
20
458.3286981084
30
0.0000000000
10
205.7390604407
20
458.3753598613
30
0.0000000000
10
205.5535510147
20
458.4510239903
30
0.0000000000
10
205.2711124026
20
458.3612087565
30
0.0000000000
10
205.1114657882
20
458.2674139551
30
0.0000000000
10
205.0294306128
20
458.2196153728
30
0.0000000000
11
205.8229303823
21
458.3286981084
31
0.0000000000
11
205.5489879794
21
458.4173487507
31
0.0000000000
11
205.2806589856
21
458.3538337583
31
0.0000000000
11
205.0294306128
21
458.2196153728
31
0.0000000000
0
SPLINE
5
302
100
AcDbEntity
8
DEFAULT_2
100
AcDbSpline
62
8
6
HIDDEN
70
0
71
3
72
10
73
6
74
4
42
0.0000001000
43
0.0000001000
44
0.0000000001
40
0.0000000000
40
0.0000000000
40
0.0000000000
40
0.0000000000
40
0.2533365914
40
0.6085622710
40
1.0000000000
40
1.0000000000
40
1.0000000000
40
1.0000000000
10
203.9779435233
20
457.7305074655
30
0.0000000000
10
203.9370355267
20
457.7183102513
30
0.0000000000
10
203.8380404057
20
457.6914390295
30
0.0000000000
10
203.6725775077
20
457.6587362518
30
0.0000000000
10
203.5468058878
20
457.6479341620
30
0.0000000000
10
203.4808657949
20
457.6471806346
30
0.0000000000
11
203.9779435233
21
457.7305074655
31
0.0000000000
11
203.8543202636
21
457.6971457548
31
0.0000000000
11
203.6780653086
21
457.6630022875
31
0.0000000000
11
203.4808657949
21
457.6471806346
31
0.0000000000
0
SPLINE
5
303
100
AcDbEntity
8
DEFAULT_2
100
AcDbSpline
62
8
6
HIDDEN
70
0
71
3
72
10
73
6
74
4
42
0.0000001000
43
0.0000001000
44
0.0000000001
40
0.0000000000
40
0.0000000000
40
0.0000000000
40
0.0000000000
40
0.3393366007
40
0.6643118141
40
1.0000000000
40
1.0000000000
40
1.0000000000
40
1.0000000000
10
176.7602055916
20
458.3286981084
30
0.0000000000
10
176.8440755331
20
458.3753598613
30
0.0000000000
10
177.0295849591
20
458.4510239903
30
0.0000000000
10
177.3120235713
20
458.3612087565
30
0.0000000000
10
177.4716701856
20
458.2674139551
30
0.0000000000
10
177.5537053610
20
458.2196153728
30
0.0000000000
11
176.7602055916
21
458.3286981084
31
0.0000000000
11
177.0341479944
21
458.4173487507
31
0.0000000000
11
177.3024769883
21
458.3538337583
31
0.0000000000
11
177.5537053610
21
458.2196153728
31
0.0000000000
0
SPLINE
5
304
100
AcDbEntity
8
DEFAULT_2
100
AcDbSpline
62
8
6
HIDDEN
70
0
71
3
72
10
73
6
74
4
42
0.0000001000
43
0.0000001000
44
0.0000000001
40
0.0000000000
40
0.0000000000
40
0.0000000000
40
0.0000000000
40
0.2533365914
40
0.6085622710
40
1.0000000000
40
1.0000000000
40
1.0000000000
40
1.0000000000
10
178.6051924505
20
457.7305074655
30
0.0000000000
10
178.6461004472
20
457.7183102513
30
0.0000000000
10
178.7450955681
20
457.6914390295
30
0.0000000000
10
178.9105584662
20
457.6587362518
30
0.0000000000
10
179.0363300860
20
457.6479341620
30
0.0000000000
10
179.1022701789
20
457.6471806346
30
0.0000000000
11
178.6051924505
21
457.7305074655
31
0.0000000000
11
178.7288157103
21
457.6971457548
31
0.0000000000
11
178.9050706652
21
457.6630022875
31
0.0000000000
11
179.1022701789
21
457.6471806346
31
0.0000000000
0
SPLINE
5
305
100
AcDbEntity
8
DEFAULT_2
100
AcDbSpline
62
8
6
HIDDEN
70
0
71
3
72
8
73
4
74
2
42
0.0000001000
43
0.0000001000
44
0.0000000001
40
0.0000000000
40
0.0000000000
40
0.0000000000
40
0.0000000000
40
1.0000000000
40
1.0000000000
40
1.0000000000
40
1.0000000000
10
203.4810781355
20
457.6471806346
30
0.0000000000
10
203.5184226906
20
457.6476137134
30
0.0000000000
10
203.5557654347
20
457.6496205322
30
0.0000000000
10
203.5930003124
20
457.6529906511
30
0.0000000000
11
203.4810781355
21
457.6471806346
31
0.0000000000
11
203.5930003124
21
457.6529906511
31
0.0000000000
0
SPLINE
5
306
100
AcDbEntity
8
DEFAULT_2
100
AcDbSpline
62
8
6
HIDDEN
70
0
71
3
72
9
73
5
74
3
42
0.0000001000
43
0.0000001000
44
0.0000000001
40
0.0000000000
40
0.0000000000
40
0.0000000000
40
0.0000000000
40
0.5136469617
40
1.0000000000
40
1.0000000000
40
1.0000000000
40
1.0000000000
10
203.5930003124
20
457.6529906511
30
0.0000000000
10
203.6282556937
20
457.6561816063
30
0.0000000000
10
203.6967048069
20
457.6647734135
30
0.0000000000
10
203.7644461768
20
457.6773206378
30
0.0000000000
10
203.7972164707
20
457.6842397519
30
0.0000000000
11
203.5930003124
21
457.6529906511
31
0.0000000000
11
203.6983863256
21
457.6660514880
31
0.0000000000
11
203.7972164707
21
457.6842397519
31
0.0000000000
0
SPLINE
5
307
100
AcDbEntity
8
DEFAULT_2
100
AcDbSpline
62
8
6
HIDDEN
70
0
71
3
72
8
73
4
74
2
42
0.0000001000
43
0.0000001000
44
0.0000000001
40
0.0000000000
40
0.0000000000
40
0.0000000000
40
0.0000000000
40
1.0000000000
40
1.0000000000
40
1.0000000000
40
1.0000000000
10
179.1020578384
20
457.6471806346
30
0.0000000000
10
179.0647132832
20
457.6476137134
30
0.0000000000
10
179.0273705392
20
457.6496205322
30
0.0000000000
10
178.9901356614
20
457.6529906511
30
0.0000000000
11
179.1020578384
21
457.6471806346
31
0.0000000000
11
178.9901356614
21
457.6529906511
31
0.0000000000
0
SPLINE
5
308
100
AcDbEntity
8
DEFAULT_2
100
AcDbSpline
62
8
6
HIDDEN
70
0
71
3
72
9
73
5
74
3
42
0.0000001000
43
0.0000001000
44
0.0000000001
40
0.0000000000
40
0.0000000000
40
0.0000000000
40
0.0000000000
40
0.5136469617
40
1.0000000000
40
1.0000000000
40
1.0000000000
40
1.0000000000
10
178.9901356614
20
457.6529906511
30
0.0000000000
10
178.9548802801
20
457.6561816063
30
0.0000000000
10
178.8864311669
20
457.6647734135
30
0.0000000000
10
178.8186897970
20
457.6773206378
30
0.0000000000
10
178.7859195031
20
457.6842397519
30
0.0000000000
11
178.9901356614
21
457.6529906511
31
0.0000000000
11
178.8847496482
21
457.6660514880
31
0.0000000000
11
178.7859195031
21
457.6842397519
31
0.0000000000
0
SPLINE
5
309
100
AcDbEntity
8
0
100
AcDbSpline
62
7
6
CONTINUOUS
70
0
71
3
72
9
73
5
74
3
42
0.0000001000
43
0.0000001000
44
0.0000000001
40
0.0000000000
40
0.0000000000
40
0.0000000000
40
0.0000000000
40
0.5122018035
40
1.0000000000
40
1.0000000000
40
1.0000000000
40
1.0000000000
10
203.7972164707
20
457.6842397519
30
0.0000000000
10
203.8283919679
20
457.6908221408
30
0.0000000000
10
203.8889467657
20
457.7051164335
30
0.0000000000
10
203.9488667087
20
457.7218380893
30
0.0000000000
10
203.9779436853
20
457.7305069222
30
0.0000000000
11
203.7972164707
21
457.6842397519
31
0.0000000000
11
203.8902579666
21
457.7061020862
31
0.0000000000
11
203.9779436853
21
457.7305069222
31
0.0000000000
0
SPLINE
5
30A
100
AcDbEntity
8
0
100
AcDbSpline
62
7
6
CONTINUOUS
70
0
71
3
72
14
73
10
74
8
42
0.0000001000
43
0.0000001000
44
0.0000000001
40
0.0000000000
40
0.0000000000
40
0.0000000000
40
0.0000000000
40
0.1044828358
40
0.2998071845
40
0.4784203339
40
0.6422593778
40
0.7933578758
40
0.9336411073
40
1.0000000000
40
1.0000000000
40
1.0000000000
40
1.0000000000
10
203.9779436853
20
457.7305069222
30
0.0000000000
10
204.0056913676
20
457.7387794473
30
0.0000000000
10
204.0849148344
20
457.7638549559
30
0.0000000000
10
204.2095102610
20
457.8092476617
30
0.0000000000
10
204.3471872505
20
457.8663136923
30
0.0000000000
10
204.4717254251
20
457.9228372318
30
0.0000000000
10
204.5852070849
20
457.9779052013
30
0.0000000000
10
204.6734839024
20
458.0229899004
30
0.0000000000
10
204.7241414718
20
458.0496711128
30
0.0000000000
10
204.7403762639
20
458.0583010352
30
0.0000000000
11
203.9779436853
21
457.7305069222
31
0.0000000000
11
204.0607711485
21
457.7566664145
31
0.0000000000
11
204.2134114810
21
457.8119794330
31
0.0000000000
11
204.3506267231
21
457.8686648693
31
0.0000000000
11
204.4746809984
21
457.9248457083
31
0.0000000000
11
204.5877051994
21
457.9796097094
31
0.0000000000
11
204.6915717567
21
458.0326007459
31
0.0000000000
11
204.7403762639
21
458.0583010352
31
0.0000000000
0
SPLINE
5
30B
100
AcDbEntity
8
0
100
AcDbSpline
62
7
6
CONTINUOUS
70
0
71
3
72
11
73
7
74
5
42
0.0000001000
43
0.0000001000
44
0.0000000001
40
0.0000000000
40
0.0000000000
40
0.0000000000
40
0.0000000000
40
0.1604372062
40
0.4631950378
40
0.7426794457
40
1.0000000000
40
1.0000000000
40
1.0000000000
40
1.0000000000
10
204.7403762639
20
458.0583010352
30
0.0000000000
10
204.7560087256
20
458.0666107770
30
0.0000000000
10
204.8010529568
20
458.0907670844
30
0.0000000000
10
204.8728879369
20
458.1302158803
30
0.0000000000
10
204.9535841655
20
458.1757251483
30
0.0000000000
10
205.0048968798
20
458.2053197659
30
0.0000000000
10
205.0294306128
20
458.2196144469
30
0.0000000000
11
204.7403762639
21
458.0583010352
31
0.0000000000
11
204.7871836847
21
458.0833984994
31
0.0000000000
11
204.8750434607
21
458.1316235417
31
0.0000000000
11
204.9556376800
21
458.1770611777
31
0.0000000000
11
205.0294306128
21
458.2196144469
31
0.0000000000
0
SPLINE
5
30C
100
AcDbEntity
8
0
100
AcDbSpline
62
7
6
CONTINUOUS
70
0
71
3
72
10
73
6
74
4
42
0.0000001000
43
0.0000001000
44
0.0000000001
40
0.0000000000
40
0.0000000000
40
0.0000000000
40
0.0000000000
40
0.3643305126
40
0.6798044506
40
1.0000000000
40
1.0000000000
40
1.0000000000
40
1.0000000000
10
205.0294306128
20
458.2196144469
30
0.0000000000
10
205.1185040754
20
458.2715134681
30
0.0000000000
10
205.2826034344
20
458.3695584233
30
0.0000000000
10
205.5686914696
20
458.4473273944
30
0.0000000000
10
205.7437569754
20
458.3727466028
30
0.0000000000
10
205.8229303822
20
458.3286981084
30
0.0000000000
11
205.0294306128
21
458.2196144469
31
0.0000000000
11
205.3031242432
21
458.3636287097
31
0.0000000000
11
205.5656678216
21
458.4164150328
31
0.0000000000
11
205.8229303822
21
458.3286981084
31
0.0000000000
0
SPLINE
5
30D
100
AcDbEntity
8
0
100
AcDbSpline
62
7
6
CONTINUOUS
70
0
71
3
72
12
73
8
74
6
42
0.0000001000
43
0.0000001000
44
0.0000000001
40
0.0000000000
40
0.0000000000
40
0.0000000000
40
0.0000000000
40
0.2313132883
40
0.4573349766
40
0.6705259195
40
0.8583165148
40
1.0000000000
40
1.0000000000
40
1.0000000000
40
1.0000000000
10
176.7602055916
20
458.3286981084
30
0.0000000000
10
176.6631244337
20
458.2747367190
30
0.0000000000
10
176.4730476086
20
458.1645400170
30
0.0000000000
10
176.1982196147
20
457.9974076571
30
0.0000000000
10
175.9410488366
20
457.8388717529
30
0.0000000000
10
175.7169801725
20
457.7118261286
30
0.0000000000
10
175.5651287814
20
457.6471806346
30
0.0000000000
10
175.4970963352
20
457.6471806346
30
0.0000000000
11
176.7602055916
21
458.3286981084
31
0.0000000000
11
176.4715209351
21
458.1622937394
31
0.0000000000
11
176.1929270353
21
457.9937917976
31
0.0000000000
11
175.9303194602
21
457.8345726681
31
0.0000000000
11
175.6928061587
21
457.7050890851
31
0.0000000000
11
175.4970963352
21
457.6471806346
31
0.0000000000
0
SPLINE
5
30E
100
AcDbEntity
8
0
100
AcDbSpline
62
7
6
CONTINUOUS
70
0
71
3
72
10
73
6
74
4
42
0.0000001000
43
0.0000001000
44
0.0000000001
40
0.0000000000
40
0.0000000000
40
0.0000000000
40
0.0000000000
40
0.3643305126
40
0.6798044506
40
1.0000000000
40
1.0000000000
40
1.0000000000
40
1.0000000000
10
177.5537053610
20
458.2196144469
30
0.0000000000
10
177.4646318984
20
458.2715134681
30
0.0000000000
10
177.3005325395
20
458.3695584233
30
0.0000000000
10
177.0144445043
20
458.4473273944
30
0.0000000000
10
176.8393789985
20
458.3727466028
30
0.0000000000
10
176.7602055916
20
458.3286981084
30
0.0000000000
11
177.5537053610
21
458.2196144469
31
0.0000000000
11
177.2800117306
21
458.3636287097
31
0.0000000000
11
177.0174681522
21
458.4164150328
31
0.0000000000
11
176.7602055916
21
458.3286981084
31
0.0000000000
0
SPLINE
5
30F
100
AcDbEntity
8
0
100
AcDbSpline
62
7
6
CONTINUOUS
70
0
71
3
72
9
73
5
74
3
42
0.0000001000
43
0.0000001000
44
0.0000000001
40
0.0000000000
40
0.0000000000
40
0.0000000000
40
0.0000000000
40
0.5122018035
40
1.0000000000
40
1.0000000000
40
1.0000000000
40
1.0000000000
10
178.7859195031
20
457.6842397519
30
0.0000000000
10
178.7547440059
20
457.6908221408
30
0.0000000000
10
178.6941892082
20
457.7051164335
30
0.0000000000
10
178.6342692651
20
457.7218380893
30
0.0000000000
10
178.6051922886
20
457.7305069222
30
0.0000000000
11
178.7859195031
21
457.6842397519
31
0.0000000000
11
178.6928780072
21
457.7061020862
31
0.0000000000
11
178.6051922886
21
457.7305069222
31
0.0000000000
0
SPLINE
5
310
100
AcDbEntity
8
0
100
AcDbSpline
62
7
6
CONTINUOUS
70
0
71
3
72
14
73
10
74
8
42
0.0000001000
43
0.0000001000
44
0.0000000001
40
0.0000000000
40
0.0000000000
40
0.0000000000
40
0.0000000000
40
0.1044828358
40
0.2998071845
40
0.4784203339
40
0.6422593778
40
0.7933578758
40
0.9336411073
40
1.0000000000
40
1.0000000000
40
1.0000000000
40
1.0000000000
10
178.6051922886
20
457.7305069222
30
0.0000000000
10
178.5774446063
20
457.7387794473
30
0.0000000000
10
178.4982211394
20
457.7638549559
30
0.0000000000
10
178.3736257129
20
457.8092476617
30
0.0000000000
10
178.2359487234
20
457.8663136923
30
0.0000000000
10
178.1114105487
20
457.9228372318
30
0.0000000000
10
177.9979288890
20
457.9779052013
30
0.0000000000
10
177.9096520715
20
458.0229899004
30
0.0000000000
10
177.8589945020
20
458.0496711128
30
0.0000000000
10
177.8427597099
20
458.0583010352
30
0.0000000000
11
178.6051922886
21
457.7305069222
31
0.0000000000
11
178.5223648253
21
457.7566664145
31
0.0000000000
11
178.3697244929
21
457.8119794330
31
0.0000000000
11
178.2325092507
21
457.8686648693
31
0.0000000000
11
178.1084549755
21
457.9248457083
31
0.0000000000
11
177.9954307744
21
457.9796097094
31
0.0000000000
11
177.8915642171
21
458.0326007459
31
0.0000000000
11
177.8427597099
21
458.0583010352
31
0.0000000000
0
SPLINE
5
311
100
AcDbEntity
8
0
100
AcDbSpline
62
7
6
CONTINUOUS
70
0
71
3
72
11
73
7
74
5
42
0.0000001000
43
0.0000001000
44
0.0000000001
40
0.0000000000
40
0.0000000000
40
0.0000000000
40
0.0000000000
40
0.1604372062
40
0.4631950378
40
0.7426794457
40
1.0000000000
40
1.0000000000
40
1.0000000000
40
1.0000000000
10
177.8427597099
20
458.0583010352
30
0.0000000000
10
177.8271272483
20
458.0666107770
30
0.0000000000
10
177.7820830170
20
458.0907670844
30
0.0000000000
10
177.7102480369
20
458.1302158803
30
0.0000000000
10
177.6295518083
20
458.1757251483
30
0.0000000000
10
177.5782390941
20
458.2053197659
30
0.0000000000
10
177.5537053610
20
458.2196144469
30
0.0000000000
11
177.8427597099
21
458.0583010352
31
0.0000000000
11
177.7959522891
21
458.0833984994
31
0.0000000000
11
177.7080925132
21
458.1316235417
31
0.0000000000
11
177.6274982938
21
458.1770611777
31
0.0000000000
11
177.5537053610
21
458.2196144469
31
0.0000000000
0
SPLINE
5
312
100
AcDbEntity
8
0
100
AcDbSpline
62
7
6
CONTINUOUS
70
0
71
3
72
12
73
8
74
6
42
0.0000001000
43
0.0000001000
44
0.0000000001
40
0.0000000000
40
0.0000000000
40
0.0000000000
40
0.0000000000
40
0.2313132883
40
0.4573349766
40
0.6705259195
40
0.8583165148
40
1.0000000000
40
1.0000000000
40
1.0000000000
40
1.0000000000
10
205.8229303822
20
458.3286981084
30
0.0000000000
10
205.9200115402
20
458.2747367190
30
0.0000000000
10
206.1100883652
20
458.1645400170
30
0.0000000000
10
206.3849163592
20
457.9974076571
30
0.0000000000
10
206.6420871373
20
457.8388717529
30
0.0000000000
10
206.8661558013
20
457.7118261286
30
0.0000000000
10
207.0180071924
20
457.6471806346
30
0.0000000000
10
207.0860396386
20
457.6471806346
30
0.0000000000
11
205.8229303822
21
458.3286981084
31
0.0000000000
11
206.1116150388
21
458.1622937394
31
0.0000000000
11
206.3902089385
21
457.9937917976
31
0.0000000000
11
206.6528165136
21
457.8345726681
31
0.0000000000
11
206.8903298151
21
457.7050890851
31
0.0000000000
11
207.0860396386
21
457.6471806346
31
0.0000000000
0
SPLINE
5
313
100
AcDbEntity
8
DEFAULT_2
100
AcDbSpline
62
8
6
HIDDEN
70
0
71
3
72
10
73
6
74
4
42
0.0000001000
43
0.0000001000
44
0.0000000001
40
0.0000000000
40
0.0000000000
40
0.0000000000
40
0.0000000000
40
0.3616550718
40
0.6900368071
40
1.0000000000
40
1.0000000000
40
1.0000000000
40
1.0000000000
10
516.8382013068
20
274.3293231337
30
0.0000000000
10
517.0048197443
20
274.1266456885
30
0.0000000000
10
517.2928494069
20
273.7129155549
30
0.0000000000
10
517.5738853885
20
273.0369568820
30
0.0000000000
10
517.6382013068
20
272.5726402771
30
0.0000000000
10
517.6382013068
20
272.3471805750
30
0.0000000000
11
516.8382013068
21
274.3293231337
31
0.0000000000
11
517.2808884305
21
273.6784876977
31
0.0000000000
11
517.5486069516
21
273.0158209100
31
0.0000000000
11
517.6382013068
21
272.3471805750
31
0.0000000000
0
SPLINE
5
314
100
AcDbEntity
8
DEFAULT_2
100
AcDbSpline
62
8
6
HIDDEN
70
0
71
3
72
10
73
6
74
4
42
0.0000001000
43
0.0000001000
44
0.0000000001
40
0.0000000000
40
0.0000000000
40
0.0000000000
40
0.0000000000
40
0.4834858745
40
0.9260029857
40
1.0000000000
40
1.0000000000
40
1.0000000000
40
1.0000000000
10
517.0804507825
20
257.3471811114
30
0.0000000000
10
517.2404590663
20
257.1170152251
30
0.0000000000
10
517.5029771040
20
256.6409476854
30
0.0000000000
10
517.6303293501
20
256.0663485175
30
0.0000000000
10
517.6381306829
20
255.7655184172
30
0.0000000000
10
517.6380830078
20
255.7224094754
30
0.0000000000
11
517.0804507825
21
257.3471811114
31
0.0000000000
11
517.4751749494
21
256.6046154867
31
0.0000000000
11
517.6347054648
21
255.8516307077
31
0.0000000000
11
517.6380830078
21
255.7224094754
31
0.0000000000
0
SPLINE
5
315
100
AcDbEntity
8
DEFAULT_2
100
AcDbSpline
62
8
6
HIDDEN
70
0
71
3
72
10
73
6
74
4
42
0.0000001000
43
0.0000001000
44
0.0000000001
40
0.0000000000
40
0.0000000000
40
0.0000000000
40
0.0000000000
40
0.0739970143
40
0.5165141255
40
1.0000000000
40
1.0000000000
40
1.0000000000
40
1.0000000000
10
517.6380830078
20
258.9719527474
30
0.0000000000
10
517.6381306829
20
258.9288438056
30
0.0000000000
10
517.6303293501
20
258.6280137054
30
0.0000000000
10
517.5029771040
20
258.0534145374
30
0.0000000000
10
517.2404590663
20
257.5773469977
30
0.0000000000
10
517.0804507825
20
257.3471811114
30
0.0000000000
11
517.6380830078
21
258.9719527474
31
0.0000000000
11
517.6347054648
21
258.8427315151
31
0.0000000000
11
517.4751749494
21
258.0897467361
31
0.0000000000
11
517.0804507825
21
257.3471811114
31
0.0000000000
0
SPLINE
5
316
100
AcDbEntity
8
DEFAULT_2
100
AcDbSpline
62
8
6
HIDDEN
70
0
71
3
72
10
73
6
74
4
42
0.0000001000
43
0.0000001000
44
0.0000000001
40
0.0000000000
40
0.0000000000
40
0.0000000000
40
0.0000000000
40
0.3099631887
40
0.6383449233
40
1.0000000000
40
1.0000000000
40
1.0000000000
40
1.0000000000
10
517.6382013068
20
266.3471807538
30
0.0000000000
10
517.6382013068
20
266.1217210714
30
0.0000000000
10
517.5738853876
20
265.6574045045
30
0.0000000000
10
517.2928494040
20
264.9814458907
30
0.0000000000
10
517.0048197430
20
264.5677157978
30
0.0000000000
10
516.8382013068
20
264.3650383723
30
0.0000000000
11
517.6382013068
21
266.3471807538
31
0.0000000000
11
517.5486069516
21
265.6785404786
31
0.0000000000
11
517.2808884306
21
265.0158737502
31
0.0000000000
11
516.8382013068
21
264.3650383723
31
0.0000000000
0
SPLINE
5
317
100
AcDbEntity
8
DEFAULT_2
100
AcDbSpline
62
8
6
HIDDEN
70
0
71
3
72
9
73
5
74
3
42
0.0000001000
43
0.0000001000
44
0.0000000001
40
0.0000000000
40
0.0000000000
40
0.0000000000
40
0.0000000000
40
0.5006320494
40
1.0000000000
40
1.0000000000
40
1.0000000000
40
1.0000000000
10
517.2874363462
20
209.8471806346
30
0.0000000000
10
517.3101255322
20
209.7642860250
30
0.0000000000
10
517.3533539954
20
209.5981260384
30
0.0000000000
10
517.3923238843
20
209.4309155620
30
0.0000000000
10
517.4107043884
20
209.3471825419
30
0.0000000000
11
517.2874363462
21
209.8471806346
31
0.0000000000
11
517.3523413036
21
209.5976527089
31
0.0000000000
11
517.4107043884
21
209.3471825419
31
0.0000000000
0
SPLINE
5
318
100
AcDbEntity
8
DEFAULT_2
100
AcDbSpline
62
8
6
HIDDEN
70
0
71
3
72
9
73
5
74
3
42
0.0000001000
43
0.0000001000
44
0.0000000001
40
0.0000000000
40
0.0000000000
40
0.0000000000
40
0.0000000000
40
0.4992486494
40
1.0000000000
40
1.0000000000
40
1.0000000000
40
1.0000000000
10
517.1900994984
20
210.5971806346
30
0.0000000000
10
517.2072992177
20
210.4725014898
30
0.0000000000
10
517.2407475630
20
210.2226285630
30
0.0000000000
10
517.2721919149
20
209.9724955541
30
0.0000000000
10
517.2874363462
20
209.8471806346
30
0.0000000000
11
517.1900994984
21
210.5971806346
31
0.0000000000
11
517.2401978064
21
210.2229392221
31
0.0000000000
11
517.2874363462
21
209.8471806346
31
0.0000000000
0
SPLINE
5
319
100
AcDbEntity
8
DEFAULT_2
100
AcDbSpline
62
8
6
HIDDEN
70
0
71
3
72
9
73
5
74
3
42
0.0000001000
43
0.0000001000
44
0.0000000001
40
0.0000000000
40
0.0000000000
40
0.0000000000
40
0.0000000000
40
0.4995661280
40
1.0000000000
40
1.0000000000
40
1.0000000000
40
1.0000000000
10
517.1368251457
20
211.8471787272
30
0.0000000000
10
517.1459534809
20
211.6390375632
30
0.0000000000
10
517.1639684351
20
211.2223823592
30
0.0000000000
10
517.1814695777
20
210.8057052575
30
0.0000000000
10
517.1900994984
20
210.5971806346
30
0.0000000000
11
517.1368251457
21
211.8471787272
31
0.0000000000
11
517.1638245726
21
211.2227384443
31
0.0000000000
11
517.1900994984
21
210.5971806346
31
0.0000000000
0
SPLINE
5
31A
100
AcDbEntity
8
DEFAULT_2
100
AcDbSpline
62
8
6
HIDDEN
70
0
71
3
72
9
73
5
74
3
42
0.0000001000
43
0.0000001000
44
0.0000000001
40
0.0000000000
40
0.0000000000
40
0.0000000000
40
0.0000000000
40
0.4995661280
40
1.0000000000
40
1.0000000000
40
1.0000000000
40
1.0000000000
10
517.1368251457
20
212.8471806346
30
0.0000000000
10
517.1459534809
20
213.0553217986
30
0.0000000000
10
517.1639684351
20
213.4719770026
30
0.0000000000
10
517.1814695777
20
213.8886541043
30
0.0000000000
10
517.1900994984
20
214.0971787272
30
0.0000000000
11
517.1368251457
21
212.8471806346
31
0.0000000000
11
517.1638245726
21
213.4716209175
31
0.0000000000
11
517.1900994984
21
214.0971787272
31
0.0000000000
0
SPLINE
5
31B
100
AcDbEntity
8
DEFAULT_2
100
AcDbSpline
62
8
6
HIDDEN
70
0
71
3
72
9
73
5
74
3
42
0.0000001000
43
0.0000001000
44
0.0000000001
40
0.0000000000
40
0.0000000000
40
0.0000000000
40
0.0000000000
40
0.4992486494
40
1.0000000000
40
1.0000000000
40
1.0000000000
40
1.0000000000
10
517.1900994984
20
214.0971787272
30
0.0000000000
10
517.2072992177
20
214.2218578720
30
0.0000000000
10
517.2407475630
20
214.4717307988
30
0.0000000000
10
517.2721919149
20
214.7218638077
30
0.0000000000
10
517.2874363462
20
214.8471787272
30
0.0000000000
11
517.1900994984
21
214.0971787272
31
0.0000000000
11
517.2401978064
21
214.4714201397
31
0.0000000000
11
517.2874363462
21
214.8471787272
31
0.0000000000
0
SPLINE
5
31C
100
AcDbEntity
8
DEFAULT_2
100
AcDbSpline
62
8
6
HIDDEN
70
0
71
3
72
9
73
5
74
3
42
0.0000001000
43
0.0000001000
44
0.0000000001
40
0.0000000000
40
0.0000000000
40
0.0000000000
40
0.0000000000
40
0.5006320113
40
1.0000000000
40
1.0000000000
40
1.0000000000
40
1.0000000000
10
517.2874363462
20
214.8471787272
30
0.0000000000
10
517.3101255337
20
214.9300742908
30
0.0000000000
10
517.3533539995
20
215.0962361900
30
0.0000000000
10
517.3923238853
20
215.2634485682
30
0.0000000000
10
517.4107043884
20
215.3471825419
30
0.0000000000
11
517.2874363462
21
214.8471787272
31
0.0000000000
11
517.3523413031
21
215.0967095065
31
0.0000000000
11
517.4107043884
21
215.3471825419
31
0.0000000000
0
SPLINE
5
31D
100
AcDbEntity
8
DEFAULT_2
100
AcDbSpline
62
8
6
HIDDEN
70
0
71
3
72
9
73
5
74
3
42
0.0000001000
43
0.0000001000
44
0.0000000001
40
0.0000000000
40
0.0000000000
40
0.0000000000
40
0.0000000000
40
0.5074470690
40
1.0000000000
40
1.0000000000
40
1.0000000000
40
1.0000000000
10
517.4779201790
20
207.8471825419
30
0.0000000000
10
517.4979568996
20
207.8880541537
30
0.0000000000
10
517.5344408950
20
207.9701130323
30
0.0000000000
10
517.5641348418
20
208.0548843267
30
0.0000000000
10
517.5769136862
20
208.0971787272
30
0.0000000000
11
517.4779201790
21
207.8471825419
31
0.0000000000
11
517.5332358380
21
207.9720336825
31
0.0000000000
11
517.5769136862
21
208.0971787272
31
0.0000000000
0
SPLINE
5
31E
100
AcDbEntity
8
DEFAULT_2
100
AcDbSpline
62
8
6
HIDDEN
70
0
71
3
72
9
73
5
74
3
42
0.0000001000
43
0.0000001000
44
0.0000000001
40
0.0000000000
40
0.0000000000
40
0.0000000000
40
0.0000000000
40
0.5002355509
40
1.0000000000
40
1.0000000000
40
1.0000000000
40
1.0000000000
10
517.5769136862
20
208.0971787272
30
0.0000000000
10
517.5863361311
20
208.1803423832
30
0.0000000000
10
517.6030193972
20
208.3468424236
30
0.0000000000
10
517.6153667353
20
208.5137202045
30
0.0000000000
10
517.6204487214
20
208.5971825419
30
0.0000000000
11
517.5769136862
21
208.0971787272
31
0.0000000000
11
517.6019422532
21
208.3470153862
31
0.0000000000
11
517.6204487214
21
208.5971825419
31
0.0000000000
0
SPLINE
5
31F
100
AcDbEntity
8
DEFAULT_2
100
AcDbSpline
62
8
6
HIDDEN
70
0
71
3
72
9
73
5
74
3
42
0.0000001000
43
0.0000001000
44
0.0000000001
40
0.0000000000
40
0.0000000000
40
0.0000000000
40
0.0000000000
40
0.4993679506
40
1.0000000000
40
1.0000000000
40
1.0000000000
40
1.0000000000
10
517.4107043884
20
220.3471806346
30
0.0000000000
10
517.3923238843
20
220.4309136546
30
0.0000000000
10
517.3533539954
20
220.5981241310
30
0.0000000000
10
517.3101255322
20
220.7642841176
30
0.0000000000
10
517.2874363462
20
220.8471787272
30
0.0000000000
11
517.4107043884
21
220.3471806346
31
0.0000000000
11
517.3523413036
21
220.5976508016
31
0.0000000000
11
517.2874363462
21
220.8471787272
31
0.0000000000
0
SPLINE
5
320
100
AcDbEntity
8
DEFAULT_2
100
AcDbSpline
62
8
6
HIDDEN
70
0
71
3
72
9
73
5
74
3
42
0.0000001000
43
0.0000001000
44
0.0000000001
40
0.0000000000
40
0.0000000000
40
0.0000000000
40
0.0000000000
40
0.4992486494
40
1.0000000000
40
1.0000000000
40
1.0000000000
40
1.0000000000
10
517.1900994984
20
221.5971787272
30
0.0000000000
10
517.2072992177
20
221.4724995825
30
0.0000000000
10
517.2407475630
20
221.2226266557
30
0.0000000000
10
517.2721919149
20
220.9724936468
30
0.0000000000
10
517.2874363462
20
220.8471787272
30
0.0000000000
11
517.1900994984
21
221.5971787272
31
0.0000000000
11
517.2401978064
21
221.2229373147
31
0.0000000000
11
517.2874363462
21
220.8471787272
31
0.0000000000
0
SPLINE
5
321
100
AcDbEntity
8
DEFAULT_2
100
AcDbSpline
62
8
6
HIDDEN
70
0
71
3
72
9
73
5
74
3
42
0.0000001000
43
0.0000001000
44
0.0000000001
40
0.0000000000
40
0.0000000000
40
0.0000000000
40
0.0000000000
40
0.4995661278
40
1.0000000000
40
1.0000000000
40
1.0000000000
40
1.0000000000
10
517.1368251457
20
222.8471825419
30
0.0000000000
10
517.1459534809
20
222.6390404251
30
0.0000000000
10
517.1639684351
20
222.2223833137
30
0.0000000000
10
517.1814695777
20
221.8057043047
30
0.0000000000
10
517.1900994984
20
221.5971787272
30
0.0000000000
11
517.1368251457
21
222.8471825419
31
0.0000000000
11
517.1638245726
21
222.2227394006
31
0.0000000000
11
517.1900994984
21
221.5971787272
31
0.0000000000
0
SPLINE
5
322
100
AcDbEntity
8
DEFAULT_2
100
AcDbSpline
62
8
6
HIDDEN
70
0
71
3
72
9
73
5
74
3
42
0.0000001000
43
0.0000001000
44
0.0000000001
40
0.0000000000
40
0.0000000000
40
0.0000000000
40
0.0000000000
40
0.4995661278
40
1.0000000000
40
1.0000000000
40
1.0000000000
40
1.0000000000
10
517.1368251457
20
223.8471787272
30
0.0000000000
10
517.1459534809
20
224.0553208441
30
0.0000000000
10
517.1639684351
20
224.4719779554
30
0.0000000000
10
517.1814695777
20
224.8886569645
30
0.0000000000
10
517.1900994984
20
225.0971825419
30
0.0000000000
11
517.1368251457
21
223.8471787272
31
0.0000000000
11
517.1638245726
21
224.4716218685
31
0.0000000000
11
517.1900994984
21
225.0971825419
31
0.0000000000
0
SPLINE
5
323
100
AcDbEntity
8
DEFAULT_2
100
AcDbSpline
62
8
6
HIDDEN
70
0
71
3
72
9
73
5
74
3
42
0.0000001000
43
0.0000001000
44
0.0000000001
40
0.0000000000
40
0.0000000000
40
0.0000000000
40
0.0000000000
40
0.4992486494
40
1.0000000000
40
1.0000000000
40
1.0000000000
40
1.0000000000
10
517.1900994984
20
225.0971825419
30
0.0000000000
10
517.2072992177
20
225.2218616867
30
0.0000000000
10
517.2407475630
20
225.4717346135
30
0.0000000000
10
517.2721919149
20
225.7218676224
30
0.0000000000
10
517.2874363462
20
225.8471825419
30
0.0000000000
11
517.1900994984
21
225.0971825419
31
0.0000000000
11
517.2401978064
21
225.4714239544
31
0.0000000000
11
517.2874363462
21
225.8471825419
31
0.0000000000
0
SPLINE
5
324
100
AcDbEntity
8
DEFAULT_2
100
AcDbSpline
62
8
6
HIDDEN
70
0
71
3
72
9
73
5
74
3
42
0.0000001000
43
0.0000001000
44
0.0000000001
40
0.0000000000
40
0.0000000000
40
0.0000000000
40
0.0000000000
40
0.5006320494
40
1.0000000000
40
1.0000000000
40
1.0000000000
40
1.0000000000
10
517.2874363462
20
225.8471825419
30
0.0000000000
10
517.3101255322
20
225.9300771515
30
0.0000000000
10
517.3533539954
20
226.0962371381
30
0.0000000000
10
517.3923238843
20
226.2634476145
30
0.0000000000
10
517.4107043884
20
226.3471806346
30
0.0000000000
11
517.2874363462
21
225.8471825419
31
0.0000000000
11
517.3523413036
21
226.0967104676
31
0.0000000000
11
517.4107043884
21
226.3471806346
31
0.0000000000
0
SPLINE
5
325
100
AcDbEntity
8
DEFAULT_2
100
AcDbSpline
62
8
6
HIDDEN
70
0
71
3
72
9
73
5
74
3
42
0.0000001000
43
0.0000001000
44
0.0000000001
40
0.0000000000
40
0.0000000000
40
0.0000000000
40
0.0000000000
40
0.5074467499
40
1.0000000000
40
1.0000000000
40
1.0000000000
40
1.0000000000
10
517.4779201790
20
218.8471806346
30
0.0000000000
10
517.4979569132
20
218.8880532095
30
0.0000000000
10
517.5344409266
20
218.9701140186
30
0.0000000000
10
517.5641348490
20
219.0548871973
30
0.0000000000
10
517.5769136862
20
219.0971825419
30
0.0000000000
11
517.4779201790
21
218.8471806346
31
0.0000000000
11
517.5332358378
21
218.9720346324
31
0.0000000000
11
517.5769136862
21
219.0971825419
31
0.0000000000
0
SPLINE
5
326
100
AcDbEntity
8
DEFAULT_2
100
AcDbSpline
62
8
6
HIDDEN
70
0
71
3
72
9
73
5
74
3
42
0.0000001000
43
0.0000001000
44
0.0000000001
40
0.0000000000
40
0.0000000000
40
0.0000000000
40
0.0000000000
40
0.5002355652
40
1.0000000000
40
1.0000000000
40
1.0000000000
40
1.0000000000
10
517.5769136862
20
219.0971825419
30
0.0000000000
10
517.5863361308
20
219.1803452438
30
0.0000000000
10
517.6030193967
20
219.3468433750
30
0.0000000000
10
517.6153667352
20
219.5137192509
30
0.0000000000
10
517.6204487214
20
219.5971806346
30
0.0000000000
11
517.5769136862
21
219.0971825419
31
0.0000000000
11
517.6019422532
21
219.3470163425
31
0.0000000000
11
517.6204487214
21
219.5971806346
31
0.0000000000
0
SPLINE
5
327
100
AcDbEntity
8
DEFAULT_2
100
AcDbSpline
62
8
6
HIDDEN
70
0
71
3
72
9
73
5
74
3
42
0.0000001000
43
0.0000001000
44
0.0000000001
40
0.0000000000
40
0.0000000000
40
0.0000000000
40
0.0000000000
40
0.4998689560
40
1.0000000000
40
1.0000000000
40
1.0000000000
40
1.0000000000
10
517.2874363462
20
236.8471806346
30
0.0000000000
10
517.3401868743
20
237.0949685598
30
0.0000000000
10
517.4340677588
20
237.5932269098
30
0.0000000000
10
517.5042205820
20
238.0953800600
30
0.0000000000
10
517.5332940210
20
238.3471806346
30
0.0000000000
11
517.2874363462
21
236.8471806346
31
0.0000000000
11
517.4281142475
21
237.5940695119
31
0.0000000000
11
517.5332940210
21
238.3471806346
31
0.0000000000
0
SPLINE
5
328
100
AcDbEntity
8
DEFAULT_2
100
AcDbSpline
62
8
6
HIDDEN
70
0
71
3
72
8
73
4
74
2
42
0.0000001000
43
0.0000001000
44
0.0000000001
40
0.0000000000
40
0.0000000000
40
0.0000000000
40
0.0000000000
40
1.0000000000
40
1.0000000000
40
1.0000000000
40
1.0000000000
10
547.9236039317
20
494.5475973085
30
0.0000000000
10
547.6209557023
20
494.6254582493
30
0.0000000000
10
547.3192992058
20
494.7072298827
30
0.0000000000
10
547.0187770657
20
494.7929803441
30
0.0000000000
11
547.9236039317
21
494.5475973085
31
0.0000000000
11
547.0187770657
21
494.7929803441
31
0.0000000000
0
SPLINE
5
329
100
AcDbEntity
8
DEFAULT_2
100
AcDbSpline
62
8
6
HIDDEN
70
0
71
3
72
8
73
4
74
2
42
0.0000001000
43
0.0000001000
44
0.0000000001
40
0.0000000000
40
0.0000000000
40
0.0000000000
40
0.0000000000
40
1.0000000000
40
1.0000000000
40
1.0000000000
40
1.0000000000
10
547.0187770657
20
494.7929803441
30
0.0000000000
10
546.7241121083
20
494.8770595273
30
0.0000000000
10
546.4305377209
20
494.9649639550
30
0.0000000000
10
546.1382013068
20
495.0567684796
30
0.0000000000
11
547.0187770657
21
494.7929803441
31
0.0000000000
11
546.1382013068
21
495.0567684796
31
0.0000000000
0
SPLINE
5
32A
100
AcDbEntity
8
DEFAULT_2
100
AcDbSpline
62
8
6
HIDDEN
70
0
71
3
72
9
73
5
74
3
42
0.0000001000
43
0.0000001000
44
0.0000000001
40
0.0000000000
40
0.0000000000
40
0.0000000000
40
0.0000000000
40
0.5808739878
40
1.0000000000
40
1.0000000000
40
1.0000000000
40
1.0000000000
10
516.8382013068
20
265.8650928163
30
0.0000000000
10
517.0124357179
20
266.0776806087
30
0.0000000000
10
517.2829344162
20
266.4704060665
30
0.0000000000
10
517.4679139228
20
266.9099032195
30
0.0000000000
10
517.5252103552
20
267.1002245724
30
0.0000000000
11
516.8382013068
21
265.8650928163
31
0.0000000000
11
517.2978316101
21
266.5497100666
31
0.0000000000
11
517.5252103552
21
267.1002245724
31
0.0000000000
0
SPLINE
5
32B
100
AcDbEntity
8
DEFAULT_2
100
AcDbSpline
62
8
6
HIDDEN
70
0
71
3
72
9
73
5
74
3
42
0.0000001000
43
0.0000001000
44
0.0000000001
40
0.0000000000
40
0.0000000000
40
0.0000000000
40
0.0000000000
40
0.6672349342
40
1.0000000000
40
1.0000000000
40
1.0000000000
40
1.0000000000
10
516.8382013068
20
258.3650376602
30
0.0000000000
10
517.0048197455
20
258.5677151250
30
0.0000000000
10
517.2310656578
20
258.8926981819
30
0.0000000000
10
517.3992488449
20
259.2502011222
30
0.0000000000
10
517.4472699447
20
259.3722279872
30
0.0000000000
11
516.8382013068
21
258.3650376602
31
0.0000000000
11
517.2808884304
21
259.0158731542
31
0.0000000000
11
517.4472699447
21
259.3722279872
31
0.0000000000
0
SPLINE
5
32C
100
AcDbEntity
8
DEFAULT_2
100
AcDbSpline
62
8
6
HIDDEN
70
0
71
3
72
8
73
4
74
2
42
0.0000001000
43
0.0000001000
44
0.0000000001
40
0.0000000000
40
0.0000000000
40
0.0000000000
40
0.0000000000
40
1.0000000000
40
1.0000000000
40
1.0000000000
40
1.0000000000
10
517.4472699447
20
259.3722279872
30
0.0000000000
10
517.4762042989
20
259.4457533445
30
0.0000000000
10
517.5022544628
20
259.5203904893
30
0.0000000000
10
517.5250890426
20
259.5960215961
30
0.0000000000
11
517.4472699447
21
259.3722279872
31
0.0000000000
11
517.5250890426
21
259.5960215961
31
0.0000000000
0
SPLINE
5
32D
100
AcDbEntity
8
DEFAULT_2
100
AcDbSpline
62
8
6
HIDDEN
70
0
71
3
72
8
73
4
74
2
42
0.0000001000
43
0.0000001000
44
0.0000000001
40
0.0000000000
40
0.0000000000
40
0.0000000000
40
0.0000000000
40
1.0000000000
40
1.0000000000
40
1.0000000000
40
1.0000000000
10
517.5250890426
20
259.5960215961
30
0.0000000000
10
517.5261745243
20
259.5996168529
30
0.0000000000
10
517.5272527395
20
259.6032143558
30
0.0000000000
10
517.5283236528
20
259.6068140922
30
0.0000000000
11
517.5250890426
21
259.5960215961
31
0.0000000000
11
517.5283236528
21
259.6068140922
31
0.0000000000
0
SPLINE
5
32E
100
AcDbEntity
8
DEFAULT_2
100
AcDbSpline
62
8
6
HIDDEN
70
0
71
3
72
8
73
4
74
2
42
0.0000001000
43
0.0000001000
44
0.0000000001
40
0.0000000000
40
0.0000000000
40
0.0000000000
40
0.0000000000
40
1.0000000000
40
1.0000000000
40
1.0000000000
40
1.0000000000
10
517.5769136862
20
220.8471787272
30
0.0000000000
10
517.5961737677
20
221.1327629021
30
0.0000000000
10
517.6108958365
20
221.4187123119
30
0.0000000000
10
517.6210772219
20
221.7048538902
30
0.0000000000
11
517.5769136862
21
220.8471787272
31
0.0000000000
11
517.6210772219
21
221.7048538902
31
0.0000000000
0
SPLINE
5
32F
100
AcDbEntity
8
DEFAULT_2
100
AcDbSpline
62
8
6
HIDDEN
70
0
71
3
72
8
73
4
74
2
42
0.0000001000
43
0.0000001000
44
0.0000000001
40
0.0000000000
40
0.0000000000
40
0.0000000000
40
0.0000000000
40
1.0000000000
40
1.0000000000
40
1.0000000000
40
1.0000000000
10
517.5769136862
20
209.8471806346
30
0.0000000000
10
517.5961737432
20
210.1327644462
30
0.0000000000
10
517.6108957991
20
210.4187134919
30
0.0000000000
10
517.6210771831
20
210.7048547058
30
0.0000000000
11
517.5769136862
21
209.8471806346
31
0.0000000000
11
517.6210771831
21
210.7048547058
31
0.0000000000
0
SPLINE
5
330
100
AcDbEntity
8
DEFAULT_2
100
AcDbSpline
62
8
6
HIDDEN
70
0
71
3
72
8
73
4
74
2
42
0.0000001000
43
0.0000001000
44
0.0000000001
40
0.0000000000
40
0.0000000000
40
0.0000000000
40
0.0000000000
40
1.0000000000
40
1.0000000000
40
1.0000000000
40
1.0000000000
10
517.5283232659
20
255.0875480006
30
0.0000000000
10
517.5272523362
20
255.0911477856
30
0.0000000000
10
517.5261741044
20
255.0947453371
30
0.0000000000
10
517.5250886060
20
255.0983406424
30
0.0000000000
11
517.5283232659
21
255.0875480006
31
0.0000000000
11
517.5250886060
21
255.0983406424
31
0.0000000000
0
SPLINE
5
331
100
AcDbEntity
8
DEFAULT_2
100
AcDbSpline
62
8
6
HIDDEN
70
0
71
3
72
8
73
4
74
2
42
0.0000001000
43
0.0000001000
44
0.0000000001
40
0.0000000000
40
0.0000000000
40
0.0000000000
40
0.0000000000
40
1.0000000000
40
1.0000000000
40
1.0000000000
40
1.0000000000
10
517.5250886060
20
255.0983406424
30
0.0000000000
10
517.5022541307
20
255.1739712544
30
0.0000000000
10
517.4762041144
20
255.2486079165
30
0.0000000000
10
517.4472699447
20
255.3221328051
30
0.0000000000
11
517.5250886060
21
255.0983406424
31
0.0000000000
11
517.4472699447
21
255.3221328051
31
0.0000000000
0
SPLINE
5
332
100
AcDbEntity
8
DEFAULT_2
100
AcDbSpline
62
8
6
HIDDEN
70
0
71
3
72
9
73
5
74
3
42
0.0000001000
43
0.0000001000
44
0.0000000001
40
0.0000000000
40
0.0000000000
40
0.0000000000
40
0.0000000000
40
0.3327650658
40
1.0000000000
40
1.0000000000
40
1.0000000000
40
1.0000000000
10
517.4472699447
20
255.3221328051
30
0.0000000000
10
517.3992488449
20
255.4441596701
30
0.0000000000
10
517.2310656578
20
255.8016626104
30
0.0000000000
10
517.0048197455
20
256.1266456673
30
0.0000000000
10
516.8382013068
20
256.3293231321
30
0.0000000000
11
517.4472699447
21
255.3221328051
31
0.0000000000
11
517.2808884304
21
255.6784876381
31
0.0000000000
11
516.8382013068
21
256.3293231321
31
0.0000000000
0
SPLINE
5
333
100
AcDbEntity
8
DEFAULT_2
100
AcDbSpline
62
8
6
HIDDEN
70
0
71
3
72
9
73
5
74
3
42
0.0000001000
43
0.0000001000
44
0.0000000001
40
0.0000000000
40
0.0000000000
40
0.0000000000
40
0.0000000000
40
0.4191260669
40
1.0000000000
40
1.0000000000
40
1.0000000000
40
1.0000000000
10
517.5252103939
20
271.5941368068
30
0.0000000000
10
517.4679139577
20
271.7844582052
30
0.0000000000
10
517.2829344417
20
272.2239554041
30
0.0000000000
10
517.0124357179
20
272.6166808989
30
0.0000000000
10
516.8382013068
20
272.8292686912
30
0.0000000000
11
517.5252103939
21
271.5941368068
31
0.0000000000
11
517.2978316101
21
272.1446514410
31
0.0000000000
11
516.8382013068
21
272.8292686912
31
0.0000000000
0
SPLINE
5
334
100
AcDbEntity
8
DEFAULT_2
100
AcDbSpline
62
8
6
HIDDEN
70
0
71
3
72
9
73
5
74
3
42
0.0000001000
43
0.0000001000
44
0.0000000001
40
0.0000000000
40
0.0000000000
40
0.0000000000
40
0.0000000000
40
0.9483284572
40
1.0000000000
40
1.0000000000
40
1.0000000000
40
1.0000000000
10
517.4779201790
20
209.3471825419
30
0.0000000000
10
517.4982123788
20
209.4299689840
30
0.0000000000
10
517.5176746935
20
209.5177526880
30
0.0000000000
10
517.5350253705
20
209.6059553419
30
0.0000000000
10
517.5359162604
20
209.6105140125
30
0.0000000000
11
517.4779201790
21
209.3471825419
31
0.0000000000
11
517.5332266600
21
209.5968413261
31
0.0000000000
11
517.5359162604
21
209.6105140125
31
0.0000000000
0
SPLINE
5
335
100
AcDbEntity
8
DEFAULT_2
100
AcDbSpline
62
8
6
HIDDEN
70
0
71
3
72
8
73
4
74
2
42
0.0000001000
43
0.0000001000
44
0.0000000001
40
0.0000000000
40
0.0000000000
40
0.0000000000
40
0.0000000000
40
1.0000000000
40
1.0000000000
40
1.0000000000
40
1.0000000000
10
517.5359162604
20
209.6105140125
30
0.0000000000
10
517.5431601759
20
209.6475810204
30
0.0000000000
10
517.5500307870
20
209.6847209801
30
0.0000000000
10
517.5565236092
20
209.7219257395
30
0.0000000000
11
517.5359162604
21
209.6105140125
31
0.0000000000
11
517.5565236092
21
209.7219257395
31
0.0000000000
0
SPLINE
5
336
100
AcDbEntity
8
DEFAULT_2
100
AcDbSpline
62
8
6
HIDDEN
70
0
71
3
72
8
73
4
74
2
42
0.0000001000
43
0.0000001000
44
0.0000000001
40
0.0000000000
40
0.0000000000
40
0.0000000000
40
0.0000000000
40
1.0000000000
40
1.0000000000
40
1.0000000000
40
1.0000000000
10
517.5565236092
20
209.7219257395
30
0.0000000000
10
517.5637964105
20
209.7635998865
30
0.0000000000
10
517.5705952038
20
209.8053553371
30
0.0000000000
10
517.5769136862
20
209.8471806346
30
0.0000000000
11
517.5565236092
21
209.7219257395
31
0.0000000000
11
517.5769136862
21
209.8471806346
31
0.0000000000
0
SPLINE
5
337
100
AcDbEntity
8
DEFAULT_2
100
AcDbSpline
62
8
6
HIDDEN
70
0
71
3
72
9
73
5
74
3
42
0.0000001000
43
0.0000001000
44
0.0000000001
40
0.0000000000
40
0.0000000000
40
0.0000000000
40
0.0000000000
40
0.5102109569
40
1.0000000000
40
1.0000000000
40
1.0000000000
40
1.0000000000
10
517.2402962572
20
216.3471787272
30
0.0000000000
10
517.2719258977
20
216.3878006370
30
0.0000000000
10
517.3315763833
20
216.4692795449
30
0.0000000000
10
517.3857370363
20
216.5545277840
30
0.0000000000
10
517.4107043884
20
216.5971806346
30
0.0000000000
11
517.2402962572
21
216.3471787272
31
0.0000000000
11
517.3313654734
21
216.4719247144
31
0.0000000000
11
517.4107043884
21
216.5971806346
31
0.0000000000
0
SPLINE
5
338
100
AcDbEntity
8
DEFAULT_2
100
AcDbSpline
62
8
6
HIDDEN
70
0
71
3
72
9
73
5
74
3
42
0.0000001000
43
0.0000001000
44
0.0000000001
40
0.0000000000
40
0.0000000000
40
0.0000000000
40
0.0000000000
40
0.4993170495
40
1.0000000000
40
1.0000000000
40
1.0000000000
40
1.0000000000
10
517.0209524501
20
215.3471825419
30
0.0000000000
10
517.0613897935
20
215.5127222925
30
0.0000000000
10
517.1384629326
20
215.8452225120
30
0.0000000000
10
517.2076467386
20
216.1794536953
30
0.0000000000
10
517.2402962572
20
216.3471787272
30
0.0000000000
11
517.0209524501
21
215.3471825419
31
0.0000000000
11
517.1363907094
21
215.8451999092
31
0.0000000000
11
517.2402962572
21
216.3471787272
31
0.0000000000
0
SPLINE
5
339
100
AcDbEntity
8
DEFAULT_2
100
AcDbSpline
62
8
6
HIDDEN
70
0
71
3
72
8
73
4
74
2
42
0.0000001000
43
0.0000001000
44
0.0000000001
40
0.0000000000
40
0.0000000000
40
0.0000000000
40
0.0000000000
40
1.0000000000
40
1.0000000000
40
1.0000000000
40
1.0000000000
10
516.8924800025
20
214.3471806346
30
0.0000000000
10
516.9142546034
20
214.5086597934
30
0.0000000000
10
516.9355367134
20
214.6702057481
30
0.0000000000
10
516.9563290220
20
214.8318147255
30
0.0000000000
11
516.8924800025
21
214.3471806346
31
0.0000000000
11
516.9563290220
21
214.8318147255
31
0.0000000000
0
SPLINE
5
33A
100
AcDbEntity
8
DEFAULT_2
100
AcDbSpline
62
8
6
HIDDEN
70
0
71
3
72
8
73
4
74
2
42
0.0000001000
43
0.0000001000
44
0.0000000001
40
0.0000000000
40
0.0000000000
40
0.0000000000
40
0.0000000000
40
1.0000000000
40
1.0000000000
40
1.0000000000
40
1.0000000000
10
516.9563290220
20
214.8318147255
30
0.0000000000
10
516.9569257603
20
214.8364528956
30
0.0000000000
10
516.9575220952
20
214.8410911176
30
0.0000000000
10
516.9581180266
20
214.8457293915
30
0.0000000000
11
516.9563290220
21
214.8318147255
31
0.0000000000
11
516.9581180266
21
214.8457293915
31
0.0000000000
0
SPLINE
5
33B
100
AcDbEntity
8
DEFAULT_2
100
AcDbSpline
62
8
6
HIDDEN
70
0
71
3
72
8
73
4
74
2
42
0.0000001000
43
0.0000001000
44
0.0000000001
40
0.0000000000
40
0.0000000000
40
0.0000000000
40
0.0000000000
40
1.0000000000
40
1.0000000000
40
1.0000000000
40
1.0000000000
10
516.9581180266
20
214.8457293915
30
0.0000000000
10
516.9795853459
20
215.0128145535
30
0.0000000000
10
517.0005292131
20
215.1799669627
30
0.0000000000
10
517.0209524501
20
215.3471825419
30
0.0000000000
11
516.9581180266
21
214.8457293915
31
0.0000000000
11
517.0209524501
21
215.3471825419
31
0.0000000000
0
SPLINE
5
33C
100
AcDbEntity
8
DEFAULT_2
100
AcDbSpline
62
8
6
HIDDEN
70
0
71
3
72
9
73
5
74
3
42
0.0000001000
43
0.0000001000
44
0.0000000001
40
0.0000000000
40
0.0000000000
40
0.0000000000
40
0.0000000000
40
0.4995456477
40
1.0000000000
40
1.0000000000
40
1.0000000000
40
1.0000000000
10
516.8382013068
20
212.9643740223
30
0.0000000000
10
516.8474067376
20
213.1946257551
30
0.0000000000
10
516.8656667347
20
213.6555547792
30
0.0000000000
10
516.8835924340
20
214.1164969250
30
0.0000000000
10
516.8924800025
20
214.3471806346
30
0.0000000000
11
516.8382013068
21
212.9643740223
31
0.0000000000
11
516.8655667191
21
213.6551392053
31
0.0000000000
11
516.8924800025
21
214.3471806346
31
0.0000000000
0
SPLINE
5
33D
100
AcDbEntity
8
DEFAULT_2
100
AcDbSpline
62
8
6
HIDDEN
70
0
71
3
72
9
73
5
74
3
42
0.0000001000
43
0.0000001000
44
0.0000000001
40
0.0000000000
40
0.0000000000
40
0.0000000000
40
0.0000000000
40
0.4995498028
40
1.0000000000
40
1.0000000000
40
1.0000000000
40
1.0000000000
10
516.8382013068
20
211.2824440606
30
0.0000000000
10
516.8474067190
20
211.0850860472
30
0.0000000000
10
516.8656666243
20
210.6900064691
30
0.0000000000
10
516.8835924174
20
210.2949115907
30
0.0000000000
10
516.8924800025
20
210.0971825419
30
0.0000000000
11
516.8382013068
21
211.2824440606
31
0.0000000000
11
516.8655668055
21
210.6903583784
31
0.0000000000
11
516.8924800025
21
210.0971825419
31
0.0000000000
0
SPLINE
5
33E
100
AcDbEntity
8
DEFAULT_2
100
AcDbSpline
62
8
6
HIDDEN
70
0
71
3
72
9
73
5
74
3
42
0.0000001000
43
0.0000001000
44
0.0000000001
40
0.0000000000
40
0.0000000000
40
0.0000000000
40
0.0000000000
40
0.6821028765
40
1.0000000000
40
1.0000000000
40
1.0000000000
40
1.0000000000
10
516.8924800025
20
210.0971825419
30
0.0000000000
10
516.9148795334
20
209.9310689388
30
0.0000000000
10
516.9469544098
20
209.6874337132
30
0.0000000000
10
516.9779154298
20
209.4436553917
30
0.0000000000
10
516.9876455656
20
209.3661449101
30
0.0000000000
11
516.8924800025
21
210.0971825419
31
0.0000000000
11
516.9581180266
21
209.5986337850
31
0.0000000000
11
516.9876455656
21
209.3661449101
31
0.0000000000
0
SPLINE
5
33F
100
AcDbEntity
8
DEFAULT_2
100
AcDbSpline
62
8
6
HIDDEN
70
0
71
3
72
8
73
4
74
2
42
0.0000001000
43
0.0000001000
44
0.0000000001
40
0.0000000000
40
0.0000000000
40
0.0000000000
40
0.0000000000
40
1.0000000000
40
1.0000000000
40
1.0000000000
40
1.0000000000
10
516.9876455656
20
209.3661449101
30
0.0000000000
10
516.9883935001
20
209.3601868467
30
0.0000000000
10
516.9891407712
20
209.3542287002
30
0.0000000000
10
516.9898873790
20
209.3482704708
30
0.0000000000
11
516.9876455656
21
209.3661449101
31
0.0000000000
11
516.9898873790
21
209.3482704708
31
0.0000000000
0
SPLINE
5
340
100
AcDbEntity
8
DEFAULT_2
100
AcDbSpline
62
8
6
HIDDEN
70
0
71
3
72
8
73
4
74
2
42
0.0000001000
43
0.0000001000
44
0.0000000001
40
0.0000000000
40
0.0000000000
40
0.0000000000
40
0.0000000000
40
1.0000000000
40
1.0000000000
40
1.0000000000
40
1.0000000000
10
516.9898873790
20
209.3482704708
30
0.0000000000
10
517.0003731229
20
209.2645900319
30
0.0000000000
10
517.0107280285
20
209.1808932493
30
0.0000000000
10
517.0209524501
20
209.0971806346
30
0.0000000000
11
516.9898873790
21
209.3482704708
31
0.0000000000
11
517.0209524501
21
209.0971806346
31
0.0000000000
0
SPLINE
5
341
100
AcDbEntity
8
DEFAULT_2
100
AcDbSpline
62
8
6
HIDDEN
70
0
71
3
72
9
73
5
74
3
42
0.0000001000
43
0.0000001000
44
0.0000000001
40
0.0000000000
40
0.0000000000
40
0.0000000000
40
0.0000000000
40
0.4993170309
40
1.0000000000
40
1.0000000000
40
1.0000000000
40
1.0000000000
10
517.0209524501
20
209.0971806346
30
0.0000000000
10
517.0613897943
20
208.9316399332
30
0.0000000000
10
517.1384629353
20
208.5991378020
30
0.0000000000
10
517.2076467392
20
208.2649047160
30
0.0000000000
10
517.2402962572
20
208.0971787272
30
0.0000000000
11
517.0209524501
21
209.0971806346
31
0.0000000000
11
517.1363907084
21
208.5991604221
31
0.0000000000
11
517.2402962572
21
208.0971787272
31
0.0000000000
0
SPLINE
5
342
100
AcDbEntity
8
DEFAULT_2
100
AcDbSpline
62
8
6
HIDDEN
70
0
71
3
72
9
73
5
74
3
42
0.0000001000
43
0.0000001000
44
0.0000000001
40
0.0000000000
40
0.0000000000
40
0.0000000000
40
0.0000000000
40
0.5102113106
40
1.0000000000
40
1.0000000000
40
1.0000000000
40
1.0000000000
10
517.2402962572
20
208.0971787272
30
0.0000000000
10
517.2719258764
20
208.0565577746
30
0.0000000000
10
517.3315763233
20
207.9750807919
30
0.0000000000
10
517.3857370187
20
207.8898344464
30
0.0000000000
10
517.4107043884
20
207.8471825419
30
0.0000000000
11
517.2402962572
21
208.0971787272
31
0.0000000000
11
517.3313654739
21
207.9724355945
31
0.0000000000
11
517.4107043884
21
207.8471825419
31
0.0000000000
0
SPLINE
5
343
100
AcDbEntity
8
DEFAULT_2
100
AcDbSpline
62
8
6
HIDDEN
70
0
71
3
72
9
73
5
74
3
42
0.0000001000
43
0.0000001000
44
0.0000000001
40
0.0000000000
40
0.0000000000
40
0.0000000000
40
0.0000000000
40
0.9483253103
40
1.0000000000
40
1.0000000000
40
1.0000000000
40
1.0000000000
10
517.4779201790
20
220.3471806346
30
0.0000000000
10
517.4982123788
20
220.4299670767
30
0.0000000000
10
517.5176747580
20
220.5177510719
30
0.0000000000
10
517.5350254856
20
220.6059540200
30
0.0000000000
10
517.5359164320
20
220.6105129835
30
0.0000000000
11
517.4779201790
21
220.3471806346
31
0.0000000000
11
517.5332266600
21
220.5968394187
31
0.0000000000
11
517.5359164320
21
220.6105129835
31
0.0000000000
0
SPLINE
5
344
100
AcDbEntity
8
DEFAULT_2
100
AcDbSpline
62
8
6
HIDDEN
70
0
71
3
72
8
73
4
74
2
42
0.0000001000
43
0.0000001000
44
0.0000000001
40
0.0000000000
40
0.0000000000
40
0.0000000000
40
0.0000000000
40
1.0000000000
40
1.0000000000
40
1.0000000000
40
1.0000000000
10
517.5359164320
20
220.6105129835
30
0.0000000000
10
517.5431602844
20
220.6475796997
30
0.0000000000
10
517.5500308383
20
220.6847193666
30
0.0000000000
10
517.5565236092
20
220.7219238322
30
0.0000000000
11
517.5359164320
21
220.6105129835
31
0.0000000000
11
517.5565236092
21
220.7219238322
31
0.0000000000
0
SPLINE
5
345
100
AcDbEntity
8
DEFAULT_2
100
AcDbSpline
62
8
6
HIDDEN
70
0
71
3
72
8
73
4
74
2
42
0.0000001000
43
0.0000001000
44
0.0000000001
40
0.0000000000
40
0.0000000000
40
0.0000000000
40
0.0000000000
40
1.0000000000
40
1.0000000000
40
1.0000000000
40
1.0000000000
10
517.5565236092
20
220.7219238322
30
0.0000000000
10
517.5637964105
20
220.7635979791
30
0.0000000000
10
517.5705952038
20
220.8053534298
30
0.0000000000
10
517.5769136862
20
220.8471787272
30
0.0000000000
11
517.5565236092
21
220.7219238322
31
0.0000000000
11
517.5769136862
21
220.8471787272
31
0.0000000000
0
SPLINE
5
346
100
AcDbEntity
8
DEFAULT_2
100
AcDbSpline
62
8
6
HIDDEN
70
0
71
3
72
9
73
5
74
3
42
0.0000001000
43
0.0000001000
44
0.0000000001
40
0.0000000000
40
0.0000000000
40
0.0000000000
40
0.0000000000
40
0.5102109569
40
1.0000000000
40
1.0000000000
40
1.0000000000
40
1.0000000000
10
517.2402962572
20
227.3471796809
30
0.0000000000
10
517.2719258977
20
227.3878015907
30
0.0000000000
10
517.3315763833
20
227.4692804986
30
0.0000000000
10
517.3857370363
20
227.5545287377
30
0.0000000000
10
517.4107043884
20
227.5971815882
30
0.0000000000
11
517.2402962572
21
227.3471796809
31
0.0000000000
11
517.3313654734
21
227.4719256681
31
0.0000000000
11
517.4107043884
21
227.5971815882
31
0.0000000000
0
SPLINE
5
347
100
AcDbEntity
8
DEFAULT_2
100
AcDbSpline
62
8
6
HIDDEN
70
0
71
3
72
9
73
5
74
3
42
0.0000001000
43
0.0000001000
44
0.0000000001
40
0.0000000000
40
0.0000000000
40
0.0000000000
40
0.0000000000
40
0.4993170402
40
1.0000000000
40
1.0000000000
40
1.0000000000
40
1.0000000000
10
517.0209524501
20
226.3471806346
30
0.0000000000
10
517.0613897939
20
226.5127208605
30
0.0000000000
10
517.1384629339
20
226.8452220359
30
0.0000000000
10
517.2076467389
20
227.1794541705
30
0.0000000000
10
517.2402962572
20
227.3471796809
30
0.0000000000
11
517.0209524501
21
226.3471806346
31
0.0000000000
11
517.1363907089
21
226.8451994245
31
0.0000000000
11
517.2402962572
21
227.3471796809
31
0.0000000000
0
SPLINE
5
348
100
AcDbEntity
8
DEFAULT_2
100
AcDbSpline
62
8
6
HIDDEN
70
0
71
3
72
8
73
4
74
2
42
0.0000001000
43
0.0000001000
44
0.0000000001
40
0.0000000000
40
0.0000000000
40
0.0000000000
40
0.0000000000
40
1.0000000000
40
1.0000000000
40
1.0000000000
40
1.0000000000
10
516.8924800025
20
225.3471787272
30
0.0000000000
10
516.9142548561
20
225.5086597605
30
0.0000000000
10
516.9355372075
20
225.6702075912
30
0.0000000000
10
516.9563297461
20
225.8318184460
30
0.0000000000
11
516.8924800025
21
225.3471787272
31
0.0000000000
11
516.9563297461
21
225.8318184460
31
0.0000000000
0
SPLINE
5
349
100
AcDbEntity
8
DEFAULT_2
100
AcDbSpline
62
8
6
HIDDEN
70
0
71
3
72
8
73
4
74
2
42
0.0000001000
43
0.0000001000
44
0.0000000001
40
0.0000000000
40
0.0000000000
40
0.0000000000
40
0.0000000000
40
1.0000000000
40
1.0000000000
40
1.0000000000
40
1.0000000000
10
516.9563297461
20
225.8318184460
30
0.0000000000
10
516.9569262427
20
225.8364547402
30
0.0000000000
10
516.9575223362
20
225.8410910863
30
0.0000000000
10
516.9581180266
20
225.8457274841
30
0.0000000000
11
516.9563297461
21
225.8318184460
31
0.0000000000
11
516.9581180266
21
225.8457274841
31
0.0000000000
0
SPLINE
5
34A
100
AcDbEntity
8
DEFAULT_2
100
AcDbSpline
62
8
6
HIDDEN
70
0
71
3
72
8
73
4
74
2
42
0.0000001000
43
0.0000001000
44
0.0000000001
40
0.0000000000
40
0.0000000000
40
0.0000000000
40
0.0000000000
40
1.0000000000
40
1.0000000000
40
1.0000000000
40
1.0000000000
10
516.9581180266
20
225.8457274841
30
0.0000000000
10
516.9795853459
20
226.0128126461
30
0.0000000000
10
517.0005292131
20
226.1799650554
30
0.0000000000
10
517.0209524501
20
226.3471806346
30
0.0000000000
11
516.9581180266
21
225.8457274841
31
0.0000000000
11
517.0209524501
21
226.3471806346
31
0.0000000000
0
SPLINE
5
34B
100
AcDbEntity
8
DEFAULT_2
100
AcDbSpline
62
8
6
HIDDEN
70
0
71
3
72
9
73
5
74
3
42
0.0000001000
43
0.0000001000
44
0.0000000001
40
0.0000000000
40
0.0000000000
40
0.0000000000
40
0.0000000000
40
0.4995456478
40
1.0000000000
40
1.0000000000
40
1.0000000000
40
1.0000000000
10
516.8382013068
20
223.9643766364
30
0.0000000000
10
516.8474067376
20
224.1946276163
30
0.0000000000
10
516.8656667347
20
224.6555551332
30
0.0000000000
10
516.8835924340
20
225.1164957719
30
0.0000000000
10
516.8924800025
20
225.3471787272
30
0.0000000000
11
516.8382013068
21
223.9643766364
31
0.0000000000
11
516.8655667191
21
224.6551395608
31
0.0000000000
11
516.8924800025
21
225.3471787272
31
0.0000000000
0
SPLINE
5
34C
100
AcDbEntity
8
DEFAULT_2
100
AcDbSpline
62
8
6
HIDDEN
70
0
71
3
72
9
73
5
74
3
42
0.0000001000
43
0.0000001000
44
0.0000000001
40
0.0000000000
40
0.0000000000
40
0.0000000000
40
0.0000000000
40
0.4995498028
40
1.0000000000
40
1.0000000000
40
1.0000000000
40
1.0000000000
10
516.8382013068
20
222.2824421532
30
0.0000000000
10
516.8474067190
20
222.0850841398
30
0.0000000000
10
516.8656666243
20
221.6900045617
30
0.0000000000
10
516.8835924174
20
221.2949096833
30
0.0000000000
10
516.8924800025
20
221.0971806346
30
0.0000000000
11
516.8382013068
21
222.2824421532
31
0.0000000000
11
516.8655668055
21
221.6903564710
31
0.0000000000
11
516.8924800025
21
221.0971806346
31
0.0000000000
0
SPLINE
5
34D
100
AcDbEntity
8
DEFAULT_2
100
AcDbSpline
62
8
6
HIDDEN
70
0
71
3
72
9
73
5
74
3
42
0.0000001000
43
0.0000001000
44
0.0000000001
40
0.0000000000
40
0.0000000000
40
0.0000000000
40
0.0000000000
40
0.6821028765
40
1.0000000000
40
1.0000000000
40
1.0000000000
40
1.0000000000
10
516.8924800025
20
221.0971806346
30
0.0000000000
10
516.9148795334
20
220.9310670314
30
0.0000000000
10
516.9469544098
20
220.6874318058
30
0.0000000000
10
516.9779154298
20
220.4436534844
30
0.0000000000
10
516.9876455656
20
220.3661430027
30
0.0000000000
11
516.8924800025
21
221.0971806346
31
0.0000000000
11
516.9581180266
21
220.5986318777
31
0.0000000000
11
516.9876455656
21
220.3661430027
31
0.0000000000
0
SPLINE
5
34E
100
AcDbEntity
8
DEFAULT_2
100
AcDbSpline
62
8
6
HIDDEN
70
0
71
3
72
8
73
4
74
2
42
0.0000001000
43
0.0000001000
44
0.0000000001
40
0.0000000000
40
0.0000000000
40
0.0000000000
40
0.0000000000
40
1.0000000000
40
1.0000000000
40
1.0000000000
40
1.0000000000
10
516.9876455656
20
220.3661430027
30
0.0000000000
10
516.9883935001
20
220.3601849393
30
0.0000000000
10
516.9891407712
20
220.3542267928
30
0.0000000000
10
516.9898873790
20
220.3482685635
30
0.0000000000
11
516.9876455656
21
220.3661430027
31
0.0000000000
11
516.9898873790
21
220.3482685635
31
0.0000000000
0
SPLINE
5
34F
100
AcDbEntity
8
DEFAULT_2
100
AcDbSpline
62
8
6
HIDDEN
70
0
71
3
72
8
73
4
74
2
42
0.0000001000
43
0.0000001000
44
0.0000000001
40
0.0000000000
40
0.0000000000
40
0.0000000000
40
0.0000000000
40
1.0000000000
40
1.0000000000
40
1.0000000000
40
1.0000000000
10
516.9898873790
20
220.3482685635
30
0.0000000000
10
517.0003731229
20
220.2645881246
30
0.0000000000
10
517.0107280285
20
220.1808913419
30
0.0000000000
10
517.0209524501
20
220.0971787272
30
0.0000000000
11
516.9898873790
21
220.3482685635
31
0.0000000000
11
517.0209524501
21
220.0971787272
31
0.0000000000
0
SPLINE
5
350
100
AcDbEntity
8
DEFAULT_2
100
AcDbSpline
62
8
6
HIDDEN
70
0
71
3
72
9
73
5
74
3
42
0.0000001000
43
0.0000001000
44
0.0000000001
40
0.0000000000
40
0.0000000000
40
0.0000000000
40
0.0000000000
40
0.4993170495
40
1.0000000000
40
1.0000000000
40
1.0000000000
40
1.0000000000
10
517.0209524501
20
220.0971787272
30
0.0000000000
10
517.0613897935
20
219.9316389767
30
0.0000000000
10
517.1384629326
20
219.5991387572
30
0.0000000000
10
517.2076467386
20
219.2649075739
30
0.0000000000
10
517.2402962572
20
219.0971825419
30
0.0000000000
11
517.0209524501
21
220.0971787272
31
0.0000000000
11
517.1363907094
21
219.5991613599
31
0.0000000000
11
517.2402962572
21
219.0971825419
31
0.0000000000
0
SPLINE
5
351
100
AcDbEntity
8
DEFAULT_2
100
AcDbSpline
62
8
6
HIDDEN
70
0
71
3
72
9
73
5
74
3
42
0.0000001000
43
0.0000001000
44
0.0000000001
40
0.0000000000
40
0.0000000000
40
0.0000000000
40
0.0000000000
40
0.5102109569
40
1.0000000000
40
1.0000000000
40
1.0000000000
40
1.0000000000
10
517.2402962572
20
219.0971825419
30
0.0000000000
10
517.2719258977
20
219.0565606321
30
0.0000000000
10
517.3315763833
20
218.9750817243
30
0.0000000000
10
517.3857370363
20
218.8898334851
30
0.0000000000
10
517.4107043884
20
218.8471806346
30
0.0000000000
11
517.2402962572
21
219.0971825419
31
0.0000000000
11
517.3313654734
21
218.9724365547
31
0.0000000000
11
517.4107043884
21
218.8471806346
31
0.0000000000
0
SPLINE
5
352
100
AcDbEntity
8
DEFAULT_2
100
AcDbSpline
62
8
6
HIDDEN
70
0
71
3
72
9
73
5
74
3
42
0.0000001000
43
0.0000001000
44
0.0000000001
40
0.0000000000
40
0.0000000000
40
0.0000000000
40
0.0000000000
40
0.4997788611
40
1.0000000000
40
1.0000000000
40
1.0000000000
40
1.0000000000
10
516.8382013068
20
236.8921432748
30
0.0000000000
10
516.9162772227
20
237.1312713540
30
0.0000000000
10
517.0616068090
20
237.6133656768
30
0.0000000000
10
517.1845373162
20
238.1016585939
30
0.0000000000
10
517.2402962572
20
238.3471806346
30
0.0000000000
11
516.8382013068
21
236.8921432748
31
0.0000000000
11
517.0559477154
21
237.6147007353
31
0.0000000000
11
517.2402962572
21
238.3471806346
31
0.0000000000
0
SPLINE
5
353
100
AcDbEntity
8
0
100
AcDbSpline
62
7
6
CONTINUOUS
70
0
71
3
72
9
73
5
74
3
42
0.0000001000
43
0.0000001000
44
0.0000000001
40
0.0000000000
40
0.0000000000
40
0.0000000000
40
0.0000000000
40
0.4950795995
40
1.0000000000
40
1.0000000000
40
1.0000000000
40
1.0000000000
10
546.1382013068
20
495.0567684796
30
0.0000000000
10
546.4305377532
20
494.9649639449
30
0.0000000000
10
547.0235220332
20
494.7874077760
30
0.0000000000
10
547.6209557350
20
494.6254582409
30
0.0000000000
10
547.9236039317
20
494.5475973085
30
0.0000000000
11
546.1382013068
21
495.0567684796
31
0.0000000000
11
547.0187771632
21
494.7929803163
31
0.0000000000
11
547.9236039317
21
494.5475973085
31
0.0000000000
0
SPLINE
5
354
100
AcDbEntity
8
0
100
AcDbSpline
62
7
6
CONTINUOUS
70
0
71
3
72
10
73
6
74
4
42
0.0000001000
43
0.0000001000
44
0.0000000001
40
0.0000000000
40
0.0000000000
40
0.0000000000
40
0.0000000000
40
0.3628188053
40
0.6938666772
40
1.0000000000
40
1.0000000000
40
1.0000000000
40
1.0000000000
10
466.1390633886
20
488.9471806346
30
0.0000000000
10
467.9891642546
20
487.6863009907
30
0.0000000000
10
471.6553741985
20
485.4546267556
30
0.0000000000
10
477.2591310690
20
482.8431120793
30
0.0000000000
10
480.9956710663
20
481.5878498302
30
0.0000000000
10
482.8182013068
20
481.0907542058
30
0.0000000000
11
466.1390633886
21
488.9471806346
31
0.0000000000
11
471.8839560803
21
485.4671771610
31
0.0000000000
11
477.4435365030
21
482.8883812756
31
0.0000000000
11
482.8182013068
21
481.0907542058
31
0.0000000000
0
SPLINE
5
355
100
AcDbEntity
8
0
100
AcDbSpline
62
7
6
CONTINUOUS
70
0
71
3
72
10
73
6
74
4
42
0.0000001000
43
0.0000001000
44
0.0000000001
40
0.0000000000
40
0.0000000000
40
0.0000000000
40
0.0000000000
40
0.3061175061
40
0.6371601429
40
1.0000000000
40
1.0000000000
40
1.0000000000
40
1.0000000000
10
507.4582013068
20
481.0907542058
30
0.0000000000
10
509.2806373800
20
481.5878241460
30
0.0000000000
10
513.0170567300
20
482.8430334040
30
0.0000000000
10
518.6208296393
20
485.4545129419
30
0.0000000000
10
522.2871310154
20
487.6862278338
30
0.0000000000
10
524.1373392251
20
488.9471806346
30
0.0000000000
11
507.4582013068
21
481.0907542058
31
0.0000000000
11
512.8325935379
21
482.8882730635
31
0.0000000000
11
518.3921019491
21
485.4669938425
31
0.0000000000
11
524.1373392251
21
488.9471806346
31
0.0000000000
0
SPLINE
5
356
100
AcDbEntity
8
0
100
AcDbSpline
62
7
6
CONTINUOUS
70
0
71
3
72
10
73
6
74
4
42
0.0000001000
43
0.0000001000
44
0.0000000001
40
0.0000000000
40
0.0000000000
40
0.0000000000
40
0.0000000000
40
0.3616550768
40
0.6900368114
40
1.0000000000
40
1.0000000000
40
1.0000000000
40
1.0000000000
10
516.8382013068
20
268.3293231353
30
0.0000000000
10
517.0048197430
20
268.1266457097
30
0.0000000000
10
517.2928494041
20
267.7129156167
30
0.0000000000
10
517.5738853876
20
267.0369570029
30
0.0000000000
10
517.6382013068
20
266.5726404361
30
0.0000000000
10
517.6382013068
20
266.3471807538
30
0.0000000000
11
516.8382013068
21
268.3293231353
31
0.0000000000
11
517.2808884306
21
267.6784877572
31
0.0000000000
11
517.5486069516
21
267.0158210288
31
0.0000000000
11
517.6382013068
21
266.3471807538
31
0.0000000000
0
SPLINE
5
357
100
AcDbEntity
8
0
100
AcDbSpline
62
7
6
CONTINUOUS
70
0
71
3
72
9
73
5
74
3
42
0.0000001000
43
0.0000001000
44
0.0000000001
40
0.0000000000
40
0.0000000000
40
0.0000000000
40
0.0000000000
40
0.1992365644
40
1.0000000000
40
1.0000000000
40
1.0000000000
40
1.0000000000
10
517.5252103552
20
267.1002245724
30
0.0000000000
10
517.5398295779
20
267.1487851915
30
0.0000000000
10
517.6065944200
20
267.3945173209
30
0.0000000000
10
517.6379954459
20
267.6494024649
30
0.0000000000
10
517.6381489626
20
267.8533684874
30
0.0000000000
11
517.5252103552
21
267.1002245724
31
0.0000000000
11
517.5650297994
21
267.2470661728
31
0.0000000000
11
517.6381489626
21
267.8533684874
31
0.0000000000
0
SPLINE
5
358
100
AcDbEntity
8
0
100
AcDbSpline
62
7
6
CONTINUOUS
70
0
71
3
72
8
73
4
74
2
42
0.0000001000
43
0.0000001000
44
0.0000000001
40
0.0000000000
40
0.0000000000
40
0.0000000000
40
0.0000000000
40
1.0000000000
40
1.0000000000
40
1.0000000000
40
1.0000000000
10
517.5283236528
20
259.6068140922
30
0.0000000000
10
517.5354077058
20
259.6306262194
30
0.0000000000
10
517.5421722401
20
259.6545360769
30
0.0000000000
10
517.5486069515
20
259.6785400012
30
0.0000000000
11
517.5283236528
21
259.6068140922
31
0.0000000000
11
517.5486069515
21
259.6785400012
31
0.0000000000
0
SPLINE
5
359
100
AcDbEntity
8
0
100
AcDbSpline
62
7
6
CONTINUOUS
70
0
71
3
72
8
73
4
74
2
42
0.0000001000
43
0.0000001000
44
0.0000000001
40
0.0000000000
40
0.0000000000
40
0.0000000000
40
0.0000000000
40
1.0000000000
40
1.0000000000
40
1.0000000000
40
1.0000000000
10
517.5486069515
20
259.6785400012
30
0.0000000000
10
517.6069712205
20
259.8962609524
30
0.0000000000
10
517.6382013068
20
260.1217206743
30
0.0000000000
10
517.6382013068
20
260.3471803962
30
0.0000000000
11
517.5486069515
21
259.6785400012
31
0.0000000000
11
517.6382013068
21
260.3471803962
31
0.0000000000
0
SPLINE
5
35A
100
AcDbEntity
8
0
100
AcDbSpline
62
7
6
CONTINUOUS
70
0
71
3
72
8
73
4
74
2
42
0.0000001000
43
0.0000001000
44
0.0000000001
40
0.0000000000
40
0.0000000000
40
0.0000000000
40
0.0000000000
40
1.0000000000
40
1.0000000000
40
1.0000000000
40
1.0000000000
10
517.6210772219
20
221.7048538902
30
0.0000000000
10
517.6324999337
20
222.0258821842
30
0.0000000000
10
517.6382072550
20
222.3471523621
30
0.0000000000
10
517.6381954145
20
222.6684200244
30
0.0000000000
11
517.6210772219
21
221.7048538902
31
0.0000000000
11
517.6381954145
21
222.6684200244
31
0.0000000000
0
SPLINE
5
35B
100
AcDbEntity
8
0
100
AcDbSpline
62
7
6
CONTINUOUS
70
0
71
3
72
9
73
5
74
3
42
0.0000001000
43
0.0000001000
44
0.0000000001
40
0.0000000000
40
0.0000000000
40
0.0000000000
40
0.0000000000
40
0.6650407373
40
1.0000000000
40
1.0000000000
40
1.0000000000
40
1.0000000000
10
517.1368251841
20
225.8471825419
30
0.0000000000
10
517.2680705357
20
225.1670423773
30
0.0000000000
10
517.4268388037
20
224.1364505459
30
0.0000000000
10
517.5272364468
20
223.0993209938
30
0.0000000000
10
517.5543128377
20
222.7514144941
30
0.0000000000
11
517.1368251841
21
225.8471825419
31
0.0000000000
11
517.4534291555
21
223.7933797767
31
0.0000000000
11
517.5543128377
21
222.7514144941
31
0.0000000000
0
SPLINE
5
35C
100
AcDbEntity
8
0
100
AcDbSpline
62
7
6
CONTINUOUS
70
0
71
3
72
8
73
4
74
2
42
0.0000001000
43
0.0000001000
44
0.0000000001
40
0.0000000000
40
0.0000000000
40
0.0000000000
40
0.0000000000
40
1.0000000000
40
1.0000000000
40
1.0000000000
40
1.0000000000
10
517.5543128377
20
222.7514144941
30
0.0000000000
10
517.5565829217
20
222.7222460212
30
0.0000000000
10
517.5588069456
20
222.6930739610
30
0.0000000000
10
517.5609849073
20
222.6638984450
30
0.0000000000
11
517.5543128377
21
222.7514144941
31
0.0000000000
11
517.5609849073
21
222.6638984450
31
0.0000000000
0
SPLINE
5
35D
100
AcDbEntity
8
0
100
AcDbSpline
62
7
6
CONTINUOUS
70
0
71
3
72
9
73
5
74
3
42
0.0000001000
43
0.0000001000
44
0.0000000001
40
0.0000000000
40
0.0000000000
40
0.0000000000
40
0.0000000000
40
0.5296401146
40
1.0000000000
40
1.0000000000
40
1.0000000000
40
1.0000000000
10
517.5609849073
20
222.6638984450
30
0.0000000000
10
517.5848700961
20
222.3439374868
30
0.0000000000
10
517.6195073694
20
221.7390426190
30
0.0000000000
10
517.6343856740
20
221.1332844906
30
0.0000000000
10
517.6370127649
20
220.8483301605
30
0.0000000000
11
517.5609849073
21
222.6638984450
31
0.0000000000
11
517.6160179157
21
221.7029421519
31
0.0000000000
11
517.6370127649
21
220.8483301605
31
0.0000000000
0
SPLINE
5
35E
100
AcDbEntity
8
0
100
AcDbSpline
62
7
6
CONTINUOUS
70
0
71
3
72
8
73
4
74
2
42
0.0000001000
43
0.0000001000
44
0.0000000001
40
0.0000000000
40
0.0000000000
40
0.0000000000
40
0.0000000000
40
1.0000000000
40
1.0000000000
40
1.0000000000
40
1.0000000000
10
517.6370127649
20
220.8483301605
30
0.0000000000
10
517.6377962623
20
220.7633460605
30
0.0000000000
10
517.6381909721
20
220.6783592916
30
0.0000000000
10
517.6381969045
20
220.5933741240
30
0.0000000000
11
517.6370127649
21
220.8483301605
31
0.0000000000
11
517.6381969045
21
220.5933741240
31
0.0000000000
0
SPLINE
5
35F
100
AcDbEntity
8
0
100
AcDbSpline
62
7
6
CONTINUOUS
70
0
71
3
72
8
73
4
74
2
42
0.0000001000
43
0.0000001000
44
0.0000000001
40
0.0000000000
40
0.0000000000
40
0.0000000000
40
0.0000000000
40
1.0000000000
40
1.0000000000
40
1.0000000000
40
1.0000000000
10
517.6210771831
20
210.7048547058
30
0.0000000000
10
517.6324999207
20
211.0258833632
30
0.0000000000
10
517.6382072550
20
211.3471539053
30
0.0000000000
10
517.6381954145
20
211.6684219317
30
0.0000000000
11
517.6210771831
21
210.7048547058
31
0.0000000000
11
517.6381954145
21
211.6684219317
31
0.0000000000
0
SPLINE
5
360
100
AcDbEntity
8
0
100
AcDbSpline
62
7
6
CONTINUOUS
70
0
71
3
72
9
73
5
74
3
42
0.0000001000
43
0.0000001000
44
0.0000000001
40
0.0000000000
40
0.0000000000
40
0.0000000000
40
0.0000000000
40
0.6650407413
40
1.0000000000
40
1.0000000000
40
1.0000000000
40
1.0000000000
10
517.1368251841
20
214.8471787272
30
0.0000000000
10
517.2680705348
20
214.1670391898
30
0.0000000000
10
517.4268388036
20
213.1364483010
30
0.0000000000
10
517.5272364476
20
212.0993196855
30
0.0000000000
10
517.5543128385
20
211.7514135031
30
0.0000000000
11
517.1368251841
21
214.8471787272
31
0.0000000000
11
517.4534291567
21
212.7933778320
31
0.0000000000
11
517.5543128385
21
211.7514135031
31
0.0000000000
0
SPLINE
5
361
100
AcDbEntity
8
0
100
AcDbSpline
62
7
6
CONTINUOUS
70
0
71
3
72
8
73
4
74
2
42
0.0000001000
43
0.0000001000
44
0.0000000001
40
0.0000000000
40
0.0000000000
40
0.0000000000
40
0.0000000000
40
1.0000000000
40
1.0000000000
40
1.0000000000
40
1.0000000000
10
517.5543128385
20
211.7514135031
30
0.0000000000
10
517.5565828498
20
211.7222459905
30
0.0000000000
10
517.5588068040
20
211.6930748907
30
0.0000000000
10
517.5609846989
20
211.6639003354
30
0.0000000000
11
517.5543128385
21
211.7514135031
31
0.0000000000
11
517.5609846989
21
211.6639003354
31
0.0000000000
0
SPLINE
5
362
100
AcDbEntity
8
0
100
AcDbSpline
62
7
6
CONTINUOUS
70
0
71
3
72
9
73
5
74
3
42
0.0000001000
43
0.0000001000
44
0.0000000001
40
0.0000000000
40
0.0000000000
40
0.0000000000
40
0.0000000000
40
0.5296411783
40
1.0000000000
40
1.0000000000
40
1.0000000000
40
1.0000000000
10
517.5609846989
20
211.6639003354
30
0.0000000000
10
517.5848699896
20
211.3439387402
30
0.0000000000
10
517.6195073248
20
210.7390438781
30
0.0000000000
10
517.6343856553
20
210.1332857531
30
0.0000000000
10
517.6370127544
20
209.8483320687
30
0.0000000000
11
517.5609846989
21
211.6639003354
31
0.0000000000
11
517.6160179160
21
210.7029421229
31
0.0000000000
11
517.6370127544
21
209.8483320687
31
0.0000000000
0
SPLINE
5
363
100
AcDbEntity
8
0
100
AcDbSpline
62
7
6
CONTINUOUS
70
0
71
3
72
8
73
4
74
2
42
0.0000001000
43
0.0000001000
44
0.0000000001
40
0.0000000000
40
0.0000000000
40
0.0000000000
40
0.0000000000
40
1.0000000000
40
1.0000000000
40
1.0000000000
40
1.0000000000
10
517.6370127544
20
209.8483320687
30
0.0000000000
10
517.6377962587
20
209.7633476642
30
0.0000000000
10
517.6381909721
20
209.6783605906
30
0.0000000000
10
517.6381969045
20
209.5933751185
30
0.0000000000
11
517.6370127544
21
209.8483320687
31
0.0000000000
11
517.6381969045
21
209.5933751185
31
0.0000000000
0
SPLINE
5
364
100
AcDbEntity
8
0
100
AcDbSpline
62
7
6
CONTINUOUS
70
0
71
3
72
8
73
4
74
2
42
0.0000001000
43
0.0000001000
44
0.0000000001
40
0.0000000000
40
0.0000000000
40
0.0000000000
40
0.0000000000
40
1.0000000000
40
1.0000000000
40
1.0000000000
40
1.0000000000
10
517.5565683736
20
259.5971811114
30
0.0000000000
10
517.6097163063
20
259.3940946271
30
0.0000000000
10
517.6378497301
20
259.1828881469
30
0.0000000000
10
517.6380830078
20
258.9719527474
30
0.0000000000
11
517.5565683736
21
259.5971811114
31
0.0000000000
11
517.6380830078
21
258.9719527474
31
0.0000000000
0
SPLINE
5
365
100
AcDbEntity
8
0
100
AcDbSpline
62
7
6
CONTINUOUS
70
0
71
3
72
8
73
4
74
2
42
0.0000001000
43
0.0000001000
44
0.0000000001
40
0.0000000000
40
0.0000000000
40
0.0000000000
40
0.0000000000
40
1.0000000000
40
1.0000000000
40
1.0000000000
40
1.0000000000
10
517.6380830078
20
255.7224094754
30
0.0000000000
10
517.6378497301
20
255.5114740759
30
0.0000000000
10
517.6097163063
20
255.3002675957
30
0.0000000000
10
517.5565683736
20
255.0971811114
30
0.0000000000
11
517.6380830078
21
255.7224094754
31
0.0000000000
11
517.5565683736
21
255.0971811114
31
0.0000000000
0
SPLINE
5
366
100
AcDbEntity
8
0
100
AcDbSpline
62
7
6
CONTINUOUS
70
0
71
3
72
8
73
4
74
2
42
0.0000001000
43
0.0000001000
44
0.0000000001
40
0.0000000000
40
0.0000000000
40
0.0000000000
40
0.0000000000
40
1.0000000000
40
1.0000000000
40
1.0000000000
40
1.0000000000
10
517.6382013068
20
254.3471803962
30
0.0000000000
10
517.6382013068
20
254.5726401180
30
0.0000000000
10
517.6069712205
20
254.7980998399
30
0.0000000000
10
517.5486069515
20
255.0158207911
30
0.0000000000
11
517.6382013068
21
254.3471803962
31
0.0000000000
11
517.5486069515
21
255.0158207911
31
0.0000000000
0
SPLINE
5
367
100
AcDbEntity
8
0
100
AcDbSpline
62
7
6
CONTINUOUS
70
0
71
3
72
8
73
4
74
2
42
0.0000001000
43
0.0000001000
44
0.0000000001
40
0.0000000000
40
0.0000000000
40
0.0000000000
40
0.0000000000
40
1.0000000000
40
1.0000000000
40
1.0000000000
40
1.0000000000
10
517.5486069515
20
255.0158207911
30
0.0000000000
10
517.5421721230
20
255.0398251524
30
0.0000000000
10
517.5354074595
20
255.0637354435
30
0.0000000000
10
517.5283232659
20
255.0875480006
30
0.0000000000
11
517.5486069515
21
255.0158207911
31
0.0000000000
11
517.5283232659
21
255.0875480006
31
0.0000000000
0
SPLINE
5
368
100
AcDbEntity
8
0
100
AcDbSpline
62
7
6
CONTINUOUS
70
0
71
3
72
9
73
5
74
3
42
0.0000001000
43
0.0000001000
44
0.0000000001
40
0.0000000000
40
0.0000000000
40
0.0000000000
40
0.0000000000
40
0.8007635761
40
1.0000000000
40
1.0000000000
40
1.0000000000
40
1.0000000000
10
517.6381489626
20
270.8409930202
30
0.0000000000
10
517.6379954459
20
271.0449590426
30
0.0000000000
10
517.6065944255
20
271.2998441419
30
0.0000000000
10
517.5398296013
20
271.5455762298
30
0.0000000000
10
517.5252103939
20
271.5941368068
30
0.0000000000
11
517.6381489626
21
270.8409930202
31
0.0000000000
11
517.5650297994
21
271.4472953348
31
0.0000000000
11
517.5252103939
21
271.5941368068
31
0.0000000000
0
SPLINE
5
369
100
AcDbEntity
8
0
100
AcDbSpline
62
7
6
CONTINUOUS
70
0
71
3
72
10
73
6
74
4
42
0.0000001000
43
0.0000001000
44
0.0000000001
40
0.0000000000
40
0.0000000000
40
0.0000000000
40
0.0000000000
40
0.3099631928
40
0.6383449282
40
1.0000000000
40
1.0000000000
40
1.0000000000
40
1.0000000000
10
517.6382013068
20
272.3471805750
30
0.0000000000
10
517.6382013068
20
272.1217208729
30
0.0000000000
10
517.5738853885
20
271.6574042680
30
0.0000000000
10
517.2928494070
20
270.9814455952
30
0.0000000000
10
517.0048197443
20
270.5677154614
30
0.0000000000
10
516.8382013068
20
270.3650380163
30
0.0000000000
11
517.6382013068
21
272.3471805750
31
0.0000000000
11
517.5486069516
21
271.6785402401
31
0.0000000000
11
517.2808884305
21
271.0158734523
31
0.0000000000
11
516.8382013068
21
270.3650380163
31
0.0000000000
0
SPLINE
5
36A
100
AcDbEntity
8
0
100
AcDbSpline
62
7
6
CONTINUOUS
70
0
71
3
72
9
73
5
74
3
42
0.0000001000
43
0.0000001000
44
0.0000000001
40
0.0000000000
40
0.0000000000
40
0.0000000000
40
0.0000000000
40
0.4795819905
40
1.0000000000
40
1.0000000000
40
1.0000000000
40
1.0000000000
10
517.4457987668
20
259.8471801577
30
0.0000000000
10
517.3765165099
20
260.0189825355
30
0.0000000000
10
517.1977357308
20
260.3638647163
30
0.0000000000
10
516.9674573679
20
260.6757414692
30
0.0000000000
10
516.8382013068
20
260.8296951571
30
0.0000000000
11
517.4457987668
21
259.8471801577
31
0.0000000000
11
517.1931920392
21
260.3421898894
31
0.0000000000
11
516.8382013068
21
260.8296951571
31
0.0000000000
0
SPLINE
5
36B
100
AcDbEntity
8
0
100
AcDbSpline
62
7
6
CONTINUOUS
70
0
71
3
72
9
73
5
74
3
42
0.0000001000
43
0.0000001000
44
0.0000000001
40
0.0000000000
40
0.0000000000
40
0.0000000000
40
0.0000000000
40
0.4795819905
40
1.0000000000
40
1.0000000000
40
1.0000000000
40
1.0000000000
10
517.4457987668
20
254.8471806346
30
0.0000000000
10
517.3765165099
20
254.6753782568
30
0.0000000000
10
517.1977357308
20
254.3304960760
30
0.0000000000
10
516.9674573679
20
254.0186193231
30
0.0000000000
10
516.8382013068
20
253.8646656352
30
0.0000000000
11
517.4457987668
21
254.8471806346
31
0.0000000000
11
517.1931920392
21
254.3521709029
31
0.0000000000
11
516.8382013068
21
253.8646656352
31
0.0000000000
0
SPLINE
5
36C
100
AcDbEntity
8
0
100
AcDbSpline
62
7
6
CONTINUOUS
70
0
71
3
72
10
73
6
74
4
42
0.0000001000
43
0.0000001000
44
0.0000000001
40
0.0000000000
40
0.0000000000
40
0.0000000000
40
0.0000000000
40
0.1023249675
40
0.5532272900
40
1.0000000000
40
1.0000000000
40
1.0000000000
40
1.0000000000
10
517.6381954145
20
211.6684219317
30
0.0000000000
10
517.6381888631
20
211.8461812636
30
0.0000000000
10
517.6286870357
20
212.8072457012
30
0.0000000000
10
517.5189648471
20
214.5422139325
30
0.0000000000
10
517.2858878419
20
216.0858330933
30
0.0000000000
10
517.1368251841
20
216.8471825419
30
0.0000000000
11
517.6381954145
21
211.6684219317
31
0.0000000000
11
517.6329223992
21
212.2016562172
31
0.0000000000
11
517.4845559290
21
214.5458921954
31
0.0000000000
11
517.1368251841
21
216.8471825419
31
0.0000000000
0
SPLINE
5
36D
100
AcDbEntity
8
0
100
AcDbSpline
62
7
6
CONTINUOUS
70
0
71
3
72
10
73
6
74
4
42
0.0000001000
43
0.0000001000
44
0.0000000001
40
0.0000000000
40
0.0000000000
40
0.0000000000
40
0.0000000000
40
0.4856226036
40
0.9385644105
40
1.0000000000
40
1.0000000000
40
1.0000000000
40
1.0000000000
10
517.1900995346
20
269.3471807538
30
0.0000000000
10
517.3222466621
20
269.5652442917
30
0.0000000000
10
517.5363437439
20
270.0150495119
30
0.0000000000
10
517.6331136921
20
270.5378209119
30
0.0000000000
10
517.6381733108
20
270.8086434098
30
0.0000000000
10
517.6381489626
20
270.8409930202
30
0.0000000000
11
517.1900995346
21
269.3471807538
31
0.0000000000
11
517.5107970039
21
270.0416476443
31
0.0000000000
11
517.6363268117
21
270.7439784647
31
0.0000000000
11
517.6381489626
21
270.8409930202
31
0.0000000000
0
SPLINE
5
36E
100
AcDbEntity
8
0
100
AcDbSpline
62
7
6
CONTINUOUS
70
0
71
3
72
10
73
6
74
4
42
0.0000001000
43
0.0000001000
44
0.0000000001
40
0.0000000000
40
0.0000000000
40
0.0000000000
40
0.0000000000
40
0.1023249675
40
0.5532272900
40
1.0000000000
40
1.0000000000
40
1.0000000000
40
1.0000000000
10
517.6381954145
20
222.6684200244
30
0.0000000000
10
517.6381888631
20
222.8461793562
30
0.0000000000
10
517.6286870357
20
223.8072437939
30
0.0000000000
10
517.5189648471
20
225.5422120252
30
0.0000000000
10
517.2858878419
20
227.0858311859
30
0.0000000000
10
517.1368251841
20
227.8471806346
30
0.0000000000
11
517.6381954145
21
222.6684200244
31
0.0000000000
11
517.6329223992
21
223.2016543098
31
0.0000000000
11
517.4845559290
21
225.5458902881
31
0.0000000000
11
517.1368251841
21
227.8471806346
31
0.0000000000
0
SPLINE
5
36F
100
AcDbEntity
8
0
100
AcDbSpline
62
7
6
CONTINUOUS
70
0
71
3
72
10
73
6
74
4
42
0.0000001000
43
0.0000001000
44
0.0000000001
40
0.0000000000
40
0.0000000000
40
0.0000000000
40
0.0000000000
40
0.3099631970
40
0.6383449331
40
1.0000000000
40
1.0000000000
40
1.0000000000
40
1.0000000000
10
517.6382013068
20
260.3471803962
30
0.0000000000
10
517.6382013068
20
260.5726401180
30
0.0000000000
10
517.5738853894
20
261.0369567610
30
0.0000000000
10
517.2928494099
20
261.7129154928
30
0.0000000000
10
517.0048197455
20
262.1266456673
30
0.0000000000
10
516.8382013068
20
262.3293231321
30
0.0000000000
11
517.6382013068
21
260.3471803962
31
0.0000000000
11
517.5486069516
21
261.0158207910
31
0.0000000000
11
517.2808884305
21
261.6784876380
31
0.0000000000
11
516.8382013068
21
262.3293231321
31
0.0000000000
0
SPLINE
5
370
100
AcDbEntity
8
0
100
AcDbSpline
62
7
6
CONTINUOUS
70
0
71
3
72
10
73
6
74
4
42
0.0000001000
43
0.0000001000
44
0.0000000001
40
0.0000000000
40
0.0000000000
40
0.0000000000
40
0.0000000000
40
0.0614355895
40
0.5143773964
40
1.0000000000
40
1.0000000000
40
1.0000000000
40
1.0000000000
10
517.6381489626
20
267.8533684874
30
0.0000000000
10
517.6381733108
20
267.8857180977
30
0.0000000000
10
517.6331136921
20
268.1565405957
30
0.0000000000
10
517.5363437439
20
268.6793119956
30
0.0000000000
10
517.3222466621
20
269.1291172159
30
0.0000000000
10
517.1900995346
20
269.3471807538
30
0.0000000000
11
517.6381489626
21
267.8533684874
31
0.0000000000
11
517.6363268117
21
267.9503830429
31
0.0000000000
11
517.5107970039
21
268.6527138633
31
0.0000000000
11
517.1900995346
21
269.3471807538
31
0.0000000000
0
SPLINE
5
371
100
AcDbEntity
8
0
100
AcDbSpline
62
7
6
CONTINUOUS
70
0
71
3
72
10
73
6
74
4
42
0.0000001000
43
0.0000001000
44
0.0000000001
40
0.0000000000
40
0.0000000000
40
0.0000000000
40
0.0000000000
40
0.3616550669
40
0.6900368030
40
1.0000000000
40
1.0000000000
40
1.0000000000
40
1.0000000000
10
516.8382013068
20
252.3650376602
30
0.0000000000
10
517.0048197455
20
252.5677151251
30
0.0000000000
10
517.2928494099
20
252.9814452995
30
0.0000000000
10
517.5738853894
20
253.6574040313
30
0.0000000000
10
517.6382013068
20
254.1217206743
30
0.0000000000
10
517.6382013068
20
254.3471803962
30
0.0000000000
11
516.8382013068
21
252.3650376602
31
0.0000000000
11
517.2808884305
21
253.0158731543
31
0.0000000000
11
517.5486069516
21
253.6785400013
31
0.0000000000
11
517.6382013068
21
254.3471803962
31
0.0000000000
0
ENDSEC
0
SECTION
2
OBJECTS
0
DICTIONARY
5
372
100
AcDbDictionary
3
ACAD_GROUP
350
373
3
ACAD_MLINESTYLE
350
374
0
DICTIONARY
5
373
102
{ACAD_REACTORS
330
372
102
}
100
AcDbDictionary
0
DICTIONARY
5
374
102
{ACAD_REACTORS
330
372
102
}
100
AcDbDictionary
3
STANDARD
350
375
0
MLINESTYLE
5
375
102
{ACAD_REACTORS
330
374
102
}
100
AcDbMlineStyle
2
STANDARD
70
0
3

62
256
51
90.0
52
90.0
71
2
49
0.5
62
256
6
BYLAYER
49
-0.5
62
256
6
BYLAYER
0
ENDSEC
0
EOF
