999
DXF file: C:\Aktuell-Internet\CAD-Daten\2va1-20.dxf
999
Pro/ENGINEER 2001400 by Parametric Technology Corporation
0
SECTION
2
HEADER
9
$ACADVER
1
AC1014
9
$EXTMAX
10
420.0000000000
20
297.0000000000
9
$EXTMIN
10
0.0000000000
20
0.0000000000
9
$LIMMIN
10
0.0000000000
20
0.0000000000
9
$LIMMAX
10
420.0000000000
20
297.0000000000
9
$VIEWCTR
10
210.0000000000
20
148.5000000000
9
$VIEWSIZE
40
297.0000000000
9
$CLAYER
8
0
9
$LTSCALE
40
23.1000000000
9
$CELTYPE
6
BYLAYER
9
$DIMSCALE
40
1
9
$DIMASZ
40
3.5000000000
9
$DIMEXO
40
2.6250000000
9
$DIMDLI
40
15.9600000000
9
$DIMEXE
40
7.5600000000
9
$DIMCEN
40
3.7800000000
9
$DIMLFAC
40
1.0000000000
9
$DIMTXT
40
3.5000000000
9
$DIMTOL
70
1
9
$DIMTFAC
40
0.6000000000
9
$DIMTP
40
0.0050000000
9
$DIMTM
40
0.0050000000
9
$HANDSEED
5
3A6
0
ENDSEC
0
SECTION
2
CLASSES
0
ENDSEC
0
SECTION
2
TABLES
0
TABLE
2
VPORT
5
8
100
AcDbSymbolTable
70
2
0
VPORT
5
1F4
100
AcDbSymbolTableRecord
100
AcDbViewportTableRecord
2
*ACTIVE
70
0
10
0.0
20
0.0
11
1.0
21
1.0
12
210.0000000000
22
148.5000000000
13
0.0
23
0.0
14
1.0
24
1.0
15
0.0
25
0.0
16
0.0
26
0.0
36
1.0
17
0.0
27
0.0
37
0.0
40
297.0000000000
41
1.4141414141
42
50.0
43
0.0
44
0.0
50
0.0
51
0.0
71
0
72
100
73
1
74
1
75
0
76
0
77
0
78
0
0
ENDTAB
0
TABLE
2
LTYPE
5
5
100
AcDbSymbolTable
70
6
0
LTYPE
5
14
100
AcDbSymbolTableRecord
100
AcDbLinetypeTableRecord
2
BYBLOCK
70
0
3

72
65
73
0
40
0.0
0
LTYPE
5
15
100
AcDbSymbolTableRecord
100
AcDbLinetypeTableRecord
2
BYLAYER
70
0
3

72
65
73
0
40
0.0
0
LTYPE
5
16
100
AcDbSymbolTableRecord
100
AcDbLinetypeTableRecord
2
CONTINUOUS
70
64
3
Solid line
72
65
73
0
40
0
0
LTYPE
5
1F5
100
AcDbSymbolTableRecord
100
AcDbLinetypeTableRecord
2
CENTER
70
64
3
____ _ ____ _ ____ _ ____ _ ____ _ ____ _ ____
72
65
73
4
40
0.6
49
0.375
74
0
49
-0.075
74
0
49
0.075
74
0
49
-0.075
74
0
0
LTYPE
5
1F6
100
AcDbSymbolTableRecord
100
AcDbLinetypeTableRecord
2
HIDDEN
70
64
3
- - - - - - - - - - - - - - - - - - - -
72
65
73
2
40
0.2
49
0.1
74
0
49
-0.1
74
0
0
LTYPE
5
1F7
100
AcDbSymbolTableRecord
100
AcDbLinetypeTableRecord
2
PHANTOM
70
64
3
_____ _ _ _____ _ _ _____ _ _ _____
72
65
73
6
40
0.8
49
0.45
74
0
49
-0.05
74
0
49
0.1
74
0
49
-0.05
74
0
49
0.1
74
0
49
-0.05
74
0
0
LTYPE
5
1F8
100
AcDbSymbolTableRecord
100
AcDbLinetypeTableRecord
2
DOT
70
64
3
. . . . . . . . . . . . . . . . . . . .
72
65
73
2
40
0.2
49
0.1
74
0
49
-0.1
74
0
0
LTYPE
5
1F9
100
AcDbSymbolTableRecord
100
AcDbLinetypeTableRecord
2
DASHED
70
64
3
- - - - - - - - - - - - - - - - - - - -
72
65
73
2
40
0.2
49
0.1
74
0
49
-0.1
74
0
0
ENDTAB
0
TABLE
2
LAYER
5
2
100
AcDbSymbolTable
70
36
0
LAYER
5
10
100
AcDbSymbolTableRecord
100
AcDbLayerTableRecord
2
0
70
0
62
7
6
CONTINUOUS
0
LAYER
5
1FA
100
AcDbSymbolTableRecord
100
AcDbLayerTableRecord
2
DEFAULT_1
70
0
62
7
6
CENTER
0
LAYER
5
1FB
100
AcDbSymbolTableRecord
100
AcDbLayerTableRecord
2
DEFAULT_2
70
0
62
8
6
HIDDEN
0
LAYER
5
1FC
100
AcDbSymbolTableRecord
100
AcDbLayerTableRecord
2
DEFAULT_3
70
0
62
7
6
PHANTOM
0
ENDTAB
0
TABLE
2
STYLE
5
3
100
AcDbSymbolTable
70
1
0
STYLE
5
11
100
AcDbSymbolTableRecord
100
AcDbTextStyleTableRecord
2
STANDARD
70
0
40
0.0
41
1.0
50
0.0
71
0
42
0.0
3
txt
4

0
STYLE
5
1FD
100
AcDbSymbolTableRecord
100
AcDbTextStyleTableRecord
2
TEXTSTYLE_0
70
0
40
0.0
41
0.80
50
0.0
71
0
42
0.2
3
txt
4

0
ENDTAB
0
TABLE
2
VIEW
5
6
100
AcDbSymbolTable
70
0
0
ENDTAB
0
TABLE
2
UCS
5
7
100
AcDbSymbolTable
70
0
0
ENDTAB
0
TABLE
2
APPID
5
9
100
AcDbSymbolTable
70
1
0
APPID
5
1FE
100
AcDbSymbolTableRecord
100
AcDbRegAppTableRecord
2
ACAD
70
0
0
ENDTAB
0
TABLE
2
DIMSTYLE
5
A
100
AcDbSymbolTable
70
1
0
DIMSTYLE
105
1FF
100
AcDbSymbolTableRecord
100
AcDbDimStyleTableRecord
2
STANDARD
70
0
3

4

5

6

7

40
1.0
41
0.18
42
0.0625
43
0.38
44
0.18
45
0.0
46
0.0
47
0.0050000000
48
0.0050000000
140
3.5000000000
141
0.09
142
0.0
143
25.4
144
1.0000000000
145
0.0
146
0.6000000000
147
0.09
71
1
72
0
73
1
74
1
75
0
76
0
77
0
78
0
170
0
171
2
172
0
173
0
174
0
175
0
176
0
177
0
178
0
270
2
271
3
272
4
273
2
274
2
340
11
275
0
280
0
281
0
282
0
283
1
284
0
285
0
286
0
287
3
288
0
0
ENDTAB
0
TABLE
2
BLOCK_RECORD
5
1
100
AcDbSymbolTable
70
0
0
BLOCK_RECORD
5
1B
100
AcDbSymbolTableRecord
100
AcDbBlockTableRecord
2
*MODEL_SPACE
0
BLOCK_RECORD
5
1C
100
AcDbSymbolTableRecord
100
AcDbBlockTableRecord
2
*PAPER_SPACE
0
ENDTAB
0
ENDSEC
0
SECTION
2
BLOCKS
0
BLOCK
5
1E
100
AcDbEntity
8
0
100
AcDbBlockBegin
2
*MODEL_SPACE
70
0
10
0.0
20
0.0
30
0.0
3
*MODEL_SPACE
1

0
ENDBLK
5
1F
100
AcDbEntity
8
0
100
AcDbBlockEnd
0
BLOCK
5
20
100
AcDbEntity
8
0
100
AcDbBlockBegin
2
*PAPER_SPACE
70
0
10
0.0
20
0.0
30
0.0
3
*PAPER_SPACE
1

0
ENDBLK
5
21
100
AcDbEntity
8
0
100
AcDbBlockEnd
0
ENDSEC
0
SECTION
2
ENTITIES
0
TEXT
5
200
100
AcDbEntity
8
0
100
AcDbText
62
2
6
CONTINUOUS
10
496.6400327985
20
192.8057262802
7
TEXTSTYLE_0
40
10.0000000000
1
VA 1-20
50
90.0000000000
72
5
11
496.6400327985
21
246.1390596135
100
AcDbText
0
LINE
5
201
100
AcDbEntity
8
0
100
AcDbLine
62
7
6
CONTINUOUS
10
0.0000000000
20
0.0000000000
11
0.0000000000
21
297.0000000000
0
LINE
5
202
100
AcDbEntity
8
0
100
AcDbLine
62
7
6
CONTINUOUS
10
0.0000000000
20
0.0000000000
11
420.0000000000
21
0.0000000000
0
LINE
5
203
100
AcDbEntity
8
0
100
AcDbLine
62
7
6
CONTINUOUS
10
0.0000000000
20
297.0000000000
11
420.0000000000
21
297.0000000000
0
LINE
5
204
100
AcDbEntity
8
0
100
AcDbLine
62
7
6
CONTINUOUS
10
420.0000000000
20
0.0000000000
11
420.0000000000
21
297.0000000000
0
LINE
5
205
100
AcDbEntity
8
0
100
AcDbLine
62
7
6
CONTINUOUS
10
18.9581284950
20
305.0039573068
11
18.9581284950
21
145.0039573068
0
LINE
5
206
100
AcDbEntity
8
0
100
AcDbLine
62
7
6
CONTINUOUS
10
33.9581284950
20
261.6706238741
11
33.9581284950
21
260.0039573068
0
LINE
5
207
100
AcDbEntity
8
0
100
AcDbLine
62
7
6
CONTINUOUS
10
33.9581284950
20
255.0039573068
11
33.9581284950
21
253.7539573068
0
LINE
5
208
100
AcDbEntity
8
0
100
AcDbLine
62
7
6
CONTINUOUS
10
33.9581284950
20
247.9206235761
11
33.9581284950
21
246.6706235761
0
LINE
5
209
100
AcDbEntity
8
0
100
AcDbLine
62
7
6
CONTINUOUS
10
33.9581284950
20
233.7539573068
11
33.9581284950
21
232.5039573068
0
LINE
5
20A
100
AcDbEntity
8
0
100
AcDbLine
62
7
6
CONTINUOUS
10
33.9581284950
20
226.2539573068
11
33.9581284950
21
218.7539573068
0
LINE
5
20B
100
AcDbEntity
8
0
100
AcDbLine
62
7
6
CONTINUOUS
10
35.0219583044
20
224.5872922296
11
35.0219583044
21
218.7539573068
0
LINE
5
20C
100
AcDbEntity
8
0
100
AcDbLine
62
7
6
CONTINUOUS
10
36.9368518422
20
210.8372922296
11
35.6602561006
21
211.6706223840
0
LINE
5
20D
100
AcDbEntity
8
0
100
AcDbLine
62
7
6
CONTINUOUS
10
35.4474901686
20
210.4206223840
11
34.8091922978
21
211.0456223840
0
LINE
5
20E
100
AcDbEntity
8
0
100
AcDbLine
62
7
6
CONTINUOUS
10
42.4687669704
20
216.2539573068
11
43.1070647666
21
215.6289573068
0
LINE
5
20F
100
AcDbEntity
8
0
100
AcDbLine
62
7
6
CONTINUOUS
10
40.3411070535
20
220.4206223840
11
35.0219583044
21
226.2539573068
0
LINE
5
210
100
AcDbEntity
8
0
100
AcDbLine
62
7
6
CONTINUOUS
10
35.0219583044
20
224.5872922296
11
39.7028092573
21
219.3789573068
0
LINE
5
211
100
AcDbEntity
8
0
100
AcDbLine
62
7
6
CONTINUOUS
10
35.6602561006
20
211.6706223840
11
35.2347242365
21
212.2956223840
0
LINE
5
212
100
AcDbEntity
8
0
100
AcDbLine
62
7
6
CONTINUOUS
10
42.6815329025
20
214.3789573068
11
42.2560010383
21
215.0039573068
0
LINE
5
213
100
AcDbEntity
8
0
100
AcDbLine
62
7
6
CONTINUOUS
10
42.6815329025
20
223.9622922296
11
42.2560010383
21
224.5872922296
0
LINE
5
214
100
AcDbEntity
8
0
100
AcDbLine
62
7
6
CONTINUOUS
10
34.8091922978
20
211.0456223840
11
34.1708944457
21
212.0872922296
0
LINE
5
215
100
AcDbEntity
8
0
100
AcDbLine
62
7
6
CONTINUOUS
10
43.1070647666
20
215.6289573068
11
43.7453625629
21
214.5872922296
0
LINE
5
216
100
AcDbEntity
8
0
100
AcDbLine
62
7
6
CONTINUOUS
10
43.7453625629
20
224.1706223840
11
43.3198306987
21
225.0039573068
0
LINE
5
217
100
AcDbEntity
8
0
100
AcDbLine
62
7
6
CONTINUOUS
10
35.2347242365
20
212.2956223840
11
35.0219583044
21
213.3372922296
0
LINE
5
218
100
AcDbEntity
8
0
100
AcDbLine
62
7
6
CONTINUOUS
10
42.8942988346
20
213.3372922296
11
42.6815329025
21
214.3789573068
0
LINE
5
219
100
AcDbEntity
8
0
100
AcDbLine
62
7
6
CONTINUOUS
10
42.8942988346
20
222.9206223840
11
42.6815329025
21
223.9622922296
0
LINE
5
21A
100
AcDbEntity
8
0
100
AcDbLine
62
7
6
CONTINUOUS
10
34.1708944457
20
212.0872922296
11
33.9581284950
21
213.3372922296
0
LINE
5
21B
100
AcDbEntity
8
0
100
AcDbLine
62
7
6
CONTINUOUS
10
43.7453625629
20
214.5872922296
11
43.9581284950
21
213.3372922296
0
LINE
5
21C
100
AcDbEntity
8
0
100
AcDbLine
62
7
6
CONTINUOUS
10
36.5113199780
20
252.9206235761
11
36.5113199780
21
248.7539573068
0
LINE
5
21D
100
AcDbEntity
8
0
100
AcDbLine
62
7
6
CONTINUOUS
10
37.3623837063
20
252.7122910375
11
37.3623837063
21
248.9622910375
0
LINE
5
21E
100
AcDbEntity
8
0
100
AcDbLine
62
7
6
CONTINUOUS
10
37.5751496384
20
230.8372898454
11
37.5751496384
21
227.9206247682
0
LINE
5
21F
100
AcDbEntity
8
0
100
AcDbLine
62
7
6
CONTINUOUS
10
38.6389795968
20
230.8372898454
11
38.6389795968
21
227.9206247682
0
LINE
5
220
100
AcDbEntity
8
0
100
AcDbLine
62
7
6
CONTINUOUS
10
41.6177032421
20
226.0456247682
11
41.6177032421
21
225.0039573068
0
LINE
5
221
100
AcDbEntity
8
0
100
AcDbLine
62
7
6
CONTINUOUS
10
42.8942988346
20
222.9206223840
11
42.8942988346
21
222.0872922296
0
LINE
5
222
100
AcDbEntity
8
0
100
AcDbLine
62
7
6
CONTINUOUS
10
43.9581284950
20
265.0039573068
11
43.9581284950
21
263.7539573068
0
LINE
5
223
100
AcDbEntity
8
0
100
AcDbLine
62
7
6
CONTINUOUS
10
43.9581284950
20
257.9206241721
11
43.9581284950
21
256.6706241721
0
LINE
5
224
100
AcDbEntity
8
0
100
AcDbLine
62
7
6
CONTINUOUS
10
43.9581284950
20
251.6706235761
11
43.9581284950
21
250.0039573068
0
LINE
5
225
100
AcDbEntity
8
0
100
AcDbLine
62
7
6
CONTINUOUS
10
43.9581284950
20
233.7539573068
11
43.9581284950
21
232.5039573068
0
LINE
5
226
100
AcDbEntity
8
0
100
AcDbLine
62
7
6
CONTINUOUS
10
43.9581284950
20
222.7122922296
11
43.9581284950
21
221.8789573068
0
LINE
5
227
100
AcDbEntity
8
0
100
AcDbLine
62
7
6
CONTINUOUS
10
34.1708944457
20
214.5872922296
11
33.9581284950
21
213.3372922296
0
LINE
5
228
100
AcDbEntity
8
0
100
AcDbLine
62
7
6
CONTINUOUS
10
43.9581284950
20
221.8789573068
11
43.7453625629
21
220.6289573068
0
LINE
5
229
100
AcDbEntity
8
0
100
AcDbLine
62
7
6
CONTINUOUS
10
43.9581284950
20
213.3372922296
11
43.7453625629
21
212.0872922296
0
LINE
5
22A
100
AcDbEntity
8
0
100
AcDbLine
62
7
6
CONTINUOUS
10
35.2347242365
20
214.3789573068
11
35.0219583044
21
213.3372922296
0
LINE
5
22B
100
AcDbEntity
8
0
100
AcDbLine
62
7
6
CONTINUOUS
10
42.8942988346
20
222.0872922296
11
42.6815329025
21
221.0456223840
0
LINE
5
22C
100
AcDbEntity
8
0
100
AcDbLine
62
7
6
CONTINUOUS
10
36.2985540459
20
210.0039573068
11
36.9368518422
21
209.7956223840
0
LINE
5
22D
100
AcDbEntity
8
0
100
AcDbLine
62
7
6
CONTINUOUS
10
35.4474901686
20
210.4206223840
11
36.2985540459
21
210.0039573068
0
LINE
5
22E
100
AcDbEntity
8
0
100
AcDbLine
62
7
6
CONTINUOUS
10
42.4687669704
20
216.2539573068
11
41.6177032421
21
216.6706223840
0
LINE
5
22F
100
AcDbEntity
8
0
100
AcDbLine
62
7
6
CONTINUOUS
10
41.1921707818
20
220.0039573068
11
40.3411070535
21
220.4206223840
0
LINE
5
230
100
AcDbEntity
8
0
100
AcDbLine
62
7
6
CONTINUOUS
10
42.2560010383
20
215.0039573068
11
40.9794048498
21
215.8372922296
0
LINE
5
231
100
AcDbEntity
8
0
100
AcDbLine
62
7
6
CONTINUOUS
10
40.3411070535
20
218.9622922296
11
39.7028092573
21
219.3789573068
0
LINE
5
232
100
AcDbEntity
8
0
100
AcDbLine
62
7
6
CONTINUOUS
10
42.2560010383
20
224.5872922296
11
41.6177032421
21
225.0039573068
0
LINE
5
233
100
AcDbEntity
8
0
100
AcDbLine
62
7
6
CONTINUOUS
10
42.2560010383
20
233.7539573068
11
40.7666389177
21
235.0039573068
0
LINE
5
234
100
AcDbEntity
8
0
100
AcDbLine
62
7
6
CONTINUOUS
10
43.9581284950
20
233.7539573068
11
42.4687669704
21
235.0039573068
0
LINE
5
235
100
AcDbEntity
8
0
100
AcDbLine
62
7
6
CONTINUOUS
10
43.3198306987
20
225.0039573068
11
42.4687669704
21
225.8372898454
0
LINE
5
236
100
AcDbEntity
8
0
100
AcDbLine
62
7
6
CONTINUOUS
10
43.9581284950
20
222.7122922296
11
43.7453625629
21
224.1706223840
0
LINE
5
237
100
AcDbEntity
8
0
100
AcDbLine
62
7
6
CONTINUOUS
10
58.9581284950
20
305.0039573068
11
58.9581284950
21
145.0039573068
0
LINE
5
238
100
AcDbEntity
8
0
100
AcDbLine
62
7
6
CONTINUOUS
10
42.8942988346
20
213.3372922296
11
42.6815329025
21
212.2956223840
0
LINE
5
239
100
AcDbEntity
8
0
100
AcDbLine
62
7
6
CONTINUOUS
10
158.8544987842
20
452.9155000386
11
177.9581284950
21
486.0039573068
0
LINE
5
23A
100
AcDbEntity
8
0
100
AcDbLine
62
7
6
CONTINUOUS
10
38.2134477327
20
210.6289573068
11
36.9368518422
21
210.8372922296
0
LINE
5
23B
100
AcDbEntity
8
0
100
AcDbLine
62
7
6
CONTINUOUS
10
36.9368518422
20
209.7956223840
11
38.0006818006
21
209.5872922296
0
LINE
5
23C
100
AcDbEntity
8
0
100
AcDbLine
62
7
6
CONTINUOUS
10
39.9155751893
20
217.0872922296
11
40.9794048498
21
216.8789573068
0
LINE
5
23D
100
AcDbEntity
8
0
100
AcDbLine
62
7
6
CONTINUOUS
10
41.1921707818
20
218.7539573068
11
40.3411070535
21
218.9622922296
0
LINE
5
23E
100
AcDbEntity
8
0
100
AcDbLine
62
7
6
CONTINUOUS
10
40.9794048498
20
216.8789573068
11
41.6177032421
21
216.6706223840
0
LINE
5
23F
100
AcDbEntity
8
0
100
AcDbLine
62
7
6
CONTINUOUS
10
43.7453625629
20
220.6289573068
11
43.3198306987
21
219.7956223840
0
LINE
5
240
100
AcDbEntity
8
0
100
AcDbLine
62
7
6
CONTINUOUS
10
34.8091922978
20
215.6289573068
11
34.1708944457
21
214.5872922296
0
LINE
5
241
100
AcDbEntity
8
0
100
AcDbLine
62
7
6
CONTINUOUS
10
43.7453625629
20
212.0872922296
11
43.1070647666
21
211.0456223840
0
LINE
5
242
100
AcDbEntity
8
0
100
AcDbLine
62
7
6
CONTINUOUS
10
35.6602561006
20
215.0039573068
11
35.2347242365
21
214.3789573068
0
LINE
5
243
100
AcDbEntity
8
0
100
AcDbLine
62
7
6
CONTINUOUS
10
42.6815329025
20
221.0456223840
11
42.2560010383
21
220.4206223840
0
LINE
5
244
100
AcDbEntity
8
0
100
AcDbLine
62
7
6
CONTINUOUS
10
38.0006818006
20
209.5872922296
11
39.9155751893
21
209.5872922296
0
LINE
5
245
100
AcDbEntity
8
0
100
AcDbLine
62
7
6
CONTINUOUS
10
39.7028092573
20
210.6289573068
11
38.2134477327
21
210.6289573068
0
LINE
5
246
100
AcDbEntity
8
0
100
AcDbLine
62
7
6
CONTINUOUS
10
38.2134477327
20
216.0456223840
11
39.7028092573
21
216.0456223840
0
LINE
5
247
100
AcDbEntity
8
0
100
AcDbLine
62
7
6
CONTINUOUS
10
39.9155751893
20
217.0872922296
11
38.0006818006
21
217.0872922296
0
LINE
5
248
100
AcDbEntity
8
0
100
AcDbLine
62
7
6
CONTINUOUS
10
40.9794048498
20
215.8372922296
11
39.7028092573
21
216.0456223840
0
LINE
5
249
100
AcDbEntity
8
0
100
AcDbLine
62
7
6
CONTINUOUS
10
42.4687669704
20
225.8372898454
11
41.6177032421
21
226.0456247682
0
LINE
5
24A
100
AcDbEntity
8
0
100
AcDbLine
62
7
6
CONTINUOUS
10
42.6815329025
20
212.2956223840
11
42.2560010383
21
211.6706223840
0
LINE
5
24B
100
AcDbEntity
8
0
100
AcDbLine
62
7
6
CONTINUOUS
10
35.4474901686
20
216.2539573068
11
34.8091922978
21
215.6289573068
0
LINE
5
24C
100
AcDbEntity
8
0
100
AcDbLine
62
7
6
CONTINUOUS
10
43.3198306987
20
219.7956223840
11
42.4687669704
21
218.9622922296
0
LINE
5
24D
100
AcDbEntity
8
0
100
AcDbLine
62
7
6
CONTINUOUS
10
39.9155751893
20
209.5872922296
11
40.9794048498
21
209.7956223840
0
LINE
5
24E
100
AcDbEntity
8
0
100
AcDbLine
62
7
6
CONTINUOUS
10
40.9794048498
20
210.8372922296
11
39.7028092573
21
210.6289573068
0
LINE
5
24F
100
AcDbEntity
8
0
100
AcDbLine
62
7
6
CONTINUOUS
10
38.2134477327
20
216.0456223840
11
36.9368518422
21
215.8372922296
0
LINE
5
250
100
AcDbEntity
8
0
100
AcDbLine
62
7
6
CONTINUOUS
10
41.6177032421
20
218.7539573068
11
41.1921707818
21
218.7539573068
0
LINE
5
251
100
AcDbEntity
8
0
100
AcDbLine
62
7
6
CONTINUOUS
10
35.0219583044
20
218.7539573068
11
33.9581284950
21
218.7539573068
0
LINE
5
252
100
AcDbEntity
8
0
100
AcDbLine
62
7
6
CONTINUOUS
10
41.1921707818
20
220.0039573068
11
41.6177032421
21
220.0039573068
0
LINE
5
253
100
AcDbEntity
8
0
100
AcDbLine
62
7
6
CONTINUOUS
10
35.0219583044
20
226.2539573068
11
33.9581284950
21
226.2539573068
0
LINE
5
254
100
AcDbEntity
8
0
100
AcDbLine
62
7
6
CONTINUOUS
10
37.5751496384
20
227.9206247682
11
38.6389795968
21
227.9206247682
0
LINE
5
255
100
AcDbEntity
8
0
100
AcDbLine
62
7
6
CONTINUOUS
10
38.6389795968
20
230.8372898454
11
37.5751496384
21
230.8372898454
0
LINE
5
256
100
AcDbEntity
8
0
100
AcDbLine
62
7
6
CONTINUOUS
10
33.9581284950
20
232.5039573068
11
43.9581284950
21
232.5039573068
0
LINE
5
257
100
AcDbEntity
8
0
100
AcDbLine
62
7
6
CONTINUOUS
10
42.2560010383
20
233.7539573068
11
33.9581284950
21
233.7539573068
0
LINE
5
258
100
AcDbEntity
8
0
100
AcDbLine
62
7
6
CONTINUOUS
10
42.4687669704
20
235.0039573068
11
40.7666389177
21
235.0039573068
0
LINE
5
259
100
AcDbEntity
8
0
100
AcDbLine
62
7
6
CONTINUOUS
10
36.5113199780
20
252.9206235761
11
33.9581284950
21
253.7539573068
0
LINE
5
25A
100
AcDbEntity
8
0
100
AcDbLine
62
7
6
CONTINUOUS
10
37.3623837063
20
252.7122910375
11
43.1070647666
21
250.8372910375
0
LINE
5
25B
100
AcDbEntity
8
0
100
AcDbLine
62
7
6
CONTINUOUS
10
43.9581284950
20
251.6706235761
11
33.9581284950
21
255.0039573068
0
LINE
5
25C
100
AcDbEntity
8
0
100
AcDbLine
62
7
6
CONTINUOUS
10
33.9581284950
20
260.0039573068
11
43.9581284950
21
256.6706241721
0
LINE
5
25D
100
AcDbEntity
8
0
100
AcDbLine
62
7
6
CONTINUOUS
10
43.9581284950
20
257.9206241721
11
35.2347242365
21
260.8372907394
0
LINE
5
25E
100
AcDbEntity
8
0
100
AcDbLine
62
7
6
CONTINUOUS
10
119.9581284950
20
486.0039573068
11
119.9581284950
21
501.0039573068
0
LINE
5
25F
100
AcDbEntity
8
0
100
AcDbLine
62
7
6
CONTINUOUS
10
128.9581284950
20
469.6116524614
11
128.9581284950
21
451.0039573068
0
LINE
5
260
100
AcDbEntity
8
0
100
AcDbLine
62
7
6
CONTINUOUS
10
160.5486337000
20
377.8231252127
11
153.9581284950
21
361.5039573068
0
LINE
5
261
100
AcDbEntity
8
0
100
AcDbLine
62
7
6
CONTINUOUS
10
43.1070647666
20
211.0456223840
11
42.4687669704
21
210.4206223840
0
LINE
5
262
100
AcDbEntity
8
0
100
AcDbLine
62
7
6
CONTINUOUS
10
35.2347242365
20
260.8372907394
11
43.9581284950
21
263.7539573068
0
LINE
5
263
100
AcDbEntity
8
0
100
AcDbLine
62
7
6
CONTINUOUS
10
43.9581284950
20
265.0039573068
11
33.9581284950
21
261.6706238741
0
LINE
5
264
100
AcDbEntity
8
0
100
AcDbLine
62
7
6
CONTINUOUS
10
42.4687669704
20
218.9622922296
11
41.6177032421
21
218.7539573068
0
LINE
5
265
100
AcDbEntity
8
0
100
AcDbLine
62
7
6
CONTINUOUS
10
38.0006818006
20
217.0872922296
11
36.9368518422
21
216.8789573068
0
LINE
5
266
100
AcDbEntity
8
0
100
AcDbLine
62
7
6
CONTINUOUS
10
136.4581284950
20
382.5039573068
11
136.4581284950
21
447.0755135220
0
LINE
5
267
100
AcDbEntity
8
0
100
AcDbLine
62
7
6
CONTINUOUS
10
143.9581284950
20
361.5039573068
11
143.9581284950
21
490.0952451921
0
LINE
5
268
100
AcDbEntity
8
DEFAULT_1
100
AcDbLine
62
2
6
CENTER
10
148.9581284950
20
501.0039573068
11
148.9581284950
21
352.1946707349
0
LINE
5
269
100
AcDbEntity
8
DEFAULT_1
100
AcDbLine
62
2
6
CENTER
10
148.9581284950
20
501.0039573068
11
148.9581284950
21
516.0039573068
0
LINE
5
26A
100
AcDbEntity
8
0
100
AcDbLine
62
7
6
CONTINUOUS
10
41.6177032421
20
220.0039573068
11
42.2560010383
21
220.4206223840
0
LINE
5
26B
100
AcDbEntity
8
0
100
AcDbLine
62
7
6
CONTINUOUS
10
36.9368518422
20
215.8372922296
11
35.6602561006
21
215.0039573068
0
LINE
5
26C
100
AcDbEntity
8
0
100
AcDbLine
62
7
6
CONTINUOUS
10
42.2560010383
20
211.6706223840
11
40.9794048498
21
210.8372922296
0
LINE
5
26D
100
AcDbEntity
8
0
100
AcDbLine
62
7
6
CONTINUOUS
10
36.2985540459
20
216.6706223840
11
35.4474901686
21
216.2539573068
0
LINE
5
26E
100
AcDbEntity
8
0
100
AcDbLine
62
7
6
CONTINUOUS
10
33.9581284950
20
246.6706235761
11
43.9581284950
21
250.0039573068
0
LINE
5
26F
100
AcDbEntity
8
0
100
AcDbLine
62
7
6
CONTINUOUS
10
36.5113199780
20
248.7539573068
11
33.9581284950
21
247.9206235761
0
LINE
5
270
100
AcDbEntity
8
0
100
AcDbLine
62
7
6
CONTINUOUS
10
43.1070647666
20
250.8372910375
11
37.3623837063
21
248.9622910375
0
LINE
5
271
100
AcDbEntity
8
0
100
AcDbLine
62
7
6
CONTINUOUS
10
153.9581284950
20
361.5039573068
11
153.9581284950
21
490.0952451921
0
LINE
5
272
100
AcDbEntity
8
0
100
AcDbLine
62
7
6
CONTINUOUS
10
161.4581284950
20
382.5039573068
11
161.4581284950
21
447.0755135220
0
LINE
5
273
100
AcDbEntity
8
0
100
AcDbLine
62
7
6
CONTINUOUS
10
168.9581284950
20
469.6116524614
11
168.9581284950
21
451.0039573068
0
LINE
5
274
100
AcDbEntity
8
0
100
AcDbLine
62
7
6
CONTINUOUS
10
42.4687669704
20
210.4206223840
11
41.6177032421
21
210.0039573068
0
LINE
5
275
100
AcDbEntity
8
0
100
AcDbLine
62
7
6
CONTINUOUS
10
36.9368518422
20
216.8789573068
11
36.2985540459
21
216.6706223840
0
LINE
5
276
100
AcDbEntity
8
0
100
AcDbLine
62
7
6
CONTINUOUS
10
177.9581284950
20
486.0039573068
11
177.9581284950
21
501.0039573068
0
LINE
5
277
100
AcDbEntity
8
0
100
AcDbLine
62
7
6
CONTINUOUS
10
41.6177032421
20
210.0039573068
11
40.9794048498
21
209.7956223840
0
LINE
5
278
100
AcDbEntity
8
0
100
AcDbLine
62
7
6
CONTINUOUS
10
143.9581284950
20
361.5039573068
11
137.3676232900
21
377.8231252127
0
LINE
5
279
100
AcDbEntity
8
0
100
AcDbLine
62
7
6
CONTINUOUS
10
238.9581284950
20
145.0039573068
11
238.9581284950
21
305.0039573068
0
LINE
5
27A
100
AcDbEntity
8
0
100
AcDbLine
62
7
6
CONTINUOUS
10
153.9581284950
20
361.5039573068
11
143.9581284950
21
361.5039573068
0
LINE
5
27B
100
AcDbEntity
8
0
100
AcDbLine
62
7
6
CONTINUOUS
10
139.0617582058
20
452.9155000386
11
119.9581284950
21
486.0039573068
0
LINE
5
27C
100
AcDbEntity
8
0
100
AcDbLine
62
7
6
CONTINUOUS
10
278.9581284950
20
145.0039573068
11
278.9581284950
21
305.0039573068
0
LINE
5
27D
100
AcDbEntity
8
0
100
AcDbLine
62
7
6
CONTINUOUS
10
164.9581284950
20
447.0039573068
11
161.4581284950
21
447.0039573068
0
LINE
5
27E
100
AcDbEntity
8
0
100
AcDbLine
62
7
6
CONTINUOUS
10
136.4581284950
20
447.0039573068
11
132.9581284950
21
447.0039573068
0
LINE
5
27F
100
AcDbEntity
8
DEFAULT_1
100
AcDbLine
62
2
6
CENTER
10
148.9581284950
20
501.0039573068
11
133.9581284950
21
501.0039573068
0
LINE
5
280
100
AcDbEntity
8
DEFAULT_1
100
AcDbLine
62
2
6
CENTER
10
148.9581284950
20
501.0039573068
11
163.9581284950
21
501.0039573068
0
LINE
5
281
100
AcDbEntity
8
0
100
AcDbLine
62
7
6
CONTINUOUS
10
174.3549786934
20
515.0039573068
11
123.5612782966
21
515.0039573068
0
LINE
5
282
100
AcDbEntity
8
0
100
AcDbLine
62
7
6
CONTINUOUS
10
456.5760692328
20
530.0039573068
11
443.9895747651
21
515.0039573068
0
LINE
5
283
100
AcDbEntity
8
0
100
AcDbLine
62
7
6
CONTINUOUS
10
432.3935134609
20
431.3360238779
11
442.7543495440
21
490.0952451921
0
LINE
5
284
100
AcDbEntity
8
DEFAULT_2
100
AcDbLine
62
8
6
HIDDEN
10
510.9666440153
20
209.5872922296
11
510.2895747651
21
209.5872922296
0
LINE
5
285
100
AcDbEntity
8
0
100
AcDbLine
62
7
6
CONTINUOUS
10
510.9666440153
20
209.5872922296
11
510.9895742627
21
209.5872922296
0
LINE
5
286
100
AcDbEntity
8
DEFAULT_2
100
AcDbLine
62
8
6
HIDDEN
10
510.8871736326
20
209.7956223840
11
510.2895747651
21
209.7956223840
0
LINE
5
287
100
AcDbEntity
8
DEFAULT_2
100
AcDbLine
62
8
6
HIDDEN
10
510.8119526182
20
210.0039573068
11
510.2895747651
21
210.0039573068
0
LINE
5
288
100
AcDbEntity
8
DEFAULT_2
100
AcDbLine
62
8
6
HIDDEN
10
510.6790495814
20
210.4206223840
11
510.2895747651
21
210.4206223840
0
LINE
5
289
100
AcDbEntity
8
DEFAULT_2
100
AcDbLine
62
8
6
HIDDEN
10
510.9895745814
20
210.6289573068
11
510.9757062207
21
210.6289573068
0
LINE
5
28A
100
AcDbEntity
8
0
100
AcDbLine
62
7
6
CONTINUOUS
10
510.9757062207
20
210.6289573068
11
510.6397746499
21
210.6289573068
0
LINE
5
28B
100
AcDbEntity
8
DEFAULT_2
100
AcDbLine
62
8
6
HIDDEN
10
510.6397746499
20
210.6289573068
11
510.2895747651
21
210.6289573068
0
LINE
5
28C
100
AcDbEntity
8
0
100
AcDbLine
62
7
6
CONTINUOUS
10
510.8871736326
20
210.8372922296
11
510.5982636909
21
210.8372922296
0
LINE
5
28D
100
AcDbEntity
8
DEFAULT_2
100
AcDbLine
62
8
6
HIDDEN
10
510.5982636909
20
210.8372922296
11
510.2895747651
21
210.8372922296
0
LINE
5
28E
100
AcDbEntity
8
DEFAULT_2
100
AcDbLine
62
8
6
HIDDEN
10
510.5545007407
20
211.0456223840
11
510.2895747651
21
211.0456223840
0
LINE
5
28F
100
AcDbEntity
8
0
100
AcDbLine
62
7
6
CONTINUOUS
10
510.7158019176
20
211.6706223840
11
510.4691903516
21
211.6706223840
0
LINE
5
290
100
AcDbEntity
8
DEFAULT_2
100
AcDbLine
62
8
6
HIDDEN
10
510.4691903516
20
211.6706223840
11
510.2895747651
21
211.6706223840
0
LINE
5
291
100
AcDbEntity
8
DEFAULT_2
100
AcDbLine
62
8
6
HIDDEN
10
510.4081841426
20
212.0872922296
11
510.2895747651
21
212.0872922296
0
LINE
5
292
100
AcDbEntity
8
0
100
AcDbLine
62
7
6
CONTINUOUS
10
510.6399249077
20
212.2956223840
11
510.3993904579
21
212.2956223840
0
LINE
5
293
100
AcDbEntity
8
DEFAULT_2
100
AcDbLine
62
8
6
HIDDEN
10
510.3993904579
20
212.2956223840
11
510.2895747651
21
212.2956223840
0
LINE
5
294
100
AcDbEntity
8
0
100
AcDbLine
62
7
6
CONTINUOUS
10
510.5984136963
20
213.3372922296
11
510.3544914961
21
213.3372922296
0
LINE
5
295
100
AcDbEntity
8
DEFAULT_2
100
AcDbLine
62
8
6
HIDDEN
10
510.3544914961
20
213.3372922296
11
510.2895747651
21
213.3372922296
0
LINE
5
296
100
AcDbEntity
8
0
100
AcDbLine
62
7
6
CONTINUOUS
10
510.6399249077
20
214.3789573068
11
510.3993902567
21
214.3789573068
0
LINE
5
297
100
AcDbEntity
8
DEFAULT_2
100
AcDbLine
62
8
6
HIDDEN
10
510.3993902567
20
214.3789573068
11
510.2895747651
21
214.3789573068
0
LINE
5
298
100
AcDbEntity
8
DEFAULT_2
100
AcDbLine
62
8
6
HIDDEN
10
510.4081841426
20
214.5872922296
11
510.2895747651
21
214.5872922296
0
LINE
5
299
100
AcDbEntity
8
0
100
AcDbLine
62
7
6
CONTINUOUS
10
510.7158019176
20
215.0039573068
11
510.4691899421
21
215.0039573068
0
LINE
5
29A
100
AcDbEntity
8
DEFAULT_2
100
AcDbLine
62
8
6
HIDDEN
10
510.4691899421
20
215.0039573068
11
510.2895747651
21
215.0039573068
0
LINE
5
29B
100
AcDbEntity
8
DEFAULT_2
100
AcDbLine
62
8
6
HIDDEN
10
510.5545007407
20
215.6289573068
11
510.2895747651
21
215.6289573068
0
LINE
5
29C
100
AcDbEntity
8
0
100
AcDbLine
62
7
6
CONTINUOUS
10
510.8871736326
20
215.8372922296
11
510.5982646617
21
215.8372922296
0
LINE
5
29D
100
AcDbEntity
8
DEFAULT_2
100
AcDbLine
62
8
6
HIDDEN
10
510.5982646617
20
215.8372922296
11
510.2895747651
21
215.8372922296
0
LINE
5
29E
100
AcDbEntity
8
0
100
AcDbLine
62
7
6
CONTINUOUS
10
510.9757062207
20
216.0456223840
11
510.6397746499
21
216.0456223840
0
LINE
5
29F
100
AcDbEntity
8
DEFAULT_2
100
AcDbLine
62
8
6
HIDDEN
10
510.6397746499
20
216.0456223840
11
510.2895747651
21
216.0456223840
0
LINE
5
2A0
100
AcDbEntity
8
DEFAULT_2
100
AcDbLine
62
8
6
HIDDEN
10
510.9757062207
20
216.0456223840
11
510.9895745814
21
216.0456223840
0
LINE
5
2A1
100
AcDbEntity
8
DEFAULT_2
100
AcDbLine
62
8
6
HIDDEN
10
510.6790495814
20
216.2539573068
11
510.2895747651
21
216.2539573068
0
LINE
5
2A2
100
AcDbEntity
8
DEFAULT_2
100
AcDbLine
62
8
6
HIDDEN
10
510.8119526182
20
216.6706223840
11
510.2895747651
21
216.6706223840
0
LINE
5
2A3
100
AcDbEntity
8
DEFAULT_2
100
AcDbLine
62
8
6
HIDDEN
10
510.8871736326
20
216.8789573068
11
510.2895747651
21
216.8789573068
0
LINE
5
2A4
100
AcDbEntity
8
0
100
AcDbLine
62
7
6
CONTINUOUS
10
510.9895742627
20
217.0872922296
11
510.9666440153
21
217.0872922296
0
LINE
5
2A5
100
AcDbEntity
8
DEFAULT_2
100
AcDbLine
62
8
6
HIDDEN
10
510.9666440153
20
217.0872922296
11
510.2895747651
21
217.0872922296
0
LINE
5
2A6
100
AcDbEntity
8
0
100
AcDbLine
62
7
6
CONTINUOUS
10
510.5984136963
20
218.7539573068
11
510.3544914961
21
218.7539573068
0
LINE
5
2A7
100
AcDbEntity
8
DEFAULT_2
100
AcDbLine
62
8
6
HIDDEN
10
510.8644094829
20
218.7539573068
11
510.5984136963
21
218.7539573068
0
LINE
5
2A8
100
AcDbEntity
8
DEFAULT_2
100
AcDbLine
62
8
6
HIDDEN
10
510.3544914961
20
218.7539573068
11
510.2895747651
21
218.7539573068
0
LINE
5
2A9
100
AcDbEntity
8
DEFAULT_2
100
AcDbLine
62
8
6
HIDDEN
10
510.9417017271
20
218.9622922296
11
510.2895747651
21
218.9622922296
0
LINE
5
2AA
100
AcDbEntity
8
DEFAULT_2
100
AcDbLine
62
8
6
HIDDEN
10
510.9757062207
20
219.3789573068
11
510.2895747651
21
219.3789573068
0
LINE
5
2AB
100
AcDbEntity
8
DEFAULT_2
100
AcDbLine
62
8
6
HIDDEN
10
510.5081698448
20
219.7956223840
11
510.2895747651
21
219.7956223840
0
LINE
5
2AC
100
AcDbEntity
8
DEFAULT_2
100
AcDbLine
62
8
6
HIDDEN
10
510.8644094829
20
220.0039573068
11
510.2895747651
21
220.0039573068
0
LINE
5
2AD
100
AcDbEntity
8
DEFAULT_2
100
AcDbLine
62
8
6
HIDDEN
10
510.9417017271
20
220.4206223840
11
510.2895747651
21
220.4206223840
0
LINE
5
2AE
100
AcDbEntity
8
DEFAULT_2
100
AcDbLine
62
8
6
HIDDEN
10
510.4081841380
20
220.6289573068
11
510.2895747651
21
220.6289573068
0
LINE
5
2AF
100
AcDbEntity
8
DEFAULT_2
100
AcDbLine
62
8
6
HIDDEN
10
510.6399248795
20
221.0456223840
11
510.2895747651
21
221.0456223840
0
LINE
5
2B0
100
AcDbEntity
8
DEFAULT_2
100
AcDbLine
62
8
6
HIDDEN
10
510.3544914961
20
221.8789573068
11
510.2895747651
21
221.8789573068
0
LINE
5
2B1
100
AcDbEntity
8
0
100
AcDbLine
62
7
6
CONTINUOUS
10
443.9895747651
20
448.8112117200
11
443.9895747651
21
515.0039573068
0
LINE
5
2B2
100
AcDbEntity
8
DEFAULT_2
100
AcDbLine
62
8
6
HIDDEN
10
510.5984136664
20
222.0872922296
11
510.2895747651
21
222.0872922296
0
LINE
5
2B3
100
AcDbEntity
8
DEFAULT_2
100
AcDbLine
62
8
6
HIDDEN
10
510.3544914961
20
222.7122922296
11
510.2895747651
21
222.7122922296
0
LINE
5
2B4
100
AcDbEntity
8
DEFAULT_2
100
AcDbLine
62
8
6
HIDDEN
10
510.5984136664
20
222.9206223840
11
510.2895747651
21
222.9206223840
0
LINE
5
2B5
100
AcDbEntity
8
DEFAULT_2
100
AcDbLine
62
8
6
HIDDEN
10
510.6399248795
20
223.9622922296
11
510.2895747651
21
223.9622922296
0
LINE
5
2B6
100
AcDbEntity
8
DEFAULT_2
100
AcDbLine
62
8
6
HIDDEN
10
510.4081841380
20
224.1706223840
11
510.2895747651
21
224.1706223840
0
LINE
5
2B7
100
AcDbEntity
8
0
100
AcDbLine
62
7
6
CONTINUOUS
10
510.5984136963
20
224.5872922296
11
510.3544914961
21
224.5872922296
0
LINE
5
2B8
100
AcDbEntity
8
DEFAULT_2
100
AcDbLine
62
8
6
HIDDEN
10
510.7158018927
20
224.5872922296
11
510.5984136963
21
224.5872922296
0
LINE
5
2B9
100
AcDbEntity
8
DEFAULT_2
100
AcDbLine
62
8
6
HIDDEN
10
510.3544914961
20
224.5872922296
11
510.2895747651
21
224.5872922296
0
LINE
5
2BA
100
AcDbEntity
8
DEFAULT_2
100
AcDbLine
62
8
6
HIDDEN
10
510.8119525782
20
225.0039573068
11
510.2895747651
21
225.0039573068
0
LINE
5
2BB
100
AcDbEntity
8
DEFAULT_2
100
AcDbLine
62
8
6
HIDDEN
10
510.6790495548
20
225.8372898454
11
510.2895747651
21
225.8372898454
0
LINE
5
2BC
100
AcDbEntity
8
DEFAULT_2
100
AcDbLine
62
8
6
HIDDEN
10
510.8119525782
20
226.0456247682
11
510.2895747651
21
226.0456247682
0
LINE
5
2BD
100
AcDbEntity
8
0
100
AcDbLine
62
7
6
CONTINUOUS
10
510.5984136963
20
226.2539573068
11
510.3544914961
21
226.2539573068
0
LINE
5
2BE
100
AcDbEntity
8
DEFAULT_2
100
AcDbLine
62
8
6
HIDDEN
10
510.3544914961
20
226.2539573068
11
510.2895747651
21
226.2539573068
0
LINE
5
2BF
100
AcDbEntity
8
DEFAULT_2
100
AcDbLine
62
8
6
HIDDEN
10
510.9417017064
20
227.9206247682
11
510.2895747651
21
227.9206247682
0
LINE
5
2C0
100
AcDbEntity
8
0
100
AcDbLine
62
7
6
CONTINUOUS
10
510.9417017064
20
227.9206247682
11
510.9870282025
21
227.9206247682
0
LINE
5
2C1
100
AcDbEntity
8
0
100
AcDbLine
62
7
6
CONTINUOUS
10
510.9870282025
20
230.8372898454
11
510.9417017064
21
230.8372898454
0
LINE
5
2C2
100
AcDbEntity
8
DEFAULT_2
100
AcDbLine
62
8
6
HIDDEN
10
510.9417017064
20
230.8372898454
11
510.2895747651
21
230.8372898454
0
LINE
5
2C3
100
AcDbEntity
8
DEFAULT_2
100
AcDbLine
62
8
6
HIDDEN
10
510.3544914961
20
232.5039573068
11
510.2895747651
21
232.5039573068
0
LINE
5
2C4
100
AcDbEntity
8
0
100
AcDbLine
62
7
6
CONTINUOUS
10
510.3544914961
20
232.5039573068
11
510.9895254299
21
232.5039573068
0
LINE
5
2C5
100
AcDbEntity
8
0
100
AcDbLine
62
7
6
CONTINUOUS
10
510.9895210914
20
233.7539573068
11
510.3544914961
21
233.7539573068
0
LINE
5
2C6
100
AcDbEntity
8
DEFAULT_2
100
AcDbLine
62
8
6
HIDDEN
10
510.3544914961
20
233.7539573068
11
510.2895747651
21
233.7539573068
0
LINE
5
2C7
100
AcDbEntity
8
DEFAULT_2
100
AcDbLine
62
8
6
HIDDEN
10
510.9076391804
20
235.0039573068
11
510.2895747651
21
235.0039573068
0
LINE
5
2C8
100
AcDbEntity
8
0
100
AcDbLine
62
7
6
CONTINUOUS
10
464.6267221122
20
486.0039573068
11
464.6267221122
21
530.0039573068
0
LINE
5
2C9
100
AcDbEntity
8
0
100
AcDbLine
62
7
6
CONTINUOUS
10
470.9895747651
20
414.9425293171
11
470.9895747651
21
35.0039573068
0
LINE
5
2CA
100
AcDbEntity
8
DEFAULT_2
100
AcDbLine
62
8
6
HIDDEN
10
510.3544914961
20
246.6706235761
11
510.2895747651
21
246.6706235761
0
LINE
5
2CB
100
AcDbEntity
8
DEFAULT_2
100
AcDbLine
62
8
6
HIDDEN
10
510.3544914961
20
247.9206235761
11
510.2895747651
21
247.9206235761
0
LINE
5
2CC
100
AcDbEntity
8
DEFAULT_2
100
AcDbLine
62
8
6
HIDDEN
10
510.8393386952
20
248.7539573068
11
510.2895747651
21
248.7539573068
0
LINE
5
2CD
100
AcDbEntity
8
0
100
AcDbLine
62
7
6
CONTINUOUS
10
510.9258130906
20
248.9622910375
11
510.8393386952
21
248.9622910375
0
LINE
5
2CE
100
AcDbEntity
8
DEFAULT_2
100
AcDbLine
62
8
6
HIDDEN
10
510.8393386952
20
248.9622910375
11
510.2895747651
21
248.9622910375
0
LINE
5
2CF
100
AcDbEntity
8
DEFAULT_2
100
AcDbLine
62
8
6
HIDDEN
10
510.3544914961
20
250.0039573068
11
510.2895747651
21
250.0039573068
0
LINE
5
2D0
100
AcDbEntity
8
DEFAULT_2
100
AcDbLine
62
8
6
HIDDEN
10
510.5545007249
20
250.8372910375
11
510.2895747651
21
250.8372910375
0
LINE
5
2D1
100
AcDbEntity
8
DEFAULT_2
100
AcDbLine
62
8
6
HIDDEN
10
510.3544914961
20
251.6706235761
11
510.2895747651
21
251.6706235761
0
LINE
5
2D2
100
AcDbEntity
8
0
100
AcDbLine
62
7
6
CONTINUOUS
10
510.9258130906
20
252.7122910375
11
510.8393386952
21
252.7122910375
0
LINE
5
2D3
100
AcDbEntity
8
DEFAULT_2
100
AcDbLine
62
8
6
HIDDEN
10
510.8393386952
20
252.7122910375
11
510.2895747651
21
252.7122910375
0
LINE
5
2D4
100
AcDbEntity
8
DEFAULT_2
100
AcDbLine
62
8
6
HIDDEN
10
510.8393386952
20
252.9206235761
11
510.2895747651
21
252.9206235761
0
LINE
5
2D5
100
AcDbEntity
8
DEFAULT_2
100
AcDbLine
62
8
6
HIDDEN
10
510.3544914961
20
253.7539573068
11
510.2895747651
21
253.7539573068
0
LINE
5
2D6
100
AcDbEntity
8
DEFAULT_2
100
AcDbLine
62
8
6
HIDDEN
10
510.3544914961
20
255.0039573068
11
510.2895747651
21
255.0039573068
0
LINE
5
2D7
100
AcDbEntity
8
DEFAULT_2
100
AcDbLine
62
8
6
HIDDEN
10
510.3544914961
20
256.6706241721
11
510.2895747651
21
256.6706241721
0
LINE
5
2D8
100
AcDbEntity
8
0
100
AcDbLine
62
7
6
CONTINUOUS
10
479.7895747651
20
525.8804028399
11
479.7895747651
21
475.2039571178
0
LINE
5
2D9
100
AcDbEntity
8
DEFAULT_1
100
AcDbLine
62
2
6
CENTER
10
490.9895747651
20
12.0039573068
11
490.9895747651
21
160.6189108634
0
LINE
5
2DA
100
AcDbEntity
8
DEFAULT_1
100
AcDbLine
62
2
6
CENTER
10
490.9895747651
20
275.8245829461
11
490.9895747651
21
533.0039573068
0
LINE
5
2DB
100
AcDbEntity
8
DEFAULT_2
100
AcDbLine
62
8
6
HIDDEN
10
510.3544914961
20
257.9206241721
11
510.2895747651
21
257.9206241721
0
LINE
5
2DC
100
AcDbEntity
8
DEFAULT_2
100
AcDbLine
62
8
6
HIDDEN
10
510.3544914961
20
260.0039573068
11
510.2895747651
21
260.0039573068
0
LINE
5
2DD
100
AcDbEntity
8
0
100
AcDbLine
62
7
6
CONTINUOUS
10
510.6399249077
20
260.8372907394
11
510.3544914961
21
260.8372907394
0
LINE
5
2DE
100
AcDbEntity
8
DEFAULT_2
100
AcDbLine
62
8
6
HIDDEN
10
510.3544914961
20
260.8372907394
11
510.2895747651
21
260.8372907394
0
LINE
5
2DF
100
AcDbEntity
8
DEFAULT_2
100
AcDbLine
62
8
6
HIDDEN
10
510.3544914961
20
261.6706238741
11
510.2895747651
21
261.6706238741
0
LINE
5
2E0
100
AcDbEntity
8
DEFAULT_2
100
AcDbLine
62
8
6
HIDDEN
10
510.3544914961
20
263.7539573068
11
510.2895747651
21
263.7539573068
0
LINE
5
2E1
100
AcDbEntity
8
DEFAULT_2
100
AcDbLine
62
8
6
HIDDEN
10
510.3544914961
20
265.0039573068
11
510.2895747651
21
265.0039573068
0
LINE
5
2E2
100
AcDbEntity
8
0
100
AcDbLine
62
7
6
CONTINUOUS
10
502.1895747651
20
475.2039573068
11
502.1895747651
21
525.8804028399
0
LINE
5
2E3
100
AcDbEntity
8
DEFAULT_2
100
AcDbLine
62
8
6
HIDDEN
10
510.2895747651
20
265.0039573068
11
510.2895747651
21
256.6706241721
0
LINE
5
2E4
100
AcDbEntity
8
DEFAULT_2
100
AcDbLine
62
8
6
HIDDEN
10
510.2895747651
20
255.0039573068
11
510.2895747651
21
246.6706235761
0
LINE
5
2E5
100
AcDbEntity
8
DEFAULT_2
100
AcDbLine
62
8
6
HIDDEN
10
510.2895747651
20
235.0039573068
11
510.2895747651
21
232.5039573068
0
LINE
5
2E6
100
AcDbEntity
8
DEFAULT_2
100
AcDbLine
62
8
6
HIDDEN
10
510.2895747651
20
230.8372898454
11
510.2895747651
21
227.9206247682
0
LINE
5
2E7
100
AcDbEntity
8
DEFAULT_2
100
AcDbLine
62
8
6
HIDDEN
10
510.2895747651
20
226.2539573068
11
510.2895747651
21
218.7539573068
0
LINE
5
2E8
100
AcDbEntity
8
DEFAULT_2
100
AcDbLine
62
8
6
HIDDEN
10
510.2895747651
20
217.0872922296
11
510.2895747651
21
209.5872922296
0
LINE
5
2E9
100
AcDbEntity
8
DEFAULT_2
100
AcDbLine
62
8
6
HIDDEN
10
510.3544914961
20
265.0039573068
11
510.3544914961
21
263.7539573068
0
LINE
5
2EA
100
AcDbEntity
8
0
100
AcDbLine
62
7
6
CONTINUOUS
10
510.3544914961
20
261.6706238741
11
510.3544914961
21
260.0039573068
0
LINE
5
2EB
100
AcDbEntity
8
DEFAULT_2
100
AcDbLine
62
8
6
HIDDEN
10
510.3544914961
20
257.9206241721
11
510.3544914961
21
256.6706241721
0
LINE
5
2EC
100
AcDbEntity
8
0
100
AcDbLine
62
7
6
CONTINUOUS
10
510.3544914961
20
255.0039573068
11
510.3544914961
21
253.7539573068
0
LINE
5
2ED
100
AcDbEntity
8
DEFAULT_2
100
AcDbLine
62
8
6
HIDDEN
10
510.3544914961
20
251.6706235761
11
510.3544914961
21
250.0039573068
0
LINE
5
2EE
100
AcDbEntity
8
0
100
AcDbLine
62
7
6
CONTINUOUS
10
510.3544914961
20
247.9206235761
11
510.3544914961
21
246.6706235761
0
LINE
5
2EF
100
AcDbEntity
8
0
100
AcDbLine
62
7
6
CONTINUOUS
10
510.3544914961
20
233.7539573068
11
510.3544914961
21
232.5039573068
0
LINE
5
2F0
100
AcDbEntity
8
0
100
AcDbLine
62
7
6
CONTINUOUS
10
510.3544914961
20
226.2539573068
11
510.3544914961
21
218.7539573068
0
LINE
5
2F1
100
AcDbEntity
8
0
100
AcDbLine
62
7
6
CONTINUOUS
10
510.5984136963
20
224.5872922296
11
510.5984136963
21
218.7539573068
0
LINE
5
2F2
100
AcDbEntity
8
DEFAULT_2
100
AcDbLine
62
8
6
HIDDEN
10
510.8119525782
20
226.0456247682
11
510.8119525782
21
225.0039573068
0
LINE
5
2F3
100
AcDbEntity
8
0
100
AcDbLine
62
7
6
CONTINUOUS
10
510.8393386952
20
252.9206235761
11
510.8393386952
21
248.7539573068
0
LINE
5
2F4
100
AcDbEntity
8
0
100
AcDbLine
62
7
6
CONTINUOUS
10
510.9258130906
20
252.7122910375
11
510.9258130906
21
248.9622910375
0
LINE
5
2F5
100
AcDbEntity
8
0
100
AcDbLine
62
7
6
CONTINUOUS
10
510.9417017064
20
230.8372898454
11
510.9417017064
21
227.9206247682
0
LINE
5
2F6
100
AcDbEntity
8
0
100
AcDbLine
62
7
6
CONTINUOUS
10
510.9870282025
20
230.8372898454
11
510.9870282025
21
227.9206247682
0
LINE
5
2F7
100
AcDbEntity
8
0
100
AcDbLine
62
7
6
CONTINUOUS
10
510.9895747651
20
227.9206247682
11
510.9895747651
21
221.9375397557
0
LINE
5
2F8
100
AcDbEntity
8
0
100
AcDbLine
62
7
6
CONTINUOUS
10
510.9895747651
20
35.0039573068
11
510.9895747651
21
220.4206223840
0
LINE
5
2F9
100
AcDbEntity
8
DEFAULT_2
100
AcDbLine
62
8
6
HIDDEN
10
510.9895747651
20
220.4206223840
11
510.9895747651
21
221.9381919445
0
LINE
5
2FA
100
AcDbEntity
8
DEFAULT_2
100
AcDbLine
62
8
6
HIDDEN
10
510.9895747651
20
227.9206247682
11
510.9895747651
21
230.8372898454
0
LINE
5
2FB
100
AcDbEntity
8
0
100
AcDbLine
62
7
6
CONTINUOUS
10
510.9895747651
20
230.8372898454
11
510.9895747651
21
414.9425293171
0
LINE
5
2FC
100
AcDbEntity
8
0
100
AcDbLine
62
7
6
CONTINUOUS
10
517.3524274180
20
530.0039573068
11
517.3524274180
21
486.0039573068
0
LINE
5
2FD
100
AcDbEntity
8
DEFAULT_2
100
AcDbLine
62
8
6
HIDDEN
10
510.9894817431
20
220.2089247085
11
510.9757062207
21
219.3789573068
0
LINE
5
2FE
100
AcDbEntity
8
0
100
AcDbLine
62
7
6
CONTINUOUS
10
537.9895747651
20
448.8112119789
11
537.9895747651
21
515.0039573068
0
LINE
5
2FF
100
AcDbEntity
8
0
100
AcDbLine
62
7
6
CONTINUOUS
10
549.5856360693
20
431.3360238779
11
539.2247999862
21
490.0952451921
0
LINE
5
300
100
AcDbEntity
8
0
100
AcDbLine
62
7
6
CONTINUOUS
10
523.9799558219
20
447.0039573068
11
457.9991937083
21
447.0039573068
0
LINE
5
301
100
AcDbEntity
8
0
100
AcDbLine
62
7
6
CONTINUOUS
10
537.9895747651
20
515.0039573068
11
525.4030802974
21
530.0039573068
0
LINE
5
302
100
AcDbEntity
8
0
100
AcDbLine
62
7
6
CONTINUOUS
10
502.1895747651
20
489.0039573068
11
479.7895747651
21
489.0039573068
0
LINE
5
303
100
AcDbEntity
8
DEFAULT_1
100
AcDbLine
62
2
6
CENTER
10
476.7895747651
20
501.0039573068
11
505.1895747651
21
501.0039573068
0
LINE
5
304
100
AcDbEntity
8
0
100
AcDbLine
62
7
6
CONTINUOUS
10
502.1895747651
20
513.0039573068
11
479.7895747651
21
513.0039573068
0
LINE
5
305
100
AcDbEntity
8
0
100
AcDbLine
62
7
6
CONTINUOUS
10
456.5760692328
20
530.0039573068
11
464.6267221122
21
530.0039573068
0
LINE
5
306
100
AcDbEntity
8
0
100
AcDbLine
62
7
6
CONTINUOUS
10
517.3524274180
20
530.0039573068
11
525.4030802974
21
530.0039573068
0
ARC
5
307
100
AcDbEntity
8
DEFAULT_2
100
AcDbCircle
62
8
6
HIDDEN
10
148.9581284950
20
305.0039573068
40
90.0000000000
100
AcDbArc
50
82.0156787539
51
97.9843212461
0
ARC
5
308
100
AcDbEntity
8
DEFAULT_2
100
AcDbCircle
62
8
6
HIDDEN
10
148.9581284950
20
305.0039573068
40
130.0000000000
100
AcDbArc
50
84.4821219535
51
95.5178780465
0
ARC
5
309
100
AcDbEntity
8
0
100
AcDbCircle
62
7
6
CONTINUOUS
10
148.9581284950
20
382.5039573068
40
12.5000000000
100
AcDbArc
50
180.0000000000
51
201.9913472955
0
ARC
5
30A
100
AcDbEntity
8
0
100
AcDbCircle
62
7
6
CONTINUOUS
10
148.9581284950
20
382.5039573068
40
12.5000000000
100
AcDbArc
50
338.0086527045
51
360.0000000000
0
ARC
5
30B
100
AcDbEntity
8
0
100
AcDbCircle
62
7
6
CONTINUOUS
10
164.9581284950
20
451.0039573068
40
4.0000000000
100
AcDbArc
50
270.0000000000
51
360.0000000000
0
ARC
5
30C
100
AcDbEntity
8
0
100
AcDbCircle
62
7
6
CONTINUOUS
10
171.9581284950
20
469.6116524614
40
3.0000000000
100
AcDbArc
50
150.0000000000
51
180.0000000000
0
ARC
5
30D
100
AcDbEntity
8
0
100
AcDbCircle
62
7
6
CONTINUOUS
10
148.9581284950
20
501.0039573068
40
29.0000000000
100
AcDbArc
50
0.0000000000
51
180.0000000000
0
ARC
5
30E
100
AcDbEntity
8
0
100
AcDbCircle
62
7
6
CONTINUOUS
10
125.9581284950
20
469.6116524614
40
3.0000000000
100
AcDbArc
50
0.0000000000
51
30.0000000000
0
CIRCLE
5
30F
100
AcDbEntity
8
0
100
AcDbCircle
62
7
6
CONTINUOUS
10
148.9581284950
20
501.0039573068
40
12.0000000000
0
ARC
5
310
100
AcDbEntity
8
0
100
AcDbCircle
62
7
6
CONTINUOUS
10
132.9581284950
20
451.0039573068
40
4.0000000000
100
AcDbArc
50
180.0000000000
51
270.0000000000
0
ARC
5
311
100
AcDbEntity
8
0
100
AcDbCircle
62
7
6
CONTINUOUS
10
148.9581284950
20
305.0039573068
40
90.0000000000
100
AcDbArc
50
0.0000000000
51
82.0156787539
0
ARC
5
312
100
AcDbEntity
8
0
100
AcDbCircle
62
7
6
CONTINUOUS
10
148.9581284950
20
305.0039573068
40
90.0000000000
100
AcDbArc
50
97.9843212461
51
180.0000000000
0
ARC
5
313
100
AcDbEntity
8
0
100
AcDbCircle
62
7
6
CONTINUOUS
10
148.9581284950
20
305.0039573068
40
130.0000000000
100
AcDbArc
50
0.0000000000
51
84.4821219535
0
ARC
5
314
100
AcDbEntity
8
0
100
AcDbCircle
62
7
6
CONTINUOUS
10
148.9581284950
20
305.0039573068
40
130.0000000000
100
AcDbArc
50
95.5178780465
51
180.0000000000
0
ARC
5
315
100
AcDbEntity
8
0
100
AcDbCircle
62
7
6
CONTINUOUS
10
148.9581284950
20
145.0039573068
40
90.0000000000
100
AcDbArc
50
180.0000000000
51
360.0000000000
0
ARC
5
316
100
AcDbEntity
8
0
100
AcDbCircle
62
7
6
CONTINUOUS
10
148.9581284950
20
145.0039573068
40
130.0000000000
100
AcDbArc
50
180.0000000000
51
360.0000000000
0
ARC
5
317
100
AcDbEntity
8
DEFAULT_2
100
AcDbCircle
62
8
6
HIDDEN
10
490.9895747651
20
415.0039573068
40
20.0000000000
100
AcDbArc
50
180.0000000000
51
360.0000000000
0
ARC
5
318
100
AcDbEntity
8
DEFAULT_2
100
AcDbCircle
62
8
6
HIDDEN
10
490.9895747651
20
35.0039573068
40
20.0000000000
100
AcDbArc
50
0.0000000000
51
180.0000000000
0
ARC
5
319
100
AcDbEntity
8
DEFAULT_2
100
AcDbCircle
62
8
6
HIDDEN
10
490.9895747651
20
421.0039573068
40
59.5000000000
100
AcDbArc
50
250.3485261997
51
289.6514716539
0
ARC
5
31A
100
AcDbEntity
8
DEFAULT_2
100
AcDbCircle
62
8
6
HIDDEN
10
490.9895747651
20
421.0039573068
40
26.0000000000
100
AcDbArc
50
219.6602797216
51
320.3397202784
0
ARC
5
31B
100
AcDbEntity
8
0
100
AcDbCircle
62
7
6
CONTINUOUS
10
490.9895747651
20
421.0039573068
40
59.5000000000
100
AcDbArc
50
289.6514716539
51
10.0000000000
0
ARC
5
31C
100
AcDbEntity
8
0
100
AcDbCircle
62
7
6
CONTINUOUS
10
490.9895747651
20
597.0039573068
40
72.0000000000
100
AcDbArc
50
278.9490180653
51
291.4784178411
0
ARC
5
31D
100
AcDbEntity
8
0
100
AcDbCircle
62
7
6
CONTINUOUS
10
490.9895747651
20
597.0039573068
40
72.0000000000
100
AcDbArc
50
248.5215821589
51
261.0509819347
0
ARC
5
31E
100
AcDbEntity
8
0
100
AcDbCircle
62
7
6
CONTINUOUS
10
490.9895747651
20
421.0039573068
40
26.0000000000
100
AcDbArc
50
320.3397202784
51
219.6602797216
0
CIRCLE
5
31F
100
AcDbEntity
8
0
100
AcDbCircle
62
7
6
CONTINUOUS
10
526.3895747651
20
501.0039573068
40
5.0000000000
0
ARC
5
320
100
AcDbEntity
8
0
100
AcDbCircle
62
7
6
CONTINUOUS
10
490.9895747651
20
475.2039573068
40
11.2000000000
100
AcDbArc
50
180.0000004833
51
360.0000000000
0
ARC
5
321
100
AcDbEntity
8
0
100
AcDbCircle
62
7
6
CONTINUOUS
10
490.9895747651
20
421.0039573068
40
59.5000000000
100
AcDbArc
50
170.0000000000
51
250.3485261997
0
ARC
5
322
100
AcDbEntity
8
0
100
AcDbCircle
62
7
6
CONTINUOUS
10
490.9895747651
20
415.0039573068
40
20.0000000000
100
AcDbArc
50
0.0000000000
51
180.0000000000
0
ARC
5
323
100
AcDbEntity
8
0
100
AcDbCircle
62
7
6
CONTINUOUS
10
490.9895747651
20
35.0039573068
40
20.0000000000
100
AcDbArc
50
180.0000000000
51
360.0000000000
0
SPLINE
5
324
100
AcDbEntity
8
DEFAULT_2
100
AcDbSpline
62
8
6
HIDDEN
70
0
71
3
72
9
73
5
74
3
42
0.0000001000
43
0.0000001000
44
0.0000000001
40
0.0000000000
40
0.0000000000
40
0.0000000000
40
0.0000000000
40
0.5268669524
40
1.0000000000
40
1.0000000000
40
1.0000000000
40
1.0000000000
10
157.9442443010
20
448.6353293313
30
0.0000000000
10
157.8447031975
20
448.6826377890
30
0.0000000000
10
157.6499900615
20
448.7614134423
30
0.0000000000
10
157.4432074800
20
448.8032212417
30
0.0000000000
10
157.3445594902
20
448.8112117200
30
0.0000000000
11
157.9442443010
21
448.6353293313
31
0.0000000000
11
157.6361770216
21
448.7553845041
31
0.0000000000
11
157.3445594902
21
448.8112117200
31
0.0000000000
0
SPLINE
5
325
100
AcDbEntity
8
DEFAULT_2
100
AcDbSpline
62
8
6
HIDDEN
70
0
71
3
72
9
73
5
74
3
42
0.0000001000
43
0.0000001000
44
0.0000000001
40
0.0000000000
40
0.0000000000
40
0.0000000000
40
0.0000000000
40
0.5112500156
40
1.0000000000
40
1.0000000000
40
1.0000000000
40
1.0000000000
10
157.3445594902
20
448.8112117200
30
0.0000000000
10
157.5297847879
20
449.0714742828
30
0.0000000000
10
157.8328604232
20
449.6259805124
30
0.0000000000
10
157.9906242190
20
450.2379933998
30
0.0000000000
10
158.0293300800
20
450.5409167352
30
0.0000000000
11
157.3445594902
21
448.8112117200
31
0.0000000000
11
157.8016985230
21
449.6534878133
31
0.0000000000
11
158.0293300800
21
450.5409167352
31
0.0000000000
0
SPLINE
5
326
100
AcDbEntity
8
DEFAULT_2
100
AcDbSpline
62
8
6
HIDDEN
70
0
71
3
72
10
73
6
74
4
42
0.0000001000
43
0.0000001000
44
0.0000000001
40
0.0000000000
40
0.0000000000
40
0.0000000000
40
0.0000000000
40
0.3068036079
40
0.6394871977
40
1.0000000000
40
1.0000000000
40
1.0000000000
40
1.0000000000
10
158.0293301419
20
450.5409172194
30
0.0000000000
10
158.0621017410
20
450.7973905644
30
0.0000000000
10
158.1692264686
20
451.3275611529
30
0.0000000000
10
158.4429448633
20
452.1267924397
30
0.0000000000
10
158.7025877795
20
452.6523824603
30
0.0000000000
10
158.8544987842
20
452.9155000386
30
0.0000000000
11
158.0293301419
21
450.5409172194
31
0.0000000000
11
158.1805233699
21
451.3017152198
31
0.0000000000
11
158.4514280831
21
452.0980012127
31
0.0000000000
11
158.8544987842
21
452.9155000386
31
0.0000000000
0
SPLINE
5
327
100
AcDbEntity
8
DEFAULT_2
100
AcDbSpline
62
8
6
HIDDEN
70
0
71
3
72
10
73
6
74
4
42
0.0000001000
43
0.0000001000
44
0.0000000001
40
0.0000000000
40
0.0000000000
40
0.0000000000
40
0.0000000000
40
0.3068036079
40
0.6394871977
40
1.0000000000
40
1.0000000000
40
1.0000000000
40
1.0000000000
10
139.8869268481
20
450.5409172194
30
0.0000000000
10
139.8541552489
20
450.7973905644
30
0.0000000000
10
139.7470305213
20
451.3275611529
30
0.0000000000
10
139.4733121267
20
452.1267924397
30
0.0000000000
10
139.2136692105
20
452.6523824603
30
0.0000000000
10
139.0617582058
20
452.9155000386
30
0.0000000000
11
139.8869268481
21
450.5409172194
31
0.0000000000
11
139.7357336201
21
451.3017152198
31
0.0000000000
11
139.4648289069
21
452.0980012127
31
0.0000000000
11
139.0617582058
21
452.9155000386
31
0.0000000000
0
SPLINE
5
328
100
AcDbEntity
8
DEFAULT_2
100
AcDbSpline
62
8
6
HIDDEN
70
0
71
3
72
9
73
5
74
3
42
0.0000001000
43
0.0000001000
44
0.0000000001
40
0.0000000000
40
0.0000000000
40
0.0000000000
40
0.0000000000
40
0.5112500156
40
1.0000000000
40
1.0000000000
40
1.0000000000
40
1.0000000000
10
140.5716974998
20
448.8112117200
30
0.0000000000
10
140.3864722021
20
449.0714742828
30
0.0000000000
10
140.0833965667
20
449.6259805124
30
0.0000000000
10
139.9256327710
20
450.2379933998
30
0.0000000000
10
139.8869269099
20
450.5409167352
30
0.0000000000
11
140.5716974998
21
448.8112117200
31
0.0000000000
11
140.1145584669
21
449.6534878133
31
0.0000000000
11
139.8869269099
21
450.5409167352
31
0.0000000000
0
SPLINE
5
329
100
AcDbEntity
8
DEFAULT_2
100
AcDbSpline
62
8
6
HIDDEN
70
0
71
3
72
9
73
5
74
3
42
0.0000001000
43
0.0000001000
44
0.0000000001
40
0.0000000000
40
0.0000000000
40
0.0000000000
40
0.0000000000
40
0.5268669524
40
1.0000000000
40
1.0000000000
40
1.0000000000
40
1.0000000000
10
139.9720126889
20
448.6353293313
30
0.0000000000
10
140.0715537925
20
448.6826377890
30
0.0000000000
10
140.2662669284
20
448.7614134423
30
0.0000000000
10
140.4730495100
20
448.8032212417
30
0.0000000000
10
140.5716974998
20
448.8112117200
30
0.0000000000
11
139.9720126889
21
448.6353293313
31
0.0000000000
11
140.2800799683
21
448.7553845041
31
0.0000000000
11
140.5716974998
21
448.8112117200
31
0.0000000000
0
SPLINE
5
32A
100
AcDbEntity
8
0
100
AcDbSpline
62
7
6
CONTINUOUS
70
0
71
3
72
14
73
10
74
8
42
0.0000001000
43
0.0000001000
44
0.0000000001
40
0.0000000000
40
0.0000000000
40
0.0000000000
40
0.0000000000
40
0.1168811076
40
0.2412447626
40
0.3740402313
40
0.5161483896
40
0.6678879211
40
0.8292170931
40
1.0000000000
40
1.0000000000
40
1.0000000000
40
1.0000000000
10
157.9442443010
20
448.6353293313
30
0.0000000000
10
158.0415161084
20
448.5890985898
30
0.0000000000
10
158.2437847955
20
448.4968015765
30
0.0000000000
10
158.5614210491
20
448.3629145568
30
0.0000000000
10
158.9043893930
20
448.2296485646
30
0.0000000000
10
159.2746626960
20
448.0974202943
30
0.0000000000
10
159.6733679845
20
447.9670797369
30
0.0000000000
10
160.1007062156
20
447.8398025432
30
0.0000000000
10
160.3962029217
20
447.7600817264
30
0.0000000000
10
160.5486337000
20
447.7209788268
30
0.0000000000
11
157.9442443010
21
448.6353293313
31
0.0000000000
11
158.2381207921
21
448.5010595218
31
0.0000000000
11
158.5548495788
21
448.3673864728
31
0.0000000000
11
158.8969595801
21
448.2342868161
31
0.0000000000
11
159.2668577160
21
448.1020255565
31
0.0000000000
11
159.6655024774
21
447.9715394643
31
0.0000000000
11
160.0928698977
21
447.8440924612
31
0.0000000000
11
160.5486337000
21
447.7209788268
31
0.0000000000
0
SPLINE
5
32B
100
AcDbEntity
8
0
100
AcDbSpline
62
7
6
CONTINUOUS
70
0
71
3
72
10
73
6
74
4
42
0.0000001000
43
0.0000001000
44
0.0000000001
40
0.0000000000
40
0.0000000000
40
0.0000000000
40
0.0000000000
40
0.4423986717
40
0.7905939146
40
1.0000000000
40
1.0000000000
40
1.0000000000
40
1.0000000000
10
160.5486337000
20
447.7209788268
30
0.0000000000
10
160.7139731156
20
447.6785644887
30
0.0000000000
10
161.0069819373
20
447.5695262846
30
0.0000000000
10
161.3133838070
20
447.3472337101
30
0.0000000000
10
161.4581284440
20
447.1563097678
30
0.0000000000
10
161.4581284950
20
447.0755135220
30
0.0000000000
11
160.5486337000
21
447.7209788268
31
0.0000000000
11
161.0259982152
21
447.5356466781
31
0.0000000000
11
161.3457294976
21
447.2902663226
31
0.0000000000
11
161.4581284950
21
447.0755135220
31
0.0000000000
0
SPLINE
5
32C
100
AcDbEntity
8
0
100
AcDbSpline
62
7
6
CONTINUOUS
70
0
71
3
72
10
73
6
74
4
42
0.0000001000
43
0.0000001000
44
0.0000000001
40
0.0000000000
40
0.0000000000
40
0.0000000000
40
0.0000000000
40
0.3605127267
40
0.6931962518
40
1.0000000000
40
1.0000000000
40
1.0000000000
40
1.0000000000
10
158.8544987842
20
452.9155000386
30
0.0000000000
10
158.7025878113
20
452.6523825154
30
0.0000000000
10
158.4429449371
20
452.1267926056
30
0.0000000000
10
158.1692265253
20
451.3275613286
30
0.0000000000
10
158.0621017329
20
450.7973906844
30
0.0000000000
10
158.0293301419
20
450.5409172194
30
0.0000000000
11
158.8544987842
21
452.9155000386
31
0.0000000000
11
158.4514281561
21
452.0980013894
31
0.0000000000
11
158.1805234618
21
451.3017155626
31
0.0000000000
11
158.0293301419
21
450.5409172194
31
0.0000000000
0
SPLINE
5
32D
100
AcDbEntity
8
0
100
AcDbSpline
62
7
6
CONTINUOUS
70
0
71
3
72
10
73
6
74
4
42
0.0000001000
43
0.0000001000
44
0.0000000001
40
0.0000000000
40
0.0000000000
40
0.0000000000
40
0.0000000000
40
0.3605127267
40
0.6931962518
40
1.0000000000
40
1.0000000000
40
1.0000000000
40
1.0000000000
10
139.0617582058
20
452.9155000386
30
0.0000000000
10
139.2136691787
20
452.6523825154
30
0.0000000000
10
139.4733120529
20
452.1267926056
30
0.0000000000
10
139.7470304646
20
451.3275613286
30
0.0000000000
10
139.8541552570
20
450.7973906844
30
0.0000000000
10
139.8869268481
20
450.5409172194
30
0.0000000000
11
139.0617582058
21
452.9155000386
31
0.0000000000
11
139.4648288339
21
452.0980013894
31
0.0000000000
11
139.7357335281
21
451.3017155626
31
0.0000000000
11
139.8869268481
21
450.5409172194
31
0.0000000000
0
SPLINE
5
32E
100
AcDbEntity
8
0
100
AcDbSpline
62
7
6
CONTINUOUS
70
0
71
3
72
9
73
5
74
3
42
0.0000001000
43
0.0000001000
44
0.0000000001
40
0.0000000000
40
0.0000000000
40
0.0000000000
40
0.0000000000
40
0.4893821837
40
1.0000000000
40
1.0000000000
40
1.0000000000
40
1.0000000000
10
158.0293301419
20
450.5409172194
30
0.0000000000
10
157.9905741354
20
450.2376019786
30
0.0000000000
10
157.8327038608
20
449.6255920711
30
0.0000000000
10
157.5295557977
20
449.0711527615
30
0.0000000000
10
157.3445594720
20
448.8112119789
30
0.0000000000
11
158.0293301419
21
450.5409172194
31
0.0000000000
11
157.8012630434
21
449.6523763545
31
0.0000000000
11
157.3445594720
21
448.8112119789
31
0.0000000000
0
SPLINE
5
32F
100
AcDbEntity
8
0
100
AcDbSpline
62
7
6
CONTINUOUS
70
0
71
3
72
9
73
5
74
3
42
0.0000001000
43
0.0000001000
44
0.0000000001
40
0.0000000000
40
0.0000000000
40
0.0000000000
40
0.0000000000
40
0.4732449827
40
1.0000000000
40
1.0000000000
40
1.0000000000
40
1.0000000000
10
157.3445594720
20
448.8112119789
30
0.0000000000
10
157.4432307382
20
448.8032190313
30
0.0000000000
10
157.6500127439
20
448.7614050036
30
0.0000000000
10
157.8447243214
20
448.6826276484
30
0.0000000000
10
157.9442443010
20
448.6353293313
30
0.0000000000
11
157.3445594720
21
448.8112119789
31
0.0000000000
11
157.6362445287
21
448.7553641368
31
0.0000000000
11
157.9442443010
21
448.6353293313
31
0.0000000000
0
SPLINE
5
330
100
AcDbEntity
8
0
100
AcDbSpline
62
7
6
CONTINUOUS
70
0
71
3
72
14
73
10
74
8
42
0.0000001000
43
0.0000001000
44
0.0000000001
40
0.0000000000
40
0.0000000000
40
0.0000000000
40
0.0000000000
40
0.1168811076
40
0.2412447626
40
0.3740402313
40
0.5161483896
40
0.6678879211
40
0.8292170931
40
1.0000000000
40
1.0000000000
40
1.0000000000
40
1.0000000000
10
139.9720126889
20
448.6353293313
30
0.0000000000
10
139.8747408816
20
448.5890985898
30
0.0000000000
10
139.6724721945
20
448.4968015765
30
0.0000000000
10
139.3548359408
20
448.3629145568
30
0.0000000000
10
139.0118675970
20
448.2296485646
30
0.0000000000
10
138.6415942939
20
448.0974202943
30
0.0000000000
10
138.2428890055
20
447.9670797369
30
0.0000000000
10
137.8155507743
20
447.8398025432
30
0.0000000000
10
137.5200540683
20
447.7600817264
30
0.0000000000
10
137.3676232900
20
447.7209788268
30
0.0000000000
11
139.9720126889
21
448.6353293313
31
0.0000000000
11
139.6781361979
21
448.5010595218
31
0.0000000000
11
139.3614074111
21
448.3673864728
31
0.0000000000
11
139.0192974099
21
448.2342868161
31
0.0000000000
11
138.6493992740
21
448.1020255565
31
0.0000000000
11
138.2507545125
21
447.9715394643
31
0.0000000000
11
137.8233870922
21
447.8440924612
31
0.0000000000
11
137.3676232900
21
447.7209788268
31
0.0000000000
0
SPLINE
5
331
100
AcDbEntity
8
0
100
AcDbSpline
62
7
6
CONTINUOUS
70
0
71
3
72
10
73
6
74
4
42
0.0000001000
43
0.0000001000
44
0.0000000001
40
0.0000000000
40
0.0000000000
40
0.0000000000
40
0.0000000000
40
0.4423986717
40
0.7905939146
40
1.0000000000
40
1.0000000000
40
1.0000000000
40
1.0000000000
10
137.3676232900
20
447.7209788268
30
0.0000000000
10
137.2022838744
20
447.6785644887
30
0.0000000000
10
136.9092750526
20
447.5695262846
30
0.0000000000
10
136.6028731830
20
447.3472337101
30
0.0000000000
10
136.4581285459
20
447.1563097678
30
0.0000000000
10
136.4581284950
20
447.0755135220
30
0.0000000000
11
137.3676232900
21
447.7209788268
31
0.0000000000
11
136.8902587747
21
447.5356466781
31
0.0000000000
11
136.5705274924
21
447.2902663226
31
0.0000000000
11
136.4581284950
21
447.0755135220
31
0.0000000000
0
SPLINE
5
332
100
AcDbEntity
8
0
100
AcDbSpline
62
7
6
CONTINUOUS
70
0
71
3
72
9
73
5
74
3
42
0.0000001000
43
0.0000001000
44
0.0000000001
40
0.0000000000
40
0.0000000000
40
0.0000000000
40
0.0000000000
40
0.4732449827
40
1.0000000000
40
1.0000000000
40
1.0000000000
40
1.0000000000
10
140.5716975179
20
448.8112119789
30
0.0000000000
10
140.4730262518
20
448.8032190313
30
0.0000000000
10
140.2662442460
20
448.7614050036
30
0.0000000000
10
140.0715326686
20
448.6826276484
30
0.0000000000
10
139.9720126889
20
448.6353293313
30
0.0000000000
11
140.5716975179
21
448.8112119789
31
0.0000000000
11
140.2800124613
21
448.7553641368
31
0.0000000000
11
139.9720126889
21
448.6353293313
31
0.0000000000
0
SPLINE
5
333
100
AcDbEntity
8
0
100
AcDbSpline
62
7
6
CONTINUOUS
70
0
71
3
72
9
73
5
74
3
42
0.0000001000
43
0.0000001000
44
0.0000000001
40
0.0000000000
40
0.0000000000
40
0.0000000000
40
0.0000000000
40
0.4893821837
40
1.0000000000
40
1.0000000000
40
1.0000000000
40
1.0000000000
10
139.8869268481
20
450.5409172194
30
0.0000000000
10
139.9256828546
20
450.2376019786
30
0.0000000000
10
140.0835531291
20
449.6255920711
30
0.0000000000
10
140.3867011922
20
449.0711527615
30
0.0000000000
10
140.5716975179
20
448.8112119789
30
0.0000000000
11
139.8869268481
21
450.5409172194
31
0.0000000000
11
140.1149939466
21
449.6523763545
31
0.0000000000
11
140.5716975179
21
448.8112119789
31
0.0000000000
0
SPLINE
5
334
100
AcDbEntity
8
DEFAULT_2
100
AcDbSpline
62
8
6
HIDDEN
70
0
71
3
72
10
73
6
74
4
42
0.0000001000
43
0.0000001000
44
0.0000000001
40
0.0000000000
40
0.0000000000
40
0.0000000000
40
0.0000000000
40
0.4270068328
40
0.8138822154
40
1.0000000000
40
1.0000000000
40
1.0000000000
40
1.0000000000
10
510.3544914961
20
265.0039573068
30
0.0000000000
10
510.5124060536
20
264.8000904837
30
0.0000000000
10
510.7784929750
20
264.3809892693
30
0.0000000000
10
510.9633124263
20
263.7976177206
30
0.0000000000
10
510.9892769128
20
263.4501529664
30
0.0000000000
10
510.9892769128
20
263.3372905904
30
0.0000000000
11
510.3544914961
21
265.0039573068
31
0.0000000000
11
510.7597749875
21
264.3449933526
31
0.0000000000
11
510.9639758116
21
263.6744853732
31
0.0000000000
11
510.9892769128
21
263.3372905904
31
0.0000000000
0
SPLINE
5
335
100
AcDbEntity
8
DEFAULT_2
100
AcDbSpline
62
8
6
HIDDEN
70
0
71
3
72
10
73
6
74
4
42
0.0000001000
43
0.0000001000
44
0.0000000001
40
0.0000000000
40
0.0000000000
40
0.0000000000
40
0.0000000000
40
0.4811085177
40
0.9256934504
40
1.0000000000
40
1.0000000000
40
1.0000000000
40
1.0000000000
10
510.5545007249
20
250.8372910375
30
0.0000000000
10
510.6801573423
20
250.6438885038
30
0.0000000000
10
510.8853155233
20
250.2445735239
30
0.0000000000
10
510.9834501870
20
249.7688328402
30
0.0000000000
10
510.9895268459
20
249.5190655613
30
0.0000000000
10
510.9894943102
20
249.4832906487
30
0.0000000000
11
510.5545007249
21
250.8372910375
31
0.0000000000
11
510.8625315540
21
250.2177233351
31
0.0000000000
11
510.9868668349
21
249.5905404864
31
0.0000000000
11
510.9894943102
21
249.4832906487
31
0.0000000000
0
SPLINE
5
336
100
AcDbEntity
8
DEFAULT_2
100
AcDbSpline
62
8
6
HIDDEN
70
0
71
3
72
10
73
6
74
4
42
0.0000001000
43
0.0000001000
44
0.0000000001
40
0.0000000000
40
0.0000000000
40
0.0000000000
40
0.0000000000
40
0.0743065496
40
0.5188914823
40
1.0000000000
40
1.0000000000
40
1.0000000000
40
1.0000000000
10
510.9894943102
20
252.1912914262
30
0.0000000000
10
510.9895268459
20
252.1555165137
30
0.0000000000
10
510.9834501870
20
251.9057492347
30
0.0000000000
10
510.8853155233
20
251.4300085510
30
0.0000000000
10
510.6801573423
20
251.0306935711
30
0.0000000000
10
510.5545007249
20
250.8372910375
30
0.0000000000
11
510.9894943102
21
252.1912914262
31
0.0000000000
11
510.9868668349
21
252.0840415885
31
0.0000000000
11
510.8625315540
21
251.4568587398
31
0.0000000000
11
510.5545007249
21
250.8372910375
31
0.0000000000
0
SPLINE
5
337
100
AcDbEntity
8
DEFAULT_2
100
AcDbSpline
62
8
6
HIDDEN
70
0
71
3
72
10
73
6
74
4
42
0.0000001000
43
0.0000001000
44
0.0000000001
40
0.0000000000
40
0.0000000000
40
0.0000000000
40
0.0000000000
40
0.1861177821
40
0.5729931624
40
1.0000000000
40
1.0000000000
40
1.0000000000
40
1.0000000000
10
510.9892769127
20
258.3372907394
30
0.0000000000
10
510.9892769127
20
258.2244283735
30
0.0000000000
10
510.9633124262
20
257.8769636484
30
0.0000000000
10
510.7784929723
20
257.2935921480
30
0.0000000000
10
510.5124060522
20
256.8744909752
30
0.0000000000
10
510.3544914961
20
256.6706241721
30
0.0000000000
11
510.9892769127
21
258.3372907394
31
0.0000000000
11
510.9639758116
21
258.0000959869
31
0.0000000000
11
510.7597749875
21
257.3295880675
31
0.0000000000
11
510.3544914961
21
256.6706241721
31
0.0000000000
0
SPLINE
5
338
100
AcDbEntity
8
DEFAULT_2
100
AcDbSpline
62
8
6
HIDDEN
70
0
71
3
72
9
73
5
74
3
42
0.0000001000
43
0.0000001000
44
0.0000000001
40
0.0000000000
40
0.0000000000
40
0.0000000000
40
0.0000000000
40
0.5010088286
40
1.0000000000
40
1.0000000000
40
1.0000000000
40
1.0000000000
10
510.7158018927
20
211.6706223840
30
0.0000000000
10
510.7510627161
20
211.5329438712
30
0.0000000000
10
510.8149361007
20
211.2564319433
30
0.0000000000
10
510.8654078633
20
210.9771585520
30
0.0000000000
10
510.8871736629
20
210.8372922296
30
0.0000000000
11
510.7158018927
21
211.6706223840
31
0.0000000000
11
510.8117010362
21
211.2551808825
31
0.0000000000
11
510.8871736629
21
210.8372922296
31
0.0000000000
0
SPLINE
5
339
100
AcDbEntity
8
DEFAULT_2
100
AcDbSpline
62
8
6
HIDDEN
70
0
71
3
72
9
73
5
74
3
42
0.0000001000
43
0.0000001000
44
0.0000000001
40
0.0000000000
40
0.0000000000
40
0.0000000000
40
0.0000000000
40
0.4993420771
40
1.0000000000
40
1.0000000000
40
1.0000000000
40
1.0000000000
10
510.6399248800
20
212.2956223804
30
0.0000000000
10
510.6533332111
20
212.1916895524
30
0.0000000000
10
510.6794053280
20
211.9834486691
30
0.0000000000
10
510.7039188804
20
211.7750185717
30
0.0000000000
10
510.7158018927
20
211.6706223840
30
0.0000000000
11
510.6399248800
21
212.2956223804
31
0.0000000000
11
510.6789824047
21
211.9836755028
31
0.0000000000
11
510.7158018927
21
211.6706223840
31
0.0000000000
0
SPLINE
5
33A
100
AcDbEntity
8
DEFAULT_2
100
AcDbSpline
62
8
6
HIDDEN
70
0
71
3
72
9
73
5
74
3
42
0.0000001000
43
0.0000001000
44
0.0000000001
40
0.0000000000
40
0.0000000000
40
0.0000000000
40
0.0000000000
40
0.4996206229
40
1.0000000000
40
1.0000000000
40
1.0000000000
40
1.0000000000
10
510.5984136665
20
213.3372922283
30
0.0000000000
10
510.6055261800
20
213.1638203415
30
0.0000000000
10
510.6195623804
20
212.8166049095
30
0.0000000000
10
510.6332002281
20
212.4693736032
30
0.0000000000
10
510.6399248795
20
212.2956223840
30
0.0000000000
11
510.5984136665
21
213.3372922283
31
0.0000000000
11
510.6194522933
21
212.8168643981
31
0.0000000000
11
510.6399248795
21
212.2956223840
31
0.0000000000
0
SPLINE
5
33B
100
AcDbEntity
8
DEFAULT_2
100
AcDbSpline
62
8
6
HIDDEN
70
0
71
3
72
9
73
5
74
3
42
0.0000001000
43
0.0000001000
44
0.0000000001
40
0.0000000000
40
0.0000000000
40
0.0000000000
40
0.0000000000
40
0.4996206236
40
1.0000000000
40
1.0000000000
40
1.0000000000
40
1.0000000000
10
510.5984136664
20
213.3372922296
30
0.0000000000
10
510.6055261800
20
213.5107633227
30
0.0000000000
10
510.6195623804
20
213.8579771656
30
0.0000000000
10
510.6332002281
20
214.2052068829
30
0.0000000000
10
510.6399248795
20
214.3789573068
30
0.0000000000
11
510.5984136664
21
213.3372922296
31
0.0000000000
11
510.6194522933
21
213.8577176787
31
0.0000000000
11
510.6399248795
21
214.3789573068
31
0.0000000000
0
SPLINE
5
33C
100
AcDbEntity
8
DEFAULT_2
100
AcDbSpline
62
8
6
HIDDEN
70
0
71
3
72
9
73
5
74
3
42
0.0000001000
43
0.0000001000
44
0.0000000001
40
0.0000000000
40
0.0000000000
40
0.0000000000
40
0.0000000000
40
0.4993420800
40
1.0000000000
40
1.0000000000
40
1.0000000000
40
1.0000000000
10
510.6399248795
20
214.3789573068
30
0.0000000000
10
510.6533332108
20
214.4828901359
30
0.0000000000
10
510.6794053279
20
214.6911310205
30
0.0000000000
10
510.7039188804
20
214.8995611190
30
0.0000000000
10
510.7158018927
20
215.0039573068
30
0.0000000000
11
510.6399248795
21
214.3789573068
31
0.0000000000
11
510.6789824047
21
214.6909041879
31
0.0000000000
11
510.7158018927
21
215.0039573068
31
0.0000000000
0
SPLINE
5
33D
100
AcDbEntity
8
DEFAULT_2
100
AcDbSpline
62
8
6
HIDDEN
70
0
71
3
72
9
73
5
74
3
42
0.0000001000
43
0.0000001000
44
0.0000000001
40
0.0000000000
40
0.0000000000
40
0.0000000000
40
0.0000000000
40
0.5010087982
40
1.0000000000
40
1.0000000000
40
1.0000000000
40
1.0000000000
10
510.7158018927
20
215.0039573068
30
0.0000000000
10
510.7510627181
20
215.1416366151
30
0.0000000000
10
510.8149361051
20
215.4181501393
30
0.0000000000
10
510.8654078642
20
215.6974251123
30
0.0000000000
10
510.8871736629
20
215.8372922296
30
0.0000000000
11
510.7158018927
21
215.0039573068
31
0.0000000000
11
510.8117010357
21
215.4194011828
31
0.0000000000
11
510.8871736629
21
215.8372922296
31
0.0000000000
0
SPLINE
5
33E
100
AcDbEntity
8
DEFAULT_2
100
AcDbSpline
62
8
6
HIDDEN
70
0
71
3
72
9
73
5
74
3
42
0.0000001000
43
0.0000001000
44
0.0000000001
40
0.0000000000
40
0.0000000000
40
0.0000000000
40
0.0000000000
40
0.4994402589
40
1.0000000000
40
1.0000000000
40
1.0000000000
40
1.0000000000
10
510.8119525782
20
220.0039573068
30
0.0000000000
10
510.7976190117
20
220.0736940356
30
0.0000000000
10
510.7672294923
20
220.2129816171
30
0.0000000000
10
510.7335050049
20
220.3514992308
30
0.0000000000
10
510.7158018927
20
220.4206223840
30
0.0000000000
11
510.8119525782
21
220.0039573068
31
0.0000000000
11
510.7664316365
21
220.2126336259
31
0.0000000000
11
510.7158018927
21
220.4206223840
31
0.0000000000
0
SPLINE
5
33F
100
AcDbEntity
8
DEFAULT_2
100
AcDbSpline
62
8
6
HIDDEN
70
0
71
3
72
9
73
5
74
3
42
0.0000001000
43
0.0000001000
44
0.0000000001
40
0.0000000000
40
0.0000000000
40
0.0000000000
40
0.0000000000
40
0.4993420800
40
1.0000000000
40
1.0000000000
40
1.0000000000
40
1.0000000000
10
510.6399248795
20
221.0456223840
30
0.0000000000
10
510.6533332108
20
220.9416895548
30
0.0000000000
10
510.6794053279
20
220.7334486703
30
0.0000000000
10
510.7039188804
20
220.5250185717
30
0.0000000000
10
510.7158018927
20
220.4206223840
30
0.0000000000
11
510.6399248795
21
221.0456223840
31
0.0000000000
11
510.6789824047
21
220.7336755028
31
0.0000000000
11
510.7158018927
21
220.4206223840
31
0.0000000000
0
SPLINE
5
340
100
AcDbEntity
8
DEFAULT_2
100
AcDbSpline
62
8
6
HIDDEN
70
0
71
3
72
9
73
5
74
3
42
0.0000001000
43
0.0000001000
44
0.0000000001
40
0.0000000000
40
0.0000000000
40
0.0000000000
40
0.0000000000
40
0.4996206235
40
1.0000000000
40
1.0000000000
40
1.0000000000
40
1.0000000000
10
510.5984136664
20
222.0872922296
30
0.0000000000
10
510.6055261800
20
221.9138203423
30
0.0000000000
10
510.6195623804
20
221.5666049099
30
0.0000000000
10
510.6332002281
20
221.2193736032
30
0.0000000000
10
510.6399248795
20
221.0456223840
30
0.0000000000
11
510.5984136664
21
222.0872922296
31
0.0000000000
11
510.6194522933
21
221.5668643981
31
0.0000000000
11
510.6399248795
21
221.0456223840
31
0.0000000000
0
SPLINE
5
341
100
AcDbEntity
8
DEFAULT_2
100
AcDbSpline
62
8
6
HIDDEN
70
0
71
3
72
9
73
5
74
3
42
0.0000001000
43
0.0000001000
44
0.0000000001
40
0.0000000000
40
0.0000000000
40
0.0000000000
40
0.0000000000
40
0.4996206235
40
1.0000000000
40
1.0000000000
40
1.0000000000
40
1.0000000000
10
510.5984136664
20
222.9206223840
30
0.0000000000
10
510.6055261800
20
223.0940942712
30
0.0000000000
10
510.6195623804
20
223.4413097037
30
0.0000000000
10
510.6332002281
20
223.7885410103
30
0.0000000000
10
510.6399248795
20
223.9622922296
30
0.0000000000
11
510.5984136664
21
222.9206223840
31
0.0000000000
11
510.6194522933
21
223.4410502154
31
0.0000000000
11
510.6399248795
21
223.9622922296
31
0.0000000000
0
SPLINE
5
342
100
AcDbEntity
8
DEFAULT_2
100
AcDbSpline
62
8
6
HIDDEN
70
0
71
3
72
9
73
5
74
3
42
0.0000001000
43
0.0000001000
44
0.0000000001
40
0.0000000000
40
0.0000000000
40
0.0000000000
40
0.0000000000
40
0.4993420800
40
1.0000000000
40
1.0000000000
40
1.0000000000
40
1.0000000000
10
510.6399248795
20
223.9622922296
30
0.0000000000
10
510.6533332108
20
224.0662250587
30
0.0000000000
10
510.6794053279
20
224.2744659433
30
0.0000000000
10
510.7039188804
20
224.4828960418
30
0.0000000000
10
510.7158018927
20
224.5872922296
30
0.0000000000
11
510.6399248795
21
223.9622922296
31
0.0000000000
11
510.6789824047
21
224.2742391107
31
0.0000000000
11
510.7158018927
21
224.5872922296
31
0.0000000000
0
SPLINE
5
343
100
AcDbEntity
8
DEFAULT_2
100
AcDbSpline
62
8
6
HIDDEN
70
0
71
3
72
9
73
5
74
3
42
0.0000001000
43
0.0000001000
44
0.0000000001
40
0.0000000000
40
0.0000000000
40
0.0000000000
40
0.0000000000
40
0.5005597411
40
1.0000000000
40
1.0000000000
40
1.0000000000
40
1.0000000000
10
510.7158018927
20
224.5872922296
30
0.0000000000
10
510.7335050049
20
224.6564153828
30
0.0000000000
10
510.7672294923
20
224.7949329964
30
0.0000000000
10
510.7976190117
20
224.9342205779
30
0.0000000000
10
510.8119525782
20
225.0039573068
30
0.0000000000
11
510.7158018927
21
224.5872922296
31
0.0000000000
11
510.7664316365
21
224.7952809876
31
0.0000000000
11
510.8119525782
21
225.0039573068
31
0.0000000000
0
SPLINE
5
344
100
AcDbEntity
8
DEFAULT_2
100
AcDbSpline
62
8
6
HIDDEN
70
0
71
3
72
9
73
5
74
3
42
0.0000001000
43
0.0000001000
44
0.0000000001
40
0.0000000000
40
0.0000000000
40
0.0000000000
40
0.0000000000
40
0.5066493377
40
1.0000000000
40
1.0000000000
40
1.0000000000
40
1.0000000000
10
510.8644094829
20
218.7539573068
30
0.0000000000
10
510.8800812544
20
218.7880868299
30
0.0000000000
10
510.9086023303
20
218.8565895096
30
0.0000000000
10
510.9317384432
20
218.9271057147
30
0.0000000000
10
510.9417017271
20
218.9622922296
30
0.0000000000
11
510.8644094829
21
218.7539573068
31
0.0000000000
11
510.9075993375
21
218.8580173635
31
0.0000000000
11
510.9417017271
21
218.9622922296
31
0.0000000000
0
SPLINE
5
345
100
AcDbEntity
8
DEFAULT_2
100
AcDbSpline
62
8
6
HIDDEN
70
0
71
3
72
9
73
5
74
3
42
0.0000001000
43
0.0000001000
44
0.0000000001
40
0.0000000000
40
0.0000000000
40
0.0000000000
40
0.0000000000
40
0.5002075284
40
1.0000000000
40
1.0000000000
40
1.0000000000
40
1.0000000000
10
510.9417017271
20
218.9622922296
30
0.0000000000
10
510.9490624022
20
219.0316116882
30
0.0000000000
10
510.9620939128
20
219.1703770989
30
0.0000000000
10
510.9717370421
20
219.3094191766
30
0.0000000000
10
510.9757062207
20
219.3789573068
30
0.0000000000
11
510.9417017271
21
218.9622922296
31
0.0000000000
11
510.9612515230
21
219.1705039186
31
0.0000000000
11
510.9757062207
21
219.3789573068
31
0.0000000000
0
SPLINE
5
346
100
AcDbEntity
8
DEFAULT_2
100
AcDbSpline
62
8
6
HIDDEN
70
0
71
3
72
9
73
5
74
3
42
0.0000001000
43
0.0000001000
44
0.0000000001
40
0.0000000000
40
0.0000000000
40
0.0000000000
40
0.0000000000
40
0.4998889759
40
1.0000000000
40
1.0000000000
40
1.0000000000
40
1.0000000000
10
510.7158018927
20
233.7539573068
30
0.0000000000
10
510.7569789378
20
233.9606737624
30
0.0000000000
10
510.8302342714
20
234.3760677183
30
0.0000000000
10
510.8849585552
20
234.7943092474
30
0.0000000000
10
510.9076391804
20
235.0039573068
30
0.0000000000
11
510.7158018927
21
233.7539573068
31
0.0000000000
11
510.8255872999
21
234.3766870580
31
0.0000000000
11
510.9076391804
21
235.0039573068
31
0.0000000000
0
SPLINE
5
347
100
AcDbEntity
8
DEFAULT_2
100
AcDbSpline
62
8
6
HIDDEN
70
0
71
3
72
8
73
4
74
2
42
0.0000001000
43
0.0000001000
44
0.0000000001
40
0.0000000000
40
0.0000000000
40
0.0000000000
40
0.0000000000
40
1.0000000000
40
1.0000000000
40
1.0000000000
40
1.0000000000
10
539.2247999862
20
490.0952451921
30
0.0000000000
10
539.0175355940
20
490.1318512930
30
0.0000000000
10
538.8104460328
20
490.1694546396
30
0.0000000000
10
538.6035459957
20
490.2080737931
30
0.0000000000
11
539.2247999862
21
490.0952451921
31
0.0000000000
11
538.6035459957
21
490.2080737931
31
0.0000000000
0
SPLINE
5
348
100
AcDbEntity
8
DEFAULT_2
100
AcDbSpline
62
8
6
HIDDEN
70
0
71
3
72
8
73
4
74
2
42
0.0000001000
43
0.0000001000
44
0.0000000001
40
0.0000000000
40
0.0000000000
40
0.0000000000
40
0.0000000000
40
1.0000000000
40
1.0000000000
40
1.0000000000
40
1.0000000000
10
538.6035459957
20
490.2080737931
30
0.0000000000
10
538.5008669037
20
490.2272394717
30
0.0000000000
10
538.3982344893
20
490.2466553311
30
0.0000000000
10
538.2956506827
20
490.2663238423
30
0.0000000000
11
538.6035459957
21
490.2080737931
31
0.0000000000
11
538.2956506827
21
490.2663238423
31
0.0000000000
0
SPLINE
5
349
100
AcDbEntity
8
DEFAULT_2
100
AcDbSpline
62
8
6
HIDDEN
70
0
71
3
72
8
73
4
74
2
42
0.0000001000
43
0.0000001000
44
0.0000000001
40
0.0000000000
40
0.0000000000
40
0.0000000000
40
0.0000000000
40
1.0000000000
40
1.0000000000
40
1.0000000000
40
1.0000000000
10
538.2956506827
20
490.2663238423
30
0.0000000000
10
538.1935766169
20
490.2858946202
30
0.0000000000
10
538.0915506771
20
490.3057155453
30
0.0000000000
10
537.9895747651
20
490.3257890518
30
0.0000000000
11
538.2956506827
21
490.2663238423
31
0.0000000000
11
537.9895747651
21
490.3257890518
31
0.0000000000
0
SPLINE
5
34A
100
AcDbEntity
8
DEFAULT_2
100
AcDbSpline
62
8
6
HIDDEN
70
0
71
3
72
9
73
5
74
3
42
0.0000001000
43
0.0000001000
44
0.0000000001
40
0.0000000000
40
0.0000000000
40
0.0000000000
40
0.0000000000
40
0.5741761593
40
1.0000000000
40
1.0000000000
40
1.0000000000
40
1.0000000000
10
510.3544914961
20
257.9206241721
30
0.0000000000
10
510.4930473392
20
258.1000443402
30
0.0000000000
10
510.7094592618
20
258.4337217575
30
0.0000000000
10
510.8558446623
20
258.8034103434
30
0.0000000000
10
510.9015264646
20
258.9655551807
30
0.0000000000
11
510.3544914961
21
257.9206241721
31
0.0000000000
11
510.7184782502
21
258.4950956755
31
0.0000000000
11
510.9015264646
21
258.9655551807
31
0.0000000000
0
SPLINE
5
34B
100
AcDbEntity
8
DEFAULT_2
100
AcDbSpline
62
8
6
HIDDEN
70
0
71
3
72
9
73
5
74
3
42
0.0000001000
43
0.0000001000
44
0.0000000001
40
0.0000000000
40
0.0000000000
40
0.0000000000
40
0.0000000000
40
0.7764182972
40
1.0000000000
40
1.0000000000
40
1.0000000000
40
1.0000000000
10
510.3544914961
20
251.6706235761
30
0.0000000000
10
510.5124060550
20
251.8744904192
30
0.0000000000
10
510.6922107517
20
252.1576925152
30
0.0000000000
10
510.8192001856
20
252.4663258426
30
0.0000000000
10
510.8446216417
20
252.5363909892
30
0.0000000000
11
510.3544914961
21
251.6706235761
31
0.0000000000
11
510.7597749874
21
252.3295875890
31
0.0000000000
11
510.8446216417
21
252.5363909892
31
0.0000000000
0
SPLINE
5
34C
100
AcDbEntity
8
DEFAULT_2
100
AcDbSpline
62
8
6
HIDDEN
70
0
71
3
72
8
73
4
74
2
42
0.0000001000
43
0.0000001000
44
0.0000000001
40
0.0000000000
40
0.0000000000
40
0.0000000000
40
0.0000000000
40
1.0000000000
40
1.0000000000
40
1.0000000000
40
1.0000000000
10
510.8446216417
20
252.5363909892
30
0.0000000000
10
510.8599073474
20
252.5785205669
30
0.0000000000
10
510.8741188628
20
252.6210335271
30
0.0000000000
10
510.8871842537
20
252.6638840219
30
0.0000000000
11
510.8446216417
21
252.5363909892
31
0.0000000000
11
510.8871842537
21
252.6638840219
31
0.0000000000
0
SPLINE
5
34D
100
AcDbEntity
8
DEFAULT_2
100
AcDbSpline
62
8
6
HIDDEN
70
0
71
3
72
8
73
4
74
2
42
0.0000001000
43
0.0000001000
44
0.0000000001
40
0.0000000000
40
0.0000000000
40
0.0000000000
40
0.0000000000
40
1.0000000000
40
1.0000000000
40
1.0000000000
40
1.0000000000
10
510.8871842537
20
252.6638840219
30
0.0000000000
10
510.8920063022
20
252.6796988695
30
0.0000000000
10
510.8966722337
20
252.6955596937
30
0.0000000000
10
510.9011784320
20
252.7114641896
30
0.0000000000
11
510.8871842537
21
252.6638840219
31
0.0000000000
11
510.9011784320
21
252.7114641896
31
0.0000000000
0
SPLINE
5
34E
100
AcDbEntity
8
DEFAULT_2
100
AcDbSpline
62
8
6
HIDDEN
70
0
71
3
72
8
73
4
74
2
42
0.0000001000
43
0.0000001000
44
0.0000000001
40
0.0000000000
40
0.0000000000
40
0.0000000000
40
0.0000000000
40
1.0000000000
40
1.0000000000
40
1.0000000000
40
1.0000000000
10
510.9011784320
20
252.7114641896
30
0.0000000000
10
510.9017357723
20
252.7134313058
30
0.0000000000
10
510.9022906690
20
252.7153990901
30
0.0000000000
10
510.9028431154
20
252.7173675380
30
0.0000000000
11
510.9011784320
21
252.7114641896
31
0.0000000000
11
510.9028431154
21
252.7173675380
31
0.0000000000
0
SPLINE
5
34F
100
AcDbEntity
8
DEFAULT_2
100
AcDbSpline
62
8
6
HIDDEN
70
0
71
3
72
8
73
4
74
2
42
0.0000001000
43
0.0000001000
44
0.0000000001
40
0.0000000000
40
0.0000000000
40
0.0000000000
40
0.0000000000
40
1.0000000000
40
1.0000000000
40
1.0000000000
40
1.0000000000
10
510.9417017271
20
220.4206223840
30
0.0000000000
10
510.9567311101
20
220.6584102462
30
0.0000000000
10
510.9682227193
20
220.8964649266
30
0.0000000000
10
510.9761747261
20
221.1346601010
30
0.0000000000
11
510.9417017271
21
220.4206223840
31
0.0000000000
11
510.9761747261
21
221.1346601010
31
0.0000000000
0
SPLINE
5
350
100
AcDbEntity
8
DEFAULT_2
100
AcDbSpline
62
8
6
HIDDEN
70
0
71
3
72
8
73
4
74
2
42
0.0000001000
43
0.0000001000
44
0.0000000001
40
0.0000000000
40
0.0000000000
40
0.0000000000
40
0.0000000000
40
1.0000000000
40
1.0000000000
40
1.0000000000
40
1.0000000000
10
510.9028428013
20
248.9572144639
30
0.0000000000
10
510.9022903485
20
248.9591829310
30
0.0000000000
10
510.9017354454
20
248.9611507343
30
0.0000000000
10
510.9011780987
20
248.9631178696
30
0.0000000000
11
510.9028428013
21
248.9572144639
31
0.0000000000
11
510.9011780987
21
248.9631178696
31
0.0000000000
0
SPLINE
5
351
100
AcDbEntity
8
DEFAULT_2
100
AcDbSpline
62
8
6
HIDDEN
70
0
71
3
72
8
73
4
74
2
42
0.0000001000
43
0.0000001000
44
0.0000000001
40
0.0000000000
40
0.0000000000
40
0.0000000000
40
0.0000000000
40
1.0000000000
40
1.0000000000
40
1.0000000000
40
1.0000000000
10
510.9011780987
20
248.9631178696
30
0.0000000000
10
510.8966720037
20
248.9790219712
30
0.0000000000
10
510.8920061833
20
248.9948824032
30
0.0000000000
10
510.8871842536
20
249.0106968609
30
0.0000000000
11
510.9011780987
21
248.9631178696
31
0.0000000000
11
510.8871842536
21
249.0106968609
31
0.0000000000
0
SPLINE
5
352
100
AcDbEntity
8
DEFAULT_2
100
AcDbSpline
62
8
6
HIDDEN
70
0
71
3
72
8
73
4
74
2
42
0.0000001000
43
0.0000001000
44
0.0000000001
40
0.0000000000
40
0.0000000000
40
0.0000000000
40
0.0000000000
40
1.0000000000
40
1.0000000000
40
1.0000000000
40
1.0000000000
10
510.8871842536
20
249.0106968609
30
0.0000000000
10
510.8741188628
20
249.0535473557
30
0.0000000000
10
510.8599073474
20
249.0960603160
30
0.0000000000
10
510.8446216417
20
249.1381898936
30
0.0000000000
11
510.8871842536
21
249.0106968609
31
0.0000000000
11
510.8446216417
21
249.1381898936
31
0.0000000000
0
SPLINE
5
353
100
AcDbEntity
8
DEFAULT_2
100
AcDbSpline
62
8
6
HIDDEN
70
0
71
3
72
9
73
5
74
3
42
0.0000001000
43
0.0000001000
44
0.0000000001
40
0.0000000000
40
0.0000000000
40
0.0000000000
40
0.0000000000
40
0.2235817028
40
1.0000000000
40
1.0000000000
40
1.0000000000
40
1.0000000000
10
510.8446216417
20
249.1381898936
30
0.0000000000
10
510.8192001856
20
249.2082550402
30
0.0000000000
10
510.6922107517
20
249.5168883677
30
0.0000000000
10
510.5124060550
20
249.8000904636
30
0.0000000000
10
510.3544914961
20
250.0039573068
30
0.0000000000
11
510.8446216417
21
249.1381898936
31
0.0000000000
11
510.7597749874
21
249.3449932939
31
0.0000000000
11
510.3544914961
21
250.0039573068
31
0.0000000000
0
SPLINE
5
354
100
AcDbEntity
8
DEFAULT_2
100
AcDbSpline
62
8
6
HIDDEN
70
0
71
3
72
9
73
5
74
3
42
0.0000001000
43
0.0000001000
44
0.0000000001
40
0.0000000000
40
0.0000000000
40
0.0000000000
40
0.0000000000
40
0.4258238858
40
1.0000000000
40
1.0000000000
40
1.0000000000
40
1.0000000000
10
510.9015264899
20
262.7090262084
30
0.0000000000
10
510.8558446854
20
262.8711710774
30
0.0000000000
10
510.7094592788
20
263.2408596952
30
0.0000000000
10
510.4930473392
20
263.5745371387
30
0.0000000000
10
510.3544914961
20
263.7539573068
30
0.0000000000
11
510.9015264899
21
262.7090262084
31
0.0000000000
11
510.7184782502
21
263.1794858034
31
0.0000000000
11
510.3544914961
21
263.7539573068
31
0.0000000000
0
SPLINE
5
355
100
AcDbEntity
8
DEFAULT_2
100
AcDbSpline
62
8
6
HIDDEN
70
0
71
3
72
8
73
4
74
2
42
0.0000001000
43
0.0000001000
44
0.0000000001
40
0.0000000000
40
0.0000000000
40
0.0000000000
40
0.0000000000
40
1.0000000000
40
1.0000000000
40
1.0000000000
40
1.0000000000
10
510.9666440153
20
217.0872922296
30
0.0000000000
10
510.9623537727
20
217.0697619436
30
0.0000000000
10
510.9574901624
20
217.0523643757
30
0.0000000000
10
510.9520942187
20
217.0351282519
30
0.0000000000
11
510.9666440153
21
217.0872922296
31
0.0000000000
11
510.9520942187
21
217.0351282519
31
0.0000000000
0
SPLINE
5
356
100
AcDbEntity
8
DEFAULT_2
100
AcDbSpline
62
8
6
HIDDEN
70
0
71
3
72
9
73
5
74
3
42
0.0000001000
43
0.0000001000
44
0.0000000001
40
0.0000000000
40
0.0000000000
40
0.0000000000
40
0.0000000000
40
0.3257173999
40
1.0000000000
40
1.0000000000
40
1.0000000000
40
1.0000000000
10
510.9520942187
20
217.0351282519
30
0.0000000000
10
510.9466006854
20
217.0175804003
30
0.0000000000
10
510.9280407435
20
216.9642196800
30
0.0000000000
10
510.9046881478
20
216.9127219626
30
0.0000000000
10
510.8871736629
20
216.8789573068
30
0.0000000000
11
510.9520942187
21
217.0351282519
31
0.0000000000
11
510.9340016320
21
216.9830170195
31
0.0000000000
11
510.8871736629
21
216.8789573068
31
0.0000000000
0
SPLINE
5
357
100
AcDbEntity
8
DEFAULT_2
100
AcDbSpline
62
8
6
HIDDEN
70
0
71
3
72
8
73
4
74
2
42
0.0000001000
43
0.0000001000
44
0.0000000001
40
0.0000000000
40
0.0000000000
40
0.0000000000
40
0.0000000000
40
1.0000000000
40
1.0000000000
40
1.0000000000
40
1.0000000000
10
510.8871736629
20
216.8789573068
30
0.0000000000
10
510.8762763012
20
216.8439438761
30
0.0000000000
10
510.8645781689
20
216.8091751102
30
0.0000000000
10
510.8521233426
20
216.7746802219
30
0.0000000000
11
510.8871736629
21
216.8789573068
31
0.0000000000
11
510.8521233426
21
216.7746802219
31
0.0000000000
0
SPLINE
5
358
100
AcDbEntity
8
DEFAULT_2
100
AcDbSpline
62
8
6
HIDDEN
70
0
71
3
72
8
73
4
74
2
42
0.0000001000
43
0.0000001000
44
0.0000000001
40
0.0000000000
40
0.0000000000
40
0.0000000000
40
0.0000000000
40
1.0000000000
40
1.0000000000
40
1.0000000000
40
1.0000000000
10
510.8521233426
20
216.7746802219
30
0.0000000000
10
510.8394950347
20
216.7397048593
30
0.0000000000
10
510.8260888062
20
216.7050110569
30
0.0000000000
10
510.8119525782
20
216.6706223840
30
0.0000000000
11
510.8521233426
21
216.7746802219
31
0.0000000000
11
510.8119525782
21
216.6706223840
31
0.0000000000
0
SPLINE
5
359
100
AcDbEntity
8
DEFAULT_2
100
AcDbSpline
62
8
6
HIDDEN
70
0
71
3
72
9
73
5
74
3
42
0.0000001000
43
0.0000001000
44
0.0000000001
40
0.0000000000
40
0.0000000000
40
0.0000000000
40
0.0000000000
40
0.5022288876
40
1.0000000000
40
1.0000000000
40
1.0000000000
40
1.0000000000
10
510.6790495579
20
216.2539573153
30
0.0000000000
10
510.7041095123
20
216.3227675949
30
0.0000000000
10
510.7512816681
20
216.4607864874
30
0.0000000000
10
510.7927688831
20
216.6006219340
30
0.0000000000
10
510.8119525782
20
216.6706223840
30
0.0000000000
11
510.6790495579
21
216.2539573153
31
0.0000000000
11
510.7500580164
21
216.4618599410
31
0.0000000000
11
510.8119525782
21
216.6706223840
31
0.0000000000
0
SPLINE
5
35A
100
AcDbEntity
8
DEFAULT_2
100
AcDbSpline
62
8
6
HIDDEN
70
0
71
3
72
8
73
4
74
2
42
0.0000001000
43
0.0000001000
44
0.0000000001
40
0.0000000000
40
0.0000000000
40
0.0000000000
40
0.0000000000
40
1.0000000000
40
1.0000000000
40
1.0000000000
40
1.0000000000
10
510.6790495548
20
216.2539573068
30
0.0000000000
10
510.6663894920
20
216.1844323772
30
0.0000000000
10
510.6533456952
20
216.1149765001
30
0.0000000000
10
510.6399191546
20
216.0455944155
30
0.0000000000
11
510.6790495548
21
216.2539573068
31
0.0000000000
11
510.6399191546
21
216.0455944155
31
0.0000000000
0
SPLINE
5
35B
100
AcDbEntity
8
DEFAULT_2
100
AcDbSpline
62
8
6
HIDDEN
70
0
71
3
72
9
73
5
74
3
42
0.0000001000
43
0.0000001000
44
0.0000000001
40
0.0000000000
40
0.0000000000
40
0.0000000000
40
0.0000000000
40
0.2514136914
40
1.0000000000
40
1.0000000000
40
1.0000000000
40
1.0000000000
10
510.6399191546
20
216.0455944155
30
0.0000000000
10
510.6331472662
20
216.0106004626
30
0.0000000000
10
510.6058247583
20
215.8714863954
30
0.0000000000
10
510.5769639021
20
215.7326789289
30
0.0000000000
10
510.5545007256
20
215.6289573100
30
0.0000000000
11
510.6399191546
21
216.0455944155
31
0.0000000000
11
510.6193115239
21
215.9406694802
31
0.0000000000
11
510.5545007256
21
215.6289573100
31
0.0000000000
0
SPLINE
5
35C
100
AcDbEntity
8
DEFAULT_2
100
AcDbSpline
62
8
6
HIDDEN
70
0
71
3
72
9
73
5
74
3
42
0.0000001000
43
0.0000001000
44
0.0000000001
40
0.0000000000
40
0.0000000000
40
0.0000000000
40
0.0000000000
40
0.5014068891
40
1.0000000000
40
1.0000000000
40
1.0000000000
40
1.0000000000
10
510.5545007249
20
215.6289573068
30
0.0000000000
10
510.5318457585
20
215.4546122543
30
0.0000000000
10
510.4848693673
20
215.1071312034
30
0.0000000000
10
510.4342975527
20
214.7601551663
30
0.0000000000
10
510.4081841381
20
214.5872922302
30
0.0000000000
11
510.5545007249
21
215.6289573068
31
0.0000000000
11
510.4838332648
21
215.1062804337
31
0.0000000000
11
510.4081841381
21
214.5872922302
31
0.0000000000
0
SPLINE
5
35D
100
AcDbEntity
8
DEFAULT_2
100
AcDbSpline
62
8
6
HIDDEN
70
0
71
3
72
9
73
5
74
3
42
0.0000001000
43
0.0000001000
44
0.0000000001
40
0.0000000000
40
0.0000000000
40
0.0000000000
40
0.0000000000
40
0.4985931054
40
1.0000000000
40
1.0000000000
40
1.0000000000
40
1.0000000000
10
510.4081841381
20
212.0872922289
30
0.0000000000
10
510.4342975527
20
211.9144285011
30
0.0000000000
10
510.4848693676
20
211.5674508735
30
0.0000000000
10
510.5318457585
20
211.2199682343
30
0.0000000000
10
510.5545007249
20
211.0456223840
30
0.0000000000
11
510.4081841381
21
212.0872922289
31
0.0000000000
11
510.4838332645
21
211.5683016520
31
0.0000000000
11
510.5545007249
21
211.0456223840
31
0.0000000000
0
SPLINE
5
35E
100
AcDbEntity
8
DEFAULT_2
100
AcDbSpline
62
8
6
HIDDEN
70
0
71
3
72
9
73
5
74
3
42
0.0000001000
43
0.0000001000
44
0.0000000001
40
0.0000000000
40
0.0000000000
40
0.0000000000
40
0.0000000000
40
0.7485863086
40
1.0000000000
40
1.0000000000
40
1.0000000000
40
1.0000000000
10
510.5545007256
20
211.0456223807
30
0.0000000000
10
510.5769639021
20
210.9419007619
30
0.0000000000
10
510.6058247583
20
210.8030932953
30
0.0000000000
10
510.6331472662
20
210.6639792281
30
0.0000000000
10
510.6399191546
20
210.6289852753
30
0.0000000000
11
510.5545007256
21
211.0456223807
31
0.0000000000
11
510.6193115239
21
210.7339102106
31
0.0000000000
11
510.6399191546
21
210.6289852753
31
0.0000000000
0
SPLINE
5
35F
100
AcDbEntity
8
DEFAULT_2
100
AcDbSpline
62
8
6
HIDDEN
70
0
71
3
72
8
73
4
74
2
42
0.0000001000
43
0.0000001000
44
0.0000000001
40
0.0000000000
40
0.0000000000
40
0.0000000000
40
0.0000000000
40
1.0000000000
40
1.0000000000
40
1.0000000000
40
1.0000000000
10
510.6399191546
20
210.6289852753
30
0.0000000000
10
510.6533456952
20
210.5596031907
30
0.0000000000
10
510.6663894920
20
210.4901473135
30
0.0000000000
10
510.6790495548
20
210.4206223840
30
0.0000000000
11
510.6399191546
21
210.6289852753
31
0.0000000000
11
510.6790495548
21
210.4206223840
31
0.0000000000
0
SPLINE
5
360
100
AcDbEntity
8
DEFAULT_2
100
AcDbSpline
62
8
6
HIDDEN
70
0
71
3
72
9
73
5
74
3
42
0.0000001000
43
0.0000001000
44
0.0000000001
40
0.0000000000
40
0.0000000000
40
0.0000000000
40
0.0000000000
40
0.5022288876
40
1.0000000000
40
1.0000000000
40
1.0000000000
40
1.0000000000
10
510.6790495579
20
210.4206223754
30
0.0000000000
10
510.7041095123
20
210.3518120959
30
0.0000000000
10
510.7512816681
20
210.2137932033
30
0.0000000000
10
510.7927688831
20
210.0739577567
30
0.0000000000
10
510.8119525782
20
210.0039573068
30
0.0000000000
11
510.6790495579
21
210.4206223754
31
0.0000000000
11
510.7500580164
21
210.2127197497
31
0.0000000000
11
510.8119525782
21
210.0039573068
31
0.0000000000
0
SPLINE
5
361
100
AcDbEntity
8
DEFAULT_2
100
AcDbSpline
62
8
6
HIDDEN
70
0
71
3
72
8
73
4
74
2
42
0.0000001000
43
0.0000001000
44
0.0000000001
40
0.0000000000
40
0.0000000000
40
0.0000000000
40
0.0000000000
40
1.0000000000
40
1.0000000000
40
1.0000000000
40
1.0000000000
10
510.8119525782
20
210.0039573068
30
0.0000000000
10
510.8260888062
20
209.9695686338
30
0.0000000000
10
510.8394950347
20
209.9348748315
30
0.0000000000
10
510.8521233426
20
209.8998994688
30
0.0000000000
11
510.8119525782
21
210.0039573068
31
0.0000000000
11
510.8521233426
21
209.8998994688
31
0.0000000000
0
SPLINE
5
362
100
AcDbEntity
8
DEFAULT_2
100
AcDbSpline
62
8
6
HIDDEN
70
0
71
3
72
8
73
4
74
2
42
0.0000001000
43
0.0000001000
44
0.0000000001
40
0.0000000000
40
0.0000000000
40
0.0000000000
40
0.0000000000
40
1.0000000000
40
1.0000000000
40
1.0000000000
40
1.0000000000
10
510.8521233426
20
209.8998994688
30
0.0000000000
10
510.8645781689
20
209.8654045805
30
0.0000000000
10
510.8762763012
20
209.8306358147
30
0.0000000000
10
510.8871736629
20
209.7956223840
30
0.0000000000
11
510.8521233426
21
209.8998994688
31
0.0000000000
11
510.8871736629
21
209.7956223840
31
0.0000000000
0
SPLINE
5
363
100
AcDbEntity
8
DEFAULT_2
100
AcDbSpline
62
8
6
HIDDEN
70
0
71
3
72
8
73
4
74
2
42
0.0000001000
43
0.0000001000
44
0.0000000001
40
0.0000000000
40
0.0000000000
40
0.0000000000
40
0.0000000000
40
1.0000000000
40
1.0000000000
40
1.0000000000
40
1.0000000000
10
510.9666440153
20
209.5872922296
30
0.0000000000
10
510.9623537712
20
209.6048221204
30
0.0000000000
10
510.9574901603
20
209.6222192902
30
0.0000000000
10
510.9520942186
20
209.6394550131
30
0.0000000000
11
510.9666440153
21
209.5872922296
31
0.0000000000
11
510.9520942186
21
209.6394550131
31
0.0000000000
0
SPLINE
5
364
100
AcDbEntity
8
DEFAULT_2
100
AcDbSpline
62
8
6
HIDDEN
70
0
71
3
72
9
73
5
74
3
42
0.0000001000
43
0.0000001000
44
0.0000000001
40
0.0000000000
40
0.0000000000
40
0.0000000000
40
0.0000000000
40
0.3257170873
40
1.0000000000
40
1.0000000000
40
1.0000000000
40
1.0000000000
10
510.9520942186
20
209.6394550131
30
0.0000000000
10
510.9466006831
20
209.6570024704
30
0.0000000000
10
510.9280407217
20
209.7103620213
30
0.0000000000
10
510.9046881304
20
209.7618585346
30
0.0000000000
10
510.8871736629
20
209.7956223840
30
0.0000000000
11
510.9520942186
21
209.6394550131
31
0.0000000000
11
510.9340016321
21
209.6915650527
31
0.0000000000
11
510.8871736629
21
209.7956223840
31
0.0000000000
0
SPLINE
5
365
100
AcDbEntity
8
DEFAULT_2
100
AcDbSpline
62
8
6
HIDDEN
70
0
71
3
72
9
73
5
74
3
42
0.0000001000
43
0.0000001000
44
0.0000000001
40
0.0000000000
40
0.0000000000
40
0.0000000000
40
0.0000000000
40
0.9565669850
40
1.0000000000
40
1.0000000000
40
1.0000000000
40
1.0000000000
10
510.8644094829
20
220.0039573068
30
0.0000000000
10
510.8802613796
20
220.0730001059
30
0.0000000000
10
510.8953248091
20
220.1455328092
30
0.0000000000
10
510.9087634847
20
220.2183674613
30
0.0000000000
10
510.9093440986
20
220.2215314529
30
0.0000000000
11
510.8644094829
21
220.0039573068
31
0.0000000000
11
510.9075930554
21
220.2120411738
31
0.0000000000
11
510.9093440986
21
220.2215314529
31
0.0000000000
0
SPLINE
5
366
100
AcDbEntity
8
DEFAULT_2
100
AcDbSpline
62
8
6
HIDDEN
70
0
71
3
72
8
73
4
74
2
42
0.0000001000
43
0.0000001000
44
0.0000000001
40
0.0000000000
40
0.0000000000
40
0.0000000000
40
0.0000000000
40
1.0000000000
40
1.0000000000
40
1.0000000000
40
1.0000000000
10
510.9093440986
20
220.2215314529
30
0.0000000000
10
510.9151292564
20
220.2530570342
30
0.0000000000
10
510.9206097977
20
220.2846385211
30
0.0000000000
10
510.9257824386
20
220.3162694990
30
0.0000000000
11
510.9093440986
21
220.2215314529
31
0.0000000000
11
510.9257824386
21
220.3162694990
31
0.0000000000
0
SPLINE
5
367
100
AcDbEntity
8
DEFAULT_2
100
AcDbSpline
62
8
6
HIDDEN
70
0
71
3
72
8
73
4
74
2
42
0.0000001000
43
0.0000001000
44
0.0000000001
40
0.0000000000
40
0.0000000000
40
0.0000000000
40
0.0000000000
40
1.0000000000
40
1.0000000000
40
1.0000000000
40
1.0000000000
10
510.9257824386
20
220.3162694990
30
0.0000000000
10
510.9314614514
20
220.3509969687
30
0.0000000000
10
510.9367693296
20
220.3857840934
30
0.0000000000
10
510.9417017271
20
220.4206223840
30
0.0000000000
11
510.9257824386
21
220.3162694990
31
0.0000000000
11
510.9417017271
21
220.4206223840
31
0.0000000000
0
SPLINE
5
368
100
AcDbEntity
8
DEFAULT_2
100
AcDbSpline
62
8
6
HIDDEN
70
0
71
3
72
9
73
5
74
3
42
0.0000001000
43
0.0000001000
44
0.0000000001
40
0.0000000000
40
0.0000000000
40
0.0000000000
40
0.0000000000
40
0.5093138657
40
1.0000000000
40
1.0000000000
40
1.0000000000
40
1.0000000000
10
510.6790495548
20
225.8372898454
30
0.0000000000
10
510.7037623074
20
225.8712186953
30
0.0000000000
10
510.7503614635
20
225.9392634377
30
0.0000000000
10
510.7925158219
20
226.0101624329
30
0.0000000000
10
510.8119525782
20
226.0456247682
30
0.0000000000
11
510.6790495548
21
225.8372898454
31
0.0000000000
11
510.7500765168
21
225.9412713518
31
0.0000000000
11
510.8119525782
21
226.0456247682
31
0.0000000000
0
SPLINE
5
369
100
AcDbEntity
8
DEFAULT_2
100
AcDbSpline
62
8
6
HIDDEN
70
0
71
3
72
9
73
5
74
3
42
0.0000001000
43
0.0000001000
44
0.0000000001
40
0.0000000000
40
0.0000000000
40
0.0000000000
40
0.0000000000
40
0.4994051545
40
1.0000000000
40
1.0000000000
40
1.0000000000
40
1.0000000000
10
510.5081698448
20
225.0039573068
30
0.0000000000
10
510.5396797115
20
225.1420260490
30
0.0000000000
10
510.5997228540
20
225.4191977480
30
0.0000000000
10
510.6536183943
20
225.6976303527
30
0.0000000000
10
510.6790495548
20
225.8372898454
30
0.0000000000
11
510.5081698448
21
225.0039573068
31
0.0000000000
11
510.5981181754
21
225.4191824761
31
0.0000000000
11
510.6790495548
21
225.8372898454
31
0.0000000000
0
SPLINE
5
36A
100
AcDbEntity
8
DEFAULT_2
100
AcDbSpline
62
8
6
HIDDEN
70
0
71
3
72
8
73
4
74
2
42
0.0000001000
43
0.0000001000
44
0.0000000001
40
0.0000000000
40
0.0000000000
40
0.0000000000
40
0.0000000000
40
1.0000000000
40
1.0000000000
40
1.0000000000
40
1.0000000000
10
510.4081841380
20
224.1706223840
30
0.0000000000
10
510.4256177922
20
224.3091095046
30
0.0000000000
10
510.4426481135
20
224.4476476929
30
0.0000000000
10
510.4592770859
20
224.5862340350
30
0.0000000000
11
510.4081841380
21
224.1706223840
31
0.0000000000
11
510.4592770859
21
224.5862340350
31
0.0000000000
0
SPLINE
5
36B
100
AcDbEntity
8
DEFAULT_2
100
AcDbSpline
62
8
6
HIDDEN
70
0
71
3
72
8
73
4
74
2
42
0.0000001000
43
0.0000001000
44
0.0000000001
40
0.0000000000
40
0.0000000000
40
0.0000000000
40
0.0000000000
40
1.0000000000
40
1.0000000000
40
1.0000000000
40
1.0000000000
10
510.4592770859
20
224.5862340350
30
0.0000000000
10
510.4599690896
20
224.5920012143
30
0.0000000000
10
510.4606603983
20
224.5977684769
30
0.0000000000
10
510.4613510121
20
224.6035358228
30
0.0000000000
11
510.4592770859
21
224.5862340350
31
0.0000000000
11
510.4613510121
21
224.6035358228
31
0.0000000000
0
SPLINE
5
36C
100
AcDbEntity
8
DEFAULT_2
100
AcDbSpline
62
8
6
HIDDEN
70
0
71
3
72
8
73
4
74
2
42
0.0000001000
43
0.0000001000
44
0.0000000001
40
0.0000000000
40
0.0000000000
40
0.0000000000
40
0.0000000000
40
1.0000000000
40
1.0000000000
40
1.0000000000
40
1.0000000000
10
510.4613510121
20
224.6035358228
30
0.0000000000
10
510.4773286743
20
224.7369659761
30
0.0000000000
10
510.4929343910
20
224.8704406539
30
0.0000000000
10
510.5081698448
20
225.0039573068
30
0.0000000000
11
510.4613510121
21
224.6035358228
31
0.0000000000
11
510.5081698448
21
225.0039573068
31
0.0000000000
0
SPLINE
5
36D
100
AcDbEntity
8
DEFAULT_2
100
AcDbSpline
62
8
6
HIDDEN
70
0
71
3
72
9
73
5
74
3
42
0.0000001000
43
0.0000001000
44
0.0000000001
40
0.0000000000
40
0.0000000000
40
0.0000000000
40
0.0000000000
40
0.4994926491
40
1.0000000000
40
1.0000000000
40
1.0000000000
40
1.0000000000
10
510.3544914961
20
222.7122922296
30
0.0000000000
10
510.3636379042
20
222.9550929500
30
0.0000000000
10
510.3817420266
20
223.4411954620
30
0.0000000000
10
510.3994328638
20
223.9273131898
30
0.0000000000
10
510.4081841380
20
224.1706223840
30
0.0000000000
11
510.3544914961
21
222.7122922296
31
0.0000000000
11
510.3816205446
21
223.4407060091
31
0.0000000000
11
510.4081841380
21
224.1706223840
31
0.0000000000
0
SPLINE
5
36E
100
AcDbEntity
8
DEFAULT_2
100
AcDbSpline
62
8
6
HIDDEN
70
0
71
3
72
9
73
5
74
3
42
0.0000001000
43
0.0000001000
44
0.0000000001
40
0.0000000000
40
0.0000000000
40
0.0000000000
40
0.0000000000
40
0.4994968714
40
1.0000000000
40
1.0000000000
40
1.0000000000
40
1.0000000000
10
510.3544914961
20
221.8789573068
30
0.0000000000
10
510.3636378773
20
221.6708425623
30
0.0000000000
10
510.3817419002
20
221.2541846874
30
0.0000000000
10
510.3994328399
20
220.8375090694
30
0.0000000000
10
510.4081841380
20
220.6289573068
30
0.0000000000
11
510.3544914961
21
221.8789573068
31
0.0000000000
11
510.3816206199
21
221.2545995255
31
0.0000000000
11
510.4081841380
21
220.6289573068
31
0.0000000000
0
SPLINE
5
36F
100
AcDbEntity
8
DEFAULT_2
100
AcDbSpline
62
8
6
HIDDEN
70
0
71
3
72
9
73
5
74
3
42
0.0000001000
43
0.0000001000
44
0.0000000001
40
0.0000000000
40
0.0000000000
40
0.0000000000
40
0.0000000000
40
0.6650964866
40
1.0000000000
40
1.0000000000
40
1.0000000000
40
1.0000000000
10
510.4081841380
20
220.6289573068
30
0.0000000000
10
510.4256177922
20
220.4904701862
30
0.0000000000
10
510.4512235827
20
220.2821723059
30
0.0000000000
10
510.4759220693
20
220.0737655674
30
0.0000000000
10
510.4840921565
20
220.0039575736
30
0.0000000000
11
510.4081841380
21
220.6289573068
31
0.0000000000
11
510.4592770859
21
220.2133456557
31
0.0000000000
11
510.4840921565
21
220.0039575736
31
0.0000000000
0
SPLINE
5
370
100
AcDbEntity
8
DEFAULT_2
100
AcDbSpline
62
8
6
HIDDEN
70
0
71
3
72
8
73
4
74
2
42
0.0000001000
43
0.0000001000
44
0.0000000001
40
0.0000000000
40
0.0000000000
40
0.0000000000
40
0.0000000000
40
1.0000000000
40
1.0000000000
40
1.0000000000
40
1.0000000000
10
510.4840921565
20
220.0039575736
30
0.0000000000
10
510.4922184100
20
219.9345241088
30
0.0000000000
10
510.5002442272
20
219.8650789260
30
0.0000000000
10
510.5081698448
20
219.7956223840
30
0.0000000000
11
510.4840921565
21
220.0039575736
31
0.0000000000
11
510.5081698448
21
219.7956223840
31
0.0000000000
0
SPLINE
5
371
100
AcDbEntity
8
DEFAULT_2
100
AcDbSpline
62
8
6
HIDDEN
70
0
71
3
72
9
73
5
74
3
42
0.0000001000
43
0.0000001000
44
0.0000000001
40
0.0000000000
40
0.0000000000
40
0.0000000000
40
0.0000000000
40
0.4994051627
40
1.0000000000
40
1.0000000000
40
1.0000000000
40
1.0000000000
10
510.5081698448
20
219.7956223840
30
0.0000000000
10
510.5396797112
20
219.6575540381
30
0.0000000000
10
510.5997228531
20
219.3803831354
30
0.0000000000
10
510.6536183941
20
219.1019513237
30
0.0000000000
10
510.6790495548
20
218.9622922296
30
0.0000000000
11
510.5081698448
21
219.7956223840
31
0.0000000000
11
510.5981181757
21
219.3803984009
31
0.0000000000
11
510.6790495548
21
218.9622922296
31
0.0000000000
0
SPLINE
5
372
100
AcDbEntity
8
DEFAULT_2
100
AcDbSpline
62
8
6
HIDDEN
70
0
71
3
72
9
73
5
74
3
42
0.0000001000
43
0.0000001000
44
0.0000000001
40
0.0000000000
40
0.0000000000
40
0.0000000000
40
0.0000000000
40
0.5093138657
40
1.0000000000
40
1.0000000000
40
1.0000000000
40
1.0000000000
10
510.6790495548
20
218.9622922296
30
0.0000000000
10
510.7037623074
20
218.9283633796
30
0.0000000000
10
510.7503614635
20
218.8603186372
30
0.0000000000
10
510.7925158219
20
218.7894196421
30
0.0000000000
10
510.8119525782
20
218.7539573068
30
0.0000000000
11
510.6790495548
21
218.9622922296
31
0.0000000000
11
510.7500765168
21
218.8583107231
31
0.0000000000
11
510.8119525782
21
218.7539573068
31
0.0000000000
0
SPLINE
5
373
100
AcDbEntity
8
DEFAULT_2
100
AcDbSpline
62
8
6
HIDDEN
70
0
71
3
72
9
73
5
74
3
42
0.0000001000
43
0.0000001000
44
0.0000000001
40
0.0000000000
40
0.0000000000
40
0.0000000000
40
0.0000000000
40
0.4997930690
40
1.0000000000
40
1.0000000000
40
1.0000000000
40
1.0000000000
10
510.3544914961
20
233.7539573068
30
0.0000000000
10
510.4177708364
20
233.9596493324
30
0.0000000000
10
510.5353234197
20
234.3740464333
30
0.0000000000
10
510.6342916515
20
234.7932752063
30
0.0000000000
10
510.6790495548
20
235.0039573068
30
0.0000000000
11
510.3544914961
21
233.7539573068
31
0.0000000000
11
510.5306325262
21
234.3750818485
31
0.0000000000
11
510.6790495548
21
235.0039573068
31
0.0000000000
0
SPLINE
5
374
100
AcDbEntity
8
0
100
AcDbSpline
62
7
6
CONTINUOUS
70
0
71
3
72
9
73
5
74
3
42
0.0000001000
43
0.0000001000
44
0.0000000001
40
0.0000000000
40
0.0000000000
40
0.0000000000
40
0.0000000000
40
0.4975081152
40
1.0000000000
40
1.0000000000
40
1.0000000000
40
1.0000000000
10
537.9895747651
20
490.3257890518
30
0.0000000000
10
538.1940358448
20
490.2855417941
30
0.0000000000
10
538.6054104240
20
490.2066850293
30
0.0000000000
10
539.0175355992
20
490.1318512921
30
0.0000000000
10
539.2247999862
20
490.0952451921
30
0.0000000000
11
537.9895747651
21
490.3257890518
31
0.0000000000
11
538.6035460111
21
490.2080737902
31
0.0000000000
11
539.2247999862
21
490.0952451921
31
0.0000000000
0
SPLINE
5
375
100
AcDbEntity
8
0
100
AcDbSpline
62
7
6
CONTINUOUS
70
0
71
3
72
9
73
5
74
3
42
0.0000001000
43
0.0000001000
44
0.0000000001
40
0.0000000000
40
0.0000000000
40
0.0000000000
40
0.0000000000
40
0.4975081152
40
1.0000000000
40
1.0000000000
40
1.0000000000
40
1.0000000000
10
443.9895747651
20
490.3257890518
30
0.0000000000
10
443.7851136854
20
490.2855417941
30
0.0000000000
10
443.3737391062
20
490.2066850293
30
0.0000000000
10
442.9616139310
20
490.1318512921
30
0.0000000000
10
442.7543495440
20
490.0952451921
30
0.0000000000
11
443.9895747651
21
490.3257890518
31
0.0000000000
11
443.3756035191
21
490.2080737902
31
0.0000000000
11
442.7543495440
21
490.0952451921
31
0.0000000000
0
SPLINE
5
376
100
AcDbEntity
8
0
100
AcDbSpline
62
7
6
CONTINUOUS
70
0
71
3
72
10
73
6
74
4
42
0.0000001000
43
0.0000001000
44
0.0000000001
40
0.0000000000
40
0.0000000000
40
0.0000000000
40
0.0000000000
40
0.3060851348
40
0.6370682392
40
1.0000000000
40
1.0000000000
40
1.0000000000
40
1.0000000000
10
502.1895747651
20
478.8617514624
30
0.0000000000
10
503.8461596194
20
479.3135854371
30
0.0000000000
10
507.2424200411
20
480.4544989192
30
0.0000000000
10
512.3368055385
20
482.8284602593
30
0.0000000000
10
515.6699939323
20
484.8573462363
30
0.0000000000
10
517.3524274180
20
486.0039573068
30
0.0000000000
11
502.1895747651
21
478.8617514624
31
0.0000000000
11
507.0748787204
21
480.4956581746
31
0.0000000000
11
512.1281168514
21
482.8394236081
31
0.0000000000
11
517.3524274180
21
486.0039573068
31
0.0000000000
0
SPLINE
5
377
100
AcDbEntity
8
0
100
AcDbSpline
62
7
6
CONTINUOUS
70
0
71
3
72
10
73
6
74
4
42
0.0000001000
43
0.0000001000
44
0.0000000001
40
0.0000000000
40
0.0000000000
40
0.0000000000
40
0.0000000000
40
0.3629114322
40
0.6938998342
40
1.0000000000
40
1.0000000000
40
1.0000000000
40
1.0000000000
10
464.6267221122
20
486.0039573068
30
0.0000000000
10
466.3090613650
20
484.8574104579
30
0.0000000000
10
469.6421706540
20
482.8285594629
30
0.0000000000
10
474.7365421855
20
480.4545674636
30
0.0000000000
10
478.1329085567
20
479.3136076264
30
0.0000000000
10
479.7895747651
20
478.8617514624
30
0.0000000000
11
464.6267221122
21
486.0039573068
31
0.0000000000
11
469.8507301767
21
482.8395845275
31
0.0000000000
11
474.9040353243
21
480.4957516598
31
0.0000000000
11
479.7895747651
21
478.8617514624
31
0.0000000000
0
SPLINE
5
378
100
AcDbEntity
8
0
100
AcDbSpline
62
7
6
CONTINUOUS
70
0
71
3
72
10
73
6
74
4
42
0.0000001000
43
0.0000001000
44
0.0000000001
40
0.0000000000
40
0.0000000000
40
0.0000000000
40
0.0000000000
40
0.4270068377
40
0.8138822180
40
1.0000000000
40
1.0000000000
40
1.0000000000
40
1.0000000000
10
510.3544914961
20
260.0039573068
30
0.0000000000
10
510.5124060522
20
259.8000905036
30
0.0000000000
10
510.7784929723
20
259.3809893308
30
0.0000000000
10
510.9633124262
20
258.7976178304
30
0.0000000000
10
510.9892769127
20
258.4501531053
30
0.0000000000
10
510.9892769127
20
258.3372907394
30
0.0000000000
11
510.3544914961
21
260.0039573068
31
0.0000000000
11
510.7597749876
21
259.3449934113
31
0.0000000000
11
510.9639758116
21
258.6744854919
31
0.0000000000
11
510.9892769127
21
258.3372907394
31
0.0000000000
0
SPLINE
5
379
100
AcDbEntity
8
0
100
AcDbSpline
62
7
6
CONTINUOUS
70
0
71
3
72
9
73
5
74
3
42
0.0000001000
43
0.0000001000
44
0.0000000001
40
0.0000000000
40
0.0000000000
40
0.0000000000
40
0.0000000000
40
0.1846477018
40
1.0000000000
40
1.0000000000
40
1.0000000000
40
1.0000000000
10
510.9015264646
20
258.9655551807
30
0.0000000000
10
510.9121178403
20
259.0031486379
30
0.0000000000
10
510.9646298222
20
259.2081190823
30
0.0000000000
10
510.9894410741
20
259.4198747814
30
0.0000000000
10
510.9895433886
20
259.5924364235
30
0.0000000000
11
510.9015264646
21
258.9655551807
31
0.0000000000
11
510.9305658237
21
259.0790746226
31
0.0000000000
11
510.9895433886
21
259.5924364235
31
0.0000000000
0
SPLINE
5
37A
100
AcDbEntity
8
0
100
AcDbSpline
62
7
6
CONTINUOUS
70
0
71
3
72
8
73
4
74
2
42
0.0000001000
43
0.0000001000
44
0.0000000001
40
0.0000000000
40
0.0000000000
40
0.0000000000
40
0.0000000000
40
1.0000000000
40
1.0000000000
40
1.0000000000
40
1.0000000000
10
510.9028431154
20
252.7173675380
30
0.0000000000
10
510.9194406871
20
252.7765071365
30
0.0000000000
10
510.9338264945
20
252.8362458151
30
0.0000000000
10
510.9458149897
20
252.8964653128
30
0.0000000000
11
510.9028431154
21
252.7173675380
31
0.0000000000
11
510.9458149897
21
252.8964653128
31
0.0000000000
0
SPLINE
5
37B
100
AcDbEntity
8
0
100
AcDbSpline
62
7
6
CONTINUOUS
70
0
71
3
72
9
73
5
74
3
42
0.0000001000
43
0.0000001000
44
0.0000000001
40
0.0000000000
40
0.0000000000
40
0.0000000000
40
0.0000000000
40
0.2373195858
40
1.0000000000
40
1.0000000000
40
1.0000000000
40
1.0000000000
10
510.9458149897
20
252.8964653128
30
0.0000000000
10
510.9526621334
20
252.9308592505
30
0.0000000000
10
510.9782189386
20
253.0764468251
30
0.0000000000
10
510.9892769129
20
253.2244280554
30
0.0000000000
10
510.9892769129
20
253.3372904414
30
0.0000000000
11
510.9458149897
21
252.8964653128
31
0.0000000000
11
510.9639758116
21
253.0000956284
31
0.0000000000
11
510.9892769129
21
253.3372904414
31
0.0000000000
0
SPLINE
5
37C
100
AcDbEntity
8
0
100
AcDbSpline
62
7
6
CONTINUOUS
70
0
71
3
72
8
73
4
74
2
42
0.0000001000
43
0.0000001000
44
0.0000000001
40
0.0000000000
40
0.0000000000
40
0.0000000000
40
0.0000000000
40
1.0000000000
40
1.0000000000
40
1.0000000000
40
1.0000000000
10
510.9761747261
20
221.1346601010
30
0.0000000000
10
510.9851126106
20
221.4023863507
30
0.0000000000
10
510.9895788176
20
221.6702900904
30
0.0000000000
10
510.9895707508
20
221.9381919456
30
0.0000000000
11
510.9761747261
21
221.1346601010
31
0.0000000000
11
510.9895707508
21
221.9381919456
31
0.0000000000
0
SPLINE
5
37D
100
AcDbEntity
8
0
100
AcDbSpline
62
7
6
CONTINUOUS
70
0
71
3
72
9
73
5
74
3
42
0.0000001000
43
0.0000001000
44
0.0000000001
40
0.0000000000
40
0.0000000000
40
0.0000000000
40
0.0000000000
40
0.6652405934
40
1.0000000000
40
1.0000000000
40
1.0000000000
40
1.0000000000
10
510.5984136963
20
224.5872922296
30
0.0000000000
10
510.7009280165
20
224.0190459009
30
0.0000000000
10
510.8248512073
20
223.1590814233
30
0.0000000000
10
510.9031666823
20
222.2943378704
30
0.0000000000
10
510.9242700412
20
222.0044842964
30
0.0000000000
11
510.5984136963
21
224.5872922296
31
0.0000000000
11
510.8456220217
21
222.8727643860
31
0.0000000000
11
510.9242700412
21
222.0044842964
31
0.0000000000
0
SPLINE
5
37E
100
AcDbEntity
8
0
100
AcDbSpline
62
7
6
CONTINUOUS
70
0
71
3
72
8
73
4
74
2
42
0.0000001000
43
0.0000001000
44
0.0000000001
40
0.0000000000
40
0.0000000000
40
0.0000000000
40
0.0000000000
40
1.0000000000
40
1.0000000000
40
1.0000000000
40
1.0000000000
10
510.9242700412
20
222.0044842964
30
0.0000000000
10
510.9259589369
20
221.9812873984
30
0.0000000000
10
510.9276150820
20
221.9580881144
30
0.0000000000
10
510.9292384753
20
221.9348865279
30
0.0000000000
11
510.9242700412
21
222.0044842964
31
0.0000000000
11
510.9292384753
21
221.9348865279
31
0.0000000000
0
SPLINE
5
37F
100
AcDbEntity
8
0
100
AcDbSpline
62
7
6
CONTINUOUS
70
0
71
3
72
9
73
5
74
3
42
0.0000001000
43
0.0000001000
44
0.0000000001
40
0.0000000000
40
0.0000000000
40
0.0000000000
40
0.0000000000
40
0.5311836618
40
1.0000000000
40
1.0000000000
40
1.0000000000
40
1.0000000000
10
510.9292384753
20
221.9348865279
30
0.0000000000
10
510.9479585924
20
221.6673380346
30
0.0000000000
10
510.9750018526
20
221.1630780605
30
0.0000000000
10
510.9866027770
20
220.6581871171
30
0.0000000000
10
510.9886476853
20
220.4214641248
30
0.0000000000
11
510.9292384753
21
221.9348865279
31
0.0000000000
11
510.9723313194
21
221.1314506837
31
0.0000000000
11
510.9886476853
21
220.4214641248
31
0.0000000000
0
SPLINE
5
380
100
AcDbEntity
8
0
100
AcDbSpline
62
7
6
CONTINUOUS
70
0
71
3
72
8
73
4
74
2
42
0.0000001000
43
0.0000001000
44
0.0000000001
40
0.0000000000
40
0.0000000000
40
0.0000000000
40
0.0000000000
40
1.0000000000
40
1.0000000000
40
1.0000000000
40
1.0000000000
10
510.9886476853
20
220.4214641248
30
0.0000000000
10
510.9892596777
20
220.3506185695
30
0.0000000000
10
510.9895677006
20
220.2797710554
30
0.0000000000
10
510.9895717611
20
220.2089247137
30
0.0000000000
11
510.9886476853
21
220.4214641248
31
0.0000000000
11
510.9895717611
21
220.2089247137
31
0.0000000000
0
SPLINE
5
381
100
AcDbEntity
8
0
100
AcDbSpline
62
7
6
CONTINUOUS
70
0
71
3
72
8
73
4
74
2
42
0.0000001000
43
0.0000001000
44
0.0000000001
40
0.0000000000
40
0.0000000000
40
0.0000000000
40
0.0000000000
40
1.0000000000
40
1.0000000000
40
1.0000000000
40
1.0000000000
10
510.9258130906
20
252.7122910375
30
0.0000000000
10
510.9674422723
20
252.5425397777
30
0.0000000000
10
510.9893346713
20
252.3668239069
30
0.0000000000
10
510.9894943102
20
252.1912914262
30
0.0000000000
11
510.9258130906
21
252.7122910375
31
0.0000000000
11
510.9894943102
21
252.1912914262
31
0.0000000000
0
SPLINE
5
382
100
AcDbEntity
8
0
100
AcDbSpline
62
7
6
CONTINUOUS
70
0
71
3
72
8
73
4
74
2
42
0.0000001000
43
0.0000001000
44
0.0000000001
40
0.0000000000
40
0.0000000000
40
0.0000000000
40
0.0000000000
40
1.0000000000
40
1.0000000000
40
1.0000000000
40
1.0000000000
10
510.9894943102
20
249.4832906487
30
0.0000000000
10
510.9893346713
20
249.3077581680
30
0.0000000000
10
510.9674422723
20
249.1320422973
30
0.0000000000
10
510.9258130906
20
248.9622910375
30
0.0000000000
11
510.9894943102
21
249.4832906487
31
0.0000000000
11
510.9258130906
21
248.9622910375
31
0.0000000000
0
SPLINE
5
383
100
AcDbEntity
8
0
100
AcDbSpline
62
7
6
CONTINUOUS
70
0
71
3
72
9
73
5
74
3
42
0.0000001000
43
0.0000001000
44
0.0000000001
40
0.0000000000
40
0.0000000000
40
0.0000000000
40
0.0000000000
40
0.7626804142
40
1.0000000000
40
1.0000000000
40
1.0000000000
40
1.0000000000
10
510.9892769129
20
248.3372904414
30
0.0000000000
10
510.9892769129
20
248.4501528274
30
0.0000000000
10
510.9782189386
20
248.5981340577
30
0.0000000000
10
510.9526621334
20
248.7437216323
30
0.0000000000
10
510.9458149897
20
248.7781155700
30
0.0000000000
11
510.9892769129
21
248.3372904414
31
0.0000000000
11
510.9639758116
21
248.6744852544
31
0.0000000000
11
510.9458149897
21
248.7781155700
31
0.0000000000
0
SPLINE
5
384
100
AcDbEntity
8
0
100
AcDbSpline
62
7
6
CONTINUOUS
70
0
71
3
72
8
73
4
74
2
42
0.0000001000
43
0.0000001000
44
0.0000000001
40
0.0000000000
40
0.0000000000
40
0.0000000000
40
0.0000000000
40
1.0000000000
40
1.0000000000
40
1.0000000000
40
1.0000000000
10
510.9458149897
20
248.7781155700
30
0.0000000000
10
510.9338264189
20
248.8383354475
30
0.0000000000
10
510.9194405056
20
248.8980744999
30
0.0000000000
10
510.9028428013
20
248.9572144639
30
0.0000000000
11
510.9458149897
21
248.7781155700
31
0.0000000000
11
510.9028428013
21
248.9572144639
31
0.0000000000
0
SPLINE
5
385
100
AcDbEntity
8
0
100
AcDbSpline
62
7
6
CONTINUOUS
70
0
71
3
72
9
73
5
74
3
42
0.0000001000
43
0.0000001000
44
0.0000000001
40
0.0000000000
40
0.0000000000
40
0.0000000000
40
0.0000000000
40
0.8153524180
40
1.0000000000
40
1.0000000000
40
1.0000000000
40
1.0000000000
10
510.9895433886
20
262.0821450554
30
0.0000000000
10
510.9894410741
20
262.2547066975
30
0.0000000000
10
510.9646298259
20
262.4664623655
30
0.0000000000
10
510.9121178557
20
262.6714327807
30
0.0000000000
10
510.9015264899
20
262.7090262084
30
0.0000000000
11
510.9895433886
21
262.0821450554
31
0.0000000000
11
510.9305658237
21
262.5955068563
31
0.0000000000
11
510.9015264899
21
262.7090262084
31
0.0000000000
0
SPLINE
5
386
100
AcDbEntity
8
0
100
AcDbSpline
62
7
6
CONTINUOUS
70
0
71
3
72
10
73
6
74
4
42
0.0000001000
43
0.0000001000
44
0.0000000001
40
0.0000000000
40
0.0000000000
40
0.0000000000
40
0.0000000000
40
0.1861177845
40
0.5729931672
40
1.0000000000
40
1.0000000000
40
1.0000000000
40
1.0000000000
10
510.9892769128
20
263.3372905904
30
0.0000000000
10
510.9892769128
20
263.2244282145
30
0.0000000000
10
510.9633124263
20
262.8769634603
30
0.0000000000
10
510.7784929750
20
262.2935919116
30
0.0000000000
10
510.5124060536
20
261.8744906972
30
0.0000000000
10
510.3544914961
20
261.6706238741
30
0.0000000000
11
510.9892769128
21
263.3372905904
31
0.0000000000
11
510.9639758116
21
263.0000958078
31
0.0000000000
11
510.7597749875
21
262.3295878283
31
0.0000000000
11
510.3544914961
21
261.6706238741
31
0.0000000000
0
SPLINE
5
387
100
AcDbEntity
8
0
100
AcDbSpline
62
7
6
CONTINUOUS
70
0
71
3
72
9
73
5
74
3
42
0.0000001000
43
0.0000001000
44
0.0000000001
40
0.0000000000
40
0.0000000000
40
0.0000000000
40
0.0000000000
40
0.5108472371
40
1.0000000000
40
1.0000000000
40
1.0000000000
40
1.0000000000
10
510.8871736326
20
209.7956223840
30
0.0000000000
10
510.9046881073
20
209.7618585352
30
0.0000000000
10
510.9355119206
20
209.6938867102
30
0.0000000000
10
510.9579859290
20
209.6226690666
30
0.0000000000
10
510.9666440153
20
209.5872922296
30
0.0000000000
11
510.8871736326
21
209.7956223840
31
0.0000000000
11
510.9340016210
21
209.6915650525
31
0.0000000000
11
510.9666440153
21
209.5872922296
31
0.0000000000
0
SPLINE
5
388
100
AcDbEntity
8
0
100
AcDbSpline
62
7
6
CONTINUOUS
70
0
71
3
72
9
73
5
74
3
42
0.0000001000
43
0.0000001000
44
0.0000000001
40
0.0000000000
40
0.0000000000
40
0.0000000000
40
0.0000000000
40
0.5034581209
40
1.0000000000
40
1.0000000000
40
1.0000000000
40
1.0000000000
10
510.8119526182
20
210.0039573068
30
0.0000000000
10
510.8260888318
20
209.9695686329
30
0.0000000000
10
510.8527170945
20
209.9006576332
30
0.0000000000
10
510.8762762797
20
209.8306358139
30
0.0000000000
10
510.8871736326
20
209.7956223840
30
0.0000000000
11
510.8119526182
21
210.0039573068
31
0.0000000000
11
510.8521233427
21
209.8998994686
31
0.0000000000
11
510.8871736326
21
209.7956223840
31
0.0000000000
0
SPLINE
5
389
100
AcDbEntity
8
0
100
AcDbSpline
62
7
6
CONTINUOUS
70
0
71
3
72
9
73
5
74
3
42
0.0000001000
43
0.0000001000
44
0.0000000001
40
0.0000000000
40
0.0000000000
40
0.0000000000
40
0.0000000000
40
0.5022289003
40
1.0000000000
40
1.0000000000
40
1.0000000000
40
1.0000000000
10
510.6790495814
20
210.4206223840
30
0.0000000000
10
510.7041095402
20
210.3518121017
30
0.0000000000
10
510.7512817025
20
210.2137932067
30
0.0000000000
10
510.7927689219
20
210.0739577567
30
0.0000000000
10
510.8119526182
20
210.0039573068
30
0.0000000000
11
510.6790495814
21
210.4206223840
31
0.0000000000
11
510.7500580515
21
210.2127197493
31
0.0000000000
11
510.8119526182
21
210.0039573068
31
0.0000000000
0
SPLINE
5
38A
100
AcDbEntity
8
0
100
AcDbSpline
62
7
6
CONTINUOUS
70
0
71
3
72
9
73
5
74
3
42
0.0000001000
43
0.0000001000
44
0.0000000001
40
0.0000000000
40
0.0000000000
40
0.0000000000
40
0.0000000000
40
0.5004345264
40
1.0000000000
40
1.0000000000
40
1.0000000000
40
1.0000000000
10
510.6790495814
20
210.4206223840
30
0.0000000000
10
510.6600042138
20
210.5252133134
30
0.0000000000
10
510.6202111913
20
210.7339012640
30
0.0000000000
10
510.5769639195
20
210.9419007650
30
0.0000000000
10
510.5545007407
20
211.0456223840
30
0.0000000000
11
510.6790495814
21
210.4206223840
31
0.0000000000
11
510.6193115451
21
210.7339102132
31
0.0000000000
11
510.5545007407
21
211.0456223840
31
0.0000000000
0
SPLINE
5
38B
100
AcDbEntity
8
0
100
AcDbSpline
62
7
6
CONTINUOUS
70
0
71
3
72
9
73
5
74
3
42
0.0000001000
43
0.0000001000
44
0.0000000001
40
0.0000000000
40
0.0000000000
40
0.0000000000
40
0.0000000000
40
0.5014069019
40
1.0000000000
40
1.0000000000
40
1.0000000000
40
1.0000000000
10
510.5545007407
20
211.0456223840
30
0.0000000000
10
510.5318457724
20
211.2199682370
30
0.0000000000
10
510.4848693780
20
211.5674508764
30
0.0000000000
10
510.4342975590
20
211.9144285043
30
0.0000000000
10
510.4081841426
20
212.0872922296
30
0.0000000000
11
510.5545007407
21
211.0456223840
31
0.0000000000
11
510.4838332740
21
211.5683016600
31
0.0000000000
11
510.4081841426
21
212.0872922296
31
0.0000000000
0
SPLINE
5
38C
100
AcDbEntity
8
0
100
AcDbSpline
62
7
6
CONTINUOUS
70
0
71
3
72
9
73
5
74
3
42
0.0000001000
43
0.0000001000
44
0.0000000001
40
0.0000000000
40
0.0000000000
40
0.0000000000
40
0.0000000000
40
0.5005031286
40
1.0000000000
40
1.0000000000
40
1.0000000000
40
1.0000000000
10
510.4081841426
20
212.0872922296
30
0.0000000000
10
510.3994328438
20
212.2958439923
30
0.0000000000
10
510.3817419026
20
212.7125196103
30
0.0000000000
10
510.3636378781
20
213.1291774851
30
0.0000000000
10
510.3544914961
20
213.3372922296
30
0.0000000000
11
510.4081841426
21
212.0872922296
31
0.0000000000
11
510.3816206222
21
212.7129344484
31
0.0000000000
11
510.3544914961
21
213.3372922296
31
0.0000000000
0
SPLINE
5
38D
100
AcDbEntity
8
0
100
AcDbSpline
62
7
6
CONTINUOUS
70
0
71
3
72
9
73
5
74
3
42
0.0000001000
43
0.0000001000
44
0.0000000001
40
0.0000000000
40
0.0000000000
40
0.0000000000
40
0.0000000000
40
0.5005031286
40
1.0000000000
40
1.0000000000
40
1.0000000000
40
1.0000000000
10
510.4081841426
20
214.5872922296
30
0.0000000000
10
510.3994328438
20
214.3787404669
30
0.0000000000
10
510.3817419026
20
213.9620648488
30
0.0000000000
10
510.3636378781
20
213.5454069740
30
0.0000000000
10
510.3544914961
20
213.3372922296
30
0.0000000000
11
510.4081841426
21
214.5872922296
31
0.0000000000
11
510.3816206222
21
213.9616500107
31
0.0000000000
11
510.3544914961
21
213.3372922296
31
0.0000000000
0
SPLINE
5
38E
100
AcDbEntity
8
0
100
AcDbSpline
62
7
6
CONTINUOUS
70
0
71
3
72
9
73
5
74
3
42
0.0000001000
43
0.0000001000
44
0.0000000001
40
0.0000000000
40
0.0000000000
40
0.0000000000
40
0.0000000000
40
0.5014068964
40
1.0000000000
40
1.0000000000
40
1.0000000000
40
1.0000000000
10
510.5545007407
20
215.6289573068
30
0.0000000000
10
510.5318457723
20
215.4546122515
30
0.0000000000
10
510.4848693777
20
215.1071312004
30
0.0000000000
10
510.4342975590
20
214.7601551631
30
0.0000000000
10
510.4081841426
20
214.5872922296
30
0.0000000000
11
510.5545007407
21
215.6289573068
31
0.0000000000
11
510.4838332743
21
215.1062804257
31
0.0000000000
11
510.4081841426
21
214.5872922296
31
0.0000000000
0
SPLINE
5
38F
100
AcDbEntity
8
0
100
AcDbSpline
62
7
6
CONTINUOUS
70
0
71
3
72
9
73
5
74
3
42
0.0000001000
43
0.0000001000
44
0.0000000001
40
0.0000000000
40
0.0000000000
40
0.0000000000
40
0.0000000000
40
0.5004345264
40
1.0000000000
40
1.0000000000
40
1.0000000000
40
1.0000000000
10
510.6790495814
20
216.2539573068
30
0.0000000000
10
510.6600042138
20
216.1493663773
30
0.0000000000
10
510.6202111913
20
215.9406784267
30
0.0000000000
10
510.5769639195
20
215.7326789257
30
0.0000000000
10
510.5545007407
20
215.6289573068
30
0.0000000000
11
510.6790495814
21
216.2539573068
31
0.0000000000
11
510.6193115451
21
215.9406694776
31
0.0000000000
11
510.5545007407
21
215.6289573068
31
0.0000000000
0
SPLINE
5
390
100
AcDbEntity
8
0
100
AcDbSpline
62
7
6
CONTINUOUS
70
0
71
3
72
9
73
5
74
3
42
0.0000001000
43
0.0000001000
44
0.0000000001
40
0.0000000000
40
0.0000000000
40
0.0000000000
40
0.0000000000
40
0.4977710997
40
1.0000000000
40
1.0000000000
40
1.0000000000
40
1.0000000000
10
510.8119526182
20
216.6706223840
30
0.0000000000
10
510.7927689219
20
216.6006219340
30
0.0000000000
10
510.7512817025
20
216.4607864841
30
0.0000000000
10
510.7041095402
20
216.3227675890
30
0.0000000000
10
510.6790495814
20
216.2539573068
30
0.0000000000
11
510.8119526182
21
216.6706223840
31
0.0000000000
11
510.7500580515
21
216.4618599415
31
0.0000000000
11
510.6790495814
21
216.2539573068
31
0.0000000000
0
SPLINE
5
391
100
AcDbEntity
8
0
100
AcDbSpline
62
7
6
CONTINUOUS
70
0
71
3
72
9
73
5
74
3
42
0.0000001000
43
0.0000001000
44
0.0000000001
40
0.0000000000
40
0.0000000000
40
0.0000000000
40
0.0000000000
40
0.4965418791
40
1.0000000000
40
1.0000000000
40
1.0000000000
40
1.0000000000
10
510.8871736326
20
216.8789573068
30
0.0000000000
10
510.8762762797
20
216.8439438768
30
0.0000000000
10
510.8527170945
20
216.7739220575
30
0.0000000000
10
510.8260888318
20
216.7050110578
30
0.0000000000
10
510.8119526182
20
216.6706223840
30
0.0000000000
11
510.8871736326
21
216.8789573068
31
0.0000000000
11
510.8521233427
21
216.7746802222
31
0.0000000000
11
510.8119526182
21
216.6706223840
31
0.0000000000
0
SPLINE
5
392
100
AcDbEntity
8
0
100
AcDbSpline
62
7
6
CONTINUOUS
70
0
71
3
72
9
73
5
74
3
42
0.0000001000
43
0.0000001000
44
0.0000000001
40
0.0000000000
40
0.0000000000
40
0.0000000000
40
0.0000000000
40
0.4891532166
40
1.0000000000
40
1.0000000000
40
1.0000000000
40
1.0000000000
10
510.9666440153
20
217.0872922296
30
0.0000000000
10
510.9579859355
20
217.0519146092
30
0.0000000000
10
510.9355119569
20
216.9806954052
30
0.0000000000
10
510.9046881247
20
216.9127219620
30
0.0000000000
10
510.8871736326
20
216.8789573068
30
0.0000000000
11
510.9666440153
21
217.0872922296
31
0.0000000000
11
510.9340016209
21
216.9830170198
31
0.0000000000
11
510.8871736326
21
216.8789573068
31
0.0000000000
0
SPLINE
5
393
100
AcDbEntity
8
0
100
AcDbSpline
62
7
6
CONTINUOUS
70
0
71
3
72
9
73
5
74
3
42
0.0000001000
43
0.0000001000
44
0.0000000001
40
0.0000000000
40
0.0000000000
40
0.0000000000
40
0.0000000000
40
0.4811063016
40
1.0000000000
40
1.0000000000
40
1.0000000000
40
1.0000000000
10
510.8393386952
20
252.9206235761
30
0.0000000000
10
510.7845494967
20
253.0656963394
30
0.0000000000
10
510.6428247148
20
253.3571244728
30
0.0000000000
10
510.4582589937
20
253.6227848819
30
0.0000000000
10
510.3544914961
20
253.7539573068
30
0.0000000000
11
510.8393386952
21
252.9206235761
31
0.0000000000
11
510.6382640213
21
253.3401478805
31
0.0000000000
11
510.3544914961
21
253.7539573068
31
0.0000000000
0
SPLINE
5
394
100
AcDbEntity
8
0
100
AcDbSpline
62
7
6
CONTINUOUS
70
0
71
3
72
9
73
5
74
3
42
0.0000001000
43
0.0000001000
44
0.0000000001
40
0.0000000000
40
0.0000000000
40
0.0000000000
40
0.0000000000
40
0.4811063016
40
1.0000000000
40
1.0000000000
40
1.0000000000
40
1.0000000000
10
510.8393386952
20
248.7539573068
30
0.0000000000
10
510.7845494967
20
248.6088845434
30
0.0000000000
10
510.6428247148
20
248.3174564100
30
0.0000000000
10
510.4582589937
20
248.0517960009
30
0.0000000000
10
510.3544914961
20
247.9206235761
30
0.0000000000
11
510.8393386952
21
248.7539573068
31
0.0000000000
11
510.6382640213
21
248.3344330024
31
0.0000000000
11
510.3544914961
21
247.9206235761
31
0.0000000000
0
SPLINE
5
395
100
AcDbEntity
8
0
100
AcDbSpline
62
7
6
CONTINUOUS
70
0
71
3
72
10
73
6
74
4
42
0.0000001000
43
0.0000001000
44
0.0000000001
40
0.0000000000
40
0.0000000000
40
0.0000000000
40
0.0000000000
40
0.1019282678
40
0.5527766057
40
1.0000000000
40
1.0000000000
40
1.0000000000
40
1.0000000000
10
510.9895707508
20
221.9381919456
30
0.0000000000
10
510.9895663110
20
222.0856400953
30
0.0000000000
10
510.9821919376
20
222.8852766818
30
0.0000000000
10
510.8967158707
20
224.3302369750
30
0.0000000000
10
510.7148525895
20
225.6178200138
30
0.0000000000
10
510.5984136963
20
226.2539573068
30
0.0000000000
11
510.9895707508
21
221.9381919456
31
0.0000000000
11
510.9854909642
21
222.3805047766
31
0.0000000000
11
510.8699185761
21
224.3329307212
31
0.0000000000
11
510.5984136963
21
226.2539573068
31
0.0000000000
0
SPLINE
5
396
100
AcDbEntity
8
0
100
AcDbSpline
62
7
6
CONTINUOUS
70
0
71
3
72
10
73
6
74
4
42
0.0000001000
43
0.0000001000
44
0.0000000001
40
0.0000000000
40
0.0000000000
40
0.0000000000
40
0.0000000000
40
0.4858874407
40
0.9425719853
40
1.0000000000
40
1.0000000000
40
1.0000000000
40
1.0000000000
10
510.6399249077
20
260.8372907394
30
0.0000000000
10
510.7440996094
20
261.0211109047
30
0.0000000000
10
510.9119154314
20
261.3995637466
30
0.0000000000
10
510.9858981083
20
261.8329921531
30
0.0000000000
10
510.9895582331
20
262.0571085612
30
0.0000000000
10
510.9895433886
20
262.0821450554
30
0.0000000000
11
510.6399249077
21
260.8372907394
31
0.0000000000
11
510.8910513393
21
261.4192834456
31
0.0000000000
11
510.9883116165
21
262.0070555632
31
0.0000000000
11
510.9895433886
21
262.0821450554
31
0.0000000000
0
SPLINE
5
397
100
AcDbEntity
8
0
100
AcDbSpline
62
7
6
CONTINUOUS
70
0
71
3
72
10
73
6
74
4
42
0.0000001000
43
0.0000001000
44
0.0000000001
40
0.0000000000
40
0.0000000000
40
0.0000000000
40
0.0000000000
40
0.1861177871
40
0.5729931720
40
1.0000000000
40
1.0000000000
40
1.0000000000
40
1.0000000000
10
510.9892769129
20
253.3372904414
30
0.0000000000
10
510.9892769129
20
253.4501528274
30
0.0000000000
10
510.9633124265
20
253.7976176106
30
0.0000000000
10
510.7784929777
20
254.3809892076
30
0.0000000000
10
510.5124060550
20
254.8000904636
30
0.0000000000
10
510.3544914961
20
255.0039573068
30
0.0000000000
11
510.9892769129
21
253.3372904414
31
0.0000000000
11
510.9639758116
21
253.6744852543
31
0.0000000000
11
510.7597749874
21
254.3449932938
31
0.0000000000
11
510.3544914961
21
255.0039573068
31
0.0000000000
0
SPLINE
5
398
100
AcDbEntity
8
0
100
AcDbSpline
62
7
6
CONTINUOUS
70
0
71
3
72
10
73
6
74
4
42
0.0000001000
43
0.0000001000
44
0.0000000001
40
0.0000000000
40
0.0000000000
40
0.0000000000
40
0.0000000000
40
0.0574280147
40
0.5141125593
40
1.0000000000
40
1.0000000000
40
1.0000000000
40
1.0000000000
10
510.9895433886
20
259.5924364235
30
0.0000000000
10
510.9895582331
20
259.6174729177
30
0.0000000000
10
510.9858981083
20
259.8415893257
30
0.0000000000
10
510.9119154314
20
260.2750177323
30
0.0000000000
10
510.7440996094
20
260.6534705742
30
0.0000000000
10
510.6399249077
20
260.8372907394
30
0.0000000000
11
510.9895433886
21
259.5924364235
31
0.0000000000
11
510.9883116165
21
259.6675259157
31
0.0000000000
11
510.8910513393
21
260.2552980333
31
0.0000000000
11
510.6399249077
21
260.8372907394
31
0.0000000000
0
SPLINE
5
399
100
AcDbEntity
8
0
100
AcDbSpline
62
7
6
CONTINUOUS
70
0
71
3
72
9
73
5
74
3
42
0.0000001000
43
0.0000001000
44
0.0000000001
40
0.0000000000
40
0.0000000000
40
0.0000000000
40
0.0000000000
40
0.4829568397
40
1.0000000000
40
1.0000000000
40
1.0000000000
40
1.0000000000
10
510.9757062207
20
216.0456223840
30
0.0000000000
10
510.9675665660
20
216.0099720763
30
0.0000000000
10
510.9435601233
20
215.9376716553
30
0.0000000000
10
510.9078621297
20
215.8705277550
30
0.0000000000
10
510.8871736326
20
215.8372922296
30
0.0000000000
11
510.9757062207
21
216.0456223840
31
0.0000000000
11
510.9416513919
21
215.9413388552
31
0.0000000000
11
510.8871736326
21
215.8372922296
31
0.0000000000
0
SPLINE
5
39A
100
AcDbEntity
8
0
100
AcDbSpline
62
7
6
CONTINUOUS
70
0
71
3
72
9
73
5
74
3
42
0.0000001000
43
0.0000001000
44
0.0000000001
40
0.0000000000
40
0.0000000000
40
0.0000000000
40
0.0000000000
40
0.4989912062
40
1.0000000000
40
1.0000000000
40
1.0000000000
40
1.0000000000
10
510.8871736326
20
215.8372922296
30
0.0000000000
10
510.8654078383
20
215.6974251122
30
0.0000000000
10
510.8149360932
20
215.4181501408
30
0.0000000000
10
510.7510627291
20
215.1416366154
30
0.0000000000
10
510.7158019176
20
215.0039573068
30
0.0000000000
11
510.8871736326
21
215.8372922296
31
0.0000000000
11
510.8117010254
21
215.4194011811
31
0.0000000000
11
510.7158019176
21
215.0039573068
31
0.0000000000
0
SPLINE
5
39B
100
AcDbEntity
8
0
100
AcDbSpline
62
7
6
CONTINUOUS
70
0
71
3
72
9
73
5
74
3
42
0.0000001000
43
0.0000001000
44
0.0000000001
40
0.0000000000
40
0.0000000000
40
0.0000000000
40
0.0000000000
40
0.5006579231
40
1.0000000000
40
1.0000000000
40
1.0000000000
40
1.0000000000
10
510.7158019176
20
215.0039573068
30
0.0000000000
10
510.7039189058
20
214.8995611184
30
0.0000000000
10
510.6794053543
20
214.6911310198
30
0.0000000000
10
510.6533332384
20
214.4828901353
30
0.0000000000
10
510.6399249077
20
214.3789573068
30
0.0000000000
11
510.7158019176
21
215.0039573068
31
0.0000000000
11
510.6789824311
21
214.6909041860
31
0.0000000000
11
510.6399249077
21
214.3789573068
31
0.0000000000
0
SPLINE
5
39C
100
AcDbEntity
8
0
100
AcDbSpline
62
7
6
CONTINUOUS
70
0
71
3
72
9
73
5
74
3
42
0.0000001000
43
0.0000001000
44
0.0000000001
40
0.0000000000
40
0.0000000000
40
0.0000000000
40
0.0000000000
40
0.5003793764
40
1.0000000000
40
1.0000000000
40
1.0000000000
40
1.0000000000
10
510.6399249077
20
214.3789573068
30
0.0000000000
10
510.6332002566
20
214.2052068829
30
0.0000000000
10
510.6195624094
20
213.8579771656
30
0.0000000000
10
510.6055262096
20
213.5107633227
30
0.0000000000
10
510.5984136963
20
213.3372922296
30
0.0000000000
11
510.6399249077
21
214.3789573068
31
0.0000000000
11
510.6194523223
21
213.8577176787
31
0.0000000000
11
510.5984136963
21
213.3372922296
31
0.0000000000
0
SPLINE
5
39D
100
AcDbEntity
8
0
100
AcDbSpline
62
7
6
CONTINUOUS
70
0
71
3
72
9
73
5
74
3
42
0.0000001000
43
0.0000001000
44
0.0000000001
40
0.0000000000
40
0.0000000000
40
0.0000000000
40
0.0000000000
40
0.5003793765
40
1.0000000000
40
1.0000000000
40
1.0000000000
40
1.0000000000
10
510.6399249077
20
212.2956223840
30
0.0000000000
10
510.6332002566
20
212.4693736032
30
0.0000000000
10
510.6195624094
20
212.8166049099
30
0.0000000000
10
510.6055262096
20
213.1638203423
30
0.0000000000
10
510.5984136963
20
213.3372922296
30
0.0000000000
11
510.6399249077
21
212.2956223840
31
0.0000000000
11
510.6194523223
21
212.8168643981
31
0.0000000000
11
510.5984136963
21
213.3372922296
31
0.0000000000
0
SPLINE
5
39E
100
AcDbEntity
8
0
100
AcDbSpline
62
7
6
CONTINUOUS
70
0
71
3
72
9
73
5
74
3
42
0.0000001000
43
0.0000001000
44
0.0000000001
40
0.0000000000
40
0.0000000000
40
0.0000000000
40
0.0000000000
40
0.5006579231
40
1.0000000000
40
1.0000000000
40
1.0000000000
40
1.0000000000
10
510.7158019176
20
211.6706223840
30
0.0000000000
10
510.7039189058
20
211.7750185723
30
0.0000000000
10
510.6794053543
20
211.9834486709
30
0.0000000000
10
510.6533332384
20
212.1916895555
30
0.0000000000
10
510.6399249077
20
212.2956223840
30
0.0000000000
11
510.7158019176
21
211.6706223840
31
0.0000000000
11
510.6789824311
21
211.9836755048
31
0.0000000000
11
510.6399249077
21
212.2956223840
31
0.0000000000
0
SPLINE
5
39F
100
AcDbEntity
8
0
100
AcDbSpline
62
7
6
CONTINUOUS
70
0
71
3
72
9
73
5
74
3
42
0.0000001000
43
0.0000001000
44
0.0000000001
40
0.0000000000
40
0.0000000000
40
0.0000000000
40
0.0000000000
40
0.4989911759
40
1.0000000000
40
1.0000000000
40
1.0000000000
40
1.0000000000
10
510.8871736326
20
210.8372922296
30
0.0000000000
10
510.8654078374
20
210.9771585520
30
0.0000000000
10
510.8149360887
20
211.2564319418
30
0.0000000000
10
510.7510627271
20
211.5329438709
30
0.0000000000
10
510.7158019176
20
211.6706223840
30
0.0000000000
11
510.8871736326
21
210.8372922296
31
0.0000000000
11
510.8117010260
21
211.2551808842
31
0.0000000000
11
510.7158019176
21
211.6706223840
31
0.0000000000
0
SPLINE
5
3A0
100
AcDbEntity
8
0
100
AcDbSpline
62
7
6
CONTINUOUS
70
0
71
3
72
9
73
5
74
3
42
0.0000001000
43
0.0000001000
44
0.0000000001
40
0.0000000000
40
0.0000000000
40
0.0000000000
40
0.0000000000
40
0.4829575195
40
1.0000000000
40
1.0000000000
40
1.0000000000
40
1.0000000000
10
510.9757062207
20
210.6289573068
30
0.0000000000
10
510.9675665747
20
210.6646083923
30
0.0000000000
10
510.9435601851
20
210.7369103597
30
0.0000000000
10
510.9078621601
20
210.8040558947
30
0.0000000000
10
510.8871736326
20
210.8372922296
30
0.0000000000
11
510.9757062207
21
210.6289573068
31
0.0000000000
11
510.9416513918
21
210.7332432226
31
0.0000000000
11
510.8871736326
21
210.8372922296
31
0.0000000000
0
SPLINE
5
3A1
100
AcDbEntity
8
0
100
AcDbSpline
62
7
6
CONTINUOUS
70
0
71
3
72
10
73
6
74
4
42
0.0000001000
43
0.0000001000
44
0.0000000001
40
0.0000000000
40
0.0000000000
40
0.0000000000
40
0.0000000000
40
0.4270068280
40
0.8138822129
40
1.0000000000
40
1.0000000000
40
1.0000000000
40
1.0000000000
10
510.3544914961
20
246.6706235761
30
0.0000000000
10
510.5124060550
20
246.8744904192
30
0.0000000000
10
510.7784929777
20
247.2935916753
30
0.0000000000
10
510.9633124265
20
247.8769632722
30
0.0000000000
10
510.9892769129
20
248.2244280555
30
0.0000000000
10
510.9892769129
20
248.3372904414
30
0.0000000000
11
510.3544914961
21
246.6706235761
31
0.0000000000
11
510.7597749874
21
247.3295875891
31
0.0000000000
11
510.9639758116
21
248.0000956285
31
0.0000000000
11
510.9892769129
21
248.3372904414
31
0.0000000000
0
ENDSEC
0
SECTION
2
OBJECTS
0
DICTIONARY
5
3A2
100
AcDbDictionary
3
ACAD_GROUP
350
3A3
3
ACAD_MLINESTYLE
350
3A4
0
DICTIONARY
5
3A3
102
{ACAD_REACTORS
330
3A2
102
}
100
AcDbDictionary
0
DICTIONARY
5
3A4
102
{ACAD_REACTORS
330
3A2
102
}
100
AcDbDictionary
3
STANDARD
350
3A5
0
MLINESTYLE
5
3A5
102
{ACAD_REACTORS
330
3A4
102
}
100
AcDbMlineStyle
2
STANDARD
70
0
3

62
256
51
90.0
52
90.0
71
2
49
0.5
62
256
6
BYLAYER
49
-0.5
62
256
6
BYLAYER
0
ENDSEC
0
EOF
