999
DXF file: C:\Aktuell-Internet\CAD-Daten\2va1-16.dxf
999
Pro/ENGINEER 2001400 by Parametric Technology Corporation
0
SECTION
2
HEADER
9
$ACADVER
1
AC1014
9
$EXTMAX
10
420.0000000000
20
297.0000000000
9
$EXTMIN
10
0.0000000000
20
0.0000000000
9
$LIMMIN
10
0.0000000000
20
0.0000000000
9
$LIMMAX
10
420.0000000000
20
297.0000000000
9
$VIEWCTR
10
210.0000000000
20
148.5000000000
9
$VIEWSIZE
40
297.0000000000
9
$CLAYER
8
0
9
$LTSCALE
40
23.1000000000
9
$CELTYPE
6
BYLAYER
9
$DIMSCALE
40
1
9
$DIMASZ
40
3.5000000000
9
$DIMEXO
40
2.6250000000
9
$DIMDLI
40
15.9600000000
9
$DIMEXE
40
7.5600000000
9
$DIMCEN
40
3.7800000000
9
$DIMLFAC
40
1.0000000000
9
$DIMTXT
40
3.5000000000
9
$DIMTOL
70
1
9
$DIMTFAC
40
0.6000000000
9
$DIMTP
40
0.0050000000
9
$DIMTM
40
0.0050000000
9
$HANDSEED
5
3A0
0
ENDSEC
0
SECTION
2
CLASSES
0
ENDSEC
0
SECTION
2
TABLES
0
TABLE
2
VPORT
5
8
100
AcDbSymbolTable
70
2
0
VPORT
5
1F4
100
AcDbSymbolTableRecord
100
AcDbViewportTableRecord
2
*ACTIVE
70
0
10
0.0
20
0.0
11
1.0
21
1.0
12
210.0000000000
22
148.5000000000
13
0.0
23
0.0
14
1.0
24
1.0
15
0.0
25
0.0
16
0.0
26
0.0
36
1.0
17
0.0
27
0.0
37
0.0
40
297.0000000000
41
1.4141414141
42
50.0
43
0.0
44
0.0
50
0.0
51
0.0
71
0
72
100
73
1
74
1
75
0
76
0
77
0
78
0
0
ENDTAB
0
TABLE
2
LTYPE
5
5
100
AcDbSymbolTable
70
6
0
LTYPE
5
14
100
AcDbSymbolTableRecord
100
AcDbLinetypeTableRecord
2
BYBLOCK
70
0
3

72
65
73
0
40
0.0
0
LTYPE
5
15
100
AcDbSymbolTableRecord
100
AcDbLinetypeTableRecord
2
BYLAYER
70
0
3

72
65
73
0
40
0.0
0
LTYPE
5
16
100
AcDbSymbolTableRecord
100
AcDbLinetypeTableRecord
2
CONTINUOUS
70
64
3
Solid line
72
65
73
0
40
0
0
LTYPE
5
1F5
100
AcDbSymbolTableRecord
100
AcDbLinetypeTableRecord
2
CENTER
70
64
3
____ _ ____ _ ____ _ ____ _ ____ _ ____ _ ____
72
65
73
4
40
0.6
49
0.375
74
0
49
-0.075
74
0
49
0.075
74
0
49
-0.075
74
0
0
LTYPE
5
1F6
100
AcDbSymbolTableRecord
100
AcDbLinetypeTableRecord
2
HIDDEN
70
64
3
- - - - - - - - - - - - - - - - - - - -
72
65
73
2
40
0.2
49
0.1
74
0
49
-0.1
74
0
0
LTYPE
5
1F7
100
AcDbSymbolTableRecord
100
AcDbLinetypeTableRecord
2
PHANTOM
70
64
3
_____ _ _ _____ _ _ _____ _ _ _____
72
65
73
6
40
0.8
49
0.45
74
0
49
-0.05
74
0
49
0.1
74
0
49
-0.05
74
0
49
0.1
74
0
49
-0.05
74
0
0
LTYPE
5
1F8
100
AcDbSymbolTableRecord
100
AcDbLinetypeTableRecord
2
DOT
70
64
3
. . . . . . . . . . . . . . . . . . . .
72
65
73
2
40
0.2
49
0.1
74
0
49
-0.1
74
0
0
LTYPE
5
1F9
100
AcDbSymbolTableRecord
100
AcDbLinetypeTableRecord
2
DASHED
70
64
3
- - - - - - - - - - - - - - - - - - - -
72
65
73
2
40
0.2
49
0.1
74
0
49
-0.1
74
0
0
ENDTAB
0
TABLE
2
LAYER
5
2
100
AcDbSymbolTable
70
36
0
LAYER
5
10
100
AcDbSymbolTableRecord
100
AcDbLayerTableRecord
2
0
70
0
62
7
6
CONTINUOUS
0
LAYER
5
1FA
100
AcDbSymbolTableRecord
100
AcDbLayerTableRecord
2
DEFAULT_1
70
0
62
7
6
CENTER
0
LAYER
5
1FB
100
AcDbSymbolTableRecord
100
AcDbLayerTableRecord
2
DEFAULT_2
70
0
62
8
6
HIDDEN
0
LAYER
5
1FC
100
AcDbSymbolTableRecord
100
AcDbLayerTableRecord
2
DEFAULT_3
70
0
62
7
6
PHANTOM
0
ENDTAB
0
TABLE
2
STYLE
5
3
100
AcDbSymbolTable
70
1
0
STYLE
5
11
100
AcDbSymbolTableRecord
100
AcDbTextStyleTableRecord
2
STANDARD
70
0
40
0.0
41
1.0
50
0.0
71
0
42
0.0
3
txt
4

0
STYLE
5
1FD
100
AcDbSymbolTableRecord
100
AcDbTextStyleTableRecord
2
TEXTSTYLE_0
70
0
40
0.0
41
0.80
50
0.0
71
0
42
0.2
3
txt
4

0
ENDTAB
0
TABLE
2
VIEW
5
6
100
AcDbSymbolTable
70
0
0
ENDTAB
0
TABLE
2
UCS
5
7
100
AcDbSymbolTable
70
0
0
ENDTAB
0
TABLE
2
APPID
5
9
100
AcDbSymbolTable
70
1
0
APPID
5
1FE
100
AcDbSymbolTableRecord
100
AcDbRegAppTableRecord
2
ACAD
70
0
0
ENDTAB
0
TABLE
2
DIMSTYLE
5
A
100
AcDbSymbolTable
70
1
0
DIMSTYLE
105
1FF
100
AcDbSymbolTableRecord
100
AcDbDimStyleTableRecord
2
STANDARD
70
0
3

4

5

6

7

40
1.0
41
0.18
42
0.0625
43
0.38
44
0.18
45
0.0
46
0.0
47
0.0050000000
48
0.0050000000
140
3.5000000000
141
0.09
142
0.0
143
25.4
144
1.0000000000
145
0.0
146
0.6000000000
147
0.09
71
1
72
0
73
1
74
1
75
0
76
0
77
0
78
0
170
0
171
2
172
0
173
0
174
0
175
0
176
0
177
0
178
0
270
2
271
3
272
4
273
2
274
2
340
11
275
0
280
0
281
0
282
0
283
1
284
0
285
0
286
0
287
3
288
0
0
ENDTAB
0
TABLE
2
BLOCK_RECORD
5
1
100
AcDbSymbolTable
70
0
0
BLOCK_RECORD
5
1B
100
AcDbSymbolTableRecord
100
AcDbBlockTableRecord
2
*MODEL_SPACE
0
BLOCK_RECORD
5
1C
100
AcDbSymbolTableRecord
100
AcDbBlockTableRecord
2
*PAPER_SPACE
0
ENDTAB
0
ENDSEC
0
SECTION
2
BLOCKS
0
BLOCK
5
1E
100
AcDbEntity
8
0
100
AcDbBlockBegin
2
*MODEL_SPACE
70
0
10
0.0
20
0.0
30
0.0
3
*MODEL_SPACE
1

0
ENDBLK
5
1F
100
AcDbEntity
8
0
100
AcDbBlockEnd
0
BLOCK
5
20
100
AcDbEntity
8
0
100
AcDbBlockBegin
2
*PAPER_SPACE
70
0
10
0.0
20
0.0
30
0.0
3
*PAPER_SPACE
1

0
ENDBLK
5
21
100
AcDbEntity
8
0
100
AcDbBlockEnd
0
ENDSEC
0
SECTION
2
ENTITIES
0
TEXT
5
200
100
AcDbEntity
8
0
100
AcDbText
62
2
6
CONTINUOUS
10
324.1770715096
20
102.1808314415
7
TEXTSTYLE_0
40
10.0000000000
1
VA 1-16
50
90.0000000000
72
5
11
324.1770715096
21
153.3713076320
100
AcDbText
0
LINE
5
201
100
AcDbEntity
8
0
100
AcDbLine
62
7
6
CONTINUOUS
10
0.0000000000
20
0.0000000000
11
0.0000000000
21
297.0000000000
0
LINE
5
202
100
AcDbEntity
8
0
100
AcDbLine
62
7
6
CONTINUOUS
10
0.0000000000
20
0.0000000000
11
420.0000000000
21
0.0000000000
0
LINE
5
203
100
AcDbEntity
8
0
100
AcDbLine
62
7
6
CONTINUOUS
10
0.0000000000
20
297.0000000000
11
420.0000000000
21
297.0000000000
0
LINE
5
204
100
AcDbEntity
8
0
100
AcDbLine
62
7
6
CONTINUOUS
10
420.0000000000
20
0.0000000000
11
420.0000000000
21
297.0000000000
0
LINE
5
205
100
AcDbEntity
8
0
100
AcDbLine
62
7
6
CONTINUOUS
10
48.1922726657
20
122.3167691988
11
47.5965280037
21
122.7542691988
0
LINE
5
206
100
AcDbEntity
8
0
100
AcDbLine
62
7
6
CONTINUOUS
10
48.1922726657
20
123.1917691988
11
47.8944003608
21
123.6292691988
0
LINE
5
207
100
AcDbEntity
8
0
100
AcDbLine
62
7
6
CONTINUOUS
10
47.5965280037
20
122.7542691988
11
47.1497195072
21
123.4834347528
0
LINE
5
208
100
AcDbEntity
8
0
100
AcDbLine
62
7
6
CONTINUOUS
10
37.5007833417
20
173.3167691988
11
37.5007833417
21
93.3167691988
0
LINE
5
209
100
AcDbEntity
8
0
100
AcDbLine
62
7
6
CONTINUOUS
10
48.9369535323
20
122.0251036447
11
48.1922726657
21
122.3167691988
0
LINE
5
20A
100
AcDbEntity
8
0
100
AcDbLine
62
7
6
CONTINUOUS
10
48.6390812274
20
122.9001036447
11
48.1922726657
21
123.1917691988
0
LINE
5
20B
100
AcDbEntity
8
0
100
AcDbLine
62
7
6
CONTINUOUS
10
52.8092941220
20
125.9626036447
11
52.3624856647
21
126.2542691988
0
LINE
5
20C
100
AcDbEntity
8
0
100
AcDbLine
62
7
6
CONTINUOUS
10
53.4050387319
20
126.4001036447
11
52.8092941220
21
126.8376036447
0
LINE
5
20D
100
AcDbEntity
8
0
100
AcDbLine
62
7
6
CONTINUOUS
10
52.8092941220
20
129.3167691988
11
51.7667406376
21
130.1917691988
0
LINE
5
20E
100
AcDbEntity
8
0
100
AcDbLine
62
7
6
CONTINUOUS
10
54.0007833417
20
129.3167691988
11
52.9582302745
21
130.1917691988
0
LINE
5
20F
100
AcDbEntity
8
0
100
AcDbLine
62
7
6
CONTINUOUS
10
52.8092941220
20
135.4417691988
11
51.7667406376
21
136.3167691988
0
LINE
5
210
100
AcDbEntity
8
0
100
AcDbLine
62
7
6
CONTINUOUS
10
50.2773791130
20
125.9626036447
11
49.9795068081
21
126.2542691988
0
LINE
5
211
100
AcDbEntity
8
0
100
AcDbLine
62
7
6
CONTINUOUS
10
50.5752514179
20
125.5251036447
11
50.2773791130
21
125.9626036447
0
LINE
5
212
100
AcDbEntity
8
0
100
AcDbLine
62
7
6
CONTINUOUS
10
50.7241875704
20
126.5459347528
11
51.3199321802
21
125.6709347528
0
LINE
5
213
100
AcDbEntity
8
0
100
AcDbLine
62
7
6
CONTINUOUS
10
53.1071664270
20
125.5251036447
11
52.8092941220
21
125.9626036447
0
LINE
5
214
100
AcDbEntity
8
0
100
AcDbLine
62
7
6
CONTINUOUS
10
53.8518471893
20
125.6709347528
11
53.4050387319
21
126.4001036447
0
LINE
5
215
100
AcDbEntity
8
0
100
AcDbLine
62
7
6
CONTINUOUS
10
47.8944003608
20
123.6292691988
11
47.7454642083
21
124.0667691988
0
LINE
5
216
100
AcDbEntity
8
0
100
AcDbLine
62
7
6
CONTINUOUS
10
50.7241875704
20
125.0876036447
11
50.5752514179
21
125.5251036447
0
LINE
5
217
100
AcDbEntity
8
0
100
AcDbLine
62
7
6
CONTINUOUS
10
53.2561025794
20
125.0876036447
11
53.1071664270
21
125.5251036447
0
LINE
5
218
100
AcDbEntity
8
0
100
AcDbLine
62
7
6
CONTINUOUS
10
47.1497195072
20
123.4834347528
11
47.0007833417
21
124.2126036447
0
LINE
5
219
100
AcDbEntity
8
0
100
AcDbLine
62
7
6
CONTINUOUS
10
51.4688683327
20
124.9417691988
11
51.3199321802
21
125.6709347528
0
LINE
5
21A
100
AcDbEntity
8
0
100
AcDbLine
62
7
6
CONTINUOUS
10
54.0007833417
20
124.9417691988
11
53.8518471893
21
125.6709347528
0
LINE
5
21B
100
AcDbEntity
8
0
100
AcDbLine
62
7
6
CONTINUOUS
10
47.0007833417
20
154.9834357959
11
47.0007833417
21
153.8167691988
0
LINE
5
21C
100
AcDbEntity
8
0
100
AcDbLine
62
7
6
CONTINUOUS
10
47.0007833417
20
150.3167691988
11
47.0007833417
21
149.4417691988
0
LINE
5
21D
100
AcDbEntity
8
0
100
AcDbLine
62
7
6
CONTINUOUS
10
47.0007833417
20
145.3584355873
11
47.0007833417
21
144.4834355873
0
LINE
5
21E
100
AcDbEntity
8
0
100
AcDbLine
62
7
6
CONTINUOUS
10
47.0007833417
20
135.4417691988
11
47.0007833417
21
134.5667691988
0
LINE
5
21F
100
AcDbEntity
8
0
100
AcDbLine
62
7
6
CONTINUOUS
10
47.0007833417
20
129.3167691988
11
47.0007833417
21
128.4417691988
0
LINE
5
220
100
AcDbEntity
8
0
100
AcDbLine
62
7
6
CONTINUOUS
10
47.0007833417
20
124.9417691988
11
47.0007833417
21
124.2126036447
0
LINE
5
221
100
AcDbEntity
8
0
100
AcDbLine
62
7
6
CONTINUOUS
10
47.7454642083
20
125.0876036447
11
47.7454642083
21
124.0667691988
0
LINE
5
222
100
AcDbEntity
8
0
100
AcDbLine
62
7
6
CONTINUOUS
10
48.7880173798
20
148.8584355873
11
48.7880173798
21
145.9417691988
0
LINE
5
223
100
AcDbEntity
8
0
100
AcDbLine
62
7
6
CONTINUOUS
10
49.3837619897
20
148.7126028103
11
49.3837619897
21
146.0876028103
0
LINE
5
224
100
AcDbEntity
8
0
100
AcDbLine
62
7
6
CONTINUOUS
10
49.5326981421
20
133.4001019758
11
49.5326981421
21
131.3584364218
0
LINE
5
225
100
AcDbEntity
8
0
100
AcDbLine
62
7
6
CONTINUOUS
10
50.2773791130
20
133.4001019758
11
50.2773791130
21
131.3584364218
0
LINE
5
226
100
AcDbEntity
8
0
100
AcDbLine
62
7
6
CONTINUOUS
10
50.7241875704
20
125.0876036447
11
50.7241875704
21
124.0667691988
0
LINE
5
227
100
AcDbEntity
8
0
100
AcDbLine
62
7
6
CONTINUOUS
10
51.4688683327
20
124.2126036447
11
51.4688683327
21
124.9417691988
0
LINE
5
228
100
AcDbEntity
8
0
100
AcDbLine
62
7
6
CONTINUOUS
10
52.3624856647
20
123.0459347528
11
52.3624856647
21
122.3167691988
0
LINE
5
229
100
AcDbEntity
8
0
100
AcDbLine
62
7
6
CONTINUOUS
10
53.2561025794
20
125.0876036447
11
53.2561025794
21
124.2126036447
0
LINE
5
22A
100
AcDbEntity
8
0
100
AcDbLine
62
7
6
CONTINUOUS
10
54.0007833417
20
157.3167691988
11
54.0007833417
21
156.4417691988
0
LINE
5
22B
100
AcDbEntity
8
0
100
AcDbLine
62
7
6
CONTINUOUS
10
54.0007833417
20
152.3584360045
11
54.0007833417
21
151.4834360045
0
LINE
5
22C
100
AcDbEntity
8
0
100
AcDbLine
62
7
6
CONTINUOUS
10
54.0007833417
20
147.9834355873
11
54.0007833417
21
146.8167691988
0
LINE
5
22D
100
AcDbEntity
8
0
100
AcDbLine
62
7
6
CONTINUOUS
10
54.0007833417
20
135.4417691988
11
54.0007833417
21
134.5667691988
0
LINE
5
22E
100
AcDbEntity
8
0
100
AcDbLine
62
7
6
CONTINUOUS
10
54.0007833417
20
129.3167691988
11
54.0007833417
21
128.4417691988
0
LINE
5
22F
100
AcDbEntity
8
0
100
AcDbLine
62
7
6
CONTINUOUS
10
54.0007833417
20
124.9417691988
11
54.0007833417
21
124.3584347528
0
LINE
5
230
100
AcDbEntity
8
0
100
AcDbLine
62
7
6
CONTINUOUS
10
49.0858896847
20
122.7542691988
11
48.6390812274
21
122.9001036447
0
LINE
5
231
100
AcDbEntity
8
0
100
AcDbLine
62
7
6
CONTINUOUS
10
49.9795068081
20
126.2542691988
11
49.5326981421
21
126.4001036447
0
LINE
5
232
100
AcDbEntity
8
0
100
AcDbLine
62
7
6
CONTINUOUS
10
52.3624856647
20
126.2542691988
11
51.9156767901
21
126.4001036447
0
LINE
5
233
100
AcDbEntity
8
0
100
AcDbLine
62
7
6
CONTINUOUS
10
52.8092941220
20
126.8376036447
11
52.0646129425
21
127.1292691988
0
LINE
5
234
100
AcDbEntity
8
0
100
AcDbLine
62
7
6
CONTINUOUS
10
54.0007833417
20
135.4417691988
11
52.9582302745
21
136.3167691988
0
LINE
5
235
100
AcDbEntity
8
0
100
AcDbLine
62
7
6
CONTINUOUS
10
63.5007833417
20
173.3167691988
11
63.5007833417
21
93.3167691988
0
LINE
5
236
100
AcDbEntity
8
0
100
AcDbLine
62
7
6
CONTINUOUS
10
47.1497195072
20
125.6709347528
11
47.0007833417
21
124.9417691988
0
LINE
5
237
100
AcDbEntity
8
0
100
AcDbLine
62
7
6
CONTINUOUS
10
51.4688683327
20
124.2126036447
11
51.3199321802
21
123.4834347528
0
LINE
5
238
100
AcDbEntity
8
0
100
AcDbLine
62
7
6
CONTINUOUS
10
54.0007833417
20
124.3584347528
11
53.8518471893
21
123.6292691988
0
LINE
5
239
100
AcDbEntity
8
0
100
AcDbLine
62
7
6
CONTINUOUS
10
47.8944003608
20
125.5251036447
11
47.7454642083
21
125.0876036447
0
LINE
5
23A
100
AcDbEntity
8
0
100
AcDbLine
62
7
6
CONTINUOUS
10
49.6816345032
20
122.0251036447
11
48.9369535323
21
122.0251036447
0
LINE
5
23B
100
AcDbEntity
8
0
100
AcDbLine
62
7
6
CONTINUOUS
10
49.5326981421
20
122.7542691988
11
49.0858896847
21
122.7542691988
0
LINE
5
23C
100
AcDbEntity
8
0
100
AcDbLine
62
7
6
CONTINUOUS
10
49.5326981421
20
126.4001036447
11
49.0858896847
21
126.4001036447
0
LINE
5
23D
100
AcDbEntity
8
0
100
AcDbLine
62
7
6
CONTINUOUS
10
50.7241875704
20
126.5459347528
11
51.0220598753
21
126.5459347528
0
LINE
5
23E
100
AcDbEntity
8
0
100
AcDbLine
62
7
6
CONTINUOUS
10
51.0220598753
20
127.2751036447
11
49.9795068081
21
127.2751036447
0
LINE
5
23F
100
AcDbEntity
8
0
100
AcDbLine
62
7
6
CONTINUOUS
10
52.0646129425
20
127.1292691988
11
51.0220598753
21
127.2751036447
0
LINE
5
240
100
AcDbEntity
8
0
100
AcDbLine
62
7
6
CONTINUOUS
10
51.9156767901
20
126.4001036447
11
51.0220598753
21
126.5459347528
0
LINE
5
241
100
AcDbEntity
8
0
100
AcDbLine
62
7
6
CONTINUOUS
10
50.7241875704
20
124.0667691988
11
50.5752514179
21
123.6292691988
0
LINE
5
242
100
AcDbEntity
8
0
100
AcDbLine
62
7
6
CONTINUOUS
10
53.2561025794
20
124.2126036447
11
53.1071664270
21
123.7751036447
0
LINE
5
243
100
AcDbEntity
8
0
100
AcDbLine
62
7
6
CONTINUOUS
10
120.8896763428
20
267.3167691988
11
135.9007833417
21
293.3167691988
0
LINE
5
244
100
AcDbEntity
8
0
100
AcDbLine
62
7
6
CONTINUOUS
10
49.9795068081
20
127.2751036447
11
48.9369535323
21
127.1292691988
0
LINE
5
245
100
AcDbEntity
8
0
100
AcDbLine
62
7
6
CONTINUOUS
10
47.0007833417
20
128.4417691988
11
54.0007833417
21
128.4417691988
0
LINE
5
246
100
AcDbEntity
8
0
100
AcDbLine
62
7
6
CONTINUOUS
10
52.8092941220
20
129.3167691988
11
47.0007833417
21
129.3167691988
0
LINE
5
247
100
AcDbEntity
8
0
100
AcDbLine
62
7
6
CONTINUOUS
10
51.7667406376
20
130.1917691988
11
52.9582302745
21
130.1917691988
0
LINE
5
248
100
AcDbEntity
8
0
100
AcDbLine
62
7
6
CONTINUOUS
10
49.5326981421
20
131.3584364218
11
50.2773791130
21
131.3584364218
0
LINE
5
249
100
AcDbEntity
8
0
100
AcDbLine
62
7
6
CONTINUOUS
10
50.2773791130
20
133.4001019758
11
49.5326981421
21
133.4001019758
0
LINE
5
24A
100
AcDbEntity
8
0
100
AcDbLine
62
7
6
CONTINUOUS
10
47.0007833417
20
134.5667691988
11
54.0007833417
21
134.5667691988
0
LINE
5
24B
100
AcDbEntity
8
0
100
AcDbLine
62
7
6
CONTINUOUS
10
52.8092941220
20
135.4417691988
11
47.0007833417
21
135.4417691988
0
LINE
5
24C
100
AcDbEntity
8
0
100
AcDbLine
62
7
6
CONTINUOUS
10
52.9582302745
20
136.3167691988
11
51.7667406376
21
136.3167691988
0
LINE
5
24D
100
AcDbEntity
8
0
100
AcDbLine
62
7
6
CONTINUOUS
10
48.7880173798
20
148.8584355873
11
47.0007833417
21
149.4417691988
0
LINE
5
24E
100
AcDbEntity
8
0
100
AcDbLine
62
7
6
CONTINUOUS
10
49.3837619897
20
148.7126028103
11
53.4050387319
21
147.4001028103
0
LINE
5
24F
100
AcDbEntity
8
0
100
AcDbLine
62
7
6
CONTINUOUS
10
54.0007833417
20
147.9834355873
11
47.0007833417
21
150.3167691988
0
LINE
5
250
100
AcDbEntity
8
0
100
AcDbLine
62
7
6
CONTINUOUS
10
47.0007833417
20
153.8167691988
11
54.0007833417
21
151.4834360045
0
LINE
5
251
100
AcDbEntity
8
0
100
AcDbLine
62
7
6
CONTINUOUS
10
54.0007833417
20
152.3584360045
11
47.8944003608
21
154.4001026016
0
LINE
5
252
100
AcDbEntity
8
0
100
AcDbLine
62
7
6
CONTINUOUS
10
91.1007833417
20
293.3167691988
11
91.1007833417
21
306.1167691988
0
LINE
5
253
100
AcDbEntity
8
0
100
AcDbLine
62
7
6
CONTINUOUS
10
47.5965280037
20
126.4001036447
11
47.1497195072
21
125.6709347528
0
LINE
5
254
100
AcDbEntity
8
0
100
AcDbLine
62
7
6
CONTINUOUS
10
50.8731237229
20
122.7542691988
11
51.3199321802
21
123.4834347528
0
LINE
5
255
100
AcDbEntity
8
0
100
AcDbLine
62
7
6
CONTINUOUS
10
53.8518471893
20
123.6292691988
11
53.4050387319
21
122.9001036447
0
LINE
5
256
100
AcDbEntity
8
0
100
AcDbLine
62
7
6
CONTINUOUS
10
48.1922726657
20
125.9626036447
11
47.8944003608
21
125.5251036447
0
LINE
5
257
100
AcDbEntity
8
0
100
AcDbLine
62
7
6
CONTINUOUS
10
50.5752514179
20
123.6292691988
11
50.2773791130
21
123.1917691988
0
LINE
5
258
100
AcDbEntity
8
0
100
AcDbLine
62
7
6
CONTINUOUS
10
53.1071664270
20
123.7751036447
11
52.8092941220
21
123.3376036447
0
LINE
5
259
100
AcDbEntity
8
0
100
AcDbLine
62
7
6
CONTINUOUS
10
97.5007833417
20
281.3742066146
11
97.5007833417
21
268.9167691988
0
LINE
5
25A
100
AcDbEntity
8
0
100
AcDbLine
62
7
6
CONTINUOUS
10
103.5007833417
20
213.3167691988
11
103.5007833417
21
265.8101004383
0
LINE
5
25B
100
AcDbEntity
8
0
100
AcDbLine
62
7
6
CONTINUOUS
10
109.5007833417
20
252.8518817268
11
109.5007833417
21
294.0864796050
0
LINE
5
25C
100
AcDbEntity
8
DEFAULT_1
100
AcDbLine
62
2
6
CENTER
10
113.5007833417
20
306.1167691988
11
113.5007833417
21
15.1717508513
0
LINE
5
25D
100
AcDbEntity
8
DEFAULT_1
100
AcDbLine
62
2
6
CENTER
10
113.5007833417
20
306.1167691988
11
113.5007833417
21
318.7167691988
0
LINE
5
25E
100
AcDbEntity
8
0
100
AcDbLine
62
7
6
CONTINUOUS
10
122.7731875057
20
209.5721035235
11
117.5007833417
21
196.5167691988
0
LINE
5
25F
100
AcDbEntity
8
0
100
AcDbLine
62
7
6
CONTINUOUS
10
50.2773791130
20
123.1917691988
11
49.9795068081
21
122.9001036447
0
LINE
5
260
100
AcDbEntity
8
0
100
AcDbLine
62
7
6
CONTINUOUS
10
50.4263152655
20
122.3167691988
11
50.8731237229
21
122.7542691988
0
LINE
5
261
100
AcDbEntity
8
0
100
AcDbLine
62
7
6
CONTINUOUS
10
48.1922726657
20
126.8376036447
11
47.5965280037
21
126.4001036447
0
LINE
5
262
100
AcDbEntity
8
0
100
AcDbLine
62
7
6
CONTINUOUS
10
47.8944003608
20
154.4001026016
11
54.0007833417
21
156.4417691988
0
LINE
5
263
100
AcDbEntity
8
0
100
AcDbLine
62
7
6
CONTINUOUS
10
54.0007833417
20
157.3167691988
11
47.0007833417
21
154.9834357959
0
LINE
5
264
100
AcDbEntity
8
0
100
AcDbLine
62
7
6
CONTINUOUS
10
117.5007833417
20
252.8518817268
11
117.5007833417
21
294.0864796050
0
LINE
5
265
100
AcDbEntity
8
0
100
AcDbLine
62
7
6
CONTINUOUS
10
123.5007833417
20
213.3167691988
11
123.5007833417
21
265.8101004383
0
LINE
5
266
100
AcDbEntity
8
0
100
AcDbLine
62
7
6
CONTINUOUS
10
53.4050387319
20
122.9001036447
11
52.8092941220
21
122.4626036447
0
LINE
5
267
100
AcDbEntity
8
0
100
AcDbLine
62
7
6
CONTINUOUS
10
48.6390812274
20
126.2542691988
11
48.1922726657
21
125.9626036447
0
LINE
5
268
100
AcDbEntity
8
0
100
AcDbLine
62
7
6
CONTINUOUS
10
52.8092941220
20
123.3376036447
11
52.3624856647
21
123.0459347528
0
LINE
5
269
100
AcDbEntity
8
0
100
AcDbLine
62
7
6
CONTINUOUS
10
47.0007833417
20
144.4834355873
11
54.0007833417
21
146.8167691988
0
LINE
5
26A
100
AcDbEntity
8
0
100
AcDbLine
62
7
6
CONTINUOUS
10
48.7880173798
20
145.9417691988
11
47.0007833417
21
145.3584355873
0
LINE
5
26B
100
AcDbEntity
8
0
100
AcDbLine
62
7
6
CONTINUOUS
10
53.4050387319
20
147.4001028103
11
49.3837619897
21
146.0876028103
0
LINE
5
26C
100
AcDbEntity
8
0
100
AcDbLine
62
7
6
CONTINUOUS
10
109.5007833417
20
196.5167691988
11
104.2283791777
21
209.5721035235
0
LINE
5
26D
100
AcDbEntity
8
0
100
AcDbLine
62
7
6
CONTINUOUS
10
129.5007833417
20
281.3742066146
11
129.5007833417
21
268.9167691988
0
LINE
5
26E
100
AcDbEntity
8
0
100
AcDbLine
62
7
6
CONTINUOUS
10
135.9007833417
20
293.3167691988
11
135.9007833417
21
306.1167691988
0
LINE
5
26F
100
AcDbEntity
8
0
100
AcDbLine
62
7
6
CONTINUOUS
10
48.9369535323
20
127.1292691988
11
48.1922726657
21
126.8376036447
0
LINE
5
270
100
AcDbEntity
8
0
100
AcDbLine
62
7
6
CONTINUOUS
10
50.4263152655
20
122.3167691988
11
49.6816345032
21
122.0251036447
0
LINE
5
271
100
AcDbEntity
8
0
100
AcDbLine
62
7
6
CONTINUOUS
10
49.0858896847
20
126.4001036447
11
48.6390812274
21
126.2542691988
0
LINE
5
272
100
AcDbEntity
8
0
100
AcDbLine
62
7
6
CONTINUOUS
10
117.5007833417
20
196.5167691988
11
109.5007833417
21
196.5167691988
0
LINE
5
273
100
AcDbEntity
8
0
100
AcDbLine
62
7
6
CONTINUOUS
10
49.9795068081
20
122.9001036447
11
49.5326981421
21
122.7542691988
0
LINE
5
274
100
AcDbEntity
8
0
100
AcDbLine
62
7
6
CONTINUOUS
10
52.8092941220
20
122.4626036447
11
52.3624856647
21
122.3167691988
0
LINE
5
275
100
AcDbEntity
8
0
100
AcDbLine
62
7
6
CONTINUOUS
10
106.1118903406
20
267.3167691988
11
91.1007833417
21
293.3167691988
0
LINE
5
276
100
AcDbEntity
8
0
100
AcDbLine
62
7
6
CONTINUOUS
10
163.5007833417
20
93.3167691988
11
163.5007833417
21
173.3167691988
0
LINE
5
277
100
AcDbEntity
8
0
100
AcDbLine
62
7
6
CONTINUOUS
10
189.5007833417
20
93.3167691988
11
189.5007833417
21
173.3167691988
0
LINE
5
278
100
AcDbEntity
8
0
100
AcDbLine
62
7
6
CONTINUOUS
10
126.3007833417
20
265.7167691988
11
123.5007833417
21
265.7167691988
0
LINE
5
279
100
AcDbEntity
8
0
100
AcDbLine
62
7
6
CONTINUOUS
10
103.5007833417
20
265.7167691988
11
100.7007833417
21
265.7167691988
0
LINE
5
27A
100
AcDbEntity
8
DEFAULT_1
100
AcDbLine
62
2
6
CENTER
10
113.5007833417
20
306.1167691988
11
100.9007833417
21
306.1167691988
0
LINE
5
27B
100
AcDbEntity
8
DEFAULT_1
100
AcDbLine
62
2
6
CENTER
10
113.5007833417
20
306.1167691988
11
126.1007833417
21
306.1167691988
0
LINE
5
27C
100
AcDbEntity
8
0
100
AcDbLine
62
7
6
CONTINUOUS
10
133.3401381699
20
316.5167691988
11
93.6614285135
21
316.5167691988
0
LINE
5
27D
100
AcDbEntity
8
0
100
AcDbLine
62
7
6
CONTINUOUS
10
289.0022485013
20
328.5167691988
11
278.9330529272
21
316.5167691988
0
LINE
5
27E
100
AcDbEntity
8
0
100
AcDbLine
62
7
6
CONTINUOUS
10
271.6622807826
20
252.8518817268
11
278.9330529272
21
294.0864796050
0
LINE
5
27F
100
AcDbEntity
8
0
100
AcDbLine
62
7
6
CONTINUOUS
10
331.9072193813
20
122.0251036447
11
331.8386500202
21
122.0251036447
0
LINE
5
280
100
AcDbEntity
8
DEFAULT_2
100
AcDbLine
62
8
6
HIDDEN
10
331.8386500202
20
122.0251036447
11
331.2330529272
21
122.0251036447
0
LINE
5
281
100
AcDbEntity
8
0
100
AcDbLine
62
7
6
CONTINUOUS
10
331.9328396425
20
122.3167691988
11
331.7264410030
21
122.3167691988
0
LINE
5
282
100
AcDbEntity
8
DEFAULT_2
100
AcDbLine
62
8
6
HIDDEN
10
331.7264410030
20
122.3167691988
11
331.2330529272
21
122.3167691988
0
LINE
5
283
100
AcDbEntity
8
DEFAULT_2
100
AcDbLine
62
8
6
HIDDEN
10
331.7264409842
20
122.4626036447
11
331.2330529272
21
122.4626036447
0
LINE
5
284
100
AcDbEntity
8
0
100
AcDbLine
62
7
6
CONTINUOUS
10
331.9277196270
20
122.7542691988
11
331.6044893466
21
122.7542691988
0
LINE
5
285
100
AcDbEntity
8
DEFAULT_2
100
AcDbLine
62
8
6
HIDDEN
10
331.6044893466
20
122.7542691988
11
331.2330529272
21
122.7542691988
0
LINE
5
286
100
AcDbEntity
8
0
100
AcDbLine
62
7
6
CONTINUOUS
10
331.7990571724
20
122.9001036447
11
331.5835873137
21
122.9001036447
0
LINE
5
287
100
AcDbEntity
8
DEFAULT_2
100
AcDbLine
62
8
6
HIDDEN
10
331.9225975988
20
122.9001036447
11
331.7990571724
21
122.9001036447
0
LINE
5
288
100
AcDbEntity
8
DEFAULT_2
100
AcDbLine
62
8
6
HIDDEN
10
331.5835873137
20
122.9001036447
11
331.2330529272
21
122.9001036447
0
LINE
5
289
100
AcDbEntity
8
DEFAULT_2
100
AcDbLine
62
8
6
HIDDEN
10
331.7990571422
20
123.0459347528
11
331.2330529272
21
123.0459347528
0
LINE
5
28A
100
AcDbEntity
8
0
100
AcDbLine
62
7
6
CONTINUOUS
10
331.7264410030
20
123.1917691988
11
331.5399213321
21
123.1917691988
0
LINE
5
28B
100
AcDbEntity
8
DEFAULT_2
100
AcDbLine
62
8
6
HIDDEN
10
331.9311331912
20
123.1917691988
11
331.7264410030
21
123.1917691988
0
LINE
5
28C
100
AcDbEntity
8
DEFAULT_2
100
AcDbLine
62
8
6
HIDDEN
10
331.5399213321
20
123.1917691988
11
331.2330529272
21
123.1917691988
0
LINE
5
28D
100
AcDbEntity
8
DEFAULT_2
100
AcDbLine
62
8
6
HIDDEN
10
331.7264409842
20
123.3376036447
11
331.2330529272
21
123.3376036447
0
LINE
5
28E
100
AcDbEntity
8
DEFAULT_2
100
AcDbLine
62
8
6
HIDDEN
10
331.9072193813
20
123.4834347528
11
331.2330529272
21
123.4834347528
0
LINE
5
28F
100
AcDbEntity
8
0
100
AcDbLine
62
7
6
CONTINUOUS
10
331.6690950030
20
123.6292691988
11
331.4857261013
21
123.6292691988
0
LINE
5
290
100
AcDbEntity
8
DEFAULT_2
100
AcDbLine
62
8
6
HIDDEN
10
331.9328396394
20
123.6292691988
11
331.6690950030
21
123.6292691988
0
LINE
5
291
100
AcDbEntity
8
DEFAULT_2
100
AcDbLine
62
8
6
HIDDEN
10
331.4857261013
20
123.6292691988
11
331.2330529272
21
123.6292691988
0
LINE
5
292
100
AcDbEntity
8
DEFAULT_2
100
AcDbLine
62
8
6
HIDDEN
10
331.6690949816
20
123.7751036447
11
331.2330529272
21
123.7751036447
0
LINE
5
293
100
AcDbEntity
8
0
100
AcDbLine
62
7
6
CONTINUOUS
10
331.6377062665
20
124.0667691988
11
331.4613165287
21
124.0667691988
0
LINE
5
294
100
AcDbEntity
8
DEFAULT_2
100
AcDbLine
62
8
6
HIDDEN
10
331.9311332010
20
124.0667691988
11
331.6377062665
21
124.0667691988
0
LINE
5
295
100
AcDbEntity
8
DEFAULT_2
100
AcDbLine
62
8
6
HIDDEN
10
331.4613165287
20
124.0667691988
11
331.2330529272
21
124.0667691988
0
LINE
5
296
100
AcDbEntity
8
DEFAULT_2
100
AcDbLine
62
8
6
HIDDEN
10
331.8969571019
20
124.2126036447
11
331.2330529272
21
124.2126036447
0
LINE
5
297
100
AcDbEntity
8
DEFAULT_2
100
AcDbLine
62
8
6
HIDDEN
10
331.4530369527
20
124.3584347528
11
331.2330529272
21
124.3584347528
0
LINE
5
298
100
AcDbEntity
8
DEFAULT_2
100
AcDbLine
62
8
6
HIDDEN
10
331.8969571019
20
124.9417691988
11
331.2330529272
21
124.9417691988
0
LINE
5
299
100
AcDbEntity
8
0
100
AcDbLine
62
7
6
CONTINUOUS
10
331.6377062665
20
125.0876036447
11
331.4613165666
21
125.0876036447
0
LINE
5
29A
100
AcDbEntity
8
DEFAULT_2
100
AcDbLine
62
8
6
HIDDEN
10
331.9311331912
20
125.0876036447
11
331.6377062665
21
125.0876036447
0
LINE
5
29B
100
AcDbEntity
8
DEFAULT_2
100
AcDbLine
62
8
6
HIDDEN
10
331.4613165666
20
125.0876036447
11
331.2330529272
21
125.0876036447
0
LINE
5
29C
100
AcDbEntity
8
0
100
AcDbLine
62
7
6
CONTINUOUS
10
331.6690950030
20
125.5251036447
11
331.4857262477
21
125.5251036447
0
LINE
5
29D
100
AcDbEntity
8
DEFAULT_2
100
AcDbLine
62
8
6
HIDDEN
10
331.9328396368
20
125.5251036447
11
331.6690950030
21
125.5251036447
0
LINE
5
29E
100
AcDbEntity
8
DEFAULT_2
100
AcDbLine
62
8
6
HIDDEN
10
331.4857262477
20
125.5251036447
11
331.2330529272
21
125.5251036447
0
LINE
5
29F
100
AcDbEntity
8
DEFAULT_2
100
AcDbLine
62
8
6
HIDDEN
10
331.9072193813
20
125.6709347528
11
331.2330529272
21
125.6709347528
0
LINE
5
2A0
100
AcDbEntity
8
0
100
AcDbLine
62
7
6
CONTINUOUS
10
331.7264410030
20
125.9626036447
11
331.5399216421
21
125.9626036447
0
LINE
5
2A1
100
AcDbEntity
8
DEFAULT_2
100
AcDbLine
62
8
6
HIDDEN
10
331.9311332510
20
125.9626036447
11
331.7264410030
21
125.9626036447
0
LINE
5
2A2
100
AcDbEntity
8
DEFAULT_2
100
AcDbLine
62
8
6
HIDDEN
10
331.5399216421
20
125.9626036447
11
331.2330529272
21
125.9626036447
0
LINE
5
2A3
100
AcDbEntity
8
0
100
AcDbLine
62
7
6
CONTINUOUS
10
331.7990571724
20
126.2542691988
11
331.5835874093
21
126.2542691988
0
LINE
5
2A4
100
AcDbEntity
8
DEFAULT_2
100
AcDbLine
62
8
6
HIDDEN
10
331.9225975988
20
126.2542691988
11
331.7990571724
21
126.2542691988
0
LINE
5
2A5
100
AcDbEntity
8
DEFAULT_2
100
AcDbLine
62
8
6
HIDDEN
10
331.5835874093
20
126.2542691988
11
331.2330529272
21
126.2542691988
0
LINE
5
2A6
100
AcDbEntity
8
0
100
AcDbLine
62
7
6
CONTINUOUS
10
331.8969570863
20
126.4001036447
11
331.6044893466
21
126.4001036447
0
LINE
5
2A7
100
AcDbEntity
8
DEFAULT_2
100
AcDbLine
62
8
6
HIDDEN
10
331.6044893466
20
126.4001036447
11
331.2330529272
21
126.4001036447
0
LINE
5
2A8
100
AcDbEntity
8
0
100
AcDbLine
62
7
6
CONTINUOUS
10
331.9311331912
20
126.5459347528
11
331.6481692123
21
126.5459347528
0
LINE
5
2A9
100
AcDbEntity
8
DEFAULT_2
100
AcDbLine
62
8
6
HIDDEN
10
331.6481692123
20
126.5459347528
11
331.2330529272
21
126.5459347528
0
LINE
5
2AA
100
AcDbEntity
8
DEFAULT_2
100
AcDbLine
62
8
6
HIDDEN
10
331.7264410030
20
126.8376036447
11
331.2330529272
21
126.8376036447
0
LINE
5
2AB
100
AcDbEntity
8
DEFAULT_2
100
AcDbLine
62
8
6
HIDDEN
10
331.8386500202
20
127.1292691988
11
331.2330529272
21
127.1292691988
0
LINE
5
2AC
100
AcDbEntity
8
0
100
AcDbLine
62
7
6
CONTINUOUS
10
331.9330527665
20
127.2751036447
11
331.9225975988
21
127.2751036447
0
LINE
5
2AD
100
AcDbEntity
8
DEFAULT_2
100
AcDbLine
62
8
6
HIDDEN
10
331.9225975988
20
127.2751036447
11
331.2330529272
21
127.2751036447
0
LINE
5
2AE
100
AcDbEntity
8
DEFAULT_2
100
AcDbLine
62
8
6
HIDDEN
10
331.4530369527
20
128.4417691988
11
331.2330529272
21
128.4417691988
0
LINE
5
2AF
100
AcDbEntity
8
0
100
AcDbLine
62
7
6
CONTINUOUS
10
331.4530369527
20
128.4417691988
11
331.9330529272
21
128.4417691988
0
LINE
5
2B0
100
AcDbEntity
8
0
100
AcDbLine
62
7
6
CONTINUOUS
10
331.9330056819
20
129.3167691988
11
331.4530369527
21
129.3167691988
0
LINE
5
2B1
100
AcDbEntity
8
DEFAULT_2
100
AcDbLine
62
8
6
HIDDEN
10
331.4530369527
20
129.3167691988
11
331.2330529272
21
129.3167691988
0
LINE
5
2B2
100
AcDbEntity
8
DEFAULT_2
100
AcDbLine
62
8
6
HIDDEN
10
331.8712657916
20
130.1917691988
11
331.2330529272
21
130.1917691988
0
LINE
5
2B3
100
AcDbEntity
8
0
100
AcDbLine
62
7
6
CONTINUOUS
10
278.9330529272
20
266.0159042780
11
278.9330529272
21
316.5167691988
0
LINE
5
2B4
100
AcDbEntity
8
DEFAULT_2
100
AcDbLine
62
8
6
HIDDEN
10
331.8969570863
20
131.3584364218
11
331.2330529272
21
131.3584364218
0
LINE
5
2B5
100
AcDbEntity
8
0
100
AcDbLine
62
7
6
CONTINUOUS
10
331.8969570863
20
131.3584364218
11
331.9311331912
21
131.3584364218
0
LINE
5
2B6
100
AcDbEntity
8
0
100
AcDbLine
62
7
6
CONTINUOUS
10
331.9311331912
20
133.4001019758
11
331.8969570863
21
133.4001019758
0
LINE
5
2B7
100
AcDbEntity
8
DEFAULT_2
100
AcDbLine
62
8
6
HIDDEN
10
331.8969570863
20
133.4001019758
11
331.2330529272
21
133.4001019758
0
LINE
5
2B8
100
AcDbEntity
8
DEFAULT_2
100
AcDbLine
62
8
6
HIDDEN
10
331.4530369527
20
134.5667691988
11
331.2330529272
21
134.5667691988
0
LINE
5
2B9
100
AcDbEntity
8
0
100
AcDbLine
62
7
6
CONTINUOUS
10
331.4530369527
20
134.5667691988
11
331.9330529272
21
134.5667691988
0
LINE
5
2BA
100
AcDbEntity
8
0
100
AcDbLine
62
7
6
CONTINUOUS
10
331.9330056819
20
135.4417691988
11
331.4530369527
21
135.4417691988
0
LINE
5
2BB
100
AcDbEntity
8
DEFAULT_2
100
AcDbLine
62
8
6
HIDDEN
10
331.4530369527
20
135.4417691988
11
331.2330529272
21
135.4417691988
0
LINE
5
2BC
100
AcDbEntity
8
DEFAULT_2
100
AcDbLine
62
8
6
HIDDEN
10
331.8712657916
20
136.3167691988
11
331.2330529272
21
136.3167691988
0
LINE
5
2BD
100
AcDbEntity
8
0
100
AcDbLine
62
7
6
CONTINUOUS
10
297.8427708048
20
293.3167691988
11
297.8427708048
21
328.5167691988
0
LINE
5
2BE
100
AcDbEntity
8
DEFAULT_2
100
AcDbLine
62
8
6
HIDDEN
10
331.4530369527
20
144.4834355873
11
331.2330529272
21
144.4834355873
0
LINE
5
2BF
100
AcDbEntity
8
DEFAULT_2
100
AcDbLine
62
8
6
HIDDEN
10
331.4530369527
20
145.3584355873
11
331.2330529272
21
145.3584355873
0
LINE
5
2C0
100
AcDbEntity
8
DEFAULT_2
100
AcDbLine
62
8
6
HIDDEN
10
331.8197294871
20
145.9417691988
11
331.2330529272
21
145.9417691988
0
LINE
5
2C1
100
AcDbEntity
8
0
100
AcDbLine
62
7
6
CONTINUOUS
10
331.8849741476
20
146.0876028103
11
331.8197294871
21
146.0876028103
0
LINE
5
2C2
100
AcDbEntity
8
DEFAULT_2
100
AcDbLine
62
8
6
HIDDEN
10
331.8197294871
20
146.0876028103
11
331.2330529272
21
146.0876028103
0
LINE
5
2C3
100
AcDbEntity
8
DEFAULT_2
100
AcDbLine
62
8
6
HIDDEN
10
331.4530369527
20
146.8167691988
11
331.2330529272
21
146.8167691988
0
LINE
5
2C4
100
AcDbEntity
8
DEFAULT_2
100
AcDbLine
62
8
6
HIDDEN
10
331.6044893347
20
147.4001028103
11
331.2330529272
21
147.4001028103
0
LINE
5
2C5
100
AcDbEntity
8
DEFAULT_2
100
AcDbLine
62
8
6
HIDDEN
10
331.4530369527
20
147.9834355873
11
331.2330529272
21
147.9834355873
0
LINE
5
2C6
100
AcDbEntity
8
0
100
AcDbLine
62
7
6
CONTINUOUS
10
331.8849741476
20
148.7126028103
11
331.8197294871
21
148.7126028103
0
LINE
5
2C7
100
AcDbEntity
8
DEFAULT_2
100
AcDbLine
62
8
6
HIDDEN
10
331.8197294871
20
148.7126028103
11
331.2330529272
21
148.7126028103
0
LINE
5
2C8
100
AcDbEntity
8
DEFAULT_2
100
AcDbLine
62
8
6
HIDDEN
10
331.8197294871
20
148.8584355873
11
331.2330529272
21
148.8584355873
0
LINE
5
2C9
100
AcDbEntity
8
DEFAULT_2
100
AcDbLine
62
8
6
HIDDEN
10
331.4530369527
20
149.4417691988
11
331.2330529272
21
149.4417691988
0
LINE
5
2CA
100
AcDbEntity
8
DEFAULT_2
100
AcDbLine
62
8
6
HIDDEN
10
331.4530369527
20
150.3167691988
11
331.2330529272
21
150.3167691988
0
LINE
5
2CB
100
AcDbEntity
8
DEFAULT_2
100
AcDbLine
62
8
6
HIDDEN
10
331.4530369527
20
151.4834360045
11
331.2330529272
21
151.4834360045
0
LINE
5
2CC
100
AcDbEntity
8
DEFAULT_2
100
AcDbLine
62
8
6
HIDDEN
10
331.4530369527
20
152.3584360045
11
331.2330529272
21
152.3584360045
0
LINE
5
2CD
100
AcDbEntity
8
0
100
AcDbLine
62
7
6
CONTINUOUS
10
305.9330529272
20
236.2533323909
11
305.9330529272
21
30.3167691988
0
LINE
5
2CE
100
AcDbEntity
8
DEFAULT_2
100
AcDbLine
62
8
6
HIDDEN
10
331.4530369527
20
153.8167691988
11
331.2330529272
21
153.8167691988
0
LINE
5
2CF
100
AcDbEntity
8
0
100
AcDbLine
62
7
6
CONTINUOUS
10
331.6690950030
20
154.4001026016
11
331.4530369527
21
154.4001026016
0
LINE
5
2D0
100
AcDbEntity
8
DEFAULT_2
100
AcDbLine
62
8
6
HIDDEN
10
331.4530369527
20
154.4001026016
11
331.2330529272
21
154.4001026016
0
LINE
5
2D1
100
AcDbEntity
8
DEFAULT_2
100
AcDbLine
62
8
6
HIDDEN
10
331.4530369527
20
154.9834357959
11
331.2330529272
21
154.9834357959
0
LINE
5
2D2
100
AcDbEntity
8
DEFAULT_2
100
AcDbLine
62
8
6
HIDDEN
10
331.4530369527
20
156.4417691988
11
331.2330529272
21
156.4417691988
0
LINE
5
2D3
100
AcDbEntity
8
DEFAULT_2
100
AcDbLine
62
8
6
HIDDEN
10
331.4530369527
20
157.3167691988
11
331.2330529272
21
157.3167691988
0
LINE
5
2D4
100
AcDbEntity
8
0
100
AcDbLine
62
7
6
CONTINUOUS
10
309.9730529272
20
325.2179256253
11
309.9730529272
21
284.6767691988
0
LINE
5
2D5
100
AcDbEntity
8
DEFAULT_1
100
AcDbLine
62
2
6
CENTER
10
318.9330529272
20
14.3167691988
11
318.9330529272
21
87.1581299659
0
LINE
5
2D6
100
AcDbEntity
8
DEFAULT_1
100
AcDbLine
62
2
6
CENTER
10
318.9330529272
20
160.0979710556
11
318.9330529272
21
329.3374716232
0
LINE
5
2D7
100
AcDbEntity
8
0
100
AcDbLine
62
7
6
CONTINUOUS
10
327.8930529272
20
284.6767691988
11
327.8930529272
21
325.2179256253
0
LINE
5
2D8
100
AcDbEntity
8
DEFAULT_2
100
AcDbLine
62
8
6
HIDDEN
10
331.2330529272
20
157.3167691988
11
331.2330529272
21
151.4834360045
0
LINE
5
2D9
100
AcDbEntity
8
DEFAULT_2
100
AcDbLine
62
8
6
HIDDEN
10
331.2330529272
20
150.3167691988
11
331.2330529272
21
144.4834355873
0
LINE
5
2DA
100
AcDbEntity
8
DEFAULT_2
100
AcDbLine
62
8
6
HIDDEN
10
331.2330529272
20
136.3167691988
11
331.2330529272
21
134.5667691988
0
LINE
5
2DB
100
AcDbEntity
8
DEFAULT_2
100
AcDbLine
62
8
6
HIDDEN
10
331.2330529272
20
133.4001019758
11
331.2330529272
21
131.3584364218
0
LINE
5
2DC
100
AcDbEntity
8
DEFAULT_2
100
AcDbLine
62
8
6
HIDDEN
10
331.2330529272
20
130.1917691988
11
331.2330529272
21
128.4417691988
0
LINE
5
2DD
100
AcDbEntity
8
DEFAULT_2
100
AcDbLine
62
8
6
HIDDEN
10
331.2330529272
20
127.2751036447
11
331.2330529272
21
122.0251036447
0
LINE
5
2DE
100
AcDbEntity
8
DEFAULT_2
100
AcDbLine
62
8
6
HIDDEN
10
331.4530369527
20
157.3167691988
11
331.4530369527
21
156.4417691988
0
LINE
5
2DF
100
AcDbEntity
8
0
100
AcDbLine
62
7
6
CONTINUOUS
10
331.4530369527
20
154.9834357959
11
331.4530369527
21
153.8167691988
0
LINE
5
2E0
100
AcDbEntity
8
DEFAULT_2
100
AcDbLine
62
8
6
HIDDEN
10
331.4530369527
20
152.3584360045
11
331.4530369527
21
151.4834360045
0
LINE
5
2E1
100
AcDbEntity
8
0
100
AcDbLine
62
7
6
CONTINUOUS
10
331.4530369527
20
150.3167691988
11
331.4530369527
21
149.4417691988
0
LINE
5
2E2
100
AcDbEntity
8
DEFAULT_2
100
AcDbLine
62
8
6
HIDDEN
10
331.4530369527
20
147.9834355873
11
331.4530369527
21
146.8167691988
0
LINE
5
2E3
100
AcDbEntity
8
0
100
AcDbLine
62
7
6
CONTINUOUS
10
331.4530369527
20
145.3584355873
11
331.4530369527
21
144.4834355873
0
LINE
5
2E4
100
AcDbEntity
8
0
100
AcDbLine
62
7
6
CONTINUOUS
10
331.4530369527
20
135.4417691988
11
331.4530369527
21
134.5667691988
0
LINE
5
2E5
100
AcDbEntity
8
0
100
AcDbLine
62
7
6
CONTINUOUS
10
331.4530369527
20
129.3167691988
11
331.4530369527
21
128.4417691988
0
LINE
5
2E6
100
AcDbEntity
8
0
100
AcDbLine
62
7
6
CONTINUOUS
10
331.4530369527
20
124.9417691988
11
331.4530369527
21
124.2126036447
0
LINE
5
2E7
100
AcDbEntity
8
0
100
AcDbLine
62
7
6
CONTINUOUS
10
331.6377062665
20
125.0876036447
11
331.6377062665
21
124.0667691988
0
LINE
5
2E8
100
AcDbEntity
8
DEFAULT_2
100
AcDbLine
62
8
6
HIDDEN
10
331.7990571422
20
123.0459347528
11
331.7990571422
21
122.3167691988
0
LINE
5
2E9
100
AcDbEntity
8
0
100
AcDbLine
62
7
6
CONTINUOUS
10
331.8197294871
20
148.8584355873
11
331.8197294871
21
145.9417691988
0
LINE
5
2EA
100
AcDbEntity
8
0
100
AcDbLine
62
7
6
CONTINUOUS
10
331.8849741476
20
148.7126028103
11
331.8849741476
21
146.0876028103
0
LINE
5
2EB
100
AcDbEntity
8
0
100
AcDbLine
62
7
6
CONTINUOUS
10
331.8969570863
20
133.4001019758
11
331.8969570863
21
131.3584364218
0
LINE
5
2EC
100
AcDbEntity
8
DEFAULT_2
100
AcDbLine
62
8
6
HIDDEN
10
331.8969571019
20
124.2126036447
11
331.8969571019
21
124.9417691988
0
LINE
5
2ED
100
AcDbEntity
8
0
100
AcDbLine
62
7
6
CONTINUOUS
10
331.9311331912
20
133.4001019758
11
331.9311331912
21
131.3584364218
0
LINE
5
2EE
100
AcDbEntity
8
DEFAULT_2
100
AcDbLine
62
8
6
HIDDEN
10
331.9311331912
20
125.0876036447
11
331.9311331912
21
124.0667691988
0
LINE
5
2EF
100
AcDbEntity
8
DEFAULT_2
100
AcDbLine
62
8
6
HIDDEN
10
331.9330529844
20
122.3896842597
11
331.9330529272
21
122.9001036447
0
LINE
5
2F0
100
AcDbEntity
8
DEFAULT_2
100
AcDbLine
62
8
6
HIDDEN
10
331.9330529272
20
123.4834347528
11
331.9330529272
21
123.5198927499
0
LINE
5
2F1
100
AcDbEntity
8
0
100
AcDbLine
62
7
6
CONTINUOUS
10
331.9330529272
20
122.9001036447
11
331.9330529272
21
123.4834347528
0
LINE
5
2F2
100
AcDbEntity
8
0
100
AcDbLine
62
7
6
CONTINUOUS
10
331.9330529272
20
123.5198941988
11
331.9330529272
21
125.9626036447
0
LINE
5
2F3
100
AcDbEntity
8
DEFAULT_2
100
AcDbLine
62
8
6
HIDDEN
10
331.9330529272
20
125.9626036447
11
331.9330529272
21
126.5459347528
0
LINE
5
2F4
100
AcDbEntity
8
0
100
AcDbLine
62
7
6
CONTINUOUS
10
331.9330529272
20
126.5459347528
11
331.9330529272
21
131.3584364218
0
LINE
5
2F5
100
AcDbEntity
8
DEFAULT_2
100
AcDbLine
62
8
6
HIDDEN
10
331.9330529272
20
131.3584364218
11
331.9330529272
21
133.4001019758
0
LINE
5
2F6
100
AcDbEntity
8
0
100
AcDbLine
62
7
6
CONTINUOUS
10
331.9330529272
20
133.4001019758
11
331.9330529272
21
148.7126028103
0
LINE
5
2F7
100
AcDbEntity
8
DEFAULT_2
100
AcDbLine
62
8
6
HIDDEN
10
331.9330529272
20
148.7126028103
11
331.9330529272
21
149.1501023930
0
LINE
5
2F8
100
AcDbEntity
8
0
100
AcDbLine
62
7
6
CONTINUOUS
10
331.9330529272
20
149.1501023930
11
331.9330529272
21
236.2533323909
0
LINE
5
2F9
100
AcDbEntity
8
0
100
AcDbLine
62
7
6
CONTINUOUS
10
340.0233350495
20
328.5167691988
11
340.0233350495
21
293.3167691988
0
LINE
5
2FA
100
AcDbEntity
8
0
100
AcDbLine
62
7
6
CONTINUOUS
10
331.9330529272
20
30.3167691988
11
331.9330529844
21
122.3896842597
0
LINE
5
2FB
100
AcDbEntity
8
DEFAULT_2
100
AcDbLine
62
8
6
HIDDEN
10
358.9330529272
20
267.3167691988
11
358.9330529272
21
266.0159042780
0
LINE
5
2FC
100
AcDbEntity
8
0
100
AcDbLine
62
7
6
CONTINUOUS
10
358.9330529272
20
267.3167691988
11
358.9330529272
21
316.5167691988
0
LINE
5
2FD
100
AcDbEntity
8
0
100
AcDbLine
62
7
6
CONTINUOUS
10
366.2038250718
20
252.8518817268
11
358.9330529272
21
294.0864796050
0
LINE
5
2FE
100
AcDbEntity
8
0
100
AcDbLine
62
7
6
CONTINUOUS
10
345.3253577726
20
265.7167691988
11
292.5407480818
21
265.7167691988
0
LINE
5
2FF
100
AcDbEntity
8
0
100
AcDbLine
62
7
6
CONTINUOUS
10
327.8930529272
20
296.5167691988
11
309.9730529272
21
296.5167691988
0
LINE
5
300
100
AcDbEntity
8
0
100
AcDbLine
62
7
6
CONTINUOUS
10
358.9330529272
20
316.5167691988
11
348.8638573531
21
328.5167691988
0
LINE
5
301
100
AcDbEntity
8
DEFAULT_1
100
AcDbLine
62
2
6
CENTER
10
306.9730529272
20
306.1167691988
11
330.8930529272
21
306.1167691988
0
LINE
5
302
100
AcDbEntity
8
0
100
AcDbLine
62
7
6
CONTINUOUS
10
327.8930529272
20
315.7167691988
11
309.9730529272
21
315.7167691988
0
LINE
5
303
100
AcDbEntity
8
0
100
AcDbLine
62
7
6
CONTINUOUS
10
289.0022485013
20
328.5167691988
11
297.8427708048
21
328.5167691988
0
LINE
5
304
100
AcDbEntity
8
0
100
AcDbLine
62
7
6
CONTINUOUS
10
340.0233350495
20
328.5167691988
11
348.8638573531
21
328.5167691988
0
ARC
5
305
100
AcDbEntity
8
DEFAULT_2
100
AcDbCircle
62
8
6
HIDDEN
10
113.5007833417
20
173.3167691988
40
50.0000000000
100
AcDbArc
50
78.4605877960
51
101.5394122040
0
ARC
5
306
100
AcDbEntity
8
DEFAULT_2
100
AcDbCircle
62
8
6
HIDDEN
10
113.5007833417
20
173.3167691988
40
76.0000000000
100
AcDbArc
50
82.4389664496
51
97.5610335504
0
CIRCLE
5
307
100
AcDbEntity
8
0
100
AcDbCircle
62
7
6
CONTINUOUS
10
113.5007833417
20
306.1167691988
40
9.6000000000
0
ARC
5
308
100
AcDbEntity
8
0
100
AcDbCircle
62
7
6
CONTINUOUS
10
113.5007833417
20
213.3167691988
40
10.0000000000
100
AcDbArc
50
180.0000000000
51
201.9913472955
0
ARC
5
309
100
AcDbEntity
8
0
100
AcDbCircle
62
7
6
CONTINUOUS
10
113.5007833417
20
213.3167691988
40
10.0000000000
100
AcDbArc
50
338.0086527045
51
360.0000000000
0
ARC
5
30A
100
AcDbEntity
8
0
100
AcDbCircle
62
7
6
CONTINUOUS
10
118.1183950507
20
268.9167691988
40
3.2000000000
100
AcDbArc
50
294.9711750139
51
330.0000000000
0
ARC
5
30B
100
AcDbEntity
8
0
100
AcDbCircle
62
7
6
CONTINUOUS
10
126.3007833417
20
268.9167691988
40
3.2000000000
100
AcDbArc
50
270.0000000000
51
360.0000000000
0
ARC
5
30C
100
AcDbEntity
8
0
100
AcDbCircle
62
7
6
CONTINUOUS
10
132.7007833417
20
281.3742066146
40
3.2000000000
100
AcDbArc
50
150.0000000000
51
180.0000000000
0
ARC
5
30D
100
AcDbEntity
8
0
100
AcDbCircle
62
7
6
CONTINUOUS
10
113.5007833417
20
306.1167691988
40
22.4000000000
100
AcDbArc
50
0.0000000000
51
180.0000000000
0
ARC
5
30E
100
AcDbEntity
8
0
100
AcDbCircle
62
7
6
CONTINUOUS
10
94.3007833417
20
281.3742066146
40
3.2000000000
100
AcDbArc
50
0.0000000000
51
30.0000000000
0
ARC
5
30F
100
AcDbEntity
8
0
100
AcDbCircle
62
7
6
CONTINUOUS
10
100.7007833417
20
268.9167691988
40
3.2000000000
100
AcDbArc
50
180.0000000000
51
270.0000000000
0
ARC
5
310
100
AcDbEntity
8
0
100
AcDbCircle
62
7
6
CONTINUOUS
10
108.8831716327
20
268.9167691988
40
3.2000000000
100
AcDbArc
50
210.0000000000
51
245.0288249861
0
ARC
5
311
100
AcDbEntity
8
0
100
AcDbCircle
62
7
6
CONTINUOUS
10
113.5007833417
20
173.3167691988
40
50.0000000000
100
AcDbArc
50
0.0000000000
51
78.4605877960
0
ARC
5
312
100
AcDbEntity
8
0
100
AcDbCircle
62
7
6
CONTINUOUS
10
113.5007833417
20
173.3167691988
40
50.0000000000
100
AcDbArc
50
101.5394122040
51
180.0000000000
0
ARC
5
313
100
AcDbEntity
8
0
100
AcDbCircle
62
7
6
CONTINUOUS
10
113.5007833417
20
173.3167691988
40
76.0000000000
100
AcDbArc
50
0.0000000000
51
82.4389664496
0
ARC
5
314
100
AcDbEntity
8
0
100
AcDbCircle
62
7
6
CONTINUOUS
10
113.5007833417
20
173.3167691988
40
76.0000000000
100
AcDbArc
50
97.5610335504
51
180.0000000000
0
ARC
5
315
100
AcDbEntity
8
0
100
AcDbCircle
62
7
6
CONTINUOUS
10
113.5007833417
20
93.3167691988
40
50.0000000000
100
AcDbArc
50
180.0000000000
51
360.0000000000
0
ARC
5
316
100
AcDbEntity
8
0
100
AcDbCircle
62
7
6
CONTINUOUS
10
113.5007833417
20
93.3167691988
40
76.0000000000
100
AcDbArc
50
180.0000000000
51
360.0000000000
0
ARC
5
317
100
AcDbEntity
8
DEFAULT_2
100
AcDbCircle
62
8
6
HIDDEN
10
318.9330529272
20
236.3167691988
40
13.0000000000
100
AcDbArc
50
180.0000000000
51
360.0000000000
0
ARC
5
318
100
AcDbEntity
8
DEFAULT_2
100
AcDbCircle
62
8
6
HIDDEN
10
318.9330529272
20
30.3167691988
40
13.0000000000
100
AcDbArc
50
0.0000000000
51
180.0000000000
0
ARC
5
319
100
AcDbEntity
8
DEFAULT_2
100
AcDbCircle
62
8
6
HIDDEN
10
318.9330529272
20
244.5167691988
40
48.0000000000
100
AcDbArc
50
254.2784880006
51
285.7214944429
0
ARC
5
31A
100
AcDbEntity
8
DEFAULT_2
100
AcDbCircle
62
8
6
HIDDEN
10
318.9330529272
20
244.5167691988
40
21.2000000000
100
AcDbArc
50
232.1760479923
51
307.8239520077
0
ARC
5
31B
100
AcDbEntity
8
0
100
AcDbCircle
62
7
6
CONTINUOUS
10
318.9330529272
20
236.3167691988
40
13.0000000000
100
AcDbArc
50
0.0000000000
51
180.0000000000
0
ARC
5
31C
100
AcDbEntity
8
0
100
AcDbCircle
62
7
6
CONTINUOUS
10
318.9330529272
20
30.3167691988
40
13.0000000000
100
AcDbArc
50
180.0000000000
51
360.0000000000
0
ARC
5
31D
100
AcDbEntity
8
0
100
AcDbCircle
62
7
6
CONTINUOUS
10
318.9330529272
20
244.5167691988
40
48.0000000000
100
AcDbArc
50
285.7214944429
51
10.0000000000
0
ARC
5
31E
100
AcDbEntity
8
0
100
AcDbCircle
62
7
6
CONTINUOUS
10
318.9330529272
20
382.1167691988
40
57.6000000000
100
AcDbArc
50
278.9490180653
51
291.4784178411
0
ARC
5
31F
100
AcDbEntity
8
0
100
AcDbCircle
62
7
6
CONTINUOUS
10
318.9330529272
20
382.1167691988
40
57.6000000000
100
AcDbArc
50
248.5215821589
51
261.0509819347
0
ARC
5
320
100
AcDbEntity
8
0
100
AcDbCircle
62
7
6
CONTINUOUS
10
318.9330529272
20
244.5167691988
40
21.2000000000
100
AcDbArc
50
307.8239520077
51
232.1760479923
0
CIRCLE
5
321
100
AcDbEntity
8
0
100
AcDbCircle
62
7
6
CONTINUOUS
10
347.2530529272
20
306.1167691988
40
4.0000000000
0
ARC
5
322
100
AcDbEntity
8
0
100
AcDbCircle
62
7
6
CONTINUOUS
10
318.9330529272
20
284.6767691988
40
8.9600000000
100
AcDbArc
50
180.0000000000
51
360.0000000000
0
ARC
5
323
100
AcDbEntity
8
0
100
AcDbCircle
62
7
6
CONTINUOUS
10
318.9330529272
20
244.5167691988
40
48.0000000000
100
AcDbArc
50
170.0000000000
51
254.2784880006
0
SPLINE
5
324
100
AcDbEntity
8
DEFAULT_2
100
AcDbSpline
62
8
6
HIDDEN
70
0
71
3
72
11
73
7
74
5
42
0.0000001000
43
0.0000001000
44
0.0000000001
40
0.0000000000
40
0.0000000000
40
0.0000000000
40
0.0000000000
40
0.2736618404
40
0.5152988758
40
0.7560103337
40
1.0000000000
40
1.0000000000
40
1.0000000000
40
1.0000000000
10
121.9453645356
20
266.6771909210
30
0.0000000000
10
121.7565534994
20
266.7463427334
30
0.0000000000
10
121.3824547503
20
266.8428922184
30
0.0000000000
10
120.8193281857
20
266.7711461722
30
0.0000000000
10
120.3322193801
20
266.5420248369
30
0.0000000000
10
120.0340787381
20
266.3472813041
30
0.0000000000
10
119.8845867032
20
266.2483301333
30
0.0000000000
11
121.9453645356
21
266.6771909210
31
0.0000000000
11
121.3564610139
21
266.8078694091
31
0.0000000000
11
120.8276243017
21
266.7443611241
31
0.0000000000
11
120.3410565405
21
266.5327384889
31
0.0000000000
11
119.8845867032
21
266.2483301333
31
0.0000000000
0
SPLINE
5
325
100
AcDbEntity
8
DEFAULT_2
100
AcDbSpline
62
8
6
HIDDEN
70
0
71
3
72
11
73
7
74
5
42
0.0000001000
43
0.0000001000
44
0.0000000001
40
0.0000000000
40
0.0000000000
40
0.0000000000
40
0.0000000000
40
0.2736618404
40
0.5152988758
40
0.7560103337
40
1.0000000000
40
1.0000000000
40
1.0000000000
40
1.0000000000
10
105.0562021478
20
266.6771909210
30
0.0000000000
10
105.2450131840
20
266.7463427334
30
0.0000000000
10
105.6191119331
20
266.8428922184
30
0.0000000000
10
106.1822384977
20
266.7711461722
30
0.0000000000
10
106.6693473034
20
266.5420248369
30
0.0000000000
10
106.9674879453
20
266.3472813041
30
0.0000000000
10
107.1169799802
20
266.2483301333
30
0.0000000000
11
105.0562021478
21
266.6771909210
31
0.0000000000
11
105.6451056695
21
266.8078694091
31
0.0000000000
11
106.1739423818
21
266.7443611241
31
0.0000000000
11
106.6605101429
21
266.5327384889
31
0.0000000000
11
107.1169799802
21
266.2483301333
31
0.0000000000
0
SPLINE
5
326
100
AcDbEntity
8
0
100
AcDbSpline
62
7
6
CONTINUOUS
70
0
71
3
72
10
73
6
74
4
42
0.0000001000
43
0.0000001000
44
0.0000000001
40
0.0000000000
40
0.0000000000
40
0.0000000000
40
0.0000000000
40
0.3159015172
40
0.6499699058
40
1.0000000000
40
1.0000000000
40
1.0000000000
40
1.0000000000
10
121.9453645356
20
266.6771909210
30
0.0000000000
10
122.0314716528
20
266.6456540670
30
0.0000000000
10
122.2094393140
20
266.5829354388
30
0.0000000000
10
122.4854204668
20
266.4928696494
30
0.0000000000
10
122.6755831436
20
266.4355901640
30
0.0000000000
10
122.7731875057
20
266.4073503461
30
0.0000000000
11
121.9453645356
21
266.6771909210
31
0.0000000000
11
122.2047985512
21
266.5856755087
31
0.0000000000
11
122.4813407025
21
266.4953408731
31
0.0000000000
11
122.7731875057
21
266.4073503461
31
0.0000000000
0
SPLINE
5
327
100
AcDbEntity
8
0
100
AcDbSpline
62
7
6
CONTINUOUS
70
0
71
3
72
10
73
6
74
4
42
0.0000001000
43
0.0000001000
44
0.0000000001
40
0.0000000000
40
0.0000000000
40
0.0000000000
40
0.0000000000
40
0.4287722287
40
0.7749239062
40
1.0000000000
40
1.0000000000
40
1.0000000000
40
1.0000000000
10
122.7731875057
20
266.4073503461
30
0.0000000000
10
122.9079509614
20
266.3683593075
30
0.0000000000
10
123.1464779234
20
266.2670171651
30
0.0000000000
10
123.3973096768
20
266.0585874017
30
0.0000000000
10
123.5007832949
20
265.8837434784
30
0.0000000000
10
123.5007833417
20
265.8101004383
30
0.0000000000
11
122.7731875057
21
266.4073503461
31
0.0000000000
11
123.1583921112
21
266.2377896713
31
0.0000000000
11
123.4130612268
21
266.0128675627
31
0.0000000000
11
123.5007833417
21
265.8101004383
31
0.0000000000
0
SPLINE
5
328
100
AcDbEntity
8
0
100
AcDbSpline
62
7
6
CONTINUOUS
70
0
71
3
72
11
73
7
74
5
42
0.0000001000
43
0.0000001000
44
0.0000000001
40
0.0000000000
40
0.0000000000
40
0.0000000000
40
0.0000000000
40
0.2442083284
40
0.4849817594
40
0.7265734916
40
1.0000000000
40
1.0000000000
40
1.0000000000
40
1.0000000000
10
119.8845855271
20
266.2483319101
30
0.0000000000
10
120.0342115907
20
266.3473723927
30
0.0000000000
10
120.3325276475
20
266.5422262435
30
0.0000000000
10
120.8198561370
20
266.7713217111
30
0.0000000000
10
121.3828492609
20
266.8428137458
30
0.0000000000
10
121.7567154534
20
266.7462834283
30
0.0000000000
10
121.9453645356
20
266.6771909210
30
0.0000000000
11
119.8845855271
21
266.2483319101
31
0.0000000000
11
120.3414792453
21
266.5329736413
31
0.0000000000
11
120.8282228583
21
266.7445373544
31
0.0000000000
11
121.3569847123
21
266.8078409900
31
0.0000000000
11
121.9453645356
21
266.6771909210
31
0.0000000000
0
SPLINE
5
329
100
AcDbEntity
8
0
100
AcDbSpline
62
7
6
CONTINUOUS
70
0
71
3
72
10
73
6
74
4
42
0.0000001000
43
0.0000001000
44
0.0000000001
40
0.0000000000
40
0.0000000000
40
0.0000000000
40
0.0000000000
40
0.3159015172
40
0.6499699058
40
1.0000000000
40
1.0000000000
40
1.0000000000
40
1.0000000000
10
105.0562021478
20
266.6771909210
30
0.0000000000
10
104.9700950306
20
266.6456540670
30
0.0000000000
10
104.7921273694
20
266.5829354388
30
0.0000000000
10
104.5161462166
20
266.4928696494
30
0.0000000000
10
104.3259835398
20
266.4355901640
30
0.0000000000
10
104.2283791777
20
266.4073503461
30
0.0000000000
11
105.0562021478
21
266.6771909210
31
0.0000000000
11
104.7967681322
21
266.5856755087
31
0.0000000000
11
104.5202259809
21
266.4953408731
31
0.0000000000
11
104.2283791777
21
266.4073503461
31
0.0000000000
0
SPLINE
5
32A
100
AcDbEntity
8
0
100
AcDbSpline
62
7
6
CONTINUOUS
70
0
71
3
72
10
73
6
74
4
42
0.0000001000
43
0.0000001000
44
0.0000000001
40
0.0000000000
40
0.0000000000
40
0.0000000000
40
0.0000000000
40
0.4287722287
40
0.7749239062
40
1.0000000000
40
1.0000000000
40
1.0000000000
40
1.0000000000
10
104.2283791777
20
266.4073503461
30
0.0000000000
10
104.0936157221
20
266.3683593075
30
0.0000000000
10
103.8550887600
20
266.2670171651
30
0.0000000000
10
103.6042570066
20
266.0585874017
30
0.0000000000
10
103.5007833885
20
265.8837434784
30
0.0000000000
10
103.5007833417
20
265.8101004383
30
0.0000000000
11
104.2283791777
21
266.4073503461
31
0.0000000000
11
103.8431745722
21
266.2377896713
31
0.0000000000
11
103.5885054566
21
266.0128675627
31
0.0000000000
11
103.5007833417
21
265.8101004383
31
0.0000000000
0
SPLINE
5
32B
100
AcDbEntity
8
0
100
AcDbSpline
62
7
6
CONTINUOUS
70
0
71
3
72
11
73
7
74
5
42
0.0000001000
43
0.0000001000
44
0.0000000001
40
0.0000000000
40
0.0000000000
40
0.0000000000
40
0.0000000000
40
0.2442083284
40
0.4849817594
40
0.7265734916
40
1.0000000000
40
1.0000000000
40
1.0000000000
40
1.0000000000
10
107.1169811563
20
266.2483319101
30
0.0000000000
10
106.9673550927
20
266.3473723927
30
0.0000000000
10
106.6690390359
20
266.5422262435
30
0.0000000000
10
106.1817105464
20
266.7713217111
30
0.0000000000
10
105.6187174225
20
266.8428137458
30
0.0000000000
10
105.2448512300
20
266.7462834283
30
0.0000000000
10
105.0562021478
20
266.6771909210
30
0.0000000000
11
107.1169811563
21
266.2483319101
31
0.0000000000
11
106.6600874382
21
266.5329736413
31
0.0000000000
11
106.1733438251
21
266.7445373544
31
0.0000000000
11
105.6445819711
21
266.8078409900
31
0.0000000000
11
105.0562021478
21
266.6771909210
31
0.0000000000
0
SPLINE
5
32C
100
AcDbEntity
8
DEFAULT_2
100
AcDbSpline
62
8
6
HIDDEN
70
0
71
3
72
9
73
5
74
3
42
0.0000001000
43
0.0000001000
44
0.0000000001
40
0.0000000000
40
0.0000000000
40
0.0000000000
40
0.0000000000
40
0.5304779574
40
1.0000000000
40
1.0000000000
40
1.0000000000
40
1.0000000000
10
331.4530369527
20
157.3167691988
30
0.0000000000
10
331.5986554998
20
157.1431366333
30
0.0000000000
10
331.8384635677
20
156.7802227338
30
0.0000000000
10
331.9330529272
20
156.3514300936
30
0.0000000000
10
331.9330529272
20
156.1501024973
30
0.0000000000
11
331.4530369527
21
157.3167691988
31
0.0000000000
11
331.8122157467
21
156.7395622553
31
0.0000000000
11
331.9330529272
21
156.1501024973
31
0.0000000000
0
SPLINE
5
32D
100
AcDbEntity
8
DEFAULT_2
100
AcDbSpline
62
8
6
HIDDEN
70
0
71
3
72
10
73
6
74
4
42
0.0000001000
43
0.0000001000
44
0.0000000001
40
0.0000000000
40
0.0000000000
40
0.0000000000
40
0.0000000000
40
0.4838966876
40
0.9260903729
40
1.0000000000
40
1.0000000000
40
1.0000000000
40
1.0000000000
10
331.6044893347
20
147.4001028103
30
0.0000000000
10
331.6986578809
20
147.2660017350
30
0.0000000000
10
331.8532602520
20
146.9885716071
30
0.0000000000
10
331.9284170114
20
146.6530440328
30
0.0000000000
10
331.9330105585
20
146.4774689655
30
0.0000000000
10
331.9329818730
20
146.4523185682
30
0.0000000000
11
331.6044893347
21
147.4001028103
31
0.0000000000
11
331.8370151557
21
146.9669872785
31
0.0000000000
11
331.9309936199
21
146.5277067490
31
0.0000000000
11
331.9329818730
21
146.4523185682
31
0.0000000000
0
SPLINE
5
32E
100
AcDbEntity
8
DEFAULT_2
100
AcDbSpline
62
8
6
HIDDEN
70
0
71
3
72
10
73
6
74
4
42
0.0000001000
43
0.0000001000
44
0.0000000001
40
0.0000000000
40
0.0000000000
40
0.0000000000
40
0.0000000000
40
0.0739096271
40
0.5161033124
40
1.0000000000
40
1.0000000000
40
1.0000000000
40
1.0000000000
10
331.9329818730
20
148.3478870524
30
0.0000000000
10
331.9330105585
20
148.3227366550
30
0.0000000000
10
331.9284170114
20
148.1471615878
30
0.0000000000
10
331.8532602520
20
147.8116340134
30
0.0000000000
10
331.6986578809
20
147.5342038855
30
0.0000000000
10
331.6044893347
20
147.4001028103
30
0.0000000000
11
331.9329818730
21
148.3478870524
31
0.0000000000
11
331.9309936199
21
148.2724988715
31
0.0000000000
11
331.8370151557
21
147.8332183421
31
0.0000000000
11
331.6044893347
21
147.4001028103
31
0.0000000000
0
SPLINE
5
32F
100
AcDbEntity
8
DEFAULT_2
100
AcDbSpline
62
8
6
HIDDEN
70
0
71
3
72
9
73
5
74
3
42
0.0000001000
43
0.0000001000
44
0.0000000001
40
0.0000000000
40
0.0000000000
40
0.0000000000
40
0.0000000000
40
0.4695220372
40
1.0000000000
40
1.0000000000
40
1.0000000000
40
1.0000000000
10
331.9330529272
20
152.6501026016
30
0.0000000000
10
331.9330529272
20
152.4487750227
30
0.0000000000
10
331.8384635650
20
152.0199824144
30
0.0000000000
10
331.5986554981
20
151.6570685525
30
0.0000000000
10
331.4530369527
20
151.4834360045
30
0.0000000000
11
331.9330529272
21
152.6501026016
31
0.0000000000
11
331.8122157467
21
152.0606428965
31
0.0000000000
11
331.4530369527
21
151.4834360045
31
0.0000000000
0
SPLINE
5
330
100
AcDbEntity
8
DEFAULT_2
100
AcDbSpline
62
8
6
HIDDEN
70
0
71
3
72
9
73
5
74
3
42
0.0000001000
43
0.0000001000
44
0.0000000001
40
0.0000000000
40
0.0000000000
40
0.0000000000
40
0.0000000000
40
0.4999791654
40
1.0000000000
40
1.0000000000
40
1.0000000000
40
1.0000000000
10
331.9311332010
20
124.0667691988
30
0.0000000000
10
331.9315598189
20
123.9938562293
30
0.0000000000
10
331.9322708350
20
123.8480233465
30
0.0000000000
10
331.9326974355
20
123.7021893545
30
0.0000000000
10
331.9328396368
20
123.6292691988
30
0.0000000000
11
331.9311332010
21
124.0667691988
31
0.0000000000
11
331.9321997074
21
123.8480291460
31
0.0000000000
11
331.9328396368
21
123.6292691988
31
0.0000000000
0
SPLINE
5
331
100
AcDbEntity
8
DEFAULT_2
100
AcDbSpline
62
8
6
HIDDEN
70
0
71
3
72
9
73
5
74
3
42
0.0000001000
43
0.0000001000
44
0.0000000001
40
0.0000000000
40
0.0000000000
40
0.0000000000
40
0.0000000000
40
0.4999791654
40
1.0000000000
40
1.0000000000
40
1.0000000000
40
1.0000000000
10
331.9311332010
20
125.0876036447
30
0.0000000000
10
331.9315598189
20
125.1605166142
30
0.0000000000
10
331.9322708350
20
125.3063494970
30
0.0000000000
10
331.9326974355
20
125.4521834890
30
0.0000000000
10
331.9328396368
20
125.5251036447
30
0.0000000000
11
331.9311332010
21
125.0876036447
31
0.0000000000
11
331.9321997074
21
125.3063436975
31
0.0000000000
11
331.9328396368
21
125.5251036447
31
0.0000000000
0
SPLINE
5
332
100
AcDbEntity
8
DEFAULT_2
100
AcDbSpline
62
8
6
HIDDEN
70
0
71
3
72
9
73
5
74
3
42
0.0000001000
43
0.0000001000
44
0.0000000001
40
0.0000000000
40
0.0000000000
40
0.0000000000
40
0.0000000000
40
0.5006526879
40
1.0000000000
40
1.0000000000
40
1.0000000000
40
1.0000000000
10
331.7264409842
20
123.3376036447
30
0.0000000000
10
331.7398066080
20
123.2892519581
30
0.0000000000
10
331.7652714212
20
123.1923298677
30
0.0000000000
10
331.7882291269
20
123.0947832305
30
0.0000000000
10
331.7990571422
20
123.0459347528
30
0.0000000000
11
331.7264409842
21
123.3376036447
31
0.0000000000
11
331.7646762481
21
123.1920468034
31
0.0000000000
11
331.7990571422
21
123.0459347528
31
0.0000000000
0
SPLINE
5
333
100
AcDbEntity
8
DEFAULT_2
100
AcDbSpline
62
8
6
HIDDEN
70
0
71
3
72
9
73
5
74
3
42
0.0000001000
43
0.0000001000
44
0.0000000001
40
0.0000000000
40
0.0000000000
40
0.0000000000
40
0.0000000000
40
0.4992398551
40
1.0000000000
40
1.0000000000
40
1.0000000000
40
1.0000000000
10
331.6690949816
20
123.7751036447
30
0.0000000000
10
331.6792282446
20
123.7023770117
30
0.0000000000
10
331.6989345568
20
123.5566193169
30
0.0000000000
10
331.7174597798
20
123.4107068097
30
0.0000000000
10
331.7264409842
20
123.3376036447
30
0.0000000000
11
331.6690949816
21
123.7751036447
31
0.0000000000
11
331.6986102223
21
123.5568023253
31
0.0000000000
11
331.7264409842
21
123.3376036447
31
0.0000000000
0
SPLINE
5
334
100
AcDbEntity
8
DEFAULT_2
100
AcDbSpline
62
8
6
HIDDEN
70
0
71
3
72
9
73
5
74
3
42
0.0000001000
43
0.0000001000
44
0.0000000001
40
0.0000000000
40
0.0000000000
40
0.0000000000
40
0.0000000000
40
0.4993870558
40
1.0000000000
40
1.0000000000
40
1.0000000000
40
1.0000000000
10
331.6377062439
20
124.2126036447
30
0.0000000000
10
331.6430822526
20
124.1397873149
30
0.0000000000
10
331.6536961871
20
123.9939646988
30
0.0000000000
10
331.6640081371
20
123.8481204168
30
0.0000000000
10
331.6690949816
20
123.7751036447
30
0.0000000000
11
331.6377062439
21
124.2126036447
31
0.0000000000
11
331.6536078645
21
123.9941380579
31
0.0000000000
11
331.6690949816
21
123.7751036447
31
0.0000000000
0
SPLINE
5
335
100
AcDbEntity
8
DEFAULT_2
100
AcDbSpline
62
8
6
HIDDEN
70
0
71
3
72
9
73
5
74
3
42
0.0000001000
43
0.0000001000
44
0.0000000001
40
0.0000000000
40
0.0000000000
40
0.0000000000
40
0.0000000000
40
0.4993870539
40
1.0000000000
40
1.0000000000
40
1.0000000000
40
1.0000000000
10
331.6377062440
20
125.0876036464
30
0.0000000000
10
331.6430822527
20
125.1604199756
30
0.0000000000
10
331.6536961872
20
125.3062425912
30
0.0000000000
10
331.6640081371
20
125.4520868726
30
0.0000000000
10
331.6690949816
20
125.5251036447
30
0.0000000000
11
331.6377062440
21
125.0876036464
31
0.0000000000
11
331.6536078645
21
125.3060692316
31
0.0000000000
11
331.6690949816
21
125.5251036447
31
0.0000000000
0
SPLINE
5
336
100
AcDbEntity
8
DEFAULT_2
100
AcDbSpline
62
8
6
HIDDEN
70
0
71
3
72
9
73
5
74
3
42
0.0000001000
43
0.0000001000
44
0.0000000001
40
0.0000000000
40
0.0000000000
40
0.0000000000
40
0.0000000000
40
0.4992398518
40
1.0000000000
40
1.0000000000
40
1.0000000000
40
1.0000000000
10
331.6690949820
20
125.5251036476
30
0.0000000000
10
331.6792282449
20
125.5978302797
30
0.0000000000
10
331.6989345569
20
125.7435879736
30
0.0000000000
10
331.7174597798
20
125.8895004797
30
0.0000000000
10
331.7264409842
20
125.9626036447
30
0.0000000000
11
331.6690949820
21
125.5251036476
31
0.0000000000
11
331.6986102223
21
125.7434049641
31
0.0000000000
11
331.7264409842
21
125.9626036447
31
0.0000000000
0
SPLINE
5
337
100
AcDbEntity
8
DEFAULT_2
100
AcDbSpline
62
8
6
HIDDEN
70
0
71
3
72
9
73
5
74
3
42
0.0000001000
43
0.0000001000
44
0.0000000001
40
0.0000000000
40
0.0000000000
40
0.0000000000
40
0.0000000000
40
0.5006527183
40
1.0000000000
40
1.0000000000
40
1.0000000000
40
1.0000000000
10
331.7264409855
20
125.9626036496
30
0.0000000000
10
331.7398066080
20
126.0109547780
30
0.0000000000
10
331.7652714191
20
126.1078757512
30
0.0000000000
10
331.7882291263
20
126.2054212773
30
0.0000000000
10
331.7990571422
20
126.2542691988
30
0.0000000000
11
331.7264409855
21
125.9626036496
31
0.0000000000
11
331.7646762484
21
126.1081588215
31
0.0000000000
11
331.7990571422
21
126.2542691988
31
0.0000000000
0
SPLINE
5
338
100
AcDbEntity
8
DEFAULT_2
100
AcDbSpline
62
8
6
HIDDEN
70
0
71
3
72
9
73
5
74
3
42
0.0000001000
43
0.0000001000
44
0.0000000001
40
0.0000000000
40
0.0000000000
40
0.0000000000
40
0.0000000000
40
0.5039491141
40
1.0000000000
40
1.0000000000
40
1.0000000000
40
1.0000000000
10
331.7990571422
20
126.2542691988
30
0.0000000000
10
331.8097144374
20
126.2783083301
30
0.0000000000
10
331.8297938912
20
126.3264914494
30
0.0000000000
10
331.8475946543
20
126.3755640738
30
0.0000000000
10
331.8558264890
20
126.4001036447
30
0.0000000000
11
331.7990571422
21
126.2542691988
31
0.0000000000
11
331.8293737763
21
126.3270979136
31
0.0000000000
11
331.8558264890
21
126.4001036447
31
0.0000000000
0
SPLINE
5
339
100
AcDbEntity
8
DEFAULT_2
100
AcDbSpline
62
8
6
HIDDEN
70
0
71
3
72
9
73
5
74
3
42
0.0000001000
43
0.0000001000
44
0.0000000001
40
0.0000000000
40
0.0000000000
40
0.0000000000
40
0.0000000000
40
0.5192996214
40
1.0000000000
40
1.0000000000
40
1.0000000000
40
1.0000000000
10
331.8558264890
20
126.4001036447
30
0.0000000000
10
331.8713543396
20
126.4232478428
30
0.0000000000
10
331.8981974935
20
126.4700109291
30
0.0000000000
10
331.9164369269
20
126.5208821629
30
0.0000000000
10
331.9225975988
20
126.5459347528
30
0.0000000000
11
331.8558264890
21
126.4001036447
31
0.0000000000
11
331.8969134356
21
126.4729238016
31
0.0000000000
11
331.9225975988
21
126.5459347528
31
0.0000000000
0
SPLINE
5
33A
100
AcDbEntity
8
DEFAULT_2
100
AcDbSpline
62
8
6
HIDDEN
70
0
71
3
72
9
73
5
74
3
42
0.0000001000
43
0.0000001000
44
0.0000000001
40
0.0000000000
40
0.0000000000
40
0.0000000000
40
0.0000000000
40
0.4998951022
40
1.0000000000
40
1.0000000000
40
1.0000000000
40
1.0000000000
10
331.7264409842
20
129.3167691988
30
0.0000000000
10
331.7575139661
20
129.4612953068
30
0.0000000000
10
331.8128147328
20
129.7519260978
30
0.0000000000
10
331.8541402405
20
130.0448733574
30
0.0000000000
10
331.8712657916
20
130.1917691988
30
0.0000000000
11
331.7264409842
21
129.3167691988
31
0.0000000000
11
331.8093107820
21
129.7524439989
31
0.0000000000
11
331.8712657916
21
130.1917691988
31
0.0000000000
0
SPLINE
5
33B
100
AcDbEntity
8
DEFAULT_2
100
AcDbSpline
62
8
6
HIDDEN
70
0
71
3
72
9
73
5
74
3
42
0.0000001000
43
0.0000001000
44
0.0000000001
40
0.0000000000
40
0.0000000000
40
0.0000000000
40
0.0000000000
40
0.4998951022
40
1.0000000000
40
1.0000000000
40
1.0000000000
40
1.0000000000
10
331.7264409842
20
135.4417691988
30
0.0000000000
10
331.7575139661
20
135.5862953068
30
0.0000000000
10
331.8128147328
20
135.8769260978
30
0.0000000000
10
331.8541402405
20
136.1698733574
30
0.0000000000
10
331.8712657916
20
136.3167691988
30
0.0000000000
11
331.7264409842
21
135.4417691988
31
0.0000000000
11
331.8093107820
21
135.8774439989
31
0.0000000000
11
331.8712657916
21
136.3167691988
31
0.0000000000
0
SPLINE
5
33C
100
AcDbEntity
8
DEFAULT_2
100
AcDbSpline
62
8
6
HIDDEN
70
0
71
3
72
8
73
4
74
2
42
0.0000001000
43
0.0000001000
44
0.0000000001
40
0.0000000000
40
0.0000000000
40
0.0000000000
40
0.0000000000
40
1.0000000000
40
1.0000000000
40
1.0000000000
40
1.0000000000
10
331.4530369527
20
152.3584360045
30
0.0000000000
10
331.5577818971
20
152.4837124970
30
0.0000000000
10
331.6526709758
20
152.6185669380
30
0.0000000000
10
331.7299147776
20
152.7630910622
30
0.0000000000
11
331.4530369527
21
152.3584360045
31
0.0000000000
11
331.7299147776
21
152.7630910622
31
0.0000000000
0
SPLINE
5
33D
100
AcDbEntity
8
DEFAULT_2
100
AcDbSpline
62
8
6
HIDDEN
70
0
71
3
72
9
73
5
74
3
42
0.0000001000
43
0.0000001000
44
0.0000000001
40
0.0000000000
40
0.0000000000
40
0.0000000000
40
0.0000000000
40
0.3184412966
40
1.0000000000
40
1.0000000000
40
1.0000000000
40
1.0000000000
10
331.7299147776
20
152.7630910622
30
0.0000000000
10
331.7471300356
20
152.7953010263
30
0.0000000000
10
331.7984387256
20
152.8979581374
30
0.0000000000
10
331.8402539705
20
153.0053617162
30
0.0000000000
10
331.8634665801
20
153.0801289194
30
0.0000000000
11
331.7299147776
21
152.7630910622
31
0.0000000000
11
331.7788449657
21
152.8611628683
31
0.0000000000
11
331.8634665801
21
153.0801289194
31
0.0000000000
0
SPLINE
5
33E
100
AcDbEntity
8
DEFAULT_2
100
AcDbSpline
62
8
6
HIDDEN
70
0
71
3
72
8
73
4
74
2
42
0.0000001000
43
0.0000001000
44
0.0000000001
40
0.0000000000
40
0.0000000000
40
0.0000000000
40
0.0000000000
40
1.0000000000
40
1.0000000000
40
1.0000000000
40
1.0000000000
10
331.4530369527
20
147.9834355873
30
0.0000000000
10
331.5701638249
20
148.1230952771
30
0.0000000000
10
331.6753829121
20
148.2749730378
30
0.0000000000
10
331.7570065672
20
148.4388885419
30
0.0000000000
11
331.4530369527
21
147.9834355873
31
0.0000000000
11
331.7570065672
21
148.4388885419
31
0.0000000000
0
SPLINE
5
33F
100
AcDbEntity
8
DEFAULT_2
100
AcDbSpline
62
8
6
HIDDEN
70
0
71
3
72
8
73
4
74
2
42
0.0000001000
43
0.0000001000
44
0.0000000001
40
0.0000000000
40
0.0000000000
40
0.0000000000
40
0.0000000000
40
1.0000000000
40
1.0000000000
40
1.0000000000
40
1.0000000000
10
331.7570065672
20
148.4388885419
30
0.0000000000
10
331.7768619151
20
148.4787617789
30
0.0000000000
10
331.7953210526
20
148.5193473243
30
0.0000000000
10
331.8122157466
20
148.5606425823
30
0.0000000000
11
331.7570065672
21
148.4388885419
31
0.0000000000
11
331.8122157466
21
148.5606425823
31
0.0000000000
0
SPLINE
5
340
100
AcDbEntity
8
DEFAULT_2
100
AcDbSpline
62
8
6
HIDDEN
70
0
71
3
72
8
73
4
74
2
42
0.0000001000
43
0.0000001000
44
0.0000000001
40
0.0000000000
40
0.0000000000
40
0.0000000000
40
0.0000000000
40
1.0000000000
40
1.0000000000
40
1.0000000000
40
1.0000000000
10
331.8122157466
20
148.5606425823
30
0.0000000000
10
331.8154317286
20
148.5685033227
30
0.0000000000
10
331.8185910231
20
148.5763897795
30
0.0000000000
10
331.8216927065
20
148.5843008704
30
0.0000000000
11
331.8122157466
21
148.5606425823
31
0.0000000000
11
331.8216927065
21
148.5843008704
31
0.0000000000
0
SPLINE
5
341
100
AcDbEntity
8
DEFAULT_2
100
AcDbSpline
62
8
6
HIDDEN
70
0
71
3
72
8
73
4
74
2
42
0.0000001000
43
0.0000001000
44
0.0000000001
40
0.0000000000
40
0.0000000000
40
0.0000000000
40
0.0000000000
40
1.0000000000
40
1.0000000000
40
1.0000000000
40
1.0000000000
10
331.8216927065
20
148.5843008704
30
0.0000000000
10
331.8379521121
20
148.6257717819
30
0.0000000000
10
331.8526283703
20
148.6679196374
30
0.0000000000
10
331.8655884028
20
148.7105885510
30
0.0000000000
11
331.8216927065
21
148.5843008704
31
0.0000000000
11
331.8655884028
21
148.7105885510
31
0.0000000000
0
SPLINE
5
342
100
AcDbEntity
8
DEFAULT_2
100
AcDbSpline
62
8
6
HIDDEN
70
0
71
3
72
8
73
4
74
2
42
0.0000001000
43
0.0000001000
44
0.0000000001
40
0.0000000000
40
0.0000000000
40
0.0000000000
40
0.0000000000
40
1.0000000000
40
1.0000000000
40
1.0000000000
40
1.0000000000
10
331.8655884028
20
148.7105885510
30
0.0000000000
10
331.8663324786
20
148.7130383063
30
0.0000000000
10
331.8670708974
20
148.7154897791
30
0.0000000000
10
331.8678036337
20
148.7179429400
30
0.0000000000
11
331.8655884028
21
148.7105885510
31
0.0000000000
11
331.8678036337
21
148.7179429400
31
0.0000000000
0
SPLINE
5
343
100
AcDbEntity
8
DEFAULT_2
100
AcDbSpline
62
8
6
HIDDEN
70
0
71
3
72
8
73
4
74
2
42
0.0000001000
43
0.0000001000
44
0.0000000001
40
0.0000000000
40
0.0000000000
40
0.0000000000
40
0.0000000000
40
1.0000000000
40
1.0000000000
40
1.0000000000
40
1.0000000000
10
331.8678034045
20
146.0822626134
30
0.0000000000
10
331.8670706597
20
146.0847157982
30
0.0000000000
10
331.8663322325
20
146.0871672948
30
0.0000000000
10
331.8655881480
20
146.0896170739
30
0.0000000000
11
331.8678034045
21
146.0822626134
31
0.0000000000
11
331.8655881480
21
146.0896170739
31
0.0000000000
0
SPLINE
5
344
100
AcDbEntity
8
DEFAULT_2
100
AcDbSpline
62
8
6
HIDDEN
70
0
71
3
72
8
73
4
74
2
42
0.0000001000
43
0.0000001000
44
0.0000000001
40
0.0000000000
40
0.0000000000
40
0.0000000000
40
0.0000000000
40
1.0000000000
40
1.0000000000
40
1.0000000000
40
1.0000000000
10
331.8655881480
20
146.0896170739
30
0.0000000000
10
331.8526281779
20
146.1322857011
30
0.0000000000
10
331.8379520055
20
146.1744332759
30
0.0000000000
10
331.8216927065
20
146.2159039156
30
0.0000000000
11
331.8655881480
21
146.0896170739
31
0.0000000000
11
331.8216927065
21
146.2159039156
31
0.0000000000
0
SPLINE
5
345
100
AcDbEntity
8
DEFAULT_2
100
AcDbSpline
62
8
6
HIDDEN
70
0
71
3
72
8
73
4
74
2
42
0.0000001000
43
0.0000001000
44
0.0000000001
40
0.0000000000
40
0.0000000000
40
0.0000000000
40
0.0000000000
40
1.0000000000
40
1.0000000000
40
1.0000000000
40
1.0000000000
10
331.8216927065
20
146.2159039156
30
0.0000000000
10
331.8185910231
20
146.2238150066
30
0.0000000000
10
331.8154317286
20
146.2317014633
30
0.0000000000
10
331.8122157466
20
146.2395622038
30
0.0000000000
11
331.8216927065
21
146.2159039156
31
0.0000000000
11
331.8122157466
21
146.2395622038
31
0.0000000000
0
SPLINE
5
346
100
AcDbEntity
8
DEFAULT_2
100
AcDbSpline
62
8
6
HIDDEN
70
0
71
3
72
8
73
4
74
2
42
0.0000001000
43
0.0000001000
44
0.0000000001
40
0.0000000000
40
0.0000000000
40
0.0000000000
40
0.0000000000
40
1.0000000000
40
1.0000000000
40
1.0000000000
40
1.0000000000
10
331.8122157466
20
146.2395622038
30
0.0000000000
10
331.7953209585
20
146.2808576917
30
0.0000000000
10
331.7768617095
20
146.3214434591
30
0.0000000000
10
331.7570062356
20
146.3613169102
30
0.0000000000
11
331.8122157466
21
146.2395622038
31
0.0000000000
11
331.7570062356
21
146.3613169102
31
0.0000000000
0
SPLINE
5
347
100
AcDbEntity
8
DEFAULT_2
100
AcDbSpline
62
8
6
HIDDEN
70
0
71
3
72
8
73
4
74
2
42
0.0000001000
43
0.0000001000
44
0.0000000001
40
0.0000000000
40
0.0000000000
40
0.0000000000
40
0.0000000000
40
1.0000000000
40
1.0000000000
40
1.0000000000
40
1.0000000000
10
331.7570062356
20
146.3613169102
30
0.0000000000
10
331.6753826270
20
146.5252321597
30
0.0000000000
10
331.5701636663
20
146.6771096981
30
0.0000000000
10
331.4530369527
20
146.8167691988
30
0.0000000000
11
331.7570062356
21
146.3613169102
31
0.0000000000
11
331.4530369527
21
146.8167691988
31
0.0000000000
0
SPLINE
5
348
100
AcDbEntity
8
DEFAULT_2
100
AcDbSpline
62
8
6
HIDDEN
70
0
71
3
72
9
73
5
74
3
42
0.0000001000
43
0.0000001000
44
0.0000000001
40
0.0000000000
40
0.0000000000
40
0.0000000000
40
0.0000000000
40
0.6815589480
40
1.0000000000
40
1.0000000000
40
1.0000000000
40
1.0000000000
10
331.8634666005
20
155.7200762182
30
0.0000000000
10
331.8402539872
20
155.7948434442
30
0.0000000000
10
331.7984387469
20
155.9022470169
30
0.0000000000
10
331.7471300629
20
156.0049041224
30
0.0000000000
10
331.7299148207
20
156.0371140605
30
0.0000000000
11
331.8634666005
21
155.7200762182
31
0.0000000000
11
331.7788449657
21
155.9390423350
31
0.0000000000
11
331.7299148207
21
156.0371140605
31
0.0000000000
0
SPLINE
5
349
100
AcDbEntity
8
DEFAULT_2
100
AcDbSpline
62
8
6
HIDDEN
70
0
71
3
72
8
73
4
74
2
42
0.0000001000
43
0.0000001000
44
0.0000000001
40
0.0000000000
40
0.0000000000
40
0.0000000000
40
0.0000000000
40
1.0000000000
40
1.0000000000
40
1.0000000000
40
1.0000000000
10
331.7299148207
20
156.0371140605
30
0.0000000000
10
331.6526710110
20
156.1816382152
30
0.0000000000
10
331.5577819166
20
156.3164926830
30
0.0000000000
10
331.4530369527
20
156.4417691988
30
0.0000000000
11
331.7299148207
21
156.0371140605
31
0.0000000000
11
331.4530369527
21
156.4417691988
31
0.0000000000
0
SPLINE
5
34A
100
AcDbEntity
8
DEFAULT_2
100
AcDbSpline
62
8
6
HIDDEN
70
0
71
3
72
8
73
4
74
2
42
0.0000001000
43
0.0000001000
44
0.0000000001
40
0.0000000000
40
0.0000000000
40
0.0000000000
40
0.0000000000
40
1.0000000000
40
1.0000000000
40
1.0000000000
40
1.0000000000
10
331.7264409842
20
126.8376036447
30
0.0000000000
10
331.7414187995
20
126.8701136396
30
0.0000000000
10
331.7557110238
20
126.9029470959
30
0.0000000000
10
331.7692692227
20
126.9360830837
30
0.0000000000
11
331.7264409842
21
126.8376036447
31
0.0000000000
11
331.7692692227
21
126.9360830837
31
0.0000000000
0
SPLINE
5
34B
100
AcDbEntity
8
DEFAULT_2
100
AcDbSpline
62
8
6
HIDDEN
70
0
71
3
72
9
73
5
74
3
42
0.0000001000
43
0.0000001000
44
0.0000000001
40
0.0000000000
40
0.0000000000
40
0.0000000000
40
0.0000000000
40
0.2462075429
40
1.0000000000
40
1.0000000000
40
1.0000000000
40
1.0000000000
10
331.7692692227
20
126.9360830837
30
0.0000000000
10
331.7756509739
20
126.9516799658
30
0.0000000000
10
331.8009106648
20
127.0153007160
30
0.0000000000
10
331.8234042589
20
127.0799911761
30
0.0000000000
10
331.8386500455
20
127.1292691988
30
0.0000000000
11
331.7692692227
21
126.9360830837
31
0.0000000000
11
331.7879215511
21
126.9830726268
31
0.0000000000
11
331.8386500455
21
127.1292691988
31
0.0000000000
0
SPLINE
5
34C
100
AcDbEntity
8
DEFAULT_2
100
AcDbSpline
62
8
6
HIDDEN
70
0
71
3
72
8
73
4
74
2
42
0.0000001000
43
0.0000001000
44
0.0000000001
40
0.0000000000
40
0.0000000000
40
0.0000000000
40
0.0000000000
40
1.0000000000
40
1.0000000000
40
1.0000000000
40
1.0000000000
10
331.6044893347
20
126.4001036447
30
0.0000000000
10
331.6196072684
20
126.4485433416
30
0.0000000000
10
331.6342317407
20
126.4971391672
30
0.0000000000
10
331.6483552991
20
126.5458808273
30
0.0000000000
11
331.6044893347
21
126.4001036447
31
0.0000000000
11
331.6483552991
21
126.5458808273
31
0.0000000000
0
SPLINE
5
34D
100
AcDbEntity
8
DEFAULT_2
100
AcDbSpline
62
8
6
HIDDEN
70
0
71
3
72
9
73
5
74
3
42
0.0000001000
43
0.0000001000
44
0.0000000001
40
0.0000000000
40
0.0000000000
40
0.0000000000
40
0.0000000000
40
0.2486637950
40
1.0000000000
40
1.0000000000
40
1.0000000000
40
1.0000000000
10
331.6483552991
20
126.5458808273
30
0.0000000000
10
331.6553225007
20
126.5699252613
30
0.0000000000
10
331.6828508547
20
126.6667625293
30
0.0000000000
10
331.7083933788
20
126.7641537480
30
0.0000000000
10
331.7264409842
20
126.8376036447
30
0.0000000000
11
331.6483552991
21
126.5458808273
31
0.0000000000
11
331.6688903195
21
126.6181193592
31
0.0000000000
11
331.7264409842
21
126.8376036447
31
0.0000000000
0
SPLINE
5
34E
100
AcDbEntity
8
DEFAULT_2
100
AcDbSpline
62
8
6
HIDDEN
70
0
71
3
72
9
73
5
74
3
42
0.0000001000
43
0.0000001000
44
0.0000000001
40
0.0000000000
40
0.0000000000
40
0.0000000000
40
0.0000000000
40
0.4983697093
40
1.0000000000
40
1.0000000000
40
1.0000000000
40
1.0000000000
10
331.4937205484
20
125.6709347528
30
0.0000000000
10
331.5134882235
20
125.7918531451
30
0.0000000000
10
331.5517807918
20
126.0347072953
30
0.0000000000
10
331.5873374259
20
126.2779770494
30
0.0000000000
10
331.6044893347
20
126.4001036447
30
0.0000000000
11
331.4937205484
21
125.6709347528
31
0.0000000000
11
331.5509764053
21
126.0340186741
31
0.0000000000
11
331.6044893347
21
126.4001036447
31
0.0000000000
0
SPLINE
5
34F
100
AcDbEntity
8
DEFAULT_2
100
AcDbSpline
62
8
6
HIDDEN
70
0
71
3
72
9
73
5
74
3
42
0.0000001000
43
0.0000001000
44
0.0000000001
40
0.0000000000
40
0.0000000000
40
0.0000000000
40
0.0000000000
40
0.4994191813
40
1.0000000000
40
1.0000000000
40
1.0000000000
40
1.0000000000
10
331.4530369527
20
124.9417691988
30
0.0000000000
10
331.4599676440
20
125.0631467289
30
0.0000000000
10
331.4736866930
20
125.3061931838
30
0.0000000000
10
331.4870899271
20
125.5492572590
30
0.0000000000
10
331.4937205484
20
125.6709347528
30
0.0000000000
11
331.4530369527
21
124.9417691988
31
0.0000000000
11
331.4735919860
21
125.3059152468
31
0.0000000000
11
331.4937205484
21
125.6709347528
31
0.0000000000
0
SPLINE
5
350
100
AcDbEntity
8
DEFAULT_2
100
AcDbSpline
62
8
6
HIDDEN
70
0
71
3
72
8
73
4
74
2
42
0.0000001000
43
0.0000001000
44
0.0000000001
40
0.0000000000
40
0.0000000000
40
0.0000000000
40
0.0000000000
40
1.0000000000
40
1.0000000000
40
1.0000000000
40
1.0000000000
10
331.4530369527
20
124.3584347528
30
0.0000000000
10
331.4565002841
20
124.2977812635
30
0.0000000000
10
331.4599438547
20
124.2371266426
30
0.0000000000
10
331.4633677101
20
124.1764709072
30
0.0000000000
11
331.4530369527
21
124.3584347528
31
0.0000000000
11
331.4633677101
21
124.1764709072
31
0.0000000000
0
SPLINE
5
351
100
AcDbEntity
8
DEFAULT_2
100
AcDbSpline
62
8
6
HIDDEN
70
0
71
3
72
9
73
5
74
3
42
0.0000001000
43
0.0000001000
44
0.0000000001
40
0.0000000000
40
0.0000000000
40
0.0000000000
40
0.0000000000
40
0.3329462928
40
1.0000000000
40
1.0000000000
40
1.0000000000
40
1.0000000000
10
331.4633677101
20
124.1764709072
30
0.0000000000
10
331.4667955480
20
124.1157446178
30
0.0000000000
10
331.4770316637
20
123.9333506166
30
0.0000000000
10
331.4870899271
20
123.7509466926
30
0.0000000000
10
331.4937205484
20
123.6292691988
30
0.0000000000
11
331.4633677101
21
124.1764709072
31
0.0000000000
11
331.4735919860
21
123.9942887048
31
0.0000000000
11
331.4937205484
21
123.6292691988
31
0.0000000000
0
SPLINE
5
352
100
AcDbEntity
8
DEFAULT_2
100
AcDbSpline
62
8
6
HIDDEN
70
0
71
3
72
8
73
4
74
2
42
0.0000001000
43
0.0000001000
44
0.0000000001
40
0.0000000000
40
0.0000000000
40
0.0000000000
40
0.0000000000
40
1.0000000000
40
1.0000000000
40
1.0000000000
40
1.0000000000
10
331.4937205484
20
123.6292691988
30
0.0000000000
10
331.5035883972
20
123.5689080817
30
0.0000000000
10
331.5132858440
20
123.5085188655
30
0.0000000000
10
331.5228134222
20
123.4481027366
30
0.0000000000
11
331.4937205484
21
123.6292691988
31
0.0000000000
11
331.5228134222
21
123.4481027366
31
0.0000000000
0
SPLINE
5
353
100
AcDbEntity
8
DEFAULT_2
100
AcDbSpline
62
8
6
HIDDEN
70
0
71
3
72
9
73
5
74
3
42
0.0000001000
43
0.0000001000
44
0.0000000001
40
0.0000000000
40
0.0000000000
40
0.0000000000
40
0.0000000000
40
0.3322442690
40
1.0000000000
40
1.0000000000
40
1.0000000000
40
1.0000000000
10
331.5228134222
20
123.4481027366
30
0.0000000000
10
331.5323718751
20
123.3874908252
30
0.0000000000
10
331.5606266336
20
123.2049775223
30
0.0000000000
10
331.5873374258
20
123.0222296812
30
0.0000000000
10
331.6044893347
20
122.9001036447
30
0.0000000000
11
331.5228134222
21
123.4481027366
31
0.0000000000
11
331.5509764056
21
123.2661869376
31
0.0000000000
11
331.6044893347
21
122.9001036447
31
0.0000000000
0
SPLINE
5
354
100
AcDbEntity
8
DEFAULT_2
100
AcDbSpline
62
8
6
HIDDEN
70
0
71
3
72
8
73
4
74
2
42
0.0000001000
43
0.0000001000
44
0.0000000001
40
0.0000000000
40
0.0000000000
40
0.0000000000
40
0.0000000000
40
1.0000000000
40
1.0000000000
40
1.0000000000
40
1.0000000000
10
331.6044893347
20
122.9001036447
30
0.0000000000
10
331.6196076132
20
122.8516628429
30
0.0000000000
10
331.6342324079
20
122.8030659052
30
0.0000000000
10
331.6483562657
20
122.7543231266
30
0.0000000000
11
331.6044893347
21
122.9001036447
31
0.0000000000
11
331.6483562657
21
122.7543231266
31
0.0000000000
0
SPLINE
5
355
100
AcDbEntity
8
DEFAULT_2
100
AcDbSpline
62
8
6
HIDDEN
70
0
71
3
72
8
73
4
74
2
42
0.0000001000
43
0.0000001000
44
0.0000000001
40
0.0000000000
40
0.0000000000
40
0.0000000000
40
0.0000000000
40
1.0000000000
40
1.0000000000
40
1.0000000000
40
1.0000000000
10
331.6483562657
20
122.7543231266
30
0.0000000000
10
331.6553231338
20
122.7302798012
30
0.0000000000
10
331.6621681165
20
122.7062009905
30
0.0000000000
10
331.6688903195
20
122.6820879302
30
0.0000000000
11
331.6483562657
21
122.7543231266
31
0.0000000000
11
331.6688903195
21
122.6820879302
31
0.0000000000
0
SPLINE
5
356
100
AcDbEntity
8
DEFAULT_2
100
AcDbSpline
62
8
6
HIDDEN
70
0
71
3
72
8
73
4
74
2
42
0.0000001000
43
0.0000001000
44
0.0000000001
40
0.0000000000
40
0.0000000000
40
0.0000000000
40
0.0000000000
40
1.0000000000
40
1.0000000000
40
1.0000000000
40
1.0000000000
10
331.6688903195
20
122.6820879302
30
0.0000000000
10
331.6790497313
20
122.6456453367
30
0.0000000000
10
331.6889287025
20
122.6091245139
30
0.0000000000
10
331.6985244297
20
122.5725300112
30
0.0000000000
11
331.6688903195
21
122.6820879302
31
0.0000000000
11
331.6985244297
21
122.5725300112
31
0.0000000000
0
SPLINE
5
357
100
AcDbEntity
8
DEFAULT_2
100
AcDbSpline
62
8
6
HIDDEN
70
0
71
3
72
8
73
4
74
2
42
0.0000001000
43
0.0000001000
44
0.0000000001
40
0.0000000000
40
0.0000000000
40
0.0000000000
40
0.0000000000
40
1.0000000000
40
1.0000000000
40
1.0000000000
40
1.0000000000
10
331.6985244297
20
122.5725300112
30
0.0000000000
10
331.7081137461
20
122.5359599569
30
0.0000000000
10
331.7174201968
20
122.4993163213
30
0.0000000000
10
331.7264409842
20
122.4626036447
30
0.0000000000
11
331.6985244297
21
122.5725300112
31
0.0000000000
11
331.7264409842
21
122.4626036447
31
0.0000000000
0
SPLINE
5
358
100
AcDbEntity
8
DEFAULT_2
100
AcDbSpline
62
8
6
HIDDEN
70
0
71
3
72
9
73
5
74
3
42
0.0000001000
43
0.0000001000
44
0.0000000001
40
0.0000000000
40
0.0000000000
40
0.0000000000
40
0.0000000000
40
0.6194012545
40
1.0000000000
40
1.0000000000
40
1.0000000000
40
1.0000000000
10
331.7264409842
20
122.4626036447
30
0.0000000000
10
331.7397042901
20
122.4386128749
30
0.0000000000
10
331.7603112058
20
122.3994286736
30
0.0000000000
10
331.7795016943
20
122.3595373276
30
0.0000000000
10
331.7865898734
20
122.3442556514
30
0.0000000000
11
331.7264409842
21
122.4626036447
31
0.0000000000
11
331.7646887655
21
122.3898000863
31
0.0000000000
11
331.7865898734
21
122.3442556514
31
0.0000000000
0
SPLINE
5
359
100
AcDbEntity
8
DEFAULT_2
100
AcDbSpline
62
8
6
HIDDEN
70
0
71
3
72
8
73
4
74
2
42
0.0000001000
43
0.0000001000
44
0.0000000001
40
0.0000000000
40
0.0000000000
40
0.0000000000
40
0.0000000000
40
1.0000000000
40
1.0000000000
40
1.0000000000
40
1.0000000000
10
331.7865898734
20
122.3442556514
30
0.0000000000
10
331.7908233185
20
122.3351286054
30
0.0000000000
10
331.7949798218
20
122.3259662164
30
0.0000000000
10
331.7990571422
20
122.3167691988
30
0.0000000000
11
331.7865898734
21
122.3442556514
31
0.0000000000
11
331.7990571422
21
122.3167691988
31
0.0000000000
0
SPLINE
5
35A
100
AcDbEntity
8
DEFAULT_2
100
AcDbSpline
62
8
6
HIDDEN
70
0
71
3
72
8
73
4
74
2
42
0.0000001000
43
0.0000001000
44
0.0000000001
40
0.0000000000
40
0.0000000000
40
0.0000000000
40
0.0000000000
40
1.0000000000
40
1.0000000000
40
1.0000000000
40
1.0000000000
10
331.9249189622
20
126.1987268487
30
0.0000000000
10
331.9241907346
20
126.1685053822
30
0.0000000000
10
331.9234135910
20
126.1382850745
30
0.0000000000
10
331.9225875238
20
126.1080661039
30
0.0000000000
11
331.9249189622
21
126.1987268487
31
0.0000000000
11
331.9225875238
21
126.1080661039
31
0.0000000000
0
SPLINE
5
35B
100
AcDbEntity
8
DEFAULT_2
100
AcDbSpline
62
8
6
HIDDEN
70
0
71
3
72
8
73
4
74
2
42
0.0000001000
43
0.0000001000
44
0.0000000001
40
0.0000000000
40
0.0000000000
40
0.0000000000
40
0.0000000000
40
1.0000000000
40
1.0000000000
40
1.0000000000
40
1.0000000000
10
331.9225875238
20
126.1080661039
30
0.0000000000
10
331.9205948749
20
126.0351715502
30
0.0000000000
10
331.9183175507
20
125.9622847765
30
0.0000000000
10
331.9157553747
20
125.8894082973
30
0.0000000000
11
331.9225875238
21
126.1080661039
31
0.0000000000
11
331.9157553747
21
125.8894082973
31
0.0000000000
0
SPLINE
5
35C
100
AcDbEntity
8
DEFAULT_2
100
AcDbSpline
62
8
6
HIDDEN
70
0
71
3
72
8
73
4
74
2
42
0.0000001000
43
0.0000001000
44
0.0000000001
40
0.0000000000
40
0.0000000000
40
0.0000000000
40
0.0000000000
40
1.0000000000
40
1.0000000000
40
1.0000000000
40
1.0000000000
10
331.9157553747
20
125.8894082973
30
0.0000000000
10
331.9131946348
20
125.8165726627
30
0.0000000000
10
331.9103493624
20
125.7437473111
30
0.0000000000
10
331.9072193813
20
125.6709347528
30
0.0000000000
11
331.9157553747
21
125.8894082973
31
0.0000000000
11
331.9072193813
21
125.6709347528
31
0.0000000000
0
SPLINE
5
35D
100
AcDbEntity
8
DEFAULT_2
100
AcDbSpline
62
8
6
HIDDEN
70
0
71
3
72
9
73
5
74
3
42
0.0000001000
43
0.0000001000
44
0.0000000001
40
0.0000000000
40
0.0000000000
40
0.0000000000
40
0.0000000000
40
0.6665719693
40
1.0000000000
40
1.0000000000
40
1.0000000000
40
1.0000000000
10
331.8969571019
20
124.9417691988
30
0.0000000000
10
331.8988101883
20
125.0632601766
30
0.0000000000
10
331.9014827512
20
125.2455241878
30
0.0000000000
10
331.9039942861
20
125.4277904653
30
0.0000000000
10
331.9048138097
20
125.4885633912
30
0.0000000000
11
331.8969571019
21
124.9417691988
31
0.0000000000
11
331.9023015517
21
125.3062453453
31
0.0000000000
11
331.9048138097
21
125.4885633912
31
0.0000000000
0
SPLINE
5
35E
100
AcDbEntity
8
DEFAULT_2
100
AcDbSpline
62
8
6
HIDDEN
70
0
71
3
72
8
73
4
74
2
42
0.0000001000
43
0.0000001000
44
0.0000000001
40
0.0000000000
40
0.0000000000
40
0.0000000000
40
0.0000000000
40
1.0000000000
40
1.0000000000
40
1.0000000000
40
1.0000000000
10
331.9048138097
20
125.4885633912
30
0.0000000000
10
331.9054712632
20
125.5373177834
30
0.0000000000
10
331.9061172013
20
125.5860723300
30
0.0000000000
10
331.9067516290
20
125.6348270249
30
0.0000000000
11
331.9048138097
21
125.4885633912
31
0.0000000000
11
331.9067516290
21
125.6348270249
31
0.0000000000
0
SPLINE
5
35F
100
AcDbEntity
8
DEFAULT_2
100
AcDbSpline
62
8
6
HIDDEN
70
0
71
3
72
8
73
4
74
2
42
0.0000001000
43
0.0000001000
44
0.0000000001
40
0.0000000000
40
0.0000000000
40
0.0000000000
40
0.0000000000
40
1.0000000000
40
1.0000000000
40
1.0000000000
40
1.0000000000
10
331.9067516290
20
125.6348270249
30
0.0000000000
10
331.9069082479
20
125.6468629252
30
0.0000000000
10
331.9070641653
20
125.6588988345
30
0.0000000000
10
331.9072193813
20
125.6709347528
30
0.0000000000
11
331.9067516290
21
125.6348270249
31
0.0000000000
11
331.9072193813
21
125.6709347528
31
0.0000000000
0
SPLINE
5
360
100
AcDbEntity
8
DEFAULT_2
100
AcDbSpline
62
8
6
HIDDEN
70
0
71
3
72
9
73
5
74
3
42
0.0000001000
43
0.0000001000
44
0.0000000001
40
0.0000000000
40
0.0000000000
40
0.0000000000
40
0.0000000000
40
0.6665719692
40
1.0000000000
40
1.0000000000
40
1.0000000000
40
1.0000000000
10
331.8969571019
20
124.2126036447
30
0.0000000000
10
331.8988101883
20
124.0911121108
30
0.0000000000
10
331.9014827512
20
123.9088472652
30
0.0000000000
10
331.9039942861
20
123.7265801534
30
0.0000000000
10
331.9048138097
20
123.6658069493
30
0.0000000000
11
331.8969571019
21
124.2126036447
31
0.0000000000
11
331.9023015517
21
123.8481258298
31
0.0000000000
11
331.9048138097
21
123.6658069493
31
0.0000000000
0
SPLINE
5
361
100
AcDbEntity
8
DEFAULT_2
100
AcDbSpline
62
8
6
HIDDEN
70
0
71
3
72
8
73
4
74
2
42
0.0000001000
43
0.0000001000
44
0.0000000001
40
0.0000000000
40
0.0000000000
40
0.0000000000
40
0.0000000000
40
1.0000000000
40
1.0000000000
40
1.0000000000
40
1.0000000000
10
331.9048138097
20
123.6658069493
30
0.0000000000
10
331.9054712490
20
123.6170533918
30
0.0000000000
10
331.9061171733
20
123.5682996799
30
0.0000000000
10
331.9067515877
20
123.5195458197
30
0.0000000000
11
331.9048138097
21
123.6658069493
31
0.0000000000
11
331.9067515877
21
123.5195458197
31
0.0000000000
0
SPLINE
5
362
100
AcDbEntity
8
DEFAULT_2
100
AcDbSpline
62
8
6
HIDDEN
70
0
71
3
72
8
73
4
74
2
42
0.0000001000
43
0.0000001000
44
0.0000000001
40
0.0000000000
40
0.0000000000
40
0.0000000000
40
0.0000000000
40
1.0000000000
40
1.0000000000
40
1.0000000000
40
1.0000000000
10
331.9067515877
20
123.5195458197
30
0.0000000000
10
331.9069082205
20
123.5075088064
30
0.0000000000
10
331.9070641517
20
123.4954717841
30
0.0000000000
10
331.9072193813
20
123.4834347528
30
0.0000000000
11
331.9067515877
21
123.5195458197
31
0.0000000000
11
331.9072193813
21
123.4834347528
31
0.0000000000
0
SPLINE
5
363
100
AcDbEntity
8
DEFAULT_2
100
AcDbSpline
62
8
6
HIDDEN
70
0
71
3
72
8
73
4
74
2
42
0.0000001000
43
0.0000001000
44
0.0000000001
40
0.0000000000
40
0.0000000000
40
0.0000000000
40
0.0000000000
40
1.0000000000
40
1.0000000000
40
1.0000000000
40
1.0000000000
10
331.9240337223
20
122.9367644398
30
0.0000000000
10
331.9226454226
20
122.9975547554
30
0.0000000000
10
331.9210967619
20
123.0583415143
30
0.0000000000
10
331.9193876641
20
123.1191237628
30
0.0000000000
11
331.9240337223
21
122.9367644398
31
0.0000000000
11
331.9193876641
21
123.1191237628
31
0.0000000000
0
SPLINE
5
364
100
AcDbEntity
8
DEFAULT_2
100
AcDbSpline
62
8
6
HIDDEN
70
0
71
3
72
8
73
4
74
2
42
0.0000001000
43
0.0000001000
44
0.0000000001
40
0.0000000000
40
0.0000000000
40
0.0000000000
40
0.0000000000
40
1.0000000000
40
1.0000000000
40
1.0000000000
40
1.0000000000
10
331.9193876641
20
123.1191237628
30
0.0000000000
10
331.9176795865
20
123.1798697290
30
0.0000000000
10
331.9158112632
20
123.2406111900
30
0.0000000000
10
331.9137825871
20
123.3013471887
30
0.0000000000
11
331.9193876641
21
123.1191237628
31
0.0000000000
11
331.9137825871
21
123.3013471887
31
0.0000000000
0
SPLINE
5
365
100
AcDbEntity
8
DEFAULT_2
100
AcDbSpline
62
8
6
HIDDEN
70
0
71
3
72
8
73
4
74
2
42
0.0000001000
43
0.0000001000
44
0.0000000001
40
0.0000000000
40
0.0000000000
40
0.0000000000
40
0.0000000000
40
1.0000000000
40
1.0000000000
40
1.0000000000
40
1.0000000000
10
331.9137825871
20
123.3013471887
30
0.0000000000
10
331.9117550589
20
123.3620488181
30
0.0000000000
10
331.9095673594
20
123.4227449914
30
0.0000000000
10
331.9072193813
20
123.4834347528
30
0.0000000000
11
331.9137825871
21
123.3013471887
31
0.0000000000
11
331.9072193813
21
123.4834347528
31
0.0000000000
0
SPLINE
5
366
100
AcDbEntity
8
DEFAULT_2
100
AcDbSpline
62
8
6
HIDDEN
70
0
71
3
72
9
73
5
74
3
42
0.0000001000
43
0.0000001000
44
0.0000000001
40
0.0000000000
40
0.0000000000
40
0.0000000000
40
0.0000000000
40
0.4997969574
40
1.0000000000
40
1.0000000000
40
1.0000000000
40
1.0000000000
10
331.4530369527
20
129.3167691988
30
0.0000000000
10
331.5008983335
20
129.4604606186
30
0.0000000000
10
331.5898520456
20
129.7502739287
30
0.0000000000
10
331.6647823776
20
130.0440298345
30
0.0000000000
10
331.6986690334
20
130.1917691988
30
0.0000000000
11
331.4530369527
21
129.3167691988
31
0.0000000000
11
331.5863129245
21
129.7511410884
31
0.0000000000
11
331.6986690334
21
130.1917691988
31
0.0000000000
0
SPLINE
5
367
100
AcDbEntity
8
DEFAULT_2
100
AcDbSpline
62
8
6
HIDDEN
70
0
71
3
72
9
73
5
74
3
42
0.0000001000
43
0.0000001000
44
0.0000000001
40
0.0000000000
40
0.0000000000
40
0.0000000000
40
0.0000000000
40
0.4997969574
40
1.0000000000
40
1.0000000000
40
1.0000000000
40
1.0000000000
10
331.4530369527
20
135.4417691988
30
0.0000000000
10
331.5008983335
20
135.5854606186
30
0.0000000000
10
331.5898520456
20
135.8752739287
30
0.0000000000
10
331.6647823776
20
136.1690298345
30
0.0000000000
10
331.6986690334
20
136.3167691988
30
0.0000000000
11
331.4530369527
21
135.4417691988
31
0.0000000000
11
331.5863129245
21
135.8761410884
31
0.0000000000
11
331.6986690334
21
136.3167691988
31
0.0000000000
0
SPLINE
5
368
100
AcDbEntity
8
0
100
AcDbSpline
62
7
6
CONTINUOUS
70
0
71
3
72
8
73
4
74
2
42
0.0000001000
43
0.0000001000
44
0.0000000001
40
0.0000000000
40
0.0000000000
40
0.0000000000
40
0.0000000000
40
1.0000000000
40
1.0000000000
40
1.0000000000
40
1.0000000000
10
331.4530369527
20
153.8167691988
30
0.0000000000
10
331.5556620488
20
153.6944011524
30
0.0000000000
10
331.6491454873
20
153.5626532385
30
0.0000000000
10
331.7256255351
20
153.4216467533
30
0.0000000000
11
331.4530369527
21
153.8167691988
31
0.0000000000
11
331.7256255351
21
153.4216467533
31
0.0000000000
0
SPLINE
5
369
100
AcDbEntity
8
0
100
AcDbSpline
62
7
6
CONTINUOUS
70
0
71
3
72
9
73
5
74
3
42
0.0000001000
43
0.0000001000
44
0.0000000001
40
0.0000000000
40
0.0000000000
40
0.0000000000
40
0.0000000000
40
0.2501374126
40
1.0000000000
40
1.0000000000
40
1.0000000000
40
1.0000000000
10
331.7256255351
20
153.4216467533
30
0.0000000000
10
331.7576658565
20
153.3625739202
30
0.0000000000
10
331.8738263559
20
153.1199161437
30
0.0000000000
10
331.9330529272
20
152.8514301806
30
0.0000000000
10
331.9330529272
20
152.6501026016
30
0.0000000000
11
331.7256255351
21
153.4216467533
31
0.0000000000
11
331.8122157467
21
153.2395623067
31
0.0000000000
11
331.9330529272
21
152.6501026016
31
0.0000000000
0
SPLINE
5
36A
100
AcDbEntity
8
0
100
AcDbSpline
62
7
6
CONTINUOUS
70
0
71
3
72
9
73
5
74
3
42
0.0000001000
43
0.0000001000
44
0.0000000001
40
0.0000000000
40
0.0000000000
40
0.0000000000
40
0.0000000000
40
0.6610760036
40
1.0000000000
40
1.0000000000
40
1.0000000000
40
1.0000000000
10
331.8634665801
20
153.0801289194
30
0.0000000000
10
331.8932618734
20
153.1760987735
30
0.0000000000
10
331.9251562814
20
153.3251722739
30
0.0000000000
10
331.9328747817
20
153.4770526849
30
0.0000000000
10
331.9327908730
20
153.5285568911
30
0.0000000000
11
331.8634665801
21
153.0801289194
31
0.0000000000
11
331.9248657379
21
153.3744232815
31
0.0000000000
11
331.9327908730
21
153.5285568911
31
0.0000000000
0
SPLINE
5
36B
100
AcDbEntity
8
0
100
AcDbSpline
62
7
6
CONTINUOUS
70
0
71
3
72
8
73
4
74
2
42
0.0000001000
43
0.0000001000
44
0.0000000001
40
0.0000000000
40
0.0000000000
40
0.0000000000
40
0.0000000000
40
1.0000000000
40
1.0000000000
40
1.0000000000
40
1.0000000000
10
331.8678036337
20
148.7179429400
30
0.0000000000
10
331.8792949461
20
148.7564152176
30
0.0000000000
10
331.8893887015
20
148.7953026668
30
0.0000000000
10
331.8979877580
20
148.8344914974
30
0.0000000000
11
331.8678036337
21
148.7179429400
31
0.0000000000
11
331.8979877580
21
148.8344914974
31
0.0000000000
0
SPLINE
5
36C
100
AcDbEntity
8
0
100
AcDbSpline
62
7
6
CONTINUOUS
70
0
71
3
72
8
73
4
74
2
42
0.0000001000
43
0.0000001000
44
0.0000000001
40
0.0000000000
40
0.0000000000
40
0.0000000000
40
0.0000000000
40
1.0000000000
40
1.0000000000
40
1.0000000000
40
1.0000000000
10
331.8979877580
20
148.8344914974
30
0.0000000000
10
331.8994624758
20
148.8412122890
30
0.0000000000
10
331.9008932324
20
148.8479419448
30
0.0000000000
10
331.9022795378
20
148.8546798906
30
0.0000000000
11
331.8979877580
21
148.8344914974
31
0.0000000000
11
331.9022795378
21
148.8546798906
31
0.0000000000
0
SPLINE
5
36D
100
AcDbEntity
8
0
100
AcDbSpline
62
7
6
CONTINUOUS
70
0
71
3
72
8
73
4
74
2
42
0.0000001000
43
0.0000001000
44
0.0000000001
40
0.0000000000
40
0.0000000000
40
0.0000000000
40
0.0000000000
40
1.0000000000
40
1.0000000000
40
1.0000000000
40
1.0000000000
10
331.9022795378
20
148.8546798906
30
0.0000000000
10
331.9223029790
20
148.9520010612
30
0.0000000000
10
331.9330529272
20
149.0510517271
30
0.0000000000
10
331.9330529272
20
149.1501023930
30
0.0000000000
11
331.9022795378
21
148.8546798906
31
0.0000000000
11
331.9330529272
21
149.1501023930
31
0.0000000000
0
SPLINE
5
36E
100
AcDbEntity
8
0
100
AcDbSpline
62
7
6
CONTINUOUS
70
0
71
3
72
8
73
4
74
2
42
0.0000001000
43
0.0000001000
44
0.0000000001
40
0.0000000000
40
0.0000000000
40
0.0000000000
40
0.0000000000
40
1.0000000000
40
1.0000000000
40
1.0000000000
40
1.0000000000
10
331.8849741476
20
148.7126028103
30
0.0000000000
10
331.9162620964
20
148.5941936878
30
0.0000000000
10
331.9328415027
20
148.4709588132
30
0.0000000000
10
331.9329818730
20
148.3478870524
30
0.0000000000
11
331.8849741476
21
148.7126028103
31
0.0000000000
11
331.9329818730
21
148.3478870524
31
0.0000000000
0
SPLINE
5
36F
100
AcDbEntity
8
0
100
AcDbSpline
62
7
6
CONTINUOUS
70
0
71
3
72
9
73
5
74
3
42
0.0000001000
43
0.0000001000
44
0.0000000001
40
0.0000000000
40
0.0000000000
40
0.0000000000
40
0.0000000000
40
0.3333410798
40
1.0000000000
40
1.0000000000
40
1.0000000000
40
1.0000000000
10
331.9330529234
20
123.5198927499
30
0.0000000000
10
331.9330529192
20
123.4834328984
30
0.0000000000
10
331.9328396098
20
123.3740557816
30
0.0000000000
10
331.9319864749
20
123.2646811599
30
0.0000000000
10
331.9311332510
20
123.1917691988
30
0.0000000000
11
331.9330529234
21
123.5198927499
31
0.0000000000
11
331.9328396146
21
123.4105134032
31
0.0000000000
11
331.9311332510
21
123.1917691988
31
0.0000000000
0
SPLINE
5
370
100
AcDbEntity
8
0
100
AcDbSpline
62
7
6
CONTINUOUS
70
0
71
3
72
9
73
5
74
3
42
0.0000001000
43
0.0000001000
44
0.0000000001
40
0.0000000000
40
0.0000000000
40
0.0000000000
40
0.0000000000
40
0.3333410798
40
1.0000000000
40
1.0000000000
40
1.0000000000
40
1.0000000000
10
331.9330529234
20
125.6344800936
30
0.0000000000
10
331.9330529192
20
125.6709399451
30
0.0000000000
10
331.9328396098
20
125.7803170619
30
0.0000000000
10
331.9319864749
20
125.8896916836
30
0.0000000000
10
331.9311332510
20
125.9626036447
30
0.0000000000
11
331.9330529234
21
125.6344800936
31
0.0000000000
11
331.9328396146
21
125.7438594403
31
0.0000000000
11
331.9311332510
21
125.9626036447
31
0.0000000000
0
SPLINE
5
371
100
AcDbEntity
8
0
100
AcDbSpline
62
7
6
CONTINUOUS
70
0
71
3
72
8
73
4
74
2
42
0.0000001000
43
0.0000001000
44
0.0000000001
40
0.0000000000
40
0.0000000000
40
0.0000000000
40
0.0000000000
40
1.0000000000
40
1.0000000000
40
1.0000000000
40
1.0000000000
10
331.9329818730
20
146.4523185682
30
0.0000000000
10
331.9328415027
20
146.3292468074
30
0.0000000000
10
331.9162620964
20
146.2060119327
30
0.0000000000
10
331.8849741476
20
146.0876028103
30
0.0000000000
11
331.9329818730
21
146.4523185682
31
0.0000000000
11
331.8849741476
21
146.0876028103
31
0.0000000000
0
SPLINE
5
372
100
AcDbEntity
8
0
100
AcDbSpline
62
7
6
CONTINUOUS
70
0
71
3
72
9
73
5
74
3
42
0.0000001000
43
0.0000001000
44
0.0000000001
40
0.0000000000
40
0.0000000000
40
0.0000000000
40
0.0000000000
40
0.3999438994
40
1.0000000000
40
1.0000000000
40
1.0000000000
40
1.0000000000
10
331.9330528903
20
122.3896842597
30
0.0000000000
10
331.9330528555
20
122.4382955246
30
0.0000000000
10
331.9323417112
20
122.5598417736
30
0.0000000000
10
331.9298536242
20
122.6813672405
30
0.0000000000
10
331.9277202966
20
122.7542691988
30
0.0000000000
11
331.9330528903
21
122.3896842597
31
0.0000000000
11
331.9321997888
21
122.5355155620
31
0.0000000000
11
331.9277202966
21
122.7542691988
31
0.0000000000
0
SPLINE
5
373
100
AcDbEntity
8
0
100
AcDbSpline
62
7
6
CONTINUOUS
70
0
71
3
72
8
73
4
74
2
42
0.0000001000
43
0.0000001000
44
0.0000000001
40
0.0000000000
40
0.0000000000
40
0.0000000000
40
0.0000000000
40
1.0000000000
40
1.0000000000
40
1.0000000000
40
1.0000000000
10
331.9330529272
20
145.6501023930
30
0.0000000000
10
331.9330529272
20
145.7491530590
30
0.0000000000
10
331.9223029790
20
145.8482037249
30
0.0000000000
10
331.9022795378
20
145.9455248955
30
0.0000000000
11
331.9330529272
21
145.6501023930
31
0.0000000000
11
331.9022795378
21
145.9455248955
31
0.0000000000
0
SPLINE
5
374
100
AcDbEntity
8
0
100
AcDbSpline
62
7
6
CONTINUOUS
70
0
71
3
72
8
73
4
74
2
42
0.0000001000
43
0.0000001000
44
0.0000000001
40
0.0000000000
40
0.0000000000
40
0.0000000000
40
0.0000000000
40
1.0000000000
40
1.0000000000
40
1.0000000000
40
1.0000000000
10
331.9022795378
20
145.9455248955
30
0.0000000000
10
331.9008932324
20
145.9522628413
30
0.0000000000
10
331.8994624758
20
145.9589924970
30
0.0000000000
10
331.8979877580
20
145.9657132887
30
0.0000000000
11
331.9022795378
21
145.9455248955
31
0.0000000000
11
331.8979877580
21
145.9657132887
31
0.0000000000
0
SPLINE
5
375
100
AcDbEntity
8
0
100
AcDbSpline
62
7
6
CONTINUOUS
70
0
71
3
72
8
73
4
74
2
42
0.0000001000
43
0.0000001000
44
0.0000000001
40
0.0000000000
40
0.0000000000
40
0.0000000000
40
0.0000000000
40
1.0000000000
40
1.0000000000
40
1.0000000000
40
1.0000000000
10
331.8979877580
20
145.9657132887
30
0.0000000000
10
331.8893886443
20
146.0049023798
30
0.0000000000
10
331.8792948119
20
146.0437900856
30
0.0000000000
10
331.8678034045
20
146.0822626134
30
0.0000000000
11
331.8979877580
21
145.9657132887
31
0.0000000000
11
331.8678034045
21
146.0822626134
31
0.0000000000
0
SPLINE
5
376
100
AcDbEntity
8
0
100
AcDbSpline
62
7
6
CONTINUOUS
70
0
71
3
72
9
73
5
74
3
42
0.0000001000
43
0.0000001000
44
0.0000000001
40
0.0000000000
40
0.0000000000
40
0.0000000000
40
0.0000000000
40
0.3389240476
40
1.0000000000
40
1.0000000000
40
1.0000000000
40
1.0000000000
10
331.9327908730
20
155.2716483122
30
0.0000000000
10
331.9328747817
20
155.3231525184
30
0.0000000000
10
331.9251562825
20
155.4750329065
30
0.0000000000
10
331.8932618830
20
155.6241063848
30
0.0000000000
10
331.8634666005
20
155.7200762182
30
0.0000000000
11
331.9327908730
21
155.2716483122
31
0.0000000000
11
331.9248657379
21
155.4257819218
31
0.0000000000
11
331.8634666005
21
155.7200762182
31
0.0000000000
0
SPLINE
5
377
100
AcDbEntity
8
0
100
AcDbSpline
62
7
6
CONTINUOUS
70
0
71
3
72
9
73
5
74
3
42
0.0000001000
43
0.0000001000
44
0.0000000001
40
0.0000000000
40
0.0000000000
40
0.0000000000
40
0.0000000000
40
0.7498627256
40
1.0000000000
40
1.0000000000
40
1.0000000000
40
1.0000000000
10
331.9330529272
20
156.1501024973
30
0.0000000000
10
331.9330529272
20
155.9487749011
30
0.0000000000
10
331.8738263678
20
155.6802889644
30
0.0000000000
10
331.7576658986
20
155.4376312032
30
0.0000000000
10
331.7256256046
20
155.3785584050
30
0.0000000000
11
331.9330529272
21
156.1501024973
31
0.0000000000
11
331.8122157467
21
155.5606427394
31
0.0000000000
11
331.7256256046
21
155.3785584050
31
0.0000000000
0
SPLINE
5
378
100
AcDbEntity
8
0
100
AcDbSpline
62
7
6
CONTINUOUS
70
0
71
3
72
8
73
4
74
2
42
0.0000001000
43
0.0000001000
44
0.0000000001
40
0.0000000000
40
0.0000000000
40
0.0000000000
40
0.0000000000
40
1.0000000000
40
1.0000000000
40
1.0000000000
40
1.0000000000
10
331.7256256046
20
155.3785584050
30
0.0000000000
10
331.6491455445
20
155.2375518601
30
0.0000000000
10
331.5556620808
20
155.1058038913
30
0.0000000000
10
331.4530369527
20
154.9834357959
30
0.0000000000
11
331.7256256046
21
155.3785584050
31
0.0000000000
11
331.4530369527
21
154.9834357959
31
0.0000000000
0
SPLINE
5
379
100
AcDbEntity
8
0
100
AcDbSpline
62
7
6
CONTINUOUS
70
0
71
3
72
9
73
5
74
3
42
0.0000001000
43
0.0000001000
44
0.0000000001
40
0.0000000000
40
0.0000000000
40
0.0000000000
40
0.0000000000
40
0.5000449857
40
1.0000000000
40
1.0000000000
40
1.0000000000
40
1.0000000000
10
331.9311331912
20
123.1917691988
30
0.0000000000
10
331.9302795870
20
123.1431397441
30
0.0000000000
10
331.9280032790
20
123.0458987435
30
0.0000000000
10
331.9245889274
20
122.9486910498
30
0.0000000000
10
331.9225975988
20
122.9001036447
30
0.0000000000
11
331.9311331912
21
123.1917691988
31
0.0000000000
11
331.9277185121
21
123.0458983228
31
0.0000000000
11
331.9225975988
21
122.9001036447
31
0.0000000000
0
SPLINE
5
37A
100
AcDbEntity
8
0
100
AcDbSpline
62
7
6
CONTINUOUS
70
0
71
3
72
9
73
5
74
3
42
0.0000001000
43
0.0000001000
44
0.0000000001
40
0.0000000000
40
0.0000000000
40
0.0000000000
40
0.0000000000
40
0.5000449857
40
1.0000000000
40
1.0000000000
40
1.0000000000
40
1.0000000000
10
331.9311331912
20
125.9626036447
30
0.0000000000
10
331.9302795870
20
126.0112330994
30
0.0000000000
10
331.9280032790
20
126.1084741000
30
0.0000000000
10
331.9245889274
20
126.2056817937
30
0.0000000000
10
331.9225975988
20
126.2542691988
30
0.0000000000
11
331.9311331912
21
125.9626036447
31
0.0000000000
11
331.9277185121
21
126.1084745207
31
0.0000000000
11
331.9225975988
21
126.2542691988
31
0.0000000000
0
SPLINE
5
37B
100
AcDbEntity
8
0
100
AcDbSpline
62
7
6
CONTINUOUS
70
0
71
3
72
9
73
5
74
3
42
0.0000001000
43
0.0000001000
44
0.0000000001
40
0.0000000000
40
0.0000000000
40
0.0000000000
40
0.0000000000
40
0.4980178979
40
1.0000000000
40
1.0000000000
40
1.0000000000
40
1.0000000000
10
331.9225975988
20
126.2542691988
30
0.0000000000
10
331.9195969490
20
126.2786742424
30
0.0000000000
10
331.9122904938
20
126.3275291851
30
0.0000000000
10
331.9024847429
20
126.3759433731
30
0.0000000000
10
331.8969570863
20
126.4001036447
30
0.0000000000
11
331.9225975988
21
126.2542691988
31
0.0000000000
11
331.9116995782
21
126.3272261974
31
0.0000000000
11
331.8969570863
21
126.4001036447
31
0.0000000000
0
SPLINE
5
37C
100
AcDbEntity
8
0
100
AcDbSpline
62
7
6
CONTINUOUS
70
0
71
3
72
9
73
5
74
3
42
0.0000001000
43
0.0000001000
44
0.0000000001
40
0.0000000000
40
0.0000000000
40
0.0000000000
40
0.0000000000
40
0.4980178979
40
1.0000000000
40
1.0000000000
40
1.0000000000
40
1.0000000000
10
331.9225975988
20
122.9001036447
30
0.0000000000
10
331.9195969490
20
122.8756986011
30
0.0000000000
10
331.9122904938
20
122.8268436584
30
0.0000000000
10
331.9024847429
20
122.7784294704
30
0.0000000000
10
331.8969570863
20
122.7542691988
30
0.0000000000
11
331.9225975988
21
122.9001036447
31
0.0000000000
11
331.9116995782
21
122.8271466461
31
0.0000000000
11
331.8969570863
21
122.7542691988
31
0.0000000000
0
SPLINE
5
37D
100
AcDbEntity
8
0
100
AcDbSpline
62
7
6
CONTINUOUS
70
0
71
3
72
9
73
5
74
3
42
0.0000001000
43
0.0000001000
44
0.0000000001
40
0.0000000000
40
0.0000000000
40
0.0000000000
40
0.0000000000
40
0.4949150514
40
1.0000000000
40
1.0000000000
40
1.0000000000
40
1.0000000000
10
331.8386500202
20
122.0251036447
30
0.0000000000
10
331.8234042384
20
122.0743816662
30
0.0000000000
10
331.7891448329
20
122.1729100498
30
0.0000000000
10
331.7484687636
20
122.2689569710
30
0.0000000000
10
331.7264410030
20
122.3167691988
30
0.0000000000
11
331.8386500202
21
122.0251036447
31
0.0000000000
11
331.7879215441
21
122.1713002146
31
0.0000000000
11
331.7264410030
21
122.3167691988
31
0.0000000000
0
SPLINE
5
37E
100
AcDbEntity
8
0
100
AcDbSpline
62
7
6
CONTINUOUS
70
0
71
3
72
9
73
5
74
3
42
0.0000001000
43
0.0000001000
44
0.0000000001
40
0.0000000000
40
0.0000000000
40
0.0000000000
40
0.0000000000
40
0.4995325261
40
1.0000000000
40
1.0000000000
40
1.0000000000
40
1.0000000000
10
331.7264410030
20
122.3167691988
30
0.0000000000
10
331.7083933966
20
122.3902190967
30
0.0000000000
10
331.6699754292
20
122.5367031509
30
0.0000000000
10
331.6270650119
20
122.6819340285
30
0.0000000000
10
331.6044893466
20
122.7542691988
30
0.0000000000
11
331.7264410030
21
122.3167691988
31
0.0000000000
11
331.6688903346
21
122.5362534874
31
0.0000000000
11
331.6044893466
21
122.7542691988
31
0.0000000000
0
SPLINE
5
37F
100
AcDbEntity
8
0
100
AcDbSpline
62
7
6
CONTINUOUS
70
0
71
3
72
9
73
5
74
3
42
0.0000001000
43
0.0000001000
44
0.0000000001
40
0.0000000000
40
0.0000000000
40
0.0000000000
40
0.0000000000
40
0.5016303071
40
1.0000000000
40
1.0000000000
40
1.0000000000
40
1.0000000000
10
331.6044893466
20
122.7542691988
30
0.0000000000
10
331.5873374358
20
122.8763952409
30
0.0000000000
10
331.5517807988
20
123.1196638833
30
0.0000000000
10
331.5134882277
20
123.3625169201
30
0.0000000000
10
331.4937205518
20
123.4834347528
30
0.0000000000
11
331.6044893466
21
122.7542691988
31
0.0000000000
11
331.5509764111
21
123.1203525084
31
0.0000000000
11
331.4937205518
21
123.4834347528
31
0.0000000000
0
SPLINE
5
380
100
AcDbEntity
8
0
100
AcDbSpline
62
7
6
CONTINUOUS
70
0
71
3
72
9
73
5
74
3
42
0.0000001000
43
0.0000001000
44
0.0000000001
40
0.0000000000
40
0.0000000000
40
0.0000000000
40
0.0000000000
40
0.5005808190
40
1.0000000000
40
1.0000000000
40
1.0000000000
40
1.0000000000
10
331.4937205518
20
123.4834347528
30
0.0000000000
10
331.4870899300
20
123.6051128037
30
0.0000000000
10
331.4736866948
20
123.8481779914
30
0.0000000000
10
331.4599676446
20
124.0912255590
30
0.0000000000
10
331.4530369527
20
124.2126036447
30
0.0000000000
11
331.4937205518
21
123.4834347528
31
0.0000000000
11
331.4735919878
21
123.8484559299
31
0.0000000000
11
331.4530369527
21
124.2126036447
31
0.0000000000
0
SPLINE
5
381
100
AcDbEntity
8
0
100
AcDbSpline
62
7
6
CONTINUOUS
70
0
71
3
72
9
73
5
74
3
42
0.0000001000
43
0.0000001000
44
0.0000000001
40
0.0000000000
40
0.0000000000
40
0.0000000000
40
0.0000000000
40
0.5005808188
40
1.0000000000
40
1.0000000000
40
1.0000000000
40
1.0000000000
10
331.4937205518
20
125.6709347528
30
0.0000000000
10
331.4870899300
20
125.5492572590
30
0.0000000000
10
331.4736866948
20
125.3061931838
30
0.0000000000
10
331.4599676446
20
125.0631467289
30
0.0000000000
10
331.4530369527
20
124.9417691988
30
0.0000000000
11
331.4937205518
21
125.6709347528
31
0.0000000000
11
331.4735919878
21
125.3059152467
31
0.0000000000
11
331.4530369527
21
124.9417691988
31
0.0000000000
0
SPLINE
5
382
100
AcDbEntity
8
0
100
AcDbSpline
62
7
6
CONTINUOUS
70
0
71
3
72
9
73
5
74
3
42
0.0000001000
43
0.0000001000
44
0.0000000001
40
0.0000000000
40
0.0000000000
40
0.0000000000
40
0.0000000000
40
0.5016303136
40
1.0000000000
40
1.0000000000
40
1.0000000000
40
1.0000000000
10
331.6044893466
20
126.4001036447
30
0.0000000000
10
331.5873374359
20
126.2779770438
30
0.0000000000
10
331.5517807992
20
126.0347072897
30
0.0000000000
10
331.5134882277
20
125.7918531395
30
0.0000000000
10
331.4937205518
20
125.6709347528
30
0.0000000000
11
331.6044893466
21
126.4001036447
31
0.0000000000
11
331.5509764108
21
126.0340186573
31
0.0000000000
11
331.4937205518
21
125.6709347528
31
0.0000000000
0
SPLINE
5
383
100
AcDbEntity
8
0
100
AcDbSpline
62
7
6
CONTINUOUS
70
0
71
3
72
9
73
5
74
3
42
0.0000001000
43
0.0000001000
44
0.0000000001
40
0.0000000000
40
0.0000000000
40
0.0000000000
40
0.0000000000
40
0.4995325261
40
1.0000000000
40
1.0000000000
40
1.0000000000
40
1.0000000000
10
331.7264410030
20
126.8376036447
30
0.0000000000
10
331.7083933966
20
126.7641537468
30
0.0000000000
10
331.6699754292
20
126.6176696926
30
0.0000000000
10
331.6270650119
20
126.4724388150
30
0.0000000000
10
331.6044893466
20
126.4001036447
30
0.0000000000
11
331.7264410030
21
126.8376036447
31
0.0000000000
11
331.6688903346
21
126.6181193561
31
0.0000000000
11
331.6044893466
21
126.4001036447
31
0.0000000000
0
SPLINE
5
384
100
AcDbEntity
8
0
100
AcDbSpline
62
7
6
CONTINUOUS
70
0
71
3
72
9
73
5
74
3
42
0.0000001000
43
0.0000001000
44
0.0000000001
40
0.0000000000
40
0.0000000000
40
0.0000000000
40
0.0000000000
40
0.4949150514
40
1.0000000000
40
1.0000000000
40
1.0000000000
40
1.0000000000
10
331.8386500202
20
127.1292691988
30
0.0000000000
10
331.8234042384
20
127.0799911773
30
0.0000000000
10
331.7891448329
20
126.9814627937
30
0.0000000000
10
331.7484687636
20
126.8854158725
30
0.0000000000
10
331.7264410030
20
126.8376036447
30
0.0000000000
11
331.8386500202
21
127.1292691988
31
0.0000000000
11
331.7879215441
21
126.9830726289
31
0.0000000000
11
331.7264410030
21
126.8376036447
31
0.0000000000
0
SPLINE
5
385
100
AcDbEntity
8
0
100
AcDbSpline
62
7
6
CONTINUOUS
70
0
71
3
72
9
73
5
74
3
42
0.0000001000
43
0.0000001000
44
0.0000000001
40
0.0000000000
40
0.0000000000
40
0.0000000000
40
0.0000000000
40
0.4698731385
40
1.0000000000
40
1.0000000000
40
1.0000000000
40
1.0000000000
10
331.9225975988
20
127.2751036447
30
0.0000000000
10
331.9152867687
20
127.2496204249
30
0.0000000000
10
331.8920461600
20
127.1974850503
30
0.0000000000
10
331.8582343092
20
127.1518769978
30
0.0000000000
10
331.8386500202
20
127.1292691988
30
0.0000000000
11
331.9225975988
21
127.2751036447
31
0.0000000000
11
331.8911125663
21
127.2020675079
31
0.0000000000
11
331.8386500202
21
127.1292691988
31
0.0000000000
0
SPLINE
5
386
100
AcDbEntity
8
0
100
AcDbSpline
62
7
6
CONTINUOUS
70
0
71
3
72
8
73
4
74
2
42
0.0000001000
43
0.0000001000
44
0.0000000001
40
0.0000000000
40
0.0000000000
40
0.0000000000
40
0.0000000000
40
1.0000000000
40
1.0000000000
40
1.0000000000
40
1.0000000000
10
331.9311331912
20
126.5459347528
30
0.0000000000
10
331.9302787914
20
126.4729223005
30
0.0000000000
10
331.9291391771
20
126.3999126274
30
0.0000000000
10
331.9277142400
20
126.3269082452
30
0.0000000000
11
331.9311331912
21
126.5459347528
31
0.0000000000
11
331.9277142400
21
126.3269082452
31
0.0000000000
0
SPLINE
5
387
100
AcDbEntity
8
0
100
AcDbSpline
62
7
6
CONTINUOUS
70
0
71
3
72
8
73
4
74
2
42
0.0000001000
43
0.0000001000
44
0.0000000001
40
0.0000000000
40
0.0000000000
40
0.0000000000
40
0.0000000000
40
1.0000000000
40
1.0000000000
40
1.0000000000
40
1.0000000000
10
331.9277142400
20
126.3269082452
30
0.0000000000
10
331.9268802312
20
126.2841791327
30
0.0000000000
10
331.9259484792
20
126.2414518326
30
0.0000000000
10
331.9249189622
20
126.1987268487
30
0.0000000000
11
331.9277142400
21
126.3269082452
31
0.0000000000
11
331.9249189622
21
126.1987268487
31
0.0000000000
0
SPLINE
5
388
100
AcDbEntity
8
0
100
AcDbSpline
62
7
6
CONTINUOUS
70
0
71
3
72
9
73
5
74
3
42
0.0000001000
43
0.0000001000
44
0.0000000001
40
0.0000000000
40
0.0000000000
40
0.0000000000
40
0.0000000000
40
0.4788283589
40
1.0000000000
40
1.0000000000
40
1.0000000000
40
1.0000000000
10
331.8197294871
20
148.8584355873
30
0.0000000000
10
331.7781198457
20
148.9606171292
30
0.0000000000
10
331.6702234803
20
149.1657628940
30
0.0000000000
10
331.5311537098
20
149.3505648576
30
0.0000000000
10
331.4530369527
20
149.4417691988
30
0.0000000000
11
331.8197294871
21
148.8584355873
31
0.0000000000
11
331.6676448343
21
149.1524119915
31
0.0000000000
11
331.4530369527
21
149.4417691988
31
0.0000000000
0
SPLINE
5
389
100
AcDbEntity
8
0
100
AcDbSpline
62
7
6
CONTINUOUS
70
0
71
3
72
8
73
4
74
2
42
0.0000001000
43
0.0000001000
44
0.0000000001
40
0.0000000000
40
0.0000000000
40
0.0000000000
40
0.0000000000
40
1.0000000000
40
1.0000000000
40
1.0000000000
40
1.0000000000
10
331.9277196270
20
122.7542691988
30
0.0000000000
10
331.9266515037
20
122.8151038698
30
0.0000000000
10
331.9254228942
20
122.8759359354
30
0.0000000000
10
331.9240337223
20
122.9367644398
30
0.0000000000
11
331.9277196270
21
122.7542691988
31
0.0000000000
11
331.9240337223
21
122.9367644398
31
0.0000000000
0
SPLINE
5
38A
100
AcDbEntity
8
0
100
AcDbSpline
62
7
6
CONTINUOUS
70
0
71
3
72
9
73
5
74
3
42
0.0000001000
43
0.0000001000
44
0.0000000001
40
0.0000000000
40
0.0000000000
40
0.0000000000
40
0.0000000000
40
0.4788283589
40
1.0000000000
40
1.0000000000
40
1.0000000000
40
1.0000000000
10
331.8197294871
20
145.9417691988
30
0.0000000000
10
331.7781198457
20
145.8395876569
30
0.0000000000
10
331.6702234803
20
145.6344418921
30
0.0000000000
10
331.5311537098
20
145.4496399284
30
0.0000000000
10
331.4530369527
20
145.3584355873
30
0.0000000000
11
331.8197294871
21
145.9417691988
31
0.0000000000
11
331.6676448343
21
145.6477927946
31
0.0000000000
11
331.4530369527
21
145.3584355873
31
0.0000000000
0
SPLINE
5
38B
100
AcDbEntity
8
0
100
AcDbSpline
62
7
6
CONTINUOUS
70
0
71
3
72
9
73
5
74
3
42
0.0000001000
43
0.0000001000
44
0.0000000001
40
0.0000000000
40
0.0000000000
40
0.0000000000
40
0.0000000000
40
0.4695220479
40
1.0000000000
40
1.0000000000
40
1.0000000000
40
1.0000000000
10
331.9330529272
20
149.1501023930
30
0.0000000000
10
331.9330529272
20
149.3514300066
30
0.0000000000
10
331.8384635704
20
149.7802226787
30
0.0000000000
10
331.5986555016
20
150.1431366157
30
0.0000000000
10
331.4530369527
20
150.3167691988
30
0.0000000000
11
331.9330529272
21
149.1501023930
31
0.0000000000
11
331.8122157466
21
149.7395622037
31
0.0000000000
11
331.4530369527
21
150.3167691988
31
0.0000000000
0
SPLINE
5
38C
100
AcDbEntity
8
0
100
AcDbSpline
62
7
6
CONTINUOUS
70
0
71
3
72
9
73
5
74
3
42
0.0000001000
43
0.0000001000
44
0.0000000001
40
0.0000000000
40
0.0000000000
40
0.0000000000
40
0.0000000000
40
0.6044083131
40
1.0000000000
40
1.0000000000
40
1.0000000000
40
1.0000000000
10
331.6690950030
20
154.4001026016
30
0.0000000000
10
331.7656702329
20
154.5578865390
30
0.0000000000
10
331.8940117815
20
154.8420570438
30
0.0000000000
10
331.9325926723
20
155.1499903156
30
0.0000000000
10
331.9327908730
20
155.2716483122
30
0.0000000000
11
331.6690950030
21
154.4001026016
31
0.0000000000
11
331.8880212178
21
154.9100773323
31
0.0000000000
11
331.9327908730
21
155.2716483122
31
0.0000000000
0
SPLINE
5
38D
100
AcDbEntity
8
0
100
AcDbSpline
62
7
6
CONTINUOUS
70
0
71
3
72
9
73
5
74
3
42
0.0000001000
43
0.0000001000
44
0.0000000001
40
0.0000000000
40
0.0000000000
40
0.0000000000
40
0.0000000000
40
0.3955916869
40
1.0000000000
40
1.0000000000
40
1.0000000000
40
1.0000000000
10
331.9327908730
20
153.5285568911
30
0.0000000000
10
331.9325926723
20
153.6502148877
30
0.0000000000
10
331.8940117815
20
153.9581481595
30
0.0000000000
10
331.7656702329
20
154.2423186643
30
0.0000000000
10
331.6690950030
20
154.4001026016
30
0.0000000000
11
331.9327908730
21
153.5285568911
31
0.0000000000
11
331.8880212178
21
153.8901278710
31
0.0000000000
11
331.6690950030
21
154.4001026016
31
0.0000000000
0
SPLINE
5
38E
100
AcDbEntity
8
0
100
AcDbSpline
62
7
6
CONTINUOUS
70
0
71
3
72
9
73
5
74
3
42
0.0000001000
43
0.0000001000
44
0.0000000001
40
0.0000000000
40
0.0000000000
40
0.0000000000
40
0.0000000000
40
0.4960508942
40
1.0000000000
40
1.0000000000
40
1.0000000000
40
1.0000000000
10
331.8558264662
20
126.4001036447
30
0.0000000000
10
331.8475946382
20
126.3755640745
30
0.0000000000
10
331.8297938909
20
126.3264914513
30
0.0000000000
10
331.8097144568
20
126.2783083309
30
0.0000000000
10
331.7990571724
20
126.2542691988
30
0.0000000000
11
331.8558264662
21
126.4001036447
31
0.0000000000
11
331.8293737765
21
126.3270979141
31
0.0000000000
11
331.7990571724
21
126.2542691988
31
0.0000000000
0
SPLINE
5
38F
100
AcDbEntity
8
0
100
AcDbSpline
62
7
6
CONTINUOUS
70
0
71
3
72
9
73
5
74
3
42
0.0000001000
43
0.0000001000
44
0.0000000001
40
0.0000000000
40
0.0000000000
40
0.0000000000
40
0.0000000000
40
0.4993472743
40
1.0000000000
40
1.0000000000
40
1.0000000000
40
1.0000000000
10
331.7990571724
20
126.2542691988
30
0.0000000000
10
331.7882291552
20
126.2054212771
30
0.0000000000
10
331.7652714444
20
126.1078757491
30
0.0000000000
10
331.7398066284
20
126.0109547745
30
0.0000000000
10
331.7264410030
20
125.9626036447
30
0.0000000000
11
331.7990571724
21
126.2542691988
31
0.0000000000
11
331.7646762736
21
126.1081588210
31
0.0000000000
11
331.7264410030
21
125.9626036447
31
0.0000000000
0
SPLINE
5
390
100
AcDbEntity
8
0
100
AcDbSpline
62
7
6
CONTINUOUS
70
0
71
3
72
9
73
5
74
3
42
0.0000001000
43
0.0000001000
44
0.0000000001
40
0.0000000000
40
0.0000000000
40
0.0000000000
40
0.0000000000
40
0.5007601549
40
1.0000000000
40
1.0000000000
40
1.0000000000
40
1.0000000000
10
331.7264410030
20
125.9626036447
30
0.0000000000
10
331.7174597988
20
125.8895004783
30
0.0000000000
10
331.6989345767
20
125.7435879711
30
0.0000000000
10
331.6792282654
20
125.5978302763
30
0.0000000000
10
331.6690950030
20
125.5251036447
30
0.0000000000
11
331.7264410030
21
125.9626036447
31
0.0000000000
11
331.6986102418
21
125.7434049598
31
0.0000000000
11
331.6690950030
21
125.5251036447
31
0.0000000000
0
SPLINE
5
391
100
AcDbEntity
8
0
100
AcDbSpline
62
7
6
CONTINUOUS
70
0
71
3
72
9
73
5
74
3
42
0.0000001000
43
0.0000001000
44
0.0000000001
40
0.0000000000
40
0.0000000000
40
0.0000000000
40
0.0000000000
40
0.5006129443
40
1.0000000000
40
1.0000000000
40
1.0000000000
40
1.0000000000
10
331.6690950030
20
125.5251036447
30
0.0000000000
10
331.6640081586
20
125.4520868726
30
0.0000000000
10
331.6536962091
20
125.3062425906
30
0.0000000000
10
331.6430822750
20
125.1604199745
30
0.0000000000
10
331.6377062665
20
125.0876036447
30
0.0000000000
11
331.6690950030
21
125.5251036447
31
0.0000000000
11
331.6536078865
21
125.3060692315
31
0.0000000000
11
331.6377062665
21
125.0876036447
31
0.0000000000
0
SPLINE
5
392
100
AcDbEntity
8
0
100
AcDbSpline
62
7
6
CONTINUOUS
70
0
71
3
72
9
73
5
74
3
42
0.0000001000
43
0.0000001000
44
0.0000000001
40
0.0000000000
40
0.0000000000
40
0.0000000000
40
0.0000000000
40
0.5006129443
40
1.0000000000
40
1.0000000000
40
1.0000000000
40
1.0000000000
10
331.6690950030
20
123.6292691988
30
0.0000000000
10
331.6640081586
20
123.7022859709
30
0.0000000000
10
331.6536962091
20
123.8481302529
30
0.0000000000
10
331.6430822750
20
123.9939528690
30
0.0000000000
10
331.6377062665
20
124.0667691988
30
0.0000000000
11
331.6690950030
21
123.6292691988
31
0.0000000000
11
331.6536078865
21
123.8483036120
31
0.0000000000
11
331.6377062665
21
124.0667691988
31
0.0000000000
0
SPLINE
5
393
100
AcDbEntity
8
0
100
AcDbSpline
62
7
6
CONTINUOUS
70
0
71
3
72
9
73
5
74
3
42
0.0000001000
43
0.0000001000
44
0.0000000001
40
0.0000000000
40
0.0000000000
40
0.0000000000
40
0.0000000000
40
0.5007601549
40
1.0000000000
40
1.0000000000
40
1.0000000000
40
1.0000000000
10
331.7264410030
20
123.1917691988
30
0.0000000000
10
331.7174597988
20
123.2648723652
30
0.0000000000
10
331.6989345767
20
123.4107848724
30
0.0000000000
10
331.6792282654
20
123.5565425672
30
0.0000000000
10
331.6690950030
20
123.6292691988
30
0.0000000000
11
331.7264410030
21
123.1917691988
31
0.0000000000
11
331.6986102418
21
123.4109678837
31
0.0000000000
11
331.6690950030
21
123.6292691988
31
0.0000000000
0
SPLINE
5
394
100
AcDbEntity
8
0
100
AcDbSpline
62
7
6
CONTINUOUS
70
0
71
3
72
9
73
5
74
3
42
0.0000001000
43
0.0000001000
44
0.0000000001
40
0.0000000000
40
0.0000000000
40
0.0000000000
40
0.0000000000
40
0.4993472743
40
1.0000000000
40
1.0000000000
40
1.0000000000
40
1.0000000000
10
331.7990571724
20
122.9001036447
30
0.0000000000
10
331.7882291552
20
122.9489515664
30
0.0000000000
10
331.7652714444
20
123.0464970944
30
0.0000000000
10
331.7398066284
20
123.1434180690
30
0.0000000000
10
331.7264410030
20
123.1917691988
30
0.0000000000
11
331.7990571724
21
122.9001036447
31
0.0000000000
11
331.7646762736
21
123.0462140225
31
0.0000000000
11
331.7264410030
21
123.1917691988
31
0.0000000000
0
SPLINE
5
395
100
AcDbEntity
8
0
100
AcDbSpline
62
7
6
CONTINUOUS
70
0
71
3
72
9
73
5
74
3
42
0.0000001000
43
0.0000001000
44
0.0000000001
40
0.0000000000
40
0.0000000000
40
0.0000000000
40
0.0000000000
40
0.4960508942
40
1.0000000000
40
1.0000000000
40
1.0000000000
40
1.0000000000
10
331.8558264662
20
122.7542691988
30
0.0000000000
10
331.8475946382
20
122.7788087690
30
0.0000000000
10
331.8297938909
20
122.8278813923
30
0.0000000000
10
331.8097144568
20
122.8760645126
30
0.0000000000
10
331.7990571724
20
122.9001036447
30
0.0000000000
11
331.8558264662
21
122.7542691988
31
0.0000000000
11
331.8293737765
21
122.8272749294
31
0.0000000000
11
331.7990571724
21
122.9001036447
31
0.0000000000
0
SPLINE
5
396
100
AcDbEntity
8
0
100
AcDbSpline
62
7
6
CONTINUOUS
70
0
71
3
72
9
73
5
74
3
42
0.0000001000
43
0.0000001000
44
0.0000000001
40
0.0000000000
40
0.0000000000
40
0.0000000000
40
0.0000000000
40
0.5304779521
40
1.0000000000
40
1.0000000000
40
1.0000000000
40
1.0000000000
10
331.4530369527
20
144.4834355873
30
0.0000000000
10
331.5986555016
20
144.6570681704
30
0.0000000000
10
331.8384635704
20
145.0199821073
30
0.0000000000
10
331.9330529272
20
145.4487747795
30
0.0000000000
10
331.9330529272
20
145.6501023930
30
0.0000000000
11
331.4530369527
21
144.4834355873
31
0.0000000000
11
331.8122157466
21
145.0606425823
31
0.0000000000
11
331.9330529272
21
145.6501023930
31
0.0000000000
0
SPLINE
5
397
100
AcDbEntity
8
0
100
AcDbSpline
62
7
6
CONTINUOUS
70
0
71
3
72
8
73
4
74
2
42
0.0000001000
43
0.0000001000
44
0.0000000001
40
0.0000000000
40
0.0000000000
40
0.0000000000
40
0.0000000000
40
1.0000000000
40
1.0000000000
40
1.0000000000
40
1.0000000000
10
331.9328396372
20
122.3167691988
30
0.0000000000
10
331.9324837246
20
122.2924345851
30
0.0000000000
10
331.9316815962
20
122.2681024510
30
0.0000000000
10
331.9304360962
20
122.2437910037
30
0.0000000000
11
331.9328396372
21
122.3167691988
31
0.0000000000
11
331.9304360962
21
122.2437910037
31
0.0000000000
0
SPLINE
5
398
100
AcDbEntity
8
0
100
AcDbSpline
62
7
6
CONTINUOUS
70
0
71
3
72
8
73
4
74
2
42
0.0000001000
43
0.0000001000
44
0.0000000001
40
0.0000000000
40
0.0000000000
40
0.0000000000
40
0.0000000000
40
1.0000000000
40
1.0000000000
40
1.0000000000
40
1.0000000000
10
331.9304360962
20
122.2437910037
30
0.0000000000
10
331.9291891766
20
122.2194518468
30
0.0000000000
10
331.9274978742
20
122.1951334238
30
0.0000000000
10
331.9253650430
20
122.1708540043
30
0.0000000000
11
331.9304360962
21
122.2437910037
31
0.0000000000
11
331.9253650430
21
122.1708540043
31
0.0000000000
0
SPLINE
5
399
100
AcDbEntity
8
0
100
AcDbSpline
62
7
6
CONTINUOUS
70
0
71
3
72
8
73
4
74
2
42
0.0000001000
43
0.0000001000
44
0.0000000001
40
0.0000000000
40
0.0000000000
40
0.0000000000
40
0.0000000000
40
1.0000000000
40
1.0000000000
40
1.0000000000
40
1.0000000000
10
331.9253650430
20
122.1708540043
30
0.0000000000
10
331.9210793687
20
122.1220673557
30
0.0000000000
10
331.9150109691
20
122.0734381881
30
0.0000000000
10
331.9072193813
20
122.0251036447
30
0.0000000000
11
331.9253650430
21
122.1708540043
31
0.0000000000
11
331.9072193813
21
122.0251036447
31
0.0000000000
0
SPLINE
5
39A
100
AcDbEntity
8
0
100
AcDbSpline
62
7
6
CONTINUOUS
70
0
71
3
72
10
73
6
74
4
42
0.0000001000
43
0.0000001000
44
0.0000000001
40
0.0000000000
40
0.0000000000
40
0.0000000000
40
0.0000000000
40
0.3628857360
40
0.6938906325
40
1.0000000000
40
1.0000000000
40
1.0000000000
40
1.0000000000
10
297.8427708048
20
293.3167691988
30
0.0000000000
10
299.1885469147
20
292.3995966632
30
0.0000000000
10
301.8549919083
20
290.7765283555
30
0.0000000000
10
305.9304786785
20
288.8773098414
30
0.0000000000
10
308.6476801165
20
287.9645003219
30
0.0000000000
10
309.9730529272
20
287.6030045233
30
0.0000000000
11
297.8427708048
21
293.3167691988
31
0.0000000000
11
302.0216713547
21
290.7854337062
31
0.0000000000
11
306.0645060438
21
288.9102504668
31
0.0000000000
11
309.9730529272
21
287.6030045233
31
0.0000000000
0
SPLINE
5
39B
100
AcDbEntity
8
0
100
AcDbSpline
62
7
6
CONTINUOUS
70
0
71
3
72
10
73
6
74
4
42
0.0000001000
43
0.0000001000
44
0.0000000001
40
0.0000000000
40
0.0000000000
40
0.0000000000
40
0.0000000000
40
0.3060941155
40
0.6370937312
40
1.0000000000
40
1.0000000000
40
1.0000000000
40
1.0000000000
10
327.8930529272
20
287.6030045233
30
0.0000000000
10
329.2183596978
20
287.9644823095
30
0.0000000000
10
331.9354755337
20
288.8772543346
30
0.0000000000
10
336.0109736152
20
290.7764480317
30
0.0000000000
10
338.6774827961
20
292.3995447699
30
0.0000000000
10
340.0233350495
20
293.3167691988
30
0.0000000000
11
327.8930529272
21
287.6030045233
31
0.0000000000
11
331.8014086533
21
288.9101745787
31
0.0000000000
11
335.8441900684
21
290.7853036756
31
0.0000000000
11
340.0233350495
21
293.3167691988
31
0.0000000000
0
ENDSEC
0
SECTION
2
OBJECTS
0
DICTIONARY
5
39C
100
AcDbDictionary
3
ACAD_GROUP
350
39D
3
ACAD_MLINESTYLE
350
39E
0
DICTIONARY
5
39D
102
{ACAD_REACTORS
330
39C
102
}
100
AcDbDictionary
0
DICTIONARY
5
39E
102
{ACAD_REACTORS
330
39C
102
}
100
AcDbDictionary
3
STANDARD
350
39F
0
MLINESTYLE
5
39F
102
{ACAD_REACTORS
330
39E
102
}
100
AcDbMlineStyle
2
STANDARD
70
0
3

62
256
51
90.0
52
90.0
71
2
49
0.5
62
256
6
BYLAYER
49
-0.5
62
256
6
BYLAYER
0
ENDSEC
0
EOF
