999
DXF file: C:\Aktuell-Internet\CAD-Daten\2va1-13.dxf
999
Pro/ENGINEER 2001400 by Parametric Technology Corporation
0
SECTION
2
HEADER
9
$ACADVER
1
AC1014
9
$EXTMAX
10
420.0000000000
20
297.0000000000
9
$EXTMIN
10
0.0000000000
20
0.0000000000
9
$LIMMIN
10
0.0000000000
20
0.0000000000
9
$LIMMAX
10
420.0000000000
20
297.0000000000
9
$VIEWCTR
10
210.0000000000
20
148.5000000000
9
$VIEWSIZE
40
297.0000000000
9
$CLAYER
8
0
9
$LTSCALE
40
23.1000000000
9
$CELTYPE
6
BYLAYER
9
$DIMSCALE
40
1
9
$DIMASZ
40
3.5000000000
9
$DIMEXO
40
2.6250000000
9
$DIMDLI
40
15.9600000000
9
$DIMEXE
40
7.5600000000
9
$DIMCEN
40
3.7800000000
9
$DIMLFAC
40
1.0000000000
9
$DIMTXT
40
3.5000000000
9
$DIMTOL
70
1
9
$DIMTFAC
40
0.6000000000
9
$DIMTP
40
0.0050000000
9
$DIMTM
40
0.0050000000
9
$HANDSEED
5
3A0
0
ENDSEC
0
SECTION
2
CLASSES
0
ENDSEC
0
SECTION
2
TABLES
0
TABLE
2
VPORT
5
8
100
AcDbSymbolTable
70
2
0
VPORT
5
1F4
100
AcDbSymbolTableRecord
100
AcDbViewportTableRecord
2
*ACTIVE
70
0
10
0.0
20
0.0
11
1.0
21
1.0
12
210.0000000000
22
148.5000000000
13
0.0
23
0.0
14
1.0
24
1.0
15
0.0
25
0.0
16
0.0
26
0.0
36
1.0
17
0.0
27
0.0
37
0.0
40
297.0000000000
41
1.4141414141
42
50.0
43
0.0
44
0.0
50
0.0
51
0.0
71
0
72
100
73
1
74
1
75
0
76
0
77
0
78
0
0
ENDTAB
0
TABLE
2
LTYPE
5
5
100
AcDbSymbolTable
70
6
0
LTYPE
5
14
100
AcDbSymbolTableRecord
100
AcDbLinetypeTableRecord
2
BYBLOCK
70
0
3

72
65
73
0
40
0.0
0
LTYPE
5
15
100
AcDbSymbolTableRecord
100
AcDbLinetypeTableRecord
2
BYLAYER
70
0
3

72
65
73
0
40
0.0
0
LTYPE
5
16
100
AcDbSymbolTableRecord
100
AcDbLinetypeTableRecord
2
CONTINUOUS
70
64
3
Solid line
72
65
73
0
40
0
0
LTYPE
5
1F5
100
AcDbSymbolTableRecord
100
AcDbLinetypeTableRecord
2
CENTER
70
64
3
____ _ ____ _ ____ _ ____ _ ____ _ ____ _ ____
72
65
73
4
40
0.6
49
0.375
74
0
49
-0.075
74
0
49
0.075
74
0
49
-0.075
74
0
0
LTYPE
5
1F6
100
AcDbSymbolTableRecord
100
AcDbLinetypeTableRecord
2
HIDDEN
70
64
3
- - - - - - - - - - - - - - - - - - - -
72
65
73
2
40
0.2
49
0.1
74
0
49
-0.1
74
0
0
LTYPE
5
1F7
100
AcDbSymbolTableRecord
100
AcDbLinetypeTableRecord
2
PHANTOM
70
64
3
_____ _ _ _____ _ _ _____ _ _ _____
72
65
73
6
40
0.8
49
0.45
74
0
49
-0.05
74
0
49
0.1
74
0
49
-0.05
74
0
49
0.1
74
0
49
-0.05
74
0
0
LTYPE
5
1F8
100
AcDbSymbolTableRecord
100
AcDbLinetypeTableRecord
2
DOT
70
64
3
. . . . . . . . . . . . . . . . . . . .
72
65
73
2
40
0.2
49
0.1
74
0
49
-0.1
74
0
0
LTYPE
5
1F9
100
AcDbSymbolTableRecord
100
AcDbLinetypeTableRecord
2
DASHED
70
64
3
- - - - - - - - - - - - - - - - - - - -
72
65
73
2
40
0.2
49
0.1
74
0
49
-0.1
74
0
0
ENDTAB
0
TABLE
2
LAYER
5
2
100
AcDbSymbolTable
70
36
0
LAYER
5
10
100
AcDbSymbolTableRecord
100
AcDbLayerTableRecord
2
0
70
0
62
7
6
CONTINUOUS
0
LAYER
5
1FA
100
AcDbSymbolTableRecord
100
AcDbLayerTableRecord
2
DEFAULT_1
70
0
62
7
6
CENTER
0
LAYER
5
1FB
100
AcDbSymbolTableRecord
100
AcDbLayerTableRecord
2
DEFAULT_2
70
0
62
8
6
HIDDEN
0
LAYER
5
1FC
100
AcDbSymbolTableRecord
100
AcDbLayerTableRecord
2
DEFAULT_3
70
0
62
7
6
PHANTOM
0
ENDTAB
0
TABLE
2
STYLE
5
3
100
AcDbSymbolTable
70
1
0
STYLE
5
11
100
AcDbSymbolTableRecord
100
AcDbTextStyleTableRecord
2
STANDARD
70
0
40
0.0
41
1.0
50
0.0
71
0
42
0.0
3
txt
4

0
STYLE
5
1FD
100
AcDbSymbolTableRecord
100
AcDbTextStyleTableRecord
2
TEXTSTYLE_0
70
0
40
0.0
41
0.80
50
0.0
71
0
42
0.2
3
txt
4

0
ENDTAB
0
TABLE
2
VIEW
5
6
100
AcDbSymbolTable
70
0
0
ENDTAB
0
TABLE
2
UCS
5
7
100
AcDbSymbolTable
70
0
0
ENDTAB
0
TABLE
2
APPID
5
9
100
AcDbSymbolTable
70
1
0
APPID
5
1FE
100
AcDbSymbolTableRecord
100
AcDbRegAppTableRecord
2
ACAD
70
0
0
ENDTAB
0
TABLE
2
DIMSTYLE
5
A
100
AcDbSymbolTable
70
1
0
DIMSTYLE
105
1FF
100
AcDbSymbolTableRecord
100
AcDbDimStyleTableRecord
2
STANDARD
70
0
3

4

5

6

7

40
1.0
41
0.18
42
0.0625
43
0.38
44
0.18
45
0.0
46
0.0
47
0.0050000000
48
0.0050000000
140
3.5000000000
141
0.09
142
0.0
143
25.4
144
1.0000000000
145
0.0
146
0.6000000000
147
0.09
71
1
72
0
73
1
74
1
75
0
76
0
77
0
78
0
170
0
171
2
172
0
173
0
174
0
175
0
176
0
177
0
178
0
270
2
271
3
272
4
273
2
274
2
340
11
275
0
280
0
281
0
282
0
283
1
284
0
285
0
286
0
287
3
288
0
0
ENDTAB
0
TABLE
2
BLOCK_RECORD
5
1
100
AcDbSymbolTable
70
0
0
BLOCK_RECORD
5
1B
100
AcDbSymbolTableRecord
100
AcDbBlockTableRecord
2
*MODEL_SPACE
0
BLOCK_RECORD
5
1C
100
AcDbSymbolTableRecord
100
AcDbBlockTableRecord
2
*PAPER_SPACE
0
ENDTAB
0
ENDSEC
0
SECTION
2
BLOCKS
0
BLOCK
5
1E
100
AcDbEntity
8
0
100
AcDbBlockBegin
2
*MODEL_SPACE
70
0
10
0.0
20
0.0
30
0.0
3
*MODEL_SPACE
1

0
ENDBLK
5
1F
100
AcDbEntity
8
0
100
AcDbBlockEnd
0
BLOCK
5
20
100
AcDbEntity
8
0
100
AcDbBlockBegin
2
*PAPER_SPACE
70
0
10
0.0
20
0.0
30
0.0
3
*PAPER_SPACE
1

0
ENDBLK
5
21
100
AcDbEntity
8
0
100
AcDbBlockEnd
0
ENDSEC
0
SECTION
2
ENTITIES
0
TEXT
5
200
100
AcDbEntity
8
0
100
AcDbText
62
2
6
CONTINUOUS
10
340.8626560726
20
100.7971765040
7
TEXTSTYLE_0
40
8.0000000000
1
VA 1-13
50
90.0000000000
72
5
11
340.8626560726
21
141.1781284998
100
AcDbText
0
LINE
5
201
100
AcDbEntity
8
0
100
AcDbLine
62
7
6
CONTINUOUS
10
0.0000000000
20
0.0000000000
11
0.0000000000
21
297.0000000000
0
LINE
5
202
100
AcDbEntity
8
0
100
AcDbLine
62
7
6
CONTINUOUS
10
0.0000000000
20
0.0000000000
11
420.0000000000
21
0.0000000000
0
LINE
5
203
100
AcDbEntity
8
0
100
AcDbLine
62
7
6
CONTINUOUS
10
0.0000000000
20
297.0000000000
11
420.0000000000
21
297.0000000000
0
LINE
5
204
100
AcDbEntity
8
0
100
AcDbLine
62
7
6
CONTINUOUS
10
420.0000000000
20
0.0000000000
11
420.0000000000
21
297.0000000000
0
LINE
5
205
100
AcDbEntity
8
0
100
AcDbLine
62
7
6
CONTINUOUS
10
146.2147910676
20
105.9282002093
11
145.8318123898
21
106.1782021167
0
LINE
5
206
100
AcDbEntity
8
0
100
AcDbLine
62
7
6
CONTINUOUS
10
146.3424507162
20
106.5532021167
11
146.0871315083
21
106.8032011630
0
LINE
5
207
100
AcDbEntity
8
0
100
AcDbLine
62
7
6
CONTINUOUS
10
149.0233016393
20
106.8032011630
11
148.7679825208
21
107.0532002093
0
LINE
5
208
100
AcDbEntity
8
0
100
AcDbLine
62
7
6
CONTINUOUS
10
148.6403229616
20
106.3032002093
11
148.2573442838
21
106.8032011630
0
LINE
5
209
100
AcDbEntity
8
0
100
AcDbLine
62
7
6
CONTINUOUS
10
145.5764932266
20
106.5532021167
11
145.8318123898
21
106.1782021167
0
LINE
5
20A
100
AcDbEntity
8
0
100
AcDbLine
62
7
6
CONTINUOUS
10
145.3211740746
20
107.0532002093
11
145.5764932266
21
106.5532021167
0
LINE
5
20B
100
AcDbEntity
8
0
100
AcDbLine
62
7
6
CONTINUOUS
10
146.0871315083
20
106.8032011630
11
145.9594719491
21
107.0532002093
0
LINE
5
20C
100
AcDbEntity
8
0
100
AcDbLine
62
7
6
CONTINUOUS
10
137.1935145042
20
154.0532011630
11
137.1935145042
21
84.0532011630
0
LINE
5
20D
100
AcDbEntity
8
0
100
AcDbLine
62
7
6
CONTINUOUS
10
145.1935145042
20
134.0532011034
11
145.1935145042
21
133.0532011630
0
LINE
5
20E
100
AcDbEntity
8
0
100
AcDbLine
62
7
6
CONTINUOUS
10
145.1935145042
20
130.0532011630
11
145.1935145042
21
129.3032011630
0
LINE
5
20F
100
AcDbEntity
8
0
100
AcDbLine
62
7
6
CONTINUOUS
10
145.1935145042
20
125.8032009246
11
145.1935145042
21
125.0532009246
0
LINE
5
210
100
AcDbEntity
8
0
100
AcDbLine
62
7
6
CONTINUOUS
10
145.1935145042
20
117.3032011630
11
145.1935145042
21
116.5532011630
0
LINE
5
211
100
AcDbEntity
8
0
100
AcDbLine
62
7
6
CONTINUOUS
10
145.1935145042
20
112.0532011630
11
145.1935145042
21
111.3032011630
0
LINE
5
212
100
AcDbEntity
8
0
100
AcDbLine
62
7
6
CONTINUOUS
10
145.1935145042
20
108.5532002093
11
145.1935145042
21
107.5532011630
0
LINE
5
213
100
AcDbEntity
8
0
100
AcDbLine
62
7
6
CONTINUOUS
10
146.5977698347
20
105.8032021167
11
146.2147910676
21
105.9282002093
0
LINE
5
214
100
AcDbEntity
8
0
100
AcDbLine
62
7
6
CONTINUOUS
10
146.5977698347
20
106.4282011630
11
146.3424507162
21
106.5532021167
0
LINE
5
215
100
AcDbEntity
8
0
100
AcDbLine
62
7
6
CONTINUOUS
10
149.5339398763
20
106.5532021167
11
149.0233016393
21
106.8032011630
0
LINE
5
216
100
AcDbEntity
8
0
100
AcDbLine
62
7
6
CONTINUOUS
10
149.0233016393
20
106.0532011630
11
148.6403229616
21
106.3032002093
0
LINE
5
217
100
AcDbEntity
8
0
100
AcDbLine
62
7
6
CONTINUOUS
10
150.1722380302
20
109.3032002093
11
149.7892593524
21
109.5532021167
0
LINE
5
218
100
AcDbEntity
8
0
100
AcDbLine
62
7
6
CONTINUOUS
10
150.1722380302
20
112.0532011630
11
149.2786207578
21
112.8032011630
0
LINE
5
219
100
AcDbEntity
8
0
100
AcDbLine
62
7
6
CONTINUOUS
10
151.1935145042
20
112.0532011630
11
150.2998975894
21
112.8032011630
0
LINE
5
21A
100
AcDbEntity
8
0
100
AcDbLine
62
7
6
CONTINUOUS
10
150.1722380302
20
117.3032011630
11
149.2786207578
21
118.0532011630
0
LINE
5
21B
100
AcDbEntity
8
0
100
AcDbLine
62
7
6
CONTINUOUS
10
151.1935145042
20
117.3032011630
11
150.2998975894
21
118.0532011630
0
LINE
5
21C
100
AcDbEntity
8
0
100
AcDbLine
62
7
6
CONTINUOUS
10
150.8105358264
20
109.5532021167
11
150.2998975894
21
110.0532002093
0
LINE
5
21D
100
AcDbEntity
8
0
100
AcDbLine
62
7
6
CONTINUOUS
10
150.4275571487
20
108.9282002093
11
150.1722380302
21
109.3032002093
0
LINE
5
21E
100
AcDbEntity
8
0
100
AcDbLine
62
7
6
CONTINUOUS
10
151.0658549449
20
109.0532011630
11
150.8105358264
21
109.5532021167
0
LINE
5
21F
100
AcDbEntity
8
0
100
AcDbLine
62
7
6
CONTINUOUS
10
148.7679825208
20
107.0532002093
11
148.5126634023
21
107.8032002093
0
LINE
5
220
100
AcDbEntity
8
0
100
AcDbLine
62
7
6
CONTINUOUS
10
145.3211740746
20
107.0532002093
11
145.1935145042
21
107.5532011630
0
LINE
5
221
100
AcDbEntity
8
0
100
AcDbLine
62
7
6
CONTINUOUS
10
145.9594719491
20
107.0532002093
11
145.8318123898
21
107.6782021167
0
LINE
5
222
100
AcDbEntity
8
0
100
AcDbLine
62
7
6
CONTINUOUS
10
150.5552167079
20
108.3032011630
11
150.4275571487
21
108.9282002093
0
LINE
5
223
100
AcDbEntity
8
0
100
AcDbLine
62
7
6
CONTINUOUS
10
151.1935145042
20
108.1782002093
11
151.0658549449
21
109.0532011630
0
LINE
5
224
100
AcDbEntity
8
0
100
AcDbLine
62
7
6
CONTINUOUS
10
145.8318123898
20
108.4282021167
11
145.8318123898
21
107.6782021167
0
LINE
5
225
100
AcDbEntity
8
0
100
AcDbLine
62
7
6
CONTINUOUS
10
146.5977698347
20
110.3032021167
11
146.5977698347
21
109.6782002093
0
LINE
5
226
100
AcDbEntity
8
0
100
AcDbLine
62
7
6
CONTINUOUS
10
146.7254293940
20
128.8032009246
11
146.7254293940
21
126.3032011630
0
LINE
5
227
100
AcDbEntity
8
0
100
AcDbLine
62
7
6
CONTINUOUS
10
147.2360676310
20
128.6782014014
11
147.2360676310
21
126.4282014014
0
LINE
5
228
100
AcDbEntity
8
0
100
AcDbLine
62
7
6
CONTINUOUS
10
147.3637271902
20
115.5532006862
11
147.3637271902
21
113.8032016398
0
LINE
5
229
100
AcDbEntity
8
0
100
AcDbLine
62
7
6
CONTINUOUS
10
148.0020251653
20
115.5532006862
11
148.0020251653
21
113.8032016398
0
LINE
5
22A
100
AcDbEntity
8
0
100
AcDbLine
62
7
6
CONTINUOUS
10
148.0020251653
20
108.3032011630
11
148.0020251653
21
107.8032002093
0
LINE
5
22B
100
AcDbEntity
8
0
100
AcDbLine
62
7
6
CONTINUOUS
10
148.5126634023
20
108.3032011630
11
148.5126634023
21
107.8032002093
0
LINE
5
22C
100
AcDbEntity
8
0
100
AcDbLine
62
7
6
CONTINUOUS
10
149.7892593524
20
110.1782011630
11
149.7892593524
21
109.5532021167
0
LINE
5
22D
100
AcDbEntity
8
0
100
AcDbLine
62
7
6
CONTINUOUS
10
150.5552167079
20
108.3032011630
11
150.5552167079
21
107.8032002093
0
LINE
5
22E
100
AcDbEntity
8
0
100
AcDbLine
62
7
6
CONTINUOUS
10
151.1935145042
20
136.0532011630
11
151.1935145042
21
135.3032011630
0
LINE
5
22F
100
AcDbEntity
8
0
100
AcDbLine
62
7
6
CONTINUOUS
10
151.1935145042
20
131.8032012822
11
151.1935145042
21
131.0532012822
0
LINE
5
230
100
AcDbEntity
8
0
100
AcDbLine
62
7
6
CONTINUOUS
10
151.1935145042
20
128.0532009246
11
151.1935145042
21
127.0532011630
0
LINE
5
231
100
AcDbEntity
8
0
100
AcDbLine
62
7
6
CONTINUOUS
10
151.1935145042
20
117.3032011630
11
151.1935145042
21
116.5532011630
0
LINE
5
232
100
AcDbEntity
8
0
100
AcDbLine
62
7
6
CONTINUOUS
10
151.1935145042
20
112.0532011630
11
151.1935145042
21
111.3032011630
0
LINE
5
233
100
AcDbEntity
8
0
100
AcDbLine
62
7
6
CONTINUOUS
10
151.1935145042
20
108.1782002093
11
151.1935145042
21
107.9282011630
0
LINE
5
234
100
AcDbEntity
8
0
100
AcDbLine
62
7
6
CONTINUOUS
10
145.9594719491
20
109.0532011630
11
145.8318123898
21
108.4282021167
0
LINE
5
235
100
AcDbEntity
8
0
100
AcDbLine
62
7
6
CONTINUOUS
10
149.5339398763
20
105.9282002093
11
149.0233016393
21
106.0532011630
0
LINE
5
236
100
AcDbEntity
8
0
100
AcDbLine
62
7
6
CONTINUOUS
10
150.2998975894
20
110.0532002093
11
149.7892593524
21
110.1782011630
0
LINE
5
237
100
AcDbEntity
8
0
100
AcDbLine
62
7
6
CONTINUOUS
10
159.1935145042
20
154.0532011630
11
159.1935145042
21
84.0532011630
0
LINE
5
238
100
AcDbEntity
8
0
100
AcDbLine
62
7
6
CONTINUOUS
10
151.1935145042
20
107.9282011630
11
151.0658549449
21
107.0532002093
0
LINE
5
239
100
AcDbEntity
8
0
100
AcDbLine
62
7
6
CONTINUOUS
10
148.0020251653
20
107.8032002093
11
147.8743656061
21
107.0532002093
0
LINE
5
23A
100
AcDbEntity
8
0
100
AcDbLine
62
7
6
CONTINUOUS
10
150.5552167079
20
107.8032002093
11
150.4275571487
21
107.1782011630
0
LINE
5
23B
100
AcDbEntity
8
0
100
AcDbLine
62
7
6
CONTINUOUS
10
145.3211740746
20
109.0532011630
11
145.1935145042
21
108.5532002093
0
LINE
5
23C
100
AcDbEntity
8
0
100
AcDbLine
62
7
6
CONTINUOUS
10
147.1084080717
20
105.8032021167
11
146.5977698347
21
105.8032021167
0
LINE
5
23D
100
AcDbEntity
8
0
100
AcDbLine
62
7
6
CONTINUOUS
10
149.7892593524
20
105.9282002093
11
149.5339398763
21
105.9282002093
0
LINE
5
23E
100
AcDbEntity
8
0
100
AcDbLine
62
7
6
CONTINUOUS
10
147.1084080717
20
106.4282011630
11
146.5977698347
21
106.4282011630
0
LINE
5
23F
100
AcDbEntity
8
0
100
AcDbLine
62
7
6
CONTINUOUS
10
149.7892593524
20
106.5532021167
11
149.5339398763
21
106.5532021167
0
LINE
5
240
100
AcDbEntity
8
0
100
AcDbLine
62
7
6
CONTINUOUS
10
148.5126634023
20
108.3032011630
11
148.0020251653
21
108.3032011630
0
LINE
5
241
100
AcDbEntity
8
0
100
AcDbLine
62
7
6
CONTINUOUS
10
145.1935145042
20
111.3032011630
11
151.1935145042
21
111.3032011630
0
LINE
5
242
100
AcDbEntity
8
0
100
AcDbLine
62
7
6
CONTINUOUS
10
150.1722380302
20
112.0532011630
11
145.1935145042
21
112.0532011630
0
LINE
5
243
100
AcDbEntity
8
0
100
AcDbLine
62
7
6
CONTINUOUS
10
146.7254293940
20
128.8032009246
11
145.1935145042
21
129.3032011630
0
LINE
5
244
100
AcDbEntity
8
0
100
AcDbLine
62
7
6
CONTINUOUS
10
147.2360676310
20
128.6782014014
11
150.6828762672
21
127.5532014014
0
LINE
5
245
100
AcDbEntity
8
0
100
AcDbLine
62
7
6
CONTINUOUS
10
148.2573442838
20
106.8032011630
11
148.0020251653
21
106.1782021167
0
LINE
5
246
100
AcDbEntity
8
0
100
AcDbLine
62
7
6
CONTINUOUS
10
145.3211740746
20
109.0532011630
11
145.5764932266
21
109.5532021167
0
LINE
5
247
100
AcDbEntity
8
0
100
AcDbLine
62
7
6
CONTINUOUS
10
146.0871315083
20
109.3032002093
11
145.9594719491
21
109.0532011630
0
LINE
5
248
100
AcDbEntity
8
0
100
AcDbLine
62
7
6
CONTINUOUS
10
210.1969900676
20
234.8032011630
11
222.3935145042
21
255.9282011630
0
LINE
5
249
100
AcDbEntity
8
0
100
AcDbLine
62
7
6
CONTINUOUS
10
150.2998975894
20
106.0532011630
11
149.7892593524
21
105.9282002093
0
LINE
5
24A
100
AcDbEntity
8
0
100
AcDbLine
62
7
6
CONTINUOUS
10
147.6190464876
20
105.9282002093
11
147.1084080717
21
105.8032021167
0
LINE
5
24B
100
AcDbEntity
8
0
100
AcDbLine
62
7
6
CONTINUOUS
10
149.2786207578
20
112.8032011630
11
150.2998975894
21
112.8032011630
0
LINE
5
24C
100
AcDbEntity
8
0
100
AcDbLine
62
7
6
CONTINUOUS
10
147.3637271902
20
113.8032016398
11
148.0020251653
21
113.8032016398
0
LINE
5
24D
100
AcDbEntity
8
0
100
AcDbLine
62
7
6
CONTINUOUS
10
148.0020251653
20
115.5532006862
11
147.3637271902
21
115.5532006862
0
LINE
5
24E
100
AcDbEntity
8
0
100
AcDbLine
62
7
6
CONTINUOUS
10
145.1935145042
20
116.5532011630
11
151.1935145042
21
116.5532011630
0
LINE
5
24F
100
AcDbEntity
8
0
100
AcDbLine
62
7
6
CONTINUOUS
10
150.1722380302
20
117.3032011630
11
145.1935145042
21
117.3032011630
0
LINE
5
250
100
AcDbEntity
8
0
100
AcDbLine
62
7
6
CONTINUOUS
10
150.2998975894
20
118.0532011630
11
149.2786207578
21
118.0532011630
0
LINE
5
251
100
AcDbEntity
8
0
100
AcDbLine
62
7
6
CONTINUOUS
10
151.1935145042
20
128.0532009246
11
145.1935145042
21
130.0532011630
0
LINE
5
252
100
AcDbEntity
8
0
100
AcDbLine
62
7
6
CONTINUOUS
10
145.1935145042
20
133.0532011630
11
151.1935145042
21
131.0532012822
0
LINE
5
253
100
AcDbEntity
8
0
100
AcDbLine
62
7
6
CONTINUOUS
10
151.1935145042
20
131.8032012822
11
145.9594719491
21
133.5532012226
0
LINE
5
254
100
AcDbEntity
8
0
100
AcDbLine
62
7
6
CONTINUOUS
10
151.0658549449
20
107.0532002093
11
150.8105358264
21
106.5532021167
0
LINE
5
255
100
AcDbEntity
8
0
100
AcDbLine
62
7
6
CONTINUOUS
10
145.8318123898
20
109.9282021167
11
145.5764932266
21
109.5532021167
0
LINE
5
256
100
AcDbEntity
8
0
100
AcDbLine
62
7
6
CONTINUOUS
10
147.8743656061
20
107.0532002093
11
147.6190464876
21
106.6782002093
0
LINE
5
257
100
AcDbEntity
8
0
100
AcDbLine
62
7
6
CONTINUOUS
10
150.4275571487
20
107.1782011630
11
150.1722380302
21
106.8032011630
0
LINE
5
258
100
AcDbEntity
8
0
100
AcDbLine
62
7
6
CONTINUOUS
10
185.9935145042
20
255.9282011630
11
185.9935145042
21
266.3282011630
0
LINE
5
259
100
AcDbEntity
8
0
100
AcDbLine
62
7
6
CONTINUOUS
10
191.1935145042
20
246.2248690633
11
191.1935145042
21
236.1032011630
0
LINE
5
25A
100
AcDbEntity
8
0
100
AcDbLine
62
7
6
CONTINUOUS
10
146.3424507162
20
109.5532021167
11
146.0871315083
21
109.3032002093
0
LINE
5
25B
100
AcDbEntity
8
0
100
AcDbLine
62
7
6
CONTINUOUS
10
196.0685145042
20
190.9282011630
11
196.0685145042
21
233.5790327959
0
LINE
5
25C
100
AcDbEntity
8
0
100
AcDbLine
62
7
6
CONTINUOUS
10
200.9435145042
20
177.2782011630
11
200.9435145042
21
256.5535908680
0
LINE
5
25D
100
AcDbEntity
8
DEFAULT_1
100
AcDbLine
62
2
6
CENTER
10
204.1935145042
20
266.3282011630
11
204.1935145042
21
13.7415578888
0
LINE
5
25E
100
AcDbEntity
8
DEFAULT_1
100
AcDbLine
62
2
6
CENTER
10
204.1935145042
20
266.3282011630
11
204.1935145042
21
277.1282011630
0
LINE
5
25F
100
AcDbEntity
8
0
100
AcDbLine
62
7
6
CONTINUOUS
10
211.7273428874
20
187.8856603019
11
207.4435145042
21
177.2782011630
0
LINE
5
260
100
AcDbEntity
8
0
100
AcDbLine
62
7
6
CONTINUOUS
10
150.8105358264
20
106.5532021167
11
150.2998975894
21
106.0532011630
0
LINE
5
261
100
AcDbEntity
8
0
100
AcDbLine
62
7
6
CONTINUOUS
10
145.9594719491
20
133.5532012226
11
151.1935145042
21
135.3032011630
0
LINE
5
262
100
AcDbEntity
8
0
100
AcDbLine
62
7
6
CONTINUOUS
10
151.1935145042
20
136.0532011630
11
145.1935145042
21
134.0532011034
0
LINE
5
263
100
AcDbEntity
8
0
100
AcDbLine
62
7
6
CONTINUOUS
10
207.4435145042
20
177.2782011630
11
207.4435145042
21
256.5535908680
0
LINE
5
264
100
AcDbEntity
8
0
100
AcDbLine
62
7
6
CONTINUOUS
10
212.3185145042
20
190.9282011630
11
212.3185145042
21
233.5790327959
0
LINE
5
265
100
AcDbEntity
8
0
100
AcDbLine
62
7
6
CONTINUOUS
10
146.2147910676
20
110.1782011630
11
145.8318123898
21
109.9282021167
0
LINE
5
266
100
AcDbEntity
8
0
100
AcDbLine
62
7
6
CONTINUOUS
10
148.0020251653
20
106.1782021167
11
147.6190464876
21
105.9282002093
0
LINE
5
267
100
AcDbEntity
8
0
100
AcDbLine
62
7
6
CONTINUOUS
10
150.1722380302
20
106.8032011630
11
149.7892593524
21
106.5532021167
0
LINE
5
268
100
AcDbEntity
8
0
100
AcDbLine
62
7
6
CONTINUOUS
10
145.1935145042
20
125.0532009246
11
151.1935145042
21
127.0532011630
0
LINE
5
269
100
AcDbEntity
8
0
100
AcDbLine
62
7
6
CONTINUOUS
10
146.7254293940
20
126.3032011630
11
145.1935145042
21
125.8032009246
0
LINE
5
26A
100
AcDbEntity
8
0
100
AcDbLine
62
7
6
CONTINUOUS
10
150.6828762672
20
127.5532014014
11
147.2360676310
21
126.4282014014
0
LINE
5
26B
100
AcDbEntity
8
0
100
AcDbLine
62
7
6
CONTINUOUS
10
200.9435145042
20
177.2782011630
11
196.6596861209
21
187.8856603019
0
LINE
5
26C
100
AcDbEntity
8
0
100
AcDbLine
62
7
6
CONTINUOUS
10
217.1935145042
20
246.2248690633
11
217.1935145042
21
236.1032011630
0
LINE
5
26D
100
AcDbEntity
8
0
100
AcDbLine
62
7
6
CONTINUOUS
10
222.3935145042
20
255.9282011630
11
222.3935145042
21
266.3282011630
0
LINE
5
26E
100
AcDbEntity
8
0
100
AcDbLine
62
7
6
CONTINUOUS
10
146.5977698347
20
109.6782002093
11
146.3424507162
21
109.5532021167
0
LINE
5
26F
100
AcDbEntity
8
0
100
AcDbLine
62
7
6
CONTINUOUS
10
147.6190464876
20
106.6782002093
11
147.1084080717
21
106.4282011630
0
LINE
5
270
100
AcDbEntity
8
0
100
AcDbLine
62
7
6
CONTINUOUS
10
146.5977698347
20
110.3032021167
11
146.2147910676
21
110.1782011630
0
LINE
5
271
100
AcDbEntity
8
0
100
AcDbLine
62
7
6
CONTINUOUS
10
207.4435145042
20
177.2782011630
11
200.9435145042
21
177.2782011630
0
LINE
5
272
100
AcDbEntity
8
0
100
AcDbLine
62
7
6
CONTINUOUS
10
198.1900389408
20
234.8032011630
11
185.9935145042
21
255.9282011630
0
LINE
5
273
100
AcDbEntity
8
0
100
AcDbLine
62
7
6
CONTINUOUS
10
249.1935145042
20
84.0532011630
11
249.1935145042
21
154.0532011630
0
LINE
5
274
100
AcDbEntity
8
0
100
AcDbLine
62
7
6
CONTINUOUS
10
271.1935145042
20
84.0532011630
11
271.1935145042
21
154.0532011630
0
LINE
5
275
100
AcDbEntity
8
0
100
AcDbLine
62
7
6
CONTINUOUS
10
196.0685145042
20
233.5032011630
11
193.7935145042
21
233.5032011630
0
LINE
5
276
100
AcDbEntity
8
0
100
AcDbLine
62
7
6
CONTINUOUS
10
212.3185145042
20
233.5032011630
11
214.5935145042
21
233.5032011630
0
LINE
5
277
100
AcDbEntity
8
DEFAULT_1
100
AcDbLine
62
2
6
CENTER
10
204.1935145042
20
266.3282011630
11
193.3935145042
21
266.3282011630
0
LINE
5
278
100
AcDbEntity
8
DEFAULT_1
100
AcDbLine
62
2
6
CENTER
10
204.1935145042
20
266.3282011630
11
214.9935145042
21
266.3282011630
0
LINE
5
279
100
AcDbEntity
8
0
100
AcDbLine
62
7
6
CONTINUOUS
10
220.3129903021
20
274.7782011630
11
188.0740387063
21
274.7782011630
0
LINE
5
27A
100
AcDbEntity
8
0
100
AcDbLine
62
7
6
CONTINUOUS
10
312.7300476792
20
284.5282011630
11
304.5488262752
21
274.7782011630
0
LINE
5
27B
100
AcDbEntity
8
0
100
AcDbLine
62
7
6
CONTINUOUS
10
298.6413239077
20
223.0504800920
11
304.5488262752
21
256.5535908680
0
LINE
5
27C
100
AcDbEntity
8
0
100
AcDbLine
62
7
6
CONTINUOUS
10
347.9951747088
20
105.8032021167
11
347.9324653242
21
105.8032021167
0
LINE
5
27D
100
AcDbEntity
8
DEFAULT_2
100
AcDbLine
62
8
6
HIDDEN
10
347.9324653242
20
105.8032021167
11
347.4488262752
21
105.8032021167
0
LINE
5
27E
100
AcDbEntity
8
0
100
AcDbLine
62
7
6
CONTINUOUS
10
348.0338154194
20
105.9282002093
11
347.8693925063
21
105.9282002093
0
LINE
5
27F
100
AcDbEntity
8
DEFAULT_2
100
AcDbLine
62
8
6
HIDDEN
10
347.8693925063
20
105.9282002093
11
347.4488262752
21
105.9282002093
0
LINE
5
280
100
AcDbEntity
8
DEFAULT_2
100
AcDbLine
62
8
6
HIDDEN
10
348.0174840468
20
106.0532011630
11
347.4488262752
21
106.0532011630
0
LINE
5
281
100
AcDbEntity
8
0
100
AcDbLine
62
7
6
CONTINUOUS
10
348.0471594140
20
106.1782021167
11
347.7923063037
21
106.1782021167
0
LINE
5
282
100
AcDbEntity
8
DEFAULT_2
100
AcDbLine
62
8
6
HIDDEN
10
347.7923063037
20
106.1782021167
11
347.4488262752
21
106.1782021167
0
LINE
5
283
100
AcDbEntity
8
DEFAULT_2
100
AcDbLine
62
8
6
HIDDEN
10
348.0397480838
20
106.3032002093
11
347.4488262752
21
106.3032002093
0
LINE
5
284
100
AcDbEntity
8
DEFAULT_2
100
AcDbLine
62
8
6
HIDDEN
10
347.7534262540
20
106.4282011630
11
347.4488262752
21
106.4282011630
0
LINE
5
285
100
AcDbEntity
8
0
100
AcDbLine
62
7
6
CONTINUOUS
10
347.9951747088
20
106.4282011630
11
347.7534262540
21
106.4282011630
0
LINE
5
286
100
AcDbEntity
8
DEFAULT_2
100
AcDbLine
62
8
6
HIDDEN
10
347.9668508136
20
106.5532021167
11
347.8919606400
21
106.5532021167
0
LINE
5
287
100
AcDbEntity
8
0
100
AcDbLine
62
7
6
CONTINUOUS
10
347.8919606400
20
106.5532021167
11
347.7329827526
21
106.5532021167
0
LINE
5
288
100
AcDbEntity
8
DEFAULT_2
100
AcDbLine
62
8
6
HIDDEN
10
347.7329827526
20
106.5532021167
11
347.4488262752
21
106.5532021167
0
LINE
5
289
100
AcDbEntity
8
DEFAULT_2
100
AcDbLine
62
8
6
HIDDEN
10
348.0338154194
20
106.6782002093
11
347.4488262752
21
106.6782002093
0
LINE
5
28A
100
AcDbEntity
8
0
100
AcDbLine
62
7
6
CONTINUOUS
10
348.0486410809
20
106.8032011630
11
348.0378944632
21
106.8032011630
0
LINE
5
28B
100
AcDbEntity
8
DEFAULT_2
100
AcDbLine
62
8
6
HIDDEN
10
348.0378944632
20
106.8032011630
11
347.8452678498
21
106.8032011630
0
LINE
5
28C
100
AcDbEntity
8
0
100
AcDbLine
62
7
6
CONTINUOUS
10
347.8452678498
20
106.8032011630
11
347.7009012261
21
106.8032011630
0
LINE
5
28D
100
AcDbEntity
8
DEFAULT_2
100
AcDbLine
62
8
6
HIDDEN
10
347.7009012261
20
106.8032011630
11
347.4488262752
21
106.8032011630
0
LINE
5
28E
100
AcDbEntity
8
DEFAULT_2
100
AcDbLine
62
8
6
HIDDEN
10
348.0441954814
20
107.0532002093
11
347.8195761962
21
107.0532002093
0
LINE
5
28F
100
AcDbEntity
8
0
100
AcDbLine
62
7
6
CONTINUOUS
10
347.8195761962
20
107.0532002093
11
347.6671905775
21
107.0532002093
0
LINE
5
290
100
AcDbEntity
8
DEFAULT_2
100
AcDbLine
62
8
6
HIDDEN
10
347.6671905775
20
107.0532002093
11
347.4488262752
21
107.0532002093
0
LINE
5
291
100
AcDbEntity
8
DEFAULT_2
100
AcDbLine
62
8
6
HIDDEN
10
347.8195761777
20
107.1782011630
11
347.4488262752
21
107.1782011630
0
LINE
5
292
100
AcDbEntity
8
DEFAULT_2
100
AcDbLine
62
8
6
HIDDEN
10
347.6318315194
20
107.5532011630
11
347.4488262752
21
107.5532011630
0
LINE
5
293
100
AcDbEntity
8
DEFAULT_2
100
AcDbLine
62
8
6
HIDDEN
10
347.6318315194
20
107.6782021167
11
347.4488262752
21
107.6782021167
0
LINE
5
294
100
AcDbEntity
8
0
100
AcDbLine
62
7
6
CONTINUOUS
10
347.7923063037
20
107.6782021167
11
347.6318315194
21
107.6782021167
0
LINE
5
295
100
AcDbEntity
8
DEFAULT_2
100
AcDbLine
62
8
6
HIDDEN
10
348.0471594117
20
107.8032002093
11
347.4488262752
21
107.8032002093
0
LINE
5
296
100
AcDbEntity
8
DEFAULT_2
100
AcDbLine
62
8
6
HIDDEN
10
347.6318315194
20
107.9282011630
11
347.4488262752
21
107.9282011630
0
LINE
5
297
100
AcDbEntity
8
DEFAULT_2
100
AcDbLine
62
8
6
HIDDEN
10
347.6318315194
20
108.1782002093
11
347.4488262752
21
108.1782002093
0
LINE
5
298
100
AcDbEntity
8
0
100
AcDbLine
62
7
6
CONTINUOUS
10
348.0488265394
20
108.3032011630
11
348.0471594140
21
108.3032011630
0
LINE
5
299
100
AcDbEntity
8
DEFAULT_2
100
AcDbLine
62
8
6
HIDDEN
10
348.0471594140
20
108.3032011630
11
347.4488262752
21
108.3032011630
0
LINE
5
29A
100
AcDbEntity
8
DEFAULT_2
100
AcDbLine
62
8
6
HIDDEN
10
347.6318315194
20
108.4282021167
11
347.4488262752
21
108.4282021167
0
LINE
5
29B
100
AcDbEntity
8
0
100
AcDbLine
62
7
6
CONTINUOUS
10
347.7923063037
20
108.4282021167
11
347.6318315194
21
108.4282021167
0
LINE
5
29C
100
AcDbEntity
8
DEFAULT_2
100
AcDbLine
62
8
6
HIDDEN
10
347.6318315194
20
108.5532002093
11
347.4488262752
21
108.5532002093
0
LINE
5
29D
100
AcDbEntity
8
DEFAULT_2
100
AcDbLine
62
8
6
HIDDEN
10
347.8195761777
20
108.9282002093
11
347.4488262752
21
108.9282002093
0
LINE
5
29E
100
AcDbEntity
8
DEFAULT_2
100
AcDbLine
62
8
6
HIDDEN
10
347.6671905775
20
109.0532011630
11
347.4488262752
21
109.0532011630
0
LINE
5
29F
100
AcDbEntity
8
0
100
AcDbLine
62
7
6
CONTINUOUS
10
347.8195761962
20
109.0532011630
11
347.6671905775
21
109.0532011630
0
LINE
5
2A0
100
AcDbEntity
8
DEFAULT_2
100
AcDbLine
62
8
6
HIDDEN
10
347.8693924899
20
109.3032002093
11
347.8452678498
21
109.3032002093
0
LINE
5
2A1
100
AcDbEntity
8
0
100
AcDbLine
62
7
6
CONTINUOUS
10
347.8452678498
20
109.3032002093
11
347.7009010402
21
109.3032002093
0
LINE
5
2A2
100
AcDbEntity
8
DEFAULT_2
100
AcDbLine
62
8
6
HIDDEN
10
347.7009010402
20
109.3032002093
11
347.4488262752
21
109.3032002093
0
LINE
5
2A3
100
AcDbEntity
8
DEFAULT_2
100
AcDbLine
62
8
6
HIDDEN
10
347.9324652980
20
109.5532021167
11
347.8919606400
21
109.5532021167
0
LINE
5
2A4
100
AcDbEntity
8
0
100
AcDbLine
62
7
6
CONTINUOUS
10
347.8919606400
20
109.5532021167
11
347.7329827526
21
109.5532021167
0
LINE
5
2A5
100
AcDbEntity
8
DEFAULT_2
100
AcDbLine
62
8
6
HIDDEN
10
347.7329827526
20
109.5532021167
11
347.4488262752
21
109.5532021167
0
LINE
5
2A6
100
AcDbEntity
8
DEFAULT_2
100
AcDbLine
62
8
6
HIDDEN
10
347.7534257953
20
109.6782002093
11
347.4488262752
21
109.6782002093
0
LINE
5
2A7
100
AcDbEntity
8
0
100
AcDbLine
62
7
6
CONTINUOUS
10
347.9324653242
20
109.6782002093
11
347.7534257953
21
109.6782002093
0
LINE
5
2A8
100
AcDbEntity
8
DEFAULT_2
100
AcDbLine
62
8
6
HIDDEN
10
347.7923063037
20
109.9282021167
11
347.4488262752
21
109.9282021167
0
LINE
5
2A9
100
AcDbEntity
8
DEFAULT_2
100
AcDbLine
62
8
6
HIDDEN
10
347.8452678324
20
110.0532002093
11
347.4488262752
21
110.0532002093
0
LINE
5
2AA
100
AcDbEntity
8
DEFAULT_2
100
AcDbLine
62
8
6
HIDDEN
10
347.9324652980
20
110.1782011630
11
347.4488262752
21
110.1782011630
0
LINE
5
2AB
100
AcDbEntity
8
DEFAULT_2
100
AcDbLine
62
8
6
HIDDEN
10
347.9324653242
20
110.3032021167
11
347.4488262752
21
110.3032021167
0
LINE
5
2AC
100
AcDbEntity
8
DEFAULT_2
100
AcDbLine
62
8
6
HIDDEN
10
347.6318315194
20
111.3032011630
11
347.4488262752
21
111.3032011630
0
LINE
5
2AD
100
AcDbEntity
8
0
100
AcDbLine
62
7
6
CONTINUOUS
10
347.6318315194
20
111.3032011630
11
348.0488262752
21
111.3032011630
0
LINE
5
2AE
100
AcDbEntity
8
DEFAULT_2
100
AcDbLine
62
8
6
HIDDEN
10
347.6318315194
20
112.0532011630
11
347.4488262752
21
112.0532011630
0
LINE
5
2AF
100
AcDbEntity
8
0
100
AcDbLine
62
7
6
CONTINUOUS
10
348.0487841292
20
112.0532011630
11
347.6318315194
21
112.0532011630
0
LINE
5
2B0
100
AcDbEntity
8
DEFAULT_2
100
AcDbLine
62
8
6
HIDDEN
10
347.9951747265
20
112.8032011630
11
347.4488262752
21
112.8032011630
0
LINE
5
2B1
100
AcDbEntity
8
DEFAULT_2
100
AcDbLine
62
8
6
HIDDEN
10
348.0174840333
20
113.8032016398
11
347.4488262752
21
113.8032016398
0
LINE
5
2B2
100
AcDbEntity
8
0
100
AcDbLine
62
7
6
CONTINUOUS
10
348.0174840333
20
113.8032016398
11
348.0471594140
21
113.8032016398
0
LINE
5
2B3
100
AcDbEntity
8
0
100
AcDbLine
62
7
6
CONTINUOUS
10
304.5488262752
20
233.7462484149
11
304.5488262752
21
274.7782011630
0
LINE
5
2B4
100
AcDbEntity
8
0
100
AcDbLine
62
7
6
CONTINUOUS
10
348.0471594140
20
115.5532006862
11
348.0174840333
21
115.5532006862
0
LINE
5
2B5
100
AcDbEntity
8
DEFAULT_2
100
AcDbLine
62
8
6
HIDDEN
10
348.0174840333
20
115.5532006862
11
347.4488262752
21
115.5532006862
0
LINE
5
2B6
100
AcDbEntity
8
DEFAULT_2
100
AcDbLine
62
8
6
HIDDEN
10
347.6318315194
20
116.5532011630
11
347.4488262752
21
116.5532011630
0
LINE
5
2B7
100
AcDbEntity
8
0
100
AcDbLine
62
7
6
CONTINUOUS
10
347.6318315194
20
116.5532011630
11
348.0488262752
21
116.5532011630
0
LINE
5
2B8
100
AcDbEntity
8
DEFAULT_2
100
AcDbLine
62
8
6
HIDDEN
10
347.6318315194
20
117.3032011630
11
347.4488262752
21
117.3032011630
0
LINE
5
2B9
100
AcDbEntity
8
0
100
AcDbLine
62
7
6
CONTINUOUS
10
348.0487841292
20
117.3032011630
11
347.6318315194
21
117.3032011630
0
LINE
5
2BA
100
AcDbEntity
8
DEFAULT_2
100
AcDbLine
62
8
6
HIDDEN
10
347.9951747265
20
118.0532011630
11
347.4488262752
21
118.0532011630
0
LINE
5
2BB
100
AcDbEntity
8
DEFAULT_2
100
AcDbLine
62
8
6
HIDDEN
10
347.6318315194
20
125.0532009246
11
347.4488262752
21
125.0532009246
0
LINE
5
2BC
100
AcDbEntity
8
DEFAULT_2
100
AcDbLine
62
8
6
HIDDEN
10
347.6318315194
20
125.8032009246
11
347.4488262752
21
125.8032009246
0
LINE
5
2BD
100
AcDbEntity
8
DEFAULT_2
100
AcDbLine
62
8
6
HIDDEN
10
347.9504190996
20
126.3032011630
11
347.4488262752
21
126.3032011630
0
LINE
5
2BE
100
AcDbEntity
8
0
100
AcDbLine
62
7
6
CONTINUOUS
10
348.0070786671
20
126.4282014014
11
347.9504190996
21
126.4282014014
0
LINE
5
2BF
100
AcDbEntity
8
DEFAULT_2
100
AcDbLine
62
8
6
HIDDEN
10
347.9504190996
20
126.4282014014
11
347.4488262752
21
126.4282014014
0
LINE
5
2C0
100
AcDbEntity
8
DEFAULT_2
100
AcDbLine
62
8
6
HIDDEN
10
347.6318315194
20
127.0532011630
11
347.4488262752
21
127.0532011630
0
LINE
5
2C1
100
AcDbEntity
8
DEFAULT_2
100
AcDbLine
62
8
6
HIDDEN
10
347.7634461011
20
127.5532014014
11
347.4488262752
21
127.5532014014
0
LINE
5
2C2
100
AcDbEntity
8
DEFAULT_2
100
AcDbLine
62
8
6
HIDDEN
10
347.6318315194
20
128.0532009246
11
347.4488262752
21
128.0532009246
0
LINE
5
2C3
100
AcDbEntity
8
0
100
AcDbLine
62
7
6
CONTINUOUS
10
348.0070786671
20
128.6782014014
11
347.9504190996
21
128.6782014014
0
LINE
5
2C4
100
AcDbEntity
8
DEFAULT_2
100
AcDbLine
62
8
6
HIDDEN
10
347.9504190996
20
128.6782014014
11
347.4488262752
21
128.6782014014
0
LINE
5
2C5
100
AcDbEntity
8
DEFAULT_2
100
AcDbLine
62
8
6
HIDDEN
10
347.9504190996
20
128.8032009246
11
347.4488262752
21
128.8032009246
0
LINE
5
2C6
100
AcDbEntity
8
DEFAULT_2
100
AcDbLine
62
8
6
HIDDEN
10
347.6318315194
20
129.3032011630
11
347.4488262752
21
129.3032011630
0
LINE
5
2C7
100
AcDbEntity
8
DEFAULT_2
100
AcDbLine
62
8
6
HIDDEN
10
347.6318315194
20
130.0532011630
11
347.4488262752
21
130.0532011630
0
LINE
5
2C8
100
AcDbEntity
8
DEFAULT_2
100
AcDbLine
62
8
6
HIDDEN
10
347.6318315194
20
131.0532012822
11
347.4488262752
21
131.0532012822
0
LINE
5
2C9
100
AcDbEntity
8
DEFAULT_2
100
AcDbLine
62
8
6
HIDDEN
10
347.6318315194
20
131.8032012822
11
347.4488262752
21
131.8032012822
0
LINE
5
2CA
100
AcDbEntity
8
DEFAULT_2
100
AcDbLine
62
8
6
HIDDEN
10
347.6318315194
20
133.0532011630
11
347.4488262752
21
133.0532011630
0
LINE
5
2CB
100
AcDbEntity
8
0
100
AcDbLine
62
7
6
CONTINUOUS
10
319.9129720508
20
255.9282011630
11
319.9129720508
21
284.5282011630
0
LINE
5
2CC
100
AcDbEntity
8
0
100
AcDbLine
62
7
6
CONTINUOUS
10
326.0488262752
20
209.9897721573
11
326.0488262752
21
28.0532011630
0
LINE
5
2CD
100
AcDbEntity
8
DEFAULT_2
100
AcDbLine
62
8
6
HIDDEN
10
347.6318315194
20
133.5532012226
11
347.4488262752
21
133.5532012226
0
LINE
5
2CE
100
AcDbEntity
8
0
100
AcDbLine
62
7
6
CONTINUOUS
10
347.8195761962
20
133.5532012226
11
347.6318315194
21
133.5532012226
0
LINE
5
2CF
100
AcDbEntity
8
DEFAULT_2
100
AcDbLine
62
8
6
HIDDEN
10
347.6318315194
20
134.0532011034
11
347.4488262752
21
134.0532011034
0
LINE
5
2D0
100
AcDbEntity
8
DEFAULT_2
100
AcDbLine
62
8
6
HIDDEN
10
347.6318315194
20
135.3032011630
11
347.4488262752
21
135.3032011630
0
LINE
5
2D1
100
AcDbEntity
8
DEFAULT_2
100
AcDbLine
62
8
6
HIDDEN
10
347.6318315194
20
136.0532011630
11
347.4488262752
21
136.0532011630
0
LINE
5
2D2
100
AcDbEntity
8
0
100
AcDbLine
62
7
6
CONTINUOUS
10
329.7688262752
20
281.8478907596
11
329.7688262752
21
248.9082011630
0
LINE
5
2D3
100
AcDbEntity
8
DEFAULT_1
100
AcDbLine
62
2
6
CENTER
10
337.0488262752
20
14.0532011630
11
337.0488262752
21
97.1694807037
0
LINE
5
2D4
100
AcDbEntity
8
DEFAULT_1
100
AcDbLine
62
2
6
CENTER
10
337.0488262752
20
143.4123864926
11
337.0488262752
21
277.8505249716
0
LINE
5
2D5
100
AcDbEntity
8
0
100
AcDbLine
62
7
6
CONTINUOUS
10
344.3288262752
20
248.9082011630
11
344.3288262752
21
281.8478907596
0
LINE
5
2D6
100
AcDbEntity
8
DEFAULT_2
100
AcDbLine
62
8
6
HIDDEN
10
347.4488262752
20
136.0532011630
11
347.4488262752
21
131.0532012822
0
LINE
5
2D7
100
AcDbEntity
8
DEFAULT_2
100
AcDbLine
62
8
6
HIDDEN
10
347.4488262752
20
130.0532011630
11
347.4488262752
21
125.0532009246
0
LINE
5
2D8
100
AcDbEntity
8
DEFAULT_2
100
AcDbLine
62
8
6
HIDDEN
10
347.4488262752
20
118.0532011630
11
347.4488262752
21
116.5532011630
0
LINE
5
2D9
100
AcDbEntity
8
DEFAULT_2
100
AcDbLine
62
8
6
HIDDEN
10
347.4488262752
20
115.5532006862
11
347.4488262752
21
113.8032016398
0
LINE
5
2DA
100
AcDbEntity
8
DEFAULT_2
100
AcDbLine
62
8
6
HIDDEN
10
347.4488262752
20
112.8032011630
11
347.4488262752
21
111.3032011630
0
LINE
5
2DB
100
AcDbEntity
8
DEFAULT_2
100
AcDbLine
62
8
6
HIDDEN
10
347.4488262752
20
110.3032021167
11
347.4488262752
21
105.8032021167
0
LINE
5
2DC
100
AcDbEntity
8
DEFAULT_2
100
AcDbLine
62
8
6
HIDDEN
10
347.6318315194
20
136.0532011630
11
347.6318315194
21
135.3032011630
0
LINE
5
2DD
100
AcDbEntity
8
0
100
AcDbLine
62
7
6
CONTINUOUS
10
347.6318315194
20
134.0532011034
11
347.6318315194
21
133.0532011630
0
LINE
5
2DE
100
AcDbEntity
8
DEFAULT_2
100
AcDbLine
62
8
6
HIDDEN
10
347.6318315194
20
131.8032012822
11
347.6318315194
21
131.0532012822
0
LINE
5
2DF
100
AcDbEntity
8
0
100
AcDbLine
62
7
6
CONTINUOUS
10
347.6318315194
20
130.0532011630
11
347.6318315194
21
129.3032011630
0
LINE
5
2E0
100
AcDbEntity
8
DEFAULT_2
100
AcDbLine
62
8
6
HIDDEN
10
347.6318315194
20
128.0532009246
11
347.6318315194
21
127.0532011630
0
LINE
5
2E1
100
AcDbEntity
8
0
100
AcDbLine
62
7
6
CONTINUOUS
10
347.6318315194
20
125.8032009246
11
347.6318315194
21
125.0532009246
0
LINE
5
2E2
100
AcDbEntity
8
0
100
AcDbLine
62
7
6
CONTINUOUS
10
347.6318315194
20
117.3032011630
11
347.6318315194
21
116.5532011630
0
LINE
5
2E3
100
AcDbEntity
8
0
100
AcDbLine
62
7
6
CONTINUOUS
10
347.6318315194
20
112.0532011630
11
347.6318315194
21
111.3032011630
0
LINE
5
2E4
100
AcDbEntity
8
0
100
AcDbLine
62
7
6
CONTINUOUS
10
347.6318315194
20
108.5532002093
11
347.6318315194
21
107.5532011630
0
LINE
5
2E5
100
AcDbEntity
8
0
100
AcDbLine
62
7
6
CONTINUOUS
10
347.7923063037
20
108.4282021167
11
347.7923063037
21
107.6782021167
0
LINE
5
2E6
100
AcDbEntity
8
DEFAULT_2
100
AcDbLine
62
8
6
HIDDEN
10
347.9324653242
20
109.6782002093
11
347.9324652980
21
109.5532021167
0
LINE
5
2E7
100
AcDbEntity
8
0
100
AcDbLine
62
7
6
CONTINUOUS
10
347.9324653242
20
110.3032021167
11
347.9324653242
21
109.6782002093
0
LINE
5
2E8
100
AcDbEntity
8
0
100
AcDbLine
62
7
6
CONTINUOUS
10
347.9504190996
20
128.8032009246
11
347.9504190996
21
126.3032011630
0
LINE
5
2E9
100
AcDbEntity
8
0
100
AcDbLine
62
7
6
CONTINUOUS
10
348.0070786671
20
128.6782014014
11
348.0070786671
21
126.4282014014
0
LINE
5
2EA
100
AcDbEntity
8
0
100
AcDbLine
62
7
6
CONTINUOUS
10
348.0174840333
20
115.5532006862
11
348.0174840333
21
113.8032016398
0
LINE
5
2EB
100
AcDbEntity
8
DEFAULT_2
100
AcDbLine
62
8
6
HIDDEN
10
348.0441954814
20
108.3032011630
11
348.0441954814
21
107.8032002093
0
LINE
5
2EC
100
AcDbEntity
8
0
100
AcDbLine
62
7
6
CONTINUOUS
10
348.0471594140
20
115.5532006862
11
348.0471594140
21
113.8032016398
0
LINE
5
2ED
100
AcDbEntity
8
0
100
AcDbLine
62
7
6
CONTINUOUS
10
348.0471594140
20
108.3032011630
11
348.0471594140
21
107.8032002093
0
LINE
5
2EE
100
AcDbEntity
8
0
100
AcDbLine
62
7
6
CONTINUOUS
10
348.0488262752
20
105.9282002093
11
348.0488262752
21
28.0532011630
0
LINE
5
2EF
100
AcDbEntity
8
DEFAULT_2
100
AcDbLine
62
8
6
HIDDEN
10
348.0488262752
20
105.9282002093
11
348.0488262752
21
106.8032011630
0
LINE
5
2F0
100
AcDbEntity
8
0
100
AcDbLine
62
7
6
CONTINUOUS
10
348.0488262752
20
106.8032011630
11
348.0488262752
21
107.0532002093
0
LINE
5
2F1
100
AcDbEntity
8
DEFAULT_2
100
AcDbLine
62
8
6
HIDDEN
10
348.0488262752
20
107.0532002093
11
348.0488262752
21
108.3032011630
0
LINE
5
2F2
100
AcDbEntity
8
0
100
AcDbLine
62
7
6
CONTINUOUS
10
348.0488262752
20
108.3032011630
11
348.0488262752
21
113.8032016398
0
LINE
5
2F3
100
AcDbEntity
8
DEFAULT_2
100
AcDbLine
62
8
6
HIDDEN
10
348.0488262752
20
113.8032016398
11
348.0488262752
21
115.5532006862
0
LINE
5
2F4
100
AcDbEntity
8
0
100
AcDbLine
62
7
6
CONTINUOUS
10
348.0488262752
20
115.5532006862
11
348.0488262752
21
126.0532010438
0
LINE
5
2F5
100
AcDbEntity
8
DEFAULT_2
100
AcDbLine
62
8
6
HIDDEN
10
348.0488262752
20
126.0532010438
11
348.0488262752
21
126.3032011630
0
LINE
5
2F6
100
AcDbEntity
8
0
100
AcDbLine
62
7
6
CONTINUOUS
10
348.0488262752
20
126.3032011630
11
348.0488262752
21
128.8032009246
0
LINE
5
2F7
100
AcDbEntity
8
DEFAULT_2
100
AcDbLine
62
8
6
HIDDEN
10
348.0488262752
20
128.8032009246
11
348.0488262752
21
129.0532010438
0
LINE
5
2F8
100
AcDbEntity
8
0
100
AcDbLine
62
7
6
CONTINUOUS
10
348.0488262752
20
129.0532010438
11
348.0488262752
21
209.9897721573
0
LINE
5
2F9
100
AcDbEntity
8
0
100
AcDbLine
62
7
6
CONTINUOUS
10
354.1846804996
20
284.5282011630
11
354.1846804996
21
255.9282011630
0
LINE
5
2FA
100
AcDbEntity
8
0
100
AcDbLine
62
7
6
CONTINUOUS
10
369.5488262752
20
233.7462484149
11
369.5488262752
21
274.7782011630
0
LINE
5
2FB
100
AcDbEntity
8
0
100
AcDbLine
62
7
6
CONTINUOUS
10
375.4563286427
20
223.0504800920
11
369.5488262752
21
256.5535908680
0
LINE
5
2FC
100
AcDbEntity
8
0
100
AcDbLine
62
7
6
CONTINUOUS
10
358.4925739621
20
233.5032011630
11
315.6050785883
21
233.5032011630
0
LINE
5
2FD
100
AcDbEntity
8
0
100
AcDbLine
62
7
6
CONTINUOUS
10
344.3288262752
20
258.5282011630
11
329.7688262752
21
258.5282011630
0
LINE
5
2FE
100
AcDbEntity
8
0
100
AcDbLine
62
7
6
CONTINUOUS
10
369.5488262752
20
274.7782011630
11
361.3676048712
21
284.5282011630
0
LINE
5
2FF
100
AcDbEntity
8
DEFAULT_1
100
AcDbLine
62
2
6
CENTER
10
326.7688262752
20
266.3282011630
11
347.3288262752
21
266.3282011630
0
LINE
5
300
100
AcDbEntity
8
0
100
AcDbLine
62
7
6
CONTINUOUS
10
344.3288262752
20
274.1282011630
11
329.7688262752
21
274.1282011630
0
LINE
5
301
100
AcDbEntity
8
0
100
AcDbLine
62
7
6
CONTINUOUS
10
312.7300476792
20
284.5282011630
11
319.9129720508
21
284.5282011630
0
LINE
5
302
100
AcDbEntity
8
0
100
AcDbLine
62
7
6
CONTINUOUS
10
354.1846804996
20
284.5282011630
11
361.3676048712
21
284.5282011630
0
ARC
5
303
100
AcDbEntity
8
DEFAULT_2
100
AcDbCircle
62
8
6
HIDDEN
10
204.1935145042
20
154.0532011630
40
45.0000000000
100
AcDbArc
50
79.5946486737
51
100.4053513263
0
ARC
5
304
100
AcDbEntity
8
DEFAULT_2
100
AcDbCircle
62
8
6
HIDDEN
10
204.1935145042
20
154.0532011630
40
67.0000000000
100
AcDbArc
50
83.0329940101
51
96.9670059899
0
ARC
5
305
100
AcDbEntity
8
0
100
AcDbCircle
62
7
6
CONTINUOUS
10
204.1935145042
20
190.9282011630
40
8.1250000000
100
AcDbArc
50
180.0000000000
51
201.9913472955
0
ARC
5
306
100
AcDbEntity
8
0
100
AcDbCircle
62
7
6
CONTINUOUS
10
204.1935145042
20
190.9282011630
40
8.1250000000
100
AcDbArc
50
338.0086527045
51
360.0000000000
0
CIRCLE
5
307
100
AcDbEntity
8
0
100
AcDbCircle
62
7
6
CONTINUOUS
10
204.1935145042
20
266.3282011630
40
7.8000000000
0
ARC
5
308
100
AcDbEntity
8
0
100
AcDbCircle
62
7
6
CONTINUOUS
10
207.9453240177
20
236.1032011630
40
2.6000000000
100
AcDbArc
50
294.9711750139
51
330.0000000000
0
ARC
5
309
100
AcDbEntity
8
0
100
AcDbCircle
62
7
6
CONTINUOUS
10
214.5935145042
20
236.1032011630
40
2.6000000000
100
AcDbArc
50
270.0000000000
51
360.0000000000
0
ARC
5
30A
100
AcDbEntity
8
0
100
AcDbCircle
62
7
6
CONTINUOUS
10
219.7935145042
20
246.2248690633
40
2.6000000000
100
AcDbArc
50
150.0000000000
51
180.0000000000
0
ARC
5
30B
100
AcDbEntity
8
0
100
AcDbCircle
62
7
6
CONTINUOUS
10
204.1935145042
20
266.3282011630
40
18.2000000000
100
AcDbArc
50
0.0000000000
51
180.0000000000
0
ARC
5
30C
100
AcDbEntity
8
0
100
AcDbCircle
62
7
6
CONTINUOUS
10
188.5935145042
20
246.2248690633
40
2.6000000000
100
AcDbArc
50
0.0000000000
51
30.0000000000
0
ARC
5
30D
100
AcDbEntity
8
0
100
AcDbCircle
62
7
6
CONTINUOUS
10
193.7935145042
20
236.1032011630
40
2.6000000000
100
AcDbArc
50
180.0000000000
51
270.0000000000
0
ARC
5
30E
100
AcDbEntity
8
0
100
AcDbCircle
62
7
6
CONTINUOUS
10
200.4417049907
20
236.1032011630
40
2.6000000000
100
AcDbArc
50
210.0000000000
51
245.0288249861
0
ARC
5
30F
100
AcDbEntity
8
0
100
AcDbCircle
62
7
6
CONTINUOUS
10
204.1935145042
20
154.0532011630
40
45.0000000000
100
AcDbArc
50
0.0000000000
51
79.5946486737
0
ARC
5
310
100
AcDbEntity
8
0
100
AcDbCircle
62
7
6
CONTINUOUS
10
204.1935145042
20
154.0532011630
40
45.0000000000
100
AcDbArc
50
100.4053513263
51
180.0000000000
0
ARC
5
311
100
AcDbEntity
8
0
100
AcDbCircle
62
7
6
CONTINUOUS
10
204.1935145042
20
154.0532011630
40
67.0000000000
100
AcDbArc
50
0.0000000000
51
83.0329940101
0
ARC
5
312
100
AcDbEntity
8
0
100
AcDbCircle
62
7
6
CONTINUOUS
10
204.1935145042
20
154.0532011630
40
67.0000000000
100
AcDbArc
50
96.9670059899
51
180.0000000000
0
ARC
5
313
100
AcDbEntity
8
0
100
AcDbCircle
62
7
6
CONTINUOUS
10
204.1935145042
20
84.0532011630
40
45.0000000000
100
AcDbArc
50
180.0000000000
51
360.0000000000
0
ARC
5
314
100
AcDbEntity
8
0
100
AcDbCircle
62
7
6
CONTINUOUS
10
204.1935145042
20
84.0532011630
40
67.0000000000
100
AcDbArc
50
180.0000000000
51
360.0000000000
0
ARC
5
315
100
AcDbEntity
8
DEFAULT_2
100
AcDbCircle
62
8
6
HIDDEN
10
337.0488262752
20
210.0532011630
40
11.0000000000
100
AcDbArc
50
180.0000000000
51
360.0000000000
0
ARC
5
316
100
AcDbEntity
8
DEFAULT_2
100
AcDbCircle
62
8
6
HIDDEN
10
337.0488262752
20
28.0532011630
40
11.0000000000
100
AcDbArc
50
0.0000000000
51
180.0000000000
0
ARC
5
317
100
AcDbEntity
8
DEFAULT_2
100
AcDbCircle
62
8
6
HIDDEN
10
337.0488262752
20
216.2782011630
40
39.0000000000
100
AcDbArc
50
253.6095097286
51
286.3905001810
0
ARC
5
318
100
AcDbEntity
8
DEFAULT_2
100
AcDbCircle
62
8
6
HIDDEN
10
337.0488262752
20
216.2782011630
40
17.2250000000
100
AcDbArc
50
230.2731330687
51
309.7268669313
0
ARC
5
319
100
AcDbEntity
8
0
100
AcDbCircle
62
7
6
CONTINUOUS
10
337.0488262752
20
210.0532011630
40
11.0000000000
100
AcDbArc
50
0.0000000000
51
180.0000000000
0
ARC
5
31A
100
AcDbEntity
8
0
100
AcDbCircle
62
7
6
CONTINUOUS
10
337.0488262752
20
28.0532011630
40
11.0000000000
100
AcDbArc
50
180.0000000000
51
360.0000000000
0
ARC
5
31B
100
AcDbEntity
8
0
100
AcDbCircle
62
7
6
CONTINUOUS
10
337.0488262752
20
216.2782011630
40
39.0000000000
100
AcDbArc
50
286.3905001810
51
10.0000000000
0
ARC
5
31C
100
AcDbEntity
8
0
100
AcDbCircle
62
7
6
CONTINUOUS
10
337.0488262752
20
328.0782011630
40
46.8000000000
100
AcDbArc
50
278.9490180653
51
291.4784178411
0
ARC
5
31D
100
AcDbEntity
8
0
100
AcDbCircle
62
7
6
CONTINUOUS
10
337.0488262752
20
328.0782011630
40
46.8000000000
100
AcDbArc
50
248.5215821589
51
261.0509819347
0
ARC
5
31E
100
AcDbEntity
8
0
100
AcDbCircle
62
7
6
CONTINUOUS
10
337.0488262752
20
216.2782011630
40
17.2250000000
100
AcDbArc
50
309.7268669313
51
230.2731330687
0
CIRCLE
5
31F
100
AcDbEntity
8
0
100
AcDbCircle
62
7
6
CONTINUOUS
10
360.0588262752
20
266.3282011630
40
3.2500000000
0
ARC
5
320
100
AcDbEntity
8
0
100
AcDbCircle
62
7
6
CONTINUOUS
10
337.0488262752
20
248.9082011630
40
7.2800000000
100
AcDbArc
50
180.0000000000
51
360.0000000000
0
ARC
5
321
100
AcDbEntity
8
0
100
AcDbCircle
62
7
6
CONTINUOUS
10
337.0488262752
20
216.2782011630
40
39.0000000000
100
AcDbArc
50
170.0000000000
51
253.6095097286
0
SPLINE
5
322
100
AcDbEntity
8
DEFAULT_2
100
AcDbSpline
62
8
6
HIDDEN
70
0
71
3
72
11
73
7
74
5
42
0.0000001000
43
0.0000001000
44
0.0000000001
40
0.0000000000
40
0.0000000000
40
0.0000000000
40
0.0000000000
40
0.2736618404
40
0.5152988758
40
0.7560103337
40
1.0000000000
40
1.0000000000
40
1.0000000000
40
1.0000000000
10
211.0547367242
20
234.2835438123
30
0.0000000000
10
210.9013277573
20
234.3397296599
30
0.0000000000
10
210.5973725236
20
234.4181761164
30
0.0000000000
10
210.1398321900
20
234.3598824539
30
0.0000000000
10
209.7440562853
20
234.1737213690
30
0.0000000000
10
209.5018170138
20
234.0154922486
30
0.0000000000
10
209.3803547354
20
233.9350944223
30
0.0000000000
11
211.0547367242
21
234.2835438123
31
0.0000000000
11
210.5762526128
21
234.3897200839
31
0.0000000000
11
210.1465727841
21
234.3381196023
31
0.0000000000
11
209.7512364782
21
234.1661762112
31
0.0000000000
11
209.3803547354
21
233.9350944223
31
0.0000000000
0
SPLINE
5
323
100
AcDbEntity
8
DEFAULT_2
100
AcDbSpline
62
8
6
HIDDEN
70
0
71
3
72
10
73
6
74
4
42
0.0000001000
43
0.0000001000
44
0.0000000001
40
0.0000000000
40
0.0000000000
40
0.0000000000
40
0.0000000000
40
0.2250746165
40
0.5712258964
40
1.0000000000
40
1.0000000000
40
1.0000000000
40
1.0000000000
10
212.3185145042
20
233.5790327944
30
0.0000000000
10
212.3185144665
20
233.6388673730
30
0.0000000000
10
212.2344427985
20
233.7809276962
30
0.0000000000
10
212.0306421817
20
233.9502772280
30
0.0000000000
10
211.8368386761
20
234.0326179872
30
0.0000000000
10
211.7273428874
20
234.0642983452
30
0.0000000000
11
212.3185145042
21
233.5790327944
31
0.0000000000
11
212.2472410212
21
233.7437801214
31
0.0000000000
11
212.0403229133
21
233.9265294849
31
0.0000000000
11
211.7273428874
21
234.0642983452
31
0.0000000000
0
SPLINE
5
324
100
AcDbEntity
8
DEFAULT_2
100
AcDbSpline
62
8
6
HIDDEN
70
0
71
3
72
10
73
6
74
4
42
0.0000001000
43
0.0000001000
44
0.0000000001
40
0.0000000000
40
0.0000000000
40
0.0000000000
40
0.0000000000
40
0.2250746165
40
0.5712258964
40
1.0000000000
40
1.0000000000
40
1.0000000000
40
1.0000000000
10
196.0685145042
20
233.5790327944
30
0.0000000000
10
196.0685145418
20
233.6388673730
30
0.0000000000
10
196.1525862099
20
233.7809276962
30
0.0000000000
10
196.3563868267
20
233.9502772280
30
0.0000000000
10
196.5501903322
20
234.0326179872
30
0.0000000000
10
196.6596861209
20
234.0642983452
30
0.0000000000
11
196.0685145042
21
233.5790327944
31
0.0000000000
11
196.1397879871
21
233.7437801214
31
0.0000000000
11
196.3467060951
21
233.9265294849
31
0.0000000000
11
196.6596861209
21
234.0642983452
31
0.0000000000
0
SPLINE
5
325
100
AcDbEntity
8
DEFAULT_2
100
AcDbSpline
62
8
6
HIDDEN
70
0
71
3
72
11
73
7
74
5
42
0.0000001000
43
0.0000001000
44
0.0000000001
40
0.0000000000
40
0.0000000000
40
0.0000000000
40
0.0000000000
40
0.2736618404
40
0.5152988758
40
0.7560103337
40
1.0000000000
40
1.0000000000
40
1.0000000000
40
1.0000000000
10
197.3322922841
20
234.2835438123
30
0.0000000000
10
197.4857012511
20
234.3397296599
30
0.0000000000
10
197.7896564847
20
234.4181761164
30
0.0000000000
10
198.2471968184
20
234.3598824539
30
0.0000000000
10
198.6429727230
20
234.1737213690
30
0.0000000000
10
198.8852119946
20
234.0154922486
30
0.0000000000
10
199.0066742729
20
233.9350944223
30
0.0000000000
11
197.3322922841
21
234.2835438123
31
0.0000000000
11
197.8107763955
21
234.3897200839
31
0.0000000000
11
198.2404562242
21
234.3381196023
31
0.0000000000
11
198.6357925302
21
234.1661762112
31
0.0000000000
11
199.0066742729
21
233.9350944223
31
0.0000000000
0
SPLINE
5
326
100
AcDbEntity
8
0
100
AcDbSpline
62
7
6
CONTINUOUS
70
0
71
3
72
10
73
6
74
4
42
0.0000001000
43
0.0000001000
44
0.0000000001
40
0.0000000000
40
0.0000000000
40
0.0000000000
40
0.0000000000
40
0.3159015172
40
0.6499699058
40
1.0000000000
40
1.0000000000
40
1.0000000000
40
1.0000000000
10
211.0547367242
20
234.2835438123
30
0.0000000000
10
211.1246987570
20
234.2579201185
30
0.0000000000
10
211.2692974817
20
234.2069612330
30
0.0000000000
10
211.4935321683
20
234.1337827791
30
0.0000000000
10
211.6480393432
20
234.0872431972
30
0.0000000000
10
211.7273428874
20
234.0642983452
30
0.0000000000
11
211.0547367242
21
234.2835438123
31
0.0000000000
11
211.2655268619
21
234.2091875398
31
0.0000000000
11
211.4902173598
21
234.1357906484
31
0.0000000000
11
211.7273428874
21
234.0642983452
31
0.0000000000
0
SPLINE
5
327
100
AcDbEntity
8
0
100
AcDbSpline
62
7
6
CONTINUOUS
70
0
71
3
72
10
73
6
74
4
42
0.0000001000
43
0.0000001000
44
0.0000000001
40
0.0000000000
40
0.0000000000
40
0.0000000000
40
0.0000000000
40
0.4287722282
40
0.7749239057
40
1.0000000000
40
1.0000000000
40
1.0000000000
40
1.0000000000
10
211.7273428874
20
234.0642983452
30
0.0000000000
10
211.8368381949
20
234.0326181264
30
0.0000000000
10
212.0306413513
20
233.9502776359
30
0.0000000000
10
212.2344421510
20
233.7809284534
30
0.0000000000
10
212.3185144658
20
233.6388677661
30
0.0000000000
10
212.3185145042
20
233.5790327959
30
0.0000000000
11
211.7273428874
21
234.0642983452
31
0.0000000000
11
212.0403216289
21
233.9265302973
31
0.0000000000
11
212.2472402852
21
233.7437810845
31
0.0000000000
11
212.3185145042
21
233.5790327959
31
0.0000000000
0
SPLINE
5
328
100
AcDbEntity
8
0
100
AcDbSpline
62
7
6
CONTINUOUS
70
0
71
3
72
11
73
7
74
5
42
0.0000001000
43
0.0000001000
44
0.0000000001
40
0.0000000000
40
0.0000000000
40
0.0000000000
40
0.0000000000
40
0.2442083284
40
0.4849817594
40
0.7265734916
40
1.0000000000
40
1.0000000000
40
1.0000000000
40
1.0000000000
10
209.3803537798
20
233.9350958660
30
0.0000000000
10
209.5019249565
20
234.0155662581
30
0.0000000000
10
209.7443067526
20
234.1738850119
30
0.0000000000
10
210.1402611503
20
234.3600250793
30
0.0000000000
10
210.5976930635
20
234.4181123575
30
0.0000000000
10
210.9014593450
20
234.3396814745
30
0.0000000000
10
211.0547367242
20
234.2835438123
30
0.0000000000
11
209.3803537798
21
233.9350958660
31
0.0000000000
11
209.7515799258
21
234.1663672725
31
0.0000000000
11
210.1470591114
21
234.3382627894
31
0.0000000000
11
210.5766781178
21
234.3896969934
31
0.0000000000
11
211.0547367242
21
234.2835438123
31
0.0000000000
0
SPLINE
5
329
100
AcDbEntity
8
0
100
AcDbSpline
62
7
6
CONTINUOUS
70
0
71
3
72
10
73
6
74
4
42
0.0000001000
43
0.0000001000
44
0.0000000001
40
0.0000000000
40
0.0000000000
40
0.0000000000
40
0.0000000000
40
0.3159015172
40
0.6499699058
40
1.0000000000
40
1.0000000000
40
1.0000000000
40
1.0000000000
10
197.3322922841
20
234.2835438123
30
0.0000000000
10
197.2623302514
20
234.2579201185
30
0.0000000000
10
197.1177315267
20
234.2069612330
30
0.0000000000
10
196.8934968401
20
234.1337827791
30
0.0000000000
10
196.7389896652
20
234.0872431972
30
0.0000000000
10
196.6596861209
20
234.0642983452
30
0.0000000000
11
197.3322922841
21
234.2835438123
31
0.0000000000
11
197.1215021465
21
234.2091875398
31
0.0000000000
11
196.8968116485
21
234.1357906484
31
0.0000000000
11
196.6596861209
21
234.0642983452
31
0.0000000000
0
SPLINE
5
32A
100
AcDbEntity
8
0
100
AcDbSpline
62
7
6
CONTINUOUS
70
0
71
3
72
10
73
6
74
4
42
0.0000001000
43
0.0000001000
44
0.0000000001
40
0.0000000000
40
0.0000000000
40
0.0000000000
40
0.0000000000
40
0.4287722282
40
0.7749239057
40
1.0000000000
40
1.0000000000
40
1.0000000000
40
1.0000000000
10
196.6596861209
20
234.0642983452
30
0.0000000000
10
196.5501908134
20
234.0326181264
30
0.0000000000
10
196.3563876571
20
233.9502776359
30
0.0000000000
10
196.1525868574
20
233.7809284534
30
0.0000000000
10
196.0685145426
20
233.6388677661
30
0.0000000000
10
196.0685145042
20
233.5790327959
30
0.0000000000
11
196.6596861209
21
234.0642983452
31
0.0000000000
11
196.3467073795
21
233.9265302973
31
0.0000000000
11
196.1397887231
21
233.7437810845
31
0.0000000000
11
196.0685145042
21
233.5790327959
31
0.0000000000
0
SPLINE
5
32B
100
AcDbEntity
8
0
100
AcDbSpline
62
7
6
CONTINUOUS
70
0
71
3
72
11
73
7
74
5
42
0.0000001000
43
0.0000001000
44
0.0000000001
40
0.0000000000
40
0.0000000000
40
0.0000000000
40
0.0000000000
40
0.2442083284
40
0.4849817594
40
0.7265734916
40
1.0000000000
40
1.0000000000
40
1.0000000000
40
1.0000000000
10
199.0066752285
20
233.9350958660
30
0.0000000000
10
198.8851040519
20
234.0155662581
30
0.0000000000
10
198.6427222557
20
234.1738850119
30
0.0000000000
10
198.2467678580
20
234.3600250793
30
0.0000000000
10
197.7893359448
20
234.4181123575
30
0.0000000000
10
197.4855696634
20
234.3396814745
30
0.0000000000
10
197.3322922841
20
234.2835438123
30
0.0000000000
11
199.0066752285
21
233.9350958660
31
0.0000000000
11
198.6354490826
21
234.1663672725
31
0.0000000000
11
198.2399698970
21
234.3382627894
31
0.0000000000
11
197.8103508906
21
234.3896969934
31
0.0000000000
11
197.3322922841
21
234.2835438123
31
0.0000000000
0
SPLINE
5
32C
100
AcDbEntity
8
DEFAULT_2
100
AcDbSpline
62
8
6
HIDDEN
70
0
71
3
72
9
73
5
74
3
42
0.0000001000
43
0.0000001000
44
0.0000000001
40
0.0000000000
40
0.0000000000
40
0.0000000000
40
0.0000000000
40
0.5311583029
40
1.0000000000
40
1.0000000000
40
1.0000000000
40
1.0000000000
10
347.6318315194
20
136.0532011630
30
0.0000000000
10
347.7581143433
20
135.9047065155
30
0.0000000000
10
347.9663264859
20
135.5942911384
30
0.0000000000
10
348.0488262752
20
135.2259124314
30
0.0000000000
10
348.0488262752
20
135.0532011332
30
0.0000000000
11
347.6318315194
21
136.0532011630
31
0.0000000000
11
347.9438344414
21
135.5585939611
31
0.0000000000
11
348.0488262752
21
135.0532011332
31
0.0000000000
0
SPLINE
5
32D
100
AcDbEntity
8
DEFAULT_2
100
AcDbSpline
62
8
6
HIDDEN
70
0
71
3
72
10
73
6
74
4
42
0.0000001000
43
0.0000001000
44
0.0000000001
40
0.0000000000
40
0.0000000000
40
0.0000000000
40
0.0000000000
40
0.4844095257
40
0.9261576440
40
1.0000000000
40
1.0000000000
40
1.0000000000
40
1.0000000000
10
347.7634461011
20
127.5532014014
30
0.0000000000
10
347.8451222300
20
127.4384602384
30
0.0000000000
10
347.9793457946
20
127.2010064461
30
0.0000000000
10
348.0447974902
20
126.9130096351
30
0.0000000000
10
348.0487884038
20
126.7623950048
30
0.0000000000
10
348.0487628054
20
126.7408180273
30
0.0000000000
11
347.7634461011
21
127.5532014014
31
0.0000000000
11
347.9653929939
21
127.1820596855
31
0.0000000000
11
348.0470349220
21
126.8054931482
31
0.0000000000
11
348.0487628054
21
126.7408180273
31
0.0000000000
0
SPLINE
5
32E
100
AcDbEntity
8
DEFAULT_2
100
AcDbSpline
62
8
6
HIDDEN
70
0
71
3
72
10
73
6
74
4
42
0.0000001000
43
0.0000001000
44
0.0000000001
40
0.0000000000
40
0.0000000000
40
0.0000000000
40
0.0000000000
40
0.0738423560
40
0.5155904743
40
1.0000000000
40
1.0000000000
40
1.0000000000
40
1.0000000000
10
348.0487628054
20
128.3655847756
30
0.0000000000
10
348.0487884038
20
128.3440077981
30
0.0000000000
10
348.0447974902
20
128.1933931677
30
0.0000000000
10
347.9793457946
20
127.9053963568
30
0.0000000000
10
347.8451222300
20
127.6679425645
30
0.0000000000
10
347.7634461011
20
127.5532014014
30
0.0000000000
11
348.0487628054
21
128.3655847756
31
0.0000000000
11
348.0470349220
21
128.3009096546
31
0.0000000000
11
347.9653929939
21
127.9243431174
31
0.0000000000
11
347.7634461011
21
127.5532014014
31
0.0000000000
0
SPLINE
5
32F
100
AcDbEntity
8
DEFAULT_2
100
AcDbSpline
62
8
6
HIDDEN
70
0
71
3
72
9
73
5
74
3
42
0.0000001000
43
0.0000001000
44
0.0000000001
40
0.0000000000
40
0.0000000000
40
0.0000000000
40
0.0000000000
40
0.4688416916
40
1.0000000000
40
1.0000000000
40
1.0000000000
40
1.0000000000
10
348.0488262752
20
132.0532012226
30
0.0000000000
10
348.0488262752
20
131.8804899393
30
0.0000000000
10
347.9663264835
20
131.5121112596
30
0.0000000000
10
347.7581143418
20
131.2016959147
30
0.0000000000
10
347.6318315194
20
131.0532012822
30
0.0000000000
11
348.0488262752
21
132.0532012226
31
0.0000000000
11
347.9438344415
21
131.5478084400
31
0.0000000000
11
347.6318315194
21
131.0532012822
31
0.0000000000
0
SPLINE
5
330
100
AcDbEntity
8
DEFAULT_2
100
AcDbSpline
62
8
6
HIDDEN
70
0
71
3
72
9
73
5
74
3
42
0.0000001000
43
0.0000001000
44
0.0000000001
40
0.0000000000
40
0.0000000000
40
0.0000000000
40
0.0000000000
40
0.5006742228
40
1.0000000000
40
1.0000000000
40
1.0000000000
40
1.0000000000
10
347.8693924899
20
106.8032011630
30
0.0000000000
10
347.8810009570
20
106.7617627131
30
0.0000000000
10
347.9031183022
20
106.6786943144
30
0.0000000000
10
347.9230599293
20
106.5950766771
30
0.0000000000
10
347.9324652980
20
106.5532021167
30
0.0000000000
11
347.8693924899
21
106.8032011630
31
0.0000000000
11
347.9026027288
21
106.6784446210
31
0.0000000000
11
347.9324652980
21
106.5532021167
31
0.0000000000
0
SPLINE
5
331
100
AcDbEntity
8
DEFAULT_2
100
AcDbSpline
62
8
6
HIDDEN
70
0
71
3
72
9
73
5
74
3
42
0.0000001000
43
0.0000001000
44
0.0000000001
40
0.0000000000
40
0.0000000000
40
0.0000000000
40
0.0000000000
40
0.4992230302
40
1.0000000000
40
1.0000000000
40
1.0000000000
40
1.0000000000
10
347.8195761777
20
107.1782011630
30
0.0000000000
10
347.8283788906
20
107.1158680305
30
0.0000000000
10
347.8454979775
20
106.9909346564
30
0.0000000000
10
347.8615905322
20
106.8658649151
30
0.0000000000
10
347.8693924899
20
106.8032011630
30
0.0000000000
11
347.8195761777
21
107.1782011630
31
0.0000000000
11
347.8452155394
21
106.9910948094
31
0.0000000000
11
347.8693924899
21
106.8032011630
31
0.0000000000
0
SPLINE
5
332
100
AcDbEntity
8
DEFAULT_2
100
AcDbSpline
62
8
6
HIDDEN
70
0
71
3
72
9
73
5
74
3
42
0.0000001000
43
0.0000001000
44
0.0000000001
40
0.0000000000
40
0.0000000000
40
0.0000000000
40
0.0000000000
40
0.4995457682
40
1.0000000000
40
1.0000000000
40
1.0000000000
40
1.0000000000
10
347.7923062840
20
107.8032002093
30
0.0000000000
10
347.7969789342
20
107.6991341464
30
0.0000000000
10
347.8062006176
20
107.4908068153
30
0.0000000000
10
347.8151587887
20
107.2824679870
30
0.0000000000
10
347.8195761777
20
107.1782011630
30
0.0000000000
11
347.7923062840
21
107.8032002093
31
0.0000000000
11
347.8061264816
21
107.4909932040
31
0.0000000000
11
347.8195761777
21
107.1782011630
31
0.0000000000
0
SPLINE
5
333
100
AcDbEntity
8
DEFAULT_2
100
AcDbSpline
62
8
6
HIDDEN
70
0
71
3
72
9
73
5
74
3
42
0.0000001000
43
0.0000001000
44
0.0000000001
40
0.0000000000
40
0.0000000000
40
0.0000000000
40
0.0000000000
40
0.4995457682
40
1.0000000000
40
1.0000000000
40
1.0000000000
40
1.0000000000
10
347.7923062840
20
108.3032011630
30
0.0000000000
10
347.7969789342
20
108.4072672260
30
0.0000000000
10
347.8062006176
20
108.6155945570
30
0.0000000000
10
347.8151587887
20
108.8239333853
30
0.0000000000
10
347.8195761777
20
108.9282002093
30
0.0000000000
11
347.7923062840
21
108.3032011630
31
0.0000000000
11
347.8061264816
21
108.6154081683
31
0.0000000000
11
347.8195761777
21
108.9282002093
31
0.0000000000
0
SPLINE
5
334
100
AcDbEntity
8
DEFAULT_2
100
AcDbSpline
62
8
6
HIDDEN
70
0
71
3
72
9
73
5
74
3
42
0.0000001000
43
0.0000001000
44
0.0000000001
40
0.0000000000
40
0.0000000000
40
0.0000000000
40
0.0000000000
40
0.4992230302
40
1.0000000000
40
1.0000000000
40
1.0000000000
40
1.0000000000
10
347.8195761777
20
108.9282002093
30
0.0000000000
10
347.8283788906
20
108.9905333418
30
0.0000000000
10
347.8454979775
20
109.1154667159
30
0.0000000000
10
347.8615905322
20
109.2405364573
30
0.0000000000
10
347.8693924899
20
109.3032002093
30
0.0000000000
11
347.8195761777
21
108.9282002093
31
0.0000000000
11
347.8452155394
21
109.1153065629
31
0.0000000000
11
347.8693924899
21
109.3032002093
31
0.0000000000
0
SPLINE
5
335
100
AcDbEntity
8
DEFAULT_2
100
AcDbSpline
62
8
6
HIDDEN
70
0
71
3
72
9
73
5
74
3
42
0.0000001000
43
0.0000001000
44
0.0000000001
40
0.0000000000
40
0.0000000000
40
0.0000000000
40
0.0000000000
40
0.5006741832
40
1.0000000000
40
1.0000000000
40
1.0000000000
40
1.0000000000
10
347.8693924899
20
109.3032002093
30
0.0000000000
10
347.8810009578
20
109.3446391362
30
0.0000000000
10
347.9031183044
20
109.4277084913
30
0.0000000000
10
347.9230599298
20
109.5113270795
30
0.0000000000
10
347.9324652980
20
109.5532021167
30
0.0000000000
11
347.8693924899
21
109.3032002093
31
0.0000000000
11
347.9026027286
21
109.4279581781
31
0.0000000000
11
347.9324652980
21
109.5532021167
31
0.0000000000
0
SPLINE
5
336
100
AcDbEntity
8
DEFAULT_2
100
AcDbSpline
62
8
6
HIDDEN
70
0
71
3
72
9
73
5
74
3
42
0.0000001000
43
0.0000001000
44
0.0000000001
40
0.0000000000
40
0.0000000000
40
0.0000000000
40
0.0000000000
40
0.5077514561
40
1.0000000000
40
1.0000000000
40
1.0000000000
40
1.0000000000
10
347.9668508136
20
105.9282002093
30
0.0000000000
10
347.9770927453
20
105.9486215050
30
0.0000000000
10
347.9957449732
20
105.9896252931
30
0.0000000000
10
348.0109445557
20
106.0320404288
30
0.0000000000
10
348.0174840468
20
106.0532011630
30
0.0000000000
11
347.9668508136
21
105.9282002093
31
0.0000000000
11
347.9951440052
21
105.9906248330
31
0.0000000000
11
348.0174840468
21
106.0532011630
31
0.0000000000
0
SPLINE
5
337
100
AcDbEntity
8
DEFAULT_2
100
AcDbSpline
62
8
6
HIDDEN
70
0
71
3
72
9
73
5
74
3
42
0.0000001000
43
0.0000001000
44
0.0000000001
40
0.0000000000
40
0.0000000000
40
0.0000000000
40
0.0000000000
40
0.5002514049
40
1.0000000000
40
1.0000000000
40
1.0000000000
40
1.0000000000
10
348.0174840468
20
106.0532011630
30
0.0000000000
10
348.0223025443
20
106.0947790285
30
0.0000000000
10
348.0308343177
20
106.1780242295
30
0.0000000000
10
348.0371490892
20
106.2614669850
30
0.0000000000
10
348.0397480838
20
106.3032002093
30
0.0000000000
11
348.0174840468
21
106.0532011630
31
0.0000000000
11
348.0302837996
21
106.1781155243
31
0.0000000000
11
348.0397480838
21
106.3032002093
31
0.0000000000
0
SPLINE
5
338
100
AcDbEntity
8
DEFAULT_2
100
AcDbSpline
62
8
6
HIDDEN
70
0
71
3
72
9
73
5
74
3
42
0.0000001000
43
0.0000001000
44
0.0000000001
40
0.0000000000
40
0.0000000000
40
0.0000000000
40
0.0000000000
40
0.5000601061
40
1.0000000000
40
1.0000000000
40
1.0000000000
40
1.0000000000
10
348.0397492712
20
106.3032002093
30
0.0000000000
10
348.0423436334
20
106.3865183686
30
0.0000000000
10
348.0464177336
20
106.5531711891
30
0.0000000000
10
348.0482706705
20
106.7198634840
30
0.0000000000
10
348.0486410809
20
106.8032011630
30
0.0000000000
11
348.0397492712
21
106.3032002093
31
0.0000000000
11
348.0458627991
21
106.5532010938
31
0.0000000000
11
348.0486410809
21
106.8032011630
31
0.0000000000
0
SPLINE
5
339
100
AcDbEntity
8
DEFAULT_2
100
AcDbSpline
62
8
6
HIDDEN
70
0
71
3
72
9
73
5
74
3
42
0.0000001000
43
0.0000001000
44
0.0000000001
40
0.0000000000
40
0.0000000000
40
0.0000000000
40
0.0000000000
40
0.4999113276
40
1.0000000000
40
1.0000000000
40
1.0000000000
40
1.0000000000
10
347.8693924899
20
112.0532011630
30
0.0000000000
10
347.8963784474
20
112.1770558397
30
0.0000000000
10
347.9444073267
20
112.4261443352
30
0.0000000000
10
347.9803008937
20
112.6772710457
30
0.0000000000
10
347.9951747265
20
112.8032011630
30
0.0000000000
11
347.8693924899
21
112.0532011630
31
0.0000000000
11
347.9413660569
21
112.4266095337
31
0.0000000000
11
347.9951747265
21
112.8032011630
31
0.0000000000
0
SPLINE
5
33A
100
AcDbEntity
8
DEFAULT_2
100
AcDbSpline
62
8
6
HIDDEN
70
0
71
3
72
9
73
5
74
3
42
0.0000001000
43
0.0000001000
44
0.0000000001
40
0.0000000000
40
0.0000000000
40
0.0000000000
40
0.0000000000
40
0.4999113276
40
1.0000000000
40
1.0000000000
40
1.0000000000
40
1.0000000000
10
347.8693924899
20
117.3032011630
30
0.0000000000
10
347.8963784474
20
117.4270558397
30
0.0000000000
10
347.9444073267
20
117.6761443352
30
0.0000000000
10
347.9803008937
20
117.9272710457
30
0.0000000000
10
347.9951747265
20
118.0532011630
30
0.0000000000
11
347.8693924899
21
117.3032011630
31
0.0000000000
11
347.9413660569
21
117.6766095337
31
0.0000000000
11
347.9951747265
21
118.0532011630
31
0.0000000000
0
SPLINE
5
33B
100
AcDbEntity
8
DEFAULT_2
100
AcDbSpline
62
8
6
HIDDEN
70
0
71
3
72
8
73
4
74
2
42
0.0000001000
43
0.0000001000
44
0.0000000001
40
0.0000000000
40
0.0000000000
40
0.0000000000
40
0.0000000000
40
1.0000000000
40
1.0000000000
40
1.0000000000
40
1.0000000000
10
347.6318315194
20
131.8032012822
30
0.0000000000
10
347.7232350061
20
131.9110093603
30
0.0000000000
10
347.8061144691
20
132.0272350936
30
0.0000000000
10
347.8734994618
20
132.1520552417
30
0.0000000000
11
347.6318315194
21
131.8032012822
31
0.0000000000
11
347.8734994618
21
132.1520552417
31
0.0000000000
0
SPLINE
5
33C
100
AcDbEntity
8
DEFAULT_2
100
AcDbSpline
62
8
6
HIDDEN
70
0
71
3
72
8
73
4
74
2
42
0.0000001000
43
0.0000001000
44
0.0000000001
40
0.0000000000
40
0.0000000000
40
0.0000000000
40
0.0000000000
40
1.0000000000
40
1.0000000000
40
1.0000000000
40
1.0000000000
10
347.8734994618
20
132.1520552417
30
0.0000000000
10
347.8880320488
20
132.1789745837
30
0.0000000000
10
347.9018439662
20
132.2062936640
30
0.0000000000
10
347.9148652942
20
132.2340142558
30
0.0000000000
11
347.8734994618
21
132.1520552417
31
0.0000000000
11
347.9148652942
21
132.2340142558
31
0.0000000000
0
SPLINE
5
33D
100
AcDbEntity
8
DEFAULT_2
100
AcDbSpline
62
8
6
HIDDEN
70
0
71
3
72
8
73
4
74
2
42
0.0000001000
43
0.0000001000
44
0.0000000001
40
0.0000000000
40
0.0000000000
40
0.0000000000
40
0.0000000000
40
1.0000000000
40
1.0000000000
40
1.0000000000
40
1.0000000000
10
347.9148652942
20
132.2340142558
30
0.0000000000
10
347.9434428730
20
132.2948519365
30
0.0000000000
10
347.9682125014
20
132.3576235358
30
0.0000000000
10
347.9883919031
20
132.4217703374
30
0.0000000000
11
347.9148652942
21
132.2340142558
31
0.0000000000
11
347.9883919031
21
132.4217703374
31
0.0000000000
0
SPLINE
5
33E
100
AcDbEntity
8
DEFAULT_2
100
AcDbSpline
62
8
6
HIDDEN
70
0
71
3
72
8
73
4
74
2
42
0.0000001000
43
0.0000001000
44
0.0000000001
40
0.0000000000
40
0.0000000000
40
0.0000000000
40
0.0000000000
40
1.0000000000
40
1.0000000000
40
1.0000000000
40
1.0000000000
10
347.6318315194
20
128.0532009246
30
0.0000000000
10
347.7338740060
20
128.1731916244
30
0.0000000000
10
347.8256723696
20
128.3038807891
30
0.0000000000
10
347.8967916593
20
128.4452515801
30
0.0000000000
11
347.6318315194
21
128.0532009246
31
0.0000000000
11
347.8967916593
21
128.4452515801
31
0.0000000000
0
SPLINE
5
33F
100
AcDbEntity
8
DEFAULT_2
100
AcDbSpline
62
8
6
HIDDEN
70
0
71
3
72
8
73
4
74
2
42
0.0000001000
43
0.0000001000
44
0.0000000001
40
0.0000000000
40
0.0000000000
40
0.0000000000
40
0.0000000000
40
1.0000000000
40
1.0000000000
40
1.0000000000
40
1.0000000000
10
347.8967916593
20
128.4452515801
30
0.0000000000
10
347.9136861484
20
128.4788344140
30
0.0000000000
10
347.9294137033
20
128.5130200195
30
0.0000000000
10
347.9438344414
20
128.5478081706
30
0.0000000000
11
347.8967916593
21
128.4452515801
31
0.0000000000
11
347.9438344414
21
128.5478081706
31
0.0000000000
0
SPLINE
5
340
100
AcDbEntity
8
DEFAULT_2
100
AcDbSpline
62
8
6
HIDDEN
70
0
71
3
72
8
73
4
74
2
42
0.0000001000
43
0.0000001000
44
0.0000000001
40
0.0000000000
40
0.0000000000
40
0.0000000000
40
0.0000000000
40
1.0000000000
40
1.0000000000
40
1.0000000000
40
1.0000000000
10
347.9438344414
20
128.5478081706
30
0.0000000000
10
347.9466500091
20
128.5546003607
30
0.0000000000
10
347.9494157604
20
128.5614155200
30
0.0000000000
10
347.9521308500
20
128.5682526734
30
0.0000000000
11
347.9438344414
21
128.5478081706
31
0.0000000000
11
347.9521308500
21
128.5682526734
31
0.0000000000
0
SPLINE
5
341
100
AcDbEntity
8
DEFAULT_2
100
AcDbSpline
62
8
6
HIDDEN
70
0
71
3
72
8
73
4
74
2
42
0.0000001000
43
0.0000001000
44
0.0000000001
40
0.0000000000
40
0.0000000000
40
0.0000000000
40
0.0000000000
40
1.0000000000
40
1.0000000000
40
1.0000000000
40
1.0000000000
10
347.9521308500
20
128.5682526734
30
0.0000000000
10
347.9662333602
20
128.6037656922
30
0.0000000000
10
347.9789690687
20
128.6398720856
30
0.0000000000
10
347.9902194911
20
128.6764351893
30
0.0000000000
11
347.9521308500
21
128.5682526734
31
0.0000000000
11
347.9902194911
21
128.6764351893
31
0.0000000000
0
SPLINE
5
342
100
AcDbEntity
8
DEFAULT_2
100
AcDbSpline
62
8
6
HIDDEN
70
0
71
3
72
8
73
4
74
2
42
0.0000001000
43
0.0000001000
44
0.0000000001
40
0.0000000000
40
0.0000000000
40
0.0000000000
40
0.0000000000
40
1.0000000000
40
1.0000000000
40
1.0000000000
40
1.0000000000
10
347.9902194911
20
128.6764351893
30
0.0000000000
10
347.9908815720
20
128.6785869069
30
0.0000000000
10
347.9915385089
20
128.6807402061
30
0.0000000000
10
347.9921902778
20
128.6828950592
30
0.0000000000
11
347.9902194911
21
128.6764351893
31
0.0000000000
11
347.9921902778
21
128.6828950592
31
0.0000000000
0
SPLINE
5
343
100
AcDbEntity
8
DEFAULT_2
100
AcDbSpline
62
8
6
HIDDEN
70
0
71
3
72
8
73
4
74
2
42
0.0000001000
43
0.0000001000
44
0.0000000001
40
0.0000000000
40
0.0000000000
40
0.0000000000
40
0.0000000000
40
1.0000000000
40
1.0000000000
40
1.0000000000
40
1.0000000000
10
347.9921900792
20
126.4235076848
30
0.0000000000
10
347.9915383029
20
126.4256625588
30
0.0000000000
10
347.9908813584
20
126.4278158790
30
0.0000000000
10
347.9902192698
20
126.4299676174
30
0.0000000000
11
347.9921900792
21
126.4235076848
31
0.0000000000
11
347.9902192698
21
126.4299676174
31
0.0000000000
0
SPLINE
5
344
100
AcDbEntity
8
DEFAULT_2
100
AcDbSpline
62
8
6
HIDDEN
70
0
71
3
72
8
73
4
74
2
42
0.0000001000
43
0.0000001000
44
0.0000000001
40
0.0000000000
40
0.0000000000
40
0.0000000000
40
0.0000000000
40
1.0000000000
40
1.0000000000
40
1.0000000000
40
1.0000000000
10
347.9902192698
20
126.4299676174
30
0.0000000000
10
347.9789689018
20
126.4665304754
30
0.0000000000
10
347.9662332678
20
126.5026366282
30
0.0000000000
10
347.9521308500
20
126.5381494142
30
0.0000000000
11
347.9902192698
21
126.4299676174
31
0.0000000000
11
347.9521308500
21
126.5381494142
31
0.0000000000
0
SPLINE
5
345
100
AcDbEntity
8
DEFAULT_2
100
AcDbSpline
62
8
6
HIDDEN
70
0
71
3
72
8
73
4
74
2
42
0.0000001000
43
0.0000001000
44
0.0000000001
40
0.0000000000
40
0.0000000000
40
0.0000000000
40
0.0000000000
40
1.0000000000
40
1.0000000000
40
1.0000000000
40
1.0000000000
10
347.9521308500
20
126.5381494142
30
0.0000000000
10
347.9494157604
20
126.5449865676
30
0.0000000000
10
347.9466500091
20
126.5518017269
30
0.0000000000
10
347.9438344414
20
126.5585939170
30
0.0000000000
11
347.9521308500
21
126.5381494142
31
0.0000000000
11
347.9438344414
21
126.5585939170
31
0.0000000000
0
SPLINE
5
346
100
AcDbEntity
8
DEFAULT_2
100
AcDbSpline
62
8
6
HIDDEN
70
0
71
3
72
8
73
4
74
2
42
0.0000001000
43
0.0000001000
44
0.0000000001
40
0.0000000000
40
0.0000000000
40
0.0000000000
40
0.0000000000
40
1.0000000000
40
1.0000000000
40
1.0000000000
40
1.0000000000
10
347.9438344414
20
126.5585939170
30
0.0000000000
10
347.9294136220
20
126.5933822643
30
0.0000000000
10
347.9136859710
20
126.6275680591
30
0.0000000000
10
347.8967913735
20
126.6611510757
30
0.0000000000
11
347.9438344414
21
126.5585939170
31
0.0000000000
11
347.8967913735
21
126.6611510757
31
0.0000000000
0
SPLINE
5
347
100
AcDbEntity
8
DEFAULT_2
100
AcDbSpline
62
8
6
HIDDEN
70
0
71
3
72
8
73
4
74
2
42
0.0000001000
43
0.0000001000
44
0.0000000001
40
0.0000000000
40
0.0000000000
40
0.0000000000
40
0.0000000000
40
1.0000000000
40
1.0000000000
40
1.0000000000
40
1.0000000000
10
347.8967913735
20
126.6611510757
30
0.0000000000
10
347.8256721237
20
126.8025216486
30
0.0000000000
10
347.7338738693
20
126.9332106239
30
0.0000000000
10
347.6318315194
20
127.0532011630
30
0.0000000000
11
347.8967913735
21
126.6611510757
31
0.0000000000
11
347.6318315194
21
127.0532011630
31
0.0000000000
0
SPLINE
5
348
100
AcDbEntity
8
DEFAULT_2
100
AcDbSpline
62
8
6
HIDDEN
70
0
71
3
72
8
73
4
74
2
42
0.0000001000
43
0.0000001000
44
0.0000000001
40
0.0000000000
40
0.0000000000
40
0.0000000000
40
0.0000000000
40
1.0000000000
40
1.0000000000
40
1.0000000000
40
1.0000000000
10
347.9883919208
20
134.6846320515
30
0.0000000000
10
347.9682125159
20
134.7487788727
30
0.0000000000
10
347.9434428814
20
134.8115504909
30
0.0000000000
10
347.9148652942
20
134.8723881895
30
0.0000000000
11
347.9883919208
21
134.6846320515
31
0.0000000000
11
347.9148652942
21
134.8723881895
31
0.0000000000
0
SPLINE
5
349
100
AcDbEntity
8
DEFAULT_2
100
AcDbSpline
62
8
6
HIDDEN
70
0
71
3
72
8
73
4
74
2
42
0.0000001000
43
0.0000001000
44
0.0000000001
40
0.0000000000
40
0.0000000000
40
0.0000000000
40
0.0000000000
40
1.0000000000
40
1.0000000000
40
1.0000000000
40
1.0000000000
10
347.9148652942
20
134.8723881895
30
0.0000000000
10
347.9018439773
20
134.9001087576
30
0.0000000000
10
347.8880320723
20
134.9274278150
30
0.0000000000
10
347.8734994989
20
134.9543471348
30
0.0000000000
11
347.9148652942
21
134.8723881895
31
0.0000000000
11
347.8734994989
21
134.9543471348
31
0.0000000000
0
SPLINE
5
34A
100
AcDbEntity
8
DEFAULT_2
100
AcDbSpline
62
8
6
HIDDEN
70
0
71
3
72
8
73
4
74
2
42
0.0000001000
43
0.0000001000
44
0.0000000001
40
0.0000000000
40
0.0000000000
40
0.0000000000
40
0.0000000000
40
1.0000000000
40
1.0000000000
40
1.0000000000
40
1.0000000000
10
347.8734994989
20
134.9543471348
30
0.0000000000
10
347.8061144995
20
135.0791673090
30
0.0000000000
10
347.7232350229
20
135.1953930652
30
0.0000000000
10
347.6318315194
20
135.3032011630
30
0.0000000000
11
347.8734994989
21
134.9543471348
31
0.0000000000
11
347.6318315194
21
135.3032011630
31
0.0000000000
0
SPLINE
5
34B
100
AcDbEntity
8
DEFAULT_2
100
AcDbSpline
62
8
6
HIDDEN
70
0
71
3
72
8
73
4
74
2
42
0.0000001000
43
0.0000001000
44
0.0000000001
40
0.0000000000
40
0.0000000000
40
0.0000000000
40
0.0000000000
40
1.0000000000
40
1.0000000000
40
1.0000000000
40
1.0000000000
10
348.0338154194
20
107.0532002093
30
0.0000000000
10
348.0349272444
20
107.1156524696
30
0.0000000000
10
348.0359772017
20
107.1781058618
30
0.0000000000
10
348.0369653331
20
107.2405602476
30
0.0000000000
11
348.0338154194
21
107.0532002093
31
0.0000000000
11
348.0369653331
21
107.2405602476
31
0.0000000000
0
SPLINE
5
34C
100
AcDbEntity
8
DEFAULT_2
100
AcDbSpline
62
8
6
HIDDEN
70
0
71
3
72
9
73
5
74
3
42
0.0000001000
43
0.0000001000
44
0.0000000001
40
0.0000000000
40
0.0000000000
40
0.0000000000
40
0.0000000000
40
0.3331761316
40
1.0000000000
40
1.0000000000
40
1.0000000000
40
1.0000000000
10
348.0369653331
20
107.2405602476
30
0.0000000000
10
348.0379539252
20
107.3030437470
30
0.0000000000
10
348.0407353627
20
107.4905856746
30
0.0000000000
10
348.0429597018
20
107.6781353121
30
0.0000000000
10
348.0441954814
20
107.8032002093
30
0.0000000000
11
348.0369653331
21
107.2405602476
31
0.0000000000
11
348.0397455009
21
107.4280135907
31
0.0000000000
11
348.0441954814
21
107.8032002093
31
0.0000000000
0
SPLINE
5
34D
100
AcDbEntity
8
DEFAULT_2
100
AcDbSpline
62
8
6
HIDDEN
70
0
71
3
72
8
73
4
74
2
42
0.0000001000
43
0.0000001000
44
0.0000000001
40
0.0000000000
40
0.0000000000
40
0.0000000000
40
0.0000000000
40
1.0000000000
40
1.0000000000
40
1.0000000000
40
1.0000000000
10
348.0174840468
20
106.8032011630
30
0.0000000000
10
348.0190918509
20
106.8240112999
30
0.0000000000
10
348.0206379060
20
106.8448262998
30
0.0000000000
10
348.0221221787
20
106.8656457504
30
0.0000000000
11
348.0174840468
21
106.8032011630
31
0.0000000000
11
348.0221221787
21
106.8656457504
31
0.0000000000
0
SPLINE
5
34E
100
AcDbEntity
8
DEFAULT_2
100
AcDbSpline
62
8
6
HIDDEN
70
0
71
3
72
9
73
5
74
3
42
0.0000001000
43
0.0000001000
44
0.0000000001
40
0.0000000000
40
0.0000000000
40
0.0000000000
40
0.0000000000
40
0.3332620195
40
1.0000000000
40
1.0000000000
40
1.0000000000
40
1.0000000000
10
348.0221221787
20
106.8656457504
30
0.0000000000
10
348.0236066905
20
106.8864685554
30
0.0000000000
10
348.0278757324
20
106.9489636972
30
0.0000000000
10
348.0315880138
20
107.0114952122
30
0.0000000000
10
348.0338154194
20
107.0532002093
30
0.0000000000
11
348.0221221787
21
106.8656457504
31
0.0000000000
11
348.0263902737
21
106.9281271095
31
0.0000000000
11
348.0338154194
21
107.0532002093
31
0.0000000000
0
SPLINE
5
34F
100
AcDbEntity
8
DEFAULT_2
100
AcDbSpline
62
8
6
HIDDEN
70
0
71
3
72
8
73
4
74
2
42
0.0000001000
43
0.0000001000
44
0.0000000001
40
0.0000000000
40
0.0000000000
40
0.0000000000
40
0.0000000000
40
1.0000000000
40
1.0000000000
40
1.0000000000
40
1.0000000000
10
347.9668508136
20
106.5532021167
30
0.0000000000
10
347.9720494703
20
106.5739329893
30
0.0000000000
10
347.9770130923
20
106.5947243023
30
0.0000000000
10
347.9817374207
20
106.6155705406
30
0.0000000000
11
347.9668508136
21
106.5532021167
31
0.0000000000
11
347.9817374207
21
106.6155705406
31
0.0000000000
0
SPLINE
5
350
100
AcDbEntity
8
DEFAULT_2
100
AcDbSpline
62
8
6
HIDDEN
70
0
71
3
72
9
73
5
74
3
42
0.0000001000
43
0.0000001000
44
0.0000000001
40
0.0000000000
40
0.0000000000
40
0.0000000000
40
0.0000000000
40
0.5008203389
40
1.0000000000
40
1.0000000000
40
1.0000000000
40
1.0000000000
10
347.9817374207
20
106.6155705406
30
0.0000000000
10
347.9864435468
20
106.6363364603
30
0.0000000000
10
347.9953662533
20
106.6779090982
30
0.0000000000
10
348.0033254721
20
106.7196772983
30
0.0000000000
10
348.0070550774
20
106.7405698516
30
0.0000000000
11
347.9817374207
21
106.6155705406
31
0.0000000000
11
347.9951392296
21
106.6780263566
31
0.0000000000
11
348.0070550774
21
106.7405698516
31
0.0000000000
0
SPLINE
5
351
100
AcDbEntity
8
DEFAULT_2
100
AcDbSpline
62
8
6
HIDDEN
70
0
71
3
72
8
73
4
74
2
42
0.0000001000
43
0.0000001000
44
0.0000000001
40
0.0000000000
40
0.0000000000
40
0.0000000000
40
0.0000000000
40
1.0000000000
40
1.0000000000
40
1.0000000000
40
1.0000000000
10
348.0070550774
20
106.7405698516
30
0.0000000000
10
348.0107746948
20
106.7614064548
30
0.0000000000
10
348.0142521398
20
106.7822855468
30
0.0000000000
10
348.0174840468
20
106.8032011630
30
0.0000000000
11
348.0070550774
21
106.7405698516
31
0.0000000000
11
348.0174840468
21
106.8032011630
31
0.0000000000
0
SPLINE
5
352
100
AcDbEntity
8
DEFAULT_2
100
AcDbSpline
62
8
6
HIDDEN
70
0
71
3
72
9
73
5
74
3
42
0.0000001000
43
0.0000001000
44
0.0000000001
40
0.0000000000
40
0.0000000000
40
0.0000000000
40
0.0000000000
40
0.6535765710
40
1.0000000000
40
1.0000000000
40
1.0000000000
40
1.0000000000
10
347.8452678324
20
110.0532002093
30
0.0000000000
10
347.8614426728
20
110.0734949393
30
0.0000000000
10
347.8852717419
20
110.1052942096
30
0.0000000000
10
347.9074102356
20
110.1382816713
30
0.0000000000
10
347.9148551861
20
110.1498518853
30
0.0000000000
11
347.8452678324
21
110.0532002093
31
0.0000000000
11
347.8918687652
21
110.1155690060
31
0.0000000000
11
347.9148551861
21
110.1498518853
31
0.0000000000
0
SPLINE
5
353
100
AcDbEntity
8
DEFAULT_2
100
AcDbSpline
62
8
6
HIDDEN
70
0
71
3
72
8
73
4
74
2
42
0.0000001000
43
0.0000001000
44
0.0000000001
40
0.0000000000
40
0.0000000000
40
0.0000000000
40
0.0000000000
40
1.0000000000
40
1.0000000000
40
1.0000000000
40
1.0000000000
10
347.9148551861
20
110.1498518853
30
0.0000000000
10
347.9208757151
20
110.1592084029
30
0.0000000000
10
347.9267495350
20
110.1686581638
30
0.0000000000
10
347.9324652980
20
110.1782011630
30
0.0000000000
11
347.9148551861
21
110.1498518853
31
0.0000000000
11
347.9324652980
21
110.1782011630
31
0.0000000000
0
SPLINE
5
354
100
AcDbEntity
8
DEFAULT_2
100
AcDbSpline
62
8
6
HIDDEN
70
0
71
3
72
8
73
4
74
2
42
0.0000001000
43
0.0000001000
44
0.0000000001
40
0.0000000000
40
0.0000000000
40
0.0000000000
40
0.0000000000
40
1.0000000000
40
1.0000000000
40
1.0000000000
40
1.0000000000
10
347.7329827416
20
109.5532021167
30
0.0000000000
10
347.7536827704
20
109.6359503905
30
0.0000000000
10
347.7733832397
20
109.7189519189
30
0.0000000000
10
347.7920768884
20
109.8021796135
30
0.0000000000
11
347.7329827416
21
109.5532021167
31
0.0000000000
11
347.7920768884
21
109.8021796135
31
0.0000000000
0
SPLINE
5
355
100
AcDbEntity
8
DEFAULT_2
100
AcDbSpline
62
8
6
HIDDEN
70
0
71
3
72
8
73
4
74
2
42
0.0000001000
43
0.0000001000
44
0.0000000001
40
0.0000000000
40
0.0000000000
40
0.0000000000
40
0.0000000000
40
1.0000000000
40
1.0000000000
40
1.0000000000
40
1.0000000000
10
347.7920768884
20
109.8021796135
30
0.0000000000
10
347.8014421156
20
109.8438753934
30
0.0000000000
10
347.8105546454
20
109.8856279376
30
0.0000000000
10
347.8194136813
20
109.9274337992
30
0.0000000000
11
347.7920768884
21
109.8021796135
31
0.0000000000
11
347.8194136813
21
109.9274337992
31
0.0000000000
0
SPLINE
5
356
100
AcDbEntity
8
DEFAULT_2
100
AcDbSpline
62
8
6
HIDDEN
70
0
71
3
72
8
73
4
74
2
42
0.0000001000
43
0.0000001000
44
0.0000000001
40
0.0000000000
40
0.0000000000
40
0.0000000000
40
0.0000000000
40
1.0000000000
40
1.0000000000
40
1.0000000000
40
1.0000000000
10
347.8194136813
20
109.9274337992
30
0.0000000000
10
347.8282862685
20
109.9693036096
30
0.0000000000
10
347.8369045857
20
110.0112269006
30
0.0000000000
10
347.8452678324
20
110.0532002093
30
0.0000000000
11
347.8194136813
21
109.9274337992
31
0.0000000000
11
347.8452678324
21
110.0532002093
31
0.0000000000
0
SPLINE
5
357
100
AcDbEntity
8
DEFAULT_2
100
AcDbSpline
62
8
6
HIDDEN
70
0
71
3
72
8
73
4
74
2
42
0.0000001000
43
0.0000001000
44
0.0000000001
40
0.0000000000
40
0.0000000000
40
0.0000000000
40
0.0000000000
40
1.0000000000
40
1.0000000000
40
1.0000000000
40
1.0000000000
10
347.6318315194
20
108.1782002093
30
0.0000000000
10
347.6348415526
20
108.2509805729
30
0.0000000000
10
347.6378343505
20
108.3237616513
30
0.0000000000
10
347.6408099552
20
108.3965434336
30
0.0000000000
11
347.6318315194
21
108.1782002093
31
0.0000000000
11
347.6408099552
21
108.3965434336
31
0.0000000000
0
SPLINE
5
358
100
AcDbEntity
8
DEFAULT_2
100
AcDbSpline
62
8
6
HIDDEN
70
0
71
3
72
8
73
4
74
2
42
0.0000001000
43
0.0000001000
44
0.0000000001
40
0.0000000000
40
0.0000000000
40
0.0000000000
40
0.0000000000
40
1.0000000000
40
1.0000000000
40
1.0000000000
40
1.0000000000
10
347.6408099552
20
108.3965434336
30
0.0000000000
10
347.6437892001
20
108.4694142527
30
0.0000000000
10
347.6467512097
20
108.5422857776
30
0.0000000000
10
347.6496960263
20
108.6151579972
30
0.0000000000
11
347.6408099552
21
108.3965434336
31
0.0000000000
11
347.6496960263
21
108.6151579972
31
0.0000000000
0
SPLINE
5
359
100
AcDbEntity
8
DEFAULT_2
100
AcDbSpline
62
8
6
HIDDEN
70
0
71
3
72
8
73
4
74
2
42
0.0000001000
43
0.0000001000
44
0.0000000001
40
0.0000000000
40
0.0000000000
40
0.0000000000
40
0.0000000000
40
1.0000000000
40
1.0000000000
40
1.0000000000
40
1.0000000000
10
347.6496960263
20
108.6151579972
30
0.0000000000
10
347.6555964568
20
108.7611696254
30
0.0000000000
10
347.6614278629
20
108.9071840427
30
0.0000000000
10
347.6671905745
20
109.0532011630
30
0.0000000000
11
347.6496960263
21
108.6151579972
31
0.0000000000
11
347.6671905745
21
109.0532011630
31
0.0000000000
0
SPLINE
5
35A
100
AcDbEntity
8
DEFAULT_2
100
AcDbSpline
62
8
6
HIDDEN
70
0
71
3
72
8
73
4
74
2
42
0.0000001000
43
0.0000001000
44
0.0000000001
40
0.0000000000
40
0.0000000000
40
0.0000000000
40
0.0000000000
40
1.0000000000
40
1.0000000000
40
1.0000000000
40
1.0000000000
10
347.6318315194
20
107.9282011630
30
0.0000000000
10
347.6348415526
20
107.8554207995
30
0.0000000000
10
347.6378343505
20
107.7826397211
30
0.0000000000
10
347.6408099552
20
107.7098579388
30
0.0000000000
11
347.6318315194
21
107.9282011630
31
0.0000000000
11
347.6408099552
21
107.7098579388
31
0.0000000000
0
SPLINE
5
35B
100
AcDbEntity
8
DEFAULT_2
100
AcDbSpline
62
8
6
HIDDEN
70
0
71
3
72
8
73
4
74
2
42
0.0000001000
43
0.0000001000
44
0.0000000001
40
0.0000000000
40
0.0000000000
40
0.0000000000
40
0.0000000000
40
1.0000000000
40
1.0000000000
40
1.0000000000
40
1.0000000000
10
347.6408099552
20
107.7098579388
30
0.0000000000
10
347.6437892001
20
107.6369871196
30
0.0000000000
10
347.6467512097
20
107.5641155948
30
0.0000000000
10
347.6496960263
20
107.4912433752
30
0.0000000000
11
347.6408099552
21
107.7098579388
31
0.0000000000
11
347.6496960263
21
107.4912433752
31
0.0000000000
0
SPLINE
5
35C
100
AcDbEntity
8
DEFAULT_2
100
AcDbSpline
62
8
6
HIDDEN
70
0
71
3
72
8
73
4
74
2
42
0.0000001000
43
0.0000001000
44
0.0000000001
40
0.0000000000
40
0.0000000000
40
0.0000000000
40
0.0000000000
40
1.0000000000
40
1.0000000000
40
1.0000000000
40
1.0000000000
10
347.6496960263
20
107.4912433752
30
0.0000000000
10
347.6555964568
20
107.3452317470
30
0.0000000000
10
347.6614278629
20
107.1992173296
30
0.0000000000
10
347.6671905745
20
107.0532002093
30
0.0000000000
11
347.6496960263
21
107.4912433752
31
0.0000000000
11
347.6671905745
21
107.0532002093
31
0.0000000000
0
SPLINE
5
35D
100
AcDbEntity
8
DEFAULT_2
100
AcDbSpline
62
8
6
HIDDEN
70
0
71
3
72
8
73
4
74
2
42
0.0000001000
43
0.0000001000
44
0.0000000001
40
0.0000000000
40
0.0000000000
40
0.0000000000
40
0.0000000000
40
1.0000000000
40
1.0000000000
40
1.0000000000
40
1.0000000000
10
347.6671905745
20
107.0532002093
30
0.0000000000
10
347.6786964327
20
106.9699039038
30
0.0000000000
10
347.6899331885
20
106.8865702100
30
0.0000000000
10
347.7009024302
20
106.8032013224
30
0.0000000000
11
347.6671905745
21
107.0532002093
31
0.0000000000
11
347.7009024302
21
106.8032013224
31
0.0000000000
0
SPLINE
5
35E
100
AcDbEntity
8
DEFAULT_2
100
AcDbSpline
62
8
6
HIDDEN
70
0
71
3
72
8
73
4
74
2
42
0.0000001000
43
0.0000001000
44
0.0000000001
40
0.0000000000
40
0.0000000000
40
0.0000000000
40
0.0000000000
40
1.0000000000
40
1.0000000000
40
1.0000000000
40
1.0000000000
10
347.7009024302
20
106.8032013224
30
0.0000000000
10
347.7118624299
20
106.7199026758
30
0.0000000000
10
347.7225553658
20
106.6365688945
30
0.0000000000
10
347.7329827416
20
106.5532021167
30
0.0000000000
11
347.7009024302
21
106.8032013224
31
0.0000000000
11
347.7329827416
21
106.5532021167
31
0.0000000000
0
SPLINE
5
35F
100
AcDbEntity
8
DEFAULT_2
100
AcDbSpline
62
8
6
HIDDEN
70
0
71
3
72
8
73
4
74
2
42
0.0000001000
43
0.0000001000
44
0.0000000001
40
0.0000000000
40
0.0000000000
40
0.0000000000
40
0.0000000000
40
1.0000000000
40
1.0000000000
40
1.0000000000
40
1.0000000000
10
347.7329827416
20
106.5532021167
30
0.0000000000
10
347.7433901999
20
106.5115981099
30
0.0000000000
10
347.7535449866
20
106.4699300850
30
0.0000000000
10
347.7634461790
20
106.4282014848
30
0.0000000000
11
347.7329827416
21
106.5532021167
31
0.0000000000
11
347.7634461790
21
106.4282014848
31
0.0000000000
0
SPLINE
5
360
100
AcDbEntity
8
DEFAULT_2
100
AcDbSpline
62
8
6
HIDDEN
70
0
71
3
72
8
73
4
74
2
42
0.0000001000
43
0.0000001000
44
0.0000000001
40
0.0000000000
40
0.0000000000
40
0.0000000000
40
0.0000000000
40
1.0000000000
40
1.0000000000
40
1.0000000000
40
1.0000000000
10
347.7634461790
20
106.4282014848
30
0.0000000000
10
347.7663730372
20
106.4158662335
30
0.0000000000
10
347.7692777355
20
106.4035256889
30
0.0000000000
10
347.7721602500
20
106.3911799400
30
0.0000000000
11
347.7634461790
21
106.4282014848
31
0.0000000000
11
347.7721602500
21
106.3911799400
31
0.0000000000
0
SPLINE
5
361
100
AcDbEntity
8
DEFAULT_2
100
AcDbSpline
62
8
6
HIDDEN
70
0
71
3
72
8
73
4
74
2
42
0.0000001000
43
0.0000001000
44
0.0000000001
40
0.0000000000
40
0.0000000000
40
0.0000000000
40
0.0000000000
40
1.0000000000
40
1.0000000000
40
1.0000000000
40
1.0000000000
10
347.7721602500
20
106.3911799400
30
0.0000000000
10
347.7789212761
20
106.3622226084
30
0.0000000000
10
347.7855602579
20
106.3332366451
30
0.0000000000
10
347.7920768879
20
106.3042231975
30
0.0000000000
11
347.7721602500
21
106.3911799400
31
0.0000000000
11
347.7920768879
21
106.3042231975
31
0.0000000000
0
SPLINE
5
362
100
AcDbEntity
8
DEFAULT_2
100
AcDbSpline
62
8
6
HIDDEN
70
0
71
3
72
8
73
4
74
2
42
0.0000001000
43
0.0000001000
44
0.0000000001
40
0.0000000000
40
0.0000000000
40
0.0000000000
40
0.0000000000
40
1.0000000000
40
1.0000000000
40
1.0000000000
40
1.0000000000
10
347.7920768879
20
106.3042231975
30
0.0000000000
10
347.8014421152
20
106.2625271783
30
0.0000000000
10
347.8105546451
20
106.2207743949
30
0.0000000000
10
347.8194136809
20
106.1789682945
30
0.0000000000
11
347.7920768879
21
106.3042231975
31
0.0000000000
11
347.8194136809
21
106.1789682945
31
0.0000000000
0
SPLINE
5
363
100
AcDbEntity
8
DEFAULT_2
100
AcDbSpline
62
8
6
HIDDEN
70
0
71
3
72
8
73
4
74
2
42
0.0000001000
43
0.0000001000
44
0.0000000001
40
0.0000000000
40
0.0000000000
40
0.0000000000
40
0.0000000000
40
1.0000000000
40
1.0000000000
40
1.0000000000
40
1.0000000000
10
347.8194136809
20
106.1789682945
30
0.0000000000
10
347.8282862684
20
106.1370982434
30
0.0000000000
10
347.8369045856
20
106.0951747119
30
0.0000000000
10
347.8452678324
20
106.0532011630
30
0.0000000000
11
347.8194136809
21
106.1789682945
31
0.0000000000
11
347.8452678324
21
106.0532011630
31
0.0000000000
0
SPLINE
5
364
100
AcDbEntity
8
DEFAULT_2
100
AcDbSpline
62
8
6
HIDDEN
70
0
71
3
72
9
73
5
74
3
42
0.0000001000
43
0.0000001000
44
0.0000000001
40
0.0000000000
40
0.0000000000
40
0.0000000000
40
0.0000000000
40
0.6535765710
40
1.0000000000
40
1.0000000000
40
1.0000000000
40
1.0000000000
10
347.8452678324
20
106.0532011630
30
0.0000000000
10
347.8614426728
20
106.0329064330
30
0.0000000000
10
347.8852717419
20
106.0011071627
30
0.0000000000
10
347.9074102356
20
105.9681197011
30
0.0000000000
10
347.9148551861
20
105.9565494870
30
0.0000000000
11
347.8452678324
21
106.0532011630
31
0.0000000000
11
347.8918687652
21
105.9908323663
31
0.0000000000
11
347.9148551861
21
105.9565494870
31
0.0000000000
0
SPLINE
5
365
100
AcDbEntity
8
DEFAULT_2
100
AcDbSpline
62
8
6
HIDDEN
70
0
71
3
72
8
73
4
74
2
42
0.0000001000
43
0.0000001000
44
0.0000000001
40
0.0000000000
40
0.0000000000
40
0.0000000000
40
0.0000000000
40
1.0000000000
40
1.0000000000
40
1.0000000000
40
1.0000000000
10
347.9148551861
20
105.9565494870
30
0.0000000000
10
347.9208757151
20
105.9471929695
30
0.0000000000
10
347.9267495350
20
105.9377432086
30
0.0000000000
10
347.9324652980
20
105.9282002093
30
0.0000000000
11
347.9148551861
21
105.9565494870
31
0.0000000000
11
347.9324652980
21
105.9282002093
31
0.0000000000
0
SPLINE
5
366
100
AcDbEntity
8
DEFAULT_2
100
AcDbSpline
62
8
6
HIDDEN
70
0
71
3
72
9
73
5
74
3
42
0.0000001000
43
0.0000001000
44
0.0000000001
40
0.0000000000
40
0.0000000000
40
0.0000000000
40
0.0000000000
40
0.4998226038
40
1.0000000000
40
1.0000000000
40
1.0000000000
40
1.0000000000
10
347.6318315194
20
112.0532011630
30
0.0000000000
10
347.6734167489
20
112.1763234691
30
0.0000000000
10
347.7507086760
20
112.4246916270
30
0.0000000000
10
347.8158221448
20
112.6765308444
30
0.0000000000
10
347.8452678324
20
112.8032011630
30
0.0000000000
11
347.6318315194
21
112.0532011630
31
0.0000000000
11
347.7476387989
21
112.4254706571
31
0.0000000000
11
347.8452678324
21
112.8032011630
31
0.0000000000
0
SPLINE
5
367
100
AcDbEntity
8
DEFAULT_2
100
AcDbSpline
62
8
6
HIDDEN
70
0
71
3
72
9
73
5
74
3
42
0.0000001000
43
0.0000001000
44
0.0000000001
40
0.0000000000
40
0.0000000000
40
0.0000000000
40
0.0000000000
40
0.4998226038
40
1.0000000000
40
1.0000000000
40
1.0000000000
40
1.0000000000
10
347.6318315194
20
117.3032011630
30
0.0000000000
10
347.6734167489
20
117.4263234691
30
0.0000000000
10
347.7507086760
20
117.6746916270
30
0.0000000000
10
347.8158221448
20
117.9265308444
30
0.0000000000
10
347.8452678324
20
118.0532011630
30
0.0000000000
11
347.6318315194
21
117.3032011630
31
0.0000000000
11
347.7476387989
21
117.6754706571
31
0.0000000000
11
347.8452678324
21
118.0532011630
31
0.0000000000
0
SPLINE
5
368
100
AcDbEntity
8
0
100
AcDbSpline
62
7
6
CONTINUOUS
70
0
71
3
72
8
73
4
74
2
42
0.0000001000
43
0.0000001000
44
0.0000000001
40
0.0000000000
40
0.0000000000
40
0.0000000000
40
0.0000000000
40
1.0000000000
40
1.0000000000
40
1.0000000000
40
1.0000000000
10
347.6318315194
20
133.0532011630
30
0.0000000000
10
347.7213782693
20
132.9479040889
30
0.0000000000
10
347.8030361952
20
132.8343683079
30
0.0000000000
10
347.8697535467
20
132.7126051976
30
0.0000000000
11
347.6318315194
21
133.0532011630
31
0.0000000000
11
347.8697535467
21
132.7126051976
31
0.0000000000
0
SPLINE
5
369
100
AcDbEntity
8
0
100
AcDbSpline
62
7
6
CONTINUOUS
70
0
71
3
72
9
73
5
74
3
42
0.0000001000
43
0.0000001000
44
0.0000000001
40
0.0000000000
40
0.0000000000
40
0.0000000000
40
0.0000000000
40
0.2478765010
40
1.0000000000
40
1.0000000000
40
1.0000000000
40
1.0000000000
10
347.8697535467
20
132.7126051976
30
0.0000000000
10
347.8971239814
20
132.6626525365
30
0.0000000000
10
347.9973994258
20
132.4555440539
30
0.0000000000
10
348.0488262752
20
132.2259125059
30
0.0000000000
10
348.0488262752
20
132.0532012226
30
0.0000000000
11
347.8697535467
21
132.7126051976
31
0.0000000000
11
347.9438344415
21
132.5585940052
31
0.0000000000
11
348.0488262752
21
132.0532012226
31
0.0000000000
0
SPLINE
5
36A
100
AcDbEntity
8
0
100
AcDbSpline
62
7
6
CONTINUOUS
70
0
71
3
72
9
73
5
74
3
42
0.0000001000
43
0.0000001000
44
0.0000000001
40
0.0000000000
40
0.0000000000
40
0.0000000000
40
0.0000000000
40
0.6611821973
40
1.0000000000
40
1.0000000000
40
1.0000000000
40
1.0000000000
10
347.9883919031
20
132.4217703374
30
0.0000000000
10
348.0142569149
20
132.5039907028
30
0.0000000000
10
348.0419705602
20
132.6317613437
30
0.0000000000
10
348.0486655722
20
132.7620088092
30
0.0000000000
10
348.0485899262
20
132.8061643553
30
0.0000000000
11
347.9883919031
21
132.4217703374
31
0.0000000000
11
348.0417159071
21
132.6740328223
31
0.0000000000
11
348.0485899262
21
132.8061643553
31
0.0000000000
0
SPLINE
5
36B
100
AcDbEntity
8
0
100
AcDbSpline
62
7
6
CONTINUOUS
70
0
71
3
72
8
73
4
74
2
42
0.0000001000
43
0.0000001000
44
0.0000000001
40
0.0000000000
40
0.0000000000
40
0.0000000000
40
0.0000000000
40
1.0000000000
40
1.0000000000
40
1.0000000000
40
1.0000000000
10
347.9921902778
20
128.6828950592
30
0.0000000000
10
348.0021005990
20
128.7156601814
30
0.0000000000
10
348.0108160608
20
128.7487845543
30
0.0000000000
10
348.0182517704
20
128.7821702596
30
0.0000000000
11
347.9921902778
21
128.6828950592
31
0.0000000000
11
348.0182517704
21
128.7821702596
31
0.0000000000
0
SPLINE
5
36C
100
AcDbEntity
8
0
100
AcDbSpline
62
7
6
CONTINUOUS
70
0
71
3
72
8
73
4
74
2
42
0.0000001000
43
0.0000001000
44
0.0000000001
40
0.0000000000
40
0.0000000000
40
0.0000000000
40
0.0000000000
40
1.0000000000
40
1.0000000000
40
1.0000000000
40
1.0000000000
10
348.0182517704
20
128.7821702596
30
0.0000000000
10
348.0195660263
20
128.7880711568
30
0.0000000000
10
348.0208403023
20
128.7939802181
30
0.0000000000
10
348.0220741297
20
128.7998969028
30
0.0000000000
11
348.0182517704
21
128.7821702596
31
0.0000000000
11
348.0220741297
21
128.7998969028
31
0.0000000000
0
SPLINE
5
36D
100
AcDbEntity
8
0
100
AcDbSpline
62
7
6
CONTINUOUS
70
0
71
3
72
8
73
4
74
2
42
0.0000001000
43
0.0000001000
44
0.0000000001
40
0.0000000000
40
0.0000000000
40
0.0000000000
40
0.0000000000
40
1.0000000000
40
1.0000000000
40
1.0000000000
40
1.0000000000
10
348.0220741297
20
128.7998969028
30
0.0000000000
10
348.0394709034
20
128.8833212301
30
0.0000000000
10
348.0488262752
20
128.9682611369
30
0.0000000000
10
348.0488262752
20
129.0532010438
30
0.0000000000
11
348.0220741297
21
128.7998969028
31
0.0000000000
11
348.0488262752
21
129.0532010438
31
0.0000000000
0
SPLINE
5
36E
100
AcDbEntity
8
0
100
AcDbSpline
62
7
6
CONTINUOUS
70
0
71
3
72
8
73
4
74
2
42
0.0000001000
43
0.0000001000
44
0.0000000001
40
0.0000000000
40
0.0000000000
40
0.0000000000
40
0.0000000000
40
1.0000000000
40
1.0000000000
40
1.0000000000
40
1.0000000000
10
348.0070786671
20
128.6782014014
30
0.0000000000
10
348.0342298375
20
128.5767751162
30
0.0000000000
10
348.0486376162
20
128.4711070035
30
0.0000000000
10
348.0487628054
20
128.3655847756
30
0.0000000000
11
348.0070786671
21
128.6782014014
31
0.0000000000
11
348.0487628054
21
128.3655847756
31
0.0000000000
0
SPLINE
5
36F
100
AcDbEntity
8
0
100
AcDbSpline
62
7
6
CONTINUOUS
70
0
71
3
72
8
73
4
74
2
42
0.0000001000
43
0.0000001000
44
0.0000000001
40
0.0000000000
40
0.0000000000
40
0.0000000000
40
0.0000000000
40
1.0000000000
40
1.0000000000
40
1.0000000000
40
1.0000000000
10
348.0487628054
20
126.7408180273
30
0.0000000000
10
348.0486376162
20
126.6352957994
30
0.0000000000
10
348.0342298375
20
126.5296276866
30
0.0000000000
10
348.0070786671
20
126.4282014014
30
0.0000000000
11
348.0487628054
21
126.7408180273
31
0.0000000000
11
348.0070786671
21
126.4282014014
31
0.0000000000
0
SPLINE
5
370
100
AcDbEntity
8
0
100
AcDbSpline
62
7
6
CONTINUOUS
70
0
71
3
72
8
73
4
74
2
42
0.0000001000
43
0.0000001000
44
0.0000000001
40
0.0000000000
40
0.0000000000
40
0.0000000000
40
0.0000000000
40
1.0000000000
40
1.0000000000
40
1.0000000000
40
1.0000000000
10
348.0488262752
20
126.0532010438
30
0.0000000000
10
348.0488262752
20
126.1381409507
30
0.0000000000
10
348.0394709034
20
126.2230808575
30
0.0000000000
10
348.0220741297
20
126.3065051848
30
0.0000000000
11
348.0488262752
21
126.0532010438
31
0.0000000000
11
348.0220741297
21
126.3065051848
31
0.0000000000
0
SPLINE
5
371
100
AcDbEntity
8
0
100
AcDbSpline
62
7
6
CONTINUOUS
70
0
71
3
72
8
73
4
74
2
42
0.0000001000
43
0.0000001000
44
0.0000000001
40
0.0000000000
40
0.0000000000
40
0.0000000000
40
0.0000000000
40
1.0000000000
40
1.0000000000
40
1.0000000000
40
1.0000000000
10
348.0220741297
20
126.3065051848
30
0.0000000000
10
348.0208403023
20
126.3124218695
30
0.0000000000
10
348.0195660263
20
126.3183309308
30
0.0000000000
10
348.0182517704
20
126.3242318280
30
0.0000000000
11
348.0220741297
21
126.3065051848
31
0.0000000000
11
348.0182517704
21
126.3242318280
31
0.0000000000
0
SPLINE
5
372
100
AcDbEntity
8
0
100
AcDbSpline
62
7
6
CONTINUOUS
70
0
71
3
72
8
73
4
74
2
42
0.0000001000
43
0.0000001000
44
0.0000000001
40
0.0000000000
40
0.0000000000
40
0.0000000000
40
0.0000000000
40
1.0000000000
40
1.0000000000
40
1.0000000000
40
1.0000000000
10
348.0182517704
20
126.3242318280
30
0.0000000000
10
348.0108160111
20
126.3576177562
30
0.0000000000
10
348.0021004826
20
126.3907423486
30
0.0000000000
10
347.9921900792
20
126.4235076848
30
0.0000000000
11
348.0182517704
21
126.3242318280
31
0.0000000000
11
347.9921900792
21
126.4235076848
31
0.0000000000
0
SPLINE
5
373
100
AcDbEntity
8
0
100
AcDbSpline
62
7
6
CONTINUOUS
70
0
71
3
72
9
73
5
74
3
42
0.0000001000
43
0.0000001000
44
0.0000000001
40
0.0000000000
40
0.0000000000
40
0.0000000000
40
0.0000000000
40
0.3388178539
40
1.0000000000
40
1.0000000000
40
1.0000000000
40
1.0000000000
10
348.0485899262
20
134.3002380899
30
0.0000000000
10
348.0486655722
20
134.3443936360
30
0.0000000000
10
348.0419705612
20
134.4746410819
30
0.0000000000
10
348.0142569233
20
134.6024117038
30
0.0000000000
10
347.9883919208
20
134.6846320515
30
0.0000000000
11
348.0485899262
21
134.3002380899
31
0.0000000000
11
348.0417159071
21
134.4323696229
31
0.0000000000
11
347.9883919208
21
134.6846320515
31
0.0000000000
0
SPLINE
5
374
100
AcDbEntity
8
0
100
AcDbSpline
62
7
6
CONTINUOUS
70
0
71
3
72
9
73
5
74
3
42
0.0000001000
43
0.0000001000
44
0.0000000001
40
0.0000000000
40
0.0000000000
40
0.0000000000
40
0.0000000000
40
0.7521236373
40
1.0000000000
40
1.0000000000
40
1.0000000000
40
1.0000000000
10
348.0488262752
20
135.0532011332
30
0.0000000000
10
348.0488262752
20
134.8804898351
30
0.0000000000
10
347.9973994362
20
134.6508583096
30
0.0000000000
10
347.8971240176
20
134.4437498398
30
0.0000000000
10
347.8697536064
20
134.3937972084
30
0.0000000000
11
348.0488262752
21
135.0532011332
31
0.0000000000
11
347.9438344415
21
134.5478083053
31
0.0000000000
11
347.8697536064
21
134.3937972084
31
0.0000000000
0
SPLINE
5
375
100
AcDbEntity
8
0
100
AcDbSpline
62
7
6
CONTINUOUS
70
0
71
3
72
8
73
4
74
2
42
0.0000001000
43
0.0000001000
44
0.0000000001
40
0.0000000000
40
0.0000000000
40
0.0000000000
40
0.0000000000
40
1.0000000000
40
1.0000000000
40
1.0000000000
40
1.0000000000
10
347.8697536064
20
134.3937972084
30
0.0000000000
10
347.8030362444
20
134.2720340471
30
0.0000000000
10
347.7213782968
20
134.1584982193
30
0.0000000000
10
347.6318315194
20
134.0532011034
30
0.0000000000
11
347.8697536064
21
134.3937972084
31
0.0000000000
11
347.6318315194
21
134.0532011034
31
0.0000000000
0
SPLINE
5
376
100
AcDbEntity
8
0
100
AcDbSpline
62
7
6
CONTINUOUS
70
0
71
3
72
9
73
5
74
3
42
0.0000001000
43
0.0000001000
44
0.0000000001
40
0.0000000000
40
0.0000000000
40
0.0000000000
40
0.0000000000
40
0.4990730114
40
1.0000000000
40
1.0000000000
40
1.0000000000
40
1.0000000000
10
347.7329827526
20
106.5532021167
30
0.0000000000
10
347.7433725613
20
106.4909020667
30
0.0000000000
10
347.7636688852
20
106.3659829423
30
0.0000000000
10
347.7829225339
20
106.2408988718
30
0.0000000000
10
347.7923063037
20
106.1782021167
30
0.0000000000
11
347.7329827526
21
106.5532021167
31
0.0000000000
11
347.7633715531
21
106.3661734557
31
0.0000000000
11
347.7923063037
21
106.1782021167
31
0.0000000000
0
SPLINE
5
377
100
AcDbEntity
8
0
100
AcDbSpline
62
7
6
CONTINUOUS
70
0
71
3
72
9
73
5
74
3
42
0.0000001000
43
0.0000001000
44
0.0000000001
40
0.0000000000
40
0.0000000000
40
0.0000000000
40
0.0000000000
40
0.4986980466
40
1.0000000000
40
1.0000000000
40
1.0000000000
40
1.0000000000
10
347.6671905775
20
107.0532002093
30
0.0000000000
10
347.6786616426
20
106.9701557981
30
0.0000000000
10
347.7011273166
20
106.8035588479
30
0.0000000000
10
347.7225238158
20
106.6368212145
30
0.0000000000
10
347.7329827526
20
106.5532021167
30
0.0000000000
11
347.6671905775
21
107.0532002093
31
0.0000000000
11
347.7008029146
21
106.8039576630
31
0.0000000000
11
347.7329827526
21
106.5532021167
31
0.0000000000
0
SPLINE
5
378
100
AcDbEntity
8
0
100
AcDbSpline
62
7
6
CONTINUOUS
70
0
71
3
72
9
73
5
74
3
42
0.0000001000
43
0.0000001000
44
0.0000000001
40
0.0000000000
40
0.0000000000
40
0.0000000000
40
0.0000000000
40
0.5005814079
40
1.0000000000
40
1.0000000000
40
1.0000000000
40
1.0000000000
10
347.6671905775
20
107.0532002093
30
0.0000000000
10
347.6614277557
20
107.1366402212
30
0.0000000000
10
347.6497787013
20
107.3033170001
30
0.0000000000
10
347.6378551449
20
107.4699743674
30
0.0000000000
10
347.6318315194
20
107.5532011630
30
0.0000000000
11
347.6671905775
21
107.0532002093
31
0.0000000000
11
347.6496963704
21
107.3035059503
31
0.0000000000
11
347.6318315194
21
107.5532011630
31
0.0000000000
0
SPLINE
5
379
100
AcDbEntity
8
0
100
AcDbSpline
62
7
6
CONTINUOUS
70
0
71
3
72
9
73
5
74
3
42
0.0000001000
43
0.0000001000
44
0.0000000001
40
0.0000000000
40
0.0000000000
40
0.0000000000
40
0.0000000000
40
0.5005814079
40
1.0000000000
40
1.0000000000
40
1.0000000000
40
1.0000000000
10
347.6671905775
20
109.0532011630
30
0.0000000000
10
347.6614277557
20
108.9697611512
30
0.0000000000
10
347.6497787013
20
108.8030843723
30
0.0000000000
10
347.6378551449
20
108.6364270050
30
0.0000000000
10
347.6318315194
20
108.5532002093
30
0.0000000000
11
347.6671905775
21
109.0532011630
31
0.0000000000
11
347.6496963704
21
108.8028954221
31
0.0000000000
11
347.6318315194
21
108.5532002093
31
0.0000000000
0
SPLINE
5
37A
100
AcDbEntity
8
0
100
AcDbSpline
62
7
6
CONTINUOUS
70
0
71
3
72
9
73
5
74
3
42
0.0000001000
43
0.0000001000
44
0.0000000001
40
0.0000000000
40
0.0000000000
40
0.0000000000
40
0.0000000000
40
0.4986980423
40
1.0000000000
40
1.0000000000
40
1.0000000000
40
1.0000000000
10
347.6671905775
20
109.0532011630
30
0.0000000000
10
347.6786616427
20
109.1362460495
30
0.0000000000
10
347.7011273167
20
109.3028439538
30
0.0000000000
10
347.7225238158
20
109.4695825404
30
0.0000000000
10
347.7329827526
20
109.5532021167
30
0.0000000000
11
347.6671905775
21
109.0532011630
31
0.0000000000
11
347.7008029145
21
109.3024451346
31
0.0000000000
11
347.7329827526
21
109.5532021167
31
0.0000000000
0
SPLINE
5
37B
100
AcDbEntity
8
0
100
AcDbSpline
62
7
6
CONTINUOUS
70
0
71
3
72
9
73
5
74
3
42
0.0000001000
43
0.0000001000
44
0.0000000001
40
0.0000000000
40
0.0000000000
40
0.0000000000
40
0.0000000000
40
0.5009269886
40
1.0000000000
40
1.0000000000
40
1.0000000000
40
1.0000000000
10
347.7923063037
20
109.9282021167
30
0.0000000000
10
347.7829225339
20
109.8655053616
30
0.0000000000
10
347.7636688852
20
109.7404212911
30
0.0000000000
10
347.7433725613
20
109.6155021667
30
0.0000000000
10
347.7329827526
20
109.5532021167
30
0.0000000000
11
347.7923063037
21
109.9282021167
31
0.0000000000
11
347.7633715531
21
109.7402307776
31
0.0000000000
11
347.7329827526
21
109.5532021167
31
0.0000000000
0
SPLINE
5
37C
100
AcDbEntity
8
0
100
AcDbSpline
62
7
6
CONTINUOUS
70
0
71
3
72
9
73
5
74
3
42
0.0000001000
43
0.0000001000
44
0.0000000001
40
0.0000000000
40
0.0000000000
40
0.0000000000
40
0.0000000000
40
0.4992000690
40
1.0000000000
40
1.0000000000
40
1.0000000000
40
1.0000000000
10
347.8693925063
20
110.1782011630
30
0.0000000000
10
347.8576484998
20
110.1362788798
30
0.0000000000
10
347.8330242045
20
110.0526039687
30
0.0000000000
10
347.8062452446
20
109.9695938291
30
0.0000000000
10
347.7923063037
20
109.9282021167
30
0.0000000000
11
347.8693925063
21
110.1782011630
31
0.0000000000
11
347.8325266560
21
110.0529034985
31
0.0000000000
11
347.7923063037
21
109.9282021167
31
0.0000000000
0
SPLINE
5
37D
100
AcDbEntity
8
0
100
AcDbSpline
62
7
6
CONTINUOUS
70
0
71
3
72
9
73
5
74
3
42
0.0000001000
43
0.0000001000
44
0.0000000001
40
0.0000000000
40
0.0000000000
40
0.0000000000
40
0.0000000000
40
0.4952159542
40
1.0000000000
40
1.0000000000
40
1.0000000000
40
1.0000000000
10
347.9324653242
20
110.3032021167
30
0.0000000000
10
347.9229924493
20
110.2821143221
30
0.0000000000
10
347.9028736880
20
110.2399699952
30
0.0000000000
10
347.8809103641
20
110.1987588966
30
0.0000000000
10
347.8693925063
20
110.1782011630
30
0.0000000000
11
347.9324653242
21
110.3032021167
31
0.0000000000
11
347.9026138277
21
110.2406020998
31
0.0000000000
11
347.8693925063
21
110.1782011630
31
0.0000000000
0
SPLINE
5
37E
100
AcDbEntity
8
0
100
AcDbSpline
62
7
6
CONTINUOUS
70
0
71
3
72
9
73
5
74
3
42
0.0000001000
43
0.0000001000
44
0.0000000001
40
0.0000000000
40
0.0000000000
40
0.0000000000
40
0.0000000000
40
0.4987301982
40
1.0000000000
40
1.0000000000
40
1.0000000000
40
1.0000000000
10
348.0338154194
20
106.6782002093
30
0.0000000000
10
348.0293474979
20
106.6363724905
30
0.0000000000
10
348.0184049799
20
106.5527044599
30
0.0000000000
10
348.0035651933
20
106.4696401221
30
0.0000000000
10
347.9951747088
20
106.4282011630
30
0.0000000000
11
348.0338154194
21
106.6782002093
31
0.0000000000
11
348.0174633949
21
106.5530671011
31
0.0000000000
11
347.9951747088
21
106.4282011630
31
0.0000000000
0
SPLINE
5
37F
100
AcDbEntity
8
0
100
AcDbSpline
62
7
6
CONTINUOUS
70
0
71
3
72
9
73
5
74
3
42
0.0000001000
43
0.0000001000
44
0.0000000001
40
0.0000000000
40
0.0000000000
40
0.0000000000
40
0.0000000000
40
0.5001611706
40
1.0000000000
40
1.0000000000
40
1.0000000000
40
1.0000000000
10
348.0441954814
20
107.0532002093
30
0.0000000000
10
348.0429597032
20
106.9906678362
30
0.0000000000
10
348.0399943075
20
106.8656526754
30
0.0000000000
10
348.0360395121
20
106.7406649012
30
0.0000000000
10
348.0338154194
20
106.6782002093
30
0.0000000000
11
348.0441954814
21
107.0532002093
31
0.0000000000
11
348.0397458422
21
106.8656192289
31
0.0000000000
11
348.0338154194
21
106.6782002093
31
0.0000000000
0
SPLINE
5
380
100
AcDbEntity
8
0
100
AcDbSpline
62
7
6
CONTINUOUS
70
0
71
3
72
9
73
5
74
3
42
0.0000001000
43
0.0000001000
44
0.0000000001
40
0.0000000000
40
0.0000000000
40
0.0000000000
40
0.0000000000
40
0.5000310113
40
1.0000000000
40
1.0000000000
40
1.0000000000
40
1.0000000000
10
348.0471594117
20
107.8032002093
30
0.0000000000
10
348.0467889457
20
107.6781920140
30
0.0000000000
10
348.0459245334
20
107.4281914800
30
0.0000000000
10
348.0448130206
20
107.1781919223
30
0.0000000000
10
348.0441954924
20
107.0532002093
30
0.0000000000
11
348.0471594117
21
107.8032002093
31
0.0000000000
11
348.0458626970
21
107.4281762184
31
0.0000000000
11
348.0441954924
21
107.0532002093
31
0.0000000000
0
SPLINE
5
381
100
AcDbEntity
8
0
100
AcDbSpline
62
7
6
CONTINUOUS
70
0
71
3
72
8
73
4
74
2
42
0.0000001000
43
0.0000001000
44
0.0000000001
40
0.0000000000
40
0.0000000000
40
0.0000000000
40
0.0000000000
40
1.0000000000
40
1.0000000000
40
1.0000000000
40
1.0000000000
10
348.0486410809
20
106.8032011630
30
0.0000000000
10
348.0487398387
20
106.7615401873
30
0.0000000000
10
348.0487990986
20
106.7198790946
30
0.0000000000
10
348.0488188607
20
106.6782179690
30
0.0000000000
11
348.0486410809
21
106.8032011630
31
0.0000000000
11
348.0488188607
21
106.6782179690
31
0.0000000000
0
SPLINE
5
382
100
AcDbEntity
8
0
100
AcDbSpline
62
7
6
CONTINUOUS
70
0
71
3
72
8
73
4
74
2
42
0.0000001000
43
0.0000001000
44
0.0000000001
40
0.0000000000
40
0.0000000000
40
0.0000000000
40
0.0000000000
40
1.0000000000
40
1.0000000000
40
1.0000000000
40
1.0000000000
10
348.0488188607
20
106.6782179690
30
0.0000000000
10
348.0488238051
20
106.6677943859
30
0.0000000000
10
348.0488262770
20
106.6573708006
30
0.0000000000
10
348.0488262764
20
106.6469472147
30
0.0000000000
11
348.0488188607
21
106.6782179690
31
0.0000000000
11
348.0488262764
21
106.6469472147
31
0.0000000000
0
SPLINE
5
383
100
AcDbEntity
8
0
100
AcDbSpline
62
7
6
CONTINUOUS
70
0
71
3
72
8
73
4
74
2
42
0.0000001000
43
0.0000001000
44
0.0000000001
40
0.0000000000
40
0.0000000000
40
0.0000000000
40
0.0000000000
40
1.0000000000
40
1.0000000000
40
1.0000000000
40
1.0000000000
10
347.9504190996
20
128.8032009246
30
0.0000000000
10
347.9291569668
20
128.8547334142
30
0.0000000000
10
347.9048822952
20
128.9050653001
30
0.0000000000
10
347.8781163416
20
128.9540751935
30
0.0000000000
11
347.9504190996
21
128.8032009246
31
0.0000000000
11
347.8781163416
21
128.9540751935
31
0.0000000000
0
SPLINE
5
384
100
AcDbEntity
8
0
100
AcDbSpline
62
7
6
CONTINUOUS
70
0
71
3
72
9
73
5
74
3
42
0.0000001000
43
0.0000001000
44
0.0000000001
40
0.0000000000
40
0.0000000000
40
0.0000000000
40
0.0000000000
40
0.2743654142
40
1.0000000000
40
1.0000000000
40
1.0000000000
40
1.0000000000
10
347.8781163416
20
128.9540751935
30
0.0000000000
10
347.8593410614
20
128.9884537364
30
0.0000000000
10
347.7864415289
20
129.1113848986
30
0.0000000000
10
347.6996476367
20
129.2251182060
30
0.0000000000
10
347.6318315194
20
129.3032011630
30
0.0000000000
11
347.8781163416
21
128.9540751935
31
0.0000000000
11
347.8182929234
21
129.0552174737
31
0.0000000000
11
347.6318315194
21
129.3032011630
31
0.0000000000
0
SPLINE
5
385
100
AcDbEntity
8
0
100
AcDbSpline
62
7
6
CONTINUOUS
70
0
71
3
72
9
73
5
74
3
42
0.0000001000
43
0.0000001000
44
0.0000000001
40
0.0000000000
40
0.0000000000
40
0.0000000000
40
0.0000000000
40
0.4952157472
40
1.0000000000
40
1.0000000000
40
1.0000000000
40
1.0000000000
10
347.9324653242
20
105.8032021167
30
0.0000000000
10
347.9229924456
20
105.8242894368
30
0.0000000000
10
347.9028736752
20
105.8664328162
30
0.0000000000
10
347.8809103594
20
105.9076429547
30
0.0000000000
10
347.8693925063
20
105.9282002093
30
0.0000000000
11
347.9324653242
21
105.8032021167
31
0.0000000000
11
347.9026138280
21
105.8658007003
31
0.0000000000
11
347.8693925063
21
105.9282002093
31
0.0000000000
0
SPLINE
5
386
100
AcDbEntity
8
0
100
AcDbSpline
62
7
6
CONTINUOUS
70
0
71
3
72
8
73
4
74
2
42
0.0000001000
43
0.0000001000
44
0.0000000001
40
0.0000000000
40
0.0000000000
40
0.0000000000
40
0.0000000000
40
1.0000000000
40
1.0000000000
40
1.0000000000
40
1.0000000000
10
347.9504190996
20
126.3032011630
30
0.0000000000
10
347.9291569668
20
126.2516686734
30
0.0000000000
10
347.9048822952
20
126.2013367875
30
0.0000000000
10
347.8781163416
20
126.1523268941
30
0.0000000000
11
347.9504190996
21
126.3032011630
31
0.0000000000
11
347.8781163416
21
126.1523268941
31
0.0000000000
0
SPLINE
5
387
100
AcDbEntity
8
0
100
AcDbSpline
62
7
6
CONTINUOUS
70
0
71
3
72
9
73
5
74
3
42
0.0000001000
43
0.0000001000
44
0.0000000001
40
0.0000000000
40
0.0000000000
40
0.0000000000
40
0.0000000000
40
0.2743654142
40
1.0000000000
40
1.0000000000
40
1.0000000000
40
1.0000000000
10
347.8781163416
20
126.1523268941
30
0.0000000000
10
347.8593410614
20
126.1179483512
30
0.0000000000
10
347.7864415289
20
125.9950171890
30
0.0000000000
10
347.6996476367
20
125.8812838816
30
0.0000000000
10
347.6318315194
20
125.8032009246
30
0.0000000000
11
347.8781163416
21
126.1523268941
31
0.0000000000
11
347.8182929234
21
126.0511846139
31
0.0000000000
11
347.6318315194
21
125.8032009246
31
0.0000000000
0
SPLINE
5
388
100
AcDbEntity
8
0
100
AcDbSpline
62
7
6
CONTINUOUS
70
0
71
3
72
9
73
5
74
3
42
0.0000001000
43
0.0000001000
44
0.0000000001
40
0.0000000000
40
0.0000000000
40
0.0000000000
40
0.0000000000
40
0.4992001158
40
1.0000000000
40
1.0000000000
40
1.0000000000
40
1.0000000000
10
347.8693925063
20
105.9282002093
30
0.0000000000
10
347.8576485006
20
105.9701229694
30
0.0000000000
10
347.8330242075
20
106.0537988310
30
0.0000000000
10
347.8062452456
20
106.1368099274
30
0.0000000000
10
347.7923063037
20
106.1782021167
30
0.0000000000
11
347.8693925063
21
105.9282002093
31
0.0000000000
11
347.8325266556
21
106.0534993090
31
0.0000000000
11
347.7923063037
21
106.1782021167
31
0.0000000000
0
SPLINE
5
389
100
AcDbEntity
8
0
100
AcDbSpline
62
7
6
CONTINUOUS
70
0
71
3
72
9
73
5
74
3
42
0.0000001000
43
0.0000001000
44
0.0000000001
40
0.0000000000
40
0.0000000000
40
0.0000000000
40
0.0000000000
40
0.5311582974
40
1.0000000000
40
1.0000000000
40
1.0000000000
40
1.0000000000
10
347.6318315194
20
125.0532009246
30
0.0000000000
10
347.7581143449
20
125.2016955871
30
0.0000000000
10
347.9663264883
20
125.5121109965
30
0.0000000000
10
348.0488262752
20
125.8804897308
30
0.0000000000
10
348.0488262752
20
126.0532010438
30
0.0000000000
11
347.6318315194
21
125.0532009246
31
0.0000000000
11
347.9438344414
21
125.5478081707
31
0.0000000000
11
348.0488262752
21
126.0532010438
31
0.0000000000
0
SPLINE
5
38A
100
AcDbEntity
8
0
100
AcDbSpline
62
7
6
CONTINUOUS
70
0
71
3
72
9
73
5
74
3
42
0.0000001000
43
0.0000001000
44
0.0000000001
40
0.0000000000
40
0.0000000000
40
0.0000000000
40
0.0000000000
40
0.6048060672
40
1.0000000000
40
1.0000000000
40
1.0000000000
40
1.0000000000
10
347.8195761962
20
133.5532012226
30
0.0000000000
10
347.9033296726
20
133.6882087949
30
0.0000000000
10
348.0148513758
20
133.9315839904
30
0.0000000000
10
348.0484112063
20
134.1959169913
30
0.0000000000
10
348.0485899262
20
134.3002380899
30
0.0000000000
11
347.8195761962
21
133.5532012226
31
0.0000000000
11
348.0097099751
21
133.9902645481
31
0.0000000000
11
348.0485899262
21
134.3002380899
31
0.0000000000
0
SPLINE
5
38B
100
AcDbEntity
8
0
100
AcDbSpline
62
7
6
CONTINUOUS
70
0
71
3
72
9
73
5
74
3
42
0.0000001000
43
0.0000001000
44
0.0000000001
40
0.0000000000
40
0.0000000000
40
0.0000000000
40
0.0000000000
40
0.4688417026
40
1.0000000000
40
1.0000000000
40
1.0000000000
40
1.0000000000
10
348.0488262752
20
129.0532010438
30
0.0000000000
10
348.0488262752
20
129.2259123568
30
0.0000000000
10
347.9663264883
20
129.5942910911
30
0.0000000000
10
347.7581143449
20
129.9047065005
30
0.0000000000
10
347.6318315194
20
130.0532011630
30
0.0000000000
11
348.0488262752
21
129.0532010438
31
0.0000000000
11
347.9438344414
21
129.5585939169
31
0.0000000000
11
347.6318315194
21
130.0532011630
31
0.0000000000
0
SPLINE
5
38C
100
AcDbEntity
8
0
100
AcDbSpline
62
7
6
CONTINUOUS
70
0
71
3
72
9
73
5
74
3
42
0.0000001000
43
0.0000001000
44
0.0000000001
40
0.0000000000
40
0.0000000000
40
0.0000000000
40
0.0000000000
40
0.3951939328
40
1.0000000000
40
1.0000000000
40
1.0000000000
40
1.0000000000
10
348.0485899262
20
132.8061643553
30
0.0000000000
10
348.0484112063
20
132.9104854539
30
0.0000000000
10
348.0148513758
20
133.1748184549
30
0.0000000000
10
347.9033296726
20
133.4181936503
30
0.0000000000
10
347.8195761962
20
133.5532012226
30
0.0000000000
11
348.0485899262
21
132.8061643553
31
0.0000000000
11
348.0097099751
21
133.1161378971
31
0.0000000000
11
347.8195761962
21
133.5532012226
31
0.0000000000
0
SPLINE
5
38D
100
AcDbEntity
8
0
100
AcDbSpline
62
7
6
CONTINUOUS
70
0
71
3
72
8
73
4
74
2
42
0.0000001000
43
0.0000001000
44
0.0000000001
40
0.0000000000
40
0.0000000000
40
0.0000000000
40
0.0000000000
40
1.0000000000
40
1.0000000000
40
1.0000000000
40
1.0000000000
10
348.0488262764
20
106.6469472147
30
0.0000000000
10
348.0488262730
20
106.5948597374
30
0.0000000000
10
348.0487645280
20
106.5427722417
30
0.0000000000
10
348.0486410412
20
106.4906848925
30
0.0000000000
11
348.0488262764
21
106.6469472147
31
0.0000000000
11
348.0486410412
21
106.4906848925
31
0.0000000000
0
SPLINE
5
38E
100
AcDbEntity
8
0
100
AcDbSpline
62
7
6
CONTINUOUS
70
0
71
3
72
8
73
4
74
2
42
0.0000001000
43
0.0000001000
44
0.0000000001
40
0.0000000000
40
0.0000000000
40
0.0000000000
40
0.0000000000
40
1.0000000000
40
1.0000000000
40
1.0000000000
40
1.0000000000
10
348.0486410412
20
106.4906848925
30
0.0000000000
10
348.0485175668
20
106.4386028330
30
0.0000000000
10
348.0483323632
20
106.3865209198
30
0.0000000000
10
348.0480854208
20
106.3344393178
30
0.0000000000
11
348.0486410412
21
106.4906848925
31
0.0000000000
11
348.0480854208
21
106.3344393178
31
0.0000000000
0
SPLINE
5
38F
100
AcDbEntity
8
0
100
AcDbSpline
62
7
6
CONTINUOUS
70
0
71
3
72
8
73
4
74
2
42
0.0000001000
43
0.0000001000
44
0.0000000001
40
0.0000000000
40
0.0000000000
40
0.0000000000
40
0.0000000000
40
1.0000000000
40
1.0000000000
40
1.0000000000
40
1.0000000000
10
348.0480854208
20
106.3344393178
30
0.0000000000
10
348.0478384887
20
106.2823598848
30
0.0000000000
10
348.0475298229
20
106.2302807629
30
0.0000000000
10
348.0471594140
20
106.1782021167
30
0.0000000000
11
348.0480854208
21
106.3344393178
31
0.0000000000
11
348.0471594140
21
106.1782021167
31
0.0000000000
0
SPLINE
5
390
100
AcDbEntity
8
0
100
AcDbSpline
62
7
6
CONTINUOUS
70
0
71
3
72
9
73
5
74
3
42
0.0000001000
43
0.0000001000
44
0.0000000001
40
0.0000000000
40
0.0000000000
40
0.0000000000
40
0.0000000000
40
0.4998485535
40
1.0000000000
40
1.0000000000
40
1.0000000000
40
1.0000000000
10
348.0471594140
20
106.1782021167
30
0.0000000000
10
348.0460471411
20
106.1364995888
30
0.0000000000
10
348.0427085049
20
106.0530952537
30
0.0000000000
10
348.0371488253
20
105.9698095377
30
0.0000000000
10
348.0338154194
20
105.9282002093
30
0.0000000000
11
348.0471594140
21
106.1782021167
31
0.0000000000
11
348.0421545916
21
106.0531501531
31
0.0000000000
11
348.0338154194
21
105.9282002093
31
0.0000000000
0
SPLINE
5
391
100
AcDbEntity
8
0
100
AcDbSpline
62
7
6
CONTINUOUS
70
0
71
3
72
9
73
5
74
3
42
0.0000001000
43
0.0000001000
44
0.0000000001
40
0.0000000000
40
0.0000000000
40
0.0000000000
40
0.0000000000
40
0.4937270381
40
1.0000000000
40
1.0000000000
40
1.0000000000
40
1.0000000000
10
348.0338154194
20
105.9282002093
30
0.0000000000
10
348.0293125849
20
105.9071231675
30
0.0000000000
10
348.0182170872
20
105.8648350276
30
0.0000000000
10
348.0034700956
20
105.8236865272
30
0.0000000000
10
347.9951747088
20
105.8032021167
30
0.0000000000
11
348.0338154194
21
105.9282002093
31
0.0000000000
11
348.0174661790
21
105.8656433772
31
0.0000000000
11
347.9951747088
21
105.8032021167
31
0.0000000000
0
SPLINE
5
392
100
AcDbEntity
8
0
100
AcDbSpline
62
7
6
CONTINUOUS
70
0
71
3
72
9
73
5
74
3
42
0.0000001000
43
0.0000001000
44
0.0000000001
40
0.0000000000
40
0.0000000000
40
0.0000000000
40
0.0000000000
40
0.4987618326
40
1.0000000000
40
1.0000000000
40
1.0000000000
40
1.0000000000
10
347.9324653242
20
109.6782002093
30
0.0000000000
10
347.9261977129
20
109.6572719633
30
0.0000000000
10
347.9131575759
20
109.6154520519
30
0.0000000000
10
347.8991894149
20
109.5739330191
30
0.0000000000
10
347.8919606400
20
109.5532021167
30
0.0000000000
11
347.9324653242
21
109.6782002093
31
0.0000000000
11
347.9129590093
21
109.6156304596
31
0.0000000000
11
347.8919606400
21
109.5532021167
31
0.0000000000
0
SPLINE
5
393
100
AcDbEntity
8
0
100
AcDbSpline
62
7
6
CONTINUOUS
70
0
71
3
72
9
73
5
74
3
42
0.0000001000
43
0.0000001000
44
0.0000000001
40
0.0000000000
40
0.0000000000
40
0.0000000000
40
0.0000000000
40
0.5002871131
40
1.0000000000
40
1.0000000000
40
1.0000000000
40
1.0000000000
10
347.8919606400
20
109.5532021167
30
0.0000000000
10
347.8846761436
20
109.5114197710
30
0.0000000000
10
347.8696125013
20
109.4279899534
30
0.0000000000
10
347.8535461062
20
109.3447474327
30
0.0000000000
10
347.8452678498
20
109.3032002093
30
0.0000000000
11
347.8919606400
21
109.5532021167
31
0.0000000000
11
347.8693528752
21
109.4279889239
31
0.0000000000
11
347.8452678498
21
109.3032002093
31
0.0000000000
0
SPLINE
5
394
100
AcDbEntity
8
0
100
AcDbSpline
62
7
6
CONTINUOUS
70
0
71
3
72
9
73
5
74
3
42
0.0000001000
43
0.0000001000
44
0.0000000001
40
0.0000000000
40
0.0000000000
40
0.0000000000
40
0.0000000000
40
0.5005058772
40
1.0000000000
40
1.0000000000
40
1.0000000000
40
1.0000000000
10
347.8452678498
20
109.3032002093
30
0.0000000000
10
347.8411112794
20
109.2614783688
30
0.0000000000
10
347.8326770295
20
109.1781318783
30
0.0000000000
10
347.8239834428
20
109.0948120390
30
0.0000000000
10
347.8195761962
20
109.0532011630
30
0.0000000000
11
347.8452678498
21
109.3032002093
31
0.0000000000
11
347.8326035306
21
109.1780542284
31
0.0000000000
11
347.8195761962
21
109.0532011630
31
0.0000000000
0
SPLINE
5
395
100
AcDbEntity
8
0
100
AcDbSpline
62
7
6
CONTINUOUS
70
0
71
3
72
9
73
5
74
3
42
0.0000001000
43
0.0000001000
44
0.0000000001
40
0.0000000000
40
0.0000000000
40
0.0000000000
40
0.0000000000
40
0.5004542318
40
1.0000000000
40
1.0000000000
40
1.0000000000
40
1.0000000000
10
347.8195761962
20
109.0532011630
30
0.0000000000
10
347.8151588074
20
108.9489343390
30
0.0000000000
10
347.8062006367
20
108.7405955107
30
0.0000000000
10
347.7969789537
20
108.5322681796
30
0.0000000000
10
347.7923063037
20
108.4282021167
30
0.0000000000
11
347.8195761962
21
109.0532011630
31
0.0000000000
11
347.8061265007
21
108.7404091220
31
0.0000000000
11
347.7923063037
21
108.4282021167
31
0.0000000000
0
SPLINE
5
396
100
AcDbEntity
8
0
100
AcDbSpline
62
7
6
CONTINUOUS
70
0
71
3
72
9
73
5
74
3
42
0.0000001000
43
0.0000001000
44
0.0000000001
40
0.0000000000
40
0.0000000000
40
0.0000000000
40
0.0000000000
40
0.5004542320
40
1.0000000000
40
1.0000000000
40
1.0000000000
40
1.0000000000
10
347.8195761962
20
107.0532002093
30
0.0000000000
10
347.8151588074
20
107.1574675106
30
0.0000000000
10
347.8062006367
20
107.3658072926
30
0.0000000000
10
347.7969789537
20
107.5741355774
30
0.0000000000
10
347.7923063037
20
107.6782021167
30
0.0000000000
11
347.8195761962
21
107.0532002093
31
0.0000000000
11
347.8061265007
21
107.3659936823
31
0.0000000000
11
347.7923063037
21
107.6782021167
31
0.0000000000
0
SPLINE
5
397
100
AcDbEntity
8
0
100
AcDbSpline
62
7
6
CONTINUOUS
70
0
71
3
72
9
73
5
74
3
42
0.0000001000
43
0.0000001000
44
0.0000000001
40
0.0000000000
40
0.0000000000
40
0.0000000000
40
0.0000000000
40
0.5005058772
40
1.0000000000
40
1.0000000000
40
1.0000000000
40
1.0000000000
10
347.8452678498
20
106.8032011630
30
0.0000000000
10
347.8411112794
20
106.8449230036
30
0.0000000000
10
347.8326770295
20
106.9282694940
30
0.0000000000
10
347.8239834428
20
107.0115893334
30
0.0000000000
10
347.8195761962
20
107.0532002093
30
0.0000000000
11
347.8452678498
21
106.8032011630
31
0.0000000000
11
347.8326035306
21
106.9283471439
31
0.0000000000
11
347.8195761962
21
107.0532002093
31
0.0000000000
0
SPLINE
5
398
100
AcDbEntity
8
0
100
AcDbSpline
62
7
6
CONTINUOUS
70
0
71
3
72
9
73
5
74
3
42
0.0000001000
43
0.0000001000
44
0.0000000001
40
0.0000000000
40
0.0000000000
40
0.0000000000
40
0.0000000000
40
0.5002870968
40
1.0000000000
40
1.0000000000
40
1.0000000000
40
1.0000000000
10
347.8919606400
20
106.5532021167
30
0.0000000000
10
347.8846761435
20
106.5949839849
30
0.0000000000
10
347.8696125008
20
106.6784128498
30
0.0000000000
10
347.8535461061
20
106.7616544158
30
0.0000000000
10
347.8452678498
20
106.8032011630
30
0.0000000000
11
347.8919606400
21
106.5532021167
31
0.0000000000
11
347.8693528754
21
106.6784138756
31
0.0000000000
11
347.8452678498
21
106.8032011630
31
0.0000000000
0
SPLINE
5
399
100
AcDbEntity
8
0
100
AcDbSpline
62
7
6
CONTINUOUS
70
0
71
3
72
9
73
5
74
3
42
0.0000001000
43
0.0000001000
44
0.0000000001
40
0.0000000000
40
0.0000000000
40
0.0000000000
40
0.0000000000
40
0.4987619113
40
1.0000000000
40
1.0000000000
40
1.0000000000
40
1.0000000000
10
347.9324653242
20
106.4282011630
30
0.0000000000
10
347.9261977138
20
106.4491298852
30
0.0000000000
10
347.9131575788
20
106.4909507475
30
0.0000000000
10
347.8991894160
20
106.5324707367
30
0.0000000000
10
347.8919606400
20
106.5532021167
30
0.0000000000
11
347.9324653242
21
106.4282011630
31
0.0000000000
11
347.9129590091
21
106.4907723454
31
0.0000000000
11
347.8919606400
21
106.5532021167
31
0.0000000000
0
SPLINE
5
39A
100
AcDbEntity
8
0
100
AcDbSpline
62
7
6
CONTINUOUS
70
0
71
3
72
10
73
6
74
4
42
0.0000001000
43
0.0000001000
44
0.0000000001
40
0.0000000000
40
0.0000000000
40
0.0000000000
40
0.0000000000
40
0.3628857361
40
0.6938906327
40
1.0000000000
40
1.0000000000
40
1.0000000000
40
1.0000000000
10
319.9129720508
20
255.9282011630
30
0.0000000000
10
321.0064151405
20
255.1829984776
30
0.0000000000
10
323.1729016983
20
253.8642554773
30
0.0000000000
10
326.4842346992
20
252.3211404348
30
0.0000000000
10
328.6919608671
20
251.5794827004
30
0.0000000000
10
329.7688262752
20
251.2857673642
30
0.0000000000
11
319.9129720508
21
255.9282011630
31
0.0000000000
11
323.3083287488
21
253.8714910746
31
0.0000000000
11
326.5931319341
21
252.3479046926
31
0.0000000000
11
329.7688262752
21
251.2857673642
31
0.0000000000
0
SPLINE
5
39B
100
AcDbEntity
8
0
100
AcDbSpline
62
7
6
CONTINUOUS
70
0
71
3
72
10
73
6
74
4
42
0.0000001000
43
0.0000001000
44
0.0000000001
40
0.0000000000
40
0.0000000000
40
0.0000000000
40
0.0000000000
40
0.3060941154
40
0.6370937311
40
1.0000000000
40
1.0000000000
40
1.0000000000
40
1.0000000000
10
344.3288262752
20
251.2857673642
30
0.0000000000
10
345.4056380257
20
251.5794680653
30
0.0000000000
10
347.6132946419
20
252.3210953355
30
0.0000000000
10
350.9246368332
20
253.8641902142
30
0.0000000000
10
353.0911755433
20
255.1829563143
30
0.0000000000
10
354.1846804996
20
255.9282011630
30
0.0000000000
11
344.3288262752
21
251.2857673642
31
0.0000000000
11
347.5043653009
21
252.3478430335
31
0.0000000000
11
350.7891252012
21
253.8713854248
31
0.0000000000
11
354.1846804996
21
255.9282011630
31
0.0000000000
0
ENDSEC
0
SECTION
2
OBJECTS
0
DICTIONARY
5
39C
100
AcDbDictionary
3
ACAD_GROUP
350
39D
3
ACAD_MLINESTYLE
350
39E
0
DICTIONARY
5
39D
102
{ACAD_REACTORS
330
39C
102
}
100
AcDbDictionary
0
DICTIONARY
5
39E
102
{ACAD_REACTORS
330
39C
102
}
100
AcDbDictionary
3
STANDARD
350
39F
0
MLINESTYLE
5
39F
102
{ACAD_REACTORS
330
39E
102
}
100
AcDbMlineStyle
2
STANDARD
70
0
3

62
256
51
90.0
52
90.0
71
2
49
0.5
62
256
6
BYLAYER
49
-0.5
62
256
6
BYLAYER
0
ENDSEC
0
EOF
