999
DXF file: C:\Aktuell-Internet\CAD-Daten\2va1-10.dxf
999
Pro/ENGINEER 2001400 by Parametric Technology Corporation
0
SECTION
2
HEADER
9
$ACADVER
1
AC1014
9
$EXTMAX
10
420.0000000000
20
297.0000000000
9
$EXTMIN
10
0.0000000000
20
0.0000000000
9
$LIMMIN
10
0.0000000000
20
0.0000000000
9
$LIMMAX
10
420.0000000000
20
297.0000000000
9
$VIEWCTR
10
210.0000000000
20
148.5000000000
9
$VIEWSIZE
40
297.0000000000
9
$CLAYER
8
0
9
$LTSCALE
40
23.1000000000
9
$CELTYPE
6
BYLAYER
9
$DIMSCALE
40
1
9
$DIMASZ
40
3.5000000000
9
$DIMEXO
40
2.6250000000
9
$DIMDLI
40
15.9600000000
9
$DIMEXE
40
7.5600000000
9
$DIMCEN
40
3.7800000000
9
$DIMLFAC
40
1.0000000000
9
$DIMTXT
40
3.5000000000
9
$DIMTOL
70
1
9
$DIMTFAC
40
0.6000000000
9
$DIMTP
40
0.0050000000
9
$DIMTM
40
0.0050000000
9
$HANDSEED
5
347
0
ENDSEC
0
SECTION
2
CLASSES
0
ENDSEC
0
SECTION
2
TABLES
0
TABLE
2
VPORT
5
8
100
AcDbSymbolTable
70
2
0
VPORT
5
1F4
100
AcDbSymbolTableRecord
100
AcDbViewportTableRecord
2
*ACTIVE
70
0
10
0.0
20
0.0
11
1.0
21
1.0
12
210.0000000000
22
148.5000000000
13
0.0
23
0.0
14
1.0
24
1.0
15
0.0
25
0.0
16
0.0
26
0.0
36
1.0
17
0.0
27
0.0
37
0.0
40
297.0000000000
41
1.4141414141
42
50.0
43
0.0
44
0.0
50
0.0
51
0.0
71
0
72
100
73
1
74
1
75
0
76
0
77
0
78
0
0
ENDTAB
0
TABLE
2
LTYPE
5
5
100
AcDbSymbolTable
70
6
0
LTYPE
5
14
100
AcDbSymbolTableRecord
100
AcDbLinetypeTableRecord
2
BYBLOCK
70
0
3

72
65
73
0
40
0.0
0
LTYPE
5
15
100
AcDbSymbolTableRecord
100
AcDbLinetypeTableRecord
2
BYLAYER
70
0
3

72
65
73
0
40
0.0
0
LTYPE
5
16
100
AcDbSymbolTableRecord
100
AcDbLinetypeTableRecord
2
CONTINUOUS
70
64
3
Solid line
72
65
73
0
40
0
0
LTYPE
5
1F5
100
AcDbSymbolTableRecord
100
AcDbLinetypeTableRecord
2
CENTER
70
64
3
____ _ ____ _ ____ _ ____ _ ____ _ ____ _ ____
72
65
73
4
40
0.6
49
0.375
74
0
49
-0.075
74
0
49
0.075
74
0
49
-0.075
74
0
0
LTYPE
5
1F6
100
AcDbSymbolTableRecord
100
AcDbLinetypeTableRecord
2
HIDDEN
70
64
3
- - - - - - - - - - - - - - - - - - - -
72
65
73
2
40
0.2
49
0.1
74
0
49
-0.1
74
0
0
LTYPE
5
1F7
100
AcDbSymbolTableRecord
100
AcDbLinetypeTableRecord
2
PHANTOM
70
64
3
_____ _ _ _____ _ _ _____ _ _ _____
72
65
73
6
40
0.8
49
0.45
74
0
49
-0.05
74
0
49
0.1
74
0
49
-0.05
74
0
49
0.1
74
0
49
-0.05
74
0
0
LTYPE
5
1F8
100
AcDbSymbolTableRecord
100
AcDbLinetypeTableRecord
2
DOT
70
64
3
. . . . . . . . . . . . . . . . . . . .
72
65
73
2
40
0.2
49
0.1
74
0
49
-0.1
74
0
0
LTYPE
5
1F9
100
AcDbSymbolTableRecord
100
AcDbLinetypeTableRecord
2
DASHED
70
64
3
- - - - - - - - - - - - - - - - - - - -
72
65
73
2
40
0.2
49
0.1
74
0
49
-0.1
74
0
0
ENDTAB
0
TABLE
2
LAYER
5
2
100
AcDbSymbolTable
70
36
0
LAYER
5
10
100
AcDbSymbolTableRecord
100
AcDbLayerTableRecord
2
0
70
0
62
7
6
CONTINUOUS
0
LAYER
5
1FA
100
AcDbSymbolTableRecord
100
AcDbLayerTableRecord
2
DEFAULT_1
70
0
62
7
6
CENTER
0
LAYER
5
1FB
100
AcDbSymbolTableRecord
100
AcDbLayerTableRecord
2
DEFAULT_2
70
0
62
8
6
HIDDEN
0
LAYER
5
1FC
100
AcDbSymbolTableRecord
100
AcDbLayerTableRecord
2
DEFAULT_3
70
0
62
7
6
PHANTOM
0
ENDTAB
0
TABLE
2
STYLE
5
3
100
AcDbSymbolTable
70
1
0
STYLE
5
11
100
AcDbSymbolTableRecord
100
AcDbTextStyleTableRecord
2
STANDARD
70
0
40
0.0
41
1.0
50
0.0
71
0
42
0.0
3
txt
4

0
STYLE
5
1FD
100
AcDbSymbolTableRecord
100
AcDbTextStyleTableRecord
2
TEXTSTYLE_0
70
0
40
0.0
41
0.80
50
0.0
71
0
42
0.2
3
txt
4

0
ENDTAB
0
TABLE
2
VIEW
5
6
100
AcDbSymbolTable
70
0
0
ENDTAB
0
TABLE
2
UCS
5
7
100
AcDbSymbolTable
70
0
0
ENDTAB
0
TABLE
2
APPID
5
9
100
AcDbSymbolTable
70
1
0
APPID
5
1FE
100
AcDbSymbolTableRecord
100
AcDbRegAppTableRecord
2
ACAD
70
0
0
ENDTAB
0
TABLE
2
DIMSTYLE
5
A
100
AcDbSymbolTable
70
1
0
DIMSTYLE
105
1FF
100
AcDbSymbolTableRecord
100
AcDbDimStyleTableRecord
2
STANDARD
70
0
3

4

5

6

7

40
1.0
41
0.18
42
0.0625
43
0.38
44
0.18
45
0.0
46
0.0
47
0.0050000000
48
0.0050000000
140
3.5000000000
141
0.09
142
0.0
143
25.4
144
1.0000000000
145
0.0
146
0.6000000000
147
0.09
71
1
72
0
73
1
74
1
75
0
76
0
77
0
78
0
170
0
171
2
172
0
173
0
174
0
175
0
176
0
177
0
178
0
270
2
271
3
272
4
273
2
274
2
340
11
275
0
280
0
281
0
282
0
283
1
284
0
285
0
286
0
287
3
288
0
0
ENDTAB
0
TABLE
2
BLOCK_RECORD
5
1
100
AcDbSymbolTable
70
0
0
BLOCK_RECORD
5
1B
100
AcDbSymbolTableRecord
100
AcDbBlockTableRecord
2
*MODEL_SPACE
0
BLOCK_RECORD
5
1C
100
AcDbSymbolTableRecord
100
AcDbBlockTableRecord
2
*PAPER_SPACE
0
ENDTAB
0
ENDSEC
0
SECTION
2
BLOCKS
0
BLOCK
5
1E
100
AcDbEntity
8
0
100
AcDbBlockBegin
2
*MODEL_SPACE
70
0
10
0.0
20
0.0
30
0.0
3
*MODEL_SPACE
1

0
ENDBLK
5
1F
100
AcDbEntity
8
0
100
AcDbBlockEnd
0
BLOCK
5
20
100
AcDbEntity
8
0
100
AcDbBlockBegin
2
*PAPER_SPACE
70
0
10
0.0
20
0.0
30
0.0
3
*PAPER_SPACE
1

0
ENDBLK
5
21
100
AcDbEntity
8
0
100
AcDbBlockEnd
0
ENDSEC
0
SECTION
2
ENTITIES
0
TEXT
5
200
100
AcDbEntity
8
0
100
AcDbText
62
2
6
CONTINUOUS
10
334.2857142857
20
103.5267857143
7
TEXTSTYLE_0
40
7.0000000000
1
VA 1-10
50
90.0000000000
72
5
11
334.2857142857
21
139.3601190476
100
AcDbText
0
LINE
5
201
100
AcDbEntity
8
0
100
AcDbLine
62
7
6
CONTINUOUS
10
0.0000000000
20
0.0000000000
11
0.0000000000
21
297.0000000000
0
LINE
5
202
100
AcDbEntity
8
0
100
AcDbLine
62
7
6
CONTINUOUS
10
0.0000000000
20
0.0000000000
11
420.0000000000
21
0.0000000000
0
LINE
5
203
100
AcDbEntity
8
0
100
AcDbLine
62
7
6
CONTINUOUS
10
0.0000000000
20
297.0000000000
11
420.0000000000
21
297.0000000000
0
LINE
5
204
100
AcDbEntity
8
0
100
AcDbLine
62
7
6
CONTINUOUS
10
420.0000000000
20
0.0000000000
11
420.0000000000
21
297.0000000000
0
LINE
5
205
100
AcDbEntity
8
0
100
AcDbLine
62
7
6
CONTINUOUS
10
157.0147243114
20
112.4007351812
11
156.6317455890
21
112.7757351812
0
LINE
5
206
100
AcDbEntity
8
0
100
AcDbLine
62
7
6
CONTINUOUS
10
157.1423838707
20
113.1507351812
11
156.8870647522
21
113.5257351812
0
LINE
5
207
100
AcDbEntity
8
0
100
AcDbLine
62
7
6
CONTINUOUS
10
156.6317455890
20
112.7757351812
11
156.2487668777
21
113.4007370886
0
LINE
5
208
100
AcDbEntity
8
0
100
AcDbLine
62
7
6
CONTINUOUS
10
150.1211073073
20
154.1507361349
11
150.1211073073
21
94.1507361349
0
LINE
5
209
100
AcDbEntity
8
0
100
AcDbLine
62
7
6
CONTINUOUS
10
156.1630674157
20
118.1507361349
11
156.1630674157
21
117.4007361349
0
LINE
5
20A
100
AcDbEntity
8
0
100
AcDbLine
62
7
6
CONTINUOUS
10
156.1630674157
20
114.3972527335
11
156.1630674157
21
113.9042214436
0
LINE
5
20B
100
AcDbEntity
8
0
100
AcDbLine
62
7
6
CONTINUOUS
10
156.1630674157
20
122.6507361349
11
156.1630674157
21
123.4007361349
0
LINE
5
20C
100
AcDbEntity
8
0
100
AcDbLine
62
7
6
CONTINUOUS
10
156.1630674157
20
131.1647226009
11
156.1630674157
21
131.9144312162
0
LINE
5
20D
100
AcDbEntity
8
0
100
AcDbLine
62
7
6
CONTINUOUS
10
156.1630674157
20
135.3870408151
11
156.1630674157
21
136.1367494304
0
LINE
5
20E
100
AcDbEntity
8
0
100
AcDbLine
62
7
6
CONTINUOUS
10
156.1630674157
20
139.1367494329
11
156.1630674157
21
140.1647227785
0
LINE
5
20F
100
AcDbEntity
8
0
100
AcDbLine
62
7
6
CONTINUOUS
10
157.6530221971
20
134.9007358965
11
157.6530221971
21
132.4007361349
0
LINE
5
210
100
AcDbEntity
8
0
100
AcDbLine
62
7
6
CONTINUOUS
10
157.9083413156
20
112.0257351812
11
157.5253626378
21
112.1507361349
0
LINE
5
211
100
AcDbEntity
8
0
100
AcDbLine
62
7
6
CONTINUOUS
10
157.5253626378
20
112.1507361349
11
157.0147243114
21
112.4007351812
0
LINE
5
212
100
AcDbEntity
8
0
100
AcDbLine
62
7
6
CONTINUOUS
10
161.2274903925
20
115.9007361349
11
160.7168521555
21
116.1507351812
0
LINE
5
213
100
AcDbEntity
8
0
100
AcDbLine
62
7
6
CONTINUOUS
10
157.9083413156
20
112.6507370886
11
157.1423838707
21
113.1507351812
0
LINE
5
214
100
AcDbEntity
8
0
100
AcDbLine
62
7
6
CONTINUOUS
10
161.0998308333
20
115.1507361349
11
160.3338731202
21
115.6507370886
0
LINE
5
215
100
AcDbEntity
8
0
100
AcDbLine
62
7
6
CONTINUOUS
10
161.0998308333
20
118.1507361349
11
160.2062135609
21
118.9007361349
0
LINE
5
216
100
AcDbEntity
8
0
100
AcDbLine
62
7
6
CONTINUOUS
10
162.0791471988
20
118.1859526587
11
161.2274903925
21
118.9007361349
0
LINE
5
217
100
AcDbEntity
8
0
100
AcDbLine
62
7
6
CONTINUOUS
10
161.6104690703
20
115.5257361349
11
161.2274903925
21
115.9007361349
0
LINE
5
218
100
AcDbEntity
8
0
100
AcDbLine
62
7
6
CONTINUOUS
10
161.3551499518
20
114.7757361349
11
161.0998308333
21
115.1507361349
0
LINE
5
219
100
AcDbEntity
8
0
100
AcDbLine
62
7
6
CONTINUOUS
10
161.9934477480
20
114.9007370886
11
161.6104690703
21
115.5257361349
0
LINE
5
21A
100
AcDbEntity
8
0
100
AcDbLine
62
7
6
CONTINUOUS
10
156.8870647522
20
113.5257351812
11
156.7594051929
21
114.1507370886
0
LINE
5
21B
100
AcDbEntity
8
0
100
AcDbLine
62
7
6
CONTINUOUS
10
161.4828095110
20
114.1507370886
11
161.3551499518
21
114.7757361349
0
LINE
5
21C
100
AcDbEntity
8
0
100
AcDbLine
62
7
6
CONTINUOUS
10
156.2487668777
20
113.4007370886
11
156.1630674157
21
113.9042214436
0
LINE
5
21D
100
AcDbEntity
8
0
100
AcDbLine
62
7
6
CONTINUOUS
10
162.0791471988
20
114.3972527551
11
161.9934477480
21
114.9007370886
0
LINE
5
21E
100
AcDbEntity
8
0
100
AcDbLine
62
7
6
CONTINUOUS
10
158.1636604341
20
134.7757363733
11
158.1636604341
21
132.5257363733
0
LINE
5
21F
100
AcDbEntity
8
0
100
AcDbLine
62
7
6
CONTINUOUS
10
158.2913199933
20
121.6507356580
11
158.2913199933
21
119.9007366117
0
LINE
5
220
100
AcDbEntity
8
0
100
AcDbLine
62
7
6
CONTINUOUS
10
158.9296179684
20
121.6507356580
11
158.9296179684
21
119.9007366117
0
LINE
5
221
100
AcDbEntity
8
0
100
AcDbLine
62
7
6
CONTINUOUS
10
162.0791471988
20
142.1367494316
11
162.0791471988
21
141.3867067902
0
LINE
5
222
100
AcDbEntity
8
0
100
AcDbLine
62
7
6
CONTINUOUS
10
162.0791471988
20
137.9147655988
11
162.0791471988
21
137.1647229561
0
LINE
5
223
100
AcDbEntity
8
0
100
AcDbLine
62
7
6
CONTINUOUS
10
162.0791471988
20
134.1647226009
11
162.0791471988
21
133.1367494304
0
LINE
5
224
100
AcDbEntity
8
0
100
AcDbLine
62
7
6
CONTINUOUS
10
162.0791471988
20
123.4359526587
11
162.0791471988
21
122.6507361349
0
LINE
5
225
100
AcDbEntity
8
0
100
AcDbLine
62
7
6
CONTINUOUS
10
162.0791471988
20
118.1859526587
11
162.0791471988
21
117.4007361349
0
LINE
5
226
100
AcDbEntity
8
0
100
AcDbLine
62
7
6
CONTINUOUS
10
162.0791471988
20
114.3972527551
11
162.0791471988
21
113.9042214220
0
LINE
5
227
100
AcDbEntity
8
0
100
AcDbLine
62
7
6
CONTINUOUS
10
156.2487668777
20
114.9007370886
11
156.1630674157
21
114.3972527335
0
LINE
5
228
100
AcDbEntity
8
0
100
AcDbLine
62
7
6
CONTINUOUS
10
156.8870647522
20
114.7757361349
11
156.7594051929
21
114.1507370886
0
LINE
5
229
100
AcDbEntity
8
0
100
AcDbLine
62
7
6
CONTINUOUS
10
158.6742988499
20
112.5257361349
11
157.9083413156
21
112.6507370886
0
LINE
5
22A
100
AcDbEntity
8
0
100
AcDbLine
62
7
6
CONTINUOUS
10
158.5466392907
20
111.9007370886
11
157.9083413156
21
112.0257351812
0
LINE
5
22B
100
AcDbEntity
8
0
100
AcDbLine
62
7
6
CONTINUOUS
10
160.3338731202
20
116.2757361349
11
159.6955753239
21
116.4007370886
0
LINE
5
22C
100
AcDbEntity
8
0
100
AcDbLine
62
7
6
CONTINUOUS
10
160.7168521555
20
116.1507351812
11
160.3338731202
21
116.2757361349
0
LINE
5
22D
100
AcDbEntity
8
0
100
AcDbLine
62
7
6
CONTINUOUS
10
161.0998308333
20
123.4007361349
11
160.2062135609
21
124.1507361349
0
LINE
5
22E
100
AcDbEntity
8
0
100
AcDbLine
62
7
6
CONTINUOUS
10
162.0791471988
20
123.4359526587
11
161.2274903925
21
124.1507361349
0
LINE
5
22F
100
AcDbEntity
8
0
100
AcDbLine
62
7
6
CONTINUOUS
10
168.1211073073
20
154.1507361349
11
168.1211073073
21
94.1507361349
0
LINE
5
230
100
AcDbEntity
8
0
100
AcDbLine
62
7
6
CONTINUOUS
10
162.0791471988
20
113.9042214220
11
161.9934477480
21
113.4007370886
0
LINE
5
231
100
AcDbEntity
8
0
100
AcDbLine
62
7
6
CONTINUOUS
10
161.4828095110
20
114.1507370886
11
161.3551499518
21
113.5257351812
0
LINE
5
232
100
AcDbEntity
8
0
100
AcDbLine
62
7
6
CONTINUOUS
10
158.5466392907
20
111.9007370886
11
159.6955753239
21
111.9007370886
0
LINE
5
233
100
AcDbEntity
8
0
100
AcDbLine
62
7
6
CONTINUOUS
10
159.5679157647
20
112.5257361349
11
158.6742988499
21
112.5257361349
0
LINE
5
234
100
AcDbEntity
8
0
100
AcDbLine
62
7
6
CONTINUOUS
10
158.6742988499
20
115.7757351812
11
159.5679157647
21
115.7757351812
0
LINE
5
235
100
AcDbEntity
8
0
100
AcDbLine
62
7
6
CONTINUOUS
10
159.6955753239
20
116.4007370886
11
158.5466392907
21
116.4007370886
0
LINE
5
236
100
AcDbEntity
8
0
100
AcDbLine
62
7
6
CONTINUOUS
10
160.3338731202
20
115.6507370886
11
159.5679157647
21
115.7757351812
0
LINE
5
237
100
AcDbEntity
8
0
100
AcDbLine
62
7
6
CONTINUOUS
10
210.2391654330
20
219.1507361349
11
219.6211073073
21
235.4007361349
0
LINE
5
238
100
AcDbEntity
8
0
100
AcDbLine
62
7
6
CONTINUOUS
10
156.2487668777
20
114.9007370886
11
156.6317455890
21
115.5257361349
0
LINE
5
239
100
AcDbEntity
8
0
100
AcDbLine
62
7
6
CONTINUOUS
10
160.3338731202
20
112.0257351812
11
159.6955753239
21
111.9007370886
0
LINE
5
23A
100
AcDbEntity
8
0
100
AcDbLine
62
7
6
CONTINUOUS
10
160.3338731202
20
112.6507370886
11
159.5679157647
21
112.5257361349
0
LINE
5
23B
100
AcDbEntity
8
0
100
AcDbLine
62
7
6
CONTINUOUS
10
158.6742988499
20
115.7757351812
11
157.9083413156
21
115.6507370886
0
LINE
5
23C
100
AcDbEntity
8
0
100
AcDbLine
62
7
6
CONTINUOUS
10
156.1630674157
20
117.4007361349
11
162.0791471988
21
117.4007361349
0
LINE
5
23D
100
AcDbEntity
8
0
100
AcDbLine
62
7
6
CONTINUOUS
10
161.0998308333
20
118.1507361349
11
156.1630674157
21
118.1507361349
0
LINE
5
23E
100
AcDbEntity
8
0
100
AcDbLine
62
7
6
CONTINUOUS
10
160.2062135609
20
118.9007361349
11
161.2274903925
21
118.9007361349
0
LINE
5
23F
100
AcDbEntity
8
0
100
AcDbLine
62
7
6
CONTINUOUS
10
158.2913199933
20
119.9007366117
11
158.9296179684
21
119.9007366117
0
LINE
5
240
100
AcDbEntity
8
0
100
AcDbLine
62
7
6
CONTINUOUS
10
158.9296179684
20
121.6507356580
11
158.2913199933
21
121.6507356580
0
LINE
5
241
100
AcDbEntity
8
0
100
AcDbLine
62
7
6
CONTINUOUS
10
156.1630674157
20
122.6507361349
11
162.0791471988
21
122.6507361349
0
LINE
5
242
100
AcDbEntity
8
0
100
AcDbLine
62
7
6
CONTINUOUS
10
161.0998308333
20
123.4007361349
11
156.1630674157
21
123.4007361349
0
LINE
5
243
100
AcDbEntity
8
0
100
AcDbLine
62
7
6
CONTINUOUS
10
161.2274903925
20
124.1507361349
11
160.2062135609
21
124.1507361349
0
LINE
5
244
100
AcDbEntity
8
0
100
AcDbLine
62
7
6
CONTINUOUS
10
157.6530221971
20
134.9007358965
11
156.1630674157
21
135.3870408151
0
LINE
5
245
100
AcDbEntity
8
0
100
AcDbLine
62
7
6
CONTINUOUS
10
158.1636604341
20
134.7757363733
11
161.6104690703
21
133.6507363733
0
LINE
5
246
100
AcDbEntity
8
0
100
AcDbLine
62
7
6
CONTINUOUS
10
162.0791471988
20
134.1647226009
11
156.1630674157
21
136.1367494304
0
LINE
5
247
100
AcDbEntity
8
0
100
AcDbLine
62
7
6
CONTINUOUS
10
156.1630674157
20
139.1367494329
11
162.0791471988
21
137.1647229561
0
LINE
5
248
100
AcDbEntity
8
0
100
AcDbLine
62
7
6
CONTINUOUS
10
162.0791471988
20
137.9147655988
11
156.8870647522
21
139.6507361945
0
LINE
5
249
100
AcDbEntity
8
0
100
AcDbLine
62
7
6
CONTINUOUS
10
161.9934477480
20
113.4007370886
11
161.6104690703
21
112.7757351812
0
LINE
5
24A
100
AcDbEntity
8
0
100
AcDbLine
62
7
6
CONTINUOUS
10
157.1423838707
20
115.1507361349
11
156.8870647522
21
114.7757361349
0
LINE
5
24B
100
AcDbEntity
8
0
100
AcDbLine
62
7
6
CONTINUOUS
10
161.3551499518
20
113.5257351812
11
161.0998308333
21
113.1507351812
0
LINE
5
24C
100
AcDbEntity
8
0
100
AcDbLine
62
7
6
CONTINUOUS
10
158.5466392907
20
116.4007370886
11
157.9083413156
21
116.2757361349
0
LINE
5
24D
100
AcDbEntity
8
0
100
AcDbLine
62
7
6
CONTINUOUS
10
191.6211073073
20
235.4007361349
11
191.6211073073
21
243.4007361349
0
LINE
5
24E
100
AcDbEntity
8
0
100
AcDbLine
62
7
6
CONTINUOUS
10
195.6211073073
20
227.9366345197
11
195.6211073073
21
220.1507361349
0
LINE
5
24F
100
AcDbEntity
8
0
100
AcDbLine
62
7
6
CONTINUOUS
10
211.4163599098
20
183.0603200879
11
208.1211073073
21
174.9007361349
0
LINE
5
250
100
AcDbEntity
8
0
100
AcDbLine
62
7
6
CONTINUOUS
10
157.0147243114
20
115.9007361349
11
156.6317455890
21
115.5257361349
0
LINE
5
251
100
AcDbEntity
8
0
100
AcDbLine
62
7
6
CONTINUOUS
10
156.8870647522
20
139.6507361945
11
162.0791471988
21
141.3867067902
0
LINE
5
252
100
AcDbEntity
8
0
100
AcDbLine
62
7
6
CONTINUOUS
10
162.0791471988
20
142.1367494316
11
156.1630674157
21
140.1647227785
0
LINE
5
253
100
AcDbEntity
8
0
100
AcDbLine
62
7
6
CONTINUOUS
10
199.3711073073
20
185.4007361349
11
199.3711073073
21
218.2090681416
0
LINE
5
254
100
AcDbEntity
8
0
100
AcDbLine
62
7
6
CONTINUOUS
10
203.1211073073
20
174.9007361349
11
203.1211073073
21
235.8818051387
0
LINE
5
255
100
AcDbEntity
8
DEFAULT_1
100
AcDbLine
62
2
6
CENTER
10
205.6211073073
20
243.4007361349
11
205.6211073073
21
35.5982142857
0
LINE
5
256
100
AcDbEntity
8
DEFAULT_1
100
AcDbLine
62
2
6
CENTER
10
205.6211073073
20
243.4007361349
11
205.6211073073
21
252.4007361349
0
LINE
5
257
100
AcDbEntity
8
0
100
AcDbLine
62
7
6
CONTINUOUS
10
161.6104690703
20
112.7757351812
11
161.2274903925
21
112.4007351812
0
LINE
5
258
100
AcDbEntity
8
0
100
AcDbLine
62
7
6
CONTINUOUS
10
157.9083413156
20
115.6507370886
11
157.1423838707
21
115.1507361349
0
LINE
5
259
100
AcDbEntity
8
0
100
AcDbLine
62
7
6
CONTINUOUS
10
156.1630674157
20
131.1647226009
11
162.0791471988
21
133.1367494304
0
LINE
5
25A
100
AcDbEntity
8
0
100
AcDbLine
62
7
6
CONTINUOUS
10
157.6530221971
20
132.4007361349
11
156.1630674157
21
131.9144312162
0
LINE
5
25B
100
AcDbEntity
8
0
100
AcDbLine
62
7
6
CONTINUOUS
10
161.6104690703
20
133.6507363733
11
158.1636604341
21
132.5257363733
0
LINE
5
25C
100
AcDbEntity
8
0
100
AcDbLine
62
7
6
CONTINUOUS
10
208.1211073073
20
174.9007361349
11
208.1211073073
21
235.8818051387
0
LINE
5
25D
100
AcDbEntity
8
0
100
AcDbLine
62
7
6
CONTINUOUS
10
211.8711073073
20
185.4007361349
11
211.8711073073
21
218.2090681416
0
LINE
5
25E
100
AcDbEntity
8
0
100
AcDbLine
62
7
6
CONTINUOUS
10
161.0998308333
20
113.1507351812
11
160.3338731202
21
112.6507370886
0
LINE
5
25F
100
AcDbEntity
8
0
100
AcDbLine
62
7
6
CONTINUOUS
10
157.5253626378
20
116.1507351812
11
157.0147243114
21
115.9007361349
0
LINE
5
260
100
AcDbEntity
8
0
100
AcDbLine
62
7
6
CONTINUOUS
10
203.1211073073
20
174.9007361349
11
199.8258547048
21
183.0603200879
0
LINE
5
261
100
AcDbEntity
8
0
100
AcDbLine
62
7
6
CONTINUOUS
10
215.6211073073
20
227.9366345197
11
215.6211073073
21
220.1507361349
0
LINE
5
262
100
AcDbEntity
8
0
100
AcDbLine
62
7
6
CONTINUOUS
10
219.6211073073
20
235.4007361349
11
219.6211073073
21
243.4007361349
0
LINE
5
263
100
AcDbEntity
8
0
100
AcDbLine
62
7
6
CONTINUOUS
10
161.2274903925
20
112.4007351812
11
160.7168521555
21
112.1507361349
0
LINE
5
264
100
AcDbEntity
8
0
100
AcDbLine
62
7
6
CONTINUOUS
10
157.5253626378
20
116.1507351812
11
157.9083413156
21
116.2757361349
0
LINE
5
265
100
AcDbEntity
8
0
100
AcDbLine
62
7
6
CONTINUOUS
10
160.7168521555
20
112.1507361349
11
160.3338731202
21
112.0257351812
0
LINE
5
266
100
AcDbEntity
8
0
100
AcDbLine
62
7
6
CONTINUOUS
10
208.1211073073
20
174.9007361349
11
203.1211073073
21
174.9007361349
0
LINE
5
267
100
AcDbEntity
8
0
100
AcDbLine
62
7
6
CONTINUOUS
10
201.0030491816
20
219.1507361349
11
191.6211073073
21
235.4007361349
0
LINE
5
268
100
AcDbEntity
8
0
100
AcDbLine
62
7
6
CONTINUOUS
10
243.1211073073
20
94.1507361349
11
243.1211073073
21
154.1507361349
0
LINE
5
269
100
AcDbEntity
8
0
100
AcDbLine
62
7
6
CONTINUOUS
10
261.1211073073
20
94.1507361349
11
261.1211073073
21
154.1507361349
0
LINE
5
26A
100
AcDbEntity
8
0
100
AcDbLine
62
7
6
CONTINUOUS
10
213.6211073073
20
218.1507361349
11
211.8711073073
21
218.1507361349
0
LINE
5
26B
100
AcDbEntity
8
0
100
AcDbLine
62
7
6
CONTINUOUS
10
199.3711073073
20
218.1507361349
11
197.6211073073
21
218.1507361349
0
LINE
5
26C
100
AcDbEntity
8
DEFAULT_1
100
AcDbLine
62
2
6
CENTER
10
205.6211073073
20
243.4007361349
11
196.6211073073
21
243.4007361349
0
LINE
5
26D
100
AcDbEntity
8
DEFAULT_1
100
AcDbLine
62
2
6
CENTER
10
205.6211073073
20
243.4007361349
11
214.6211073073
21
243.4007361349
0
LINE
5
26E
100
AcDbEntity
8
0
100
AcDbLine
62
7
6
CONTINUOUS
10
218.0207040749
20
249.9007361349
11
193.2215105396
21
249.9007361349
0
LINE
5
26F
100
AcDbEntity
8
0
100
AcDbLine
62
7
6
CONTINUOUS
10
311.7694516351
20
257.4007361349
11
305.4762044013
21
249.9007361349
0
LINE
5
270
100
AcDbEntity
8
0
100
AcDbLine
62
7
6
CONTINUOUS
10
300.9319718109
20
210.1101814649
11
305.4762044013
21
235.8818051387
0
LINE
5
271
100
AcDbEntity
8
DEFAULT_2
100
AcDbLine
62
8
6
HIDDEN
10
339.4578516054
20
111.9007370886
11
338.9762044013
21
111.9007370886
0
LINE
5
272
100
AcDbEntity
8
0
100
AcDbLine
62
7
6
CONTINUOUS
10
339.4578516054
20
111.9007370886
11
339.4762044013
21
111.9007370886
0
LINE
5
273
100
AcDbEntity
8
DEFAULT_2
100
AcDbLine
62
8
6
HIDDEN
10
339.3941188800
20
112.0257351812
11
338.9762044013
21
112.0257351812
0
LINE
5
274
100
AcDbEntity
8
DEFAULT_2
100
AcDbLine
62
8
6
HIDDEN
10
339.3336080248
20
112.1507361349
11
338.9762044013
21
112.1507361349
0
LINE
5
275
100
AcDbEntity
8
DEFAULT_2
100
AcDbLine
62
8
6
HIDDEN
10
339.2262415827
20
112.4007351812
11
338.9762044013
21
112.4007351812
0
LINE
5
276
100
AcDbEntity
8
DEFAULT_2
100
AcDbLine
62
8
6
HIDDEN
10
339.4762044013
20
112.5257361349
11
339.4651065702
21
112.5257361349
0
LINE
5
277
100
AcDbEntity
8
DEFAULT_2
100
AcDbLine
62
8
6
HIDDEN
10
339.1943957041
20
112.5257361349
11
338.9762044013
21
112.5257361349
0
LINE
5
278
100
AcDbEntity
8
0
100
AcDbLine
62
7
6
CONTINUOUS
10
339.4651065702
20
112.5257361349
11
339.1943957041
21
112.5257361349
0
LINE
5
279
100
AcDbEntity
8
DEFAULT_2
100
AcDbLine
62
8
6
HIDDEN
10
339.1606839013
20
112.6507370886
11
338.9762044013
21
112.6507370886
0
LINE
5
27A
100
AcDbEntity
8
0
100
AcDbLine
62
7
6
CONTINUOUS
10
339.3941188800
20
112.6507370886
11
339.1606839013
21
112.6507370886
0
LINE
5
27B
100
AcDbEntity
8
DEFAULT_2
100
AcDbLine
62
8
6
HIDDEN
10
339.1250816831
20
112.7757351812
11
338.9762044013
21
112.7757351812
0
LINE
5
27C
100
AcDbEntity
8
DEFAULT_2
100
AcDbLine
62
8
6
HIDDEN
10
339.0554750226
20
113.1507351812
11
338.9762044013
21
113.1507351812
0
LINE
5
27D
100
AcDbEntity
8
0
100
AcDbLine
62
7
6
CONTINUOUS
10
339.2559910480
20
113.1507351812
11
339.0554750226
21
113.1507351812
0
LINE
5
27E
100
AcDbEntity
8
DEFAULT_2
100
AcDbLine
62
8
6
HIDDEN
10
339.0055455515
20
113.4007370886
11
338.9762044013
21
113.4007370886
0
LINE
5
27F
100
AcDbEntity
8
DEFAULT_2
100
AcDbLine
62
8
6
HIDDEN
10
338.9983506833
20
113.5257351812
11
338.9762044013
21
113.5257351812
0
LINE
5
280
100
AcDbEntity
8
0
100
AcDbLine
62
7
6
CONTINUOUS
10
339.1945215475
20
113.5257351812
11
338.9983506833
21
113.5257351812
0
LINE
5
281
100
AcDbEntity
8
0
100
AcDbLine
62
7
6
CONTINUOUS
10
339.1608093505
20
114.1507370886
11
338.9762044013
21
114.1507370886
0
LINE
5
282
100
AcDbEntity
8
DEFAULT_2
100
AcDbLine
62
8
6
HIDDEN
10
338.9983505186
20
114.7757361349
11
338.9762044013
21
114.7757361349
0
LINE
5
283
100
AcDbEntity
8
0
100
AcDbLine
62
7
6
CONTINUOUS
10
339.1945215475
20
114.7757361349
11
338.9983505186
21
114.7757361349
0
LINE
5
284
100
AcDbEntity
8
DEFAULT_2
100
AcDbLine
62
8
6
HIDDEN
10
339.0055455515
20
114.9007370886
11
338.9762044013
21
114.9007370886
0
LINE
5
285
100
AcDbEntity
8
DEFAULT_2
100
AcDbLine
62
8
6
HIDDEN
10
339.0554746878
20
115.1507361349
11
338.9762044013
21
115.1507361349
0
LINE
5
286
100
AcDbEntity
8
0
100
AcDbLine
62
7
6
CONTINUOUS
10
339.2559910480
20
115.1507361349
11
339.0554746878
21
115.1507361349
0
LINE
5
287
100
AcDbEntity
8
DEFAULT_2
100
AcDbLine
62
8
6
HIDDEN
10
339.1250816831
20
115.5257361349
11
338.9762044013
21
115.5257361349
0
LINE
5
288
100
AcDbEntity
8
DEFAULT_2
100
AcDbLine
62
8
6
HIDDEN
10
339.1606846903
20
115.6507370886
11
338.9762044013
21
115.6507370886
0
LINE
5
289
100
AcDbEntity
8
0
100
AcDbLine
62
7
6
CONTINUOUS
10
339.3941188800
20
115.6507370886
11
339.1606846903
21
115.6507370886
0
LINE
5
28A
100
AcDbEntity
8
DEFAULT_2
100
AcDbLine
62
8
6
HIDDEN
10
339.1943957041
20
115.7757351812
11
338.9762044013
21
115.7757351812
0
LINE
5
28B
100
AcDbEntity
8
0
100
AcDbLine
62
7
6
CONTINUOUS
10
339.4651065702
20
115.7757351812
11
339.1943957041
21
115.7757351812
0
LINE
5
28C
100
AcDbEntity
8
DEFAULT_2
100
AcDbLine
62
8
6
HIDDEN
10
339.4651065702
20
115.7757351812
11
339.4762044013
21
115.7757351812
0
LINE
5
28D
100
AcDbEntity
8
DEFAULT_2
100
AcDbLine
62
8
6
HIDDEN
10
339.2262415827
20
115.9007361349
11
338.9762044013
21
115.9007361349
0
LINE
5
28E
100
AcDbEntity
8
DEFAULT_2
100
AcDbLine
62
8
6
HIDDEN
10
339.3336080248
20
116.1507351812
11
338.9762044013
21
116.1507351812
0
LINE
5
28F
100
AcDbEntity
8
DEFAULT_2
100
AcDbLine
62
8
6
HIDDEN
10
339.3941188800
20
116.2757361349
11
338.9762044013
21
116.2757361349
0
LINE
5
290
100
AcDbEntity
8
0
100
AcDbLine
62
7
6
CONTINUOUS
10
339.4762044013
20
116.4007370886
11
339.4578516054
21
116.4007370886
0
LINE
5
291
100
AcDbEntity
8
DEFAULT_2
100
AcDbLine
62
8
6
HIDDEN
10
339.4578516054
20
116.4007370886
11
338.9762044013
21
116.4007370886
0
LINE
5
292
100
AcDbEntity
8
0
100
AcDbLine
62
7
6
CONTINUOUS
10
338.9762044013
20
117.4007361349
11
339.4761415395
21
117.4007361349
0
LINE
5
293
100
AcDbEntity
8
0
100
AcDbLine
62
7
6
CONTINUOUS
10
339.4761308135
20
118.1507361349
11
338.9762044013
21
118.1507361349
0
LINE
5
294
100
AcDbEntity
8
0
100
AcDbLine
62
7
6
CONTINUOUS
10
305.4762044013
20
218.3376955594
11
305.4762044013
21
249.9007361349
0
LINE
5
295
100
AcDbEntity
8
DEFAULT_2
100
AcDbLine
62
8
6
HIDDEN
10
339.4105507355
20
118.9007361349
11
338.9762044013
21
118.9007361349
0
LINE
5
296
100
AcDbEntity
8
DEFAULT_2
100
AcDbLine
62
8
6
HIDDEN
10
339.4378701513
20
119.9007366117
11
338.9762044013
21
119.9007366117
0
LINE
5
297
100
AcDbEntity
8
0
100
AcDbLine
62
7
6
CONTINUOUS
10
339.4378701513
20
119.9007366117
11
339.4741670503
21
119.9007366117
0
LINE
5
298
100
AcDbEntity
8
0
100
AcDbLine
62
7
6
CONTINUOUS
10
339.4741670503
20
121.6507356580
11
339.4378701513
21
121.6507356580
0
LINE
5
299
100
AcDbEntity
8
DEFAULT_2
100
AcDbLine
62
8
6
HIDDEN
10
339.4378701513
20
121.6507356580
11
338.9762044013
21
121.6507356580
0
LINE
5
29A
100
AcDbEntity
8
0
100
AcDbLine
62
7
6
CONTINUOUS
10
338.9762044013
20
122.6507361349
11
339.4761415395
21
122.6507361349
0
LINE
5
29B
100
AcDbEntity
8
0
100
AcDbLine
62
7
6
CONTINUOUS
10
339.4761308135
20
123.4007361349
11
338.9762044013
21
123.4007361349
0
LINE
5
29C
100
AcDbEntity
8
DEFAULT_2
100
AcDbLine
62
8
6
HIDDEN
10
339.4105507355
20
124.1507361349
11
338.9762044013
21
124.1507361349
0
LINE
5
29D
100
AcDbEntity
8
DEFAULT_2
100
AcDbLine
62
8
6
HIDDEN
10
339.3556596835
20
132.4007361349
11
338.9762044013
21
132.4007361349
0
LINE
5
29E
100
AcDbEntity
8
DEFAULT_2
100
AcDbLine
62
8
6
HIDDEN
10
339.3556596835
20
132.5257363733
11
338.9762044013
21
132.5257363733
0
LINE
5
29F
100
AcDbEntity
8
0
100
AcDbLine
62
7
6
CONTINUOUS
10
339.4251314591
20
132.5257363733
11
339.3556596835
21
132.5257363733
0
LINE
5
2A0
100
AcDbEntity
8
DEFAULT_2
100
AcDbLine
62
8
6
HIDDEN
10
339.1250816702
20
133.6507363733
11
338.9762044013
21
133.6507363733
0
LINE
5
2A1
100
AcDbEntity
8
0
100
AcDbLine
62
7
6
CONTINUOUS
10
317.2947780748
20
235.4007361349
11
317.2947780748
21
257.4007361349
0
LINE
5
2A2
100
AcDbEntity
8
0
100
AcDbLine
62
7
6
CONTINUOUS
10
321.4762044013
20
200.5910537183
11
321.4762044013
21
47.6507361349
0
LINE
5
2A3
100
AcDbEntity
8
DEFAULT_2
100
AcDbLine
62
8
6
HIDDEN
10
339.3556596835
20
134.7757363733
11
338.9762044013
21
134.7757363733
0
LINE
5
2A4
100
AcDbEntity
8
0
100
AcDbLine
62
7
6
CONTINUOUS
10
339.4251314591
20
134.7757363733
11
339.3556596835
21
134.7757363733
0
LINE
5
2A5
100
AcDbEntity
8
DEFAULT_2
100
AcDbLine
62
8
6
HIDDEN
10
339.3556596835
20
134.9007358965
11
338.9762044013
21
134.9007358965
0
LINE
5
2A6
100
AcDbEntity
8
0
100
AcDbLine
62
7
6
CONTINUOUS
10
339.1945215475
20
139.6507361945
11
338.9762044013
21
139.6507361945
0
LINE
5
2A7
100
AcDbEntity
8
0
100
AcDbLine
62
7
6
CONTINUOUS
10
324.8762044013
20
255.3389589015
11
324.8762044013
21
230.0007361349
0
LINE
5
2A8
100
AcDbEntity
8
DEFAULT_1
100
AcDbLine
62
2
6
CENTER
10
330.4762044013
20
35.6507361349
11
330.4762044013
21
92.7778280039
0
LINE
5
2A9
100
AcDbEntity
8
DEFAULT_1
100
AcDbLine
62
2
6
CENTER
10
330.4762044013
20
150.2589198767
11
330.4762044013
21
256.2044617599
0
LINE
5
2AA
100
AcDbEntity
8
0
100
AcDbLine
62
7
6
CONTINUOUS
10
336.0762044013
20
230.0007361349
11
336.0762044013
21
255.3389589015
0
LINE
5
2AB
100
AcDbEntity
8
DEFAULT_2
100
AcDbLine
62
8
6
HIDDEN
10
338.9762044013
20
142.1367494316
11
338.9762044013
21
140.1647227785
0
LINE
5
2AC
100
AcDbEntity
8
DEFAULT_2
100
AcDbLine
62
8
6
HIDDEN
10
338.9762044013
20
139.1367494329
11
338.9762044013
21
137.1647229561
0
LINE
5
2AD
100
AcDbEntity
8
DEFAULT_2
100
AcDbLine
62
8
6
HIDDEN
10
338.9762044013
20
135.3870408151
11
338.9762044013
21
131.9144312162
0
LINE
5
2AE
100
AcDbEntity
8
DEFAULT_2
100
AcDbLine
62
8
6
HIDDEN
10
338.9762044013
20
124.1507361349
11
338.9762044013
21
123.4007361349
0
LINE
5
2AF
100
AcDbEntity
8
DEFAULT_2
100
AcDbLine
62
8
6
HIDDEN
10
338.9762044013
20
121.6507356580
11
338.9762044013
21
119.9007366117
0
LINE
5
2B0
100
AcDbEntity
8
DEFAULT_2
100
AcDbLine
62
8
6
HIDDEN
10
338.9762044013
20
118.9007361349
11
338.9762044013
21
118.1507361349
0
LINE
5
2B1
100
AcDbEntity
8
0
100
AcDbLine
62
7
6
CONTINUOUS
10
338.9762044013
20
118.1507361349
11
338.9762044013
21
117.4007361349
0
LINE
5
2B2
100
AcDbEntity
8
DEFAULT_2
100
AcDbLine
62
8
6
HIDDEN
10
338.9762044013
20
116.4007370886
11
338.9762044013
21
114.3972527335
0
LINE
5
2B3
100
AcDbEntity
8
0
100
AcDbLine
62
7
6
CONTINUOUS
10
338.9762044013
20
114.3972527335
11
338.9762044013
21
113.9042214436
0
LINE
5
2B4
100
AcDbEntity
8
DEFAULT_2
100
AcDbLine
62
8
6
HIDDEN
10
338.9762044013
20
113.9042214436
11
338.9762044013
21
111.9007370886
0
LINE
5
2B5
100
AcDbEntity
8
0
100
AcDbLine
62
7
6
CONTINUOUS
10
338.9762044013
20
122.6507361349
11
338.9762044013
21
123.4007361349
0
LINE
5
2B6
100
AcDbEntity
8
0
100
AcDbLine
62
7
6
CONTINUOUS
10
338.9762044013
20
131.1647226009
11
338.9762044013
21
131.9144312162
0
LINE
5
2B7
100
AcDbEntity
8
0
100
AcDbLine
62
7
6
CONTINUOUS
10
338.9762044013
20
135.3870408151
11
338.9762044013
21
136.1367494304
0
LINE
5
2B8
100
AcDbEntity
8
0
100
AcDbLine
62
7
6
CONTINUOUS
10
338.9762044013
20
139.1367494329
11
338.9762044013
21
140.1647227785
0
LINE
5
2B9
100
AcDbEntity
8
0
100
AcDbLine
62
7
6
CONTINUOUS
10
339.3556596835
20
134.9007358965
11
339.3556596835
21
132.4007361349
0
LINE
5
2BA
100
AcDbEntity
8
0
100
AcDbLine
62
7
6
CONTINUOUS
10
339.4251314591
20
134.7757363733
11
339.4251314591
21
132.5257363733
0
LINE
5
2BB
100
AcDbEntity
8
0
100
AcDbLine
62
7
6
CONTINUOUS
10
339.4378701513
20
121.6507356580
11
339.4378701513
21
119.9007366117
0
LINE
5
2BC
100
AcDbEntity
8
0
100
AcDbLine
62
7
6
CONTINUOUS
10
339.4741670503
20
121.6507356580
11
339.4741670503
21
119.9007366117
0
LINE
5
2BD
100
AcDbEntity
8
0
100
AcDbLine
62
7
6
CONTINUOUS
10
339.4762044013
20
47.6507361349
11
339.4762044013
21
119.9007366117
0
LINE
5
2BE
100
AcDbEntity
8
DEFAULT_2
100
AcDbLine
62
8
6
HIDDEN
10
339.4762044013
20
119.9007366117
11
339.4762044013
21
121.6507356580
0
LINE
5
2BF
100
AcDbEntity
8
0
100
AcDbLine
62
7
6
CONTINUOUS
10
339.4762044013
20
121.6507356580
11
339.4762044013
21
200.5910537183
0
LINE
5
2C0
100
AcDbEntity
8
0
100
AcDbLine
62
7
6
CONTINUOUS
10
343.6576307278
20
257.4007361349
11
343.6576307278
21
235.4007361349
0
LINE
5
2C1
100
AcDbEntity
8
0
100
AcDbLine
62
7
6
CONTINUOUS
10
355.4762044013
20
218.3376955594
11
355.4762044013
21
249.9007361349
0
LINE
5
2C2
100
AcDbEntity
8
0
100
AcDbLine
62
7
6
CONTINUOUS
10
360.0204369917
20
210.1101814649
11
355.4762044013
21
235.8818051387
0
LINE
5
2C3
100
AcDbEntity
8
0
100
AcDbLine
62
7
6
CONTINUOUS
10
346.9713949297
20
218.1507361349
11
313.9810138729
21
218.1507361349
0
LINE
5
2C4
100
AcDbEntity
8
0
100
AcDbLine
62
7
6
CONTINUOUS
10
336.0762044013
20
237.4007361349
11
324.8762044013
21
237.4007361349
0
LINE
5
2C5
100
AcDbEntity
8
0
100
AcDbLine
62
7
6
CONTINUOUS
10
355.4762044013
20
249.9007361349
11
349.1829571675
21
257.4007361349
0
LINE
5
2C6
100
AcDbEntity
8
DEFAULT_1
100
AcDbLine
62
2
6
CENTER
10
321.8762044013
20
243.4007361349
11
339.0762044013
21
243.4007361349
0
LINE
5
2C7
100
AcDbEntity
8
0
100
AcDbLine
62
7
6
CONTINUOUS
10
336.0762044013
20
249.4007361349
11
324.8762044013
21
249.4007361349
0
LINE
5
2C8
100
AcDbEntity
8
0
100
AcDbLine
62
7
6
CONTINUOUS
10
311.7694516351
20
257.4007361349
11
317.2947780748
21
257.4007361349
0
LINE
5
2C9
100
AcDbEntity
8
0
100
AcDbLine
62
7
6
CONTINUOUS
10
343.6576307278
20
257.4007361349
11
349.1829571675
21
257.4007361349
0
ARC
5
2CA
100
AcDbEntity
8
DEFAULT_2
100
AcDbCircle
62
8
6
HIDDEN
10
205.6211073073
20
154.1507361349
40
37.5000000000
100
AcDbArc
50
80.4057292817
51
99.5942707183
0
ARC
5
2CB
100
AcDbEntity
8
DEFAULT_2
100
AcDbCircle
62
8
6
HIDDEN
10
205.6211073073
20
154.1507361349
40
55.5000000000
100
AcDbArc
50
83.5324715900
51
96.4675284100
0
CIRCLE
5
2CC
100
AcDbEntity
8
0
100
AcDbCircle
62
7
6
CONTINUOUS
10
205.6211073073
20
243.4007361349
40
6.0000000000
0
ARC
5
2CD
100
AcDbEntity
8
0
100
AcDbCircle
62
7
6
CONTINUOUS
10
205.6211073073
20
185.4007361349
40
6.2500000000
100
AcDbArc
50
180.0000000000
51
201.9913472955
0
ARC
5
2CE
100
AcDbEntity
8
0
100
AcDbCircle
62
7
6
CONTINUOUS
10
205.6211073073
20
185.4007361349
40
6.2500000000
100
AcDbArc
50
338.0086527045
51
360.0000000000
0
ARC
5
2CF
100
AcDbEntity
8
0
100
AcDbCircle
62
7
6
CONTINUOUS
10
208.5071146254
20
220.1507361349
40
2.0000000000
100
AcDbArc
50
294.9711750139
51
330.0000000000
0
ARC
5
2D0
100
AcDbEntity
8
0
100
AcDbCircle
62
7
6
CONTINUOUS
10
213.6211073073
20
220.1507361349
40
2.0000000000
100
AcDbArc
50
270.0000000000
51
360.0000000000
0
ARC
5
2D1
100
AcDbEntity
8
0
100
AcDbCircle
62
7
6
CONTINUOUS
10
217.6211073073
20
227.9366345197
40
2.0000000000
100
AcDbArc
50
150.0000000000
51
180.0000000000
0
ARC
5
2D2
100
AcDbEntity
8
0
100
AcDbCircle
62
7
6
CONTINUOUS
10
205.6211073073
20
243.4007361349
40
14.0000000000
100
AcDbArc
50
0.0000000000
51
180.0000000000
0
ARC
5
2D3
100
AcDbEntity
8
0
100
AcDbCircle
62
7
6
CONTINUOUS
10
193.6211073073
20
227.9366345197
40
2.0000000000
100
AcDbArc
50
0.0000000000
51
30.0000000000
0
ARC
5
2D4
100
AcDbEntity
8
0
100
AcDbCircle
62
7
6
CONTINUOUS
10
197.6211073073
20
220.1507361349
40
2.0000000000
100
AcDbArc
50
180.0000000000
51
270.0000000000
0
ARC
5
2D5
100
AcDbEntity
8
0
100
AcDbCircle
62
7
6
CONTINUOUS
10
202.7350999892
20
220.1507361349
40
2.0000000000
100
AcDbArc
50
210.0000000000
51
245.0288249861
0
ARC
5
2D6
100
AcDbEntity
8
0
100
AcDbCircle
62
7
6
CONTINUOUS
10
205.6211073073
20
154.1507361349
40
37.5000000000
100
AcDbArc
50
0.0000000000
51
80.4057292817
0
ARC
5
2D7
100
AcDbEntity
8
0
100
AcDbCircle
62
7
6
CONTINUOUS
10
205.6211073073
20
154.1507361349
40
37.5000000000
100
AcDbArc
50
99.5942707183
51
180.0000000000
0
ARC
5
2D8
100
AcDbEntity
8
0
100
AcDbCircle
62
7
6
CONTINUOUS
10
205.6211073073
20
154.1507361349
40
55.5000000000
100
AcDbArc
50
0.0000000000
51
83.5324715900
0
ARC
5
2D9
100
AcDbEntity
8
0
100
AcDbCircle
62
7
6
CONTINUOUS
10
205.6211073073
20
154.1507361349
40
55.5000000000
100
AcDbArc
50
96.4675284100
51
180.0000000000
0
ARC
5
2DA
100
AcDbEntity
8
0
100
AcDbCircle
62
7
6
CONTINUOUS
10
205.6211073073
20
94.1507361349
40
37.5000000000
100
AcDbArc
50
180.0000000000
51
360.0000000000
0
ARC
5
2DB
100
AcDbEntity
8
0
100
AcDbCircle
62
7
6
CONTINUOUS
10
205.6211073073
20
94.1507361349
40
55.5000000000
100
AcDbArc
50
180.0000000000
51
360.0000000000
0
ARC
5
2DC
100
AcDbEntity
8
DEFAULT_2
100
AcDbCircle
62
8
6
HIDDEN
10
330.4762044013
20
200.6507361349
40
9.0000000000
100
AcDbArc
50
180.0000000000
51
360.0000000000
0
ARC
5
2DD
100
AcDbEntity
8
DEFAULT_2
100
AcDbCircle
62
8
6
HIDDEN
10
330.4762044013
20
47.6507361349
40
9.0000000000
100
AcDbArc
50
0.0000000000
51
180.0000000000
0
ARC
5
2DE
100
AcDbEntity
8
DEFAULT_2
100
AcDbCircle
62
8
6
HIDDEN
10
330.4762044013
20
204.9007361349
40
30.0000000000
100
AcDbArc
50
252.5391468174
51
287.4609093619
0
ARC
5
2DF
100
AcDbEntity
8
DEFAULT_2
100
AcDbCircle
62
8
6
HIDDEN
10
330.4762044013
20
204.9007361349
40
13.2500000000
100
AcDbArc
50
227.2092592025
51
312.7907407975
0
ARC
5
2E0
100
AcDbEntity
8
0
100
AcDbCircle
62
7
6
CONTINUOUS
10
330.4762044013
20
200.6507361349
40
9.0000000000
100
AcDbArc
50
0.0000000000
51
180.0000000000
0
ARC
5
2E1
100
AcDbEntity
8
0
100
AcDbCircle
62
7
6
CONTINUOUS
10
330.4762044013
20
47.6507361349
40
9.0000000000
100
AcDbArc
50
180.0000000000
51
360.0000000000
0
ARC
5
2E2
100
AcDbEntity
8
0
100
AcDbCircle
62
7
6
CONTINUOUS
10
330.4762044013
20
204.9007361349
40
30.0000000000
100
AcDbArc
50
287.4609093619
51
10.0000000000
0
ARC
5
2E3
100
AcDbEntity
8
0
100
AcDbCircle
62
7
6
CONTINUOUS
10
330.4762044013
20
290.9007361349
40
36.0000000000
100
AcDbArc
50
278.9490180653
51
291.4784178411
0
ARC
5
2E4
100
AcDbEntity
8
0
100
AcDbCircle
62
7
6
CONTINUOUS
10
330.4762044013
20
290.9007361349
40
36.0000000000
100
AcDbArc
50
248.5215821589
51
261.0509819347
0
ARC
5
2E5
100
AcDbEntity
8
0
100
AcDbCircle
62
7
6
CONTINUOUS
10
330.4762044013
20
204.9007361349
40
13.2500000000
100
AcDbArc
50
312.7907407975
51
227.2092592025
0
CIRCLE
5
2E6
100
AcDbEntity
8
0
100
AcDbCircle
62
7
6
CONTINUOUS
10
348.1762044013
20
243.4007361349
40
2.5000000000
0
ARC
5
2E7
100
AcDbEntity
8
0
100
AcDbCircle
62
7
6
CONTINUOUS
10
330.4762044013
20
230.0007361349
40
5.6000000000
100
AcDbArc
50
180.0000000000
51
360.0000000000
0
ARC
5
2E8
100
AcDbEntity
8
0
100
AcDbCircle
62
7
6
CONTINUOUS
10
330.4762044013
20
204.9007361349
40
30.0000000000
100
AcDbArc
50
170.0000000000
51
252.5391468174
0
SPLINE
5
2E9
100
AcDbEntity
8
DEFAULT_2
100
AcDbSpline
62
8
6
HIDDEN
70
0
71
3
72
11
73
7
74
5
42
0.0000001000
43
0.0000001000
44
0.0000000001
40
0.0000000000
40
0.0000000000
40
0.0000000000
40
0.0000000000
40
0.2736618404
40
0.5152988758
40
0.7560103337
40
1.0000000000
40
1.0000000000
40
1.0000000000
40
1.0000000000
10
210.8989705535
20
218.7509997113
30
0.0000000000
10
210.7809636558
20
218.7942195941
30
0.0000000000
10
210.5471519376
20
218.8545630221
30
0.0000000000
10
210.1951978348
20
218.8097217433
30
0.0000000000
10
209.8907548313
20
218.6665209087
30
0.0000000000
10
209.7044169300
20
218.5448062007
30
0.0000000000
10
209.6109844082
20
218.4829617190
30
0.0000000000
11
210.8989705535
21
218.7509997113
31
0.0000000000
11
210.5309058524
21
218.8326737663
31
0.0000000000
11
210.2003829073
21
218.7929810882
31
0.0000000000
11
209.8962780565
21
218.6607169412
31
0.0000000000
11
209.6109844082
21
218.4829617190
31
0.0000000000
0
SPLINE
5
2EA
100
AcDbEntity
8
DEFAULT_2
100
AcDbSpline
62
8
6
HIDDEN
70
0
71
3
72
11
73
7
74
5
42
0.0000001000
43
0.0000001000
44
0.0000000001
40
0.0000000000
40
0.0000000000
40
0.0000000000
40
0.0000000000
40
0.2736618404
40
0.5152988758
40
0.7560103337
40
1.0000000000
40
1.0000000000
40
1.0000000000
40
1.0000000000
10
200.3432440611
20
218.7509997113
30
0.0000000000
10
200.4612509587
20
218.7942195941
30
0.0000000000
10
200.6950626769
20
218.8545630221
30
0.0000000000
10
201.0470167798
20
218.8097217433
30
0.0000000000
10
201.3514597833
20
218.6665209087
30
0.0000000000
10
201.5377976845
20
218.5448062007
30
0.0000000000
10
201.6312302063
20
218.4829617190
30
0.0000000000
11
200.3432440611
21
218.7509997113
31
0.0000000000
11
200.7113087622
21
218.8326737663
31
0.0000000000
11
201.0418317073
21
218.7929810882
31
0.0000000000
11
201.3459365580
21
218.6607169412
31
0.0000000000
11
201.6312302063
21
218.4829617190
31
0.0000000000
0
SPLINE
5
2EB
100
AcDbEntity
8
0
100
AcDbSpline
62
7
6
CONTINUOUS
70
0
71
3
72
10
73
6
74
4
42
0.0000001000
43
0.0000001000
44
0.0000000001
40
0.0000000000
40
0.0000000000
40
0.0000000000
40
0.0000000000
40
0.3159015172
40
0.6499699058
40
1.0000000000
40
1.0000000000
40
1.0000000000
40
1.0000000000
10
210.8989705535
20
218.7509997113
30
0.0000000000
10
210.9527875017
20
218.7312891775
30
0.0000000000
10
211.0640172900
20
218.6920900349
30
0.0000000000
10
211.2365055105
20
218.6357989165
30
0.0000000000
10
211.3553571835
20
218.5999992381
30
0.0000000000
10
211.4163599098
20
218.5823493519
30
0.0000000000
11
210.8989705535
21
218.7509997113
31
0.0000000000
11
211.0611168132
21
218.6938025786
31
0.0000000000
11
211.2339556578
21
218.6373434313
31
0.0000000000
11
211.4163599098
21
218.5823493519
31
0.0000000000
0
SPLINE
5
2EC
100
AcDbEntity
8
0
100
AcDbSpline
62
7
6
CONTINUOUS
70
0
71
3
72
10
73
6
74
4
42
0.0000001000
43
0.0000001000
44
0.0000000001
40
0.0000000000
40
0.0000000000
40
0.0000000000
40
0.0000000000
40
0.4287722405
40
0.7749239187
40
1.0000000000
40
1.0000000000
40
1.0000000000
40
1.0000000000
10
211.4163599098
20
218.5823493519
30
0.0000000000
10
211.5005870742
20
218.5579799515
30
0.0000000000
10
211.6496664323
20
218.4946411081
30
0.0000000000
10
211.8064362781
20
218.3643725002
30
0.0000000000
10
211.8711072868
20
218.2550950403
30
0.0000000000
10
211.8711073073
20
218.2090681416
30
0.0000000000
11
211.4163599098
21
218.5823493519
31
0.0000000000
11
211.6571128006
21
218.4763739224
31
0.0000000000
11
211.8162809982
21
218.3357975956
31
0.0000000000
11
211.8711073073
21
218.2090681416
31
0.0000000000
0
SPLINE
5
2ED
100
AcDbEntity
8
0
100
AcDbSpline
62
7
6
CONTINUOUS
70
0
71
3
72
11
73
7
74
5
42
0.0000001000
43
0.0000001000
44
0.0000000001
40
0.0000000000
40
0.0000000000
40
0.0000000000
40
0.0000000000
40
0.2442083284
40
0.4849817594
40
0.7265734916
40
1.0000000000
40
1.0000000000
40
1.0000000000
40
1.0000000000
10
209.6109836732
20
218.4829628295
30
0.0000000000
10
209.7044999629
20
218.5448631311
30
0.0000000000
10
209.8909474984
20
218.6666467878
30
0.0000000000
10
210.1955278043
20
218.8098314551
30
0.0000000000
10
210.5473985068
20
218.8545139768
30
0.0000000000
10
210.7810648771
20
218.7941825284
30
0.0000000000
10
210.8989705535
20
218.7509997113
30
0.0000000000
11
209.6109836732
21
218.4829628295
31
0.0000000000
11
209.8965422470
21
218.6608639114
31
0.0000000000
11
210.2007570051
21
218.7930912321
31
0.0000000000
11
210.5312331639
21
218.8326560044
31
0.0000000000
11
210.8989705535
21
218.7509997113
31
0.0000000000
0
SPLINE
5
2EE
100
AcDbEntity
8
0
100
AcDbSpline
62
7
6
CONTINUOUS
70
0
71
3
72
10
73
6
74
4
42
0.0000001000
43
0.0000001000
44
0.0000000001
40
0.0000000000
40
0.0000000000
40
0.0000000000
40
0.0000000000
40
0.3159015172
40
0.6499699058
40
1.0000000000
40
1.0000000000
40
1.0000000000
40
1.0000000000
10
200.3432440611
20
218.7509997113
30
0.0000000000
10
200.2894271128
20
218.7312891775
30
0.0000000000
10
200.1781973246
20
218.6920900349
30
0.0000000000
10
200.0057091041
20
218.6357989165
30
0.0000000000
10
199.8868574311
20
218.5999992381
30
0.0000000000
10
199.8258547048
20
218.5823493519
30
0.0000000000
11
200.3432440611
21
218.7509997113
31
0.0000000000
11
200.1810978013
21
218.6938025786
31
0.0000000000
11
200.0082589568
21
218.6373434313
31
0.0000000000
11
199.8258547048
21
218.5823493519
31
0.0000000000
0
SPLINE
5
2EF
100
AcDbEntity
8
0
100
AcDbSpline
62
7
6
CONTINUOUS
70
0
71
3
72
10
73
6
74
4
42
0.0000001000
43
0.0000001000
44
0.0000000001
40
0.0000000000
40
0.0000000000
40
0.0000000000
40
0.0000000000
40
0.4287722405
40
0.7749239187
40
1.0000000000
40
1.0000000000
40
1.0000000000
40
1.0000000000
10
199.8258547048
20
218.5823493519
30
0.0000000000
10
199.7416275404
20
218.5579799515
30
0.0000000000
10
199.5925481823
20
218.4946411081
30
0.0000000000
10
199.4357783364
20
218.3643725002
30
0.0000000000
10
199.3711073277
20
218.2550950403
30
0.0000000000
10
199.3711073073
20
218.2090681416
30
0.0000000000
11
199.8258547048
21
218.5823493519
31
0.0000000000
11
199.5851018140
21
218.4763739224
31
0.0000000000
11
199.4259336163
21
218.3357975956
31
0.0000000000
11
199.3711073073
21
218.2090681416
31
0.0000000000
0
SPLINE
5
2F0
100
AcDbEntity
8
0
100
AcDbSpline
62
7
6
CONTINUOUS
70
0
71
3
72
11
73
7
74
5
42
0.0000001000
43
0.0000001000
44
0.0000000001
40
0.0000000000
40
0.0000000000
40
0.0000000000
40
0.0000000000
40
0.2442083284
40
0.4849817594
40
0.7265734916
40
1.0000000000
40
1.0000000000
40
1.0000000000
40
1.0000000000
10
201.6312309414
20
218.4829628295
30
0.0000000000
10
201.5377146517
20
218.5448631311
30
0.0000000000
10
201.3512671162
20
218.6666467878
30
0.0000000000
10
201.0466868102
20
218.8098314551
30
0.0000000000
10
200.6948161078
20
218.8545139768
30
0.0000000000
10
200.4611497375
20
218.7941825284
30
0.0000000000
10
200.3432440611
20
218.7509997113
30
0.0000000000
11
201.6312309414
21
218.4829628295
31
0.0000000000
11
201.3456723676
21
218.6608639114
31
0.0000000000
11
201.0414576094
21
218.7930912321
31
0.0000000000
11
200.7109814507
21
218.8326560044
31
0.0000000000
11
200.3432440611
21
218.7509997113
31
0.0000000000
0
SPLINE
5
2F1
100
AcDbEntity
8
DEFAULT_2
100
AcDbSpline
62
8
6
HIDDEN
70
0
71
3
72
10
73
6
74
4
42
0.0000001000
43
0.0000001000
44
0.0000000001
40
0.0000000000
40
0.0000000000
40
0.0000000000
40
0.0000000000
40
0.0726252231
40
0.5062478942
40
1.0000000000
40
1.0000000000
40
1.0000000000
40
1.0000000000
10
339.4760803526
20
134.4630593420
30
0.0000000000
10
339.4761290600
20
134.4411015019
30
0.0000000000
10
339.4712011306
20
134.2881264038
30
0.0000000000
10
339.3866354903
20
133.9927097410
30
0.0000000000
10
339.2231386692
20
133.7619314778
30
0.0000000000
10
339.1250816702
20
133.6507363733
30
0.0000000000
11
339.4760803526
21
134.4630593420
31
0.0000000000
11
339.4739355170
21
134.3972809568
31
0.0000000000
11
339.3731207565
21
134.0199143092
31
0.0000000000
11
339.1250816702
21
133.6507363733
31
0.0000000000
0
SPLINE
5
2F2
100
AcDbEntity
8
DEFAULT_2
100
AcDbSpline
62
8
6
HIDDEN
70
0
71
3
72
10
73
6
74
4
42
0.0000001000
43
0.0000001000
44
0.0000000001
40
0.0000000000
40
0.0000000000
40
0.0000000000
40
0.0000000000
40
0.1777588055
40
0.5575061199
40
1.0000000000
40
1.0000000000
40
1.0000000000
40
1.0000000000
10
339.4756807370
20
138.1507361286
30
0.0000000000
10
339.4756807278
20
138.0831798593
30
0.0000000000
10
339.4550494641
20
137.8713026784
30
0.0000000000
10
339.3019802007
20
137.5176353565
30
0.0000000000
10
339.0967532834
20
137.2801896699
30
0.0000000000
10
338.9762044013
20
137.1647229561
30
0.0000000000
11
339.4756807370
21
138.1507361286
31
0.0000000000
11
339.4559461353
21
137.9495623209
31
0.0000000000
11
339.2946557726
21
137.5512072103
31
0.0000000000
11
338.9762044013
21
137.1647229561
31
0.0000000000
0
SPLINE
5
2F3
100
AcDbEntity
8
DEFAULT_2
100
AcDbSpline
62
8
6
HIDDEN
70
0
71
3
72
9
73
5
74
3
42
0.0000001000
43
0.0000001000
44
0.0000000001
40
0.0000000000
40
0.0000000000
40
0.0000000000
40
0.0000000000
40
0.5018313214
40
1.0000000000
40
1.0000000000
40
1.0000000000
40
1.0000000000
10
339.2559910279
20
113.1507351812
30
0.0000000000
10
339.2843230929
20
113.0686734589
30
0.0000000000
10
339.3357394198
20
112.9033613053
30
0.0000000000
10
339.3765421966
20
112.7351069710
30
0.0000000000
10
339.3941189043
20
112.6507370886
30
0.0000000000
11
339.2559910279
21
113.1507351812
31
0.0000000000
11
339.3332548795
21
112.9020148828
31
0.0000000000
11
339.3941189043
21
112.6507370886
31
0.0000000000
0
SPLINE
5
2F4
100
AcDbEntity
8
DEFAULT_2
100
AcDbSpline
62
8
6
HIDDEN
70
0
71
3
72
9
73
5
74
3
42
0.0000001000
43
0.0000001000
44
0.0000000001
40
0.0000000000
40
0.0000000000
40
0.0000000000
40
0.0000000000
40
0.4988357844
40
1.0000000000
40
1.0000000000
40
1.0000000000
40
1.0000000000
10
339.1945215246
20
113.5257351812
30
0.0000000000
10
339.2053815475
20
113.4634879733
30
0.0000000000
10
339.2265117558
20
113.3385904202
30
0.0000000000
10
339.2463626526
20
113.2134831664
30
0.0000000000
10
339.2559910279
20
113.1507351812
30
0.0000000000
11
339.1945215246
21
113.5257351812
31
0.0000000000
11
339.2261442153
21
113.3388290542
31
0.0000000000
11
339.2559910279
21
113.1507351812
31
0.0000000000
0
SPLINE
5
2F5
100
AcDbEntity
8
DEFAULT_2
100
AcDbSpline
62
8
6
HIDDEN
70
0
71
3
72
9
73
5
74
3
42
0.0000001000
43
0.0000001000
44
0.0000000001
40
0.0000000000
40
0.0000000000
40
0.0000000000
40
0.0000000000
40
0.4993069529
40
1.0000000000
40
1.0000000000
40
1.0000000000
40
1.0000000000
10
339.1608093262
20
114.1507370886
30
0.0000000000
10
339.1665867848
20
114.0467235731
30
0.0000000000
10
339.1779905805
20
113.8383984788
30
0.0000000000
10
339.1890614397
20
113.6300554270
30
0.0000000000
10
339.1945215246
20
113.5257351812
30
0.0000000000
11
339.1608093262
21
114.1507370886
31
0.0000000000
11
339.1778917702
21
113.8386827601
31
0.0000000000
11
339.1945215246
21
113.5257351812
31
0.0000000000
0
SPLINE
5
2F6
100
AcDbEntity
8
DEFAULT_2
100
AcDbSpline
62
8
6
HIDDEN
70
0
71
3
72
9
73
5
74
3
42
0.0000001000
43
0.0000001000
44
0.0000000001
40
0.0000000000
40
0.0000000000
40
0.0000000000
40
0.0000000000
40
0.4993069521
40
1.0000000000
40
1.0000000000
40
1.0000000000
40
1.0000000000
10
339.1608093262
20
114.1507370899
30
0.0000000000
10
339.1665867848
20
114.2547501288
30
0.0000000000
10
339.1779905805
20
114.4630742689
30
0.0000000000
10
339.1890614397
20
114.6714163666
30
0.0000000000
10
339.1945215246
20
114.7757361349
30
0.0000000000
11
339.1608093262
21
114.1507370899
31
0.0000000000
11
339.1778917702
21
114.4627899887
31
0.0000000000
11
339.1945215246
21
114.7757361349
31
0.0000000000
0
SPLINE
5
2F7
100
AcDbEntity
8
DEFAULT_2
100
AcDbSpline
62
8
6
HIDDEN
70
0
71
3
72
9
73
5
74
3
42
0.0000001000
43
0.0000001000
44
0.0000000001
40
0.0000000000
40
0.0000000000
40
0.0000000000
40
0.0000000000
40
0.4988357792
40
1.0000000000
40
1.0000000000
40
1.0000000000
40
1.0000000000
10
339.1945215253
20
114.7757361388
30
0.0000000000
10
339.2053815480
20
114.8379833453
30
0.0000000000
10
339.2265117560
20
114.9628808972
30
0.0000000000
10
339.2463626526
20
115.0879881497
30
0.0000000000
10
339.2559910279
20
115.1507361349
30
0.0000000000
11
339.1945215253
21
114.7757361388
31
0.0000000000
11
339.2261442153
21
114.9626422619
31
0.0000000000
11
339.2559910279
21
115.1507361349
31
0.0000000000
0
SPLINE
5
2F8
100
AcDbEntity
8
DEFAULT_2
100
AcDbSpline
62
8
6
HIDDEN
70
0
71
3
72
9
73
5
74
3
42
0.0000001000
43
0.0000001000
44
0.0000000001
40
0.0000000000
40
0.0000000000
40
0.0000000000
40
0.0000000000
40
0.5018312692
40
1.0000000000
40
1.0000000000
40
1.0000000000
40
1.0000000000
10
339.2559910279
20
115.1507361349
30
0.0000000000
10
339.2843230956
20
115.2327983345
30
0.0000000000
10
339.3357394259
20
115.3981114488
30
0.0000000000
10
339.3765421978
20
115.5663667291
30
0.0000000000
10
339.3941189043
20
115.6507370886
30
0.0000000000
11
339.2559910279
21
115.1507361349
31
0.0000000000
11
339.3332548787
21
115.3994578537
31
0.0000000000
11
339.3941189043
21
115.6507370886
31
0.0000000000
0
SPLINE
5
2F9
100
AcDbEntity
8
DEFAULT_2
100
AcDbSpline
62
8
6
HIDDEN
70
0
71
3
72
10
73
6
74
4
42
0.0000001000
43
0.0000001000
44
0.0000000001
40
0.0000000000
40
0.0000000000
40
0.0000000000
40
0.0000000000
40
0.4424938732
40
0.8222411908
40
1.0000000000
40
1.0000000000
40
1.0000000000
40
1.0000000000
10
338.9762044013
20
142.1367494316
30
0.0000000000
10
339.0967532846
20
142.0212827064
30
0.0000000000
10
339.3019802039
20
141.7838369948
30
0.0000000000
10
339.4550494642
20
141.4301696441
30
0.0000000000
10
339.4756807280
20
141.2182924463
30
0.0000000000
10
339.4756807372
20
141.1507361710
30
0.0000000000
11
338.9762044013
21
142.1367494316
31
0.0000000000
11
339.2946557725
21
141.7502651430
31
0.0000000000
11
339.4559461353
21
141.3519099968
31
0.0000000000
11
339.4756807372
21
141.1507361710
31
0.0000000000
0
SPLINE
5
2FA
100
AcDbEntity
8
DEFAULT_2
100
AcDbSpline
62
8
6
HIDDEN
70
0
71
3
72
10
73
6
74
4
42
0.0000001000
43
0.0000001000
44
0.0000000001
40
0.0000000000
40
0.0000000000
40
0.0000000000
40
0.0000000000
40
0.4937521058
40
0.9273747769
40
1.0000000000
40
1.0000000000
40
1.0000000000
40
1.0000000000
10
339.1250816702
20
133.6507363733
30
0.0000000000
10
339.2231386692
20
133.5395412688
30
0.0000000000
10
339.3866354903
20
133.3087630056
30
0.0000000000
10
339.4712011306
20
133.0133463428
30
0.0000000000
10
339.4761290600
20
132.8603712447
30
0.0000000000
10
339.4760803526
20
132.8384134046
30
0.0000000000
11
339.1250816702
21
133.6507363733
31
0.0000000000
11
339.3731207565
21
133.2815584374
31
0.0000000000
11
339.4739355170
21
132.9041917898
31
0.0000000000
11
339.4760803526
21
132.8384134046
31
0.0000000000
0
SPLINE
5
2FB
100
AcDbEntity
8
DEFAULT_2
100
AcDbSpline
62
8
6
HIDDEN
70
0
71
3
72
9
73
5
74
3
42
0.0000001000
43
0.0000001000
44
0.0000000001
40
0.0000000000
40
0.0000000000
40
0.0000000000
40
0.0000000000
40
0.4999044269
40
1.0000000000
40
1.0000000000
40
1.0000000000
40
1.0000000000
10
339.2559910279
20
123.4007361349
30
0.0000000000
10
339.2890981801
20
123.5240268521
30
0.0000000000
10
339.3481067803
20
123.7726521457
30
0.0000000000
10
339.3922606773
20
124.0243453788
30
0.0000000000
10
339.4105507355
20
124.1507361349
30
0.0000000000
11
339.2559910279
21
123.4007361349
31
0.0000000000
11
339.3443832448
21
123.7733713136
31
0.0000000000
11
339.4105507355
21
124.1507361349
31
0.0000000000
0
SPLINE
5
2FC
100
AcDbEntity
8
DEFAULT_2
100
AcDbSpline
62
8
6
HIDDEN
70
0
71
3
72
9
73
5
74
3
42
0.0000001000
43
0.0000001000
44
0.0000000001
40
0.0000000000
40
0.0000000000
40
0.0000000000
40
0.0000000000
40
0.4999044269
40
1.0000000000
40
1.0000000000
40
1.0000000000
40
1.0000000000
10
339.2559910279
20
118.1507361349
30
0.0000000000
10
339.2890981801
20
118.2740268521
30
0.0000000000
10
339.3481067803
20
118.5226521457
30
0.0000000000
10
339.3922606773
20
118.7743453788
30
0.0000000000
10
339.4105507355
20
118.9007361349
30
0.0000000000
11
339.2559910279
21
118.1507361349
31
0.0000000000
11
339.3443832448
21
118.5233713136
31
0.0000000000
11
339.4105507355
21
118.9007361349
31
0.0000000000
0
SPLINE
5
2FD
100
AcDbEntity
8
DEFAULT_2
100
AcDbSpline
62
8
6
HIDDEN
70
0
71
3
72
8
73
4
74
2
42
0.0000001000
43
0.0000001000
44
0.0000000001
40
0.0000000000
40
0.0000000000
40
0.0000000000
40
0.0000000000
40
1.0000000000
40
1.0000000000
40
1.0000000000
40
1.0000000000
10
339.4053256563
20
132.5265445513
30
0.0000000000
10
339.4020753779
20
132.5351021185
30
0.0000000000
10
339.3987260150
20
132.5436243130
30
0.0000000000
10
339.3952809355
20
132.5521099623
30
0.0000000000
11
339.4053256563
21
132.5265445513
31
0.0000000000
11
339.3952809355
21
132.5521099623
31
0.0000000000
0
SPLINE
5
2FE
100
AcDbEntity
8
DEFAULT_2
100
AcDbSpline
62
8
6
HIDDEN
70
0
71
3
72
8
73
4
74
2
42
0.0000001000
43
0.0000001000
44
0.0000000001
40
0.0000000000
40
0.0000000000
40
0.0000000000
40
0.0000000000
40
1.0000000000
40
1.0000000000
40
1.0000000000
40
1.0000000000
10
339.3952809355
20
132.5521099623
30
0.0000000000
10
339.3843213209
20
132.5791048243
30
0.0000000000
10
339.3723930276
20
132.6057298401
30
0.0000000000
10
339.3596044800
20
132.6319472669
30
0.0000000000
11
339.3952809355
21
132.5521099623
31
0.0000000000
11
339.3596044800
21
132.6319472669
31
0.0000000000
0
SPLINE
5
2FF
100
AcDbEntity
8
DEFAULT_2
100
AcDbSpline
62
8
6
HIDDEN
70
0
71
3
72
8
73
4
74
2
42
0.0000001000
43
0.0000001000
44
0.0000000001
40
0.0000000000
40
0.0000000000
40
0.0000000000
40
0.0000000000
40
1.0000000000
40
1.0000000000
40
1.0000000000
40
1.0000000000
10
339.3596044800
20
132.6319472669
30
0.0000000000
10
339.3403849324
20
132.6713486984
30
0.0000000000
10
339.3192223938
20
132.7098295399
30
0.0000000000
10
339.2964849015
20
132.7472616773
30
0.0000000000
11
339.3596044800
21
132.6319472669
31
0.0000000000
11
339.2964849015
21
132.7472616773
31
0.0000000000
0
SPLINE
5
300
100
AcDbEntity
8
DEFAULT_2
100
AcDbSpline
62
8
6
HIDDEN
70
0
71
3
72
8
73
4
74
2
42
0.0000001000
43
0.0000001000
44
0.0000000001
40
0.0000000000
40
0.0000000000
40
0.0000000000
40
0.0000000000
40
1.0000000000
40
1.0000000000
40
1.0000000000
40
1.0000000000
10
339.2964849015
20
132.7472616773
30
0.0000000000
10
339.2087399758
20
132.8917138480
30
0.0000000000
10
339.0975952318
20
133.0204762428
30
0.0000000000
10
338.9762044013
20
133.1367494304
30
0.0000000000
11
339.2964849015
21
132.7472616773
31
0.0000000000
11
338.9762044013
21
133.1367494304
31
0.0000000000
0
SPLINE
5
301
100
AcDbEntity
8
DEFAULT_2
100
AcDbSpline
62
8
6
HIDDEN
70
0
71
3
72
8
73
4
74
2
42
0.0000001000
43
0.0000001000
44
0.0000000001
40
0.0000000000
40
0.0000000000
40
0.0000000000
40
0.0000000000
40
1.0000000000
40
1.0000000000
40
1.0000000000
40
1.0000000000
10
339.4056439749
20
140.7739266269
30
0.0000000000
10
339.3712215400
20
140.8653182559
30
0.0000000000
10
339.3254953545
20
140.9524072511
30
0.0000000000
10
339.2723739866
20
141.0344729389
30
0.0000000000
11
339.4056439749
21
140.7739266269
31
0.0000000000
11
339.2723739866
21
141.0344729389
31
0.0000000000
0
SPLINE
5
302
100
AcDbEntity
8
DEFAULT_2
100
AcDbSpline
62
8
6
HIDDEN
70
0
71
3
72
9
73
5
74
3
42
0.0000001000
43
0.0000001000
44
0.0000000001
40
0.0000000000
40
0.0000000000
40
0.0000000000
40
0.0000000000
40
0.0364362704
40
1.0000000000
40
1.0000000000
40
1.0000000000
40
1.0000000000
10
339.2723739866
20
141.0344729389
30
0.0000000000
10
339.2693246115
20
141.0391838317
30
0.0000000000
10
339.1849651595
20
141.1680208349
30
0.0000000000
10
339.0828071866
20
141.2842869165
30
0.0000000000
10
338.9762044013
20
141.3867067902
30
0.0000000000
11
339.2723739866
21
141.0344729389
31
0.0000000000
11
339.2631534946
21
141.0485558223
31
0.0000000000
11
338.9762044013
21
141.3867067902
31
0.0000000000
0
SPLINE
5
303
100
AcDbEntity
8
DEFAULT_2
100
AcDbSpline
62
8
6
HIDDEN
70
0
71
3
72
8
73
4
74
2
42
0.0000001000
43
0.0000001000
44
0.0000000001
40
0.0000000000
40
0.0000000000
40
0.0000000000
40
0.0000000000
40
1.0000000000
40
1.0000000000
40
1.0000000000
40
1.0000000000
10
339.3336079926
20
116.1507351812
30
0.0000000000
10
339.3449566582
20
116.1712953231
30
0.0000000000
10
339.3557757022
20
116.1921530747
30
0.0000000000
10
339.3660069647
20
116.2132964027
30
0.0000000000
11
339.3336079926
21
116.1507351812
31
0.0000000000
11
339.3660069647
21
116.2132964027
31
0.0000000000
0
SPLINE
5
304
100
AcDbEntity
8
DEFAULT_2
100
AcDbSpline
62
8
6
HIDDEN
70
0
71
3
72
8
73
4
74
2
42
0.0000001000
43
0.0000001000
44
0.0000000001
40
0.0000000000
40
0.0000000000
40
0.0000000000
40
0.0000000000
40
1.0000000000
40
1.0000000000
40
1.0000000000
40
1.0000000000
10
339.3660069647
20
116.2132964027
30
0.0000000000
10
339.3759511810
20
116.2338465379
30
0.0000000000
10
339.3853401301
20
116.2546664247
30
0.0000000000
10
339.3941189043
20
116.2757361349
30
0.0000000000
11
339.3660069647
21
116.2132964027
31
0.0000000000
11
339.3941189043
21
116.2757361349
31
0.0000000000
0
SPLINE
5
305
100
AcDbEntity
8
DEFAULT_2
100
AcDbSpline
62
8
6
HIDDEN
70
0
71
3
72
9
73
5
74
3
42
0.0000001000
43
0.0000001000
44
0.0000000001
40
0.0000000000
40
0.0000000000
40
0.0000000000
40
0.0000000000
40
0.5037866359
40
1.0000000000
40
1.0000000000
40
1.0000000000
40
1.0000000000
10
339.2262415653
20
115.9007361434
30
0.0000000000
10
339.2464089801
20
115.9417516230
30
0.0000000000
10
339.2844122341
20
116.0241811553
30
0.0000000000
10
339.3180610399
20
116.1084864879
30
0.0000000000
10
339.3336079926
20
116.1507351812
30
0.0000000000
11
339.2262415653
21
115.9007361434
31
0.0000000000
11
339.2835948799
21
116.0252814965
31
0.0000000000
11
339.3336079926
21
116.1507351812
31
0.0000000000
0
SPLINE
5
306
100
AcDbEntity
8
DEFAULT_2
100
AcDbSpline
62
8
6
HIDDEN
70
0
71
3
72
9
73
5
74
3
42
0.0000001000
43
0.0000001000
44
0.0000000001
40
0.0000000000
40
0.0000000000
40
0.0000000000
40
0.0000000000
40
0.7475054037
40
1.0000000000
40
1.0000000000
40
1.0000000000
40
1.0000000000
10
339.1250816713
20
115.5257361384
30
0.0000000000
10
339.1433121489
20
115.5877553786
30
0.0000000000
10
339.1667735230
20
115.6709989807
30
0.0000000000
10
339.1889848605
20
115.7545798726
30
0.0000000000
10
339.1945132177
20
115.7757044226
30
0.0000000000
11
339.1250816713
21
115.5257361384
31
0.0000000000
11
339.1776886808
21
115.7123939289
31
0.0000000000
11
339.1945132177
21
115.7757044226
31
0.0000000000
0
SPLINE
5
307
100
AcDbEntity
8
DEFAULT_2
100
AcDbSpline
62
8
6
HIDDEN
70
0
71
3
72
8
73
4
74
2
42
0.0000001000
43
0.0000001000
44
0.0000000001
40
0.0000000000
40
0.0000000000
40
0.0000000000
40
0.0000000000
40
1.0000000000
40
1.0000000000
40
1.0000000000
40
1.0000000000
10
339.1945132177
20
115.7757044226
30
0.0000000000
10
339.2053995905
20
115.8173026248
30
0.0000000000
10
339.2159761915
20
115.8589815854
30
0.0000000000
10
339.2262415611
20
115.9007361349
30
0.0000000000
11
339.1945132177
21
115.7757044226
31
0.0000000000
11
339.2262415611
21
115.9007361349
31
0.0000000000
0
SPLINE
5
308
100
AcDbEntity
8
DEFAULT_2
100
AcDbSpline
62
8
6
HIDDEN
70
0
71
3
72
9
73
5
74
3
42
0.0000001000
43
0.0000001000
44
0.0000000001
40
0.0000000000
40
0.0000000000
40
0.0000000000
40
0.0000000000
40
0.4974745219
40
1.0000000000
40
1.0000000000
40
1.0000000000
40
1.0000000000
10
339.0055455479
20
114.9007370893
30
0.0000000000
10
339.0268711885
20
115.0040813629
30
0.0000000000
10
339.0682256938
20
115.2121342322
30
0.0000000000
10
339.1065676515
20
115.4207632391
30
0.0000000000
10
339.1250816702
20
115.5257361349
30
0.0000000000
11
339.0055455479
21
114.9007370893
31
0.0000000000
11
339.0672712660
21
115.2112259493
31
0.0000000000
11
339.1250816702
21
115.5257361349
31
0.0000000000
0
SPLINE
5
309
100
AcDbEntity
8
DEFAULT_2
100
AcDbSpline
62
8
6
HIDDEN
70
0
71
3
72
9
73
5
74
3
42
0.0000001000
43
0.0000001000
44
0.0000000001
40
0.0000000000
40
0.0000000000
40
0.0000000000
40
0.0000000000
40
0.4993731568
40
1.0000000000
40
1.0000000000
40
1.0000000000
40
1.0000000000
10
338.9762044013
20
114.3972527551
30
0.0000000000
10
338.9811685268
20
114.4810569140
30
0.0000000000
10
338.9910289096
20
114.6488803919
30
0.0000000000
10
339.0007292282
20
114.8167131975
30
0.0000000000
10
339.0055455478
20
114.9007370886
30
0.0000000000
11
338.9762044013
21
114.3972527551
31
0.0000000000
11
338.9909766320
21
114.6486723200
31
0.0000000000
11
339.0055455478
21
114.9007370886
31
0.0000000000
0
SPLINE
5
30A
100
AcDbEntity
8
DEFAULT_2
100
AcDbSpline
62
8
6
HIDDEN
70
0
71
3
72
9
73
5
74
3
42
0.0000001000
43
0.0000001000
44
0.0000000001
40
0.0000000000
40
0.0000000000
40
0.0000000000
40
0.0000000000
40
0.4993731568
40
1.0000000000
40
1.0000000000
40
1.0000000000
40
1.0000000000
10
338.9762044013
20
113.9042214220
30
0.0000000000
10
338.9811685268
20
113.8204172631
30
0.0000000000
10
338.9910289096
20
113.6525937852
30
0.0000000000
10
339.0007292282
20
113.4847609796
30
0.0000000000
10
339.0055455478
20
113.4007370886
30
0.0000000000
11
338.9762044013
21
113.9042214220
31
0.0000000000
11
338.9909766320
21
113.6528018571
31
0.0000000000
11
339.0055455478
21
113.4007370886
31
0.0000000000
0
SPLINE
5
30B
100
AcDbEntity
8
DEFAULT_2
100
AcDbSpline
62
8
6
HIDDEN
70
0
71
3
72
9
73
5
74
3
42
0.0000001000
43
0.0000001000
44
0.0000000001
40
0.0000000000
40
0.0000000000
40
0.0000000000
40
0.0000000000
40
0.4974745115
40
1.0000000000
40
1.0000000000
40
1.0000000000
40
1.0000000000
10
339.0055455479
20
113.4007370878
30
0.0000000000
10
339.0268711886
20
113.2973923407
30
0.0000000000
10
339.0682256944
20
113.0893385165
30
0.0000000000
10
339.1065676516
20
112.8807085572
30
0.0000000000
10
339.1250816702
20
112.7757351812
30
0.0000000000
11
339.0055455479
21
113.4007370878
31
0.0000000000
11
339.0672712655
21
113.0902468092
31
0.0000000000
11
339.1250816702
21
112.7757351812
31
0.0000000000
0
SPLINE
5
30C
100
AcDbEntity
8
DEFAULT_2
100
AcDbSpline
62
8
6
HIDDEN
70
0
71
3
72
9
73
5
74
3
42
0.0000001000
43
0.0000001000
44
0.0000000001
40
0.0000000000
40
0.0000000000
40
0.0000000000
40
0.0000000000
40
0.7475054037
40
1.0000000000
40
1.0000000000
40
1.0000000000
40
1.0000000000
10
339.1250816713
20
112.7757351777
30
0.0000000000
10
339.1433121489
20
112.7137159375
30
0.0000000000
10
339.1667735230
20
112.6304723353
30
0.0000000000
10
339.1889848605
20
112.5468914435
30
0.0000000000
10
339.1945132177
20
112.5257668935
30
0.0000000000
11
339.1250816713
21
112.7757351777
31
0.0000000000
11
339.1776886808
21
112.5890773872
31
0.0000000000
11
339.1945132177
21
112.5257668935
31
0.0000000000
0
SPLINE
5
30D
100
AcDbEntity
8
DEFAULT_2
100
AcDbSpline
62
8
6
HIDDEN
70
0
71
3
72
8
73
4
74
2
42
0.0000001000
43
0.0000001000
44
0.0000000001
40
0.0000000000
40
0.0000000000
40
0.0000000000
40
0.0000000000
40
1.0000000000
40
1.0000000000
40
1.0000000000
40
1.0000000000
10
339.1945132177
20
112.5257668935
30
0.0000000000
10
339.2053995905
20
112.4841686913
30
0.0000000000
10
339.2159761915
20
112.4424897306
30
0.0000000000
10
339.2262415611
20
112.4007351812
30
0.0000000000
11
339.1945132177
21
112.5257668935
31
0.0000000000
11
339.2262415611
21
112.4007351812
31
0.0000000000
0
SPLINE
5
30E
100
AcDbEntity
8
DEFAULT_2
100
AcDbSpline
62
8
6
HIDDEN
70
0
71
3
72
9
73
5
74
3
42
0.0000001000
43
0.0000001000
44
0.0000000001
40
0.0000000000
40
0.0000000000
40
0.0000000000
40
0.0000000000
40
0.5037866359
40
1.0000000000
40
1.0000000000
40
1.0000000000
40
1.0000000000
10
339.2262415653
20
112.4007351727
30
0.0000000000
10
339.2464089801
20
112.3597196931
30
0.0000000000
10
339.2844122341
20
112.2772901608
30
0.0000000000
10
339.3180610399
20
112.1929848282
30
0.0000000000
10
339.3336079926
20
112.1507361349
30
0.0000000000
11
339.2262415653
21
112.4007351727
31
0.0000000000
11
339.2835948799
21
112.2761898196
31
0.0000000000
11
339.3336079926
21
112.1507361349
31
0.0000000000
0
SPLINE
5
30F
100
AcDbEntity
8
DEFAULT_2
100
AcDbSpline
62
8
6
HIDDEN
70
0
71
3
72
9
73
5
74
3
42
0.0000001000
43
0.0000001000
44
0.0000000001
40
0.0000000000
40
0.0000000000
40
0.0000000000
40
0.0000000000
40
0.9635638913
40
1.0000000000
40
1.0000000000
40
1.0000000000
40
1.0000000000
10
338.9762044013
20
137.9147655988
30
0.0000000000
10
339.0828071866
20
138.0171854725
30
0.0000000000
10
339.1849651423
20
138.1334515346
30
0.0000000000
10
339.2693245832
20
138.2622885141
30
0.0000000000
10
339.2723739445
20
138.2669993849
30
0.0000000000
11
338.9762044013
21
137.9147655988
31
0.0000000000
11
339.2631534946
21
138.2529165667
31
0.0000000000
11
339.2723739445
21
138.2669993849
31
0.0000000000
0
SPLINE
5
310
100
AcDbEntity
8
DEFAULT_2
100
AcDbSpline
62
8
6
HIDDEN
70
0
71
3
72
8
73
4
74
2
42
0.0000001000
43
0.0000001000
44
0.0000000001
40
0.0000000000
40
0.0000000000
40
0.0000000000
40
0.0000000000
40
1.0000000000
40
1.0000000000
40
1.0000000000
40
1.0000000000
10
339.2723739445
20
138.2669993849
30
0.0000000000
10
339.3254953199
20
138.3490650756
30
0.0000000000
10
339.3712215128
20
138.4361540745
30
0.0000000000
10
339.4056439545
20
138.5275457079
30
0.0000000000
11
339.2723739445
21
138.2669993849
31
0.0000000000
11
339.4056439545
21
138.5275457079
31
0.0000000000
0
SPLINE
5
311
100
AcDbEntity
8
DEFAULT_2
100
AcDbSpline
62
8
6
HIDDEN
70
0
71
3
72
8
73
4
74
2
42
0.0000001000
43
0.0000001000
44
0.0000000001
40
0.0000000000
40
0.0000000000
40
0.0000000000
40
0.0000000000
40
1.0000000000
40
1.0000000000
40
1.0000000000
40
1.0000000000
10
339.3336079926
20
112.1507361349
30
0.0000000000
10
339.3449566582
20
112.1301759930
30
0.0000000000
10
339.3557757022
20
112.1093182414
30
0.0000000000
10
339.3660069647
20
112.0881749134
30
0.0000000000
11
339.3336079926
21
112.1507361349
31
0.0000000000
11
339.3660069647
21
112.0881749134
31
0.0000000000
0
SPLINE
5
312
100
AcDbEntity
8
DEFAULT_2
100
AcDbSpline
62
8
6
HIDDEN
70
0
71
3
72
8
73
4
74
2
42
0.0000001000
43
0.0000001000
44
0.0000000001
40
0.0000000000
40
0.0000000000
40
0.0000000000
40
0.0000000000
40
1.0000000000
40
1.0000000000
40
1.0000000000
40
1.0000000000
10
339.3660069647
20
112.0881749134
30
0.0000000000
10
339.3759511810
20
112.0676247782
30
0.0000000000
10
339.3853401301
20
112.0468048914
30
0.0000000000
10
339.3941189043
20
112.0257351812
30
0.0000000000
11
339.3660069647
21
112.0881749134
31
0.0000000000
11
339.3941189043
21
112.0257351812
31
0.0000000000
0
SPLINE
5
313
100
AcDbEntity
8
DEFAULT_2
100
AcDbSpline
62
8
6
HIDDEN
70
0
71
3
72
8
73
4
74
2
42
0.0000001000
43
0.0000001000
44
0.0000000001
40
0.0000000000
40
0.0000000000
40
0.0000000000
40
0.0000000000
40
1.0000000000
40
1.0000000000
40
1.0000000000
40
1.0000000000
10
338.9762044013
20
134.1647226009
30
0.0000000000
10
339.0975953841
20
134.2809959345
30
0.0000000000
10
339.2087402548
20
134.4097585066
30
0.0000000000
10
339.2964852317
20
134.5542108977
30
0.0000000000
11
338.9762044013
21
134.1647226009
31
0.0000000000
11
339.2964852317
21
134.5542108977
31
0.0000000000
0
SPLINE
5
314
100
AcDbEntity
8
DEFAULT_2
100
AcDbSpline
62
8
6
HIDDEN
70
0
71
3
72
8
73
4
74
2
42
0.0000001000
43
0.0000001000
44
0.0000000001
40
0.0000000000
40
0.0000000000
40
0.0000000000
40
0.0000000000
40
1.0000000000
40
1.0000000000
40
1.0000000000
40
1.0000000000
10
339.2964852317
20
134.5542108977
30
0.0000000000
10
339.3192225987
20
134.5916428640
30
0.0000000000
10
339.3403850254
20
134.6301235237
30
0.0000000000
10
339.3596044800
20
134.6695247644
30
0.0000000000
11
339.2964852317
21
134.5542108977
31
0.0000000000
11
339.3596044800
21
134.6695247644
31
0.0000000000
0
SPLINE
5
315
100
AcDbEntity
8
DEFAULT_2
100
AcDbSpline
62
8
6
HIDDEN
70
0
71
3
72
8
73
4
74
2
42
0.0000001000
43
0.0000001000
44
0.0000000001
40
0.0000000000
40
0.0000000000
40
0.0000000000
40
0.0000000000
40
1.0000000000
40
1.0000000000
40
1.0000000000
40
1.0000000000
10
339.3596044800
20
134.6695247644
30
0.0000000000
10
339.3723930276
20
134.6957421913
30
0.0000000000
10
339.3843213209
20
134.7223672070
30
0.0000000000
10
339.3952809355
20
134.7493620690
30
0.0000000000
11
339.3596044800
21
134.6695247644
31
0.0000000000
11
339.3952809355
21
134.7493620690
31
0.0000000000
0
SPLINE
5
316
100
AcDbEntity
8
DEFAULT_2
100
AcDbSpline
62
8
6
HIDDEN
70
0
71
3
72
8
73
4
74
2
42
0.0000001000
43
0.0000001000
44
0.0000000001
40
0.0000000000
40
0.0000000000
40
0.0000000000
40
0.0000000000
40
1.0000000000
40
1.0000000000
40
1.0000000000
40
1.0000000000
10
339.3952809355
20
134.7493620690
30
0.0000000000
10
339.3987261088
20
134.7578479492
30
0.0000000000
10
339.4020755601
20
134.7663703765
30
0.0000000000
10
339.4053259216
20
134.7749281785
30
0.0000000000
11
339.3952809355
21
134.7493620690
31
0.0000000000
11
339.4053259216
21
134.7749281785
31
0.0000000000
0
SPLINE
5
317
100
AcDbEntity
8
DEFAULT_2
100
AcDbSpline
62
8
6
HIDDEN
70
0
71
3
72
9
73
5
74
3
42
0.0000001000
43
0.0000001000
44
0.0000000001
40
0.0000000000
40
0.0000000000
40
0.0000000000
40
0.0000000000
40
0.4998762168
40
1.0000000000
40
1.0000000000
40
1.0000000000
40
1.0000000000
10
338.9762044013
20
123.4359526587
30
0.0000000000
10
339.0245529080
20
123.5525551547
30
0.0000000000
10
339.1147714796
20
123.7885694598
30
0.0000000000
10
339.1914219725
20
124.0293396652
30
0.0000000000
10
339.2262415611
20
124.1507361349
30
0.0000000000
11
338.9762044013
21
123.4359526587
31
0.0000000000
11
339.1113588041
21
123.7896994170
31
0.0000000000
11
339.2262415611
21
124.1507361349
31
0.0000000000
0
SPLINE
5
318
100
AcDbEntity
8
DEFAULT_2
100
AcDbSpline
62
8
6
HIDDEN
70
0
71
3
72
9
73
5
74
3
42
0.0000001000
43
0.0000001000
44
0.0000000001
40
0.0000000000
40
0.0000000000
40
0.0000000000
40
0.0000000000
40
0.4998762168
40
1.0000000000
40
1.0000000000
40
1.0000000000
40
1.0000000000
10
338.9762044013
20
118.1859526587
30
0.0000000000
10
339.0245529080
20
118.3025551547
30
0.0000000000
10
339.1147714796
20
118.5385694598
30
0.0000000000
10
339.1914219725
20
118.7793396652
30
0.0000000000
10
339.2262415611
20
118.9007361349
30
0.0000000000
11
338.9762044013
21
118.1859526587
31
0.0000000000
11
339.1113588041
21
118.5396994170
31
0.0000000000
11
339.2262415611
21
118.9007361349
31
0.0000000000
0
SPLINE
5
319
100
AcDbEntity
8
0
100
AcDbSpline
62
7
6
CONTINUOUS
70
0
71
3
72
8
73
4
74
2
42
0.0000001000
43
0.0000001000
44
0.0000000001
40
0.0000000000
40
0.0000000000
40
0.0000000000
40
0.0000000000
40
1.0000000000
40
1.0000000000
40
1.0000000000
40
1.0000000000
10
339.4760803526
20
132.8384134046
30
0.0000000000
10
339.4758449530
20
132.7322925817
30
0.0000000000
10
339.4579594630
20
132.6258829505
30
0.0000000000
10
339.4251314591
20
132.5257363733
30
0.0000000000
11
339.4760803526
21
132.8384134046
31
0.0000000000
11
339.4251314591
21
132.5257363733
31
0.0000000000
0
SPLINE
5
31A
100
AcDbEntity
8
0
100
AcDbSpline
62
7
6
CONTINUOUS
70
0
71
3
72
9
73
5
74
3
42
0.0000001000
43
0.0000001000
44
0.0000000001
40
0.0000000000
40
0.0000000000
40
0.0000000000
40
0.0000000000
40
0.7268707773
40
1.0000000000
40
1.0000000000
40
1.0000000000
40
1.0000000000
10
339.4756807373
20
132.1507360815
30
0.0000000000
10
339.4756807281
20
132.2182923628
30
0.0000000000
10
339.4666306962
20
132.3112336189
30
0.0000000000
10
339.4451300240
20
132.4013452570
30
0.0000000000
10
339.4383999967
20
132.4257214892
30
0.0000000000
11
339.4756807373
21
132.1507360815
31
0.0000000000
11
339.4559461353
21
132.3519099254
31
0.0000000000
11
339.4383999967
21
132.4257214892
31
0.0000000000
0
SPLINE
5
31B
100
AcDbEntity
8
0
100
AcDbSpline
62
7
6
CONTINUOUS
70
0
71
3
72
8
73
4
74
2
42
0.0000001000
43
0.0000001000
44
0.0000000001
40
0.0000000000
40
0.0000000000
40
0.0000000000
40
0.0000000000
40
1.0000000000
40
1.0000000000
40
1.0000000000
40
1.0000000000
10
339.4383999967
20
132.4257214892
30
0.0000000000
10
339.4289876293
20
132.4598131864
30
0.0000000000
10
339.4178978824
20
132.4934434888
30
0.0000000000
10
339.4053256563
20
132.5265445513
30
0.0000000000
11
339.4383999967
21
132.4257214892
31
0.0000000000
11
339.4053256563
21
132.5265445513
31
0.0000000000
0
SPLINE
5
31C
100
AcDbEntity
8
0
100
AcDbSpline
62
7
6
CONTINUOUS
70
0
71
3
72
9
73
5
74
3
42
0.0000001000
43
0.0000001000
44
0.0000000001
40
0.0000000000
40
0.0000000000
40
0.0000000000
40
0.0000000000
40
0.7987108010
40
1.0000000000
40
1.0000000000
40
1.0000000000
40
1.0000000000
10
339.4761441107
20
140.3976184030
30
0.0000000000
10
339.4759749985
20
140.5000369782
30
0.0000000000
10
339.4559609519
20
140.6284554243
30
0.0000000000
10
339.4147308626
20
140.7498009231
30
0.0000000000
10
339.4056439749
20
140.7739266269
30
0.0000000000
11
339.4761441107
21
140.3976184030
31
0.0000000000
11
339.4304695882
21
140.7006632696
31
0.0000000000
11
339.4056439749
21
140.7739266269
31
0.0000000000
0
SPLINE
5
31D
100
AcDbEntity
8
0
100
AcDbSpline
62
7
6
CONTINUOUS
70
0
71
3
72
9
73
5
74
3
42
0.0000001000
43
0.0000001000
44
0.0000000001
40
0.0000000000
40
0.0000000000
40
0.0000000000
40
0.0000000000
40
0.3188424715
40
1.0000000000
40
1.0000000000
40
1.0000000000
40
1.0000000000
10
339.4756807372
20
141.1507361710
30
0.0000000000
10
339.4756807464
20
141.0831809802
30
0.0000000000
10
339.4550499499
20
140.8713045989
30
0.0000000000
10
339.3697136757
20
140.6741333875
30
0.0000000000
10
339.2946570960
20
140.5512092301
30
0.0000000000
11
339.4756807372
21
141.1507361710
31
0.0000000000
11
339.4559468055
21
140.9495655373
31
0.0000000000
11
339.2946570960
21
140.5512092301
31
0.0000000000
0
SPLINE
5
31E
100
AcDbEntity
8
0
100
AcDbSpline
62
7
6
CONTINUOUS
70
0
71
3
72
8
73
4
74
2
42
0.0000001000
43
0.0000001000
44
0.0000000001
40
0.0000000000
40
0.0000000000
40
0.0000000000
40
0.0000000000
40
1.0000000000
40
1.0000000000
40
1.0000000000
40
1.0000000000
10
339.2946570960
20
140.5512092301
30
0.0000000000
10
339.2913493716
20
140.5457919938
30
0.0000000000
10
339.2880087685
20
140.5403968600
30
0.0000000000
10
339.2846359834
20
140.5350236591
30
0.0000000000
11
339.2946570960
21
140.5512092301
31
0.0000000000
11
339.2846359834
21
140.5350236591
31
0.0000000000
0
SPLINE
5
31F
100
AcDbEntity
8
0
100
AcDbSpline
62
7
6
CONTINUOUS
70
0
71
3
72
8
73
4
74
2
42
0.0000001000
43
0.0000001000
44
0.0000000001
40
0.0000000000
40
0.0000000000
40
0.0000000000
40
0.0000000000
40
1.0000000000
40
1.0000000000
40
1.0000000000
40
1.0000000000
10
339.2846359834
20
140.5350236591
30
0.0000000000
10
339.1988298883
20
140.3983255385
30
0.0000000000
10
339.0921946535
20
140.2758230577
30
0.0000000000
10
338.9762044013
20
140.1647227785
30
0.0000000000
11
339.2846359834
21
140.5350236591
31
0.0000000000
11
338.9762044013
21
140.1647227785
31
0.0000000000
0
SPLINE
5
320
100
AcDbEntity
8
0
100
AcDbSpline
62
7
6
CONTINUOUS
70
0
71
3
72
8
73
4
74
2
42
0.0000001000
43
0.0000001000
44
0.0000000001
40
0.0000000000
40
0.0000000000
40
0.0000000000
40
0.0000000000
40
1.0000000000
40
1.0000000000
40
1.0000000000
40
1.0000000000
10
338.9762044013
20
139.1367494329
30
0.0000000000
10
339.0921946267
20
139.0256491894
30
0.0000000000
10
339.1988298401
20
138.9031467498
30
0.0000000000
10
339.2846359263
20
138.7664486763
30
0.0000000000
11
338.9762044013
21
139.1367494329
31
0.0000000000
11
339.2846359263
21
138.7664486763
31
0.0000000000
0
SPLINE
5
321
100
AcDbEntity
8
0
100
AcDbSpline
62
7
6
CONTINUOUS
70
0
71
3
72
8
73
4
74
2
42
0.0000001000
43
0.0000001000
44
0.0000000001
40
0.0000000000
40
0.0000000000
40
0.0000000000
40
0.0000000000
40
1.0000000000
40
1.0000000000
40
1.0000000000
40
1.0000000000
10
339.2846359263
20
138.7664486763
30
0.0000000000
10
339.2880087308
20
138.7610754458
30
0.0000000000
10
339.2913493530
20
138.7556802822
30
0.0000000000
10
339.2946570961
20
138.7502630157
30
0.0000000000
11
339.2846359263
21
138.7664486763
31
0.0000000000
11
339.2946570961
21
138.7502630157
31
0.0000000000
0
SPLINE
5
322
100
AcDbEntity
8
0
100
AcDbSpline
62
7
6
CONTINUOUS
70
0
71
3
72
9
73
5
74
3
42
0.0000001000
43
0.0000001000
44
0.0000000001
40
0.0000000000
40
0.0000000000
40
0.0000000000
40
0.0000000000
40
0.6811575313
40
1.0000000000
40
1.0000000000
40
1.0000000000
40
1.0000000000
10
339.2946570961
20
138.7502630157
30
0.0000000000
10
339.3697136750
20
138.6273388706
30
0.0000000000
10
339.4550499498
20
138.4301676778
30
0.0000000000
10
339.4756807462
20
138.2182913134
30
0.0000000000
10
339.4756807370
20
138.1507361286
30
0.0000000000
11
339.2946570961
21
138.7502630157
31
0.0000000000
11
339.4559468055
21
138.3519067442
31
0.0000000000
11
339.4756807370
21
138.1507361286
31
0.0000000000
0
SPLINE
5
323
100
AcDbEntity
8
0
100
AcDbSpline
62
7
6
CONTINUOUS
70
0
71
3
72
9
73
5
74
3
42
0.0000001000
43
0.0000001000
44
0.0000000001
40
0.0000000000
40
0.0000000000
40
0.0000000000
40
0.0000000000
40
0.2012893193
40
1.0000000000
40
1.0000000000
40
1.0000000000
40
1.0000000000
10
339.4056439545
20
138.5275457079
30
0.0000000000
10
339.4147308502
20
138.5516714293
30
0.0000000000
10
339.4559609488
20
138.6730169454
30
0.0000000000
10
339.4759749985
20
138.8014354107
30
0.0000000000
10
339.4761441107
20
138.9038539859
30
0.0000000000
11
339.4056439545
21
138.5275457079
31
0.0000000000
11
339.4304695882
21
138.6008091194
31
0.0000000000
11
339.4761441107
21
138.9038539859
31
0.0000000000
0
SPLINE
5
324
100
AcDbEntity
8
0
100
AcDbSpline
62
7
6
CONTINUOUS
70
0
71
3
72
8
73
4
74
2
42
0.0000001000
43
0.0000001000
44
0.0000000001
40
0.0000000000
40
0.0000000000
40
0.0000000000
40
0.0000000000
40
1.0000000000
40
1.0000000000
40
1.0000000000
40
1.0000000000
10
339.4053259216
20
134.7749281785
30
0.0000000000
10
339.4178980384
20
134.8080290157
30
0.0000000000
10
339.4289876955
20
134.8416590848
30
0.0000000000
10
339.4383999967
20
134.8757505421
30
0.0000000000
11
339.4053259216
21
134.7749281785
31
0.0000000000
11
339.4383999967
21
134.8757505421
31
0.0000000000
0
SPLINE
5
325
100
AcDbEntity
8
0
100
AcDbSpline
62
7
6
CONTINUOUS
70
0
71
3
72
9
73
5
74
3
42
0.0000001000
43
0.0000001000
44
0.0000000001
40
0.0000000000
40
0.0000000000
40
0.0000000000
40
0.0000000000
40
0.2731292227
40
1.0000000000
40
1.0000000000
40
1.0000000000
40
1.0000000000
10
339.4383999967
20
134.8757505421
30
0.0000000000
10
339.4451300240
20
134.9001267743
30
0.0000000000
10
339.4666306962
20
134.9902384124
30
0.0000000000
10
339.4756807281
20
135.0831796685
30
0.0000000000
10
339.4756807373
20
135.1507359498
30
0.0000000000
11
339.4383999967
21
134.8757505421
31
0.0000000000
11
339.4559461353
21
134.9495621059
31
0.0000000000
11
339.4756807373
21
135.1507359498
31
0.0000000000
0
SPLINE
5
326
100
AcDbEntity
8
0
100
AcDbSpline
62
7
6
CONTINUOUS
70
0
71
3
72
9
73
5
74
3
42
0.0000001000
43
0.0000001000
44
0.0000000001
40
0.0000000000
40
0.0000000000
40
0.0000000000
40
0.0000000000
40
0.4721041074
40
1.0000000000
40
1.0000000000
40
1.0000000000
40
1.0000000000
10
339.3556596835
20
134.9007358965
30
0.0000000000
10
339.3116299429
20
134.9876553108
30
0.0000000000
10
339.1975015129
20
135.1614414393
30
0.0000000000
10
339.0556719161
20
135.3125092734
30
0.0000000000
10
338.9762044013
20
135.3870408151
30
0.0000000000
11
339.3556596835
21
134.9007358965
31
0.0000000000
11
339.1976948423
21
135.1466820955
31
0.0000000000
11
338.9762044013
21
135.3870408151
31
0.0000000000
0
SPLINE
5
327
100
AcDbEntity
8
0
100
AcDbSpline
62
7
6
CONTINUOUS
70
0
71
3
72
9
73
5
74
3
42
0.0000001000
43
0.0000001000
44
0.0000000001
40
0.0000000000
40
0.0000000000
40
0.0000000000
40
0.0000000000
40
0.4721041074
40
1.0000000000
40
1.0000000000
40
1.0000000000
40
1.0000000000
10
339.3556596835
20
132.4007361349
30
0.0000000000
10
339.3116299429
20
132.3138167205
30
0.0000000000
10
339.1975015129
20
132.1400305921
30
0.0000000000
10
339.0556719161
20
131.9889627579
30
0.0000000000
10
338.9762044013
20
131.9144312162
30
0.0000000000
11
339.3556596835
21
132.4007361349
31
0.0000000000
11
339.1976948423
21
132.1547899358
31
0.0000000000
11
338.9762044013
21
131.9144312162
31
0.0000000000
0
SPLINE
5
328
100
AcDbEntity
8
0
100
AcDbSpline
62
7
6
CONTINUOUS
70
0
71
3
72
9
73
5
74
3
42
0.0000001000
43
0.0000001000
44
0.0000000001
40
0.0000000000
40
0.0000000000
40
0.0000000000
40
0.0000000000
40
0.4823962778
40
1.0000000000
40
1.0000000000
40
1.0000000000
40
1.0000000000
10
339.4578516054
20
111.9007370886
30
0.0000000000
10
339.4508283258
20
111.9222406311
30
0.0000000000
10
339.4324447327
20
111.9656221549
30
0.0000000000
10
339.4079636960
20
112.0057984754
30
0.0000000000
10
339.3941188800
20
112.0257351812
30
0.0000000000
11
339.4578516054
21
111.9007370886
31
0.0000000000
11
339.4316730593
21
111.9633489317
31
0.0000000000
11
339.3941188800
21
112.0257351812
31
0.0000000000
0
SPLINE
5
329
100
AcDbEntity
8
0
100
AcDbSpline
62
7
6
CONTINUOUS
70
0
71
3
72
9
73
5
74
3
42
0.0000001000
43
0.0000001000
44
0.0000000001
40
0.0000000000
40
0.0000000000
40
0.0000000000
40
0.0000000000
40
0.4942953447
40
1.0000000000
40
1.0000000000
40
1.0000000000
40
1.0000000000
10
339.3941188800
20
112.0257351812
30
0.0000000000
10
339.3853150162
20
112.0468651250
30
0.0000000000
10
339.3662625780
20
112.0891044276
30
0.0000000000
10
339.3449251455
20
112.1302331208
30
0.0000000000
10
339.3336080248
20
112.1507361349
30
0.0000000000
11
339.3941188800
21
112.0257351812
31
0.0000000000
11
339.3659216654
21
112.0883511534
31
0.0000000000
11
339.3336080248
21
112.1507361349
31
0.0000000000
0
SPLINE
5
32A
100
AcDbEntity
8
0
100
AcDbSpline
62
7
6
CONTINUOUS
70
0
71
3
72
8
73
4
74
2
42
0.0000001000
43
0.0000001000
44
0.0000000001
40
0.0000000000
40
0.0000000000
40
0.0000000000
40
0.0000000000
40
1.0000000000
40
1.0000000000
40
1.0000000000
40
1.0000000000
10
339.4251314591
20
134.7757363733
30
0.0000000000
10
339.4579594630
20
134.6755897961
30
0.0000000000
10
339.4758449530
20
134.5691801650
30
0.0000000000
10
339.4760803526
20
134.4630593420
30
0.0000000000
11
339.4251314591
21
134.7757363733
31
0.0000000000
11
339.4760803526
21
134.4630593420
31
0.0000000000
0
SPLINE
5
32B
100
AcDbEntity
8
0
100
AcDbSpline
62
7
6
CONTINUOUS
70
0
71
3
72
9
73
5
74
3
42
0.0000001000
43
0.0000001000
44
0.0000000001
40
0.0000000000
40
0.0000000000
40
0.0000000000
40
0.0000000000
40
0.4962133322
40
1.0000000000
40
1.0000000000
40
1.0000000000
40
1.0000000000
10
339.3336080248
20
112.1507361349
30
0.0000000000
10
339.3180610715
20
112.1929848273
30
0.0000000000
10
339.2844122617
20
112.2772901632
30
0.0000000000
10
339.2464090020
20
112.3597196981
30
0.0000000000
10
339.2262415827
20
112.4007351812
30
0.0000000000
11
339.3336080248
21
112.1507361349
31
0.0000000000
11
339.2835949094
21
112.2761898165
31
0.0000000000
11
339.2262415827
21
112.4007351812
31
0.0000000000
0
SPLINE
5
32C
100
AcDbEntity
8
0
100
AcDbSpline
62
7
6
CONTINUOUS
70
0
71
3
72
9
73
5
74
3
42
0.0000001000
43
0.0000001000
44
0.0000000001
40
0.0000000000
40
0.0000000000
40
0.0000000000
40
0.0000000000
40
0.5007342151
40
1.0000000000
40
1.0000000000
40
1.0000000000
40
1.0000000000
10
339.2262415827
20
112.4007351812
30
0.0000000000
10
339.2107632133
20
112.4636936832
30
0.0000000000
10
339.1784387507
20
112.5890828548
30
0.0000000000
10
339.1433121612
20
112.7137159456
30
0.0000000000
10
339.1250816831
20
112.7757351812
30
0.0000000000
11
339.2262415827
21
112.4007351812
31
0.0000000000
11
339.1776886939
21
112.5890774043
31
0.0000000000
11
339.1250816831
21
112.7757351812
31
0.0000000000
0
SPLINE
5
32D
100
AcDbEntity
8
0
100
AcDbSpline
62
7
6
CONTINUOUS
70
0
71
3
72
9
73
5
74
3
42
0.0000001000
43
0.0000001000
44
0.0000000001
40
0.0000000000
40
0.0000000000
40
0.0000000000
40
0.0000000000
40
0.5025255799
40
1.0000000000
40
1.0000000000
40
1.0000000000
40
1.0000000000
10
339.1250816831
20
112.7757351812
30
0.0000000000
10
339.1065676598
20
112.8807085765
30
0.0000000000
10
339.0682256995
20
113.0893385361
30
0.0000000000
10
339.0268711901
20
113.2973923604
30
0.0000000000
10
339.0055455515
20
113.4007370886
30
0.0000000000
11
339.1250816831
21
112.7757351812
31
0.0000000000
11
339.0672712632
21
113.0902468668
31
0.0000000000
11
339.0055455515
21
113.4007370886
31
0.0000000000
0
SPLINE
5
32E
100
AcDbEntity
8
0
100
AcDbSpline
62
7
6
CONTINUOUS
70
0
71
3
72
9
73
5
74
3
42
0.0000001000
43
0.0000001000
44
0.0000000001
40
0.0000000000
40
0.0000000000
40
0.0000000000
40
0.0000000000
40
0.5006268435
40
1.0000000000
40
1.0000000000
40
1.0000000000
40
1.0000000000
10
339.0055455515
20
113.4007370886
30
0.0000000000
10
339.0007292313
20
113.4847609833
30
0.0000000000
10
338.9910289115
20
113.6525937960
30
0.0000000000
10
338.9811685274
20
113.8204172811
30
0.0000000000
10
338.9762044013
20
113.9042214436
30
0.0000000000
11
339.0055455515
21
113.4007370886
31
0.0000000000
11
338.9909766339
21
113.6528018681
31
0.0000000000
11
338.9762044013
21
113.9042214436
31
0.0000000000
0
SPLINE
5
32F
100
AcDbEntity
8
0
100
AcDbSpline
62
7
6
CONTINUOUS
70
0
71
3
72
9
73
5
74
3
42
0.0000001000
43
0.0000001000
44
0.0000000001
40
0.0000000000
40
0.0000000000
40
0.0000000000
40
0.0000000000
40
0.5006268435
40
1.0000000000
40
1.0000000000
40
1.0000000000
40
1.0000000000
10
339.0055455515
20
114.9007370886
30
0.0000000000
10
339.0007292313
20
114.8167131938
30
0.0000000000
10
338.9910289115
20
114.6488803811
30
0.0000000000
10
338.9811685274
20
114.4810568960
30
0.0000000000
10
338.9762044013
20
114.3972527335
30
0.0000000000
11
339.0055455515
21
114.9007370886
31
0.0000000000
11
338.9909766339
21
114.6486723090
31
0.0000000000
11
338.9762044013
21
114.3972527335
31
0.0000000000
0
SPLINE
5
330
100
AcDbEntity
8
0
100
AcDbSpline
62
7
6
CONTINUOUS
70
0
71
3
72
9
73
5
74
3
42
0.0000001000
43
0.0000001000
44
0.0000000001
40
0.0000000000
40
0.0000000000
40
0.0000000000
40
0.0000000000
40
0.4974744305
40
1.0000000000
40
1.0000000000
40
1.0000000000
40
1.0000000000
10
339.0055455515
20
114.9007370886
30
0.0000000000
10
339.0268711900
20
115.0040813432
30
0.0000000000
10
339.0682256989
20
115.2121342126
30
0.0000000000
10
339.1065676597
20
115.4207632198
30
0.0000000000
10
339.1250816831
20
115.5257361349
30
0.0000000000
11
339.0055455515
21
114.9007370886
31
0.0000000000
11
339.0672712637
21
115.2112258917
31
0.0000000000
11
339.1250816831
21
115.5257361349
31
0.0000000000
0
SPLINE
5
331
100
AcDbEntity
8
0
100
AcDbSpline
62
7
6
CONTINUOUS
70
0
71
3
72
9
73
5
74
3
42
0.0000001000
43
0.0000001000
44
0.0000000001
40
0.0000000000
40
0.0000000000
40
0.0000000000
40
0.0000000000
40
0.5007342151
40
1.0000000000
40
1.0000000000
40
1.0000000000
40
1.0000000000
10
339.2262415827
20
115.9007361349
30
0.0000000000
10
339.2107632133
20
115.8377776329
30
0.0000000000
10
339.1784387507
20
115.7123884613
30
0.0000000000
10
339.1433121612
20
115.5877553705
30
0.0000000000
10
339.1250816831
20
115.5257361349
30
0.0000000000
11
339.2262415827
21
115.9007361349
31
0.0000000000
11
339.1776886939
21
115.7123939118
31
0.0000000000
11
339.1250816831
21
115.5257361349
31
0.0000000000
0
SPLINE
5
332
100
AcDbEntity
8
0
100
AcDbSpline
62
7
6
CONTINUOUS
70
0
71
3
72
9
73
5
74
3
42
0.0000001000
43
0.0000001000
44
0.0000000001
40
0.0000000000
40
0.0000000000
40
0.0000000000
40
0.0000000000
40
0.4962133322
40
1.0000000000
40
1.0000000000
40
1.0000000000
40
1.0000000000
10
339.3336080248
20
116.1507351812
30
0.0000000000
10
339.3180610715
20
116.1084864888
30
0.0000000000
10
339.2844122617
20
116.0241811528
30
0.0000000000
10
339.2464090020
20
115.9417516180
30
0.0000000000
10
339.2262415827
20
115.9007361349
30
0.0000000000
11
339.3336080248
21
116.1507351812
31
0.0000000000
11
339.2835949094
21
116.0252814996
31
0.0000000000
11
339.2262415827
21
115.9007361349
31
0.0000000000
0
SPLINE
5
333
100
AcDbEntity
8
0
100
AcDbSpline
62
7
6
CONTINUOUS
70
0
71
3
72
9
73
5
74
3
42
0.0000001000
43
0.0000001000
44
0.0000000001
40
0.0000000000
40
0.0000000000
40
0.0000000000
40
0.0000000000
40
0.5057046553
40
1.0000000000
40
1.0000000000
40
1.0000000000
40
1.0000000000
10
339.3336080248
20
116.1507351812
30
0.0000000000
10
339.3449251455
20
116.1712381953
30
0.0000000000
10
339.3662625780
20
116.2123668885
30
0.0000000000
10
339.3853150162
20
116.2546061911
30
0.0000000000
10
339.3941188800
20
116.2757361349
30
0.0000000000
11
339.3336080248
21
116.1507351812
31
0.0000000000
11
339.3659216654
21
116.2131201627
31
0.0000000000
11
339.3941188800
21
116.2757361349
31
0.0000000000
0
SPLINE
5
334
100
AcDbEntity
8
0
100
AcDbSpline
62
7
6
CONTINUOUS
70
0
71
3
72
9
73
5
74
3
42
0.0000001000
43
0.0000001000
44
0.0000000001
40
0.0000000000
40
0.0000000000
40
0.0000000000
40
0.0000000000
40
0.4823969491
40
1.0000000000
40
1.0000000000
40
1.0000000000
40
1.0000000000
10
339.4578516054
20
116.4007370886
30
0.0000000000
10
339.4508283342
20
116.3792330796
30
0.0000000000
10
339.4324447766
20
116.3358506228
30
0.0000000000
10
339.4079637148
20
116.2956733240
30
0.0000000000
10
339.3941188800
20
116.2757361349
30
0.0000000000
11
339.4578516054
21
116.4007370886
31
0.0000000000
11
339.4316730592
21
116.3381238121
31
0.0000000000
11
339.3941188800
21
116.2757361349
31
0.0000000000
0
SPLINE
5
335
100
AcDbEntity
8
0
100
AcDbSpline
62
7
6
CONTINUOUS
70
0
71
3
72
10
73
6
74
4
42
0.0000001000
43
0.0000001000
44
0.0000000001
40
0.0000000000
40
0.0000000000
40
0.0000000000
40
0.0000000000
40
0.1777559417
40
0.5575039590
40
1.0000000000
40
1.0000000000
40
1.0000000000
40
1.0000000000
10
339.4756807373
20
135.1507359498
30
0.0000000000
10
339.4756807465
20
135.2182911466
30
0.0000000000
10
339.4550499501
20
135.4301675447
30
0.0000000000
10
339.3019814880
20
135.7838354008
30
0.0000000000
10
339.0967538903
20
136.0212821147
30
0.0000000000
10
338.9762044013
20
136.1367494304
30
0.0000000000
11
339.4756807373
21
135.1507359498
31
0.0000000000
11
339.4559468055
21
135.3519066015
31
0.0000000000
11
339.2946570959
21
135.7502629444
31
0.0000000000
11
338.9762044013
21
136.1367494304
31
0.0000000000
0
SPLINE
5
336
100
AcDbEntity
8
0
100
AcDbSpline
62
7
6
CONTINUOUS
70
0
71
3
72
10
73
6
74
4
42
0.0000001000
43
0.0000001000
44
0.0000000001
40
0.0000000000
40
0.0000000000
40
0.0000000000
40
0.0000000000
40
0.0608125487
40
0.5060002494
40
1.0000000000
40
1.0000000000
40
1.0000000000
40
1.0000000000
10
339.4761441107
20
138.9038539859
30
0.0000000000
10
339.4761713273
20
138.9203370095
30
0.0000000000
10
339.4729891609
20
139.0574541037
30
0.0000000000
10
339.4093475321
20
139.3252431984
30
0.0000000000
10
339.2756418656
20
139.5448908767
30
0.0000000000
10
339.1945215475
20
139.6507361945
30
0.0000000000
11
339.4761441107
21
138.9038539859
31
0.0000000000
11
339.4749872738
21
138.9532719163
31
0.0000000000
11
339.3958418006
21
139.3050140643
31
0.0000000000
11
339.1945215475
21
139.6507361945
31
0.0000000000
0
SPLINE
5
337
100
AcDbEntity
8
0
100
AcDbSpline
62
7
6
CONTINUOUS
70
0
71
3
72
10
73
6
74
4
42
0.0000001000
43
0.0000001000
44
0.0000000001
40
0.0000000000
40
0.0000000000
40
0.0000000000
40
0.0000000000
40
0.4939997506
40
0.9391874513
40
1.0000000000
40
1.0000000000
40
1.0000000000
40
1.0000000000
10
339.1945215475
20
139.6507361945
30
0.0000000000
10
339.2756418656
20
139.7565815122
30
0.0000000000
10
339.4093475321
20
139.9762291906
30
0.0000000000
10
339.4729891609
20
140.2440182853
30
0.0000000000
10
339.4761713273
20
140.3811353795
30
0.0000000000
10
339.4761441107
20
140.3976184030
30
0.0000000000
11
339.1945215475
21
139.6507361945
31
0.0000000000
11
339.3958418006
21
139.9964583247
31
0.0000000000
11
339.4749872738
21
140.3482004727
31
0.0000000000
11
339.4761441107
21
140.3976184030
31
0.0000000000
0
SPLINE
5
338
100
AcDbEntity
8
0
100
AcDbSpline
62
7
6
CONTINUOUS
70
0
71
3
72
10
73
6
74
4
42
0.0000001000
43
0.0000001000
44
0.0000000001
40
0.0000000000
40
0.0000000000
40
0.0000000000
40
0.0000000000
40
0.4424960410
40
0.8222440583
40
1.0000000000
40
1.0000000000
40
1.0000000000
40
1.0000000000
10
338.9762044013
20
131.1647226009
30
0.0000000000
10
339.0967538903
20
131.2801899167
30
0.0000000000
10
339.3019814880
20
131.5176366306
30
0.0000000000
10
339.4550499501
20
131.8713044867
30
0.0000000000
10
339.4756807465
20
132.0831808848
30
0.0000000000
10
339.4756807373
20
132.1507360815
30
0.0000000000
11
338.9762044013
21
131.1647226009
31
0.0000000000
11
339.2946570959
21
131.5512090870
31
0.0000000000
11
339.4559468055
21
131.9495654298
31
0.0000000000
11
339.4756807373
21
132.1507360815
31
0.0000000000
0
SPLINE
5
339
100
AcDbEntity
8
0
100
AcDbSpline
62
7
6
CONTINUOUS
70
0
71
3
72
9
73
5
74
3
42
0.0000001000
43
0.0000001000
44
0.0000000001
40
0.0000000000
40
0.0000000000
40
0.0000000000
40
0.0000000000
40
0.4728938881
40
1.0000000000
40
1.0000000000
40
1.0000000000
40
1.0000000000
10
339.4651065702
20
115.7757351812
30
0.0000000000
10
339.4584712678
20
115.7539508272
30
0.0000000000
10
339.4385843562
20
115.7095851801
30
0.0000000000
10
339.4103686545
20
115.6702369860
30
0.0000000000
10
339.3941188800
20
115.6507370886
30
0.0000000000
11
339.4651065702
21
115.7757351812
31
0.0000000000
11
339.4377999140
21
115.7131123866
31
0.0000000000
11
339.3941188800
21
115.6507370886
31
0.0000000000
0
SPLINE
5
33A
100
AcDbEntity
8
0
100
AcDbSpline
62
7
6
CONTINUOUS
70
0
71
3
72
9
73
5
74
3
42
0.0000001000
43
0.0000001000
44
0.0000000001
40
0.0000000000
40
0.0000000000
40
0.0000000000
40
0.0000000000
40
0.4981687516
40
1.0000000000
40
1.0000000000
40
1.0000000000
40
1.0000000000
10
339.3941188800
20
115.6507370886
30
0.0000000000
10
339.3765421765
20
115.5663667269
30
0.0000000000
10
339.3357394159
20
115.3981114482
30
0.0000000000
10
339.2843231038
20
115.2327983327
30
0.0000000000
10
339.2559910480
20
115.1507361349
30
0.0000000000
11
339.3941188800
21
115.6507370886
31
0.0000000000
11
339.3332548685
21
115.3994578454
31
0.0000000000
11
339.2559910480
21
115.1507361349
31
0.0000000000
0
SPLINE
5
33B
100
AcDbEntity
8
0
100
AcDbSpline
62
7
6
CONTINUOUS
70
0
71
3
72
9
73
5
74
3
42
0.0000001000
43
0.0000001000
44
0.0000000001
40
0.0000000000
40
0.0000000000
40
0.0000000000
40
0.0000000000
40
0.5011642542
40
1.0000000000
40
1.0000000000
40
1.0000000000
40
1.0000000000
10
339.2559910480
20
115.1507361349
30
0.0000000000
10
339.2463626724
20
115.0879881449
30
0.0000000000
10
339.2265117765
20
114.9628808911
30
0.0000000000
10
339.2053815691
20
114.8379833379
30
0.0000000000
10
339.1945215475
20
114.7757361349
30
0.0000000000
11
339.2559910480
21
115.1507361349
31
0.0000000000
11
339.2261442345
21
114.9626422474
31
0.0000000000
11
339.1945215475
21
114.7757361349
31
0.0000000000
0
SPLINE
5
33C
100
AcDbEntity
8
0
100
AcDbSpline
62
7
6
CONTINUOUS
70
0
71
3
72
9
73
5
74
3
42
0.0000001000
43
0.0000001000
44
0.0000000001
40
0.0000000000
40
0.0000000000
40
0.0000000000
40
0.0000000000
40
0.5006930470
40
1.0000000000
40
1.0000000000
40
1.0000000000
40
1.0000000000
10
339.1945215475
20
114.7757361349
30
0.0000000000
10
339.1890614629
20
114.6714163666
30
0.0000000000
10
339.1779906041
20
114.4630742684
30
0.0000000000
10
339.1665868088
20
114.2547501278
30
0.0000000000
10
339.1608093505
20
114.1507370886
30
0.0000000000
11
339.1945215475
21
114.7757361349
31
0.0000000000
11
339.1778917938
21
114.4627899885
31
0.0000000000
11
339.1608093505
21
114.1507370886
31
0.0000000000
0
SPLINE
5
33D
100
AcDbEntity
8
0
100
AcDbSpline
62
7
6
CONTINUOUS
70
0
71
3
72
9
73
5
74
3
42
0.0000001000
43
0.0000001000
44
0.0000000001
40
0.0000000000
40
0.0000000000
40
0.0000000000
40
0.0000000000
40
0.5006930473
40
1.0000000000
40
1.0000000000
40
1.0000000000
40
1.0000000000
10
339.1945215475
20
113.5257351812
30
0.0000000000
10
339.1890614629
20
113.6300554270
30
0.0000000000
10
339.1779906041
20
113.8383984788
30
0.0000000000
10
339.1665868088
20
114.0467235731
30
0.0000000000
10
339.1608093505
20
114.1507370886
30
0.0000000000
11
339.1945215475
21
113.5257351812
31
0.0000000000
11
339.1778917938
21
113.8386827602
31
0.0000000000
11
339.1608093505
21
114.1507370886
31
0.0000000000
0
SPLINE
5
33E
100
AcDbEntity
8
0
100
AcDbSpline
62
7
6
CONTINUOUS
70
0
71
3
72
9
73
5
74
3
42
0.0000001000
43
0.0000001000
44
0.0000000001
40
0.0000000000
40
0.0000000000
40
0.0000000000
40
0.0000000000
40
0.5011642542
40
1.0000000000
40
1.0000000000
40
1.0000000000
40
1.0000000000
10
339.2559910480
20
113.1507351812
30
0.0000000000
10
339.2463626724
20
113.2134831712
30
0.0000000000
10
339.2265117765
20
113.3385904250
30
0.0000000000
10
339.2053815691
20
113.4634879781
30
0.0000000000
10
339.1945215475
20
113.5257351812
30
0.0000000000
11
339.2559910480
21
113.1507351812
31
0.0000000000
11
339.2261442345
21
113.3388290687
31
0.0000000000
11
339.1945215475
21
113.5257351812
31
0.0000000000
0
SPLINE
5
33F
100
AcDbEntity
8
0
100
AcDbSpline
62
7
6
CONTINUOUS
70
0
71
3
72
9
73
5
74
3
42
0.0000001000
43
0.0000001000
44
0.0000000001
40
0.0000000000
40
0.0000000000
40
0.0000000000
40
0.0000000000
40
0.4981686994
40
1.0000000000
40
1.0000000000
40
1.0000000000
40
1.0000000000
10
339.3941188800
20
112.6507370886
30
0.0000000000
10
339.3765421753
20
112.7351069732
30
0.0000000000
10
339.3357394098
20
112.9033613059
30
0.0000000000
10
339.2843231011
20
113.0686734607
30
0.0000000000
10
339.2559910480
20
113.1507351812
30
0.0000000000
11
339.3941188800
21
112.6507370886
31
0.0000000000
11
339.3332548693
21
112.9020148911
31
0.0000000000
11
339.2559910480
21
113.1507351812
31
0.0000000000
0
SPLINE
5
340
100
AcDbEntity
8
0
100
AcDbSpline
62
7
6
CONTINUOUS
70
0
71
3
72
9
73
5
74
3
42
0.0000001000
43
0.0000001000
44
0.0000000001
40
0.0000000000
40
0.0000000000
40
0.0000000000
40
0.0000000000
40
0.4728948552
40
1.0000000000
40
1.0000000000
40
1.0000000000
40
1.0000000000
10
339.4651065702
20
112.5257361349
30
0.0000000000
10
339.4584712791
20
112.5475209503
30
0.0000000000
10
339.4385844287
20
112.5918875244
30
0.0000000000
10
339.4103686845
20
112.6312367088
30
0.0000000000
10
339.3941188800
20
112.6507370886
30
0.0000000000
11
339.4651065702
21
112.5257361349
31
0.0000000000
11
339.4377999139
21
112.5883603630
31
0.0000000000
11
339.3941188800
21
112.6507370886
31
0.0000000000
0
SPLINE
5
341
100
AcDbEntity
8
0
100
AcDbSpline
62
7
6
CONTINUOUS
70
0
71
3
72
10
73
6
74
4
42
0.0000001000
43
0.0000001000
44
0.0000000001
40
0.0000000000
40
0.0000000000
40
0.0000000000
40
0.0000000000
40
0.3628857363
40
0.6938906328
40
1.0000000000
40
1.0000000000
40
1.0000000000
40
1.0000000000
10
317.2947780748
20
235.4007361349
30
0.0000000000
10
318.1358881441
20
234.8275032998
30
0.0000000000
10
319.8024162660
20
233.8130856070
30
0.0000000000
10
322.3495954975
20
232.6260740359
30
0.0000000000
10
324.0478463956
20
232.0555680866
30
0.0000000000
10
324.8762044013
20
231.8296332127
30
0.0000000000
11
317.2947780748
21
235.4007361349
31
0.0000000000
11
319.9065909204
21
233.8186514510
31
0.0000000000
11
322.4333626018
21
232.6466619263
31
0.0000000000
11
324.8762044013
21
231.8296332127
31
0.0000000000
0
SPLINE
5
342
100
AcDbEntity
8
0
100
AcDbSpline
62
7
6
CONTINUOUS
70
0
71
3
72
10
73
6
74
4
42
0.0000001000
43
0.0000001000
44
0.0000000001
40
0.0000000000
40
0.0000000000
40
0.0000000000
40
0.0000000000
40
0.3060941152
40
0.6370937309
40
1.0000000000
40
1.0000000000
40
1.0000000000
40
1.0000000000
10
336.0762044013
20
231.8296332127
30
0.0000000000
10
336.9045211320
20
232.0555568288
30
0.0000000000
10
338.6027185288
20
232.6260393442
30
0.0000000000
10
341.1499048298
20
233.8130354046
30
0.0000000000
10
342.8164730688
20
234.8274708665
30
0.0000000000
10
343.6576307278
20
235.4007361349
30
0.0000000000
11
336.0762044013
21
231.8296332127
31
0.0000000000
11
338.5189267274
21
232.6466144963
31
0.0000000000
11
341.0456651126
21
233.8185701819
31
0.0000000000
11
343.6576307278
21
235.4007361349
31
0.0000000000
0
ENDSEC
0
SECTION
2
OBJECTS
0
DICTIONARY
5
343
100
AcDbDictionary
3
ACAD_GROUP
350
344
3
ACAD_MLINESTYLE
350
345
0
DICTIONARY
5
344
102
{ACAD_REACTORS
330
343
102
}
100
AcDbDictionary
0
DICTIONARY
5
345
102
{ACAD_REACTORS
330
343
102
}
100
AcDbDictionary
3
STANDARD
350
346
0
MLINESTYLE
5
346
102
{ACAD_REACTORS
330
345
102
}
100
AcDbMlineStyle
2
STANDARD
70
0
3

62
256
51
90.0
52
90.0
71
2
49
0.5
62
256
6
BYLAYER
49
-0.5
62
256
6
BYLAYER
0
ENDSEC
0
EOF
