999
DXF file: VIP-CCS-22_7912225_m36329-p-01.dxf
999
Pro/ENGINEER 2022162 by Parametric Technology Corporation
  0
SECTION
  2
HEADER
  9
$ACADVER
  1
AC1021
  9
$DWGCODEPAGE
  3
ANSI_1252
  9
$EXTMAX
 10
594.0
 20
420.0
 30
0.0
  9
$EXTMIN
 10
0.0
 20
0.0
 30
0.0
  9
$LIMMIN
 10
0.0
 20
0.0
  9
$LIMMAX
 10
594.0
 20
420.0
  9
$VIEWCTR
 10
297.0
 20
210.0
  9
$VIEWSIZE
 40
420.0
  9
$CLAYER
  8
0
  9
$LTSCALE
 40
32.67
  9
$CELTYPE
  6
BYLAYER
  9
$DIMSCALE
 40
1.0
  9
$DIMASZ
 40
3.5
  9
$DIMEXO
 40
0.0
  9
$DIMDLI
 40
22.572
  9
$DIMEXE
 40
1.5
  9
$DIMCEN
 40
5.346
  9
$DIMLFAC
 40
1.0
  9
$DIMBLK
  1
_FILLED
  9
$DIMALT
 70
0
  9
$DIMALTF
 40
0.0393700787
  9
$DIMTXT
 40
3.5
  9
$DIMTOL
 70
1
  9
$DIMLIM
 70
0
  9
$DIMTFAC
 40
1.0
  9
$DIMTP
 40
0.01
  9
$DIMTM
 40
0.01
  9
$DIMGAP
 40
0.625
  9
$DIMDSEP
 70
46
  9
$AUNITS
 70
0
  9
$PDMODE
 70
3
  9
$PDSIZE
 40
0.3125
  9
$HANDSEED
  5
598
  9
$TILEMODE
 70
1
  9
$MEASUREMENT
 70
1
  9
$INSUNITS
 70
4
  0
ENDSEC
  0
SECTION
  2
CLASSES
  0
CLASS
  1
ACDBDICTIONARYWDFLT
  2
AcDbDictionaryWithDefault
  3
AutoCAD 2000
 90
0
 91
1
280
0
281
0
  0
CLASS
  1
ACDBPLACEHOLDER
  2
AcDbPlaceHolder
  3
AutoCAD 2000
 90
0
 91
1
280
0
281
0
  0
CLASS
  1
LAYOUT
  2
AcDbLayout
  3
AutoCAD 2000
 90
0
 91
0
280
0
281
0
  0
ENDSEC
  0
SECTION
  2
TABLES
  0
TABLE
  2
VPORT
  5
8
100
AcDbSymbolTable
 70
2
  0
VPORT
  5
1F4
100
AcDbSymbolTableRecord
100
AcDbViewportTableRecord
  2
*ACTIVE
 70
0
 10
0.0
 20
0.0
 11
1.0
 21
1.0
 12
297.0
 22
210.0
 13
0.0
 23
0.0
 14
1.0
 24
1.0
 15
0.0
 25
0.0
 16
0.0
 26
0.0
 36
1.0
 17
0.0
 27
0.0
 37
0.0
 40
420.0
 41
1.4142857143
 42
50.0
 43
0.0
 44
0.0
 50
0.0
 51
0.0
 71
0
 72
100
 73
1
 74
1
 75
0
 76
0
 77
0
 78
0
  0
ENDTAB
  0
TABLE
  2
LTYPE
  5
5
100
AcDbSymbolTable
 70
6
  0
LTYPE
  5
14
100
AcDbSymbolTableRecord
100
AcDbLinetypeTableRecord
  2
BYBLOCK
 70
0
  3

 72
65
 73
0
 40
0.0
  0
LTYPE
  5
15
100
AcDbSymbolTableRecord
100
AcDbLinetypeTableRecord
  2
BYLAYER
 70
0
  3

 72
65
 73
0
 40
0.0
  0
LTYPE
  5
16
100
AcDbSymbolTableRecord
100
AcDbLinetypeTableRecord
  2
CONTINUOUS
 70
64
  3
Solid line
 72
65
 73
0
 40
0.0
  0
LTYPE
  5
1F5
100
AcDbSymbolTableRecord
100
AcDbLinetypeTableRecord
  2
CENTER
 70
64
  3
____ _ ____ _ ____ _ ____ _ ____ _ ____ _ ____
 72
65
 73
4
 40
0.6
 49
0.375
 74
0
 49
-0.075
 74
0
 49
0.075
 74
0
 49
-0.075
 74
0
  0
LTYPE
  5
1F6
100
AcDbSymbolTableRecord
100
AcDbLinetypeTableRecord
  2
HIDDEN
 70
64
  3
- - - - - - - - - - - - - - - - - - - -
 72
65
 73
2
 40
0.2
 49
0.1
 74
0
 49
-0.1
 74
0
  0
LTYPE
  5
1F7
100
AcDbSymbolTableRecord
100
AcDbLinetypeTableRecord
  2
PHANTOM
 70
64
  3
_____ _ _ _____ _ _ _____ _ _ _____
 72
65
 73
6
 40
0.8
 49
0.45
 74
0
 49
-0.05
 74
0
 49
0.1
 74
0
 49
-0.05
 74
0
 49
0.1
 74
0
 49
-0.05
 74
0
  0
LTYPE
  5
1F8
100
AcDbSymbolTableRecord
100
AcDbLinetypeTableRecord
  2
DOT
 70
64
  3
. . . . . . . . . . . . . . . . . . . .
 72
65
 73
2
 40
0.2
 49
0.1
 74
0
 49
-0.1
 74
0
  0
LTYPE
  5
1F9
100
AcDbSymbolTableRecord
100
AcDbLinetypeTableRecord
  2
DASHED
 70
64
  3
- - - - - - - - - - - - - - - - - - - -
 72
65
 73
2
 40
0.2
 49
0.1
 74
0
 49
-0.1
 74
0
  0
ENDTAB
  0
TABLE
  2
LAYER
  5
2
100
AcDbSymbolTable
 70
36
  0
LAYER
  5
10
100
AcDbSymbolTableRecord
100
AcDbLayerTableRecord
  2
0
 70
0
 62
7
  6
CONTINUOUS
370
-3
390
F
  0
LAYER
  5
1FA
100
AcDbSymbolTableRecord
100
AcDbLayerTableRecord
  2
DEFAULT_1
 70
0
 62
7
  6
CENTER
370
-3
390
F
  0
LAYER
  5
1FB
100
AcDbSymbolTableRecord
100
AcDbLayerTableRecord
  2
DEFAULT_2
 70
0
 62
8
  6
HIDDEN
370
-3
390
F
  0
LAYER
  5
1FC
100
AcDbSymbolTableRecord
100
AcDbLayerTableRecord
  2
DEFAULT_3
 70
0
 62
7
  6
PHANTOM
370
-3
390
F
  0
LAYER
  5
1FD
100
AcDbSymbolTableRecord
100
AcDbLayerTableRecord
  2
AUSFORMSCHRAEGEN
 70
0
 62
7
  6
CONTINUOUS
370
-3
390
F
  0
LAYER
  5
1FE
100
AcDbSymbolTableRecord
100
AcDbLayerTableRecord
  2
BEZUGSACHSEN
 70
0
 62
7
  6
CONTINUOUS
370
-3
390
F
  0
LAYER
  5
1FF
100
AcDbSymbolTableRecord
100
AcDbLayerTableRecord
  2
BEZUGSEBENEN
 70
0
 62
7
  6
CONTINUOUS
370
-3
390
F
  0
LAYER
  5
200
100
AcDbSymbolTableRecord
100
AcDbLayerTableRecord
  2
BOHRUNGEN
 70
0
 62
7
  6
CONTINUOUS
370
-3
390
F
  0
LAYER
  5
201
100
AcDbSymbolTableRecord
100
AcDbLayerTableRecord
  2
FASEN
 70
0
 62
7
  6
CONTINUOUS
370
-3
390
F
  0
LAYER
  5
202
100
AcDbSymbolTableRecord
100
AcDbLayerTableRecord
  2
GEWINDE
 70
0
 62
7
  6
CONTINUOUS
370
-3
390
F
  0
LAYER
  5
203
100
AcDbSymbolTableRecord
100
AcDbLayerTableRecord
  2
HILFEN
 70
0
 62
7
  6
CONTINUOUS
370
-3
390
F
  0
LAYER
  5
204
100
AcDbSymbolTableRecord
100
AcDbLayerTableRecord
  2
KONSTRUKTIONSELEMENTE
 70
0
 62
7
  6
CONTINUOUS
370
-3
390
F
  0
LAYER
  5
205
100
AcDbSymbolTableRecord
100
AcDbLayerTableRecord
  2
KURVEN
 70
0
 62
7
  6
CONTINUOUS
370
-3
390
F
  0
LAYER
  5
206
100
AcDbSymbolTableRecord
100
AcDbLayerTableRecord
  2
PLATZIERUNG
 70
0
 62
7
  6
CONTINUOUS
370
-3
390
F
  0
LAYER
  5
207
100
AcDbSymbolTableRecord
100
AcDbLayerTableRecord
  2
PLAZIERUNG
 70
0
 62
7
  6
CONTINUOUS
370
-3
390
F
  0
LAYER
  5
208
100
AcDbSymbolTableRecord
100
AcDbLayerTableRecord
  2
RUNDUNGEN
 70
0
 62
7
  6
CONTINUOUS
370
-3
390
F
  0
LAYER
  5
209
100
AcDbSymbolTableRecord
100
AcDbLayerTableRecord
  2
TEIL_STARTBEZUEGE
 70
0
 62
7
  6
CONTINUOUS
370
-3
390
F
  0
LAYER
  5
20A
100
AcDbSymbolTableRecord
100
AcDbLayerTableRecord
  2
T_STARTBEZUEGE
 70
0
 62
7
  6
CONTINUOUS
370
-3
390
F
  0
LAYER
  5
20B
100
AcDbSymbolTableRecord
100
AcDbLayerTableRecord
  2
_00_ASM_START_FEATURES
 70
0
 62
7
  6
CONTINUOUS
370
-3
390
F
  0
LAYER
  5
20C
100
AcDbSymbolTableRecord
100
AcDbLayerTableRecord
  2
_00_HILFEN
 70
0
 62
7
  6
CONTINUOUS
370
-3
390
F
  0
LAYER
  5
20D
100
AcDbSymbolTableRecord
100
AcDbLayerTableRecord
  2
_00_PLATZIERUNG
 70
0
 62
7
  6
CONTINUOUS
370
-3
390
F
  0
LAYER
  5
20E
100
AcDbSymbolTableRecord
100
AcDbLayerTableRecord
  2
_03_2D_ZEICHNUNG_BEMASSUNGEN
 70
0
 62
7
  6
CONTINUOUS
370
-3
390
F
  0
LAYER
  5
20F
100
AcDbSymbolTableRecord
100
AcDbLayerTableRecord
  2
_04_NOTIZEN
 70
0
 62
7
  6
CONTINUOUS
370
-3
390
F
  0
LAYER
  5
210
100
AcDbSymbolTableRecord
100
AcDbLayerTableRecord
  2
_21_KURVEN
 70
0
 62
7
  6
CONTINUOUS
370
-3
390
F
  0
LAYER
  5
211
100
AcDbSymbolTableRecord
100
AcDbLayerTableRecord
  2
_26_BEZUGSACHSEN
 70
0
 62
7
  6
CONTINUOUS
370
-3
390
F
  0
LAYER
  5
212
100
AcDbSymbolTableRecord
100
AcDbLayerTableRecord
  2
_27_BEZUGSEBENEN
 70
0
 62
7
  6
CONTINUOUS
370
-3
390
F
  0
LAYER
  5
213
100
AcDbSymbolTableRecord
100
AcDbLayerTableRecord
  2
_29_KOORDINATENSYSTEME
 70
0
 62
7
  6
CONTINUOUS
370
-3
390
F
  0
LAYER
  5
214
100
AcDbSymbolTableRecord
100
AcDbLayerTableRecord
  2
_30_VOLUMEN
 70
0
 62
7
  6
CONTINUOUS
370
-3
390
F
  0
ENDTAB
  0
TABLE
  2
STYLE
  5
3
100
AcDbSymbolTable
 70
1
  0
STYLE
  5
11
100
AcDbSymbolTableRecord
100
AcDbTextStyleTableRecord
  2
STANDARD
 70
0
 40
0.0
 41
1.0
 50
0.0
 71
0
 42
0.2
  3
isonormlt-regular.ttf
  4

1001
ACAD
1000
Isonorm LT Regular
1071
34
  0
STYLE
  5
215
100
AcDbSymbolTableRecord
100
AcDbTextStyleTableRecord
  2
TEXTSTYLE_1
 70
0
 40
0.0
 41
0.8
 50
0.0
 71
0
 42
0.2
  3
gdt
  4

  0
ENDTAB
  0
TABLE
  2
VIEW
  5
6
100
AcDbSymbolTable
 70
0
  0
ENDTAB
  0
TABLE
  2
UCS
  5
7
100
AcDbSymbolTable
 70
0
  0
ENDTAB
  0
TABLE
  2
APPID
  5
9
100
AcDbSymbolTable
 70
1
  0
APPID
  5
216
100
AcDbSymbolTableRecord
100
AcDbRegAppTableRecord
  2
ACAD
 70
0
  0
ENDTAB
  0
TABLE
  2
BLOCK_RECORD
  5
1
100
AcDbSymbolTable
 70
0
  0
BLOCK_RECORD
  5
217
100
AcDbSymbolTableRecord
100
AcDbBlockTableRecord
  2
*Model_Space
  0
BLOCK_RECORD
  5
218
100
AcDbSymbolTableRecord
100
AcDbBlockTableRecord
  2
*Paper_Space
  0
BLOCK_RECORD
  5
219
100
AcDbSymbolTableRecord
100
AcDbBlockTableRecord
  2
_FILLED
  0
ENDTAB
  0
TABLE
  2
DIMSTYLE
  5
A
100
AcDbSymbolTable
 70
1
100
AcDbDimStyleTable
 71
0
  0
DIMSTYLE
105
21A
100
AcDbSymbolTableRecord
100
AcDbDimStyleTableRecord
  2
STANDARD
 70
0
  3

  4

 40
1.0
 41
3.5
 42
0.0
 43
0.38
 44
1.5
 45
0.0
 46
0.0
 47
0.01
 48
0.01
140
3.5
141
0.09
142
0.0
143
25.4
144
1.0
145
0.0
146
1.0
147
0.625
 71
1
 72
0
 73
0
 74
0
 75
0
 76
0
 77
1
 78
8
 79
2
170
0
171
1
172
0
173
0
174
0
175
0
176
0
177
0
178
5
270
2
179
2
271
2
272
2
273
2
274
2
275
0
280
0
281
0
282
0
283
1
284
8
285
0
286
0
287
3
288
0
340
11
278
46
341
219
342
219
343
219
344
219
  0
ENDTAB
  0
ENDSEC
  0
SECTION
  2
BLOCKS
  0
BLOCK
  5
20
100
AcDbEntity
  8
0
100
AcDbBlockBegin
  2
*Model_Space
 70
0
 10
0.0
 20
0.0
 30
0.0
  3
*Model_Space
  1

  0
ENDBLK
  5
21
100
AcDbEntity
  8
0
100
AcDbBlockEnd
  0
BLOCK
  5
1C
100
AcDbEntity
  8
0
100
AcDbBlockBegin
  2
*Paper_Space
 70
0
 10
0.0
 20
0.0
 30
0.0
  3
*Paper_Space
  1

  0
ENDBLK
  5
1D
100
AcDbEntity
  8
0
100
AcDbBlockEnd
  0
BLOCK
  5
21B
100
AcDbEntity
  8
0
100
AcDbBlockBegin
  2
_FILLED
 70
64
 10
0.0
 20
0.0
  3
_FILLED
  1

  0
SOLID
  5
21C
100
AcDbEntity
  8
0
  6
BYBLOCK
 62
0
100
AcDbTrace
 10
0.0
 20
0.0
 11
-1.0
 21
0.125
 12
-1.0
 22
-0.125
 13
-1.0
 23
-0.125
  0
ENDBLK
  5
21D
100
AcDbEntity
  8
0
  6
BYBLOCK
 62
0
100
AcDbBlockEnd
  0
ENDSEC
  0
SECTION
  2
ENTITIES
  0
MTEXT
  5
21E
100
AcDbEntity
  8
_04_NOTIZEN
100
AcDbMText
 62
5
  6
CONTINUOUS
  7
STANDARD
 71
1
 72
1
 10
132.0611669492
 20
223.6004293366
 30
0.0
 11
0.0
 21
1.0
 31
0.0
 73
2
 44
0.9
  1
RUD
 40
9.0
 41
22.464
  0
MTEXT
  5
21F
100
AcDbEntity
  8
_04_NOTIZEN
100
AcDbMText
 62
5
  6
CONTINUOUS
  7
STANDARD
 71
1
 72
1
 10
221.9553971484
 20
225.8323561884
 30
0.0
 11
1.0
 21
0.0
 31
0.0
 73
2
 44
0.9
  1
VIP
 40
9.0
 41
17.568
  0
MTEXT
  5
220
100
AcDbEntity
  8
_04_NOTIZEN
100
AcDbMText
 62
5
  6
CONTINUOUS
  7
STANDARD
 71
1
 72
1
 10
376.2279695668
 20
245.1080550745
 30
0.0
 11
0.0
 21
1.0
 31
0.0
 73
2
 44
0.9
  1
VIP CCS
 40
9.0
 41
37.728
  0
MTEXT
  5
221
100
AcDbEntity
  8
_04_NOTIZEN
100
AcDbMText
 62
5
  6
CONTINUOUS
  7
STANDARD
 71
1
 72
1
 10
137.2438071317
 20
85.5466018237
 30
0.0
 11
1.0
 21
0.0
 31
0.0
 73
2
 44
0.9
  1
RUD VIP CCS 22
 40
9.0
 41
77.472
  0
LINE
  5
222
100
AcDbEntity
  8
0
100
AcDbLine
 62
7
  6
CONTINUOUS
 10
0.0
 20
0.0
 11
0.0
 21
420.0
  0
LINE
  5
223
100
AcDbEntity
  8
0
100
AcDbLine
 62
7
  6
CONTINUOUS
 10
0.0
 20
0.0
 11
594.0
 21
0.0
  0
LINE
  5
224
100
AcDbEntity
  8
0
100
AcDbLine
 62
7
  6
CONTINUOUS
 10
0.0
 20
420.0
 11
594.0
 21
420.0
  0
LINE
  5
225
100
AcDbEntity
  8
0
100
AcDbLine
 62
7
  6
CONTINUOUS
 10
594.0
 20
0.0
 11
594.0
 21
420.0
  0
LINE
  5
226
100
AcDbEntity
  8
FASEN
100
AcDbLine
 62
7
  6
CONTINUOUS
 10
97.8231707316
 20
171.1829268585
 11
98.8231707316
 21
170.1829268585
  0
LINE
  5
227
100
AcDbEntity
  8
0
100
AcDbLine
 62
7
  6
CONTINUOUS
 10
249.7231707317
 20
160.1829268585
 11
208.8231707317
 21
160.1829268585
  0
LINE
  5
228
100
AcDbEntity
  8
0
100
AcDbLine
 62
7
  6
CONTINUOUS
 10
147.8231707317
 20
160.1829268585
 11
125.8231707317
 21
160.1829268585
  0
LINE
  5
229
100
AcDbEntity
  8
BEZUGSACHSEN
100
AcDbLine
 62
7
  6
CONTINUOUS
 10
119.8231707317
 20
169.1829268585
 11
117.8231707317
 21
169.1829268585
  0
LINE
  5
22A
100
AcDbEntity
  8
FASEN
100
AcDbLine
 62
7
  6
CONTINUOUS
 10
116.8231707317
 20
170.1829268585
 11
98.8231707317
 21
170.1829268585
  0
LINE
  5
22B
100
AcDbEntity
  8
_30_VOLUMEN
100
AcDbLine
 62
7
  6
CONTINUOUS
 10
249.7231707317
 20
176.1829268585
 11
250.2231707317
 21
176.1829268585
  0
LINE
  5
22C
100
AcDbEntity
  8
0
100
AcDbLine
 62
7
  6
CONTINUOUS
 10
204.8231707317
 20
180.1829268585
 11
151.8231707317
 21
180.1829268585
  0
LINE
  5
22D
100
AcDbEntity
  8
FASEN
100
AcDbLine
 62
7
  6
CONTINUOUS
 10
97.8231707317
 20
171.1829268585
 11
97.8231707317
 21
225.1829268585
  0
LINE
  5
22E
100
AcDbEntity
  8
FASEN
100
AcDbLine
 62
7
  6
CONTINUOUS
 10
98.8231707317
 20
170.1829268585
 11
98.8231707317
 21
226.1829268585
  0
LINE
  5
22F
100
AcDbEntity
  8
0
100
AcDbLine
 62
7
  6
CONTINUOUS
 10
256.0857836344
 20
181.6829268585
 11
250.9231707317
 21
181.6829268585
  0
LINE
  5
230
100
AcDbEntity
  8
0
100
AcDbLine
 62
7
  6
CONTINUOUS
 10
250.9231707317
 20
186.1829268585
 11
250.2231707317
 21
186.1829268585
  0
LINE
  5
231
100
AcDbEntity
  8
0
100
AcDbLine
 62
7
  6
CONTINUOUS
 10
221.8231707317
 20
196.5162601918
 11
232.8231707317
 21
196.5162601918
  0
LINE
  5
232
100
AcDbEntity
  8
0
100
AcDbLine
 62
7
  6
CONTINUOUS
 10
221.8231707317
 20
199.8495935251
 11
232.8231707317
 21
199.8495935251
  0
LINE
  5
233
100
AcDbEntity
  8
FASEN
100
AcDbLine
 62
7
  6
CONTINUOUS
 10
116.8231707318
 20
226.1829268584
 11
117.8231707318
 21
225.1829268584
  0
LINE
  5
234
100
AcDbEntity
  8
FASEN
100
AcDbLine
 62
7
  6
CONTINUOUS
 10
116.8231707317
 20
170.1829268585
 11
116.8231707317
 21
226.1829268585
  0
LINE
  5
235
100
AcDbEntity
  8
BEZUGSACHSEN
100
AcDbLine
 62
7
  6
CONTINUOUS
 10
117.8231707317
 20
227.1829268585
 11
117.8231707317
 21
169.1829268585
  0
LINE
  5
236
100
AcDbEntity
  8
BEZUGSACHSEN
100
AcDbLine
 62
7
  6
CONTINUOUS
 10
121.8231707317
 20
164.1829268585
 11
121.8231707317
 21
226.2118241169
  0
LINE
  5
237
100
AcDbEntity
  8
RUNDUNGEN
100
AcDbLine
 62
7
  6
CONTINUOUS
 10
121.8231707317
 20
164.2285928765
 11
121.8231707317
 21
278.6829268585
  0
LINE
  5
238
100
AcDbEntity
  8
0
100
AcDbLine
 62
7
  6
CONTINUOUS
 10
250.9231707317
 20
210.1829268585
 11
250.2231707317
 21
210.1829268585
  0
LINE
  5
239
100
AcDbEntity
  8
0
100
AcDbLine
 62
7
  6
CONTINUOUS
 10
256.0857836344
 20
214.6829268585
 11
250.9231707317
 21
214.6829268585
  0
LINE
  5
23A
100
AcDbEntity
  8
0
100
AcDbLine
 62
7
  6
CONTINUOUS
 10
204.8231707317
 20
216.1829268585
 11
151.8231707317
 21
216.1829268585
  0
LINE
  5
23B
100
AcDbEntity
  8
0
100
AcDbLine
 62
7
  6
CONTINUOUS
 10
132.3146600706
 20
251.1954269032
 11
132.6976387483
 21
250.4454268138
  0
LINE
  5
23C
100
AcDbEntity
  8
0
100
AcDbLine
 62
7
  6
CONTINUOUS
 10
132.1231707317
 20
270.6954261432
 11
132.1231707317
 21
269.7579275737
  0
LINE
  5
23D
100
AcDbEntity
  8
0
100
AcDbLine
 62
7
  6
CONTINUOUS
 10
132.1231707317
 20
262.6329268585
 11
132.1231707317
 21
260.9454268585
  0
LINE
  5
23E
100
AcDbEntity
  8
0
100
AcDbLine
 62
7
  6
CONTINUOUS
 10
132.1231707317
 20
253.8204266797
 11
132.1231707317
 21
252.1329269479
  0
LINE
  5
23F
100
AcDbEntity
  8
0
100
AcDbLine
 62
7
  6
CONTINUOUS
 10
133.272106765
 20
252.1329269479
 11
133.272106765
 21
253.8204266797
  0
LINE
  5
240
100
AcDbEntity
  8
0
100
AcDbLine
 62
7
  6
CONTINUOUS
 10
133.272106765
 20
260.9454268585
 11
133.272106765
 21
262.6329268585
  0
LINE
  5
241
100
AcDbEntity
  8
0
100
AcDbLine
 62
7
  6
CONTINUOUS
 10
133.272106765
 20
269.7579275737
 11
133.272106765
 21
270.8829275737
  0
LINE
  5
242
100
AcDbEntity
  8
0
100
AcDbLine
 62
7
  6
CONTINUOUS
 10
134.2295534593
 20
272.0079275737
 11
134.2295534593
 21
273.1329275737
  0
LINE
  5
243
100
AcDbEntity
  8
0
100
AcDbLine
 62
7
  6
CONTINUOUS
 10
134.4210433346
 20
255.3204268585
 11
134.4210433346
 21
256.4454268585
  0
LINE
  5
244
100
AcDbEntity
  8
0
100
AcDbLine
 62
7
  6
CONTINUOUS
 10
134.4210433346
 20
264.1329265009
 11
134.4210433346
 21
265.2579265009
  0
LINE
  5
245
100
AcDbEntity
  8
0
100
AcDbLine
 62
7
  6
CONTINUOUS
 10
135.9529580456
 20
270.8829275737
 11
135.9529580456
 21
269.7579275737
  0
LINE
  5
246
100
AcDbEntity
  8
0
100
AcDbLine
 62
7
  6
CONTINUOUS
 10
137.1018940789
 20
269.7579275737
 11
137.1018940789
 21
270.8829275737
  0
LINE
  5
247
100
AcDbEntity
  8
0
100
AcDbLine
 62
7
  6
CONTINUOUS
 10
132.3146600706
 20
271.6329268585
 11
132.1231707317
 21
270.6954261432
  0
LINE
  5
248
100
AcDbEntity
  8
0
100
AcDbLine
 62
7
  6
CONTINUOUS
 10
132.3146600706
 20
263.5704265009
 11
132.1231707317
 21
262.6329268585
  0
LINE
  5
249
100
AcDbEntity
  8
_30_VOLUMEN
100
AcDbLine
 62
7
  6
CONTINUOUS
 10
250.8231707317
 20
220.5944695904
 11
256.0231707317
 21
220.5944695904
  0
LINE
  5
24A
100
AcDbEntity
  8
FASEN
100
AcDbLine
 62
7
  6
CONTINUOUS
 10
116.8231707317
 20
226.1829268585
 11
98.8231707317
 21
226.1829268585
  0
LINE
  5
24B
100
AcDbEntity
  8
BEZUGSACHSEN
100
AcDbLine
 62
7
  6
CONTINUOUS
 10
119.8231707317
 20
227.1829268585
 11
117.8231707317
 21
227.1829268585
  0
LINE
  5
24C
100
AcDbEntity
  8
_30_VOLUMEN
100
AcDbLine
 62
7
  6
CONTINUOUS
 10
250.8231707317
 20
228.3886982244
 11
256.0231707317
 21
228.3886982244
  0
LINE
  5
24D
100
AcDbEntity
  8
0
100
AcDbLine
 62
7
  6
CONTINUOUS
 10
134.4210433346
 20
250.4454268138
 11
133.8465747816
 21
250.8204268585
  0
LINE
  5
24E
100
AcDbEntity
  8
0
100
AcDbLine
 62
7
  6
CONTINUOUS
 10
132.6976387483
 20
250.4454268138
 11
133.4635961038
 21
249.6954268585
  0
LINE
  5
24F
100
AcDbEntity
  8
0
100
AcDbLine
 62
7
  6
CONTINUOUS
 10
132.6976387483
 20
259.2579268585
 11
133.4635961038
 21
258.5079265009
  0
LINE
  5
250
100
AcDbEntity
  8
0
100
AcDbLine
 62
7
  6
CONTINUOUS
 10
133.8465747816
 20
250.8204268585
 11
133.4635961038
 21
251.3829268585
  0
LINE
  5
251
100
AcDbEntity
  8
0
100
AcDbLine
 62
7
  6
CONTINUOUS
 10
133.8465747816
 20
259.6329265009
 11
133.4635961038
 21
260.1954265009
  0
LINE
  5
252
100
AcDbEntity
  8
0
100
AcDbLine
 62
7
  6
CONTINUOUS
 10
139.3997664136
 20
255.1329270373
 11
139.7827452255
 21
254.5704270373
  0
LINE
  5
253
100
AcDbEntity
  8
0
100
AcDbLine
 62
7
  6
CONTINUOUS
 10
132.3146600706
 20
260.0079272161
 11
132.6976387483
 21
259.2579268585
  0
LINE
  5
254
100
AcDbEntity
  8
0
100
AcDbLine
 62
7
  6
CONTINUOUS
 10
132.3146600706
 20
269.0079261432
 11
132.6976387483
 21
268.2579268585
  0
LINE
  5
255
100
AcDbEntity
  8
0
100
AcDbLine
 62
7
  6
CONTINUOUS
 10
140.9316813761
 20
254.7579268585
 11
140.548702648
 21
255.5079266797
  0
LINE
  5
256
100
AcDbEntity
  8
0
100
AcDbLine
 62
7
  6
CONTINUOUS
 10
133.4635961038
 20
269.1954275737
 11
133.272106765
 21
269.7579275737
  0
LINE
  5
257
100
AcDbEntity
  8
0
100
AcDbLine
 62
7
  6
CONTINUOUS
 10
133.4635961038
 20
251.3829268585
 11
133.272106765
 21
252.1329269479
  0
LINE
  5
258
100
AcDbEntity
  8
0
100
AcDbLine
 62
7
  6
CONTINUOUS
 10
133.4635961038
 20
260.1954265009
 11
133.272106765
 21
260.9454268585
  0
LINE
  5
259
100
AcDbEntity
  8
0
100
AcDbLine
 62
7
  6
CONTINUOUS
 10
132.1231707317
 20
269.7579275737
 11
132.3146600706
 21
269.0079261432
  0
LINE
  5
25A
100
AcDbEntity
  8
0
100
AcDbLine
 62
7
  6
CONTINUOUS
 10
139.7827452255
 20
254.5704270373
 11
139.9742345643
 21
253.8204266797
  0
LINE
  5
25B
100
AcDbEntity
  8
0
100
AcDbLine
 62
7
  6
CONTINUOUS
 10
132.1231707317
 20
252.1329269479
 11
132.3146600706
 21
251.1954269032
  0
LINE
  5
25C
100
AcDbEntity
  8
0
100
AcDbLine
 62
7
  6
CONTINUOUS
 10
132.1231707317
 20
260.9454268585
 11
132.3146600706
 21
260.0079272161
  0
LINE
  5
25D
100
AcDbEntity
  8
0
100
AcDbLine
 62
7
  6
CONTINUOUS
 10
138.6338090581
 20
267.8829261432
 11
138.6338090581
 21
266.7579272161
  0
LINE
  5
25E
100
AcDbEntity
  8
0
100
AcDbLine
 62
7
  6
CONTINUOUS
 10
138.825298397
 20
265.2579265009
 11
138.825298397
 21
264.1329265009
  0
LINE
  5
25F
100
AcDbEntity
  8
0
100
AcDbLine
 62
7
  6
CONTINUOUS
 10
138.825298397
 20
256.4454268585
 11
138.825298397
 21
255.3204268585
  0
LINE
  5
260
100
AcDbEntity
  8
0
100
AcDbLine
 62
7
  6
CONTINUOUS
 10
139.9742345643
 20
270.8829275737
 11
139.9742345643
 21
269.3829268585
  0
LINE
  5
261
100
AcDbEntity
  8
0
100
AcDbLine
 62
7
  6
CONTINUOUS
 10
139.9742345643
 20
262.6329268585
 11
139.9742345643
 21
260.9454268585
  0
LINE
  5
262
100
AcDbEntity
  8
0
100
AcDbLine
 62
7
  6
CONTINUOUS
 10
139.9742345643
 20
253.8204266797
 11
139.9742345643
 21
252.1329269479
  0
LINE
  5
263
100
AcDbEntity
  8
0
100
AcDbLine
 62
7
  6
CONTINUOUS
 10
141.1231707317
 20
252.1329269479
 11
141.1231707317
 21
253.8204266797
  0
LINE
  5
264
100
AcDbEntity
  8
0
100
AcDbLine
 62
7
  6
CONTINUOUS
 10
141.1231707317
 20
260.9454268585
 11
141.1231707317
 21
262.6329268585
  0
LINE
  5
265
100
AcDbEntity
  8
0
100
AcDbLine
 62
7
  6
CONTINUOUS
 10
141.1231707317
 20
269.3829268585
 11
141.1231707317
 21
270.8829275737
  0
LINE
  5
266
100
AcDbEntity
  8
RUNDUNGEN
100
AcDbLine
 62
7
  6
CONTINUOUS
 10
146.0731707317
 20
299.723941877
 11
146.0731707317
 21
358.4329268585
  0
LINE
  5
267
100
AcDbEntity
  8
0
100
AcDbLine
 62
7
  6
CONTINUOUS
 10
132.3146600706
 20
254.7579268585
 11
132.1231707317
 21
253.8204266797
  0
LINE
  5
268
100
AcDbEntity
  8
0
100
AcDbLine
 62
7
  6
CONTINUOUS
 10
136.1444473845
 20
271.8204261432
 11
135.9529580456
 21
270.8829275737
  0
LINE
  5
269
100
AcDbEntity
  8
0
100
AcDbLine
 62
7
  6
CONTINUOUS
 10
140.9316813761
 20
268.4454261432
 11
141.1231707317
 21
269.3829268585
  0
LINE
  5
26A
100
AcDbEntity
  8
0
100
AcDbLine
 62
7
  6
CONTINUOUS
 10
140.9316813761
 20
260.0079272161
 11
141.1231707317
 21
260.9454268585
  0
LINE
  5
26B
100
AcDbEntity
  8
0
100
AcDbLine
 62
7
  6
CONTINUOUS
 10
140.9316813761
 20
251.1954269032
 11
141.1231707317
 21
252.1329269479
  0
LINE
  5
26C
100
AcDbEntity
  8
0
100
AcDbLine
 62
7
  6
CONTINUOUS
 10
133.272106765
 20
262.6329268585
 11
133.4635961038
 21
263.3829272161
  0
LINE
  5
26D
100
AcDbEntity
  8
0
100
AcDbLine
 62
7
  6
CONTINUOUS
 10
137.1018940789
 20
270.8829275737
 11
137.2933834178
 21
271.6329268585
  0
LINE
  5
26E
100
AcDbEntity
  8
0
100
AcDbLine
 62
7
  6
CONTINUOUS
 10
136.91040474
 20
269.0079261432
 11
137.1018940789
 21
269.7579275737
  0
LINE
  5
26F
100
AcDbEntity
  8
0
100
AcDbLine
 62
7
  6
CONTINUOUS
 10
133.272106765
 20
253.8204266797
 11
133.4635961038
 21
254.5704270373
  0
LINE
  5
270
100
AcDbEntity
  8
0
100
AcDbLine
 62
7
  6
CONTINUOUS
 10
139.9742345643
 20
269.3829268585
 11
139.7827452255
 21
268.6329275737
  0
LINE
  5
271
100
AcDbEntity
  8
0
100
AcDbLine
 62
7
  6
CONTINUOUS
 10
139.9742345643
 20
260.9454268585
 11
139.7827452255
 21
260.1954265009
  0
LINE
  5
272
100
AcDbEntity
  8
0
100
AcDbLine
 62
7
  6
CONTINUOUS
 10
133.272106765
 20
270.8829275737
 11
133.4635961038
 21
271.4454275737
  0
LINE
  5
273
100
AcDbEntity
  8
0
100
AcDbLine
 62
7
  6
CONTINUOUS
 10
135.9529580456
 20
269.7579275737
 11
135.7614687068
 21
269.1954275737
  0
LINE
  5
274
100
AcDbEntity
  8
0
100
AcDbLine
 62
7
  6
CONTINUOUS
 10
136.5274260623
 20
272.5704275737
 11
136.1444473845
 21
271.8204261432
  0
LINE
  5
275
100
AcDbEntity
  8
0
100
AcDbLine
 62
7
  6
CONTINUOUS
 10
132.6976387483
 20
264.3204268585
 11
132.3146600706
 21
263.5704265009
  0
LINE
  5
276
100
AcDbEntity
  8
0
100
AcDbLine
 62
7
  6
CONTINUOUS
 10
136.5274260623
 20
268.2579268585
 11
136.91040474
 21
269.0079261432
  0
LINE
  5
277
100
AcDbEntity
  8
0
100
AcDbLine
 62
7
  6
CONTINUOUS
 10
132.8891280872
 20
272.3829261432
 11
132.3146600706
 21
271.6329268585
  0
LINE
  5
278
100
AcDbEntity
  8
0
100
AcDbLine
 62
7
  6
CONTINUOUS
 10
233.1356710893
 20
242.0339908252
 11
234.0731707317
 21
242.2254801641
  0
LINE
  5
279
100
AcDbEntity
  8
0
100
AcDbLine
 62
7
  6
CONTINUOUS
 10
224.8856707764
 20
242.0339908252
 11
225.8231708211
 21
242.2254801641
  0
LINE
  5
27A
100
AcDbEntity
  8
0
100
AcDbLine
 62
7
  6
CONTINUOUS
 10
234.2606710893
 20
243.1829268585
 11
232.9481707317
 21
242.9914375196
  0
LINE
  5
27B
100
AcDbEntity
  8
0
100
AcDbLine
 62
7
  6
CONTINUOUS
 10
226.0106706423
 20
243.1829268585
 11
224.698170687
 21
242.9914375196
  0
LINE
  5
27C
100
AcDbEntity
  8
_26_BEZUGSACHSEN
100
AcDbLine
 62
7
  6
CONTINUOUS
 10
250.2231707317
 20
229.5829268585
 11
250.8231707317
 21
229.5829268585
  0
LINE
  5
27D
100
AcDbEntity
  8
0
100
AcDbLine
 62
7
  6
CONTINUOUS
 10
222.8231707317
 20
234.1829268585
 11
229.5731707317
 21
234.1829268585
  0
LINE
  5
27E
100
AcDbEntity
  8
0
100
AcDbLine
 62
7
  6
CONTINUOUS
 10
231.0731709105
 20
234.1829268585
 11
237.8231703741
 21
234.1829268585
  0
LINE
  5
27F
100
AcDbEntity
  8
0
100
AcDbLine
 62
7
  6
CONTINUOUS
 10
237.8231703741
 20
235.140373687
 11
232.5731710893
 21
235.140373687
  0
LINE
  5
280
100
AcDbEntity
  8
0
100
AcDbLine
 62
7
  6
CONTINUOUS
 10
229.5731707317
 20
235.140373687
 11
224.3231707764
 21
235.140373687
  0
LINE
  5
281
100
AcDbEntity
  8
0
100
AcDbLine
 62
7
  6
CONTINUOUS
 10
133.4635961038
 20
249.6954268585
 11
134.2295534593
 21
249.3204268641
  0
LINE
  5
282
100
AcDbEntity
  8
0
100
AcDbLine
 62
7
  6
CONTINUOUS
 10
133.4635961038
 20
258.5079265009
 11
134.2295534593
 21
258.1329268585
  0
LINE
  5
283
100
AcDbEntity
  8
0
100
AcDbLine
 62
7
  6
CONTINUOUS
 10
134.4210433346
 20
259.2579268585
 11
133.8465747816
 21
259.6329265009
  0
LINE
  5
284
100
AcDbEntity
  8
0
100
AcDbLine
 62
7
  6
CONTINUOUS
 10
140.548702648
 20
255.5079266797
 11
139.7827452255
 21
256.2579270373
  0
LINE
  5
285
100
AcDbEntity
  8
0
100
AcDbLine
 62
7
  6
CONTINUOUS
 10
132.6976387483
 20
268.2579268585
 11
133.4635961038
 21
267.5079275737
  0
LINE
  5
286
100
AcDbEntity
  8
0
100
AcDbLine
 62
7
  6
CONTINUOUS
 10
140.548702648
 20
264.3204268585
 11
139.7827452255
 21
265.0704272161
  0
LINE
  5
287
100
AcDbEntity
  8
0
100
AcDbLine
 62
7
  6
CONTINUOUS
 10
133.8465747816
 20
268.6329275737
 11
133.4635961038
 21
269.1954275737
  0
LINE
  5
288
100
AcDbEntity
  8
0
100
AcDbLine
 62
7
  6
CONTINUOUS
 10
139.3997664136
 20
263.9454272161
 11
139.7827452255
 21
263.3829272161
  0
LINE
  5
289
100
AcDbEntity
  8
0
100
AcDbLine
 62
7
  6
CONTINUOUS
 10
139.3997664136
 20
272.1954268585
 11
139.7827452255
 21
271.6329268585
  0
LINE
  5
28A
100
AcDbEntity
  8
0
100
AcDbLine
 62
7
  6
CONTINUOUS
 10
140.9316813761
 20
263.5704265009
 11
140.548702648
 21
264.3204268585
  0
LINE
  5
28B
100
AcDbEntity
  8
0
100
AcDbLine
 62
7
  6
CONTINUOUS
 10
140.9316813761
 20
271.8204261432
 11
140.548702648
 21
272.5704275737
  0
LINE
  5
28C
100
AcDbEntity
  8
0
100
AcDbLine
 62
7
  6
CONTINUOUS
 10
139.7827452255
 20
263.3829272161
 11
139.9742345643
 21
262.6329268585
  0
LINE
  5
28D
100
AcDbEntity
  8
0
100
AcDbLine
 62
7
  6
CONTINUOUS
 10
139.7827452255
 20
271.6329268585
 11
139.9742345643
 21
270.8829275737
  0
LINE
  5
28E
100
AcDbEntity
  8
0
100
AcDbLine
 62
7
  6
CONTINUOUS
 10
141.1231707317
 20
253.8204266797
 11
140.9316813761
 21
254.7579268585
  0
LINE
  5
28F
100
AcDbEntity
  8
0
100
AcDbLine
 62
7
  6
CONTINUOUS
 10
141.1231707317
 20
262.6329268585
 11
140.9316813761
 21
263.5704265009
  0
LINE
  5
290
100
AcDbEntity
  8
0
100
AcDbLine
 62
7
  6
CONTINUOUS
 10
141.1231707317
 20
270.8829275737
 11
140.9316813761
 21
271.8204261432
  0
LINE
  5
291
100
AcDbEntity
  8
BEZUGSACHSEN
100
AcDbLine
 62
7
  6
CONTINUOUS
 10
151.8231707317
 20
226.2118241169
 11
151.8231707317
 21
164.1829268585
  0
LINE
  5
292
100
AcDbEntity
  8
RUNDUNGEN
100
AcDbLine
 62
7
  6
CONTINUOUS
 10
151.8231707317
 20
164.2285928765
 11
151.8231707317
 21
278.6829268585
  0
LINE
  5
293
100
AcDbEntity
  8
0
100
AcDbLine
 62
7
  6
CONTINUOUS
 10
139.9742345643
 20
252.1329269479
 11
139.7827452255
 21
251.3829268585
  0
LINE
  5
294
100
AcDbEntity
  8
0
100
AcDbLine
 62
7
  6
CONTINUOUS
 10
132.6976387483
 20
255.5079266797
 11
132.3146600706
 21
254.7579268585
  0
LINE
  5
295
100
AcDbEntity
  8
0
100
AcDbLine
 62
7
  6
CONTINUOUS
 10
140.548702648
 20
259.2579268585
 11
140.9316813761
 21
260.0079272161
  0
LINE
  5
296
100
AcDbEntity
  8
0
100
AcDbLine
 62
7
  6
CONTINUOUS
 10
140.3572133092
 20
267.5079275737
 11
140.9316813761
 21
268.4454261432
  0
LINE
  5
297
100
AcDbEntity
  8
0
100
AcDbLine
 62
7
  6
CONTINUOUS
 10
137.2933834178
 20
271.6329268585
 11
137.6763620955
 21
272.1954268585
  0
LINE
  5
298
100
AcDbEntity
  8
0
100
AcDbLine
 62
7
  6
CONTINUOUS
 10
135.7614687068
 20
269.1954275737
 11
135.378490029
 21
268.6329275737
  0
LINE
  5
299
100
AcDbEntity
  8
0
100
AcDbLine
 62
7
  6
CONTINUOUS
 10
133.4635961038
 20
263.3829272161
 11
133.8465747816
 21
263.9454272161
  0
LINE
  5
29A
100
AcDbEntity
  8
0
100
AcDbLine
 62
7
  6
CONTINUOUS
 10
133.4635961038
 20
254.5704270373
 11
133.8465747816
 21
255.1329270373
  0
LINE
  5
29B
100
AcDbEntity
  8
0
100
AcDbLine
 62
7
  6
CONTINUOUS
 10
139.7827452255
 20
260.1954265009
 11
139.3997664136
 21
259.6329265009
  0
LINE
  5
29C
100
AcDbEntity
  8
0
100
AcDbLine
 62
7
  6
CONTINUOUS
 10
133.4635961038
 20
271.4454275737
 11
133.8465747816
 21
271.8204261432
  0
LINE
  5
29D
100
AcDbEntity
  8
0
100
AcDbLine
 62
7
  6
CONTINUOUS
 10
137.2933834178
 20
273.3204268585
 11
136.5274260623
 21
272.5704275737
  0
LINE
  5
29E
100
AcDbEntity
  8
0
100
AcDbLine
 62
7
  6
CONTINUOUS
 10
135.7614687068
 20
267.5079275737
 11
136.5274260623
 21
268.2579268585
  0
LINE
  5
29F
100
AcDbEntity
  8
0
100
AcDbLine
 62
7
  6
CONTINUOUS
 10
133.4635961038
 20
265.0704272161
 11
132.6976387483
 21
264.3204268585
  0
LINE
  5
2A0
100
AcDbEntity
  8
0
100
AcDbLine
 62
7
  6
CONTINUOUS
 10
133.6550854427
 20
272.9454261432
 11
132.8891280872
 21
272.3829261432
  0
LINE
  5
2A1
100
AcDbEntity
  8
0
100
AcDbLine
 62
7
  6
CONTINUOUS
 10
223.0106707373
 20
241.0765441309
 11
223.9481707317
 21
241.0765441309
  0
LINE
  5
2A2
100
AcDbEntity
  8
0
100
AcDbLine
 62
7
  6
CONTINUOUS
 10
231.2606707317
 20
241.0765441309
 11
232.1981703741
 21
241.0765441309
  0
LINE
  5
2A3
100
AcDbEntity
  8
0
100
AcDbLine
 62
7
  6
CONTINUOUS
 10
225.8231708211
 20
242.2254801641
 11
226.5731706423
 21
242.2254801641
  0
LINE
  5
2A4
100
AcDbEntity
  8
0
100
AcDbLine
 62
7
  6
CONTINUOUS
 10
234.0731707317
 20
242.2254801641
 11
234.8231710893
 21
242.2254801641
  0
LINE
  5
2A5
100
AcDbEntity
  8
_26_BEZUGSACHSEN
100
AcDbLine
 62
7
  6
CONTINUOUS
 10
250.2231707317
 20
242.7829268585
 11
250.8231707317
 21
242.7829268585
  0
LINE
  5
2A6
100
AcDbEntity
  8
0
100
AcDbLine
 62
7
  6
CONTINUOUS
 10
235.0106703741
 20
243.1829268585
 11
234.2606710893
 21
243.1829268585
  0
LINE
  5
2A7
100
AcDbEntity
  8
0
100
AcDbLine
 62
7
  6
CONTINUOUS
 10
226.7606707317
 20
243.1829268585
 11
226.0106706423
 21
243.1829268585
  0
LINE
  5
2A8
100
AcDbEntity
  8
_30_VOLUMEN
100
AcDbLine
 62
7
  6
CONTINUOUS
 10
250.8231707317
 20
243.9771554925
 11
256.0231707317
 21
243.9771554925
  0
LINE
  5
2A9
100
AcDbEntity
  8
0
100
AcDbLine
 62
7
  6
CONTINUOUS
 10
134.2295534593
 20
249.3204268641
 11
135.1870006901
 21
249.1329268585
  0
LINE
  5
2AA
100
AcDbEntity
  8
0
100
AcDbLine
 62
7
  6
CONTINUOUS
 10
135.1870006901
 20
250.2579268585
 11
134.4210433346
 21
250.4454268138
  0
LINE
  5
2AB
100
AcDbEntity
  8
0
100
AcDbLine
 62
7
  6
CONTINUOUS
 10
138.825298397
 20
255.3204268585
 11
139.3997664136
 21
255.1329270373
  0
LINE
  5
2AC
100
AcDbEntity
  8
RUNDUNGEN
100
AcDbLine
 62
7
  6
CONTINUOUS
 10
268.8362009467
 20
210.0421544823
 11
256.0857836344
 21
214.6829268585
  0
LINE
  5
2AD
100
AcDbEntity
  8
0
100
AcDbLine
 62
7
  6
CONTINUOUS
 10
234.0881702017
 20
202.7048021897
 11
240.6447720885
 21
198.6069260105
  0
LINE
  5
2AE
100
AcDbEntity
  8
0
100
AcDbLine
 62
7
  6
CONTINUOUS
 10
140.548702648
 20
272.5704275737
 11
139.7827452255
 21
273.3204268585
  0
LINE
  5
2AF
100
AcDbEntity
  8
0
100
AcDbLine
 62
7
  6
CONTINUOUS
 10
140.548702648
 20
250.4454268138
 11
140.9316813761
 21
251.1954269032
  0
LINE
  5
2B0
100
AcDbEntity
  8
0
100
AcDbLine
 62
7
  6
CONTINUOUS
 10
139.7827452255
 20
251.3829268585
 11
139.3997664136
 21
250.8204268585
  0
LINE
  5
2B1
100
AcDbEntity
  8
FASEN
100
AcDbLine
 62
7
  6
CONTINUOUS
 10
97.8231707316
 20
225.1829268584
 11
98.8231707316
 21
226.1829268584
  0
LINE
  5
2B2
100
AcDbEntity
  8
0
100
AcDbLine
 62
7
  6
CONTINUOUS
 10
139.7827452255
 20
268.6329275737
 11
139.2082770747
 21
268.0704275737
  0
LINE
  5
2B3
100
AcDbEntity
  8
0
100
AcDbLine
 62
7
  6
CONTINUOUS
 10
133.4635961038
 20
256.2579270373
 11
132.6976387483
 21
255.5079266797
  0
LINE
  5
2B4
100
AcDbEntity
  8
0
100
AcDbLine
 62
7
  6
CONTINUOUS
 10
139.7827452255
 20
258.5079265009
 11
140.548702648
 21
259.2579268585
  0
LINE
  5
2B5
100
AcDbEntity
  8
0
100
AcDbLine
 62
7
  6
CONTINUOUS
 10
137.6763620955
 20
272.1954268585
 11
138.2508303804
 21
272.5704275737
  0
LINE
  5
2B6
100
AcDbEntity
  8
0
100
AcDbLine
 62
7
  6
CONTINUOUS
 10
133.8465747816
 20
271.8204261432
 11
134.2295534593
 21
272.0079275737
  0
LINE
  5
2B7
100
AcDbEntity
  8
0
100
AcDbLine
 62
7
  6
CONTINUOUS
 10
138.0593410415
 20
273.6954275737
 11
137.2933834178
 21
273.3204268585
  0
LINE
  5
2B8
100
AcDbEntity
  8
0
100
AcDbLine
 62
7
  6
CONTINUOUS
 10
223.2747933833
 20
262.6490941782
 11
222.5939424007
 21
262.4824281474
  0
LINE
  5
2B9
100
AcDbEntity
  8
0
100
AcDbLine
 62
7
  6
CONTINUOUS
 10
222.5939424007
 20
261.4824281474
 11
223.4450066059
 21
261.6490941782
  0
LINE
  5
2BA
100
AcDbEntity
  8
0
100
AcDbLine
 62
7
  6
CONTINUOUS
 10
135.1870006901
 20
249.1329268585
 11
138.0593410415
 21
249.1329268585
  0
LINE
  5
2BB
100
AcDbEntity
  8
0
100
AcDbLine
 62
7
  6
CONTINUOUS
 10
138.0593410415
 20
250.2579268585
 11
135.1870006901
 21
250.2579268585
  0
LINE
  5
2BC
100
AcDbEntity
  8
_30_VOLUMEN
100
AcDbLine
 62
7
  6
CONTINUOUS
 10
249.7231707317
 20
251.1829268585
 11
234.5231707317
 21
251.1829268585
  0
LINE
  5
2BD
100
AcDbEntity
  8
_30_VOLUMEN
100
AcDbLine
 62
7
  6
CONTINUOUS
 10
250.8231707317
 20
251.7713841266
 11
256.0231707317
 21
251.7713841266
  0
LINE
  5
2BE
100
AcDbEntity
  8
0
100
AcDbLine
 62
7
  6
CONTINUOUS
 10
227.8856707317
 20
242.9914375196
 11
226.7606707317
 21
243.1829268585
  0
LINE
  5
2BF
100
AcDbEntity
  8
0
100
AcDbLine
 62
7
  6
CONTINUOUS
 10
236.1356703741
 20
242.9914375196
 11
235.0106703741
 21
243.1829268585
  0
LINE
  5
2C0
100
AcDbEntity
  8
0
100
AcDbLine
 62
7
  6
CONTINUOUS
 10
139.7827452255
 20
256.2579270373
 11
138.825298397
 21
256.4454268585
  0
LINE
  5
2C1
100
AcDbEntity
  8
0
100
AcDbLine
 62
7
  6
CONTINUOUS
 10
134.2295534593
 20
258.1329268585
 11
135.1870006901
 21
257.9454270373
  0
LINE
  5
2C2
100
AcDbEntity
  8
0
100
AcDbLine
 62
7
  6
CONTINUOUS
 10
139.7827452255
 20
265.0704272161
 11
138.825298397
 21
265.2579265009
  0
LINE
  5
2C3
100
AcDbEntity
  8
0
100
AcDbLine
 62
7
  6
CONTINUOUS
 10
226.5731706423
 20
242.2254801641
 11
227.5106705529
 21
242.0339908252
  0
LINE
  5
2C4
100
AcDbEntity
  8
0
100
AcDbLine
 62
7
  6
CONTINUOUS
 10
234.8231710893
 20
242.2254801641
 11
235.7606707317
 21
242.0339908252
  0
LINE
  5
2C5
100
AcDbEntity
  8
0
100
AcDbLine
 62
7
  6
CONTINUOUS
 10
135.1870006901
 20
259.0704265009
 11
134.4210433346
 21
259.2579268585
  0
LINE
  5
2C6
100
AcDbEntity
  8
0
100
AcDbLine
 62
7
  6
CONTINUOUS
 10
133.4635961038
 20
267.5079275737
 11
134.2295534593
 21
267.3204261432
  0
LINE
  5
2C7
100
AcDbEntity
  8
0
100
AcDbLine
 62
7
  6
CONTINUOUS
 10
138.825298397
 20
264.1329265009
 11
139.3997664136
 21
263.9454272161
  0
LINE
  5
2C8
100
AcDbEntity
  8
0
100
AcDbLine
 62
7
  6
CONTINUOUS
 10
134.4210433346
 20
268.4454261432
 11
133.8465747816
 21
268.6329275737
  0
LINE
  5
2C9
100
AcDbEntity
  8
0
100
AcDbLine
 62
7
  6
CONTINUOUS
 10
139.7827452255
 20
273.3204268585
 11
139.0167877359
 21
273.6954275737
  0
LINE
  5
2CA
100
AcDbEntity
  8
0
100
AcDbLine
 62
7
  6
CONTINUOUS
 10
138.825298397
 20
272.5704275737
 11
139.3997664136
 21
272.1954268585
  0
LINE
  5
2CB
100
AcDbEntity
  8
0
100
AcDbLine
 62
7
  6
CONTINUOUS
 10
139.7827452255
 20
249.6954268585
 11
140.548702648
 21
250.4454268138
  0
LINE
  5
2CC
100
AcDbEntity
  8
0
100
AcDbLine
 62
7
  6
CONTINUOUS
 10
139.3997664136
 20
259.6329265009
 11
138.825298397
 21
259.2579268585
  0
LINE
  5
2CD
100
AcDbEntity
  8
0
100
AcDbLine
 62
7
  6
CONTINUOUS
 10
139.3997664136
 20
266.9454265009
 11
140.3572133092
 21
267.5079275737
  0
LINE
  5
2CE
100
AcDbEntity
  8
0
100
AcDbLine
 62
7
  6
CONTINUOUS
 10
134.2295534593
 20
273.1329275737
 11
133.6550854427
 21
272.9454261432
  0
LINE
  5
2CF
100
AcDbEntity
  8
0
100
AcDbLine
 62
7
  6
CONTINUOUS
 10
135.378490029
 20
268.6329275737
 11
134.8040220124
 21
268.4454261432
  0
LINE
  5
2D0
100
AcDbEntity
  8
0
100
AcDbLine
 62
7
  6
CONTINUOUS
 10
138.825298397
 20
250.4454268138
 11
138.0593410415
 21
250.2579268585
  0
LINE
  5
2D1
100
AcDbEntity
  8
0
100
AcDbLine
 62
7
  6
CONTINUOUS
 10
219.3598999946
 20
274.3157611628
 11
220.0407509773
 21
274.4824271937
  0
LINE
  5
2D2
100
AcDbEntity
  8
0
100
AcDbLine
 62
7
  6
CONTINUOUS
 10
138.0593410415
 20
249.1329268585
 11
139.0167877359
 21
249.3204268641
  0
LINE
  5
2D3
100
AcDbEntity
  8
0
100
AcDbLine
 62
7
  6
CONTINUOUS
 10
134.4210433346
 20
256.4454268585
 11
133.4635961038
 21
256.2579270373
  0
LINE
  5
2D4
100
AcDbEntity
  8
0
100
AcDbLine
 62
7
  6
CONTINUOUS
 10
138.0593410415
 20
257.9454270373
 11
139.0167877359
 21
258.1329268585
  0
LINE
  5
2D5
100
AcDbEntity
  8
0
100
AcDbLine
 62
7
  6
CONTINUOUS
 10
135.1870006901
 20
257.9454270373
 11
138.0593410415
 21
257.9454270373
  0
LINE
  5
2D6
100
AcDbEntity
  8
0
100
AcDbLine
 62
7
  6
CONTINUOUS
 10
138.0593410415
 20
259.0704265009
 11
135.1870006901
 21
259.0704265009
  0
LINE
  5
2D7
100
AcDbEntity
  8
0
100
AcDbLine
 62
7
  6
CONTINUOUS
 10
220.0407509773
 20
261.4824281474
 11
222.5939424007
 21
261.4824281474
  0
LINE
  5
2D8
100
AcDbEntity
  8
0
100
AcDbLine
 62
7
  6
CONTINUOUS
 10
222.5939424007
 20
262.4824281474
 11
220.0407509773
 21
262.4824281474
  0
LINE
  5
2D9
100
AcDbEntity
  8
0
100
AcDbLine
 62
7
  6
CONTINUOUS
 10
228.6356705529
 20
242.6084588419
 11
227.8856707317
 21
242.9914375196
  0
LINE
  5
2DA
100
AcDbEntity
  8
0
100
AcDbLine
 62
7
  6
CONTINUOUS
 10
139.3997664136
 20
250.8204268585
 11
138.825298397
 21
250.4454268138
  0
LINE
  5
2DB
100
AcDbEntity
  8
0
100
AcDbLine
 62
7
  6
CONTINUOUS
 10
139.0167877359
 20
258.1329268585
 11
139.7827452255
 21
258.5079265009
  0
LINE
  5
2DC
100
AcDbEntity
  8
0
100
AcDbLine
 62
7
  6
CONTINUOUS
 10
139.2082770747
 20
268.0704275737
 11
138.6338090581
 21
267.8829261432
  0
LINE
  5
2DD
100
AcDbEntity
  8
0
100
AcDbLine
 62
7
  6
CONTINUOUS
 10
133.8465747816
 20
263.9454272161
 11
134.4210433346
 21
264.1329265009
  0
LINE
  5
2DE
100
AcDbEntity
  8
0
100
AcDbLine
 62
7
  6
CONTINUOUS
 10
138.825298397
 20
259.2579268585
 11
138.0593410415
 21
259.0704265009
  0
LINE
  5
2DF
100
AcDbEntity
  8
0
100
AcDbLine
 62
7
  6
CONTINUOUS
 10
220.0407509773
 20
275.4824276705
 11
219.1896872489
 21
275.315760686
  0
LINE
  5
2E0
100
AcDbEntity
  8
0
100
AcDbLine
 62
7
  6
CONTINUOUS
 10
134.4210433346
 20
265.2579265009
 11
133.4635961038
 21
265.0704272161
  0
LINE
  5
2E1
100
AcDbEntity
  8
0
100
AcDbLine
 62
7
  6
CONTINUOUS
 10
218.3386234014
 20
267.1490941782
 11
224.2960703342
 21
267.1490941782
  0
LINE
  5
2E2
100
AcDbEntity
  8
0
100
AcDbLine
 62
7
  6
CONTINUOUS
 10
134.2295534593
 20
267.3204261432
 11
134.9955113513
 21
267.3204261432
  0
LINE
  5
2E3
100
AcDbEntity
  8
0
100
AcDbLine
 62
7
  6
CONTINUOUS
 10
225.3173468082
 20
268.1490941782
 11
217.3173468082
 21
268.1490941782
  0
LINE
  5
2E4
100
AcDbEntity
  8
0
100
AcDbLine
 62
7
  6
CONTINUOUS
 10
134.8040220124
 20
268.4454261432
 11
134.4210433346
 21
268.4454261432
  0
LINE
  5
2E5
100
AcDbEntity
  8
0
100
AcDbLine
 62
7
  6
CONTINUOUS
 10
220.0407509773
 20
269.4824271937
 11
225.3173468082
 21
269.4824271937
  0
LINE
  5
2E6
100
AcDbEntity
  8
0
100
AcDbLine
 62
7
  6
CONTINUOUS
 10
225.3173468082
 20
270.4824271937
 11
220.0407509773
 21
270.4824271937
  0
LINE
  5
2E7
100
AcDbEntity
  8
_30_VOLUMEN
100
AcDbLine
 62
7
  6
CONTINUOUS
 10
242.1231707317
 20
271.1829268585
 11
242.7231707317
 21
271.1829268585
  0
LINE
  5
2E8
100
AcDbEntity
  8
0
100
AcDbLine
 62
7
  6
CONTINUOUS
 10
138.2508303804
 20
272.5704275737
 11
138.825298397
 21
272.5704275737
  0
LINE
  5
2E9
100
AcDbEntity
  8
0
100
AcDbLine
 62
7
  6
CONTINUOUS
 10
139.0167877359
 20
273.6954275737
 11
138.0593410415
 21
273.6954275737
  0
LINE
  5
2EA
100
AcDbEntity
  8
0
100
AcDbLine
 62
7
  6
CONTINUOUS
 10
220.0407509773
 20
274.4824271937
 11
225.3173468082
 21
274.4824271937
  0
LINE
  5
2EB
100
AcDbEntity
  8
0
100
AcDbLine
 62
7
  6
CONTINUOUS
 10
225.3173468082
 20
275.4824276705
 11
220.0407509773
 21
275.4824276705
  0
LINE
  5
2EC
100
AcDbEntity
  8
0
100
AcDbLine
 62
7
  6
CONTINUOUS
 10
219.1896872489
 20
261.6490941782
 11
220.0407509773
 21
261.4824281474
  0
LINE
  5
2ED
100
AcDbEntity
  8
0
100
AcDbLine
 62
7
  6
CONTINUOUS
 10
219.1896872489
 20
269.6490941782
 11
220.0407509773
 21
269.4824271937
  0
LINE
  5
2EE
100
AcDbEntity
  8
0
100
AcDbLine
 62
7
  6
CONTINUOUS
 10
220.0407509773
 20
262.4824281474
 11
219.3598999946
 21
262.6490941782
  0
LINE
  5
2EF
100
AcDbEntity
  8
0
100
AcDbLine
 62
7
  6
CONTINUOUS
 10
236.8856707317
 20
242.6084588419
 11
236.1356703741
 21
242.9914375196
  0
LINE
  5
2F0
100
AcDbEntity
  8
0
100
AcDbLine
 62
7
  6
CONTINUOUS
 10
227.5106705529
 20
242.0339908252
 11
228.0731705529
 21
241.6510121475
  0
LINE
  5
2F1
100
AcDbEntity
  8
0
100
AcDbLine
 62
7
  6
CONTINUOUS
 10
139.0167877359
 20
249.3204268641
 11
139.7827452255
 21
249.6954268585
  0
LINE
  5
2F2
100
AcDbEntity
  8
0
100
AcDbLine
 62
7
  6
CONTINUOUS
 10
217.3173468082
 20
276.815760686
 11
221.2322404354
 21
278.315760686
  0
LINE
  5
2F3
100
AcDbEntity
  8
0
100
AcDbLine
 62
7
  6
CONTINUOUS
 10
220.891814944
 20
279.3157609244
 11
217.3173468082
 21
277.9824276705
  0
LINE
  5
2F4
100
AcDbEntity
  8
0
100
AcDbLine
 62
7
  6
CONTINUOUS
 10
133.8465747816
 20
255.1329270373
 11
134.4210433346
 21
255.3204268585
  0
LINE
  5
2F5
100
AcDbEntity
  8
0
100
AcDbLine
 62
7
  6
CONTINUOUS
 10
223.9556448429
 20
278.1490941782
 11
223.4450066059
 21
277.9824276705
  0
LINE
  5
2F6
100
AcDbEntity
  8
0
100
AcDbLine
 62
7
  6
CONTINUOUS
 10
223.4450066059
 20
276.9824276705
 11
223.9556448429
 21
277.1490941782
  0
LINE
  5
2F7
100
AcDbEntity
  8
0
100
AcDbLine
 62
7
  6
CONTINUOUS
 10
138.6338090581
 20
266.7579272161
 11
139.3997664136
 21
266.9454265009
  0
LINE
  5
2F8
100
AcDbEntity
  8
0
100
AcDbLine
 62
7
  6
CONTINUOUS
 10
134.9955113513
 20
267.3204261432
 11
135.7614687068
 21
267.5079275737
  0
LINE
  5
2F9
100
AcDbEntity
  8
0
100
AcDbLine
 62
7
  6
CONTINUOUS
 10
222.7641551463
 20
276.9824276705
 11
223.4450066059
 21
276.9824276705
  0
LINE
  5
2FA
100
AcDbEntity
  8
0
100
AcDbLine
 62
7
  6
CONTINUOUS
 10
223.4450066059
 20
277.9824276705
 11
222.934367892
 21
277.9824276705
  0
LINE
  5
2FB
100
AcDbEntity
  8
0
100
AcDbLine
 62
7
  6
CONTINUOUS
 10
217.3173468082
 20
282.1490941782
 11
220.891814944
 21
282.1490941782
  0
LINE
  5
2FC
100
AcDbEntity
  8
0
100
AcDbLine
 62
7
  6
CONTINUOUS
 10
221.913091418
 20
282.1490941782
 11
224.4662830799
 21
282.1490941782
  0
LINE
  5
2FD
100
AcDbEntity
  8
0
100
AcDbLine
 62
7
  6
CONTINUOUS
 10
225.3173468082
 20
283.1490941782
 11
217.3173468082
 21
283.1490941782
  0
LINE
  5
2FE
100
AcDbEntity
  8
_30_VOLUMEN
100
AcDbLine
 62
7
  6
CONTINUOUS
 10
234.5231707317
 20
283.1829268585
 11
246.8231707317
 21
283.1829268585
  0
LINE
  5
2FF
100
AcDbEntity
  8
0
100
AcDbLine
 62
7
  6
CONTINUOUS
 10
220.0407509773
 20
270.4824271937
 11
219.3598999946
 21
270.6490941782
  0
LINE
  5
300
100
AcDbEntity
  8
0
100
AcDbLine
 62
7
  6
CONTINUOUS
 10
218.5088361471
 20
261.9824281474
 11
219.1896872489
 21
261.6490941782
  0
LINE
  5
301
100
AcDbEntity
  8
0
100
AcDbLine
 62
7
  6
CONTINUOUS
 10
218.5088361471
 20
269.9824271937
 11
219.1896872489
 21
269.6490941782
  0
LINE
  5
302
100
AcDbEntity
  8
0
100
AcDbLine
 62
7
  6
CONTINUOUS
 10
219.3598999946
 20
262.6490941782
 11
218.8492617576
 21
262.9824281474
  0
LINE
  5
303
100
AcDbEntity
  8
0
100
AcDbLine
 62
7
  6
CONTINUOUS
 10
235.7606707317
 20
242.0339908252
 11
236.3231707317
 21
241.6510121475
  0
LINE
  5
304
100
AcDbEntity
  8
0
100
AcDbLine
 62
7
  6
CONTINUOUS
 10
229.3856709105
 20
241.8425014864
 11
228.6356705529
 21
242.6084588419
  0
LINE
  5
305
100
AcDbEntity
  8
0
100
AcDbLine
 62
7
  6
CONTINUOUS
 10
218.8492617576
 20
273.9824271937
 11
219.3598999946
 21
274.3157611628
  0
LINE
  5
306
100
AcDbEntity
  8
0
100
AcDbLine
 62
7
  6
CONTINUOUS
 10
219.1896872489
 20
275.315760686
 11
218.5088361471
 21
274.9824271937
  0
LINE
  5
307
100
AcDbEntity
  8
RUNDUNGEN
100
AcDbLine
 62
7
  6
CONTINUOUS
 10
194.8231707317
 20
288.6829268585
 11
161.8231707317
 21
288.6829268585
  0
LINE
  5
308
100
AcDbEntity
  8
0
100
AcDbLine
 62
7
  6
CONTINUOUS
 10
222.2535169094
 20
277.1490941782
 11
222.7641551463
 21
276.9824276705
  0
LINE
  5
309
100
AcDbEntity
  8
0
100
AcDbLine
 62
7
  6
CONTINUOUS
 10
222.934367892
 20
277.9824276705
 11
222.423729655
 21
278.1490941782
  0
LINE
  5
30A
100
AcDbEntity
  8
0
100
AcDbLine
 62
7
  6
CONTINUOUS
 10
219.3598999946
 20
270.6490941782
 11
218.8492617576
 21
270.9824271937
  0
LINE
  5
30B
100
AcDbEntity
  8
0
100
AcDbLine
 62
7
  6
CONTINUOUS
 10
217.8279851048
 20
262.6490941782
 11
218.5088361471
 21
261.9824281474
  0
LINE
  5
30C
100
AcDbEntity
  8
0
100
AcDbLine
 62
7
  6
CONTINUOUS
 10
217.8279851048
 20
270.6490941782
 11
218.5088361471
 21
269.9824271937
  0
LINE
  5
30D
100
AcDbEntity
  8
0
100
AcDbLine
 62
7
  6
CONTINUOUS
 10
237.6356710893
 20
241.8425014864
 11
236.8856707317
 21
242.6084588419
  0
LINE
  5
30E
100
AcDbEntity
  8
0
100
AcDbLine
 62
7
  6
CONTINUOUS
 10
228.0731705529
 20
241.6510121475
 11
228.4481707317
 21
241.0765441309
  0
LINE
  5
30F
100
AcDbEntity
  8
BEZUGSACHSEN
100
AcDbLine
 62
7
  6
CONTINUOUS
 10
204.8231707317
 20
164.1829268585
 11
204.8231707317
 21
220.4886443726
  0
LINE
  5
310
100
AcDbEntity
  8
RUNDUNGEN
100
AcDbLine
 62
7
  6
CONTINUOUS
 10
204.8231707317
 20
164.1829268585
 11
204.8231707317
 21
278.6829268585
  0
LINE
  5
311
100
AcDbEntity
  8
RUNDUNGEN
100
AcDbLine
 62
7
  6
CONTINUOUS
 10
210.5731707317
 20
358.4329268585
 11
210.5731707317
 21
299.7239363119
  0
LINE
  5
312
100
AcDbEntity
  8
0
100
AcDbLine
 62
7
  6
CONTINUOUS
 10
218.5088361471
 20
273.4824271937
 11
218.8492617576
 21
273.9824271937
  0
LINE
  5
313
100
AcDbEntity
  8
FASEN
100
AcDbLine
 62
7
  6
CONTINUOUS
 10
116.8231707318
 20
170.1829268585
 11
117.8231707318
 21
171.1829268585
  0
LINE
  5
314
100
AcDbEntity
  8
0
100
AcDbLine
 62
7
  6
CONTINUOUS
 10
218.5088361471
 20
274.9824271937
 11
217.8279851048
 21
274.3157611628
  0
LINE
  5
315
100
AcDbEntity
  8
0
100
AcDbLine
 62
7
  6
CONTINUOUS
 10
224.2960703342
 20
278.4824276705
 11
223.9556448429
 21
278.1490941782
  0
LINE
  5
316
100
AcDbEntity
  8
0
100
AcDbLine
 62
7
  6
CONTINUOUS
 10
223.9556448429
 20
277.1490941782
 11
224.6364958255
 21
277.6490941782
  0
LINE
  5
317
100
AcDbEntity
  8
0
100
AcDbLine
 62
7
  6
CONTINUOUS
 10
223.4450066059
 20
261.6490941782
 11
224.1258575885
 21
261.9824281474
  0
LINE
  5
318
100
AcDbEntity
  8
0
100
AcDbLine
 62
7
  6
CONTINUOUS
 10
221.5726659267
 20
277.6490941782
 11
222.2535169094
 21
277.1490941782
  0
LINE
  5
319
100
AcDbEntity
  8
0
100
AcDbLine
 62
7
  6
CONTINUOUS
 10
222.423729655
 20
278.1490941782
 11
222.0833041637
 21
278.4824276705
  0
LINE
  5
31A
100
AcDbEntity
  8
0
100
AcDbLine
 62
7
  6
CONTINUOUS
 10
218.8492617576
 20
262.9824281474
 11
218.5088361471
 21
263.4824281474
  0
LINE
  5
31B
100
AcDbEntity
  8
0
100
AcDbLine
 62
7
  6
CONTINUOUS
 10
218.8492617576
 20
270.9824271937
 11
218.5088361471
 21
271.4824271937
  0
LINE
  5
31C
100
AcDbEntity
  8
0
100
AcDbLine
 62
7
  6
CONTINUOUS
 10
236.3231707317
 20
241.6510121475
 11
236.6981703741
 21
241.0765441309
  0
LINE
  5
31D
100
AcDbEntity
  8
0
100
AcDbLine
 62
7
  6
CONTINUOUS
 10
217.4875595688
 20
263.3157602091
 11
217.8279851048
 21
262.6490941782
  0
LINE
  5
31E
100
AcDbEntity
  8
0
100
AcDbLine
 62
7
  6
CONTINUOUS
 10
217.4875595688
 20
271.3157611628
 11
217.8279851048
 21
270.6490941782
  0
LINE
  5
31F
100
AcDbEntity
  8
0
100
AcDbLine
 62
7
  6
CONTINUOUS
 10
217.3173468082
 20
283.1490941782
 11
217.3173468082
 21
282.1490941782
  0
LINE
  5
320
100
AcDbEntity
  8
0
100
AcDbLine
 62
7
  6
CONTINUOUS
 10
217.3173468082
 20
277.9824276705
 11
217.3173468082
 21
276.815760686
  0
LINE
  5
321
100
AcDbEntity
  8
0
100
AcDbLine
 62
7
  6
CONTINUOUS
 10
217.3173468082
 20
272.8157611628
 11
217.3173468082
 21
272.1490941782
  0
LINE
  5
322
100
AcDbEntity
  8
0
100
AcDbLine
 62
7
  6
CONTINUOUS
 10
217.3173468082
 20
268.1490941782
 11
217.3173468082
 21
264.1490941782
  0
LINE
  5
323
100
AcDbEntity
  8
0
100
AcDbLine
 62
7
  6
CONTINUOUS
 10
218.3386234014
 20
264.1490941782
 11
218.3386234014
 21
267.1490941782
  0
LINE
  5
324
100
AcDbEntity
  8
0
100
AcDbLine
 62
7
  6
CONTINUOUS
 10
218.3386234014
 20
272.1490941782
 11
218.3386234014
 21
272.8157611628
  0
LINE
  5
325
100
AcDbEntity
  8
0
100
AcDbLine
 62
7
  6
CONTINUOUS
 10
220.891814944
 20
282.1490941782
 11
220.891814944
 21
279.3157609244
  0
LINE
  5
326
100
AcDbEntity
  8
0
100
AcDbLine
 62
7
  6
CONTINUOUS
 10
221.3231707317
 20
199.3495935251
 11
221.3231707317
 21
197.0162601918
  0
LINE
  5
327
100
AcDbEntity
  8
0
100
AcDbLine
 62
7
  6
CONTINUOUS
 10
221.913091418
 20
278.9824276705
 11
221.913091418
 21
282.1490941782
  0
LINE
  5
328
100
AcDbEntity
  8
0
100
AcDbLine
 62
7
  6
CONTINUOUS
 10
222.8231707317
 20
235.140373687
 11
222.8231707317
 21
234.1829268585
  0
LINE
  5
329
100
AcDbEntity
  8
0
100
AcDbLine
 62
7
  6
CONTINUOUS
 10
217.4875595688
 20
273.6490941782
 11
217.3173468082
 21
272.8157611628
  0
LINE
  5
32A
100
AcDbEntity
  8
0
100
AcDbLine
 62
7
  6
CONTINUOUS
 10
218.3386234014
 20
272.8157611628
 11
218.5088361471
 21
273.4824271937
  0
LINE
  5
32B
100
AcDbEntity
  8
0
100
AcDbLine
 62
7
  6
CONTINUOUS
 10
224.4662830799
 20
278.9824276705
 11
224.2960703342
 21
278.4824276705
  0
LINE
  5
32C
100
AcDbEntity
  8
0
100
AcDbLine
 62
7
  6
CONTINUOUS
 10
217.8279851048
 20
274.3157611628
 11
217.4875595688
 21
273.6490941782
  0
LINE
  5
32D
100
AcDbEntity
  8
0
100
AcDbLine
 62
7
  6
CONTINUOUS
 10
224.6364958255
 20
277.6490941782
 11
225.1471340625
 21
278.315760686
  0
LINE
  5
32E
100
AcDbEntity
  8
0
100
AcDbLine
 62
7
  6
CONTINUOUS
 10
224.1258575885
 20
261.9824281474
 11
224.8067085712
 21
262.6490941782
  0
LINE
  5
32F
100
AcDbEntity
  8
0
100
AcDbLine
 62
7
  6
CONTINUOUS
 10
223.7854320972
 20
262.9824281474
 11
223.2747933833
 21
262.6490941782
  0
LINE
  5
330
100
AcDbEntity
  8
0
100
AcDbLine
 62
7
  6
CONTINUOUS
 10
221.2322404354
 20
278.315760686
 11
221.5726659267
 21
277.6490941782
  0
LINE
  5
331
100
AcDbEntity
  8
0
100
AcDbLine
 62
7
  6
CONTINUOUS
 10
222.0833041637
 20
278.4824276705
 11
221.913091418
 21
278.9824276705
  0
LINE
  5
332
100
AcDbEntity
  8
0
100
AcDbLine
 62
7
  6
CONTINUOUS
 10
218.5088361471
 20
263.4824281474
 11
218.3386234014
 21
264.1490941782
  0
LINE
  5
333
100
AcDbEntity
  8
0
100
AcDbLine
 62
7
  6
CONTINUOUS
 10
218.5088361471
 20
271.4824271937
 11
218.3386234014
 21
272.1490941782
  0
LINE
  5
334
100
AcDbEntity
  8
0
100
AcDbLine
 62
7
  6
CONTINUOUS
 10
229.5731707317
 20
241.0765441309
 11
229.3856709105
 21
241.8425014864
  0
LINE
  5
335
100
AcDbEntity
  8
0
100
AcDbLine
 62
7
  6
CONTINUOUS
 10
217.3173468082
 20
264.1490941782
 11
217.4875595688
 21
263.3157602091
  0
LINE
  5
336
100
AcDbEntity
  8
0
100
AcDbLine
 62
7
  6
CONTINUOUS
 10
217.3173468082
 20
272.1490941782
 11
217.4875595688
 21
271.3157611628
  0
LINE
  5
337
100
AcDbEntity
  8
0
100
AcDbLine
 62
7
  6
CONTINUOUS
 10
224.2960703342
 20
267.1490941782
 11
224.2960703342
 21
264.1490941782
  0
LINE
  5
338
100
AcDbEntity
  8
0
100
AcDbLine
 62
7
  6
CONTINUOUS
 10
224.4662830799
 20
282.1490941782
 11
224.4662830799
 21
278.9824276705
  0
LINE
  5
339
100
AcDbEntity
  8
0
100
AcDbLine
 62
7
  6
CONTINUOUS
 10
225.3173468082
 20
264.1490941782
 11
225.3173468082
 21
268.1490941782
  0
LINE
  5
33A
100
AcDbEntity
  8
0
100
AcDbLine
 62
7
  6
CONTINUOUS
 10
225.3173468082
 20
269.4824271937
 11
225.3173468082
 21
270.4824271937
  0
LINE
  5
33B
100
AcDbEntity
  8
0
100
AcDbLine
 62
7
  6
CONTINUOUS
 10
225.3173468082
 20
274.4824271937
 11
225.3173468082
 21
275.4824276705
  0
LINE
  5
33C
100
AcDbEntity
  8
0
100
AcDbLine
 62
7
  6
CONTINUOUS
 10
225.3173468082
 20
279.1490941782
 11
225.3173468082
 21
283.1490941782
  0
LINE
  5
33D
100
AcDbEntity
  8
0
100
AcDbLine
 62
7
  6
CONTINUOUS
 10
228.4481707317
 20
241.0765441309
 11
228.4481707317
 21
240.6935649167
  0
LINE
  5
33E
100
AcDbEntity
  8
0
100
AcDbLine
 62
7
  6
CONTINUOUS
 10
229.5731707317
 20
234.1829268585
 11
229.5731707317
 21
235.140373687
  0
LINE
  5
33F
100
AcDbEntity
  8
0
100
AcDbLine
 62
7
  6
CONTINUOUS
 10
229.5731707317
 20
240.6935649167
 11
229.5731707317
 21
241.0765441309
  0
LINE
  5
340
100
AcDbEntity
  8
0
100
AcDbLine
 62
7
  6
CONTINUOUS
 10
231.0731709105
 20
235.140373687
 11
231.0731709105
 21
234.1829268585
  0
LINE
  5
341
100
AcDbEntity
  8
0
100
AcDbLine
 62
7
  6
CONTINUOUS
 10
225.1471340625
 20
278.315760686
 11
225.3173468082
 21
279.1490941782
  0
LINE
  5
342
100
AcDbEntity
  8
0
100
AcDbLine
 62
7
  6
CONTINUOUS
 10
225.1471340625
 20
263.3157602091
 11
225.3173468082
 21
264.1490941782
  0
LINE
  5
343
100
AcDbEntity
  8
0
100
AcDbLine
 62
7
  6
CONTINUOUS
 10
223.1981707429
 20
241.8425014864
 11
223.0106707373
 21
241.0765441309
  0
LINE
  5
344
100
AcDbEntity
  8
0
100
AcDbLine
 62
7
  6
CONTINUOUS
 10
224.2960703342
 20
264.1490941782
 11
224.1258575885
 21
263.4824281474
  0
LINE
  5
345
100
AcDbEntity
  8
0
100
AcDbLine
 62
7
  6
CONTINUOUS
 10
224.8067085712
 20
262.6490941782
 11
225.1471340625
 21
263.3157602091
  0
LINE
  5
346
100
AcDbEntity
  8
0
100
AcDbLine
 62
7
  6
CONTINUOUS
 10
224.1258575885
 20
263.4824281474
 11
223.7854320972
 21
262.9824281474
  0
LINE
  5
347
100
AcDbEntity
  8
0
100
AcDbLine
 62
7
  6
CONTINUOUS
 10
224.698170687
 20
242.9914375196
 11
223.9481707317
 21
242.6084588419
  0
LINE
  5
348
100
AcDbEntity
  8
RUNDUNGEN
100
AcDbLine
 62
7
  6
CONTINUOUS
 10
241.8231707317
 20
297.7354857417
 11
215.5731707317
 21
312.890930308
  0
LINE
  5
349
100
AcDbEntity
  8
0
100
AcDbLine
 62
7
  6
CONTINUOUS
 10
237.8231703741
 20
241.0765441309
 11
237.6356710893
 21
241.8425014864
  0
LINE
  5
34A
100
AcDbEntity
  8
0
100
AcDbLine
 62
7
  6
CONTINUOUS
 10
233.3231707317
 20
202.2808030377
 11
233.3231707317
 21
200.3495935251
  0
LINE
  5
34B
100
AcDbEntity
  8
0
100
AcDbLine
 62
7
  6
CONTINUOUS
 10
233.3231707317
 20
196.0162601918
 11
233.3231707317
 21
194.0850506792
  0
LINE
  5
34C
100
AcDbEntity
  8
_30_VOLUMEN
100
AcDbLine
 62
7
  6
CONTINUOUS
 10
234.5231707317
 20
251.1829268585
 11
234.5231707317
 21
283.1829268585
  0
LINE
  5
34D
100
AcDbEntity
  8
_30_VOLUMEN
100
AcDbLine
 62
7
  6
CONTINUOUS
 10
234.6231707317
 20
263.6829268585
 11
234.6231707317
 21
251.1829268585
  0
LINE
  5
34E
100
AcDbEntity
  8
0
100
AcDbLine
 62
7
  6
CONTINUOUS
 10
236.6981703741
 20
241.0765441309
 11
236.6981703741
 21
240.6935649167
  0
LINE
  5
34F
100
AcDbEntity
  8
0
100
AcDbLine
 62
7
  6
CONTINUOUS
 10
237.8231703741
 20
234.1829268585
 11
237.8231703741
 21
235.140373687
  0
LINE
  5
350
100
AcDbEntity
  8
0
100
AcDbLine
 62
7
  6
CONTINUOUS
 10
237.8231703741
 20
240.6935649167
 11
237.8231703741
 21
241.0765441309
  0
LINE
  5
351
100
AcDbEntity
  8
0
100
AcDbLine
 62
7
  6
CONTINUOUS
 10
229.3856709105
 20
239.9276075612
 11
229.5731707317
 21
240.6935649167
  0
LINE
  5
352
100
AcDbEntity
  8
0
100
AcDbLine
 62
7
  6
CONTINUOUS
 10
231.4481705529
 20
241.8425014864
 11
231.2606707317
 21
241.0765441309
  0
LINE
  5
353
100
AcDbEntity
  8
0
100
AcDbLine
 62
7
  6
CONTINUOUS
 10
228.4481707317
 20
240.6935649167
 11
228.0731705529
 21
239.9276075612
  0
LINE
  5
354
100
AcDbEntity
  8
0
100
AcDbLine
 62
7
  6
CONTINUOUS
 10
223.9481707317
 20
241.0765441309
 11
224.3231707764
 21
241.6510121475
  0
LINE
  5
355
100
AcDbEntity
  8
0
100
AcDbLine
 62
7
  6
CONTINUOUS
 10
229.0106707317
 20
239.3531395445
 11
229.3856709105
 21
239.9276075612
  0
LINE
  5
356
100
AcDbEntity
  8
0
100
AcDbLine
 62
7
  6
CONTINUOUS
 10
223.9481707317
 20
242.6084588419
 11
223.1981707429
 21
241.8425014864
  0
LINE
  5
357
100
AcDbEntity
  8
0
100
AcDbLine
 62
7
  6
CONTINUOUS
 10
232.1981703741
 20
242.6084588419
 11
231.4481705529
 21
241.8425014864
  0
LINE
  5
358
100
AcDbEntity
  8
0
100
AcDbLine
 62
7
  6
CONTINUOUS
 10
228.0731705529
 20
239.9276075612
 11
222.8231707317
 21
235.140373687
  0
LINE
  5
359
100
AcDbEntity
  8
0
100
AcDbLine
 62
7
  6
CONTINUOUS
 10
224.3231707764
 20
235.140373687
 11
229.0106707317
 21
239.3531395445
  0
LINE
  5
35A
100
AcDbEntity
  8
0
100
AcDbLine
 62
7
  6
CONTINUOUS
 10
224.3231707764
 20
241.6510121475
 11
224.8856707764
 21
242.0339908252
  0
LINE
  5
35B
100
AcDbEntity
  8
0
100
AcDbLine
 62
7
  6
CONTINUOUS
 10
232.5731710893
 20
241.6510121475
 11
233.1356710893
 21
242.0339908252
  0
LINE
  5
35C
100
AcDbEntity
  8
0
100
AcDbLine
 62
7
  6
CONTINUOUS
 10
232.9481707317
 20
242.9914375196
 11
232.1981703741
 21
242.6084588419
  0
LINE
  5
35D
100
AcDbEntity
  8
_30_VOLUMEN
100
AcDbLine
 62
7
  6
CONTINUOUS
 10
246.8231707317
 20
283.1829268585
 11
246.8231707317
 21
289.0752317039
  0
LINE
  5
35E
100
AcDbEntity
  8
_30_VOLUMEN
100
AcDbLine
 62
7
  6
CONTINUOUS
 10
249.7231707317
 20
160.1829268585
 11
249.7231707317
 21
251.1829268585
  0
LINE
  5
35F
100
AcDbEntity
  8
_30_VOLUMEN
100
AcDbLine
 62
7
  6
CONTINUOUS
 10
250.2231707317
 20
263.6829268585
 11
250.2231707317
 21
176.1829268585
  0
LINE
  5
360
100
AcDbEntity
  8
_30_VOLUMEN
100
AcDbLine
 62
7
  6
CONTINUOUS
 10
250.8231707317
 20
251.7713841266
 11
250.8231707317
 21
220.5944695904
  0
LINE
  5
361
100
AcDbEntity
  8
0
100
AcDbLine
 62
7
  6
CONTINUOUS
 10
250.9231707317
 20
214.6829268585
 11
250.9231707317
 21
181.6829268585
  0
LINE
  5
362
100
AcDbEntity
  8
0
100
AcDbLine
 62
7
  6
CONTINUOUS
 10
237.6356710893
 20
239.9276075612
 11
237.8231703741
 21
240.6935649167
  0
LINE
  5
363
100
AcDbEntity
  8
0
100
AcDbLine
 62
7
  6
CONTINUOUS
 10
236.6981703741
 20
240.6935649167
 11
236.3231707317
 21
239.9276075612
  0
LINE
  5
364
100
AcDbEntity
  8
0
100
AcDbLine
 62
7
  6
CONTINUOUS
 10
232.1981703741
 20
241.0765441309
 11
232.5731710893
 21
241.6510121475
  0
LINE
  5
365
100
AcDbEntity
  8
0
100
AcDbLine
 62
7
  6
CONTINUOUS
 10
237.2606703741
 20
239.3531395445
 11
237.6356710893
 21
239.9276075612
  0
LINE
  5
366
100
AcDbEntity
  8
0
100
AcDbLine
 62
7
  6
CONTINUOUS
 10
236.3231707317
 20
239.9276075612
 11
231.0731709105
 21
235.140373687
  0
LINE
  5
367
100
AcDbEntity
  8
0
100
AcDbLine
 62
7
  6
CONTINUOUS
 10
232.5731710893
 20
235.140373687
 11
237.2606703741
 21
239.3531395445
  0
LINE
  5
368
100
AcDbEntity
  8
_30_VOLUMEN
100
AcDbLine
 62
7
  6
CONTINUOUS
 10
256.0231707317
 20
251.7713841266
 11
256.0231707317
 21
220.5944695904
  0
LINE
  5
369
100
AcDbEntity
  8
0
100
AcDbLine
 62
7
  6
CONTINUOUS
 10
256.0857836344
 20
214.6829268585
 11
256.0857836344
 21
181.6829268585
  0
LINE
  5
36A
100
AcDbEntity
  8
RUNDUNGEN
100
AcDbLine
 62
7
  6
CONTINUOUS
 10
269.8231707317
 20
187.7332381658
 11
269.8231707317
 21
208.6326155512
  0
LINE
  5
36B
100
AcDbEntity
  8
0
100
AcDbLine
 62
7
  6
CONTINUOUS
 10
240.6447720885
 20
197.7589277065
 11
234.0881702017
 21
193.6610515272
  0
LINE
  5
36C
100
AcDbEntity
  8
RUNDUNGEN
100
AcDbLine
 62
7
  6
CONTINUOUS
 10
268.8362009467
 20
186.3236992346
 11
256.0857836344
 21
181.6829268585
  0
LINE
  5
36D
100
AcDbEntity
  8
BEZUGSACHSEN
100
AcDbLine
 62
7
  6
CONTINUOUS
 10
342.4363268079
 20
193.5850506792
 11
342.9377738569
 21
193.5850506792
  0
LINE
  5
36E
100
AcDbEntity
  8
0
100
AcDbLine
 62
7
  6
CONTINUOUS
 10
418.3793945882
 20
193.5850506792
 11
418.8808416373
 21
193.5850506792
  0
LINE
  5
36F
100
AcDbEntity
  8
0
100
AcDbLine
 62
7
  6
CONTINUOUS
 10
373.1585842226
 20
193.6829268585
 11
379.9085842226
 21
193.6829268585
  0
LINE
  5
370
100
AcDbEntity
  8
0
100
AcDbLine
 62
7
  6
CONTINUOUS
 10
381.4085844014
 20
193.6829268585
 11
388.1585838649
 21
193.6829268585
  0
LINE
  5
371
100
AcDbEntity
  8
0
100
AcDbLine
 62
7
  6
CONTINUOUS
 10
388.1585838649
 20
194.640373687
 11
382.9085845802
 21
194.640373687
  0
LINE
  5
372
100
AcDbEntity
  8
0
100
AcDbLine
 62
7
  6
CONTINUOUS
 10
379.9085842226
 20
194.640373687
 11
374.6585842673
 21
194.640373687
  0
LINE
  5
373
100
AcDbEntity
  8
BEZUGSACHSEN
100
AcDbLine
 62
7
  6
CONTINUOUS
 10
342.6951515245
 20
196.5162601918
 11
342.1946315214
 21
196.5162601918
  0
LINE
  5
374
100
AcDbEntity
  8
0
100
AcDbLine
 62
7
  6
CONTINUOUS
 10
418.6220169206
 20
196.5162601918
 11
419.1225369237
 21
196.5162601918
  0
LINE
  5
375
100
AcDbEntity
  8
BEZUGSACHSEN
100
AcDbLine
 62
7
  6
CONTINUOUS
 10
342.6951515245
 20
199.8495935251
 11
342.1956752568
 21
199.8495935251
  0
LINE
  5
376
100
AcDbEntity
  8
0
100
AcDbLine
 62
7
  6
CONTINUOUS
 10
418.6220169206
 20
199.8495935251
 11
419.1214931883
 21
199.8495935251
  0
LINE
  5
377
100
AcDbEntity
  8
0
100
AcDbLine
 62
7
  6
CONTINUOUS
 10
373.3460842281
 20
200.5765441309
 11
374.2835842226
 21
200.5765441309
  0
LINE
  5
378
100
AcDbEntity
  8
0
100
AcDbLine
 62
7
  6
CONTINUOUS
 10
381.5960842226
 20
200.5765441309
 11
382.5335838649
 21
200.5765441309
  0
LINE
  5
379
100
AcDbEntity
  8
0
100
AcDbLine
 62
7
  6
CONTINUOUS
 10
390.5960835073
 20
209.5233523647
 11
389.8460842226
 21
209.3318630258
  0
LINE
  5
37A
100
AcDbEntity
  8
0
100
AcDbLine
 62
7
  6
CONTINUOUS
 10
383.4710845802
 20
201.5339908252
 11
384.4085842226
 21
201.7254801641
  0
LINE
  5
37B
100
AcDbEntity
  8
0
100
AcDbLine
 62
7
  6
CONTINUOUS
 10
375.2210842673
 20
201.5339908252
 11
376.158584312
 21
201.7254801641
  0
LINE
  5
37C
100
AcDbEntity
  8
0
100
AcDbLine
 62
7
  6
CONTINUOUS
 10
389.8460842226
 20
208.1829268585
 11
390.7835849378
 21
208.3744162141
  0
LINE
  5
37D
100
AcDbEntity
  8
0
100
AcDbLine
 62
7
  6
CONTINUOUS
 10
380.8460842226
 20
208.1829268585
 11
381.7835838649
 21
208.3744162141
  0
LINE
  5
37E
100
AcDbEntity
  8
0
100
AcDbLine
 62
7
  6
CONTINUOUS
 10
384.5960845802
 20
202.6829268585
 11
383.2835842226
 21
202.4914375196
  0
LINE
  5
37F
100
AcDbEntity
  8
0
100
AcDbLine
 62
7
  6
CONTINUOUS
 10
376.3460841332
 20
202.6829268585
 11
375.0335841779
 21
202.4914375196
  0
LINE
  5
380
100
AcDbEntity
  8
0
100
AcDbLine
 62
7
  6
CONTINUOUS
 10
376.158584312
 20
201.7254801641
 11
376.9085841332
 21
201.7254801641
  0
LINE
  5
381
100
AcDbEntity
  8
0
100
AcDbLine
 62
7
  6
CONTINUOUS
 10
384.4085842226
 20
201.7254801641
 11
385.1585845802
 21
201.7254801641
  0
LINE
  5
382
100
AcDbEntity
  8
0
100
AcDbLine
 62
7
  6
CONTINUOUS
 10
385.3460838649
 20
202.6829268585
 11
384.5960845802
 21
202.6829268585
  0
LINE
  5
383
100
AcDbEntity
  8
0
100
AcDbLine
 62
7
  6
CONTINUOUS
 10
377.0960842226
 20
202.6829268585
 11
376.3460841332
 21
202.6829268585
  0
LINE
  5
384
100
AcDbEntity
  8
BEZUGSACHSEN
100
AcDbLine
 62
7
  6
CONTINUOUS
 10
342.4392247077
 20
202.7808030377
 11
342.9377738569
 21
202.7808030377
  0
LINE
  5
385
100
AcDbEntity
  8
0
100
AcDbLine
 62
7
  6
CONTINUOUS
 10
418.3793945882
 20
202.7808030377
 11
418.8779437374
 21
202.7808030377
  0
LINE
  5
386
100
AcDbEntity
  8
0
100
AcDbLine
 62
7
  6
CONTINUOUS
 10
368.4710842226
 20
208.1829268585
 11
369.5960842226
 21
208.1829268585
  0
LINE
  5
387
100
AcDbEntity
  8
0
100
AcDbLine
 62
7
  6
CONTINUOUS
 10
374.2835840437
 20
208.1829268585
 11
375.5960844014
 21
208.1829268585
  0
LINE
  5
388
100
AcDbEntity
  8
0
100
AcDbLine
 62
7
  6
CONTINUOUS
 10
380.0960838649
 20
208.1829268585
 11
380.8460842226
 21
208.1829268585
  0
LINE
  5
389
100
AcDbEntity
  8
0
100
AcDbLine
 62
7
  6
CONTINUOUS
 10
385.3460842226
 20
208.1829268585
 11
389.8460842226
 21
208.1829268585
  0
LINE
  5
38A
100
AcDbEntity
  8
0
100
AcDbLine
 62
7
  6
CONTINUOUS
 10
389.8460842226
 20
209.3318630258
 11
386.4710842226
 21
209.3318630258
  0
LINE
  5
38B
100
AcDbEntity
  8
0
100
AcDbLine
 62
7
  6
CONTINUOUS
 10
380.8460842226
 20
209.3318630258
 11
380.0960838649
 21
209.3318630258
  0
LINE
  5
38C
100
AcDbEntity
  8
0
100
AcDbLine
 62
7
  6
CONTINUOUS
 10
378.2210842226
 20
202.4914375196
 11
377.0960842226
 21
202.6829268585
  0
LINE
  5
38D
100
AcDbEntity
  8
0
100
AcDbLine
 62
7
  6
CONTINUOUS
 10
386.4710838649
 20
202.4914375196
 11
385.3460838649
 21
202.6829268585
  0
LINE
  5
38E
100
AcDbEntity
  8
0
100
AcDbLine
 62
7
  6
CONTINUOUS
 10
376.9085841332
 20
201.7254801641
 11
377.8460840437
 21
201.5339908252
  0
LINE
  5
38F
100
AcDbEntity
  8
0
100
AcDbLine
 62
7
  6
CONTINUOUS
 10
385.1585845802
 20
201.7254801641
 11
386.0960842226
 21
201.5339908252
  0
LINE
  5
390
100
AcDbEntity
  8
0
100
AcDbLine
 62
7
  6
CONTINUOUS
 10
379.1585842226
 20
208.3744162141
 11
380.0960838649
 21
208.1829268585
  0
LINE
  5
391
100
AcDbEntity
  8
0
100
AcDbLine
 62
7
  6
CONTINUOUS
 10
378.9710840437
 20
202.1084588419
 11
378.2210842226
 21
202.4914375196
  0
LINE
  5
392
100
AcDbEntity
  8
0
100
AcDbLine
 62
7
  6
CONTINUOUS
 10
381.5960845802
 20
209.5233523647
 11
380.8460842226
 21
209.3318630258
  0
LINE
  5
393
100
AcDbEntity
  8
0
100
AcDbLine
 62
7
  6
CONTINUOUS
 10
369.5960842226
 20
212.2042035113
 11
372.7835841332
 21
212.2042035113
  0
LINE
  5
394
100
AcDbEntity
  8
0
100
AcDbLine
 62
7
  6
CONTINUOUS
 10
373.1585840437
 20
213.3531395445
 11
369.5960842226
 21
213.3531395445
  0
LINE
  5
395
100
AcDbEntity
  8
0
100
AcDbLine
 62
7
  6
CONTINUOUS
 10
386.4710842226
 20
216.0339908252
 11
389.8460842226
 21
216.0339908252
  0
LINE
  5
396
100
AcDbEntity
  8
0
100
AcDbLine
 62
7
  6
CONTINUOUS
 10
369.5960842226
 20
216.2254801641
 11
373.1585840437
 21
216.2254801641
  0
LINE
  5
397
100
AcDbEntity
  8
0
100
AcDbLine
 62
7
  6
CONTINUOUS
 10
389.8460842226
 20
217.1829268585
 11
385.3460842226
 21
217.1829268585
  0
LINE
  5
398
100
AcDbEntity
  8
0
100
AcDbLine
 62
7
  6
CONTINUOUS
 10
383.8460845802
 20
217.1829268585
 11
382.7210845802
 21
217.1829268585
  0
LINE
  5
399
100
AcDbEntity
  8
0
100
AcDbLine
 62
7
  6
CONTINUOUS
 10
378.2210845802
 20
217.1829268585
 11
377.0960840437
 21
217.1829268585
  0
LINE
  5
39A
100
AcDbEntity
  8
0
100
AcDbLine
 62
7
  6
CONTINUOUS
 10
372.9710842226
 20
217.1829268585
 11
368.4710842226
 21
217.1829268585
  0
LINE
  5
39B
100
AcDbEntity
  8
0
100
AcDbLine
 62
7
  6
CONTINUOUS
 10
373.9085844014
 20
216.9914375196
 11
372.9710842226
 21
217.1829268585
  0
LINE
  5
39C
100
AcDbEntity
  8
0
100
AcDbLine
 62
7
  6
CONTINUOUS
 10
380.0960838649
 20
209.3318630258
 11
379.3460845802
 21
209.5233523647
  0
LINE
  5
39D
100
AcDbEntity
  8
0
100
AcDbLine
 62
7
  6
CONTINUOUS
 10
373.1585840437
 20
216.2254801641
 11
373.7210840437
 21
216.0339908252
  0
LINE
  5
39E
100
AcDbEntity
  8
0
100
AcDbLine
 62
7
  6
CONTINUOUS
 10
387.2210842226
 20
202.1084588419
 11
386.4710838649
 21
202.4914375196
  0
LINE
  5
39F
100
AcDbEntity
  8
0
100
AcDbLine
 62
7
  6
CONTINUOUS
 10
378.4085838649
 20
208.7573949422
 11
379.1585842226
 21
208.3744162141
  0
LINE
  5
3A0
100
AcDbEntity
  8
0
100
AcDbLine
 62
7
  6
CONTINUOUS
 10
377.8460840437
 20
201.5339908252
 11
378.4085840437
 21
201.1510121475
  0
LINE
  5
3A1
100
AcDbEntity
  8
0
100
AcDbLine
 62
7
  6
CONTINUOUS
 10
386.0960842226
 20
201.5339908252
 11
386.6585842226
 21
201.1510121475
  0
LINE
  5
3A2
100
AcDbEntity
  8
0
100
AcDbLine
 62
7
  6
CONTINUOUS
 10
390.7835849378
 20
216.9914375196
 11
389.8460842226
 21
217.1829268585
  0
LINE
  5
3A3
100
AcDbEntity
  8
0
100
AcDbLine
 62
7
  6
CONTINUOUS
 10
389.8460842226
 20
216.0339908252
 11
390.5960835073
 21
215.8425014864
  0
LINE
  5
3A4
100
AcDbEntity
  8
0
100
AcDbLine
 62
7
  6
CONTINUOUS
 10
379.3460845802
 20
209.5233523647
 11
378.7835845802
 21
209.9063311766
  0
LINE
  5
3A5
100
AcDbEntity
  8
0
100
AcDbLine
 62
7
  6
CONTINUOUS
 10
374.6585842226
 20
216.416969503
 11
373.9085844014
 21
216.9914375196
  0
LINE
  5
3A6
100
AcDbEntity
  8
0
100
AcDbLine
 62
7
  6
CONTINUOUS
 10
379.7210844014
 20
201.3425014864
 11
378.9710840437
 21
202.1084588419
  0
LINE
  5
3A7
100
AcDbEntity
  8
BEZUGSACHSEN
100
AcDbLine
 62
7
  6
CONTINUOUS
 10
332.1585842226
 20
339.5830674127
 11
332.1585842226
 21
387.6829268585
  0
LINE
  5
3A8
100
AcDbEntity
  8
0
100
AcDbLine
 62
7
  6
CONTINUOUS
 10
405.6585842226
 20
234.1829268585
 11
406.1585842226
 21
234.1829268585
  0
LINE
  5
3A9
100
AcDbEntity
  8
0
100
AcDbLine
 62
7
  6
CONTINUOUS
 10
391.5335842226
 20
216.6084588419
 11
390.7835849378
 21
216.9914375196
  0
LINE
  5
3AA
100
AcDbEntity
  8
0
100
AcDbLine
 62
7
  6
CONTINUOUS
 10
390.5960835073
 20
215.8425014864
 11
391.1585835073
 21
215.4595228086
  0
LINE
  5
3AB
100
AcDbEntity
  8
0
100
AcDbLine
 62
7
  6
CONTINUOUS
 10
377.6585845802
 20
209.5233523647
 11
378.4085838649
 21
208.7573949422
  0
LINE
  5
3AC
100
AcDbEntity
  8
0
100
AcDbLine
 62
7
  6
CONTINUOUS
 10
387.9710845802
 20
201.3425014864
 11
387.2210842226
 21
202.1084588419
  0
LINE
  5
3AD
100
AcDbEntity
  8
0
100
AcDbLine
 62
7
  6
CONTINUOUS
 10
373.7210840437
 20
216.0339908252
 11
374.0960842226
 21
215.6510121475
  0
LINE
  5
3AE
100
AcDbEntity
  8
0
100
AcDbLine
 62
7
  6
CONTINUOUS
 10
378.4085840437
 20
201.1510121475
 11
378.7835842226
 21
200.5765441309
  0
LINE
  5
3AF
100
AcDbEntity
  8
0
100
AcDbLine
 62
7
  6
CONTINUOUS
 10
405.6585842226
 20
235.140373687
 11
406.1585842226
 21
235.140373687
  0
LINE
  5
3B0
100
AcDbEntity
  8
0
100
AcDbLine
 62
7
  6
CONTINUOUS
 10
405.6585842226
 20
239.9276075612
 11
406.1585842226
 21
239.9276075612
  0
LINE
  5
3B1
100
AcDbEntity
  8
0
100
AcDbLine
 62
7
  6
CONTINUOUS
 10
405.6585842226
 20
240.6935649167
 11
406.1585842226
 21
240.6935649167
  0
LINE
  5
3B2
100
AcDbEntity
  8
0
100
AcDbLine
 62
7
  6
CONTINUOUS
 10
405.6585842226
 20
241.0765441309
 11
406.1585842226
 21
241.0765441309
  0
LINE
  5
3B3
100
AcDbEntity
  8
0
100
AcDbLine
 62
7
  6
CONTINUOUS
 10
405.6585842226
 20
241.8425014864
 11
406.1585842226
 21
241.8425014864
  0
LINE
  5
3B4
100
AcDbEntity
  8
0
100
AcDbLine
 62
7
  6
CONTINUOUS
 10
405.6585842226
 20
242.6084588419
 11
406.1585842226
 21
242.6084588419
  0
LINE
  5
3B5
100
AcDbEntity
  8
0
100
AcDbLine
 62
7
  6
CONTINUOUS
 10
405.6585842226
 20
242.9914375196
 11
406.1585842226
 21
242.9914375196
  0
LINE
  5
3B6
100
AcDbEntity
  8
0
100
AcDbLine
 62
7
  6
CONTINUOUS
 10
405.6585842226
 20
243.1829268585
 11
406.1585842226
 21
243.1829268585
  0
LINE
  5
3B7
100
AcDbEntity
  8
0
100
AcDbLine
 62
7
  6
CONTINUOUS
 10
392.2835835073
 20
215.8425014864
 11
391.5335842226
 21
216.6084588419
  0
LINE
  5
3B8
100
AcDbEntity
  8
0
100
AcDbLine
 62
7
  6
CONTINUOUS
 10
375.2210842226
 20
215.6510121475
 11
374.6585842226
 21
216.416969503
  0
LINE
  5
3B9
100
AcDbEntity
  8
0
100
AcDbLine
 62
7
  6
CONTINUOUS
 10
378.7835845802
 20
209.9063311766
 11
378.4085838649
 21
210.4807991932
  0
LINE
  5
3BA
100
AcDbEntity
  8
0
100
AcDbLine
 62
7
  6
CONTINUOUS
 10
386.6585842226
 20
201.1510121475
 11
387.0335838649
 21
200.5765441309
  0
LINE
  5
3BB
100
AcDbEntity
  8
BEZUGSACHSEN
100
AcDbLine
 62
7
  6
CONTINUOUS
 10
355.6585842226
 20
232.9536041599
 11
355.6585842226
 21
248.1829268585
  0
LINE
  5
3BC
100
AcDbEntity
  8
0
100
AcDbLine
 62
7
  6
CONTINUOUS
 10
395.6585842226
 20
249.1329268585
 11
396.1585842226
 21
249.1329268585
  0
LINE
  5
3BD
100
AcDbEntity
  8
0
100
AcDbLine
 62
7
  6
CONTINUOUS
 10
395.6585842226
 20
249.3204268641
 11
396.1585842226
 21
249.3204268641
  0
LINE
  5
3BE
100
AcDbEntity
  8
0
100
AcDbLine
 62
7
  6
CONTINUOUS
 10
395.6585842226
 20
249.6954268585
 11
396.1585842226
 21
249.6954268585
  0
LINE
  5
3BF
100
AcDbEntity
  8
0
100
AcDbLine
 62
7
  6
CONTINUOUS
 10
395.6585842226
 20
250.4454268138
 11
396.1585842226
 21
250.4454268138
  0
LINE
  5
3C0
100
AcDbEntity
  8
0
100
AcDbLine
 62
7
  6
CONTINUOUS
 10
395.6585842226
 20
251.1954269032
 11
396.1585842226
 21
251.1954269032
  0
LINE
  5
3C1
100
AcDbEntity
  8
0
100
AcDbLine
 62
7
  6
CONTINUOUS
 10
391.1585835073
 20
215.4595228086
 11
391.5335842226
 21
214.8850542555
  0
LINE
  5
3C2
100
AcDbEntity
  8
0
100
AcDbLine
 62
7
  6
CONTINUOUS
 10
377.2835844014
 20
210.2893098543
 11
377.6585845802
 21
209.5233523647
  0
LINE
  5
3C3
100
AcDbEntity
  8
0
100
AcDbLine
 62
7
  6
CONTINUOUS
 10
375.5960844014
 20
208.1829268585
 11
373.9085844014
 21
212.587182189
  0
LINE
  5
3C4
100
AcDbEntity
  8
0
100
AcDbLine
 62
7
  6
CONTINUOUS
 10
372.7835841332
 20
212.2042035113
 11
374.2835840437
 21
208.1829268585
  0
LINE
  5
3C5
100
AcDbEntity
  8
0
100
AcDbLine
 62
7
  6
CONTINUOUS
 10
374.0960842226
 20
215.6510121475
 11
374.2835840437
 21
215.0765441309
  0
LINE
  5
3C6
100
AcDbEntity
  8
0
100
AcDbLine
 62
7
  6
CONTINUOUS
 10
395.6585842226
 20
252.1329269479
 11
396.1585842226
 21
252.1329269479
  0
LINE
  5
3C7
100
AcDbEntity
  8
0
100
AcDbLine
 62
7
  6
CONTINUOUS
 10
395.6585842226
 20
253.8204266797
 11
396.1585842226
 21
253.8204266797
  0
LINE
  5
3C8
100
AcDbEntity
  8
0
100
AcDbLine
 62
7
  6
CONTINUOUS
 10
395.6585842226
 20
254.7579268585
 11
396.1585842226
 21
254.7579268585
  0
LINE
  5
3C9
100
AcDbEntity
  8
0
100
AcDbLine
 62
7
  6
CONTINUOUS
 10
395.6585842226
 20
255.5079266797
 11
396.1585842226
 21
255.5079266797
  0
LINE
  5
3CA
100
AcDbEntity
  8
0
100
AcDbLine
 62
7
  6
CONTINUOUS
 10
395.6585842226
 20
256.2579270373
 11
396.1585842226
 21
256.2579270373
  0
LINE
  5
3CB
100
AcDbEntity
  8
0
100
AcDbLine
 62
7
  6
CONTINUOUS
 10
395.6585842226
 20
256.4454268585
 11
396.1585842226
 21
256.4454268585
  0
LINE
  5
3CC
100
AcDbEntity
  8
0
100
AcDbLine
 62
7
  6
CONTINUOUS
 10
395.6585842226
 20
257.9454270373
 11
396.1585842226
 21
257.9454270373
  0
LINE
  5
3CD
100
AcDbEntity
  8
0
100
AcDbLine
 62
7
  6
CONTINUOUS
 10
395.6585842226
 20
258.1329268585
 11
396.1585842226
 21
258.1329268585
  0
LINE
  5
3CE
100
AcDbEntity
  8
0
100
AcDbLine
 62
7
  6
CONTINUOUS
 10
395.6585842226
 20
258.5079265009
 11
396.1585842226
 21
258.5079265009
  0
LINE
  5
3CF
100
AcDbEntity
  8
0
100
AcDbLine
 62
7
  6
CONTINUOUS
 10
395.6585842226
 20
259.2579268585
 11
396.1585842226
 21
259.2579268585
  0
LINE
  5
3D0
100
AcDbEntity
  8
0
100
AcDbLine
 62
7
  6
CONTINUOUS
 10
392.6585842226
 20
215.0765441309
 11
392.2835835073
 21
215.8425014864
  0
LINE
  5
3D1
100
AcDbEntity
  8
0
100
AcDbLine
 62
7
  6
CONTINUOUS
 10
375.4085840437
 20
215.0765441309
 11
375.2210842226
 21
215.6510121475
  0
LINE
  5
3D2
100
AcDbEntity
  8
0
100
AcDbLine
 62
7
  6
CONTINUOUS
 10
379.9085842226
 20
200.5765441309
 11
379.7210844014
 21
201.3425014864
  0
LINE
  5
3D3
100
AcDbEntity
  8
0
100
AcDbLine
 62
7
  6
CONTINUOUS
 10
378.4085838649
 20
210.4807991932
 11
378.2210845802
 21
211.2467565487
  0
LINE
  5
3D4
100
AcDbEntity
  8
0
100
AcDbLine
 62
7
  6
CONTINUOUS
 10
377.0960840437
 20
211.2467565487
 11
377.2835844014
 21
210.2893098543
  0
LINE
  5
3D5
100
AcDbEntity
  8
BEZUGSACHSEN
100
AcDbLine
 62
7
  6
CONTINUOUS
 10
365.6585842226
 20
303.8411754379
 11
365.6585842226
 21
241.8750314084
  0
LINE
  5
3D6
100
AcDbEntity
  8
_30_VOLUMEN
100
AcDbLine
 62
7
  6
CONTINUOUS
 10
368.2085842226
 20
329.1329268585
 11
368.2085842226
 21
385.5014356519
  0
LINE
  5
3D7
100
AcDbEntity
  8
0
100
AcDbLine
 62
7
  6
CONTINUOUS
 10
368.4710842226
 20
217.1829268585
 11
368.4710842226
 21
208.1829268585
  0
LINE
  5
3D8
100
AcDbEntity
  8
0
100
AcDbLine
 62
7
  6
CONTINUOUS
 10
369.5960842226
 20
208.1829268585
 11
369.5960842226
 21
212.2042035113
  0
LINE
  5
3D9
100
AcDbEntity
  8
0
100
AcDbLine
 62
7
  6
CONTINUOUS
 10
369.5960842226
 20
213.3531395445
 11
369.5960842226
 21
216.2254801641
  0
LINE
  5
3DA
100
AcDbEntity
  8
0
100
AcDbLine
 62
7
  6
CONTINUOUS
 10
373.1585842226
 20
194.640373687
 11
373.1585842226
 21
193.6829268585
  0
LINE
  5
3DB
100
AcDbEntity
  8
0
100
AcDbLine
 62
7
  6
CONTINUOUS
 10
395.6585842226
 20
260.0079272161
 11
396.1585842226
 21
260.0079272161
  0
LINE
  5
3DC
100
AcDbEntity
  8
0
100
AcDbLine
 62
7
  6
CONTINUOUS
 10
395.6585842226
 20
260.9454268585
 11
396.1585842226
 21
260.9454268585
  0
LINE
  5
3DD
100
AcDbEntity
  8
0
100
AcDbLine
 62
7
  6
CONTINUOUS
 10
395.6585842226
 20
262.6329268585
 11
396.1585842226
 21
262.6329268585
  0
LINE
  5
3DE
100
AcDbEntity
  8
0
100
AcDbLine
 62
7
  6
CONTINUOUS
 10
395.6585842226
 20
263.5704265009
 11
396.1585842226
 21
263.5704265009
  0
LINE
  5
3DF
100
AcDbEntity
  8
0
100
AcDbLine
 62
7
  6
CONTINUOUS
 10
395.6585842226
 20
264.3204268585
 11
396.1585842226
 21
264.3204268585
  0
LINE
  5
3E0
100
AcDbEntity
  8
0
100
AcDbLine
 62
7
  6
CONTINUOUS
 10
395.6585842226
 20
265.0704272161
 11
396.1585842226
 21
265.0704272161
  0
LINE
  5
3E1
100
AcDbEntity
  8
0
100
AcDbLine
 62
7
  6
CONTINUOUS
 10
395.6585842226
 20
265.2579265009
 11
396.1585842226
 21
265.2579265009
  0
LINE
  5
3E2
100
AcDbEntity
  8
0
100
AcDbLine
 62
7
  6
CONTINUOUS
 10
395.6585842226
 20
266.7579272161
 11
396.1585842226
 21
266.7579272161
  0
LINE
  5
3E3
100
AcDbEntity
  8
0
100
AcDbLine
 62
7
  6
CONTINUOUS
 10
395.6585842226
 20
267.3204261432
 11
396.1585842226
 21
267.3204261432
  0
LINE
  5
3E4
100
AcDbEntity
  8
0
100
AcDbLine
 62
7
  6
CONTINUOUS
 10
395.6585842226
 20
267.5079275737
 11
396.1585842226
 21
267.5079275737
  0
LINE
  5
3E5
100
AcDbEntity
  8
0
100
AcDbLine
 62
7
  6
CONTINUOUS
 10
388.1585838649
 20
200.5765441309
 11
387.9710845802
 21
201.3425014864
  0
LINE
  5
3E6
100
AcDbEntity
  8
0
100
AcDbLine
 62
7
  6
CONTINUOUS
 10
374.2835840437
 20
215.0765441309
 11
374.2835840437
 21
214.5020755778
  0
LINE
  5
3E7
100
AcDbEntity
  8
0
100
AcDbLine
 62
7
  6
CONTINUOUS
 10
375.4085840437
 20
214.3105862389
 11
375.4085840437
 21
215.0765441309
  0
LINE
  5
3E8
100
AcDbEntity
  8
0
100
AcDbLine
 62
7
  6
CONTINUOUS
 10
377.0960840437
 20
217.1829268585
 11
377.0960840437
 21
211.2467565487
  0
LINE
  5
3E9
100
AcDbEntity
  8
0
100
AcDbLine
 62
7
  6
CONTINUOUS
 10
378.2210845802
 20
211.2467565487
 11
378.2210845802
 21
217.1829268585
  0
LINE
  5
3EA
100
AcDbEntity
  8
0
100
AcDbLine
 62
7
  6
CONTINUOUS
 10
378.7835842226
 20
200.5765441309
 11
378.7835842226
 21
200.1935649167
  0
LINE
  5
3EB
100
AcDbEntity
  8
0
100
AcDbLine
 62
7
  6
CONTINUOUS
 10
379.9085842226
 20
193.6829268585
 11
379.9085842226
 21
194.640373687
  0
LINE
  5
3EC
100
AcDbEntity
  8
0
100
AcDbLine
 62
7
  6
CONTINUOUS
 10
379.9085842226
 20
200.1935649167
 11
379.9085842226
 21
200.5765441309
  0
LINE
  5
3ED
100
AcDbEntity
  8
_21_KURVEN
100
AcDbLine
 62
4
  6
CONTINUOUS
 10
380.6585842226
 20
334.4354376971
 11
380.6585842226
 21
384.4329268585
  0
LINE
  5
3EE
100
AcDbEntity
  8
0
100
AcDbLine
 62
7
  6
CONTINUOUS
 10
381.4085844014
 20
194.640373687
 11
381.4085844014
 21
193.6829268585
  0
LINE
  5
3EF
100
AcDbEntity
  8
RUNDUNGEN
100
AcDbLine
 62
7
  6
CONTINUOUS
 10
399.72493003
 20
292.5710648734
 11
399.7637653362
 21
292.599548646
  0
LINE
  5
3F0
100
AcDbEntity
  8
RUNDUNGEN
100
AcDbLine
 62
7
  6
CONTINUOUS
 10
399.7637653362
 20
292.599548646
 11
399.8025119045
 21
292.6276821701
  0
LINE
  5
3F1
100
AcDbEntity
  8
RUNDUNGEN
100
AcDbLine
 62
7
  6
CONTINUOUS
 10
399.8025119045
 20
292.6276821701
 11
399.8411631115
 21
292.655465611
  0
LINE
  5
3F2
100
AcDbEntity
  8
RUNDUNGEN
100
AcDbLine
 62
7
  6
CONTINUOUS
 10
399.8411631115
 20
292.655465611
 11
399.8797134704
 21
292.6829000138
  0
LINE
  5
3F3
100
AcDbEntity
  8
RUNDUNGEN
100
AcDbLine
 62
7
  6
CONTINUOUS
 10
399.8797134704
 20
292.6829000138
 11
399.918156377
 21
292.7099856813
  0
LINE
  5
3F4
100
AcDbEntity
  8
RUNDUNGEN
100
AcDbLine
 62
7
  6
CONTINUOUS
 10
399.918156377
 20
292.7099856813
 11
399.9564853218
 21
292.7367230532
  0
LINE
  5
3F5
100
AcDbEntity
  8
RUNDUNGEN
100
AcDbLine
 62
7
  6
CONTINUOUS
 10
399.9564853218
 20
292.7367230532
 11
399.9946948576
 21
292.7631133657
  0
LINE
  5
3F6
100
AcDbEntity
  8
RUNDUNGEN
100
AcDbLine
 62
7
  6
CONTINUOUS
 10
399.9946948576
 20
292.7631133657
 11
400.032779428
 21
292.7891578171
  0
LINE
  5
3F7
100
AcDbEntity
  8
RUNDUNGEN
100
AcDbLine
 62
7
  6
CONTINUOUS
 10
400.032779428
 20
292.7891578171
 11
400.0707267238
 21
292.8148530936
  0
LINE
  5
3F8
100
AcDbEntity
  8
RUNDUNGEN
100
AcDbLine
 62
7
  6
CONTINUOUS
 10
400.0707267238
 20
292.8148530936
 11
400.1085275918
 21
292.8401982026
  0
LINE
  5
3F9
100
AcDbEntity
  8
RUNDUNGEN
100
AcDbLine
 62
7
  6
CONTINUOUS
 10
400.1085275918
 20
292.8401982026
 11
400.1461689907
 21
292.8651897092
  0
LINE
  5
3FA
100
AcDbEntity
  8
RUNDUNGEN
100
AcDbLine
 62
7
  6
CONTINUOUS
 10
400.1461689907
 20
292.8651897092
 11
400.1836381984
 21
292.88982461
  0
LINE
  5
3FB
100
AcDbEntity
  8
RUNDUNGEN
100
AcDbLine
 62
7
  6
CONTINUOUS
 10
400.1836381984
 20
292.88982461
 11
400.2209256626
 21
292.9141021622
  0
LINE
  5
3FC
100
AcDbEntity
  8
RUNDUNGEN
100
AcDbLine
 62
7
  6
CONTINUOUS
 10
400.2209256626
 20
292.9141021622
 11
400.258018732
 21
292.9380197559
  0
LINE
  5
3FD
100
AcDbEntity
  8
RUNDUNGEN
100
AcDbLine
 62
7
  6
CONTINUOUS
 10
400.258018732
 20
292.9380197559
 11
400.2949050084
 21
292.9615751352
  0
LINE
  5
3FE
100
AcDbEntity
  8
RUNDUNGEN
100
AcDbLine
 62
7
  6
CONTINUOUS
 10
400.2949050084
 20
292.9615751352
 11
400.3498248339
 21
292.9962278596
  0
LINE
  5
3FF
100
AcDbEntity
  8
RUNDUNGEN
100
AcDbLine
 62
7
  6
CONTINUOUS
 10
400.3498248339
 20
292.9962278596
 11
400.4042187108
 21
293.0300602044
  0
LINE
  5
400
100
AcDbEntity
  8
RUNDUNGEN
100
AcDbLine
 62
7
  6
CONTINUOUS
 10
400.4042187108
 20
293.0300602044
 11
400.4580503181
 21
293.0630698518
  0
LINE
  5
401
100
AcDbEntity
  8
RUNDUNGEN
100
AcDbLine
 62
7
  6
CONTINUOUS
 10
400.4580503181
 20
293.0630698518
 11
400.5112844454
 21
293.0952557557
  0
LINE
  5
402
100
AcDbEntity
  8
RUNDUNGEN
100
AcDbLine
 62
7
  6
CONTINUOUS
 10
400.5112844454
 20
293.0952557557
 11
400.5638906564
 21
293.1266202277
  0
LINE
  5
403
100
AcDbEntity
  8
RUNDUNGEN
100
AcDbLine
 62
7
  6
CONTINUOUS
 10
400.5638906564
 20
293.1266202277
 11
400.6158741424
 21
293.1571867244
  0
LINE
  5
404
100
AcDbEntity
  8
RUNDUNGEN
100
AcDbLine
 62
7
  6
CONTINUOUS
 10
400.6158741424
 20
293.1571867244
 11
400.6672083931
 21
293.1869596262
  0
LINE
  5
405
100
AcDbEntity
  8
RUNDUNGEN
100
AcDbLine
 62
7
  6
CONTINUOUS
 10
400.6672083931
 20
293.1869596262
 11
400.7176947305
 21
293.215845678
  0
LINE
  5
406
100
AcDbEntity
  8
RUNDUNGEN
100
AcDbLine
 62
7
  6
CONTINUOUS
 10
400.7176947305
 20
293.215845678
 11
400.7671480911
 21
293.2437646287
  0
LINE
  5
407
100
AcDbEntity
  8
RUNDUNGEN
100
AcDbLine
 62
7
  6
CONTINUOUS
 10
400.7671480911
 20
293.2437646287
 11
400.8154350336
 21
293.2706693808
  0
LINE
  5
408
100
AcDbEntity
  8
RUNDUNGEN
100
AcDbLine
 62
7
  6
CONTINUOUS
 10
400.8154350336
 20
293.2706693808
 11
400.8625347331
 21
293.2965771278
  0
LINE
  5
409
100
AcDbEntity
  8
RUNDUNGEN
100
AcDbLine
 62
7
  6
CONTINUOUS
 10
400.8625347331
 20
293.2965771278
 11
400.9083497096
 21
293.3214630999
  0
LINE
  5
40A
100
AcDbEntity
  8
RUNDUNGEN
100
AcDbLine
 62
7
  6
CONTINUOUS
 10
400.9083497096
 20
293.3214630999
 11
400.951090352
 21
293.3444012713
  0
LINE
  5
40B
100
AcDbEntity
  8
RUNDUNGEN
100
AcDbLine
 62
7
  6
CONTINUOUS
 10
400.951090352
 20
293.3444012713
 11
400.9966098599
 21
293.3685380694
  0
LINE
  5
40C
100
AcDbEntity
  8
RUNDUNGEN
100
AcDbLine
 62
7
  6
CONTINUOUS
 10
400.9966098599
 20
293.3685380694
 11
401.0385222825
 21
293.3904959337
  0
LINE
  5
40D
100
AcDbEntity
  8
RUNDUNGEN
100
AcDbLine
 62
7
  6
CONTINUOUS
 10
401.0385222825
 20
293.3904959337
 11
401.0543639943
 21
293.3987259608
  0
LINE
  5
40E
100
AcDbEntity
  8
0
100
AcDbLine
 62
7
  6
CONTINUOUS
 10
395.6585842226
 20
268.2579268585
 11
396.1585842226
 21
268.2579268585
  0
LINE
  5
40F
100
AcDbEntity
  8
0
100
AcDbLine
 62
7
  6
CONTINUOUS
 10
395.6585842226
 20
269.0079261432
 11
396.1585842226
 21
269.0079261432
  0
LINE
  5
410
100
AcDbEntity
  8
0
100
AcDbLine
 62
7
  6
CONTINUOUS
 10
395.6585842226
 20
269.7579275737
 11
396.1585842226
 21
269.7579275737
  0
LINE
  5
411
100
AcDbEntity
  8
0
100
AcDbLine
 62
7
  6
CONTINUOUS
 10
395.6585842226
 20
270.6954261432
 11
396.1585842226
 21
270.6954261432
  0
LINE
  5
412
100
AcDbEntity
  8
0
100
AcDbLine
 62
7
  6
CONTINUOUS
 10
395.6585842226
 20
271.6329268585
 11
396.1585842226
 21
271.6329268585
  0
LINE
  5
413
100
AcDbEntity
  8
0
100
AcDbLine
 62
7
  6
CONTINUOUS
 10
395.6585842226
 20
272.3829261432
 11
396.1585842226
 21
272.3829261432
  0
LINE
  5
414
100
AcDbEntity
  8
0
100
AcDbLine
 62
7
  6
CONTINUOUS
 10
395.6585842226
 20
272.9454261432
 11
396.1585842226
 21
272.9454261432
  0
LINE
  5
415
100
AcDbEntity
  8
0
100
AcDbLine
 62
7
  6
CONTINUOUS
 10
395.6585842226
 20
273.1329275737
 11
396.1585842226
 21
273.1329275737
  0
LINE
  5
416
100
AcDbEntity
  8
0
100
AcDbLine
 62
7
  6
CONTINUOUS
 10
395.6585842226
 20
273.3204268585
 11
396.1585842226
 21
273.3204268585
  0
LINE
  5
417
100
AcDbEntity
  8
0
100
AcDbLine
 62
7
  6
CONTINUOUS
 10
395.6585842226
 20
273.6954275737
 11
396.1585842226
 21
273.6954275737
  0
LINE
  5
418
100
AcDbEntity
  8
0
100
AcDbLine
 62
7
  6
CONTINUOUS
 10
395.6585842226
 20
274.3157611628
 11
396.1585842226
 21
274.3157611628
  0
LINE
  5
419
100
AcDbEntity
  8
0
100
AcDbLine
 62
7
  6
CONTINUOUS
 10
395.6585842226
 20
274.9824271937
 11
396.1585842226
 21
274.9824271937
  0
LINE
  5
41A
100
AcDbEntity
  8
0
100
AcDbLine
 62
7
  6
CONTINUOUS
 10
395.6585842226
 20
275.315760686
 11
396.1585842226
 21
275.315760686
  0
LINE
  5
41B
100
AcDbEntity
  8
0
100
AcDbLine
 62
7
  6
CONTINUOUS
 10
395.6585842226
 20
275.4824276705
 11
396.1585842226
 21
275.4824276705
  0
LINE
  5
41C
100
AcDbEntity
  8
BEZUGSACHSEN
100
AcDbLine
 62
7
  6
CONTINUOUS
 10
362.0266509657
 20
292.2319681271
 11
362.0732436856
 21
292.1932481154
  0
LINE
  5
41D
100
AcDbEntity
  8
BEZUGSACHSEN
100
AcDbLine
 62
7
  6
CONTINUOUS
 10
362.0732436856
 20
292.1932481154
 11
362.1199244127
 21
292.153972748
  0
LINE
  5
41E
100
AcDbEntity
  8
BEZUGSACHSEN
100
AcDbLine
 62
7
  6
CONTINUOUS
 10
362.1199244127
 20
292.153972748
 11
362.1666904319
 21
292.1141341105
  0
LINE
  5
41F
100
AcDbEntity
  8
BEZUGSACHSEN
100
AcDbLine
 62
7
  6
CONTINUOUS
 10
362.1666904319
 20
292.1141341105
 11
362.2135396061
 21
292.0737235592
  0
LINE
  5
420
100
AcDbEntity
  8
BEZUGSACHSEN
100
AcDbLine
 62
7
  6
CONTINUOUS
 10
362.2135396061
 20
292.0737235592
 11
362.260476968
 21
292.0327258835
  0
LINE
  5
421
100
AcDbEntity
  8
BEZUGSACHSEN
100
AcDbLine
 62
7
  6
CONTINUOUS
 10
362.260476968
 20
292.0327258835
 11
362.3075067154
 21
291.9911260163
  0
LINE
  5
422
100
AcDbEntity
  8
BEZUGSACHSEN
100
AcDbLine
 62
7
  6
CONTINUOUS
 10
362.3075067154
 20
291.9911260163
 11
362.3546287901
 21
291.9489121367
  0
LINE
  5
423
100
AcDbEntity
  8
BEZUGSACHSEN
100
AcDbLine
 62
7
  6
CONTINUOUS
 10
362.3546287901
 20
291.9489121367
 11
362.4018466292
 21
291.9060688081
  0
LINE
  5
424
100
AcDbEntity
  8
BEZUGSACHSEN
100
AcDbLine
 62
7
  6
CONTINUOUS
 10
362.4018466292
 20
291.9060688081
 11
362.4491632756
 21
291.8625803467
  0
LINE
  5
425
100
AcDbEntity
  8
BEZUGSACHSEN
100
AcDbLine
 62
7
  6
CONTINUOUS
 10
362.4491632756
 20
291.8625803467
 11
362.4965776299
 21
291.8184343257
  0
LINE
  5
426
100
AcDbEntity
  8
BEZUGSACHSEN
100
AcDbLine
 62
7
  6
CONTINUOUS
 10
362.4965776299
 20
291.8184343257
 11
362.5440919918
 21
291.7736146362
  0
LINE
  5
427
100
AcDbEntity
  8
BEZUGSACHSEN
100
AcDbLine
 62
7
  6
CONTINUOUS
 10
362.5440919918
 20
291.7736146362
 11
362.5917082371
 21
291.728104926
  0
LINE
  5
428
100
AcDbEntity
  8
BEZUGSACHSEN
100
AcDbLine
 62
7
  6
CONTINUOUS
 10
362.5917082371
 20
291.728104926
 11
362.6394241413
 21
291.6818921741
  0
LINE
  5
429
100
AcDbEntity
  8
BEZUGSACHSEN
100
AcDbLine
 62
7
  6
CONTINUOUS
 10
362.6394241413
 20
291.6818921741
 11
362.6872407773
 21
291.6349596122
  0
LINE
  5
42A
100
AcDbEntity
  8
BEZUGSACHSEN
100
AcDbLine
 62
7
  6
CONTINUOUS
 10
362.6872407773
 20
291.6349596122
 11
362.7351587614
 21
291.5872902341
  0
LINE
  5
42B
100
AcDbEntity
  8
BEZUGSACHSEN
100
AcDbLine
 62
7
  6
CONTINUOUS
 10
362.7351587614
 20
291.5872902341
 11
362.7831746524
 21
291.5388704413
  0
LINE
  5
42C
100
AcDbEntity
  8
BEZUGSACHSEN
100
AcDbLine
 62
7
  6
CONTINUOUS
 10
362.7831746524
 20
291.5388704413
 11
362.8312882008
 21
291.489682823
  0
LINE
  5
42D
100
AcDbEntity
  8
BEZUGSACHSEN
100
AcDbLine
 62
7
  6
CONTINUOUS
 10
362.8312882008
 20
291.489682823
 11
362.8794986791
 21
291.4397097228
  0
LINE
  5
42E
100
AcDbEntity
  8
BEZUGSACHSEN
100
AcDbLine
 62
7
  6
CONTINUOUS
 10
362.8794986791
 20
291.4397097228
 11
362.9278012604
 21
291.3889370608
  0
LINE
  5
42F
100
AcDbEntity
  8
BEZUGSACHSEN
100
AcDbLine
 62
7
  6
CONTINUOUS
 10
362.9278012604
 20
291.3889370608
 11
362.9761940939
 21
291.3373469971
  0
LINE
  5
430
100
AcDbEntity
  8
BEZUGSACHSEN
100
AcDbLine
 62
7
  6
CONTINUOUS
 10
362.9761940939
 20
291.3373469971
 11
363.0246744948
 21
291.2849218127
  0
LINE
  5
431
100
AcDbEntity
  8
BEZUGSACHSEN
100
AcDbLine
 62
7
  6
CONTINUOUS
 10
363.0246744948
 20
291.2849218127
 11
363.0732360125
 21
291.2316471633
  0
LINE
  5
432
100
AcDbEntity
  8
BEZUGSACHSEN
100
AcDbLine
 62
7
  6
CONTINUOUS
 10
363.0732360125
 20
291.2316471633
 11
363.1218750152
 21
291.1775049475
  0
LINE
  5
433
100
AcDbEntity
  8
BEZUGSACHSEN
100
AcDbLine
 62
7
  6
CONTINUOUS
 10
363.1218750152
 20
291.1775049475
 11
363.1705873214
 21
291.1224768627
  0
LINE
  5
434
100
AcDbEntity
  8
BEZUGSACHSEN
100
AcDbLine
 62
7
  6
CONTINUOUS
 10
363.1705873214
 20
291.1224768627
 11
363.2193649838
 21
291.0665481085
  0
LINE
  5
435
100
AcDbEntity
  8
BEZUGSACHSEN
100
AcDbLine
 62
7
  6
CONTINUOUS
 10
363.2193649838
 20
291.0665481085
 11
363.2682027615
 21
291.0097000653
  0
LINE
  5
436
100
AcDbEntity
  8
BEZUGSACHSEN
100
AcDbLine
 62
7
  6
CONTINUOUS
 10
363.2682027615
 20
291.0097000653
 11
363.3170948215
 21
290.9519139288
  0
LINE
  5
437
100
AcDbEntity
  8
BEZUGSACHSEN
100
AcDbLine
 62
7
  6
CONTINUOUS
 10
363.3170948215
 20
290.9519139288
 11
363.3660316088
 21
290.8931744838
  0
LINE
  5
438
100
AcDbEntity
  8
BEZUGSACHSEN
100
AcDbLine
 62
7
  6
CONTINUOUS
 10
363.3660316088
 20
290.8931744838
 11
363.4150061507
 21
290.8334626429
  0
LINE
  5
439
100
AcDbEntity
  8
BEZUGSACHSEN
100
AcDbLine
 62
7
  6
CONTINUOUS
 10
363.4150061507
 20
290.8334626429
 11
363.4640108393
 21
290.7727591525
  0
LINE
  5
43A
100
AcDbEntity
  8
BEZUGSACHSEN
100
AcDbLine
 62
7
  6
CONTINUOUS
 10
363.4640108393
 20
290.7727591525
 11
363.5130343904
 21
290.7110484392
  0
LINE
  5
43B
100
AcDbEntity
  8
BEZUGSACHSEN
100
AcDbLine
 62
7
  6
CONTINUOUS
 10
363.5130343904
 20
290.7110484392
 11
363.5620637586
 21
290.6483164427
  0
LINE
  5
43C
100
AcDbEntity
  8
BEZUGSACHSEN
100
AcDbLine
 62
7
  6
CONTINUOUS
 10
363.5620637586
 20
290.6483164427
 11
363.6111031986
 21
290.5845257396
  0
LINE
  5
43D
100
AcDbEntity
  8
BEZUGSACHSEN
100
AcDbLine
 62
7
  6
CONTINUOUS
 10
363.6111031986
 20
290.5845257396
 11
363.6601792268
 21
290.5196069286
  0
LINE
  5
43E
100
AcDbEntity
  8
BEZUGSACHSEN
100
AcDbLine
 62
7
  6
CONTINUOUS
 10
363.6601792268
 20
290.5196069286
 11
363.7093836127
 21
290.4533975101
  0
LINE
  5
43F
100
AcDbEntity
  8
BEZUGSACHSEN
100
AcDbLine
 62
7
  6
CONTINUOUS
 10
363.7093836127
 20
290.4533975101
 11
363.7588261708
 21
290.3856988479
  0
LINE
  5
440
100
AcDbEntity
  8
BEZUGSACHSEN
100
AcDbLine
 62
7
  6
CONTINUOUS
 10
363.7588261708
 20
290.3856988479
 11
363.8085619762
 21
290.3163751894
  0
LWPOLYLINE
  5
441
100
AcDbEntity
  8
BEZUGSACHSEN
100
AcDbPolyline
 62
7
  6
CONTINUOUS
 90
10
 70
0
 10
363.8085619762
 20
290.3163751894
 10
363.8586835332
 20
290.245227316
 10
363.8839185073
 20
290.2089020669
 10
363.9092759909
 20
290.1720517198
 10
363.9347499314
 20
290.1346731967
 10
363.9603754422
 20
290.0967019899
 10
363.9861454283
 20
290.0581344719
 10
364.0120526757
 20
290.0189670223
 10
364.0381302391
 20
289.9791340161
 10
364.0635836123
 20
289.9398447614
  0
LINE
  5
442
100
AcDbEntity
  8
0
100
AcDbLine
 62
7
  6
CONTINUOUS
 10
391.5335842226
 20
214.8850542555
 11
391.7210835073
 21
214.1190969
  0
LINE
  5
443
100
AcDbEntity
  8
0
100
AcDbLine
 62
7
  6
CONTINUOUS
 10
392.8460835073
 20
214.1190969
 11
392.6585842226
 21
215.0765441309
  0
LINE
  5
444
100
AcDbEntity
  8
0
100
AcDbLine
 62
7
  6
CONTINUOUS
 10
382.7210845802
 20
217.1829268585
 11
382.7210845802
 21
211.2467565487
  0
LINE
  5
445
100
AcDbEntity
  8
0
100
AcDbLine
 62
7
  6
CONTINUOUS
 10
383.8460845802
 20
211.2467565487
 11
383.8460845802
 21
217.1829268585
  0
LINE
  5
446
100
AcDbEntity
  8
0
100
AcDbLine
 62
7
  6
CONTINUOUS
 10
385.3460842226
 20
217.1829268585
 11
385.3460842226
 21
208.1829268585
  0
LINE
  5
447
100
AcDbEntity
  8
0
100
AcDbLine
 62
7
  6
CONTINUOUS
 10
386.4710842226
 20
209.3318630258
 11
386.4710842226
 21
216.0339908252
  0
LINE
  5
448
100
AcDbEntity
  8
0
100
AcDbLine
 62
7
  6
CONTINUOUS
 10
387.0335838649
 20
200.5765441309
 11
387.0335838649
 21
200.1935649167
  0
LINE
  5
449
100
AcDbEntity
  8
0
100
AcDbLine
 62
7
  6
CONTINUOUS
 10
388.1585838649
 20
193.6829268585
 11
388.1585838649
 21
194.640373687
  0
LINE
  5
44A
100
AcDbEntity
  8
0
100
AcDbLine
 62
7
  6
CONTINUOUS
 10
388.1585838649
 20
200.1935649167
 11
388.1585838649
 21
200.5765441309
  0
LINE
  5
44B
100
AcDbEntity
  8
0
100
AcDbLine
 62
7
  6
CONTINUOUS
 10
395.6585842226
 20
276.815760686
 11
396.1585842226
 21
276.815760686
  0
LINE
  5
44C
100
AcDbEntity
  8
0
100
AcDbLine
 62
7
  6
CONTINUOUS
 10
395.6585842226
 20
277.9824276705
 11
396.1585842226
 21
277.9824276705
  0
LINE
  5
44D
100
AcDbEntity
  8
0
100
AcDbLine
 62
7
  6
CONTINUOUS
 10
395.6585842226
 20
279.3157609244
 11
396.1585842226
 21
279.3157609244
  0
LINE
  5
44E
100
AcDbEntity
  8
0
100
AcDbLine
 62
7
  6
CONTINUOUS
 10
395.6585842226
 20
282.1490941782
 11
396.1585842226
 21
282.1490941782
  0
LINE
  5
44F
100
AcDbEntity
  8
0
100
AcDbLine
 62
7
  6
CONTINUOUS
 10
395.6585842226
 20
283.1490941782
 11
396.1585842226
 21
283.1490941782
  0
LINE
  5
450
100
AcDbEntity
  8
BEZUGSACHSEN
100
AcDbLine
 62
7
  6
CONTINUOUS
 10
360.2614200568
 20
293.3994427262
 11
360.2926795492
 21
293.3831724726
  0
LINE
  5
451
100
AcDbEntity
  8
BEZUGSACHSEN
100
AcDbLine
 62
7
  6
CONTINUOUS
 10
360.2926795492
 20
293.3831724726
 11
360.337935549
 21
293.3593594155
  0
LINE
  5
452
100
AcDbEntity
  8
BEZUGSACHSEN
100
AcDbLine
 62
7
  6
CONTINUOUS
 10
360.337935549
 20
293.3593594155
 11
360.3781813811
 21
293.3379327452
  0
LINE
  5
453
100
AcDbEntity
  8
BEZUGSACHSEN
100
AcDbLine
 62
7
  6
CONTINUOUS
 10
360.3781813811
 20
293.3379327452
 11
360.4220125804
 21
293.3143281146
  0
LINE
  5
454
100
AcDbEntity
  8
BEZUGSACHSEN
100
AcDbLine
 62
7
  6
CONTINUOUS
 10
360.4220125804
 20
293.3143281146
 11
360.468510301
 21
293.2889783969
  0
LINE
  5
455
100
AcDbEntity
  8
BEZUGSACHSEN
100
AcDbLine
 62
7
  6
CONTINUOUS
 10
360.468510301
 20
293.2889783969
 11
360.5175493018
 21
293.2618955089
  0
LINE
  5
456
100
AcDbEntity
  8
BEZUGSACHSEN
100
AcDbLine
 62
7
  6
CONTINUOUS
 10
360.5175493018
 20
293.2618955089
 11
360.5685606997
 21
293.2333410364
  0
LINE
  5
457
100
AcDbEntity
  8
BEZUGSACHSEN
100
AcDbLine
 62
7
  6
CONTINUOUS
 10
360.5685606997
 20
293.2333410364
 11
360.620719524
 21
293.2037372551
  0
LINE
  5
458
100
AcDbEntity
  8
BEZUGSACHSEN
100
AcDbLine
 62
7
  6
CONTINUOUS
 10
360.620719524
 20
293.2037372551
 11
360.6732070185
 21
293.1735272506
  0
LINE
  5
459
100
AcDbEntity
  8
BEZUGSACHSEN
100
AcDbLine
 62
7
  6
CONTINUOUS
 10
360.6732070185
 20
293.1735272506
 11
360.7263388768
 21
293.1425130758
  0
LINE
  5
45A
100
AcDbEntity
  8
BEZUGSACHSEN
100
AcDbLine
 62
7
  6
CONTINUOUS
 10
360.7263388768
 20
293.1425130758
 11
360.7804068183
 21
293.110500106
  0
LINE
  5
45B
100
AcDbEntity
  8
BEZUGSACHSEN
100
AcDbLine
 62
7
  6
CONTINUOUS
 10
360.7804068183
 20
293.110500106
 11
360.8355955378
 21
293.0773476277
  0
LINE
  5
45C
100
AcDbEntity
  8
BEZUGSACHSEN
100
AcDbLine
 62
7
  6
CONTINUOUS
 10
360.8355955378
 20
293.0773476277
 11
360.8730953443
 21
293.0545439107
  0
LINE
  5
45D
100
AcDbEntity
  8
BEZUGSACHSEN
100
AcDbLine
 62
7
  6
CONTINUOUS
 10
360.8730953443
 20
293.0545439107
 11
360.9112295834
 21
293.031122252
  0
LINE
  5
45E
100
AcDbEntity
  8
BEZUGSACHSEN
100
AcDbLine
 62
7
  6
CONTINUOUS
 10
360.9112295834
 20
293.031122252
 11
360.9500277194
 21
293.0070506072
  0
LINE
  5
45F
100
AcDbEntity
  8
BEZUGSACHSEN
100
AcDbLine
 62
7
  6
CONTINUOUS
 10
360.9500277194
 20
293.0070506072
 11
360.9895442077
 21
292.9822799832
  0
LINE
  5
460
100
AcDbEntity
  8
BEZUGSACHSEN
100
AcDbLine
 62
7
  6
CONTINUOUS
 10
360.9895442077
 20
292.9822799832
 11
361.0297250009
 21
292.9568285418
  0
LINE
  5
461
100
AcDbEntity
  8
BEZUGSACHSEN
100
AcDbLine
 62
7
  6
CONTINUOUS
 10
361.0297250009
 20
292.9568285418
 11
361.0705327725
 21
292.9307046013
  0
LINE
  5
462
100
AcDbEntity
  8
BEZUGSACHSEN
100
AcDbLine
 62
7
  6
CONTINUOUS
 10
361.0705327725
 20
292.9307046013
 11
361.1119003612
 21
292.9039364112
  0
LINE
  5
463
100
AcDbEntity
  8
BEZUGSACHSEN
100
AcDbLine
 62
7
  6
CONTINUOUS
 10
361.1119003612
 20
292.9039364112
 11
361.1537634871
 21
292.8765517425
  0
LINE
  5
464
100
AcDbEntity
  8
BEZUGSACHSEN
100
AcDbLine
 62
7
  6
CONTINUOUS
 10
361.1537634871
 20
292.8765517425
 11
361.1960771963
 21
292.8485669343
  0
LINE
  5
465
100
AcDbEntity
  8
BEZUGSACHSEN
100
AcDbLine
 62
7
  6
CONTINUOUS
 10
361.1960771963
 20
292.8485669343
 11
361.2387753941
 21
292.820013468
  0
LINE
  5
466
100
AcDbEntity
  8
BEZUGSACHSEN
100
AcDbLine
 62
7
  6
CONTINUOUS
 10
361.2387753941
 20
292.820013468
 11
361.281805274
 21
292.7909154066
  0
LINE
  5
467
100
AcDbEntity
  8
BEZUGSACHSEN
100
AcDbLine
 62
7
  6
CONTINUOUS
 10
361.281805274
 20
292.7909154066
 11
361.3251415527
 21
292.7612791721
  0
LINE
  5
468
100
AcDbEntity
  8
BEZUGSACHSEN
100
AcDbLine
 62
7
  6
CONTINUOUS
 10
361.3251415527
 20
292.7612791721
 11
361.3687682134
 21
292.7311052244
  0
LINE
  5
469
100
AcDbEntity
  8
BEZUGSACHSEN
100
AcDbLine
 62
7
  6
CONTINUOUS
 10
361.3687682134
 20
292.7311052244
 11
361.4126739283
 21
292.7003909348
  0
LINE
  5
46A
100
AcDbEntity
  8
BEZUGSACHSEN
100
AcDbLine
 62
7
  6
CONTINUOUS
 10
361.4126739283
 20
292.7003909348
 11
361.4568481733
 21
292.6691331707
  0
LINE
  5
46B
100
AcDbEntity
  8
BEZUGSACHSEN
100
AcDbLine
 62
7
  6
CONTINUOUS
 10
361.4568481733
 20
292.6691331707
 11
361.5012781955
 21
292.6373304489
  0
LINE
  5
46C
100
AcDbEntity
  8
BEZUGSACHSEN
100
AcDbLine
 62
7
  6
CONTINUOUS
 10
361.5012781955
 20
292.6373304489
 11
361.5459511547
 21
292.6049814713
  0
LINE
  5
46D
100
AcDbEntity
  8
BEZUGSACHSEN
100
AcDbLine
 62
7
  6
CONTINUOUS
 10
361.5459511547
 20
292.6049814713
 11
361.5908563473
 21
292.5720834961
  0
LINE
  5
46E
100
AcDbEntity
  8
BEZUGSACHSEN
100
AcDbLine
 62
7
  6
CONTINUOUS
 10
361.5908563473
 20
292.5720834961
 11
361.6359808454
 21
292.5386355012
  0
LINE
  5
46F
100
AcDbEntity
  8
BEZUGSACHSEN
100
AcDbLine
 62
7
  6
CONTINUOUS
 10
361.6359808454
 20
292.5386355012
 11
361.6813116632
 21
292.5046366513
  0
LINE
  5
470
100
AcDbEntity
  8
BEZUGSACHSEN
100
AcDbLine
 62
7
  6
CONTINUOUS
 10
361.6813116632
 20
292.5046366513
 11
361.7268379655
 21
292.4700846198
  0
LINE
  5
471
100
AcDbEntity
  8
BEZUGSACHSEN
100
AcDbLine
 62
7
  6
CONTINUOUS
 10
361.7268379655
 20
292.4700846198
 11
361.7725467068
 21
292.4349788658
  0
LINE
  5
472
100
AcDbEntity
  8
BEZUGSACHSEN
100
AcDbLine
 62
7
  6
CONTINUOUS
 10
361.7725467068
 20
292.4349788658
 11
361.8184248055
 21
292.3993190398
  0
LINE
  5
473
100
AcDbEntity
  8
BEZUGSACHSEN
100
AcDbLine
 62
7
  6
CONTINUOUS
 10
361.8184248055
 20
292.3993190398
 11
361.8644613362
 21
292.3631032566
  0
LINE
  5
474
100
AcDbEntity
  8
BEZUGSACHSEN
100
AcDbLine
 62
7
  6
CONTINUOUS
 10
361.8644613362
 20
292.3631032566
 11
361.9106431837
 21
292.3263314797
  0
LINE
  5
475
100
AcDbEntity
  8
BEZUGSACHSEN
100
AcDbLine
 62
7
  6
CONTINUOUS
 10
361.9106431837
 20
292.3263314797
 11
361.9569572147
 21
292.2890038698
  0
LWPOLYLINE
  5
476
100
AcDbEntity
  8
BEZUGSACHSEN
100
AcDbPolyline
 62
7
  6
CONTINUOUS
 90
3
 70
0
 10
361.9569572147
 20
292.2890038698
 10
362.0033924521
 20
292.2511190089
 10
362.0266509657
 20
292.2319681271
  0
LINE
  5
477
100
AcDbEntity
  8
0
100
AcDbLine
 62
7
  6
CONTINUOUS
 10
391.7210835073
 20
214.1190969
 11
391.7210835073
 21
211.2467565487
  0
LINE
  5
478
100
AcDbEntity
  8
0
100
AcDbLine
 62
7
  6
CONTINUOUS
 10
392.8460835073
 20
211.2467565487
 11
392.8460835073
 21
214.1190969
  0
LINE
  5
479
100
AcDbEntity
  8
_30_VOLUMEN
100
AcDbLine
 62
7
  6
CONTINUOUS
 10
393.1085842226
 20
329.1329268585
 11
393.1085842226
 21
385.5014356519
  0
LINE
  5
47A
100
AcDbEntity
  8
RUNDUNGEN
100
AcDbLine
 62
7
  6
CONTINUOUS
 10
395.6585842226
 20
303.8411754379
 11
395.6585842226
 21
241.8750314084
  0
LINE
  5
47B
100
AcDbEntity
  8
0
100
AcDbLine
 62
7
  6
CONTINUOUS
 10
396.1585842226
 20
283.1490941782
 11
396.1585842226
 21
276.815760686
  0
LINE
  5
47C
100
AcDbEntity
  8
0
100
AcDbLine
 62
7
  6
CONTINUOUS
 10
396.1585842226
 20
275.4824276705
 11
396.1585842226
 21
257.9454270373
  0
LINE
  5
47D
100
AcDbEntity
  8
0
100
AcDbLine
 62
7
  6
CONTINUOUS
 10
396.1585842226
 20
256.4454268585
 11
396.1585842226
 21
249.1329268585
  0
LINE
  5
47E
100
AcDbEntity
  8
0
100
AcDbLine
 62
7
  6
CONTINUOUS
 10
383.6585842226
 20
210.2893098543
 11
383.8460845802
 21
211.2467565487
  0
LINE
  5
47F
100
AcDbEntity
  8
0
100
AcDbLine
 62
7
  6
CONTINUOUS
 10
373.5335842337
 20
201.3425014864
 11
373.3460842281
 21
200.5765441309
  0
LINE
  5
480
100
AcDbEntity
  8
0
100
AcDbLine
 62
7
  6
CONTINUOUS
 10
379.7210844014
 20
199.4276075612
 11
379.9085842226
 21
200.1935649167
  0
LINE
  5
481
100
AcDbEntity
  8
0
100
AcDbLine
 62
7
  6
CONTINUOUS
 10
382.7210845802
 20
211.2467565487
 11
382.5335842226
 21
210.4807991932
  0
LINE
  5
482
100
AcDbEntity
  8
0
100
AcDbLine
 62
7
  6
CONTINUOUS
 10
374.2835840437
 20
214.5020755778
 11
374.0960842226
 21
213.9276075612
  0
LINE
  5
483
100
AcDbEntity
  8
0
100
AcDbLine
 62
7
  6
CONTINUOUS
 10
375.2210842226
 20
213.7361182223
 11
375.4085840437
 21
214.3105862389
  0
LINE
  5
484
100
AcDbEntity
  8
RUNDUNGEN
100
AcDbLine
 62
7
  6
CONTINUOUS
 10
405.6585842226
 20
232.9536041599
 11
405.6585842226
 21
248.1829268585
  0
LINE
  5
485
100
AcDbEntity
  8
0
100
AcDbLine
 62
7
  6
CONTINUOUS
 10
406.1585842226
 20
243.1829268585
 11
406.1585842226
 21
234.1829268585
  0
LINE
  5
486
100
AcDbEntity
  8
0
100
AcDbLine
 62
7
  6
CONTINUOUS
 10
392.6585842226
 20
210.2893098543
 11
392.8460835073
 21
211.2467565487
  0
LINE
  5
487
100
AcDbEntity
  8
0
100
AcDbLine
 62
7
  6
CONTINUOUS
 10
381.7835840437
 20
201.3425014864
 11
381.5960842226
 21
200.5765441309
  0
LINE
  5
488
100
AcDbEntity
  8
0
100
AcDbLine
 62
7
  6
CONTINUOUS
 10
387.9710845802
 20
199.4276075612
 11
388.1585838649
 21
200.1935649167
  0
LINE
  5
489
100
AcDbEntity
  8
0
100
AcDbLine
 62
7
  6
CONTINUOUS
 10
391.7210835073
 20
211.2467565487
 11
391.5335842226
 21
210.4807991932
  0
LINE
  5
48A
100
AcDbEntity
  8
0
100
AcDbLine
 62
7
  6
CONTINUOUS
 10
383.2835845802
 20
209.5233523647
 11
383.6585842226
 21
210.2893098543
  0
LINE
  5
48B
100
AcDbEntity
  8
0
100
AcDbLine
 62
7
  6
CONTINUOUS
 10
378.7835842226
 20
200.1935649167
 11
378.4085840437
 21
199.4276075612
  0
LINE
  5
48C
100
AcDbEntity
  8
0
100
AcDbLine
 62
7
  6
CONTINUOUS
 10
374.6585842226
 20
212.9701608668
 11
375.2210842226
 21
213.7361182223
  0
LINE
  5
48D
100
AcDbEntity
  8
0
100
AcDbLine
 62
7
  6
CONTINUOUS
 10
387.0335838649
 20
200.1935649167
 11
386.6585842226
 21
199.4276075612
  0
LINE
  5
48E
100
AcDbEntity
  8
0
100
AcDbLine
 62
7
  6
CONTINUOUS
 10
392.2835835073
 20
209.5233523647
 11
392.6585842226
 21
210.2893098543
  0
LINE
  5
48F
100
AcDbEntity
  8
0
100
AcDbLine
 62
7
  6
CONTINUOUS
 10
374.2835842226
 20
200.5765441309
 11
374.6585842673
 21
201.1510121475
  0
LINE
  5
490
100
AcDbEntity
  8
0
100
AcDbLine
 62
7
  6
CONTINUOUS
 10
382.5335842226
 20
210.4807991932
 11
382.1585845802
 21
209.9063311766
  0
LINE
  5
491
100
AcDbEntity
  8
0
100
AcDbLine
 62
7
  6
CONTINUOUS
 10
379.3460842226
 20
198.8531395445
 11
379.7210844014
 21
199.4276075612
  0
LINE
  5
492
100
AcDbEntity
  8
0
100
AcDbLine
 62
7
  6
CONTINUOUS
 10
382.5335838649
 20
200.5765441309
 11
382.9085845802
 21
201.1510121475
  0
LINE
  5
493
100
AcDbEntity
  8
0
100
AcDbLine
 62
7
  6
CONTINUOUS
 10
374.0960842226
 20
213.9276075612
 11
373.7210840437
 21
213.5446288834
  0
LINE
  5
494
100
AcDbEntity
  8
RUNDUNGEN
100
AcDbLine
 62
7
  6
CONTINUOUS
 10
429.1585842226
 20
339.5830674127
 11
429.1585842226
 21
387.6829268585
  0
LINE
  5
495
100
AcDbEntity
  8
0
100
AcDbLine
 62
7
  6
CONTINUOUS
 10
391.5335842226
 20
210.4807991932
 11
391.1585835073
 21
209.9063311766
  0
LINE
  5
496
100
AcDbEntity
  8
0
100
AcDbLine
 62
7
  6
CONTINUOUS
 10
387.5960838649
 20
198.8531395445
 11
387.9710845802
 21
199.4276075612
  0
LINE
  5
497
100
AcDbEntity
  8
0
100
AcDbLine
 62
7
  6
CONTINUOUS
 10
374.2835842226
 20
202.1084588419
 11
373.5335842337
 21
201.3425014864
  0
LINE
  5
498
100
AcDbEntity
  8
0
100
AcDbLine
 62
7
  6
CONTINUOUS
 10
382.5335842226
 20
208.7573949422
 11
383.2835845802
 21
209.5233523647
  0
LINE
  5
499
100
AcDbEntity
  8
0
100
AcDbLine
 62
7
  6
CONTINUOUS
 10
382.5335838649
 20
202.1084588419
 11
381.7835840437
 21
201.3425014864
  0
LINE
  5
49A
100
AcDbEntity
  8
0
100
AcDbLine
 62
7
  6
CONTINUOUS
 10
391.5335842226
 20
208.7573949422
 11
392.2835835073
 21
209.5233523647
  0
LINE
  5
49B
100
AcDbEntity
  8
0
100
AcDbLine
 62
7
  6
CONTINUOUS
 10
378.4085840437
 20
199.4276075612
 11
373.1585842226
 21
194.640373687
  0
LINE
  5
49C
100
AcDbEntity
  8
0
100
AcDbLine
 62
7
  6
CONTINUOUS
 10
374.6585842673
 20
194.640373687
 11
379.3460842226
 21
198.8531395445
  0
LINE
  5
49D
100
AcDbEntity
  8
0
100
AcDbLine
 62
7
  6
CONTINUOUS
 10
382.1585845802
 20
209.9063311766
 11
381.5960845802
 21
209.5233523647
  0
LINE
  5
49E
100
AcDbEntity
  8
0
100
AcDbLine
 62
7
  6
CONTINUOUS
 10
374.6585842673
 20
201.1510121475
 11
375.2210842673
 21
201.5339908252
  0
LINE
  5
49F
100
AcDbEntity
  8
0
100
AcDbLine
 62
7
  6
CONTINUOUS
 10
373.9085844014
 20
212.587182189
 11
374.6585842226
 21
212.9701608668
  0
LINE
  5
4A0
100
AcDbEntity
  8
0
100
AcDbLine
 62
7
  6
CONTINUOUS
 10
373.7210840437
 20
213.5446288834
 11
373.1585840437
 21
213.3531395445
  0
LINE
  5
4A1
100
AcDbEntity
  8
0
100
AcDbLine
 62
7
  6
CONTINUOUS
 10
386.6585842226
 20
199.4276075612
 11
381.4085844014
 21
194.640373687
  0
LINE
  5
4A2
100
AcDbEntity
  8
0
100
AcDbLine
 62
7
  6
CONTINUOUS
 10
382.9085845802
 20
194.640373687
 11
387.5960838649
 21
198.8531395445
  0
LINE
  5
4A3
100
AcDbEntity
  8
0
100
AcDbLine
 62
7
  6
CONTINUOUS
 10
391.1585835073
 20
209.9063311766
 11
390.5960835073
 21
209.5233523647
  0
LINE
  5
4A4
100
AcDbEntity
  8
0
100
AcDbLine
 62
7
  6
CONTINUOUS
 10
382.9085845802
 20
201.1510121475
 11
383.4710845802
 21
201.5339908252
  0
LINE
  5
4A5
100
AcDbEntity
  8
0
100
AcDbLine
 62
7
  6
CONTINUOUS
 10
381.7835838649
 20
208.3744162141
 11
382.5335842226
 21
208.7573949422
  0
LINE
  5
4A6
100
AcDbEntity
  8
0
100
AcDbLine
 62
7
  6
CONTINUOUS
 10
375.0335841779
 20
202.4914375196
 11
374.2835842226
 21
202.1084588419
  0
LINE
  5
4A7
100
AcDbEntity
  8
0
100
AcDbLine
 62
7
  6
CONTINUOUS
 10
390.7835849378
 20
208.3744162141
 11
391.5335842226
 21
208.7573949422
  0
LINE
  5
4A8
100
AcDbEntity
  8
0
100
AcDbLine
 62
7
  6
CONTINUOUS
 10
383.2835842226
 20
202.4914375196
 11
382.5335838649
 21
202.1084588419
  0
LINE
  5
4A9
100
AcDbEntity
  8
_26_BEZUGSACHSEN
100
AcDbLine
 62
7
  6
CONTINUOUS
 10
393.1085842226
 20
346.6829268585
 11
368.2085842226
 21
346.6829268585
  0
LINE
  5
4AA
100
AcDbEntity
  8
_26_BEZUGSACHSEN
100
AcDbLine
 62
7
  6
CONTINUOUS
 10
393.1085842226
 20
374.1829268585
 11
368.2085842226
 21
374.1829268585
  0
LINE
  5
4AB
100
AcDbEntity
  8
0
100
AcDbLine
 62
7
  6
CONTINUOUS
 10
335.1585842226
 20
390.6829268585
 11
362.6258970061
 21
390.6829268585
  0
LINE
  5
4AC
100
AcDbEntity
  8
0
100
AcDbLine
 62
7
  6
CONTINUOUS
 10
398.691271439
 20
390.6829268585
 11
426.1585842226
 21
390.6829268585
  0
LINE
  5
4AD
100
AcDbEntity
  8
FASEN
100
AcDbLine
 62
7
  6
CONTINUOUS
 10
97.8231707317
 20
53.8830983232
 11
97.8231707317
 21
107.8830983232
  0
LINE
  5
4AE
100
AcDbEntity
  8
FASEN
100
AcDbLine
 62
7
  6
CONTINUOUS
 10
98.8231707317
 20
52.8830983232
 11
98.8231707317
 21
108.8830983232
  0
LINE
  5
4AF
100
AcDbEntity
  8
FASEN
100
AcDbLine
 62
7
  6
CONTINUOUS
 10
97.8231707317
 20
107.8830983232
 11
98.8231707317
 21
108.8830983232
  0
LINE
  5
4B0
100
AcDbEntity
  8
FASEN
100
AcDbLine
 62
7
  6
CONTINUOUS
 10
97.8231707317
 20
53.8830983232
 11
98.8231707317
 21
52.8830983232
  0
LINE
  5
4B1
100
AcDbEntity
  8
FASEN
100
AcDbLine
 62
7
  6
CONTINUOUS
 10
116.8231707317
 20
52.8830983232
 11
116.8231707317
 21
108.8830983232
  0
LINE
  5
4B2
100
AcDbEntity
  8
BEZUGSACHSEN
100
AcDbLine
 62
7
  6
CONTINUOUS
 10
117.8231707317
 20
51.8830983232
 11
117.8231707317
 21
109.8830983232
  0
LINE
  5
4B3
100
AcDbEntity
  8
BEZUGSACHSEN
100
AcDbLine
 62
7
  6
CONTINUOUS
 10
121.8231707317
 20
46.8830983239
 11
121.8231707317
 21
61.6378153043
  0
LINE
  5
4B4
100
AcDbEntity
  8
RUNDUNGEN
100
AcDbLine
 62
7
  6
CONTINUOUS
 10
121.8231707317
 20
46.9289116758
 11
121.8231707317
 21
69.8830983232
  0
LINE
  5
4B5
100
AcDbEntity
  8
BEZUGSACHSEN
100
AcDbLine
 62
7
  6
CONTINUOUS
 10
121.8231707317
 20
69.8830983232
 11
121.8231707317
 21
114.8830983225
  0
LINE
  5
4B6
100
AcDbEntity
  8
RUNDUNGEN
100
AcDbLine
 62
7
  6
CONTINUOUS
 10
121.8231707317
 20
100.128381342
 11
121.8231707317
 21
114.8609708161
  0
LINE
  5
4B7
100
AcDbEntity
  8
0
100
AcDbLine
 62
7
  6
CONTINUOUS
 10
132.1231707317
 20
65.8830983232
 11
132.1231707317
 21
65.3830983232
  0
LINE
  5
4B8
100
AcDbEntity
  8
0
100
AcDbLine
 62
7
  6
CONTINUOUS
 10
132.3146600706
 20
65.8830983232
 11
132.3146600706
 21
65.3830983232
  0
LINE
  5
4B9
100
AcDbEntity
  8
0
100
AcDbLine
 62
7
  6
CONTINUOUS
 10
132.8891280872
 20
65.8830983232
 11
132.8891280872
 21
65.3830983232
  0
LINE
  5
4BA
100
AcDbEntity
  8
0
100
AcDbLine
 62
7
  6
CONTINUOUS
 10
133.6550854427
 20
65.8830983232
 11
133.6550854427
 21
65.3830983232
  0
LINE
  5
4BB
100
AcDbEntity
  8
0
100
AcDbLine
 62
7
  6
CONTINUOUS
 10
134.2295534593
 20
65.8830983232
 11
134.2295534593
 21
65.3830983232
  0
LINE
  5
4BC
100
AcDbEntity
  8
0
100
AcDbLine
 62
7
  6
CONTINUOUS
 10
134.4210433346
 20
65.8830983232
 11
134.4210433346
 21
65.3830983232
  0
LINE
  5
4BD
100
AcDbEntity
  8
0
100
AcDbLine
 62
7
  6
CONTINUOUS
 10
134.8040220124
 20
65.8830983232
 11
134.8040220124
 21
65.3830983232
  0
LINE
  5
4BE
100
AcDbEntity
  8
0
100
AcDbLine
 62
7
  6
CONTINUOUS
 10
135.378490029
 20
65.8830983232
 11
135.378490029
 21
65.3830983232
  0
LINE
  5
4BF
100
AcDbEntity
  8
0
100
AcDbLine
 62
7
  6
CONTINUOUS
 10
135.7614687068
 20
65.8830983232
 11
135.7614687068
 21
65.3830983232
  0
LINE
  5
4C0
100
AcDbEntity
  8
0
100
AcDbLine
 62
7
  6
CONTINUOUS
 10
135.9529580456
 20
65.8830983232
 11
135.9529580456
 21
65.3830983232
  0
LINE
  5
4C1
100
AcDbEntity
  8
0
100
AcDbLine
 62
7
  6
CONTINUOUS
 10
136.1444473845
 20
65.8830983232
 11
136.1444473845
 21
65.3830983232
  0
LINE
  5
4C2
100
AcDbEntity
  8
0
100
AcDbLine
 62
7
  6
CONTINUOUS
 10
136.5274260623
 20
65.8722850311
 11
136.5274260623
 21
65.3830983232
  0
LINE
  5
4C3
100
AcDbEntity
  8
0
100
AcDbLine
 62
7
  6
CONTINUOUS
 10
137.2933834178
 20
65.8055766761
 11
137.2933834178
 21
65.3830983232
  0
LINE
  5
4C4
100
AcDbEntity
  8
0
100
AcDbLine
 62
7
  6
CONTINUOUS
 10
138.0593410415
 20
65.6820112712
 11
138.0593410415
 21
65.3830983232
  0
LINE
  5
4C5
100
AcDbEntity
  8
RUNDUNGEN
100
AcDbLine
 62
7
  6
CONTINUOUS
 10
149.0731707317
 20
32.3830983232
 11
207.5731707317
 21
32.3830983232
  0
LINE
  5
4C6
100
AcDbEntity
  8
0
100
AcDbLine
 62
7
  6
CONTINUOUS
 10
139.0167877359
 20
65.4376570704
 11
139.0167877359
 21
65.3830983232
  0
LINE
  5
4C7
100
AcDbEntity
  8
0
100
AcDbLine
 62
7
  6
CONTINUOUS
 10
240.8797726185
 20
42.3831041041
 11
240.8796312946
 21
42.3831021496
  0
LINE
  5
4C8
100
AcDbEntity
  8
_30_VOLUMEN
100
AcDbLine
 62
7
  6
CONTINUOUS
 10
146.0731707317
 20
35.3830983232
 11
146.0731707317
 21
71.0146159524
  0
LINE
  5
4C9
100
AcDbEntity
  8
_30_VOLUMEN
100
AcDbLine
 62
7
  6
CONTINUOUS
 10
146.0731707317
 20
90.751580694
 11
146.0731707317
 21
126.3830983232
  0
LINE
  5
4CA
100
AcDbEntity
  8
0
100
AcDbLine
 62
7
  6
CONTINUOUS
 10
221.3231707317
 20
42.3830983232
 11
240.6447720885
 21
42.3830983232
  0
LINE
  5
4CB
100
AcDbEntity
  8
0
100
AcDbLine
 62
7
  6
CONTINUOUS
 10
221.8231707317
 20
42.4201893574
 11
232.8231707317
 21
42.4201893574
  0
LINE
  5
4CC
100
AcDbEntity
  8
0
100
AcDbLine
 62
7
  6
CONTINUOUS
 10
249.7231707317
 20
42.8830983232
 11
240.8797726185
 21
42.8830983232
  0
LINE
  5
4CD
100
AcDbEntity
  8
0
100
AcDbLine
 62
7
  6
CONTINUOUS
 10
221.3231707317
 20
42.8830983232
 11
210.5731707317
 21
42.8830983232
  0
LINE
  5
4CE
100
AcDbEntity
  8
0
100
AcDbLine
 62
7
  6
CONTINUOUS
 10
146.0731707317
 20
42.8830983232
 11
125.8231707317
 21
42.8830983232
  0
LINE
  5
4CF
100
AcDbEntity
  8
0
100
AcDbLine
 62
7
  6
CONTINUOUS
 10
232.8231707317
 20
42.9196656251
 11
221.8231707317
 21
42.9196656251
  0
LINE
  5
4D0
100
AcDbEntity
  8
FASEN
100
AcDbLine
 62
7
  6
CONTINUOUS
 10
117.8231707317
 20
53.8830983232
 11
116.8231707317
 21
52.8830983232
  0
LINE
  5
4D1
100
AcDbEntity
  8
0
100
AcDbLine
 62
7
  6
CONTINUOUS
 10
117.8231707317
 20
51.8830983232
 11
119.8231707317
 21
51.8830983232
  0
LINE
  5
4D2
100
AcDbEntity
  8
0
100
AcDbLine
 62
7
  6
CONTINUOUS
 10
116.8231707317
 20
52.8830983232
 11
98.8231707317
 21
52.8830983232
  0
LINE
  5
4D3
100
AcDbEntity
  8
0
100
AcDbLine
 62
7
  6
CONTINUOUS
 10
237.8231703741
 20
55.3830983232
 11
231.0731709105
 21
55.3830983232
  0
LINE
  5
4D4
100
AcDbEntity
  8
0
100
AcDbLine
 62
7
  6
CONTINUOUS
 10
229.5731707317
 20
55.3830983232
 11
222.8231707317
 21
55.3830983232
  0
LINE
  5
4D5
100
AcDbEntity
  8
FASEN
100
AcDbLine
 62
7
  6
CONTINUOUS
 10
117.8231707317
 20
107.8830983232
 11
116.8231707317
 21
108.8830983232
  0
LINE
  5
4D6
100
AcDbEntity
  8
_26_BEZUGSACHSEN
100
AcDbLine
 62
7
  6
CONTINUOUS
 10
164.5731707317
 20
93.3330983232
 11
164.5731707317
 21
68.4330983232
  0
LINE
  5
4D7
100
AcDbEntity
  8
_30_VOLUMEN
100
AcDbLine
 62
7
  6
CONTINUOUS
 10
249.7231707317
 20
55.8830983232
 11
210.5731707317
 21
55.8830983232
  0
LINE
  5
4D8
100
AcDbEntity
  8
_30_VOLUMEN
100
AcDbLine
 62
7
  6
CONTINUOUS
 10
249.7231707317
 20
56.6869459005
 11
234.5231707317
 21
56.6869459005
  0
LINE
  5
4D9
100
AcDbEntity
  8
_30_VOLUMEN
100
AcDbLine
 62
7
  6
CONTINUOUS
 10
249.7231707317
 20
58.8830983232
 11
250.2231707317
 21
58.8830983232
  0
LINE
  5
4DA
100
AcDbEntity
  8
0
100
AcDbLine
 62
7
  6
CONTINUOUS
 10
256.0857836344
 20
64.3830983232
 11
250.9231707317
 21
64.3830983232
  0
LINE
  5
4DB
100
AcDbEntity
  8
0
100
AcDbLine
 62
7
  6
CONTINUOUS
 10
225.3173468082
 20
65.3830983232
 11
217.4588791073
 21
65.3830983232
  0
LINE
  5
4DC
100
AcDbEntity
  8
0
100
AcDbLine
 62
7
  6
CONTINUOUS
 10
139.1874623723
 20
65.3830983232
 11
132.1231707317
 21
65.3830983232
  0
LINE
  5
4DD
100
AcDbEntity
  8
_30_VOLUMEN
100
AcDbLine
 62
7
  6
CONTINUOUS
 10
249.7231707317
 20
65.6330983232
 11
234.5231707317
 21
65.6330983232
  0
LINE
  5
4DE
100
AcDbEntity
  8
_30_VOLUMEN
100
AcDbLine
 62
7
  6
CONTINUOUS
 10
250.2231707317
 20
65.8830983232
 11
242.8231707317
 21
65.8830983232
  0
LINE
  5
4DF
100
AcDbEntity
  8
RUNDUNGEN
100
AcDbLine
 62
7
  6
CONTINUOUS
 10
242.8231707317
 20
65.8830983232
 11
220.5731707317
 21
65.8830983232
  0
LINE
  5
4E0
100
AcDbEntity
  8
RUNDUNGEN
100
AcDbLine
 62
7
  6
CONTINUOUS
 10
136.0731707317
 20
65.8830983232
 11
125.8231707317
 21
65.8830983232
  0
LINE
  5
4E1
100
AcDbEntity
  8
_30_VOLUMEN
100
AcDbLine
 62
7
  6
CONTINUOUS
 10
250.8231707317
 20
67.3830983232
 11
256.0231707317
 21
67.3830983232
  0
LINE
  5
4E2
100
AcDbEntity
  8
_30_VOLUMEN
100
AcDbLine
 62
7
  6
CONTINUOUS
 10
146.0731707317
 20
68.4330983232
 11
210.5731707317
 21
68.4330983232
  0
LINE
  5
4E3
100
AcDbEntity
  8
0
100
AcDbLine
 62
7
  6
CONTINUOUS
 10
250.8231707317
 20
68.8830983232
 11
250.2231707317
 21
68.8830983232
  0
LINE
  5
4E4
100
AcDbEntity
  8
_30_VOLUMEN
100
AcDbLine
 62
7
  6
CONTINUOUS
 10
246.8231707317
 20
72.8830983232
 11
250.2231707317
 21
72.8830983232
  0
LINE
  5
4E5
100
AcDbEntity
  8
_30_VOLUMEN
100
AcDbLine
 62
7
  6
CONTINUOUS
 10
250.2231707317
 20
74.2830983232
 11
250.8231707317
 21
74.2830983232
  0
LINE
  5
4E6
100
AcDbEntity
  8
_21_KURVEN
100
AcDbLine
 62
4
  6
CONTINUOUS
 10
130.9760195426
 20
80.8830983232
 11
225.6703211232
 21
80.8830983232
  0
LINE
  5
4E7
100
AcDbEntity
  8
_30_VOLUMEN
100
AcDbLine
 62
7
  6
CONTINUOUS
 10
250.8231707317
 20
80.8830983232
 11
256.0231707317
 21
80.8830983232
  0
LINE
  5
4E8
100
AcDbEntity
  8
_30_VOLUMEN
100
AcDbLine
 62
7
  6
CONTINUOUS
 10
250.2231707317
 20
87.4830983232
 11
250.8231707317
 21
87.4830983232
  0
LINE
  5
4E9
100
AcDbEntity
  8
_26_BEZUGSACHSEN
100
AcDbLine
 62
7
  6
CONTINUOUS
 10
192.0731707317
 20
93.3330983232
 11
192.0731707317
 21
68.4330983232
  0
LINE
  5
4EA
100
AcDbEntity
  8
_30_VOLUMEN
100
AcDbLine
 62
7
  6
CONTINUOUS
 10
250.2231707317
 20
88.8830983232
 11
246.8231707317
 21
88.8830983232
  0
LINE
  5
4EB
100
AcDbEntity
  8
0
100
AcDbLine
 62
7
  6
CONTINUOUS
 10
250.8231707317
 20
92.8830983232
 11
250.2231707317
 21
92.8830983232
  0
LINE
  5
4EC
100
AcDbEntity
  8
_30_VOLUMEN
100
AcDbLine
 62
7
  6
CONTINUOUS
 10
146.0731707317
 20
93.3330983232
 11
210.5731707317
 21
93.3330983232
  0
LINE
  5
4ED
100
AcDbEntity
  8
_30_VOLUMEN
100
AcDbLine
 62
7
  6
CONTINUOUS
 10
250.8231707317
 20
94.3830983232
 11
256.0231707317
 21
94.3830983232
  0
LINE
  5
4EE
100
AcDbEntity
  8
BEZUGSACHSEN
100
AcDbLine
 62
7
  6
CONTINUOUS
 10
242.8231707317
 20
95.8830983232
 11
220.5731707317
 21
95.8830983232
  0
LINE
  5
4EF
100
AcDbEntity
  8
BEZUGSACHSEN
100
AcDbLine
 62
7
  6
CONTINUOUS
 10
136.0731707317
 20
95.8830983232
 11
125.8231707317
 21
95.8830983232
  0
LINE
  5
4F0
100
AcDbEntity
  8
_30_VOLUMEN
100
AcDbLine
 62
7
  6
CONTINUOUS
 10
242.8231707317
 20
95.8830983232
 11
250.2231707317
 21
95.8830983232
  0
LINE
  5
4F1
100
AcDbEntity
  8
_30_VOLUMEN
100
AcDbLine
 62
7
  6
CONTINUOUS
 10
249.7231707317
 20
96.1330983232
 11
234.5231707317
 21
96.1330983232
  0
LINE
  5
4F2
100
AcDbEntity
  8
0
100
AcDbLine
 62
7
  6
CONTINUOUS
 10
256.0857836344
 20
97.3830983232
 11
250.9231707317
 21
97.3830983232
  0
LINE
  5
4F3
100
AcDbEntity
  8
_30_VOLUMEN
100
AcDbLine
 62
7
  6
CONTINUOUS
 10
210.5731707317
 20
35.3830983232
 11
210.5731707317
 21
71.007892985
  0
LINE
  5
4F4
100
AcDbEntity
  8
_30_VOLUMEN
100
AcDbLine
 62
7
  6
CONTINUOUS
 10
210.5731707317
 20
90.7583036614
 11
210.5731707317
 21
126.3830983232
  0
LINE
  5
4F5
100
AcDbEntity
  8
_30_VOLUMEN
100
AcDbLine
 62
7
  6
CONTINUOUS
 10
249.7231707317
 20
102.8830983232
 11
250.2231707317
 21
102.8830983232
  0
LINE
  5
4F6
100
AcDbEntity
  8
_30_VOLUMEN
100
AcDbLine
 62
7
  6
CONTINUOUS
 10
234.5231707317
 20
105.0792507459
 11
249.7231707317
 21
105.0792507459
  0
LINE
  5
4F7
100
AcDbEntity
  8
_30_VOLUMEN
100
AcDbLine
 62
7
  6
CONTINUOUS
 10
249.7231707317
 20
105.8830983232
 11
210.5731707317
 21
105.8830983232
  0
LINE
  5
4F8
100
AcDbEntity
  8
0
100
AcDbLine
 62
7
  6
CONTINUOUS
 10
116.8231707317
 20
108.8830983232
 11
98.8231707317
 21
108.8830983232
  0
LINE
  5
4F9
100
AcDbEntity
  8
BEZUGSACHSEN
100
AcDbLine
 62
7
  6
CONTINUOUS
 10
119.8231707317
 20
109.8830983232
 11
117.8231707317
 21
109.8830983232
  0
LINE
  5
4FA
100
AcDbEntity
  8
0
100
AcDbLine
 62
7
  6
CONTINUOUS
 10
221.3231707317
 20
42.9010119022
 11
221.3231707317
 21
42.3830983232
  0
LINE
  5
4FB
100
AcDbEntity
  8
BEZUGSACHSEN
100
AcDbLine
 62
7
  6
CONTINUOUS
 10
221.3231707317
 20
118.8651847441
 11
221.3231707317
 21
119.3830983232
  0
LINE
  5
4FC
100
AcDbEntity
  8
0
100
AcDbLine
 62
7
  6
CONTINUOUS
 10
222.8231707317
 20
55.8830983232
 11
222.8231707317
 21
55.3830983232
  0
LINE
  5
4FD
100
AcDbEntity
  8
0
100
AcDbLine
 62
7
  6
CONTINUOUS
 10
223.0106707373
 20
55.8830983232
 11
223.0106707373
 21
55.3830983232
  0
LINE
  5
4FE
100
AcDbEntity
  8
0
100
AcDbLine
 62
7
  6
CONTINUOUS
 10
223.1981707429
 20
55.8830983232
 11
223.1981707429
 21
55.3830983232
  0
LINE
  5
4FF
100
AcDbEntity
  8
0
100
AcDbLine
 62
7
  6
CONTINUOUS
 10
223.9481707317
 20
55.8830983232
 11
223.9481707317
 21
55.3830983232
  0
LINE
  5
500
100
AcDbEntity
  8
0
100
AcDbLine
 62
7
  6
CONTINUOUS
 10
268.8362009467
 20
69.0238706993
 11
256.0857836344
 21
64.3830983232
  0
LINE
  5
501
100
AcDbEntity
  8
BEZUGSACHSEN
100
AcDbLine
 62
7
  6
CONTINUOUS
 10
232.8231707317
 20
118.8465310213
 11
221.8231707317
 21
118.8465310213
  0
LINE
  5
502
100
AcDbEntity
  8
0
100
AcDbLine
 62
7
  6
CONTINUOUS
 10
249.7231707317
 20
118.8830983232
 11
240.8797726185
 21
118.8830983232
  0
LINE
  5
503
100
AcDbEntity
  8
0
100
AcDbLine
 62
7
  6
CONTINUOUS
 10
221.3231707317
 20
118.8830983232
 11
210.5731707317
 21
118.8830983232
  0
LINE
  5
504
100
AcDbEntity
  8
0
100
AcDbLine
 62
7
  6
CONTINUOUS
 10
146.0731707317
 20
118.8830983232
 11
125.8231707317
 21
118.8830983232
  0
LINE
  5
505
100
AcDbEntity
  8
BEZUGSACHSEN
100
AcDbLine
 62
7
  6
CONTINUOUS
 10
221.8231707317
 20
119.346007289
 11
232.8231707317
 21
119.346007289
  0
LINE
  5
506
100
AcDbEntity
  8
BEZUGSACHSEN
100
AcDbLine
 62
7
  6
CONTINUOUS
 10
240.6447720885
 20
119.3830983232
 11
221.3231707317
 21
119.3830983232
  0
LINE
  5
507
100
AcDbEntity
  8
BEZUGSACHSEN
100
AcDbLine
 62
7
  6
CONTINUOUS
 10
240.8797726185
 20
119.3830925422
 11
240.8796312946
 21
119.3830944968
  0
LINE
  5
508
100
AcDbEntity
  8
0
100
AcDbLine
 62
7
  6
CONTINUOUS
 10
268.8362009467
 20
92.742325947
 11
256.0857836344
 21
97.3830983232
  0
LINE
  5
509
100
AcDbEntity
  8
0
100
AcDbLine
 62
7
  6
CONTINUOUS
 10
224.698170687
 20
55.8830983232
 11
224.698170687
 21
55.3830983232
  0
LINE
  5
50A
100
AcDbEntity
  8
0
100
AcDbLine
 62
7
  6
CONTINUOUS
 10
225.3173468082
 20
65.8830983232
 11
225.3173468082
 21
65.3830983232
  0
LINE
  5
50B
100
AcDbEntity
  8
0
100
AcDbLine
 62
7
  6
CONTINUOUS
 10
226.0106706423
 20
55.8830983232
 11
226.0106706423
 21
55.3830983232
  0
LINE
  5
50C
100
AcDbEntity
  8
0
100
AcDbLine
 62
7
  6
CONTINUOUS
 10
226.7606707317
 20
55.8830983232
 11
226.7606707317
 21
55.3830983232
  0
LINE
  5
50D
100
AcDbEntity
  8
0
100
AcDbLine
 62
7
  6
CONTINUOUS
 10
227.8856707317
 20
55.8830983232
 11
227.8856707317
 21
55.3830983232
  0
LINE
  5
50E
100
AcDbEntity
  8
0
100
AcDbLine
 62
7
  6
CONTINUOUS
 10
228.6356705529
 20
55.8830983232
 11
228.6356705529
 21
55.3830983232
  0
LINE
  5
50F
100
AcDbEntity
  8
0
100
AcDbLine
 62
7
  6
CONTINUOUS
 10
229.3856709105
 20
55.8830983232
 11
229.3856709105
 21
55.3830983232
  0
LINE
  5
510
100
AcDbEntity
  8
0
100
AcDbLine
 62
7
  6
CONTINUOUS
 10
229.5731707317
 20
55.8830983232
 11
229.5731707317
 21
55.3830983232
  0
LINE
  5
511
100
AcDbEntity
  8
0
100
AcDbLine
 62
7
  6
CONTINUOUS
 10
231.0731709105
 20
55.8830983232
 11
231.0731709105
 21
55.3830983232
  0
LINE
  5
512
100
AcDbEntity
  8
0
100
AcDbLine
 62
7
  6
CONTINUOUS
 10
231.2606707317
 20
55.8830983232
 11
231.2606707317
 21
55.3830983232
  0
LINE
  5
513
100
AcDbEntity
  8
0
100
AcDbLine
 62
7
  6
CONTINUOUS
 10
231.4481705529
 20
55.8830983232
 11
231.4481705529
 21
55.3830983232
  0
LINE
  5
514
100
AcDbEntity
  8
0
100
AcDbLine
 62
7
  6
CONTINUOUS
 10
232.1981703741
 20
55.8830983232
 11
232.1981703741
 21
55.3830983232
  0
LINE
  5
515
100
AcDbEntity
  8
0
100
AcDbLine
 62
7
  6
CONTINUOUS
 10
232.9481707317
 20
55.8830983232
 11
232.9481707317
 21
55.3830983232
  0
LINE
  5
516
100
AcDbEntity
  8
0
100
AcDbLine
 62
7
  6
CONTINUOUS
 10
233.3231707317
 20
43.1046995903
 11
233.3231707317
 21
42.4455983615
  0
LINE
  5
517
100
AcDbEntity
  8
BEZUGSACHSEN
100
AcDbLine
 62
7
  6
CONTINUOUS
 10
233.3231707317
 20
118.661497056
 11
233.3231707317
 21
119.3205982849
  0
LINE
  5
518
100
AcDbEntity
  8
0
100
AcDbLine
 62
7
  6
CONTINUOUS
 10
234.2606710893
 20
55.8830983232
 11
234.2606710893
 21
55.3830983232
  0
LINE
  5
519
100
AcDbEntity
  8
_30_VOLUMEN
100
AcDbLine
 62
7
  6
CONTINUOUS
 10
234.5231707317
 20
56.6869459005
 11
234.5231707317
 21
65.8830983232
  0
LINE
  5
51A
100
AcDbEntity
  8
_30_VOLUMEN
100
AcDbLine
 62
7
  6
CONTINUOUS
 10
234.5231707317
 20
95.8830983232
 11
234.5231707317
 21
105.0792507459
  0
LINE
  5
51B
100
AcDbEntity
  8
_30_VOLUMEN
100
AcDbLine
 62
7
  6
CONTINUOUS
 10
234.6231707317
 20
96.1330983232
 11
234.6231707317
 21
95.8830983232
  0
LINE
  5
51C
100
AcDbEntity
  8
_30_VOLUMEN
100
AcDbLine
 62
7
  6
CONTINUOUS
 10
234.6231707317
 20
65.8830983232
 11
234.6231707317
 21
65.6330983232
  0
LINE
  5
51D
100
AcDbEntity
  8
0
100
AcDbLine
 62
7
  6
CONTINUOUS
 10
235.0106703741
 20
55.8830983232
 11
235.0106703741
 21
55.3830983232
  0
LINE
  5
51E
100
AcDbEntity
  8
0
100
AcDbLine
 62
7
  6
CONTINUOUS
 10
236.1356703741
 20
55.8830983232
 11
236.1356703741
 21
55.3830983232
  0
LINE
  5
51F
100
AcDbEntity
  8
0
100
AcDbLine
 62
7
  6
CONTINUOUS
 10
236.8856707317
 20
55.8830983232
 11
236.8856707317
 21
55.3830983232
  0
LINE
  5
520
100
AcDbEntity
  8
BEZUGSACHSEN
100
AcDbLine
 62
7
  6
CONTINUOUS
 10
149.0731707317
 20
129.3830983232
 11
207.5731707317
 21
129.3830983232
  0
LINE
  5
521
100
AcDbEntity
  8
0
100
AcDbLine
 62
7
  6
CONTINUOUS
 10
237.6356710893
 20
55.8830983232
 11
237.6356710893
 21
55.3830983232
  0
LINE
  5
522
100
AcDbEntity
  8
0
100
AcDbLine
 62
7
  6
CONTINUOUS
 10
237.8231703741
 20
55.8830983232
 11
237.8231703741
 21
55.3830983232
  0
LINE
  5
523
100
AcDbEntity
  8
BEZUGSACHSEN
100
AcDbLine
 62
7
  6
CONTINUOUS
 10
240.8797726185
 20
119.3830964639
 11
240.8797726185
 21
118.8830983232
  0
LINE
  5
524
100
AcDbEntity
  8
0
100
AcDbLine
 62
7
  6
CONTINUOUS
 10
240.8797726185
 20
42.8830983232
 11
240.8797726185
 21
42.3831001824
  0
LINE
  5
525
100
AcDbEntity
  8
BEZUGSACHSEN
100
AcDbLine
 62
7
  6
CONTINUOUS
 10
246.8231707317
 20
91.8830983232
 11
246.8231707317
 21
69.8830983232
  0
LINE
  5
526
100
AcDbEntity
  8
_30_VOLUMEN
100
AcDbLine
 62
7
  6
CONTINUOUS
 10
249.7231707317
 20
42.8830983272
 11
249.7231707317
 21
65.6330983232
  0
LINE
  5
527
100
AcDbEntity
  8
_30_VOLUMEN
100
AcDbLine
 62
7
  6
CONTINUOUS
 10
249.7231707317
 20
96.1330983232
 11
249.7231707317
 21
118.8830983191
  0
LINE
  5
528
100
AcDbEntity
  8
_30_VOLUMEN
100
AcDbLine
 62
7
  6
CONTINUOUS
 10
250.2231707317
 20
102.8830983212
 11
250.2231707317
 21
58.8830983252
  0
LINE
  5
529
100
AcDbEntity
  8
_30_VOLUMEN
100
AcDbLine
 62
7
  6
CONTINUOUS
 10
250.8231707317
 20
94.3830983232
 11
250.8231707317
 21
67.3830983232
  0
LINE
  5
52A
100
AcDbEntity
  8
0
100
AcDbLine
 62
7
  6
CONTINUOUS
 10
250.9231707317
 20
67.3830983232
 11
250.9231707317
 21
64.3830983232
  0
LINE
  5
52B
100
AcDbEntity
  8
0
100
AcDbLine
 62
7
  6
CONTINUOUS
 10
250.9231707317
 20
94.3830983232
 11
250.9231707317
 21
97.3830983232
  0
LINE
  5
52C
100
AcDbEntity
  8
_30_VOLUMEN
100
AcDbLine
 62
7
  6
CONTINUOUS
 10
256.0231707317
 20
94.3830983232
 11
256.0231707317
 21
67.3830983232
  0
LINE
  5
52D
100
AcDbEntity
  8
0
100
AcDbLine
 62
7
  6
CONTINUOUS
 10
256.0857836344
 20
64.3830983232
 11
256.0857836344
 21
97.3830983232
  0
LINE
  5
52E
100
AcDbEntity
  8
RUNDUNGEN
100
AcDbLine
 62
7
  6
CONTINUOUS
 10
269.8231707317
 20
70.4334096305
 11
269.8231707317
 21
91.3327870159
  0
ARC
  5
52F
100
AcDbEntity
  8
BEZUGSACHSEN
100
AcDbCircle
 62
7
  6
CONTINUOUS
 10
161.8231707317
 20
278.6829268585
 40
40.0
100
AcDbArc
 50
120.9974549863
 51
180.0
  0
ARC
  5
530
100
AcDbEntity
  8
RUNDUNGEN
100
AcDbCircle
 62
7
  6
CONTINUOUS
 10
161.8231707317
 20
278.6829268585
 40
40.0
100
AcDbArc
 50
120.9974549863
 51
180.0
  0
ARC
  5
531
100
AcDbEntity
  8
_30_VOLUMEN
100
AcDbCircle
 62
7
  6
CONTINUOUS
 10
178.3231707317
 20
358.4329268585
 40
32.25
100
AcDbArc
 50
174.2174008882
 51
180.0
  0
ARC
  5
532
100
AcDbEntity
  8
RUNDUNGEN
100
AcDbCircle
 62
7
  6
CONTINUOUS
 10
178.3231707317
 20
358.4329268585
 40
32.25
100
AcDbArc
 50
0.0
 51
180.0
  0
ARC
  5
533
100
AcDbEntity
  8
_21_KURVEN
100
AcDbCircle
 62
4
  6
CONTINUOUS
 10
131.3231707317
 20
358.4329268585
 40
24.0
100
AcDbArc
 50
269.1712105858
 51
307.9229266445
  0
ARC
  5
534
100
AcDbEntity
  8
_21_KURVEN
100
AcDbCircle
 62
4
  6
CONTINUOUS
 10
225.3231707317
 20
358.4329268585
 40
24.0
100
AcDbArc
 50
232.0770733555
 51
270.8287894142
  0
ARC
  5
535
100
AcDbEntity
  8
RUNDUNGEN
100
AcDbCircle
 62
7
  6
CONTINUOUS
 10
194.8231707317
 20
278.6829268585
 40
10.0
100
AcDbArc
 50
0.0
 51
90.0
  0
ARC
  5
536
100
AcDbEntity
  8
RUNDUNGEN
100
AcDbCircle
 62
7
  6
CONTINUOUS
 10
161.8231707317
 20
278.6829268585
 40
10.0
100
AcDbArc
 50
90.0
 51
180.0
  0
ARC
  5
537
100
AcDbEntity
  8
RUNDUNGEN
100
AcDbCircle
 62
7
  6
CONTINUOUS
 10
220.5731707317
 20
321.5511843458
 40
10.0
100
AcDbArc
 50
180.0000000002
 51
240.0
  0
ARC
  5
538
100
AcDbEntity
  8
RUNDUNGEN
100
AcDbCircle
 62
7
  6
CONTINUOUS
 10
236.8231707317
 20
289.0752317039
 40
10.0
100
AcDbArc
 50
0.0
 51
60.0
  0
ARC
  5
539
100
AcDbEntity
  8
RUNDUNGEN
100
AcDbCircle
 62
7
  6
CONTINUOUS
 10
136.0731707317
 20
321.5424204721
 40
9.9999902072
100
AcDbArc
 50
300.9974999841
 51
0.0000873743
  0
ARC
  5
53A
100
AcDbEntity
  8
BEZUGSACHSEN
100
AcDbCircle
 62
7
  6
CONTINUOUS
 10
136.0731707317
 20
321.5424204721
 40
9.9999902072
100
AcDbArc
 50
300.9974999841
 51
330.9209860649
  0
ARC
  5
53B
100
AcDbEntity
  8
_30_VOLUMEN
100
AcDbCircle
 62
7
  6
CONTINUOUS
 10
242.7231707317
 20
263.6829268585
 40
7.5
100
AcDbArc
 50
0.0
 51
90.0
  0
ARC
  5
53C
100
AcDbEntity
  8
_30_VOLUMEN
100
AcDbCircle
 62
7
  6
CONTINUOUS
 10
242.1231707317
 20
263.6829268585
 40
7.5
100
AcDbArc
 50
90.0
 51
180.0
  0
ARC
  5
53D
100
AcDbEntity
  8
RUNDUNGEN
100
AcDbCircle
 62
7
  6
CONTINUOUS
 10
208.8231707317
 20
164.1829268585
 40
4.0
100
AcDbArc
 50
180.0
 51
270.0
  0
ARC
  5
53E
100
AcDbEntity
  8
RUNDUNGEN
100
AcDbCircle
 62
7
  6
CONTINUOUS
 10
147.8231707317
 20
164.1829268585
 40
4.0
100
AcDbArc
 50
270.0
 51
360.0
  0
ARC
  5
53F
100
AcDbEntity
  8
RUNDUNGEN
100
AcDbCircle
 62
7
  6
CONTINUOUS
 10
125.8231707317
 20
164.1829268585
 40
4.0
100
AcDbArc
 50
180.0
 51
270.0
  0
ARC
  5
540
100
AcDbEntity
  8
BEZUGSACHSEN
100
AcDbCircle
 62
7
  6
CONTINUOUS
 10
119.8231707317
 20
229.1829268585
 40
2.0
100
AcDbArc
 50
270.0
 51
359.9999999998
  0
ARC
  5
541
100
AcDbEntity
  8
BEZUGSACHSEN
100
AcDbCircle
 62
7
  6
CONTINUOUS
 10
119.8231707317
 20
167.1829268585
 40
2.0
100
AcDbArc
 50
0.0
 51
90.0
  0
ARC
  5
542
100
AcDbEntity
  8
RUNDUNGEN
100
AcDbCircle
 62
7
  6
CONTINUOUS
 10
268.3231707317
 20
208.6326155512
 40
1.5
100
AcDbArc
 50
0.0
 51
69.9999999998
  0
ARC
  5
543
100
AcDbEntity
  8
RUNDUNGEN
100
AcDbCircle
 62
7
  6
CONTINUOUS
 10
268.3231707317
 20
187.7332381658
 40
1.5
100
AcDbArc
 50
290.0000000002
 51
360.0
  0
ARC
  5
544
100
AcDbEntity
  8
0
100
AcDbCircle
 62
7
  6
CONTINUOUS
 10
233.8231707317
 20
202.2808030377
 40
0.5
100
AcDbArc
 50
57.9946167919
 51
180.0
  0
ARC
  5
545
100
AcDbEntity
  8
0
100
AcDbCircle
 62
7
  6
CONTINUOUS
 10
232.8231707317
 20
200.3495935251
 40
0.5
100
AcDbArc
 50
270.0
 51
360.0
  0
ARC
  5
546
100
AcDbEntity
  8
0
100
AcDbCircle
 62
7
  6
CONTINUOUS
 10
221.8231707317
 20
199.3495935251
 40
0.5
100
AcDbArc
 50
90.0
 51
180.0
  0
ARC
  5
547
100
AcDbEntity
  8
0
100
AcDbCircle
 62
7
  6
CONTINUOUS
 10
221.8231707317
 20
197.0162601918
 40
0.5
100
AcDbArc
 50
180.0
 51
270.0
  0
ARC
  5
548
100
AcDbEntity
  8
0
100
AcDbCircle
 62
7
  6
CONTINUOUS
 10
232.8231707317
 20
196.0162601918
 40
0.5
100
AcDbArc
 50
0.0
 51
90.0
  0
ARC
  5
549
100
AcDbEntity
  8
0
100
AcDbCircle
 62
7
  6
CONTINUOUS
 10
233.8231707317
 20
194.0850506792
 40
0.5
100
AcDbArc
 50
180.0
 51
302.0053832081
  0
ARC
  5
54A
100
AcDbEntity
  8
0
100
AcDbCircle
 62
7
  6
CONTINUOUS
 10
240.3797726185
 20
198.1829268585
 40
0.5
100
AcDbArc
 50
302.0053832081
 51
57.9946167919
  0
ARC
  5
54B
100
AcDbEntity
  8
BEZUGSACHSEN
100
AcDbCircle
 62
7
  6
CONTINUOUS
 10
350.6585842226
 20
241.8750314084
 40
15.0
100
AcDbArc
 50
304.4743846098
 51
360.0
  0
ARC
  5
54C
100
AcDbEntity
  8
BEZUGSACHSEN
100
AcDbCircle
 62
7
  6
CONTINUOUS
 10
340.6585842226
 20
232.9536041599
 40
15.0
100
AcDbArc
 50
319.0006463498
 51
360.0
  0
ARC
  5
54D
100
AcDbEntity
  8
BEZUGSACHSEN
100
AcDbCircle
 62
7
  6
CONTINUOUS
 10
355.6585842226
 20
284.5217506353
 40
9.9999910613
100
AcDbArc
 50
0.0000064827
 51
62.6336727193
  0
ARC
  5
54E
100
AcDbEntity
  8
BEZUGSACHSEN
100
AcDbCircle
 62
7
  6
CONTINUOUS
 10
361.6585842226
 20
248.1829268585
 40
6.0
100
AcDbArc
 50
95.2159085705
 51
180.0
  0
ARC
  5
54F
100
AcDbEntity
  8
BEZUGSACHSEN
100
AcDbCircle
 62
7
  6
CONTINUOUS
 10
360.6585842226
 20
259.1373780086
 40
5.0
100
AcDbArc
 50
275.2159085705
 51
360.0
  0
ARC
  5
550
100
AcDbEntity
  8
_30_VOLUMEN
100
AcDbCircle
 62
7
  6
CONTINUOUS
 10
267.8912786496
 20
358.4461360623
 40
131.9479526204
100
AcDbArc
 50
359.9942641654
 51
1.2970654054
  0
ARC
  5
551
100
AcDbEntity
  8
RUNDUNGEN
100
AcDbCircle
 62
7
  6
CONTINUOUS
 10
377.1585842226
 20
339.5830674127
 40
52.0
100
AcDbArc
 50
297.3662939232
 51
360.0
  0
ARC
  5
552
100
AcDbEntity
  8
_30_VOLUMEN
100
AcDbCircle
 62
7
  6
CONTINUOUS
 10
373.1585842226
 20
396.4329268585
 40
12.0
100
AcDbArc
 50
208.6309898369
 51
245.63802206
  0
ARC
  5
553
100
AcDbEntity
  8
BEZUGSACHSEN
100
AcDbCircle
 62
7
  6
CONTINUOUS
 10
335.1585842226
 20
387.6829268585
 40
3.0
100
AcDbArc
 50
90.0
 51
180.0
  0
ARC
  5
554
100
AcDbEntity
  8
0
100
AcDbCircle
 62
7
  6
CONTINUOUS
 10
381.1585842226
 20
198.1710397262
 40
38.0
100
AcDbArc
 50
353.0684253455
 51
6.9676864439
  0
ARC
  5
555
100
AcDbEntity
  8
BEZUGSACHSEN
100
AcDbCircle
 62
7
  6
CONTINUOUS
 10
380.1585842226
 20
198.1710397262
 40
38.0
100
AcDbArc
 50
173.0323135561
 51
186.9315746545
  0
ARC
  5
556
100
AcDbEntity
  8
BEZUGSACHSEN
100
AcDbCircle
 62
7
  6
CONTINUOUS
 10
380.6585842226
 20
198.1829268585
 40
38.0
100
AcDbArc
 50
124.4743846098
 51
55.5256153902
  0
CIRCLE
  5
557
100
AcDbEntity
  8
BEZUGSACHSEN
100
AcDbCircle
 62
7
  6
CONTINUOUS
 10
380.6585842226
 20
198.1829268585
 40
29.0
  0
CIRCLE
  5
558
100
AcDbEntity
  8
FASEN
100
AcDbCircle
 62
7
  6
CONTINUOUS
 10
380.6585842226
 20
198.1829268585
 40
28.0
  0
CIRCLE
  5
559
100
AcDbEntity
  8
FASEN
100
AcDbCircle
 62
7
  6
CONTINUOUS
 10
380.6585842226
 20
198.1829268585
 40
27.0
  0
ARC
  5
55A
100
AcDbEntity
  8
RUNDUNGEN
100
AcDbCircle
 62
7
  6
CONTINUOUS
 10
399.6585842226
 20
248.1829268585
 40
6.0
100
AcDbArc
 50
0.0
 51
84.7840914295
  0
ARC
  5
55B
100
AcDbEntity
  8
RUNDUNGEN
100
AcDbCircle
 62
7
  6
CONTINUOUS
 10
420.6585842226
 20
232.9536041599
 40
15.0
100
AcDbArc
 50
180.0
 51
220.9993536502
  0
ARC
  5
55C
100
AcDbEntity
  8
RUNDUNGEN
100
AcDbCircle
 62
7
  6
CONTINUOUS
 10
410.6585842226
 20
241.8750314084
 40
15.0
100
AcDbArc
 50
180.0
 51
235.5256153902
  0
ARC
  5
55D
100
AcDbEntity
  8
RUNDUNGEN
100
AcDbCircle
 62
7
  6
CONTINUOUS
 10
405.6585842226
 20
284.5217506353
 40
9.9999910613
100
AcDbArc
 50
117.3663272807
 51
180.0
  0
ARC
  5
55E
100
AcDbEntity
  8
RUNDUNGEN
100
AcDbCircle
 62
7
  6
CONTINUOUS
 10
400.6585842226
 20
259.1373780086
 40
5.0
100
AcDbArc
 50
193.7936982051
 51
264.7840914295
  0
ARC
  5
55F
100
AcDbEntity
  8
_30_VOLUMEN
100
AcDbCircle
 62
7
  6
CONTINUOUS
 10
489.8205987932
 20
358.4867657213
 40
128.3426722494
100
AcDbArc
 50
178.6846352455
 51
180.0240351837
  0
ARC
  5
560
100
AcDbEntity
  8
BEZUGSACHSEN
100
AcDbCircle
 62
7
  6
CONTINUOUS
 10
384.1585842226
 20
339.5830674127
 40
52.0
100
AcDbArc
 50
180.0
 51
242.6337060768
  0
ARC
  5
561
100
AcDbEntity
  8
_30_VOLUMEN
100
AcDbCircle
 62
7
  6
CONTINUOUS
 10
380.6585842226
 20
329.1329268585
 40
12.45
100
AcDbArc
 50
180.0
 51
360.0
  0
ARC
  5
562
100
AcDbEntity
  8
_30_VOLUMEN
100
AcDbCircle
 62
7
  6
CONTINUOUS
 10
388.1585842226
 20
396.4329268585
 40
12.0
100
AcDbArc
 50
294.36197794
 51
331.3690101631
  0
ARC
  5
563
100
AcDbEntity
  8
RUNDUNGEN
100
AcDbCircle
 62
7
  6
CONTINUOUS
 10
426.1585842226
 20
387.6829268585
 40
3.0
100
AcDbArc
 50
0.0
 51
90.0
  0
ARC
  5
564
100
AcDbEntity
  8
_30_VOLUMEN
100
AcDbCircle
 62
7
  6
CONTINUOUS
 10
143.3231707317
 20
88.3830983232
 40
12.0
100
AcDbArc
 50
24.36197794
 51
76.7519850943
  0
ARC
  5
565
100
AcDbEntity
  8
_30_VOLUMEN
100
AcDbCircle
 62
7
  6
CONTINUOUS
 10
213.3231707317
 20
88.3830983232
 40
12.0
100
AcDbArc
 50
103.2480149057
 51
155.63802206
  0
ARC
  5
566
100
AcDbEntity
  8
_30_VOLUMEN
100
AcDbCircle
 62
7
  6
CONTINUOUS
 10
143.3231707317
 20
73.3830983232
 40
12.0
100
AcDbArc
 50
283.2480149057
 51
335.63802206
  0
ARC
  5
567
100
AcDbEntity
  8
_30_VOLUMEN
100
AcDbCircle
 62
7
  6
CONTINUOUS
 10
213.3231707317
 20
73.3830983232
 40
12.0
100
AcDbArc
 50
204.36197794
 51
256.7519850943
  0
ARC
  5
568
100
AcDbEntity
  8
RUNDUNGEN
100
AcDbCircle
 62
7
  6
CONTINUOUS
 10
220.5731707317
 20
55.883100124
 40
9.9999987137
100
AcDbArc
 50
90.0
 51
180.0000103179
  0
ARC
  5
569
100
AcDbEntity
  8
BEZUGSACHSEN
100
AcDbCircle
 62
7
  6
CONTINUOUS
 10
220.5731707317
 20
105.8830965224
 40
9.9999987137
100
AcDbArc
 50
179.9999896821
 51
270.0
  0
ARC
  5
56A
100
AcDbEntity
  8
RUNDUNGEN
100
AcDbCircle
 62
7
  6
CONTINUOUS
 10
136.0731724535
 20
55.8830983232
 40
9.9999986755
100
AcDbArc
 50
0.0
 51
90.0000098652
  0
ARC
  5
56B
100
AcDbEntity
  8
BEZUGSACHSEN
100
AcDbCircle
 62
7
  6
CONTINUOUS
 10
136.0731724535
 20
105.8830983232
 40
9.9999986755
100
AcDbArc
 50
270.0
 51
360.0
  0
ARC
  5
56C
100
AcDbEntity
  8
RUNDUNGEN
100
AcDbCircle
 62
7
  6
CONTINUOUS
 10
125.8231707317
 20
46.8830983232
 40
4.0
100
AcDbArc
 50
180.0
 51
270.0
  0
ARC
  5
56D
100
AcDbEntity
  8
RUNDUNGEN
100
AcDbCircle
 62
7
  6
CONTINUOUS
 10
125.8231707317
 20
114.8830983232
 40
4.0
100
AcDbArc
 50
90.0
 51
180.0
  0
ARC
  5
56E
100
AcDbEntity
  8
RUNDUNGEN
100
AcDbCircle
 62
7
  6
CONTINUOUS
 10
125.8231707317
 20
69.8830983232
 40
4.0
100
AcDbArc
 50
180.0
 51
270.0
  0
ARC
  5
56F
100
AcDbEntity
  8
RUNDUNGEN
100
AcDbCircle
 62
7
  6
CONTINUOUS
 10
242.8231707317
 20
69.8830983232
 40
4.0
100
AcDbArc
 50
270.0
 51
360.0
  0
ARC
  5
570
100
AcDbEntity
  8
BEZUGSACHSEN
100
AcDbCircle
 62
7
  6
CONTINUOUS
 10
125.8231707317
 20
91.8830983232
 40
4.0
100
AcDbArc
 50
90.0
 51
180.0
  0
ARC
  5
571
100
AcDbEntity
  8
BEZUGSACHSEN
100
AcDbCircle
 62
7
  6
CONTINUOUS
 10
242.8231707317
 20
91.8830983232
 40
4.0
100
AcDbArc
 50
0.0
 51
90.0
  0
ARC
  5
572
100
AcDbEntity
  8
RUNDUNGEN
100
AcDbCircle
 62
7
  6
CONTINUOUS
 10
207.5731707317
 20
35.3830983232
 40
3.0
100
AcDbArc
 50
270.0
 51
360.0
  0
ARC
  5
573
100
AcDbEntity
  8
RUNDUNGEN
100
AcDbCircle
 62
7
  6
CONTINUOUS
 10
149.0731707317
 20
35.3830983232
 40
3.0
100
AcDbArc
 50
180.0
 51
270.0
  0
ARC
  5
574
100
AcDbEntity
  8
BEZUGSACHSEN
100
AcDbCircle
 62
7
  6
CONTINUOUS
 10
207.5731707317
 20
126.3830983232
 40
3.0
100
AcDbArc
 50
0.0
 51
90.0
  0
ARC
  5
575
100
AcDbEntity
  8
BEZUGSACHSEN
100
AcDbCircle
 62
7
  6
CONTINUOUS
 10
149.0731707317
 20
126.3830983232
 40
3.0
100
AcDbArc
 50
90.0
 51
180.0
  0
ARC
  5
576
100
AcDbEntity
  8
BEZUGSACHSEN
100
AcDbCircle
 62
7
  6
CONTINUOUS
 10
119.8231707317
 20
111.8830983232
 40
2.0
100
AcDbArc
 50
270.0
 51
360.0
  0
ARC
  5
577
100
AcDbEntity
  8
RUNDUNGEN
100
AcDbCircle
 62
7
  6
CONTINUOUS
 10
119.8231707317
 20
49.8830983232
 40
2.0
100
AcDbArc
 50
0.0
 51
90.0
  0
ARC
  5
578
100
AcDbEntity
  8
RUNDUNGEN
100
AcDbCircle
 62
7
  6
CONTINUOUS
 10
268.3231707317
 20
91.3327870159
 40
1.5
100
AcDbArc
 50
0.0
 51
70.0
  0
ARC
  5
579
100
AcDbEntity
  8
RUNDUNGEN
100
AcDbCircle
 62
7
  6
CONTINUOUS
 10
268.3231707317
 20
70.4334096305
 40
1.5
100
AcDbArc
 50
290.0
 51
360.0
  0
SPLINE
  5
57A
100
AcDbEntity
  8
_30_VOLUMEN
100
AcDbSpline
 62
7
  6
CONTINUOUS
 70
0
 71
3
 72
14
 73
10
 74
0
 42
0.0000001
 43
0.0000001
 44
0.0000000001
 40
0.0
 40
0.0
 40
0.0
 40
0.0
 40
0.1250983654
 40
0.2501925613
 40
0.5000637269
 40
0.6251058285
 40
0.7501158202
 40
0.8750808071
 40
1.0
 40
1.0
 40
1.0
 40
1.0
 10
361.4779378363
 20
358.4329268585
 30
0.0
 10
361.4779378363
 20
357.6124622608
 30
0.0
 10
361.5091314802
 20
355.9709302144
 30
0.0
 10
361.720771128
 20
352.6990521297
 30
0.0
 10
362.2565823747
 20
349.4389846725
 30
0.0
 10
363.3883795838
 20
346.3502259349
 30
0.0
 10
364.5955733128
 20
344.1926706295
 30
0.0
 10
366.1887742835
 20
342.2989445538
 30
0.0
 10
367.5033863641
 20
341.2917660633
 30
0.0
 10
368.2085842226
 20
340.8747154189
 30
0.0
  0
SPLINE
  5
57B
100
AcDbEntity
  8
_30_VOLUMEN
100
AcDbSpline
 62
7
  6
CONTINUOUS
 70
0
 71
3
 72
14
 73
10
 74
0
 42
0.0000001
 43
0.0000001
 44
0.0000000001
 40
0.0
 40
0.0
 40
0.0
 40
0.0
 40
0.1249159866
 40
0.2498784412
 40
0.3748867361
 40
0.4999288701
 40
0.7498033572
 40
0.8748997343
 40
1.0
 40
1.0
 40
1.0
 40
1.0
 10
393.1085842226
 20
340.8747154189
 30
0.0
 10
393.813763995
 20
341.2917553673
 30
0.0
 10
395.1283499956
 20
342.2989044629
 30
0.0
 10
396.72152931
 20
344.1925837877
 30
0.0
 10
397.9287351755
 20
346.350100631
 30
0.0
 10
399.0605539836
 20
349.4388634035
 30
0.0
 10
399.5963992255
 20
352.6989636217
 30
0.0
 10
399.8080295752
 20
355.9708911838
 30
0.0
 10
399.8392306088
 20
357.6124497809
 30
0.0
 10
399.8392306088
 20
358.4329268585
 30
0.0
  0
SPLINE
  5
57C
100
AcDbEntity
  8
_30_VOLUMEN
100
AcDbSpline
 62
7
  6
CONTINUOUS
 70
0
 71
3
 72
26
 73
22
 74
0
 42
0.0000001
 43
0.0000001
 44
0.0000000001
 40
0.0
 40
0.0
 40
0.0
 40
0.0
 40
0.0002944371
 40
0.001177265
 40
0.0026477534
 40
0.0047051719
 40
0.010577151
 40
0.0187796818
 40
0.029295218
 40
0.0421011511
 40
0.0571690846
 40
0.0744674342
 40
0.1155985838
 40
0.1651397615
 40
0.2226650262
 40
0.2876816613
 40
0.3596344044
 40
0.4379093322
 40
0.6107102545
 40
0.8002173605
 40
1.0
 40
1.0
 40
1.0
 40
1.0
 10
362.6258970061
 20
390.6829268584
 30
0.0
 10
362.6264270645
 20
390.6857505059
 30
0.0
 10
362.6241021234
 20
390.6604256156
 30
0.0
 10
362.6242814673
 20
390.6480030203
 30
0.0
 10
362.6209608617
 20
390.5974651887
 30
0.0
 10
362.6164081739
 20
390.5104872856
 30
0.0
 10
362.6072432251
 20
390.3499066664
 30
0.0
 10
362.5941829288
 20
390.111980237
 30
0.0
 10
362.5772284083
 20
389.8042097438
 30
0.0
 10
362.5568876963
 20
389.4304093271
 30
0.0
 10
362.5331738956
 20
388.9902015303
 30
0.0
 10
362.4950878844
 20
388.2740961917
 30
0.0
 10
362.440405415
 20
387.221972431
 30
0.0
 10
362.3679819045
 20
385.7777574665
 30
0.0
 10
362.287378281
 20
384.100589698
 30
0.0
 10
362.2006353064
 20
382.2047921034
 30
0.0
 10
362.109819682
 20
380.1065090155
 30
0.0
 10
361.9817058221
 20
376.9571614981
 30
0.0
 10
361.8247879673
 20
372.6610173413
 30
0.0
 10
361.6545185053
 20
367.1790398453
 30
0.0
 10
361.5569238392
 20
363.3817809987
 30
0.0
 10
361.5117461966
 20
361.4329268585
 30
0.0
  0
SPLINE
  5
57D
100
AcDbEntity
  8
_30_VOLUMEN
100
AcDbSpline
 62
7
  6
CONTINUOUS
 70
0
 71
3
 72
26
 73
22
 74
0
 42
0.0000001
 43
0.0000001
 44
0.0000000001
 40
0.0
 40
0.0
 40
0.0
 40
0.0
 40
0.1997826395
 40
0.3892897455
 40
0.5620906678
 40
0.6403655956
 40
0.7123183387
 40
0.7773349738
 40
0.8348602385
 40
0.8844014162
 40
0.9255325658
 40
0.9428309154
 40
0.9578988489
 40
0.970704782
 40
0.9812203182
 40
0.989422849
 40
0.9952948281
 40
0.9973522466
 40
0.998822735
 40
0.9997055629
 40
1.0
 40
1.0
 40
1.0
 40
1.0
 10
399.8054222486
 20
361.4329268585
 30
0.0
 10
399.760244606
 20
363.3817809987
 30
0.0
 10
399.6626499398
 20
367.1790398453
 30
0.0
 10
399.4923804778
 20
372.6610173413
 30
0.0
 10
399.3354626231
 20
376.9571614981
 30
0.0
 10
399.2073487632
 20
380.1065090155
 30
0.0
 10
399.1165331387
 20
382.2047921034
 30
0.0
 10
399.0297901642
 20
384.100589698
 30
0.0
 10
398.9491865406
 20
385.7777574665
 30
0.0
 10
398.8767630301
 20
387.221972431
 30
0.0
 10
398.8220805608
 20
388.2740961917
 30
0.0
 10
398.7839945495
 20
388.9902015303
 30
0.0
 10
398.7602807489
 20
389.4304093271
 30
0.0
 10
398.7399400369
 20
389.8042097438
 30
0.0
 10
398.7229855164
 20
390.111980237
 30
0.0
 10
398.70992522
 20
390.3499066664
 30
0.0
 10
398.7007602712
 20
390.5104872856
 30
0.0
 10
398.6962075833
 20
390.5974651887
 30
0.0
 10
398.6928869779
 20
390.6480030203
 30
0.0
 10
398.6930663216
 20
390.6604256156
 30
0.0
 10
398.6907413808
 20
390.685750506
 30
0.0
 10
398.691271439
 20
390.6829268584
 30
0.0
  0
SPLINE
  5
57E
100
AcDbEntity
  8
_30_VOLUMEN
100
AcDbSpline
 62
7
  6
CONTINUOUS
 70
0
 71
3
 72
19
 73
15
 74
0
 42
0.0000001
 43
0.0000001
 44
0.0000000001
 40
0.0
 40
0.0
 40
0.0
 40
0.0
 40
0.0470967467
 40
0.100337403
 40
0.1588783935
 40
0.2217979048
 40
0.3572870584
 40
0.5000000256
 40
0.6427131217
 40
0.7782023371
 40
0.8411217948
 40
0.8996627004
 40
0.9529032794
 40
1.0
 40
1.0
 40
1.0
 40
1.0
 10
210.5731707317
 20
90.7583036614
 30
0.0
 10
210.5731707317
 20
90.4452715429
 30
0.0
 10
210.6241724885
 20
89.7786009258
 30
0.0
 10
210.785232025
 20
88.7347749865
 30
0.0
 10
211.0029698344
 20
87.5940537203
 30
0.0
 10
211.3342617338
 20
85.9188336616
 30
0.0
 10
211.7161107036
 20
83.6821395109
 30
0.0
 10
211.9007321187
 20
80.8830969517
 30
0.0
 10
211.7161105396
 20
78.0840539684
 30
0.0
 10
211.3342610294
 20
75.8473589867
 30
0.0
 10
211.0029691357
 20
74.172139447
 30
0.0
 10
210.7852316927
 20
73.0314195718
 30
0.0
 10
210.624172385
 20
71.987594863
 30
0.0
 10
210.5731707317
 20
71.32092493
 30
0.0
 10
210.5731707317
 20
71.007892985
 30
0.0
  0
SPLINE
  5
57F
100
AcDbEntity
  8
BEZUGSACHSEN
100
AcDbSpline
 62
7
  6
CONTINUOUS
 70
0
 71
3
 72
9
 73
5
 74
0
 42
0.0000001
 43
0.0000001
 44
0.0000000001
 40
0.0
 40
0.0
 40
0.0
 40
0.0
 40
0.2667330483
 40
1.0
 40
1.0
 40
1.0
 40
1.0
 10
240.8797689135
 20
118.8830981367
 30
0.0
 10
240.9006358202
 20
118.8841790607
 30
0.0
 10
240.7231449697
 20
118.8799937429
 30
0.0
 10
240.7022121233
 20
118.8811333781
 30
0.0
 10
240.6447720885
 20
118.8807327853
 30
0.0
  0
SPLINE
  5
580
100
AcDbEntity
  8
_30_VOLUMEN
100
AcDbSpline
 62
7
  6
CONTINUOUS
 70
0
 71
3
 72
19
 73
15
 74
0
 42
0.0000001
 43
0.0000001
 44
0.0000000001
 40
0.0
 40
0.0
 40
0.0
 40
0.0
 40
0.0471300365
 40
0.1003894804
 40
0.1589358342
 40
0.2218502358
 40
0.3573162725
 40
0.4999989768
 40
0.6426816682
 40
0.7781485161
 40
0.8410634115
 40
0.8996101115
 40
0.9528698606
 40
1.0
 40
1.0
 40
1.0
 40
1.0
 10
146.0731707317
 20
71.0146159524
 30
0.0
 10
146.0731707317
 20
71.3276374721
 30
0.0
 10
146.0223606338
 20
71.9941630816
 30
0.0
 10
145.8618694351
 20
73.0376713997
 30
0.0
 10
145.6449234369
 20
74.1777963209
 30
0.0
 10
145.3148963683
 20
75.8518238662
 30
0.0
 10
144.9345670979
 20
78.0866704063
 30
0.0
 10
144.75076319
 20
80.8830777462
 30
0.0
 10
144.9345656806
 20
83.679490379
 30
0.0
 10
145.3148910516
 20
85.9143463188
 30
0.0
 10
145.6449203697
 20
87.5883846081
 30
0.0
 10
145.8618681358
 20
88.7285169364
 30
0.0
 10
146.0223602089
 20
89.7720301856
 30
0.0
 10
146.0731707317
 20
90.4385584909
 30
0.0
 10
146.0731707317
 20
90.751580694
 30
0.0
  0
SPLINE
  5
581
100
AcDbEntity
  8
0
100
AcDbSpline
 62
7
  6
CONTINUOUS
 70
0
 71
3
 72
14
 73
10
 74
0
 42
0.0000001
 43
0.0000001
 44
0.0000000001
 40
0.0
 40
0.0
 40
0.0
 40
0.0
 40
0.0293586939
 40
0.0980273041
 40
0.2046610608
 40
0.3426412168
 40
0.5026682706
 40
0.6736079707
 40
1.0
 40
1.0
 40
1.0
 40
1.0
 10
233.3231707317
 20
42.6059908965
 30
0.0
 10
233.3231707317
 20
42.6135627212
 30
0.0
 10
233.353670951
 20
42.6262771577
 30
0.0
 10
233.3992520518
 20
42.6366389562
 30
0.0
 10
233.4823820237
 20
42.6485725698
 30
0.0
 10
233.585191573
 20
42.6571095417
 30
0.0
 10
233.7064425811
 20
42.66279139
 30
0.0
 10
233.8758272024
 20
42.6648753887
 30
0.0
 10
234.0042276956
 20
42.6608327703
 30
0.0
 10
234.0881702017
 20
42.6545282744
 30
0.0
  0
SPLINE
  5
582
100
AcDbEntity
  8
0
100
AcDbSpline
 62
7
  6
CONTINUOUS
 70
0
 71
3
 72
15
 73
11
 74
0
 42
0.0000001
 43
0.0000001
 44
0.0000000001
 40
0.0
 40
0.0
 40
0.0
 40
0.0
 40
0.3809621365
 40
0.5530158792
 40
0.7038796408
 40
0.8277518671
 40
0.920007137
 40
0.9774214831
 40
0.9926881252
 40
1.0
 40
1.0
 40
1.0
 40
1.0
 10
232.8231707317
 20
42.4201893574
 30
0.0
 10
232.8869958557
 20
42.4201893574
 30
0.0
 10
232.9796399201
 20
42.420916315
 30
0.0
 10
233.0975606515
 20
42.4237261042
 30
0.0
 10
233.172303293
 20
42.4264971545
 30
0.0
 10
233.2338666656
 20
42.4300557222
 30
0.0
 10
233.2791170281
 20
42.4339111822
 30
0.0
 10
233.3072172501
 20
42.4382636417
 30
0.0
 10
233.3193984537
 20
42.4417035673
 30
0.0
 10
233.3231707317
 20
42.4443733544
 30
0.0
 10
233.3231707317
 20
42.4455983615
 30
0.0
  0
SPLINE
  5
583
100
AcDbEntity
  8
0
100
AcDbSpline
 62
7
  6
CONTINUOUS
 70
0
 71
3
 72
16
 73
12
 74
0
 42
0.0000001
 43
0.0000001
 44
0.0000000001
 40
0.0
 40
0.0
 40
0.0
 40
0.0
 40
0.0057222057
 40
0.0204318944
 40
0.0444330271
 40
0.0775812914
 40
0.1699730572
 40
0.2941712732
 40
0.4454603893
 40
0.6179952801
 40
1.0
 40
1.0
 40
1.0
 40
1.0
 10
221.3231707317
 20
42.4013788921
 30
0.0
 10
221.3231707317
 20
42.4023346517
 30
0.0
 10
221.3277182379
 20
42.4034622101
 30
0.0
 10
221.3338588713
 20
42.4048901267
 30
0.0
 10
221.3463967593
 20
42.4064038561
 30
0.0
 10
221.3708909284
 20
42.408787909
 30
0.0
 10
221.4127922973
 20
42.4114725471
 30
0.0
 10
221.4740489538
 20
42.414333296
 30
0.0
 10
221.5488866518
 20
42.4167967709
 30
0.0
 10
221.6667316818
 20
42.4194346169
 30
0.0
 10
221.7593658463
 20
42.4201893574
 30
0.0
 10
221.8231707317
 20
42.4201893574
 30
0.0
  0
SPLINE
  5
584
100
AcDbEntity
  8
0
100
AcDbSpline
 62
7
  6
CONTINUOUS
 70
0
 71
3
 72
16
 73
12
 74
0
 42
0.0000001
 43
0.0000001
 44
0.0000000001
 40
0.0
 40
0.0
 40
0.0
 40
0.0
 40
0.4157586749
 40
0.5883785378
 40
0.7333653101
 40
0.8485742313
 40
0.9322237348
 40
0.961807291
 40
0.983020821
 40
0.99575533
 40
1.0
 40
1.0
 40
1.0
 40
1.0
 10
240.6447720885
 20
42.385598364
 30
0.0
 10
240.6773401366
 20
42.3853648624
 30
0.0
 10
240.7234369212
 20
42.384979222
 30
0.0
 10
240.7808664452
 20
42.3843646413
 30
0.0
 10
240.8148046727
 20
42.3840069912
 30
0.0
 10
240.8416439739
 20
42.3835805851
 30
0.0
 10
240.8597366826
 20
42.3835313766
 30
0.0
 10
240.8699966839
 20
42.3831241514
 30
0.0
 10
240.875422181
 20
42.3834776874
 30
0.0
 10
240.8776191218
 20
42.382674426
 30
0.0
 10
240.8797719448
 20
42.3834331232
 30
0.0
 10
240.8797663391
 20
42.3831006598
 30
0.0
  0
SPLINE
  5
585
100
AcDbEntity
  8
BEZUGSACHSEN
100
AcDbSpline
 62
7
  6
CONTINUOUS
 70
0
 71
3
 72
16
 73
12
 74
0
 42
0.0000001
 43
0.0000001
 44
0.0000000001
 40
0.0
 40
0.0
 40
0.0
 40
0.0
 40
0.3820438282
 40
0.5545514498
 40
0.7058535379
 40
0.8300598688
 40
0.922449062
 40
0.9555922459
 40
0.9795886982
 40
0.9942932808
 40
1.0
 40
1.0
 40
1.0
 40
1.0
 10
221.8231707317
 20
118.8465310213
 30
0.0
 10
221.7593617505
 20
118.8465310213
 30
0.0
 10
221.6667291152
 20
118.8472799686
 30
0.0
 10
221.5488842305
 20
118.8498994417
 30
0.0
 10
221.4740494022
 20
118.8523434894
 30
0.0
 10
221.4127921981
 20
118.8551830258
 30
0.0
 10
221.3708883874
 20
118.8578427232
 30
0.0
 10
221.3463989279
 20
118.8602092904
 30
0.0
 10
221.3338562298
 20
118.8617031919
 30
0.0
 10
221.3277283599
 20
118.8631281569
 30
0.0
 10
221.3231707317
 20
118.8642316076
 30
0.0
 10
221.3231707317
 20
118.8651847441
 30
0.0
  0
SPLINE
  5
586
100
AcDbEntity
  8
BEZUGSACHSEN
100
AcDbSpline
 62
7
  6
CONTINUOUS
 70
0
 71
3
 72
15
 73
11
 74
0
 42
0.0000001
 43
0.0000001
 44
0.0000000001
 40
0.0
 40
0.0
 40
0.0
 40
0.0
 40
0.0072898798
 40
0.0225477145
 40
0.0799502993
 40
0.1722034597
 40
0.2960854569
 40
0.4469644746
 40
0.6189935987
 40
1.0
 40
1.0
 40
1.0
 40
1.0
 10
233.3231707317
 20
118.8212790328
 30
0.0
 10
233.3231707317
 20
118.8225002883
 30
0.0
 10
233.3193891883
 20
118.8251542749
 30
0.0
 10
233.3072200996
 20
118.8285719515
 30
0.0
 10
233.2791124749
 20
118.8329001425
 30
0.0
 10
233.233868615
 20
118.8367301532
 30
0.0
 10
233.1723012953
 20
118.8402666806
 30
0.0
 10
233.0975628095
 20
118.8430186013
 30
0.0
 10
232.9796419051
 20
118.8458096131
 30
0.0
 10
232.8869997927
 20
118.8465310213
 30
0.0
 10
232.8231707317
 20
118.8465310213
 30
0.0
  0
SPLINE
  5
587
100
AcDbEntity
  8
BEZUGSACHSEN
100
AcDbSpline
 62
7
  6
CONTINUOUS
 70
0
 71
3
 72
15
 73
11
 74
0
 42
0.0000001
 43
0.0000001
 44
0.0000000001
 40
0.0
 40
0.0
 40
0.0
 40
0.0
 40
0.3261026247
 40
0.4968913221
 40
0.6567729081
 40
0.7946304315
 40
0.9011672807
 40
0.9697639579
 40
0.9890767182
 40
1.0
 40
1.0
 40
1.0
 40
1.0
 10
234.0881702017
 20
118.6130949239
 30
0.0
 10
234.0042270969
 20
118.6068071507
 30
0.0
 10
233.875888569
 20
118.6027579625
 30
0.0
 10
233.7063417888
 20
118.6048828057
 30
0.0
 10
233.5855393668
 20
118.6104248615
 30
0.0
 10
233.4813986864
 20
118.6193116686
 30
0.0
 10
233.4016297316
 20
118.6302696946
 30
0.0
 10
233.3520253531
 20
118.6418505159
 30
0.0
 10
233.3290457867
 20
118.651910939
 30
0.0
 10
233.3231707317
 20
118.6586773825
 30
0.0
 10
233.3231707317
 20
118.661497056
 30
0.0
  0
SPLINE
  5
588
100
AcDbEntity
  8
0
100
AcDbSpline
 62
7
  6
CONTINUOUS
 70
0
 71
3
 72
15
 73
11
 74
0
 42
0.0000001
 43
0.0000001
 44
0.0000000001
 40
0.0
 40
0.0
 40
0.0
 40
0.0
 40
0.3261026247
 40
0.4968913221
 40
0.6567729081
 40
0.7946304315
 40
0.9011672807
 40
0.9697639579
 40
0.9890767182
 40
1.0
 40
1.0
 40
1.0
 40
1.0
 10
234.0881702017
 20
43.1531017225
 30
0.0
 10
234.0042270969
 20
43.1593894956
 30
0.0
 10
233.875888569
 20
43.1634386839
 30
0.0
 10
233.7063417888
 20
43.1613138406
 30
0.0
 10
233.5855393668
 20
43.1557717848
 30
0.0
 10
233.4813986864
 20
43.1468849778
 30
0.0
 10
233.4016297316
 20
43.1359269518
 30
0.0
 10
233.3520253531
 20
43.1243461304
 30
0.0
 10
233.3290457867
 20
43.1142857073
 30
0.0
 10
233.3231707317
 20
43.1075192639
 30
0.0
 10
233.3231707317
 20
43.1046995903
 30
0.0
  0
SPLINE
  5
589
100
AcDbEntity
  8
0
100
AcDbSpline
 62
7
  6
CONTINUOUS
 70
0
 71
3
 72
15
 73
11
 74
0
 42
0.0000001
 43
0.0000001
 44
0.0000000001
 40
0.0
 40
0.0
 40
0.0
 40
0.0
 40
0.0072898798
 40
0.0225477145
 40
0.0799502993
 40
0.1722034597
 40
0.2960854569
 40
0.4469644746
 40
0.6189935987
 40
1.0
 40
1.0
 40
1.0
 40
1.0
 10
233.3231707317
 20
42.9449176136
 30
0.0
 10
233.3231707317
 20
42.943696358
 30
0.0
 10
233.3193891883
 20
42.9410423714
 30
0.0
 10
233.3072200996
 20
42.9376246948
 30
0.0
 10
233.2791124749
 20
42.9332965039
 30
0.0
 10
233.233868615
 20
42.9294664931
 30
0.0
 10
233.1723012953
 20
42.9259299657
 30
0.0
 10
233.0975628095
 20
42.923178045
 30
0.0
 10
232.9796419051
 20
42.9203870332
 30
0.0
 10
232.8869997927
 20
42.9196656251
 30
0.0
 10
232.8231707317
 20
42.9196656251
 30
0.0
  0
SPLINE
  5
58A
100
AcDbEntity
  8
0
100
AcDbSpline
 62
7
  6
CONTINUOUS
 70
0
 71
3
 72
16
 73
12
 74
0
 42
0.0000001
 43
0.0000001
 44
0.0000000001
 40
0.0
 40
0.0
 40
0.0
 40
0.0
 40
0.3820438282
 40
0.5545514498
 40
0.7058535379
 40
0.8300598688
 40
0.922449062
 40
0.9555922459
 40
0.9795886982
 40
0.9942932808
 40
1.0
 40
1.0
 40
1.0
 40
1.0
 10
221.8231707317
 20
42.9196656251
 30
0.0
 10
221.7593617505
 20
42.9196656251
 30
0.0
 10
221.6667291152
 20
42.9189166777
 30
0.0
 10
221.5488842305
 20
42.9162972046
 30
0.0
 10
221.4740494022
 20
42.913853157
 30
0.0
 10
221.4127921981
 20
42.9110136205
 30
0.0
 10
221.3708883874
 20
42.9083539231
 30
0.0
 10
221.3463989279
 20
42.905987356
 30
0.0
 10
221.3338562298
 20
42.9044934545
 30
0.0
 10
221.3277283599
 20
42.9030684894
 30
0.0
 10
221.3231707317
 20
42.9019650388
 30
0.0
 10
221.3231707317
 20
42.9010119022
 30
0.0
  0
SPLINE
  5
58B
100
AcDbEntity
  8
BEZUGSACHSEN
100
AcDbSpline
 62
7
  6
CONTINUOUS
 70
0
 71
3
 72
14
 73
10
 74
0
 42
0.0000001
 43
0.0000001
 44
0.0000000001
 40
0.0
 40
0.0
 40
0.0
 40
0.0
 40
0.0293586939
 40
0.0980273041
 40
0.2046610608
 40
0.3426412168
 40
0.5026682706
 40
0.6736079707
 40
1.0
 40
1.0
 40
1.0
 40
1.0
 10
233.3231707317
 20
119.1602057498
 30
0.0
 10
233.3231707317
 20
119.1526339251
 30
0.0
 10
233.353670951
 20
119.1399194886
 30
0.0
 10
233.3992520518
 20
119.1295576901
 30
0.0
 10
233.4823820237
 20
119.1176240766
 30
0.0
 10
233.585191573
 20
119.1090871046
 30
0.0
 10
233.7064425811
 20
119.1034052563
 30
0.0
 10
233.8758272024
 20
119.1013212576
 30
0.0
 10
234.0042276956
 20
119.1053638761
 30
0.0
 10
234.0881702017
 20
119.1116683719
 30
0.0
  0
SPLINE
  5
58C
100
AcDbEntity
  8
BEZUGSACHSEN
100
AcDbSpline
 62
7
  6
CONTINUOUS
 70
0
 71
3
 72
15
 73
11
 74
0
 42
0.0000001
 43
0.0000001
 44
0.0000000001
 40
0.0
 40
0.0
 40
0.0
 40
0.0
 40
0.3809621365
 40
0.5530158792
 40
0.7038796408
 40
0.8277518671
 40
0.920007137
 40
0.9774214831
 40
0.9926881252
 40
1.0
 40
1.0
 40
1.0
 40
1.0
 10
232.8231707317
 20
119.346007289
 30
0.0
 10
232.8869958557
 20
119.346007289
 30
0.0
 10
232.9796399201
 20
119.3452803313
 30
0.0
 10
233.0975606515
 20
119.3424705422
 30
0.0
 10
233.172303293
 20
119.3396994919
 30
0.0
 10
233.2338666656
 20
119.3361409242
 30
0.0
 10
233.2791170281
 20
119.3322854641
 30
0.0
 10
233.3072172501
 20
119.3279330047
 30
0.0
 10
233.3193984537
 20
119.324493079
 30
0.0
 10
233.3231707317
 20
119.321823292
 30
0.0
 10
233.3231707317
 20
119.3205982849
 30
0.0
  0
SPLINE
  5
58D
100
AcDbEntity
  8
BEZUGSACHSEN
100
AcDbSpline
 62
7
  6
CONTINUOUS
 70
0
 71
3
 72
16
 73
12
 74
0
 42
0.0000001
 43
0.0000001
 44
0.0000000001
 40
0.0
 40
0.0
 40
0.0
 40
0.0
 40
0.0057222057
 40
0.0204318944
 40
0.0444330271
 40
0.0775812914
 40
0.1699730572
 40
0.2941712732
 40
0.4454603893
 40
0.6179952801
 40
1.0
 40
1.0
 40
1.0
 40
1.0
 10
221.3231707317
 20
119.3648177543
 30
0.0
 10
221.3231707317
 20
119.3638619947
 30
0.0
 10
221.3277182379
 20
119.3627344362
 30
0.0
 10
221.3338588713
 20
119.3613065197
 30
0.0
 10
221.3463967593
 20
119.3597927903
 30
0.0
 10
221.3708909284
 20
119.3574087373
 30
0.0
 10
221.4127922973
 20
119.3547240993
 30
0.0
 10
221.4740489538
 20
119.3518633503
 30
0.0
 10
221.5488866518
 20
119.3493998754
 30
0.0
 10
221.6667316818
 20
119.3467620294
 30
0.0
 10
221.7593658463
 20
119.346007289
 30
0.0
 10
221.8231707317
 20
119.346007289
 30
0.0
  0
SPLINE
  5
58E
100
AcDbEntity
  8
BEZUGSACHSEN
100
AcDbSpline
 62
7
  6
CONTINUOUS
 70
0
 71
3
 72
16
 73
12
 74
0
 42
0.0000001
 43
0.0000001
 44
0.0000000001
 40
0.0
 40
0.0
 40
0.0
 40
0.0
 40
0.4157586749
 40
0.5883785378
 40
0.7333653101
 40
0.8485742313
 40
0.9322237348
 40
0.961807291
 40
0.983020821
 40
0.99575533
 40
1.0
 40
1.0
 40
1.0
 40
1.0
 10
240.6447720885
 20
119.3805982823
 30
0.0
 10
240.6773401366
 20
119.380831784
 30
0.0
 10
240.7234369212
 20
119.3812174244
 30
0.0
 10
240.7808664452
 20
119.381832005
 30
0.0
 10
240.8148046727
 20
119.3821896552
 30
0.0
 10
240.8416439739
 20
119.3826160613
 30
0.0
 10
240.8597366826
 20
119.3826652698
 30
0.0
 10
240.8699966839
 20
119.3830724949
 30
0.0
 10
240.875422181
 20
119.382718959
 30
0.0
 10
240.8776191218
 20
119.3835222204
 30
0.0
 10
240.8797719448
 20
119.3827635232
 30
0.0
 10
240.8797663391
 20
119.3830959865
 30
0.0
  0
SPLINE
  5
58F
100
AcDbEntity
  8
0
100
AcDbSpline
 62
7
  6
CONTINUOUS
 70
0
 71
3
 72
9
 73
5
 74
0
 42
0.0000001
 43
0.0000001
 44
0.0000000001
 40
0.0
 40
0.0
 40
0.0
 40
0.0
 40
0.2667330483
 40
1.0
 40
1.0
 40
1.0
 40
1.0
 10
240.8797689135
 20
42.8830985097
 30
0.0
 10
240.9006358151
 20
42.8820174881
 30
0.0
 10
240.7231449766
 20
42.8862030376
 30
0.0
 10
240.7022121233
 20
42.8850632682
 30
0.0
 10
240.6447720885
 20
42.885463861
 30
0.0
  0
SPLINE
  5
590
100
AcDbEntity
  8
_30_VOLUMEN
100
AcDbSpline
 62
7
  6
CONTINUOUS
 70
0
 71
3
 72
33
 73
29
 74
0
 42
0.0000001
 43
0.0000001
 44
0.0000000001
 40
0.0
 40
0.0
 40
0.0
 40
0.0
 40
0.0027417244
 40
0.0065313447
 40
0.0172355504
 40
0.0320379659
 40
0.0508174173
 40
0.073415775
 40
0.0996417749
 40
0.1292728837
 40
0.162057475
 40
0.2359491144
 40
0.318813572
 40
0.4078389213
 40
0.5000000282
 40
0.5921611291
 40
0.681186471
 40
0.7640509167
 40
0.8379425471
 40
0.870727135
 40
0.9003582389
 40
0.9265842342
 40
0.9491825894
 40
0.9679620393
 40
0.9827644529
 40
0.9934686564
 40
0.997258276
 40
1.0
 40
1.0
 40
1.0
 40
1.0
 10
210.4333326746
 20
100.0299363492
 30
0.0
 10
210.3763099269
 20
100.0157877445
 30
0.0
 10
210.2387025161
 20
99.9894739468
 30
0.0
 10
209.8733851612
 20
99.9351335803
 30
0.0
 10
209.2490065816
 20
99.8678185311
 30
0.0
 10
208.3035887841
 20
99.7857636008
 30
0.0
 10
207.1027985513
 20
99.6989009711
 30
0.0
 10
205.6569624252
 20
99.6082665999
 30
0.0
 10
203.9782836345
 20
99.515828744
 30
0.0
 10
202.0810426775
 20
99.4233379773
 30
0.0
 10
199.1628394044
 20
99.2975314772
 30
0.0
 10
195.10362717
 20
99.1553083192
 30
0.0
 10
189.8384263021
 20
99.0223428064
 30
0.0
 10
184.1807012148
 20
98.9357360367
 30
0.0
 10
178.3231690472
 20
98.9056376401
 30
0.0
 10
172.4656370374
 20
98.9357360814
 30
0.0
 10
166.8079124936
 20
99.0223428598
 30
0.0
 10
161.5427122332
 20
99.1553083809
 30
0.0
 10
157.4835005217
 20
99.297531538
 30
0.0
 10
154.5652976186
 20
99.4233380311
 30
0.0
 10
152.6680569357
 20
99.5158287901
 30
0.0
 10
150.989378401
 20
99.6082666374
 30
0.0
 10
149.54354246
 20
99.6989010021
 30
0.0
 10
148.3427523538
 20
99.7857636258
 30
0.0
 10
147.3973346769
 20
99.8678185528
 30
0.0
 10
146.7729562012
 20
99.9351335932
 30
0.0
 10
146.4076389173
 20
99.9894739502
 30
0.0
 10
146.2700315295
 20
100.0157877463
 30
0.0
 10
146.2130087888
 20
100.0299363492
 30
0.0
  0
SPLINE
  5
591
100
AcDbEntity
  8
_30_VOLUMEN
100
AcDbSpline
 62
7
  6
CONTINUOUS
 70
0
 71
3
 72
33
 73
29
 74
0
 42
0.0000001
 43
0.0000001
 44
0.0000000001
 40
0.0
 40
0.0
 40
0.0
 40
0.0
 40
0.002741724
 40
0.0065313436
 40
0.0172355471
 40
0.0320379607
 40
0.0508174106
 40
0.0734157658
 40
0.0996417611
 40
0.129272865
 40
0.1620574529
 40
0.2359490833
 40
0.318813529
 40
0.4078388709
 40
0.4999999718
 40
0.5921610787
 40
0.681186428
 40
0.7640508856
 40
0.837942525
 40
0.8707271163
 40
0.9003582251
 40
0.926584225
 40
0.9491825827
 40
0.9679620341
 40
0.9827644496
 40
0.9934686553
 40
0.9972582756
 40
1.0
 40
1.0
 40
1.0
 40
1.0
 10
146.2130087888
 20
61.7362602972
 30
0.0
 10
146.2700315295
 20
61.7504089001
 30
0.0
 10
146.4076389173
 20
61.7767226961
 30
0.0
 10
146.7729562012
 20
61.8310630532
 30
0.0
 10
147.3973346769
 20
61.8983780935
 30
0.0
 10
148.3427523538
 20
61.9804330205
 30
0.0
 10
149.54354246
 20
62.0672956443
 30
0.0
 10
150.989378401
 20
62.1579300089
 30
0.0
 10
152.6680569357
 20
62.2503678563
 30
0.0
 10
154.5652976186
 20
62.3428586152
 30
0.0
 10
157.4835005217
 20
62.4686651083
 30
0.0
 10
161.5427122332
 20
62.6108882654
 30
0.0
 10
166.8079124936
 20
62.7438537866
 30
0.0
 10
172.4656370374
 20
62.8304605649
 30
0.0
 10
178.3231690472
 20
62.8605590062
 30
0.0
 10
184.1807012148
 20
62.8304606097
 30
0.0
 10
189.8384263021
 20
62.74385384
 30
0.0
 10
195.10362717
 20
62.6108883272
 30
0.0
 10
199.1628394044
 20
62.4686651692
 30
0.0
 10
202.0810426775
 20
62.3428586691
 30
0.0
 10
203.9782836345
 20
62.2503679023
 30
0.0
 10
205.6569624252
 20
62.1579300464
 30
0.0
 10
207.1027985513
 20
62.0672956752
 30
0.0
 10
208.3035887841
 20
61.9804330456
 30
0.0
 10
209.2490065816
 20
61.8983781152
 30
0.0
 10
209.8733851612
 20
61.831063066
 30
0.0
 10
210.2387025161
 20
61.7767226995
 30
0.0
 10
210.3763099269
 20
61.7504089018
 30
0.0
 10
210.4333326746
 20
61.7362602972
 30
0.0
  0
ELLIPSE
  5
592
100
AcDbEntity
  8
0
100
AcDbEllipse
 62
7
  6
CONTINUOUS
 10
241.3421901433
 20
80.3830983232
 30
0.0
 11
60.8
 21
0.0
 31
0.0
 40
0.625
 41
-1.6903907512
 42
-1.58226727
  0
ELLIPSE
  5
593
100
AcDbEntity
  8
BEZUGSACHSEN
100
AcDbEllipse
 62
7
  6
CONTINUOUS
 10
241.3231707317
 20
80.8830983232
 30
0.0
 11
60.8
 21
-0.0
 31
0.0
 40
0.625
 41
1.5819544308
 42
1.6900756874
  0
ELLIPSE
  5
594
100
AcDbEntity
  8
0
100
AcDbEllipse
 62
7
  6
CONTINUOUS
 10
241.3231707317
 20
80.8830983232
 30
0.0
 11
60.8
 21
0.0
 31
0.0
 40
0.625
 41
-1.6900756874
 42
-1.5819544308
  0
ELLIPSE
  5
595
100
AcDbEntity
  8
BEZUGSACHSEN
100
AcDbEllipse
 62
7
  6
CONTINUOUS
 10
241.3421901433
 20
81.3830983232
 30
0.0
 11
60.8
 21
-0.0
 31
0.0
 40
0.625
 41
1.58226727
 42
1.6903907512
  0
ENDSEC
  0
SECTION
  2
OBJECTS
  0
DICTIONARY
  5
C
100
AcDbDictionary
280
0
281
1
  3
ACAD_GROUP
350
D
  3
ACAD_MLINESTYLE
350
17
  3
ACAD_LAYOUT
350
1A
  3
ACAD_PLOTSETTINGS
350
19
  3
ACAD_PLOTSTYLENAME
350
E
  0
DICTIONARY
  5
D
102
{ACAD_REACTORS
330
C
102
}
100
AcDbDictionary
280
0
281
1
  0
ACDBDICTIONARYWDFLT
  5
E
102
{ACAD_REACTORS
330
C
102
}
100
AcDbDictionary
281
1
  3
Normal
350
F
100
AcDbDictionaryWithDefault
340
F
  0
DICTIONARY
  5
17
102
{ACAD_REACTORS
330
C
102
}
100
AcDbDictionary
280
0
281
1
  3
Standard
350
18
  0
DICTIONARY
  5
19
102
{ACAD_REACTORS
330
C
102
}
100
AcDbDictionary
281
1
  0
DICTIONARY
  5
1A
102
{ACAD_REACTORS
330
C
102
}
100
AcDbDictionary
281
1
  3
Model
350
596
  3
Layout1
350
597
  0
ACDBPLACEHOLDER
  5
F
102
{ACAD_REACTORS
330
E
102
}
  0
MLINESTYLE
  5
18
102
{ACAD_REACTORS
330
17
102
}
100
AcDbMlineStyle
  2
STANDARD
 70
0
  3

 62
256
 51
90.0
 52
90.0
 71
2
 49
0.5
 62
256
  6
BYLAYER
 49
-0.5
 62
256
  6
BYLAYER
  0
LAYOUT
  5
596
102
{ACAD_REACTORS
330
1A
102
}
100
AcDbPlotSettings
  1

  2
none_device
  4
ISO_A2_(594.00_x_420.00_MM)
  6

 40
0.0
 41
0.0
 42
0.0
 43
0.0
 44
594.0
 45
420.0
 46
0.0
 47
0.0
 48
0.0
 49
0.0
140
0.0
141
0.0
142
1.0
143
1.0
 70
1024
 72
1
 73
0
 74
0
  7

 75
0
147
1.0
148
0.0
149
0.0
100
AcDbLayout
  1
Model
 70
0
 71
0
 10
0.0
 20
0.0
 11
594.0
 21
420.0
 12
0.0
 22
0.0
 32
0.0
 14
0.0
 24
0.0
 34
0.0
 15
0.0
 25
0.0
 35
0.0
146
0.0
 13
0.0
 23
0.0
 33
0.0
 16
1.0
 26
0.0
 36
0.0
 17
0.0
 27
1.0
 37
0.0
 76
0
330
217
345
0
346
0
  0
LAYOUT
  5
597
102
{ACAD_REACTORS
330
1A
102
}
100
AcDbPlotSettings
  1

  2
none_device
  4
ISO_A2_(594.00_x_420.00_MM)
  6

 40
0.0
 41
0.0
 42
0.0
 43
0.0
 44
594.0
 45
420.0
 46
0.0
 47
0.0
 48
0.0
 49
0.0
140
0.0
141
0.0
142
1.0
143
1.0
 70
0
 72
1
 73
0
 74
0
  7

 75
0
147
1.0
148
0.0
149
0.0
100
AcDbLayout
  1
Layout1
 70
0
 71
1
 10
0.0
 20
0.0
 11
594.0
 21
420.0
 12
0.0
 22
0.0
 32
0.0
 14
0.0
 24
0.0
 34
0.0
 15
0.0
 25
0.0
 35
0.0
146
0.0
 13
0.0
 23
0.0
 33
0.0
 16
1.0
 26
0.0
 36
0.0
 17
0.0
 27
1.0
 37
0.0
 76
0
330
218
345
0
346
0
  0
ENDSEC
  0
EOF
