999
DXF file: VIP-CCS-20_7912224_m36328-p-01.dxf
999
Pro/ENGINEER 2022162 by Parametric Technology Corporation
  0
SECTION
  2
HEADER
  9
$ACADVER
  1
AC1021
  9
$DWGCODEPAGE
  3
ANSI_1252
  9
$EXTMAX
 10
594.0
 20
420.0
 30
0.0
  9
$EXTMIN
 10
0.0
 20
0.0
 30
0.0
  9
$LIMMIN
 10
0.0
 20
0.0
  9
$LIMMAX
 10
594.0
 20
420.0
  9
$VIEWCTR
 10
297.0
 20
210.0
  9
$VIEWSIZE
 40
420.0
  9
$CLAYER
  8
0
  9
$LTSCALE
 40
32.67
  9
$CELTYPE
  6
BYLAYER
  9
$DIMSCALE
 40
1.0
  9
$DIMASZ
 40
3.5
  9
$DIMEXO
 40
0.0
  9
$DIMDLI
 40
22.572
  9
$DIMEXE
 40
1.5
  9
$DIMCEN
 40
5.346
  9
$DIMLFAC
 40
1.0
  9
$DIMBLK
  1
_FILLED
  9
$DIMALT
 70
0
  9
$DIMALTF
 40
0.0393700787
  9
$DIMTXT
 40
3.5
  9
$DIMTOL
 70
1
  9
$DIMLIM
 70
0
  9
$DIMTFAC
 40
1.0
  9
$DIMTP
 40
0.01
  9
$DIMTM
 40
0.01
  9
$DIMGAP
 40
0.625
  9
$DIMDSEP
 70
46
  9
$AUNITS
 70
0
  9
$PDMODE
 70
3
  9
$PDSIZE
 40
0.3125
  9
$HANDSEED
  5
562
  9
$TILEMODE
 70
1
  9
$MEASUREMENT
 70
1
  9
$INSUNITS
 70
4
  0
ENDSEC
  0
SECTION
  2
CLASSES
  0
CLASS
  1
ACDBDICTIONARYWDFLT
  2
AcDbDictionaryWithDefault
  3
AutoCAD 2000
 90
0
 91
1
280
0
281
0
  0
CLASS
  1
ACDBPLACEHOLDER
  2
AcDbPlaceHolder
  3
AutoCAD 2000
 90
0
 91
1
280
0
281
0
  0
CLASS
  1
LAYOUT
  2
AcDbLayout
  3
AutoCAD 2000
 90
0
 91
0
280
0
281
0
  0
ENDSEC
  0
SECTION
  2
TABLES
  0
TABLE
  2
VPORT
  5
8
100
AcDbSymbolTable
 70
2
  0
VPORT
  5
1F4
100
AcDbSymbolTableRecord
100
AcDbViewportTableRecord
  2
*ACTIVE
 70
0
 10
0.0
 20
0.0
 11
1.0
 21
1.0
 12
297.0
 22
210.0
 13
0.0
 23
0.0
 14
1.0
 24
1.0
 15
0.0
 25
0.0
 16
0.0
 26
0.0
 36
1.0
 17
0.0
 27
0.0
 37
0.0
 40
420.0
 41
1.4142857143
 42
50.0
 43
0.0
 44
0.0
 50
0.0
 51
0.0
 71
0
 72
100
 73
1
 74
1
 75
0
 76
0
 77
0
 78
0
  0
ENDTAB
  0
TABLE
  2
LTYPE
  5
5
100
AcDbSymbolTable
 70
6
  0
LTYPE
  5
14
100
AcDbSymbolTableRecord
100
AcDbLinetypeTableRecord
  2
BYBLOCK
 70
0
  3

 72
65
 73
0
 40
0.0
  0
LTYPE
  5
15
100
AcDbSymbolTableRecord
100
AcDbLinetypeTableRecord
  2
BYLAYER
 70
0
  3

 72
65
 73
0
 40
0.0
  0
LTYPE
  5
16
100
AcDbSymbolTableRecord
100
AcDbLinetypeTableRecord
  2
CONTINUOUS
 70
64
  3
Solid line
 72
65
 73
0
 40
0.0
  0
LTYPE
  5
1F5
100
AcDbSymbolTableRecord
100
AcDbLinetypeTableRecord
  2
CENTER
 70
64
  3
____ _ ____ _ ____ _ ____ _ ____ _ ____ _ ____
 72
65
 73
4
 40
0.6
 49
0.375
 74
0
 49
-0.075
 74
0
 49
0.075
 74
0
 49
-0.075
 74
0
  0
LTYPE
  5
1F6
100
AcDbSymbolTableRecord
100
AcDbLinetypeTableRecord
  2
HIDDEN
 70
64
  3
- - - - - - - - - - - - - - - - - - - -
 72
65
 73
2
 40
0.2
 49
0.1
 74
0
 49
-0.1
 74
0
  0
LTYPE
  5
1F7
100
AcDbSymbolTableRecord
100
AcDbLinetypeTableRecord
  2
PHANTOM
 70
64
  3
_____ _ _ _____ _ _ _____ _ _ _____
 72
65
 73
6
 40
0.8
 49
0.45
 74
0
 49
-0.05
 74
0
 49
0.1
 74
0
 49
-0.05
 74
0
 49
0.1
 74
0
 49
-0.05
 74
0
  0
LTYPE
  5
1F8
100
AcDbSymbolTableRecord
100
AcDbLinetypeTableRecord
  2
DOT
 70
64
  3
. . . . . . . . . . . . . . . . . . . .
 72
65
 73
2
 40
0.2
 49
0.1
 74
0
 49
-0.1
 74
0
  0
LTYPE
  5
1F9
100
AcDbSymbolTableRecord
100
AcDbLinetypeTableRecord
  2
DASHED
 70
64
  3
- - - - - - - - - - - - - - - - - - - -
 72
65
 73
2
 40
0.2
 49
0.1
 74
0
 49
-0.1
 74
0
  0
ENDTAB
  0
TABLE
  2
LAYER
  5
2
100
AcDbSymbolTable
 70
36
  0
LAYER
  5
10
100
AcDbSymbolTableRecord
100
AcDbLayerTableRecord
  2
0
 70
0
 62
7
  6
CONTINUOUS
370
-3
390
F
  0
LAYER
  5
1FA
100
AcDbSymbolTableRecord
100
AcDbLayerTableRecord
  2
DEFAULT_1
 70
0
 62
7
  6
CENTER
370
-3
390
F
  0
LAYER
  5
1FB
100
AcDbSymbolTableRecord
100
AcDbLayerTableRecord
  2
DEFAULT_2
 70
0
 62
8
  6
HIDDEN
370
-3
390
F
  0
LAYER
  5
1FC
100
AcDbSymbolTableRecord
100
AcDbLayerTableRecord
  2
DEFAULT_3
 70
0
 62
7
  6
PHANTOM
370
-3
390
F
  0
LAYER
  5
1FD
100
AcDbSymbolTableRecord
100
AcDbLayerTableRecord
  2
AUSFORMSCHRAEGEN
 70
0
 62
7
  6
CONTINUOUS
370
-3
390
F
  0
LAYER
  5
1FE
100
AcDbSymbolTableRecord
100
AcDbLayerTableRecord
  2
BEZUGSACHSEN
 70
0
 62
7
  6
CONTINUOUS
370
-3
390
F
  0
LAYER
  5
1FF
100
AcDbSymbolTableRecord
100
AcDbLayerTableRecord
  2
BEZUGSEBENEN
 70
0
 62
7
  6
CONTINUOUS
370
-3
390
F
  0
LAYER
  5
200
100
AcDbSymbolTableRecord
100
AcDbLayerTableRecord
  2
BOHRUNGEN
 70
0
 62
7
  6
CONTINUOUS
370
-3
390
F
  0
LAYER
  5
201
100
AcDbSymbolTableRecord
100
AcDbLayerTableRecord
  2
FASEN
 70
0
 62
7
  6
CONTINUOUS
370
-3
390
F
  0
LAYER
  5
202
100
AcDbSymbolTableRecord
100
AcDbLayerTableRecord
  2
GEWINDE
 70
0
 62
7
  6
CONTINUOUS
370
-3
390
F
  0
LAYER
  5
203
100
AcDbSymbolTableRecord
100
AcDbLayerTableRecord
  2
HILFEN
 70
0
 62
7
  6
CONTINUOUS
370
-3
390
F
  0
LAYER
  5
204
100
AcDbSymbolTableRecord
100
AcDbLayerTableRecord
  2
KONSTRUKTIONSELEMENTE
 70
0
 62
7
  6
CONTINUOUS
370
-3
390
F
  0
LAYER
  5
205
100
AcDbSymbolTableRecord
100
AcDbLayerTableRecord
  2
KURVEN
 70
0
 62
7
  6
CONTINUOUS
370
-3
390
F
  0
LAYER
  5
206
100
AcDbSymbolTableRecord
100
AcDbLayerTableRecord
  2
PLATZIERUNG
 70
0
 62
7
  6
CONTINUOUS
370
-3
390
F
  0
LAYER
  5
207
100
AcDbSymbolTableRecord
100
AcDbLayerTableRecord
  2
PLAZIERUNG
 70
0
 62
7
  6
CONTINUOUS
370
-3
390
F
  0
LAYER
  5
208
100
AcDbSymbolTableRecord
100
AcDbLayerTableRecord
  2
RUNDUNGEN
 70
0
 62
7
  6
CONTINUOUS
370
-3
390
F
  0
LAYER
  5
209
100
AcDbSymbolTableRecord
100
AcDbLayerTableRecord
  2
TEIL_STARTBEZUEGE
 70
0
 62
7
  6
CONTINUOUS
370
-3
390
F
  0
LAYER
  5
20A
100
AcDbSymbolTableRecord
100
AcDbLayerTableRecord
  2
T_STARTBEZUEGE
 70
0
 62
7
  6
CONTINUOUS
370
-3
390
F
  0
LAYER
  5
20B
100
AcDbSymbolTableRecord
100
AcDbLayerTableRecord
  2
_00_ASM_START_FEATURES
 70
0
 62
7
  6
CONTINUOUS
370
-3
390
F
  0
LAYER
  5
20C
100
AcDbSymbolTableRecord
100
AcDbLayerTableRecord
  2
_00_HILFEN
 70
0
 62
7
  6
CONTINUOUS
370
-3
390
F
  0
LAYER
  5
20D
100
AcDbSymbolTableRecord
100
AcDbLayerTableRecord
  2
_00_PLATZIERUNG
 70
0
 62
7
  6
CONTINUOUS
370
-3
390
F
  0
LAYER
  5
20E
100
AcDbSymbolTableRecord
100
AcDbLayerTableRecord
  2
_03_2D_ZEICHNUNG_BEMASSUNGEN
 70
0
 62
7
  6
CONTINUOUS
370
-3
390
F
  0
LAYER
  5
20F
100
AcDbSymbolTableRecord
100
AcDbLayerTableRecord
  2
_04_NOTIZEN
 70
0
 62
7
  6
CONTINUOUS
370
-3
390
F
  0
LAYER
  5
210
100
AcDbSymbolTableRecord
100
AcDbLayerTableRecord
  2
_21_KURVEN
 70
0
 62
7
  6
CONTINUOUS
370
-3
390
F
  0
LAYER
  5
211
100
AcDbSymbolTableRecord
100
AcDbLayerTableRecord
  2
_26_BEZUGSACHSEN
 70
0
 62
7
  6
CONTINUOUS
370
-3
390
F
  0
LAYER
  5
212
100
AcDbSymbolTableRecord
100
AcDbLayerTableRecord
  2
_27_BEZUGSEBENEN
 70
0
 62
7
  6
CONTINUOUS
370
-3
390
F
  0
LAYER
  5
213
100
AcDbSymbolTableRecord
100
AcDbLayerTableRecord
  2
_29_KOORDINATENSYSTEME
 70
0
 62
7
  6
CONTINUOUS
370
-3
390
F
  0
LAYER
  5
214
100
AcDbSymbolTableRecord
100
AcDbLayerTableRecord
  2
_30_VOLUMEN
 70
0
 62
7
  6
CONTINUOUS
370
-3
390
F
  0
ENDTAB
  0
TABLE
  2
STYLE
  5
3
100
AcDbSymbolTable
 70
1
  0
STYLE
  5
11
100
AcDbSymbolTableRecord
100
AcDbTextStyleTableRecord
  2
STANDARD
 70
0
 40
0.0
 41
1.0
 50
0.0
 71
0
 42
0.2
  3
isonormlt-regular.ttf
  4

1001
ACAD
1000
Isonorm LT Regular
1071
34
  0
STYLE
  5
215
100
AcDbSymbolTableRecord
100
AcDbTextStyleTableRecord
  2
TEXTSTYLE_1
 70
0
 40
0.0
 41
0.8
 50
0.0
 71
0
 42
0.2
  3
gdt
  4

  0
ENDTAB
  0
TABLE
  2
VIEW
  5
6
100
AcDbSymbolTable
 70
0
  0
ENDTAB
  0
TABLE
  2
UCS
  5
7
100
AcDbSymbolTable
 70
0
  0
ENDTAB
  0
TABLE
  2
APPID
  5
9
100
AcDbSymbolTable
 70
1
  0
APPID
  5
216
100
AcDbSymbolTableRecord
100
AcDbRegAppTableRecord
  2
ACAD
 70
0
  0
ENDTAB
  0
TABLE
  2
BLOCK_RECORD
  5
1
100
AcDbSymbolTable
 70
0
  0
BLOCK_RECORD
  5
217
100
AcDbSymbolTableRecord
100
AcDbBlockTableRecord
  2
*Model_Space
  0
BLOCK_RECORD
  5
218
100
AcDbSymbolTableRecord
100
AcDbBlockTableRecord
  2
*Paper_Space
  0
BLOCK_RECORD
  5
219
100
AcDbSymbolTableRecord
100
AcDbBlockTableRecord
  2
_FILLED
  0
ENDTAB
  0
TABLE
  2
DIMSTYLE
  5
A
100
AcDbSymbolTable
 70
1
100
AcDbDimStyleTable
 71
0
  0
DIMSTYLE
105
21A
100
AcDbSymbolTableRecord
100
AcDbDimStyleTableRecord
  2
STANDARD
 70
0
  3

  4

 40
1.0
 41
3.5
 42
0.0
 43
0.38
 44
1.5
 45
0.0
 46
0.0
 47
0.01
 48
0.01
140
3.5
141
0.09
142
0.0
143
25.4
144
1.0
145
0.0
146
1.0
147
0.625
 71
1
 72
0
 73
0
 74
0
 75
0
 76
0
 77
1
 78
8
 79
2
170
0
171
1
172
0
173
0
174
0
175
0
176
0
177
0
178
5
270
2
179
2
271
2
272
2
273
2
274
2
275
0
280
0
281
0
282
0
283
1
284
8
285
0
286
0
287
3
288
0
340
11
278
46
341
219
342
219
343
219
344
219
  0
ENDTAB
  0
ENDSEC
  0
SECTION
  2
BLOCKS
  0
BLOCK
  5
20
100
AcDbEntity
  8
0
100
AcDbBlockBegin
  2
*Model_Space
 70
0
 10
0.0
 20
0.0
 30
0.0
  3
*Model_Space
  1

  0
ENDBLK
  5
21
100
AcDbEntity
  8
0
100
AcDbBlockEnd
  0
BLOCK
  5
1C
100
AcDbEntity
  8
0
100
AcDbBlockBegin
  2
*Paper_Space
 70
0
 10
0.0
 20
0.0
 30
0.0
  3
*Paper_Space
  1

  0
ENDBLK
  5
1D
100
AcDbEntity
  8
0
100
AcDbBlockEnd
  0
BLOCK
  5
21B
100
AcDbEntity
  8
0
100
AcDbBlockBegin
  2
_FILLED
 70
64
 10
0.0
 20
0.0
  3
_FILLED
  1

  0
SOLID
  5
21C
100
AcDbEntity
  8
0
  6
BYBLOCK
 62
0
100
AcDbTrace
 10
0.0
 20
0.0
 11
-1.0
 21
0.125
 12
-1.0
 22
-0.125
 13
-1.0
 23
-0.125
  0
ENDBLK
  5
21D
100
AcDbEntity
  8
0
  6
BYBLOCK
 62
0
100
AcDbBlockEnd
  0
ENDSEC
  0
SECTION
  2
ENTITIES
  0
MTEXT
  5
21E
100
AcDbEntity
  8
_04_NOTIZEN
100
AcDbMText
 62
5
  6
CONTINUOUS
  7
STANDARD
 71
1
 72
1
 10
159.426714443
 20
243.4610420065
 30
0.0
 11
0.0
 21
1.0
 31
0.0
 73
2
 44
0.9
  1
RUD
 40
8.0
 41
19.968
  0
MTEXT
  5
21F
100
AcDbEntity
  8
_04_NOTIZEN
100
AcDbMText
 62
5
  6
CONTINUOUS
  7
STANDARD
 71
1
 72
1
 10
239.6509363648
 20
247.9256949181
 30
0.0
 11
1.0
 21
0.0
 31
0.0
 73
2
 44
0.9
  1
VIP
 40
8.0
 41
15.616
  0
MTEXT
  5
220
100
AcDbEntity
  8
_04_NOTIZEN
100
AcDbMText
 62
5
  6
CONTINUOUS
  7
STANDARD
 71
1
 72
1
 10
386.8932228716
 20
267.2145838222
 30
0.0
 11
0.0
 21
1.0
 31
0.0
 73
2
 44
0.9
  1
VIP CCS
 40
8.0
 41
33.536
  0
MTEXT
  5
221
100
AcDbEntity
  8
_04_NOTIZEN
100
AcDbMText
 62
5
  6
CONTINUOUS
  7
STANDARD
 71
1
 72
1
 10
162.9290915024
 20
106.6896823946
 30
0.0
 11
1.0
 21
0.0
 31
0.0
 73
2
 44
0.9
  1
RUD VIP CCS 20
 40
8.0
 41
68.864
  0
LINE
  5
222
100
AcDbEntity
  8
0
100
AcDbLine
 62
7
  6
CONTINUOUS
 10
0.0
 20
0.0
 11
0.0
 21
420.0
  0
LINE
  5
223
100
AcDbEntity
  8
0
100
AcDbLine
 62
7
  6
CONTINUOUS
 10
0.0
 20
0.0
 11
594.0
 21
0.0
  0
LINE
  5
224
100
AcDbEntity
  8
0
100
AcDbLine
 62
7
  6
CONTINUOUS
 10
0.0
 20
420.0
 11
594.0
 21
420.0
  0
LINE
  5
225
100
AcDbEntity
  8
0
100
AcDbLine
 62
7
  6
CONTINUOUS
 10
594.0
 20
0.0
 11
594.0
 21
420.0
  0
LINE
  5
226
100
AcDbEntity
  8
FASEN
100
AcDbLine
 62
7
  6
CONTINUOUS
 10
129.2728635681
 20
204.5734632985
 11
130.2728635681
 21
203.5734632985
  0
LINE
  5
227
100
AcDbEntity
  8
0
100
AcDbLine
 62
7
  6
CONTINUOUS
 10
265.2728635682
 20
196.0734632984
 11
228.2728635682
 21
196.0734632984
  0
LINE
  5
228
100
AcDbEntity
  8
0
100
AcDbLine
 62
7
  6
CONTINUOUS
 10
174.2728635682
 20
196.0734632984
 11
153.7728635682
 21
196.0734632984
  0
LINE
  5
229
100
AcDbEntity
  8
BEZUGSACHSEN
100
AcDbLine
 62
7
  6
CONTINUOUS
 10
148.2728635682
 20
202.5734632984
 11
147.2728635682
 21
202.5734632984
  0
LINE
  5
22A
100
AcDbEntity
  8
FASEN
100
AcDbLine
 62
7
  6
CONTINUOUS
 10
146.2728635682
 20
203.5734632984
 11
130.2728635682
 21
203.5734632984
  0
LINE
  5
22B
100
AcDbEntity
  8
_30_VOLUMEN
100
AcDbLine
 62
7
  6
CONTINUOUS
 10
265.2728635682
 20
209.5734632984
 11
265.5728635682
 21
209.5734632984
  0
LINE
  5
22C
100
AcDbEntity
  8
FASEN
100
AcDbLine
 62
7
  6
CONTINUOUS
 10
129.2728635682
 20
204.5734632984
 11
129.2728635682
 21
252.5734632984
  0
LINE
  5
22D
100
AcDbEntity
  8
FASEN
100
AcDbLine
 62
7
  6
CONTINUOUS
 10
130.2728635682
 20
203.5734632984
 11
130.2728635682
 21
253.5734632984
  0
LINE
  5
22E
100
AcDbEntity
  8
0
100
AcDbLine
 62
7
  6
CONTINUOUS
 10
224.7728635682
 20
213.5734632984
 11
177.7728635682
 21
213.5734632984
  0
LINE
  5
22F
100
AcDbEntity
  8
0
100
AcDbLine
 62
7
  6
CONTINUOUS
 10
270.4092151807
 20
215.0734632984
 11
266.2728635682
 21
215.0734632984
  0
LINE
  5
230
100
AcDbEntity
  8
0
100
AcDbLine
 62
7
  6
CONTINUOUS
 10
266.2728635682
 20
218.5734632984
 11
265.5728635682
 21
218.5734632984
  0
LINE
  5
231
100
AcDbEntity
  8
0
100
AcDbLine
 62
7
  6
CONTINUOUS
 10
238.7728635682
 20
226.9067966318
 11
249.7728635682
 21
226.9067966318
  0
LINE
  5
232
100
AcDbEntity
  8
FASEN
100
AcDbLine
 62
7
  6
CONTINUOUS
 10
146.2728635683
 20
253.5734632983
 11
147.2728635683
 21
252.5734632983
  0
LINE
  5
233
100
AcDbEntity
  8
FASEN
100
AcDbLine
 62
7
  6
CONTINUOUS
 10
146.2728635682
 20
203.5734632984
 11
146.2728635682
 21
253.5734632984
  0
LINE
  5
234
100
AcDbEntity
  8
BEZUGSACHSEN
100
AcDbLine
 62
7
  6
CONTINUOUS
 10
147.2728635682
 20
254.5734632984
 11
147.2728635682
 21
202.5734632984
  0
LINE
  5
235
100
AcDbEntity
  8
0
100
AcDbLine
 62
7
  6
CONTINUOUS
 10
238.7728635682
 20
230.2401299651
 11
249.7728635682
 21
230.2401299651
  0
LINE
  5
236
100
AcDbEntity
  8
BEZUGSACHSEN
100
AcDbLine
 62
7
  6
CONTINUOUS
 10
150.7728635682
 20
199.0734632984
 11
150.7728635682
 21
252.7496513703
  0
LINE
  5
237
100
AcDbEntity
  8
RUNDUNGEN
100
AcDbLine
 62
7
  6
CONTINUOUS
 10
150.7728635682
 20
199.0734632984
 11
150.7728635682
 21
292.5734632984
  0
LINE
  5
238
100
AcDbEntity
  8
0
100
AcDbLine
 62
7
  6
CONTINUOUS
 10
266.2728635682
 20
238.5734632984
 11
265.5728635682
 21
238.5734632984
  0
LINE
  5
239
100
AcDbEntity
  8
0
100
AcDbLine
 62
7
  6
CONTINUOUS
 10
270.4092151807
 20
242.0734632984
 11
266.2728635682
 21
242.0734632984
  0
LINE
  5
23A
100
AcDbEntity
  8
0
100
AcDbLine
 62
7
  6
CONTINUOUS
 10
224.7728635682
 20
243.5734632984
 11
177.7728635682
 21
243.5734632984
  0
LINE
  5
23B
100
AcDbEntity
  8
0
100
AcDbLine
 62
7
  6
CONTINUOUS
 10
159.5573315848
 20
268.7759632537
 11
160.3232889403
 21
268.0259632984
  0
LINE
  5
23C
100
AcDbEntity
  8
0
100
AcDbLine
 62
7
  6
CONTINUOUS
 10
160.7062676181
 20
269.1509632984
 11
160.3232889403
 21
269.7134632984
  0
LINE
  5
23D
100
AcDbEntity
  8
0
100
AcDbLine
 62
7
  6
CONTINUOUS
 10
159.1743529071
 20
269.5259633431
 11
159.5573315848
 21
268.7759632537
  0
LINE
  5
23E
100
AcDbEntity
  8
0
100
AcDbLine
 62
7
  6
CONTINUOUS
 10
159.1743529071
 20
278.3384636561
 11
159.5573315848
 21
277.5884632984
  0
LINE
  5
23F
100
AcDbEntity
  8
0
100
AcDbLine
 62
7
  6
CONTINUOUS
 10
160.3232889403
 20
269.7134632984
 11
160.1317996015
 21
270.4634633878
  0
LINE
  5
240
100
AcDbEntity
  8
0
100
AcDbLine
 62
7
  6
CONTINUOUS
 10
158.9828635682
 20
270.4634633878
 11
159.1743529071
 21
269.5259633431
  0
LINE
  5
241
100
AcDbEntity
  8
0
100
AcDbLine
 62
7
  6
CONTINUOUS
 10
158.9828635682
 20
279.2759632984
 11
159.1743529071
 21
278.3384636561
  0
LINE
  5
242
100
AcDbEntity
  8
0
100
AcDbLine
 62
7
  6
CONTINUOUS
 10
158.9828635682
 20
289.0259625832
 11
158.9828635682
 21
288.0884640137
  0
LINE
  5
243
100
AcDbEntity
  8
0
100
AcDbLine
 62
7
  6
CONTINUOUS
 10
158.9828635682
 20
280.9634632984
 11
158.9828635682
 21
279.2759632984
  0
LINE
  5
244
100
AcDbEntity
  8
0
100
AcDbLine
 62
7
  6
CONTINUOUS
 10
158.9828635682
 20
272.1509631196
 11
158.9828635682
 21
270.4634633878
  0
LINE
  5
245
100
AcDbEntity
  8
0
100
AcDbLine
 62
7
  6
CONTINUOUS
 10
160.1317996015
 20
270.4634633878
 11
160.1317996015
 21
272.1509631196
  0
LINE
  5
246
100
AcDbEntity
  8
0
100
AcDbLine
 62
7
  6
CONTINUOUS
 10
160.1317996015
 20
279.2759632984
 11
160.1317996015
 21
280.9634632984
  0
LINE
  5
247
100
AcDbEntity
  8
0
100
AcDbLine
 62
7
  6
CONTINUOUS
 10
160.1317996015
 20
288.0884640137
 11
160.1317996015
 21
289.2134640137
  0
LINE
  5
248
100
AcDbEntity
  8
0
100
AcDbLine
 62
7
  6
CONTINUOUS
 10
161.0892462958
 20
290.3384640137
 11
161.0892462958
 21
291.4634640137
  0
LINE
  5
249
100
AcDbEntity
  8
0
100
AcDbLine
 62
7
  6
CONTINUOUS
 10
161.2807361712
 20
273.6509632984
 11
161.2807361712
 21
274.7759632984
  0
LINE
  5
24A
100
AcDbEntity
  8
0
100
AcDbLine
 62
7
  6
CONTINUOUS
 10
161.2807361712
 20
282.4634629408
 11
161.2807361712
 21
283.5884629408
  0
LINE
  5
24B
100
AcDbEntity
  8
0
100
AcDbLine
 62
7
  6
CONTINUOUS
 10
162.8126508822
 20
289.2134640137
 11
162.8126508822
 21
288.0884640137
  0
LINE
  5
24C
100
AcDbEntity
  8
0
100
AcDbLine
 62
7
  6
CONTINUOUS
 10
163.9615869154
 20
288.0884640137
 11
163.9615869154
 21
289.2134640137
  0
LINE
  5
24D
100
AcDbEntity
  8
0
100
AcDbLine
 62
7
  6
CONTINUOUS
 10
165.4935018946
 20
286.2134625832
 11
165.4935018946
 21
285.0884636561
  0
LINE
  5
24E
100
AcDbEntity
  8
0
100
AcDbLine
 62
7
  6
CONTINUOUS
 10
165.6849912335
 20
283.5884629408
 11
165.6849912335
 21
282.4634629408
  0
LINE
  5
24F
100
AcDbEntity
  8
0
100
AcDbLine
 62
7
  6
CONTINUOUS
 10
165.6849912335
 20
274.7759632984
 11
165.6849912335
 21
273.6509632984
  0
LINE
  5
250
100
AcDbEntity
  8
0
100
AcDbLine
 62
7
  6
CONTINUOUS
 10
159.1743529071
 20
289.9634632984
 11
158.9828635682
 21
289.0259625832
  0
LINE
  5
251
100
AcDbEntity
  8
0
100
AcDbLine
 62
7
  6
CONTINUOUS
 10
159.1743529071
 20
281.9009629408
 11
158.9828635682
 21
280.9634632984
  0
LINE
  5
252
100
AcDbEntity
  8
0
100
AcDbLine
 62
7
  6
CONTINUOUS
 10
159.1743529071
 20
273.0884632984
 11
158.9828635682
 21
272.1509631196
  0
LINE
  5
253
100
AcDbEntity
  8
0
100
AcDbLine
 62
7
  6
CONTINUOUS
 10
163.004140221
 20
290.1509625832
 11
162.8126508822
 21
289.2134640137
  0
LINE
  5
254
100
AcDbEntity
  8
0
100
AcDbLine
 62
7
  6
CONTINUOUS
 10
160.1317996015
 20
280.9634632984
 11
160.3232889403
 21
281.7134636561
  0
LINE
  5
255
100
AcDbEntity
  8
0
100
AcDbLine
 62
7
  6
CONTINUOUS
 10
160.1317996015
 20
289.2134640137
 11
160.3232889403
 21
289.7759640137
  0
LINE
  5
256
100
AcDbEntity
  8
0
100
AcDbLine
 62
7
  6
CONTINUOUS
 10
252.3353639258
 20
257.7223994658
 11
251.3978632106
 21
257.5309101269
  0
LINE
  5
257
100
AcDbEntity
  8
0
100
AcDbLine
 62
7
  6
CONTINUOUS
 10
251.3978632106
 20
256.5734632984
 11
252.5228632106
 21
256.7649526541
  0
LINE
  5
258
100
AcDbEntity
  8
_30_VOLUMEN
100
AcDbLine
 62
7
  6
CONTINUOUS
 10
266.0728635682
 20
247.7170568379
 11
270.9728635682
 21
247.7170568379
  0
LINE
  5
259
100
AcDbEntity
  8
0
100
AcDbLine
 62
7
  6
CONTINUOUS
 10
160.3232889403
 20
268.0259632984
 11
161.0892462958
 21
267.650963304
  0
LINE
  5
25A
100
AcDbEntity
  8
0
100
AcDbLine
 62
7
  6
CONTINUOUS
 10
161.2807361712
 20
268.7759632537
 11
160.7062676181
 21
269.1509632984
  0
LINE
  5
25B
100
AcDbEntity
  8
0
100
AcDbLine
 62
7
  6
CONTINUOUS
 10
159.5573315848
 20
277.5884632984
 11
160.3232889403
 21
276.8384629408
  0
LINE
  5
25C
100
AcDbEntity
  8
0
100
AcDbLine
 62
7
  6
CONTINUOUS
 10
167.4083954845
 20
273.8384631196
 11
166.642438062
 21
274.5884634773
  0
LINE
  5
25D
100
AcDbEntity
  8
0
100
AcDbLine
 62
7
  6
CONTINUOUS
 10
160.7062676181
 20
277.9634629408
 11
160.3232889403
 21
278.5259629408
  0
LINE
  5
25E
100
AcDbEntity
  8
0
100
AcDbLine
 62
7
  6
CONTINUOUS
 10
166.2594592501
 20
273.4634634773
 11
166.642438062
 21
272.9009634773
  0
LINE
  5
25F
100
AcDbEntity
  8
0
100
AcDbLine
 62
7
  6
CONTINUOUS
 10
160.7062676181
 20
286.9634640137
 11
160.3232889403
 21
287.5259640137
  0
LINE
  5
260
100
AcDbEntity
  8
0
100
AcDbLine
 62
7
  6
CONTINUOUS
 10
159.1743529071
 20
287.3384625832
 11
159.5573315848
 21
286.5884632984
  0
LINE
  5
261
100
AcDbEntity
  8
0
100
AcDbLine
 62
7
  6
CONTINUOUS
 10
167.7913742126
 20
273.0884632984
 11
167.4083954845
 21
273.8384631196
  0
LINE
  5
262
100
AcDbEntity
  8
0
100
AcDbLine
 62
7
  6
CONTINUOUS
 10
160.3232889403
 20
287.5259640137
 11
160.1317996015
 21
288.0884640137
  0
LINE
  5
263
100
AcDbEntity
  8
0
100
AcDbLine
 62
7
  6
CONTINUOUS
 10
160.3232889403
 20
278.5259629408
 11
160.1317996015
 21
279.2759632984
  0
LINE
  5
264
100
AcDbEntity
  8
0
100
AcDbLine
 62
7
  6
CONTINUOUS
 10
158.9828635682
 20
288.0884640137
 11
159.1743529071
 21
287.3384625832
  0
LINE
  5
265
100
AcDbEntity
  8
0
100
AcDbLine
 62
7
  6
CONTINUOUS
 10
166.642438062
 20
272.9009634773
 11
166.8339274009
 21
272.1509631196
  0
LINE
  5
266
100
AcDbEntity
  8
0
100
AcDbLine
 62
7
  6
CONTINUOUS
 10
166.642438062
 20
281.7134636561
 11
166.8339274009
 21
280.9634632984
  0
LINE
  5
267
100
AcDbEntity
  8
0
100
AcDbLine
 62
7
  6
CONTINUOUS
 10
167.9828635682
 20
272.1509631196
 11
167.7913742126
 21
273.0884632984
  0
LINE
  5
268
100
AcDbEntity
  8
0
100
AcDbLine
 62
7
  6
CONTINUOUS
 10
166.8339274009
 20
289.2134640137
 11
166.8339274009
 21
287.7134632984
  0
LINE
  5
269
100
AcDbEntity
  8
0
100
AcDbLine
 62
7
  6
CONTINUOUS
 10
166.8339274009
 20
280.9634632984
 11
166.8339274009
 21
279.2759632984
  0
LINE
  5
26A
100
AcDbEntity
  8
0
100
AcDbLine
 62
7
  6
CONTINUOUS
 10
166.8339274009
 20
272.1509631196
 11
166.8339274009
 21
270.4634633878
  0
LINE
  5
26B
100
AcDbEntity
  8
0
100
AcDbLine
 62
7
  6
CONTINUOUS
 10
167.9828635682
 20
270.4634633878
 11
167.9828635682
 21
272.1509631196
  0
LINE
  5
26C
100
AcDbEntity
  8
0
100
AcDbLine
 62
7
  6
CONTINUOUS
 10
167.9828635682
 20
279.2759632984
 11
167.9828635682
 21
280.9634632984
  0
LINE
  5
26D
100
AcDbEntity
  8
0
100
AcDbLine
 62
7
  6
CONTINUOUS
 10
167.9828635682
 20
287.7134632984
 11
167.9828635682
 21
289.2134640137
  0
LINE
  5
26E
100
AcDbEntity
  8
RUNDUNGEN
100
AcDbLine
 62
7
  6
CONTINUOUS
 10
172.7728635682
 20
310.4994835906
 11
172.7728635682
 21
361.5734632984
  0
LINE
  5
26F
100
AcDbEntity
  8
0
100
AcDbLine
 62
7
  6
CONTINUOUS
 10
167.7913742126
 20
286.7759625832
 11
167.9828635682
 21
287.7134632984
  0
LINE
  5
270
100
AcDbEntity
  8
0
100
AcDbLine
 62
7
  6
CONTINUOUS
 10
167.7913742126
 20
278.3384636561
 11
167.9828635682
 21
279.2759632984
  0
LINE
  5
271
100
AcDbEntity
  8
0
100
AcDbLine
 62
7
  6
CONTINUOUS
 10
167.7913742126
 20
269.5259633431
 11
167.9828635682
 21
270.4634633878
  0
LINE
  5
272
100
AcDbEntity
  8
0
100
AcDbLine
 62
7
  6
CONTINUOUS
 10
163.9615869154
 20
289.2134640137
 11
164.1530762543
 21
289.9634632984
  0
LINE
  5
273
100
AcDbEntity
  8
0
100
AcDbLine
 62
7
  6
CONTINUOUS
 10
163.7700975765
 20
287.3384625832
 11
163.9615869154
 21
288.0884640137
  0
LINE
  5
274
100
AcDbEntity
  8
0
100
AcDbLine
 62
7
  6
CONTINUOUS
 10
160.1317996015
 20
272.1509631196
 11
160.3232889403
 21
272.9009634773
  0
LINE
  5
275
100
AcDbEntity
  8
0
100
AcDbLine
 62
7
  6
CONTINUOUS
 10
166.8339274009
 20
287.7134632984
 11
166.642438062
 21
286.9634640137
  0
LINE
  5
276
100
AcDbEntity
  8
0
100
AcDbLine
 62
7
  6
CONTINUOUS
 10
166.8339274009
 20
279.2759632984
 11
166.642438062
 21
278.5259629408
  0
LINE
  5
277
100
AcDbEntity
  8
0
100
AcDbLine
 62
7
  6
CONTINUOUS
 10
166.8339274009
 20
270.4634633878
 11
166.642438062
 21
269.7134632984
  0
LINE
  5
278
100
AcDbEntity
  8
0
100
AcDbLine
 62
7
  6
CONTINUOUS
 10
162.8126508822
 20
288.0884640137
 11
162.6211615433
 21
287.5259640137
  0
LINE
  5
279
100
AcDbEntity
  8
0
100
AcDbLine
 62
7
  6
CONTINUOUS
 10
163.3871188988
 20
290.9009640137
 11
163.004140221
 21
290.1509625832
  0
LINE
  5
27A
100
AcDbEntity
  8
0
100
AcDbLine
 62
7
  6
CONTINUOUS
 10
159.5573315848
 20
282.6509632984
 11
159.1743529071
 21
281.9009629408
  0
LINE
  5
27B
100
AcDbEntity
  8
0
100
AcDbLine
 62
7
  6
CONTINUOUS
 10
163.3871188988
 20
286.5884632984
 11
163.7700975765
 21
287.3384625832
  0
LINE
  5
27C
100
AcDbEntity
  8
0
100
AcDbLine
 62
7
  6
CONTINUOUS
 10
159.5573315848
 20
273.8384631196
 11
159.1743529071
 21
273.0884632984
  0
LINE
  5
27D
100
AcDbEntity
  8
0
100
AcDbLine
 62
7
  6
CONTINUOUS
 10
164.1530762543
 20
289.9634632984
 11
164.536054932
 21
290.5259632984
  0
LINE
  5
27E
100
AcDbEntity
  8
0
100
AcDbLine
 62
7
  6
CONTINUOUS
 10
162.6211615433
 20
287.5259640137
 11
162.2381828655
 21
286.9634640137
  0
LINE
  5
27F
100
AcDbEntity
  8
0
100
AcDbLine
 62
7
  6
CONTINUOUS
 10
159.7488209237
 20
290.7134625832
 11
159.1743529071
 21
289.9634632984
  0
LINE
  5
280
100
AcDbEntity
  8
0
100
AcDbLine
 62
7
  6
CONTINUOUS
 10
250.4603635682
 20
264.4245272652
 11
251.3978632106
 21
264.6160166041
  0
LINE
  5
281
100
AcDbEntity
  8
0
100
AcDbLine
 62
7
  6
CONTINUOUS
 10
241.8353636129
 20
264.4245272652
 11
242.7728636576
 21
264.6160166041
  0
LINE
  5
282
100
AcDbEntity
  8
0
100
AcDbLine
 62
7
  6
CONTINUOUS
 10
251.3978632106
 20
265.5734632984
 11
250.2728632106
 21
265.3819739596
  0
LINE
  5
283
100
AcDbEntity
  8
0
100
AcDbLine
 62
7
  6
CONTINUOUS
 10
242.9603634788
 20
265.5734632984
 11
241.6478635235
 21
265.3819739596
  0
LINE
  5
284
100
AcDbEntity
  8
FASEN
100
AcDbLine
 62
7
  6
CONTINUOUS
 10
146.2728635682
 20
253.5734632984
 11
130.2728635682
 21
253.5734632984
  0
LINE
  5
285
100
AcDbEntity
  8
BEZUGSACHSEN
100
AcDbLine
 62
7
  6
CONTINUOUS
 10
148.2728635682
 20
254.5734632984
 11
147.2728635682
 21
254.5734632984
  0
LINE
  5
286
100
AcDbEntity
  8
_30_VOLUMEN
100
AcDbLine
 62
7
  6
CONTINUOUS
 10
266.0728635682
 20
254.6452600682
 11
270.9728635682
 21
254.6452600682
  0
LINE
  5
287
100
AcDbEntity
  8
_26_BEZUGSACHSEN
100
AcDbLine
 62
7
  6
CONTINUOUS
 10
265.5728635682
 20
255.6234632984
 11
266.0728635682
 21
255.6234632984
  0
LINE
  5
288
100
AcDbEntity
  8
0
100
AcDbLine
 62
7
  6
CONTINUOUS
 10
239.7728635682
 20
256.5734632984
 11
246.5228635682
 21
256.5734632984
  0
LINE
  5
289
100
AcDbEntity
  8
0
100
AcDbLine
 62
7
  6
CONTINUOUS
 10
246.5228635682
 20
257.5309101269
 11
241.2728636129
 21
257.5309101269
  0
LINE
  5
28A
100
AcDbEntity
  8
0
100
AcDbLine
 62
7
  6
CONTINUOUS
 10
161.0892462958
 20
267.650963304
 11
162.0466935267
 21
267.4634632984
  0
LINE
  5
28B
100
AcDbEntity
  8
0
100
AcDbLine
 62
7
  6
CONTINUOUS
 10
162.0466935267
 20
268.5884632984
 11
161.2807361712
 21
268.7759632537
  0
LINE
  5
28C
100
AcDbEntity
  8
0
100
AcDbLine
 62
7
  6
CONTINUOUS
 10
160.3232889403
 20
276.8384629408
 11
161.0892462958
 21
276.4634632984
  0
LINE
  5
28D
100
AcDbEntity
  8
0
100
AcDbLine
 62
7
  6
CONTINUOUS
 10
161.2807361712
 20
277.5884632984
 11
160.7062676181
 21
277.9634629408
  0
LINE
  5
28E
100
AcDbEntity
  8
0
100
AcDbLine
 62
7
  6
CONTINUOUS
 10
159.5573315848
 20
286.5884632984
 11
160.3232889403
 21
285.8384640137
  0
LINE
  5
28F
100
AcDbEntity
  8
0
100
AcDbLine
 62
7
  6
CONTINUOUS
 10
167.4083954845
 20
282.6509632984
 11
166.642438062
 21
283.4009636561
  0
LINE
  5
290
100
AcDbEntity
  8
0
100
AcDbLine
 62
7
  6
CONTINUOUS
 10
166.2594592501
 20
282.2759636561
 11
166.642438062
 21
281.7134636561
  0
LINE
  5
291
100
AcDbEntity
  8
0
100
AcDbLine
 62
7
  6
CONTINUOUS
 10
166.2594592501
 20
290.5259632984
 11
166.642438062
 21
289.9634632984
  0
LINE
  5
292
100
AcDbEntity
  8
0
100
AcDbLine
 62
7
  6
CONTINUOUS
 10
167.7913742126
 20
281.9009629408
 11
167.4083954845
 21
282.6509632984
  0
LINE
  5
293
100
AcDbEntity
  8
0
100
AcDbLine
 62
7
  6
CONTINUOUS
 10
167.7913742126
 20
290.1509625832
 11
167.4083954845
 21
290.9009640137
  0
LINE
  5
294
100
AcDbEntity
  8
0
100
AcDbLine
 62
7
  6
CONTINUOUS
 10
166.642438062
 20
289.9634632984
 11
166.8339274009
 21
289.2134640137
  0
LINE
  5
295
100
AcDbEntity
  8
0
100
AcDbLine
 62
7
  6
CONTINUOUS
 10
167.9828635682
 20
280.9634632984
 11
167.7913742126
 21
281.9009629408
  0
LINE
  5
296
100
AcDbEntity
  8
0
100
AcDbLine
 62
7
  6
CONTINUOUS
 10
167.9828635682
 20
289.2134640137
 11
167.7913742126
 21
290.1509625832
  0
LINE
  5
297
100
AcDbEntity
  8
BEZUGSACHSEN
100
AcDbLine
 62
7
  6
CONTINUOUS
 10
177.7728635682
 20
252.3398854708
 11
177.7728635682
 21
199.5734632984
  0
LINE
  5
298
100
AcDbEntity
  8
RUNDUNGEN
100
AcDbLine
 62
7
  6
CONTINUOUS
 10
177.7728635682
 20
199.6193351746
 11
177.7728635682
 21
292.5734632984
  0
LINE
  5
299
100
AcDbEntity
  8
0
100
AcDbLine
 62
7
  6
CONTINUOUS
 10
167.4083954845
 20
277.5884632984
 11
167.7913742126
 21
278.3384636561
  0
LINE
  5
29A
100
AcDbEntity
  8
0
100
AcDbLine
 62
7
  6
CONTINUOUS
 10
167.2169061457
 20
285.8384640137
 11
167.7913742126
 21
286.7759625832
  0
LINE
  5
29B
100
AcDbEntity
  8
0
100
AcDbLine
 62
7
  6
CONTINUOUS
 10
160.3232889403
 20
281.7134636561
 11
160.7062676181
 21
282.2759636561
  0
LINE
  5
29C
100
AcDbEntity
  8
0
100
AcDbLine
 62
7
  6
CONTINUOUS
 10
160.3232889403
 20
272.9009634773
 11
160.7062676181
 21
273.4634634773
  0
LINE
  5
29D
100
AcDbEntity
  8
0
100
AcDbLine
 62
7
  6
CONTINUOUS
 10
166.642438062
 20
278.5259629408
 11
166.2594592501
 21
277.9634629408
  0
LINE
  5
29E
100
AcDbEntity
  8
FASEN
100
AcDbLine
 62
7
  6
CONTINUOUS
 10
129.2728635681
 20
252.5734632983
 11
130.2728635681
 21
253.5734632983
  0
LINE
  5
29F
100
AcDbEntity
  8
0
100
AcDbLine
 62
7
  6
CONTINUOUS
 10
160.3232889403
 20
289.7759640137
 11
160.7062676181
 21
290.1509625832
  0
LINE
  5
2A0
100
AcDbEntity
  8
0
100
AcDbLine
 62
7
  6
CONTINUOUS
 10
164.1530762543
 20
291.6509632984
 11
163.3871188988
 21
290.9009640137
  0
LINE
  5
2A1
100
AcDbEntity
  8
0
100
AcDbLine
 62
7
  6
CONTINUOUS
 10
162.6211615433
 20
285.8384640137
 11
163.3871188988
 21
286.5884632984
  0
LINE
  5
2A2
100
AcDbEntity
  8
0
100
AcDbLine
 62
7
  6
CONTINUOUS
 10
160.3232889403
 20
283.4009636561
 11
159.5573315848
 21
282.6509632984
  0
LINE
  5
2A3
100
AcDbEntity
  8
0
100
AcDbLine
 62
7
  6
CONTINUOUS
 10
160.5147782792
 20
291.2759625832
 11
159.7488209237
 21
290.7134625832
  0
LINE
  5
2A4
100
AcDbEntity
  8
0
100
AcDbLine
 62
7
  6
CONTINUOUS
 10
239.9603635738
 20
263.4670805708
 11
240.8978635682
 21
263.4670805708
  0
LINE
  5
2A5
100
AcDbEntity
  8
0
100
AcDbLine
 62
7
  6
CONTINUOUS
 10
242.7728636576
 20
264.6160166041
 11
243.5228634788
 21
264.6160166041
  0
LINE
  5
2A6
100
AcDbEntity
  8
0
100
AcDbLine
 62
7
  6
CONTINUOUS
 10
243.7103635682
 20
265.5734632984
 11
242.9603634788
 21
265.5734632984
  0
LINE
  5
2A7
100
AcDbEntity
  8
0
100
AcDbLine
 62
7
  6
CONTINUOUS
 10
162.0466935267
 20
267.4634632984
 11
164.919033878
 21
267.4634632984
  0
LINE
  5
2A8
100
AcDbEntity
  8
_26_BEZUGSACHSEN
100
AcDbLine
 62
7
  6
CONTINUOUS
 10
265.5728635682
 20
267.5234632984
 11
266.0728635682
 21
267.5234632984
  0
LINE
  5
2A9
100
AcDbEntity
  8
_30_VOLUMEN
100
AcDbLine
 62
7
  6
CONTINUOUS
 10
266.0728635682
 20
268.5016665287
 11
270.9728635682
 21
268.5016665287
  0
LINE
  5
2AA
100
AcDbEntity
  8
0
100
AcDbLine
 62
7
  6
CONTINUOUS
 10
164.919033878
 20
268.5884632984
 11
162.0466935267
 21
268.5884632984
  0
LINE
  5
2AB
100
AcDbEntity
  8
0
100
AcDbLine
 62
7
  6
CONTINUOUS
 10
250.2728632106
 20
256.7649526541
 11
251.3978632106
 21
256.5734632984
  0
LINE
  5
2AC
100
AcDbEntity
  8
0
100
AcDbLine
 62
7
  6
CONTINUOUS
 10
166.642438062
 20
274.5884634773
 11
165.6849912335
 21
274.7759632984
  0
LINE
  5
2AD
100
AcDbEntity
  8
0
100
AcDbLine
 62
7
  6
CONTINUOUS
 10
161.0892462958
 20
276.4634632984
 11
162.0466935267
 21
276.2759634773
  0
LINE
  5
2AE
100
AcDbEntity
  8
0
100
AcDbLine
 62
7
  6
CONTINUOUS
 10
251.3978632106
 20
257.5309101269
 11
250.4603635682
 21
257.7223994658
  0
LINE
  5
2AF
100
AcDbEntity
  8
0
100
AcDbLine
 62
7
  6
CONTINUOUS
 10
162.0466935267
 20
277.4009629408
 11
161.2807361712
 21
277.5884632984
  0
LINE
  5
2B0
100
AcDbEntity
  8
0
100
AcDbLine
 62
7
  6
CONTINUOUS
 10
165.6849912335
 20
273.6509632984
 11
166.2594592501
 21
273.4634634773
  0
LINE
  5
2B1
100
AcDbEntity
  8
RUNDUNGEN
100
AcDbLine
 62
7
  6
CONTINUOUS
 10
281.7858937832
 20
237.9326909223
 11
270.4092151807
 21
242.0734632984
  0
LINE
  5
2B2
100
AcDbEntity
  8
0
100
AcDbLine
 62
7
  6
CONTINUOUS
 10
251.0378630382
 20
233.0953386297
 11
257.594464925
 21
228.9974624504
  0
LINE
  5
2B3
100
AcDbEntity
  8
0
100
AcDbLine
 62
7
  6
CONTINUOUS
 10
165.6849912335
 20
290.9009640137
 11
166.2594592501
 21
290.5259632984
  0
LINE
  5
2B4
100
AcDbEntity
  8
0
100
AcDbLine
 62
7
  6
CONTINUOUS
 10
167.4083954845
 20
290.9009640137
 11
166.642438062
 21
291.6509632984
  0
LINE
  5
2B5
100
AcDbEntity
  8
0
100
AcDbLine
 62
7
  6
CONTINUOUS
 10
167.4083954845
 20
268.7759632537
 11
167.7913742126
 21
269.5259633431
  0
LINE
  5
2B6
100
AcDbEntity
  8
0
100
AcDbLine
 62
7
  6
CONTINUOUS
 10
166.642438062
 20
269.7134632984
 11
166.2594592501
 21
269.1509632984
  0
LINE
  5
2B7
100
AcDbEntity
  8
0
100
AcDbLine
 62
7
  6
CONTINUOUS
 10
166.642438062
 20
286.9634640137
 11
166.0679699112
 21
286.4009640137
  0
LINE
  5
2B8
100
AcDbEntity
  8
0
100
AcDbLine
 62
7
  6
CONTINUOUS
 10
160.3232889403
 20
274.5884634773
 11
159.5573315848
 21
273.8384631196
  0
LINE
  5
2B9
100
AcDbEntity
  8
0
100
AcDbLine
 62
7
  6
CONTINUOUS
 10
166.642438062
 20
276.8384629408
 11
167.4083954845
 21
277.5884632984
  0
LINE
  5
2BA
100
AcDbEntity
  8
0
100
AcDbLine
 62
7
  6
CONTINUOUS
 10
164.536054932
 20
290.5259632984
 11
165.1105232169
 21
290.9009640137
  0
LINE
  5
2BB
100
AcDbEntity
  8
0
100
AcDbLine
 62
7
  6
CONTINUOUS
 10
160.7062676181
 20
290.1509625832
 11
161.0892462958
 21
290.3384640137
  0
LINE
  5
2BC
100
AcDbEntity
  8
0
100
AcDbLine
 62
7
  6
CONTINUOUS
 10
164.919033878
 20
292.0259640137
 11
164.1530762543
 21
291.6509632984
  0
LINE
  5
2BD
100
AcDbEntity
  8
0
100
AcDbLine
 62
7
  6
CONTINUOUS
 10
243.3439239985
 20
281.8968775764
 11
242.6630730158
 21
281.7302115455
  0
LINE
  5
2BE
100
AcDbEntity
  8
0
100
AcDbLine
 62
7
  6
CONTINUOUS
 10
242.6630730158
 20
280.7302115455
 11
243.514137221
 21
280.8968775764
  0
LINE
  5
2BF
100
AcDbEntity
  8
0
100
AcDbLine
 62
7
  6
CONTINUOUS
 10
164.919033878
 20
267.4634632984
 11
165.8764805724
 21
267.650963304
  0
LINE
  5
2C0
100
AcDbEntity
  8
_30_VOLUMEN
100
AcDbLine
 62
7
  6
CONTINUOUS
 10
265.2728635682
 20
274.0734632984
 11
251.4728635682
 21
274.0734632984
  0
LINE
  5
2C1
100
AcDbEntity
  8
_30_VOLUMEN
100
AcDbLine
 62
7
  6
CONTINUOUS
 10
266.0728635682
 20
275.429869759
 11
270.9728635682
 21
275.429869759
  0
LINE
  5
2C2
100
AcDbEntity
  8
0
100
AcDbLine
 62
7
  6
CONTINUOUS
 10
162.0466935267
 20
276.2759634773
 11
164.919033878
 21
276.2759634773
  0
LINE
  5
2C3
100
AcDbEntity
  8
0
100
AcDbLine
 62
7
  6
CONTINUOUS
 10
164.919033878
 20
277.4009629408
 11
162.0466935267
 21
277.4009629408
  0
LINE
  5
2C4
100
AcDbEntity
  8
0
100
AcDbLine
 62
7
  6
CONTINUOUS
 10
244.8353635682
 20
265.3819739596
 11
243.7103635682
 21
265.5734632984
  0
LINE
  5
2C5
100
AcDbEntity
  8
0
100
AcDbLine
 62
7
  6
CONTINUOUS
 10
252.5228632106
 20
265.3819739596
 11
251.3978632106
 21
265.5734632984
  0
LINE
  5
2C6
100
AcDbEntity
  8
0
100
AcDbLine
 62
7
  6
CONTINUOUS
 10
166.642438062
 20
283.4009636561
 11
165.6849912335
 21
283.5884629408
  0
LINE
  5
2C7
100
AcDbEntity
  8
0
100
AcDbLine
 62
7
  6
CONTINUOUS
 10
243.5228634788
 20
264.6160166041
 11
244.4603633894
 21
264.4245272652
  0
LINE
  5
2C8
100
AcDbEntity
  8
0
100
AcDbLine
 62
7
  6
CONTINUOUS
 10
251.3978632106
 20
264.6160166041
 11
252.3353639258
 21
264.4245272652
  0
LINE
  5
2C9
100
AcDbEntity
  8
0
100
AcDbLine
 62
7
  6
CONTINUOUS
 10
160.3232889403
 20
285.8384640137
 11
161.0892462958
 21
285.6509625832
  0
LINE
  5
2CA
100
AcDbEntity
  8
0
100
AcDbLine
 62
7
  6
CONTINUOUS
 10
165.6849912335
 20
282.4634629408
 11
166.2594592501
 21
282.2759636561
  0
LINE
  5
2CB
100
AcDbEntity
  8
0
100
AcDbLine
 62
7
  6
CONTINUOUS
 10
161.2807361712
 20
286.7759625832
 11
160.7062676181
 21
286.9634640137
  0
LINE
  5
2CC
100
AcDbEntity
  8
0
100
AcDbLine
 62
7
  6
CONTINUOUS
 10
166.642438062
 20
291.6509632984
 11
165.8764805724
 21
292.0259640137
  0
LINE
  5
2CD
100
AcDbEntity
  8
0
100
AcDbLine
 62
7
  6
CONTINUOUS
 10
166.642438062
 20
268.0259632984
 11
167.4083954845
 21
268.7759632537
  0
LINE
  5
2CE
100
AcDbEntity
  8
0
100
AcDbLine
 62
7
  6
CONTINUOUS
 10
166.2594592501
 20
277.9634629408
 11
165.6849912335
 21
277.5884632984
  0
LINE
  5
2CF
100
AcDbEntity
  8
0
100
AcDbLine
 62
7
  6
CONTINUOUS
 10
166.2594592501
 20
285.2759629408
 11
167.2169061457
 21
285.8384640137
  0
LINE
  5
2D0
100
AcDbEntity
  8
0
100
AcDbLine
 62
7
  6
CONTINUOUS
 10
161.0892462958
 20
291.4634640137
 11
160.5147782792
 21
291.2759625832
  0
LINE
  5
2D1
100
AcDbEntity
  8
0
100
AcDbLine
 62
7
  6
CONTINUOUS
 10
162.2381828655
 20
286.9634640137
 11
161.6637148489
 21
286.7759625832
  0
LINE
  5
2D2
100
AcDbEntity
  8
0
100
AcDbLine
 62
7
  6
CONTINUOUS
 10
165.6849912335
 20
268.7759632537
 11
164.919033878
 21
268.5884632984
  0
LINE
  5
2D3
100
AcDbEntity
  8
0
100
AcDbLine
 62
7
  6
CONTINUOUS
 10
239.4290306097
 20
293.563544561
 11
240.1098815924
 21
293.7302105919
  0
LINE
  5
2D4
100
AcDbEntity
  8
0
100
AcDbLine
 62
7
  6
CONTINUOUS
 10
161.2807361712
 20
274.7759632984
 11
160.3232889403
 21
274.5884634773
  0
LINE
  5
2D5
100
AcDbEntity
  8
0
100
AcDbLine
 62
7
  6
CONTINUOUS
 10
164.919033878
 20
276.2759634773
 11
165.8764805724
 21
276.4634632984
  0
LINE
  5
2D6
100
AcDbEntity
  8
0
100
AcDbLine
 62
7
  6
CONTINUOUS
 10
240.1098815924
 20
280.7302115455
 11
242.6630730158
 21
280.7302115455
  0
LINE
  5
2D7
100
AcDbEntity
  8
0
100
AcDbLine
 62
7
  6
CONTINUOUS
 10
242.6630730158
 20
281.7302115455
 11
240.1098815924
 21
281.7302115455
  0
LINE
  5
2D8
100
AcDbEntity
  8
0
100
AcDbLine
 62
7
  6
CONTINUOUS
 10
161.0892462958
 20
285.6509625832
 11
161.8552041878
 21
285.6509625832
  0
LINE
  5
2D9
100
AcDbEntity
  8
0
100
AcDbLine
 62
7
  6
CONTINUOUS
 10
249.3353635682
 20
257.339420721
 11
250.2728632106
 21
256.7649526541
  0
LINE
  5
2DA
100
AcDbEntity
  8
0
100
AcDbLine
 62
7
  6
CONTINUOUS
 10
166.2594592501
 20
269.1509632984
 11
165.6849912335
 21
268.7759632537
  0
LINE
  5
2DB
100
AcDbEntity
  8
0
100
AcDbLine
 62
7
  6
CONTINUOUS
 10
165.8764805724
 20
276.4634632984
 11
166.642438062
 21
276.8384629408
  0
LINE
  5
2DC
100
AcDbEntity
  8
0
100
AcDbLine
 62
7
  6
CONTINUOUS
 10
166.0679699112
 20
286.4009640137
 11
165.4935018946
 21
286.2134625832
  0
LINE
  5
2DD
100
AcDbEntity
  8
0
100
AcDbLine
 62
7
  6
CONTINUOUS
 10
160.7062676181
 20
282.2759636561
 11
161.2807361712
 21
282.4634629408
  0
LINE
  5
2DE
100
AcDbEntity
  8
0
100
AcDbLine
 62
7
  6
CONTINUOUS
 10
165.6849912335
 20
277.5884632984
 11
164.919033878
 21
277.4009629408
  0
LINE
  5
2DF
100
AcDbEntity
  8
0
100
AcDbLine
 62
7
  6
CONTINUOUS
 10
240.1098815924
 20
294.7302110687
 11
239.2588178641
 21
294.5635440841
  0
LINE
  5
2E0
100
AcDbEntity
  8
0
100
AcDbLine
 62
7
  6
CONTINUOUS
 10
161.2807361712
 20
283.5884629408
 11
160.3232889403
 21
283.4009636561
  0
LINE
  5
2E1
100
AcDbEntity
  8
0
100
AcDbLine
 62
7
  6
CONTINUOUS
 10
238.4077540165
 20
286.3968775764
 11
244.3652009493
 21
286.3968775764
  0
LINE
  5
2E2
100
AcDbEntity
  8
0
100
AcDbLine
 62
7
  6
CONTINUOUS
 10
161.6637148489
 20
286.7759625832
 11
161.2807361712
 21
286.7759625832
  0
LINE
  5
2E3
100
AcDbEntity
  8
0
100
AcDbLine
 62
7
  6
CONTINUOUS
 10
245.3864774233
 20
287.3968775764
 11
237.3864774233
 21
287.3968775764
  0
LINE
  5
2E4
100
AcDbEntity
  8
0
100
AcDbLine
 62
7
  6
CONTINUOUS
 10
240.1098815924
 20
288.7302105919
 11
245.3864774233
 21
288.7302105919
  0
LINE
  5
2E5
100
AcDbEntity
  8
0
100
AcDbLine
 62
7
  6
CONTINUOUS
 10
245.3864774233
 20
289.7302105919
 11
240.1098815924
 21
289.7302105919
  0
LINE
  5
2E6
100
AcDbEntity
  8
0
100
AcDbLine
 62
7
  6
CONTINUOUS
 10
165.1105232169
 20
290.9009640137
 11
165.6849912335
 21
290.9009640137
  0
LINE
  5
2E7
100
AcDbEntity
  8
0
100
AcDbLine
 62
7
  6
CONTINUOUS
 10
165.8764805724
 20
292.0259640137
 11
164.919033878
 21
292.0259640137
  0
LINE
  5
2E8
100
AcDbEntity
  8
0
100
AcDbLine
 62
7
  6
CONTINUOUS
 10
240.1098815924
 20
293.7302105919
 11
245.3864774233
 21
293.7302105919
  0
LINE
  5
2E9
100
AcDbEntity
  8
0
100
AcDbLine
 62
7
  6
CONTINUOUS
 10
239.2588178641
 20
280.8968775764
 11
240.1098815924
 21
280.7302115455
  0
LINE
  5
2EA
100
AcDbEntity
  8
0
100
AcDbLine
 62
7
  6
CONTINUOUS
 10
240.1098815924
 20
281.7302115455
 11
239.4290306097
 21
281.8968775764
  0
LINE
  5
2EB
100
AcDbEntity
  8
0
100
AcDbLine
 62
7
  6
CONTINUOUS
 10
245.5853633894
 20
264.9989952818
 11
244.8353635682
 21
265.3819739596
  0
LINE
  5
2EC
100
AcDbEntity
  8
0
100
AcDbLine
 62
7
  6
CONTINUOUS
 10
253.4603639258
 20
264.8075059429
 11
252.5228632106
 21
265.3819739596
  0
LINE
  5
2ED
100
AcDbEntity
  8
0
100
AcDbLine
 62
7
  6
CONTINUOUS
 10
250.4603635682
 20
257.7223994658
 11
249.8978635682
 21
258.1053781435
  0
LINE
  5
2EE
100
AcDbEntity
  8
0
100
AcDbLine
 62
7
  6
CONTINUOUS
 10
244.4603633894
 20
264.4245272652
 11
245.0228633894
 21
264.0415485874
  0
LINE
  5
2EF
100
AcDbEntity
  8
0
100
AcDbLine
 62
7
  6
CONTINUOUS
 10
165.8764805724
 20
267.650963304
 11
166.642438062
 21
268.0259632984
  0
LINE
  5
2F0
100
AcDbEntity
  8
0
100
AcDbLine
 62
7
  6
CONTINUOUS
 10
237.3864774233
 20
296.0635440841
 11
241.3013710505
 21
297.5635440841
  0
LINE
  5
2F1
100
AcDbEntity
  8
0
100
AcDbLine
 62
7
  6
CONTINUOUS
 10
240.9609455591
 20
298.5635443226
 11
237.3864774233
 21
297.2302110687
  0
LINE
  5
2F2
100
AcDbEntity
  8
0
100
AcDbLine
 62
7
  6
CONTINUOUS
 10
160.7062676181
 20
273.4634634773
 11
161.2807361712
 21
273.6509632984
  0
LINE
  5
2F3
100
AcDbEntity
  8
0
100
AcDbLine
 62
7
  6
CONTINUOUS
 10
244.024775458
 20
297.3968775764
 11
243.514137221
 21
297.2302110687
  0
LINE
  5
2F4
100
AcDbEntity
  8
0
100
AcDbLine
 62
7
  6
CONTINUOUS
 10
243.514137221
 20
296.2302110687
 11
244.024775458
 21
296.3968775764
  0
LINE
  5
2F5
100
AcDbEntity
  8
0
100
AcDbLine
 62
7
  6
CONTINUOUS
 10
165.4935018946
 20
285.0884636561
 11
166.2594592501
 21
285.2759629408
  0
LINE
  5
2F6
100
AcDbEntity
  8
0
100
AcDbLine
 62
7
  6
CONTINUOUS
 10
161.8552041878
 20
285.6509625832
 11
162.6211615433
 21
285.8384640137
  0
LINE
  5
2F7
100
AcDbEntity
  8
0
100
AcDbLine
 62
7
  6
CONTINUOUS
 10
245.3864774233
 20
294.7302110687
 11
240.1098815924
 21
294.7302110687
  0
LINE
  5
2F8
100
AcDbEntity
  8
0
100
AcDbLine
 62
7
  6
CONTINUOUS
 10
242.8332857615
 20
296.2302110687
 11
243.514137221
 21
296.2302110687
  0
LINE
  5
2F9
100
AcDbEntity
  8
0
100
AcDbLine
 62
7
  6
CONTINUOUS
 10
243.514137221
 20
297.2302110687
 11
243.0034985071
 21
297.2302110687
  0
LINE
  5
2FA
100
AcDbEntity
  8
RUNDUNGEN
100
AcDbLine
 62
7
  6
CONTINUOUS
 10
216.7728635682
 20
300.5734632984
 11
185.7728635682
 21
300.5734632984
  0
LINE
  5
2FB
100
AcDbEntity
  8
_30_VOLUMEN
100
AcDbLine
 62
7
  6
CONTINUOUS
 10
251.4728635682
 20
300.5734632984
 11
263.7606322208
 21
300.5734632984
  0
LINE
  5
2FC
100
AcDbEntity
  8
0
100
AcDbLine
 62
7
  6
CONTINUOUS
 10
237.3864774233
 20
301.3968775764
 11
240.9609455591
 21
301.3968775764
  0
LINE
  5
2FD
100
AcDbEntity
  8
0
100
AcDbLine
 62
7
  6
CONTINUOUS
 10
241.9822220331
 20
301.3968775764
 11
244.535413695
 21
301.3968775764
  0
LINE
  5
2FE
100
AcDbEntity
  8
0
100
AcDbLine
 62
7
  6
CONTINUOUS
 10
245.3864774233
 20
302.3968775764
 11
237.3864774233
 21
302.3968775764
  0
LINE
  5
2FF
100
AcDbEntity
  8
0
100
AcDbLine
 62
7
  6
CONTINUOUS
 10
239.2588178641
 20
288.8968775764
 11
240.1098815924
 21
288.7302105919
  0
LINE
  5
300
100
AcDbEntity
  8
0
100
AcDbLine
 62
7
  6
CONTINUOUS
 10
240.1098815924
 20
289.7302105919
 11
239.4290306097
 21
289.8968775764
  0
LINE
  5
301
100
AcDbEntity
  8
0
100
AcDbLine
 62
7
  6
CONTINUOUS
 10
238.5779667622
 20
281.2302115455
 11
239.2588178641
 21
280.8968775764
  0
LINE
  5
302
100
AcDbEntity
  8
0
100
AcDbLine
 62
7
  6
CONTINUOUS
 10
239.4290306097
 20
281.8968775764
 11
238.9183923727
 21
282.2302115455
  0
LINE
  5
303
100
AcDbEntity
  8
0
100
AcDbLine
 62
7
  6
CONTINUOUS
 10
252.3353639258
 20
264.4245272652
 11
252.8978639258
 21
264.0415485874
  0
LINE
  5
304
100
AcDbEntity
  8
0
100
AcDbLine
 62
7
  6
CONTINUOUS
 10
248.7728635682
 20
257.9138888047
 11
249.3353635682
 21
257.339420721
  0
LINE
  5
305
100
AcDbEntity
  8
0
100
AcDbLine
 62
7
  6
CONTINUOUS
 10
246.335363747
 20
264.2330379263
 11
245.5853633894
 21
264.9989952818
  0
LINE
  5
306
100
AcDbEntity
  8
0
100
AcDbLine
 62
7
  6
CONTINUOUS
 10
239.2588178641
 20
294.5635440841
 11
238.5779667622
 21
294.2302105919
  0
LINE
  5
307
100
AcDbEntity
  8
0
100
AcDbLine
 62
7
  6
CONTINUOUS
 10
242.3226475245
 20
296.3968775764
 11
242.8332857615
 21
296.2302110687
  0
LINE
  5
308
100
AcDbEntity
  8
0
100
AcDbLine
 62
7
  6
CONTINUOUS
 10
243.0034985071
 20
297.2302110687
 11
242.4928602701
 21
297.3968775764
  0
LINE
  5
309
100
AcDbEntity
  8
0
100
AcDbLine
 62
7
  6
CONTINUOUS
 10
238.5779667622
 20
289.2302105919
 11
239.2588178641
 21
288.8968775764
  0
LINE
  5
30A
100
AcDbEntity
  8
0
100
AcDbLine
 62
7
  6
CONTINUOUS
 10
239.4290306097
 20
289.8968775764
 11
238.9183923727
 21
290.2302105919
  0
LINE
  5
30B
100
AcDbEntity
  8
0
100
AcDbLine
 62
7
  6
CONTINUOUS
 10
237.8971157199
 20
281.8968775764
 11
238.5779667622
 21
281.2302115455
  0
LINE
  5
30C
100
AcDbEntity
  8
0
100
AcDbLine
 62
7
  6
CONTINUOUS
 10
254.0228639258
 20
264.2330379263
 11
253.4603639258
 21
264.8075059429
  0
LINE
  5
30D
100
AcDbEntity
  8
0
100
AcDbLine
 62
7
  6
CONTINUOUS
 10
245.0228633894
 20
264.0415485874
 11
245.3978635682
 21
263.4670805708
  0
LINE
  5
30E
100
AcDbEntity
  8
BEZUGSACHSEN
100
AcDbLine
 62
7
  6
CONTINUOUS
 10
224.7728635682
 20
199.5734632984
 11
224.7728635682
 21
246.4829588682
  0
LINE
  5
30F
100
AcDbEntity
  8
RUNDUNGEN
100
AcDbLine
 62
7
  6
CONTINUOUS
 10
224.7728635682
 20
199.5734632984
 11
224.7728635682
 21
292.5734632984
  0
LINE
  5
310
100
AcDbEntity
  8
RUNDUNGEN
100
AcDbLine
 62
7
  6
CONTINUOUS
 10
229.7728635682
 20
361.5734632984
 11
229.7728635682
 21
310.4994680327
  0
LINE
  5
311
100
AcDbEntity
  8
FASEN
100
AcDbLine
 62
7
  6
CONTINUOUS
 10
146.2728635683
 20
203.5734632986
 11
147.2728635683
 21
204.5734632986
  0
LINE
  5
312
100
AcDbEntity
  8
0
100
AcDbLine
 62
7
  6
CONTINUOUS
 10
238.5779667622
 20
294.2302105919
 11
237.8971157199
 21
293.563544561
  0
LINE
  5
313
100
AcDbEntity
  8
0
100
AcDbLine
 62
7
  6
CONTINUOUS
 10
244.3652009493
 20
297.7302110687
 11
244.024775458
 21
297.3968775764
  0
LINE
  5
314
100
AcDbEntity
  8
0
100
AcDbLine
 62
7
  6
CONTINUOUS
 10
244.024775458
 20
296.3968775764
 11
244.7056264406
 21
296.8968775764
  0
LINE
  5
315
100
AcDbEntity
  8
0
100
AcDbLine
 62
7
  6
CONTINUOUS
 10
238.9183923727
 20
293.2302105919
 11
239.4290306097
 21
293.563544561
  0
LINE
  5
316
100
AcDbEntity
  8
0
100
AcDbLine
 62
7
  6
CONTINUOUS
 10
241.6417965418
 20
296.8968775764
 11
242.3226475245
 21
296.3968775764
  0
LINE
  5
317
100
AcDbEntity
  8
0
100
AcDbLine
 62
7
  6
CONTINUOUS
 10
237.8971157199
 20
289.8968775764
 11
238.5779667622
 21
289.2302105919
  0
LINE
  5
318
100
AcDbEntity
  8
0
100
AcDbLine
 62
7
  6
CONTINUOUS
 10
238.9183923727
 20
282.2302115455
 11
238.5779667622
 21
282.7302115455
  0
LINE
  5
319
100
AcDbEntity
  8
0
100
AcDbLine
 62
7
  6
CONTINUOUS
 10
238.9183923727
 20
290.2302105919
 11
238.5779667622
 21
290.7302105919
  0
LINE
  5
31A
100
AcDbEntity
  8
0
100
AcDbLine
 62
7
  6
CONTINUOUS
 10
249.8978635682
 20
258.1053781435
 11
249.1478632106
 21
259.2543143109
  0
LINE
  5
31B
100
AcDbEntity
  8
0
100
AcDbLine
 62
7
  6
CONTINUOUS
 10
252.8978639258
 20
264.0415485874
 11
253.6478632106
 21
262.8926120178
  0
LINE
  5
31C
100
AcDbEntity
  8
0
100
AcDbLine
 62
7
  6
CONTINUOUS
 10
237.5566901839
 20
282.5635436073
 11
237.8971157199
 21
281.8968775764
  0
LINE
  5
31D
100
AcDbEntity
  8
0
100
AcDbLine
 62
7
  6
CONTINUOUS
 10
248.3978633894
 20
258.6798462943
 11
248.7728635682
 21
257.9138888047
  0
LINE
  5
31E
100
AcDbEntity
  8
0
100
AcDbLine
 62
7
  6
CONTINUOUS
 10
237.3864774233
 20
302.3968775764
 11
237.3864774233
 21
301.3968775764
  0
LINE
  5
31F
100
AcDbEntity
  8
0
100
AcDbLine
 62
7
  6
CONTINUOUS
 10
237.3864774233
 20
297.2302110687
 11
237.3864774233
 21
296.0635440841
  0
LINE
  5
320
100
AcDbEntity
  8
0
100
AcDbLine
 62
7
  6
CONTINUOUS
 10
237.3864774233
 20
292.063544561
 11
237.3864774233
 21
291.3968775764
  0
LINE
  5
321
100
AcDbEntity
  8
0
100
AcDbLine
 62
7
  6
CONTINUOUS
 10
237.3864774233
 20
287.3968775764
 11
237.3864774233
 21
283.3968775764
  0
LINE
  5
322
100
AcDbEntity
  8
0
100
AcDbLine
 62
7
  6
CONTINUOUS
 10
238.2728635682
 20
229.7401299651
 11
238.2728635682
 21
227.4067966318
  0
LINE
  5
323
100
AcDbEntity
  8
0
100
AcDbLine
 62
7
  6
CONTINUOUS
 10
238.4077540165
 20
283.3968775764
 11
238.4077540165
 21
286.3968775764
  0
LINE
  5
324
100
AcDbEntity
  8
0
100
AcDbLine
 62
7
  6
CONTINUOUS
 10
238.4077540165
 20
291.3968775764
 11
238.4077540165
 21
292.063544561
  0
LINE
  5
325
100
AcDbEntity
  8
0
100
AcDbLine
 62
7
  6
CONTINUOUS
 10
239.7728635682
 20
257.5309101269
 11
239.7728635682
 21
256.5734632984
  0
LINE
  5
326
100
AcDbEntity
  8
0
100
AcDbLine
 62
7
  6
CONTINUOUS
 10
237.5566901839
 20
292.8968775764
 11
237.3864774233
 21
292.063544561
  0
LINE
  5
327
100
AcDbEntity
  8
0
100
AcDbLine
 62
7
  6
CONTINUOUS
 10
238.4077540165
 20
292.063544561
 11
238.5779667622
 21
292.7302105919
  0
LINE
  5
328
100
AcDbEntity
  8
0
100
AcDbLine
 62
7
  6
CONTINUOUS
 10
237.8971157199
 20
293.563544561
 11
237.5566901839
 21
292.8968775764
  0
LINE
  5
329
100
AcDbEntity
  8
0
100
AcDbLine
 62
7
  6
CONTINUOUS
 10
238.5779667622
 20
292.7302105919
 11
238.9183923727
 21
293.2302105919
  0
LINE
  5
32A
100
AcDbEntity
  8
0
100
AcDbLine
 62
7
  6
CONTINUOUS
 10
244.7056264406
 20
296.8968775764
 11
245.2162646776
 21
297.5635440841
  0
LINE
  5
32B
100
AcDbEntity
  8
0
100
AcDbLine
 62
7
  6
CONTINUOUS
 10
243.8545627123
 20
282.2302115455
 11
243.3439239985
 21
281.8968775764
  0
LINE
  5
32C
100
AcDbEntity
  8
0
100
AcDbLine
 62
7
  6
CONTINUOUS
 10
243.514137221
 20
280.8968775764
 11
244.1949882036
 21
281.2302115455
  0
LINE
  5
32D
100
AcDbEntity
  8
0
100
AcDbLine
 62
7
  6
CONTINUOUS
 10
242.4928602701
 20
297.3968775764
 11
242.1524347788
 21
297.7302110687
  0
LINE
  5
32E
100
AcDbEntity
  8
0
100
AcDbLine
 62
7
  6
CONTINUOUS
 10
237.5566901839
 20
290.563544561
 11
237.8971157199
 21
289.8968775764
  0
LINE
  5
32F
100
AcDbEntity
  8
0
100
AcDbLine
 62
7
  6
CONTINUOUS
 10
241.3013710505
 20
297.5635440841
 11
241.6417965418
 21
296.8968775764
  0
LINE
  5
330
100
AcDbEntity
  8
0
100
AcDbLine
 62
7
  6
CONTINUOUS
 10
254.3978635682
 20
263.4670805708
 11
254.0228639258
 21
264.2330379263
  0
LINE
  5
331
100
AcDbEntity
  8
0
100
AcDbLine
 62
7
  6
CONTINUOUS
 10
248.2103635682
 20
259.2543143109
 11
248.3978633894
 21
258.6798462943
  0
LINE
  5
332
100
AcDbEntity
  8
0
100
AcDbLine
 62
7
  6
CONTINUOUS
 10
238.5779667622
 20
282.7302115455
 11
238.4077540165
 21
283.3968775764
  0
LINE
  5
333
100
AcDbEntity
  8
0
100
AcDbLine
 62
7
  6
CONTINUOUS
 10
238.5779667622
 20
290.7302105919
 11
238.4077540165
 21
291.3968775764
  0
LINE
  5
334
100
AcDbEntity
  8
0
100
AcDbLine
 62
7
  6
CONTINUOUS
 10
246.5228635682
 20
263.4670805708
 11
246.335363747
 21
264.2330379263
  0
LINE
  5
335
100
AcDbEntity
  8
0
100
AcDbLine
 62
7
  6
CONTINUOUS
 10
237.3864774233
 20
283.3968775764
 11
237.5566901839
 21
282.5635436073
  0
LINE
  5
336
100
AcDbEntity
  8
0
100
AcDbLine
 62
7
  6
CONTINUOUS
 10
237.3864774233
 20
291.3968775764
 11
237.5566901839
 21
290.563544561
  0
LINE
  5
337
100
AcDbEntity
  8
0
100
AcDbLine
 62
7
  6
CONTINUOUS
 10
240.9609455591
 20
301.3968775764
 11
240.9609455591
 21
298.5635443226
  0
LINE
  5
338
100
AcDbEntity
  8
0
100
AcDbLine
 62
7
  6
CONTINUOUS
 10
241.9822220331
 20
298.2302110687
 11
241.9822220331
 21
301.3968775764
  0
LINE
  5
339
100
AcDbEntity
  8
0
100
AcDbLine
 62
7
  6
CONTINUOUS
 10
244.3652009493
 20
286.3968775764
 11
244.3652009493
 21
283.3968775764
  0
LINE
  5
33A
100
AcDbEntity
  8
0
100
AcDbLine
 62
7
  6
CONTINUOUS
 10
244.535413695
 20
301.3968775764
 11
244.535413695
 21
298.2302110687
  0
LINE
  5
33B
100
AcDbEntity
  8
0
100
AcDbLine
 62
7
  6
CONTINUOUS
 10
245.3864774233
 20
283.3968775764
 11
245.3864774233
 21
287.3968775764
  0
LINE
  5
33C
100
AcDbEntity
  8
0
100
AcDbLine
 62
7
  6
CONTINUOUS
 10
245.3864774233
 20
288.7302105919
 11
245.3864774233
 21
289.7302105919
  0
LINE
  5
33D
100
AcDbEntity
  8
0
100
AcDbLine
 62
7
  6
CONTINUOUS
 10
245.3864774233
 20
293.7302105919
 11
245.3864774233
 21
294.7302110687
  0
LINE
  5
33E
100
AcDbEntity
  8
0
100
AcDbLine
 62
7
  6
CONTINUOUS
 10
245.3864774233
 20
298.3968775764
 11
245.3864774233
 21
302.3968775764
  0
LINE
  5
33F
100
AcDbEntity
  8
0
100
AcDbLine
 62
7
  6
CONTINUOUS
 10
245.3978635682
 20
263.4670805708
 11
245.3978635682
 21
263.0841013566
  0
LINE
  5
340
100
AcDbEntity
  8
0
100
AcDbLine
 62
7
  6
CONTINUOUS
 10
246.5228635682
 20
256.5734632984
 11
246.5228635682
 21
257.5309101269
  0
LINE
  5
341
100
AcDbEntity
  8
0
100
AcDbLine
 62
7
  6
CONTINUOUS
 10
246.5228635682
 20
263.0841013566
 11
246.5228635682
 21
263.4670805708
  0
LINE
  5
342
100
AcDbEntity
  8
0
100
AcDbLine
 62
7
  6
CONTINUOUS
 10
248.022863747
 20
261.9351653234
 11
248.022863747
 21
260.2117612735
  0
LINE
  5
343
100
AcDbEntity
  8
0
100
AcDbLine
 62
7
  6
CONTINUOUS
 10
245.2162646776
 20
297.5635440841
 11
245.3864774233
 21
298.3968775764
  0
LINE
  5
344
100
AcDbEntity
  8
0
100
AcDbLine
 62
7
  6
CONTINUOUS
 10
245.2162646776
 20
282.5635436073
 11
245.3864774233
 21
283.3968775764
  0
LINE
  5
345
100
AcDbEntity
  8
0
100
AcDbLine
 62
7
  6
CONTINUOUS
 10
240.1478635794
 20
264.2330379263
 11
239.9603635738
 21
263.4670805708
  0
LINE
  5
346
100
AcDbEntity
  8
0
100
AcDbLine
 62
7
  6
CONTINUOUS
 10
244.3652009493
 20
283.3968775764
 11
244.1949882036
 21
282.7302115455
  0
LINE
  5
347
100
AcDbEntity
  8
0
100
AcDbLine
 62
7
  6
CONTINUOUS
 10
244.535413695
 20
298.2302110687
 11
244.3652009493
 21
297.7302110687
  0
LINE
  5
348
100
AcDbEntity
  8
0
100
AcDbLine
 62
7
  6
CONTINUOUS
 10
244.8758391863
 20
281.8968775764
 11
245.2162646776
 21
282.5635436073
  0
LINE
  5
349
100
AcDbEntity
  8
0
100
AcDbLine
 62
7
  6
CONTINUOUS
 10
244.1949882036
 20
282.7302115455
 11
243.8545627123
 21
282.2302115455
  0
LINE
  5
34A
100
AcDbEntity
  8
0
100
AcDbLine
 62
7
  6
CONTINUOUS
 10
244.1949882036
 20
281.2302115455
 11
244.8758391863
 21
281.8968775764
  0
LINE
  5
34B
100
AcDbEntity
  8
0
100
AcDbLine
 62
7
  6
CONTINUOUS
 10
241.6478635235
 20
265.3819739596
 11
240.8978635682
 21
264.9989952818
  0
LINE
  5
34C
100
AcDbEntity
  8
RUNDUNGEN
100
AcDbLine
 62
7
  6
CONTINUOUS
 10
258.7728635682
 20
308.7392708357
 11
234.2728635682
 21
322.8843524309
  0
LINE
  5
34D
100
AcDbEntity
  8
0
100
AcDbLine
 62
7
  6
CONTINUOUS
 10
242.1524347788
 20
297.7302110687
 11
241.9822220331
 21
298.2302110687
  0
LINE
  5
34E
100
AcDbEntity
  8
0
100
AcDbLine
 62
7
  6
CONTINUOUS
 10
254.5853639258
 20
262.8926120178
 11
254.3978635682
 21
263.4670805708
  0
LINE
  5
34F
100
AcDbEntity
  8
0
100
AcDbLine
 62
7
  6
CONTINUOUS
 10
248.022863747
 20
260.2117612735
 11
248.2103635682
 21
259.2543143109
  0
LINE
  5
350
100
AcDbEntity
  8
0
100
AcDbLine
 62
7
  6
CONTINUOUS
 10
254.7728632106
 20
261.9351653234
 11
254.5853639258
 21
262.8926120178
  0
LINE
  5
351
100
AcDbEntity
  8
0
100
AcDbLine
 62
7
  6
CONTINUOUS
 10
249.1478632106
 20
259.2543143109
 11
248.9603639258
 21
260.4032506124
  0
LINE
  5
352
100
AcDbEntity
  8
0
100
AcDbLine
 62
7
  6
CONTINUOUS
 10
253.6478632106
 20
262.8926120178
 11
253.8353635682
 21
261.7436759845
  0
LINE
  5
353
100
AcDbEntity
  8
0
100
AcDbLine
 62
7
  6
CONTINUOUS
 10
248.9603639258
 20
260.4032506124
 11
248.9603639258
 21
261.7436759845
  0
LINE
  5
354
100
AcDbEntity
  8
0
100
AcDbLine
 62
7
  6
CONTINUOUS
 10
250.2728635682
 20
232.6713394777
 11
250.2728635682
 21
230.7401299651
  0
LINE
  5
355
100
AcDbEntity
  8
0
100
AcDbLine
 62
7
  6
CONTINUOUS
 10
250.2728635682
 20
226.4067966318
 11
250.2728635682
 21
224.4755871192
  0
LINE
  5
356
100
AcDbEntity
  8
_30_VOLUMEN
100
AcDbLine
 62
7
  6
CONTINUOUS
 10
251.4728635682
 20
274.0734632984
 11
251.4728635682
 21
300.5734632984
  0
LINE
  5
357
100
AcDbEntity
  8
_30_VOLUMEN
100
AcDbLine
 62
7
  6
CONTINUOUS
 10
251.5728635682
 20
289.0734632984
 11
251.5728635682
 21
274.0734632984
  0
LINE
  5
358
100
AcDbEntity
  8
0
100
AcDbLine
 62
7
  6
CONTINUOUS
 10
253.8353635682
 20
261.7436759845
 11
253.8353635682
 21
260.4032506124
  0
LINE
  5
359
100
AcDbEntity
  8
0
100
AcDbLine
 62
7
  6
CONTINUOUS
 10
254.7728632106
 20
260.2117612735
 11
254.7728632106
 21
261.9351653234
  0
LINE
  5
35A
100
AcDbEntity
  8
0
100
AcDbLine
 62
7
  6
CONTINUOUS
 10
248.9603639258
 20
261.7436759845
 11
249.1478632106
 21
262.8926120178
  0
LINE
  5
35B
100
AcDbEntity
  8
0
100
AcDbLine
 62
7
  6
CONTINUOUS
 10
248.2103635682
 20
262.8926120178
 11
248.022863747
 21
261.9351653234
  0
LINE
  5
35C
100
AcDbEntity
  8
0
100
AcDbLine
 62
7
  6
CONTINUOUS
 10
246.335363747
 20
262.3181440011
 11
246.5228635682
 21
263.0841013566
  0
LINE
  5
35D
100
AcDbEntity
  8
0
100
AcDbLine
 62
7
  6
CONTINUOUS
 10
248.3978633894
 20
263.4670805708
 11
248.2103635682
 21
262.8926120178
  0
LINE
  5
35E
100
AcDbEntity
  8
0
100
AcDbLine
 62
7
  6
CONTINUOUS
 10
245.3978635682
 20
263.0841013566
 11
245.0228633894
 21
262.3181440011
  0
LINE
  5
35F
100
AcDbEntity
  8
0
100
AcDbLine
 62
7
  6
CONTINUOUS
 10
240.8978635682
 20
263.4670805708
 11
241.2728636129
 21
264.0415485874
  0
LINE
  5
360
100
AcDbEntity
  8
0
100
AcDbLine
 62
7
  6
CONTINUOUS
 10
245.9603635682
 20
261.7436759845
 11
246.335363747
 21
262.3181440011
  0
LINE
  5
361
100
AcDbEntity
  8
0
100
AcDbLine
 62
7
  6
CONTINUOUS
 10
240.8978635682
 20
264.9989952818
 11
240.1478635794
 21
264.2330379263
  0
LINE
  5
362
100
AcDbEntity
  8
0
100
AcDbLine
 62
7
  6
CONTINUOUS
 10
245.0228633894
 20
262.3181440011
 11
239.7728635682
 21
257.5309101269
  0
LINE
  5
363
100
AcDbEntity
  8
0
100
AcDbLine
 62
7
  6
CONTINUOUS
 10
241.2728636129
 20
257.5309101269
 11
245.9603635682
 21
261.7436759845
  0
LINE
  5
364
100
AcDbEntity
  8
0
100
AcDbLine
 62
7
  6
CONTINUOUS
 10
241.2728636129
 20
264.0415485874
 11
241.8353636129
 21
264.4245272652
  0
LINE
  5
365
100
AcDbEntity
  8
0
100
AcDbLine
 62
7
  6
CONTINUOUS
 10
249.8978635682
 20
264.0415485874
 11
250.4603635682
 21
264.4245272652
  0
LINE
  5
366
100
AcDbEntity
  8
0
100
AcDbLine
 62
7
  6
CONTINUOUS
 10
250.2728632106
 20
265.3819739596
 11
249.3353635682
 21
264.8075059429
  0
LINE
  5
367
100
AcDbEntity
  8
0
100
AcDbLine
 62
7
  6
CONTINUOUS
 10
253.8353635682
 20
260.4032506124
 11
253.6478632106
 21
259.2543143109
  0
LINE
  5
368
100
AcDbEntity
  8
0
100
AcDbLine
 62
7
  6
CONTINUOUS
 10
254.5853639258
 20
259.2543143109
 11
254.7728632106
 21
260.2117612735
  0
LINE
  5
369
100
AcDbEntity
  8
0
100
AcDbLine
 62
7
  6
CONTINUOUS
 10
254.3978635682
 20
258.6798462943
 11
254.5853639258
 21
259.2543143109
  0
LINE
  5
36A
100
AcDbEntity
  8
0
100
AcDbLine
 62
7
  6
CONTINUOUS
 10
248.7728635682
 20
264.2330379263
 11
248.3978633894
 21
263.4670805708
  0
LINE
  5
36B
100
AcDbEntity
  8
0
100
AcDbLine
 62
7
  6
CONTINUOUS
 10
254.0228639258
 20
257.9138888047
 11
254.3978635682
 21
258.6798462943
  0
LINE
  5
36C
100
AcDbEntity
  8
0
100
AcDbLine
 62
7
  6
CONTINUOUS
 10
249.1478632106
 20
262.8926120178
 11
249.8978635682
 21
264.0415485874
  0
LINE
  5
36D
100
AcDbEntity
  8
0
100
AcDbLine
 62
7
  6
CONTINUOUS
 10
253.6478632106
 20
259.2543143109
 11
252.8978639258
 21
258.1053781435
  0
LINE
  5
36E
100
AcDbEntity
  8
0
100
AcDbLine
 62
7
  6
CONTINUOUS
 10
249.3353635682
 20
264.8075059429
 11
248.7728635682
 21
264.2330379263
  0
LINE
  5
36F
100
AcDbEntity
  8
0
100
AcDbLine
 62
7
  6
CONTINUOUS
 10
252.8978639258
 20
258.1053781435
 11
252.3353639258
 21
257.7223994658
  0
LINE
  5
370
100
AcDbEntity
  8
0
100
AcDbLine
 62
7
  6
CONTINUOUS
 10
252.5228632106
 20
256.7649526541
 11
253.4603639258
 21
257.339420721
  0
LINE
  5
371
100
AcDbEntity
  8
_30_VOLUMEN
100
AcDbLine
 62
7
  6
CONTINUOUS
 10
265.2728635682
 20
196.0734632984
 11
265.2728635682
 21
274.0734632984
  0
LINE
  5
372
100
AcDbEntity
  8
_30_VOLUMEN
100
AcDbLine
 62
7
  6
CONTINUOUS
 10
265.5728635682
 20
289.0734632984
 11
265.5728635682
 21
209.5734632984
  0
LINE
  5
373
100
AcDbEntity
  8
_30_VOLUMEN
100
AcDbLine
 62
7
  6
CONTINUOUS
 10
266.0728635682
 20
275.429869759
 11
266.0728635682
 21
247.7170568379
  0
LINE
  5
374
100
AcDbEntity
  8
0
100
AcDbLine
 62
7
  6
CONTINUOUS
 10
266.2728635682
 20
242.0734632984
 11
266.2728635682
 21
215.0734632984
  0
LINE
  5
375
100
AcDbEntity
  8
0
100
AcDbLine
 62
7
  6
CONTINUOUS
 10
270.4092151807
 20
242.0734632984
 11
270.4092151807
 21
215.0734632984
  0
LINE
  5
376
100
AcDbEntity
  8
_30_VOLUMEN
100
AcDbLine
 62
7
  6
CONTINUOUS
 10
270.9728635682
 20
275.429869759
 11
270.9728635682
 21
247.7170568379
  0
LINE
  5
377
100
AcDbEntity
  8
0
100
AcDbLine
 62
7
  6
CONTINUOUS
 10
253.4603639258
 20
257.339420721
 11
254.0228639258
 21
257.9138888047
  0
LINE
  5
378
100
AcDbEntity
  8
RUNDUNGEN
100
AcDbLine
 62
7
  6
CONTINUOUS
 10
282.7728635682
 20
220.6237746058
 11
282.7728635682
 21
236.5231519911
  0
LINE
  5
379
100
AcDbEntity
  8
0
100
AcDbLine
 62
7
  6
CONTINUOUS
 10
257.594464925
 20
228.1494641464
 11
251.0378630382
 21
224.0515879672
  0
LINE
  5
37A
100
AcDbEntity
  8
RUNDUNGEN
100
AcDbLine
 62
7
  6
CONTINUOUS
 10
281.7858937832
 20
219.2142356746
 11
270.4092151807
 21
215.0734632984
  0
LINE
  5
37B
100
AcDbEntity
  8
0
100
AcDbLine
 62
7
  6
CONTINUOUS
 10
395.4664543921
 20
225.9670803175
 11
394.7372871691
 21
225.818144165
  0
LINE
  5
37C
100
AcDbEntity
  8
0
100
AcDbLine
 62
7
  6
CONTINUOUS
 10
394.7372871691
 20
225.0734632984
 11
395.6122871691
 21
225.2223994639
  0
LINE
  5
37D
100
AcDbEntity
  8
BEZUGSACHSEN
100
AcDbLine
 62
7
  6
CONTINUOUS
 10
358.8541395188
 20
223.9755871192
 11
359.355836074
 21
223.9755871192
  0
LINE
  5
37E
100
AcDbEntity
  8
0
100
AcDbLine
 62
7
  6
CONTINUOUS
 10
423.7020724718
 20
223.9755871192
 11
424.203769027
 21
223.9755871192
  0
LINE
  5
37F
100
AcDbEntity
  8
0
100
AcDbLine
 62
7
  6
CONTINUOUS
 10
385.6956207806
 20
225.0734632984
 11
390.9456207806
 21
225.0734632984
  0
LINE
  5
380
100
AcDbEntity
  8
0
100
AcDbLine
 62
7
  6
CONTINUOUS
 10
390.9456207806
 20
225.818144165
 11
386.862287482
 21
225.818144165
  0
LINE
  5
381
100
AcDbEntity
  8
BEZUGSACHSEN
100
AcDbLine
 62
7
  6
CONTINUOUS
 10
359.0717174493
 20
226.9067966318
 11
358.5711092321
 21
226.9067966318
  0
LINE
  5
382
100
AcDbEntity
  8
0
100
AcDbLine
 62
7
  6
CONTINUOUS
 10
423.9861910964
 20
226.9067966318
 11
424.4867993137
 21
226.9067966318
  0
LINE
  5
383
100
AcDbEntity
  8
0
100
AcDbLine
 62
7
  6
CONTINUOUS
 10
393.8622871691
 20
225.2223994639
 11
394.7372871691
 21
225.0734632984
  0
LINE
  5
384
100
AcDbEntity
  8
0
100
AcDbLine
 62
7
  6
CONTINUOUS
 10
394.7372871691
 20
225.818144165
 11
394.0081207806
 21
225.9670803175
  0
LINE
  5
385
100
AcDbEntity
  8
0
100
AcDbLine
 62
7
  6
CONTINUOUS
 10
394.0081207806
 20
231.1798463837
 11
394.7372871691
 21
231.3287825361
  0
LINE
  5
386
100
AcDbEntity
  8
0
100
AcDbLine
 62
7
  6
CONTINUOUS
 10
387.299787482
 20
231.1798463837
 11
388.0289541835
 21
231.3287825361
  0
LINE
  5
387
100
AcDbEntity
  8
0
100
AcDbLine
 62
7
  6
CONTINUOUS
 10
394.7372871691
 20
232.0734632984
 11
393.8622871691
 21
231.924527146
  0
LINE
  5
388
100
AcDbEntity
  8
0
100
AcDbLine
 62
7
  6
CONTINUOUS
 10
388.1747873777
 20
232.0734632984
 11
387.1539540791
 21
231.924527146
  0
LINE
  5
389
100
AcDbEntity
  8
BEZUGSACHSEN
100
AcDbLine
 62
7
  6
CONTINUOUS
 10
359.0717174493
 20
230.2401299651
 11
358.5723300315
 21
230.2401299651
  0
LINE
  5
38A
100
AcDbEntity
  8
0
100
AcDbLine
 62
7
  6
CONTINUOUS
 10
423.9861910964
 20
230.2401299651
 11
424.4855785142
 21
230.2401299651
  0
LINE
  5
38B
100
AcDbEntity
  8
0
100
AcDbLine
 62
7
  6
CONTINUOUS
 10
385.8414541183
 20
230.4351656214
 11
386.5706207806
 21
230.4351656214
  0
LINE
  5
38C
100
AcDbEntity
  8
0
100
AcDbLine
 62
7
  6
CONTINUOUS
 10
388.0289541835
 20
231.3287825361
 11
388.6122873777
 21
231.3287825361
  0
LINE
  5
38D
100
AcDbEntity
  8
0
100
AcDbLine
 62
7
  6
CONTINUOUS
 10
388.7581207806
 20
232.0734632984
 11
388.1747873777
 21
232.0734632984
  0
LINE
  5
38E
100
AcDbEntity
  8
BEZUGSACHSEN
100
AcDbLine
 62
7
  6
CONTINUOUS
 10
358.8575371109
 20
233.1713394777
 11
359.355836074
 21
233.1713394777
  0
LINE
  5
38F
100
AcDbEntity
  8
0
100
AcDbLine
 62
7
  6
CONTINUOUS
 10
423.7020724718
 20
233.1713394777
 11
424.2003714349
 21
233.1713394777
  0
LINE
  5
390
100
AcDbEntity
  8
0
100
AcDbLine
 62
7
  6
CONTINUOUS
 10
389.6331207806
 20
231.924527146
 11
388.7581207806
 21
232.0734632984
  0
LINE
  5
391
100
AcDbEntity
  8
0
100
AcDbLine
 62
7
  6
CONTINUOUS
 10
395.6122871691
 20
231.924527146
 11
394.7372871691
 21
232.0734632984
  0
LINE
  5
392
100
AcDbEntity
  8
0
100
AcDbLine
 62
7
  6
CONTINUOUS
 10
388.6122873777
 20
231.3287825361
 11
389.3414539748
 21
231.1798463837
  0
LINE
  5
393
100
AcDbEntity
  8
0
100
AcDbLine
 62
7
  6
CONTINUOUS
 10
394.7372871691
 20
231.3287825361
 11
395.4664543921
 21
231.1798463837
  0
LINE
  5
394
100
AcDbEntity
  8
0
100
AcDbLine
 62
7
  6
CONTINUOUS
 10
393.1331207806
 20
225.6692079604
 11
393.8622871691
 21
225.2223994639
  0
LINE
  5
395
100
AcDbEntity
  8
0
100
AcDbLine
 62
7
  6
CONTINUOUS
 10
399.2581200653
 20
238.61601647
 11
398.6747872883
 21
238.4670803175
  0
LINE
  5
396
100
AcDbEntity
  8
0
100
AcDbLine
 62
7
  6
CONTINUOUS
 10
392.2581208998
 20
238.61601647
 11
391.6747872883
 21
238.4670803175
  0
LINE
  5
397
100
AcDbEntity
  8
0
100
AcDbLine
 62
7
  6
CONTINUOUS
 10
398.6747872883
 20
237.5734632984
 11
399.4039545113
 21
237.7223994639
  0
LINE
  5
398
100
AcDbEntity
  8
0
100
AcDbLine
 62
7
  6
CONTINUOUS
 10
391.6747872883
 20
237.5734632984
 11
392.4039536768
 21
237.7223994639
  0
LINE
  5
399
100
AcDbEntity
  8
0
100
AcDbLine
 62
7
  6
CONTINUOUS
 10
382.0497872883
 20
237.5734632984
 11
382.9247872883
 21
237.5734632984
  0
LINE
  5
39A
100
AcDbEntity
  8
0
100
AcDbLine
 62
7
  6
CONTINUOUS
 10
386.5706204826
 20
237.5734632984
 11
387.591454094
 21
237.5734632984
  0
LINE
  5
39B
100
AcDbEntity
  8
0
100
AcDbLine
 62
7
  6
CONTINUOUS
 10
391.0914536768
 20
237.5734632984
 11
391.6747872883
 21
237.5734632984
  0
LINE
  5
39C
100
AcDbEntity
  8
0
100
AcDbLine
 62
7
  6
CONTINUOUS
 10
395.1747872883
 20
237.5734632984
 11
398.6747872883
 21
237.5734632984
  0
LINE
  5
39D
100
AcDbEntity
  8
0
100
AcDbLine
 62
7
  6
CONTINUOUS
 10
398.6747872883
 20
238.4670803175
 11
396.0497872883
 21
238.4670803175
  0
LINE
  5
39E
100
AcDbEntity
  8
0
100
AcDbLine
 62
7
  6
CONTINUOUS
 10
391.6747872883
 20
238.4670803175
 11
391.0914536768
 21
238.4670803175
  0
LINE
  5
39F
100
AcDbEntity
  8
0
100
AcDbLine
 62
7
  6
CONTINUOUS
 10
382.9247872883
 20
240.7011229173
 11
385.4039538854
 21
240.7011229173
  0
LINE
  5
3A0
100
AcDbEntity
  8
0
100
AcDbLine
 62
7
  6
CONTINUOUS
 10
385.6956204826
 20
241.594739832
 11
382.9247872883
 21
241.594739832
  0
LINE
  5
3A1
100
AcDbEntity
  8
0
100
AcDbLine
 62
7
  6
CONTINUOUS
 10
396.0497872883
 20
243.6798463837
 11
398.6747872883
 21
243.6798463837
  0
LINE
  5
3A2
100
AcDbEntity
  8
0
100
AcDbLine
 62
7
  6
CONTINUOUS
 10
382.9247872883
 20
243.8287825361
 11
385.6956204826
 21
243.8287825361
  0
LINE
  5
3A3
100
AcDbEntity
  8
0
100
AcDbLine
 62
7
  6
CONTINUOUS
 10
390.3622872883
 20
237.7223994639
 11
391.0914536768
 21
237.5734632984
  0
LINE
  5
3A4
100
AcDbEntity
  8
0
100
AcDbLine
 62
7
  6
CONTINUOUS
 10
391.0914536768
 20
238.4670803175
 11
390.5081208998
 21
238.61601647
  0
LINE
  5
3A5
100
AcDbEntity
  8
0
100
AcDbLine
 62
7
  6
CONTINUOUS
 10
390.2164539748
 20
231.6266548411
 11
389.6331207806
 21
231.924527146
  0
LINE
  5
3A6
100
AcDbEntity
  8
0
100
AcDbLine
 62
7
  6
CONTINUOUS
 10
389.7789536768
 20
238.020271808
 11
390.3622872883
 21
237.7223994639
  0
LINE
  5
3A7
100
AcDbEntity
  8
0
100
AcDbLine
 62
7
  6
CONTINUOUS
 10
396.3414543921
 20
231.4777186886
 11
395.6122871691
 21
231.924527146
  0
LINE
  5
3A8
100
AcDbEntity
  8
0
100
AcDbLine
 62
7
  6
CONTINUOUS
 10
394.0081207806
 20
225.9670803175
 11
393.5706207806
 21
226.2649526224
  0
LINE
  5
3A9
100
AcDbEntity
  8
0
100
AcDbLine
 62
7
  6
CONTINUOUS
 10
389.3414539748
 20
231.1798463837
 11
389.7789539748
 21
230.8819740788
  0
LINE
  5
3AA
100
AcDbEntity
  8
0
100
AcDbLine
 62
7
  6
CONTINUOUS
 10
395.4664543921
 20
231.1798463837
 11
395.9039543921
 21
230.8819740788
  0
LINE
  5
3AB
100
AcDbEntity
  8
BEZUGSACHSEN
100
AcDbLine
 62
7
  6
CONTINUOUS
 10
346.5289542729
 20
344.2744698873
 11
346.5289542729
 21
387.0734632984
  0
LINE
  5
3AC
100
AcDbEntity
  8
0
100
AcDbLine
 62
7
  6
CONTINUOUS
 10
398.6747872883
 20
244.5734632984
 11
395.1747872883
 21
244.5734632984
  0
LINE
  5
3AD
100
AcDbEntity
  8
0
100
AcDbLine
 62
7
  6
CONTINUOUS
 10
394.0081208998
 20
244.5734632984
 11
393.1331208998
 21
244.5734632984
  0
LINE
  5
3AE
100
AcDbEntity
  8
0
100
AcDbLine
 62
7
  6
CONTINUOUS
 10
389.6331208998
 20
244.5734632984
 11
388.7581204826
 21
244.5734632984
  0
LINE
  5
3AF
100
AcDbEntity
  8
0
100
AcDbLine
 62
7
  6
CONTINUOUS
 10
385.5497872883
 20
244.5734632984
 11
382.0497872883
 21
244.5734632984
  0
LINE
  5
3B0
100
AcDbEntity
  8
0
100
AcDbLine
 62
7
  6
CONTINUOUS
 10
386.278954094
 20
244.424527146
 11
385.5497872883
 21
244.5734632984
  0
LINE
  5
3B1
100
AcDbEntity
  8
0
100
AcDbLine
 62
7
  6
CONTINUOUS
 10
399.4039545113
 20
244.424527146
 11
398.6747872883
 21
244.5734632984
  0
LINE
  5
3B2
100
AcDbEntity
  8
0
100
AcDbLine
 62
7
  6
CONTINUOUS
 10
398.6747872883
 20
243.6798463837
 11
399.2581200653
 21
243.5309102312
  0
LINE
  5
3B3
100
AcDbEntity
  8
0
100
AcDbLine
 62
7
  6
CONTINUOUS
 10
385.6956204826
 20
243.8287825361
 11
386.1331204826
 21
243.6798463837
  0
LINE
  5
3B4
100
AcDbEntity
  8
0
100
AcDbLine
 62
7
  6
CONTINUOUS
 10
390.5081208998
 20
238.61601647
 11
390.0706208998
 21
238.9138888792
  0
LINE
  5
3B5
100
AcDbEntity
  8
0
100
AcDbLine
 62
7
  6
CONTINUOUS
 10
392.6956207806
 20
226.11601647
 11
393.1331207806
 21
225.6692079604
  0
LINE
  5
3B6
100
AcDbEntity
  8
0
100
AcDbLine
 62
7
  6
CONTINUOUS
 10
390.7997875863
 20
231.0309102312
 11
390.2164539748
 21
231.6266548411
  0
LINE
  5
3B7
100
AcDbEntity
  8
0
100
AcDbLine
 62
7
  6
CONTINUOUS
 10
414.5289542729
 20
256.5734632984
 11
415.0289542729
 21
256.5734632984
  0
LINE
  5
3B8
100
AcDbEntity
  8
0
100
AcDbLine
 62
7
  6
CONTINUOUS
 10
414.5289542729
 20
257.5309101269
 11
415.0289542729
 21
257.5309101269
  0
LINE
  5
3B9
100
AcDbEntity
  8
0
100
AcDbLine
 62
7
  6
CONTINUOUS
 10
399.9872872883
 20
244.1266548411
 11
399.4039545113
 21
244.424527146
  0
LINE
  5
3BA
100
AcDbEntity
  8
0
100
AcDbLine
 62
7
  6
CONTINUOUS
 10
399.2581200653
 20
243.5309102312
 11
399.6956200653
 21
243.2330379263
  0
LINE
  5
3BB
100
AcDbEntity
  8
0
100
AcDbLine
 62
7
  6
CONTINUOUS
 10
386.8622872883
 20
243.9777186886
 11
386.278954094
 21
244.424527146
  0
LINE
  5
3BC
100
AcDbEntity
  8
0
100
AcDbLine
 62
7
  6
CONTINUOUS
 10
389.1956208998
 20
238.61601647
 11
389.7789536768
 21
238.020271808
  0
LINE
  5
3BD
100
AcDbEntity
  8
0
100
AcDbLine
 62
7
  6
CONTINUOUS
 10
396.7789543921
 20
231.0309102312
 11
396.3414543921
 21
231.4777186886
  0
LINE
  5
3BE
100
AcDbEntity
  8
0
100
AcDbLine
 62
7
  6
CONTINUOUS
 10
386.1331204826
 20
243.6798463837
 11
386.4247872883
 21
243.3819740788
  0
LINE
  5
3BF
100
AcDbEntity
  8
0
100
AcDbLine
 62
7
  6
CONTINUOUS
 10
389.7789539748
 20
230.8819740788
 11
390.0706207806
 21
230.4351656214
  0
LINE
  5
3C0
100
AcDbEntity
  8
0
100
AcDbLine
 62
7
  6
CONTINUOUS
 10
393.5706207806
 20
226.2649526224
 11
392.9872871691
 21
227.1585696415
  0
LINE
  5
3C1
100
AcDbEntity
  8
0
100
AcDbLine
 62
7
  6
CONTINUOUS
 10
414.5289542729
 20
262.3181440011
 11
415.0289542729
 21
262.3181440011
  0
LINE
  5
3C2
100
AcDbEntity
  8
0
100
AcDbLine
 62
7
  6
CONTINUOUS
 10
414.5289542729
 20
263.0841013566
 11
415.0289542729
 21
263.0841013566
  0
LINE
  5
3C3
100
AcDbEntity
  8
0
100
AcDbLine
 62
7
  6
CONTINUOUS
 10
414.5289542729
 20
263.4670805708
 11
415.0289542729
 21
263.4670805708
  0
LINE
  5
3C4
100
AcDbEntity
  8
0
100
AcDbLine
 62
7
  6
CONTINUOUS
 10
414.5289542729
 20
264.2330379263
 11
415.0289542729
 21
264.2330379263
  0
LINE
  5
3C5
100
AcDbEntity
  8
0
100
AcDbLine
 62
7
  6
CONTINUOUS
 10
414.5289542729
 20
264.9989952818
 11
415.0289542729
 21
264.9989952818
  0
LINE
  5
3C6
100
AcDbEntity
  8
0
100
AcDbLine
 62
7
  6
CONTINUOUS
 10
414.5289542729
 20
265.3819739596
 11
415.0289542729
 21
265.3819739596
  0
LINE
  5
3C7
100
AcDbEntity
  8
0
100
AcDbLine
 62
7
  6
CONTINUOUS
 10
400.5706200653
 20
243.5309102312
 11
399.9872872883
 21
244.1266548411
  0
LINE
  5
3C8
100
AcDbEntity
  8
0
100
AcDbLine
 62
7
  6
CONTINUOUS
 10
387.2997872883
 20
243.3819740788
 11
386.8622872883
 21
243.9777186886
  0
LINE
  5
3C9
100
AcDbEntity
  8
0
100
AcDbLine
 62
7
  6
CONTINUOUS
 10
390.0706208998
 20
238.9138888792
 11
389.7789536768
 21
239.3606973366
  0
LINE
  5
3CA
100
AcDbEntity
  8
0
100
AcDbLine
 62
7
  6
CONTINUOUS
 10
395.9039543921
 20
230.8819740788
 11
396.4872871691
 21
229.9883567468
  0
LINE
  5
3CB
100
AcDbEntity
  8
0
100
AcDbLine
 62
7
  6
CONTINUOUS
 10
392.4039539748
 20
226.7117611841
 11
392.6956207806
 21
226.11601647
  0
LINE
  5
3CC
100
AcDbEntity
  8
BEZUGSACHSEN
100
AcDbLine
 62
7
  6
CONTINUOUS
 10
368.5289542729
 20
256.0552754658
 11
368.5289542729
 21
270.5734632984
  0
LINE
  5
3CD
100
AcDbEntity
  8
0
100
AcDbLine
 62
7
  6
CONTINUOUS
 10
414.5289542729
 20
265.5734632984
 11
415.0289542729
 21
265.5734632984
  0
LINE
  5
3CE
100
AcDbEntity
  8
0
100
AcDbLine
 62
7
  6
CONTINUOUS
 10
405.0289542729
 20
267.4634632984
 11
405.5289542729
 21
267.4634632984
  0
LINE
  5
3CF
100
AcDbEntity
  8
0
100
AcDbLine
 62
7
  6
CONTINUOUS
 10
405.0289542729
 20
267.650963304
 11
405.5289542729
 21
267.650963304
  0
LINE
  5
3D0
100
AcDbEntity
  8
0
100
AcDbLine
 62
7
  6
CONTINUOUS
 10
405.0289542729
 20
268.0259632984
 11
405.5289542729
 21
268.0259632984
  0
LINE
  5
3D1
100
AcDbEntity
  8
0
100
AcDbLine
 62
7
  6
CONTINUOUS
 10
405.0289542729
 20
268.7759632537
 11
405.5289542729
 21
268.7759632537
  0
LINE
  5
3D2
100
AcDbEntity
  8
0
100
AcDbLine
 62
7
  6
CONTINUOUS
 10
405.0289542729
 20
269.5259633431
 11
405.5289542729
 21
269.5259633431
  0
LINE
  5
3D3
100
AcDbEntity
  8
0
100
AcDbLine
 62
7
  6
CONTINUOUS
 10
405.0289542729
 20
270.4634633878
 11
405.5289542729
 21
270.4634633878
  0
LINE
  5
3D4
100
AcDbEntity
  8
0
100
AcDbLine
 62
7
  6
CONTINUOUS
 10
405.0289542729
 20
272.1509631196
 11
405.5289542729
 21
272.1509631196
  0
LINE
  5
3D5
100
AcDbEntity
  8
0
100
AcDbLine
 62
7
  6
CONTINUOUS
 10
388.903954094
 20
239.2117611841
 11
389.1956208998
 21
238.61601647
  0
LINE
  5
3D6
100
AcDbEntity
  8
0
100
AcDbLine
 62
7
  6
CONTINUOUS
 10
397.0706207806
 20
230.4351656214
 11
396.7789543921
 21
231.0309102312
  0
LINE
  5
3D7
100
AcDbEntity
  8
0
100
AcDbLine
 62
7
  6
CONTINUOUS
 10
387.591454094
 20
237.5734632984
 11
386.278954094
 21
240.9989952222
  0
LINE
  5
3D8
100
AcDbEntity
  8
0
100
AcDbLine
 62
7
  6
CONTINUOUS
 10
385.4039538854
 20
240.7011229173
 11
386.5706204826
 21
237.5734632984
  0
LINE
  5
3D9
100
AcDbEntity
  8
BEZUGSACHSEN
100
AcDbLine
 62
7
  6
CONTINUOUS
 10
378.0289542729
 20
315.8113633826
 11
378.0289542729
 21
265.0426283561
  0
LINE
  5
3DA
100
AcDbEntity
  8
0
100
AcDbLine
 62
7
  6
CONTINUOUS
 10
405.0289542729
 20
273.0884632984
 11
405.5289542729
 21
273.0884632984
  0
LINE
  5
3DB
100
AcDbEntity
  8
0
100
AcDbLine
 62
7
  6
CONTINUOUS
 10
405.0289542729
 20
273.8384631196
 11
405.5289542729
 21
273.8384631196
  0
LINE
  5
3DC
100
AcDbEntity
  8
0
100
AcDbLine
 62
7
  6
CONTINUOUS
 10
405.0289542729
 20
274.5884634773
 11
405.5289542729
 21
274.5884634773
  0
LINE
  5
3DD
100
AcDbEntity
  8
0
100
AcDbLine
 62
7
  6
CONTINUOUS
 10
405.0289542729
 20
274.7759632984
 11
405.5289542729
 21
274.7759632984
  0
LINE
  5
3DE
100
AcDbEntity
  8
0
100
AcDbLine
 62
7
  6
CONTINUOUS
 10
405.0289542729
 20
276.2759634773
 11
405.5289542729
 21
276.2759634773
  0
LINE
  5
3DF
100
AcDbEntity
  8
0
100
AcDbLine
 62
7
  6
CONTINUOUS
 10
405.0289542729
 20
276.4634632984
 11
405.5289542729
 21
276.4634632984
  0
LINE
  5
3E0
100
AcDbEntity
  8
0
100
AcDbLine
 62
7
  6
CONTINUOUS
 10
405.0289542729
 20
276.8384629408
 11
405.5289542729
 21
276.8384629408
  0
LINE
  5
3E1
100
AcDbEntity
  8
0
100
AcDbLine
 62
7
  6
CONTINUOUS
 10
405.0289542729
 20
277.5884632984
 11
405.5289542729
 21
277.5884632984
  0
LINE
  5
3E2
100
AcDbEntity
  8
0
100
AcDbLine
 62
7
  6
CONTINUOUS
 10
405.0289542729
 20
278.3384636561
 11
405.5289542729
 21
278.3384636561
  0
LINE
  5
3E3
100
AcDbEntity
  8
0
100
AcDbLine
 62
7
  6
CONTINUOUS
 10
405.0289542729
 20
279.2759632984
 11
405.5289542729
 21
279.2759632984
  0
LINE
  5
3E4
100
AcDbEntity
  8
0
100
AcDbLine
 62
7
  6
CONTINUOUS
 10
399.6956200653
 20
243.2330379263
 11
399.9872872883
 21
242.7862290517
  0
LINE
  5
3E5
100
AcDbEntity
  8
0
100
AcDbLine
 62
7
  6
CONTINUOUS
 10
400.8622872883
 20
242.9351656214
 11
400.5706200653
 21
243.5309102312
  0
LINE
  5
3E6
100
AcDbEntity
  8
0
100
AcDbLine
 62
7
  6
CONTINUOUS
 10
386.4247872883
 20
243.3819740788
 11
386.5706204826
 21
242.9351656214
  0
LINE
  5
3E7
100
AcDbEntity
  8
0
100
AcDbLine
 62
7
  6
CONTINUOUS
 10
392.2581207806
 20
227.1585696415
 11
392.4039539748
 21
226.7117611841
  0
LINE
  5
3E8
100
AcDbEntity
  8
0
100
AcDbLine
 62
7
  6
CONTINUOUS
 10
387.4456204826
 20
242.9351656214
 11
387.2997872883
 21
243.3819740788
  0
LINE
  5
3E9
100
AcDbEntity
  8
0
100
AcDbLine
 62
7
  6
CONTINUOUS
 10
397.2164543921
 20
229.9883567468
 11
397.0706207806
 21
230.4351656214
  0
LINE
  5
3EA
100
AcDbEntity
  8
0
100
AcDbLine
 62
7
  6
CONTINUOUS
 10
390.9456207806
 20
230.4351656214
 11
390.7997875863
 21
231.0309102312
  0
LINE
  5
3EB
100
AcDbEntity
  8
0
100
AcDbLine
 62
7
  6
CONTINUOUS
 10
389.7789536768
 20
239.3606973366
 11
389.6331208998
 21
239.9564419464
  0
LWPOLYLINE
  5
3EC
100
AcDbEntity
  8
BEZUGSACHSEN
100
AcDbPolyline
 62
7
  6
CONTINUOUS
 90
3
 70
0
 10
378.0029483043
 20
297.5837246915
 10
378.0249554829
 20
297.16941735
 10
378.0289535514
 20
296.9018368307
  0
LINE
  5
3ED
100
AcDbEntity
  8
_30_VOLUMEN
100
AcDbLine
 62
7
  6
CONTINUOUS
 10
380.2789542729
 20
338.8234632984
 11
380.2789542729
 21
385.773605345
  0
LINE
  5
3EE
100
AcDbEntity
  8
0
100
AcDbLine
 62
7
  6
CONTINUOUS
 10
382.0497872883
 20
244.5734632984
 11
382.0497872883
 21
237.5734632984
  0
LINE
  5
3EF
100
AcDbEntity
  8
0
100
AcDbLine
 62
7
  6
CONTINUOUS
 10
382.9247872883
 20
237.5734632984
 11
382.9247872883
 21
240.7011229173
  0
LINE
  5
3F0
100
AcDbEntity
  8
0
100
AcDbLine
 62
7
  6
CONTINUOUS
 10
382.9247872883
 20
241.594739832
 11
382.9247872883
 21
243.8287825361
  0
LINE
  5
3F1
100
AcDbEntity
  8
0
100
AcDbLine
 62
7
  6
CONTINUOUS
 10
405.0289542729
 20
280.9634632984
 11
405.5289542729
 21
280.9634632984
  0
LINE
  5
3F2
100
AcDbEntity
  8
0
100
AcDbLine
 62
7
  6
CONTINUOUS
 10
405.0289542729
 20
281.9009629408
 11
405.5289542729
 21
281.9009629408
  0
LINE
  5
3F3
100
AcDbEntity
  8
0
100
AcDbLine
 62
7
  6
CONTINUOUS
 10
405.0289542729
 20
282.6509632984
 11
405.5289542729
 21
282.6509632984
  0
LINE
  5
3F4
100
AcDbEntity
  8
0
100
AcDbLine
 62
7
  6
CONTINUOUS
 10
405.0289542729
 20
283.4009636561
 11
405.5289542729
 21
283.4009636561
  0
LINE
  5
3F5
100
AcDbEntity
  8
0
100
AcDbLine
 62
7
  6
CONTINUOUS
 10
405.0289542729
 20
283.5884629408
 11
405.5289542729
 21
283.5884629408
  0
LINE
  5
3F6
100
AcDbEntity
  8
0
100
AcDbLine
 62
7
  6
CONTINUOUS
 10
405.0289542729
 20
285.0884636561
 11
405.5289542729
 21
285.0884636561
  0
LINE
  5
3F7
100
AcDbEntity
  8
0
100
AcDbLine
 62
7
  6
CONTINUOUS
 10
405.0289542729
 20
285.6509625832
 11
405.5289542729
 21
285.6509625832
  0
LINE
  5
3F8
100
AcDbEntity
  8
0
100
AcDbLine
 62
7
  6
CONTINUOUS
 10
405.0289542729
 20
285.8384640137
 11
405.5289542729
 21
285.8384640137
  0
LINE
  5
3F9
100
AcDbEntity
  8
0
100
AcDbLine
 62
7
  6
CONTINUOUS
 10
405.0289542729
 20
286.5884632984
 11
405.5289542729
 21
286.5884632984
  0
LWPOLYLINE
  5
3FA
100
AcDbEntity
  8
BEZUGSACHSEN
100
AcDbPolyline
 62
7
  6
CONTINUOUS
 90
4
 70
0
 10
376.2831691929
 20
302.216452061
 10
376.5229275595
 20
301.8742872729
 10
376.7464857982
 20
301.5213571878
 10
376.9533702037
 20
301.1584127413
  0
LINE
  5
3FB
100
AcDbEntity
  8
BEZUGSACHSEN
100
AcDbLine
 62
7
  6
CONTINUOUS
 10
376.9539442661
 20
301.157348645
 11
377.1436887758
 21
300.7850834074
  0
LWPOLYLINE
  5
3FC
100
AcDbEntity
  8
BEZUGSACHSEN
100
AcDbPolyline
 62
7
  6
CONTINUOUS
 90
5
 70
0
 10
377.1431209978
 20
300.7862643192
 10
377.315290985
 20
300.4058114787
 10
377.4695231003
 20
300.0178833581
 10
377.60549423
 20
299.6233380025
 10
377.7228944568
 20
299.2231531595
  0
LINE
  5
3FD
100
AcDbEntity
  8
BEZUGSACHSEN
100
AcDbLine
 62
7
  6
CONTINUOUS
 10
377.72320924
 20
299.221979486
 11
377.8217326476
 21
298.8171499551
  0
LINE
  5
3FE
100
AcDbEntity
  8
0
100
AcDbLine
 62
7
  6
CONTINUOUS
 10
388.7581204826
 20
239.9564419464
 11
388.903954094
 21
239.2117611841
  0
LINE
  5
3FF
100
AcDbEntity
  8
0
100
AcDbLine
 62
7
  6
CONTINUOUS
 10
392.1122875863
 20
227.9032506124
 11
392.2581207806
 21
227.1585696415
  0
LINE
  5
400
100
AcDbEntity
  8
0
100
AcDbLine
 62
7
  6
CONTINUOUS
 10
397.3622871691
 20
229.2436759845
 11
397.2164543921
 21
229.9883567468
  0
LWPOLYLINE
  5
401
100
AcDbEntity
  8
BEZUGSACHSEN
100
AcDbPolyline
 62
7
  6
CONTINUOUS
 90
4
 70
0
 10
377.8215017828
 20
298.8182043556
 10
377.9011323565
 20
298.4093890945
 10
377.9616295091
 20
297.997741676
 10
378.0029108391
 20
297.5842150068
  0
LINE
  5
402
100
AcDbEntity
  8
0
100
AcDbLine
 62
7
  6
CONTINUOUS
 10
392.9872871691
 20
227.1585696415
 11
392.8414543921
 21
228.0521867648
  0
LINE
  5
403
100
AcDbEntity
  8
0
100
AcDbLine
 62
7
  6
CONTINUOUS
 10
385.6956207806
 20
225.818144165
 11
385.6956207806
 21
225.0734632984
  0
LINE
  5
404
100
AcDbEntity
  8
0
100
AcDbLine
 62
7
  6
CONTINUOUS
 10
386.5706204826
 20
242.9351656214
 11
386.5706204826
 21
242.4883567468
  0
LINE
  5
405
100
AcDbEntity
  8
0
100
AcDbLine
 62
7
  6
CONTINUOUS
 10
387.4456204826
 20
242.3394205943
 11
387.4456204826
 21
242.9351656214
  0
LINE
  5
406
100
AcDbEntity
  8
0
100
AcDbLine
 62
7
  6
CONTINUOUS
 10
388.7581204826
 20
244.5734632984
 11
388.7581204826
 21
239.9564419464
  0
LINE
  5
407
100
AcDbEntity
  8
0
100
AcDbLine
 62
7
  6
CONTINUOUS
 10
389.6331208998
 20
239.9564419464
 11
389.6331208998
 21
244.5734632984
  0
LINE
  5
408
100
AcDbEntity
  8
0
100
AcDbLine
 62
7
  6
CONTINUOUS
 10
390.0706207806
 20
230.4351656214
 11
390.0706207806
 21
230.1372928993
  0
LINE
  5
409
100
AcDbEntity
  8
0
100
AcDbLine
 62
7
  6
CONTINUOUS
 10
390.9456207806
 20
225.0734632984
 11
390.9456207806
 21
225.818144165
  0
LINE
  5
40A
100
AcDbEntity
  8
0
100
AcDbLine
 62
7
  6
CONTINUOUS
 10
390.9456207806
 20
230.1372928993
 11
390.9456207806
 21
230.4351656214
  0
LINE
  5
40B
100
AcDbEntity
  8
_21_KURVEN
100
AcDbLine
 62
4
  6
CONTINUOUS
 10
391.5289542729
 20
341.5734632984
 11
391.5289542729
 21
384.4847025905
  0
LINE
  5
40C
100
AcDbEntity
  8
0
100
AcDbLine
 62
7
  6
CONTINUOUS
 10
392.1122875863
 20
229.2436759845
 11
392.1122875863
 21
227.9032506124
  0
LINE
  5
40D
100
AcDbEntity
  8
RUNDUNGEN
100
AcDbLine
 62
7
  6
CONTINUOUS
 10
409.194327056
 20
304.474396058
 11
409.551912636
 21
304.6897649046
  0
LINE
  5
40E
100
AcDbEntity
  8
RUNDUNGEN
100
AcDbLine
 62
7
  6
CONTINUOUS
 10
409.552299043
 20
304.6899855289
 11
409.7885795931
 21
304.8202146152
  0
LINE
  5
40F
100
AcDbEntity
  8
RUNDUNGEN
100
AcDbLine
 62
7
  6
CONTINUOUS
 10
409.7885906331
 20
304.8202203349
 11
414.2467599099
 21
307.1906709873
  0
LINE
  5
410
100
AcDbEntity
  8
0
100
AcDbLine
 62
7
  6
CONTINUOUS
 10
405.0289542729
 20
287.3384625832
 11
405.5289542729
 21
287.3384625832
  0
LINE
  5
411
100
AcDbEntity
  8
0
100
AcDbLine
 62
7
  6
CONTINUOUS
 10
405.0289542729
 20
288.0884640137
 11
405.5289542729
 21
288.0884640137
  0
LINE
  5
412
100
AcDbEntity
  8
0
100
AcDbLine
 62
7
  6
CONTINUOUS
 10
405.0289542729
 20
289.0259625832
 11
405.5289542729
 21
289.0259625832
  0
LINE
  5
413
100
AcDbEntity
  8
0
100
AcDbLine
 62
7
  6
CONTINUOUS
 10
405.0289542729
 20
289.9634632984
 11
405.5289542729
 21
289.9634632984
  0
LINE
  5
414
100
AcDbEntity
  8
0
100
AcDbLine
 62
7
  6
CONTINUOUS
 10
405.0289542729
 20
290.7134625832
 11
405.5289542729
 21
290.7134625832
  0
LINE
  5
415
100
AcDbEntity
  8
0
100
AcDbLine
 62
7
  6
CONTINUOUS
 10
405.0289542729
 20
291.2759625832
 11
405.5289542729
 21
291.2759625832
  0
LINE
  5
416
100
AcDbEntity
  8
0
100
AcDbLine
 62
7
  6
CONTINUOUS
 10
405.0289542729
 20
291.4634640137
 11
405.5289542729
 21
291.4634640137
  0
LINE
  5
417
100
AcDbEntity
  8
0
100
AcDbLine
 62
7
  6
CONTINUOUS
 10
405.0289542729
 20
291.6509632984
 11
405.5289542729
 21
291.6509632984
  0
LINE
  5
418
100
AcDbEntity
  8
0
100
AcDbLine
 62
7
  6
CONTINUOUS
 10
405.0289542729
 20
292.0259640137
 11
405.5289542729
 21
292.0259640137
  0
LINE
  5
419
100
AcDbEntity
  8
0
100
AcDbLine
 62
7
  6
CONTINUOUS
 10
405.0289542729
 20
292.063544561
 11
405.5289542729
 21
292.063544561
  0
LINE
  5
41A
100
AcDbEntity
  8
0
100
AcDbLine
 62
7
  6
CONTINUOUS
 10
405.0289542729
 20
292.8968775764
 11
405.5289542729
 21
292.8968775764
  0
LINE
  5
41B
100
AcDbEntity
  8
0
100
AcDbLine
 62
7
  6
CONTINUOUS
 10
405.0289542729
 20
293.563544561
 11
405.5289542729
 21
293.563544561
  0
LINE
  5
41C
100
AcDbEntity
  8
BEZUGSACHSEN
100
AcDbLine
 62
7
  6
CONTINUOUS
 10
373.4940782027
 20
304.6965578924
 11
373.8517244929
 21
304.4819057826
  0
LWPOLYLINE
  5
41D
100
AcDbEntity
  8
BEZUGSACHSEN
100
AcDbPolyline
 62
7
  6
CONTINUOUS
 90
3
 70
0
 10
373.8523601304
 20
304.4815038593
 10
374.1999412287
 20
304.2502051474
 10
374.5364469237
 20
304.0029377971
  0
LWPOLYLINE
  5
41E
100
AcDbEntity
  8
BEZUGSACHSEN
100
AcDbPolyline
 62
7
  6
CONTINUOUS
 90
3
 70
0
 10
374.535699749
 20
304.0035140097
 10
374.8605033599
 20
303.7407727961
 10
375.1728050575
 20
303.4631241135
  0
LWPOLYLINE
  5
41F
100
AcDbEntity
  8
BEZUGSACHSEN
100
AcDbPolyline
 62
7
  6
CONTINUOUS
 90
3
 70
0
 10
375.1732763227
 20
303.4626850467
 10
375.4721925448
 20
303.1708791361
 10
375.7572276626
 20
302.8654535031
  0
LWPOLYLINE
  5
420
100
AcDbEntity
  8
BEZUGSACHSEN
100
AcDbPolyline
 62
7
  6
CONTINUOUS
 90
3
 70
0
 10
375.757168941
 20
302.8655194324
 10
376.0278864533
 20
302.546912145
 10
376.2834757431
 20
302.2160355264
  0
LINE
  5
421
100
AcDbEntity
  8
0
100
AcDbLine
 62
7
  6
CONTINUOUS
 10
399.9872872883
 20
242.7862290517
 11
400.1331200653
 21
242.1904844419
  0
LINE
  5
422
100
AcDbEntity
  8
0
100
AcDbLine
 62
7
  6
CONTINUOUS
 10
401.0081200653
 20
242.1904844419
 11
400.8622872883
 21
242.9351656214
  0
LINE
  5
423
100
AcDbEntity
  8
0
100
AcDbLine
 62
7
  6
CONTINUOUS
 10
396.4872871691
 20
229.9883567468
 11
396.6331207806
 21
229.094739832
  0
LINE
  5
424
100
AcDbEntity
  8
0
100
AcDbLine
 62
7
  6
CONTINUOUS
 10
392.8414543921
 20
228.0521867648
 11
392.8414543921
 21
229.094739832
  0
LINE
  5
425
100
AcDbEntity
  8
0
100
AcDbLine
 62
7
  6
CONTINUOUS
 10
393.1331208998
 20
244.5734632984
 11
393.1331208998
 21
239.9564419464
  0
LINE
  5
426
100
AcDbEntity
  8
0
100
AcDbLine
 62
7
  6
CONTINUOUS
 10
394.0081208998
 20
239.9564419464
 11
394.0081208998
 21
244.5734632984
  0
LINE
  5
427
100
AcDbEntity
  8
0
100
AcDbLine
 62
7
  6
CONTINUOUS
 10
395.1747872883
 20
244.5734632984
 11
395.1747872883
 21
237.5734632984
  0
LINE
  5
428
100
AcDbEntity
  8
0
100
AcDbLine
 62
7
  6
CONTINUOUS
 10
396.0497872883
 20
238.4670803175
 11
396.0497872883
 21
243.6798463837
  0
LINE
  5
429
100
AcDbEntity
  8
0
100
AcDbLine
 62
7
  6
CONTINUOUS
 10
396.6331207806
 20
229.094739832
 11
396.6331207806
 21
228.0521867648
  0
LINE
  5
42A
100
AcDbEntity
  8
0
100
AcDbLine
 62
7
  6
CONTINUOUS
 10
397.3622871691
 20
227.9032506124
 11
397.3622871691
 21
229.2436759845
  0
LWPOLYLINE
  5
42B
100
AcDbEntity
  8
RUNDUNGEN
100
AcDbPolyline
 62
7
  6
CONTINUOUS
 90
3
 70
0
 10
406.7668480027
 20
302.2057134763
 10
407.0217795764
 20
302.5367253646
 10
407.2918307309
 20
302.8555014119
  0
LWPOLYLINE
  5
42C
100
AcDbEntity
  8
RUNDUNGEN
100
AcDbPolyline
 62
7
  6
CONTINUOUS
 90
3
 70
0
 10
407.2918776634
 20
302.8555542619
 10
407.576684564
 20
303.1616290118
 10
407.8753664196
 20
303.454039355
  0
LWPOLYLINE
  5
42D
100
AcDbEntity
  8
RUNDUNGEN
100
AcDbPolyline
 62
7
  6
CONTINUOUS
 90
3
 70
0
 10
407.8749018986
 20
303.4536052827
 10
408.1866370425
 20
303.731624825
 10
408.510938254
 20
303.9948089
  0
LWPOLYLINE
  5
42E
100
AcDbEntity
  8
RUNDUNGEN
100
AcDbPolyline
 62
7
  6
CONTINUOUS
 90
3
 70
0
 10
408.5116839992
 20
303.9953857747
 10
408.8478424308
 20
304.2431117417
 10
409.1949640769
 20
304.4748001776
  0
LINE
  5
42F
100
AcDbEntity
  8
0
100
AcDbLine
 62
7
  6
CONTINUOUS
 10
405.0289542729
 20
294.2302105919
 11
405.5289542729
 21
294.2302105919
  0
LINE
  5
430
100
AcDbEntity
  8
0
100
AcDbLine
 62
7
  6
CONTINUOUS
 10
405.0289542729
 20
294.5635440841
 11
405.5289542729
 21
294.5635440841
  0
LINE
  5
431
100
AcDbEntity
  8
0
100
AcDbLine
 62
7
  6
CONTINUOUS
 10
405.0289542729
 20
294.7302110687
 11
405.5289542729
 21
294.7302110687
  0
LINE
  5
432
100
AcDbEntity
  8
0
100
AcDbLine
 62
7
  6
CONTINUOUS
 10
405.0289542729
 20
296.0635440841
 11
405.5289542729
 21
296.0635440841
  0
LINE
  5
433
100
AcDbEntity
  8
0
100
AcDbLine
 62
7
  6
CONTINUOUS
 10
405.0289542729
 20
297.2302110687
 11
405.5289542729
 21
297.2302110687
  0
LINE
  5
434
100
AcDbEntity
  8
0
100
AcDbLine
 62
7
  6
CONTINUOUS
 10
405.1868726424
 20
298.5635443226
 11
405.5289542729
 21
298.5635443226
  0
LINE
  5
435
100
AcDbEntity
  8
BEZUGSACHSEN
100
AcDbLine
 62
7
  6
CONTINUOUS
 10
373.2693179126
 20
304.8202203349
 11
368.8111486359
 21
307.1906709873
  0
LINE
  5
436
100
AcDbEntity
  8
BEZUGSACHSEN
100
AcDbLine
 62
7
  6
CONTINUOUS
 10
373.2693294446
 20
304.8202143565
 11
373.4944633607
 21
304.6963387364
  0
LINE
  5
437
100
AcDbEntity
  8
0
100
AcDbLine
 62
7
  6
CONTINUOUS
 10
400.1331200653
 20
242.1904844419
 11
400.1331200653
 21
239.9564419464
  0
LINE
  5
438
100
AcDbEntity
  8
0
100
AcDbLine
 62
7
  6
CONTINUOUS
 10
401.0081200653
 20
239.9564419464
 11
401.0081200653
 21
242.1904844419
  0
LINE
  5
439
100
AcDbEntity
  8
_30_VOLUMEN
100
AcDbLine
 62
7
  6
CONTINUOUS
 10
402.7789542729
 20
338.8234632984
 11
402.7789542729
 21
385.773605345
  0
LINE
  5
43A
100
AcDbEntity
  8
RUNDUNGEN
100
AcDbLine
 62
7
  6
CONTINUOUS
 10
405.0289542729
 20
315.8113633826
 11
405.0289542729
 21
265.0426283561
  0
LINE
  5
43B
100
AcDbEntity
  8
0
100
AcDbLine
 62
7
  6
CONTINUOUS
 10
405.5289542729
 20
299.8456046832
 11
405.5289542729
 21
296.0635440841
  0
LINE
  5
43C
100
AcDbEntity
  8
0
100
AcDbLine
 62
7
  6
CONTINUOUS
 10
405.5289542729
 20
294.7302110687
 11
405.5289542729
 21
276.2759634773
  0
LINE
  5
43D
100
AcDbEntity
  8
0
100
AcDbLine
 62
7
  6
CONTINUOUS
 10
405.5289542729
 20
274.7759632984
 11
405.5289542729
 21
267.4634632984
  0
LWPOLYLINE
  5
43E
100
AcDbEntity
  8
RUNDUNGEN
100
AcDbPolyline
 62
7
  6
CONTINUOUS
 90
3
 70
0
 10
405.0289549875
 20
296.9018333379
 10
405.032573418
 20
297.1564042225
 10
405.0539940123
 20
297.5709555164
  0
LWPOLYLINE
  5
43F
100
AcDbEntity
  8
RUNDUNGEN
100
AcDbPolyline
 62
7
  6
CONTINUOUS
 90
4
 70
0
 10
405.0539568499
 20
297.5704594674
 10
405.0945729006
 20
297.9838165756
 10
405.1543896665
 20
298.3953467028
 10
405.2333303719
 20
298.8041035479
  0
LINE
  5
440
100
AcDbEntity
  8
0
100
AcDbLine
 62
7
  6
CONTINUOUS
 10
392.8414543921
 20
229.094739832
 11
392.9872871691
 21
229.9883567468
  0
LINE
  5
441
100
AcDbEntity
  8
0
100
AcDbLine
 62
7
  6
CONTINUOUS
 10
393.8622872883
 20
239.2117611841
 11
394.0081208998
 21
239.9564419464
  0
LINE
  5
442
100
AcDbEntity
  8
0
100
AcDbLine
 62
7
  6
CONTINUOUS
 10
392.2581207806
 20
229.9883567468
 11
392.1122875863
 21
229.2436759845
  0
LINE
  5
443
100
AcDbEntity
  8
RUNDUNGEN
100
AcDbLine
 62
7
  6
CONTINUOUS
 10
405.2335633183
 20
298.8051750883
 11
405.3315667533
 21
299.2102647807
  0
LINE
  5
444
100
AcDbEntity
  8
0
100
AcDbLine
 62
7
  6
CONTINUOUS
 10
385.9872874559
 20
231.0309102312
 11
385.8414541183
 21
230.4351656214
  0
LINE
  5
445
100
AcDbEntity
  8
0
100
AcDbLine
 62
7
  6
CONTINUOUS
 10
393.1331208998
 20
239.9564419464
 11
392.9872872883
 21
239.3606973366
  0
LINE
  5
446
100
AcDbEntity
  8
0
100
AcDbLine
 62
7
  6
CONTINUOUS
 10
390.7997875863
 20
229.5415482894
 11
390.9456207806
 21
230.1372928993
  0
LWPOLYLINE
  5
447
100
AcDbEntity
  8
RUNDUNGEN
100
AcDbPolyline
 62
7
  6
CONTINUOUS
 90
9
 70
0
 10
405.3312482975
 20
299.2090703074
 10
405.4479679833
 20
299.6093513597
 10
405.5832742199
 20
300.0040669127
 10
405.7368681463
 20
300.3922456376
 10
405.9084353049
 20
300.7730271118
 10
406.0976262179
 20
301.1455773666
 10
406.304004711
 20
301.508997688
 10
406.5271303006
 20
301.8624890035
 10
406.7665269063
 20
302.2052758156
  0
LINE
  5
448
100
AcDbEntity
  8
0
100
AcDbLine
 62
7
  6
CONTINUOUS
 10
386.5706204826
 20
242.4883567468
 11
386.4247872883
 21
242.0415482894
  0
LINE
  5
449
100
AcDbEntity
  8
0
100
AcDbLine
 62
7
  6
CONTINUOUS
 10
387.2997872883
 20
241.892612137
 11
387.4456204826
 21
242.3394205943
  0
LINE
  5
44A
100
AcDbEntity
  8
0
100
AcDbLine
 62
7
  6
CONTINUOUS
 10
396.6331207806
 20
228.0521867648
 11
396.4872871691
 21
227.1585696415
  0
LINE
  5
44B
100
AcDbEntity
  8
0
100
AcDbLine
 62
7
  6
CONTINUOUS
 10
397.2164543921
 20
227.1585696415
 11
397.3622871691
 21
227.9032506124
  0
LINE
  5
44C
100
AcDbEntity
  8
0
100
AcDbLine
 62
7
  6
CONTINUOUS
 10
400.8622872883
 20
239.2117611841
 11
401.0081200653
 21
239.9564419464
  0
LINE
  5
44D
100
AcDbEntity
  8
0
100
AcDbLine
 62
7
  6
CONTINUOUS
 10
400.1331200653
 20
239.9564419464
 11
399.9872872883
 21
239.3606973366
  0
LINE
  5
44E
100
AcDbEntity
  8
0
100
AcDbLine
 62
7
  6
CONTINUOUS
 10
392.4039539748
 20
230.4351656214
 11
392.2581207806
 21
229.9883567468
  0
LINE
  5
44F
100
AcDbEntity
  8
RUNDUNGEN
100
AcDbLine
 62
7
  6
CONTINUOUS
 10
414.5289542729
 20
256.0552754658
 11
414.5289542729
 21
270.5734632984
  0
LINE
  5
450
100
AcDbEntity
  8
0
100
AcDbLine
 62
7
  6
CONTINUOUS
 10
415.0289542729
 20
265.5734632984
 11
415.0289542729
 21
256.5734632984
  0
LINE
  5
451
100
AcDbEntity
  8
0
100
AcDbLine
 62
7
  6
CONTINUOUS
 10
397.0706207806
 20
226.7117611841
 11
397.2164543921
 21
227.1585696415
  0
LINE
  5
452
100
AcDbEntity
  8
0
100
AcDbLine
 62
7
  6
CONTINUOUS
 10
393.5706208998
 20
238.61601647
 11
393.8622872883
 21
239.2117611841
  0
LINE
  5
453
100
AcDbEntity
  8
0
100
AcDbLine
 62
7
  6
CONTINUOUS
 10
390.0706207806
 20
230.1372928993
 11
389.7789539748
 21
229.5415482894
  0
LINE
  5
454
100
AcDbEntity
  8
0
100
AcDbLine
 62
7
  6
CONTINUOUS
 10
392.6956207806
 20
231.0309102312
 11
392.4039539748
 21
230.4351656214
  0
LINE
  5
455
100
AcDbEntity
  8
0
100
AcDbLine
 62
7
  6
CONTINUOUS
 10
386.8622872883
 20
241.2968675271
 11
387.2997872883
 21
241.892612137
  0
LINE
  5
456
100
AcDbEntity
  8
0
100
AcDbLine
 62
7
  6
CONTINUOUS
 10
400.5706200653
 20
238.61601647
 11
400.8622872883
 21
239.2117611841
  0
LINE
  5
457
100
AcDbEntity
  8
0
100
AcDbLine
 62
7
  6
CONTINUOUS
 10
396.7789543921
 20
226.11601647
 11
397.0706207806
 21
226.7117611841
  0
LINE
  5
458
100
AcDbEntity
  8
0
100
AcDbLine
 62
7
  6
CONTINUOUS
 10
386.5706207806
 20
230.4351656214
 11
386.862287482
 21
230.8819740788
  0
LINE
  5
459
100
AcDbEntity
  8
0
100
AcDbLine
 62
7
  6
CONTINUOUS
 10
392.9872872883
 20
239.3606973366
 11
392.6956208998
 21
238.9138888792
  0
LINE
  5
45A
100
AcDbEntity
  8
0
100
AcDbLine
 62
7
  6
CONTINUOUS
 10
390.5081207806
 20
229.094739832
 11
390.7997875863
 21
229.5415482894
  0
LINE
  5
45B
100
AcDbEntity
  8
0
100
AcDbLine
 62
7
  6
CONTINUOUS
 10
392.9872871691
 20
229.9883567468
 11
393.5706207806
 21
230.8819740788
  0
LINE
  5
45C
100
AcDbEntity
  8
0
100
AcDbLine
 62
7
  6
CONTINUOUS
 10
399.9872872883
 20
239.3606973366
 11
399.6956200653
 21
238.9138888792
  0
LINE
  5
45D
100
AcDbEntity
  8
0
100
AcDbLine
 62
7
  6
CONTINUOUS
 10
386.4247872883
 20
242.0415482894
 11
386.1331204826
 21
241.7436759845
  0
LINE
  5
45E
100
AcDbEntity
  8
0
100
AcDbLine
 62
7
  6
CONTINUOUS
 10
396.4872871691
 20
227.1585696415
 11
395.9039543921
 21
226.2649526224
  0
LINE
  5
45F
100
AcDbEntity
  8
0
100
AcDbLine
 62
7
  6
CONTINUOUS
 10
386.5706207806
 20
231.6266548411
 11
385.9872874559
 21
231.0309102312
  0
LINE
  5
460
100
AcDbEntity
  8
0
100
AcDbLine
 62
7
  6
CONTINUOUS
 10
392.9872872883
 20
238.020271808
 11
393.5706208998
 21
238.61601647
  0
LINE
  5
461
100
AcDbEntity
  8
RUNDUNGEN
100
AcDbLine
 62
7
  6
CONTINUOUS
 10
436.5289542729
 20
344.2744698873
 11
436.5289542729
 21
387.0734632984
  0
LINE
  5
462
100
AcDbEntity
  8
0
100
AcDbLine
 62
7
  6
CONTINUOUS
 10
393.1331207806
 20
231.4777186886
 11
392.6956207806
 21
231.0309102312
  0
LINE
  5
463
100
AcDbEntity
  8
0
100
AcDbLine
 62
7
  6
CONTINUOUS
 10
399.9872872883
 20
238.020271808
 11
400.5706200653
 21
238.61601647
  0
LINE
  5
464
100
AcDbEntity
  8
0
100
AcDbLine
 62
7
  6
CONTINUOUS
 10
396.3414543921
 20
225.6692079604
 11
396.7789543921
 21
226.11601647
  0
LINE
  5
465
100
AcDbEntity
  8
0
100
AcDbLine
 62
7
  6
CONTINUOUS
 10
389.7789539748
 20
229.5415482894
 11
385.6956207806
 21
225.818144165
  0
LINE
  5
466
100
AcDbEntity
  8
0
100
AcDbLine
 62
7
  6
CONTINUOUS
 10
386.862287482
 20
225.818144165
 11
390.5081207806
 21
229.094739832
  0
LINE
  5
467
100
AcDbEntity
  8
0
100
AcDbLine
 62
7
  6
CONTINUOUS
 10
392.6956208998
 20
238.9138888792
 11
392.2581208998
 21
238.61601647
  0
LINE
  5
468
100
AcDbEntity
  8
0
100
AcDbLine
 62
7
  6
CONTINUOUS
 10
386.862287482
 20
230.8819740788
 11
387.299787482
 21
231.1798463837
  0
LINE
  5
469
100
AcDbEntity
  8
0
100
AcDbLine
 62
7
  6
CONTINUOUS
 10
399.6956200653
 20
238.9138888792
 11
399.2581200653
 21
238.61601647
  0
LINE
  5
46A
100
AcDbEntity
  8
0
100
AcDbLine
 62
7
  6
CONTINUOUS
 10
386.278954094
 20
240.9989952222
 11
386.8622872883
 21
241.2968675271
  0
LINE
  5
46B
100
AcDbEntity
  8
0
100
AcDbLine
 62
7
  6
CONTINUOUS
 10
392.4039536768
 20
237.7223994639
 11
392.9872872883
 21
238.020271808
  0
LINE
  5
46C
100
AcDbEntity
  8
0
100
AcDbLine
 62
7
  6
CONTINUOUS
 10
386.1331204826
 20
241.7436759845
 11
385.6956204826
 21
241.594739832
  0
LINE
  5
46D
100
AcDbEntity
  8
0
100
AcDbLine
 62
7
  6
CONTINUOUS
 10
393.5706207806
 20
230.8819740788
 11
394.0081207806
 21
231.1798463837
  0
LINE
  5
46E
100
AcDbEntity
  8
0
100
AcDbLine
 62
7
  6
CONTINUOUS
 10
395.9039543921
 20
226.2649526224
 11
395.4664543921
 21
225.9670803175
  0
LINE
  5
46F
100
AcDbEntity
  8
0
100
AcDbLine
 62
7
  6
CONTINUOUS
 10
393.8622871691
 20
231.924527146
 11
393.1331207806
 21
231.4777186886
  0
LINE
  5
470
100
AcDbEntity
  8
0
100
AcDbLine
 62
7
  6
CONTINUOUS
 10
387.1539540791
 20
231.924527146
 11
386.5706207806
 21
231.6266548411
  0
LINE
  5
471
100
AcDbEntity
  8
0
100
AcDbLine
 62
7
  6
CONTINUOUS
 10
399.4039545113
 20
237.7223994639
 11
399.9872872883
 21
238.020271808
  0
LINE
  5
472
100
AcDbEntity
  8
0
100
AcDbLine
 62
7
  6
CONTINUOUS
 10
395.6122871691
 20
225.2223994639
 11
396.3414543921
 21
225.6692079604
  0
LINE
  5
473
100
AcDbEntity
  8
_26_BEZUGSACHSEN
100
AcDbLine
 62
7
  6
CONTINUOUS
 10
402.7789542729
 20
352.0734632984
 11
380.2789542729
 21
352.0734632984
  0
LINE
  5
474
100
AcDbEntity
  8
_26_BEZUGSACHSEN
100
AcDbLine
 62
7
  6
CONTINUOUS
 10
402.7789542729
 20
376.5734632984
 11
380.2789542729
 21
376.5734632984
  0
LINE
  5
475
100
AcDbEntity
  8
0
100
AcDbLine
 62
7
  6
CONTINUOUS
 10
349.5289542729
 20
390.0734632984
 11
376.0986687231
 21
390.0734632984
  0
LINE
  5
476
100
AcDbEntity
  8
0
100
AcDbLine
 62
7
  6
CONTINUOUS
 10
406.9592398226
 20
390.0734632984
 11
433.5289542729
 21
390.0734632984
  0
LINE
  5
477
100
AcDbEntity
  8
FASEN
100
AcDbLine
 62
7
  6
CONTINUOUS
 10
129.2728635682
 20
78.3227136432
 11
129.2728635682
 21
126.3227136432
  0
LINE
  5
478
100
AcDbEntity
  8
FASEN
100
AcDbLine
 62
7
  6
CONTINUOUS
 10
130.2728635682
 20
77.3227136432
 11
130.2728635682
 21
127.3227136432
  0
LINE
  5
479
100
AcDbEntity
  8
FASEN
100
AcDbLine
 62
7
  6
CONTINUOUS
 10
129.2728635682
 20
126.3227136432
 11
130.2728635682
 21
127.3227136432
  0
LINE
  5
47A
100
AcDbEntity
  8
FASEN
100
AcDbLine
 62
7
  6
CONTINUOUS
 10
129.2728635682
 20
78.3227136432
 11
130.2728635682
 21
77.3227136432
  0
LINE
  5
47B
100
AcDbEntity
  8
FASEN
100
AcDbLine
 62
7
  6
CONTINUOUS
 10
146.2728635682
 20
77.3227136432
 11
146.2728635682
 21
127.3227136432
  0
LINE
  5
47C
100
AcDbEntity
  8
BEZUGSACHSEN
100
AcDbLine
 62
7
  6
CONTINUOUS
 10
147.2728635682
 20
76.3227136432
 11
147.2728635682
 21
128.3227136432
  0
LINE
  5
47D
100
AcDbEntity
  8
BEZUGSACHSEN
100
AcDbLine
 62
7
  6
CONTINUOUS
 10
150.7728635682
 20
72.8227136476
 11
150.7728635682
 21
85.4182192612
  0
LINE
  5
47E
100
AcDbEntity
  8
RUNDUNGEN
100
AcDbLine
 62
7
  6
CONTINUOUS
 10
150.7728635682
 20
72.8767639705
 11
150.7728635682
 21
91.8227136432
  0
LINE
  5
47F
100
AcDbEntity
  8
BEZUGSACHSEN
100
AcDbLine
 62
7
  6
CONTINUOUS
 10
150.7728635682
 20
91.8227136432
 11
150.7728635682
 21
131.8227136387
  0
LINE
  5
480
100
AcDbEntity
  8
RUNDUNGEN
100
AcDbLine
 62
7
  6
CONTINUOUS
 10
150.7728635682
 20
119.2272080252
 11
150.7728635682
 21
131.8196294384
  0
LINE
  5
481
100
AcDbEntity
  8
0
100
AcDbLine
 62
7
  6
CONTINUOUS
 10
158.9828635682
 20
88.8227136432
 11
158.9828635682
 21
88.3227136432
  0
LINE
  5
482
100
AcDbEntity
  8
0
100
AcDbLine
 62
7
  6
CONTINUOUS
 10
159.1743529071
 20
88.8227136432
 11
159.1743529071
 21
88.3227136432
  0
LINE
  5
483
100
AcDbEntity
  8
0
100
AcDbLine
 62
7
  6
CONTINUOUS
 10
159.7488209237
 20
88.8227136432
 11
159.7488209237
 21
88.3227136432
  0
LINE
  5
484
100
AcDbEntity
  8
0
100
AcDbLine
 62
7
  6
CONTINUOUS
 10
160.5147782792
 20
88.8227136432
 11
160.5147782792
 21
88.3227136432
  0
LINE
  5
485
100
AcDbEntity
  8
0
100
AcDbLine
 62
7
  6
CONTINUOUS
 10
161.0892462958
 20
88.8227136432
 11
161.0892462958
 21
88.3227136432
  0
LINE
  5
486
100
AcDbEntity
  8
0
100
AcDbLine
 62
7
  6
CONTINUOUS
 10
161.2807361712
 20
88.8227136432
 11
161.2807361712
 21
88.3227136432
  0
LINE
  5
487
100
AcDbEntity
  8
0
100
AcDbLine
 62
7
  6
CONTINUOUS
 10
161.6637148489
 20
88.8227136432
 11
161.6637148489
 21
88.3227136432
  0
LINE
  5
488
100
AcDbEntity
  8
0
100
AcDbLine
 62
7
  6
CONTINUOUS
 10
162.2381828655
 20
88.8227136432
 11
162.2381828655
 21
88.3227136432
  0
LINE
  5
489
100
AcDbEntity
  8
0
100
AcDbLine
 62
7
  6
CONTINUOUS
 10
162.6211615433
 20
88.8227136432
 11
162.6211615433
 21
88.3227136432
  0
LINE
  5
48A
100
AcDbEntity
  8
0
100
AcDbLine
 62
7
  6
CONTINUOUS
 10
162.8126508822
 20
88.8227136432
 11
162.8126508822
 21
88.3227136432
  0
LINE
  5
48B
100
AcDbEntity
  8
0
100
AcDbLine
 62
7
  6
CONTINUOUS
 10
163.004140221
 20
88.8227136432
 11
163.004140221
 21
88.3227136432
  0
LINE
  5
48C
100
AcDbEntity
  8
0
100
AcDbLine
 62
7
  6
CONTINUOUS
 10
163.3871188988
 20
88.8227136432
 11
163.3871188988
 21
88.3227136432
  0
LINE
  5
48D
100
AcDbEntity
  8
0
100
AcDbLine
 62
7
  6
CONTINUOUS
 10
164.1530762543
 20
88.8227136432
 11
164.1530762543
 21
88.3227136432
  0
LINE
  5
48E
100
AcDbEntity
  8
0
100
AcDbLine
 62
7
  6
CONTINUOUS
 10
164.919033878
 20
88.7463674167
 11
164.919033878
 21
88.3227136432
  0
LINE
  5
48F
100
AcDbEntity
  8
RUNDUNGEN
100
AcDbLine
 62
7
  6
CONTINUOUS
 10
175.7728635682
 20
57.3227136432
 11
226.7728635682
 21
57.3227136432
  0
LINE
  5
490
100
AcDbEntity
  8
0
100
AcDbLine
 62
7
  6
CONTINUOUS
 10
165.8764805724
 20
88.570244916
 11
165.8764805724
 21
88.3227136432
  0
LINE
  5
491
100
AcDbEntity
  8
0
100
AcDbLine
 62
7
  6
CONTINUOUS
 10
166.642438062
 20
88.3509105819
 11
166.642438062
 21
88.3227136432
  0
LINE
  5
492
100
AcDbEntity
  8
_30_VOLUMEN
100
AcDbLine
 62
7
  6
CONTINUOUS
 10
172.7728635682
 20
60.3227136432
 11
172.7728635682
 21
94.5623403659
  0
LINE
  5
493
100
AcDbEntity
  8
_30_VOLUMEN
100
AcDbLine
 62
7
  6
CONTINUOUS
 10
172.7728635682
 20
110.0830869205
 11
172.7728635682
 21
144.3227136432
  0
LINE
  5
494
100
AcDbEntity
  8
0
100
AcDbLine
 62
7
  6
CONTINUOUS
 10
257.829465455
 20
69.3227204802
 11
257.8293241311
 21
69.3227182
  0
LINE
  5
495
100
AcDbEntity
  8
0
100
AcDbLine
 62
7
  6
CONTINUOUS
 10
238.2728635682
 20
69.3227136432
 11
257.5944813859
 21
69.3227136432
  0
LINE
  5
496
100
AcDbEntity
  8
0
100
AcDbLine
 62
7
  6
CONTINUOUS
 10
238.7728635682
 20
69.3660894018
 11
249.7728635682
 21
69.3660894018
  0
LINE
  5
497
100
AcDbEntity
  8
0
100
AcDbLine
 62
7
  6
CONTINUOUS
 10
265.2728635682
 20
69.8227136432
 11
257.829465455
 21
69.8227136432
  0
LINE
  5
498
100
AcDbEntity
  8
0
100
AcDbLine
 62
7
  6
CONTINUOUS
 10
238.2728635682
 20
69.8227136432
 11
229.7728635682
 21
69.8227136432
  0
LINE
  5
499
100
AcDbEntity
  8
0
100
AcDbLine
 62
7
  6
CONTINUOUS
 10
172.7728635682
 20
69.8227136432
 11
153.7728635682
 21
69.8227136432
  0
LINE
  5
49A
100
AcDbEntity
  8
0
100
AcDbLine
 62
7
  6
CONTINUOUS
 10
249.7728635682
 20
69.8654768196
 11
238.7728635682
 21
69.8654768196
  0
LINE
  5
49B
100
AcDbEntity
  8
FASEN
100
AcDbLine
 62
7
  6
CONTINUOUS
 10
147.2728635682
 20
78.3227136432
 11
146.2728635682
 21
77.3227136432
  0
LINE
  5
49C
100
AcDbEntity
  8
0
100
AcDbLine
 62
7
  6
CONTINUOUS
 10
147.2728635682
 20
76.3227136432
 11
148.2728635682
 21
76.3227136432
  0
LINE
  5
49D
100
AcDbEntity
  8
0
100
AcDbLine
 62
7
  6
CONTINUOUS
 10
146.2728635682
 20
77.3227136432
 11
130.2728635682
 21
77.3227136432
  0
LINE
  5
49E
100
AcDbEntity
  8
0
100
AcDbLine
 62
7
  6
CONTINUOUS
 10
254.7728632106
 20
78.8227136432
 11
248.022863747
 21
78.8227136432
  0
LINE
  5
49F
100
AcDbEntity
  8
0
100
AcDbLine
 62
7
  6
CONTINUOUS
 10
246.5228635682
 20
78.8227136432
 11
239.7728635682
 21
78.8227136432
  0
LINE
  5
4A0
100
AcDbEntity
  8
_30_VOLUMEN
100
AcDbLine
 62
7
  6
CONTINUOUS
 10
265.2728635682
 20
79.3227136432
 11
229.7728635682
 21
79.3227136432
  0
LINE
  5
4A1
100
AcDbEntity
  8
FASEN
100
AcDbLine
 62
7
  6
CONTINUOUS
 10
147.2728635682
 20
126.3227136432
 11
146.2728635682
 21
127.3227136432
  0
LINE
  5
4A2
100
AcDbEntity
  8
_26_BEZUGSACHSEN
100
AcDbLine
 62
7
  6
CONTINUOUS
 10
189.0228635682
 20
91.0727136432
 11
189.0228635682
 21
113.5727136432
  0
LINE
  5
4A3
100
AcDbEntity
  8
_30_VOLUMEN
100
AcDbLine
 62
7
  6
CONTINUOUS
 10
265.2728635682
 20
80.4493164708
 11
251.4728635682
 21
80.4493164708
  0
LINE
  5
4A4
100
AcDbEntity
  8
_30_VOLUMEN
100
AcDbLine
 62
7
  6
CONTINUOUS
 10
265.2728635682
 20
83.3227136432
 11
265.5728635682
 21
83.3227136432
  0
LINE
  5
4A5
100
AcDbEntity
  8
0
100
AcDbLine
 62
7
  6
CONTINUOUS
 10
245.3864774233
 20
88.3227136432
 11
237.3864774233
 21
88.3227136432
  0
LINE
  5
4A6
100
AcDbEntity
  8
0
100
AcDbLine
 62
7
  6
CONTINUOUS
 10
166.7220637549
 20
88.3227136432
 11
158.9828635682
 21
88.3227136432
  0
LINE
  5
4A7
100
AcDbEntity
  8
_30_VOLUMEN
100
AcDbLine
 62
7
  6
CONTINUOUS
 10
265.2728635682
 20
88.5727136432
 11
251.4728635682
 21
88.5727136432
  0
LINE
  5
4A8
100
AcDbEntity
  8
0
100
AcDbLine
 62
7
  6
CONTINUOUS
 10
270.4092151807
 20
88.8227136432
 11
266.2728635682
 21
88.8227136432
  0
LINE
  5
4A9
100
AcDbEntity
  8
_30_VOLUMEN
100
AcDbLine
 62
7
  6
CONTINUOUS
 10
265.5728635682
 20
88.8227136432
 11
257.2728635682
 21
88.8227136432
  0
LINE
  5
4AA
100
AcDbEntity
  8
RUNDUNGEN
100
AcDbLine
 62
7
  6
CONTINUOUS
 10
257.2728635682
 20
88.8227136432
 11
238.7728635682
 21
88.8227136432
  0
LINE
  5
4AB
100
AcDbEntity
  8
RUNDUNGEN
100
AcDbLine
 62
7
  6
CONTINUOUS
 10
163.7728635682
 20
88.8227136432
 11
153.7728635682
 21
88.8227136432
  0
LINE
  5
4AC
100
AcDbEntity
  8
_30_VOLUMEN
100
AcDbLine
 62
7
  6
CONTINUOUS
 10
266.0728635682
 20
90.3227136432
 11
270.9728635682
 21
90.3227136432
  0
LINE
  5
4AD
100
AcDbEntity
  8
_30_VOLUMEN
100
AcDbLine
 62
7
  6
CONTINUOUS
 10
172.7728635682
 20
91.0727136432
 11
229.7728635682
 21
91.0727136432
  0
LINE
  5
4AE
100
AcDbEntity
  8
0
100
AcDbLine
 62
7
  6
CONTINUOUS
 10
266.0728635682
 20
92.3227136432
 11
265.5728635682
 21
92.3227136432
  0
LINE
  5
4AF
100
AcDbEntity
  8
_30_VOLUMEN
100
AcDbLine
 62
7
  6
CONTINUOUS
 10
263.7606322208
 20
94.8227136432
 11
265.5728635682
 21
94.8227136432
  0
LINE
  5
4B0
100
AcDbEntity
  8
_30_VOLUMEN
100
AcDbLine
 62
7
  6
CONTINUOUS
 10
265.5728635682
 20
96.3727136432
 11
266.0728635682
 21
96.3727136432
  0
LINE
  5
4B1
100
AcDbEntity
  8
_21_KURVEN
100
AcDbLine
 62
4
  6
CONTINUOUS
 10
161.272862694
 20
102.3227136432
 11
241.2728635682
 21
102.3227136432
  0
LINE
  5
4B2
100
AcDbEntity
  8
_30_VOLUMEN
100
AcDbLine
 62
7
  6
CONTINUOUS
 10
266.0728635682
 20
102.3227136432
 11
270.9728635682
 21
102.3227136432
  0
LINE
  5
4B3
100
AcDbEntity
  8
_30_VOLUMEN
100
AcDbLine
 62
7
  6
CONTINUOUS
 10
265.5728635682
 20
108.2727136432
 11
266.0728635682
 21
108.2727136432
  0
LINE
  5
4B4
100
AcDbEntity
  8
_26_BEZUGSACHSEN
100
AcDbLine
 62
7
  6
CONTINUOUS
 10
213.5228635682
 20
91.0727136432
 11
213.5228635682
 21
113.5727136432
  0
LINE
  5
4B5
100
AcDbEntity
  8
_30_VOLUMEN
100
AcDbLine
 62
7
  6
CONTINUOUS
 10
265.5728635682
 20
109.8227136432
 11
263.7606322208
 21
109.8227136432
  0
LINE
  5
4B6
100
AcDbEntity
  8
0
100
AcDbLine
 62
7
  6
CONTINUOUS
 10
266.0728635682
 20
112.3227136432
 11
265.5728635682
 21
112.3227136432
  0
LINE
  5
4B7
100
AcDbEntity
  8
_30_VOLUMEN
100
AcDbLine
 62
7
  6
CONTINUOUS
 10
172.7728635682
 20
113.5727136432
 11
229.7728635682
 21
113.5727136432
  0
LINE
  5
4B8
100
AcDbEntity
  8
_30_VOLUMEN
100
AcDbLine
 62
7
  6
CONTINUOUS
 10
266.0728635682
 20
114.3227136432
 11
270.9728635682
 21
114.3227136432
  0
LINE
  5
4B9
100
AcDbEntity
  8
0
100
AcDbLine
 62
7
  6
CONTINUOUS
 10
270.4092151807
 20
115.8227136432
 11
266.2728635682
 21
115.8227136432
  0
LINE
  5
4BA
100
AcDbEntity
  8
BEZUGSACHSEN
100
AcDbLine
 62
7
  6
CONTINUOUS
 10
257.2728635682
 20
115.8227136432
 11
238.7728635682
 21
115.8227136432
  0
LINE
  5
4BB
100
AcDbEntity
  8
BEZUGSACHSEN
100
AcDbLine
 62
7
  6
CONTINUOUS
 10
163.7728635682
 20
115.8227136432
 11
153.7728635682
 21
115.8227136432
  0
LINE
  5
4BC
100
AcDbEntity
  8
_30_VOLUMEN
100
AcDbLine
 62
7
  6
CONTINUOUS
 10
257.2728635682
 20
115.8227136432
 11
265.5728635682
 21
115.8227136432
  0
LINE
  5
4BD
100
AcDbEntity
  8
_30_VOLUMEN
100
AcDbLine
 62
7
  6
CONTINUOUS
 10
265.2728635682
 20
116.0727136432
 11
251.4728635682
 21
116.0727136432
  0
LINE
  5
4BE
100
AcDbEntity
  8
_30_VOLUMEN
100
AcDbLine
 62
7
  6
CONTINUOUS
 10
229.7728635682
 20
60.3227136432
 11
229.7728635682
 21
94.5623403659
  0
LINE
  5
4BF
100
AcDbEntity
  8
_30_VOLUMEN
100
AcDbLine
 62
7
  6
CONTINUOUS
 10
229.7728635682
 20
110.0830869205
 11
229.7728635682
 21
144.3227136432
  0
LINE
  5
4C0
100
AcDbEntity
  8
_30_VOLUMEN
100
AcDbLine
 62
7
  6
CONTINUOUS
 10
265.2728635682
 20
121.3227136432
 11
265.5728635682
 21
121.3227136432
  0
LINE
  5
4C1
100
AcDbEntity
  8
_30_VOLUMEN
100
AcDbLine
 62
7
  6
CONTINUOUS
 10
251.4728635682
 20
124.1961108156
 11
265.2728635682
 21
124.1961108156
  0
LINE
  5
4C2
100
AcDbEntity
  8
_30_VOLUMEN
100
AcDbLine
 62
7
  6
CONTINUOUS
 10
265.2728635682
 20
125.3227136432
 11
229.7728635682
 21
125.3227136432
  0
LINE
  5
4C3
100
AcDbEntity
  8
0
100
AcDbLine
 62
7
  6
CONTINUOUS
 10
146.2728635682
 20
127.3227136432
 11
130.2728635682
 21
127.3227136432
  0
LINE
  5
4C4
100
AcDbEntity
  8
BEZUGSACHSEN
100
AcDbLine
 62
7
  6
CONTINUOUS
 10
148.2728635682
 20
128.3227136432
 11
147.2728635682
 21
128.3227136432
  0
LINE
  5
4C5
100
AcDbEntity
  8
0
100
AcDbLine
 62
7
  6
CONTINUOUS
 10
237.3864774233
 20
88.7147423992
 11
237.3864774233
 21
88.3227136432
  0
LINE
  5
4C6
100
AcDbEntity
  8
0
100
AcDbLine
 62
7
  6
CONTINUOUS
 10
238.2728635682
 20
69.8436605645
 11
238.2728635682
 21
69.3227136432
  0
LINE
  5
4C7
100
AcDbEntity
  8
BEZUGSACHSEN
100
AcDbLine
 62
7
  6
CONTINUOUS
 10
238.2728635682
 20
134.8017667219
 11
238.2728635682
 21
135.3227136432
  0
LINE
  5
4C8
100
AcDbEntity
  8
0
100
AcDbLine
 62
7
  6
CONTINUOUS
 10
239.7728635682
 20
79.3227136432
 11
239.7728635682
 21
78.8227136432
  0
LINE
  5
4C9
100
AcDbEntity
  8
0
100
AcDbLine
 62
7
  6
CONTINUOUS
 10
239.9603635738
 20
79.3227136432
 11
239.9603635738
 21
78.8227136432
  0
LINE
  5
4CA
100
AcDbEntity
  8
0
100
AcDbLine
 62
7
  6
CONTINUOUS
 10
240.1478635794
 20
79.3227136432
 11
240.1478635794
 21
78.8227136432
  0
LINE
  5
4CB
100
AcDbEntity
  8
0
100
AcDbLine
 62
7
  6
CONTINUOUS
 10
240.8978635682
 20
79.3227136432
 11
240.8978635682
 21
78.8227136432
  0
LINE
  5
4CC
100
AcDbEntity
  8
0
100
AcDbLine
 62
7
  6
CONTINUOUS
 10
241.6478635235
 20
79.3227136432
 11
241.6478635235
 21
78.8227136432
  0
LINE
  5
4CD
100
AcDbEntity
  8
0
100
AcDbLine
 62
7
  6
CONTINUOUS
 10
281.7858937832
 20
92.9634860193
 11
270.4092151807
 21
88.8227136432
  0
LINE
  5
4CE
100
AcDbEntity
  8
BEZUGSACHSEN
100
AcDbLine
 62
7
  6
CONTINUOUS
 10
249.7728635682
 20
134.7799504668
 11
238.7728635682
 21
134.7799504668
  0
LINE
  5
4CF
100
AcDbEntity
  8
0
100
AcDbLine
 62
7
  6
CONTINUOUS
 10
265.2728635682
 20
134.8227136432
 11
257.829465455
 21
134.8227136432
  0
LINE
  5
4D0
100
AcDbEntity
  8
0
100
AcDbLine
 62
7
  6
CONTINUOUS
 10
238.2728635682
 20
134.8227136432
 11
229.7728635682
 21
134.8227136432
  0
LINE
  5
4D1
100
AcDbEntity
  8
0
100
AcDbLine
 62
7
  6
CONTINUOUS
 10
172.7728635682
 20
134.8227136432
 11
153.7728635682
 21
134.8227136432
  0
LINE
  5
4D2
100
AcDbEntity
  8
BEZUGSACHSEN
100
AcDbLine
 62
7
  6
CONTINUOUS
 10
238.7728635682
 20
135.2793378845
 11
249.7728635682
 21
135.2793378845
  0
LINE
  5
4D3
100
AcDbEntity
  8
BEZUGSACHSEN
100
AcDbLine
 62
7
  6
CONTINUOUS
 10
257.5944813859
 20
135.3227136432
 11
238.2728635682
 21
135.3227136432
  0
LINE
  5
4D4
100
AcDbEntity
  8
BEZUGSACHSEN
100
AcDbLine
 62
7
  6
CONTINUOUS
 10
257.829465455
 20
135.3227068061
 11
257.8293241311
 21
135.3227090864
  0
LINE
  5
4D5
100
AcDbEntity
  8
0
100
AcDbLine
 62
7
  6
CONTINUOUS
 10
281.7858937832
 20
111.681941267
 11
270.4092151807
 21
115.8227136432
  0
LINE
  5
4D6
100
AcDbEntity
  8
0
100
AcDbLine
 62
7
  6
CONTINUOUS
 10
242.9603634788
 20
79.3227136432
 11
242.9603634788
 21
78.8227136432
  0
LINE
  5
4D7
100
AcDbEntity
  8
0
100
AcDbLine
 62
7
  6
CONTINUOUS
 10
243.7103635682
 20
79.3227136432
 11
243.7103635682
 21
78.8227136432
  0
LINE
  5
4D8
100
AcDbEntity
  8
0
100
AcDbLine
 62
7
  6
CONTINUOUS
 10
244.8353635682
 20
79.3227136432
 11
244.8353635682
 21
78.8227136432
  0
LINE
  5
4D9
100
AcDbEntity
  8
0
100
AcDbLine
 62
7
  6
CONTINUOUS
 10
245.3864774233
 20
88.8227136432
 11
245.3864774233
 21
88.3227136432
  0
LINE
  5
4DA
100
AcDbEntity
  8
0
100
AcDbLine
 62
7
  6
CONTINUOUS
 10
245.5853633894
 20
79.3227136432
 11
245.5853633894
 21
78.8227136432
  0
LINE
  5
4DB
100
AcDbEntity
  8
0
100
AcDbLine
 62
7
  6
CONTINUOUS
 10
246.335363747
 20
79.3227136432
 11
246.335363747
 21
78.8227136432
  0
LINE
  5
4DC
100
AcDbEntity
  8
0
100
AcDbLine
 62
7
  6
CONTINUOUS
 10
246.5228635682
 20
79.3227136432
 11
246.5228635682
 21
78.8227136432
  0
LINE
  5
4DD
100
AcDbEntity
  8
0
100
AcDbLine
 62
7
  6
CONTINUOUS
 10
248.022863747
 20
79.3227136432
 11
248.022863747
 21
78.8227136432
  0
LINE
  5
4DE
100
AcDbEntity
  8
0
100
AcDbLine
 62
7
  6
CONTINUOUS
 10
248.2103635682
 20
79.3227136432
 11
248.2103635682
 21
78.8227136432
  0
LINE
  5
4DF
100
AcDbEntity
  8
0
100
AcDbLine
 62
7
  6
CONTINUOUS
 10
248.3978633894
 20
79.3227136432
 11
248.3978633894
 21
78.8227136432
  0
LINE
  5
4E0
100
AcDbEntity
  8
0
100
AcDbLine
 62
7
  6
CONTINUOUS
 10
248.7728635682
 20
79.3227136432
 11
248.7728635682
 21
78.8227136432
  0
LINE
  5
4E1
100
AcDbEntity
  8
0
100
AcDbLine
 62
7
  6
CONTINUOUS
 10
249.3353635682
 20
79.3227136432
 11
249.3353635682
 21
78.8227136432
  0
LINE
  5
4E2
100
AcDbEntity
  8
0
100
AcDbLine
 62
7
  6
CONTINUOUS
 10
250.2728632106
 20
79.3227136432
 11
250.2728632106
 21
78.8227136432
  0
LINE
  5
4E3
100
AcDbEntity
  8
0
100
AcDbLine
 62
7
  6
CONTINUOUS
 10
250.2728635682
 20
70.0820962356
 11
250.2728635682
 21
69.3958127221
  0
LINE
  5
4E4
100
AcDbEntity
  8
BEZUGSACHSEN
100
AcDbLine
 62
7
  6
CONTINUOUS
 10
250.2728635682
 20
134.5633310507
 11
250.2728635682
 21
135.2496145643
  0
LINE
  5
4E5
100
AcDbEntity
  8
0
100
AcDbLine
 62
7
  6
CONTINUOUS
 10
251.3978632106
 20
79.3227136432
 11
251.3978632106
 21
78.8227136432
  0
LINE
  5
4E6
100
AcDbEntity
  8
_30_VOLUMEN
100
AcDbLine
 62
7
  6
CONTINUOUS
 10
251.4728635682
 20
80.4493164708
 11
251.4728635682
 21
88.8227136432
  0
LINE
  5
4E7
100
AcDbEntity
  8
_30_VOLUMEN
100
AcDbLine
 62
7
  6
CONTINUOUS
 10
251.4728635682
 20
115.8227136432
 11
251.4728635682
 21
124.1961108156
  0
LINE
  5
4E8
100
AcDbEntity
  8
_30_VOLUMEN
100
AcDbLine
 62
7
  6
CONTINUOUS
 10
251.5728635682
 20
116.0727136432
 11
251.5728635682
 21
115.8227136432
  0
LINE
  5
4E9
100
AcDbEntity
  8
_30_VOLUMEN
100
AcDbLine
 62
7
  6
CONTINUOUS
 10
251.5728635682
 20
88.8227136432
 11
251.5728635682
 21
88.5727136432
  0
LINE
  5
4EA
100
AcDbEntity
  8
0
100
AcDbLine
 62
7
  6
CONTINUOUS
 10
252.5228632106
 20
79.3227136432
 11
252.5228632106
 21
78.8227136432
  0
LINE
  5
4EB
100
AcDbEntity
  8
0
100
AcDbLine
 62
7
  6
CONTINUOUS
 10
253.4603639258
 20
79.3227136432
 11
253.4603639258
 21
78.8227136432
  0
LINE
  5
4EC
100
AcDbEntity
  8
0
100
AcDbLine
 62
7
  6
CONTINUOUS
 10
254.0228639258
 20
79.3227136432
 11
254.0228639258
 21
78.8227136432
  0
LINE
  5
4ED
100
AcDbEntity
  8
BEZUGSACHSEN
100
AcDbLine
 62
7
  6
CONTINUOUS
 10
175.7728635682
 20
147.3227136432
 11
226.7728635682
 21
147.3227136432
  0
LINE
  5
4EE
100
AcDbEntity
  8
0
100
AcDbLine
 62
7
  6
CONTINUOUS
 10
254.3978635682
 20
79.3227136432
 11
254.3978635682
 21
78.8227136432
  0
LINE
  5
4EF
100
AcDbEntity
  8
0
100
AcDbLine
 62
7
  6
CONTINUOUS
 10
254.5853639258
 20
79.3227136432
 11
254.5853639258
 21
78.8227136432
  0
LINE
  5
4F0
100
AcDbEntity
  8
0
100
AcDbLine
 62
7
  6
CONTINUOUS
 10
254.7728632106
 20
79.3227136432
 11
254.7728632106
 21
78.8227136432
  0
LINE
  5
4F1
100
AcDbEntity
  8
BEZUGSACHSEN
100
AcDbLine
 62
7
  6
CONTINUOUS
 10
257.829465455
 20
135.3227114693
 11
257.829465455
 21
134.8227136432
  0
LINE
  5
4F2
100
AcDbEntity
  8
0
100
AcDbLine
 62
7
  6
CONTINUOUS
 10
257.829465455
 20
69.8227136432
 11
257.829465455
 21
69.3227158171
  0
LINE
  5
4F3
100
AcDbEntity
  8
_30_VOLUMEN
100
AcDbLine
 62
7
  6
CONTINUOUS
 10
263.7606322208
 20
112.8227136432
 11
263.7606322208
 21
91.8227136432
  0
LINE
  5
4F4
100
AcDbEntity
  8
_30_VOLUMEN
100
AcDbLine
 62
7
  6
CONTINUOUS
 10
265.2728635682
 20
134.8227136417
 11
265.2728635682
 21
116.0727136432
  0
LINE
  5
4F5
100
AcDbEntity
  8
_30_VOLUMEN
100
AcDbLine
 62
7
  6
CONTINUOUS
 10
265.2728635682
 20
69.8227136446
 11
265.2728635682
 21
88.5727136432
  0
LINE
  5
4F6
100
AcDbEntity
  8
_30_VOLUMEN
100
AcDbLine
 62
7
  6
CONTINUOUS
 10
265.5728635682
 20
121.3227136391
 11
265.5728635682
 21
83.3227136473
  0
LINE
  5
4F7
100
AcDbEntity
  8
_30_VOLUMEN
100
AcDbLine
 62
7
  6
CONTINUOUS
 10
266.0728635682
 20
114.3227136432
 11
266.0728635682
 21
90.3227136432
  0
LINE
  5
4F8
100
AcDbEntity
  8
0
100
AcDbLine
 62
7
  6
CONTINUOUS
 10
266.2728635682
 20
90.3227136432
 11
266.2728635682
 21
88.8227136432
  0
LINE
  5
4F9
100
AcDbEntity
  8
0
100
AcDbLine
 62
7
  6
CONTINUOUS
 10
266.2728635682
 20
114.3227136432
 11
266.2728635682
 21
115.8227136432
  0
LINE
  5
4FA
100
AcDbEntity
  8
0
100
AcDbLine
 62
7
  6
CONTINUOUS
 10
270.4092151807
 20
90.3227136432
 11
270.4092151807
 21
88.8227136432
  0
LINE
  5
4FB
100
AcDbEntity
  8
0
100
AcDbLine
 62
7
  6
CONTINUOUS
 10
270.4092151807
 20
114.3227136432
 11
270.4092151807
 21
115.8227136432
  0
LINE
  5
4FC
100
AcDbEntity
  8
_30_VOLUMEN
100
AcDbLine
 62
7
  6
CONTINUOUS
 10
270.9728635682
 20
114.3227136432
 11
270.9728635682
 21
90.3227136432
  0
LINE
  5
4FD
100
AcDbEntity
  8
RUNDUNGEN
100
AcDbLine
 62
7
  6
CONTINUOUS
 10
282.7728635682
 20
94.3730249505
 11
282.7728635682
 21
110.2724023359
  0
ARC
  5
4FE
100
AcDbEntity
  8
RUNDUNGEN
100
AcDbCircle
 62
7
  6
CONTINUOUS
 10
185.7728635682
 20
292.5734632984
 40
35.0
100
AcDbArc
 50
120.0
 51
180.0
  0
ARC
  5
4FF
100
AcDbEntity
  8
_30_VOLUMEN
100
AcDbCircle
 62
7
  6
CONTINUOUS
 10
201.2728635682
 20
361.5734632984
 40
28.5
100
AcDbArc
 50
173.6383562847
 51
180.0
  0
ARC
  5
500
100
AcDbEntity
  8
RUNDUNGEN
100
AcDbCircle
 62
7
  6
CONTINUOUS
 10
201.2728635682
 20
361.5734632984
 40
28.5
100
AcDbArc
 50
0.0
 51
180.0
  0
ARC
  5
501
100
AcDbEntity
  8
_21_KURVEN
100
AcDbCircle
 62
4
  6
CONTINUOUS
 10
161.2728635682
 20
361.5734632984
 40
20.0
100
AcDbArc
 50
270.0
 51
305.1046500763
  0
ARC
  5
502
100
AcDbEntity
  8
_21_KURVEN
100
AcDbCircle
 62
4
  6
CONTINUOUS
 10
241.2728635682
 20
361.5734632984
 40
20.0
100
AcDbArc
 50
234.8953499237
 51
270.0
  0
ARC
  5
503
100
AcDbEntity
  8
_30_VOLUMEN
100
AcDbCircle
 62
7
  6
CONTINUOUS
 10
253.7728635682
 20
300.0790167979
 40
10.0
100
AcDbArc
 50
2.8341253675
 51
60.0
  0
ARC
  5
504
100
AcDbEntity
  8
RUNDUNGEN
100
AcDbCircle
 62
7
  6
CONTINUOUS
 10
238.7728635682
 20
330.678581065
 40
9.0
100
AcDbArc
 50
180.0000000002
 51
240.0
  0
ARC
  5
505
100
AcDbEntity
  8
RUNDUNGEN
100
AcDbCircle
 62
7
  6
CONTINUOUS
 10
163.7728635682
 20
330.678564541
 40
8.9999887797
100
AcDbArc
 50
300.0000525973
 51
0.0001051945
  0
ARC
  5
506
100
AcDbEntity
  8
RUNDUNGEN
100
AcDbCircle
 62
7
  6
CONTINUOUS
 10
216.7728635682
 20
292.5734632984
 40
8.0
100
AcDbArc
 50
0.0
 51
90.0
  0
ARC
  5
507
100
AcDbEntity
  8
RUNDUNGEN
100
AcDbCircle
 62
7
  6
CONTINUOUS
 10
185.7728635682
 20
292.5734632984
 40
8.0
100
AcDbArc
 50
90.0
 51
180.0
  0
ARC
  5
508
100
AcDbEntity
  8
_30_VOLUMEN
100
AcDbCircle
 62
7
  6
CONTINUOUS
 10
258.5728635682
 20
289.0734632984
 40
7.0
100
AcDbArc
 50
0.0
 51
180.0
  0
ARC
  5
509
100
AcDbEntity
  8
RUNDUNGEN
100
AcDbCircle
 62
7
  6
CONTINUOUS
 10
228.2728635682
 20
199.5734632984
 40
3.5
100
AcDbArc
 50
180.0
 51
270.0
  0
ARC
  5
50A
100
AcDbEntity
  8
RUNDUNGEN
100
AcDbCircle
 62
7
  6
CONTINUOUS
 10
174.2728635682
 20
199.5734632984
 40
3.5
100
AcDbArc
 50
270.0
 51
360.0
  0
ARC
  5
50B
100
AcDbEntity
  8
RUNDUNGEN
100
AcDbCircle
 62
7
  6
CONTINUOUS
 10
153.7728635682
 20
199.0734632984
 40
3.0
100
AcDbArc
 50
180.0
 51
270.0
  0
ARC
  5
50C
100
AcDbEntity
  8
BEZUGSACHSEN
100
AcDbCircle
 62
7
  6
CONTINUOUS
 10
148.2728635682
 20
257.0734632984
 40
2.5
100
AcDbArc
 50
270.0
 51
360.0
  0
ARC
  5
50D
100
AcDbEntity
  8
BEZUGSACHSEN
100
AcDbCircle
 62
7
  6
CONTINUOUS
 10
148.2728635682
 20
200.0734632984
 40
2.5
100
AcDbArc
 50
0.0
 51
90.0
  0
ARC
  5
50E
100
AcDbEntity
  8
RUNDUNGEN
100
AcDbCircle
 62
7
  6
CONTINUOUS
 10
281.2728635682
 20
220.6237746058
 40
1.5
100
AcDbArc
 50
290.0000000003
 51
360.0
  0
ARC
  5
50F
100
AcDbEntity
  8
RUNDUNGEN
100
AcDbCircle
 62
7
  6
CONTINUOUS
 10
281.2728635682
 20
236.5231519911
 40
1.5
100
AcDbArc
 50
0.0
 51
69.9999999997
  0
ARC
  5
510
100
AcDbEntity
  8
0
100
AcDbCircle
 62
7
  6
CONTINUOUS
 10
250.7728635682
 20
232.6713394777
 40
0.5
100
AcDbArc
 50
57.9946167919
 51
180.0
  0
ARC
  5
511
100
AcDbEntity
  8
0
100
AcDbCircle
 62
7
  6
CONTINUOUS
 10
249.7728635682
 20
230.7401299651
 40
0.5
100
AcDbArc
 50
270.0
 51
360.0
  0
ARC
  5
512
100
AcDbEntity
  8
0
100
AcDbCircle
 62
7
  6
CONTINUOUS
 10
238.7728635682
 20
229.7401299651
 40
0.5
100
AcDbArc
 50
90.0
 51
180.0
  0
ARC
  5
513
100
AcDbEntity
  8
0
100
AcDbCircle
 62
7
  6
CONTINUOUS
 10
238.7728635682
 20
227.4067966318
 40
0.5
100
AcDbArc
 50
180.0
 51
270.0
  0
ARC
  5
514
100
AcDbEntity
  8
0
100
AcDbCircle
 62
7
  6
CONTINUOUS
 10
249.7728635682
 20
226.4067966318
 40
0.5
100
AcDbArc
 50
0.0
 51
90.0
  0
ARC
  5
515
100
AcDbEntity
  8
0
100
AcDbCircle
 62
7
  6
CONTINUOUS
 10
250.7728635682
 20
224.4755871192
 40
0.5
100
AcDbArc
 50
180.0
 51
302.0053832081
  0
ARC
  5
516
100
AcDbEntity
  8
0
100
AcDbCircle
 62
7
  6
CONTINUOUS
 10
257.329465455
 20
228.5734632984
 40
0.5
100
AcDbArc
 50
302.0053832081
 51
57.9946167919
  0
ARC
  5
517
100
AcDbEntity
  8
BEZUGSACHSEN
100
AcDbCircle
 62
7
  6
CONTINUOUS
 10
366.0289542729
 20
265.0426283561
 40
12.0
100
AcDbArc
 50
304.962047529
 51
360.0
  0
ARC
  5
518
100
AcDbEntity
  8
BEZUGSACHSEN
100
AcDbCircle
 62
7
  6
CONTINUOUS
 10
356.5289542729
 20
256.0552754658
 40
12.0
100
AcDbArc
 50
321.8611871517
 51
360.0
  0
ARC
  5
519
100
AcDbEntity
  8
BEZUGSACHSEN
100
AcDbCircle
 62
7
  6
CONTINUOUS
 10
374.0289542729
 20
280.5609554762
 40
4.0
100
AcDbArc
 50
272.8659839826
 51
360.0
  0
ARC
  5
51A
100
AcDbEntity
  8
0
100
AcDbCircle
 62
7
  6
CONTINUOUS
 10
392.0289542729
 20
228.5615761662
 40
32.5
100
AcDbArc
 50
351.8880720614
 51
8.154266793
  0
ARC
  5
51B
100
AcDbEntity
  8
BEZUGSACHSEN
100
AcDbCircle
 62
7
  6
CONTINUOUS
 10
391.0289542729
 20
228.5615761662
 40
32.5
100
AcDbArc
 50
171.845733207
 51
188.1119279386
  0
ARC
  5
51C
100
AcDbEntity
  8
BEZUGSACHSEN
100
AcDbCircle
 62
7
  6
CONTINUOUS
 10
391.5289542729
 20
228.5734632984
 40
32.5
100
AcDbArc
 50
124.962047529
 51
55.037952471
  0
CIRCLE
  5
51D
100
AcDbEntity
  8
BEZUGSACHSEN
100
AcDbCircle
 62
7
  6
CONTINUOUS
 10
391.5289542729
 20
228.5734632984
 40
26.0
  0
CIRCLE
  5
51E
100
AcDbEntity
  8
FASEN
100
AcDbCircle
 62
7
  6
CONTINUOUS
 10
391.5289542729
 20
228.5734632984
 40
25.0
  0
CIRCLE
  5
51F
100
AcDbEntity
  8
FASEN
100
AcDbCircle
 62
7
  6
CONTINUOUS
 10
391.5289542729
 20
228.5734632984
 40
24.0
  0
ARC
  5
520
100
AcDbEntity
  8
BEZUGSACHSEN
100
AcDbCircle
 62
7
  6
CONTINUOUS
 10
374.5289542729
 20
270.5734632984
 40
6.0
100
AcDbArc
 50
92.8659839826
 51
180.0
  0
ARC
  5
521
100
AcDbEntity
  8
_30_VOLUMEN
100
AcDbCircle
 62
7
  6
CONTINUOUS
 10
242.0157053025
 20
361.6732498198
 40
165.9001389471
100
AcDbArc
 50
359.9655374196
 51
1.0016776241
  0
ARC
  5
522
100
AcDbEntity
  8
RUNDUNGEN
100
AcDbCircle
 62
7
  6
CONTINUOUS
 10
394.5289542729
 20
344.2744698873
 40
42.0
100
AcDbArc
 50
298.0
 51
360.0
  0
ARC
  5
523
100
AcDbEntity
  8
BEZUGSACHSEN
100
AcDbCircle
 62
7
  6
CONTINUOUS
 10
388.5289542729
 20
344.2744698873
 40
42.0
100
AcDbArc
 50
180.0
 51
242.0
  0
ARC
  5
524
100
AcDbEntity
  8
_30_VOLUMEN
100
AcDbCircle
 62
7
  6
CONTINUOUS
 10
391.5289542729
 20
338.8234632984
 40
11.25
100
AcDbArc
 50
180.0
 51
360.0
  0
ARC
  5
525
100
AcDbEntity
  8
_30_VOLUMEN
100
AcDbCircle
 62
7
  6
CONTINUOUS
 10
385.0289542729
 20
394.5734632984
 40
10.0
100
AcDbArc
 50
206.7436839504
 51
241.6406499718
  0
ARC
  5
526
100
AcDbEntity
  8
BEZUGSACHSEN
100
AcDbCircle
 62
7
  6
CONTINUOUS
 10
349.5289542729
 20
387.0734632984
 40
3.0
100
AcDbArc
 50
90.0
 51
180.0
  0
ARC
  5
527
100
AcDbEntity
  8
RUNDUNGEN
100
AcDbCircle
 62
7
  6
CONTINUOUS
 10
417.0289542729
 20
265.0426283561
 40
12.0
100
AcDbArc
 50
180.0
 51
235.037952471
  0
ARC
  5
528
100
AcDbEntity
  8
RUNDUNGEN
100
AcDbCircle
 62
7
  6
CONTINUOUS
 10
426.5289542729
 20
256.0552754658
 40
12.0
100
AcDbArc
 50
180.0
 51
218.1388128483
  0
ARC
  5
529
100
AcDbEntity
  8
RUNDUNGEN
100
AcDbCircle
 62
7
  6
CONTINUOUS
 10
408.5289542729
 20
270.5734632984
 40
6.0
100
AcDbArc
 50
0.0
 51
87.1340160174
  0
ARC
  5
52A
100
AcDbEntity
  8
RUNDUNGEN
100
AcDbCircle
 62
7
  6
CONTINUOUS
 10
409.0289542729
 20
280.5609554762
 40
4.0
100
AcDbArc
 50
209.0446947714
 51
267.1340160174
  0
ARC
  5
52B
100
AcDbEntity
  8
_30_VOLUMEN
100
AcDbCircle
 62
7
  6
CONTINUOUS
 10
549.8926372689
 20
361.5985455719
 40
174.7505447627
100
AcDbArc
 50
179.0245611855
 51
180.0082237707
  0
ARC
  5
52C
100
AcDbEntity
  8
_30_VOLUMEN
100
AcDbCircle
 62
7
  6
CONTINUOUS
 10
398.0289542729
 20
394.5734632984
 40
10.0
100
AcDbArc
 50
298.3593500282
 51
333.2563160496
  0
ARC
  5
52D
100
AcDbEntity
  8
RUNDUNGEN
100
AcDbCircle
 62
7
  6
CONTINUOUS
 10
433.5289542729
 20
387.0734632984
 40
3.0
100
AcDbArc
 50
0.0
 51
90.0
  0
ARC
  5
52E
100
AcDbEntity
  8
_30_VOLUMEN
100
AcDbCircle
 62
7
  6
CONTINUOUS
 10
171.2728635682
 20
108.8227136432
 40
10.0
100
AcDbArc
 50
28.3593500282
 51
81.3730734413
  0
ARC
  5
52F
100
AcDbEntity
  8
_30_VOLUMEN
100
AcDbCircle
 62
7
  6
CONTINUOUS
 10
231.2728635682
 20
108.8227136432
 40
10.0
100
AcDbArc
 50
98.6269265587
 51
151.6406499718
  0
ARC
  5
530
100
AcDbEntity
  8
_30_VOLUMEN
100
AcDbCircle
 62
7
  6
CONTINUOUS
 10
171.2728635682
 20
95.8227136432
 40
10.0
100
AcDbArc
 50
278.6269265587
 51
331.6406499718
  0
ARC
  5
531
100
AcDbEntity
  8
_30_VOLUMEN
100
AcDbCircle
 62
7
  6
CONTINUOUS
 10
231.2728635682
 20
95.8227136432
 40
10.0
100
AcDbArc
 50
208.3593500282
 51
261.3730734413
  0
ARC
  5
532
100
AcDbEntity
  8
RUNDUNGEN
100
AcDbCircle
 62
7
  6
CONTINUOUS
 10
238.7728635682
 20
79.8227153756
 40
8.9999987007
100
AcDbArc
 50
90.0
 51
180.0000110287
  0
ARC
  5
533
100
AcDbEntity
  8
BEZUGSACHSEN
100
AcDbCircle
 62
7
  6
CONTINUOUS
 10
238.7728635682
 20
124.8227119108
 40
8.9999987007
100
AcDbArc
 50
179.9999889713
 51
270.0
  0
ARC
  5
534
100
AcDbEntity
  8
RUNDUNGEN
100
AcDbCircle
 62
7
  6
CONTINUOUS
 10
163.7728660264
 20
79.8227136432
 40
8.9999981564
100
AcDbArc
 50
0.0
 51
90.0
  0
ARC
  5
535
100
AcDbEntity
  8
BEZUGSACHSEN
100
AcDbCircle
 62
7
  6
CONTINUOUS
 10
163.7728660264
 20
124.8227136432
 40
8.9999981564
100
AcDbArc
 50
269.9999843506
 51
360.0
  0
ARC
  5
536
100
AcDbEntity
  8
_30_VOLUMEN
100
AcDbCircle
 62
7
  6
CONTINUOUS
 10
260.7586959758
 20
91.8249844521
 40
3.0020990559
100
AcDbArc
 50
269.9366996046
 51
359.9566587257
  0
ARC
  5
537
100
AcDbEntity
  8
_30_VOLUMEN
100
AcDbCircle
 62
7
  6
CONTINUOUS
 10
260.7586959779
 20
112.8204428402
 40
3.0020990521
100
AcDbArc
 50
0.0433411608
 51
90.0633004372
  0
ARC
  5
538
100
AcDbEntity
  8
RUNDUNGEN
100
AcDbCircle
 62
7
  6
CONTINUOUS
 10
153.7728635682
 20
72.8227136432
 40
3.0
100
AcDbArc
 50
180.0
 51
270.0
  0
ARC
  5
539
100
AcDbEntity
  8
RUNDUNGEN
100
AcDbCircle
 62
7
  6
CONTINUOUS
 10
153.7728635682
 20
131.8227136432
 40
3.0
100
AcDbArc
 50
90.0
 51
180.0
  0
ARC
  5
53A
100
AcDbEntity
  8
RUNDUNGEN
100
AcDbCircle
 62
7
  6
CONTINUOUS
 10
153.7728635682
 20
91.8227136432
 40
3.0
100
AcDbArc
 50
180.0
 51
270.0
  0
ARC
  5
53B
100
AcDbEntity
  8
RUNDUNGEN
100
AcDbCircle
 62
7
  6
CONTINUOUS
 10
226.7728635682
 20
60.3227136432
 40
3.0
100
AcDbArc
 50
270.0
 51
360.0
  0
ARC
  5
53C
100
AcDbEntity
  8
RUNDUNGEN
100
AcDbCircle
 62
7
  6
CONTINUOUS
 10
175.7728635682
 20
60.3227136432
 40
3.0
100
AcDbArc
 50
180.0
 51
270.0
  0
ARC
  5
53D
100
AcDbEntity
  8
BEZUGSACHSEN
100
AcDbCircle
 62
7
  6
CONTINUOUS
 10
153.7728635682
 20
112.8227136432
 40
3.0
100
AcDbArc
 50
90.0
 51
180.0
  0
ARC
  5
53E
100
AcDbEntity
  8
BEZUGSACHSEN
100
AcDbCircle
 62
7
  6
CONTINUOUS
 10
226.7728635682
 20
144.3227136432
 40
3.0
100
AcDbArc
 50
0.0
 51
90.0
  0
ARC
  5
53F
100
AcDbEntity
  8
BEZUGSACHSEN
100
AcDbCircle
 62
7
  6
CONTINUOUS
 10
175.7728635682
 20
144.3227136432
 40
3.0
100
AcDbArc
 50
90.0
 51
180.0
  0
ARC
  5
540
100
AcDbEntity
  8
BEZUGSACHSEN
100
AcDbCircle
 62
7
  6
CONTINUOUS
 10
148.2728635682
 20
130.8227136432
 40
2.5
100
AcDbArc
 50
270.0
 51
360.0
  0
ARC
  5
541
100
AcDbEntity
  8
RUNDUNGEN
100
AcDbCircle
 62
7
  6
CONTINUOUS
 10
148.2728635682
 20
73.8227136432
 40
2.5
100
AcDbArc
 50
0.0
 51
90.0
  0
ARC
  5
542
100
AcDbEntity
  8
RUNDUNGEN
100
AcDbCircle
 62
7
  6
CONTINUOUS
 10
281.2728635682
 20
94.3730249505
 40
1.5
100
AcDbArc
 50
290.0
 51
360.0
  0
ARC
  5
543
100
AcDbEntity
  8
RUNDUNGEN
100
AcDbCircle
 62
7
  6
CONTINUOUS
 10
281.2728635682
 20
110.2724023359
 40
1.5
100
AcDbArc
 50
0.0
 51
70.0
  0
SPLINE
  5
544
100
AcDbEntity
  8
_30_VOLUMEN
100
AcDbSpline
 62
7
  6
CONTINUOUS
 70
0
 71
3
 72
15
 73
11
 74
0
 42
0.0000001
 43
0.0000001
 44
0.0000000001
 40
0.0
 40
0.0
 40
0.0
 40
0.0
 40
0.1248950101
 40
0.2498233278
 40
0.3747853444
 40
0.4997888374
 40
0.6248237575
 40
0.7498766405
 40
0.8749372405
 40
1.0
 40
1.0
 40
1.0
 40
1.0
 10
380.2789542729
 20
346.7011850914
 30
0.0
 10
379.7152574019
 20
347.085812863
 30
0.0
 10
378.6727736384
 20
347.9871028385
 30
0.0
 10
377.4266017472
 20
349.6275411275
 30
0.0
 10
376.499173217
 20
351.4649919392
 30
0.0
 10
375.8640161613
 20
353.4197315987
 30
0.0
 10
375.4703657997
 20
355.4348127262
 30
0.0
 10
375.2561526952
 20
357.4751070226
 30
0.0
 10
375.159556434
 20
359.5233838893
 30
0.0
 10
375.1420943062
 20
360.8901299317
 30
0.0
 10
375.1420943062
 20
361.5734632984
 30
0.0
  0
SPLINE
  5
545
100
AcDbEntity
  8
_30_VOLUMEN
100
AcDbSpline
 62
7
  6
CONTINUOUS
 70
0
 71
3
 72
15
 73
11
 74
0
 42
0.0000001
 43
0.0000001
 44
0.0000000001
 40
0.0
 40
0.0
 40
0.0
 40
0.0
 40
0.1250631597
 40
0.250124284
 40
0.3751779494
 40
0.5002133597
 40
0.6252170652
 40
0.7501787459
 40
0.8751062138
 40
1.0
 40
1.0
 40
1.0
 40
1.0
 10
407.9158142395
 20
361.5734632984
 30
0.0
 10
407.9158142395
 20
360.8901277424
 30
0.0
 10
407.898350352
 20
359.5233766609
 30
0.0
 10
407.8017535532
 20
357.4750904939
 30
0.0
 10
407.5875390184
 20
355.4347864505
 30
0.0
 10
407.1938850565
 20
353.4196975743
 30
0.0
 10
406.5587207116
 20
351.4649580727
 30
0.0
 10
405.6312898495
 20
349.6275145169
 30
0.0
 10
404.3851218486
 20
347.987089902
 30
0.0
 10
403.3426456219
 20
347.0858090953
 30
0.0
 10
402.7789542729
 20
346.7011850914
 30
0.0
  0
SPLINE
  5
546
100
AcDbEntity
  8
_30_VOLUMEN
100
AcDbSpline
 62
7
  6
CONTINUOUS
 70
0
 71
3
 72
26
 73
22
 74
0
 42
0.0000001
 43
0.0000001
 44
0.0000000001
 40
0.0
 40
0.0
 40
0.0
 40
0.0
 40
0.2003871401
 40
0.3901396456
 40
0.5629285206
 40
0.6411318286
 40
0.7129856229
 40
0.7778876453
 40
0.8352927722
 40
0.8847172475
 40
0.9257424647
 40
0.9429939276
 40
0.9580200958
 40
0.9707901225
 40
0.9812751194
 40
0.9894540392
 40
0.9953086248
 40
0.9973599397
 40
0.9988261242
 40
0.9997064029
 40
1.0
 40
1.0
 40
1.0
 40
1.0
 10
375.1674165382
 20
364.5734632984
 30
0.0
 10
375.1977528486
 20
366.2777370739
 30
0.0
 10
375.2672711217
 20
369.5956639732
 30
0.0
 10
375.3996658767
 20
374.3822805882
 30
0.0
 10
375.5289966467
 20
378.1291679513
 30
0.0
 10
375.6380865589
 20
380.8732142107
 30
0.0
 10
375.7167176338
 20
382.7000230167
 30
0.0
 10
375.7929064716
 20
384.3498486517
 30
0.0
 10
375.8645617703
 20
385.80888715
 30
0.0
 10
375.9295935383
 20
387.064889474
 30
0.0
 10
375.9790984199
 20
387.97970252
 30
0.0
 10
376.0137528833
 20
388.602242494
 30
0.0
 10
376.0353904244
 20
388.9848860506
 30
0.0
 10
376.0539940526
 20
389.3097831974
 30
0.0
 10
376.0695357894
 20
389.5772736752
 30
0.0
 10
376.0815056457
 20
389.7840554335
 30
0.0
 10
376.0899681022
 20
389.9235982906
 30
0.0
 10
376.0940985841
 20
389.9992001415
 30
0.0
 10
376.0972434869
 20
390.0430939935
 30
0.0
 10
376.0969193616
 20
390.0539352531
 30
0.0
 10
376.0992241815
 20
390.0758981558
 30
0.0
 10
376.0986687231
 20
390.0734632984
 30
0.0
  0
SPLINE
  5
547
100
AcDbEntity
  8
_30_VOLUMEN
100
AcDbSpline
 62
7
  6
CONTINUOUS
 70
0
 71
3
 72
26
 73
22
 74
0
 42
0.0000001
 43
0.0000001
 44
0.0000000001
 40
0.0
 40
0.0
 40
0.0
 40
0.0
 40
0.0002935971
 40
0.0011738758
 40
0.0026400603
 40
0.0046913752
 40
0.0105459608
 40
0.0187248806
 40
0.0292098775
 40
0.0419799042
 40
0.0570060724
 40
0.0742575353
 40
0.1152827525
 40
0.1647072278
 40
0.2221123547
 40
0.2870143771
 40
0.3588681714
 40
0.4370714794
 40
0.6098603544
 40
0.7996128599
 40
1.0
 40
1.0
 40
1.0
 40
1.0
 10
406.9592398226
 20
390.0734632984
 30
0.0
 10
406.9586843637
 20
390.0758981557
 30
0.0
 10
406.960989185
 20
390.0539352533
 30
0.0
 10
406.9606650583
 20
390.0430939934
 30
0.0
 10
406.9638099619
 20
389.9992001415
 30
0.0
 10
406.9679404433
 20
389.9235982905
 30
0.0
 10
406.9764029001
 20
389.7840554335
 30
0.0
 10
406.9883727563
 20
389.5772736751
 30
0.0
 10
407.0039144932
 20
389.3097831974
 30
0.0
 10
407.0225181213
 20
388.9848860506
 30
0.0
 10
407.0441556624
 20
388.602242494
 30
0.0
 10
407.0788101258
 20
387.97970252
 30
0.0
 10
407.1283150074
 20
387.064889474
 30
0.0
 10
407.1933467754
 20
385.80888715
 30
0.0
 10
407.2650020741
 20
384.3498486517
 30
0.0
 10
407.3411909119
 20
382.7000230167
 30
0.0
 10
407.4198219868
 20
380.8732142107
 30
0.0
 10
407.528911899
 20
378.1291679513
 30
0.0
 10
407.658242669
 20
374.3822805882
 30
0.0
 10
407.790637424
 20
369.5956639732
 30
0.0
 10
407.8601556971
 20
366.2777370739
 30
0.0
 10
407.8904920075
 20
364.5734632984
 30
0.0
  0
SPLINE
  5
548
100
AcDbEntity
  8
_30_VOLUMEN
100
AcDbSpline
 62
7
  6
CONTINUOUS
 70
0
 71
3
 72
29
 73
25
 74
0
 42
0.0000001
 43
0.0000001
 44
0.0000000001
 40
0.0
 40
0.0
 40
0.0
 40
0.0
 40
0.0069868638
 40
0.018094046
 40
0.0332326793
 40
0.052277724
 40
0.075069604
 40
0.1014175754
 40
0.1638704142
 40
0.2375499195
 40
0.3200000467
 40
0.4084687788
 40
0.4999999652
 40
0.5915311591
 40
0.6799999008
 40
0.7624500435
 40
0.8361295579
 40
0.8985824074
 40
0.9249303849
 40
0.9477222673
 40
0.9667673141
 40
0.9819059501
 40
0.9930131348
 40
1.0
 40
1.0
 40
1.0
 40
1.0
 10
172.9311981267
 20
118.6842513778
 30
0.0
 10
173.061489527
 20
118.6623413332
 30
0.0
 10
173.4018239177
 20
118.6244264385
 30
0.0
 10
174.0276331705
 20
118.5684108182
 30
0.0
 10
174.8818756915
 20
118.5058386977
 30
0.0
 10
175.9570287055
 20
118.4365315448
 30
0.0
 10
177.244290116
 20
118.3625402396
 30
0.0
 10
179.3516583268
 20
118.2530824147
 30
0.0
 10
182.4211884975
 20
118.1172120539
 30
0.0
 10
186.5520253593
 20
117.9710690844
 30
0.0
 10
191.1758614684
 20
117.8507710515
 30
0.0
 10
196.1382150367
 20
117.7713958351
 30
0.0
 10
201.2728617365
 20
117.7436443883
 30
0.0
 10
206.407508617
 20
117.7713957827
 30
0.0
 10
211.3698628028
 20
117.8507710015
 30
0.0
 10
215.9936995586
 20
117.9710690081
 30
0.0
 10
220.1245370868
 20
118.1172119947
 30
0.0
 10
223.1940677477
 20
118.2530823605
 30
0.0
 10
225.3014363215
 20
118.3625402017
 30
0.0
 10
226.5886979338
 20
118.4365315152
 30
0.0
 10
227.6638510831
 20
118.5058386739
 30
0.0
 10
228.5180937424
 20
118.5684107971
 30
0.0
 10
229.1439031188
 20
118.62442643
 30
0.0
 10
229.4842375838
 20
118.6623413289
 30
0.0
 10
229.6145290098
 20
118.6842513778
 30
0.0
  0
SPLINE
  5
549
100
AcDbEntity
  8
_30_VOLUMEN
100
AcDbSpline
 62
7
  6
CONTINUOUS
 70
0
 71
3
 72
29
 73
25
 74
0
 42
0.0000001
 43
0.0000001
 44
0.0000000001
 40
0.0
 40
0.0
 40
0.0
 40
0.0
 40
0.0069868652
 40
0.0180940499
 40
0.0332326859
 40
0.0522777327
 40
0.0750696151
 40
0.1014175926
 40
0.1638704421
 40
0.2375499565
 40
0.3200000992
 40
0.4084688409
 40
0.5000000348
 40
0.5915312212
 40
0.6799999533
 40
0.7624500805
 40
0.8361295858
 40
0.8985824246
 40
0.924930396
 40
0.947722276
 40
0.9667673207
 40
0.981905954
 40
0.9930131362
 40
1.0
 40
1.0
 40
1.0
 40
1.0
 10
229.6145290098
 20
85.9611759085
 30
0.0
 10
229.4842375838
 20
85.9830859575
 30
0.0
 10
229.1439031188
 20
86.0210008564
 30
0.0
 10
228.5180937424
 20
86.0770164892
 30
0.0
 10
227.6638510831
 20
86.1395886124
 30
0.0
 10
226.5886979338
 20
86.2088957711
 30
0.0
 10
225.3014363215
 20
86.2828870846
 30
0.0
 10
223.1940677477
 20
86.3923449258
 30
0.0
 10
220.1245370868
 20
86.5282152917
 30
0.0
 10
215.9936995586
 20
86.6743582782
 30
0.0
 10
211.3698628028
 20
86.7946562849
 30
0.0
 10
206.407508617
 20
86.8740315037
 30
0.0
 10
201.2728617365
 20
86.9017828981
 30
0.0
 10
196.1382150367
 20
86.8740314512
 30
0.0
 10
191.1758614684
 20
86.7946562349
 30
0.0
 10
186.5520253593
 20
86.674358202
 30
0.0
 10
182.4211884975
 20
86.5282152324
 30
0.0
 10
179.3516583268
 20
86.3923448716
 30
0.0
 10
177.244290116
 20
86.2828870468
 30
0.0
 10
175.9570287055
 20
86.2088957416
 30
0.0
 10
174.8818756915
 20
86.1395885887
 30
0.0
 10
174.0276331705
 20
86.0770164682
 30
0.0
 10
173.4018239177
 20
86.0210008478
 30
0.0
 10
173.061489527
 20
85.9830859531
 30
0.0
 10
172.9311981267
 20
85.9611759085
 30
0.0
  0
SPLINE
  5
54A
100
AcDbEntity
  8
BEZUGSACHSEN
100
AcDbSpline
 62
7
  6
CONTINUOUS
 70
0
 71
3
 72
9
 73
5
 74
0
 42
0.0000001
 43
0.0000001
 44
0.0000000001
 40
0.0
 40
0.0
 40
0.0
 40
0.0
 40
0.2667367954
 40
1.0
 40
1.0
 40
1.0
 40
1.0
 10
257.8294617487
 20
134.8227134251
 30
0.0
 10
257.8503190953
 20
134.8239767877
 30
0.0
 10
257.6728526816
 20
134.8190843875
 30
0.0
 10
257.651905241
 20
134.8204161504
 30
0.0
 10
257.594464925
 20
134.8199477519
 30
0.0
  0
SPLINE
  5
54B
100
AcDbEntity
  8
_30_VOLUMEN
100
AcDbSpline
 62
7
  6
CONTINUOUS
 70
0
 71
3
 72
17
 73
13
 74
0
 42
0.0000001
 43
0.0000001
 44
0.0000000001
 40
0.0
 40
0.0
 40
0.0
 40
0.0
 40
0.0521069543
 40
0.1083258729
 40
0.2308468054
 40
0.3629717166
 40
0.5000002555
 40
0.6370286724
 40
0.7691534039
 40
0.8916742153
 40
0.9478930643
 40
1.0
 40
1.0
 40
1.0
 40
1.0
 10
229.7728635682
 20
110.0830869205
 30
0.0
 10
229.7728635682
 20
109.8127021527
 30
0.0
 10
229.7952941391
 20
109.2506085565
 30
0.0
 10
229.8967996048
 20
108.0569152651
 30
0.0
 10
230.0841231564
 20
106.4546569342
 30
0.0
 10
230.2752059124
 20
104.4307503337
 30
0.0
 10
230.3510790512
 20
102.322710294
 30
0.0
 10
230.275205989
 20
100.2146711648
 30
0.0
 10
230.0841224662
 20
98.190766841
 30
0.0
 10
229.8967995712
 20
96.5885103776
 30
0.0
 10
229.7952940765
 20
95.3948181787
 30
0.0
 10
229.7728635682
 20
94.8327250375
 30
0.0
 10
229.7728635682
 20
94.5623403659
 30
0.0
  0
SPLINE
  5
54C
100
AcDbEntity
  8
_30_VOLUMEN
100
AcDbSpline
 62
7
  6
CONTINUOUS
 70
0
 71
3
 72
17
 73
13
 74
0
 42
0.0000001
 43
0.0000001
 44
0.0000000001
 40
0.0
 40
0.0
 40
0.0
 40
0.0
 40
0.0521069357
 40
0.1083257845
 40
0.2308465958
 40
0.3629713268
 40
0.4999997376
 40
0.6370282829
 40
0.7691531947
 40
0.8916741271
 40
0.9478930457
 40
1.0
 40
1.0
 40
1.0
 40
1.0
 10
172.7728635682
 20
94.5623403659
 30
0.0
 10
172.7728635682
 20
94.8327250372
 30
0.0
 10
172.7504330601
 20
95.3948181775
 30
0.0
 10
172.6489275653
 20
96.5885103753
 30
0.0
 10
172.4616046711
 20
98.190766835
 30
0.0
 10
172.2705211512
 20
100.2146711236
 30
0.0
 10
172.1946480855
 20
102.322710251
 30
0.0
 10
172.2705212203
 20
104.4307502953
 30
0.0
 10
172.4616039797
 20
106.4546569316
 30
0.0
 10
172.6489275317
 20
108.0569152651
 30
0.0
 10
172.7504329973
 20
109.2506085563
 30
0.0
 10
172.7728635682
 20
109.8127021527
 30
0.0
 10
172.7728635682
 20
110.0830869205
 30
0.0
  0
SPLINE
  5
54D
100
AcDbEntity
  8
0
100
AcDbSpline
 62
7
  6
CONTINUOUS
 70
0
 71
3
 72
14
 73
10
 74
0
 42
0.0000001
 43
0.0000001
 44
0.0000000001
 40
0.0
 40
0.0
 40
0.0
 40
0.0
 40
0.0313411022
 40
0.1004938089
 40
0.2070009579
 40
0.344556349
 40
0.5040556046
 40
0.6744765311
 40
1.0
 40
1.0
 40
1.0
 40
1.0
 10
250.2728635682
 20
69.5836093516
 30
0.0
 10
250.2728635682
 20
69.5917233296
 30
0.0
 10
250.3017733249
 20
69.6074756492
 30
0.0
 10
250.3491111006
 20
69.6193006344
 30
0.0
 10
250.4314959066
 20
69.6335337699
 30
0.0
 10
250.534601471
 20
69.6434759312
 30
0.0
 10
250.6557923047
 20
69.6501822728
 30
0.0
 10
250.8253649513
 20
69.6526325023
 30
0.0
 10
250.9539122253
 20
69.6478898479
 30
0.0
 10
251.0378630382
 20
69.6404980898
 30
0.0
  0
SPLINE
  5
54E
100
AcDbEntity
  8
0
100
AcDbSpline
 62
7
  6
CONTINUOUS
 70
0
 71
3
 72
14
 73
10
 74
0
 42
0.0000001
 43
0.0000001
 44
0.0000000001
 40
0.0
 40
0.0
 40
0.0
 40
0.0
 40
0.3806749905
 40
0.5525959709
 40
0.7033490134
 40
0.8271578027
 40
0.9194441064
 40
0.9770925379
 40
1.0
 40
1.0
 40
1.0
 40
1.0
 10
249.7728635682
 20
69.3660894018
 30
0.0
 10
249.8367035602
 20
69.3660894018
 30
0.0
 10
249.9294405398
 20
69.3669485337
 30
0.0
 10
250.0472071696
 20
69.3702160587
 30
0.0
 10
250.1223580034
 20
69.3735070127
 30
0.0
 10
250.1828003446
 20
69.3775367199
 30
0.0
 10
250.230764266
 20
69.3823742057
 30
0.0
 10
250.2550920277
 20
69.3871000375
 30
0.0
 10
250.2728635682
 20
69.3919710928
 30
0.0
 10
250.2728635682
 20
69.3958127221
 30
0.0
  0
SPLINE
  5
54F
100
AcDbEntity
  8
0
100
AcDbSpline
 62
7
  6
CONTINUOUS
 70
0
 71
3
 72
16
 73
12
 74
0
 42
0.0000001
 43
0.0000001
 44
0.0000000001
 40
0.0
 40
0.0
 40
0.0
 40
0.0
 40
0.0060167273
 40
0.0208402349
 40
0.04490065
 40
0.0780781841
 40
0.1704692642
 40
0.2946133954
 40
0.4458135424
 40
0.6182390344
 40
1.0
 40
1.0
 40
1.0
 40
1.0
 10
238.2728635682
 20
69.3440897354
 30
0.0
 10
238.2728635682
 20
69.3450954463
 30
0.0
 10
238.2772475065
 20
69.346610104
 30
0.0
 10
238.2835992287
 20
69.3481337489
 30
0.0
 10
238.2960451641
 20
69.3499905961
 30
0.0
 10
238.3205923436
 20
69.3527285187
 30
0.0
 10
238.3624479148
 20
69.3559048823
 30
0.0
 10
238.4237227445
 20
69.3592344194
 30
0.0
 10
238.4985534516
 20
69.3621220333
 30
0.0
 10
238.6164061413
 20
69.3652053044
 30
0.0
 10
238.709051276
 20
69.3660894018
 30
0.0
 10
238.7728635682
 20
69.3660894018
 30
0.0
  0
SPLINE
  5
550
100
AcDbEntity
  8
0
100
AcDbSpline
 62
7
  6
CONTINUOUS
 70
0
 71
3
 72
16
 73
12
 74
0
 42
0.0000001
 43
0.0000001
 44
0.0000000001
 40
0.0
 40
0.0
 40
0.0
 40
0.0
 40
0.4157529294
 40
0.5883704839
 40
0.7333565133
 40
0.8485661767
 40
0.9322190947
 40
0.9618045604
 40
0.9830195314
 40
0.9957548973
 40
1.0
 40
1.0
 40
1.0
 40
1.0
 10
257.594464925
 20
69.3256368151
 30
0.0
 10
257.6270329246
 20
69.325363798
 30
0.0
 10
257.6731294847
 20
69.3249116893
 30
0.0
 10
257.7305584504
 20
69.3241957993
 30
0.0
 10
257.764496355
 20
69.3237717231
 30
0.0
 10
257.7913358775
 20
69.3232888234
 30
0.0
 10
257.8094285787
 20
69.3231981551
 30
0.0
 10
257.8196893365
 20
69.322767088
 30
0.0
 10
257.8251144364
 20
69.3231057097
 30
0.0
 10
257.8273126371
 20
69.3222986985
 30
0.0
 10
257.8294643657
 20
69.3230488898
 30
0.0
 10
257.8294592067
 20
69.3227163781
 30
0.0
  0
SPLINE
  5
551
100
AcDbEntity
  8
BEZUGSACHSEN
100
AcDbSpline
 62
7
  6
CONTINUOUS
 70
0
 71
3
 72
16
 73
12
 74
0
 42
0.0000001
 43
0.0000001
 44
0.0000000001
 40
0.0
 40
0.0
 40
0.0
 40
0.0
 40
0.3817815246
 40
0.5542109762
 40
0.7054191405
 40
0.8295670244
 40
0.9219570778
 40
0.9551318932
 40
0.9791879484
 40
0.9940039841
 40
1.0
 40
1.0
 40
1.0
 40
1.0
 10
238.7728635682
 20
134.7799504668
 30
0.0
 10
238.709051088
 20
134.7799504668
 30
0.0
 10
238.6164065608
 20
134.7808282523
 30
0.0
 10
238.4985540769
 20
134.7838891922
 30
0.0
 10
238.4237232839
 20
134.7867545916
 30
0.0
 10
238.3624497184
 20
134.7900586895
 30
0.0
 10
238.3205915538
 20
134.7932067249
 30
0.0
 10
238.2960484036
 20
134.7959231096
 30
0.0
 10
238.2835964297
 20
134.7977585921
 30
0.0
 10
238.2772591412
 20
134.7992752886
 30
0.0
 10
238.2728635682
 20
134.800764524
 30
0.0
 10
238.2728635682
 20
134.8017667219
 30
0.0
  0
SPLINE
  5
552
100
AcDbEntity
  8
BEZUGSACHSEN
100
AcDbSpline
 62
7
  6
CONTINUOUS
 70
0
 71
3
 72
14
 73
10
 74
0
 42
0.0000001
 43
0.0000001
 44
0.0000000001
 40
0.0
 40
0.0
 40
0.0
 40
0.0
 40
0.0228708296
 40
0.0805092504
 40
0.172794702
 40
0.2966088222
 40
0.4473720949
 40
0.6192994393
 40
1.0
 40
1.0
 40
1.0
 40
1.0
 10
250.2728635682
 20
134.7504109952
 30
0.0
 10
250.2728635682
 20
134.7542462218
 30
0.0
 10
250.2550687492
 20
134.7590627543
 30
0.0
 10
250.2307708161
 20
134.7637807041
 30
0.0
 10
250.1827941969
 20
134.7685765455
 30
0.0
 10
250.1223577764
 20
134.772585008
 30
0.0
 10
250.0472053031
 20
134.7758521399
 30
0.0
 10
249.9294398879
 20
134.7790978974
 30
0.0
 10
249.8367035308
 20
134.7799504668
 30
0.0
 10
249.7728635682
 20
134.7799504668
 30
0.0
  0
SPLINE
  5
553
100
AcDbEntity
  8
BEZUGSACHSEN
100
AcDbSpline
 62
7
  6
CONTINUOUS
 70
0
 71
3
 72
14
 73
10
 74
0
 42
0.0000001
 43
0.0000001
 44
0.0000000001
 40
0.0
 40
0.0
 40
0.0
 40
0.0
 40
0.3254898868
 40
0.495944249
 40
0.6554874184
 40
0.7930772836
 40
0.8995874577
 40
0.9687100403
 40
1.0
 40
1.0
 40
1.0
 40
1.0
 10
251.0378630382
 20
134.5066015918
 30
0.0
 10
250.9539256389
 20
134.4992307752
 30
0.0
 10
250.8253887779
 20
134.4944998984
 30
0.0
 10
250.6558184768
 20
134.4969422618
 30
0.0
 10
250.5346054779
 20
134.5036320504
 30
0.0
 10
250.4314898964
 20
134.5135488826
 30
0.0
 10
250.3490909339
 20
134.5277428472
 30
0.0
 10
250.3017915877
 20
134.5395363222
 30
0.0
 10
250.2728635682
 20
134.5552309382
 30
0.0
 10
250.2728635682
 20
134.5633310507
 30
0.0
  0
SPLINE
  5
554
100
AcDbEntity
  8
0
100
AcDbSpline
 62
7
  6
CONTINUOUS
 70
0
 71
3
 72
14
 73
10
 74
0
 42
0.0000001
 43
0.0000001
 44
0.0000000001
 40
0.0
 40
0.0
 40
0.0
 40
0.0
 40
0.3254898868
 40
0.495944249
 40
0.6554874184
 40
0.7930772836
 40
0.8995874577
 40
0.9687100403
 40
1.0
 40
1.0
 40
1.0
 40
1.0
 10
251.0378630382
 20
70.1388256946
 30
0.0
 10
250.9539256389
 20
70.1461965111
 30
0.0
 10
250.8253887779
 20
70.150927388
 30
0.0
 10
250.6558184768
 20
70.1484850246
 30
0.0
 10
250.5346054779
 20
70.1417952359
 30
0.0
 10
250.4314898964
 20
70.1318784038
 30
0.0
 10
250.3490909339
 20
70.1176844391
 30
0.0
 10
250.3017915877
 20
70.1058909642
 30
0.0
 10
250.2728635682
 20
70.0901963481
 30
0.0
 10
250.2728635682
 20
70.0820962356
 30
0.0
  0
SPLINE
  5
555
100
AcDbEntity
  8
0
100
AcDbSpline
 62
7
  6
CONTINUOUS
 70
0
 71
3
 72
14
 73
10
 74
0
 42
0.0000001
 43
0.0000001
 44
0.0000000001
 40
0.0
 40
0.0
 40
0.0
 40
0.0
 40
0.0228708296
 40
0.0805092504
 40
0.172794702
 40
0.2966088222
 40
0.4473720949
 40
0.6192994393
 40
1.0
 40
1.0
 40
1.0
 40
1.0
 10
250.2728635682
 20
69.8950162911
 30
0.0
 10
250.2728635682
 20
69.8911810646
 30
0.0
 10
250.2550687492
 20
69.8863645321
 30
0.0
 10
250.2307708161
 20
69.8816465823
 30
0.0
 10
250.1827941969
 20
69.8768507409
 30
0.0
 10
250.1223577764
 20
69.8728422783
 30
0.0
 10
250.0472053031
 20
69.8695751465
 30
0.0
 10
249.9294398879
 20
69.866329389
 30
0.0
 10
249.8367035308
 20
69.8654768196
 30
0.0
 10
249.7728635682
 20
69.8654768196
 30
0.0
  0
SPLINE
  5
556
100
AcDbEntity
  8
0
100
AcDbSpline
 62
7
  6
CONTINUOUS
 70
0
 71
3
 72
16
 73
12
 74
0
 42
0.0000001
 43
0.0000001
 44
0.0000000001
 40
0.0
 40
0.0
 40
0.0
 40
0.0
 40
0.3817815246
 40
0.5542109762
 40
0.7054191405
 40
0.8295670244
 40
0.9219570778
 40
0.9551318932
 40
0.9791879484
 40
0.9940039841
 40
1.0
 40
1.0
 40
1.0
 40
1.0
 10
238.7728635682
 20
69.8654768196
 30
0.0
 10
238.709051088
 20
69.8654768196
 30
0.0
 10
238.6164065608
 20
69.864599034
 30
0.0
 10
238.4985540769
 20
69.8615380941
 30
0.0
 10
238.4237232839
 20
69.8586726948
 30
0.0
 10
238.3624497184
 20
69.8553685969
 30
0.0
 10
238.3205915538
 20
69.8522205614
 30
0.0
 10
238.2960484036
 20
69.8495041767
 30
0.0
 10
238.2835964297
 20
69.8476686942
 30
0.0
 10
238.2772591412
 20
69.8461519978
 30
0.0
 10
238.2728635682
 20
69.8446627624
 30
0.0
 10
238.2728635682
 20
69.8436605645
 30
0.0
  0
SPLINE
  5
557
100
AcDbEntity
  8
BEZUGSACHSEN
100
AcDbSpline
 62
7
  6
CONTINUOUS
 70
0
 71
3
 72
14
 73
10
 74
0
 42
0.0000001
 43
0.0000001
 44
0.0000000001
 40
0.0
 40
0.0
 40
0.0
 40
0.0
 40
0.0313411022
 40
0.1004938089
 40
0.2070009579
 40
0.344556349
 40
0.5040556046
 40
0.6744765311
 40
1.0
 40
1.0
 40
1.0
 40
1.0
 10
250.2728635682
 20
135.0618179348
 30
0.0
 10
250.2728635682
 20
135.0537039568
 30
0.0
 10
250.3017733249
 20
135.0379516371
 30
0.0
 10
250.3491111006
 20
135.026126652
 30
0.0
 10
250.4314959066
 20
135.0118935164
 30
0.0
 10
250.534601471
 20
135.0019513551
 30
0.0
 10
250.6557923047
 20
134.9952450136
 30
0.0
 10
250.8253649513
 20
134.992794784
 30
0.0
 10
250.9539122253
 20
134.9975374384
 30
0.0
 10
251.0378630382
 20
135.0049291966
 30
0.0
  0
SPLINE
  5
558
100
AcDbEntity
  8
BEZUGSACHSEN
100
AcDbSpline
 62
7
  6
CONTINUOUS
 70
0
 71
3
 72
14
 73
10
 74
0
 42
0.0000001
 43
0.0000001
 44
0.0000000001
 40
0.0
 40
0.0
 40
0.0
 40
0.0
 40
0.3806749905
 40
0.5525959709
 40
0.7033490134
 40
0.8271578027
 40
0.9194441064
 40
0.9770925379
 40
1.0
 40
1.0
 40
1.0
 40
1.0
 10
249.7728635682
 20
135.2793378845
 30
0.0
 10
249.8367035602
 20
135.2793378845
 30
0.0
 10
249.9294405398
 20
135.2784787526
 30
0.0
 10
250.0472071696
 20
135.2752112277
 30
0.0
 10
250.1223580034
 20
135.2719202736
 30
0.0
 10
250.1828003446
 20
135.2678905665
 30
0.0
 10
250.230764266
 20
135.2630530807
 30
0.0
 10
250.2550920277
 20
135.2583272489
 30
0.0
 10
250.2728635682
 20
135.2534561935
 30
0.0
 10
250.2728635682
 20
135.2496145643
 30
0.0
  0
SPLINE
  5
559
100
AcDbEntity
  8
BEZUGSACHSEN
100
AcDbSpline
 62
7
  6
CONTINUOUS
 70
0
 71
3
 72
16
 73
12
 74
0
 42
0.0000001
 43
0.0000001
 44
0.0000000001
 40
0.0
 40
0.0
 40
0.0
 40
0.0
 40
0.0060167273
 40
0.0208402349
 40
0.04490065
 40
0.0780781841
 40
0.1704692642
 40
0.2946133954
 40
0.4458135424
 40
0.6182390344
 40
1.0
 40
1.0
 40
1.0
 40
1.0
 10
238.2728635682
 20
135.301337551
 30
0.0
 10
238.2728635682
 20
135.3003318401
 30
0.0
 10
238.2772475065
 20
135.2988171824
 30
0.0
 10
238.2835992287
 20
135.2972935374
 30
0.0
 10
238.2960451641
 20
135.2954366903
 30
0.0
 10
238.3205923436
 20
135.2926987677
 30
0.0
 10
238.3624479148
 20
135.289522404
 30
0.0
 10
238.4237227445
 20
135.286192867
 30
0.0
 10
238.4985534516
 20
135.283305253
 30
0.0
 10
238.6164061413
 20
135.2802219819
 30
0.0
 10
238.709051276
 20
135.2793378845
 30
0.0
 10
238.7728635682
 20
135.2793378845
 30
0.0
  0
SPLINE
  5
55A
100
AcDbEntity
  8
BEZUGSACHSEN
100
AcDbSpline
 62
7
  6
CONTINUOUS
 70
0
 71
3
 72
16
 73
12
 74
0
 42
0.0000001
 43
0.0000001
 44
0.0000000001
 40
0.0
 40
0.0
 40
0.0
 40
0.0
 40
0.4157529294
 40
0.5883704839
 40
0.7333565133
 40
0.8485661767
 40
0.9322190947
 40
0.9618045604
 40
0.9830195314
 40
0.9957548973
 40
1.0
 40
1.0
 40
1.0
 40
1.0
 10
257.594464925
 20
135.3197904713
 30
0.0
 10
257.6270329246
 20
135.3200634883
 30
0.0
 10
257.6731294847
 20
135.320515597
 30
0.0
 10
257.7305584504
 20
135.3212314871
 30
0.0
 10
257.764496355
 20
135.3216555632
 30
0.0
 10
257.7913358775
 20
135.3221384629
 30
0.0
 10
257.8094285787
 20
135.3222291313
 30
0.0
 10
257.8196893365
 20
135.3226601984
 30
0.0
 10
257.8251144364
 20
135.3223215767
 30
0.0
 10
257.8273126371
 20
135.3231285879
 30
0.0
 10
257.8294643657
 20
135.3223783966
 30
0.0
 10
257.8294592067
 20
135.3227109083
 30
0.0
  0
SPLINE
  5
55B
100
AcDbEntity
  8
0
100
AcDbSpline
 62
7
  6
CONTINUOUS
 70
0
 71
3
 72
9
 73
5
 74
0
 42
0.0000001
 43
0.0000001
 44
0.0000000001
 40
0.0
 40
0.0
 40
0.0
 40
0.0
 40
0.2667367954
 40
1.0
 40
1.0
 40
1.0
 40
1.0
 10
257.8294617487
 20
69.8227138613
 30
0.0
 10
257.8503190949
 20
69.8214504924
 30
0.0
 10
257.6728526821
 20
69.8263429074
 30
0.0
 10
257.651905241
 20
69.825011136
 30
0.0
 10
257.594464925
 20
69.8254795344
 30
0.0
  0
ELLIPSE
  5
55C
100
AcDbEntity
  8
0
100
AcDbEllipse
 62
7
  6
CONTINUOUS
 10
258.2918829799
 20
101.8227136432
 30
0.0
 11
52.0
 21
0.0
 31
0.0
 40
0.625
 41
-1.7107531736
 42
-1.5842086146
  0
ELLIPSE
  5
55D
100
AcDbEntity
  8
BEZUGSACHSEN
100
AcDbEllipse
 62
7
  6
CONTINUOUS
 10
258.2728635682
 20
102.3227136432
 30
0.0
 11
52.0
 21
0.0
 31
0.0
 40
0.625
 41
1.5838428247
 42
1.7103838136
  0
ELLIPSE
  5
55E
100
AcDbEntity
  8
0
100
AcDbEllipse
 62
7
  6
CONTINUOUS
 10
258.2728635682
 20
102.3227136432
 30
0.0
 11
52.0
 21
0.0
 31
0.0
 40
0.625
 41
-1.7103838136
 42
-1.5838428247
  0
ELLIPSE
  5
55F
100
AcDbEntity
  8
BEZUGSACHSEN
100
AcDbEllipse
 62
7
  6
CONTINUOUS
 10
258.2918829799
 20
102.8227136432
 30
0.0
 11
52.0
 21
0.0
 31
0.0
 40
0.625
 41
1.5842086146
 42
1.7107531736
  0
ENDSEC
  0
SECTION
  2
OBJECTS
  0
DICTIONARY
  5
C
100
AcDbDictionary
280
0
281
1
  3
ACAD_GROUP
350
D
  3
ACAD_MLINESTYLE
350
17
  3
ACAD_LAYOUT
350
1A
  3
ACAD_PLOTSETTINGS
350
19
  3
ACAD_PLOTSTYLENAME
350
E
  0
DICTIONARY
  5
D
102
{ACAD_REACTORS
330
C
102
}
100
AcDbDictionary
280
0
281
1
  0
ACDBDICTIONARYWDFLT
  5
E
102
{ACAD_REACTORS
330
C
102
}
100
AcDbDictionary
281
1
  3
Normal
350
F
100
AcDbDictionaryWithDefault
340
F
  0
DICTIONARY
  5
17
102
{ACAD_REACTORS
330
C
102
}
100
AcDbDictionary
280
0
281
1
  3
Standard
350
18
  0
DICTIONARY
  5
19
102
{ACAD_REACTORS
330
C
102
}
100
AcDbDictionary
281
1
  0
DICTIONARY
  5
1A
102
{ACAD_REACTORS
330
C
102
}
100
AcDbDictionary
281
1
  3
Model
350
560
  3
Layout1
350
561
  0
ACDBPLACEHOLDER
  5
F
102
{ACAD_REACTORS
330
E
102
}
  0
MLINESTYLE
  5
18
102
{ACAD_REACTORS
330
17
102
}
100
AcDbMlineStyle
  2
STANDARD
 70
0
  3

 62
256
 51
90.0
 52
90.0
 71
2
 49
0.5
 62
256
  6
BYLAYER
 49
-0.5
 62
256
  6
BYLAYER
  0
LAYOUT
  5
560
102
{ACAD_REACTORS
330
1A
102
}
100
AcDbPlotSettings
  1

  2
none_device
  4
ISO_A2_(594.00_x_420.00_MM)
  6

 40
0.0
 41
0.0
 42
0.0
 43
0.0
 44
594.0
 45
420.0
 46
0.0
 47
0.0
 48
0.0
 49
0.0
140
0.0
141
0.0
142
1.0
143
1.0
 70
1024
 72
1
 73
0
 74
0
  7

 75
0
147
1.0
148
0.0
149
0.0
100
AcDbLayout
  1
Model
 70
0
 71
0
 10
0.0
 20
0.0
 11
594.0
 21
420.0
 12
0.0
 22
0.0
 32
0.0
 14
0.0
 24
0.0
 34
0.0
 15
0.0
 25
0.0
 35
0.0
146
0.0
 13
0.0
 23
0.0
 33
0.0
 16
1.0
 26
0.0
 36
0.0
 17
0.0
 27
1.0
 37
0.0
 76
0
330
217
345
0
346
0
  0
LAYOUT
  5
561
102
{ACAD_REACTORS
330
1A
102
}
100
AcDbPlotSettings
  1

  2
none_device
  4
ISO_A2_(594.00_x_420.00_MM)
  6

 40
0.0
 41
0.0
 42
0.0
 43
0.0
 44
594.0
 45
420.0
 46
0.0
 47
0.0
 48
0.0
 49
0.0
140
0.0
141
0.0
142
1.0
143
1.0
 70
0
 72
1
 73
0
 74
0
  7

 75
0
147
1.0
148
0.0
149
0.0
100
AcDbLayout
  1
Layout1
 70
0
 71
1
 10
0.0
 20
0.0
 11
594.0
 21
420.0
 12
0.0
 22
0.0
 32
0.0
 14
0.0
 24
0.0
 34
0.0
 15
0.0
 25
0.0
 35
0.0
146
0.0
 13
0.0
 23
0.0
 33
0.0
 16
1.0
 26
0.0
 36
0.0
 17
0.0
 27
1.0
 37
0.0
 76
0
330
218
345
0
346
0
  0
ENDSEC
  0
EOF
