999
DXF file: VIP-CCS-10_7912221_m36256-p-01.dxf
999
Pro/ENGINEER 2022162 by Parametric Technology Corporation
  0
SECTION
  2
HEADER
  9
$ACADVER
  1
AC1021
  9
$DWGCODEPAGE
  3
ANSI_1252
  9
$EXTMAX
 10
297.0
 20
210.0
 30
0.0
  9
$EXTMIN
 10
0.0
 20
0.0
 30
0.0
  9
$LIMMIN
 10
0.0
 20
0.0
  9
$LIMMAX
 10
297.0
 20
210.0
  9
$VIEWCTR
 10
148.5
 20
105.0
  9
$VIEWSIZE
 40
210.0
  9
$CLAYER
  8
0
  9
$LTSCALE
 40
16.335
  9
$CELTYPE
  6
BYLAYER
  9
$DIMSCALE
 40
1.0
  9
$DIMASZ
 40
3.5
  9
$DIMEXO
 40
0.0
  9
$DIMDLI
 40
11.286
  9
$DIMEXE
 40
1.5
  9
$DIMCEN
 40
2.673
  9
$DIMLFAC
 40
1.0
  9
$DIMBLK
  1
_FILLED
  9
$DIMALT
 70
0
  9
$DIMALTF
 40
0.0393700787
  9
$DIMTXT
 40
3.5
  9
$DIMTOL
 70
1
  9
$DIMLIM
 70
0
  9
$DIMTFAC
 40
1.0
  9
$DIMTP
 40
0.01
  9
$DIMTM
 40
0.01
  9
$DIMGAP
 40
0.625
  9
$DIMDSEP
 70
46
  9
$AUNITS
 70
0
  9
$PDMODE
 70
3
  9
$PDSIZE
 40
0.3125
  9
$HANDSEED
  5
4E6
  9
$TILEMODE
 70
1
  9
$MEASUREMENT
 70
1
  9
$INSUNITS
 70
4
  0
ENDSEC
  0
SECTION
  2
CLASSES
  0
CLASS
  1
ACDBDICTIONARYWDFLT
  2
AcDbDictionaryWithDefault
  3
AutoCAD 2000
 90
0
 91
1
280
0
281
0
  0
CLASS
  1
ACDBPLACEHOLDER
  2
AcDbPlaceHolder
  3
AutoCAD 2000
 90
0
 91
1
280
0
281
0
  0
CLASS
  1
LAYOUT
  2
AcDbLayout
  3
AutoCAD 2000
 90
0
 91
0
280
0
281
0
  0
ENDSEC
  0
SECTION
  2
TABLES
  0
TABLE
  2
VPORT
  5
8
100
AcDbSymbolTable
 70
2
  0
VPORT
  5
1F4
100
AcDbSymbolTableRecord
100
AcDbViewportTableRecord
  2
*ACTIVE
 70
0
 10
0.0
 20
0.0
 11
1.0
 21
1.0
 12
148.5
 22
105.0
 13
0.0
 23
0.0
 14
1.0
 24
1.0
 15
0.0
 25
0.0
 16
0.0
 26
0.0
 36
1.0
 17
0.0
 27
0.0
 37
0.0
 40
210.0
 41
1.4142857143
 42
50.0
 43
0.0
 44
0.0
 50
0.0
 51
0.0
 71
0
 72
100
 73
1
 74
1
 75
0
 76
0
 77
0
 78
0
  0
ENDTAB
  0
TABLE
  2
LTYPE
  5
5
100
AcDbSymbolTable
 70
6
  0
LTYPE
  5
14
100
AcDbSymbolTableRecord
100
AcDbLinetypeTableRecord
  2
BYBLOCK
 70
0
  3

 72
65
 73
0
 40
0.0
  0
LTYPE
  5
15
100
AcDbSymbolTableRecord
100
AcDbLinetypeTableRecord
  2
BYLAYER
 70
0
  3

 72
65
 73
0
 40
0.0
  0
LTYPE
  5
16
100
AcDbSymbolTableRecord
100
AcDbLinetypeTableRecord
  2
CONTINUOUS
 70
64
  3
Solid line
 72
65
 73
0
 40
0.0
  0
LTYPE
  5
1F5
100
AcDbSymbolTableRecord
100
AcDbLinetypeTableRecord
  2
CENTER
 70
64
  3
____ _ ____ _ ____ _ ____ _ ____ _ ____ _ ____
 72
65
 73
4
 40
0.6
 49
0.375
 74
0
 49
-0.075
 74
0
 49
0.075
 74
0
 49
-0.075
 74
0
  0
LTYPE
  5
1F6
100
AcDbSymbolTableRecord
100
AcDbLinetypeTableRecord
  2
HIDDEN
 70
64
  3
- - - - - - - - - - - - - - - - - - - -
 72
65
 73
2
 40
0.2
 49
0.1
 74
0
 49
-0.1
 74
0
  0
LTYPE
  5
1F7
100
AcDbSymbolTableRecord
100
AcDbLinetypeTableRecord
  2
PHANTOM
 70
64
  3
_____ _ _ _____ _ _ _____ _ _ _____
 72
65
 73
6
 40
0.8
 49
0.45
 74
0
 49
-0.05
 74
0
 49
0.1
 74
0
 49
-0.05
 74
0
 49
0.1
 74
0
 49
-0.05
 74
0
  0
LTYPE
  5
1F8
100
AcDbSymbolTableRecord
100
AcDbLinetypeTableRecord
  2
DOT
 70
64
  3
. . . . . . . . . . . . . . . . . . . .
 72
65
 73
2
 40
0.2
 49
0.1
 74
0
 49
-0.1
 74
0
  0
LTYPE
  5
1F9
100
AcDbSymbolTableRecord
100
AcDbLinetypeTableRecord
  2
DASHED
 70
64
  3
- - - - - - - - - - - - - - - - - - - -
 72
65
 73
2
 40
0.2
 49
0.1
 74
0
 49
-0.1
 74
0
  0
ENDTAB
  0
TABLE
  2
LAYER
  5
2
100
AcDbSymbolTable
 70
36
  0
LAYER
  5
10
100
AcDbSymbolTableRecord
100
AcDbLayerTableRecord
  2
0
 70
0
 62
7
  6
CONTINUOUS
370
-3
390
F
  0
LAYER
  5
1FA
100
AcDbSymbolTableRecord
100
AcDbLayerTableRecord
  2
DEFAULT_1
 70
0
 62
7
  6
CENTER
370
-3
390
F
  0
LAYER
  5
1FB
100
AcDbSymbolTableRecord
100
AcDbLayerTableRecord
  2
DEFAULT_2
 70
0
 62
8
  6
HIDDEN
370
-3
390
F
  0
LAYER
  5
1FC
100
AcDbSymbolTableRecord
100
AcDbLayerTableRecord
  2
DEFAULT_3
 70
0
 62
7
  6
PHANTOM
370
-3
390
F
  0
LAYER
  5
1FD
100
AcDbSymbolTableRecord
100
AcDbLayerTableRecord
  2
AUSFORMSCHRAEGEN
 70
0
 62
7
  6
CONTINUOUS
370
-3
390
F
  0
LAYER
  5
1FE
100
AcDbSymbolTableRecord
100
AcDbLayerTableRecord
  2
BEZUGSACHSEN
 70
0
 62
7
  6
CONTINUOUS
370
-3
390
F
  0
LAYER
  5
1FF
100
AcDbSymbolTableRecord
100
AcDbLayerTableRecord
  2
BEZUGSEBENEN
 70
0
 62
7
  6
CONTINUOUS
370
-3
390
F
  0
LAYER
  5
200
100
AcDbSymbolTableRecord
100
AcDbLayerTableRecord
  2
BOHRUNGEN
 70
0
 62
7
  6
CONTINUOUS
370
-3
390
F
  0
LAYER
  5
201
100
AcDbSymbolTableRecord
100
AcDbLayerTableRecord
  2
FASEN
 70
0
 62
7
  6
CONTINUOUS
370
-3
390
F
  0
LAYER
  5
202
100
AcDbSymbolTableRecord
100
AcDbLayerTableRecord
  2
GEWINDE
 70
0
 62
7
  6
CONTINUOUS
370
-3
390
F
  0
LAYER
  5
203
100
AcDbSymbolTableRecord
100
AcDbLayerTableRecord
  2
HILFEN
 70
0
 62
7
  6
CONTINUOUS
370
-3
390
F
  0
LAYER
  5
204
100
AcDbSymbolTableRecord
100
AcDbLayerTableRecord
  2
KONSTRUKTIONSELEMENTE
 70
0
 62
7
  6
CONTINUOUS
370
-3
390
F
  0
LAYER
  5
205
100
AcDbSymbolTableRecord
100
AcDbLayerTableRecord
  2
KURVEN
 70
0
 62
7
  6
CONTINUOUS
370
-3
390
F
  0
LAYER
  5
206
100
AcDbSymbolTableRecord
100
AcDbLayerTableRecord
  2
PLATZIERUNG
 70
0
 62
7
  6
CONTINUOUS
370
-3
390
F
  0
LAYER
  5
207
100
AcDbSymbolTableRecord
100
AcDbLayerTableRecord
  2
PLAZIERUNG
 70
0
 62
7
  6
CONTINUOUS
370
-3
390
F
  0
LAYER
  5
208
100
AcDbSymbolTableRecord
100
AcDbLayerTableRecord
  2
RUNDUNGEN
 70
0
 62
7
  6
CONTINUOUS
370
-3
390
F
  0
LAYER
  5
209
100
AcDbSymbolTableRecord
100
AcDbLayerTableRecord
  2
TEIL_STARTBEZUEGE
 70
0
 62
7
  6
CONTINUOUS
370
-3
390
F
  0
LAYER
  5
20A
100
AcDbSymbolTableRecord
100
AcDbLayerTableRecord
  2
T_STARTBEZUEGE
 70
0
 62
7
  6
CONTINUOUS
370
-3
390
F
  0
LAYER
  5
20B
100
AcDbSymbolTableRecord
100
AcDbLayerTableRecord
  2
_00_ASM_START_FEATURES
 70
0
 62
7
  6
CONTINUOUS
370
-3
390
F
  0
LAYER
  5
20C
100
AcDbSymbolTableRecord
100
AcDbLayerTableRecord
  2
_00_HILFEN
 70
0
 62
7
  6
CONTINUOUS
370
-3
390
F
  0
LAYER
  5
20D
100
AcDbSymbolTableRecord
100
AcDbLayerTableRecord
  2
_00_PLATZIERUNG
 70
0
 62
7
  6
CONTINUOUS
370
-3
390
F
  0
LAYER
  5
20E
100
AcDbSymbolTableRecord
100
AcDbLayerTableRecord
  2
_04_NOTIZEN
 70
0
 62
7
  6
CONTINUOUS
370
-3
390
F
  0
LAYER
  5
20F
100
AcDbSymbolTableRecord
100
AcDbLayerTableRecord
  2
_21_KURVEN
 70
0
 62
7
  6
CONTINUOUS
370
-3
390
F
  0
LAYER
  5
210
100
AcDbSymbolTableRecord
100
AcDbLayerTableRecord
  2
_26_BEZUGSACHSEN
 70
0
 62
7
  6
CONTINUOUS
370
-3
390
F
  0
LAYER
  5
211
100
AcDbSymbolTableRecord
100
AcDbLayerTableRecord
  2
_27_BEZUGSEBENEN
 70
0
 62
7
  6
CONTINUOUS
370
-3
390
F
  0
LAYER
  5
212
100
AcDbSymbolTableRecord
100
AcDbLayerTableRecord
  2
_29_KOORDINATENSYSTEME
 70
0
 62
7
  6
CONTINUOUS
370
-3
390
F
  0
LAYER
  5
213
100
AcDbSymbolTableRecord
100
AcDbLayerTableRecord
  2
_30_VOLUMEN
 70
0
 62
7
  6
CONTINUOUS
370
-3
390
F
  0
ENDTAB
  0
TABLE
  2
STYLE
  5
3
100
AcDbSymbolTable
 70
1
  0
STYLE
  5
11
100
AcDbSymbolTableRecord
100
AcDbTextStyleTableRecord
  2
STANDARD
 70
0
 40
0.0
 41
1.0
 50
0.0
 71
0
 42
0.2
  3
isonormlt-regular.ttf
  4

1001
ACAD
1000
Isonorm LT Regular
1071
34
  0
STYLE
  5
214
100
AcDbSymbolTableRecord
100
AcDbTextStyleTableRecord
  2
TEXTSTYLE_1
 70
0
 40
0.0
 41
0.8
 50
0.0
 71
0
 42
0.2
  3
gdt
  4

  0
ENDTAB
  0
TABLE
  2
VIEW
  5
6
100
AcDbSymbolTable
 70
0
  0
ENDTAB
  0
TABLE
  2
UCS
  5
7
100
AcDbSymbolTable
 70
0
  0
ENDTAB
  0
TABLE
  2
APPID
  5
9
100
AcDbSymbolTable
 70
1
  0
APPID
  5
215
100
AcDbSymbolTableRecord
100
AcDbRegAppTableRecord
  2
ACAD
 70
0
  0
ENDTAB
  0
TABLE
  2
BLOCK_RECORD
  5
1
100
AcDbSymbolTable
 70
0
  0
BLOCK_RECORD
  5
216
100
AcDbSymbolTableRecord
100
AcDbBlockTableRecord
  2
*Model_Space
  0
BLOCK_RECORD
  5
217
100
AcDbSymbolTableRecord
100
AcDbBlockTableRecord
  2
*Paper_Space
  0
BLOCK_RECORD
  5
218
100
AcDbSymbolTableRecord
100
AcDbBlockTableRecord
  2
_FILLED
  0
ENDTAB
  0
TABLE
  2
DIMSTYLE
  5
A
100
AcDbSymbolTable
 70
1
100
AcDbDimStyleTable
 71
0
  0
DIMSTYLE
105
219
100
AcDbSymbolTableRecord
100
AcDbDimStyleTableRecord
  2
STANDARD
 70
0
  3

  4

 40
1.0
 41
3.5
 42
0.0
 43
0.38
 44
1.5
 45
0.0
 46
0.0
 47
0.01
 48
0.01
140
3.5
141
0.09
142
0.0
143
25.4
144
1.0
145
0.0
146
1.0
147
0.625
 71
1
 72
0
 73
0
 74
0
 75
0
 76
0
 77
1
 78
8
 79
2
170
0
171
1
172
0
173
0
174
0
175
0
176
0
177
0
178
5
270
2
179
2
271
2
272
2
273
2
274
2
275
0
280
0
281
0
282
0
283
1
284
8
285
0
286
0
287
3
288
0
340
11
278
46
341
218
342
218
343
218
344
218
  0
ENDTAB
  0
ENDSEC
  0
SECTION
  2
BLOCKS
  0
BLOCK
  5
20
100
AcDbEntity
  8
0
100
AcDbBlockBegin
  2
*Model_Space
 70
0
 10
0.0
 20
0.0
 30
0.0
  3
*Model_Space
  1

  0
ENDBLK
  5
21
100
AcDbEntity
  8
0
100
AcDbBlockEnd
  0
BLOCK
  5
1C
100
AcDbEntity
  8
0
100
AcDbBlockBegin
  2
*Paper_Space
 70
0
 10
0.0
 20
0.0
 30
0.0
  3
*Paper_Space
  1

  0
ENDBLK
  5
1D
100
AcDbEntity
  8
0
100
AcDbBlockEnd
  0
BLOCK
  5
21A
100
AcDbEntity
  8
0
100
AcDbBlockBegin
  2
_FILLED
 70
64
 10
0.0
 20
0.0
  3
_FILLED
  1

  0
SOLID
  5
21B
100
AcDbEntity
  8
0
  6
BYBLOCK
 62
0
100
AcDbTrace
 10
0.0
 20
0.0
 11
-1.0
 21
0.125
 12
-1.0
 22
-0.125
 13
-1.0
 23
-0.125
  0
ENDBLK
  5
21C
100
AcDbEntity
  8
0
  6
BYBLOCK
 62
0
100
AcDbBlockEnd
  0
ENDSEC
  0
SECTION
  2
ENTITIES
  0
MTEXT
  5
21D
100
AcDbEntity
  8
_04_NOTIZEN
100
AcDbMText
 62
5
  6
CONTINUOUS
  7
STANDARD
 71
1
 72
1
 10
73.3553179852
 20
117.0174090626
 30
0.0
 11
0.0
 21
1.0
 31
0.0
 73
2
 44
0.9
  1
RUD
 40
5.0
 41
12.48
  0
MTEXT
  5
21E
100
AcDbEntity
  8
_04_NOTIZEN
100
AcDbMText
 62
5
  6
CONTINUOUS
  7
STANDARD
 71
1
 72
1
 10
115.9681049901
 20
122.4068586431
 30
0.0
 11
1.0
 21
0.0
 31
0.0
 73
2
 44
0.9
  1
VIP
 40
5.0
 41
9.76
  0
MTEXT
  5
21F
100
AcDbEntity
  8
_04_NOTIZEN
100
AcDbMText
 62
5
  6
CONTINUOUS
  7
STANDARD
 71
1
 72
1
 10
204.6047553608
 20
134.275079404
 30
0.0
 11
0.0
 21
1.0
 31
0.0
 73
2
 44
0.9
  1
VIP CCS
 40
5.0
 41
20.96
  0
MTEXT
  5
220
100
AcDbEntity
  8
_04_NOTIZEN
100
AcDbMText
 62
5
  6
CONTINUOUS
  7
STANDARD
 71
1
 72
1
 10
78.4621577137
 20
37.1554522604
 30
0.0
 11
1.0
 21
0.0
 31
0.0
 73
2
 44
0.9
  1
RUD VIP CCS 10
 40
5.0
 41
43.04
  0
LINE
  5
221
100
AcDbEntity
  8
0
100
AcDbLine
 62
7
  6
CONTINUOUS
 10
0.0
 20
0.0
 11
0.0
 21
210.0
  0
LINE
  5
222
100
AcDbEntity
  8
0
100
AcDbLine
 62
7
  6
CONTINUOUS
 10
0.0
 20
0.0
 11
297.0
 21
0.0
  0
LINE
  5
223
100
AcDbEntity
  8
0
100
AcDbLine
 62
7
  6
CONTINUOUS
 10
0.0
 20
210.0
 11
297.0
 21
210.0
  0
LINE
  5
224
100
AcDbEntity
  8
0
100
AcDbLine
 62
7
  6
CONTINUOUS
 10
297.0
 20
0.0
 11
297.0
 21
210.0
  0
LINE
  5
225
100
AcDbEntity
  8
FASEN
100
AcDbLine
 62
7
  6
CONTINUOUS
 10
57.0516506287
 20
97.0526152827
 11
57.5516506287
 21
96.5526152827
  0
LINE
  5
226
100
AcDbEntity
  8
0
100
AcDbLine
 62
7
  6
CONTINUOUS
 10
128.8516506294
 20
93.302615282
 11
110.5516506294
 21
93.302615282
  0
LINE
  5
227
100
AcDbEntity
  8
0
100
AcDbLine
 62
7
  6
CONTINUOUS
 10
80.5516506294
 20
93.302615282
 11
70.5412158152
 21
93.302615282
  0
LINE
  5
228
100
AcDbEntity
  8
_30_VOLUMEN
100
AcDbLine
 62
7
  6
CONTINUOUS
 10
67.5516506294
 20
96.052615282
 11
67.0516506294
 21
96.052615282
  0
LINE
  5
229
100
AcDbEntity
  8
FASEN
100
AcDbLine
 62
7
  6
CONTINUOUS
 10
66.5516506294
 20
96.552615282
 11
57.5516506294
 21
96.552615282
  0
LINE
  5
22A
100
AcDbEntity
  8
_30_VOLUMEN
100
AcDbLine
 62
7
  6
CONTINUOUS
 10
128.8516506294
 20
100.552615282
 11
129.2516506294
 21
100.552615282
  0
LINE
  5
22B
100
AcDbEntity
  8
FASEN
100
AcDbLine
 62
7
  6
CONTINUOUS
 10
57.0516506294
 20
97.052615282
 11
57.0516506294
 21
126.052615282
  0
LINE
  5
22C
100
AcDbEntity
  8
0
100
AcDbLine
 62
7
  6
CONTINUOUS
 10
109.0516506294
 20
103.552615282
 11
82.0516506294
 21
103.552615282
  0
LINE
  5
22D
100
AcDbEntity
  8
0
100
AcDbLine
 62
7
  6
CONTINUOUS
 10
131.6940696615
 20
104.302615282
 11
129.8516506294
 21
104.302615282
  0
LINE
  5
22E
100
AcDbEntity
  8
0
100
AcDbLine
 62
7
  6
CONTINUOUS
 10
129.8516506294
 20
106.152615282
 11
129.2516506294
 21
106.152615282
  0
LINE
  5
22F
100
AcDbEntity
  8
FASEN
100
AcDbLine
 62
7
  6
CONTINUOUS
 10
57.5516506294
 20
96.552615282
 11
57.5516506294
 21
126.552615282
  0
LINE
  5
230
100
AcDbEntity
  8
0
100
AcDbLine
 62
7
  6
CONTINUOUS
 10
115.295443127
 20
110.7192819487
 11
120.795443127
 21
110.7192819487
  0
LINE
  5
231
100
AcDbEntity
  8
FASEN
100
AcDbLine
 62
7
  6
CONTINUOUS
 10
66.5516506302
 20
126.5526152813
 11
67.0516506302
 21
126.0526152813
  0
LINE
  5
232
100
AcDbEntity
  8
0
100
AcDbLine
 62
7
  6
CONTINUOUS
 10
115.295443127
 20
112.3859486153
 11
120.795443127
 21
112.3859486153
  0
LINE
  5
233
100
AcDbEntity
  8
FASEN
100
AcDbLine
 62
7
  6
CONTINUOUS
 10
66.5516506294
 20
96.552615282
 11
66.5516506294
 21
126.552615282
  0
LINE
  5
234
100
AcDbEntity
  8
_30_VOLUMEN
100
AcDbLine
 62
7
  6
CONTINUOUS
 10
67.0516506294
 20
127.052615282
 11
67.0516506294
 21
96.052615282
  0
LINE
  5
235
100
AcDbEntity
  8
RUNDUNGEN
100
AcDbLine
 62
7
  6
CONTINUOUS
 10
69.0516506294
 20
150.052615282
 11
69.0516506294
 21
127.16298838
  0
LINE
  5
236
100
AcDbEntity
  8
0
100
AcDbLine
 62
7
  6
CONTINUOUS
 10
129.8516506294
 20
116.952615282
 11
129.2516506294
 21
116.952615282
  0
LINE
  5
237
100
AcDbEntity
  8
0
100
AcDbLine
 62
7
  6
CONTINUOUS
 10
131.6940696615
 20
118.802615282
 11
129.8516506294
 21
118.802615282
  0
LINE
  5
238
100
AcDbEntity
  8
0
100
AcDbLine
 62
7
  6
CONTINUOUS
 10
109.0516506294
 20
119.552615282
 11
82.0516506294
 21
119.552615282
  0
LINE
  5
239
100
AcDbEntity
  8
0
100
AcDbLine
 62
7
  6
CONTINUOUS
 10
73.2480335955
 20
134.5884486402
 11
73.4607995275
 21
134.1717819238
  0
LINE
  5
23A
100
AcDbEntity
  8
0
100
AcDbLine
 62
7
  6
CONTINUOUS
 10
73.1416506294
 20
145.4217815513
 11
73.1416506294
 21
144.9009490127
  0
LINE
  5
23B
100
AcDbEntity
  8
0
100
AcDbLine
 62
7
  6
CONTINUOUS
 10
73.1416506294
 20
140.942615282
 11
73.1416506294
 21
140.005115282
  0
LINE
  5
23C
100
AcDbEntity
  8
0
100
AcDbLine
 62
7
  6
CONTINUOUS
 10
73.1416506294
 20
136.0467818493
 11
73.1416506294
 21
135.1092819983
  0
LINE
  5
23D
100
AcDbEntity
  8
0
100
AcDbLine
 62
7
  6
CONTINUOUS
 10
73.7799484257
 20
135.1092819983
 11
73.7799484257
 21
136.0467818493
  0
LINE
  5
23E
100
AcDbEntity
  8
0
100
AcDbLine
 62
7
  6
CONTINUOUS
 10
73.7799484257
 20
140.005115282
 11
73.7799484257
 21
140.942615282
  0
LINE
  5
23F
100
AcDbEntity
  8
0
100
AcDbLine
 62
7
  6
CONTINUOUS
 10
73.7799484257
 20
144.9009490127
 11
73.7799484257
 21
145.5259490127
  0
LINE
  5
240
100
AcDbEntity
  8
0
100
AcDbLine
 62
7
  6
CONTINUOUS
 10
74.3118632559
 20
146.1509490127
 11
74.3118632559
 21
146.7759490127
  0
LINE
  5
241
100
AcDbEntity
  8
0
100
AcDbLine
 62
7
  6
CONTINUOUS
 10
74.4182465199
 20
136.880115282
 11
74.4182465199
 21
137.505115282
  0
LINE
  5
242
100
AcDbEntity
  8
0
100
AcDbLine
 62
7
  6
CONTINUOUS
 10
74.4182465199
 20
141.7759484167
 11
74.4182465199
 21
142.4009484167
  0
LINE
  5
243
100
AcDbEntity
  8
0
100
AcDbLine
 62
7
  6
CONTINUOUS
 10
75.2693102483
 20
145.5259490127
 11
75.2693102483
 21
144.9009490127
  0
LINE
  5
244
100
AcDbEntity
  8
0
100
AcDbLine
 62
7
  6
CONTINUOUS
 10
73.2480335955
 20
145.942615282
 11
73.1416506294
 21
145.4217815513
  0
LINE
  5
245
100
AcDbEntity
  8
0
100
AcDbLine
 62
7
  6
CONTINUOUS
 10
73.2480335955
 20
141.4634484167
 11
73.1416506294
 21
140.942615282
  0
LINE
  5
246
100
AcDbEntity
  8
0
100
AcDbLine
 62
7
  6
CONTINUOUS
 10
122.3308171967
 20
127.9909131528
 11
121.8099840621
 21
127.8845301867
  0
LINE
  5
247
100
AcDbEntity
  8
0
100
AcDbLine
 62
7
  6
CONTINUOUS
 10
121.8099840621
 20
127.352615282
 11
122.4349840621
 21
127.4589982574
  0
LINE
  5
248
100
AcDbEntity
  8
_30_VOLUMEN
100
AcDbLine
 62
7
  6
CONTINUOUS
 10
129.3516506294
 20
121.5470617825
 11
132.7516506294
 21
121.5470617825
  0
LINE
  5
249
100
AcDbEntity
  8
0
100
AcDbLine
 62
7
  6
CONTINUOUS
 10
73.8863313917
 20
133.755115282
 11
74.3118632559
 21
133.5467819518
  0
LINE
  5
24A
100
AcDbEntity
  8
0
100
AcDbLine
 62
7
  6
CONTINUOUS
 10
74.4182465199
 20
134.1717819238
 11
74.0990973238
 21
134.380115282
  0
LINE
  5
24B
100
AcDbEntity
  8
0
100
AcDbLine
 62
7
  6
CONTINUOUS
 10
73.4607995275
 20
134.1717819238
 11
73.8863313917
 21
133.755115282
  0
LINE
  5
24C
100
AcDbEntity
  8
0
100
AcDbLine
 62
7
  6
CONTINUOUS
 10
73.4607995275
 20
139.067615282
 11
73.8863313917
 21
138.6509484167
  0
LINE
  5
24D
100
AcDbEntity
  8
0
100
AcDbLine
 62
7
  6
CONTINUOUS
 10
74.0990973238
 20
134.380115282
 11
73.8863313917
 21
134.692615282
  0
LINE
  5
24E
100
AcDbEntity
  8
0
100
AcDbLine
 62
7
  6
CONTINUOUS
 10
74.0990973238
 20
139.2759484167
 11
73.8863313917
 21
139.5884484167
  0
LINE
  5
24F
100
AcDbEntity
  8
0
100
AcDbLine
 62
7
  6
CONTINUOUS
 10
77.184203786
 20
136.7759487147
 11
77.3969697926
 21
136.4634487147
  0
LINE
  5
250
100
AcDbEntity
  8
0
100
AcDbLine
 62
7
  6
CONTINUOUS
 10
73.2480335955
 20
139.4842821474
 11
73.4607995275
 21
139.067615282
  0
LINE
  5
251
100
AcDbEntity
  8
0
100
AcDbLine
 62
7
  6
CONTINUOUS
 10
73.2480335955
 20
144.4842815513
 11
73.4607995275
 21
144.067615282
  0
LINE
  5
252
100
AcDbEntity
  8
0
100
AcDbLine
 62
7
  6
CONTINUOUS
 10
73.8863313917
 20
144.5884490127
 11
73.7799484257
 21
144.9009490127
  0
LINE
  5
253
100
AcDbEntity
  8
0
100
AcDbLine
 62
7
  6
CONTINUOUS
 10
73.8863313917
 20
134.692615282
 11
73.7799484257
 21
135.1092819983
  0
LINE
  5
254
100
AcDbEntity
  8
0
100
AcDbLine
 62
7
  6
CONTINUOUS
 10
73.8863313917
 20
139.5884484167
 11
73.7799484257
 21
140.005115282
  0
LINE
  5
255
100
AcDbEntity
  8
0
100
AcDbLine
 62
7
  6
CONTINUOUS
 10
73.1416506294
 20
144.9009490127
 11
73.2480335955
 21
144.4842815513
  0
LINE
  5
256
100
AcDbEntity
  8
0
100
AcDbLine
 62
7
  6
CONTINUOUS
 10
73.1416506294
 20
135.1092819983
 11
73.2480335955
 21
134.5884486402
  0
LINE
  5
257
100
AcDbEntity
  8
0
100
AcDbLine
 62
7
  6
CONTINUOUS
 10
73.1416506294
 20
140.005115282
 11
73.2480335955
 21
139.4842821474
  0
LINE
  5
258
100
AcDbEntity
  8
0
100
AcDbLine
 62
7
  6
CONTINUOUS
 10
75.9076080445
 20
144.9009490127
 11
75.9076080445
 21
145.5259490127
  0
LINE
  5
259
100
AcDbEntity
  8
0
100
AcDbLine
 62
7
  6
CONTINUOUS
 10
76.7586719219
 20
143.8592815513
 11
76.7586719219
 21
143.2342821474
  0
LINE
  5
25A
100
AcDbEntity
  8
0
100
AcDbLine
 62
7
  6
CONTINUOUS
 10
76.8650548879
 20
142.4009484167
 11
76.8650548879
 21
141.7759484167
  0
LINE
  5
25B
100
AcDbEntity
  8
0
100
AcDbLine
 62
7
  6
CONTINUOUS
 10
76.8650548879
 20
137.505115282
 11
76.8650548879
 21
136.880115282
  0
LINE
  5
25C
100
AcDbEntity
  8
0
100
AcDbLine
 62
7
  6
CONTINUOUS
 10
77.5033527587
 20
145.5259490127
 11
77.5033527587
 21
144.692615282
  0
LINE
  5
25D
100
AcDbEntity
  8
0
100
AcDbLine
 62
7
  6
CONTINUOUS
 10
77.5033527587
 20
140.942615282
 11
77.5033527587
 21
140.005115282
  0
LINE
  5
25E
100
AcDbEntity
  8
0
100
AcDbLine
 62
7
  6
CONTINUOUS
 10
77.5033527587
 20
136.0467818493
 11
77.5033527587
 21
135.1092819983
  0
LINE
  5
25F
100
AcDbEntity
  8
0
100
AcDbLine
 62
7
  6
CONTINUOUS
 10
78.1416506294
 20
135.1092819983
 11
78.1416506294
 21
136.0467818493
  0
LINE
  5
260
100
AcDbEntity
  8
0
100
AcDbLine
 62
7
  6
CONTINUOUS
 10
78.1416506294
 20
140.005115282
 11
78.1416506294
 21
140.942615282
  0
LINE
  5
261
100
AcDbEntity
  8
0
100
AcDbLine
 62
7
  6
CONTINUOUS
 10
78.1416506294
 20
144.692615282
 11
78.1416506294
 21
145.5259490127
  0
LINE
  5
262
100
AcDbEntity
  8
0
100
AcDbLine
 62
7
  6
CONTINUOUS
 10
73.2480335955
 20
136.567615282
 11
73.1416506294
 21
136.0467818493
  0
LINE
  5
263
100
AcDbEntity
  8
0
100
AcDbLine
 62
7
  6
CONTINUOUS
 10
75.3756932143
 20
146.0467815513
 11
75.2693102483
 21
145.5259490127
  0
LINE
  5
264
100
AcDbEntity
  8
0
100
AcDbLine
 62
7
  6
CONTINUOUS
 10
78.0352676541
 20
144.1717815513
 11
78.1416506294
 21
144.692615282
  0
LINE
  5
265
100
AcDbEntity
  8
0
100
AcDbLine
 62
7
  6
CONTINUOUS
 10
73.7799484257
 20
140.942615282
 11
73.8863313917
 21
141.3592821474
  0
LINE
  5
266
100
AcDbEntity
  8
0
100
AcDbLine
 62
7
  6
CONTINUOUS
 10
75.9076080445
 20
145.5259490127
 11
76.0139910106
 21
145.942615282
  0
LINE
  5
267
100
AcDbEntity
  8
0
100
AcDbLine
 62
7
  6
CONTINUOUS
 10
75.8012250785
 20
144.4842815513
 11
75.9076080445
 21
144.9009490127
  0
LINE
  5
268
100
AcDbEntity
  8
0
100
AcDbLine
 62
7
  6
CONTINUOUS
 10
73.7799484257
 20
136.0467818493
 11
73.8863313917
 21
136.4634487147
  0
LINE
  5
269
100
AcDbEntity
  8
0
100
AcDbLine
 62
7
  6
CONTINUOUS
 10
77.5033527587
 20
144.692615282
 11
77.3969697926
 21
144.2759490127
  0
LINE
  5
26A
100
AcDbEntity
  8
0
100
AcDbLine
 62
7
  6
CONTINUOUS
 10
73.7799484257
 20
145.5259490127
 11
73.8863313917
 21
145.8384490127
  0
LINE
  5
26B
100
AcDbEntity
  8
0
100
AcDbLine
 62
7
  6
CONTINUOUS
 10
75.2693102483
 20
144.9009490127
 11
75.1629272822
 21
144.5884490127
  0
LINE
  5
26C
100
AcDbEntity
  8
0
100
AcDbLine
 62
7
  6
CONTINUOUS
 10
75.5884591464
 20
146.4634490127
 11
75.3756932143
 21
146.0467815513
  0
LINE
  5
26D
100
AcDbEntity
  8
0
100
AcDbLine
 62
7
  6
CONTINUOUS
 10
73.4607995275
 20
141.880115282
 11
73.2480335955
 21
141.4634484167
  0
LINE
  5
26E
100
AcDbEntity
  8
0
100
AcDbLine
 62
7
  6
CONTINUOUS
 10
75.5884591464
 20
144.067615282
 11
75.8012250785
 21
144.4842815513
  0
LINE
  5
26F
100
AcDbEntity
  8
0
100
AcDbLine
 62
7
  6
CONTINUOUS
 10
73.5671824936
 20
146.3592815513
 11
73.2480335955
 21
145.942615282
  0
LINE
  5
270
100
AcDbEntity
  8
0
100
AcDbLine
 62
7
  6
CONTINUOUS
 10
121.2891506294
 20
131.7143174858
 11
121.8099840621
 21
131.8207004518
  0
LINE
  5
271
100
AcDbEntity
  8
0
100
AcDbLine
 62
7
  6
CONTINUOUS
 10
121.8099840621
 20
132.352615282
 11
121.1849840621
 21
132.246232316
  0
LINE
  5
272
100
AcDbEntity
  8
_30_VOLUMEN
100
AcDbLine
 62
7
  6
CONTINUOUS
 10
129.3516506294
 20
125.2998385323
 11
132.7516506294
 21
125.2998385323
  0
LINE
  5
273
100
AcDbEntity
  8
_26_BEZUGSACHSEN
100
AcDbLine
 62
7
  6
CONTINUOUS
 10
129.2516506294
 20
126.152615282
 11
129.3516506294
 21
126.152615282
  0
LINE
  5
274
100
AcDbEntity
  8
FASEN
100
AcDbLine
 62
7
  6
CONTINUOUS
 10
66.5516506294
 20
126.552615282
 11
57.5516506294
 21
126.552615282
  0
LINE
  5
275
100
AcDbEntity
  8
_30_VOLUMEN
100
AcDbLine
 62
7
  6
CONTINUOUS
 10
67.5516506294
 20
127.052615282
 11
67.0516506294
 21
127.052615282
  0
LINE
  5
276
100
AcDbEntity
  8
0
100
AcDbLine
 62
7
  6
CONTINUOUS
 10
118.4766506294
 20
127.352615282
 11
119.1016506294
 21
127.352615282
  0
LINE
  5
277
100
AcDbEntity
  8
0
100
AcDbLine
 62
7
  6
CONTINUOUS
 10
74.3118632559
 20
133.5467819518
 11
74.8437783841
 21
133.442615282
  0
LINE
  5
278
100
AcDbEntity
  8
0
100
AcDbLine
 62
7
  6
CONTINUOUS
 10
74.8437783841
 20
134.067615282
 11
74.4182465199
 21
134.1717819238
  0
LINE
  5
279
100
AcDbEntity
  8
0
100
AcDbLine
 62
7
  6
CONTINUOUS
 10
73.8863313917
 20
138.6509484167
 11
74.3118632559
 21
138.442615282
  0
LINE
  5
27A
100
AcDbEntity
  8
0
100
AcDbLine
 62
7
  6
CONTINUOUS
 10
74.4182465199
 20
139.067615282
 11
74.0990973238
 21
139.2759484167
  0
LINE
  5
27B
100
AcDbEntity
  8
0
100
AcDbLine
 62
7
  6
CONTINUOUS
 10
77.822501694
 20
136.9842818493
 11
77.3969697926
 21
137.4009487147
  0
LINE
  5
27C
100
AcDbEntity
  8
0
100
AcDbLine
 62
7
  6
CONTINUOUS
 10
73.4607995275
 20
144.067615282
 11
73.8863313917
 21
143.6509490127
  0
LINE
  5
27D
100
AcDbEntity
  8
0
100
AcDbLine
 62
7
  6
CONTINUOUS
 10
74.0990973238
 20
144.2759490127
 11
73.8863313917
 21
144.5884490127
  0
LINE
  5
27E
100
AcDbEntity
  8
0
100
AcDbLine
 62
7
  6
CONTINUOUS
 10
77.184203786
 20
141.6717821474
 11
77.3969697926
 21
141.3592821474
  0
LINE
  5
27F
100
AcDbEntity
  8
0
100
AcDbLine
 62
7
  6
CONTINUOUS
 10
78.0352676541
 20
136.567615282
 11
77.822501694
 21
136.9842818493
  0
LINE
  5
280
100
AcDbEntity
  8
0
100
AcDbLine
 62
7
  6
CONTINUOUS
 10
78.0352676541
 20
141.4634484167
 11
77.822501694
 21
141.880115282
  0
LINE
  5
281
100
AcDbEntity
  8
0
100
AcDbLine
 62
7
  6
CONTINUOUS
 10
78.0352676541
 20
146.0467815513
 11
77.822501694
 21
146.4634490127
  0
LINE
  5
282
100
AcDbEntity
  8
0
100
AcDbLine
 62
7
  6
CONTINUOUS
 10
77.3969697926
 20
136.4634487147
 11
77.5033527587
 21
136.0467818493
  0
LINE
  5
283
100
AcDbEntity
  8
0
100
AcDbLine
 62
7
  6
CONTINUOUS
 10
77.3969697926
 20
141.3592821474
 11
77.5033527587
 21
140.942615282
  0
LINE
  5
284
100
AcDbEntity
  8
0
100
AcDbLine
 62
7
  6
CONTINUOUS
 10
77.3969697926
 20
145.942615282
 11
77.5033527587
 21
145.5259490127
  0
LINE
  5
285
100
AcDbEntity
  8
0
100
AcDbLine
 62
7
  6
CONTINUOUS
 10
78.1416506294
 20
136.0467818493
 11
78.0352676541
 21
136.567615282
  0
LINE
  5
286
100
AcDbEntity
  8
0
100
AcDbLine
 62
7
  6
CONTINUOUS
 10
78.1416506294
 20
140.942615282
 11
78.0352676541
 21
141.4634484167
  0
LINE
  5
287
100
AcDbEntity
  8
0
100
AcDbLine
 62
7
  6
CONTINUOUS
 10
78.1416506294
 20
145.5259490127
 11
78.0352676541
 21
146.0467815513
  0
LINE
  5
288
100
AcDbEntity
  8
RUNDUNGEN
100
AcDbLine
 62
7
  6
CONTINUOUS
 10
80.5516506294
 20
159.0352334439
 11
80.5516506294
 21
185.552615282
  0
LINE
  5
289
100
AcDbEntity
  8
BEZUGSACHSEN
100
AcDbLine
 62
7
  6
CONTINUOUS
 10
82.0516506294
 20
126.3201969583
 11
82.0516506294
 21
94.802615282
  0
LINE
  5
28A
100
AcDbEntity
  8
RUNDUNGEN
100
AcDbLine
 62
7
  6
CONTINUOUS
 10
82.0516506294
 20
94.802615282
 11
82.0516506294
 21
150.052615282
  0
LINE
  5
28B
100
AcDbEntity
  8
0
100
AcDbLine
 62
7
  6
CONTINUOUS
 10
78.0352676541
 20
139.4842821474
 11
78.1416506294
 21
140.005115282
  0
LINE
  5
28C
100
AcDbEntity
  8
0
100
AcDbLine
 62
7
  6
CONTINUOUS
 10
78.0352676541
 20
134.5884486402
 11
78.1416506294
 21
135.1092819983
  0
LINE
  5
28D
100
AcDbEntity
  8
0
100
AcDbLine
 62
7
  6
CONTINUOUS
 10
77.5033527587
 20
140.005115282
 11
77.3969697926
 21
139.5884484167
  0
LINE
  5
28E
100
AcDbEntity
  8
0
100
AcDbLine
 62
7
  6
CONTINUOUS
 10
77.5033527587
 20
135.1092819983
 11
77.3969697926
 21
134.692615282
  0
LINE
  5
28F
100
AcDbEntity
  8
0
100
AcDbLine
 62
7
  6
CONTINUOUS
 10
73.4607995275
 20
136.9842818493
 11
73.2480335955
 21
136.567615282
  0
LINE
  5
290
100
AcDbEntity
  8
0
100
AcDbLine
 62
7
  6
CONTINUOUS
 10
77.822501694
 20
139.067615282
 11
78.0352676541
 21
139.4842821474
  0
LINE
  5
291
100
AcDbEntity
  8
0
100
AcDbLine
 62
7
  6
CONTINUOUS
 10
77.716118728
 20
143.6509490127
 11
78.0352676541
 21
144.1717815513
  0
LINE
  5
292
100
AcDbEntity
  8
0
100
AcDbLine
 62
7
  6
CONTINUOUS
 10
76.0139910106
 20
145.942615282
 11
76.2267569427
 21
146.255115282
  0
LINE
  5
293
100
AcDbEntity
  8
0
100
AcDbLine
 62
7
  6
CONTINUOUS
 10
75.1629272822
 20
144.5884490127
 11
74.9501613502
 21
144.2759490127
  0
LINE
  5
294
100
AcDbEntity
  8
0
100
AcDbLine
 62
7
  6
CONTINUOUS
 10
73.8863313917
 20
141.3592821474
 11
74.0990973238
 21
141.6717821474
  0
LINE
  5
295
100
AcDbEntity
  8
0
100
AcDbLine
 62
7
  6
CONTINUOUS
 10
73.8863313917
 20
136.4634487147
 11
74.0990973238
 21
136.7759487147
  0
LINE
  5
296
100
AcDbEntity
  8
FASEN
100
AcDbLine
 62
7
  6
CONTINUOUS
 10
57.0516506287
 20
126.0526152813
 11
57.5516506287
 21
126.5526152813
  0
LINE
  5
297
100
AcDbEntity
  8
0
100
AcDbLine
 62
7
  6
CONTINUOUS
 10
73.8863313917
 20
145.8384490127
 11
74.0990973238
 21
146.0467815513
  0
LINE
  5
298
100
AcDbEntity
  8
0
100
AcDbLine
 62
7
  6
CONTINUOUS
 10
76.0139910106
 20
146.880115282
 11
75.5884591464
 21
146.4634490127
  0
LINE
  5
299
100
AcDbEntity
  8
0
100
AcDbLine
 62
7
  6
CONTINUOUS
 10
75.1629272822
 20
143.6509490127
 11
75.5884591464
 21
144.067615282
  0
LINE
  5
29A
100
AcDbEntity
  8
0
100
AcDbLine
 62
7
  6
CONTINUOUS
 10
73.8863313917
 20
142.2967821474
 11
73.4607995275
 21
141.880115282
  0
LINE
  5
29B
100
AcDbEntity
  8
0
100
AcDbLine
 62
7
  6
CONTINUOUS
 10
73.9927143578
 20
146.6717815513
 11
73.5671824936
 21
146.3592815513
  0
LINE
  5
29C
100
AcDbEntity
  8
_26_BEZUGSACHSEN
100
AcDbLine
 62
7
  6
CONTINUOUS
 10
129.2516506294
 20
131.952615282
 11
129.3516506294
 21
131.952615282
  0
LINE
  5
29D
100
AcDbEntity
  8
0
100
AcDbLine
 62
7
  6
CONTINUOUS
 10
119.1016506294
 20
132.352615282
 11
118.4766506294
 21
132.352615282
  0
LINE
  5
29E
100
AcDbEntity
  8
_30_VOLUMEN
100
AcDbLine
 62
7
  6
CONTINUOUS
 10
129.3516506294
 20
132.8053920317
 11
132.7516506294
 21
132.8053920317
  0
LINE
  5
29F
100
AcDbEntity
  8
0
100
AcDbLine
 62
7
  6
CONTINUOUS
 10
74.8437783841
 20
133.442615282
 11
76.4395230237
 21
133.442615282
  0
LINE
  5
2A0
100
AcDbEntity
  8
0
100
AcDbLine
 62
7
  6
CONTINUOUS
 10
76.4395230237
 20
134.067615282
 11
74.8437783841
 21
134.067615282
  0
LINE
  5
2A1
100
AcDbEntity
  8
0
100
AcDbLine
 62
7
  6
CONTINUOUS
 10
121.1849840621
 20
127.4589982574
 11
121.8099840621
 21
127.352615282
  0
LINE
  5
2A2
100
AcDbEntity
  8
0
100
AcDbLine
 62
7
  6
CONTINUOUS
 10
77.3969697926
 20
137.4009487147
 11
76.8650548879
 21
137.505115282
  0
LINE
  5
2A3
100
AcDbEntity
  8
0
100
AcDbLine
 62
7
  6
CONTINUOUS
 10
121.8099840621
 20
127.8845301867
 11
121.2891506294
 21
127.9909131528
  0
LINE
  5
2A4
100
AcDbEntity
  8
0
100
AcDbLine
 62
7
  6
CONTINUOUS
 10
74.8437783841
 20
138.9634484167
 11
74.4182465199
 21
139.067615282
  0
LINE
  5
2A5
100
AcDbEntity
  8
0
100
AcDbLine
 62
7
  6
CONTINUOUS
 10
76.8650548879
 20
136.880115282
 11
77.184203786
 21
136.7759487147
  0
LINE
  5
2A6
100
AcDbEntity
  8
RUNDUNGEN
100
AcDbLine
 62
7
  6
CONTINUOUS
 10
136.3936707727
 20
117.0921003646
 11
131.6940696615
 21
118.802615282
  0
LINE
  5
2A7
100
AcDbEntity
  8
0
100
AcDbLine
 62
7
  6
CONTINUOUS
 10
121.427942862
 20
113.8135529476
 11
124.7062438054
 21
111.764614858
  0
LINE
  5
2A8
100
AcDbEntity
  8
0
100
AcDbLine
 62
7
  6
CONTINUOUS
 10
77.822501694
 20
141.880115282
 11
77.3969697926
 21
142.2967821474
  0
LINE
  5
2A9
100
AcDbEntity
  8
0
100
AcDbLine
 62
7
  6
CONTINUOUS
 10
77.822501694
 20
146.4634490127
 11
77.3969697926
 21
146.880115282
  0
LINE
  5
2AA
100
AcDbEntity
  8
0
100
AcDbLine
 62
7
  6
CONTINUOUS
 10
77.184203786
 20
146.255115282
 11
77.3969697926
 21
145.942615282
  0
LINE
  5
2AB
100
AcDbEntity
  8
0
100
AcDbLine
 62
7
  6
CONTINUOUS
 10
77.822501694
 20
134.1717819238
 11
78.0352676541
 21
134.5884486402
  0
LINE
  5
2AC
100
AcDbEntity
  8
0
100
AcDbLine
 62
7
  6
CONTINUOUS
 10
77.3969697926
 20
139.5884484167
 11
77.184203786
 21
139.2759484167
  0
LINE
  5
2AD
100
AcDbEntity
  8
0
100
AcDbLine
 62
7
  6
CONTINUOUS
 10
77.3969697926
 20
134.692615282
 11
77.184203786
 21
134.380115282
  0
LINE
  5
2AE
100
AcDbEntity
  8
0
100
AcDbLine
 62
7
  6
CONTINUOUS
 10
77.3969697926
 20
144.2759490127
 11
77.07782082
 21
143.9634490127
  0
LINE
  5
2AF
100
AcDbEntity
  8
0
100
AcDbLine
 62
7
  6
CONTINUOUS
 10
73.8863313917
 20
137.4009487147
 11
73.4607995275
 21
136.9842818493
  0
LINE
  5
2B0
100
AcDbEntity
  8
0
100
AcDbLine
 62
7
  6
CONTINUOUS
 10
76.2267569427
 20
146.255115282
 11
76.5459059898
 21
146.4634490127
  0
LINE
  5
2B1
100
AcDbEntity
  8
0
100
AcDbLine
 62
7
  6
CONTINUOUS
 10
74.0990973238
 20
146.0467815513
 11
74.3118632559
 21
146.1509490127
  0
LINE
  5
2B2
100
AcDbEntity
  8
0
100
AcDbLine
 62
7
  6
CONTINUOUS
 10
76.4395230237
 20
147.0884490127
 11
76.0139910106
 21
146.880115282
  0
LINE
  5
2B3
100
AcDbEntity
  8
0
100
AcDbLine
 62
7
  6
CONTINUOUS
 10
76.4395230237
 20
133.442615282
 11
76.971437854
 21
133.5467819518
  0
LINE
  5
2B4
100
AcDbEntity
  8
_30_VOLUMEN
100
AcDbLine
 62
7
  6
CONTINUOUS
 10
128.8516506294
 20
136.552615282
 11
121.7516506294
 21
136.552615282
  0
LINE
  5
2B5
100
AcDbEntity
  8
_30_VOLUMEN
100
AcDbLine
 62
7
  6
CONTINUOUS
 10
129.3516506294
 20
136.5581687815
 11
132.7516506294
 21
136.5581687815
  0
LINE
  5
2B6
100
AcDbEntity
  8
_30_VOLUMEN
100
AcDbLine
 62
7
  6
CONTINUOUS
 10
121.7516506294
 20
137.552615282
 11
110.5516506294
 21
137.552615282
  0
LINE
  5
2B7
100
AcDbEntity
  8
0
100
AcDbLine
 62
7
  6
CONTINUOUS
 10
74.8437783841
 20
138.3384487147
 11
76.4395230237
 21
138.3384487147
  0
LINE
  5
2B8
100
AcDbEntity
  8
0
100
AcDbLine
 62
7
  6
CONTINUOUS
 10
122.4349840621
 20
132.246232316
 11
121.8099840621
 21
132.352615282
  0
LINE
  5
2B9
100
AcDbEntity
  8
0
100
AcDbLine
 62
7
  6
CONTINUOUS
 10
74.3118632559
 20
138.442615282
 11
74.8437783841
 21
138.3384487147
  0
LINE
  5
2BA
100
AcDbEntity
  8
0
100
AcDbLine
 62
7
  6
CONTINUOUS
 10
77.3969697926
 20
142.2967821474
 11
76.8650548879
 21
142.4009484167
  0
LINE
  5
2BB
100
AcDbEntity
  8
0
100
AcDbLine
 62
7
  6
CONTINUOUS
 10
121.8099840621
 20
131.8207004518
 11
122.3308171967
 21
131.7143174858
  0
LINE
  5
2BC
100
AcDbEntity
  8
0
100
AcDbLine
 62
7
  6
CONTINUOUS
 10
73.8863313917
 20
143.6509490127
 11
74.3118632559
 21
143.5467815513
  0
LINE
  5
2BD
100
AcDbEntity
  8
0
100
AcDbLine
 62
7
  6
CONTINUOUS
 10
76.8650548879
 20
141.7759484167
 11
77.184203786
 21
141.6717821474
  0
LINE
  5
2BE
100
AcDbEntity
  8
0
100
AcDbLine
 62
7
  6
CONTINUOUS
 10
74.4182465199
 20
144.1717815513
 11
74.0990973238
 21
144.2759490127
  0
LINE
  5
2BF
100
AcDbEntity
  8
0
100
AcDbLine
 62
7
  6
CONTINUOUS
 10
77.3969697926
 20
146.880115282
 11
76.971437854
 21
147.0884490127
  0
LINE
  5
2C0
100
AcDbEntity
  8
0
100
AcDbLine
 62
7
  6
CONTINUOUS
 10
76.8650548879
 20
146.4634490127
 11
77.184203786
 21
146.255115282
  0
LINE
  5
2C1
100
AcDbEntity
  8
0
100
AcDbLine
 62
7
  6
CONTINUOUS
 10
77.3969697926
 20
138.6509484167
 11
77.822501694
 21
139.067615282
  0
LINE
  5
2C2
100
AcDbEntity
  8
0
100
AcDbLine
 62
7
  6
CONTINUOUS
 10
77.3969697926
 20
133.755115282
 11
77.822501694
 21
134.1717819238
  0
LINE
  5
2C3
100
AcDbEntity
  8
0
100
AcDbLine
 62
7
  6
CONTINUOUS
 10
77.184203786
 20
139.2759484167
 11
76.8650548879
 21
139.067615282
  0
LINE
  5
2C4
100
AcDbEntity
  8
0
100
AcDbLine
 62
7
  6
CONTINUOUS
 10
77.184203786
 20
143.3384484167
 11
77.716118728
 21
143.6509490127
  0
LINE
  5
2C5
100
AcDbEntity
  8
0
100
AcDbLine
 62
7
  6
CONTINUOUS
 10
74.3118632559
 20
146.7759490127
 11
73.9927143578
 21
146.6717815513
  0
LINE
  5
2C6
100
AcDbEntity
  8
0
100
AcDbLine
 62
7
  6
CONTINUOUS
 10
74.9501613502
 20
144.2759490127
 11
74.631012452
 21
144.1717815513
  0
LINE
  5
2C7
100
AcDbEntity
  8
0
100
AcDbLine
 62
7
  6
CONTINUOUS
 10
76.8650548879
 20
134.1717819238
 11
76.4395230237
 21
134.067615282
  0
LINE
  5
2C8
100
AcDbEntity
  8
0
100
AcDbLine
 62
7
  6
CONTINUOUS
 10
74.4182465199
 20
137.505115282
 11
73.8863313917
 21
137.4009487147
  0
LINE
  5
2C9
100
AcDbEntity
  8
0
100
AcDbLine
 62
7
  6
CONTINUOUS
 10
76.4395230237
 20
138.3384487147
 11
76.971437854
 21
138.442615282
  0
LINE
  5
2CA
100
AcDbEntity
  8
0
100
AcDbLine
 62
7
  6
CONTINUOUS
 10
76.4395230237
 20
138.9634484167
 11
74.8437783841
 21
138.9634484167
  0
LINE
  5
2CB
100
AcDbEntity
  8
0
100
AcDbLine
 62
7
  6
CONTINUOUS
 10
120.6641506294
 20
127.7781471834
 11
121.1849840621
 21
127.4589982574
  0
LINE
  5
2CC
100
AcDbEntity
  8
0
100
AcDbLine
 62
7
  6
CONTINUOUS
 10
77.184203786
 20
134.380115282
 11
76.8650548879
 21
134.1717819238
  0
LINE
  5
2CD
100
AcDbEntity
  8
0
100
AcDbLine
 62
7
  6
CONTINUOUS
 10
76.971437854
 20
138.442615282
 11
77.3969697926
 21
138.6509484167
  0
LINE
  5
2CE
100
AcDbEntity
  8
0
100
AcDbLine
 62
7
  6
CONTINUOUS
 10
77.07782082
 20
143.9634490127
 11
76.7586719219
 21
143.8592815513
  0
LINE
  5
2CF
100
AcDbEntity
  8
0
100
AcDbLine
 62
7
  6
CONTINUOUS
 10
74.0990973238
 20
141.6717821474
 11
74.4182465199
 21
141.7759484167
  0
LINE
  5
2D0
100
AcDbEntity
  8
0
100
AcDbLine
 62
7
  6
CONTINUOUS
 10
76.8650548879
 20
139.067615282
 11
76.4395230237
 21
138.9634484167
  0
LINE
  5
2D1
100
AcDbEntity
  8
0
100
AcDbLine
 62
7
  6
CONTINUOUS
 10
74.4182465199
 20
142.4009484167
 11
73.8863313917
 21
142.2967821474
  0
LINE
  5
2D2
100
AcDbEntity
  8
0
100
AcDbLine
 62
7
  6
CONTINUOUS
 10
74.3118632559
 20
143.5467815513
 11
74.7373954181
 21
143.5467815513
  0
LINE
  5
2D3
100
AcDbEntity
  8
0
100
AcDbLine
 62
7
  6
CONTINUOUS
 10
74.631012452
 20
144.1717815513
 11
74.4182465199
 21
144.1717815513
  0
LINE
  5
2D4
100
AcDbEntity
  8
0
100
AcDbLine
 62
7
  6
CONTINUOUS
 10
76.5459059898
 20
146.4634490127
 11
76.8650548879
 21
146.4634490127
  0
LINE
  5
2D5
100
AcDbEntity
  8
0
100
AcDbLine
 62
7
  6
CONTINUOUS
 10
76.971437854
 20
147.0884490127
 11
76.4395230237
 21
147.0884490127
  0
LINE
  5
2D6
100
AcDbEntity
  8
0
100
AcDbLine
 62
7
  6
CONTINUOUS
 10
121.2891506294
 20
127.9909131528
 11
120.9766506294
 21
128.2036790849
  0
LINE
  5
2D7
100
AcDbEntity
  8
0
100
AcDbLine
 62
7
  6
CONTINUOUS
 10
76.971437854
 20
133.5467819518
 11
77.3969697926
 21
133.755115282
  0
LINE
  5
2D8
100
AcDbEntity
  8
0
100
AcDbLine
 62
7
  6
CONTINUOUS
 10
74.0990973238
 20
136.7759487147
 11
74.4182465199
 21
136.880115282
  0
LINE
  5
2D9
100
AcDbEntity
  8
0
100
AcDbLine
 62
7
  6
CONTINUOUS
 10
76.7586719219
 20
143.2342821474
 11
77.184203786
 21
143.3384484167
  0
LINE
  5
2DA
100
AcDbEntity
  8
0
100
AcDbLine
 62
7
  6
CONTINUOUS
 10
74.7373954181
 20
143.5467815513
 11
75.1629272822
 21
143.6509490127
  0
LINE
  5
2DB
100
AcDbEntity
  8
_30_VOLUMEN
100
AcDbLine
 62
7
  6
CONTINUOUS
 10
121.7516506294
 20
151.552615282
 11
127.5516506294
 21
151.552615282
  0
LINE
  5
2DC
100
AcDbEntity
  8
0
100
AcDbLine
 62
7
  6
CONTINUOUS
 10
122.9558174948
 20
131.9270834178
 11
122.4349840621
 21
132.246232316
  0
LINE
  5
2DD
100
AcDbEntity
  8
0
100
AcDbLine
 62
7
  6
CONTINUOUS
 10
122.3308171967
 20
131.7143174858
 11
122.6433171967
 21
131.5015515537
  0
LINE
  5
2DE
100
AcDbEntity
  8
0
100
AcDbLine
 62
7
  6
CONTINUOUS
 10
120.3516506294
 20
128.0972961188
 11
120.6641506294
 21
127.7781471834
  0
LINE
  5
2DF
100
AcDbEntity
  8
RUNDUNGEN
100
AcDbLine
 62
7
  6
CONTINUOUS
 10
86.9182102374
 20
155.052615282
 11
104.1850910215
 21
155.052615282
  0
LINE
  5
2E0
100
AcDbEntity
  8
0
100
AcDbLine
 62
7
  6
CONTINUOUS
 10
123.2683174948
 20
131.6079345197
 11
122.9558174948
 21
131.9270834178
  0
LINE
  5
2E1
100
AcDbEntity
  8
BEZUGSACHSEN
100
AcDbLine
 62
7
  6
CONTINUOUS
 10
109.0516506294
 20
94.802615282
 11
109.0516506294
 21
123.1922814442
  0
LINE
  5
2E2
100
AcDbEntity
  8
RUNDUNGEN
100
AcDbLine
 62
7
  6
CONTINUOUS
 10
109.0516506294
 20
94.802615282
 11
109.0516506294
 21
150.052615282
  0
LINE
  5
2E3
100
AcDbEntity
  8
RUNDUNGEN
100
AcDbLine
 62
7
  6
CONTINUOUS
 10
110.5516506294
 20
185.552615282
 11
110.5516506294
 21
159.0352335747
  0
LINE
  5
2E4
100
AcDbEntity
  8
0
100
AcDbLine
 62
7
  6
CONTINUOUS
 10
120.9766506294
 20
128.2036790849
 11
120.5599840621
 21
128.8419769556
  0
LINE
  5
2E5
100
AcDbEntity
  8
0
100
AcDbLine
 62
7
  6
CONTINUOUS
 10
122.6433171967
 20
131.5015515537
 11
123.0599837641
 21
130.8632534594
  0
LINE
  5
2E6
100
AcDbEntity
  8
0
100
AcDbLine
 62
7
  6
CONTINUOUS
 10
120.1433173458
 20
128.5228280575
 11
120.3516506294
 21
128.0972961188
  0
LINE
  5
2E7
100
AcDbEntity
  8
0
100
AcDbLine
 62
7
  6
CONTINUOUS
 10
115.045443127
 20
112.1359486153
 11
115.045443127
 21
110.9692819487
  0
LINE
  5
2E8
100
AcDbEntity
  8
FASEN
100
AcDbLine
 62
7
  6
CONTINUOUS
 10
66.5516506302
 20
96.5526152828
 11
67.0516506302
 21
97.0526152827
  0
LINE
  5
2E9
100
AcDbEntity
  8
0
100
AcDbLine
 62
7
  6
CONTINUOUS
 10
123.4766506294
 20
131.1824026556
 11
123.2683174948
 21
131.6079345197
  0
LINE
  5
2EA
100
AcDbEntity
  8
0
100
AcDbLine
 62
7
  6
CONTINUOUS
 10
120.0391506294
 20
128.8419769556
 11
120.1433173458
 21
128.5228280575
  0
LINE
  5
2EB
100
AcDbEntity
  8
0
100
AcDbLine
 62
7
  6
CONTINUOUS
 10
117.8516506294
 20
131.6079345197
 11
117.8516506294
 21
130.7568704934
  0
LINE
  5
2EC
100
AcDbEntity
  8
0
100
AcDbLine
 62
7
  6
CONTINUOUS
 10
118.4766506294
 20
131.5015515537
 11
118.4766506294
 21
127.352615282
  0
LINE
  5
2ED
100
AcDbEntity
  8
0
100
AcDbLine
 62
7
  6
CONTINUOUS
 10
119.1016506294
 20
127.352615282
 11
119.1016506294
 21
132.352615282
  0
LINE
  5
2EE
100
AcDbEntity
  8
0
100
AcDbLine
 62
7
  6
CONTINUOUS
 10
119.9349839131
 20
130.3313386292
 11
119.9349839131
 21
129.3738919348
  0
LINE
  5
2EF
100
AcDbEntity
  8
0
100
AcDbLine
 62
7
  6
CONTINUOUS
 10
123.5808174948
 20
130.8632534594
 11
123.4766506294
 21
131.1824026556
  0
LINE
  5
2F0
100
AcDbEntity
  8
0
100
AcDbLine
 62
7
  6
CONTINUOUS
 10
119.9349839131
 20
129.3738919348
 11
120.0391506294
 21
128.8419769556
  0
LINE
  5
2F1
100
AcDbEntity
  8
0
100
AcDbLine
 62
7
  6
CONTINUOUS
 10
120.5599840621
 20
128.8419769556
 11
120.4558171967
 21
129.4802749009
  0
LINE
  5
2F2
100
AcDbEntity
  8
0
100
AcDbLine
 62
7
  6
CONTINUOUS
 10
120.4558171967
 20
129.4802749009
 11
120.4558171967
 21
130.2249556632
  0
LINE
  5
2F3
100
AcDbEntity
  8
0
100
AcDbLine
 62
7
  6
CONTINUOUS
 10
121.045443127
 20
113.6015533716
 11
121.045443127
 21
112.6359486153
  0
LINE
  5
2F4
100
AcDbEntity
  8
0
100
AcDbLine
 62
7
  6
CONTINUOUS
 10
121.045443127
 20
110.4692819487
 11
121.045443127
 21
109.5036771924
  0
LINE
  5
2F5
100
AcDbEntity
  8
_30_VOLUMEN
100
AcDbLine
 62
7
  6
CONTINUOUS
 10
121.7516506294
 20
136.552615282
 11
121.7516506294
 21
151.552615282
  0
LINE
  5
2F6
100
AcDbEntity
  8
_30_VOLUMEN
100
AcDbLine
 62
7
  6
CONTINUOUS
 10
121.8516506294
 20
142.852615282
 11
121.8516506294
 21
136.552615282
  0
LINE
  5
2F7
100
AcDbEntity
  8
0
100
AcDbLine
 62
7
  6
CONTINUOUS
 10
123.1641506294
 20
130.2249556632
 11
123.1641506294
 21
129.4802749009
  0
LINE
  5
2F8
100
AcDbEntity
  8
0
100
AcDbLine
 62
7
  6
CONTINUOUS
 10
123.6849837641
 20
129.3738919348
 11
123.6849837641
 21
130.3313386292
  0
LINE
  5
2F9
100
AcDbEntity
  8
0
100
AcDbLine
 62
7
  6
CONTINUOUS
 10
120.4558171967
 20
130.2249556632
 11
120.5599840621
 21
130.8632534594
  0
LINE
  5
2FA
100
AcDbEntity
  8
0
100
AcDbLine
 62
7
  6
CONTINUOUS
 10
120.0391506294
 20
130.8632534594
 11
119.9349839131
 21
130.3313386292
  0
LINE
  5
2FB
100
AcDbEntity
  8
0
100
AcDbLine
 62
7
  6
CONTINUOUS
 10
120.1433173458
 20
131.1824026556
 11
120.0391506294
 21
130.8632534594
  0
LINE
  5
2FC
100
AcDbEntity
  8
0
100
AcDbLine
 62
7
  6
CONTINUOUS
 10
118.4766506294
 20
132.352615282
 11
117.8516506294
 21
131.6079345197
  0
LINE
  5
2FD
100
AcDbEntity
  8
0
100
AcDbLine
 62
7
  6
CONTINUOUS
 10
117.8516506294
 20
130.7568704934
 11
118.4766506294
 21
131.5015515537
  0
LINE
  5
2FE
100
AcDbEntity
  8
0
100
AcDbLine
 62
7
  6
CONTINUOUS
 10
120.9766506294
 20
131.5015515537
 11
121.2891506294
 21
131.7143174858
  0
LINE
  5
2FF
100
AcDbEntity
  8
0
100
AcDbLine
 62
7
  6
CONTINUOUS
 10
121.1849840621
 20
132.246232316
 11
120.6641506294
 21
131.9270834178
  0
LINE
  5
300
100
AcDbEntity
  8
RUNDUNGEN
100
AcDbLine
 62
7
  6
CONTINUOUS
 10
125.5516506294
 20
158.4241941853
 11
113.0516506294
 21
165.6410725501
  0
LINE
  5
301
100
AcDbEntity
  8
0
100
AcDbLine
 62
7
  6
CONTINUOUS
 10
123.6849837641
 20
130.3313386292
 11
123.5808174948
 21
130.8632534594
  0
LINE
  5
302
100
AcDbEntity
  8
0
100
AcDbLine
 62
7
  6
CONTINUOUS
 10
123.0599837641
 20
130.8632534594
 11
123.1641506294
 21
130.2249556632
  0
LINE
  5
303
100
AcDbEntity
  8
_30_VOLUMEN
100
AcDbLine
 62
7
  6
CONTINUOUS
 10
127.5516506294
 20
151.552615282
 11
127.5516506294
 21
154.9600925701
  0
LINE
  5
304
100
AcDbEntity
  8
_30_VOLUMEN
100
AcDbLine
 62
7
  6
CONTINUOUS
 10
128.8516506294
 20
93.302615282
 11
128.8516506294
 21
136.552615282
  0
LINE
  5
305
100
AcDbEntity
  8
0
100
AcDbLine
 62
7
  6
CONTINUOUS
 10
123.1641506294
 20
129.4802749009
 11
123.0599837641
 21
128.8419769556
  0
LINE
  5
306
100
AcDbEntity
  8
0
100
AcDbLine
 62
7
  6
CONTINUOUS
 10
123.5808174948
 20
128.8419769556
 11
123.6849837641
 21
129.3738919348
  0
LINE
  5
307
100
AcDbEntity
  8
0
100
AcDbLine
 62
7
  6
CONTINUOUS
 10
123.4766506294
 20
128.5228280575
 11
123.5808174948
 21
128.8419769556
  0
LINE
  5
308
100
AcDbEntity
  8
0
100
AcDbLine
 62
7
  6
CONTINUOUS
 10
120.3516506294
 20
131.6079345197
 11
120.1433173458
 21
131.1824026556
  0
LINE
  5
309
100
AcDbEntity
  8
0
100
AcDbLine
 62
7
  6
CONTINUOUS
 10
120.5599840621
 20
130.8632534594
 11
120.9766506294
 21
131.5015515537
  0
LINE
  5
30A
100
AcDbEntity
  8
0
100
AcDbLine
 62
7
  6
CONTINUOUS
 10
123.0599837641
 20
128.8419769556
 11
122.6433171967
 21
128.2036790849
  0
LINE
  5
30B
100
AcDbEntity
  8
0
100
AcDbLine
 62
7
  6
CONTINUOUS
 10
120.6641506294
 20
131.9270834178
 11
120.3516506294
 21
131.6079345197
  0
LINE
  5
30C
100
AcDbEntity
  8
0
100
AcDbLine
 62
7
  6
CONTINUOUS
 10
122.6433171967
 20
128.2036790849
 11
122.3308171967
 21
127.9909131528
  0
LINE
  5
30D
100
AcDbEntity
  8
0
100
AcDbLine
 62
7
  6
CONTINUOUS
 10
122.4349840621
 20
127.4589982574
 11
122.9558174948
 21
127.7781471834
  0
LINE
  5
30E
100
AcDbEntity
  8
_30_VOLUMEN
100
AcDbLine
 62
7
  6
CONTINUOUS
 10
129.2516506294
 20
142.852615282
 11
129.2516506294
 21
100.552615282
  0
LINE
  5
30F
100
AcDbEntity
  8
_30_VOLUMEN
100
AcDbLine
 62
7
  6
CONTINUOUS
 10
129.3516506294
 20
136.5581687815
 11
129.3516506294
 21
121.5470617825
  0
LINE
  5
310
100
AcDbEntity
  8
0
100
AcDbLine
 62
7
  6
CONTINUOUS
 10
129.8516506294
 20
118.802615282
 11
129.8516506294
 21
104.302615282
  0
LINE
  5
311
100
AcDbEntity
  8
0
100
AcDbLine
 62
7
  6
CONTINUOUS
 10
131.6940696615
 20
118.802615282
 11
131.6940696615
 21
104.302615282
  0
LINE
  5
312
100
AcDbEntity
  8
_30_VOLUMEN
100
AcDbLine
 62
7
  6
CONTINUOUS
 10
132.7516506294
 20
136.5581687815
 11
132.7516506294
 21
121.5470617825
  0
LINE
  5
313
100
AcDbEntity
  8
0
100
AcDbLine
 62
7
  6
CONTINUOUS
 10
123.2683174948
 20
128.0972961188
 11
123.4766506294
 21
128.5228280575
  0
LINE
  5
314
100
AcDbEntity
  8
0
100
AcDbLine
 62
7
  6
CONTINUOUS
 10
122.9558174948
 20
127.7781471834
 11
123.2683174948
 21
128.0972961188
  0
LINE
  5
315
100
AcDbEntity
  8
RUNDUNGEN
100
AcDbLine
 62
7
  6
CONTINUOUS
 10
137.0516506294
 20
106.9528228202
 11
137.0516506294
 21
116.1524077438
  0
LINE
  5
316
100
AcDbEntity
  8
0
100
AcDbLine
 62
7
  6
CONTINUOUS
 10
124.7062438054
 20
111.340615706
 11
121.427942862
 21
109.2916776164
  0
LINE
  5
317
100
AcDbEntity
  8
RUNDUNGEN
100
AcDbLine
 62
7
  6
CONTINUOUS
 10
136.3936707727
 20
106.0131301994
 11
131.6940696615
 21
104.302615282
  0
LINE
  5
318
100
AcDbEntity
  8
0
100
AcDbLine
 62
7
  6
CONTINUOUS
 10
208.7453507287
 20
109.6909131528
 11
208.224517594
 21
109.5845301867
  0
LINE
  5
319
100
AcDbEntity
  8
0
100
AcDbLine
 62
7
  6
CONTINUOUS
 10
208.224517594
 20
109.052615282
 11
208.849517594
 21
109.1589982574
  0
LINE
  5
31A
100
AcDbEntity
  8
0
100
AcDbLine
 62
7
  6
CONTINUOUS
 10
204.8911841613
 20
109.052615282
 11
205.5161841613
 21
109.052615282
  0
LINE
  5
31B
100
AcDbEntity
  8
BEZUGSACHSEN
100
AcDbLine
 62
7
  6
CONTINUOUS
 10
188.5743210445
 20
109.2536771924
 11
189.0782276399
 21
109.2536771924
  0
LINE
  5
31C
100
AcDbEntity
  8
0
100
AcDbLine
 62
7
  6
CONTINUOUS
 10
225.287474175
 20
109.2536771924
 11
225.7913807704
 21
109.2536771924
  0
LINE
  5
31D
100
AcDbEntity
  8
BEZUGSACHSEN
100
AcDbLine
 62
7
  6
CONTINUOUS
 10
188.9518867104
 20
110.7192819487
 11
188.45137858
 21
110.7192819487
  0
LINE
  5
31E
100
AcDbEntity
  8
0
100
AcDbLine
 62
7
  6
CONTINUOUS
 10
225.4138151046
 20
110.7192819487
 11
225.914323235
 21
110.7192819487
  0
LINE
  5
31F
100
AcDbEntity
  8
0
100
AcDbLine
 62
7
  6
CONTINUOUS
 10
207.599517594
 20
109.1589982574
 11
208.224517594
 21
109.052615282
  0
LINE
  5
320
100
AcDbEntity
  8
0
100
AcDbLine
 62
7
  6
CONTINUOUS
 10
208.224517594
 20
109.5845301867
 11
207.7036841613
 21
109.6909131528
  0
LINE
  5
321
100
AcDbEntity
  8
0
100
AcDbLine
 62
7
  6
CONTINUOUS
 10
207.7036841613
 20
113.4143174858
 11
208.224517594
 21
113.5207004518
  0
LINE
  5
322
100
AcDbEntity
  8
0
100
AcDbLine
 62
7
  6
CONTINUOUS
 10
208.224517594
 20
114.052615282
 11
207.599517594
 21
113.946232316
  0
LINE
  5
323
100
AcDbEntity
  8
BEZUGSACHSEN
100
AcDbLine
 62
7
  6
CONTINUOUS
 10
188.9518867104
 20
112.3859486153
 11
188.45137858
 21
112.3859486153
  0
LINE
  5
324
100
AcDbEntity
  8
0
100
AcDbLine
 62
7
  6
CONTINUOUS
 10
225.4138151046
 20
112.3859486153
 11
225.914323235
 21
112.3859486153
  0
LINE
  5
325
100
AcDbEntity
  8
BEZUGSACHSEN
100
AcDbLine
 62
7
  6
CONTINUOUS
 10
188.5743210445
 20
113.8515533716
 11
189.0782276399
 21
113.8515533716
  0
LINE
  5
326
100
AcDbEntity
  8
0
100
AcDbLine
 62
7
  6
CONTINUOUS
 10
225.287474175
 20
113.8515533716
 11
225.7913807704
 21
113.8515533716
  0
LINE
  5
327
100
AcDbEntity
  8
0
100
AcDbLine
 62
7
  6
CONTINUOUS
 10
205.5161841613
 20
114.052615282
 11
204.8911841613
 21
114.052615282
  0
LINE
  5
328
100
AcDbEntity
  8
0
100
AcDbLine
 62
7
  6
CONTINUOUS
 10
208.849517594
 20
113.946232316
 11
208.224517594
 21
114.052615282
  0
LINE
  5
329
100
AcDbEntity
  8
0
100
AcDbLine
 62
7
  6
CONTINUOUS
 10
208.224517594
 20
113.5207004518
 11
208.7453507287
 21
113.4143174858
  0
LINE
  5
32A
100
AcDbEntity
  8
0
100
AcDbLine
 62
7
  6
CONTINUOUS
 10
207.0786841613
 20
109.4781471834
 11
207.599517594
 21
109.1589982574
  0
LINE
  5
32B
100
AcDbEntity
  8
0
100
AcDbLine
 62
7
  6
CONTINUOUS
 10
212.7036836845
 20
117.2972961188
 11
212.2870174152
 21
117.1909131528
  0
LINE
  5
32C
100
AcDbEntity
  8
0
100
AcDbLine
 62
7
  6
CONTINUOUS
 10
207.7036842806
 20
117.2972961188
 11
207.2870174152
 21
117.1909131528
  0
LINE
  5
32D
100
AcDbEntity
  8
0
100
AcDbLine
 62
7
  6
CONTINUOUS
 10
212.2870174152
 20
116.552615282
 11
212.8078511459
 21
116.6589982574
  0
LINE
  5
32E
100
AcDbEntity
  8
0
100
AcDbLine
 62
7
  6
CONTINUOUS
 10
207.2870174152
 20
116.552615282
 11
207.8078505499
 21
116.6589982574
  0
LINE
  5
32F
100
AcDbEntity
  8
0
100
AcDbLine
 62
7
  6
CONTINUOUS
 10
200.4120174152
 20
116.552615282
 11
201.0370174152
 21
116.552615282
  0
LINE
  5
330
100
AcDbEntity
  8
0
100
AcDbLine
 62
7
  6
CONTINUOUS
 10
203.6411839825
 20
116.552615282
 11
204.3703508479
 21
116.552615282
  0
LINE
  5
331
100
AcDbEntity
  8
0
100
AcDbLine
 62
7
  6
CONTINUOUS
 10
206.8703505499
 20
116.552615282
 11
207.2870174152
 21
116.552615282
  0
LINE
  5
332
100
AcDbEntity
  8
0
100
AcDbLine
 62
7
  6
CONTINUOUS
 10
209.7870174152
 20
116.552615282
 11
212.2870174152
 21
116.552615282
  0
LINE
  5
333
100
AcDbEntity
  8
0
100
AcDbLine
 62
7
  6
CONTINUOUS
 10
212.2870174152
 20
117.1909131528
 11
210.4120174152
 21
117.1909131528
  0
LINE
  5
334
100
AcDbEntity
  8
0
100
AcDbLine
 62
7
  6
CONTINUOUS
 10
207.2870174152
 20
117.1909131528
 11
206.8703505499
 21
117.1909131528
  0
LINE
  5
335
100
AcDbEntity
  8
0
100
AcDbLine
 62
7
  6
CONTINUOUS
 10
201.0370174152
 20
118.7866578669
 11
202.8078506989
 21
118.7866578669
  0
LINE
  5
336
100
AcDbEntity
  8
0
100
AcDbLine
 62
7
  6
CONTINUOUS
 10
203.0161839825
 20
119.4249556632
 11
201.0370174152
 21
119.4249556632
  0
LINE
  5
337
100
AcDbEntity
  8
0
100
AcDbLine
 62
7
  6
CONTINUOUS
 10
206.3495174152
 20
116.6589982574
 11
206.8703505499
 21
116.552615282
  0
LINE
  5
338
100
AcDbEntity
  8
0
100
AcDbLine
 62
7
  6
CONTINUOUS
 10
206.8703505499
 20
117.1909131528
 11
206.4536842806
 21
117.2972961188
  0
LINE
  5
339
100
AcDbEntity
  8
0
100
AcDbLine
 62
7
  6
CONTINUOUS
 10
205.9328505499
 20
116.8717642174
 11
206.3495174152
 21
116.6589982574
  0
LINE
  5
33A
100
AcDbEntity
  8
0
100
AcDbLine
 62
7
  6
CONTINUOUS
 10
209.3703510267
 20
113.6270834178
 11
208.849517594
 21
113.946232316
  0
LINE
  5
33B
100
AcDbEntity
  8
0
100
AcDbLine
 62
7
  6
CONTINUOUS
 10
207.7036841613
 20
109.6909131528
 11
207.3911841613
 21
109.9036790849
  0
LINE
  5
33C
100
AcDbEntity
  8
BEZUGSACHSEN
100
AcDbLine
 62
7
  6
CONTINUOUS
 10
181.9328509075
 20
173.324640602
 11
181.9328509075
 21
199.052615282
  0
LINE
  5
33D
100
AcDbEntity
  8
0
100
AcDbLine
 62
7
  6
CONTINUOUS
 10
210.4120174152
 20
120.9143174858
 11
212.2870174152
 21
120.9143174858
  0
LINE
  5
33E
100
AcDbEntity
  8
0
100
AcDbLine
 62
7
  6
CONTINUOUS
 10
201.0370174152
 20
121.0207004518
 11
203.0161839825
 21
121.0207004518
  0
LINE
  5
33F
100
AcDbEntity
  8
0
100
AcDbLine
 62
7
  6
CONTINUOUS
 10
212.2870174152
 20
121.552615282
 11
209.7870174152
 21
121.552615282
  0
LINE
  5
340
100
AcDbEntity
  8
0
100
AcDbLine
 62
7
  6
CONTINUOUS
 10
208.9536842806
 20
121.552615282
 11
208.3286842806
 21
121.552615282
  0
LINE
  5
341
100
AcDbEntity
  8
0
100
AcDbLine
 62
7
  6
CONTINUOUS
 10
205.8286842806
 20
121.552615282
 11
205.2036839825
 21
121.552615282
  0
LINE
  5
342
100
AcDbEntity
  8
0
100
AcDbLine
 62
7
  6
CONTINUOUS
 10
202.9120174152
 20
121.552615282
 11
200.4120174152
 21
121.552615282
  0
LINE
  5
343
100
AcDbEntity
  8
0
100
AcDbLine
 62
7
  6
CONTINUOUS
 10
203.4328508479
 20
121.446232316
 11
202.9120174152
 21
121.552615282
  0
LINE
  5
344
100
AcDbEntity
  8
0
100
AcDbLine
 62
7
  6
CONTINUOUS
 10
212.8078511459
 20
121.446232316
 11
212.2870174152
 21
121.552615282
  0
LINE
  5
345
100
AcDbEntity
  8
0
100
AcDbLine
 62
7
  6
CONTINUOUS
 10
212.2870174152
 20
120.9143174858
 11
212.7036836845
 21
120.8079345197
  0
LINE
  5
346
100
AcDbEntity
  8
0
100
AcDbLine
 62
7
  6
CONTINUOUS
 10
203.0161839825
 20
121.0207004518
 11
203.3286839825
 21
120.9143174858
  0
LINE
  5
347
100
AcDbEntity
  8
0
100
AcDbLine
 62
7
  6
CONTINUOUS
 10
208.7453507287
 20
113.4143174858
 11
209.0578507287
 21
113.2015515537
  0
LINE
  5
348
100
AcDbEntity
  8
0
100
AcDbLine
 62
7
  6
CONTINUOUS
 10
206.4536842806
 20
117.2972961188
 11
206.1411842806
 21
117.5100621254
  0
LINE
  5
349
100
AcDbEntity
  8
0
100
AcDbLine
 62
7
  6
CONTINUOUS
 10
206.7661841613
 20
109.7972961188
 11
207.0786841613
 21
109.4781471834
  0
LINE
  5
34A
100
AcDbEntity
  8
0
100
AcDbLine
 62
7
  6
CONTINUOUS
 10
219.1828509075
 20
127.352615282
 11
219.6828509075
 21
127.352615282
  0
LINE
  5
34B
100
AcDbEntity
  8
0
100
AcDbLine
 62
7
  6
CONTINUOUS
 10
213.2245174152
 20
121.2334663839
 11
212.8078511459
 21
121.446232316
  0
LINE
  5
34C
100
AcDbEntity
  8
0
100
AcDbLine
 62
7
  6
CONTINUOUS
 10
203.8495174152
 20
121.1270834178
 11
203.4328508479
 21
121.446232316
  0
LINE
  5
34D
100
AcDbEntity
  8
0
100
AcDbLine
 62
7
  6
CONTINUOUS
 10
205.5161842806
 20
117.2972961188
 11
205.9328505499
 21
116.8717642174
  0
LINE
  5
34E
100
AcDbEntity
  8
0
100
AcDbLine
 62
7
  6
CONTINUOUS
 10
209.6828510267
 20
113.3079345197
 11
209.3703510267
 21
113.6270834178
  0
LINE
  5
34F
100
AcDbEntity
  8
0
100
AcDbLine
 62
7
  6
CONTINUOUS
 10
203.3286839825
 20
120.9143174858
 11
203.5370174152
 21
120.7015515537
  0
LINE
  5
350
100
AcDbEntity
  8
0
100
AcDbLine
 62
7
  6
CONTINUOUS
 10
207.3911841613
 20
109.9036790849
 11
206.974517594
 21
110.5419769556
  0
LINE
  5
351
100
AcDbEntity
  8
0
100
AcDbLine
 62
7
  6
CONTINUOUS
 10
219.1828509075
 20
130.7568704934
 11
219.6828509075
 21
130.7568704934
  0
LINE
  5
352
100
AcDbEntity
  8
0
100
AcDbLine
 62
7
  6
CONTINUOUS
 10
219.1828509075
 20
131.6079345197
 11
219.6828509075
 21
131.6079345197
  0
LINE
  5
353
100
AcDbEntity
  8
0
100
AcDbLine
 62
7
  6
CONTINUOUS
 10
212.7036836845
 20
120.8079345197
 11
213.0161836845
 21
120.5951685876
  0
LINE
  5
354
100
AcDbEntity
  8
0
100
AcDbLine
 62
7
  6
CONTINUOUS
 10
204.1620174152
 20
120.7015515537
 11
203.8495174152
 21
121.1270834178
  0
LINE
  5
355
100
AcDbEntity
  8
0
100
AcDbLine
 62
7
  6
CONTINUOUS
 10
206.1411842806
 20
117.5100621254
 11
205.9328505499
 21
117.8292110235
  0
LINE
  5
356
100
AcDbEntity
  8
0
100
AcDbLine
 62
7
  6
CONTINUOUS
 10
209.0578507287
 20
113.2015515537
 11
209.474517296
 21
112.5632534594
  0
LINE
  5
357
100
AcDbEntity
  8
0
100
AcDbLine
 62
7
  6
CONTINUOUS
 10
206.5578508777
 20
110.2228280575
 11
206.7661841613
 21
109.7972961188
  0
LINE
  5
358
100
AcDbEntity
  8
BEZUGSACHSEN
100
AcDbLine
 62
7
  6
CONTINUOUS
 10
195.1828509075
 20
127.0142613781
 11
195.1828509075
 21
134.552615282
  0
LINE
  5
359
100
AcDbEntity
  8
0
100
AcDbLine
 62
7
  6
CONTINUOUS
 10
219.1828509075
 20
132.352615282
 11
219.6828509075
 21
132.352615282
  0
LINE
  5
35A
100
AcDbEntity
  8
0
100
AcDbLine
 62
7
  6
CONTINUOUS
 10
213.6828509075
 20
133.442615282
 11
214.1828509075
 21
133.442615282
  0
LINE
  5
35B
100
AcDbEntity
  8
0
100
AcDbLine
 62
7
  6
CONTINUOUS
 10
213.6828509075
 20
133.5467819518
 11
214.1828509075
 21
133.5467819518
  0
LINE
  5
35C
100
AcDbEntity
  8
0
100
AcDbLine
 62
7
  6
CONTINUOUS
 10
213.6828509075
 20
133.755115282
 11
214.1828509075
 21
133.755115282
  0
LINE
  5
35D
100
AcDbEntity
  8
0
100
AcDbLine
 62
7
  6
CONTINUOUS
 10
213.6828509075
 20
134.1717819238
 11
214.1828509075
 21
134.1717819238
  0
LINE
  5
35E
100
AcDbEntity
  8
0
100
AcDbLine
 62
7
  6
CONTINUOUS
 10
200.1828509075
 20
134.2174736064
 11
200.6828509075
 21
134.2174736064
  0
LINE
  5
35F
100
AcDbEntity
  8
0
100
AcDbLine
 62
7
  6
CONTINUOUS
 10
213.6828509075
 20
134.5884486402
 11
214.1828509075
 21
134.5884486402
  0
LINE
  5
360
100
AcDbEntity
  8
0
100
AcDbLine
 62
7
  6
CONTINUOUS
 10
213.6828509075
 20
135.1092819983
 11
214.1828509075
 21
135.1092819983
  0
LINE
  5
361
100
AcDbEntity
  8
0
100
AcDbLine
 62
7
  6
CONTINUOUS
 10
213.6411836845
 20
120.8079345197
 11
213.2245174152
 21
121.2334663839
  0
LINE
  5
362
100
AcDbEntity
  8
0
100
AcDbLine
 62
7
  6
CONTINUOUS
 10
205.3078508479
 20
117.7228280575
 11
205.5161842806
 21
117.2972961188
  0
LINE
  5
363
100
AcDbEntity
  8
0
100
AcDbLine
 62
7
  6
CONTINUOUS
 10
209.8911841613
 20
112.8824026556
 11
209.6828510267
 21
113.3079345197
  0
LINE
  5
364
100
AcDbEntity
  8
0
100
AcDbLine
 62
7
  6
CONTINUOUS
 10
204.3703508479
 20
116.552615282
 11
203.4328508479
 21
118.999423799
  0
LINE
  5
365
100
AcDbEntity
  8
0
100
AcDbLine
 62
7
  6
CONTINUOUS
 10
202.8078506989
 20
118.7866578669
 11
203.6411839825
 21
116.552615282
  0
LINE
  5
366
100
AcDbEntity
  8
0
100
AcDbLine
 62
7
  6
CONTINUOUS
 10
206.4536841613
 20
110.5419769556
 11
206.5578508777
 21
110.2228280575
  0
LINE
  5
367
100
AcDbEntity
  8
0
100
AcDbLine
 62
7
  6
CONTINUOUS
 10
203.5370174152
 20
120.7015515537
 11
203.6411839825
 21
120.3824026556
  0
LINE
  5
368
100
AcDbEntity
  8
_30_VOLUMEN
100
AcDbLine
 62
7
  6
CONTINUOUS
 10
196.5589873651
 20
185.052615282
 11
196.5589873651
 21
185.552615282
  0
LINE
  5
369
100
AcDbEntity
  8
0
100
AcDbLine
 62
7
  6
CONTINUOUS
 10
213.6828509075
 20
136.0467818493
 11
214.1828509075
 21
136.0467818493
  0
LINE
  5
36A
100
AcDbEntity
  8
0
100
AcDbLine
 62
7
  6
CONTINUOUS
 10
213.6828509075
 20
136.567615282
 11
214.1828509075
 21
136.567615282
  0
LINE
  5
36B
100
AcDbEntity
  8
0
100
AcDbLine
 62
7
  6
CONTINUOUS
 10
213.6828509075
 20
136.9842818493
 11
214.1828509075
 21
136.9842818493
  0
LINE
  5
36C
100
AcDbEntity
  8
0
100
AcDbLine
 62
7
  6
CONTINUOUS
 10
213.6828509075
 20
137.4009487147
 11
214.1828509075
 21
137.4009487147
  0
LINE
  5
36D
100
AcDbEntity
  8
0
100
AcDbLine
 62
7
  6
CONTINUOUS
 10
213.6828509075
 20
137.505115282
 11
214.1828509075
 21
137.505115282
  0
LINE
  5
36E
100
AcDbEntity
  8
0
100
AcDbLine
 62
7
  6
CONTINUOUS
 10
213.6828509075
 20
138.3384487147
 11
214.1828509075
 21
138.3384487147
  0
LINE
  5
36F
100
AcDbEntity
  8
0
100
AcDbLine
 62
7
  6
CONTINUOUS
 10
213.6828509075
 20
138.442615282
 11
214.1828509075
 21
138.442615282
  0
LINE
  5
370
100
AcDbEntity
  8
0
100
AcDbLine
 62
7
  6
CONTINUOUS
 10
213.6828509075
 20
138.6509484167
 11
214.1828509075
 21
138.6509484167
  0
LINE
  5
371
100
AcDbEntity
  8
0
100
AcDbLine
 62
7
  6
CONTINUOUS
 10
200.6828509075
 20
139.0174736064
 11
200.1828509075
 21
139.0174736064
  0
LINE
  5
372
100
AcDbEntity
  8
0
100
AcDbLine
 62
7
  6
CONTINUOUS
 10
213.6828509075
 20
139.067615282
 11
214.1828509075
 21
139.067615282
  0
LINE
  5
373
100
AcDbEntity
  8
0
100
AcDbLine
 62
7
  6
CONTINUOUS
 10
213.6828509075
 20
139.4842821474
 11
214.1828509075
 21
139.4842821474
  0
LINE
  5
374
100
AcDbEntity
  8
0
100
AcDbLine
 62
7
  6
CONTINUOUS
 10
213.0161836845
 20
120.5951685876
 11
213.2245174152
 21
120.2760193915
  0
LINE
  5
375
100
AcDbEntity
  8
0
100
AcDbLine
 62
7
  6
CONTINUOUS
 10
204.2661839825
 20
120.3824026556
 11
204.1620174152
 21
120.7015515537
  0
LINE
  5
376
100
AcDbEntity
  8
0
100
AcDbLine
 62
7
  6
CONTINUOUS
 10
209.9953510267
 20
112.5632534594
 11
209.8911841613
 21
112.8824026556
  0
LINE
  5
377
100
AcDbEntity
  8
0
100
AcDbLine
 62
7
  6
CONTINUOUS
 10
205.9328505499
 20
117.8292110235
 11
205.8286842806
 21
118.2547428877
  0
LINE
  5
378
100
AcDbEntity
  8
0
100
AcDbLine
 62
7
  6
CONTINUOUS
 10
206.349517445
 20
111.0738919348
 11
206.4536841613
 21
110.5419769556
  0
LINE
  5
379
100
AcDbEntity
  8
0
100
AcDbLine
 62
7
  6
CONTINUOUS
 10
205.2036839825
 20
118.2547428877
 11
205.3078508479
 21
117.7228280575
  0
LINE
  5
37A
100
AcDbEntity
  8
BEZUGSACHSEN
100
AcDbLine
 62
7
  6
CONTINUOUS
 10
200.6817975663
 20
153.9279172153
 11
200.6828290046
 21
153.8598544799
  0
LINE
  5
37B
100
AcDbEntity
  8
0
100
AcDbLine
 62
7
  6
CONTINUOUS
 10
200.1828509075
 20
134.2174736064
 11
200.1828509075
 21
139.0174736064
  0
LINE
  5
37C
100
AcDbEntity
  8
0
100
AcDbLine
 62
7
  6
CONTINUOUS
 10
200.1828509075
 20
140.2174736064
 11
200.1828509075
 21
144.9174736064
  0
LINE
  5
37D
100
AcDbEntity
  8
0
100
AcDbLine
 62
7
  6
CONTINUOUS
 10
200.1828509075
 20
145.5168924832
 11
200.1828509075
 21
150.8174736064
  0
LINE
  5
37E
100
AcDbEntity
  8
0
100
AcDbLine
 62
7
  6
CONTINUOUS
 10
200.4120174152
 20
121.552615282
 11
200.4120174152
 21
116.552615282
  0
LINE
  5
37F
100
AcDbEntity
  8
BEZUGSACHSEN
100
AcDbLine
 62
7
  6
CONTINUOUS
 10
200.6828509075
 20
163.5433584928
 11
200.6828509075
 21
131.1692536281
  0
LINE
  5
380
100
AcDbEntity
  8
0
100
AcDbLine
 62
7
  6
CONTINUOUS
 10
201.0370174152
 20
116.552615282
 11
201.0370174152
 21
118.7866578669
  0
LINE
  5
381
100
AcDbEntity
  8
0
100
AcDbLine
 62
7
  6
CONTINUOUS
 10
201.0370174152
 20
119.4249556632
 11
201.0370174152
 21
121.0207004518
  0
LINE
  5
382
100
AcDbEntity
  8
_30_VOLUMEN
100
AcDbLine
 62
7
  6
CONTINUOUS
 10
201.0828509075
 20
174.052615282
 11
201.0828509075
 21
198.4302912231
  0
LINE
  5
383
100
AcDbEntity
  8
0
100
AcDbLine
 62
7
  6
CONTINUOUS
 10
203.6411839825
 20
120.3824026556
 11
203.6411839825
 21
120.0632534594
  0
LINE
  5
384
100
AcDbEntity
  8
RUNDUNGEN
100
AcDbLine
 62
7
  6
CONTINUOUS
 10
214.9123159184
 20
156.2617106441
 11
215.1044098424
 21
156.3904782629
  0
LINE
  5
385
100
AcDbEntity
  8
RUNDUNGEN
100
AcDbLine
 62
7
  6
CONTINUOUS
 10
215.1044098424
 20
156.3904782629
 11
215.1769581826
 21
156.4337421762
  0
LINE
  5
386
100
AcDbEntity
  8
RUNDUNGEN
100
AcDbLine
 62
7
  6
CONTINUOUS
 10
215.1769635822
 20
156.4337461793
 11
226.4328509075
 21
162.9323357566
  0
LINE
  5
387
100
AcDbEntity
  8
0
100
AcDbLine
 62
7
  6
CONTINUOUS
 10
213.6828509075
 20
140.005115282
 11
214.1828509075
 21
140.005115282
  0
LINE
  5
388
100
AcDbEntity
  8
0
100
AcDbLine
 62
7
  6
CONTINUOUS
 10
200.6828509075
 20
140.2174736064
 11
200.1828509075
 21
140.2174736064
  0
LINE
  5
389
100
AcDbEntity
  8
0
100
AcDbLine
 62
7
  6
CONTINUOUS
 10
213.6828509075
 20
140.942615282
 11
214.1828509075
 21
140.942615282
  0
LINE
  5
38A
100
AcDbEntity
  8
0
100
AcDbLine
 62
7
  6
CONTINUOUS
 10
200.6828509075
 20
141.4174736064
 11
200.1828509075
 21
141.4174736064
  0
LINE
  5
38B
100
AcDbEntity
  8
0
100
AcDbLine
 62
7
  6
CONTINUOUS
 10
213.6828509075
 20
141.4634484167
 11
214.1828509075
 21
141.4634484167
  0
LINE
  5
38C
100
AcDbEntity
  8
0
100
AcDbLine
 62
7
  6
CONTINUOUS
 10
213.6828509075
 20
141.880115282
 11
214.1828509075
 21
141.880115282
  0
LINE
  5
38D
100
AcDbEntity
  8
0
100
AcDbLine
 62
7
  6
CONTINUOUS
 10
213.6828509075
 20
142.2967821474
 11
214.1828509075
 21
142.2967821474
  0
LINE
  5
38E
100
AcDbEntity
  8
0
100
AcDbLine
 62
7
  6
CONTINUOUS
 10
213.6828509075
 20
142.4009484167
 11
214.1828509075
 21
142.4009484167
  0
LINE
  5
38F
100
AcDbEntity
  8
0
100
AcDbLine
 62
7
  6
CONTINUOUS
 10
213.6828509075
 20
143.2342821474
 11
214.1828509075
 21
143.2342821474
  0
LINE
  5
390
100
AcDbEntity
  8
0
100
AcDbLine
 62
7
  6
CONTINUOUS
 10
213.8495174152
 20
120.3824026556
 11
213.6411836845
 21
120.8079345197
  0
LINE
  5
391
100
AcDbEntity
  8
0
100
AcDbLine
 62
7
  6
CONTINUOUS
 10
210.099517296
 20
112.0313386292
 11
209.9953510267
 21
112.5632534594
  0
LINE
  5
392
100
AcDbEntity
  8
0
100
AcDbLine
 62
7
  6
CONTINUOUS
 10
206.974517594
 20
110.5419769556
 11
206.8703507287
 21
111.1802749009
  0
LINE
  5
393
100
AcDbEntity
  8
0
100
AcDbLine
 62
7
  6
CONTINUOUS
 10
204.2661841613
 20
113.3079345197
 11
204.2661841613
 21
112.4568704934
  0
LINE
  5
394
100
AcDbEntity
  8
0
100
AcDbLine
 62
7
  6
CONTINUOUS
 10
204.2661839825
 20
119.9568704934
 11
204.2661839825
 21
120.3824026556
  0
LINE
  5
395
100
AcDbEntity
  8
0
100
AcDbLine
 62
7
  6
CONTINUOUS
 10
204.8911841613
 20
113.2015515537
 11
204.8911841613
 21
109.052615282
  0
LINE
  5
396
100
AcDbEntity
  8
0
100
AcDbLine
 62
7
  6
CONTINUOUS
 10
205.2036839825
 20
121.552615282
 11
205.2036839825
 21
118.2547428877
  0
LINE
  5
397
100
AcDbEntity
  8
0
100
AcDbLine
 62
7
  6
CONTINUOUS
 10
205.5161841613
 20
109.052615282
 11
205.5161841613
 21
114.052615282
  0
LINE
  5
398
100
AcDbEntity
  8
0
100
AcDbLine
 62
7
  6
CONTINUOUS
 10
205.8286842806
 20
118.2547428877
 11
205.8286842806
 21
121.552615282
  0
LINE
  5
399
100
AcDbEntity
  8
0
100
AcDbLine
 62
7
  6
CONTINUOUS
 10
206.349517445
 20
112.0313386292
 11
206.349517445
 21
111.0738919348
  0
LINE
  5
39A
100
AcDbEntity
  8
0
100
AcDbLine
 62
7
  6
CONTINUOUS
 10
206.8703507287
 20
111.1802749009
 11
206.8703507287
 21
111.9249556632
  0
LINE
  5
39B
100
AcDbEntity
  8
_21_KURVEN
100
AcDbLine
 62
4
  6
CONTINUOUS
 10
207.1828509075
 20
175.5596073468
 11
207.1828509075
 21
198.0503124585
  0
LINE
  5
39C
100
AcDbEntity
  8
RUNDUNGEN
100
AcDbLine
 62
7
  6
CONTINUOUS
 10
214.2617386849
 20
155.6137510942
 11
214.4075203255
 21
155.7968564702
  0
LINE
  5
39D
100
AcDbEntity
  8
RUNDUNGEN
100
AcDbLine
 62
7
  6
CONTINUOUS
 10
214.4047902101
 20
155.7936853872
 11
214.5648868094
 21
155.9657215754
  0
LINE
  5
39E
100
AcDbEntity
  8
RUNDUNGEN
100
AcDbLine
 62
7
  6
CONTINUOUS
 10
214.5615070312
 20
155.9623589494
 11
214.7345671438
 21
156.1217358688
  0
LINE
  5
39F
100
AcDbEntity
  8
RUNDUNGEN
100
AcDbLine
 62
7
  6
CONTINUOUS
 10
214.731003564
 20
156.1186992343
 11
214.9153810861
 21
156.263939101
  0
LINE
  5
3A0
100
AcDbEntity
  8
0
100
AcDbLine
 62
7
  6
CONTINUOUS
 10
213.6828509075
 20
143.5467815513
 11
214.1828509075
 21
143.5467815513
  0
LINE
  5
3A1
100
AcDbEntity
  8
0
100
AcDbLine
 62
7
  6
CONTINUOUS
 10
213.6828509075
 20
143.6509490127
 11
214.1828509075
 21
143.6509490127
  0
LINE
  5
3A2
100
AcDbEntity
  8
0
100
AcDbLine
 62
7
  6
CONTINUOUS
 10
200.6828509075
 20
143.7174736064
 11
200.1828509075
 21
143.7174736064
  0
LINE
  5
3A3
100
AcDbEntity
  8
0
100
AcDbLine
 62
7
  6
CONTINUOUS
 10
213.6828509075
 20
144.067615282
 11
214.1828509075
 21
144.067615282
  0
LINE
  5
3A4
100
AcDbEntity
  8
0
100
AcDbLine
 62
7
  6
CONTINUOUS
 10
213.6828509075
 20
144.4842815513
 11
214.1828509075
 21
144.4842815513
  0
LINE
  5
3A5
100
AcDbEntity
  8
0
100
AcDbLine
 62
7
  6
CONTINUOUS
 10
213.6828509075
 20
144.9009490127
 11
214.1828509075
 21
144.9009490127
  0
LINE
  5
3A6
100
AcDbEntity
  8
0
100
AcDbLine
 62
7
  6
CONTINUOUS
 10
200.6828509075
 20
144.9174736064
 11
200.1828509075
 21
144.9174736064
  0
LINE
  5
3A7
100
AcDbEntity
  8
0
100
AcDbLine
 62
7
  6
CONTINUOUS
 10
213.6828509075
 20
145.4217815513
 11
214.1828509075
 21
145.4217815513
  0
LINE
  5
3A8
100
AcDbEntity
  8
0
100
AcDbLine
 62
7
  6
CONTINUOUS
 10
200.6828509075
 20
145.5168924832
 11
200.1828509075
 21
145.5168924832
  0
LINE
  5
3A9
100
AcDbEntity
  8
0
100
AcDbLine
 62
7
  6
CONTINUOUS
 10
213.6828509075
 20
145.942615282
 11
214.1828509075
 21
145.942615282
  0
LINE
  5
3AA
100
AcDbEntity
  8
0
100
AcDbLine
 62
7
  6
CONTINUOUS
 10
200.6828509075
 20
146.1174736064
 11
200.1828509075
 21
146.1174736064
  0
LINE
  5
3AB
100
AcDbEntity
  8
0
100
AcDbLine
 62
7
  6
CONTINUOUS
 10
213.6828509075
 20
146.3592815513
 11
214.1828509075
 21
146.3592815513
  0
LINE
  5
3AC
100
AcDbEntity
  8
0
100
AcDbLine
 62
7
  6
CONTINUOUS
 10
213.6828509075
 20
146.6717815513
 11
214.1828509075
 21
146.6717815513
  0
LINE
  5
3AD
100
AcDbEntity
  8
0
100
AcDbLine
 62
7
  6
CONTINUOUS
 10
213.6828509075
 20
146.7759490127
 11
214.1828509075
 21
146.7759490127
  0
LINE
  5
3AE
100
AcDbEntity
  8
0
100
AcDbLine
 62
7
  6
CONTINUOUS
 10
213.6828509075
 20
146.880115282
 11
214.1828509075
 21
146.880115282
  0
LINE
  5
3AF
100
AcDbEntity
  8
0
100
AcDbLine
 62
7
  6
CONTINUOUS
 10
213.6828509075
 20
147.0884490127
 11
214.1828509075
 21
147.0884490127
  0
LWPOLYLINE
  5
3B0
100
AcDbEntity
  8
BEZUGSACHSEN
100
AcDbPolyline
 62
7
  6
CONTINUOUS
 90
5
 70
0
 10
199.9493700224
 20
155.8070294338
 10
200.0939521077
 20
155.6273084613
 10
200.2241856039
 20
155.4370697942
 10
200.3393074274
 20
155.2374700719
 10
200.4384776404
 20
155.0301157312
  0
LWPOLYLINE
  5
3B1
100
AcDbEntity
  8
BEZUGSACHSEN
100
AcDbPolyline
 62
7
  6
CONTINUOUS
 90
6
 70
0
 10
200.4383810063
 20
155.0303390148
 10
200.5208148307
 20
154.8174696633
 10
200.5866232632
 20
154.5993671693
 10
200.6354823317
 20
154.3774900041
 10
200.6672225147
 20
154.1532358161
 10
200.6817975663
 20
153.9279172153
  0
LINE
  5
3B2
100
AcDbEntity
  8
0
100
AcDbLine
 62
7
  6
CONTINUOUS
 10
213.2245174152
 20
120.2760193915
 11
213.3286836845
 21
119.8504875273
  0
LINE
  5
3B3
100
AcDbEntity
  8
0
100
AcDbLine
 62
7
  6
CONTINUOUS
 10
209.474517296
 20
112.5632534594
 11
209.5786841613
 21
111.9249556632
  0
LINE
  5
3B4
100
AcDbEntity
  8
0
100
AcDbLine
 62
7
  6
CONTINUOUS
 10
208.3286842806
 20
121.552615282
 11
208.3286842806
 21
118.2547428877
  0
LINE
  5
3B5
100
AcDbEntity
  8
0
100
AcDbLine
 62
7
  6
CONTINUOUS
 10
208.9536842806
 20
118.2547428877
 11
208.9536842806
 21
121.552615282
  0
LINE
  5
3B6
100
AcDbEntity
  8
0
100
AcDbLine
 62
7
  6
CONTINUOUS
 10
209.5786841613
 20
111.9249556632
 11
209.5786841613
 21
111.1802749009
  0
LINE
  5
3B7
100
AcDbEntity
  8
0
100
AcDbLine
 62
7
  6
CONTINUOUS
 10
209.7870174152
 20
121.552615282
 11
209.7870174152
 21
116.552615282
  0
LINE
  5
3B8
100
AcDbEntity
  8
0
100
AcDbLine
 62
7
  6
CONTINUOUS
 10
210.099517296
 20
111.0738919348
 11
210.099517296
 21
112.0313386292
  0
LINE
  5
3B9
100
AcDbEntity
  8
0
100
AcDbLine
 62
7
  6
CONTINUOUS
 10
210.4120174152
 20
117.1909131528
 11
210.4120174152
 21
120.9143174858
  0
LINE
  5
3BA
100
AcDbEntity
  8
RUNDUNGEN
100
AcDbLine
 62
7
  6
CONTINUOUS
 10
214.0196724594
 20
155.2246260127
 11
214.1331331127
 21
155.4236708052
  0
LINE
  5
3BB
100
AcDbEntity
  8
RUNDUNGEN
100
AcDbLine
 62
7
  6
CONTINUOUS
 10
214.1331331127
 20
155.4236708052
 11
214.2637197203
 21
155.6164468537
  0
LINE
  5
3BC
100
AcDbEntity
  8
0
100
AcDbLine
 62
7
  6
CONTINUOUS
 10
200.6828509075
 20
150.8174736064
 11
200.1828509075
 21
150.8174736064
  0
LINE
  5
3BD
100
AcDbEntity
  8
BEZUGSACHSEN
100
AcDbLine
 62
7
  6
CONTINUOUS
 10
199.1887382328
 20
156.4337461793
 11
187.9328509075
 21
162.9323357566
  0
LINE
  5
3BE
100
AcDbEntity
  8
BEZUGSACHSEN
100
AcDbLine
 62
7
  6
CONTINUOUS
 10
199.1887445999
 20
156.4337417928
 11
199.2480551236
 21
156.398580558
  0
LINE
  5
3BF
100
AcDbEntity
  8
BEZUGSACHSEN
100
AcDbLine
 62
7
  6
CONTINUOUS
 10
199.2480551236
 20
156.398580558
 11
199.4425235554
 21
156.269580386
  0
LINE
  5
3C0
100
AcDbEntity
  8
BEZUGSACHSEN
100
AcDbLine
 62
7
  6
CONTINUOUS
 10
199.4395240774
 20
156.2717406583
 11
199.6244334399
 21
156.1274194999
  0
LINE
  5
3C1
100
AcDbEntity
  8
BEZUGSACHSEN
100
AcDbLine
 62
7
  6
CONTINUOUS
 10
199.6209420045
 20
156.1303677317
 11
199.7946012456
 21
155.9718752017
  0
LINE
  5
3C2
100
AcDbEntity
  8
BEZUGSACHSEN
100
AcDbLine
 62
7
  6
CONTINUOUS
 10
199.7912837902
 20
155.9751462451
 11
199.9520574549
 21
155.8039362851
  0
LINE
  5
3C3
100
AcDbEntity
  8
0
100
AcDbLine
 62
7
  6
CONTINUOUS
 10
213.9536836845
 20
119.8504875273
 11
213.8495174152
 21
120.3824026556
  0
LINE
  5
3C4
100
AcDbEntity
  8
_30_VOLUMEN
100
AcDbLine
 62
7
  6
CONTINUOUS
 10
213.2828509075
 20
174.052615282
 11
213.2828509075
 21
198.4302912231
  0
LINE
  5
3C5
100
AcDbEntity
  8
0
100
AcDbLine
 62
7
  6
CONTINUOUS
 10
213.3286836845
 20
119.8504875273
 11
213.3286836845
 21
118.2547428877
  0
LINE
  5
3C6
100
AcDbEntity
  8
RUNDUNGEN
100
AcDbLine
 62
7
  6
CONTINUOUS
 10
213.6828509075
 20
163.5433584928
 11
213.6828509075
 21
131.1692536281
  0
LINE
  5
3C7
100
AcDbEntity
  8
0
100
AcDbLine
 62
7
  6
CONTINUOUS
 10
213.9536836845
 20
118.2547428877
 11
213.9536836845
 21
119.8504875273
  0
LINE
  5
3C8
100
AcDbEntity
  8
0
100
AcDbLine
 62
7
  6
CONTINUOUS
 10
214.1828509075
 20
147.0884490127
 11
214.1828509075
 21
143.2342821474
  0
LINE
  5
3C9
100
AcDbEntity
  8
0
100
AcDbLine
 62
7
  6
CONTINUOUS
 10
214.1828509075
 20
142.4009484167
 11
214.1828509075
 21
138.3384487147
  0
LINE
  5
3CA
100
AcDbEntity
  8
0
100
AcDbLine
 62
7
  6
CONTINUOUS
 10
214.1828509075
 20
137.505115282
 11
214.1828509075
 21
133.442615282
  0
LINE
  5
3CB
100
AcDbEntity
  8
RUNDUNGEN
100
AcDbLine
 62
7
  6
CONTINUOUS
 10
213.6828734879
 20
153.8601230533
 11
213.6835495206
 21
153.9132390291
  0
LWPOLYLINE
  5
3CC
100
AcDbEntity
  8
RUNDUNGEN
100
AcDbPolyline
 62
7
  6
CONTINUOUS
 90
7
 70
0
 10
213.6835495206
 20
153.9132390291
 10
213.6969183183
 20
154.1376703766
 10
213.72741148
 20
154.3616965473
 10
213.7751501176
 20
154.5841241947
 10
213.8400836967
 20
154.8033890052
 10
213.9218574498
 20
155.0176089527
 10
214.0200910995
 20
155.2254307425
  0
LINE
  5
3CD
100
AcDbEntity
  8
0
100
AcDbLine
 62
7
  6
CONTINUOUS
 10
206.8703507287
 20
111.9249556632
 11
206.974517594
 21
112.5632534594
  0
LINE
  5
3CE
100
AcDbEntity
  8
0
100
AcDbLine
 62
7
  6
CONTINUOUS
 10
209.5786841613
 20
111.1802749009
 11
209.474517296
 21
110.5419769556
  0
LINE
  5
3CF
100
AcDbEntity
  8
0
100
AcDbLine
 62
7
  6
CONTINUOUS
 10
206.4536841613
 20
112.5632534594
 11
206.349517445
 21
112.0313386292
  0
LINE
  5
3D0
100
AcDbEntity
  8
0
100
AcDbLine
 62
7
  6
CONTINUOUS
 10
208.8495174152
 20
117.7228280575
 11
208.9536842806
 21
118.2547428877
  0
LINE
  5
3D1
100
AcDbEntity
  8
0
100
AcDbLine
 62
7
  6
CONTINUOUS
 10
208.3286842806
 20
118.2547428877
 11
208.2245174152
 21
117.8292110235
  0
LINE
  5
3D2
100
AcDbEntity
  8
0
100
AcDbLine
 62
7
  6
CONTINUOUS
 10
203.6411839825
 20
120.0632534594
 11
203.5370174152
 21
119.7441045613
  0
LINE
  5
3D3
100
AcDbEntity
  8
0
100
AcDbLine
 62
7
  6
CONTINUOUS
 10
204.1620174152
 20
119.6377215952
 11
204.2661839825
 21
119.9568704934
  0
LINE
  5
3D4
100
AcDbEntity
  8
_30_VOLUMEN
100
AcDbLine
 62
7
  6
CONTINUOUS
 10
217.8067144499
 20
185.052615282
 11
217.8067144499
 21
185.552615282
  0
LINE
  5
3D5
100
AcDbEntity
  8
RUNDUNGEN
100
AcDbLine
 62
7
  6
CONTINUOUS
 10
219.1828509075
 20
127.0142613781
 11
219.1828509075
 21
134.552615282
  0
LINE
  5
3D6
100
AcDbEntity
  8
0
100
AcDbLine
 62
7
  6
CONTINUOUS
 10
209.9953510267
 20
110.5419769556
 11
210.099517296
 21
111.0738919348
  0
LINE
  5
3D7
100
AcDbEntity
  8
0
100
AcDbLine
 62
7
  6
CONTINUOUS
 10
213.8495174152
 20
117.7228280575
 11
213.9536836845
 21
118.2547428877
  0
LINE
  5
3D8
100
AcDbEntity
  8
0
100
AcDbLine
 62
7
  6
CONTINUOUS
 10
206.5578508777
 20
112.8824026556
 11
206.4536841613
 21
112.5632534594
  0
LINE
  5
3D9
100
AcDbEntity
  8
0
100
AcDbLine
 62
7
  6
CONTINUOUS
 10
219.6828509075
 20
132.352615282
 11
219.6828509075
 21
127.352615282
  0
LINE
  5
3DA
100
AcDbEntity
  8
0
100
AcDbLine
 62
7
  6
CONTINUOUS
 10
213.3286836845
 20
118.2547428877
 11
213.2245174152
 21
117.8292110235
  0
LINE
  5
3DB
100
AcDbEntity
  8
0
100
AcDbLine
 62
7
  6
CONTINUOUS
 10
209.8911841613
 20
110.2228280575
 11
209.9953510267
 21
110.5419769556
  0
LINE
  5
3DC
100
AcDbEntity
  8
0
100
AcDbLine
 62
7
  6
CONTINUOUS
 10
208.6411842806
 20
117.2972961188
 11
208.8495174152
 21
117.7228280575
  0
LINE
  5
3DD
100
AcDbEntity
  8
0
100
AcDbLine
 62
7
  6
CONTINUOUS
 10
206.7661841613
 20
113.3079345197
 11
206.5578508777
 21
112.8824026556
  0
LINE
  5
3DE
100
AcDbEntity
  8
0
100
AcDbLine
 62
7
  6
CONTINUOUS
 10
203.8495174152
 20
119.2121897311
 11
204.1620174152
 21
119.6377215952
  0
LINE
  5
3DF
100
AcDbEntity
  8
0
100
AcDbLine
 62
7
  6
CONTINUOUS
 10
209.6828510267
 20
109.7972961188
 11
209.8911841613
 21
110.2228280575
  0
LINE
  5
3E0
100
AcDbEntity
  8
0
100
AcDbLine
 62
7
  6
CONTINUOUS
 10
213.6411836845
 20
117.2972961188
 11
213.8495174152
 21
117.7228280575
  0
LINE
  5
3E1
100
AcDbEntity
  8
0
100
AcDbLine
 62
7
  6
CONTINUOUS
 10
208.2245174152
 20
117.8292110235
 11
208.0161842806
 21
117.5100621254
  0
LINE
  5
3E2
100
AcDbEntity
  8
0
100
AcDbLine
 62
7
  6
CONTINUOUS
 10
206.974517594
 20
112.5632534594
 11
207.3911841613
 21
113.2015515537
  0
LINE
  5
3E3
100
AcDbEntity
  8
0
100
AcDbLine
 62
7
  6
CONTINUOUS
 10
204.8911841613
 20
114.052615282
 11
204.2661841613
 21
113.3079345197
  0
LINE
  5
3E4
100
AcDbEntity
  8
0
100
AcDbLine
 62
7
  6
CONTINUOUS
 10
204.2661841613
 20
112.4568704934
 11
204.8911841613
 21
113.2015515537
  0
LINE
  5
3E5
100
AcDbEntity
  8
0
100
AcDbLine
 62
7
  6
CONTINUOUS
 10
203.5370174152
 20
119.7441045613
 11
203.3286839825
 21
119.5313386292
  0
LINE
  5
3E6
100
AcDbEntity
  8
0
100
AcDbLine
 62
7
  6
CONTINUOUS
 10
213.2245174152
 20
117.8292110235
 11
213.0161836845
 21
117.5100621254
  0
LINE
  5
3E7
100
AcDbEntity
  8
0
100
AcDbLine
 62
7
  6
CONTINUOUS
 10
209.474517296
 20
110.5419769556
 11
209.0578507287
 21
109.9036790849
  0
LINE
  5
3E8
100
AcDbEntity
  8
0
100
AcDbLine
 62
7
  6
CONTINUOUS
 10
208.2245174152
 20
116.8717642174
 11
208.6411842806
 21
117.2972961188
  0
LINE
  5
3E9
100
AcDbEntity
  8
0
100
AcDbLine
 62
7
  6
CONTINUOUS
 10
207.0786841613
 20
113.6270834178
 11
206.7661841613
 21
113.3079345197
  0
LINE
  5
3EA
100
AcDbEntity
  8
0
100
AcDbLine
 62
7
  6
CONTINUOUS
 10
203.4328508479
 20
118.999423799
 11
203.8495174152
 21
119.2121897311
  0
LINE
  5
3EB
100
AcDbEntity
  8
RUNDUNGEN
100
AcDbLine
 62
7
  6
CONTINUOUS
 10
232.4328509075
 20
173.324640602
 11
232.4328509075
 21
199.052615282
  0
LINE
  5
3EC
100
AcDbEntity
  8
0
100
AcDbLine
 62
7
  6
CONTINUOUS
 10
213.2245174152
 20
116.8717642174
 11
213.6411836845
 21
117.2972961188
  0
LINE
  5
3ED
100
AcDbEntity
  8
0
100
AcDbLine
 62
7
  6
CONTINUOUS
 10
209.3703510267
 20
109.4781471834
 11
209.6828510267
 21
109.7972961188
  0
LINE
  5
3EE
100
AcDbEntity
  8
0
100
AcDbLine
 62
7
  6
CONTINUOUS
 10
208.0161842806
 20
117.5100621254
 11
207.7036842806
 21
117.2972961188
  0
LINE
  5
3EF
100
AcDbEntity
  8
0
100
AcDbLine
 62
7
  6
CONTINUOUS
 10
213.0161836845
 20
117.5100621254
 11
212.7036836845
 21
117.2972961188
  0
LINE
  5
3F0
100
AcDbEntity
  8
0
100
AcDbLine
 62
7
  6
CONTINUOUS
 10
207.3911841613
 20
113.2015515537
 11
207.7036841613
 21
113.4143174858
  0
LINE
  5
3F1
100
AcDbEntity
  8
0
100
AcDbLine
 62
7
  6
CONTINUOUS
 10
207.8078505499
 20
116.6589982574
 11
208.2245174152
 21
116.8717642174
  0
LINE
  5
3F2
100
AcDbEntity
  8
0
100
AcDbLine
 62
7
  6
CONTINUOUS
 10
203.3286839825
 20
119.5313386292
 11
203.0161839825
 21
119.4249556632
  0
LINE
  5
3F3
100
AcDbEntity
  8
0
100
AcDbLine
 62
7
  6
CONTINUOUS
 10
209.0578507287
 20
109.9036790849
 11
208.7453507287
 21
109.6909131528
  0
LINE
  5
3F4
100
AcDbEntity
  8
0
100
AcDbLine
 62
7
  6
CONTINUOUS
 10
207.599517594
 20
113.946232316
 11
207.0786841613
 21
113.6270834178
  0
LINE
  5
3F5
100
AcDbEntity
  8
0
100
AcDbLine
 62
7
  6
CONTINUOUS
 10
212.8078511459
 20
116.6589982574
 11
213.2245174152
 21
116.8717642174
  0
LINE
  5
3F6
100
AcDbEntity
  8
0
100
AcDbLine
 62
7
  6
CONTINUOUS
 10
208.849517594
 20
109.1589982574
 11
209.3703510267
 21
109.4781471834
  0
LINE
  5
3F7
100
AcDbEntity
  8
_26_BEZUGSACHSEN
100
AcDbLine
 62
7
  6
CONTINUOUS
 10
213.2828509075
 20
180.052615282
 11
201.0828509075
 21
180.052615282
  0
LINE
  5
3F8
100
AcDbEntity
  8
_26_BEZUGSACHSEN
100
AcDbLine
 62
7
  6
CONTINUOUS
 10
213.2828509075
 20
193.052615282
 11
201.0828509075
 21
193.052615282
  0
LINE
  5
3F9
100
AcDbEntity
  8
0
100
AcDbLine
 62
7
  6
CONTINUOUS
 10
183.4328509075
 20
200.552615282
 11
197.8426809637
 21
200.552615282
  0
LINE
  5
3FA
100
AcDbEntity
  8
0
100
AcDbLine
 62
7
  6
CONTINUOUS
 10
216.5230208512
 20
200.552615282
 11
230.9328509075
 21
200.552615282
  0
LINE
  5
3FB
100
AcDbEntity
  8
FASEN
100
AcDbLine
 62
7
  6
CONTINUOUS
 10
57.0516506294
 20
20.9348673006
 11
57.0516506294
 21
49.9348673006
  0
LINE
  5
3FC
100
AcDbEntity
  8
FASEN
100
AcDbLine
 62
7
  6
CONTINUOUS
 10
57.5516506294
 20
20.4348673006
 11
57.5516506294
 21
50.4348673006
  0
LINE
  5
3FD
100
AcDbEntity
  8
FASEN
100
AcDbLine
 62
7
  6
CONTINUOUS
 10
57.0516506294
 20
49.9348673006
 11
57.5516506294
 21
50.4348673006
  0
LINE
  5
3FE
100
AcDbEntity
  8
FASEN
100
AcDbLine
 62
7
  6
CONTINUOUS
 10
57.0516506294
 20
20.9348673006
 11
57.5516506294
 21
20.4348673006
  0
LINE
  5
3FF
100
AcDbEntity
  8
FASEN
100
AcDbLine
 62
7
  6
CONTINUOUS
 10
66.5516506294
 20
20.4348673006
 11
66.5516506294
 21
50.4348673006
  0
LINE
  5
400
100
AcDbEntity
  8
_30_VOLUMEN
100
AcDbLine
 62
7
  6
CONTINUOUS
 10
67.0516506294
 20
19.9348673006
 11
67.0516506294
 21
50.9348673006
  0
LINE
  5
401
100
AcDbEntity
  8
RUNDUNGEN
100
AcDbLine
 62
7
  6
CONTINUOUS
 10
69.0516506294
 20
30.4348673006
 11
69.0516506294
 21
28.7031349587
  0
LINE
  5
402
100
AcDbEntity
  8
BEZUGSACHSEN
100
AcDbLine
 62
7
  6
CONTINUOUS
 10
69.0516506294
 20
30.4348673006
 11
69.0516506294
 21
42.1665996426
  0
LINE
  5
403
100
AcDbEntity
  8
RUNDUNGEN
100
AcDbLine
 62
7
  6
CONTINUOUS
 10
82.0516506294
 20
10.1848673006
 11
109.0516506294
 21
10.1848673006
  0
LINE
  5
404
100
AcDbEntity
  8
0
100
AcDbLine
 62
7
  6
CONTINUOUS
 10
72.5408296281
 20
41.9348673006
 11
72.5408296281
 21
42.4348673006
  0
LINE
  5
405
100
AcDbEntity
  8
0
100
AcDbLine
 62
7
  6
CONTINUOUS
 10
73.1416506294
 20
28.9348673006
 11
73.1416506294
 21
28.4348673006
  0
LINE
  5
406
100
AcDbEntity
  8
0
100
AcDbLine
 62
7
  6
CONTINUOUS
 10
73.2480335955
 20
28.9348673006
 11
73.2480335955
 21
28.4348673006
  0
LINE
  5
407
100
AcDbEntity
  8
0
100
AcDbLine
 62
7
  6
CONTINUOUS
 10
73.5408296281
 20
41.9348673006
 11
73.5408296281
 21
42.4348673006
  0
LINE
  5
408
100
AcDbEntity
  8
0
100
AcDbLine
 62
7
  6
CONTINUOUS
 10
73.5671824936
 20
28.9348673006
 11
73.5671824936
 21
28.4348673006
  0
LINE
  5
409
100
AcDbEntity
  8
0
100
AcDbLine
 62
7
  6
CONTINUOUS
 10
73.9408296281
 20
41.9348673006
 11
73.9408296281
 21
42.4348673006
  0
LINE
  5
40A
100
AcDbEntity
  8
0
100
AcDbLine
 62
7
  6
CONTINUOUS
 10
73.9927143578
 20
28.9348673006
 11
73.9927143578
 21
28.4348673006
  0
LINE
  5
40B
100
AcDbEntity
  8
0
100
AcDbLine
 62
7
  6
CONTINUOUS
 10
74.3118632559
 20
28.9348673006
 11
74.3118632559
 21
28.4348673006
  0
LINE
  5
40C
100
AcDbEntity
  8
0
100
AcDbLine
 62
7
  6
CONTINUOUS
 10
74.4182465199
 20
28.9348673006
 11
74.4182465199
 21
28.4348673006
  0
LINE
  5
40D
100
AcDbEntity
  8
0
100
AcDbLine
 62
7
  6
CONTINUOUS
 10
74.631012452
 20
28.9348673006
 11
74.631012452
 21
28.4348673006
  0
LINE
  5
40E
100
AcDbEntity
  8
0
100
AcDbLine
 62
7
  6
CONTINUOUS
 10
74.9501613502
 20
28.9348673006
 11
74.9501613502
 21
28.4348673006
  0
LINE
  5
40F
100
AcDbEntity
  8
0
100
AcDbLine
 62
7
  6
CONTINUOUS
 10
75.1629272822
 20
28.9348673006
 11
75.1629272822
 21
28.4348673006
  0
LINE
  5
410
100
AcDbEntity
  8
0
100
AcDbLine
 62
7
  6
CONTINUOUS
 10
75.2693102483
 20
28.9348673006
 11
75.2693102483
 21
28.4348673006
  0
LINE
  5
411
100
AcDbEntity
  8
0
100
AcDbLine
 62
7
  6
CONTINUOUS
 10
75.3756932143
 20
28.9348673006
 11
75.3756932143
 21
28.4348673006
  0
LINE
  5
412
100
AcDbEntity
  8
0
100
AcDbLine
 62
7
  6
CONTINUOUS
 10
75.5884591464
 20
28.9348673006
 11
75.5884591464
 21
28.4348673006
  0
LINE
  5
413
100
AcDbEntity
  8
0
100
AcDbLine
 62
7
  6
CONTINUOUS
 10
76.0139910106
 20
28.9348673006
 11
76.0139910106
 21
28.4348673006
  0
LINE
  5
414
100
AcDbEntity
  8
0
100
AcDbLine
 62
7
  6
CONTINUOUS
 10
76.4395230237
 20
28.9348673006
 11
76.4395230237
 21
28.4348673006
  0
LINE
  5
415
100
AcDbEntity
  8
0
100
AcDbLine
 62
7
  6
CONTINUOUS
 10
76.971437854
 20
28.9348673006
 11
76.971437854
 21
28.4348673006
  0
LINE
  5
416
100
AcDbEntity
  8
0
100
AcDbLine
 62
7
  6
CONTINUOUS
 10
77.3969697926
 20
28.9348673006
 11
77.3969697926
 21
28.4348673006
  0
LINE
  5
417
100
AcDbEntity
  8
0
100
AcDbLine
 62
7
  6
CONTINUOUS
 10
77.822501694
 20
28.9212212797
 11
77.822501694
 21
28.4348673006
  0
LINE
  5
418
100
AcDbEntity
  8
0
100
AcDbLine
 62
7
  6
CONTINUOUS
 10
78.0352676541
 20
28.894455441
 11
78.0352676541
 21
28.4348673006
  0
LINE
  5
419
100
AcDbEntity
  8
0
100
AcDbLine
 62
7
  6
CONTINUOUS
 10
78.1416506294
 20
28.8743267266
 11
78.1416506294
 21
28.4348673006
  0
LINE
  5
41A
100
AcDbEntity
  8
0
100
AcDbLine
 62
7
  6
CONTINUOUS
 10
78.4208296281
 20
42.0641064164
 11
78.4208296281
 21
42.4348673006
  0
LINE
  5
41B
100
AcDbEntity
  8
0
100
AcDbLine
 62
7
  6
CONTINUOUS
 10
115.045443127
 20
16.6848673006
 11
124.7062438054
 21
16.6848673006
  0
LINE
  5
41C
100
AcDbEntity
  8
0
100
AcDbLine
 62
7
  6
CONTINUOUS
 10
115.295443127
 20
16.7033949731
 11
120.795443127
 21
16.7033949731
  0
LINE
  5
41D
100
AcDbEntity
  8
_30_VOLUMEN
100
AcDbLine
 62
7
  6
CONTINUOUS
 10
80.5516506294
 20
11.6848673006
 11
80.5516506294
 21
32.3657634549
  0
LINE
  5
41E
100
AcDbEntity
  8
_30_VOLUMEN
100
AcDbLine
 62
7
  6
CONTINUOUS
 10
80.5516506294
 20
38.5039711463
 11
80.5516506294
 21
59.1848673006
  0
LINE
  5
41F
100
AcDbEntity
  8
0
100
AcDbLine
 62
7
  6
CONTINUOUS
 10
128.8516506294
 20
17.1848673006
 11
124.8237440704
 21
17.1848673006
  0
LINE
  5
420
100
AcDbEntity
  8
0
100
AcDbLine
 62
7
  6
CONTINUOUS
 10
115.045443127
 20
17.1848673006
 11
110.5516506294
 21
17.1848673006
  0
LINE
  5
421
100
AcDbEntity
  8
0
100
AcDbLine
 62
7
  6
CONTINUOUS
 10
80.5516506294
 20
17.1848673006
 11
70.5412158152
 21
17.1848673006
  0
LINE
  5
422
100
AcDbEntity
  8
0
100
AcDbLine
 62
7
  6
CONTINUOUS
 10
120.795443127
 20
17.2039031035
 11
115.295443127
 21
17.2039031035
  0
LINE
  5
423
100
AcDbEntity
  8
0
100
AcDbLine
 62
7
  6
CONTINUOUS
 10
67.0516506294
 20
19.9348673006
 11
67.5516506294
 21
19.9348673006
  0
LINE
  5
424
100
AcDbEntity
  8
0
100
AcDbLine
 62
7
  6
CONTINUOUS
 10
66.5516506294
 20
20.4348673006
 11
57.5516506294
 21
20.4348673006
  0
LINE
  5
425
100
AcDbEntity
  8
0
100
AcDbLine
 62
7
  6
CONTINUOUS
 10
123.6849837641
 20
22.9348673006
 11
119.9349839131
 21
22.9348673006
  0
LINE
  5
426
100
AcDbEntity
  8
0
100
AcDbLine
 62
7
  6
CONTINUOUS
 10
119.1016506294
 20
22.9348673006
 11
117.8516506294
 21
22.9348673006
  0
LINE
  5
427
100
AcDbEntity
  8
FASEN
100
AcDbLine
 62
7
  6
CONTINUOUS
 10
67.0516506294
 20
20.9348673006
 11
66.5516506294
 21
20.4348673006
  0
LINE
  5
428
100
AcDbEntity
  8
_30_VOLUMEN
100
AcDbLine
 62
7
  6
CONTINUOUS
 10
128.8516506294
 20
23.4348673006
 11
110.5516506294
 21
23.4348673006
  0
LINE
  5
429
100
AcDbEntity
  8
_30_VOLUMEN
100
AcDbLine
 62
7
  6
CONTINUOUS
 10
128.8516506294
 20
24.1987993231
 11
121.7516506294
 21
24.1987993231
  0
LINE
  5
42A
100
AcDbEntity
  8
_30_VOLUMEN
100
AcDbLine
 62
7
  6
CONTINUOUS
 10
128.8516506294
 20
24.4348673006
 11
129.2516506294
 21
24.4348673006
  0
LINE
  5
42B
100
AcDbEntity
  8
FASEN
100
AcDbLine
 62
7
  6
CONTINUOUS
 10
67.0516506294
 20
49.9348673006
 11
66.5516506294
 21
50.4348673006
  0
LINE
  5
42C
100
AcDbEntity
  8
_26_BEZUGSACHSEN
100
AcDbLine
 62
7
  6
CONTINUOUS
 10
89.0516506294
 20
29.3348673006
 11
89.0516506294
 21
41.5348673006
  0
LINE
  5
42D
100
AcDbEntity
  8
0
100
AcDbLine
 62
7
  6
CONTINUOUS
 10
131.6940696615
 20
28.1848673006
 11
129.8516506294
 21
28.1848673006
  0
LINE
  5
42E
100
AcDbEntity
  8
0
100
AcDbLine
 62
7
  6
CONTINUOUS
 10
78.1416506294
 20
28.4348673006
 11
73.1416506294
 21
28.4348673006
  0
LINE
  5
42F
100
AcDbEntity
  8
_30_VOLUMEN
100
AcDbLine
 62
7
  6
CONTINUOUS
 10
128.8516506294
 20
28.6848673006
 11
121.7516506294
 21
28.6848673006
  0
LINE
  5
430
100
AcDbEntity
  8
RUNDUNGEN
100
AcDbLine
 62
7
  6
CONTINUOUS
 10
126.0516506294
 20
28.9348673006
 11
113.5516506294
 21
28.9348673006
  0
LINE
  5
431
100
AcDbEntity
  8
RUNDUNGEN
100
AcDbLine
 62
7
  6
CONTINUOUS
 10
77.5516506294
 20
28.9348673006
 11
70.5516506294
 21
28.9348673006
  0
LINE
  5
432
100
AcDbEntity
  8
_30_VOLUMEN
100
AcDbLine
 62
7
  6
CONTINUOUS
 10
126.0516506294
 20
28.9348673006
 11
129.2516506294
 21
28.9348673006
  0
LINE
  5
433
100
AcDbEntity
  8
_30_VOLUMEN
100
AcDbLine
 62
7
  6
CONTINUOUS
 10
129.3516506294
 20
28.9348673006
 11
132.7516506294
 21
28.9348673006
  0
LINE
  5
434
100
AcDbEntity
  8
_30_VOLUMEN
100
AcDbLine
 62
7
  6
CONTINUOUS
 10
80.5516506294
 20
29.3348673006
 11
110.5516506294
 21
29.3348673006
  0
LINE
  5
435
100
AcDbEntity
  8
0
100
AcDbLine
 62
7
  6
CONTINUOUS
 10
129.3516506294
 20
30.0348673006
 11
129.2516506294
 21
30.0348673006
  0
LINE
  5
436
100
AcDbEntity
  8
_30_VOLUMEN
100
AcDbLine
 62
7
  6
CONTINUOUS
 10
129.2516506294
 20
31.9348673006
 11
127.5516506294
 21
31.9348673006
  0
LINE
  5
437
100
AcDbEntity
  8
_30_VOLUMEN
100
AcDbLine
 62
7
  6
CONTINUOUS
 10
129.2516506294
 20
32.5348673006
 11
129.3516506294
 21
32.5348673006
  0
LINE
  5
438
100
AcDbEntity
  8
_21_KURVEN
100
AcDbLine
 62
4
  6
CONTINUOUS
 10
78.1953427807
 20
35.4348673006
 11
112.9079590338
 21
35.4348673006
  0
LINE
  5
439
100
AcDbEntity
  8
_30_VOLUMEN
100
AcDbLine
 62
7
  6
CONTINUOUS
 10
129.3516506294
 20
35.4348673006
 11
132.7516506294
 21
35.4348673006
  0
LINE
  5
43A
100
AcDbEntity
  8
_30_VOLUMEN
100
AcDbLine
 62
7
  6
CONTINUOUS
 10
129.2516506294
 20
38.3348673006
 11
129.3516506294
 21
38.3348673006
  0
LINE
  5
43B
100
AcDbEntity
  8
_30_VOLUMEN
100
AcDbLine
 62
7
  6
CONTINUOUS
 10
127.5516506294
 20
38.9348673006
 11
129.2516506294
 21
38.9348673006
  0
LINE
  5
43C
100
AcDbEntity
  8
_26_BEZUGSACHSEN
100
AcDbLine
 62
7
  6
CONTINUOUS
 10
102.0516506294
 20
29.3348673006
 11
102.0516506294
 21
41.5348673006
  0
LINE
  5
43D
100
AcDbEntity
  8
0
100
AcDbLine
 62
7
  6
CONTINUOUS
 10
129.3516506294
 20
40.8348673006
 11
129.2516506294
 21
40.8348673006
  0
LINE
  5
43E
100
AcDbEntity
  8
_30_VOLUMEN
100
AcDbLine
 62
7
  6
CONTINUOUS
 10
80.5516506294
 20
41.5348673006
 11
110.5516506294
 21
41.5348673006
  0
LINE
  5
43F
100
AcDbEntity
  8
_30_VOLUMEN
100
AcDbLine
 62
7
  6
CONTINUOUS
 10
129.2516506294
 20
41.9348673006
 11
126.0516506294
 21
41.9348673006
  0
LINE
  5
440
100
AcDbEntity
  8
BEZUGSACHSEN
100
AcDbLine
 62
7
  6
CONTINUOUS
 10
126.0516506294
 20
41.9348673006
 11
113.5516506294
 21
41.9348673006
  0
LINE
  5
441
100
AcDbEntity
  8
BEZUGSACHSEN
100
AcDbLine
 62
7
  6
CONTINUOUS
 10
77.5516506294
 20
41.9348673006
 11
70.5516506294
 21
41.9348673006
  0
LINE
  5
442
100
AcDbEntity
  8
_30_VOLUMEN
100
AcDbLine
 62
7
  6
CONTINUOUS
 10
129.3516506294
 20
41.9348673006
 11
132.7516506294
 21
41.9348673006
  0
LINE
  5
443
100
AcDbEntity
  8
_30_VOLUMEN
100
AcDbLine
 62
7
  6
CONTINUOUS
 10
128.8516506294
 20
42.1848673006
 11
121.7516506294
 21
42.1848673006
  0
LINE
  5
444
100
AcDbEntity
  8
0
100
AcDbLine
 62
7
  6
CONTINUOUS
 10
72.5408296281
 20
42.4348673006
 11
78.4208296281
 21
42.4348673006
  0
LINE
  5
445
100
AcDbEntity
  8
0
100
AcDbLine
 62
7
  6
CONTINUOUS
 10
131.6940696615
 20
42.6848673006
 11
129.8516506294
 21
42.6848673006
  0
LINE
  5
446
100
AcDbEntity
  8
_30_VOLUMEN
100
AcDbLine
 62
7
  6
CONTINUOUS
 10
128.8516506294
 20
46.4348673006
 11
129.2516506294
 21
46.4348673006
  0
LINE
  5
447
100
AcDbEntity
  8
_30_VOLUMEN
100
AcDbLine
 62
7
  6
CONTINUOUS
 10
121.7516506294
 20
46.6709352781
 11
128.8516506294
 21
46.6709352781
  0
LINE
  5
448
100
AcDbEntity
  8
_30_VOLUMEN
100
AcDbLine
 62
7
  6
CONTINUOUS
 10
128.8516506294
 20
47.4348673006
 11
110.5516506294
 21
47.4348673006
  0
LINE
  5
449
100
AcDbEntity
  8
_30_VOLUMEN
100
AcDbLine
 62
7
  6
CONTINUOUS
 10
110.5516506294
 20
11.6848673006
 11
110.5516506294
 21
32.3657634549
  0
LINE
  5
44A
100
AcDbEntity
  8
_30_VOLUMEN
100
AcDbLine
 62
7
  6
CONTINUOUS
 10
110.5516506294
 20
38.5039711463
 11
110.5516506294
 21
59.1848673006
  0
LINE
  5
44B
100
AcDbEntity
  8
0
100
AcDbLine
 62
7
  6
CONTINUOUS
 10
66.5516506294
 20
50.4348673006
 11
57.5516506294
 21
50.4348673006
  0
LINE
  5
44C
100
AcDbEntity
  8
BEZUGSACHSEN
100
AcDbLine
 62
7
  6
CONTINUOUS
 10
67.5516506294
 20
50.9348673006
 11
67.0516506294
 21
50.9348673006
  0
LINE
  5
44D
100
AcDbEntity
  8
0
100
AcDbLine
 62
7
  6
CONTINUOUS
 10
115.045443127
 20
17.1941923619
 11
115.045443127
 21
16.6939435715
  0
LINE
  5
44E
100
AcDbEntity
  8
BEZUGSACHSEN
100
AcDbLine
 62
7
  6
CONTINUOUS
 10
115.045443127
 20
53.6755422394
 11
115.045443127
 21
54.1757910298
  0
LINE
  5
44F
100
AcDbEntity
  8
0
100
AcDbLine
 62
7
  6
CONTINUOUS
 10
136.3936707727
 20
29.8953822181
 11
131.6940696615
 21
28.1848673006
  0
LINE
  5
450
100
AcDbEntity
  8
BEZUGSACHSEN
100
AcDbLine
 62
7
  6
CONTINUOUS
 10
120.795443127
 20
53.6658314977
 11
115.295443127
 21
53.6658314977
  0
LINE
  5
451
100
AcDbEntity
  8
0
100
AcDbLine
 62
7
  6
CONTINUOUS
 10
128.8516506294
 20
53.6848673006
 11
124.8237440704
 21
53.6848673006
  0
LINE
  5
452
100
AcDbEntity
  8
0
100
AcDbLine
 62
7
  6
CONTINUOUS
 10
115.045443127
 20
53.6848673006
 11
110.5516506294
 21
53.6848673006
  0
LINE
  5
453
100
AcDbEntity
  8
0
100
AcDbLine
 62
7
  6
CONTINUOUS
 10
80.5516506294
 20
53.6848673006
 11
70.5412158152
 21
53.6848673006
  0
LINE
  5
454
100
AcDbEntity
  8
BEZUGSACHSEN
100
AcDbLine
 62
7
  6
CONTINUOUS
 10
115.295443127
 20
54.1663396281
 11
120.795443127
 21
54.1663396281
  0
LINE
  5
455
100
AcDbEntity
  8
BEZUGSACHSEN
100
AcDbLine
 62
7
  6
CONTINUOUS
 10
124.7062438054
 20
54.1848673006
 11
115.045443127
 21
54.1848673006
  0
LINE
  5
456
100
AcDbEntity
  8
0
100
AcDbLine
 62
7
  6
CONTINUOUS
 10
136.3936707727
 20
40.9743523832
 11
131.6940696615
 21
42.6848673006
  0
LINE
  5
457
100
AcDbEntity
  8
0
100
AcDbLine
 62
7
  6
CONTINUOUS
 10
117.8516506294
 20
23.4348673006
 11
117.8516506294
 21
22.9348673006
  0
LINE
  5
458
100
AcDbEntity
  8
0
100
AcDbLine
 62
7
  6
CONTINUOUS
 10
118.4766506294
 20
23.4348673006
 11
118.4766506294
 21
22.9348673006
  0
LINE
  5
459
100
AcDbEntity
  8
0
100
AcDbLine
 62
7
  6
CONTINUOUS
 10
119.1016506294
 20
23.4348673006
 11
119.1016506294
 21
22.9348673006
  0
LINE
  5
45A
100
AcDbEntity
  8
0
100
AcDbLine
 62
7
  6
CONTINUOUS
 10
119.9349839131
 20
23.4348673006
 11
119.9349839131
 21
22.9348673006
  0
LINE
  5
45B
100
AcDbEntity
  8
0
100
AcDbLine
 62
7
  6
CONTINUOUS
 10
120.0391506294
 20
23.4348673006
 11
120.0391506294
 21
22.9348673006
  0
LINE
  5
45C
100
AcDbEntity
  8
0
100
AcDbLine
 62
7
  6
CONTINUOUS
 10
120.1433173458
 20
23.4348673006
 11
120.1433173458
 21
22.9348673006
  0
LINE
  5
45D
100
AcDbEntity
  8
0
100
AcDbLine
 62
7
  6
CONTINUOUS
 10
120.3516506294
 20
23.4348673006
 11
120.3516506294
 21
22.9348673006
  0
LINE
  5
45E
100
AcDbEntity
  8
0
100
AcDbLine
 62
7
  6
CONTINUOUS
 10
120.6641506294
 20
23.4348673006
 11
120.6641506294
 21
22.9348673006
  0
LINE
  5
45F
100
AcDbEntity
  8
0
100
AcDbLine
 62
7
  6
CONTINUOUS
 10
121.045443127
 20
17.3002497777
 11
121.045443127
 21
16.7161897595
  0
LINE
  5
460
100
AcDbEntity
  8
BEZUGSACHSEN
100
AcDbLine
 62
7
  6
CONTINUOUS
 10
121.045443127
 20
53.5694848236
 11
121.045443127
 21
54.1535448418
  0
LINE
  5
461
100
AcDbEntity
  8
0
100
AcDbLine
 62
7
  6
CONTINUOUS
 10
121.1849840621
 20
23.4348673006
 11
121.1849840621
 21
22.9348673006
  0
LINE
  5
462
100
AcDbEntity
  8
_30_VOLUMEN
100
AcDbLine
 62
7
  6
CONTINUOUS
 10
121.7516506294
 20
24.1987993231
 11
121.7516506294
 21
28.9348673006
  0
LINE
  5
463
100
AcDbEntity
  8
_30_VOLUMEN
100
AcDbLine
 62
7
  6
CONTINUOUS
 10
121.7516506294
 20
41.9348673006
 11
121.7516506294
 21
46.6709352781
  0
LINE
  5
464
100
AcDbEntity
  8
0
100
AcDbLine
 62
7
  6
CONTINUOUS
 10
121.8099840621
 20
23.4348673006
 11
121.8099840621
 21
22.9348673006
  0
LINE
  5
465
100
AcDbEntity
  8
_30_VOLUMEN
100
AcDbLine
 62
7
  6
CONTINUOUS
 10
121.8516506294
 20
42.1848673006
 11
121.8516506294
 21
41.9348673006
  0
LINE
  5
466
100
AcDbEntity
  8
_30_VOLUMEN
100
AcDbLine
 62
7
  6
CONTINUOUS
 10
121.8516506294
 20
28.9348673006
 11
121.8516506294
 21
28.6848673006
  0
LINE
  5
467
100
AcDbEntity
  8
0
100
AcDbLine
 62
7
  6
CONTINUOUS
 10
122.4349840621
 20
23.4348673006
 11
122.4349840621
 21
22.9348673006
  0
LINE
  5
468
100
AcDbEntity
  8
BEZUGSACHSEN
100
AcDbLine
 62
7
  6
CONTINUOUS
 10
82.0516506294
 20
60.6848673006
 11
109.0516506294
 21
60.6848673006
  0
LINE
  5
469
100
AcDbEntity
  8
0
100
AcDbLine
 62
7
  6
CONTINUOUS
 10
122.9558174948
 20
23.4348673006
 11
122.9558174948
 21
22.9348673006
  0
LINE
  5
46A
100
AcDbEntity
  8
0
100
AcDbLine
 62
7
  6
CONTINUOUS
 10
123.2683174948
 20
23.4348673006
 11
123.2683174948
 21
22.9348673006
  0
LINE
  5
46B
100
AcDbEntity
  8
0
100
AcDbLine
 62
7
  6
CONTINUOUS
 10
123.4766506294
 20
23.4348673006
 11
123.4766506294
 21
22.9348673006
  0
LINE
  5
46C
100
AcDbEntity
  8
0
100
AcDbLine
 62
7
  6
CONTINUOUS
 10
123.5808174948
 20
23.4348673006
 11
123.5808174948
 21
22.9348673006
  0
LINE
  5
46D
100
AcDbEntity
  8
0
100
AcDbLine
 62
7
  6
CONTINUOUS
 10
123.6849837641
 20
23.4348673006
 11
123.6849837641
 21
22.9348673006
  0
LINE
  5
46E
100
AcDbEntity
  8
BEZUGSACHSEN
100
AcDbLine
 62
7
  6
CONTINUOUS
 10
124.8237440704
 20
54.1848672869
 11
124.8237440704
 21
53.6848673006
  0
LINE
  5
46F
100
AcDbEntity
  8
0
100
AcDbLine
 62
7
  6
CONTINUOUS
 10
124.8237440704
 20
17.1848673006
 11
124.8237440704
 21
16.6848673144
  0
LINE
  5
470
100
AcDbEntity
  8
BEZUGSACHSEN
100
AcDbLine
 62
7
  6
CONTINUOUS
 10
127.5516506294
 20
40.4348673006
 11
127.5516506294
 21
30.4348673006
  0
LINE
  5
471
100
AcDbEntity
  8
_30_VOLUMEN
100
AcDbLine
 62
7
  6
CONTINUOUS
 10
128.8516506294
 20
53.6848672792
 11
128.8516506294
 21
42.1848673006
  0
LINE
  5
472
100
AcDbEntity
  8
_30_VOLUMEN
100
AcDbLine
 62
7
  6
CONTINUOUS
 10
128.8516506294
 20
17.1848673221
 11
128.8516506294
 21
28.6848673006
  0
LINE
  5
473
100
AcDbEntity
  8
_30_VOLUMEN
100
AcDbLine
 62
7
  6
CONTINUOUS
 10
129.2516506294
 20
46.4348672994
 11
129.2516506294
 21
24.4348673019
  0
LINE
  5
474
100
AcDbEntity
  8
_30_VOLUMEN
100
AcDbLine
 62
7
  6
CONTINUOUS
 10
129.3516506294
 20
41.9348673006
 11
129.3516506294
 21
28.9348673006
  0
LINE
  5
475
100
AcDbEntity
  8
0
100
AcDbLine
 62
7
  6
CONTINUOUS
 10
129.8516506294
 20
28.9348673006
 11
129.8516506294
 21
28.1848673006
  0
LINE
  5
476
100
AcDbEntity
  8
0
100
AcDbLine
 62
7
  6
CONTINUOUS
 10
129.8516506294
 20
41.9348673006
 11
129.8516506294
 21
42.6848673006
  0
LINE
  5
477
100
AcDbEntity
  8
0
100
AcDbLine
 62
7
  6
CONTINUOUS
 10
131.6940696615
 20
28.9348673006
 11
131.6940696615
 21
28.1848673006
  0
LINE
  5
478
100
AcDbEntity
  8
0
100
AcDbLine
 62
7
  6
CONTINUOUS
 10
131.6940696615
 20
41.9348673006
 11
131.6940696615
 21
42.6848673006
  0
LINE
  5
479
100
AcDbEntity
  8
_30_VOLUMEN
100
AcDbLine
 62
7
  6
CONTINUOUS
 10
132.7516506294
 20
41.9348673006
 11
132.7516506294
 21
28.9348673006
  0
LINE
  5
47A
100
AcDbEntity
  8
RUNDUNGEN
100
AcDbLine
 62
7
  6
CONTINUOUS
 10
137.0516506294
 20
30.8350748388
 11
137.0516506294
 21
40.0346597624
  0
ARC
  5
47B
100
AcDbEntity
  8
BEZUGSACHSEN
100
AcDbCircle
 62
7
  6
CONTINUOUS
 10
104.0516506294
 20
150.052615282
 40
18.0
100
AcDbArc
 50
60.0
 51
63.1034536967
  0
ARC
  5
47C
100
AcDbEntity
  8
RUNDUNGEN
100
AcDbCircle
 62
7
  6
CONTINUOUS
 10
104.0516506294
 20
150.052615282
 40
18.0
100
AcDbArc
 50
60.0
 51
63.1034536967
  0
ARC
  5
47D
100
AcDbEntity
  8
RUNDUNGEN
100
AcDbCircle
 62
7
  6
CONTINUOUS
 10
87.0516506294
 20
150.052615282
 40
18.0
100
AcDbArc
 50
116.8965463033
 51
180.0
  0
ARC
  5
47E
100
AcDbEntity
  8
_30_VOLUMEN
100
AcDbCircle
 62
7
  6
CONTINUOUS
 10
95.5516506294
 20
185.552615282
 40
15.0
100
AcDbArc
 50
8.3541456334
 51
180.0
  0
ARC
  5
47F
100
AcDbEntity
  8
RUNDUNGEN
100
AcDbCircle
 62
7
  6
CONTINUOUS
 10
95.5516506294
 20
185.552615282
 40
15.0
100
AcDbArc
 50
0.0
 51
180.0
  0
ARC
  5
480
100
AcDbEntity
  8
_21_KURVEN
100
AcDbCircle
 62
4
  6
CONTINUOUS
 10
75.0516506294
 20
185.052615282
 40
10.0
100
AcDbArc
 50
288.3227347414
 51
303.3711863233
  0
ARC
  5
481
100
AcDbEntity
  8
_21_KURVEN
100
AcDbCircle
 62
4
  6
CONTINUOUS
 10
116.0516506294
 20
185.052615282
 40
10.0
100
AcDbArc
 50
236.6288136767
 51
251.6772652586
  0
ARC
  5
482
100
AcDbEntity
  8
RUNDUNGEN
100
AcDbCircle
 62
7
  6
CONTINUOUS
 10
104.0516506294
 20
150.052615282
 40
5.0
100
AcDbArc
 50
0.0
 51
88.4713171342
  0
ARC
  5
483
100
AcDbEntity
  8
RUNDUNGEN
100
AcDbCircle
 62
7
  6
CONTINUOUS
 10
87.0516506294
 20
150.052615282
 40
5.0
100
AcDbArc
 50
91.5285683555
 51
180.0
  0
ARC
  5
484
100
AcDbEntity
  8
RUNDUNGEN
100
AcDbCircle
 62
7
  6
CONTINUOUS
 10
123.5516506294
 20
154.9600925701
 40
4.0
100
AcDbArc
 50
0.0
 51
60.0
  0
ARC
  5
485
100
AcDbEntity
  8
_30_VOLUMEN
100
AcDbCircle
 62
7
  6
CONTINUOUS
 10
125.5516506294
 20
142.852615282
 40
3.7
100
AcDbArc
 50
0.0
 51
180.0
  0
ARC
  5
486
100
AcDbEntity
  8
RUNDUNGEN
100
AcDbCircle
 62
7
  6
CONTINUOUS
 10
113.5516506294
 20
168.7809360823
 40
3.0
100
AcDbArc
 50
180.0000000577
 51
243.1034536967
  0
ARC
  5
487
100
AcDbEntity
  8
RUNDUNGEN
100
AcDbCircle
 62
7
  6
CONTINUOUS
 10
77.5516506294
 20
168.7808811939
 40
2.9999662937
100
AcDbArc
 50
296.8970205388
 51
0.0010482928
  0
ARC
  5
488
100
AcDbEntity
  8
BEZUGSACHSEN
100
AcDbCircle
 62
7
  6
CONTINUOUS
 10
77.5516506294
 20
168.7808811939
 40
2.9999662937
100
AcDbArc
 50
296.8970205388
 51
343.1730994668
  0
ARC
  5
489
100
AcDbEntity
  8
RUNDUNGEN
100
AcDbCircle
 62
7
  6
CONTINUOUS
 10
110.5516506294
 20
94.802615282
 40
1.5
100
AcDbArc
 50
180.0
 51
270.0
  0
ARC
  5
48A
100
AcDbEntity
  8
RUNDUNGEN
100
AcDbCircle
 62
7
  6
CONTINUOUS
 10
80.5516506294
 20
94.802615282
 40
1.5
100
AcDbArc
 50
270.0
 51
360.0
  0
ARC
  5
48B
100
AcDbEntity
  8
RUNDUNGEN
100
AcDbCircle
 62
7
  6
CONTINUOUS
 10
70.5412158152
 20
94.802615282
 40
1.5
100
AcDbArc
 50
184.7801918472
 51
270.0
  0
ARC
  5
48C
100
AcDbEntity
  8
BEZUGSACHSEN
100
AcDbCircle
 62
7
  6
CONTINUOUS
 10
67.5516506294
 20
128.552615282
 40
1.5
100
AcDbArc
 50
270.0
 51
360.0
  0
ARC
  5
48D
100
AcDbEntity
  8
BEZUGSACHSEN
100
AcDbCircle
 62
7
  6
CONTINUOUS
 10
67.5516506294
 20
94.552615282
 40
1.5
100
AcDbArc
 50
4.7801918472
 51
90.0
  0
ARC
  5
48E
100
AcDbEntity
  8
RUNDUNGEN
100
AcDbCircle
 62
7
  6
CONTINUOUS
 10
110.5516506294
 20
136.052615282
 40
1.5
100
AcDbArc
 50
90.0
 51
179.9999999639
  0
ARC
  5
48F
100
AcDbEntity
  8
RUNDUNGEN
100
AcDbCircle
 62
7
  6
CONTINUOUS
 10
136.0516506294
 20
116.1524077438
 40
1.0
100
AcDbArc
 50
0.0
 51
69.9999999956
  0
ARC
  5
490
100
AcDbEntity
  8
RUNDUNGEN
100
AcDbCircle
 62
7
  6
CONTINUOUS
 10
136.0516506294
 20
106.9528228202
 40
1.0
100
AcDbArc
 50
290.0000000044
 51
360.0
  0
ARC
  5
491
100
AcDbEntity
  8
0
100
AcDbCircle
 62
7
  6
CONTINUOUS
 10
121.295443127
 20
113.6015533716
 40
0.25
100
AcDbArc
 50
57.9946167919
 51
180.0
  0
ARC
  5
492
100
AcDbEntity
  8
0
100
AcDbCircle
 62
7
  6
CONTINUOUS
 10
120.795443127
 20
112.6359486153
 40
0.25
100
AcDbArc
 50
270.0
 51
360.0
  0
ARC
  5
493
100
AcDbEntity
  8
0
100
AcDbCircle
 62
7
  6
CONTINUOUS
 10
115.295443127
 20
112.1359486153
 40
0.25
100
AcDbArc
 50
90.0
 51
180.0
  0
ARC
  5
494
100
AcDbEntity
  8
0
100
AcDbCircle
 62
7
  6
CONTINUOUS
 10
115.295443127
 20
110.9692819487
 40
0.25
100
AcDbArc
 50
180.0
 51
270.0
  0
ARC
  5
495
100
AcDbEntity
  8
0
100
AcDbCircle
 62
7
  6
CONTINUOUS
 10
120.795443127
 20
110.4692819487
 40
0.25
100
AcDbArc
 50
0.0
 51
90.0
  0
ARC
  5
496
100
AcDbEntity
  8
0
100
AcDbCircle
 62
7
  6
CONTINUOUS
 10
121.295443127
 20
109.5036771924
 40
0.25
100
AcDbArc
 50
180.0
 51
302.0053832081
  0
ARC
  5
497
100
AcDbEntity
  8
0
100
AcDbCircle
 62
7
  6
CONTINUOUS
 10
124.5737440704
 20
111.552615282
 40
0.25
100
AcDbArc
 50
302.0053832081
 51
57.9946167919
  0
ARC
  5
498
100
AcDbEntity
  8
BEZUGSACHSEN
100
AcDbCircle
 62
7
  6
CONTINUOUS
 10
191.1828509075
 20
127.0142613781
 40
4.0
100
AcDbArc
 50
315.98031732
 51
360.0
  0
ARC
  5
499
100
AcDbEntity
  8
BEZUGSACHSEN
100
AcDbCircle
 62
7
  6
CONTINUOUS
 10
196.6828509075
 20
131.1692536281
 40
4.0
100
AcDbArc
 50
298.1586282255
 51
360.0
  0
ARC
  5
49A
100
AcDbEntity
  8
BEZUGSACHSEN
100
AcDbCircle
 62
7
  6
CONTINUOUS
 10
198.1828509075
 20
134.552615282
 40
3.0
100
AcDbArc
 50
90.0
 51
180.0
  0
ARC
  5
49B
100
AcDbEntity
  8
BEZUGSACHSEN
100
AcDbCircle
 62
7
  6
CONTINUOUS
 10
198.1828509075
 20
140.052615282
 40
2.5
100
AcDbArc
 50
270.0
 51
323.1968635731
  0
ARC
  5
49C
100
AcDbEntity
  8
BEZUGSACHSEN
100
AcDbCircle
 62
7
  6
CONTINUOUS
 10
198.1828509075
 20
140.052615282
 40
2.5
100
AcDbArc
 50
335.5311278186
 51
360.0
  0
ARC
  5
49D
100
AcDbEntity
  8
_30_VOLUMEN
100
AcDbCircle
 62
7
  6
CONTINUOUS
 10
185.712130683
 20
185.5903704493
 40
32.094605974
100
AcDbArc
 50
359.9325988846
 51
3.5052154497
  0
ARC
  5
49E
100
AcDbEntity
  8
BEZUGSACHSEN
100
AcDbCircle
 62
7
  6
CONTINUOUS
 10
193.9328509075
 20
173.324640602
 40
12.0
100
AcDbArc
 50
180.0
 51
240.0
  0
ARC
  5
49F
100
AcDbEntity
  8
_30_VOLUMEN
100
AcDbCircle
 62
7
  6
CONTINUOUS
 10
203.4328509075
 20
205.552615282
 40
7.5
100
AcDbArc
 50
221.8103148958
 51
251.7397720671
  0
ARC
  5
4A0
100
AcDbEntity
  8
BEZUGSACHSEN
100
AcDbCircle
 62
7
  6
CONTINUOUS
 10
183.4328509075
 20
199.052615282
 40
1.5
100
AcDbArc
 50
90.0
 51
180.0
  0
ARC
  5
4A1
100
AcDbEntity
  8
0
100
AcDbCircle
 62
7
  6
CONTINUOUS
 10
207.1828509075
 20
111.552615282
 40
18.75
100
AcDbArc
 50
352.9572457596
 51
7.0427541205
  0
ARC
  5
4A2
100
AcDbEntity
  8
BEZUGSACHSEN
100
AcDbCircle
 62
7
  6
CONTINUOUS
 10
207.1828509075
 20
111.552615282
 40
18.75
100
AcDbArc
 50
172.9572458795
 51
187.0427542404
  0
ARC
  5
4A3
100
AcDbEntity
  8
BEZUGSACHSEN
100
AcDbCircle
 62
7
  6
CONTINUOUS
 10
207.1828509075
 20
111.552615282
 40
18.25
100
AcDbArc
 50
118.1582983591
 51
61.8417016409
  0
CIRCLE
  5
4A4
100
AcDbEntity
  8
_30_VOLUMEN
100
AcDbCircle
 62
7
  6
CONTINUOUS
 10
207.1828509075
 20
111.552615282
 40
15.5
  0
CIRCLE
  5
4A5
100
AcDbEntity
  8
FASEN
100
AcDbCircle
 62
7
  6
CONTINUOUS
 10
207.1828509075
 20
111.552615282
 40
15.0
  0
CIRCLE
  5
4A6
100
AcDbEntity
  8
FASEN
100
AcDbCircle
 62
7
  6
CONTINUOUS
 10
207.1828509075
 20
111.552615282
 40
14.5
  0
ARC
  5
4A7
100
AcDbEntity
  8
RUNDUNGEN
100
AcDbCircle
 62
7
  6
CONTINUOUS
 10
223.1828509075
 20
127.0142613781
 40
4.0
100
AcDbArc
 50
180.0
 51
224.01968268
  0
ARC
  5
4A8
100
AcDbEntity
  8
RUNDUNGEN
100
AcDbCircle
 62
7
  6
CONTINUOUS
 10
217.6828509075
 20
131.1692536281
 40
4.0
100
AcDbArc
 50
180.0
 51
241.8413717745
  0
ARC
  5
4A9
100
AcDbEntity
  8
RUNDUNGEN
100
AcDbCircle
 62
7
  6
CONTINUOUS
 10
216.1828509075
 20
134.552615282
 40
3.0
100
AcDbArc
 50
0.0
 51
90.0
  0
ARC
  5
4AA
100
AcDbEntity
  8
RUNDUNGEN
100
AcDbCircle
 62
7
  6
CONTINUOUS
 10
216.1828509075
 20
140.052615282
 40
2.5
100
AcDbArc
 50
216.8031364269
 51
270.0
  0
ARC
  5
4AB
100
AcDbEntity
  8
RUNDUNGEN
100
AcDbCircle
 62
7
  6
CONTINUOUS
 10
220.4328509075
 20
173.324640602
 40
12.0
100
AcDbArc
 50
300.0
 51
360.0
  0
ARC
  5
4AC
100
AcDbEntity
  8
_30_VOLUMEN
100
AcDbCircle
 62
7
  6
CONTINUOUS
 10
210.9328509075
 20
205.552615282
 40
7.5
100
AcDbArc
 50
288.2602279329
 51
318.1896851042
  0
ARC
  5
4AD
100
AcDbEntity
  8
_30_VOLUMEN
100
AcDbCircle
 62
7
  6
CONTINUOUS
 10
207.1828509075
 20
174.052615282
 40
6.1
100
AcDbArc
 50
180.0
 51
360.0
  0
ARC
  5
4AE
100
AcDbEntity
  8
RUNDUNGEN
100
AcDbCircle
 62
7
  6
CONTINUOUS
 10
230.9328509075
 20
199.052615282
 40
1.5
100
AcDbArc
 50
0.0
 51
90.0
  0
ARC
  5
4AF
100
AcDbEntity
  8
_30_VOLUMEN
100
AcDbCircle
 62
7
  6
CONTINUOUS
 10
77.5516506294
 20
39.1848673006
 40
7.5
100
AcDbArc
 50
18.2602279329
 51
66.4218215218
  0
ARC
  5
4B0
100
AcDbEntity
  8
_30_VOLUMEN
100
AcDbCircle
 62
7
  6
CONTINUOUS
 10
113.5516506294
 20
39.1848673006
 40
7.5
100
AcDbArc
 50
113.5781784782
 51
161.7397720671
  0
ARC
  5
4B1
100
AcDbEntity
  8
_30_VOLUMEN
100
AcDbCircle
 62
7
  6
CONTINUOUS
 10
77.5516506294
 20
31.6848673006
 40
7.5
100
AcDbArc
 50
293.5781784782
 51
341.7397720671
  0
ARC
  5
4B2
100
AcDbEntity
  8
_30_VOLUMEN
100
AcDbCircle
 62
7
  6
CONTINUOUS
 10
113.5516506294
 20
31.6848673006
 40
7.5
100
AcDbArc
 50
198.2602279329
 51
246.4218215218
  0
ARC
  5
4B3
100
AcDbEntity
  8
RUNDUNGEN
100
AcDbCircle
 62
7
  6
CONTINUOUS
 10
113.5516506294
 20
25.9348777516
 40
2.9999930327
100
AcDbArc
 50
90.0
 51
180.0001995991
  0
ARC
  5
4B4
100
AcDbEntity
  8
BEZUGSACHSEN
100
AcDbCircle
 62
7
  6
CONTINUOUS
 10
113.5516506294
 20
44.9348568497
 40
2.9999930327
100
AcDbArc
 50
179.9998004009
 51
270.0
  0
ARC
  5
4B5
100
AcDbEntity
  8
RUNDUNGEN
100
AcDbCircle
 62
7
  6
CONTINUOUS
 10
77.5516689542
 20
25.9348673006
 40
2.9999877835
100
AcDbArc
 50
0.0
 51
90.0003499775
  0
ARC
  5
4B6
100
AcDbEntity
  8
BEZUGSACHSEN
100
AcDbCircle
 62
7
  6
CONTINUOUS
 10
77.5516689542
 20
44.9348673006
 40
2.9999877835
100
AcDbArc
 50
269.9996500225
 51
360.0
  0
ARC
  5
4B7
100
AcDbEntity
  8
BEZUGSACHSEN
100
AcDbCircle
 62
7
  6
CONTINUOUS
 10
67.5516506294
 20
52.4348673006
 40
1.5
100
AcDbArc
 50
270.0
 51
355.2198081528
  0
ARC
  5
4B8
100
AcDbEntity
  8
RUNDUNGEN
100
AcDbCircle
 62
7
  6
CONTINUOUS
 10
70.5412158152
 20
18.6848673006
 40
1.5
100
AcDbArc
 50
184.7801918472
 51
270.0
  0
ARC
  5
4B9
100
AcDbEntity
  8
RUNDUNGEN
100
AcDbCircle
 62
7
  6
CONTINUOUS
 10
70.5412158152
 20
52.1848673006
 40
1.5
100
AcDbArc
 50
90.0
 51
175.2198081528
  0
ARC
  5
4BA
100
AcDbEntity
  8
RUNDUNGEN
100
AcDbCircle
 62
7
  6
CONTINUOUS
 10
67.5516506294
 20
18.4348673006
 40
1.5
100
AcDbArc
 50
4.7801918472
 51
90.0
  0
ARC
  5
4BB
100
AcDbEntity
  8
RUNDUNGEN
100
AcDbCircle
 62
7
  6
CONTINUOUS
 10
70.5516506294
 20
30.4348673006
 40
1.5
100
AcDbArc
 50
180.0
 51
270.0
  0
ARC
  5
4BC
100
AcDbEntity
  8
RUNDUNGEN
100
AcDbCircle
 62
7
  6
CONTINUOUS
 10
126.0516506294
 20
30.4348673006
 40
1.5
100
AcDbArc
 50
270.0
 51
360.0
  0
ARC
  5
4BD
100
AcDbEntity
  8
RUNDUNGEN
100
AcDbCircle
 62
7
  6
CONTINUOUS
 10
109.0516506294
 20
11.6848673006
 40
1.5
100
AcDbArc
 50
270.0
 51
360.0
  0
ARC
  5
4BE
100
AcDbEntity
  8
RUNDUNGEN
100
AcDbCircle
 62
7
  6
CONTINUOUS
 10
82.0516506294
 20
11.6848673006
 40
1.5
100
AcDbArc
 50
180.0
 51
270.0
  0
ARC
  5
4BF
100
AcDbEntity
  8
BEZUGSACHSEN
100
AcDbCircle
 62
7
  6
CONTINUOUS
 10
70.5516506294
 20
40.4348673006
 40
1.5
100
AcDbArc
 50
90.0
 51
180.0
  0
ARC
  5
4C0
100
AcDbEntity
  8
BEZUGSACHSEN
100
AcDbCircle
 62
7
  6
CONTINUOUS
 10
126.0516506294
 20
40.4348673006
 40
1.5
100
AcDbArc
 50
0.0
 51
90.0
  0
ARC
  5
4C1
100
AcDbEntity
  8
BEZUGSACHSEN
100
AcDbCircle
 62
7
  6
CONTINUOUS
 10
109.0516506294
 20
59.1848673006
 40
1.5
100
AcDbArc
 50
0.0
 51
90.0
  0
ARC
  5
4C2
100
AcDbEntity
  8
BEZUGSACHSEN
100
AcDbCircle
 62
7
  6
CONTINUOUS
 10
82.0516506294
 20
59.1848673006
 40
1.5
100
AcDbArc
 50
90.0
 51
180.0
  0
ARC
  5
4C3
100
AcDbEntity
  8
RUNDUNGEN
100
AcDbCircle
 62
7
  6
CONTINUOUS
 10
136.0516506294
 20
40.0346597624
 40
1.0
100
AcDbArc
 50
0.0
 51
70.0
  0
ARC
  5
4C4
100
AcDbEntity
  8
RUNDUNGEN
100
AcDbCircle
 62
7
  6
CONTINUOUS
 10
136.0516506294
 20
30.8350748388
 40
1.0
100
AcDbArc
 50
290.0
 51
360.0
  0
SPLINE
  5
4C5
100
AcDbEntity
  8
_30_VOLUMEN
100
AcDbSpline
 62
7
  6
CONTINUOUS
 70
0
 71
3
 72
9
 73
5
 74
0
 42
0.0000001
 43
0.0000001
 44
0.0000000001
 40
0.0
 40
0.0
 40
0.0
 40
0.0
 40
0.2507116803
 40
1.0
 40
1.0
 40
1.0
 40
1.0
 10
196.5589873651
 20
185.552615282
 30
0.0
 10
196.5589873651
 20
185.7198460488
 30
0.0
 10
196.5638730956
 20
186.3868544419
 30
0.0
 10
196.5881397334
 20
187.0537758785
 30
0.0
 10
196.6190065518
 20
187.552615282
 30
0.0
  0
SPLINE
  5
4C6
100
AcDbEntity
  8
_30_VOLUMEN
100
AcDbSpline
 62
7
  6
CONTINUOUS
 70
0
 71
3
 72
29
 73
25
 74
0
 42
0.0000001
 43
0.0000001
 44
0.0000000001
 40
0.0
 40
0.0
 40
0.0
 40
0.0
 40
0.2013051102
 40
0.3912597439
 40
0.4800827927
 40
0.563840412
 40
0.6418676967
 40
0.7135384029
 40
0.7782719288
 40
0.835537968
 40
0.8848559562
 40
0.9064036018
 40
0.9258122881
 40
0.9430388835
 40
0.9580486531
 40
0.9708075514
 40
0.9812842255
 40
0.9894582036
 40
0.9926761323
 40
0.9953117262
 40
0.9973627771
 40
0.9988278964
 40
0.9997069716
 40
1.0
 40
1.0
 40
1.0
 40
1.0
 10
196.6190065518
 20
187.552615282
 30
0.0
 10
196.6731306136
 20
188.4273155624
 30
0.0
 10
196.7866993555
 20
190.1268934674
 30
0.0
 10
196.9489483104
 20
192.2106554848
 30
0.0
 10
197.0856568951
 20
193.7830140523
 30
0.0
 10
197.1867317112
 20
194.869339938
 30
0.0
 10
197.2870069124
 20
195.8807263748
 30
0.0
 10
197.384725971
 20
196.8091218286
 30
0.0
 10
197.4779019428
 20
197.6470975036
 30
0.0
 10
197.5644848421
 20
198.3878820254
 30
0.0
 10
197.6321167982
 20
198.9415851089
 30
0.0
 10
197.6811943801
 20
199.3315144124
 30
0.0
 10
197.7133652077
 20
199.5827601679
 30
0.0
 10
197.7423560414
 20
199.8057180156
 30
0.0
 10
197.7679662113
 20
199.9999213873
 30
0.0
 10
197.7899896233
 20
200.164958855
 30
0.0
 10
197.8082585899
 20
200.3004705577
 30
0.0
 10
197.8210424875
 20
200.3948181778
 30
0.0
 10
197.8293554567
 20
200.4553089241
 30
0.0
 10
197.8339271903
 20
200.4894350175
 30
0.0
 10
197.8378240013
 20
200.515884306
 30
0.0
 10
197.8398455839
 20
200.5350302191
 30
0.0
 10
197.842422118
 20
200.5460732642
 30
0.0
 10
197.8420641888
 20
200.5514716625
 30
0.0
 10
197.8426694431
 20
200.5525946247
 30
0.0
  0
SPLINE
  5
4C7
100
AcDbEntity
  8
_30_VOLUMEN
100
AcDbSpline
 62
7
  6
CONTINUOUS
 70
0
 71
3
 72
29
 73
25
 74
0
 42
0.0000001
 43
0.0000001
 44
0.0000000001
 40
0.0
 40
0.0
 40
0.0
 40
0.0
 40
0.0002930284
 40
0.0011721034
 40
0.0026372228
 40
0.0046882737
 40
0.0073238674
 40
0.0105417958
 40
0.018715773
 40
0.0291924466
 40
0.0419513442
 40
0.0569611124
 40
0.0741877069
 40
0.0935963931
 40
0.1151440382
 40
0.1644620283
 40
0.2217280695
 40
0.2864615832
 40
0.3581322755
 40
0.4361595846
 40
0.5199172303
 40
0.6087402671
 40
0.798694849
 40
1.0
 40
1.0
 40
1.0
 40
1.0
 10
216.5230323712
 20
200.5525946259
 30
0.0
 10
216.5236375128
 20
200.5514716034
 30
0.0
 10
216.5232798566
 20
200.5460733534
 30
0.0
 10
216.5258561268
 20
200.5350301665
 30
0.0
 10
216.5278778604
 20
200.5158843348
 30
0.0
 10
216.531774606
 20
200.4894350111
 30
0.0
 10
216.5363463649
 20
200.4553089337
 30
0.0
 10
216.5446593203
 20
200.3948181866
 30
0.0
 10
216.5574432233
 20
200.300470578
 30
0.0
 10
216.5757121869
 20
200.1649588826
 30
0.0
 10
216.5977356
 20
199.9999214266
 30
0.0
 10
216.623345766
 20
199.805718067
 30
0.0
 10
216.652336598
 20
199.5827602295
 30
0.0
 10
216.6845074272
 20
199.3315144808
 30
0.0
 10
216.7335850103
 20
198.9415851725
 30
0.0
 10
216.801216966
 20
198.3878820739
 30
0.0
 10
216.8877998597
 20
197.647097588
 30
0.0
 10
216.9809758264
 20
196.8091220178
 30
0.0
 10
217.0786948922
 20
195.8807265721
 30
0.0
 10
217.1789700823
 20
194.8693399728
 30
0.0
 10
217.2800449387
 20
193.7830139207
 30
0.0
 10
217.4167535034
 20
192.2106555148
 30
0.0
 10
217.5790024557
 20
190.1268935972
 30
0.0
 10
217.6925711904
 20
188.4273157399
 30
0.0
 10
217.7466952632
 20
187.552615282
 30
0.0
  0
SPLINE
  5
4C8
100
AcDbEntity
  8
_30_VOLUMEN
100
AcDbSpline
 62
7
  6
CONTINUOUS
 70
0
 71
3
 72
15
 73
11
 74
0
 42
0.0000001
 43
0.0000001
 44
0.0000000001
 40
0.0
 40
0.0
 40
0.0
 40
0.0
 40
0.1249728511
 40
0.2499403633
 40
0.3749280237
 40
0.4999315166
 40
0.6249393463
 40
0.7499506142
 40
0.8749705904
 40
1.0
 40
1.0
 40
1.0
 40
1.0
 10
201.0828509075
 20
177.1571026138
 30
0.0
 10
200.7091267935
 20
177.3073811297
 30
0.0
 10
199.988530705
 20
177.6800034611
 30
0.0
 10
199.0310372818
 20
178.4276899017
 30
0.0
 10
198.2215274239
 20
179.3334116199
 30
0.0
 10
197.5760625658
 20
180.3615907204
 30
0.0
 10
197.0975805618
 20
181.476351511
 30
0.0
 10
196.777141492
 20
182.6453670569
 30
0.0
 10
196.5972249315
 20
183.8431004903
 30
0.0
 10
196.5589873651
 20
184.6496261509
 30
0.0
 10
196.5589873651
 20
185.052615282
 30
0.0
  0
SPLINE
  5
4C9
100
AcDbEntity
  8
_30_VOLUMEN
100
AcDbSpline
 62
7
  6
CONTINUOUS
 70
0
 71
3
 72
15
 73
11
 74
0
 42
0.0000001
 43
0.0000001
 44
0.0000000001
 40
0.0
 40
0.0
 40
0.0
 40
0.0
 40
0.1250292833
 40
0.2500491638
 40
0.375060516
 40
0.5000683799
 40
0.6250711099
 40
0.7500578352
 40
0.8750256233
 40
1.0
 40
1.0
 40
1.0
 40
1.0
 10
217.8067144499
 20
185.052615282
 30
0.0
 10
217.8067144499
 20
184.6496265583
 30
0.0
 10
217.7684770555
 20
183.8431016118
 30
0.0
 10
217.588560719
 20
182.645368594
 30
0.0
 10
217.2681217739
 20
181.476352938
 30
0.0
 10
216.7896407515
 20
180.3615939932
 30
0.0
 10
216.1441793595
 20
179.3334191385
 30
0.0
 10
215.3346741947
 20
178.4276995996
 30
0.0
 10
214.3771807235
 20
177.6800086165
 30
0.0
 10
213.6565795833
 20
177.3073829641
 30
0.0
 10
213.2828509075
 20
177.1571026138
 30
0.0
  0
SPLINE
  5
4CA
100
AcDbEntity
  8
0
100
AcDbSpline
 62
7
  6
CONTINUOUS
 70
0
 71
3
 72
16
 73
12
 74
0
 42
0.0000001
 43
0.0000001
 44
0.0000000001
 40
0.0
 40
0.0
 40
0.0
 40
0.0
 40
0.0057429671
 40
0.0204826958
 40
0.0444634047
 40
0.0775726404
 40
0.1700545046
 40
0.2941750323
 40
0.4453774364
 40
0.6180123473
 40
1.0
 40
1.0
 40
1.0
 40
1.0
 10
115.045443127
 20
16.6939435715
 30
0.0
 10
115.045443127
 20
16.6944231898
 30
0.0
 10
115.0477255028
 20
16.6949840203
 30
0.0
 10
115.0507951153
 20
16.6957036489
 30
0.0
 10
115.0570617135
 20
16.6964638453
 30
0.0
 10
115.0693102729
 20
16.6976652022
 30
0.0
 10
115.0902591796
 20
16.699010755
 30
0.0
 10
115.1208810218
 20
16.7004501295
 30
0.0
 10
115.1582947449
 20
16.7016875382
 30
0.0
 10
115.2172172796
 20
16.7030159136
 30
0.0
 10
115.2635417963
 20
16.7033949731
 30
0.0
 10
115.295443127
 20
16.7033949731
 30
0.0
  0
SPLINE
  5
4CB
100
AcDbEntity
  8
0
100
AcDbSpline
 62
7
  6
CONTINUOUS
 70
0
 71
3
 72
9
 73
5
 74
0
 42
0.0000001
 43
0.0000001
 44
0.0000000001
 40
0.0
 40
0.0
 40
0.0
 40
0.0
 40
0.733327456
 40
1.0
 40
1.0
 40
1.0
 40
1.0
 10
124.7062438054
 20
16.6860658408
 30
0.0
 10
124.7349666578
 20
16.6858628534
 30
0.0
 10
124.7741244661
 20
16.6851322693
 30
0.0
 10
124.8133066139
 20
16.6852716368
 30
0.0
 10
124.8237440335
 20
16.684867302
 30
0.0
  0
SPLINE
  5
4CC
100
AcDbEntity
  8
BEZUGSACHSEN
100
AcDbSpline
 62
7
  6
CONTINUOUS
 70
0
 71
3
 72
9
 73
5
 74
0
 42
0.0000001
 43
0.0000001
 44
0.0000000001
 40
0.0
 40
0.0
 40
0.0
 40
0.0
 40
0.2664204232
 40
1.0
 40
1.0
 40
1.0
 40
1.0
 10
124.8237125034
 20
53.6848660998
 30
0.0
 10
124.8341354589
 20
53.6853146506
 30
0.0
 10
124.7454144866
 20
53.6834064825
 30
0.0
 10
124.734968865
 20
53.683844487
 30
0.0
 10
124.7062438054
 20
53.6836359216
 30
0.0
  0
SPLINE
  5
4CD
100
AcDbEntity
  8
0
100
AcDbSpline
 62
7
  6
CONTINUOUS
 70
0
 71
3
 72
9
 73
5
 74
0
 42
0.0000001
 43
0.0000001
 44
0.0000000001
 40
0.0
 40
0.0
 40
0.0
 40
0.0
 40
0.2664204232
 40
1.0
 40
1.0
 40
1.0
 40
1.0
 10
124.8237125034
 20
17.1848685015
 30
0.0
 10
124.8341354589
 20
17.1844199507
 30
0.0
 10
124.7454144866
 20
17.1863281188
 30
0.0
 10
124.734968865
 20
17.1858901143
 30
0.0
 10
124.7062438054
 20
17.1860986797
 30
0.0
  0
SPLINE
  5
4CE
100
AcDbEntity
  8
BEZUGSACHSEN
100
AcDbSpline
 62
7
  6
CONTINUOUS
 70
0
 71
3
 72
16
 73
12
 74
0
 42
0.0000001
 43
0.0000001
 44
0.0000000001
 40
0.0
 40
0.0
 40
0.0
 40
0.0
 40
0.381923478
 40
0.5545491894
 40
0.7057567576
 40
0.8298671897
 40
0.9223347621
 40
0.9554472436
 40
0.9794432374
 40
0.9942081487
 40
1.0
 40
1.0
 40
1.0
 40
1.0
 10
115.295443127
 20
53.6658314977
 30
0.0
 10
115.263543482
 20
53.6658314977
 30
0.0
 10
115.2172197512
 20
53.6662208357
 30
0.0
 10
115.1582966898
 20
53.6675858273
 30
0.0
 10
115.1208814819
 20
53.6688576018
 30
0.0
 10
115.0902579378
 20
53.6703347529
 30
0.0
 10
115.0693141556
 20
53.6717204593
 30
0.0
 10
115.0570620921
 20
53.6729504481
 30
0.0
 10
115.0508017587
 20
53.673739252
 30
0.0
 10
115.0477142334
 20
53.6744655378
 30
0.0
 10
115.045443127
 20
53.6750584828
 30
0.0
 10
115.045443127
 20
53.6755422394
 30
0.0
  0
SPLINE
  5
4CF
100
AcDbEntity
  8
BEZUGSACHSEN
100
AcDbSpline
 62
7
  6
CONTINUOUS
 70
0
 71
3
 72
13
 73
9
 74
0
 42
0.0000001
 43
0.0000001
 44
0.0000000001
 40
0.0
 40
0.0
 40
0.0
 40
0.0
 40
0.0236525248
 40
0.0756173295
 40
0.1584418159
 40
0.2719779058
 40
0.5853904865
 40
1.0
 40
1.0
 40
1.0
 40
1.0
 10
121.045443127
 20
53.6526851966
 30
0.0
 10
121.045443127
 20
53.6534669364
 30
0.0
 10
121.0427335906
 20
53.6550446631
 30
0.0
 10
121.0380738636
 20
53.656215348
 30
0.0
 10
121.0297780165
 20
53.6577723358
 30
0.0
 10
121.0131696701
 20
53.6597356401
 30
0.0
 10
120.9853290341
 20
53.6618028064
 30
0.0
 10
120.9613227099
 20
53.6628865197
 30
0.0
 10
120.9476289388
 20
53.6633964784
 30
0.0
  0
SPLINE
  5
4D0
100
AcDbEntity
  8
BEZUGSACHSEN
100
AcDbSpline
 62
7
  6
CONTINUOUS
 70
0
 71
3
 72
9
 73
5
 74
0
 42
0.0000001
 43
0.0000001
 44
0.0000000001
 40
0.0
 40
0.0
 40
0.0
 40
0.0
 40
0.2256333377
 40
1.0
 40
1.0
 40
1.0
 40
1.0
 10
120.9476289388
 20
53.6633964784
 30
0.0
 10
120.9361889687
 20
53.663822505
 30
0.0
 10
120.8854740796
 20
53.6653479927
 30
0.0
 10
120.8347319673
 20
53.6658314977
 30
0.0
 10
120.795443127
 20
53.6658314977
 30
0.0
  0
SPLINE
  5
4D1
100
AcDbEntity
  8
BEZUGSACHSEN
100
AcDbSpline
 62
7
  6
CONTINUOUS
 70
0
 71
3
 72
14
 73
10
 74
0
 42
0.0000001
 43
0.0000001
 44
0.0000000001
 40
0.0
 40
0.0
 40
0.0
 40
0.0
 40
0.3262602348
 40
0.4970531095
 40
0.6569108229
 40
0.7948561706
 40
0.9014498932
 40
0.9701965115
 40
1.0
 40
1.0
 40
1.0
 40
1.0
 10
121.427942862
 20
53.5442753769
 30
0.0
 10
121.3859643113
 20
53.5409997699
 30
0.0
 10
121.3217469579
 20
53.5389015122
 30
0.0
 10
121.2370406679
 20
53.5399802966
 30
0.0
 10
121.1764272168
 20
53.5429481429
 30
0.0
 10
121.1249944463
 20
53.5473681591
 30
0.0
 10
121.0835011166
 20
53.5535768501
 30
0.0
 10
121.0605380732
 20
53.5589573977
 30
0.0
 10
121.045443127
 20
53.5656384759
 30
0.0
 10
121.045443127
 20
53.5694848236
 30
0.0
  0
SPLINE
  5
4D2
100
AcDbEntity
  8
0
100
AcDbSpline
 62
7
  6
CONTINUOUS
 70
0
 71
3
 72
14
 73
10
 74
0
 42
0.0000001
 43
0.0000001
 44
0.0000000001
 40
0.0
 40
0.0
 40
0.0
 40
0.0
 40
0.3262602348
 40
0.4970531095
 40
0.6569108229
 40
0.7948561706
 40
0.9014498932
 40
0.9701965115
 40
1.0
 40
1.0
 40
1.0
 40
1.0
 10
121.427942862
 20
17.3254592244
 30
0.0
 10
121.3859643113
 20
17.3287348314
 30
0.0
 10
121.3217469579
 20
17.3308330891
 30
0.0
 10
121.2370406679
 20
17.3297543047
 30
0.0
 10
121.1764272168
 20
17.3267864584
 30
0.0
 10
121.1249944463
 20
17.3223664422
 30
0.0
 10
121.0835011166
 20
17.3161577512
 30
0.0
 10
121.0605380732
 20
17.3107772036
 30
0.0
 10
121.045443127
 20
17.3040961254
 30
0.0
 10
121.045443127
 20
17.3002497777
 30
0.0
  0
SPLINE
  5
4D3
100
AcDbEntity
  8
0
100
AcDbSpline
 62
7
  6
CONTINUOUS
 70
0
 71
3
 72
13
 73
9
 74
0
 42
0.0000001
 43
0.0000001
 44
0.0000000001
 40
0.0
 40
0.0
 40
0.0
 40
0.0
 40
0.0236525248
 40
0.0756173295
 40
0.1584418159
 40
0.2719779058
 40
0.5853904865
 40
1.0
 40
1.0
 40
1.0
 40
1.0
 10
121.045443127
 20
17.2170494047
 30
0.0
 10
121.045443127
 20
17.2162676649
 30
0.0
 10
121.0427335906
 20
17.2146899382
 30
0.0
 10
121.0380738636
 20
17.2135192533
 30
0.0
 10
121.0297780165
 20
17.2119622655
 30
0.0
 10
121.0131696701
 20
17.2099989612
 30
0.0
 10
120.9853290341
 20
17.2079317949
 30
0.0
 10
120.9613227099
 20
17.2068480816
 30
0.0
 10
120.9476289388
 20
17.2063381229
 30
0.0
  0
SPLINE
  5
4D4
100
AcDbEntity
  8
0
100
AcDbSpline
 62
7
  6
CONTINUOUS
 70
0
 71
3
 72
9
 73
5
 74
0
 42
0.0000001
 43
0.0000001
 44
0.0000000001
 40
0.0
 40
0.0
 40
0.0
 40
0.0
 40
0.2256333377
 40
1.0
 40
1.0
 40
1.0
 40
1.0
 10
120.9476289388
 20
17.2063381229
 30
0.0
 10
120.9361889687
 20
17.2059120963
 30
0.0
 10
120.8854740796
 20
17.2043866086
 30
0.0
 10
120.8347319673
 20
17.2039031035
 30
0.0
 10
120.795443127
 20
17.2039031035
 30
0.0
  0
SPLINE
  5
4D5
100
AcDbEntity
  8
0
100
AcDbSpline
 62
7
  6
CONTINUOUS
 70
0
 71
3
 72
16
 73
12
 74
0
 42
0.0000001
 43
0.0000001
 44
0.0000000001
 40
0.0
 40
0.0
 40
0.0
 40
0.0
 40
0.381923478
 40
0.5545491894
 40
0.7057567576
 40
0.8298671897
 40
0.9223347621
 40
0.9554472436
 40
0.9794432374
 40
0.9942081487
 40
1.0
 40
1.0
 40
1.0
 40
1.0
 10
115.295443127
 20
17.2039031035
 30
0.0
 10
115.263543482
 20
17.2039031035
 30
0.0
 10
115.2172197512
 20
17.2035137656
 30
0.0
 10
115.1582966898
 20
17.202148774
 30
0.0
 10
115.1208814819
 20
17.2008769995
 30
0.0
 10
115.0902579378
 20
17.1993998484
 30
0.0
 10
115.0693141556
 20
17.1980141419
 30
0.0
 10
115.0570620921
 20
17.1967841532
 30
0.0
 10
115.0508017587
 20
17.1959953493
 30
0.0
 10
115.0477142334
 20
17.1952690635
 30
0.0
 10
115.045443127
 20
17.1946761184
 30
0.0
 10
115.045443127
 20
17.1941923619
 30
0.0
  0
SPLINE
  5
4D6
100
AcDbEntity
  8
BEZUGSACHSEN
100
AcDbSpline
 62
7
  6
CONTINUOUS
 70
0
 71
3
 72
15
 73
11
 74
0
 42
0.0000001
 43
0.0000001
 44
0.0000000001
 40
0.0
 40
0.0
 40
0.0
 40
0.0
 40
0.0110219609
 40
0.0303862017
 40
0.099026229
 40
0.2055346512
 40
0.3433585044
 40
0.5032319314
 40
0.6739212084
 40
1.0
 40
1.0
 40
1.0
 40
1.0
 10
121.045443127
 20
54.072580484
 30
0.0
 10
121.045443127
 20
54.0711575215
 30
0.0
 10
121.0483738174
 20
54.0677462667
 30
0.0
 10
121.0598575315
 20
54.0626193442
 30
0.0
 10
121.0846633049
 20
54.0567615891
 30
0.0
 10
121.1245450693
 20
54.0512048991
 30
0.0
 10
121.1766163081
 20
54.046698761
 30
0.0
 10
121.2370144808
 20
54.0438933022
 30
0.0
 10
121.3217940233
 20
54.0428134927
 30
0.0
 10
121.3859660751
 20
54.0448656189
 30
0.0
 10
121.427942862
 20
54.0480524357
 30
0.0
  0
SPLINE
  5
4D7
100
AcDbEntity
  8
BEZUGSACHSEN
100
AcDbSpline
 62
7
  6
CONTINUOUS
 70
0
 71
3
 72
15
 73
11
 74
0
 42
0.0000001
 43
0.0000001
 44
0.0000000001
 40
0.0
 40
0.0
 40
0.0
 40
0.0
 40
0.3809313443
 40
0.5530785133
 40
0.703850436
 40
0.8276402366
 40
0.9199855838
 40
0.9773502174
 40
0.9926540393
 40
1.0
 40
1.0
 40
1.0
 40
1.0
 10
120.795443127
 20
54.1663396281
 30
0.0
 10
120.827354768
 20
54.1663396281
 30
0.0
 10
120.8736845103
 20
54.1659741833
 30
0.0
 10
120.9326452305
 20
54.1645593169
 30
0.0
 10
120.9700115757
 20
54.1631665999
 30
0.0
 10
121.0007867048
 20
54.161370599
 30
0.0
 10
121.0234092005
 20
54.1594392465
 30
0.0
 10
121.0374632302
 20
54.1572326036
 30
0.0
 10
121.0435508595
 20
54.1554991577
 30
0.0
 10
121.045443127
 20
54.1541602326
 30
0.0
 10
121.045443127
 20
54.1535448418
 30
0.0
  0
SPLINE
  5
4D8
100
AcDbEntity
  8
BEZUGSACHSEN
100
AcDbSpline
 62
7
  6
CONTINUOUS
 70
0
 71
3
 72
16
 73
12
 74
0
 42
0.0000001
 43
0.0000001
 44
0.0000000001
 40
0.0
 40
0.0
 40
0.0
 40
0.0
 40
0.0057429671
 40
0.0204826958
 40
0.0444634047
 40
0.0775726404
 40
0.1700545046
 40
0.2941750323
 40
0.4453774364
 40
0.6180123473
 40
1.0
 40
1.0
 40
1.0
 40
1.0
 10
115.045443127
 20
54.1757910298
 30
0.0
 10
115.045443127
 20
54.1753114114
 30
0.0
 10
115.0477255028
 20
54.174750581
 30
0.0
 10
115.0507951153
 20
54.1740309524
 30
0.0
 10
115.0570617135
 20
54.173270756
 30
0.0
 10
115.0693102729
 20
54.1720693991
 30
0.0
 10
115.0902591796
 20
54.1707238463
 30
0.0
 10
115.1208810218
 20
54.1692844718
 30
0.0
 10
115.1582947449
 20
54.1680470631
 30
0.0
 10
115.2172172796
 20
54.1667186876
 30
0.0
 10
115.2635417963
 20
54.1663396281
 30
0.0
 10
115.295443127
 20
54.1663396281
 30
0.0
  0
SPLINE
  5
4D9
100
AcDbEntity
  8
_30_VOLUMEN
100
AcDbSpline
 62
7
  6
CONTINUOUS
 70
0
 71
3
 72
31
 73
27
 74
0
 42
0.0000001
 43
0.0000001
 44
0.0000000001
 40
0.0
 40
0.0
 40
0.0
 40
0.0
 40
0.0037741513
 40
0.0085016514
 40
0.0208234312
 40
0.0369228328
 40
0.0566934709
 40
0.0799869037
 40
0.1066233696
 40
0.1690610399
 40
0.2420484694
 40
0.3232852349
 40
0.4101953745
 40
0.4999998496
 40
0.5898043525
 40
0.6767145242
 40
0.7579513271
 40
0.8309388203
 40
0.8933765465
 40
0.9200130273
 40
0.9433064753
 40
0.9630771249
 40
0.9791765469
 40
0.9914983411
 40
0.9962258466
 40
1.0
 40
1.0
 40
1.0
 40
1.0
 10
80.6855818821
 20
45.9987116563
 30
0.0
 10
80.7197519781
 20
45.9829956044
 30
0.0
 10
80.7988403682
 20
45.9522462233
 30
0.0
 10
80.9967536503
 20
45.889657453
 30
0.0
 10
81.3180560809
 20
45.8116173637
 30
0.0
 10
81.789260606
 20
45.7186714756
 30
0.0
 10
82.3709339434
 20
45.6218686145
 30
0.0
 10
83.0583980386
 20
45.5223711672
 30
0.0
 10
84.1692322212
 20
45.3806715466
 30
0.0
 10
85.7755360181
 20
45.2113192051
 30
0.0
 10
87.9275429635
 20
45.0340666188
 30
0.0
 10
90.3264783469
 20
44.890621899
 30
0.0
 10
92.8956013768
 20
44.7967396041
 30
0.0
 10
95.5516464093
 20
44.7640257776
 30
0.0
 10
98.2076917652
 20
44.7967393502
 30
0.0
 10
100.7768157705
 20
44.8906215077
 30
0.0
 10
103.1757524856
 20
45.0340662033
 30
0.0
 10
105.3277610021
 20
45.2113187875
 30
0.0
 10
106.9340661391
 20
45.3806712069
 30
0.0
 10
108.0449011789
 20
45.5223708844
 30
0.0
 10
108.732365687
 20
45.6218683725
 30
0.0
 10
109.3140394984
 20
45.7186712484
 30
0.0
 10
109.7852444811
 20
45.8116172034
 30
0.0
 10
110.1065473006
 20
45.889657385
 30
0.0
 10
110.3044607963
 20
45.9522461994
 30
0.0
 10
110.3835492612
 20
45.9829955954
 30
0.0
 10
110.4177193767
 20
45.9987116563
 30
0.0
  0
SPLINE
  5
4DA
100
AcDbEntity
  8
_30_VOLUMEN
100
AcDbSpline
 62
7
  6
CONTINUOUS
 70
0
 71
3
 72
31
 73
27
 74
0
 42
0.0000001
 43
0.0000001
 44
0.0000000001
 40
0.0
 40
0.0
 40
0.0
 40
0.0
 40
0.0037741546
 40
0.0085016623
 40
0.0208234587
 40
0.036922879
 40
0.0566935212
 40
0.0799869655
 40
0.1066234551
 40
0.1690611815
 40
0.2420486721
 40
0.3232854776
 40
0.4101956471
 40
0.5000001471
 40
0.5898046197
 40
0.6767147574
 40
0.7579515258
 40
0.8309389531
 40
0.893376626
 40
0.9200131028
 40
0.9433065324
 40
0.9630771631
 40
0.9791765632
 40
0.9914983454
 40
0.9962258477
 40
1.0
 40
1.0
 40
1.0
 40
1.0
 10
110.4177193767
 20
24.871022945
 30
0.0
 10
110.3835492511
 20
24.8867390105
 30
0.0
 10
110.3044607518
 20
24.9174884124
 30
0.0
 10
110.1065471999
 20
24.9800772353
 30
0.0
 10
109.7852443547
 20
25.0581174282
 30
0.0
 10
109.3140394373
 20
25.151063362
 30
0.0
 10
108.7323657527
 20
25.2478662178
 30
0.0
 10
108.044901268
 20
25.3473637051
 30
0.0
 10
106.9340661771
 20
25.4890633918
 30
0.0
 10
105.3277609768
 20
25.6584158159
 30
0.0
 10
103.1757524585
 20
25.8356683998
 30
0.0
 10
100.7768157653
 20
25.9791130944
 30
0.0
 10
98.207691784
 20
26.0729952506
 30
0.0
 10
95.5516465043
 20
26.1057088235
 30
0.0
 10
92.8956015451
 20
26.0729950027
 30
0.0
 10
90.326478531
 20
25.9791127127
 30
0.0
 10
87.9275431583
 20
25.8356679961
 30
0.0
 10
85.7755361793
 20
25.6584154113
 30
0.0
 10
84.1692322699
 20
25.489063063
 30
0.0
 10
83.0583979867
 20
25.3473634274
 30
0.0
 10
82.3709338887
 20
25.2478659781
 30
0.0
 10
81.7892606697
 20
25.1510631351
 30
0.0
 10
81.3180562061
 20
25.0581172673
 30
0.0
 10
80.9967537468
 20
24.9800771669
 30
0.0
 10
80.7988404101
 20
24.917488388
 30
0.0
 10
80.7197519876
 20
24.8867390012
 30
0.0
 10
80.6855818821
 20
24.871022945
 30
0.0
  0
SPLINE
  5
4DB
100
AcDbEntity
  8
BEZUGSACHSEN
100
AcDbSpline
 62
7
  6
CONTINUOUS
 70
0
 71
3
 72
9
 73
5
 74
0
 42
0.0000001
 43
0.0000001
 44
0.0000000001
 40
0.0
 40
0.0
 40
0.0
 40
0.0
 40
0.733327456
 40
1.0
 40
1.0
 40
1.0
 40
1.0
 10
124.7062438054
 20
54.1836687605
 30
0.0
 10
124.7349666578
 20
54.1838717479
 30
0.0
 10
124.7741244661
 20
54.184602332
 30
0.0
 10
124.8133066139
 20
54.1844629644
 30
0.0
 10
124.8237440335
 20
54.1848672993
 30
0.0
  0
SPLINE
  5
4DC
100
AcDbEntity
  8
_30_VOLUMEN
100
AcDbSpline
 62
7
  6
CONTINUOUS
 70
0
 71
3
 72
15
 73
11
 74
0
 42
0.0000001
 43
0.0000001
 44
0.0000000001
 40
0.0
 40
0.0
 40
0.0
 40
0.0
 40
0.1171986481
 40
0.2410632501
 40
0.3693991271
 40
0.5000000059
 40
0.6306008697
 40
0.7589367252
 40
0.8828013437
 40
1.0
 40
1.0
 40
1.0
 40
1.0
 10
80.5516506294
 20
32.3657634549
 30
0.0
 10
80.5516506294
 20
32.6057598593
 30
0.0
 10
80.5323996377
 20
33.0992923359
 30
0.0
 10
80.4854963671
 20
33.8542037774
 30
0.0
 10
80.4454002758
 20
34.6371475487
 30
0.0
 10
80.4299109015
 20
35.434867306
 30
0.0
 10
80.4454002253
 20
36.2325870217
 30
0.0
 10
80.4854964065
 20
37.0155307476
 30
0.0
 10
80.5323996241
 20
37.7704421985
 30
0.0
 10
80.5516506294
 20
38.2639747251
 30
0.0
 10
80.5516506294
 20
38.5039711463
 30
0.0
  0
SPLINE
  5
4DD
100
AcDbEntity
  8
_30_VOLUMEN
100
AcDbSpline
 62
7
  6
CONTINUOUS
 70
0
 71
3
 72
15
 73
11
 74
0
 42
0.0000001
 43
0.0000001
 44
0.0000000001
 40
0.0
 40
0.0
 40
0.0
 40
0.0
 40
0.1171986549
 40
0.2410632706
 40
0.3693991243
 40
0.4999999918
 40
0.6306008773
 40
0.758936757
 40
0.8828013544
 40
1.0
 40
1.0
 40
1.0
 40
1.0
 10
110.5516506294
 20
38.5039711463
 30
0.0
 10
110.5516506294
 20
38.2639747279
 30
0.0
 10
110.570901635
 20
37.7704422099
 30
0.0
 10
110.6178048495
 20
37.0155307713
 30
0.0
 10
110.6579010462
 20
36.2325870477
 30
0.0
 10
110.6733903391
 20
35.4348673141
 30
0.0
 10
110.6579009847
 20
34.63714753
 30
0.0
 10
110.6178048959
 20
33.8542037485
 30
0.0
 10
110.5709016192
 20
33.0992923163
 30
0.0
 10
110.5516506294
 20
32.6057598542
 30
0.0
 10
110.5516506294
 20
32.3657634549
 30
0.0
  0
SPLINE
  5
4DE
100
AcDbEntity
  8
0
100
AcDbSpline
 62
7
  6
CONTINUOUS
 70
0
 71
3
 72
15
 73
11
 74
0
 42
0.0000001
 43
0.0000001
 44
0.0000000001
 40
0.0
 40
0.0
 40
0.0
 40
0.0
 40
0.0110219609
 40
0.0303862017
 40
0.099026229
 40
0.2055346512
 40
0.3433585044
 40
0.5032319314
 40
0.6739212084
 40
1.0
 40
1.0
 40
1.0
 40
1.0
 10
121.045443127
 20
16.7971541173
 30
0.0
 10
121.045443127
 20
16.7985770798
 30
0.0
 10
121.0483738174
 20
16.8019883346
 30
0.0
 10
121.0598575315
 20
16.8071152571
 30
0.0
 10
121.0846633049
 20
16.8129730122
 30
0.0
 10
121.1245450693
 20
16.8185297022
 30
0.0
 10
121.1766163081
 20
16.8230358403
 30
0.0
 10
121.2370144808
 20
16.8258412991
 30
0.0
 10
121.3217940233
 20
16.8269211086
 30
0.0
 10
121.3859660751
 20
16.8248689824
 30
0.0
 10
121.427942862
 20
16.8216821656
 30
0.0
  0
SPLINE
  5
4DF
100
AcDbEntity
  8
0
100
AcDbSpline
 62
7
  6
CONTINUOUS
 70
0
 71
3
 72
15
 73
11
 74
0
 42
0.0000001
 43
0.0000001
 44
0.0000000001
 40
0.0
 40
0.0
 40
0.0
 40
0.0
 40
0.3809313443
 40
0.5530785133
 40
0.703850436
 40
0.8276402366
 40
0.9199855838
 40
0.9773502174
 40
0.9926540393
 40
1.0
 40
1.0
 40
1.0
 40
1.0
 10
120.795443127
 20
16.7033949731
 30
0.0
 10
120.827354768
 20
16.7033949731
 30
0.0
 10
120.8736845103
 20
16.7037604179
 30
0.0
 10
120.9326452305
 20
16.7051752844
 30
0.0
 10
120.9700115757
 20
16.7065680014
 30
0.0
 10
121.0007867048
 20
16.7083640022
 30
0.0
 10
121.0234092005
 20
16.7102953548
 30
0.0
 10
121.0374632302
 20
16.7125019977
 30
0.0
 10
121.0435508595
 20
16.7142354436
 30
0.0
 10
121.045443127
 20
16.7155743687
 30
0.0
 10
121.045443127
 20
16.7161897595
 30
0.0
  0
ELLIPSE
  5
4E0
100
AcDbEntity
  8
BEZUGSACHSEN
100
AcDbEllipse
 62
7
  6
CONTINUOUS
 10
125.045443127
 20
35.4348673006
 30
0.0
 11
29.2
 21
-0.0
 31
0.0
 40
0.625
 41
1.5824130032
 42
1.6950024338
  0
ELLIPSE
  5
4E1
100
AcDbEntity
  8
0
100
AcDbEllipse
 62
7
  6
CONTINUOUS
 10
125.045443127
 20
35.4348673006
 30
0.0
 11
29.2
 21
0.0
 31
0.0
 40
0.625
 41
-1.6950024338
 42
-1.5824130032
  0
ELLIPSE
  5
4E2
100
AcDbEntity
  8
BEZUGSACHSEN
100
AcDbEllipse
 62
7
  6
CONTINUOUS
 10
125.045443127
 20
35.4348673006
 30
0.0
 11
30.0
 21
-0.0
 31
0.0
 40
0.625
 41
1.5821032118
 42
1.6916738182
  0
ELLIPSE
  5
4E3
100
AcDbEntity
  8
0
100
AcDbEllipse
 62
7
  6
CONTINUOUS
 10
125.045443127
 20
35.4348673006
 30
0.0
 11
30.0
 21
0.0
 31
0.0
 40
0.625
 41
-1.6916738182
 42
-1.5821032118
  0
ENDSEC
  0
SECTION
  2
OBJECTS
  0
DICTIONARY
  5
C
100
AcDbDictionary
280
0
281
1
  3
ACAD_GROUP
350
D
  3
ACAD_MLINESTYLE
350
17
  3
ACAD_LAYOUT
350
1A
  3
ACAD_PLOTSETTINGS
350
19
  3
ACAD_PLOTSTYLENAME
350
E
  0
DICTIONARY
  5
D
102
{ACAD_REACTORS
330
C
102
}
100
AcDbDictionary
280
0
281
1
  0
ACDBDICTIONARYWDFLT
  5
E
102
{ACAD_REACTORS
330
C
102
}
100
AcDbDictionary
281
1
  3
Normal
350
F
100
AcDbDictionaryWithDefault
340
F
  0
DICTIONARY
  5
17
102
{ACAD_REACTORS
330
C
102
}
100
AcDbDictionary
280
0
281
1
  3
Standard
350
18
  0
DICTIONARY
  5
19
102
{ACAD_REACTORS
330
C
102
}
100
AcDbDictionary
281
1
  0
DICTIONARY
  5
1A
102
{ACAD_REACTORS
330
C
102
}
100
AcDbDictionary
281
1
  3
Model
350
4E4
  3
Layout1
350
4E5
  0
ACDBPLACEHOLDER
  5
F
102
{ACAD_REACTORS
330
E
102
}
  0
MLINESTYLE
  5
18
102
{ACAD_REACTORS
330
17
102
}
100
AcDbMlineStyle
  2
STANDARD
 70
0
  3

 62
256
 51
90.0
 52
90.0
 71
2
 49
0.5
 62
256
  6
BYLAYER
 49
-0.5
 62
256
  6
BYLAYER
  0
LAYOUT
  5
4E4
102
{ACAD_REACTORS
330
1A
102
}
100
AcDbPlotSettings
  1

  2
none_device
  4
ISO_A4_(297.00_x_210.00_MM)
  6

 40
0.0
 41
0.0
 42
0.0
 43
0.0
 44
297.0
 45
210.0
 46
0.0
 47
0.0
 48
0.0
 49
0.0
140
0.0
141
0.0
142
1.0
143
1.0
 70
1024
 72
1
 73
0
 74
0
  7

 75
0
147
1.0
148
0.0
149
0.0
100
AcDbLayout
  1
Model
 70
0
 71
0
 10
0.0
 20
0.0
 11
297.0
 21
210.0
 12
0.0
 22
0.0
 32
0.0
 14
0.0
 24
0.0
 34
0.0
 15
0.0
 25
0.0
 35
0.0
146
0.0
 13
0.0
 23
0.0
 33
0.0
 16
1.0
 26
0.0
 36
0.0
 17
0.0
 27
1.0
 37
0.0
 76
0
330
216
345
0
346
0
  0
LAYOUT
  5
4E5
102
{ACAD_REACTORS
330
1A
102
}
100
AcDbPlotSettings
  1

  2
none_device
  4
ISO_A4_(297.00_x_210.00_MM)
  6

 40
0.0
 41
0.0
 42
0.0
 43
0.0
 44
297.0
 45
210.0
 46
0.0
 47
0.0
 48
0.0
 49
0.0
140
0.0
141
0.0
142
1.0
143
1.0
 70
0
 72
1
 73
0
 74
0
  7

 75
0
147
1.0
148
0.0
149
0.0
100
AcDbLayout
  1
Layout1
 70
0
 71
1
 10
0.0
 20
0.0
 11
297.0
 21
210.0
 12
0.0
 22
0.0
 32
0.0
 14
0.0
 24
0.0
 34
0.0
 15
0.0
 25
0.0
 35
0.0
146
0.0
 13
0.0
 23
0.0
 33
0.0
 16
1.0
 26
0.0
 36
0.0
 17
0.0
 27
1.0
 37
0.0
 76
0
330
217
345
0
346
0
  0
ENDSEC
  0
EOF
