999
DXF file: 001-m32128-p-10.dxf
999
Pro/ENGINEER 2011490 by Parametric Technology Corporation
  0
SECTION
  2
HEADER
  9
$ACADVER
  1
AC1015
  9
$DWGCODEPAGE
  3
ANSI_1252
  9
$EXTMAX
 10
420.0
 20
297.0
 30
0.0
  9
$EXTMIN
 10
0.0
 20
0.0
 30
0.0
  9
$LIMMIN
 10
0.0
 20
0.0
  9
$LIMMAX
 10
420.0
 20
297.0
  9
$VIEWCTR
 10
210.0
 20
148.5
  9
$VIEWSIZE
 40
297.0
  9
$CLAYER
  8
0
  9
$LTSCALE
 40
23.1
  9
$CELTYPE
  6
BYLAYER
  9
$DIMSCALE
 40
1.0
  9
$DIMASZ
 40
3.5
  9
$DIMEXO
 40
2.625
  9
$DIMDLI
 40
15.96
  9
$DIMEXE
 40
7.56
  9
$DIMCEN
 40
3.78
  9
$DIMLFAC
 40
1.0
  9
$DIMBLK
  1
_FILLED
  9
$DIMTXT
 40
3.5
  9
$DIMTOL
 70
1
  9
$DIMLIM
 70
0
  9
$DIMTFAC
 40
1.0
  9
$DIMTP
 40
0.005
  9
$DIMTM
 40
0.005
  9
$PDMODE
 70
3
  9
$PDSIZE
 40
0.3125
  9
$HANDSEED
  5
8A2
  9
$TILEMODE
 70
1
  9
$MEASUREMENT
 70
1
  9
$INSUNITS
 70
4
  0
ENDSEC
  0
SECTION
  2
CLASSES
  0
CLASS
  1
ACDBDICTIONARYWDFLT
  2
AcDbDictionaryWithDefault
  3
AutoCAD 2000
 90
0
280
0
281
0
  0
CLASS
  1
ACDBPLACEHOLDER
  2
AcDbPlaceHolder
  3
AutoCAD 2000
 90
0
280
0
281
0
  0
CLASS
  1
LAYOUT
  2
AcDbLayout
  3
AutoCAD 2000
 90
0
280
0
281
0
  0
ENDSEC
  0
SECTION
  2
TABLES
  0
TABLE
  2
VPORT
  5
8
100
AcDbSymbolTable
 70
2
  0
VPORT
  5
1F4
100
AcDbSymbolTableRecord
100
AcDbViewportTableRecord
  2
*ACTIVE
 70
0
 10
0.0
 20
0.0
 11
1.0
 21
1.0
 12
210.0
 22
148.5
 13
0.0
 23
0.0
 14
1.0
 24
1.0
 15
0.0
 25
0.0
 16
0.0
 26
0.0
 36
1.0
 17
0.0
 27
0.0
 37
0.0
 40
297.0
 41
1.4141414141
 42
50.0
 43
0.0
 44
0.0
 50
0.0
 51
0.0
 71
0
 72
100
 73
1
 74
1
 75
0
 76
0
 77
0
 78
0
  0
ENDTAB
  0
TABLE
  2
LTYPE
  5
5
100
AcDbSymbolTable
 70
6
  0
LTYPE
  5
14
100
AcDbSymbolTableRecord
100
AcDbLinetypeTableRecord
  2
BYBLOCK
 70
0
  3

 72
65
 73
0
 40
0.0
  0
LTYPE
  5
15
100
AcDbSymbolTableRecord
100
AcDbLinetypeTableRecord
  2
BYLAYER
 70
0
  3

 72
65
 73
0
 40
0.0
  0
LTYPE
  5
16
100
AcDbSymbolTableRecord
100
AcDbLinetypeTableRecord
  2
CONTINUOUS
 70
64
  3
Solid line
 72
65
 73
0
 40
0.0
  0
LTYPE
  5
1F5
100
AcDbSymbolTableRecord
100
AcDbLinetypeTableRecord
  2
CENTER
 70
64
  3
____ _ ____ _ ____ _ ____ _ ____ _ ____ _ ____
 72
65
 73
4
 40
0.6
 49
0.375
 74
0
 49
-0.075
 74
0
 49
0.075
 74
0
 49
-0.075
 74
0
  0
LTYPE
  5
1F6
100
AcDbSymbolTableRecord
100
AcDbLinetypeTableRecord
  2
HIDDEN
 70
64
  3
- - - - - - - - - - - - - - - - - - - -
 72
65
 73
2
 40
0.2
 49
0.1
 74
0
 49
-0.1
 74
0
  0
LTYPE
  5
1F7
100
AcDbSymbolTableRecord
100
AcDbLinetypeTableRecord
  2
PHANTOM
 70
64
  3
_____ _ _ _____ _ _ _____ _ _ _____
 72
65
 73
6
 40
0.8
 49
0.45
 74
0
 49
-0.05
 74
0
 49
0.1
 74
0
 49
-0.05
 74
0
 49
0.1
 74
0
 49
-0.05
 74
0
  0
LTYPE
  5
1F8
100
AcDbSymbolTableRecord
100
AcDbLinetypeTableRecord
  2
DOT
 70
64
  3
. . . . . . . . . . . . . . . . . . . .
 72
65
 73
2
 40
0.2
 49
0.1
 74
0
 49
-0.1
 74
0
  0
LTYPE
  5
1F9
100
AcDbSymbolTableRecord
100
AcDbLinetypeTableRecord
  2
DASHED
 70
64
  3
- - - - - - - - - - - - - - - - - - - -
 72
65
 73
2
 40
0.2
 49
0.1
 74
0
 49
-0.1
 74
0
  0
ENDTAB
  0
TABLE
  2
LAYER
  5
2
100
AcDbSymbolTable
 70
36
  0
LAYER
  5
10
100
AcDbSymbolTableRecord
100
AcDbLayerTableRecord
  2
0
 70
0
 62
7
  6
CONTINUOUS
370
-3
390
F
  0
LAYER
  5
1FA
100
AcDbSymbolTableRecord
100
AcDbLayerTableRecord
  2
DEFAULT_1
 70
0
 62
7
  6
CENTER
370
-3
390
F
  0
LAYER
  5
1FB
100
AcDbSymbolTableRecord
100
AcDbLayerTableRecord
  2
DEFAULT_2
 70
0
 62
8
  6
HIDDEN
370
-3
390
F
  0
LAYER
  5
1FC
100
AcDbSymbolTableRecord
100
AcDbLayerTableRecord
  2
DEFAULT_3
 70
0
 62
7
  6
PHANTOM
370
-3
390
F
  0
LAYER
  5
1FD
100
AcDbSymbolTableRecord
100
AcDbLayerTableRecord
  2
AUSFORMSCHRAEGEN
 70
0
 62
7
  6
CONTINUOUS
370
-3
390
F
  0
LAYER
  5
1FE
100
AcDbSymbolTableRecord
100
AcDbLayerTableRecord
  2
B-ACHSEN
 70
0
 62
7
  6
CONTINUOUS
370
-3
390
F
  0
LAYER
  5
1FF
100
AcDbSymbolTableRecord
100
AcDbLayerTableRecord
  2
B-EBENEN
 70
0
 62
7
  6
CONTINUOUS
370
-3
390
F
  0
LAYER
  5
200
100
AcDbSymbolTableRecord
100
AcDbLayerTableRecord
  2
B-KOORSYS
 70
0
 62
7
  6
CONTINUOUS
370
-3
390
F
  0
LAYER
  5
201
100
AcDbSymbolTableRecord
100
AcDbLayerTableRecord
  2
B-KURVEN
 70
0
 62
7
  6
CONTINUOUS
370
-3
390
F
  0
LAYER
  5
202
100
AcDbSymbolTableRecord
100
AcDbLayerTableRecord
  2
BEMASSUNG
 70
0
 62
7
  6
CONTINUOUS
370
-3
390
F
  0
LAYER
  5
203
100
AcDbSymbolTableRecord
100
AcDbLayerTableRecord
  2
BEZUGSACHSEN
 70
0
 62
7
  6
CONTINUOUS
370
-3
390
F
  0
LAYER
  5
204
100
AcDbSymbolTableRecord
100
AcDbLayerTableRecord
  2
BEZUGSEBENEN
 70
0
 62
7
  6
CONTINUOUS
370
-3
390
F
  0
LAYER
  5
205
100
AcDbSymbolTableRecord
100
AcDbLayerTableRecord
  2
BG_STARTBEZUEGE
 70
0
 62
7
  6
CONTINUOUS
370
-3
390
F
  0
LAYER
  5
206
100
AcDbSymbolTableRecord
100
AcDbLayerTableRecord
  2
FLAECHEN
 70
0
 62
7
  6
CONTINUOUS
370
-3
390
F
  0
LAYER
  5
207
100
AcDbSymbolTableRecord
100
AcDbLayerTableRecord
  2
HILFEN
 70
0
 62
7
  6
CONTINUOUS
370
-3
390
F
  0
LAYER
  5
208
100
AcDbSymbolTableRecord
100
AcDbLayerTableRecord
  2
KONSTRUKTIONSELEMENTE
 70
0
 62
7
  6
CONTINUOUS
370
-3
390
F
  0
LAYER
  5
209
100
AcDbSymbolTableRecord
100
AcDbLayerTableRecord
  2
KURVEN
 70
0
 62
7
  6
CONTINUOUS
370
-3
390
F
  0
LAYER
  5
20A
100
AcDbSymbolTableRecord
100
AcDbLayerTableRecord
  2
KURVENELEMENTE
 70
0
 62
7
  6
CONTINUOUS
370
-3
390
F
  0
LAYER
  5
20B
100
AcDbSymbolTableRecord
100
AcDbLayerTableRecord
  2
NOTIZEN
 70
0
 62
7
  6
CONTINUOUS
370
-3
390
F
  0
LAYER
  5
20C
100
AcDbSymbolTableRecord
100
AcDbLayerTableRecord
  2
PLATZIERUNG
 70
0
 62
7
  6
CONTINUOUS
370
-3
390
F
  0
LAYER
  5
20D
100
AcDbSymbolTableRecord
100
AcDbLayerTableRecord
  2
RUNDUNGEN
 70
0
 62
7
  6
CONTINUOUS
370
-3
390
F
  0
LAYER
  5
20E
100
AcDbSymbolTableRecord
100
AcDbLayerTableRecord
  2
T_STARTBEZUEGE
 70
0
 62
7
  6
CONTINUOUS
370
-3
390
F
  0
LAYER
  5
20F
100
AcDbSymbolTableRecord
100
AcDbLayerTableRecord
  2
VERBUNDFLAECHEN
 70
0
 62
7
  6
CONTINUOUS
370
-3
390
F
  0
LAYER
  5
210
100
AcDbSymbolTableRecord
100
AcDbLayerTableRecord
  2
ZEICHNUNGSBEMASSUNGEN
 70
0
 62
7
  6
CONTINUOUS
370
-3
390
F
  0
ENDTAB
  0
TABLE
  2
STYLE
  5
3
100
AcDbSymbolTable
 70
1
  0
STYLE
  5
11
100
AcDbSymbolTableRecord
100
AcDbTextStyleTableRecord
  2
STANDARD
 70
0
 40
0.0
 41
0.7
 50
0.0
 71
0
 42
0.2
  3
txt
  4

  0
STYLE
  5
211
100
AcDbSymbolTableRecord
100
AcDbTextStyleTableRecord
  2
TEXTSTYLE_1
 70
0
 40
0.0
 41
0.8
 50
0.0
 71
0
 42
0.2
  3
gdt
  4

  0
ENDTAB
  0
TABLE
  2
VIEW
  5
6
100
AcDbSymbolTable
 70
0
  0
ENDTAB
  0
TABLE
  2
UCS
  5
7
100
AcDbSymbolTable
 70
0
  0
ENDTAB
  0
TABLE
  2
APPID
  5
9
100
AcDbSymbolTable
 70
1
  0
APPID
  5
212
100
AcDbSymbolTableRecord
100
AcDbRegAppTableRecord
  2
ACAD
 70
0
  0
ENDTAB
  0
TABLE
  2
BLOCK_RECORD
  5
1
100
AcDbSymbolTable
 70
0
  0
BLOCK_RECORD
  5
213
100
AcDbSymbolTableRecord
100
AcDbBlockTableRecord
  2
*Model_Space
  0
BLOCK_RECORD
  5
214
100
AcDbSymbolTableRecord
100
AcDbBlockTableRecord
  2
*Paper_Space
  0
ENDTAB
  0
TABLE
  2
DIMSTYLE
  5
A
100
AcDbSymbolTable
 70
1
100
AcDbDimStyleTable
 71
0
  0
DIMSTYLE
105
215
100
AcDbSymbolTableRecord
100
AcDbDimStyleTableRecord
  2
STANDARD
 70
0
  3

  4

 40
1.0
 41
3.5
 42
0.0625
 43
0.38
 44
0.18
 45
0.0
 46
0.0
 47
0.005
 48
0.005
140
3.5
141
0.09
142
0.0
143
25.4
144
1.0
145
0.0
146
1.0
147
0.09
 71
1.0
 72
0.0
 73
0
 74
0
 75
0
 76
0
 77
1
 78
8
170
0
171
2
172
0
173
0
174
0
175
0
176
0
177
0
178
5
270
2
271
3
272
3
273
2
274
2
275
0
280
0
281
0
282
0
283
1
284
8
285
0
286
0
287
3
288
0
340
11
  0
ENDTAB
  0
ENDSEC
  0
SECTION
  2
BLOCKS
  0
BLOCK
  5
20
100
AcDbEntity
  8
0
100
AcDbBlockBegin
  2
*Model_Space
 70
0
 10
0.0
 20
0.0
 30
0.0
  3
*Model_Space
  1

  0
ENDBLK
  5
21
100
AcDbEntity
  8
0
100
AcDbBlockEnd
  0
BLOCK
  5
1C
100
AcDbEntity
  8
0
100
AcDbBlockBegin
  2
*Paper_Space
 70
0
 10
0.0
 20
0.0
 30
0.0
  3
*Paper_Space
  1

  0
ENDBLK
  5
1D
100
AcDbEntity
  8
0
100
AcDbBlockEnd
  0
ENDSEC
  0
SECTION
  2
ENTITIES
  0
MTEXT
  5
216
100
AcDbEntity
  8
0
100
AcDbMText
 62
5
  6
CONTINUOUS
  7
STANDARD
 71
1
 72
1
 10
137.8888081395
 20
262.7572674419
 30
0.0
 11
1.0
 21
0.0
 31
0.0
 44
0.9
  1
VRBS 6,7t
 40
6.0
 41
41.2857142857
  0
MTEXT
  5
217
100
AcDbEntity
  8
0
100
AcDbMText
 62
5
  6
CONTINUOUS
  7
STANDARD
 71
1
 72
1
 10
141.1088595818
 20
88.5455568146
 30
0.0
 11
1.0
 21
0.0
 31
0.0
 44
0.9
  1
VRBS 6,7t
 40
6.0
 41
41.2857142857
  0
MTEXT
  5
218
100
AcDbEntity
  8
0
100
AcDbMText
 62
5
  6
CONTINUOUS
  7
STANDARD
 71
1
 72
1
 10
328.4433139535
 20
218.4353197674
 30
0.0
 11
0.0
 21
1.0
 31
0.0
 44
0.9
  1
VRBS 6,7t
 40
6.0
 41
41.2857142857
  0
LINE
  5
219
100
AcDbEntity
  8
0
100
AcDbLine
 62
7
  6
CONTINUOUS
 10
0.0
 20
0.0
 11
0.0
 21
297.0
  0
LINE
  5
21A
100
AcDbEntity
  8
0
100
AcDbLine
 62
7
  6
CONTINUOUS
 10
0.0
 20
0.0
 11
420.0
 21
0.0
  0
LINE
  5
21B
100
AcDbEntity
  8
0
100
AcDbLine
 62
7
  6
CONTINUOUS
 10
0.0
 20
297.0
 11
420.0
 21
297.0
  0
LINE
  5
21C
100
AcDbEntity
  8
0
100
AcDbLine
 62
7
  6
CONTINUOUS
 10
420.0
 20
0.0
 11
420.0
 21
297.0
  0
LINE
  5
21D
100
AcDbEntity
  8
RUNDUNGEN
100
AcDbLine
 62
7
  6
CONTINUOUS
 10
72.5250290698
 20
170.7552661716
 11
72.5250290698
 21
180.6552661716
  0
LINE
  5
21E
100
AcDbEntity
  8
RUNDUNGEN
100
AcDbLine
 62
7
  6
CONTINUOUS
 10
73.8793617844
 20
193.5408812107
 11
72.5250290698
 21
180.6552661716
  0
LINE
  5
21F
100
AcDbEntity
  8
0
100
AcDbLine
 62
7
  6
CONTINUOUS
 10
88.9204844503
 20
208.2632142311
 11
88.8859900575
 21
208.5914064565
  0
LINE
  5
220
100
AcDbEntity
  8
0
100
AcDbLine
 62
7
  6
CONTINUOUS
 10
89.8851706888
 20
208.3646068404
 11
89.850676296
 21
208.6927990659
  0
LINE
  5
221
100
AcDbEntity
  8
0
100
AcDbLine
 62
7
  6
CONTINUOUS
 10
89.9581022967
 20
208.3722722613
 11
89.9236079038
 21
208.7004644868
  0
LINE
  5
222
100
AcDbEntity
  8
0
100
AcDbLine
 62
7
  6
CONTINUOUS
 10
90.1039655058
 20
208.3876031023
 11
90.0694711129
 21
208.7157953278
  0
LINE
  5
223
100
AcDbEntity
  8
0
100
AcDbLine
 62
7
  6
CONTINUOUS
 10
90.3227603228
 20
208.4105993643
 11
90.2882659299
 21
208.7387915897
  0
LINE
  5
224
100
AcDbEntity
  8
0
100
AcDbLine
 62
7
  6
CONTINUOUS
 10
90.6874183685
 20
208.4489264693
 11
90.6529239756
 21
208.7771186948
  0
LINE
  5
225
100
AcDbEntity
  8
0
100
AcDbLine
 62
7
  6
CONTINUOUS
 10
91.0520764142
 20
208.4872535743
 11
91.0175820213
 21
208.8154457998
  0
LINE
  5
226
100
AcDbEntity
  8
0
100
AcDbLine
 62
7
  6
CONTINUOUS
 10
91.4167344077
 20
208.5255806739
 11
91.3822400148
 21
208.8537728993
  0
LINE
  5
227
100
AcDbEntity
  8
0
100
AcDbLine
 62
7
  6
CONTINUOUS
 10
91.7813925056
 20
208.5639077844
 11
91.7468981127
 21
208.8921000098
  0
LINE
  5
228
100
AcDbEntity
  8
0
100
AcDbLine
 62
7
  6
CONTINUOUS
 10
92.1460503948
 20
208.6022348729
 11
92.1115560019
 21
208.9304270984
  0
LINE
  5
229
100
AcDbEntity
  8
0
100
AcDbLine
 62
7
  6
CONTINUOUS
 10
92.3648452117
 20
208.6252311349
 11
92.3303508189
 21
208.9534233603
  0
LINE
  5
22A
100
AcDbEntity
  8
0
100
AcDbLine
 62
7
  6
CONTINUOUS
 10
92.5107084926
 20
208.6405619834
 11
92.4762140997
 21
208.9687542089
  0
LINE
  5
22B
100
AcDbEntity
  8
0
100
AcDbLine
 62
7
  6
CONTINUOUS
 10
92.5670646464
 20
208.6464852539
 11
92.5325702535
 21
208.9746774794
  0
LINE
  5
22C
100
AcDbEntity
  8
0
100
AcDbLine
 62
7
  6
CONTINUOUS
 10
93.0941614075
 20
208.7018853559
 11
93.0596670146
 21
209.0300775813
  0
LINE
  5
22D
100
AcDbEntity
  8
0
100
AcDbLine
 62
7
  6
CONTINUOUS
 10
93.4588195053
 20
208.7402124664
 11
93.4243251124
 21
209.0684046919
  0
LINE
  5
22E
100
AcDbEntity
  8
0
100
AcDbLine
 62
7
  6
CONTINUOUS
 10
93.8964091393
 20
208.7862049902
 11
93.8619147464
 21
209.1143972157
  0
LINE
  5
22F
100
AcDbEntity
  8
0
100
AcDbLine
 62
7
  6
CONTINUOUS
 10
94.4798618454
 20
208.8475283407
 11
94.4453674526
 21
209.1757205662
  0
LINE
  5
230
100
AcDbEntity
  8
0
100
AcDbLine
 62
7
  6
CONTINUOUS
 10
95.2091780412
 20
208.9241825617
 11
95.1746836483
 21
209.2523747872
  0
LINE
  5
231
100
AcDbEntity
  8
0
100
AcDbLine
 62
7
  6
CONTINUOUS
 10
95.6467676751
 20
208.9701750856
 11
95.6122732822
 21
209.298367311
  0
LINE
  5
232
100
AcDbEntity
  8
0
100
AcDbLine
 62
7
  6
CONTINUOUS
 10
97.1053996492
 20
209.1234834837
 11
97.0709052563
 21
209.4516757092
  0
LINE
  5
233
100
AcDbEntity
  8
0
100
AcDbLine
 62
7
  6
CONTINUOUS
 10
97.4899482893
 20
209.1639011745
 11
97.4554538964
 21
209.4920934
  0
LINE
  5
234
100
AcDbEntity
  8
0
100
AcDbLine
 62
7
  6
CONTINUOUS
 10
97.6888527727
 20
209.1848068781
 11
97.6543583798
 21
209.5129991036
  0
LINE
  5
235
100
AcDbEntity
  8
0
100
AcDbLine
 62
7
  6
CONTINUOUS
 10
98.2723050616
 20
209.2461301847
 11
98.2378106687
 21
209.5743224102
  0
LINE
  5
236
100
AcDbEntity
  8
0
100
AcDbLine
 62
7
  6
CONTINUOUS
 10
98.4181685511
 20
209.2614610553
 11
98.3836741582
 21
209.5896532807
  0
LINE
  5
237
100
AcDbEntity
  8
0
100
AcDbLine
 62
7
  6
CONTINUOUS
 10
98.6369633681
 20
209.2844573172
 11
98.6024689752
 21
209.6126495426
  0
LINE
  5
238
100
AcDbEntity
  8
0
100
AcDbLine
 62
7
  6
CONTINUOUS
 10
98.8557581851
 20
209.3074535791
 11
98.8212637922
 21
209.6356458046
  0
LINE
  5
239
100
AcDbEntity
  8
0
100
AcDbLine
 62
7
  6
CONTINUOUS
 10
99.293347819
 20
209.3534461029
 11
99.2588534261
 21
209.6816383284
  0
LINE
  5
23A
100
AcDbEntity
  8
0
100
AcDbLine
 62
7
  6
CONTINUOUS
 10
99.4392113086
 20
209.3687769735
 11
99.4047169157
 21
209.6969691989
  0
LINE
  5
23B
100
AcDbEntity
  8
0
100
AcDbLine
 62
7
  6
CONTINUOUS
 10
99.6778959375
 20
209.3938637388
 11
99.6434015446
 21
209.7220559643
  0
LINE
  5
23C
100
AcDbEntity
  8
0
100
AcDbLine
 62
7
  6
CONTINUOUS
 10
100.1337188206
 20
209.4417726544
 11
100.0992244277
 21
209.7699648799
  0
LINE
  5
23D
100
AcDbEntity
  8
0
100
AcDbLine
 62
7
  6
CONTINUOUS
 10
100.4983765011
 20
209.480099721
 11
100.4638821083
 21
209.8082919465
  0
LINE
  5
23E
100
AcDbEntity
  8
0
100
AcDbLine
 62
7
  6
CONTINUOUS
 10
100.7718700224
 20
209.5088450484
 11
100.7373756295
 21
209.8370372739
  0
LINE
  5
23F
100
AcDbEntity
  8
0
100
AcDbLine
 62
7
  6
CONTINUOUS
 10
100.863035225
 20
209.5184268973
 11
100.8285408321
 21
209.8466191228
  0
LINE
  5
240
100
AcDbEntity
  8
0
100
AcDbLine
 62
7
  6
CONTINUOUS
 10
101.5923505861
 20
209.5950810306
 11
101.5578561932
 21
209.9232732561
  0
LINE
  5
241
100
AcDbEntity
  8
0
100
AcDbLine
 62
7
  6
CONTINUOUS
 10
101.6835157887
 20
209.6046628795
 11
101.6490213958
 21
209.932855105
  0
LINE
  5
242
100
AcDbEntity
  8
0
100
AcDbLine
 62
7
  6
CONTINUOUS
 10
101.9570093099
 20
209.6334082069
 11
101.922514917
 21
209.9616004324
  0
LINE
  5
243
100
AcDbEntity
  8
0
100
AcDbLine
 62
7
  6
CONTINUOUS
 10
102.4128311497
 20
209.6813170128
 11
102.3783367569
 21
210.0095092383
  0
LINE
  5
244
100
AcDbEntity
  8
0
100
AcDbLine
 62
7
  6
CONTINUOUS
 10
102.8686540329
 20
209.7292259284
 11
102.83415964
 21
210.0574181539
  0
LINE
  5
245
100
AcDbEntity
  8
0
100
AcDbLine
 62
7
  6
CONTINUOUS
 10
103.5979704372
 20
209.8058801713
 11
103.5634760444
 21
210.1340723968
  0
LINE
  5
246
100
AcDbEntity
  8
0
100
AcDbLine
 62
7
  6
CONTINUOUS
 10
104.0537922771
 20
209.8537889772
 11
104.0192978842
 21
210.1819812027
  0
LINE
  5
247
100
AcDbEntity
  8
0
100
AcDbLine
 62
7
  6
CONTINUOUS
 10
104.4184510009
 20
209.8921161535
 11
104.383956608
 21
210.220308379
  0
LINE
  5
248
100
AcDbEntity
  8
0
100
AcDbLine
 62
7
  6
CONTINUOUS
 10
104.7831086815
 20
209.9304432202
 11
104.7486142886
 21
210.2586354456
  0
LINE
  5
249
100
AcDbEntity
  8
0
100
AcDbLine
 62
7
  6
CONTINUOUS
 10
104.9654380434
 20
209.9496068083
 11
104.9309436505
 21
210.2777990338
  0
LINE
  5
24A
100
AcDbEntity
  8
RUNDUNGEN
100
AcDbLine
 62
7
  6
CONTINUOUS
 10
108.1444898849
 20
223.6186724385
 11
110.8909407684
 21
197.487937777
  0
LINE
  5
24B
100
AcDbEntity
  8
RUNDUNGEN
100
AcDbLine
 62
7
  6
CONTINUOUS
 10
108.8250290698
 20
170.7552661716
 11
108.8250290698
 21
207.3010817558
  0
LINE
  5
24C
100
AcDbEntity
  8
RUNDUNGEN
100
AcDbLine
 62
7
  6
CONTINUOUS
 10
121.809936396
 20
258.0349763947
 11
108.4623805177
 21
225.8111259688
  0
LINE
  5
24D
100
AcDbEntity
  8
RUNDUNGEN
100
AcDbLine
 62
7
  6
CONTINUOUS
 10
155.8029536241
 20
273.5419591666
 11
124.2453188467
 21
260.4703588453
  0
LINE
  5
24E
100
AcDbEntity
  8
B-ACHSEN
100
AcDbLine
 62
7
  6
CONTINUOUS
 10
72.5250290698
 20
170.7552661716
 11
106.7991547572
 21
170.7552661716
  0
LINE
  5
24F
100
AcDbEntity
  8
RUNDUNGEN
100
AcDbLine
 62
7
  6
CONTINUOUS
 10
106.7991547572
 20
170.7552661716
 11
108.8250290698
 21
170.7552661716
  0
LINE
  5
250
100
AcDbEntity
  8
RUNDUNGEN
100
AcDbLine
 62
7
  6
CONTINUOUS
 10
206.2250290698
 20
170.7552661716
 11
208.2509033823
 21
170.7552661716
  0
LINE
  5
251
100
AcDbEntity
  8
B-ACHSEN
100
AcDbLine
 62
7
  6
CONTINUOUS
 10
208.2509033823
 20
170.7552661716
 11
242.5250290698
 21
170.7552661716
  0
LINE
  5
252
100
AcDbEntity
  8
BEZUGSACHSEN
100
AcDbLine
 62
7
  6
CONTINUOUS
 10
206.2250290698
 20
172.2552661716
 11
204.0742557109
 21
172.2552661716
  0
LINE
  5
253
100
AcDbEntity
  8
BEZUGSACHSEN
100
AcDbLine
 62
7
  6
CONTINUOUS
 10
110.9758024287
 20
172.2552661716
 11
108.8250290698
 21
172.2552661716
  0
LINE
  5
254
100
AcDbEntity
  8
RUNDUNGEN
100
AcDbLine
 62
7
  6
CONTINUOUS
 10
110.9758024287
 20
172.2552661716
 11
204.0742557109
 21
172.2552661716
  0
LINE
  5
255
100
AcDbEntity
  8
0
100
AcDbLine
 62
7
  6
CONTINUOUS
 10
123.5758622044
 20
188.094415107
 11
123.9925290698
 21
187.8816491469
  0
LINE
  5
256
100
AcDbEntity
  8
0
100
AcDbLine
 62
7
  6
CONTINUOUS
 10
124.0966959351
 20
188.5199470084
 11
123.7841959351
 21
188.732713015
  0
LINE
  5
257
100
AcDbEntity
  8
0
100
AcDbLine
 62
7
  6
CONTINUOUS
 10
121.4925290698
 20
192.3497343074
 11
121.0758625024
 21
192.6688832055
  0
LINE
  5
258
100
AcDbEntity
  8
0
100
AcDbLine
 62
7
  6
CONTINUOUS
 10
123.1591959351
 20
188.5199470084
 11
123.5758622044
 21
188.094415107
  0
LINE
  5
259
100
AcDbEntity
  8
0
100
AcDbLine
 62
7
  6
CONTINUOUS
 10
121.1800290698
 20
191.9242024433
 11
120.9716956371
 21
192.1369683753
  0
LINE
  5
25A
100
AcDbEntity
  8
0
100
AcDbLine
 62
7
  6
CONTINUOUS
 10
121.8050290698
 20
191.9242024433
 11
121.4925290698
 21
192.3497343074
  0
LINE
  5
25B
100
AcDbEntity
  8
0
100
AcDbLine
 62
7
  6
CONTINUOUS
 10
123.7841959351
 20
188.732713015
 11
123.5758622044
 21
189.0518619131
  0
LINE
  5
25C
100
AcDbEntity
  8
0
100
AcDbLine
 62
7
  6
CONTINUOUS
 10
122.9508625024
 20
188.9454789471
 11
123.1591959351
 21
188.5199470084
  0
LINE
  5
25D
100
AcDbEntity
  8
0
100
AcDbLine
 62
7
  6
CONTINUOUS
 10
122.0133625024
 20
187.7752661716
 11
121.0758625024
 21
190.2220746886
  0
LINE
  5
25E
100
AcDbEntity
  8
0
100
AcDbLine
 62
7
  6
CONTINUOUS
 10
120.4508623534
 20
190.0093087565
 11
121.2841956371
 21
187.7752661716
  0
LINE
  5
25F
100
AcDbEntity
  8
0
100
AcDbLine
 62
7
  6
CONTINUOUS
 10
118.0550290698
 20
187.7752661716
 11
118.0550290698
 21
192.7752661716
  0
LINE
  5
260
100
AcDbEntity
  8
RUNDUNGEN
100
AcDbLine
 62
7
  6
CONTINUOUS
 10
110.8654178087
 20
196.0257283916
 11
110.7157202777
 21
194.9605751119
  0
LINE
  5
261
100
AcDbEntity
  8
0
100
AcDbLine
 62
7
  6
CONTINUOUS
 10
138.7750290698
 20
177.2745254732
 11
176.2750290698
 21
177.2745254732
  0
LINE
  5
262
100
AcDbEntity
  8
0
100
AcDbLine
 62
7
  6
CONTINUOUS
 10
154.7171534961
 20
181.2552661716
 11
155.6024217075
 21
181.2552661716
  0
LINE
  5
263
100
AcDbEntity
  8
0
100
AcDbLine
 62
7
  6
CONTINUOUS
 10
158.9696998066
 20
181.2552661716
 11
160.5827340549
 21
181.2552661716
  0
LINE
  5
264
100
AcDbEntity
  8
0
100
AcDbLine
 62
7
  6
CONTINUOUS
 10
156.3464812702
 20
182.8845940648
 11
154.7171534961
 21
182.8845940648
  0
LINE
  5
265
100
AcDbEntity
  8
0
100
AcDbLine
 62
7
  6
CONTINUOUS
 10
123.9925290698
 20
187.8816491469
 11
124.5133622044
 21
187.7752661716
  0
LINE
  5
266
100
AcDbEntity
  8
0
100
AcDbLine
 62
7
  6
CONTINUOUS
 10
124.5133622044
 20
188.4135640423
 11
124.0966959351
 21
188.5199470084
  0
LINE
  5
267
100
AcDbEntity
  8
0
100
AcDbLine
 62
7
  6
CONTINUOUS
 10
120.9716956371
 20
192.1369683753
 11
120.6591956371
 21
192.2433513414
  0
LINE
  5
268
100
AcDbEntity
  8
0
100
AcDbLine
 62
7
  6
CONTINUOUS
 10
130.6591953391
 20
191.8178194772
 11
130.3466953391
 21
192.0305854093
  0
LINE
  5
269
100
AcDbEntity
  8
0
100
AcDbLine
 62
7
  6
CONTINUOUS
 10
131.2841953391
 20
192.0305854093
 11
130.8675290698
 21
192.4561172735
  0
LINE
  5
26A
100
AcDbEntity
  8
0
100
AcDbLine
 62
7
  6
CONTINUOUS
 10
130.8675290698
 20
191.4986702811
 11
130.6591953391
 21
191.8178194772
  0
LINE
  5
26B
100
AcDbEntity
  8
0
100
AcDbLine
 62
7
  6
CONTINUOUS
 10
121.2841956371
 20
191.6050535451
 11
121.1800290698
 21
191.9242024433
  0
LINE
  5
26C
100
AcDbEntity
  8
0
100
AcDbLine
 62
7
  6
CONTINUOUS
 10
121.9091956371
 20
191.6050535451
 11
121.8050290698
 21
191.9242024433
  0
LINE
  5
26D
100
AcDbEntity
  8
0
100
AcDbLine
 62
7
  6
CONTINUOUS
 10
123.5758622044
 20
189.0518619131
 11
123.4716959351
 21
189.4773937773
  0
LINE
  5
26E
100
AcDbEntity
  8
0
100
AcDbLine
 62
7
  6
CONTINUOUS
 10
122.8466956371
 20
189.4773937773
 11
122.9508625024
 21
188.9454789471
  0
LINE
  5
26F
100
AcDbEntity
  8
0
100
AcDbLine
 62
7
  6
CONTINUOUS
 10
118.6800290698
 20
187.7752661716
 11
118.6800290698
 21
190.0093087565
  0
LINE
  5
270
100
AcDbEntity
  8
0
100
AcDbLine
 62
7
  6
CONTINUOUS
 10
118.6800290698
 20
190.6476065527
 11
118.6800290698
 21
192.2433513414
  0
LINE
  5
271
100
AcDbEntity
  8
0
100
AcDbLine
 62
7
  6
CONTINUOUS
 10
121.2841956371
 20
191.285904349
 11
121.2841956371
 21
191.6050535451
  0
LINE
  5
272
100
AcDbEntity
  8
0
100
AcDbLine
 62
7
  6
CONTINUOUS
 10
121.9091956371
 20
191.1795213829
 11
121.9091956371
 21
191.6050535451
  0
LINE
  5
273
100
AcDbEntity
  8
0
100
AcDbLine
 62
7
  6
CONTINUOUS
 10
122.8466956371
 20
189.4773937773
 11
122.8466956371
 21
192.7752661716
  0
LINE
  5
274
100
AcDbEntity
  8
0
100
AcDbLine
 62
7
  6
CONTINUOUS
 10
123.4716959351
 20
189.4773937773
 11
123.4716959351
 21
192.7752661716
  0
LINE
  5
275
100
AcDbEntity
  8
0
100
AcDbLine
 62
7
  6
CONTINUOUS
 10
163.9174260563
 20
185.9314374744
 11
164.726658768
 21
185.9314374744
  0
LINE
  5
276
100
AcDbEntity
  8
0
100
AcDbLine
 62
7
  6
CONTINUOUS
 10
166.2799500888
 20
185.9314374744
 11
167.2466859287
 21
185.9314374744
  0
LINE
  5
277
100
AcDbEntity
  8
0
100
AcDbLine
 62
7
  6
CONTINUOUS
 10
167.2466859287
 20
187.093691331
 11
166.2799500888
 21
187.093691331
  0
LINE
  5
278
100
AcDbEntity
  8
0
100
AcDbLine
 62
7
  6
CONTINUOUS
 10
164.726658768
 20
187.093691331
 11
163.9174260563
 21
187.093691331
  0
LINE
  5
279
100
AcDbEntity
  8
0
100
AcDbLine
 62
7
  6
CONTINUOUS
 10
151.4476355976
 20
187.1154155551
 11
153.022652573
 21
187.1154155551
  0
LINE
  5
27A
100
AcDbEntity
  8
0
100
AcDbLine
 62
7
  6
CONTINUOUS
 10
157.8943433231
 20
187.6259383975
 11
161.7667121357
 21
187.6259383975
  0
LINE
  5
27B
100
AcDbEntity
  8
0
100
AcDbLine
 62
7
  6
CONTINUOUS
 10
118.0550290698
 20
187.7752661716
 11
118.6800290698
 21
187.7752661716
  0
LINE
  5
27C
100
AcDbEntity
  8
0
100
AcDbLine
 62
7
  6
CONTINUOUS
 10
121.2841956371
 20
187.7752661716
 11
122.0133625024
 21
187.7752661716
  0
LINE
  5
27D
100
AcDbEntity
  8
0
100
AcDbLine
 62
7
  6
CONTINUOUS
 10
124.5133622044
 20
187.7752661716
 11
124.9300290698
 21
187.7752661716
  0
LINE
  5
27E
100
AcDbEntity
  8
0
100
AcDbLine
 62
7
  6
CONTINUOUS
 10
127.4300290698
 20
187.7752661716
 11
129.9300290698
 21
187.7752661716
  0
LINE
  5
27F
100
AcDbEntity
  8
0
100
AcDbLine
 62
7
  6
CONTINUOUS
 10
129.9300290698
 20
188.4135640423
 11
128.0550290698
 21
188.4135640423
  0
LINE
  5
280
100
AcDbEntity
  8
0
100
AcDbLine
 62
7
  6
CONTINUOUS
 10
124.9300290698
 20
188.4135640423
 11
124.5133622044
 21
188.4135640423
  0
LINE
  5
281
100
AcDbEntity
  8
0
100
AcDbLine
 62
7
  6
CONTINUOUS
 10
166.2799500888
 20
188.6632771312
 11
164.726658768
 21
188.6632771312
  0
LINE
  5
282
100
AcDbEntity
  8
0
100
AcDbLine
 62
7
  6
CONTINUOUS
 10
163.4177655643
 20
188.9837117015
 11
157.8943433231
 21
188.9837117015
  0
LINE
  5
283
100
AcDbEntity
  8
0
100
AcDbLine
 62
7
  6
CONTINUOUS
 10
118.6800290698
 20
190.0093087565
 11
120.4508623534
 21
190.0093087565
  0
LINE
  5
284
100
AcDbEntity
  8
0
100
AcDbLine
 62
7
  6
CONTINUOUS
 10
121.0758625024
 20
192.6688832055
 11
120.5550290698
 21
192.7752661716
  0
LINE
  5
285
100
AcDbEntity
  8
0
100
AcDbLine
 62
7
  6
CONTINUOUS
 10
130.4508628005
 20
192.6688832055
 11
129.9300290698
 21
192.7752661716
  0
LINE
  5
286
100
AcDbEntity
  8
0
100
AcDbLine
 62
7
  6
CONTINUOUS
 10
130.3466953391
 20
192.0305854093
 11
129.9300290698
 21
192.1369683753
  0
LINE
  5
287
100
AcDbEntity
  8
0
100
AcDbLine
 62
7
  6
CONTINUOUS
 10
130.8675290698
 20
192.4561172735
 11
130.4508628005
 21
192.6688832055
  0
LINE
  5
288
100
AcDbEntity
  8
0
100
AcDbLine
 62
7
  6
CONTINUOUS
 10
131.4925290698
 20
191.6050535451
 11
131.2841953391
 21
192.0305854093
  0
LINE
  5
289
100
AcDbEntity
  8
0
100
AcDbLine
 62
7
  6
CONTINUOUS
 10
130.9716953391
 20
191.0731384169
 11
130.8675290698
 21
191.4986702811
  0
LINE
  5
28A
100
AcDbEntity
  8
0
100
AcDbLine
 62
7
  6
CONTINUOUS
 10
125.9716959351
 20
189.4773937773
 11
125.9716959351
 21
192.7752661716
  0
LINE
  5
28B
100
AcDbEntity
  8
0
100
AcDbLine
 62
7
  6
CONTINUOUS
 10
126.5966959351
 20
189.4773937773
 11
126.5966959351
 21
192.7752661716
  0
LINE
  5
28C
100
AcDbEntity
  8
0
100
AcDbLine
 62
7
  6
CONTINUOUS
 10
127.4300290698
 20
187.7752661716
 11
127.4300290698
 21
192.7752661716
  0
LINE
  5
28D
100
AcDbEntity
  8
0
100
AcDbLine
 62
7
  6
CONTINUOUS
 10
128.0550290698
 20
188.4135640423
 11
128.0550290698
 21
192.1369683753
  0
LINE
  5
28E
100
AcDbEntity
  8
0
100
AcDbLine
 62
7
  6
CONTINUOUS
 10
130.9716953391
 20
189.4773937773
 11
130.9716953391
 21
191.0731384169
  0
LINE
  5
28F
100
AcDbEntity
  8
0
100
AcDbLine
 62
7
  6
CONTINUOUS
 10
131.5966953391
 20
189.4773937773
 11
131.5966953391
 21
191.0731384169
  0
LINE
  5
290
100
AcDbEntity
  8
0
100
AcDbLine
 62
7
  6
CONTINUOUS
 10
130.3466953391
 20
188.5199470084
 11
129.9300290698
 21
188.4135640423
  0
LINE
  5
291
100
AcDbEntity
  8
0
100
AcDbLine
 62
7
  6
CONTINUOUS
 10
129.9300290698
 20
187.7752661716
 11
130.4508628005
 21
187.8816491469
  0
LINE
  5
292
100
AcDbEntity
  8
0
100
AcDbLine
 62
7
  6
CONTINUOUS
 10
124.9300290698
 20
187.7752661716
 11
125.4508622044
 21
187.8816491469
  0
LINE
  5
293
100
AcDbEntity
  8
0
100
AcDbLine
 62
7
  6
CONTINUOUS
 10
120.6591956371
 20
190.6476065527
 11
118.6800290698
 21
190.6476065527
  0
LINE
  5
294
100
AcDbEntity
  8
0
100
AcDbLine
 62
7
  6
CONTINUOUS
 10
129.9300290698
 20
192.1369683753
 11
128.0550290698
 21
192.1369683753
  0
LINE
  5
295
100
AcDbEntity
  8
0
100
AcDbLine
 62
7
  6
CONTINUOUS
 10
120.6591956371
 20
192.2433513414
 11
118.6800290698
 21
192.2433513414
  0
LINE
  5
296
100
AcDbEntity
  8
0
100
AcDbLine
 62
7
  6
CONTINUOUS
 10
129.9300290698
 20
192.7752661716
 11
127.4300290698
 21
192.7752661716
  0
LINE
  5
297
100
AcDbEntity
  8
0
100
AcDbLine
 62
7
  6
CONTINUOUS
 10
126.5966959351
 20
192.7752661716
 11
125.9716959351
 21
192.7752661716
  0
LINE
  5
298
100
AcDbEntity
  8
0
100
AcDbLine
 62
7
  6
CONTINUOUS
 10
123.4716959351
 20
192.7752661716
 11
122.8466956371
 21
192.7752661716
  0
LINE
  5
299
100
AcDbEntity
  8
0
100
AcDbLine
 62
7
  6
CONTINUOUS
 10
120.5550290698
 20
192.7752661716
 11
118.0550290698
 21
192.7752661716
  0
LINE
  5
29A
100
AcDbEntity
  8
0
100
AcDbLine
 62
7
  6
CONTINUOUS
 10
131.5966953391
 20
191.0731384169
 11
131.4925290698
 21
191.6050535451
  0
LINE
  5
29B
100
AcDbEntity
  8
0
100
AcDbLine
 62
7
  6
CONTINUOUS
 10
126.4925290698
 20
188.9454789471
 11
126.5966959351
 21
189.4773937773
  0
LINE
  5
29C
100
AcDbEntity
  8
0
100
AcDbLine
 62
7
  6
CONTINUOUS
 10
131.4925290698
 20
188.9454789471
 11
131.5966953391
 21
189.4773937773
  0
LINE
  5
29D
100
AcDbEntity
  8
0
100
AcDbLine
 62
7
  6
CONTINUOUS
 10
125.9716959351
 20
189.4773937773
 11
125.8675290698
 21
189.0518619131
  0
LINE
  5
29E
100
AcDbEntity
  8
0
100
AcDbLine
 62
7
  6
CONTINUOUS
 10
121.1800290698
 20
190.9667554509
 11
121.2841956371
 21
191.285904349
  0
LINE
  5
29F
100
AcDbEntity
  8
0
100
AcDbLine
 62
7
  6
CONTINUOUS
 10
121.8050290698
 20
190.8603724848
 11
121.9091956371
 21
191.1795213829
  0
LINE
  5
2A0
100
AcDbEntity
  8
0
100
AcDbLine
 62
7
  6
CONTINUOUS
 10
125.3466959351
 20
188.5199470084
 11
124.9300290698
 21
188.4135640423
  0
LINE
  5
2A1
100
AcDbEntity
  8
0
100
AcDbLine
 62
7
  6
CONTINUOUS
 10
138.7750290698
 20
177.2745254732
 11
138.7750290698
 21
199.1740566796
  0
LINE
  5
2A2
100
AcDbEntity
  8
0
100
AcDbLine
 62
7
  6
CONTINUOUS
 10
130.9716953391
 20
189.4773937773
 11
130.8675290698
 21
189.0518619131
  0
LINE
  5
2A3
100
AcDbEntity
  8
0
100
AcDbLine
 62
7
  6
CONTINUOUS
 10
126.2841959351
 20
188.5199470084
 11
126.4925290698
 21
188.9454789471
  0
LINE
  5
2A4
100
AcDbEntity
  8
0
100
AcDbLine
 62
7
  6
CONTINUOUS
 10
131.2841953391
 20
188.5199470084
 11
131.4925290698
 21
188.9454789471
  0
LINE
  5
2A5
100
AcDbEntity
  8
0
100
AcDbLine
 62
7
  6
CONTINUOUS
 10
125.8675290698
 20
189.0518619131
 11
125.6591959351
 21
188.732713015
  0
LINE
  5
2A6
100
AcDbEntity
  8
0
100
AcDbLine
 62
7
  6
CONTINUOUS
 10
121.4925290698
 20
190.4348406207
 11
121.8050290698
 21
190.8603724848
  0
LINE
  5
2A7
100
AcDbEntity
  8
RUNDUNGEN
100
AcDbLine
 62
7
  6
CONTINUOUS
 10
105.7875757958
 20
210.0360169681
 11
88.564253414
 21
208.2257728404
  0
LINE
  5
2A8
100
AcDbEntity
  8
0
100
AcDbLine
 62
7
  6
CONTINUOUS
 10
88.8859900575
 20
208.5914064565
 11
92.5325702535
 21
208.9746774794
  0
LINE
  5
2A9
100
AcDbEntity
  8
0
100
AcDbLine
 62
7
  6
CONTINUOUS
 10
93.0596670146
 20
209.0300775813
 11
97.0709052563
 21
209.4516757092
  0
LINE
  5
2AA
100
AcDbEntity
  8
0
100
AcDbLine
 62
7
  6
CONTINUOUS
 10
97.4554538964
 20
209.4920934
 11
100.8285408321
 21
209.8466191228
  0
LINE
  5
2AB
100
AcDbEntity
  8
0
100
AcDbLine
 62
7
  6
CONTINUOUS
 10
101.5578561932
 20
209.9232732561
 11
104.9309436505
 21
210.2777990338
  0
LINE
  5
2AC
100
AcDbEntity
  8
RUNDUNGEN
100
AcDbLine
 62
7
  6
CONTINUOUS
 10
209.2624823438
 20
210.0360169681
 11
226.4858047255
 21
208.2257728404
  0
LINE
  5
2AD
100
AcDbEntity
  8
0
100
AcDbLine
 62
7
  6
CONTINUOUS
 10
210.119114489
 20
210.2777990338
 11
213.4922019464
 21
209.9232732561
  0
LINE
  5
2AE
100
AcDbEntity
  8
0
100
AcDbLine
 62
7
  6
CONTINUOUS
 10
214.2215173074
 20
209.8466191228
 11
217.5946042431
 21
209.4920934
  0
LINE
  5
2AF
100
AcDbEntity
  8
0
100
AcDbLine
 62
7
  6
CONTINUOUS
 10
217.9791528832
 20
209.4516757092
 11
221.990391125
 21
209.0300775813
  0
LINE
  5
2B0
100
AcDbEntity
  8
0
100
AcDbLine
 62
7
  6
CONTINUOUS
 10
222.517487886
 20
208.9746774794
 11
226.1640680821
 21
208.5914064565
  0
LINE
  5
2B1
100
AcDbEntity
  8
0
100
AcDbLine
 62
7
  6
CONTINUOUS
 10
154.7171534961
 20
182.8845940648
 11
154.7171534961
 21
181.2552661716
  0
LINE
  5
2B2
100
AcDbEntity
  8
0
100
AcDbLine
 62
7
  6
CONTINUOUS
 10
154.7171534961
 20
179.9952525913
 11
154.7171534961
 21
179.3761080324
  0
LINE
  5
2B3
100
AcDbEntity
  8
0
100
AcDbLine
 62
7
  6
CONTINUOUS
 10
155.6024217075
 20
181.2552661716
 11
155.6024217075
 21
181.135782127
  0
LINE
  5
2B4
100
AcDbEntity
  8
0
100
AcDbLine
 62
7
  6
CONTINUOUS
 10
156.3464812702
 20
181.3964745968
 11
156.3464812702
 21
182.8845940648
  0
LINE
  5
2B5
100
AcDbEntity
  8
0
100
AcDbLine
 62
7
  6
CONTINUOUS
 10
157.8943433231
 20
188.9837117015
 11
157.8943433231
 21
187.6259383975
  0
LINE
  5
2B6
100
AcDbEntity
  8
0
100
AcDbLine
 62
7
  6
CONTINUOUS
 10
130.8675290698
 20
189.0518619131
 11
130.6591953391
 21
188.732713015
  0
LINE
  5
2B7
100
AcDbEntity
  8
0
100
AcDbLine
 62
7
  6
CONTINUOUS
 10
120.9716956371
 20
190.7539895188
 11
121.1800290698
 21
190.9667554509
  0
LINE
  5
2B8
100
AcDbEntity
  8
0
100
AcDbLine
 62
7
  6
CONTINUOUS
 10
163.4177655643
 20
187.718266946
 11
163.4177655643
 21
188.9837117015
  0
LINE
  5
2B9
100
AcDbEntity
  8
0
100
AcDbLine
 62
7
  6
CONTINUOUS
 10
163.9174260563
 20
187.093691331
 11
163.9174260563
 21
185.9314374744
  0
LINE
  5
2BA
100
AcDbEntity
  8
0
100
AcDbLine
 62
7
  6
CONTINUOUS
 10
164.726658768
 20
188.6632771312
 11
164.726658768
 21
187.093691331
  0
LINE
  5
2BB
100
AcDbEntity
  8
0
100
AcDbLine
 62
7
  6
CONTINUOUS
 10
164.726658768
 20
185.9314374744
 11
164.726658768
 21
182.949767214
  0
LINE
  5
2BC
100
AcDbEntity
  8
0
100
AcDbLine
 62
7
  6
CONTINUOUS
 10
125.8675290698
 20
188.094415107
 11
126.2841959351
 21
188.5199470084
  0
LINE
  5
2BD
100
AcDbEntity
  8
0
100
AcDbLine
 62
7
  6
CONTINUOUS
 10
130.8675290698
 20
188.094415107
 11
131.2841953391
 21
188.5199470084
  0
LINE
  5
2BE
100
AcDbEntity
  8
0
100
AcDbLine
 62
7
  6
CONTINUOUS
 10
166.2799500888
 20
182.960629326
 11
166.2799500888
 21
185.9314374744
  0
LINE
  5
2BF
100
AcDbEntity
  8
0
100
AcDbLine
 62
7
  6
CONTINUOUS
 10
166.2799500888
 20
187.093691331
 11
166.2799500888
 21
188.6632771312
  0
LINE
  5
2C0
100
AcDbEntity
  8
0
100
AcDbLine
 62
7
  6
CONTINUOUS
 10
167.2466859287
 20
181.135782127
 11
167.2466859287
 21
182.3034671365
  0
LINE
  5
2C1
100
AcDbEntity
  8
0
100
AcDbLine
 62
7
  6
CONTINUOUS
 10
167.2466859287
 20
185.9314374744
 11
167.2466859287
 21
187.093691331
  0
LINE
  5
2C2
100
AcDbEntity
  8
0
100
AcDbLine
 62
7
  6
CONTINUOUS
 10
125.6591959351
 20
188.732713015
 11
125.3466959351
 21
188.5199470084
  0
LINE
  5
2C3
100
AcDbEntity
  8
0
100
AcDbLine
 62
7
  6
CONTINUOUS
 10
130.6591953391
 20
188.732713015
 11
130.3466953391
 21
188.5199470084
  0
LINE
  5
2C4
100
AcDbEntity
  8
0
100
AcDbLine
 62
7
  6
CONTINUOUS
 10
121.0758625024
 20
190.2220746886
 11
121.4925290698
 21
190.4348406207
  0
LINE
  5
2C5
100
AcDbEntity
  8
0
100
AcDbLine
 62
7
  6
CONTINUOUS
 10
176.2750290698
 20
177.2745254732
 11
176.2750290698
 21
199.1740566796
  0
LINE
  5
2C6
100
AcDbEntity
  8
0
100
AcDbLine
 62
7
  6
CONTINUOUS
 10
125.4508622044
 20
187.8816491469
 11
125.8675290698
 21
188.094415107
  0
LINE
  5
2C7
100
AcDbEntity
  8
0
100
AcDbLine
 62
7
  6
CONTINUOUS
 10
130.4508628005
 20
187.8816491469
 11
130.8675290698
 21
188.094415107
  0
LINE
  5
2C8
100
AcDbEntity
  8
0
100
AcDbLine
 62
7
  6
CONTINUOUS
 10
120.6591956371
 20
190.6476065527
 11
120.9716956371
 21
190.7539895188
  0
LINE
  5
2C9
100
AcDbEntity
  8
0
100
AcDbLine
 62
7
  6
CONTINUOUS
 10
163.2059516376
 20
187.4738678752
 11
163.4177655643
 21
187.718266946
  0
LINE
  5
2CA
100
AcDbEntity
  8
RUNDUNGEN
100
AcDbLine
 62
7
  6
CONTINUOUS
 10
206.5876776218
 20
225.8111259688
 11
193.2401217435
 21
258.0349763947
  0
LINE
  5
2CB
100
AcDbEntity
  8
RUNDUNGEN
100
AcDbLine
 62
7
  6
CONTINUOUS
 10
206.2250290698
 20
170.7552661716
 11
206.2250290698
 21
207.3010817558
  0
LINE
  5
2CC
100
AcDbEntity
  8
RUNDUNGEN
100
AcDbLine
 62
7
  6
CONTINUOUS
 10
204.2645898591
 20
198.4914414677
 11
206.9055682544
 21
223.6186724365
  0
LINE
  5
2CD
100
AcDbEntity
  8
0
100
AcDbLine
 62
7
  6
CONTINUOUS
 10
210.0846200962
 20
209.9496068083
 11
210.119114489
 21
210.2777990338
  0
LINE
  5
2CE
100
AcDbEntity
  8
0
100
AcDbLine
 62
7
  6
CONTINUOUS
 10
210.2669494581
 20
209.9304432202
 11
210.301443851
 21
210.2586354456
  0
LINE
  5
2CF
100
AcDbEntity
  8
0
100
AcDbLine
 62
7
  6
CONTINUOUS
 10
210.3581136174
 20
209.9208614809
 11
210.3926080103
 21
210.2490537064
  0
LINE
  5
2D0
100
AcDbEntity
  8
RUNDUNGEN
100
AcDbLine
 62
7
  6
CONTINUOUS
 10
190.8047392929
 20
260.4703588453
 11
159.2471045154
 21
273.5419591666
  0
LINE
  5
2D1
100
AcDbEntity
  8
0
100
AcDbLine
 62
7
  6
CONTINUOUS
 10
210.44927882
 20
209.911279632
 11
210.4837732129
 21
210.2394718575
  0
LINE
  5
2D2
100
AcDbEntity
  8
0
100
AcDbLine
 62
7
  6
CONTINUOUS
 10
210.7227723412
 20
209.8825343046
 11
210.7572667341
 21
210.2107265301
  0
LINE
  5
2D3
100
AcDbEntity
  8
0
100
AcDbLine
 62
7
  6
CONTINUOUS
 10
211.0874300218
 20
209.844207238
 11
211.1219244146
 21
210.1723994634
  0
LINE
  5
2D4
100
AcDbEntity
  8
0
100
AcDbLine
 62
7
  6
CONTINUOUS
 10
211.5432529049
 20
209.7962983224
 11
211.5777472978
 21
210.1244905479
  0
LINE
  5
2D5
100
AcDbEntity
  8
0
100
AcDbLine
 62
7
  6
CONTINUOUS
 10
211.9990747447
 20
209.7483895165
 11
212.0335691376
 21
210.076581742
  0
LINE
  5
2D6
100
AcDbEntity
  8
0
100
AcDbLine
 62
7
  6
CONTINUOUS
 10
212.3637334686
 20
209.7100623402
 11
212.3982278615
 21
210.0382545657
  0
LINE
  5
2D7
100
AcDbEntity
  8
0
100
AcDbLine
 62
7
  6
CONTINUOUS
 10
212.7283911491
 20
209.6717352736
 11
212.762885542
 21
209.9999274991
  0
LINE
  5
2D8
100
AcDbEntity
  8
0
100
AcDbLine
 62
7
  6
CONTINUOUS
 10
213.0930488296
 20
209.6334082069
 11
213.1275432225
 21
209.9616004324
  0
LINE
  5
2D9
100
AcDbEntity
  8
0
100
AcDbLine
 62
7
  6
CONTINUOUS
 10
213.1842140323
 20
209.623826358
 11
213.2187084251
 21
209.9520185835
  0
LINE
  5
2DA
100
AcDbEntity
  8
0
100
AcDbLine
 62
7
  6
CONTINUOUS
 10
213.4577075535
 20
209.5950810306
 11
213.4922019464
 21
209.9232732561
  0
LINE
  5
2DB
100
AcDbEntity
  8
0
100
AcDbLine
 62
7
  6
CONTINUOUS
 10
214.1870229146
 20
209.5184268973
 11
214.2215173074
 21
209.8466191228
  0
LINE
  5
2DC
100
AcDbEntity
  8
0
100
AcDbLine
 62
7
  6
CONTINUOUS
 10
214.2781881172
 20
209.5088450484
 11
214.31268251
 21
209.8370372739
  0
LINE
  5
2DD
100
AcDbEntity
  8
0
100
AcDbLine
 62
7
  6
CONTINUOUS
 10
214.5516816384
 20
209.480099721
 11
214.5861760313
 21
209.8082919465
  0
LINE
  5
2DE
100
AcDbEntity
  8
0
100
AcDbLine
 62
7
  6
CONTINUOUS
 10
214.9163393189
 20
209.4417726544
 11
214.9508337118
 21
209.7699648799
  0
LINE
  5
2DF
100
AcDbEntity
  8
0
100
AcDbLine
 62
7
  6
CONTINUOUS
 10
215.3721622021
 20
209.3938637388
 11
215.4066565949
 21
209.7220559643
  0
LINE
  5
2E0
100
AcDbEntity
  8
0
100
AcDbLine
 62
7
  6
CONTINUOUS
 10
217.5601098502
 20
209.1639011745
 11
217.5946042431
 21
209.4920934
  0
LINE
  5
2E1
100
AcDbEntity
  8
0
100
AcDbLine
 62
7
  6
CONTINUOUS
 10
217.9446584903
 20
209.1234834837
 11
217.9791528832
 21
209.4516757092
  0
LINE
  5
2E2
100
AcDbEntity
  8
0
100
AcDbLine
 62
7
  6
CONTINUOUS
 10
218.2894262546
 20
209.0872469315
 11
218.3239206475
 21
209.415439157
  0
LINE
  5
2E3
100
AcDbEntity
  8
0
100
AcDbLine
 62
7
  6
CONTINUOUS
 10
218.3805904139
 20
209.0776651923
 11
218.4150848068
 21
209.4058574178
  0
LINE
  5
2E4
100
AcDbEntity
  8
0
100
AcDbLine
 62
7
  6
CONTINUOUS
 10
218.4717550949
 20
209.0680833982
 11
218.5062494877
 21
209.3962756237
  0
LINE
  5
2E5
100
AcDbEntity
  8
0
100
AcDbLine
 62
7
  6
CONTINUOUS
 10
218.7452486161
 20
209.0393380708
 11
218.779743009
 21
209.3675302963
  0
LINE
  5
2E6
100
AcDbEntity
  8
0
100
AcDbLine
 62
7
  6
CONTINUOUS
 10
219.1099068183
 20
209.0010109493
 11
219.1444012112
 21
209.3292031748
  0
LINE
  5
2E7
100
AcDbEntity
  8
0
100
AcDbLine
 62
7
  6
CONTINUOUS
 10
219.5657291798
 20
208.9531020886
 11
219.6002235726
 21
209.2812943141
  0
LINE
  5
2E8
100
AcDbEntity
  8
0
100
AcDbLine
 62
7
  6
CONTINUOUS
 10
221.7536773496
 20
208.7231394694
 11
221.7881717425
 21
209.0513316949
  0
LINE
  5
2E9
100
AcDbEntity
  8
0
100
AcDbLine
 62
7
  6
CONTINUOUS
 10
221.9558967321
 20
208.7018853559
 11
221.990391125
 21
209.0300775813
  0
LINE
  5
2EA
100
AcDbEntity
  8
0
100
AcDbLine
 62
7
  6
CONTINUOUS
 10
222.4829934931
 20
208.6464852539
 11
222.517487886
 21
208.9746774794
  0
LINE
  5
2EB
100
AcDbEntity
  8
0
100
AcDbLine
 62
7
  6
CONTINUOUS
 10
223.0299805356
 20
208.5889945991
 11
223.0644749285
 21
208.9171868246
  0
LINE
  5
2EC
100
AcDbEntity
  8
0
100
AcDbLine
 62
7
  6
CONTINUOUS
 10
224.3062835912
 20
208.4548497425
 11
224.340777984
 21
208.7830419679
  0
LINE
  5
2ED
100
AcDbEntity
  8
0
100
AcDbLine
 62
7
  6
CONTINUOUS
 10
225.5825866467
 20
208.3207048858
 11
225.6170810396
 21
208.6488971113
  0
LINE
  5
2EE
100
AcDbEntity
  8
0
100
AcDbLine
 62
7
  6
CONTINUOUS
 10
226.1295736892
 20
208.2632142311
 11
226.1640680821
 21
208.5914064565
  0
LINE
  5
2EF
100
AcDbEntity
  8
RUNDUNGEN
100
AcDbLine
 62
7
  6
CONTINUOUS
 10
241.1706963551
 20
193.5408812107
 11
242.5250290698
 21
180.6552661716
  0
LINE
  5
2F0
100
AcDbEntity
  8
RUNDUNGEN
100
AcDbLine
 62
7
  6
CONTINUOUS
 10
242.5250290698
 20
180.6552661716
 11
242.5250290698
 21
170.7552661716
  0
LINE
  5
2F1
100
AcDbEntity
  8
B-ACHSEN
100
AcDbLine
 62
7
  6
CONTINUOUS
 10
286.4542386185
 20
170.7552661716
 11
305.1542386185
 21
170.7552661716
  0
LINE
  5
2F2
100
AcDbEntity
  8
KONSTRUKTIONSELEMENTE
100
AcDbLine
 62
7
  6
CONTINUOUS
 10
305.1542386185
 20
170.7552661716
 11
319.4542386185
 21
170.7552661716
  0
LINE
  5
2F3
100
AcDbEntity
  8
KONSTRUKTIONSELEMENTE
100
AcDbLine
 62
7
  6
CONTINUOUS
 10
341.4542386185
 20
170.7552661716
 11
355.7542386185
 21
170.7552661716
  0
LINE
  5
2F4
100
AcDbEntity
  8
B-ACHSEN
100
AcDbLine
 62
7
  6
CONTINUOUS
 10
355.7542386185
 20
170.7552661716
 11
374.4542386185
 21
170.7552661716
  0
LINE
  5
2F5
100
AcDbEntity
  8
BEZUGSACHSEN
100
AcDbLine
 62
7
  6
CONTINUOUS
 10
329.9545540776
 20
172.2552661716
 11
330.9539231594
 21
172.2552661716
  0
LINE
  5
2F6
100
AcDbEntity
  8
KONSTRUKTIONSELEMENTE
100
AcDbLine
 62
7
  6
CONTINUOUS
 10
319.4542386185
 20
176.7552661716
 11
341.4542386185
 21
176.7552661716
  0
LINE
  5
2F7
100
AcDbEntity
  8
RUNDUNGEN
100
AcDbLine
 62
7
  6
CONTINUOUS
 10
286.4542386185
 20
180.1675529313
 11
286.4542386185
 21
170.7552661716
  0
LINE
  5
2F8
100
AcDbEntity
  8
RUNDUNGEN
100
AcDbLine
 62
7
  6
CONTINUOUS
 10
306.3083907028
 20
180.6552661716
 11
354.6000865342
 21
180.6552661716
  0
LINE
  5
2F9
100
AcDbEntity
  8
RUNDUNGEN
100
AcDbLine
 62
7
  6
CONTINUOUS
 10
305.1542386185
 20
172.8477394962
 11
305.1542386185
 21
170.7552661716
  0
LINE
  5
2FA
100
AcDbEntity
  8
0
100
AcDbLine
 62
7
  6
CONTINUOUS
 10
336.4061535024
 20
208.8077803755
 11
336.3125364922
 21
208.7847841136
  0
LINE
  5
2FB
100
AcDbEntity
  8
0
100
AcDbLine
 62
7
  6
CONTINUOUS
 10
336.7615230607
 20
209.3027621776
 11
336.7806216002
 21
209.3074535791
  0
LINE
  5
2FC
100
AcDbEntity
  8
0
100
AcDbLine
 62
7
  6
CONTINUOUS
 10
334.5338131033
 20
208.8614383236
 11
334.6274301134
 21
208.8844345746
  0
LINE
  5
2FD
100
AcDbEntity
  8
0
100
AcDbLine
 62
7
  6
CONTINUOUS
 10
336.6870045819
 20
209.6126495426
 11
336.7806216002
 21
209.6356458046
  0
LINE
  5
2FE
100
AcDbEntity
  8
0
100
AcDbLine
 62
7
  6
CONTINUOUS
 10
332.9423236691
 20
208.8537728993
 11
333.0359406792
 21
208.8767691612
  0
LINE
  5
2FF
100
AcDbEntity
  8
0
100
AcDbLine
 62
7
  6
CONTINUOUS
 10
336.4997705453
 20
208.4105993643
 11
336.7806216002
 21
208.4489264693
  0
LINE
  5
300
100
AcDbEntity
  8
0
100
AcDbLine
 62
7
  6
CONTINUOUS
 10
336.4997705453
 20
208.7387915897
 11
336.7806216002
 21
208.7771186948
  0
LINE
  5
301
100
AcDbEntity
  8
0
100
AcDbLine
 62
7
  6
CONTINUOUS
 10
334.4401960932
 20
208.9304270984
 11
334.1593450629
 21
208.8921000098
  0
LINE
  5
302
100
AcDbEntity
  8
0
100
AcDbLine
 62
7
  6
CONTINUOUS
 10
332.848706659
 20
208.9227616851
 11
332.5678556286
 21
208.8844345746
  0
LINE
  5
303
100
AcDbEntity
  8
0
100
AcDbLine
 62
7
  6
CONTINUOUS
 10
336.3125364922
 20
208.7847841136
 11
336.125302472
 21
208.7617878516
  0
LINE
  5
304
100
AcDbEntity
  8
0
100
AcDbLine
 62
7
  6
CONTINUOUS
 10
334.6274301134
 20
208.8844345746
 11
334.8146641337
 21
208.9074308365
  0
LINE
  5
305
100
AcDbEntity
  8
0
100
AcDbLine
 62
7
  6
CONTINUOUS
 10
333.0359406792
 20
208.8767691612
 11
333.2231746994
 21
208.8997654232
  0
LINE
  5
306
100
AcDbEntity
  8
0
100
AcDbLine
 62
7
  6
CONTINUOUS
 10
336.4997705453
 20
209.5896532807
 11
336.6870045819
 21
209.6126495426
  0
LINE
  5
307
100
AcDbEntity
  8
0
100
AcDbLine
 62
7
  6
CONTINUOUS
 10
336.4061535024
 20
209.643311196
 11
336.2189194821
 21
209.620314934
  0
LINE
  5
308
100
AcDbEntity
  8
0
100
AcDbLine
 62
7
  6
CONTINUOUS
 10
334.8146641337
 20
208.9074308365
 11
335.0018981539
 21
208.9227616851
  0
LINE
  5
309
100
AcDbEntity
  8
0
100
AcDbLine
 62
7
  6
CONTINUOUS
 10
334.7210471236
 20
208.9534233603
 11
334.4401960932
 21
208.9304270984
  0
LINE
  5
30A
100
AcDbEntity
  8
0
100
AcDbLine
 62
7
  6
CONTINUOUS
 10
336.125302472
 20
208.3876031023
 11
336.4997705453
 21
208.4105993643
  0
LINE
  5
30B
100
AcDbEntity
  8
0
100
AcDbLine
 62
7
  6
CONTINUOUS
 10
336.125302472
 20
208.7157953278
 11
336.4997705453
 21
208.7387915897
  0
LINE
  5
30C
100
AcDbEntity
  8
0
100
AcDbLine
 62
7
  6
CONTINUOUS
 10
333.2231746994
 20
208.945757947
 11
332.848706659
 21
208.9227616851
  0
LINE
  5
30D
100
AcDbEntity
  8
0
100
AcDbLine
 62
7
  6
CONTINUOUS
 10
336.125302472
 20
208.7617878516
 11
335.8444513761
 21
208.7464570085
  0
LINE
  5
30E
100
AcDbEntity
  8
0
100
AcDbLine
 62
7
  6
CONTINUOUS
 10
333.2231746994
 20
208.8997654232
 11
333.5040257298
 21
208.9150962718
  0
LINE
  5
30F
100
AcDbEntity
  8
0
100
AcDbLine
 62
7
  6
CONTINUOUS
 10
336.125302472
 20
209.5743224102
 11
336.4997705453
 21
209.5896532807
  0
LINE
  5
310
100
AcDbEntity
  8
0
100
AcDbLine
 62
7
  6
CONTINUOUS
 10
328.4082811438
 20
209.27171252
 11
330.3742386185
 21
209.348366763
  0
LINE
  5
311
100
AcDbEntity
  8
0
100
AcDbLine
 62
7
  6
CONTINUOUS
 10
329.8125364922
 20
208.7830419679
 11
325.9742386185
 21
208.6488971113
  0
LINE
  5
312
100
AcDbEntity
  8
0
100
AcDbLine
 62
7
  6
CONTINUOUS
 10
325.9742386185
 20
208.2632142311
 11
330.3742386185
 21
208.4165226484
  0
LINE
  5
313
100
AcDbEntity
  8
0
100
AcDbLine
 62
7
  6
CONTINUOUS
 10
325.9742386185
 20
208.5914064565
 11
330.3742386185
 21
208.7447148739
  0
LINE
  5
314
100
AcDbEntity
  8
0
100
AcDbLine
 62
7
  6
CONTINUOUS
 10
335.6572173559
 20
208.3722722613
 11
336.125302472
 21
208.3876031023
  0
LINE
  5
315
100
AcDbEntity
  8
0
100
AcDbLine
 62
7
  6
CONTINUOUS
 10
335.6572173559
 20
208.7004644868
 11
336.125302472
 21
208.7157953278
  0
LINE
  5
316
100
AcDbEntity
  8
0
100
AcDbLine
 62
7
  6
CONTINUOUS
 10
335.1891321741
 20
208.9687542089
 11
334.7210471236
 21
208.9534233603
  0
LINE
  5
317
100
AcDbEntity
  8
0
100
AcDbLine
 62
7
  6
CONTINUOUS
 10
335.8444513761
 20
208.7464570085
 11
335.5636003457
 21
208.7387915897
  0
LINE
  5
318
100
AcDbEntity
  8
0
100
AcDbLine
 62
7
  6
CONTINUOUS
 10
335.0018981539
 20
208.9227616851
 11
335.2827493154
 21
208.9304270984
  0
LINE
  5
319
100
AcDbEntity
  8
0
100
AcDbLine
 62
7
  6
CONTINUOUS
 10
333.5040257298
 20
208.9534233603
 11
333.2231746994
 21
208.945757947
  0
LINE
  5
31A
100
AcDbEntity
  8
0
100
AcDbLine
 62
7
  6
CONTINUOUS
 10
335.0018981539
 20
208.3646068404
 11
335.6572173559
 21
208.3722722613
  0
LINE
  5
31B
100
AcDbEntity
  8
0
100
AcDbLine
 62
7
  6
CONTINUOUS
 10
335.0018981539
 20
208.6927990659
 11
335.6572173559
 21
208.7004644868
  0
LINE
  5
31C
100
AcDbEntity
  8
0
100
AcDbLine
 62
7
  6
CONTINUOUS
 10
334.3465790831
 20
208.3646068404
 11
335.0018981539
 21
208.3646068404
  0
LINE
  5
31D
100
AcDbEntity
  8
0
100
AcDbLine
 62
7
  6
CONTINUOUS
 10
334.3465790831
 20
208.6927990659
 11
335.0018981539
 21
208.6927990659
  0
LINE
  5
31E
100
AcDbEntity
  8
0
100
AcDbLine
 62
7
  6
CONTINUOUS
 10
334.5338131033
 20
208.7311261682
 11
334.3465790831
 21
208.7311261682
  0
LINE
  5
31F
100
AcDbEntity
  8
0
100
AcDbLine
 62
7
  6
CONTINUOUS
 10
335.5636003457
 20
208.7387915897
 11
335.2827493154
 21
208.7387915897
  0
LINE
  5
320
100
AcDbEntity
  8
0
100
AcDbLine
 62
7
  6
CONTINUOUS
 10
335.2827493154
 20
208.9304270984
 11
335.5636003457
 21
208.9304270984
  0
LINE
  5
321
100
AcDbEntity
  8
0
100
AcDbLine
 62
7
  6
CONTINUOUS
 10
335.6572173559
 20
208.9687542089
 11
335.1891321741
 21
208.9687542089
  0
LINE
  5
322
100
AcDbEntity
  8
0
100
AcDbLine
 62
7
  6
CONTINUOUS
 10
325.9742386185
 20
209.0513316949
 11
330.3742386185
 21
209.0513316949
  0
LINE
  5
323
100
AcDbEntity
  8
0
100
AcDbLine
 62
7
  6
CONTINUOUS
 10
330.3742386185
 20
209.1088223497
 11
328.4082811438
 21
209.1088223497
  0
LINE
  5
324
100
AcDbEntity
  8
0
100
AcDbLine
 62
7
  6
CONTINUOUS
 10
327.8465790831
 20
209.1088223497
 11
326.4423236691
 21
209.1088223497
  0
LINE
  5
325
100
AcDbEntity
  8
0
100
AcDbLine
 62
7
  6
CONTINUOUS
 10
332.4742386185
 20
209.1757205662
 11
332.9423236691
 21
209.1757205662
  0
LINE
  5
326
100
AcDbEntity
  8
0
100
AcDbLine
 62
7
  6
CONTINUOUS
 10
327.0040257298
 20
209.348366763
 11
327.2848770224
 21
209.348366763
  0
LINE
  5
327
100
AcDbEntity
  8
0
100
AcDbLine
 62
7
  6
CONTINUOUS
 10
333.6912600123
 20
208.3722722613
 11
334.3465790831
 21
208.3646068404
  0
LINE
  5
328
100
AcDbEntity
  8
0
100
AcDbLine
 62
7
  6
CONTINUOUS
 10
333.6912600123
 20
208.7004644868
 11
334.3465790831
 21
208.6927990659
  0
LINE
  5
329
100
AcDbEntity
  8
0
100
AcDbLine
 62
7
  6
CONTINUOUS
 10
334.3465790831
 20
208.7311261682
 11
333.7848770224
 21
208.7387915897
  0
LINE
  5
32A
100
AcDbEntity
  8
0
100
AcDbLine
 62
7
  6
CONTINUOUS
 10
333.7848770224
 20
208.7387915897
 11
333.5040257298
 21
208.7464570085
  0
LINE
  5
32B
100
AcDbEntity
  8
0
100
AcDbLine
 62
7
  6
CONTINUOUS
 10
335.2827493154
 20
208.7387915897
 11
335.0018981539
 21
208.7464570085
  0
LINE
  5
32C
100
AcDbEntity
  8
0
100
AcDbLine
 62
7
  6
CONTINUOUS
 10
335.5636003457
 20
208.9304270984
 11
335.8444513761
 21
208.9227616851
  0
LINE
  5
32D
100
AcDbEntity
  8
0
100
AcDbLine
 62
7
  6
CONTINUOUS
 10
333.2231746994
 20
208.3876031023
 11
333.6912600123
 21
208.3722722613
  0
LINE
  5
32E
100
AcDbEntity
  8
0
100
AcDbLine
 62
7
  6
CONTINUOUS
 10
333.2231746994
 20
208.7157953278
 11
333.6912600123
 21
208.7004644868
  0
LINE
  5
32F
100
AcDbEntity
  8
0
100
AcDbLine
 62
7
  6
CONTINUOUS
 10
336.125302472
 20
208.9534233603
 11
335.6572173559
 21
208.9687542089
  0
LINE
  5
330
100
AcDbEntity
  8
0
100
AcDbLine
 62
7
  6
CONTINUOUS
 10
327.2848770224
 20
209.348366763
 11
327.5657280527
 21
209.3387849689
  0
LINE
  5
331
100
AcDbEntity
  8
0
100
AcDbLine
 62
7
  6
CONTINUOUS
 10
327.6593450629
 20
209.3962756237
 11
327.3784940325
 21
209.4058574178
  0
LINE
  5
332
100
AcDbEntity
  8
0
100
AcDbLine
 62
7
  6
CONTINUOUS
 10
325.9742386185
 20
208.9171868246
 11
329.8125364922
 21
208.7830419679
  0
LINE
  5
333
100
AcDbEntity
  8
0
100
AcDbLine
 62
7
  6
CONTINUOUS
 10
330.3742386185
 20
208.8213690757
 11
325.9742386185
 21
208.9746774794
  0
LINE
  5
334
100
AcDbEntity
  8
0
100
AcDbLine
 62
7
  6
CONTINUOUS
 10
332.9423236691
 20
209.0774909599
 11
336.4009508208
 21
208.9426364182
  0
LINE
  5
335
100
AcDbEntity
  8
0
100
AcDbLine
 62
7
  6
CONTINUOUS
 10
336.8702950633
 20
208.7271483024
 11
337.4359407448
 21
208.7018853559
  0
LINE
  5
336
100
AcDbEntity
  8
0
100
AcDbLine
 62
7
  6
CONTINUOUS
 10
336.4061535024
 20
209.0760700833
 11
337.4359407448
 21
209.0300775813
  0
LINE
  5
337
100
AcDbEntity
  8
0
100
AcDbLine
 62
7
  6
CONTINUOUS
 10
333.5040257298
 20
208.7464570085
 11
333.2231746994
 21
208.7617878516
  0
LINE
  5
338
100
AcDbEntity
  8
0
100
AcDbLine
 62
7
  6
CONTINUOUS
 10
335.8444513761
 20
208.9227616851
 11
336.125302472
 21
208.9074308365
  0
LINE
  5
339
100
AcDbEntity
  8
0
100
AcDbLine
 62
7
  6
CONTINUOUS
 10
332.848706659
 20
208.4105993643
 11
333.2231746994
 21
208.3876031023
  0
LINE
  5
33A
100
AcDbEntity
  8
0
100
AcDbLine
 62
7
  6
CONTINUOUS
 10
332.848706659
 20
208.7387915897
 11
333.2231746994
 21
208.7157953278
  0
LINE
  5
33B
100
AcDbEntity
  8
0
100
AcDbLine
 62
7
  6
CONTINUOUS
 10
336.4997705453
 20
208.9304270984
 11
336.125302472
 21
208.9534233603
  0
LINE
  5
33C
100
AcDbEntity
  8
0
100
AcDbLine
 62
7
  6
CONTINUOUS
 10
328.0338131033
 20
209.3675302963
 11
327.6593450629
 21
209.3962756237
  0
LINE
  5
33D
100
AcDbEntity
  8
0
100
AcDbLine
 62
7
  6
CONTINUOUS
 10
335.0018981539
 20
208.7464570085
 11
334.8146641337
 21
208.7617878516
  0
LINE
  5
33E
100
AcDbEntity
  8
0
100
AcDbLine
 62
7
  6
CONTINUOUS
 10
327.5657280527
 20
209.3387849689
 11
327.752962073
 21
209.3196214356
  0
LINE
  5
33F
100
AcDbEntity
  8
0
100
AcDbLine
 62
7
  6
CONTINUOUS
 10
333.2231746994
 20
208.7617878516
 11
333.0359406792
 21
208.7847841136
  0
LINE
  5
340
100
AcDbEntity
  8
0
100
AcDbLine
 62
7
  6
CONTINUOUS
 10
334.1593450629
 20
208.7771186948
 11
334.5338131033
 21
208.7311261682
  0
LINE
  5
341
100
AcDbEntity
  8
0
100
AcDbLine
 62
7
  6
CONTINUOUS
 10
332.5678556286
 20
208.4489264693
 11
332.848706659
 21
208.4105993643
  0
LINE
  5
342
100
AcDbEntity
  8
0
100
AcDbLine
 62
7
  6
CONTINUOUS
 10
332.5678556286
 20
208.7771186948
 11
332.848706659
 21
208.7387915897
  0
LINE
  5
343
100
AcDbEntity
  8
0
100
AcDbLine
 62
7
  6
CONTINUOUS
 10
328.2210471236
 20
209.3292031748
 11
328.0338131033
 21
209.3675302963
  0
LINE
  5
344
100
AcDbEntity
  8
0
100
AcDbLine
 62
7
  6
CONTINUOUS
 10
327.752962073
 20
209.3196214356
 11
327.8465790831
 21
209.2908761082
  0
LINE
  5
345
100
AcDbEntity
  8
0
100
AcDbLine
 62
7
  6
CONTINUOUS
 10
325.9742386185
 20
209.7483895165
 11
326.0028260506
 21
209.7366857081
  0
LINE
  5
346
100
AcDbEntity
  8
0
100
AcDbLine
 62
7
  6
CONTINUOUS
 10
325.9742386185
 20
210.076581742
 11
326.0678556286
 21
210.0382545657
  0
LINE
  5
347
100
AcDbEntity
  8
RUNDUNGEN
100
AcDbLine
 62
7
  6
CONTINUOUS
 10
356.18217587
 20
192.3046465181
 11
373.0792386185
 21
182.5491227917
  0
LINE
  5
348
100
AcDbEntity
  8
KONSTRUKTIONSELEMENTE
100
AcDbLine
 62
7
  6
CONTINUOUS
 10
319.4542386185
 20
170.7552661716
 11
319.4542386185
 21
176.7552661716
  0
LINE
  5
349
100
AcDbEntity
  8
BEZUGSACHSEN
100
AcDbLine
 62
7
  6
CONTINUOUS
 10
320.4542386185
 20
270.884284738
 11
320.4542386185
 21
208.3878386747
  0
LINE
  5
34A
100
AcDbEntity
  8
0
100
AcDbLine
 62
7
  6
CONTINUOUS
 10
328.2210471236
 20
209.8082919465
 11
328.1274301134
 21
209.789128468
  0
LINE
  5
34B
100
AcDbEntity
  8
0
100
AcDbLine
 62
7
  6
CONTINUOUS
 10
328.1274301134
 20
209.9999274991
 11
328.3146641337
 21
210.0382545657
  0
LINE
  5
34C
100
AcDbEntity
  8
0
100
AcDbLine
 62
7
  6
CONTINUOUS
 10
328.1274301134
 20
210.220308379
 11
327.9401960932
 21
210.1819812027
  0
LINE
  5
34D
100
AcDbEntity
  8
0
100
AcDbLine
 62
7
  6
CONTINUOUS
 10
329.9997705453
 20
209.9616004324
 11
330.2806216002
 21
210.0095092383
  0
LINE
  5
34E
100
AcDbEntity
  8
0
100
AcDbLine
 62
7
  6
CONTINUOUS
 10
328.5018981539
 20
209.844207238
 11
328.6891321741
 21
209.8729525654
  0
LINE
  5
34F
100
AcDbEntity
  8
0
100
AcDbLine
 62
7
  6
CONTINUOUS
 10
327.752962073
 20
210.0478364146
 11
327.5657280527
 21
210.0190910872
  0
LINE
  5
350
100
AcDbEntity
  8
0
100
AcDbLine
 62
7
  6
CONTINUOUS
 10
328.5018981539
 20
210.1723994634
 11
328.6891321741
 21
210.2011447908
  0
LINE
  5
351
100
AcDbEntity
  8
0
100
AcDbLine
 62
7
  6
CONTINUOUS
 10
326.348706659
 20
209.3675302963
 11
326.0678556286
 21
209.3292031748
  0
LINE
  5
352
100
AcDbEntity
  8
0
100
AcDbLine
 62
7
  6
CONTINUOUS
 10
326.348706659
 20
209.8082919465
 11
326.0678556286
 21
209.7699648799
  0
LINE
  5
353
100
AcDbEntity
  8
0
100
AcDbLine
 62
7
  6
CONTINUOUS
 10
326.348706659
 20
210.2107265301
 11
326.0678556286
 21
210.1723994634
  0
LINE
  5
354
100
AcDbEntity
  8
0
100
AcDbLine
 62
7
  6
CONTINUOUS
 10
326.5359406792
 20
209.3196214356
 11
326.7231746994
 21
209.3387849689
  0
LINE
  5
355
100
AcDbEntity
  8
0
100
AcDbLine
 62
7
  6
CONTINUOUS
 10
328.5018981539
 20
209.7603831406
 11
328.6891321741
 21
209.7795466191
  0
LINE
  5
356
100
AcDbEntity
  8
0
100
AcDbLine
 62
7
  6
CONTINUOUS
 10
329.7189194821
 20
210.0190910872
 11
329.4380683862
 21
209.9903457598
  0
LINE
  5
357
100
AcDbEntity
  8
0
100
AcDbLine
 62
7
  6
CONTINUOUS
 10
326.6295576893
 20
209.7603831406
 11
326.8167917095
 21
209.7795466191
  0
LINE
  5
358
100
AcDbEntity
  8
0
100
AcDbLine
 62
7
  6
CONTINUOUS
 10
327.752962073
 20
209.9616004324
 11
328.1274301134
 21
209.9999274991
  0
LINE
  5
359
100
AcDbEntity
  8
0
100
AcDbLine
 62
7
  6
CONTINUOUS
 10
328.5018981539
 20
210.2586354456
 11
328.1274301134
 21
210.220308379
  0
LINE
  5
35A
100
AcDbEntity
  8
0
100
AcDbLine
 62
7
  6
CONTINUOUS
 10
326.6295576893
 20
210.1628177242
 11
326.8167917095
 21
210.1819812027
  0
LINE
  5
35B
100
AcDbEntity
  8
0
100
AcDbLine
 62
7
  6
CONTINUOUS
 10
326.7231746994
 20
209.3962756237
 11
326.348706659
 21
209.3675302963
  0
LINE
  5
35C
100
AcDbEntity
  8
0
100
AcDbLine
 62
7
  6
CONTINUOUS
 10
328.595515164
 20
209.8370372739
 11
328.2210471236
 21
209.8082919465
  0
LINE
  5
35D
100
AcDbEntity
  8
0
100
AcDbLine
 62
7
  6
CONTINUOUS
 10
326.7231746994
 20
209.8370372739
 11
326.348706659
 21
209.8082919465
  0
LINE
  5
35E
100
AcDbEntity
  8
0
100
AcDbLine
 62
7
  6
CONTINUOUS
 10
326.7231746994
 20
210.2394718575
 11
326.348706659
 21
210.2107265301
  0
LINE
  5
35F
100
AcDbEntity
  8
0
100
AcDbLine
 62
7
  6
CONTINUOUS
 10
328.6891321741
 20
209.8729525654
 11
328.9699833356
 21
209.8921161535
  0
LINE
  5
360
100
AcDbEntity
  8
0
100
AcDbLine
 62
7
  6
CONTINUOUS
 10
328.6891321741
 20
210.2011447908
 11
328.9699833356
 21
210.220308379
  0
LINE
  5
361
100
AcDbEntity
  8
0
100
AcDbLine
 62
7
  6
CONTINUOUS
 10
329.5316853963
 20
209.932855105
 11
329.9997705453
 21
209.9616004324
  0
LINE
  5
362
100
AcDbEntity
  8
0
100
AcDbLine
 62
7
  6
CONTINUOUS
 10
328.8763663255
 20
210.2777990338
 11
328.5018981539
 21
210.2586354456
  0
LINE
  5
363
100
AcDbEntity
  8
0
100
AcDbLine
 62
7
  6
CONTINUOUS
 10
326.8167917095
 20
210.1819812027
 11
327.0040257298
 21
210.1915630516
  0
LINE
  5
364
100
AcDbEntity
  8
0
100
AcDbLine
 62
7
  6
CONTINUOUS
 10
330.3742386185
 20
209.415439157
 11
328.2210471236
 21
209.3292031748
  0
LINE
  5
365
100
AcDbEntity
  8
0
100
AcDbLine
 62
7
  6
CONTINUOUS
 10
326.7231746994
 20
209.3387849689
 11
327.0040257298
 21
209.348366763
  0
LINE
  5
366
100
AcDbEntity
  8
0
100
AcDbLine
 62
7
  6
CONTINUOUS
 10
327.0040257298
 20
209.4058574178
 11
326.7231746994
 21
209.3962756237
  0
LINE
  5
367
100
AcDbEntity
  8
0
100
AcDbLine
 62
7
  6
CONTINUOUS
 10
328.6891321741
 20
209.7795466191
 11
328.9699833356
 21
209.789128468
  0
LINE
  5
368
100
AcDbEntity
  8
0
100
AcDbLine
 62
7
  6
CONTINUOUS
 10
328.8763663255
 20
209.8466191228
 11
328.595515164
 21
209.8370372739
  0
LINE
  5
369
100
AcDbEntity
  8
0
100
AcDbLine
 62
7
  6
CONTINUOUS
 10
326.8167917095
 20
209.7795466191
 11
327.0976430022
 21
209.789128468
  0
LINE
  5
36A
100
AcDbEntity
  8
0
100
AcDbLine
 62
7
  6
CONTINUOUS
 10
327.0040257298
 20
209.8466191228
 11
326.7231746994
 21
209.8370372739
  0
LINE
  5
36B
100
AcDbEntity
  8
0
100
AcDbLine
 62
7
  6
CONTINUOUS
 10
329.4380683862
 20
209.9903457598
 11
329.1572173559
 21
209.9807639109
  0
LINE
  5
36C
100
AcDbEntity
  8
0
100
AcDbLine
 62
7
  6
CONTINUOUS
 10
327.5657280527
 20
210.0190910872
 11
327.2848770224
 21
210.0095092383
  0
LINE
  5
36D
100
AcDbEntity
  8
0
100
AcDbLine
 62
7
  6
CONTINUOUS
 10
327.0040257298
 20
210.2490537064
 11
326.7231746994
 21
210.2394718575
  0
LINE
  5
36E
100
AcDbEntity
  8
0
100
AcDbLine
 62
7
  6
CONTINUOUS
 10
336.2189194821
 20
209.620314934
 11
335.9380683862
 21
209.6126495426
  0
LINE
  5
36F
100
AcDbEntity
  8
0
100
AcDbLine
 62
7
  6
CONTINUOUS
 10
329.1572173559
 20
209.9232732561
 11
329.5316853963
 21
209.932855105
  0
LINE
  5
370
100
AcDbEntity
  8
0
100
AcDbLine
 62
7
  6
CONTINUOUS
 10
327.3784940325
 20
209.9520185835
 11
327.752962073
 21
209.9616004324
  0
LINE
  5
371
100
AcDbEntity
  8
0
100
AcDbLine
 62
7
  6
CONTINUOUS
 10
327.3784940325
 20
209.4058574178
 11
327.0040257298
 21
209.4058574178
  0
LINE
  5
372
100
AcDbEntity
  8
0
100
AcDbLine
 62
7
  6
CONTINUOUS
 10
332.9423236691
 20
209.4516757092
 11
332.4742386185
 21
209.4516757092
  0
LINE
  5
373
100
AcDbEntity
  8
0
100
AcDbLine
 62
7
  6
CONTINUOUS
 10
325.9742386185
 20
209.4920934
 11
330.3742386185
 21
209.4920934
  0
LINE
  5
374
100
AcDbEntity
  8
0
100
AcDbLine
 62
7
  6
CONTINUOUS
 10
333.8784940325
 20
209.5129991036
 11
334.252962073
 21
209.5129991036
  0
LINE
  5
375
100
AcDbEntity
  8
0
100
AcDbLine
 62
7
  6
CONTINUOUS
 10
329.8125364922
 20
209.5495839999
 11
328.4082811438
 21
209.5495839999
  0
LINE
  5
376
100
AcDbEntity
  8
0
100
AcDbLine
 62
7
  6
CONTINUOUS
 10
327.8465790831
 20
209.5495839999
 11
326.5359406792
 21
209.5495839999
  0
LINE
  5
377
100
AcDbEntity
  8
0
100
AcDbLine
 62
7
  6
CONTINUOUS
 10
333.1295576893
 20
209.5743224102
 11
333.8784940325
 21
209.5743224102
  0
LINE
  5
378
100
AcDbEntity
  8
0
100
AcDbLine
 62
7
  6
CONTINUOUS
 10
334.252962073
 20
209.5743224102
 11
336.125302472
 21
209.5743224102
  0
LINE
  5
379
100
AcDbEntity
  8
0
100
AcDbLine
 62
7
  6
CONTINUOUS
 10
335.9380683862
 20
209.6126495426
 11
334.252962073
 21
209.6126495426
  0
LINE
  5
37A
100
AcDbEntity
  8
0
100
AcDbLine
 62
7
  6
CONTINUOUS
 10
333.8784940325
 20
209.6126495426
 11
333.1295576893
 21
209.6126495426
  0
LINE
  5
37B
100
AcDbEntity
  8
0
100
AcDbLine
 62
7
  6
CONTINUOUS
 10
336.8742386185
 20
209.6816383284
 11
336.4997705453
 21
209.6816383284
  0
LINE
  5
37C
100
AcDbEntity
  8
0
100
AcDbLine
 62
7
  6
CONTINUOUS
 10
334.252962073
 20
209.6969691989
 11
333.8784940325
 21
209.6969691989
  0
LINE
  5
37D
100
AcDbEntity
  8
0
100
AcDbLine
 62
7
  6
CONTINUOUS
 10
327.0976430022
 20
209.789128468
 11
327.2848770224
 21
209.789128468
  0
LINE
  5
37E
100
AcDbEntity
  8
0
100
AcDbLine
 62
7
  6
CONTINUOUS
 10
328.9699833356
 20
209.789128468
 11
329.250834366
 21
209.789128468
  0
LINE
  5
37F
100
AcDbEntity
  8
0
100
AcDbLine
 62
7
  6
CONTINUOUS
 10
329.3444513761
 20
209.8466191228
 11
328.8763663255
 21
209.8466191228
  0
LINE
  5
380
100
AcDbEntity
  8
0
100
AcDbLine
 62
7
  6
CONTINUOUS
 10
327.3784940325
 20
209.8466191228
 11
327.0040257298
 21
209.8466191228
  0
LINE
  5
381
100
AcDbEntity
  8
0
100
AcDbLine
 62
7
  6
CONTINUOUS
 10
328.9699833356
 20
209.8921161535
 11
329.1572173559
 21
209.8921161535
  0
LINE
  5
382
100
AcDbEntity
  8
0
100
AcDbLine
 62
7
  6
CONTINUOUS
 10
327.0040257298
 20
209.9520185835
 11
327.3784940325
 21
209.9520185835
  0
LINE
  5
383
100
AcDbEntity
  8
0
100
AcDbLine
 62
7
  6
CONTINUOUS
 10
327.2848770224
 20
210.0095092383
 11
327.0976430022
 21
210.0095092383
  0
LINE
  5
384
100
AcDbEntity
  8
RUNDUNGEN
100
AcDbLine
 62
7
  6
CONTINUOUS
 10
327.0040257298
 20
210.0510817558
 11
327.752962073
 21
210.0510817558
  0
LINE
  5
385
100
AcDbEntity
  8
RUNDUNGEN
100
AcDbLine
 62
7
  6
CONTINUOUS
 10
330.3742386185
 20
210.0510817558
 11
334.2351637312
 21
210.0510817558
  0
LINE
  5
386
100
AcDbEntity
  8
0
100
AcDbLine
 62
7
  6
CONTINUOUS
 10
328.9699833356
 20
210.220308379
 11
329.250834366
 21
210.220308379
  0
LINE
  5
387
100
AcDbEntity
  8
0
100
AcDbLine
 62
7
  6
CONTINUOUS
 10
329.3444513761
 20
210.2777990338
 11
328.8763663255
 21
210.2777990338
  0
LINE
  5
388
100
AcDbEntity
  8
0
100
AcDbLine
 62
7
  6
CONTINUOUS
 10
326.6295576893
 20
209.9616004324
 11
327.0040257298
 21
209.9520185835
  0
LINE
  5
389
100
AcDbEntity
  8
0
100
AcDbLine
 62
7
  6
CONTINUOUS
 10
327.2848770224
 20
209.789128468
 11
327.5657280527
 21
209.7795466191
  0
LINE
  5
38A
100
AcDbEntity
  8
0
100
AcDbLine
 62
7
  6
CONTINUOUS
 10
327.6593450629
 20
209.8370372739
 11
327.3784940325
 21
209.8466191228
  0
LINE
  5
38B
100
AcDbEntity
  8
0
100
AcDbLine
 62
7
  6
CONTINUOUS
 10
329.250834366
 20
209.789128468
 11
329.5316853963
 21
209.7795466191
  0
LINE
  5
38C
100
AcDbEntity
  8
0
100
AcDbLine
 62
7
  6
CONTINUOUS
 10
329.625302472
 20
209.8370372739
 11
329.3444513761
 21
209.8466191228
  0
LINE
  5
38D
100
AcDbEntity
  8
0
100
AcDbLine
 62
7
  6
CONTINUOUS
 10
327.0976430022
 20
210.0095092383
 11
326.8167917095
 21
210.0190910872
  0
LINE
  5
38E
100
AcDbEntity
  8
0
100
AcDbLine
 62
7
  6
CONTINUOUS
 10
332.9423236691
 20
209.4056831854
 11
336.8742386185
 21
209.2523747872
  0
LINE
  5
38F
100
AcDbEntity
  8
0
100
AcDbLine
 62
7
  6
CONTINUOUS
 10
336.8742386185
 20
209.298367311
 11
332.9423236691
 21
209.4516757092
  0
LINE
  5
390
100
AcDbEntity
  8
0
100
AcDbLine
 62
7
  6
CONTINUOUS
 10
337.4359407448
 20
209.0684046919
 11
336.4061535024
 21
209.1143972157
  0
LINE
  5
391
100
AcDbEntity
  8
0
100
AcDbLine
 62
7
  6
CONTINUOUS
 10
329.7189194821
 20
210.2586354456
 11
329.3444513761
 21
210.2777990338
  0
LINE
  5
392
100
AcDbEntity
  8
0
100
AcDbLine
 62
7
  6
CONTINUOUS
 10
329.250834366
 20
210.220308379
 11
329.5316853963
 21
210.2011447908
  0
LINE
  5
393
100
AcDbEntity
  8
0
100
AcDbLine
 62
7
  6
CONTINUOUS
 10
328.0338131033
 20
209.8082919465
 11
327.6593450629
 21
209.8370372739
  0
LINE
  5
394
100
AcDbEntity
  8
0
100
AcDbLine
 62
7
  6
CONTINUOUS
 10
329.9997705453
 20
209.8082919465
 11
329.625302472
 21
209.8370372739
  0
LINE
  5
395
100
AcDbEntity
  8
0
100
AcDbLine
 62
7
  6
CONTINUOUS
 10
327.5657280527
 20
209.7795466191
 11
327.752962073
 21
209.7603831406
  0
LINE
  5
396
100
AcDbEntity
  8
0
100
AcDbLine
 62
7
  6
CONTINUOUS
 10
326.2550896488
 20
209.9999274991
 11
326.6295576893
 21
209.9616004324
  0
LINE
  5
397
100
AcDbEntity
  8
0
100
AcDbLine
 62
7
  6
CONTINUOUS
 10
329.5316853963
 20
209.7795466191
 11
329.7189194821
 21
209.7603831406
  0
LINE
  5
398
100
AcDbEntity
  8
0
100
AcDbLine
 62
7
  6
CONTINUOUS
 10
330.0933875554
 20
210.220308379
 11
329.7189194821
 21
210.2586354456
  0
LINE
  5
399
100
AcDbEntity
  8
0
100
AcDbLine
 62
7
  6
CONTINUOUS
 10
334.8146641337
 20
208.7617878516
 11
334.6274301134
 21
208.7847841136
  0
LINE
  5
39A
100
AcDbEntity
  8
0
100
AcDbLine
 62
7
  6
CONTINUOUS
 10
336.125302472
 20
208.9074308365
 11
336.3125364922
 21
208.8844345746
  0
LINE
  5
39B
100
AcDbEntity
  8
0
100
AcDbLine
 62
7
  6
CONTINUOUS
 10
330.2806216002
 20
209.7699648799
 11
329.9997705453
 21
209.8082919465
  0
LINE
  5
39C
100
AcDbEntity
  8
0
100
AcDbLine
 62
7
  6
CONTINUOUS
 10
336.7806216002
 20
208.8921000098
 11
336.4997705453
 21
208.9304270984
  0
LINE
  5
39D
100
AcDbEntity
  8
0
100
AcDbLine
 62
7
  6
CONTINUOUS
 10
326.8167917095
 20
210.0190910872
 11
326.6295576893
 21
210.0478364146
  0
LINE
  5
39E
100
AcDbEntity
  8
0
100
AcDbLine
 62
7
  6
CONTINUOUS
 10
329.5316853963
 20
210.2011447908
 11
329.7189194821
 21
210.1723994634
  0
LINE
  5
39F
100
AcDbEntity
  8
0
100
AcDbLine
 62
7
  6
CONTINUOUS
 10
326.0678556286
 20
210.0382545657
 11
326.2550896488
 21
209.9999274991
  0
LINE
  5
3A0
100
AcDbEntity
  8
0
100
AcDbLine
 62
7
  6
CONTINUOUS
 10
328.1274301134
 20
209.789128468
 11
328.0338131033
 21
209.8082919465
  0
LINE
  5
3A1
100
AcDbEntity
  8
0
100
AcDbLine
 62
7
  6
CONTINUOUS
 10
330.2806216002
 20
210.1819812027
 11
330.0933875554
 21
210.220308379
  0
LINE
  5
3A2
100
AcDbEntity
  8
0
100
AcDbLine
 62
7
  6
CONTINUOUS
 10
333.0359406792
 20
208.7847841136
 11
332.9423236691
 21
208.8077803755
  0
LINE
  5
3A3
100
AcDbEntity
  8
0
100
AcDbLine
 62
7
  6
CONTINUOUS
 10
334.6274301134
 20
208.7847841136
 11
334.5338131033
 21
208.8077803755
  0
LINE
  5
3A4
100
AcDbEntity
  8
0
100
AcDbLine
 62
7
  6
CONTINUOUS
 10
336.3125364922
 20
208.8844345746
 11
336.4061535024
 21
208.8614383236
  0
LINE
  5
3A5
100
AcDbEntity
  8
0
100
AcDbLine
 62
7
  6
CONTINUOUS
 10
326.6295576893
 20
210.0478364146
 11
326.5359406792
 21
210.076581742
  0
LINE
  5
3A6
100
AcDbEntity
  8
0
100
AcDbLine
 62
7
  6
CONTINUOUS
 10
327.752962073
 20
209.7603831406
 11
327.8465790831
 21
209.7316378132
  0
LINE
  5
3A7
100
AcDbEntity
  8
0
100
AcDbLine
 62
7
  6
CONTINUOUS
 10
329.7189194821
 20
209.7603831406
 11
329.8125364922
 21
209.7316378132
  0
LINE
  5
3A8
100
AcDbEntity
  8
0
100
AcDbLine
 62
7
  6
CONTINUOUS
 10
332.4742386185
 20
208.4872535743
 11
332.5678556286
 21
208.4489264693
  0
LINE
  5
3A9
100
AcDbEntity
  8
0
100
AcDbLine
 62
7
  6
CONTINUOUS
 10
332.4742386185
 20
208.8154457998
 11
332.5678556286
 21
208.7771186948
  0
LINE
  5
3AA
100
AcDbEntity
  8
0
100
AcDbLine
 62
7
  6
CONTINUOUS
 10
329.7189194821
 20
210.1723994634
 11
329.8125364922
 21
210.1340723968
  0
LINE
  5
3AB
100
AcDbEntity
  8
0
100
AcDbLine
 62
7
  6
CONTINUOUS
 10
334.0657280527
 20
208.8154457998
 11
334.1593450629
 21
208.7771186948
  0
LINE
  5
3AC
100
AcDbEntity
  8
0
100
AcDbLine
 62
7
  6
CONTINUOUS
 10
336.8742386185
 20
208.8537728993
 11
336.7806216002
 21
208.8921000098
  0
LINE
  5
3AD
100
AcDbEntity
  8
0
100
AcDbLine
 62
7
  6
CONTINUOUS
 10
330.3742386185
 20
209.7220559643
 11
330.2806216002
 21
209.7699648799
  0
LINE
  5
3AE
100
AcDbEntity
  8
0
100
AcDbLine
 62
7
  6
CONTINUOUS
 10
330.3742386185
 20
210.1340723968
 11
330.2806216002
 21
210.1819812027
  0
LINE
  5
3AF
100
AcDbEntity
  8
0
100
AcDbLine
 62
7
  6
CONTINUOUS
 10
325.9742386185
 20
208.2632142311
 11
325.9742386185
 21
209.7220559643
  0
LINE
  5
3B0
100
AcDbEntity
  8
0
100
AcDbLine
 62
7
  6
CONTINUOUS
 10
325.9742386185
 20
209.7483895165
 11
325.9742386185
 21
210.1244905479
  0
LINE
  5
3B1
100
AcDbEntity
  8
0
100
AcDbLine
 62
7
  6
CONTINUOUS
 10
326.0678556286
 20
209.7699648799
 11
326.0678556286
 21
210.0382545657
  0
LINE
  5
3B2
100
AcDbEntity
  8
0
100
AcDbLine
 62
7
  6
CONTINUOUS
 10
326.2550896488
 20
209.7955162576
 11
326.2550896488
 21
209.9999274991
  0
LINE
  5
3B3
100
AcDbEntity
  8
0
100
AcDbLine
 62
7
  6
CONTINUOUS
 10
326.4423236691
 20
209.1088223497
 11
326.4423236691
 21
209.2908761082
  0
LINE
  5
3B4
100
AcDbEntity
  8
0
100
AcDbLine
 62
7
  6
CONTINUOUS
 10
326.5359406792
 20
209.1088223497
 11
326.5359406792
 21
209.3196214356
  0
LINE
  5
3B5
100
AcDbEntity
  8
0
100
AcDbLine
 62
7
  6
CONTINUOUS
 10
326.5359406792
 20
209.5495839999
 11
326.5359406792
 21
209.7316378132
  0
LINE
  5
3B6
100
AcDbEntity
  8
0
100
AcDbLine
 62
7
  6
CONTINUOUS
 10
326.5359406792
 20
210.076581742
 11
326.5359406792
 21
210.1340723968
  0
LINE
  5
3B7
100
AcDbEntity
  8
0
100
AcDbLine
 62
7
  6
CONTINUOUS
 10
326.6295576893
 20
209.5495839999
 11
326.6295576893
 21
209.7603831406
  0
LINE
  5
3B8
100
AcDbEntity
  8
0
100
AcDbLine
 62
7
  6
CONTINUOUS
 10
326.6295576893
 20
209.8370372739
 11
326.6295576893
 21
209.9616004324
  0
LINE
  5
3B9
100
AcDbEntity
  8
0
100
AcDbLine
 62
7
  6
CONTINUOUS
 10
326.6295576893
 20
210.0478364146
 11
326.6295576893
 21
210.1628177242
  0
LINE
  5
3BA
100
AcDbEntity
  8
0
100
AcDbLine
 62
7
  6
CONTINUOUS
 10
326.7231746994
 20
209.1088223497
 11
326.7231746994
 21
209.3387849689
  0
LINE
  5
3BB
100
AcDbEntity
  8
0
100
AcDbLine
 62
7
  6
CONTINUOUS
 10
326.8167917095
 20
209.5495839999
 11
326.8167917095
 21
209.7795466191
  0
LINE
  5
3BC
100
AcDbEntity
  8
0
100
AcDbLine
 62
7
  6
CONTINUOUS
 10
326.8167917095
 20
210.0190910872
 11
326.8167917095
 21
210.1819812027
  0
LINE
  5
3BD
100
AcDbEntity
  8
0
100
AcDbLine
 62
7
  6
CONTINUOUS
 10
327.0040257298
 20
209.1088223497
 11
327.0040257298
 21
209.348366763
  0
LINE
  5
3BE
100
AcDbEntity
  8
0
100
AcDbLine
 62
7
  6
CONTINUOUS
 10
327.0040257298
 20
210.0095092383
 11
327.0040257298
 21
210.2490537064
  0
LINE
  5
3BF
100
AcDbEntity
  8
0
100
AcDbLine
 62
7
  6
CONTINUOUS
 10
327.0040257298
 20
209.8466191228
 11
327.0040257298
 21
209.9520185835
  0
LINE
  5
3C0
100
AcDbEntity
  8
0
100
AcDbLine
 62
7
  6
CONTINUOUS
 10
327.0976430022
 20
209.5495839999
 11
327.0976430022
 21
209.789128468
  0
LINE
  5
3C1
100
AcDbEntity
  8
0
100
AcDbLine
 62
7
  6
CONTINUOUS
 10
327.2848770224
 20
209.1088223497
 11
327.2848770224
 21
209.348366763
  0
LINE
  5
3C2
100
AcDbEntity
  8
0
100
AcDbLine
 62
7
  6
CONTINUOUS
 10
327.2848770224
 20
209.5495839999
 11
327.2848770224
 21
209.789128468
  0
LINE
  5
3C3
100
AcDbEntity
  8
0
100
AcDbLine
 62
7
  6
CONTINUOUS
 10
327.3784940325
 20
209.8466191228
 11
327.3784940325
 21
209.9520185835
  0
LINE
  5
3C4
100
AcDbEntity
  8
0
100
AcDbLine
 62
7
  6
CONTINUOUS
 10
327.5657280527
 20
209.1088223497
 11
327.5657280527
 21
209.3387849689
  0
LINE
  5
3C5
100
AcDbEntity
  8
0
100
AcDbLine
 62
7
  6
CONTINUOUS
 10
327.5657280527
 20
209.5495839999
 11
327.5657280527
 21
209.7795466191
  0
LINE
  5
3C6
100
AcDbEntity
  8
0
100
AcDbLine
 62
7
  6
CONTINUOUS
 10
327.752962073
 20
209.1088223497
 11
327.752962073
 21
209.3196214356
  0
LINE
  5
3C7
100
AcDbEntity
  8
0
100
AcDbLine
 62
7
  6
CONTINUOUS
 10
327.752962073
 20
209.5495839999
 11
327.752962073
 21
209.7603831406
  0
LINE
  5
3C8
100
AcDbEntity
  8
0
100
AcDbLine
 62
7
  6
CONTINUOUS
 10
327.752962073
 20
209.8370372739
 11
327.752962073
 21
209.9616004324
  0
LINE
  5
3C9
100
AcDbEntity
  8
0
100
AcDbLine
 62
7
  6
CONTINUOUS
 10
327.8465790831
 20
210.1340723968
 11
327.8465790831
 21
210.076581742
  0
LINE
  5
3CA
100
AcDbEntity
  8
0
100
AcDbLine
 62
7
  6
CONTINUOUS
 10
327.8465790831
 20
209.7316378132
 11
327.8465790831
 21
209.5495839999
  0
LINE
  5
3CB
100
AcDbEntity
  8
0
100
AcDbLine
 62
7
  6
CONTINUOUS
 10
327.8465790831
 20
209.2908761082
 11
327.8465790831
 21
209.1088223497
  0
LINE
  5
3CC
100
AcDbEntity
  8
0
100
AcDbLine
 62
7
  6
CONTINUOUS
 10
328.1274301134
 20
209.789128468
 11
328.1274301134
 21
209.9999274991
  0
LINE
  5
3CD
100
AcDbEntity
  8
0
100
AcDbLine
 62
7
  6
CONTINUOUS
 10
328.3146641337
 20
209.8082919465
 11
328.3146641337
 21
210.0382545657
  0
LINE
  5
3CE
100
AcDbEntity
  8
0
100
AcDbLine
 62
7
  6
CONTINUOUS
 10
328.4082811438
 20
209.1088223497
 11
328.4082811438
 21
209.27171252
  0
LINE
  5
3CF
100
AcDbEntity
  8
0
100
AcDbLine
 62
7
  6
CONTINUOUS
 10
328.4082811438
 20
209.5495839999
 11
328.4082811438
 21
209.7316378132
  0
LINE
  5
3D0
100
AcDbEntity
  8
0
100
AcDbLine
 62
7
  6
CONTINUOUS
 10
328.4082811438
 20
209.8226646102
 11
328.4082811438
 21
210.1340723968
  0
LINE
  5
3D1
100
AcDbEntity
  8
0
100
AcDbLine
 62
7
  6
CONTINUOUS
 10
328.5018981539
 20
209.5495839999
 11
328.5018981539
 21
209.7603831406
  0
LINE
  5
3D2
100
AcDbEntity
  8
0
100
AcDbLine
 62
7
  6
CONTINUOUS
 10
328.5018981539
 20
209.844207238
 11
328.5018981539
 21
210.1723994634
  0
LINE
  5
3D3
100
AcDbEntity
  8
0
100
AcDbLine
 62
7
  6
CONTINUOUS
 10
328.6891321741
 20
209.5495839999
 11
328.6891321741
 21
209.7795466191
  0
LINE
  5
3D4
100
AcDbEntity
  8
0
100
AcDbLine
 62
7
  6
CONTINUOUS
 10
328.6891321741
 20
209.8729525654
 11
328.6891321741
 21
210.2011447908
  0
LINE
  5
3D5
100
AcDbEntity
  8
0
100
AcDbLine
 62
7
  6
CONTINUOUS
 10
328.9699833356
 20
209.5495839999
 11
328.9699833356
 21
209.789128468
  0
LINE
  5
3D6
100
AcDbEntity
  8
0
100
AcDbLine
 62
7
  6
CONTINUOUS
 10
328.9699833356
 20
209.8921161535
 11
328.9699833356
 21
210.220308379
  0
LINE
  5
3D7
100
AcDbEntity
  8
0
100
AcDbLine
 62
7
  6
CONTINUOUS
 10
329.1572173559
 20
209.8466191228
 11
329.1572173559
 21
209.9807639109
  0
LINE
  5
3D8
100
AcDbEntity
  8
0
100
AcDbLine
 62
7
  6
CONTINUOUS
 10
329.250834366
 20
209.5495839999
 11
329.250834366
 21
209.789128468
  0
LINE
  5
3D9
100
AcDbEntity
  8
0
100
AcDbLine
 62
7
  6
CONTINUOUS
 10
329.250834366
 20
209.9807639109
 11
329.250834366
 21
210.220308379
  0
LINE
  5
3DA
100
AcDbEntity
  8
0
100
AcDbLine
 62
7
  6
CONTINUOUS
 10
329.5316853963
 20
209.5495839999
 11
329.5316853963
 21
209.7795466191
  0
LINE
  5
3DB
100
AcDbEntity
  8
0
100
AcDbLine
 62
7
  6
CONTINUOUS
 10
329.5316853963
 20
209.8370372739
 11
329.5316853963
 21
209.932855105
  0
LINE
  5
3DC
100
AcDbEntity
  8
0
100
AcDbLine
 62
7
  6
CONTINUOUS
 10
329.5316853963
 20
209.9903457598
 11
329.5316853963
 21
210.2011447908
  0
LINE
  5
3DD
100
AcDbEntity
  8
0
100
AcDbLine
 62
7
  6
CONTINUOUS
 10
329.7189194821
 20
209.5495839999
 11
329.7189194821
 21
209.7603831406
  0
LINE
  5
3DE
100
AcDbEntity
  8
0
100
AcDbLine
 62
7
  6
CONTINUOUS
 10
329.7189194821
 20
210.0190910872
 11
329.7189194821
 21
210.1723994634
  0
LINE
  5
3DF
100
AcDbEntity
  8
0
100
AcDbLine
 62
7
  6
CONTINUOUS
 10
329.8125364922
 20
210.1340723968
 11
329.8125364922
 21
210.0574181539
  0
LINE
  5
3E0
100
AcDbEntity
  8
0
100
AcDbLine
 62
7
  6
CONTINUOUS
 10
329.8125364922
 20
209.7316378132
 11
329.8125364922
 21
209.5495839999
  0
LINE
  5
3E1
100
AcDbEntity
  8
0
100
AcDbLine
 62
7
  6
CONTINUOUS
 10
329.9997705453
 20
209.8082919465
 11
329.9997705453
 21
209.9616004324
  0
LINE
  5
3E2
100
AcDbEntity
  8
0
100
AcDbLine
 62
7
  6
CONTINUOUS
 10
330.2806216002
 20
209.7699648799
 11
330.2806216002
 21
210.0095092383
  0
LINE
  5
3E3
100
AcDbEntity
  8
0
100
AcDbLine
 62
7
  6
CONTINUOUS
 10
330.3742386185
 20
208.4165226484
 11
330.3742386185
 21
209.7220559643
  0
LINE
  5
3E4
100
AcDbEntity
  8
0
100
AcDbLine
 62
7
  6
CONTINUOUS
 10
330.3742386185
 20
209.7292259284
 11
330.3742386185
 21
210.1340723968
  0
LINE
  5
3E5
100
AcDbEntity
  8
0
100
AcDbLine
 62
7
  6
CONTINUOUS
 10
332.4742386185
 20
208.4872535743
 11
332.4742386185
 21
209.4516757092
  0
LINE
  5
3E6
100
AcDbEntity
  8
0
100
AcDbLine
 62
7
  6
CONTINUOUS
 10
332.5678556286
 20
208.4489264693
 11
332.5678556286
 21
208.7771186948
  0
LINE
  5
3E7
100
AcDbEntity
  8
0
100
AcDbLine
 62
7
  6
CONTINUOUS
 10
332.848706659
 20
208.4105993643
 11
332.848706659
 21
208.7387915897
  0
LINE
  5
3E8
100
AcDbEntity
  8
0
100
AcDbLine
 62
7
  6
CONTINUOUS
 10
332.9423236691
 20
208.8077803755
 11
332.9423236691
 21
208.8537728993
  0
LINE
  5
3E9
100
AcDbEntity
  8
0
100
AcDbLine
 62
7
  6
CONTINUOUS
 10
332.9423236691
 20
208.9227616851
 11
332.9423236691
 21
209.4056831854
  0
LINE
  5
3EA
100
AcDbEntity
  8
0
100
AcDbLine
 62
7
  6
CONTINUOUS
 10
333.0359406792
 20
208.7847841136
 11
333.0359406792
 21
208.8767691612
  0
LINE
  5
3EB
100
AcDbEntity
  8
0
100
AcDbLine
 62
7
  6
CONTINUOUS
 10
333.1295576893
 20
209.4443753103
 11
333.1295576893
 21
209.6126495426
  0
LINE
  5
3EC
100
AcDbEntity
  8
0
100
AcDbLine
 62
7
  6
CONTINUOUS
 10
333.2231746994
 20
208.3876031023
 11
333.2231746994
 21
208.7157953278
  0
LINE
  5
3ED
100
AcDbEntity
  8
0
100
AcDbLine
 62
7
  6
CONTINUOUS
 10
333.2231746994
 20
208.7617878516
 11
333.2231746994
 21
208.8997654232
  0
LINE
  5
3EE
100
AcDbEntity
  8
0
100
AcDbLine
 62
7
  6
CONTINUOUS
 10
333.5040257298
 20
208.7464570085
 11
333.5040257298
 21
208.9534233603
  0
LINE
  5
3EF
100
AcDbEntity
  8
0
100
AcDbLine
 62
7
  6
CONTINUOUS
 10
333.6912600123
 20
208.3722722613
 11
333.6912600123
 21
208.7004644868
  0
LINE
  5
3F0
100
AcDbEntity
  8
0
100
AcDbLine
 62
7
  6
CONTINUOUS
 10
333.8784940325
 20
209.6969691989
 11
333.8784940325
 21
209.6126495426
  0
LINE
  5
3F1
100
AcDbEntity
  8
0
100
AcDbLine
 62
7
  6
CONTINUOUS
 10
333.8784940325
 20
209.4151737043
 11
333.8784940325
 21
209.5743224102
  0
LINE
  5
3F2
100
AcDbEntity
  8
0
100
AcDbLine
 62
7
  6
CONTINUOUS
 10
334.0657280527
 20
208.734958879
 11
334.0657280527
 21
208.8537728993
  0
LINE
  5
3F3
100
AcDbEntity
  8
0
100
AcDbLine
 62
7
  6
CONTINUOUS
 10
334.1593450629
 20
208.7336813087
 11
334.1593450629
 21
208.7771186948
  0
LINE
  5
3F4
100
AcDbEntity
  8
0
100
AcDbLine
 62
7
  6
CONTINUOUS
 10
334.252962073
 20
209.6126495426
 11
334.252962073
 21
209.6969691989
  0
LINE
  5
3F5
100
AcDbEntity
  8
0
100
AcDbLine
 62
7
  6
CONTINUOUS
 10
334.252962073
 20
209.4005729064
 11
334.252962073
 21
209.5743224102
  0
LINE
  5
3F6
100
AcDbEntity
  8
0
100
AcDbLine
 62
7
  6
CONTINUOUS
 10
334.3465790831
 20
208.3646068404
 11
334.3465790831
 21
208.6927990659
  0
LINE
  5
3F7
100
AcDbEntity
  8
0
100
AcDbLine
 62
7
  6
CONTINUOUS
 10
334.5338131033
 20
208.8077803755
 11
334.5338131033
 21
208.8614383236
  0
LINE
  5
3F8
100
AcDbEntity
  8
0
100
AcDbLine
 62
7
  6
CONTINUOUS
 10
334.6274301134
 20
208.7847841136
 11
334.6274301134
 21
208.8844345746
  0
LINE
  5
3F9
100
AcDbEntity
  8
0
100
AcDbLine
 62
7
  6
CONTINUOUS
 10
334.8146641337
 20
208.7617878516
 11
334.8146641337
 21
208.9074308365
  0
LINE
  5
3FA
100
AcDbEntity
  8
0
100
AcDbLine
 62
7
  6
CONTINUOUS
 10
335.0018981539
 20
208.3646068404
 11
335.0018981539
 21
208.6927990659
  0
LINE
  5
3FB
100
AcDbEntity
  8
0
100
AcDbLine
 62
7
  6
CONTINUOUS
 10
335.0018981539
 20
208.7464570085
 11
335.0018981539
 21
208.9227616851
  0
LINE
  5
3FC
100
AcDbEntity
  8
0
100
AcDbLine
 62
7
  6
CONTINUOUS
 10
335.2827493154
 20
208.7387915897
 11
335.2827493154
 21
208.9304270984
  0
LINE
  5
3FD
100
AcDbEntity
  8
0
100
AcDbLine
 62
7
  6
CONTINUOUS
 10
335.5636003457
 20
208.7387915897
 11
335.5636003457
 21
208.9304270984
  0
LINE
  5
3FE
100
AcDbEntity
  8
0
100
AcDbLine
 62
7
  6
CONTINUOUS
 10
335.6572173559
 20
208.3722722613
 11
335.6572173559
 21
208.7004644868
  0
LINE
  5
3FF
100
AcDbEntity
  8
0
100
AcDbLine
 62
7
  6
CONTINUOUS
 10
335.8444513761
 20
208.7464570085
 11
335.8444513761
 21
208.9227616851
  0
LINE
  5
400
100
AcDbEntity
  8
0
100
AcDbLine
 62
7
  6
CONTINUOUS
 10
336.125302472
 20
208.3876031023
 11
336.125302472
 21
208.7157953278
  0
LINE
  5
401
100
AcDbEntity
  8
0
100
AcDbLine
 62
7
  6
CONTINUOUS
 10
336.125302472
 20
208.7617878516
 11
336.125302472
 21
208.9074308365
  0
LINE
  5
402
100
AcDbEntity
  8
0
100
AcDbLine
 62
7
  6
CONTINUOUS
 10
336.125302472
 20
209.3275689094
 11
336.125302472
 21
209.5743224102
  0
LINE
  5
403
100
AcDbEntity
  8
0
100
AcDbLine
 62
7
  6
CONTINUOUS
 10
336.3125364922
 20
208.7847841136
 11
336.3125364922
 21
208.8844345746
  0
LINE
  5
404
100
AcDbEntity
  8
0
100
AcDbLine
 62
7
  6
CONTINUOUS
 10
336.4061535024
 20
208.8614383236
 11
336.4061535024
 21
208.8077803755
  0
LINE
  5
405
100
AcDbEntity
  8
0
100
AcDbLine
 62
7
  6
CONTINUOUS
 10
336.4061535024
 20
208.9304270984
 11
336.4061535024
 21
209.1143972157
  0
LINE
  5
406
100
AcDbEntity
  8
0
100
AcDbLine
 62
7
  6
CONTINUOUS
 10
336.4997705453
 20
208.4105993643
 11
336.4997705453
 21
208.7387915897
  0
LINE
  5
407
100
AcDbEntity
  8
0
100
AcDbLine
 62
7
  6
CONTINUOUS
 10
336.4997705453
 20
209.3129681102
 11
336.4997705453
 21
209.5896532807
  0
LINE
  5
408
100
AcDbEntity
  8
0
100
AcDbLine
 62
7
  6
CONTINUOUS
 10
336.6870045819
 20
209.3056677106
 11
336.6870045819
 21
209.6126495426
  0
LINE
  5
409
100
AcDbEntity
  8
0
100
AcDbLine
 62
7
  6
CONTINUOUS
 10
336.7806216002
 20
208.4489264693
 11
336.7806216002
 21
208.7771186948
  0
LINE
  5
40A
100
AcDbEntity
  8
0
100
AcDbLine
 62
7
  6
CONTINUOUS
 10
336.7806216002
 20
209.3074535791
 11
336.7806216002
 21
209.6356458046
  0
LINE
  5
40B
100
AcDbEntity
  8
0
100
AcDbLine
 62
7
  6
CONTINUOUS
 10
336.8742386185
 20
208.4872535743
 11
336.8742386185
 21
208.8537728993
  0
LINE
  5
40C
100
AcDbEntity
  8
0
100
AcDbLine
 62
7
  6
CONTINUOUS
 10
336.8742386185
 20
209.0934915228
 11
336.8742386185
 21
209.298367311
  0
LINE
  5
40D
100
AcDbEntity
  8
0
100
AcDbLine
 62
7
  6
CONTINUOUS
 10
336.8742386185
 20
209.3534461029
 11
336.8742386185
 21
209.6816383284
  0
LINE
  5
40E
100
AcDbEntity
  8
0
100
AcDbLine
 62
7
  6
CONTINUOUS
 10
337.4359407448
 20
208.7018853559
 11
337.4359407448
 21
209.0684046919
  0
LINE
  5
40F
100
AcDbEntity
  8
0
100
AcDbLine
 62
7
  6
CONTINUOUS
 10
326.0678556286
 20
210.1723994634
 11
325.9742386185
 21
210.1244905479
  0
LINE
  5
410
100
AcDbEntity
  8
0
100
AcDbLine
 62
7
  6
CONTINUOUS
 10
326.0678556286
 20
209.7699648799
 11
325.9742386185
 21
209.7220559643
  0
LINE
  5
411
100
AcDbEntity
  8
0
100
AcDbLine
 62
7
  6
CONTINUOUS
 10
326.0678556286
 20
209.3292031748
 11
325.9742386185
 21
209.2812943141
  0
LINE
  5
412
100
AcDbEntity
  8
RUNDUNGEN
100
AcDbLine
 62
7
  6
CONTINUOUS
 10
340.4542386185
 20
270.884284738
 11
340.4542386185
 21
208.3862786959
  0
LINE
  5
413
100
AcDbEntity
  8
KONSTRUKTIONSELEMENTE
100
AcDbLine
 62
7
  6
CONTINUOUS
 10
341.4542386185
 20
170.7552661716
 11
341.4542386185
 21
176.7552661716
  0
LINE
  5
414
100
AcDbEntity
  8
RUNDUNGEN
100
AcDbLine
 62
7
  6
CONTINUOUS
 10
287.8292386185
 20
182.5491227917
 11
304.726301367
 21
192.3046465181
  0
LINE
  5
415
100
AcDbEntity
  8
0
100
AcDbLine
 62
7
  6
CONTINUOUS
 10
327.9401960932
 20
210.1819812027
 11
327.8465790831
 21
210.1340723968
  0
LINE
  5
416
100
AcDbEntity
  8
0
100
AcDbLine
 62
7
  6
CONTINUOUS
 10
330.2806216002
 20
210.0095092383
 11
330.3742386185
 21
210.0574181539
  0
LINE
  5
417
100
AcDbEntity
  8
0
100
AcDbLine
 62
7
  6
CONTINUOUS
 10
328.4082811438
 20
210.1340723968
 11
328.5018981539
 21
210.1723994634
  0
LINE
  5
418
100
AcDbEntity
  8
0
100
AcDbLine
 62
7
  6
CONTINUOUS
 10
328.3146641337
 20
210.0382545657
 11
328.4082811438
 21
210.076581742
  0
LINE
  5
419
100
AcDbEntity
  8
0
100
AcDbLine
 62
7
  6
CONTINUOUS
 10
328.4587394581
 20
209.8265379468
 11
328.5018981539
 21
209.844207238
  0
LINE
  5
41A
100
AcDbEntity
  8
0
100
AcDbLine
 62
7
  6
CONTINUOUS
 10
329.8125364922
 20
210.0574181539
 11
329.7189194821
 21
210.0190910872
  0
LINE
  5
41B
100
AcDbEntity
  8
0
100
AcDbLine
 62
7
  6
CONTINUOUS
 10
332.5678556286
 20
208.8844345746
 11
332.4742386185
 21
208.846107475
  0
LINE
  5
41C
100
AcDbEntity
  8
0
100
AcDbLine
 62
7
  6
CONTINUOUS
 10
334.1593450629
 20
208.8921000098
 11
334.0657280527
 21
208.8537728993
  0
LINE
  5
41D
100
AcDbEntity
  8
0
100
AcDbLine
 62
7
  6
CONTINUOUS
 10
336.4997705453
 20
209.6816383284
 11
336.4061535024
 21
209.643311196
  0
LINE
  5
41E
100
AcDbEntity
  8
0
100
AcDbLine
 62
7
  6
CONTINUOUS
 10
326.5359406792
 20
210.1340723968
 11
326.6295576893
 21
210.1628177242
  0
LINE
  5
41F
100
AcDbEntity
  8
0
100
AcDbLine
 62
7
  6
CONTINUOUS
 10
326.5359406792
 20
209.7316378132
 11
326.6295576893
 21
209.7603831406
  0
LINE
  5
420
100
AcDbEntity
  8
0
100
AcDbLine
 62
7
  6
CONTINUOUS
 10
327.8465790831
 20
210.076581742
 11
327.752962073
 21
210.0478364146
  0
LINE
  5
421
100
AcDbEntity
  8
0
100
AcDbLine
 62
7
  6
CONTINUOUS
 10
326.4423236691
 20
209.2908761082
 11
326.5359406792
 21
209.3196214356
  0
LINE
  5
422
100
AcDbEntity
  8
0
100
AcDbLine
 62
7
  6
CONTINUOUS
 10
328.4082811438
 20
209.7316378132
 11
328.5018981539
 21
209.7603831406
  0
LINE
  5
423
100
AcDbEntity
  8
0
100
AcDbLine
 62
7
  6
CONTINUOUS
 10
336.7806216002
 20
209.6356458046
 11
336.8742386185
 21
209.6816383284
  0
LINE
  5
424
100
AcDbEntity
  8
0
100
AcDbLine
 62
7
  6
CONTINUOUS
 10
336.7806216002
 20
209.3074535791
 11
336.8742386185
 21
209.3534461029
  0
LINE
  5
425
100
AcDbEntity
  8
0
100
AcDbLine
 62
7
  6
CONTINUOUS
 10
336.7806216002
 20
208.7771186948
 11
336.8742386185
 21
208.8154457998
  0
LINE
  5
426
100
AcDbEntity
  8
0
100
AcDbLine
 62
7
  6
CONTINUOUS
 10
336.7806216002
 20
208.4489264693
 11
336.8742386185
 21
208.4872535743
  0
LINE
  5
427
100
AcDbEntity
  8
RUNDUNGEN
100
AcDbLine
 62
7
  6
CONTINUOUS
 10
355.7542386185
 20
170.7552661716
 11
355.7542386185
 21
172.8477394962
  0
LINE
  5
428
100
AcDbEntity
  8
B-ACHSEN
100
AcDbLine
 62
7
  6
CONTINUOUS
 10
374.4542386185
 20
180.1675529313
 11
374.4542386185
 21
170.7552661716
  0
LINE
  5
429
100
AcDbEntity
  8
RUNDUNGEN
100
AcDbLine
 62
7
  6
CONTINUOUS
 10
374.4542386185
 20
180.1675529313
 11
374.4542386185
 21
170.7552661716
  0
LINE
  5
42A
100
AcDbEntity
  8
BEZUGSACHSEN
100
AcDbLine
 62
7
  6
CONTINUOUS
 10
323.4542386185
 20
273.8845012703
 11
337.4542386185
 21
273.8845012703
  0
LINE
  5
42B
100
AcDbEntity
  8
RUNDUNGEN
100
AcDbLine
 62
7
  6
CONTINUOUS
 10
72.5250290698
 20
60.362994186
 11
72.5250290698
 21
110.962994186
  0
LINE
  5
42C
100
AcDbEntity
  8
RUNDUNGEN
100
AcDbLine
 62
7
  6
CONTINUOUS
 10
89.6141163663
 20
128.0520814826
 11
72.5250290698
 21
110.962994186
  0
LINE
  5
42D
100
AcDbEntity
  8
RUNDUNGEN
100
AcDbLine
 62
7
  6
CONTINUOUS
 10
89.6141163663
 20
43.2739068895
 11
72.5250290698
 21
60.362994186
  0
LINE
  5
42E
100
AcDbEntity
  8
0
100
AcDbLine
 62
7
  6
CONTINUOUS
 10
89.850676296
 20
81.7706537215
 11
89.850676296
 21
81.1153346506
  0
LINE
  5
42F
100
AcDbEntity
  8
0
100
AcDbLine
 62
7
  6
CONTINUOUS
 10
90.2153343156
 20
81.5834197012
 11
90.2153343156
 21
81.7706537215
  0
LINE
  5
430
100
AcDbEntity
  8
0
100
AcDbLine
 62
7
  6
CONTINUOUS
 10
90.2498287085
 20
81.6129383322
 11
90.2498287085
 21
81.7706537215
  0
LINE
  5
431
100
AcDbEntity
  8
0
100
AcDbLine
 62
7
  6
CONTINUOUS
 10
90.2882659299
 20
80.5536324588
 11
90.2882659299
 21
80.8344834892
  0
LINE
  5
432
100
AcDbEntity
  8
0
100
AcDbLine
 62
7
  6
CONTINUOUS
 10
90.3227603228
 20
80.5536324588
 11
90.3227603228
 21
80.8344834892
  0
LINE
  5
433
100
AcDbEntity
  8
0
100
AcDbLine
 62
7
  6
CONTINUOUS
 10
92.1115560019
 20
80.8344834892
 11
92.1115560019
 21
80.5536324588
  0
LINE
  5
434
100
AcDbEntity
  8
0
100
AcDbLine
 62
7
  6
CONTINUOUS
 10
92.4762140997
 20
80.4600154487
 11
92.4762140997
 21
80.9281006304
  0
LINE
  5
435
100
AcDbEntity
  8
0
100
AcDbLine
 62
7
  6
CONTINUOUS
 10
92.5107084926
 20
80.4600154487
 11
92.5107084926
 21
80.9281006304
  0
LINE
  5
436
100
AcDbEntity
  8
0
100
AcDbLine
 62
7
  6
CONTINUOUS
 10
93.2618863971
 20
90.142994186
 11
93.2618863971
 21
85.742994186
  0
LINE
  5
437
100
AcDbEntity
  8
0
100
AcDbLine
 62
7
  6
CONTINUOUS
 10
93.8088734395
 20
85.742994186
 11
93.8088734395
 21
87.7089516608
  0
LINE
  5
438
100
AcDbEntity
  8
0
100
AcDbLine
 62
7
  6
CONTINUOUS
 10
93.8088734395
 20
88.2706537215
 11
93.8088734395
 21
89.6749091355
  0
LINE
  5
439
100
AcDbEntity
  8
0
100
AcDbLine
 62
7
  6
CONTINUOUS
 10
93.8433678324
 20
85.742994186
 11
93.8433678324
 21
87.7089516608
  0
LINE
  5
43A
100
AcDbEntity
  8
0
100
AcDbLine
 62
7
  6
CONTINUOUS
 10
93.8433678324
 20
88.2706537215
 11
93.8433678324
 21
89.6749091355
  0
LINE
  5
43B
100
AcDbEntity
  8
0
100
AcDbLine
 62
7
  6
CONTINUOUS
 10
94.4453674526
 20
83.642994186
 11
94.4453674526
 21
83.1749091355
  0
LINE
  5
43C
100
AcDbEntity
  8
0
100
AcDbLine
 62
7
  6
CONTINUOUS
 10
89.9236079038
 20
82.4259727923
 11
89.850676296
 21
81.7706537215
  0
LINE
  5
43D
100
AcDbEntity
  8
0
100
AcDbLine
 62
7
  6
CONTINUOUS
 10
90.2153343156
 20
81.7706537215
 11
90.2882659299
 21
82.3323557822
  0
LINE
  5
43E
100
AcDbEntity
  8
0
100
AcDbLine
 62
7
  6
CONTINUOUS
 10
90.2498287085
 20
81.7706537215
 11
90.3227603228
 21
82.3323557822
  0
LINE
  5
43F
100
AcDbEntity
  8
0
100
AcDbLine
 62
7
  6
CONTINUOUS
 10
90.2882659299
 20
82.3323557822
 11
90.3611975182
 21
82.6132070748
  0
LINE
  5
440
100
AcDbEntity
  8
0
100
AcDbLine
 62
7
  6
CONTINUOUS
 10
90.3227603228
 20
82.3323557822
 11
90.3956919111
 21
82.6132070748
  0
LINE
  5
441
100
AcDbEntity
  8
0
100
AcDbLine
 62
7
  6
CONTINUOUS
 10
90.2882659299
 20
80.8344834892
 11
90.3611975182
 21
81.1153346506
  0
LINE
  5
442
100
AcDbEntity
  8
0
100
AcDbLine
 62
7
  6
CONTINUOUS
 10
90.3227603228
 20
80.8344834892
 11
90.3956919111
 21
81.1153346506
  0
LINE
  5
443
100
AcDbEntity
  8
0
100
AcDbLine
 62
7
  6
CONTINUOUS
 10
90.0694711129
 20
82.8940581051
 11
89.9236079038
 21
82.4259727923
  0
LINE
  5
444
100
AcDbEntity
  8
0
100
AcDbLine
 62
7
  6
CONTINUOUS
 10
91.0739382273
 20
85.742994186
 11
92.5325702535
 21
90.142994186
  0
LINE
  5
445
100
AcDbEntity
  8
0
100
AcDbLine
 62
7
  6
CONTINUOUS
 10
91.1084326201
 20
85.742994186
 11
92.5670646464
 21
90.142994186
  0
LINE
  5
446
100
AcDbEntity
  8
0
100
AcDbLine
 62
7
  6
CONTINUOUS
 10
91.9855832111
 20
90.142994186
 11
90.7092801555
 21
86.3046963123
  0
LINE
  5
447
100
AcDbEntity
  8
0
100
AcDbLine
 62
7
  6
CONTINUOUS
 10
90.7092801555
 20
86.3046963123
 11
89.4329770999
 21
90.142994186
  0
LINE
  5
448
100
AcDbEntity
  8
0
100
AcDbLine
 62
7
  6
CONTINUOUS
 10
90.7265273519
 20
86.356564775
 11
89.4674714928
 21
90.142994186
  0
LINE
  5
449
100
AcDbEntity
  8
0
100
AcDbLine
 62
7
  6
CONTINUOUS
 10
88.8859900575
 20
90.142994186
 11
90.3446222141
 21
85.742994186
  0
LINE
  5
44A
100
AcDbEntity
  8
0
100
AcDbLine
 62
7
  6
CONTINUOUS
 10
89.9236079038
 20
80.4600154487
 11
90.0694711129
 21
79.9919303325
  0
LINE
  5
44B
100
AcDbEntity
  8
0
100
AcDbLine
 62
7
  6
CONTINUOUS
 10
92.4762140997
 20
80.9281006304
 11
92.3303508189
 21
81.396185681
  0
LINE
  5
44C
100
AcDbEntity
  8
0
100
AcDbLine
 62
7
  6
CONTINUOUS
 10
92.5107084926
 20
80.9281006304
 11
92.3648452117
 21
81.396185681
  0
LINE
  5
44D
100
AcDbEntity
  8
0
100
AcDbLine
 62
7
  6
CONTINUOUS
 10
90.3611975182
 20
80.2727814285
 11
90.2882659299
 21
80.5536324588
  0
LINE
  5
44E
100
AcDbEntity
  8
0
100
AcDbLine
 62
7
  6
CONTINUOUS
 10
90.3956919111
 20
80.2727814285
 11
90.3227603228
 21
80.5536324588
  0
LINE
  5
44F
100
AcDbEntity
  8
0
100
AcDbLine
 62
7
  6
CONTINUOUS
 10
92.0386244658
 20
81.1153346506
 11
92.1115560019
 21
80.8344834892
  0
LINE
  5
450
100
AcDbEntity
  8
0
100
AcDbLine
 62
7
  6
CONTINUOUS
 10
92.3303508189
 20
82.6132070748
 11
92.2574192828
 21
82.8940581051
  0
LINE
  5
451
100
AcDbEntity
  8
0
100
AcDbLine
 62
7
  6
CONTINUOUS
 10
92.3648452117
 20
82.6132070748
 11
92.2919136756
 21
82.8940581051
  0
LINE
  5
452
100
AcDbEntity
  8
0
100
AcDbLine
 62
7
  6
CONTINUOUS
 10
89.850676296
 20
81.1153346506
 11
89.9236079038
 21
80.4600154487
  0
LINE
  5
453
100
AcDbEntity
  8
0
100
AcDbLine
 62
7
  6
CONTINUOUS
 10
96.0879862903
 20
89.1132070748
 11
96.0879862903
 21
88.8323557822
  0
LINE
  5
454
100
AcDbEntity
  8
0
100
AcDbLine
 62
7
  6
CONTINUOUS
 10
96.6349733328
 20
88.738738772
 11
96.6349733328
 21
89.1132070748
  0
LINE
  5
455
100
AcDbEntity
  8
0
100
AcDbLine
 62
7
  6
CONTINUOUS
 10
96.6694677256
 20
88.738738772
 11
96.6694677256
 21
89.1132070748
  0
LINE
  5
456
100
AcDbEntity
  8
0
100
AcDbLine
 62
7
  6
CONTINUOUS
 10
97.0709052563
 20
83.1749091355
 11
97.0709052563
 21
83.642994186
  0
LINE
  5
457
100
AcDbEntity
  8
0
100
AcDbLine
 62
7
  6
CONTINUOUS
 10
97.1053996492
 20
83.1749091355
 11
97.1053996492
 21
83.642994186
  0
LINE
  5
458
100
AcDbEntity
  8
0
100
AcDbLine
 62
7
  6
CONTINUOUS
 10
97.4554538964
 20
90.142994186
 11
97.4554538964
 21
85.742994186
  0
LINE
  5
459
100
AcDbEntity
  8
0
100
AcDbLine
 62
7
  6
CONTINUOUS
 10
97.6543583798
 20
82.238738772
 11
97.6543583798
 21
81.8642707316
  0
LINE
  5
45A
100
AcDbEntity
  8
0
100
AcDbLine
 62
7
  6
CONTINUOUS
 10
98.0024404172
 20
86.3046963123
 11
98.0024404172
 21
87.7089516608
  0
LINE
  5
45B
100
AcDbEntity
  8
0
100
AcDbLine
 62
7
  6
CONTINUOUS
 10
98.0024404172
 20
88.2706537215
 11
98.0024404172
 21
89.5812921253
  0
LINE
  5
45C
100
AcDbEntity
  8
0
100
AcDbLine
 62
7
  6
CONTINUOUS
 10
98.0369348101
 20
86.3046963123
 11
98.0369348101
 21
87.7089516608
  0
LINE
  5
45D
100
AcDbEntity
  8
0
100
AcDbLine
 62
7
  6
CONTINUOUS
 10
98.0369348101
 20
88.2706537215
 11
98.0369348101
 21
89.5812921253
  0
LINE
  5
45E
100
AcDbEntity
  8
0
100
AcDbLine
 62
7
  6
CONTINUOUS
 10
98.2378106687
 20
82.9876751152
 11
98.2378106687
 21
82.238738772
  0
LINE
  5
45F
100
AcDbEntity
  8
0
100
AcDbLine
 62
7
  6
CONTINUOUS
 10
98.2378106687
 20
81.8642707316
 11
98.2378106687
 21
79.9919303325
  0
LINE
  5
460
100
AcDbEntity
  8
0
100
AcDbLine
 62
7
  6
CONTINUOUS
 10
98.6024689752
 20
80.1791644183
 11
98.6024689752
 21
81.8642707316
  0
LINE
  5
461
100
AcDbEntity
  8
0
100
AcDbLine
 62
7
  6
CONTINUOUS
 10
98.6024689752
 20
82.238738772
 11
98.6024689752
 21
82.9876751152
  0
LINE
  5
462
100
AcDbEntity
  8
0
100
AcDbLine
 62
7
  6
CONTINUOUS
 10
98.6369633681
 20
80.1791644183
 11
98.6369633681
 21
81.8642707316
  0
LINE
  5
463
100
AcDbEntity
  8
0
100
AcDbLine
 62
7
  6
CONTINUOUS
 10
98.6369633681
 20
82.238738772
 11
98.6369633681
 21
82.9876751152
  0
LINE
  5
464
100
AcDbEntity
  8
0
100
AcDbLine
 62
7
  6
CONTINUOUS
 10
99.2588534261
 20
79.242994186
 11
99.2588534261
 21
79.6174622593
  0
LINE
  5
465
100
AcDbEntity
  8
0
100
AcDbLine
 62
7
  6
CONTINUOUS
 10
99.293347819
 20
79.242994186
 11
99.293347819
 21
79.6174622593
  0
LINE
  5
466
100
AcDbEntity
  8
0
100
AcDbLine
 62
7
  6
CONTINUOUS
 10
99.4047169157
 20
81.8642707316
 11
99.4047169157
 21
82.238738772
  0
LINE
  5
467
100
AcDbEntity
  8
0
100
AcDbLine
 62
7
  6
CONTINUOUS
 10
99.4392113086
 20
81.8642707316
 11
99.4392113086
 21
82.238738772
  0
LINE
  5
468
100
AcDbEntity
  8
0
100
AcDbLine
 62
7
  6
CONTINUOUS
 10
100.2815537897
 20
89.0195898024
 11
100.2815537897
 21
88.8323557822
  0
LINE
  5
469
100
AcDbEntity
  8
0
100
AcDbLine
 62
7
  6
CONTINUOUS
 10
100.2815537897
 20
87.1472494689
 11
100.2815537897
 21
86.8663984386
  0
LINE
  5
46A
100
AcDbEntity
  8
0
100
AcDbLine
 62
7
  6
CONTINUOUS
 10
100.8285408321
 20
86.7727814285
 11
100.8285408321
 21
87.240866479
  0
LINE
  5
46B
100
AcDbEntity
  8
0
100
AcDbLine
 62
7
  6
CONTINUOUS
 10
100.8285408321
 20
88.738738772
 11
100.8285408321
 21
89.1132070748
  0
LINE
  5
46C
100
AcDbEntity
  8
0
100
AcDbLine
 62
7
  6
CONTINUOUS
 10
100.863035225
 20
86.7727814285
 11
100.863035225
 21
87.240866479
  0
LINE
  5
46D
100
AcDbEntity
  8
0
100
AcDbLine
 62
7
  6
CONTINUOUS
 10
100.863035225
 20
88.738738772
 11
100.863035225
 21
89.1132070748
  0
LINE
  5
46E
100
AcDbEntity
  8
0
100
AcDbLine
 62
7
  6
CONTINUOUS
 10
92.1115560019
 20
80.5536324588
 11
92.0386244658
 21
80.2727814285
  0
LINE
  5
46F
100
AcDbEntity
  8
0
100
AcDbLine
 62
7
  6
CONTINUOUS
 10
92.3303508189
 20
79.9919303325
 11
92.4762140997
 21
80.4600154487
  0
LINE
  5
470
100
AcDbEntity
  8
0
100
AcDbLine
 62
7
  6
CONTINUOUS
 10
92.3648452117
 20
79.9919303325
 11
92.5107084926
 21
80.4600154487
  0
LINE
  5
471
100
AcDbEntity
  8
0
100
AcDbLine
 62
7
  6
CONTINUOUS
 10
96.0879862903
 20
88.8323557822
 11
95.9968216093
 21
88.5515047518
  0
LINE
  5
472
100
AcDbEntity
  8
0
100
AcDbLine
 62
7
  6
CONTINUOUS
 10
96.5438086518
 20
88.4578877417
 11
96.6349733328
 21
88.738738772
  0
LINE
  5
473
100
AcDbEntity
  8
0
100
AcDbLine
 62
7
  6
CONTINUOUS
 10
96.5783030447
 20
88.4578877417
 11
96.6694677256
 21
88.738738772
  0
LINE
  5
474
100
AcDbEntity
  8
0
100
AcDbLine
 62
7
  6
CONTINUOUS
 10
93.4972564399
 20
79.7110793022
 11
93.0596670146
 21
78.6812920598
  0
LINE
  5
475
100
AcDbEntity
  8
0
100
AcDbLine
 62
7
  6
CONTINUOUS
 10
90.3611975182
 20
82.6132070748
 11
90.5070607469
 21
82.8940581051
  0
LINE
  5
476
100
AcDbEntity
  8
0
100
AcDbLine
 62
7
  6
CONTINUOUS
 10
90.3956919111
 20
82.6132070748
 11
90.5415551398
 21
82.8940581051
  0
LINE
  5
477
100
AcDbEntity
  8
0
100
AcDbLine
 62
7
  6
CONTINUOUS
 10
90.2882659299
 20
83.2685261456
 11
90.0694711129
 21
82.8940581051
  0
LINE
  5
478
100
AcDbEntity
  8
0
100
AcDbLine
 62
7
  6
CONTINUOUS
 10
90.0694711129
 20
79.9919303325
 11
90.2882659299
 21
79.6174622593
  0
LINE
  5
479
100
AcDbEntity
  8
0
100
AcDbLine
 62
7
  6
CONTINUOUS
 10
92.2574192828
 20
82.8940581051
 11
92.0386244658
 21
83.2685261456
  0
LINE
  5
47A
100
AcDbEntity
  8
0
100
AcDbLine
 62
7
  6
CONTINUOUS
 10
92.2919136756
 20
82.8940581051
 11
92.0731188587
 21
83.2685261456
  0
LINE
  5
47B
100
AcDbEntity
  8
0
100
AcDbLine
 62
7
  6
CONTINUOUS
 10
90.5070607469
 20
79.9919303325
 11
90.3611975182
 21
80.2727814285
  0
LINE
  5
47C
100
AcDbEntity
  8
0
100
AcDbLine
 62
7
  6
CONTINUOUS
 10
90.5415551398
 20
79.9919303325
 11
90.3956919111
 21
80.2727814285
  0
LINE
  5
47D
100
AcDbEntity
  8
0
100
AcDbLine
 62
7
  6
CONTINUOUS
 10
91.8198296488
 20
82.8940581051
 11
91.9656929297
 21
82.6132070748
  0
LINE
  5
47E
100
AcDbEntity
  8
0
100
AcDbLine
 62
7
  6
CONTINUOUS
 10
98.2378106687
 20
79.9919303325
 11
98.3836741582
 21
79.6174622593
  0
LINE
  5
47F
100
AcDbEntity
  8
0
100
AcDbLine
 62
7
  6
CONTINUOUS
 10
96.7261374921
 20
85.742994186
 11
95.9056569284
 21
87.896185681
  0
LINE
  5
480
100
AcDbEntity
  8
0
100
AcDbLine
 62
7
  6
CONTINUOUS
 10
96.7606318849
 20
85.742994186
 11
95.9401513213
 21
87.896185681
  0
LINE
  5
481
100
AcDbEntity
  8
0
100
AcDbLine
 62
7
  6
CONTINUOUS
 10
95.3586698859
 20
87.7089516608
 11
96.0879862903
 21
85.742994186
  0
LINE
  5
482
100
AcDbEntity
  8
0
100
AcDbLine
 62
7
  6
CONTINUOUS
 10
95.9968216093
 20
89.3940581051
 11
96.0879862903
 21
89.1132070748
  0
LINE
  5
483
100
AcDbEntity
  8
0
100
AcDbLine
 62
7
  6
CONTINUOUS
 10
96.6349733328
 20
89.1132070748
 11
96.5438086518
 21
89.3940581051
  0
LINE
  5
484
100
AcDbEntity
  8
0
100
AcDbLine
 62
7
  6
CONTINUOUS
 10
96.6694677256
 20
89.1132070748
 11
96.5783030447
 21
89.3940581051
  0
LINE
  5
485
100
AcDbEntity
  8
0
100
AcDbLine
 62
7
  6
CONTINUOUS
 10
98.6754003027
 20
79.8983133224
 11
98.6024689752
 21
80.1791644183
  0
LINE
  5
486
100
AcDbEntity
  8
0
100
AcDbLine
 62
7
  6
CONTINUOUS
 10
98.7098946955
 20
79.8983133224
 11
98.6369633681
 21
80.1791644183
  0
LINE
  5
487
100
AcDbEntity
  8
0
100
AcDbLine
 62
7
  6
CONTINUOUS
 10
101.8313497144
 20
89.1132070748
 11
101.8313497144
 21
88.738738772
  0
LINE
  5
488
100
AcDbEntity
  8
0
100
AcDbLine
 62
7
  6
CONTINUOUS
 10
102.3783367569
 20
88.8323557822
 11
102.3783367569
 21
89.0195898024
  0
LINE
  5
489
100
AcDbEntity
  8
0
100
AcDbLine
 62
7
  6
CONTINUOUS
 10
102.4128311497
 20
88.8323557822
 11
102.4128311497
 21
89.0195898024
  0
LINE
  5
48A
100
AcDbEntity
  8
0
100
AcDbLine
 62
7
  6
CONTINUOUS
 10
104.383956608
 20
87.1472494689
 11
104.383956608
 21
86.8663984386
  0
LINE
  5
48B
100
AcDbEntity
  8
0
100
AcDbLine
 62
7
  6
CONTINUOUS
 10
104.9309436505
 20
86.7727814285
 11
104.9309436505
 21
87.240866479
  0
LINE
  5
48C
100
AcDbEntity
  8
0
100
AcDbLine
 62
7
  6
CONTINUOUS
 10
104.9654380434
 20
86.7727814285
 11
104.9654380434
 21
87.240866479
  0
LINE
  5
48D
100
AcDbEntity
  8
0
100
AcDbLine
 62
7
  6
CONTINUOUS
 10
101.922514917
 20
89.4876751152
 11
101.8313497144
 21
89.1132070748
  0
LINE
  5
48E
100
AcDbEntity
  8
0
100
AcDbLine
 62
7
  6
CONTINUOUS
 10
100.2815537897
 20
88.8323557822
 11
100.190388587
 21
88.5515047518
  0
LINE
  5
48F
100
AcDbEntity
  8
0
100
AcDbLine
 62
7
  6
CONTINUOUS
 10
100.7373756295
 20
88.4578877417
 11
100.8285408321
 21
88.738738772
  0
LINE
  5
490
100
AcDbEntity
  8
0
100
AcDbLine
 62
7
  6
CONTINUOUS
 10
100.7718700224
 20
88.4578877417
 11
100.863035225
 21
88.738738772
  0
LINE
  5
491
100
AcDbEntity
  8
0
100
AcDbLine
 62
7
  6
CONTINUOUS
 10
100.2815537897
 20
86.8663984386
 11
100.190388587
 21
86.5855474082
  0
LINE
  5
492
100
AcDbEntity
  8
0
100
AcDbLine
 62
7
  6
CONTINUOUS
 10
100.7373756295
 20
86.4919303325
 11
100.8285408321
 21
86.7727814285
  0
LINE
  5
493
100
AcDbEntity
  8
0
100
AcDbLine
 62
7
  6
CONTINUOUS
 10
100.7718700224
 20
86.4919303325
 11
100.863035225
 21
86.7727814285
  0
LINE
  5
494
100
AcDbEntity
  8
0
100
AcDbLine
 62
7
  6
CONTINUOUS
 10
102.3783367569
 20
89.0195898024
 11
102.4695019595
 21
89.300441095
  0
LINE
  5
495
100
AcDbEntity
  8
0
100
AcDbLine
 62
7
  6
CONTINUOUS
 10
102.4128311497
 20
89.0195898024
 11
102.5039963523
 21
89.300441095
  0
LINE
  5
496
100
AcDbEntity
  8
0
100
AcDbLine
 62
7
  6
CONTINUOUS
 10
96.6333156224
 20
83.1749091355
 11
95.1746836483
 21
79.242994186
  0
LINE
  5
497
100
AcDbEntity
  8
0
100
AcDbLine
 62
7
  6
CONTINUOUS
 10
95.6122732822
 20
79.242994186
 11
97.0709052563
 21
83.1749091355
  0
LINE
  5
498
100
AcDbEntity
  8
0
100
AcDbLine
 62
7
  6
CONTINUOUS
 10
95.6467676751
 20
79.242994186
 11
97.1053996492
 21
83.1749091355
  0
LINE
  5
499
100
AcDbEntity
  8
0
100
AcDbLine
 62
7
  6
CONTINUOUS
 10
93.4243251124
 20
78.6812920598
 11
93.8619147464
 21
79.7110793022
  0
LINE
  5
49A
100
AcDbEntity
  8
0
100
AcDbLine
 62
7
  6
CONTINUOUS
 10
93.4588195053
 20
78.6812920598
 11
93.8964091393
 21
79.7110793022
  0
LINE
  5
49B
100
AcDbEntity
  8
0
100
AcDbLine
 62
7
  6
CONTINUOUS
 10
92.0386244658
 20
80.2727814285
 11
91.8927611849
 21
79.9919303325
  0
LINE
  5
49C
100
AcDbEntity
  8
0
100
AcDbLine
 62
7
  6
CONTINUOUS
 10
92.1115560019
 20
79.6174622593
 11
92.3303508189
 21
79.9919303325
  0
LINE
  5
49D
100
AcDbEntity
  8
0
100
AcDbLine
 62
7
  6
CONTINUOUS
 10
92.1460503948
 20
79.6174622593
 11
92.3648452117
 21
79.9919303325
  0
LINE
  5
49E
100
AcDbEntity
  8
0
100
AcDbLine
 62
7
  6
CONTINUOUS
 10
96.2703151306
 20
88.0834197012
 11
96.5438086518
 21
88.4578877417
  0
LINE
  5
49F
100
AcDbEntity
  8
0
100
AcDbLine
 62
7
  6
CONTINUOUS
 10
96.3048095234
 20
88.0834197012
 11
96.5783030447
 21
88.4578877417
  0
LINE
  5
4A0
100
AcDbEntity
  8
0
100
AcDbLine
 62
7
  6
CONTINUOUS
 10
91.8927611849
 20
81.3025686709
 11
92.0386244658
 21
81.1153346506
  0
LINE
  5
4A1
100
AcDbEntity
  8
0
100
AcDbLine
 62
7
  6
CONTINUOUS
 10
92.3303508189
 20
81.396185681
 11
92.1115560019
 21
81.6770367113
  0
LINE
  5
4A2
100
AcDbEntity
  8
0
100
AcDbLine
 62
7
  6
CONTINUOUS
 10
92.3648452117
 20
81.396185681
 11
92.1460503948
 21
81.6770367113
  0
LINE
  5
4A3
100
AcDbEntity
  8
0
100
AcDbLine
 62
7
  6
CONTINUOUS
 10
100.190388587
 20
87.4281006304
 11
100.2815537897
 21
87.1472494689
  0
LINE
  5
4A4
100
AcDbEntity
  8
0
100
AcDbLine
 62
7
  6
CONTINUOUS
 10
100.8285408321
 20
87.240866479
 11
100.7373756295
 21
87.5217176405
  0
LINE
  5
4A5
100
AcDbEntity
  8
0
100
AcDbLine
 62
7
  6
CONTINUOUS
 10
100.190388587
 20
89.300441095
 11
100.2815537897
 21
89.0195898024
  0
LINE
  5
4A6
100
AcDbEntity
  8
0
100
AcDbLine
 62
7
  6
CONTINUOUS
 10
100.863035225
 20
87.240866479
 11
100.7718700224
 21
87.5217176405
  0
LINE
  5
4A7
100
AcDbEntity
  8
0
100
AcDbLine
 62
7
  6
CONTINUOUS
 10
100.8285408321
 20
89.1132070748
 11
100.7373756295
 21
89.3940581051
  0
LINE
  5
4A8
100
AcDbEntity
  8
0
100
AcDbLine
 62
7
  6
CONTINUOUS
 10
100.863035225
 20
89.1132070748
 11
100.7718700224
 21
89.3940581051
  0
LINE
  5
4A9
100
AcDbEntity
  8
0
100
AcDbLine
 62
7
  6
CONTINUOUS
 10
102.1960084382
 20
86.6791644183
 11
102.1048432356
 21
86.9600154487
  0
LINE
  5
4AA
100
AcDbEntity
  8
0
100
AcDbLine
 62
7
  6
CONTINUOUS
 10
102.2305028311
 20
86.6791644183
 11
102.1393376285
 21
86.9600154487
  0
LINE
  5
4AB
100
AcDbEntity
  8
0
100
AcDbLine
 62
7
  6
CONTINUOUS
 10
102.4695019595
 20
88.5515047518
 11
102.3783367569
 21
88.8323557822
  0
LINE
  5
4AC
100
AcDbEntity
  8
0
100
AcDbLine
 62
7
  6
CONTINUOUS
 10
102.5039963523
 20
88.5515047518
 11
102.4128311497
 21
88.8323557822
  0
LINE
  5
4AD
100
AcDbEntity
  8
0
100
AcDbLine
 62
7
  6
CONTINUOUS
 10
101.5578561932
 20
86.9600154487
 11
101.6490213958
 21
86.5855474082
  0
LINE
  5
4AE
100
AcDbEntity
  8
0
100
AcDbLine
 62
7
  6
CONTINUOUS
 10
101.8313497144
 20
88.738738772
 11
101.922514917
 21
88.3642707316
  0
LINE
  5
4AF
100
AcDbEntity
  8
RUNDUNGEN
100
AcDbLine
 62
7
  6
CONTINUOUS
 10
108.809964282
 20
105.606326067
 11
106.7991547572
 21
124.737900734
  0
LINE
  5
4B0
100
AcDbEntity
  8
BEZUGSACHSEN
100
AcDbLine
 62
7
  6
CONTINUOUS
 10
108.1198384141
 20
92.662994186
 11
108.1198384141
 21
78.662994186
  0
LINE
  5
4B1
100
AcDbEntity
  8
RUNDUNGEN
100
AcDbLine
 62
7
  6
CONTINUOUS
 10
108.8250290698
 20
105.318872793
 11
108.8250290698
 21
94.5928989146
  0
LINE
  5
4B2
100
AcDbEntity
  8
RUNDUNGEN
100
AcDbLine
 62
7
  6
CONTINUOUS
 10
108.8250290698
 20
66.0071155791
 11
108.8250290698
 21
76.7330894574
  0
LINE
  5
4B3
100
AcDbEntity
  8
RUNDUNGEN
100
AcDbLine
 62
7
  6
CONTINUOUS
 10
108.809964282
 20
65.7196623051
 11
106.7991547572
 21
46.5880876381
  0
LINE
  5
4B4
100
AcDbEntity
  8
0
100
AcDbLine
 62
7
  6
CONTINUOUS
 10
104.7486142886
 20
86.3983133224
 11
104.9309436505
 21
86.7727814285
  0
LINE
  5
4B5
100
AcDbEntity
  8
0
100
AcDbLine
 62
7
  6
CONTINUOUS
 10
104.7831086815
 20
86.3983133224
 11
104.9654380434
 21
86.7727814285
  0
LINE
  5
4B6
100
AcDbEntity
  8
0
100
AcDbLine
 62
7
  6
CONTINUOUS
 10
104.383956608
 20
86.8663984386
 11
104.2016272461
 21
86.5855474082
  0
LINE
  5
4B7
100
AcDbEntity
  8
0
100
AcDbLine
 62
7
  6
CONTINUOUS
 10
100.4638821083
 20
88.0834197012
 11
100.7373756295
 21
88.4578877417
  0
LINE
  5
4B8
100
AcDbEntity
  8
0
100
AcDbLine
 62
7
  6
CONTINUOUS
 10
100.4983765011
 20
88.0834197012
 11
100.7718700224
 21
88.4578877417
  0
LINE
  5
4B9
100
AcDbEntity
  8
0
100
AcDbLine
 62
7
  6
CONTINUOUS
 10
100.4638821083
 20
86.1174622593
 11
100.7373756295
 21
86.4919303325
  0
LINE
  5
4BA
100
AcDbEntity
  8
0
100
AcDbLine
 62
7
  6
CONTINUOUS
 10
100.4983765011
 20
86.1174622593
 11
100.7718700224
 21
86.4919303325
  0
LINE
  5
4BB
100
AcDbEntity
  8
0
100
AcDbLine
 62
7
  6
CONTINUOUS
 10
90.3611975182
 20
81.1153346506
 11
90.5070607469
 21
81.3025686709
  0
LINE
  5
4BC
100
AcDbEntity
  8
0
100
AcDbLine
 62
7
  6
CONTINUOUS
 10
90.3956919111
 20
81.1153346506
 11
90.5415551398
 21
81.3025686709
  0
LINE
  5
4BD
100
AcDbEntity
  8
0
100
AcDbLine
 62
7
  6
CONTINUOUS
 10
95.9968216093
 20
88.5515047518
 11
95.8144927691
 21
88.3642707316
  0
LINE
  5
4BE
100
AcDbEntity
  8
RUNDUNGEN
100
AcDbLine
 62
7
  6
CONTINUOUS
 10
101.3292843327
 20
41.662994186
 11
93.5032036628
 21
41.662994186
  0
LINE
  5
4BF
100
AcDbEntity
  8
RUNDUNGEN
100
AcDbLine
 62
7
  6
CONTINUOUS
 10
213.7207738068
 20
41.662994186
 11
221.5468544767
 21
41.662994186
  0
LINE
  5
4C0
100
AcDbEntity
  8
0
100
AcDbLine
 62
7
  6
CONTINUOUS
 10
90.2882659299
 20
79.6174622593
 11
90.6529239756
 21
79.3366112044
  0
LINE
  5
4C1
100
AcDbEntity
  8
0
100
AcDbLine
 62
7
  6
CONTINUOUS
 10
90.7258555639
 20
79.8046963123
 11
90.5070607469
 21
79.9919303325
  0
LINE
  5
4C2
100
AcDbEntity
  8
0
100
AcDbLine
 62
7
  6
CONTINUOUS
 10
90.7603499568
 20
79.8046963123
 11
90.5415551398
 21
79.9919303325
  0
LINE
  5
4C3
100
AcDbEntity
  8
0
100
AcDbLine
 62
7
  6
CONTINUOUS
 10
91.6739663679
 20
81.4898026911
 11
91.8927611849
 21
81.3025686709
  0
LINE
  5
4C4
100
AcDbEntity
  8
0
100
AcDbLine
 62
7
  6
CONTINUOUS
 10
91.6010348318
 20
83.0812921253
 11
91.8198296488
 21
82.8940581051
  0
LINE
  5
4C5
100
AcDbEntity
  8
0
100
AcDbLine
 62
7
  6
CONTINUOUS
 10
96.5438086518
 20
89.3940581051
 11
96.2703151306
 21
89.7685261456
  0
LINE
  5
4C6
100
AcDbEntity
  8
0
100
AcDbLine
 62
7
  6
CONTINUOUS
 10
96.5783030447
 20
89.3940581051
 11
96.3048095234
 21
89.7685261456
  0
LINE
  5
4C7
100
AcDbEntity
  8
0
100
AcDbLine
 62
7
  6
CONTINUOUS
 10
100.7373756295
 20
87.5217176405
 11
100.4638821083
 21
87.896185681
  0
LINE
  5
4C8
100
AcDbEntity
  8
0
100
AcDbLine
 62
7
  6
CONTINUOUS
 10
100.7718700224
 20
87.5217176405
 11
100.4983765011
 21
87.896185681
  0
LINE
  5
4C9
100
AcDbEntity
  8
0
100
AcDbLine
 62
7
  6
CONTINUOUS
 10
101.6490213958
 20
86.5855474082
 11
101.922514917
 21
86.1174622593
  0
LINE
  5
4CA
100
AcDbEntity
  8
0
100
AcDbLine
 62
7
  6
CONTINUOUS
 10
104.9309436505
 20
87.240866479
 11
104.7486142886
 21
87.6153346506
  0
LINE
  5
4CB
100
AcDbEntity
  8
0
100
AcDbLine
 62
7
  6
CONTINUOUS
 10
104.9654380434
 20
87.240866479
 11
104.7831086815
 21
87.6153346506
  0
LINE
  5
4CC
100
AcDbEntity
  8
0
100
AcDbLine
 62
7
  6
CONTINUOUS
 10
104.0192978842
 20
89.300441095
 11
104.1104630868
 21
89.1132070748
  0
LINE
  5
4CD
100
AcDbEntity
  8
0
100
AcDbLine
 62
7
  6
CONTINUOUS
 10
104.6574501293
 20
89.1132070748
 11
104.5662849267
 21
89.3940581051
  0
LINE
  5
4CE
100
AcDbEntity
  8
0
100
AcDbLine
 62
7
  6
CONTINUOUS
 10
104.6919445221
 20
89.1132070748
 11
104.6007793195
 21
89.3940581051
  0
LINE
  5
4CF
100
AcDbEntity
  8
0
100
AcDbLine
 62
7
  6
CONTINUOUS
 10
118.0550290698
 20
73.162994186
 11
118.0550290698
 21
73.7456578545
  0
LINE
  5
4D0
100
AcDbEntity
  8
0
100
AcDbLine
 62
7
  6
CONTINUOUS
 10
118.6800290698
 20
73.162994186
 11
118.6800290698
 21
73.2071163129
  0
LINE
  5
4D1
100
AcDbEntity
  8
0
100
AcDbLine
 62
7
  6
CONTINUOUS
 10
119.4650290698
 20
97.6574131583
 11
119.4650290698
 21
98.1575226139
  0
LINE
  5
4D2
100
AcDbEntity
  8
0
100
AcDbLine
 62
7
  6
CONTINUOUS
 10
100.190388587
 20
88.5515047518
 11
100.0080602684
 21
88.3642707316
  0
LINE
  5
4D3
100
AcDbEntity
  8
0
100
AcDbLine
 62
7
  6
CONTINUOUS
 10
102.2871725975
 20
89.8621431557
 11
101.922514917
 21
89.4876751152
  0
LINE
  5
4D4
100
AcDbEntity
  8
0
100
AcDbLine
 62
7
  6
CONTINUOUS
 10
100.190388587
 20
86.5855474082
 11
100.0080602684
 21
86.3983133224
  0
LINE
  5
4D5
100
AcDbEntity
  8
0
100
AcDbLine
 62
7
  6
CONTINUOUS
 10
104.383956608
 20
86.0238452492
 11
104.7486142886
 21
86.3983133224
  0
LINE
  5
4D6
100
AcDbEntity
  8
0
100
AcDbLine
 62
7
  6
CONTINUOUS
 10
104.4184510009
 20
86.0238452492
 11
104.7831086815
 21
86.3983133224
  0
LINE
  5
4D7
100
AcDbEntity
  8
0
100
AcDbLine
 62
7
  6
CONTINUOUS
 10
90.5070607469
 20
82.8940581051
 11
90.7258555639
 21
83.0812921253
  0
LINE
  5
4D8
100
AcDbEntity
  8
0
100
AcDbLine
 62
7
  6
CONTINUOUS
 10
90.5415551398
 20
82.8940581051
 11
90.7603499568
 21
83.0812921253
  0
LINE
  5
4D9
100
AcDbEntity
  8
0
100
AcDbLine
 62
7
  6
CONTINUOUS
 10
90.6529239756
 20
81.9578877417
 11
90.2153343156
 21
81.5834197012
  0
LINE
  5
4DA
100
AcDbEntity
  8
0
100
AcDbLine
 62
7
  6
CONTINUOUS
 10
90.5070607469
 20
81.3025686709
 11
90.7258555639
 21
81.4898026911
  0
LINE
  5
4DB
100
AcDbEntity
  8
0
100
AcDbLine
 62
7
  6
CONTINUOUS
 10
90.5415551398
 20
81.3025686709
 11
90.7603499568
 21
81.4898026911
  0
LINE
  5
4DC
100
AcDbEntity
  8
0
100
AcDbLine
 62
7
  6
CONTINUOUS
 10
91.8927611849
 20
79.9919303325
 11
91.6739663679
 21
79.8046963123
  0
LINE
  5
4DD
100
AcDbEntity
  8
0
100
AcDbLine
 62
7
  6
CONTINUOUS
 10
90.6529239756
 20
83.5493771759
 11
90.2882659299
 21
83.2685261456
  0
LINE
  5
4DE
100
AcDbEntity
  8
0
100
AcDbLine
 62
7
  6
CONTINUOUS
 10
92.1115560019
 20
81.6770367113
 11
91.7468981127
 21
81.9578877417
  0
LINE
  5
4DF
100
AcDbEntity
  8
0
100
AcDbLine
 62
7
  6
CONTINUOUS
 10
92.1460503948
 20
81.6770367113
 11
91.7813925056
 21
81.9578877417
  0
LINE
  5
4E0
100
AcDbEntity
  8
0
100
AcDbLine
 62
7
  6
CONTINUOUS
 10
92.0386244658
 20
83.2685261456
 11
91.6739663679
 21
83.5493771759
  0
LINE
  5
4E1
100
AcDbEntity
  8
0
100
AcDbLine
 62
7
  6
CONTINUOUS
 10
92.0731188587
 20
83.2685261456
 11
91.7084607608
 21
83.5493771759
  0
LINE
  5
4E2
100
AcDbEntity
  8
0
100
AcDbLine
 62
7
  6
CONTINUOUS
 10
98.3836741582
 20
79.6174622593
 11
98.6024689752
 21
79.4302282227
  0
LINE
  5
4E3
100
AcDbEntity
  8
0
100
AcDbLine
 62
7
  6
CONTINUOUS
 10
98.8941951196
 20
79.7110793022
 11
98.6754003027
 21
79.8983133224
  0
LINE
  5
4E4
100
AcDbEntity
  8
0
100
AcDbLine
 62
7
  6
CONTINUOUS
 10
98.9286895125
 20
79.7110793022
 11
98.7098946955
 21
79.8983133224
  0
LINE
  5
4E5
100
AcDbEntity
  8
0
100
AcDbLine
 62
7
  6
CONTINUOUS
 10
95.8144927691
 20
89.5812921253
 11
95.9968216093
 21
89.3940581051
  0
LINE
  5
4E6
100
AcDbEntity
  8
0
100
AcDbLine
 62
7
  6
CONTINUOUS
 10
100.0080602684
 20
87.6153346506
 11
100.190388587
 21
87.4281006304
  0
LINE
  5
4E7
100
AcDbEntity
  8
0
100
AcDbLine
 62
7
  6
CONTINUOUS
 10
102.4695019595
 20
86.3983133224
 11
102.1960084382
 21
86.6791644183
  0
LINE
  5
4E8
100
AcDbEntity
  8
0
100
AcDbLine
 62
7
  6
CONTINUOUS
 10
102.5039963523
 20
86.3983133224
 11
102.2305028311
 21
86.6791644183
  0
LINE
  5
4E9
100
AcDbEntity
  8
0
100
AcDbLine
 62
7
  6
CONTINUOUS
 10
100.0080602684
 20
89.4876751152
 11
100.190388587
 21
89.300441095
  0
LINE
  5
4EA
100
AcDbEntity
  8
0
100
AcDbLine
 62
7
  6
CONTINUOUS
 10
101.922514917
 20
88.3642707316
 11
102.2871725975
 21
87.9898026911
  0
LINE
  5
4EB
100
AcDbEntity
  8
0
100
AcDbLine
 62
7
  6
CONTINUOUS
 10
100.7373756295
 20
89.3940581051
 11
100.4638821083
 21
89.7685261456
  0
LINE
  5
4EC
100
AcDbEntity
  8
0
100
AcDbLine
 62
7
  6
CONTINUOUS
 10
100.7718700224
 20
89.3940581051
 11
100.4983765011
 21
89.7685261456
  0
LINE
  5
4ED
100
AcDbEntity
  8
0
100
AcDbLine
 62
7
  6
CONTINUOUS
 10
104.5662849267
 20
89.3940581051
 11
104.2927914054
 21
89.7685261456
  0
LINE
  5
4EE
100
AcDbEntity
  8
0
100
AcDbLine
 62
7
  6
CONTINUOUS
 10
104.6007793195
 20
89.3940581051
 11
104.3272857983
 21
89.7685261456
  0
LINE
  5
4EF
100
AcDbEntity
  8
0
100
AcDbLine
 62
7
  6
CONTINUOUS
 10
104.2016272461
 20
87.4281006304
 11
104.383956608
 21
87.1472494689
  0
LINE
  5
4F0
100
AcDbEntity
  8
0
100
AcDbLine
 62
7
  6
CONTINUOUS
 10
120.5550290698
 20
73.7456578545
 11
120.5550290698
 21
73.2440317789
  0
LINE
  5
4F1
100
AcDbEntity
  8
0
100
AcDbLine
 62
7
  6
CONTINUOUS
 10
120.6591956371
 20
73.2071163129
 11
120.6591956371
 21
73.162994186
  0
LINE
  5
4F2
100
AcDbEntity
  8
0
100
AcDbLine
 62
7
  6
CONTINUOUS
 10
120.9716956371
 20
73.2010730494
 11
120.9716956371
 21
73.1629961725
  0
LINE
  5
4F3
100
AcDbEntity
  8
0
100
AcDbLine
 62
7
  6
CONTINUOUS
 10
121.0758625024
 20
73.737213699
 11
121.0758625024
 21
73.2357542083
  0
LINE
  5
4F4
100
AcDbEntity
  8
0
100
AcDbLine
 62
7
  6
CONTINUOUS
 10
121.1800290698
 20
73.1903236683
 11
121.1800290698
 21
73.1639677987
  0
LINE
  5
4F5
100
AcDbEntity
  8
0
100
AcDbLine
 62
7
  6
CONTINUOUS
 10
121.2841956371
 20
73.1687544928
 11
121.2841956371
 21
73.1775384068
  0
LINE
  5
4F6
100
AcDbEntity
  8
0
100
AcDbLine
 62
7
  6
CONTINUOUS
 10
121.4925290698
 20
73.7146200116
 11
121.4925290698
 21
73.2136057072
  0
LINE
  5
4F7
100
AcDbEntity
  8
0
100
AcDbLine
 62
7
  6
CONTINUOUS
 10
121.8050290698
 20
73.6908708621
 11
121.8050290698
 21
73.1903236683
  0
LINE
  5
4F8
100
AcDbEntity
  8
0
100
AcDbLine
 62
7
  6
CONTINUOUS
 10
121.9091956371
 20
73.6778294622
 11
121.9091956371
 21
73.1775384068
  0
LINE
  5
4F9
100
AcDbEntity
  8
0
100
AcDbLine
 62
7
  6
CONTINUOUS
 10
122.0133625024
 20
73.662994186
 11
122.0133625024
 21
73.162994186
  0
LINE
  5
4FA
100
AcDbEntity
  8
0
100
AcDbLine
 62
7
  6
CONTINUOUS
 10
122.7450290698
 20
97.662994186
 11
122.7450290698
 21
98.162994186
  0
LINE
  5
4FB
100
AcDbEntity
  8
0
100
AcDbLine
 62
7
  6
CONTINUOUS
 10
122.8466956371
 20
73.162994186
 11
122.8466956371
 21
73.7456578545
  0
LINE
  5
4FC
100
AcDbEntity
  8
0
100
AcDbLine
 62
7
  6
CONTINUOUS
 10
123.4716959351
 20
73.162994186
 11
123.4716959351
 21
73.7456578545
  0
LINE
  5
4FD
100
AcDbEntity
  8
0
100
AcDbLine
 62
7
  6
CONTINUOUS
 10
123.5758622044
 20
73.662994186
 11
123.5758622044
 21
73.162994186
  0
LINE
  5
4FE
100
AcDbEntity
  8
0
100
AcDbLine
 62
7
  6
CONTINUOUS
 10
123.7841959351
 20
73.662994186
 11
123.7841959351
 21
73.162994186
  0
LINE
  5
4FF
100
AcDbEntity
  8
0
100
AcDbLine
 62
7
  6
CONTINUOUS
 10
124.0966959351
 20
73.662994186
 11
124.0966959351
 21
73.162994186
  0
LINE
  5
500
100
AcDbEntity
  8
0
100
AcDbLine
 62
7
  6
CONTINUOUS
 10
124.5133622044
 20
73.662994186
 11
124.5133622044
 21
73.162994186
  0
LINE
  5
501
100
AcDbEntity
  8
0
100
AcDbLine
 62
7
  6
CONTINUOUS
 10
124.5250290698
 20
97.6574131583
 11
124.5250290698
 21
98.1575226139
  0
LINE
  5
502
100
AcDbEntity
  8
0
100
AcDbLine
 62
7
  6
CONTINUOUS
 10
124.9300290698
 20
73.662994186
 11
124.9300290698
 21
73.162994186
  0
LINE
  5
503
100
AcDbEntity
  8
0
100
AcDbLine
 62
7
  6
CONTINUOUS
 10
125.3466959351
 20
73.662994186
 11
125.3466959351
 21
73.162994186
  0
LINE
  5
504
100
AcDbEntity
  8
0
100
AcDbLine
 62
7
  6
CONTINUOUS
 10
125.6591959351
 20
73.662994186
 11
125.6591959351
 21
73.162994186
  0
LINE
  5
505
100
AcDbEntity
  8
0
100
AcDbLine
 62
7
  6
CONTINUOUS
 10
125.8675290698
 20
73.662994186
 11
125.8675290698
 21
73.162994186
  0
LINE
  5
506
100
AcDbEntity
  8
0
100
AcDbLine
 62
7
  6
CONTINUOUS
 10
125.9716959351
 20
73.162994186
 11
125.9716959351
 21
73.7456578545
  0
LINE
  5
507
100
AcDbEntity
  8
0
100
AcDbLine
 62
7
  6
CONTINUOUS
 10
100.0992244277
 20
85.8366112044
 11
100.4638821083
 21
86.1174622593
  0
LINE
  5
508
100
AcDbEntity
  8
0
100
AcDbLine
 62
7
  6
CONTINUOUS
 10
100.1337188206
 20
85.8366112044
 11
100.4983765011
 21
86.1174622593
  0
LINE
  5
509
100
AcDbEntity
  8
0
100
AcDbLine
 62
7
  6
CONTINUOUS
 10
91.7468981127
 20
79.3366112044
 11
92.1115560019
 21
79.6174622593
  0
LINE
  5
50A
100
AcDbEntity
  8
0
100
AcDbLine
 62
7
  6
CONTINUOUS
 10
91.7813925056
 20
79.3366112044
 11
92.1460503948
 21
79.6174622593
  0
LINE
  5
50B
100
AcDbEntity
  8
0
100
AcDbLine
 62
7
  6
CONTINUOUS
 10
102.4695019595
 20
89.300441095
 11
102.7429954807
 21
89.4876751152
  0
LINE
  5
50C
100
AcDbEntity
  8
0
100
AcDbLine
 62
7
  6
CONTINUOUS
 10
102.5039963523
 20
89.300441095
 11
102.7774898736
 21
89.4876751152
  0
LINE
  5
50D
100
AcDbEntity
  8
0
100
AcDbLine
 62
7
  6
CONTINUOUS
 10
90.9446503809
 20
79.7110793022
 11
90.7258555639
 21
79.8046963123
  0
LINE
  5
50E
100
AcDbEntity
  8
0
100
AcDbLine
 62
7
  6
CONTINUOUS
 10
90.9499882842
 20
79.7235546588
 11
90.7603499568
 21
79.8046963123
  0
LINE
  5
50F
100
AcDbEntity
  8
0
100
AcDbLine
 62
7
  6
CONTINUOUS
 10
96.2703151306
 20
89.7685261456
 11
95.9056569284
 21
90.0493771759
  0
LINE
  5
510
100
AcDbEntity
  8
0
100
AcDbLine
 62
7
  6
CONTINUOUS
 10
96.3048095234
 20
89.7685261456
 11
95.9401513213
 21
90.0493771759
  0
LINE
  5
511
100
AcDbEntity
  8
0
100
AcDbLine
 62
7
  6
CONTINUOUS
 10
100.4638821083
 20
89.7685261456
 11
100.0992244277
 21
90.0493771759
  0
LINE
  5
512
100
AcDbEntity
  8
0
100
AcDbLine
 62
7
  6
CONTINUOUS
 10
100.4983765011
 20
89.7685261456
 11
100.1337188206
 21
90.0493771759
  0
LINE
  5
513
100
AcDbEntity
  8
0
100
AcDbLine
 62
7
  6
CONTINUOUS
 10
104.7486142886
 20
87.6153346506
 11
104.383956608
 21
87.9898026911
  0
LINE
  5
514
100
AcDbEntity
  8
0
100
AcDbLine
 62
7
  6
CONTINUOUS
 10
104.7831086815
 20
87.6153346506
 11
104.4184510009
 21
87.9898026911
  0
LINE
  5
515
100
AcDbEntity
  8
0
100
AcDbLine
 62
7
  6
CONTINUOUS
 10
103.8369695656
 20
89.4876751152
 11
104.0192978842
 21
89.300441095
  0
LINE
  5
516
100
AcDbEntity
  8
0
100
AcDbLine
 62
7
  6
CONTINUOUS
 10
126.5966959351
 20
73.162994186
 11
126.5966959351
 21
73.7456578545
  0
LINE
  5
517
100
AcDbEntity
  8
0
100
AcDbLine
 62
7
  6
CONTINUOUS
 10
127.4300290698
 20
73.162994186
 11
127.4300290698
 21
73.7456578545
  0
LINE
  5
518
100
AcDbEntity
  8
0
100
AcDbLine
 62
7
  6
CONTINUOUS
 10
127.8050290698
 20
97.662994186
 11
127.8050290698
 21
98.162994186
  0
LINE
  5
519
100
AcDbEntity
  8
0
100
AcDbLine
 62
7
  6
CONTINUOUS
 10
128.0550290698
 20
73.162994186
 11
128.0550290698
 21
73.2010730494
  0
LINE
  5
51A
100
AcDbEntity
  8
0
100
AcDbLine
 62
7
  6
CONTINUOUS
 10
129.9300290698
 20
73.7456578545
 11
129.9300290698
 21
73.2440317789
  0
LINE
  5
51B
100
AcDbEntity
  8
0
100
AcDbLine
 62
7
  6
CONTINUOUS
 10
129.9300290698
 20
73.2010730494
 11
129.9300290698
 21
73.162994186
  0
LINE
  5
51C
100
AcDbEntity
  8
0
100
AcDbLine
 62
7
  6
CONTINUOUS
 10
130.3466953391
 20
73.1954755992
 11
130.3466953391
 21
73.162994186
  0
LINE
  5
51D
100
AcDbEntity
  8
0
100
AcDbLine
 62
7
  6
CONTINUOUS
 10
130.4508628005
 20
73.737213699
 11
130.4508628005
 21
73.2357542083
  0
LINE
  5
51E
100
AcDbEntity
  8
0
100
AcDbLine
 62
7
  6
CONTINUOUS
 10
130.6591953391
 20
73.1856169865
 11
130.6591953391
 21
73.162994186
  0
LINE
  5
51F
100
AcDbEntity
  8
0
100
AcDbLine
 62
7
  6
CONTINUOUS
 10
130.8675290698
 20
73.7216952036
 11
130.8675290698
 21
73.2205415737
  0
LINE
  5
520
100
AcDbEntity
  8
0
100
AcDbLine
 62
7
  6
CONTINUOUS
 10
130.8675290698
 20
73.1741660769
 11
130.8675290698
 21
73.162994186
  0
LINE
  5
521
100
AcDbEntity
  8
0
100
AcDbLine
 62
7
  6
CONTINUOUS
 10
130.9716953391
 20
73.162994186
 11
130.9716953391
 21
73.1651193231
  0
LINE
  5
522
100
AcDbEntity
  8
0
100
AcDbLine
 62
7
  6
CONTINUOUS
 10
131.2841953391
 20
73.696126081
 11
131.2841953391
 21
73.1954755992
  0
LINE
  5
523
100
AcDbEntity
  8
0
100
AcDbLine
 62
7
  6
CONTINUOUS
 10
131.4925290698
 20
73.6778294622
 11
131.4925290698
 21
73.1775384068
  0
LINE
  5
524
100
AcDbEntity
  8
0
100
AcDbLine
 62
7
  6
CONTINUOUS
 10
131.5966953391
 20
73.6651619198
 11
131.5966953391
 21
73.1651194117
  0
LINE
  5
525
100
AcDbEntity
  8
0
100
AcDbLine
 62
7
  6
CONTINUOUS
 10
104.2016272461
 20
86.5855474082
 11
103.9281337249
 21
86.3983133224
  0
LINE
  5
526
100
AcDbEntity
  8
0
100
AcDbLine
 62
7
  6
CONTINUOUS
 10
95.9056569284
 20
87.896185681
 11
96.2703151306
 21
88.0834197012
  0
LINE
  5
527
100
AcDbEntity
  8
0
100
AcDbLine
 62
7
  6
CONTINUOUS
 10
95.9401513213
 20
87.896185681
 11
96.3048095234
 21
88.0834197012
  0
LINE
  5
528
100
AcDbEntity
  8
0
100
AcDbLine
 62
7
  6
CONTINUOUS
 10
102.6518302781
 20
90.0493771759
 11
102.2871725975
 21
89.8621431557
  0
LINE
  5
529
100
AcDbEntity
  8
0
100
AcDbLine
 62
7
  6
CONTINUOUS
 10
100.2815537897
 20
87.9898026911
 11
100.4638821083
 21
88.0834197012
  0
LINE
  5
52A
100
AcDbEntity
  8
0
100
AcDbLine
 62
7
  6
CONTINUOUS
 10
100.3160481825
 20
87.9898026911
 11
100.4983765011
 21
88.0834197012
  0
LINE
  5
52B
100
AcDbEntity
  8
BEZUGSACHSEN
100
AcDbLine
 62
7
  6
CONTINUOUS
 10
110.9064354962
 20
97.4005410364
 11
110.906313054
 21
97.4004879294
  0
LINE
  5
52C
100
AcDbEntity
  8
BEZUGSACHSEN
100
AcDbLine
 62
7
  6
CONTINUOUS
 10
110.9961606589
 20
97.4377694677
 11
110.8256909737
 21
97.3670231015
  0
LWPOLYLINE
  5
52D
100
AcDbEntity
  8
BEZUGSACHSEN
100
AcDbPolyline
 62
7
  6
CONTINUOUS
 90
5
 70
0
 10
110.8256909737
 20
97.3670231015
 10
110.5953827195
 20
97.2866555893
 10
110.3568124672
 20
97.2255212801
 10
110.1125002901
 20
97.1847263899
 10
109.8650987848
 20
97.1649454032
  0
LWPOLYLINE
  5
52E
100
AcDbEntity
  8
RUNDUNGEN
100
AcDbPolyline
 62
7
  6
CONTINUOUS
 90
5
 70
0
 10
111.0075116621
 20
73.8837341591
 10
111.2906977758
 20
73.787484142
 10
111.5833661778
 20
73.7178595109
 10
111.8818804635
 20
73.6761739368
 10
112.1668150929
 20
73.6630029988
  0
LINE
  5
52F
100
AcDbEntity
  8
RUNDUNGEN
100
AcDbLine
 62
7
  6
CONTINUOUS
 10
110.8137287245
 20
73.963685267
 11
111.0075116621
 21
73.8837341591
  0
LINE
  5
530
100
AcDbEntity
  8
0
100
AcDbLine
 62
7
  6
CONTINUOUS
 10
91.4551716553
 20
81.5834197012
 11
91.6739663679
 21
81.4898026911
  0
LINE
  5
531
100
AcDbEntity
  8
0
100
AcDbLine
 62
7
  6
CONTINUOUS
 10
98.6024689752
 20
79.4302282227
 11
98.8212637922
 21
79.3366112044
  0
LINE
  5
532
100
AcDbEntity
  8
0
100
AcDbLine
 62
7
  6
CONTINUOUS
 10
91.3822400148
 20
83.1749091355
 11
91.6010348318
 21
83.0812921253
  0
LINE
  5
533
100
AcDbEntity
  8
RUNDUNGEN
100
AcDbLine
 62
7
  6
CONTINUOUS
 10
110.9064380008
 20
73.9254462507
 11
110.906321511
 21
73.9254967707
  0
LINE
  5
534
100
AcDbEntity
  8
0
100
AcDbLine
 62
7
  6
CONTINUOUS
 10
101.922514917
 20
86.1174622593
 11
102.3783367569
 21
85.8366112044
  0
LINE
  5
535
100
AcDbEntity
  8
0
100
AcDbLine
 62
7
  6
CONTINUOUS
 10
102.7429954807
 20
88.3642707316
 11
102.4695019595
 21
88.5515047518
  0
LINE
  5
536
100
AcDbEntity
  8
0
100
AcDbLine
 62
7
  6
CONTINUOUS
 10
102.7774898736
 20
88.3642707316
 11
102.5039963523
 21
88.5515047518
  0
LINE
  5
537
100
AcDbEntity
  8
0
100
AcDbLine
 62
7
  6
CONTINUOUS
 10
103.9281337249
 20
87.6153346506
 11
104.2016272461
 21
87.4281006304
  0
LINE
  5
538
100
AcDbEntity
  8
0
100
AcDbLine
 62
7
  6
CONTINUOUS
 10
104.2927914054
 20
89.7685261456
 11
103.9281337249
 21
90.0493771759
  0
LINE
  5
539
100
AcDbEntity
  8
0
100
AcDbLine
 62
7
  6
CONTINUOUS
 10
104.3272857983
 20
89.7685261456
 11
103.9626281178
 21
90.0493771759
  0
LINE
  5
53A
100
AcDbEntity
  8
BEZUGSACHSEN
100
AcDbLine
 62
7
  6
CONTINUOUS
 10
138.7750290698
 20
97.662994186
 11
138.7750290698
 21
95.662994186
  0
LINE
  5
53B
100
AcDbEntity
  8
0
100
AcDbLine
 62
7
  6
CONTINUOUS
 10
138.7750290698
 20
73.662994186
 11
138.7750290698
 21
75.662994186
  0
LINE
  5
53C
100
AcDbEntity
  8
0
100
AcDbLine
 62
7
  6
CONTINUOUS
 10
104.0192978842
 20
85.8366112044
 11
104.383956608
 21
86.0238452492
  0
LINE
  5
53D
100
AcDbEntity
  8
0
100
AcDbLine
 62
7
  6
CONTINUOUS
 10
104.0537922771
 20
85.8366112044
 11
104.4184510009
 21
86.0238452492
  0
LINE
  5
53E
100
AcDbEntity
  8
0
100
AcDbLine
 62
7
  6
CONTINUOUS
 10
90.7258555639
 20
83.0812921253
 11
90.9446503809
 21
83.1749091355
  0
LINE
  5
53F
100
AcDbEntity
  8
0
100
AcDbLine
 62
7
  6
CONTINUOUS
 10
90.7603499568
 20
83.0812921253
 11
90.9499882842
 21
83.1624337788
  0
LINE
  5
540
100
AcDbEntity
  8
0
100
AcDbLine
 62
7
  6
CONTINUOUS
 10
90.7258555639
 20
81.4898026911
 11
90.9446503809
 21
81.5834197012
  0
LINE
  5
541
100
AcDbEntity
  8
0
100
AcDbLine
 62
7
  6
CONTINUOUS
 10
90.7603499568
 20
81.4898026911
 11
90.9499882842
 21
81.5709443446
  0
LINE
  5
542
100
AcDbEntity
  8
0
100
AcDbLine
 62
7
  6
CONTINUOUS
 10
91.6739663679
 20
79.8046963123
 11
91.4551716553
 21
79.7110793022
  0
LINE
  5
543
100
AcDbEntity
  8
0
100
AcDbLine
 62
7
  6
CONTINUOUS
 10
95.8144927691
 20
88.3642707316
 11
95.5409992478
 21
88.2706537215
  0
LINE
  5
544
100
AcDbEntity
  8
0
100
AcDbLine
 62
7
  6
CONTINUOUS
 10
102.7429954807
 20
89.4876751152
 11
103.0164890019
 21
89.5812921253
  0
LINE
  5
545
100
AcDbEntity
  8
0
100
AcDbLine
 62
7
  6
CONTINUOUS
 10
102.7774898736
 20
89.4876751152
 11
103.0201068039
 21
89.5707230482
  0
LINE
  5
546
100
AcDbEntity
  8
0
100
AcDbLine
 62
7
  6
CONTINUOUS
 10
100.0080602684
 20
88.3642707316
 11
99.7345667472
 21
88.2706537215
  0
LINE
  5
547
100
AcDbEntity
  8
0
100
AcDbLine
 62
7
  6
CONTINUOUS
 10
100.0080602684
 20
86.3983133224
 11
99.7345667472
 21
86.3046963123
  0
LINE
  5
548
100
AcDbEntity
  8
0
100
AcDbLine
 62
7
  6
CONTINUOUS
 10
98.8212637922
 20
79.3366112044
 11
99.2588534261
 21
79.242994186
  0
LINE
  5
549
100
AcDbEntity
  8
0
100
AcDbLine
 62
7
  6
CONTINUOUS
 10
90.6529239756
 20
79.3366112044
 11
91.0175820213
 21
79.242994186
  0
LINE
  5
54A
100
AcDbEntity
  8
0
100
AcDbLine
 62
7
  6
CONTINUOUS
 10
99.2588534261
 20
79.6174622593
 11
98.8941951196
 21
79.7110793022
  0
LINE
  5
54B
100
AcDbEntity
  8
0
100
AcDbLine
 62
7
  6
CONTINUOUS
 10
99.293347819
 20
79.6174622593
 11
98.9286895125
 21
79.7110793022
  0
LINE
  5
54C
100
AcDbEntity
  8
0
100
AcDbLine
 62
7
  6
CONTINUOUS
 10
91.7468981127
 20
81.9578877417
 11
91.3822400148
 21
82.0515047518
  0
LINE
  5
54D
100
AcDbEntity
  8
0
100
AcDbLine
 62
7
  6
CONTINUOUS
 10
91.7813925056
 20
81.9578877417
 11
91.4167344077
 21
82.0515047518
  0
LINE
  5
54E
100
AcDbEntity
  8
0
100
AcDbLine
 62
7
  6
CONTINUOUS
 10
91.6739663679
 20
83.5493771759
 11
91.3093083744
 21
83.642994186
  0
LINE
  5
54F
100
AcDbEntity
  8
0
100
AcDbLine
 62
7
  6
CONTINUOUS
 10
91.7084607608
 20
83.5493771759
 11
91.3438027673
 21
83.642994186
  0
LINE
  5
550
100
AcDbEntity
  8
0
100
AcDbLine
 62
7
  6
CONTINUOUS
 10
100.4638821083
 20
87.896185681
 11
100.2815537897
 21
87.9898026911
  0
LINE
  5
551
100
AcDbEntity
  8
0
100
AcDbLine
 62
7
  6
CONTINUOUS
 10
100.4983765011
 20
87.896185681
 11
100.3160481825
 21
87.9898026911
  0
LINE
  5
552
100
AcDbEntity
  8
0
100
AcDbLine
 62
7
  6
CONTINUOUS
 10
102.2871725975
 20
87.9898026911
 11
102.6518302781
 21
87.8025686709
  0
LINE
  5
553
100
AcDbEntity
  8
0
100
AcDbLine
 62
7
  6
CONTINUOUS
 10
104.383956608
 20
87.9898026911
 11
104.0192978842
 21
88.1770367113
  0
LINE
  5
554
100
AcDbEntity
  8
0
100
AcDbLine
 62
7
  6
CONTINUOUS
 10
104.4184510009
 20
87.9898026911
 11
104.0537922771
 21
88.1770367113
  0
LINE
  5
555
100
AcDbEntity
  8
0
100
AcDbLine
 62
7
  6
CONTINUOUS
 10
212.0335691376
 20
81.182994186
 11
212.3982278615
 21
81.2766111962
  0
LINE
  5
556
100
AcDbEntity
  8
0
100
AcDbLine
 62
7
  6
CONTINUOUS
 10
224.0324761182
 20
87.682994186
 11
224.3971341639
 21
87.7766111962
  0
LINE
  5
557
100
AcDbEntity
  8
0
100
AcDbLine
 62
7
  6
CONTINUOUS
 10
211.1219244146
 20
84.9276750497
 11
211.4865820952
 21
85.0212920598
  0
LINE
  5
558
100
AcDbEntity
  8
0
100
AcDbLine
 62
7
  6
CONTINUOUS
 10
224.0324761182
 20
89.2744836203
 11
224.3971341639
 21
89.3681006304
  0
LWPOLYLINE
  5
559
100
AcDbEntity
  8
RUNDUNGEN
100
AcDbPolyline
 62
7
  6
CONTINUOUS
 90
5
 70
0
 10
202.8832051517
 20
73.6630029519
 10
203.1853470312
 20
73.677791494
 10
203.4793645986
 20
73.7202740277
 10
203.7675827441
 20
73.7898676531
 10
204.046517758
 20
73.8852975125
  0
LINE
  5
55A
100
AcDbEntity
  8
RUNDUNGEN
100
AcDbLine
 62
7
  6
CONTINUOUS
 10
205.1979401959
 20
74.1614967859
 11
205.2916437517
 21
74.1630188593
  0
LINE
  5
55B
100
AcDbEntity
  8
0
100
AcDbLine
 62
7
  6
CONTINUOUS
 10
131.5966953391
 20
73.162994186
 11
127.4300290698
 21
73.162994186
  0
LINE
  5
55C
100
AcDbEntity
  8
0
100
AcDbLine
 62
7
  6
CONTINUOUS
 10
126.5966959351
 20
73.162994186
 11
122.8466956371
 21
73.162994186
  0
LINE
  5
55D
100
AcDbEntity
  8
0
100
AcDbLine
 62
7
  6
CONTINUOUS
 10
122.0133625024
 20
73.162994186
 11
121.2841956371
 21
73.162994186
  0
LINE
  5
55E
100
AcDbEntity
  8
0
100
AcDbLine
 62
7
  6
CONTINUOUS
 10
120.9716956371
 20
73.162994186
 11
118.0550290698
 21
73.162994186
  0
LINE
  5
55F
100
AcDbEntity
  8
0
100
AcDbLine
 62
7
  6
CONTINUOUS
 10
129.9300290698
 20
73.2010730494
 11
128.0550290698
 21
73.2010730494
  0
LINE
  5
560
100
AcDbEntity
  8
0
100
AcDbLine
 62
7
  6
CONTINUOUS
 10
120.6591956371
 20
73.2071163129
 11
118.6800290698
 21
73.2071163129
  0
LINE
  5
561
100
AcDbEntity
  8
0
100
AcDbLine
 62
7
  6
CONTINUOUS
 10
129.9300290698
 20
73.2440317789
 11
127.4300290698
 21
73.2440317789
  0
LINE
  5
562
100
AcDbEntity
  8
0
100
AcDbLine
 62
7
  6
CONTINUOUS
 10
126.5966959351
 20
73.2440317789
 11
125.9716959351
 21
73.2440317789
  0
LINE
  5
563
100
AcDbEntity
  8
0
100
AcDbLine
 62
7
  6
CONTINUOUS
 10
123.4716959351
 20
73.2440317789
 11
122.8466956371
 21
73.2440317789
  0
LINE
  5
564
100
AcDbEntity
  8
0
100
AcDbLine
 62
7
  6
CONTINUOUS
 10
120.5550290698
 20
73.2440317789
 11
118.0550290698
 21
73.2440317789
  0
LINE
  5
565
100
AcDbEntity
  8
0
100
AcDbLine
 62
7
  6
CONTINUOUS
 10
201.8974761678
 20
73.662994186
 11
176.2750290698
 21
73.662994186
  0
LINE
  5
566
100
AcDbEntity
  8
RUNDUNGEN
100
AcDbLine
 62
7
  6
CONTINUOUS
 10
202.8832051596
 20
73.6629963238
 11
176.2750290698
 21
73.662994186
  0
LINE
  5
567
100
AcDbEntity
  8
0
100
AcDbLine
 62
7
  6
CONTINUOUS
 10
138.7750290698
 20
73.662994186
 11
131.5966953391
 21
73.662994186
  0
LINE
  5
568
100
AcDbEntity
  8
RUNDUNGEN
100
AcDbLine
 62
7
  6
CONTINUOUS
 10
138.7750290698
 20
73.662994186
 11
131.5966953391
 21
73.662994186
  0
LINE
  5
569
100
AcDbEntity
  8
0
100
AcDbLine
 62
7
  6
CONTINUOUS
 10
127.4300290698
 20
73.662994186
 11
126.5966959351
 21
73.662994186
  0
LINE
  5
56A
100
AcDbEntity
  8
RUNDUNGEN
100
AcDbLine
 62
7
  6
CONTINUOUS
 10
127.4300290698
 20
73.662994186
 11
126.5966959351
 21
73.662994186
  0
LINE
  5
56B
100
AcDbEntity
  8
0
100
AcDbLine
 62
7
  6
CONTINUOUS
 10
125.9716959351
 20
73.662994186
 11
123.4716959351
 21
73.662994186
  0
LINE
  5
56C
100
AcDbEntity
  8
RUNDUNGEN
100
AcDbLine
 62
7
  6
CONTINUOUS
 10
125.9716959351
 20
73.662994186
 11
123.4716959351
 21
73.662994186
  0
LINE
  5
56D
100
AcDbEntity
  8
0
100
AcDbLine
 62
7
  6
CONTINUOUS
 10
122.8466956371
 20
73.662994186
 11
121.9091956371
 21
73.662994186
  0
LINE
  5
56E
100
AcDbEntity
  8
RUNDUNGEN
100
AcDbLine
 62
7
  6
CONTINUOUS
 10
122.8466956371
 20
73.662994186
 11
121.9091956371
 21
73.662994186
  0
LINE
  5
56F
100
AcDbEntity
  8
0
100
AcDbLine
 62
7
  6
CONTINUOUS
 10
118.0550290698
 20
73.662994186
 11
113.1525819842
 21
73.662994186
  0
LINE
  5
570
100
AcDbEntity
  8
0
100
AcDbLine
 62
7
  6
CONTINUOUS
 10
129.9300290698
 20
73.7456578545
 11
127.4300290698
 21
73.7456578545
  0
LINE
  5
571
100
AcDbEntity
  8
0
100
AcDbLine
 62
7
  6
CONTINUOUS
 10
126.5966959351
 20
73.7456578545
 11
125.9716959351
 21
73.7456578545
  0
LINE
  5
572
100
AcDbEntity
  8
0
100
AcDbLine
 62
7
  6
CONTINUOUS
 10
123.4716959351
 20
73.7456578545
 11
122.8466956371
 21
73.7456578545
  0
LINE
  5
573
100
AcDbEntity
  8
0
100
AcDbLine
 62
7
  6
CONTINUOUS
 10
120.5550290698
 20
73.7456578545
 11
118.0550290698
 21
73.7456578545
  0
LINE
  5
574
100
AcDbEntity
  8
RUNDUNGEN
100
AcDbLine
 62
7
  6
CONTINUOUS
 10
118.0550290698
 20
73.662994186
 11
112.1668150849
 21
73.6629963697
  0
LINE
  5
575
100
AcDbEntity
  8
RUNDUNGEN
100
AcDbLine
 62
7
  6
CONTINUOUS
 10
109.7584121921
 20
74.1630152161
 11
109.8521808053
 21
74.1614911664
  0
LWPOLYLINE
  5
576
100
AcDbEntity
  8
RUNDUNGEN
100
AcDbPolyline
 62
7
  6
CONTINUOUS
 90
5
 70
0
 10
109.8521808053
 20
74.1614911664
 10
110.099602128
 20
74.1428226329
 10
110.3440806333
 20
74.1031277393
 10
110.5829640635
 20
74.043055307
 10
110.8137287245
 20
73.963685267
  0
LINE
  5
577
100
AcDbEntity
  8
0
100
AcDbLine
 62
7
  6
CONTINUOUS
 10
102.83415964
 20
86.3046963123
 11
102.4695019595
 21
86.3983133224
  0
LINE
  5
578
100
AcDbEntity
  8
0
100
AcDbLine
 62
7
  6
CONTINUOUS
 10
99.7345667472
 20
87.7089516608
 11
100.0080602684
 21
87.6153346506
  0
LINE
  5
579
100
AcDbEntity
  8
0
100
AcDbLine
 62
7
  6
CONTINUOUS
 10
95.5409992478
 20
89.6749091355
 11
95.8144927691
 21
89.5812921253
  0
LINE
  5
57A
100
AcDbEntity
  8
0
100
AcDbLine
 62
7
  6
CONTINUOUS
 10
103.0164890019
 20
88.2706537215
 11
102.7429954807
 21
88.3642707316
  0
LINE
  5
57B
100
AcDbEntity
  8
0
100
AcDbLine
 62
7
  6
CONTINUOUS
 10
103.0201068039
 20
88.2812227986
 11
102.7774898736
 21
88.3642707316
  0
LINE
  5
57C
100
AcDbEntity
  8
0
100
AcDbLine
 62
7
  6
CONTINUOUS
 10
99.7345667472
 20
89.5812921253
 11
100.0080602684
 21
89.4876751152
  0
LINE
  5
57D
100
AcDbEntity
  8
0
100
AcDbLine
 62
7
  6
CONTINUOUS
 10
103.5634760444
 20
89.5812921253
 11
103.8369695656
 21
89.4876751152
  0
LINE
  5
57E
100
AcDbEntity
  8
0
100
AcDbLine
 62
7
  6
CONTINUOUS
 10
147.8033722108
 20
75.662994186
 11
147.8033722108
 21
75.162994186
  0
LINE
  5
57F
100
AcDbEntity
  8
0
100
AcDbLine
 62
7
  6
CONTINUOUS
 10
147.8033722108
 20
95.662994186
 11
147.8033722108
 21
96.162994186
  0
LINE
  5
580
100
AcDbEntity
  8
0
100
AcDbLine
 62
7
  6
CONTINUOUS
 10
148.7701080507
 20
95.662994186
 11
148.7701080507
 21
96.162994186
  0
LINE
  5
581
100
AcDbEntity
  8
0
100
AcDbLine
 62
7
  6
CONTINUOUS
 10
150.3233993715
 20
95.662994186
 11
150.3233993715
 21
96.162994186
  0
LINE
  5
582
100
AcDbEntity
  8
0
100
AcDbLine
 62
7
  6
CONTINUOUS
 10
151.1326320833
 20
95.662994186
 11
151.1326320833
 21
96.162994186
  0
LINE
  5
583
100
AcDbEntity
  8
0
100
AcDbLine
 62
7
  6
CONTINUOUS
 10
151.6322925752
 20
95.662994186
 11
151.6322925752
 21
96.162994186
  0
LINE
  5
584
100
AcDbEntity
  8
0
100
AcDbLine
 62
7
  6
CONTINUOUS
 10
223.6678181247
 20
92.082994186
 11
223.3031600268
 21
91.9893771677
  0
LINE
  5
585
100
AcDbEntity
  8
0
100
AcDbLine
 62
7
  6
CONTINUOUS
 10
223.6333237318
 20
92.082994186
 11
223.268665634
 21
91.9893771677
  0
LINE
  5
586
100
AcDbEntity
  8
0
100
AcDbLine
 62
7
  6
CONTINUOUS
 10
215.4066565949
 20
85.582994186
 11
214.9508337118
 21
85.4893771677
  0
LINE
  5
587
100
AcDbEntity
  8
0
100
AcDbLine
 62
7
  6
CONTINUOUS
 10
215.3721622021
 20
85.582994186
 11
214.9163393189
 21
85.4893771677
  0
LINE
  5
588
100
AcDbEntity
  8
0
100
AcDbLine
 62
7
  6
CONTINUOUS
 10
211.4865820952
 20
85.582994186
 11
211.0307602553
 21
85.4893771677
  0
LINE
  5
589
100
AcDbEntity
  8
RUNDUNGEN
100
AcDbLine
 62
7
  6
CONTINUOUS
 10
109.7581205889
 20
74.162994279
 11
109.7579754361
 21
74.1629941867
  0
LINE
  5
58A
100
AcDbEntity
  8
BEZUGSACHSEN
100
AcDbLine
 62
7
  6
CONTINUOUS
 10
108.8250290698
 20
74.162994186
 11
109.7600021453
 21
74.162994186
  0
LINE
  5
58B
100
AcDbEntity
  8
BEZUGSACHSEN
100
AcDbLine
 62
7
  6
CONTINUOUS
 10
205.290016985
 20
74.162994186
 11
206.2250290698
 21
74.162994186
  0
LINE
  5
58C
100
AcDbEntity
  8
0
100
AcDbLine
 62
7
  6
CONTINUOUS
 10
167.2466859287
 20
75.162994186
 11
163.9174260563
 21
75.162994186
  0
LINE
  5
58D
100
AcDbEntity
  8
0
100
AcDbLine
 62
7
  6
CONTINUOUS
 10
163.4177655643
 20
75.162994186
 11
157.8943433231
 21
75.162994186
  0
LINE
  5
58E
100
AcDbEntity
  8
0
100
AcDbLine
 62
7
  6
CONTINUOUS
 10
156.3464812702
 20
75.162994186
 11
154.7171534961
 21
75.162994186
  0
LINE
  5
58F
100
AcDbEntity
  8
0
100
AcDbLine
 62
7
  6
CONTINUOUS
 10
153.1747230953
 20
75.162994186
 11
147.8033722108
 21
75.162994186
  0
LINE
  5
590
100
AcDbEntity
  8
RUNDUNGEN
100
AcDbLine
 62
7
  6
CONTINUOUS
 10
203.9302633097
 20
75.662994186
 11
111.1197948301
 21
75.662994186
  0
LINE
  5
591
100
AcDbEntity
  8
0
100
AcDbLine
 62
7
  6
CONTINUOUS
 10
93.0596670146
 20
78.6812920598
 11
93.4588195053
 21
78.6812920598
  0
LINE
  5
592
100
AcDbEntity
  8
0
100
AcDbLine
 62
7
  6
CONTINUOUS
 10
99.293347819
 20
79.242994186
 11
99.2588534261
 21
79.242994186
  0
LINE
  5
593
100
AcDbEntity
  8
0
100
AcDbLine
 62
7
  6
CONTINUOUS
 10
91.0175820213
 20
79.242994186
 11
91.3822400148
 21
79.242994186
  0
LINE
  5
594
100
AcDbEntity
  8
0
100
AcDbLine
 62
7
  6
CONTINUOUS
 10
95.1746836483
 20
79.242994186
 11
95.6467676751
 21
79.242994186
  0
LINE
  5
595
100
AcDbEntity
  8
0
100
AcDbLine
 62
7
  6
CONTINUOUS
 10
91.7813925056
 20
79.3366112044
 11
91.7468981127
 21
79.3366112044
  0
LINE
  5
596
100
AcDbEntity
  8
0
100
AcDbLine
 62
7
  6
CONTINUOUS
 10
99.293347819
 20
79.6174622593
 11
99.2588534261
 21
79.6174622593
  0
LINE
  5
597
100
AcDbEntity
  8
0
100
AcDbLine
 62
7
  6
CONTINUOUS
 10
92.1460503948
 20
79.6174622593
 11
92.1115560019
 21
79.6174622593
  0
LINE
  5
598
100
AcDbEntity
  8
0
100
AcDbLine
 62
7
  6
CONTINUOUS
 10
98.9286895125
 20
79.7110793022
 11
98.8941951196
 21
79.7110793022
  0
LINE
  5
599
100
AcDbEntity
  8
0
100
AcDbLine
 62
7
  6
CONTINUOUS
 10
93.8964091393
 20
79.7110793022
 11
93.4972564399
 21
79.7110793022
  0
LINE
  5
59A
100
AcDbEntity
  8
0
100
AcDbLine
 62
7
  6
CONTINUOUS
 10
91.4551716553
 20
79.7110793022
 11
90.9446503809
 21
79.7110793022
  0
LINE
  5
59B
100
AcDbEntity
  8
0
100
AcDbLine
 62
7
  6
CONTINUOUS
 10
90.7603499568
 20
79.8046963123
 11
90.7258555639
 21
79.8046963123
  0
LINE
  5
59C
100
AcDbEntity
  8
0
100
AcDbLine
 62
7
  6
CONTINUOUS
 10
98.7098946955
 20
79.8983133224
 11
98.6754003027
 21
79.8983133224
  0
LINE
  5
59D
100
AcDbEntity
  8
0
100
AcDbLine
 62
7
  6
CONTINUOUS
 10
92.3648452117
 20
79.9919303325
 11
92.3303508189
 21
79.9919303325
  0
LINE
  5
59E
100
AcDbEntity
  8
0
100
AcDbLine
 62
7
  6
CONTINUOUS
 10
90.5415551398
 20
79.9919303325
 11
90.5070607469
 21
79.9919303325
  0
LINE
  5
59F
100
AcDbEntity
  8
RUNDUNGEN
100
AcDbLine
 62
7
  6
CONTINUOUS
 10
205.292091184
 20
74.1629941865
 11
205.2919406531
 21
74.1629942834
  0
LINE
  5
5A0
100
AcDbEntity
  8
0
100
AcDbLine
 62
7
  6
CONTINUOUS
 10
102.3783367569
 20
85.8366112044
 11
102.83415964
 21
85.742994186
  0
LINE
  5
5A1
100
AcDbEntity
  8
0
100
AcDbLine
 62
7
  6
CONTINUOUS
 10
104.0192978842
 20
88.1770367113
 11
103.5634760444
 21
88.2706537215
  0
LINE
  5
5A2
100
AcDbEntity
  8
0
100
AcDbLine
 62
7
  6
CONTINUOUS
 10
104.0537922771
 20
88.1770367113
 11
103.5979704372
 21
88.2706537215
  0
LINE
  5
5A3
100
AcDbEntity
  8
0
100
AcDbLine
 62
7
  6
CONTINUOUS
 10
95.9056569284
 20
90.0493771759
 11
95.4498345669
 21
90.142994186
  0
LINE
  5
5A4
100
AcDbEntity
  8
0
100
AcDbLine
 62
7
  6
CONTINUOUS
 10
95.9401513213
 20
90.0493771759
 11
95.4843289598
 21
90.142994186
  0
LINE
  5
5A5
100
AcDbEntity
  8
0
100
AcDbLine
 62
7
  6
CONTINUOUS
 10
100.0992244277
 20
90.0493771759
 11
99.6434015446
 21
90.142994186
  0
LINE
  5
5A6
100
AcDbEntity
  8
0
100
AcDbLine
 62
7
  6
CONTINUOUS
 10
100.1337188206
 20
90.0493771759
 11
99.6778959375
 21
90.142994186
  0
LINE
  5
5A7
100
AcDbEntity
  8
0
100
AcDbLine
 62
7
  6
CONTINUOUS
 10
103.9281337249
 20
90.0493771759
 11
103.4723108418
 21
90.142994186
  0
LINE
  5
5A8
100
AcDbEntity
  8
0
100
AcDbLine
 62
7
  6
CONTINUOUS
 10
103.9626281178
 20
90.0493771759
 11
103.5068052346
 21
90.142994186
  0
LINE
  5
5A9
100
AcDbEntity
  8
0
100
AcDbLine
 62
7
  6
CONTINUOUS
 10
102.6518302781
 20
87.8025686709
 11
103.0164890019
 21
87.7089516608
  0
LINE
  5
5AA
100
AcDbEntity
  8
0
100
AcDbLine
 62
7
  6
CONTINUOUS
 10
103.5634760444
 20
87.7089516608
 11
103.9281337249
 21
87.6153346506
  0
LINE
  5
5AB
100
AcDbEntity
  8
0
100
AcDbLine
 62
7
  6
CONTINUOUS
 10
153.022652573
 20
75.662994186
 11
153.022652573
 21
75.162994186
  0
LINE
  5
5AC
100
AcDbEntity
  8
0
100
AcDbLine
 62
7
  6
CONTINUOUS
 10
153.1747230953
 20
75.662994186
 11
153.1747230953
 21
75.162994186
  0
LINE
  5
5AD
100
AcDbEntity
  8
0
100
AcDbLine
 62
7
  6
CONTINUOUS
 10
154.7171534961
 20
75.662994186
 11
154.7171534961
 21
75.162994186
  0
LINE
  5
5AE
100
AcDbEntity
  8
0
100
AcDbLine
 62
7
  6
CONTINUOUS
 10
156.3464812702
 20
75.662994186
 11
156.3464812702
 21
75.162994186
  0
LINE
  5
5AF
100
AcDbEntity
  8
0
100
AcDbLine
 62
7
  6
CONTINUOUS
 10
157.1557148164
 20
95.662994186
 11
157.1557148164
 21
96.162994186
  0
LINE
  5
5B0
100
AcDbEntity
  8
0
100
AcDbLine
 62
7
  6
CONTINUOUS
 10
157.8943433231
 20
75.662994186
 11
157.8943433231
 21
75.162994186
  0
LINE
  5
5B1
100
AcDbEntity
  8
0
100
AcDbLine
 62
7
  6
CONTINUOUS
 10
98.6369633681
 20
80.1791644183
 11
98.6024689752
 21
80.1791644183
  0
LINE
  5
5B2
100
AcDbEntity
  8
0
100
AcDbLine
 62
7
  6
CONTINUOUS
 10
90.3956919111
 20
80.2727814285
 11
90.3611975182
 21
80.2727814285
  0
LINE
  5
5B3
100
AcDbEntity
  8
0
100
AcDbLine
 62
7
  6
CONTINUOUS
 10
92.5107084926
 20
80.4600154487
 11
92.4762140997
 21
80.4600154487
  0
LINE
  5
5B4
100
AcDbEntity
  8
0
100
AcDbLine
 62
7
  6
CONTINUOUS
 10
90.3227603228
 20
80.5536324588
 11
90.2882659299
 21
80.5536324588
  0
LINE
  5
5B5
100
AcDbEntity
  8
0
100
AcDbLine
 62
7
  6
CONTINUOUS
 10
90.3227603228
 20
80.8344834892
 11
90.2882659299
 21
80.8344834892
  0
LINE
  5
5B6
100
AcDbEntity
  8
0
100
AcDbLine
 62
7
  6
CONTINUOUS
 10
92.5107084926
 20
80.9281006304
 11
92.4762140997
 21
80.9281006304
  0
LINE
  5
5B7
100
AcDbEntity
  8
0
100
AcDbLine
 62
7
  6
CONTINUOUS
 10
90.3956919111
 20
81.1153346506
 11
90.3611975182
 21
81.1153346506
  0
LINE
  5
5B8
100
AcDbEntity
  8
0
100
AcDbLine
 62
7
  6
CONTINUOUS
 10
211.5777472978
 20
81.182994186
 11
212.0335691376
 21
81.182994186
  0
LINE
  5
5B9
100
AcDbEntity
  8
0
100
AcDbLine
 62
7
  6
CONTINUOUS
 10
215.4066565949
 20
81.182994186
 11
217.5946042431
 21
81.182994186
  0
LINE
  5
5BA
100
AcDbEntity
  8
0
100
AcDbLine
 62
7
  6
CONTINUOUS
 10
219.6002235726
 20
81.182994186
 11
221.7881717425
 21
81.182994186
  0
LINE
  5
5BB
100
AcDbEntity
  8
0
100
AcDbLine
 62
7
  6
CONTINUOUS
 10
222.4829934931
 20
81.182994186
 11
223.0644749285
 21
81.182994186
  0
LINE
  5
5BC
100
AcDbEntity
  8
0
100
AcDbLine
 62
7
  6
CONTINUOUS
 10
225.5825866467
 20
81.182994186
 11
226.1640680821
 21
81.182994186
  0
LINE
  5
5BD
100
AcDbEntity
  8
0
100
AcDbLine
 62
7
  6
CONTINUOUS
 10
211.0874300218
 20
81.2766111962
 11
211.1219244146
 21
81.2766111962
  0
LINE
  5
5BE
100
AcDbEntity
  8
0
100
AcDbLine
 62
7
  6
CONTINUOUS
 10
214.9163393189
 20
81.2766111962
 11
214.9508337118
 21
81.2766111962
  0
LINE
  5
5BF
100
AcDbEntity
  8
0
100
AcDbLine
 62
7
  6
CONTINUOUS
 10
219.1099068183
 20
81.2766111962
 11
219.1444012112
 21
81.2766111962
  0
LINE
  5
5C0
100
AcDbEntity
  8
0
100
AcDbLine
 62
7
  6
CONTINUOUS
 10
90.5415551398
 20
81.3025686709
 11
90.5070607469
 21
81.3025686709
  0
LINE
  5
5C1
100
AcDbEntity
  8
0
100
AcDbLine
 62
7
  6
CONTINUOUS
 10
92.3648452117
 20
81.396185681
 11
92.3303508189
 21
81.396185681
  0
LINE
  5
5C2
100
AcDbEntity
  8
0
100
AcDbLine
 62
7
  6
CONTINUOUS
 10
90.7603499568
 20
81.4898026911
 11
90.7258555639
 21
81.4898026911
  0
LINE
  5
5C3
100
AcDbEntity
  8
0
100
AcDbLine
 62
7
  6
CONTINUOUS
 10
210.7227723412
 20
81.5574622265
 11
210.7572667341
 21
81.5574622265
  0
LINE
  5
5C4
100
AcDbEntity
  8
0
100
AcDbLine
 62
7
  6
CONTINUOUS
 10
214.5516816384
 20
81.5574622265
 11
214.5861760313
 21
81.5574622265
  0
LINE
  5
5C5
100
AcDbEntity
  8
0
100
AcDbLine
 62
7
  6
CONTINUOUS
 10
218.7452486161
 20
81.5574622265
 11
218.779743009
 21
81.5574622265
  0
LINE
  5
5C6
100
AcDbEntity
  8
0
100
AcDbLine
 62
7
  6
CONTINUOUS
 10
90.9446503809
 20
81.5834197012
 11
91.4551716553
 21
81.5834197012
  0
LINE
  5
5C7
100
AcDbEntity
  8
0
100
AcDbLine
 62
7
  6
CONTINUOUS
 10
221.2411847
 20
81.6510792366
 11
219.5090588917
 21
81.6510792366
  0
LINE
  5
5C8
100
AcDbEntity
  8
0
100
AcDbLine
 62
7
  6
CONTINUOUS
 10
92.1460503948
 20
81.6770367113
 11
92.1115560019
 21
81.6770367113
  0
LINE
  5
5C9
100
AcDbEntity
  8
0
100
AcDbLine
 62
7
  6
CONTINUOUS
 10
217.0476177223
 20
81.7446962467
 11
215.3154913923
 21
81.7446962467
  0
LINE
  5
5CA
100
AcDbEntity
  8
0
100
AcDbLine
 62
7
  6
CONTINUOUS
 10
212.0335691376
 20
81.7446962467
 11
211.4865820952
 21
81.7446962467
  0
LINE
  5
5CB
100
AcDbEntity
  8
0
100
AcDbLine
 62
7
  6
CONTINUOUS
 10
90.2498287085
 20
81.7706537215
 11
90.2153343156
 21
81.7706537215
  0
LINE
  5
5CC
100
AcDbEntity
  8
0
100
AcDbLine
 62
7
  6
CONTINUOUS
 10
212.272568266
 20
81.8383132569
 11
212.3070626588
 21
81.8383132569
  0
LINE
  5
5CD
100
AcDbEntity
  8
0
100
AcDbLine
 62
7
  6
CONTINUOUS
 10
97.6543583798
 20
81.8642707316
 11
98.2378106687
 21
81.8642707316
  0
LINE
  5
5CE
100
AcDbEntity
  8
0
100
AcDbLine
 62
7
  6
CONTINUOUS
 10
98.6024689752
 20
81.8642707316
 11
99.4392113086
 21
81.8642707316
  0
LINE
  5
5CF
100
AcDbEntity
  8
0
100
AcDbLine
 62
7
  6
CONTINUOUS
 10
210.44927882
 20
81.931930267
 11
210.4837732129
 21
81.931930267
  0
LINE
  5
5D0
100
AcDbEntity
  8
0
100
AcDbLine
 62
7
  6
CONTINUOUS
 10
214.2781881172
 20
81.931930267
 11
214.31268251
 21
81.931930267
  0
LINE
  5
5D1
100
AcDbEntity
  8
0
100
AcDbLine
 62
7
  6
CONTINUOUS
 10
218.4717550949
 20
81.931930267
 11
218.5062494877
 21
81.931930267
  0
LINE
  5
5D2
100
AcDbEntity
  8
0
100
AcDbLine
 62
7
  6
CONTINUOUS
 10
91.7813925056
 20
81.9578877417
 11
91.7468981127
 21
81.9578877417
  0
LINE
  5
5D3
100
AcDbEntity
  8
0
100
AcDbLine
 62
7
  6
CONTINUOUS
 10
212.5460617872
 20
82.0255472771
 11
212.5805561801
 21
82.0255472771
  0
LINE
  5
5D4
100
AcDbEntity
  8
0
100
AcDbLine
 62
7
  6
CONTINUOUS
 10
91.3822400148
 20
82.0515047518
 11
91.0175820213
 21
82.0515047518
  0
LINE
  5
5D5
100
AcDbEntity
  8
0
100
AcDbLine
 62
7
  6
CONTINUOUS
 10
210.3581136174
 20
82.2127812973
 11
210.9395950527
 21
82.2127812973
  0
LINE
  5
5D6
100
AcDbEntity
  8
0
100
AcDbLine
 62
7
  6
CONTINUOUS
 10
214.1870229146
 20
82.2127812973
 11
214.2215173074
 21
82.2127812973
  0
LINE
  5
5D7
100
AcDbEntity
  8
0
100
AcDbLine
 62
7
  6
CONTINUOUS
 10
218.3805904139
 20
82.2127812973
 11
218.4150848068
 21
82.2127812973
  0
LINE
  5
5D8
100
AcDbEntity
  8
0
100
AcDbLine
 62
7
  6
CONTINUOUS
 10
99.4392113086
 20
82.238738772
 11
98.6024689752
 21
82.238738772
  0
LINE
  5
5D9
100
AcDbEntity
  8
0
100
AcDbLine
 62
7
  6
CONTINUOUS
 10
98.2378106687
 20
82.238738772
 11
97.6543583798
 21
82.238738772
  0
LINE
  5
5DA
100
AcDbEntity
  8
0
100
AcDbLine
 62
7
  6
CONTINUOUS
 10
212.6372269898
 20
82.3063985697
 11
212.6717213827
 21
82.3063985697
  0
LINE
  5
5DB
100
AcDbEntity
  8
0
100
AcDbLine
 62
7
  6
CONTINUOUS
 10
90.3227603228
 20
82.3323557822
 11
90.2882659299
 21
82.3323557822
  0
LINE
  5
5DC
100
AcDbEntity
  8
0
100
AcDbLine
 62
7
  6
CONTINUOUS
 10
212.6372269898
 20
82.4936325899
 11
212.6717213827
 21
82.4936325899
  0
LINE
  5
5DD
100
AcDbEntity
  8
0
100
AcDbLine
 62
7
  6
CONTINUOUS
 10
214.1870229146
 20
82.5872496001
 11
214.2215173074
 21
82.5872496001
  0
LINE
  5
5DE
100
AcDbEntity
  8
0
100
AcDbLine
 62
7
  6
CONTINUOUS
 10
218.3805904139
 20
82.5872496001
 11
218.4150848068
 21
82.5872496001
  0
LINE
  5
5DF
100
AcDbEntity
  8
0
100
AcDbLine
 62
7
  6
CONTINUOUS
 10
90.3956919111
 20
82.6132070748
 11
90.3611975182
 21
82.6132070748
  0
LINE
  5
5E0
100
AcDbEntity
  8
0
100
AcDbLine
 62
7
  6
CONTINUOUS
 10
91.9656929297
 20
82.6132070748
 11
92.3648452117
 21
82.6132070748
  0
LINE
  5
5E1
100
AcDbEntity
  8
0
100
AcDbLine
 62
7
  6
CONTINUOUS
 10
212.5460617872
 20
82.7744836203
 11
212.5805561801
 21
82.7744836203
  0
LINE
  5
5E2
100
AcDbEntity
  8
0
100
AcDbLine
 62
7
  6
CONTINUOUS
 10
214.2781881172
 20
82.8681006304
 11
214.31268251
 21
82.8681006304
  0
LINE
  5
5E3
100
AcDbEntity
  8
0
100
AcDbLine
 62
7
  6
CONTINUOUS
 10
218.4717550949
 20
82.8681006304
 11
218.5062494877
 21
82.8681006304
  0
LINE
  5
5E4
100
AcDbEntity
  8
0
100
AcDbLine
 62
7
  6
CONTINUOUS
 10
92.2919136756
 20
82.8940581051
 11
92.2574192828
 21
82.8940581051
  0
LINE
  5
5E5
100
AcDbEntity
  8
0
100
AcDbLine
 62
7
  6
CONTINUOUS
 10
90.5415551398
 20
82.8940581051
 11
90.5070607469
 21
82.8940581051
  0
LINE
  5
5E6
100
AcDbEntity
  8
0
100
AcDbLine
 62
7
  6
CONTINUOUS
 10
212.272568266
 20
82.9617176405
 11
212.3070626588
 21
82.9617176405
  0
LINE
  5
5E7
100
AcDbEntity
  8
0
100
AcDbLine
 62
7
  6
CONTINUOUS
 10
98.6369633681
 20
82.9876751152
 11
98.2378106687
 21
82.9876751152
  0
LINE
  5
5E8
100
AcDbEntity
  8
0
100
AcDbLine
 62
7
  6
CONTINUOUS
 10
211.4865820952
 20
83.0553346506
 11
212.0335691376
 21
83.0553346506
  0
LINE
  5
5E9
100
AcDbEntity
  8
0
100
AcDbLine
 62
7
  6
CONTINUOUS
 10
215.3154913923
 20
83.0553346506
 11
217.0476177223
 21
83.0553346506
  0
LINE
  5
5EA
100
AcDbEntity
  8
0
100
AcDbLine
 62
7
  6
CONTINUOUS
 10
219.5090588917
 20
83.0553346506
 11
221.2411847
 21
83.0553346506
  0
LINE
  5
5EB
100
AcDbEntity
  8
0
100
AcDbLine
 62
7
  6
CONTINUOUS
 10
90.7603499568
 20
83.0812921253
 11
90.7258555639
 21
83.0812921253
  0
LINE
  5
5EC
100
AcDbEntity
  8
0
100
AcDbLine
 62
7
  6
CONTINUOUS
 10
210.9962658624
 20
83.1489516608
 11
211.0307602553
 21
83.1489516608
  0
LINE
  5
5ED
100
AcDbEntity
  8
0
100
AcDbLine
 62
7
  6
CONTINUOUS
 10
97.1053996492
 20
83.1749091355
 11
97.0709052563
 21
83.1749091355
  0
LINE
  5
5EE
100
AcDbEntity
  8
0
100
AcDbLine
 62
7
  6
CONTINUOUS
 10
90.9446503809
 20
83.1749091355
 11
91.3822400148
 21
83.1749091355
  0
LINE
  5
5EF
100
AcDbEntity
  8
0
100
AcDbLine
 62
7
  6
CONTINUOUS
 10
94.4453674526
 20
83.1749091355
 11
96.6333156224
 21
83.1749091355
  0
LINE
  5
5F0
100
AcDbEntity
  8
0
100
AcDbLine
 62
7
  6
CONTINUOUS
 10
214.5516816384
 20
83.2425686709
 11
214.5861760313
 21
83.2425686709
  0
LINE
  5
5F1
100
AcDbEntity
  8
0
100
AcDbLine
 62
7
  6
CONTINUOUS
 10
218.7452486161
 20
83.2425686709
 11
218.779743009
 21
83.2425686709
  0
LINE
  5
5F2
100
AcDbEntity
  8
0
100
AcDbLine
 62
7
  6
CONTINUOUS
 10
92.0731188587
 20
83.2685261456
 11
92.0386244658
 21
83.2685261456
  0
LINE
  5
5F3
100
AcDbEntity
  8
0
100
AcDbLine
 62
7
  6
CONTINUOUS
 10
210.6316071386
 20
83.336185681
 11
210.6661015315
 21
83.336185681
  0
LINE
  5
5F4
100
AcDbEntity
  8
0
100
AcDbLine
 62
7
  6
CONTINUOUS
 10
214.734009957
 20
83.336185681
 11
214.7685043499
 21
83.336185681
  0
LINE
  5
5F5
100
AcDbEntity
  8
0
100
AcDbLine
 62
7
  6
CONTINUOUS
 10
214.5516816384
 20
83.4298026911
 11
214.5861760313
 21
83.4298026911
  0
LINE
  5
5F6
100
AcDbEntity
  8
0
100
AcDbLine
 62
7
  6
CONTINUOUS
 10
219.1099068183
 20
83.4298026911
 11
219.1444012112
 21
83.4298026911
  0
LINE
  5
5F7
100
AcDbEntity
  8
0
100
AcDbLine
 62
7
  6
CONTINUOUS
 10
91.7084607608
 20
83.5493771759
 11
91.6739663679
 21
83.5493771759
  0
LINE
  5
5F8
100
AcDbEntity
  8
0
100
AcDbLine
 62
7
  6
CONTINUOUS
 10
221.2411847
 20
83.6170367113
 11
219.6913882536
 21
83.6170367113
  0
LINE
  5
5F9
100
AcDbEntity
  8
0
100
AcDbLine
 62
7
  6
CONTINUOUS
 10
217.0476177223
 20
83.6170367113
 11
215.3154913923
 21
83.6170367113
  0
LINE
  5
5FA
100
AcDbEntity
  8
0
100
AcDbLine
 62
7
  6
CONTINUOUS
 10
212.0335691376
 20
83.6170367113
 11
211.4865820952
 21
83.6170367113
  0
LINE
  5
5FB
100
AcDbEntity
  8
0
100
AcDbLine
 62
7
  6
CONTINUOUS
 10
97.1053996492
 20
83.642994186
 11
94.4453674526
 21
83.642994186
  0
LINE
  5
5FC
100
AcDbEntity
  8
0
100
AcDbLine
 62
7
  6
CONTINUOUS
 10
91.3093083744
 20
83.642994186
 11
91.0175820213
 21
83.642994186
  0
LINE
  5
5FD
100
AcDbEntity
  8
0
100
AcDbLine
 62
7
  6
CONTINUOUS
 10
210.2669494581
 20
83.7106537215
 11
210.301443851
 21
83.7106537215
  0
LINE
  5
5FE
100
AcDbEntity
  8
0
100
AcDbLine
 62
7
  6
CONTINUOUS
 10
214.2781881172
 20
83.8042707316
 11
214.31268251
 21
83.8042707316
  0
LINE
  5
5FF
100
AcDbEntity
  8
0
100
AcDbLine
 62
7
  6
CONTINUOUS
 10
210.0846200962
 20
84.0851218931
 11
210.119114489
 21
84.0851218931
  0
LINE
  5
600
100
AcDbEntity
  8
0
100
AcDbLine
 62
7
  6
CONTINUOUS
 10
214.1870229146
 20
84.0851218931
 11
214.2215173074
 21
84.0851218931
  0
LINE
  5
601
100
AcDbEntity
  8
0
100
AcDbLine
 62
7
  6
CONTINUOUS
 10
212.910720511
 20
84.3659729234
 11
213.4922019464
 21
84.3659729234
  0
LINE
  5
602
100
AcDbEntity
  8
0
100
AcDbLine
 62
7
  6
CONTINUOUS
 10
210.0846200962
 20
84.5532069436
 11
210.119114489
 21
84.5532069436
  0
LINE
  5
603
100
AcDbEntity
  8
0
100
AcDbLine
 62
7
  6
CONTINUOUS
 10
214.1870229146
 20
84.5532069436
 11
214.2215173074
 21
84.5532069436
  0
LINE
  5
604
100
AcDbEntity
  8
0
100
AcDbLine
 62
7
  6
CONTINUOUS
 10
212.8195553084
 20
84.6468239538
 11
212.8540497013
 21
84.6468239538
  0
LINE
  5
605
100
AcDbEntity
  8
0
100
AcDbLine
 62
7
  6
CONTINUOUS
 10
214.2781881172
 20
84.8340580395
 11
214.31268251
 21
84.8340580395
  0
LINE
  5
606
100
AcDbEntity
  8
0
100
AcDbLine
 62
7
  6
CONTINUOUS
 10
210.2669494581
 20
84.9276750497
 11
210.301443851
 21
84.9276750497
  0
LINE
  5
607
100
AcDbEntity
  8
0
100
AcDbLine
 62
7
  6
CONTINUOUS
 10
212.5460617872
 20
84.9276750497
 11
212.5805561801
 21
84.9276750497
  0
LINE
  5
608
100
AcDbEntity
  8
0
100
AcDbLine
 62
7
  6
CONTINUOUS
 10
211.4865820952
 20
85.0212920598
 11
212.2158984995
 21
85.0212920598
  0
LINE
  5
609
100
AcDbEntity
  8
0
100
AcDbLine
 62
7
  6
CONTINUOUS
 10
215.3154913923
 20
85.0212920598
 11
217.0476177223
 21
85.0212920598
  0
LINE
  5
60A
100
AcDbEntity
  8
0
100
AcDbLine
 62
7
  6
CONTINUOUS
 10
214.5516816384
 20
85.2085261128
 11
214.5861760313
 21
85.2085261128
  0
LINE
  5
60B
100
AcDbEntity
  8
0
100
AcDbLine
 62
7
  6
CONTINUOUS
 10
210.6316071386
 20
85.3021431229
 11
210.6661015315
 21
85.3021431229
  0
LINE
  5
60C
100
AcDbEntity
  8
0
100
AcDbLine
 62
7
  6
CONTINUOUS
 10
210.9962658624
 20
85.4893771677
 11
211.0307602553
 21
85.4893771677
  0
LINE
  5
60D
100
AcDbEntity
  8
0
100
AcDbLine
 62
7
  6
CONTINUOUS
 10
214.9163393189
 20
85.4893771677
 11
214.9508337118
 21
85.4893771677
  0
LINE
  5
60E
100
AcDbEntity
  8
0
100
AcDbLine
 62
7
  6
CONTINUOUS
 10
217.5946042431
 20
85.582994186
 11
215.4066565949
 21
85.582994186
  0
LINE
  5
60F
100
AcDbEntity
  8
0
100
AcDbLine
 62
7
  6
CONTINUOUS
 10
212.2158984995
 20
85.582994186
 11
211.4865820952
 21
85.582994186
  0
LINE
  5
610
100
AcDbEntity
  8
0
100
AcDbLine
 62
7
  6
CONTINUOUS
 10
218.2894262546
 20
85.582994186
 11
218.9620718492
 21
85.582994186
  0
LINE
  5
611
100
AcDbEntity
  8
0
100
AcDbLine
 62
7
  6
CONTINUOUS
 10
221.2066903071
 20
85.582994186
 11
221.7881717425
 21
85.582994186
  0
LINE
  5
612
100
AcDbEntity
  8
0
100
AcDbLine
 62
7
  6
CONTINUOUS
 10
223.9416255194
 20
85.582994186
 11
224.7054359254
 21
85.582994186
  0
LINE
  5
613
100
AcDbEntity
  8
0
100
AcDbLine
 62
7
  6
CONTINUOUS
 10
90.3446222141
 20
85.742994186
 11
91.1084326201
 21
85.742994186
  0
LINE
  5
614
100
AcDbEntity
  8
0
100
AcDbLine
 62
7
  6
CONTINUOUS
 10
93.2618863971
 20
85.742994186
 11
93.8433678324
 21
85.742994186
  0
LINE
  5
615
100
AcDbEntity
  8
0
100
AcDbLine
 62
7
  6
CONTINUOUS
 10
96.0879862903
 20
85.742994186
 11
96.7606318849
 21
85.742994186
  0
LINE
  5
616
100
AcDbEntity
  8
0
100
AcDbLine
 62
7
  6
CONTINUOUS
 10
97.4554538964
 20
85.742994186
 11
99.6434015446
 21
85.742994186
  0
LINE
  5
617
100
AcDbEntity
  8
0
100
AcDbLine
 62
7
  6
CONTINUOUS
 10
102.83415964
 20
85.742994186
 11
103.5634760444
 21
85.742994186
  0
LINE
  5
618
100
AcDbEntity
  8
0
100
AcDbLine
 62
7
  6
CONTINUOUS
 10
104.0537922771
 20
85.8366112044
 11
104.0192978842
 21
85.8366112044
  0
LINE
  5
619
100
AcDbEntity
  8
0
100
AcDbLine
 62
7
  6
CONTINUOUS
 10
100.1337188206
 20
85.8366112044
 11
100.0992244277
 21
85.8366112044
  0
LINE
  5
61A
100
AcDbEntity
  8
0
100
AcDbLine
 62
7
  6
CONTINUOUS
 10
104.4184510009
 20
86.0238452492
 11
104.383956608
 21
86.0238452492
  0
LINE
  5
61B
100
AcDbEntity
  8
0
100
AcDbLine
 62
7
  6
CONTINUOUS
 10
100.4983765011
 20
86.1174622593
 11
100.4638821083
 21
86.1174622593
  0
LINE
  5
61C
100
AcDbEntity
  8
0
100
AcDbLine
 62
7
  6
CONTINUOUS
 10
103.5634760444
 20
86.3046963123
 11
102.83415964
 21
86.3046963123
  0
LINE
  5
61D
100
AcDbEntity
  8
0
100
AcDbLine
 62
7
  6
CONTINUOUS
 10
99.7345667472
 20
86.3046963123
 11
98.0024404172
 21
86.3046963123
  0
LINE
  5
61E
100
AcDbEntity
  8
0
100
AcDbLine
 62
7
  6
CONTINUOUS
 10
104.7831086815
 20
86.3983133224
 11
104.7486142886
 21
86.3983133224
  0
LINE
  5
61F
100
AcDbEntity
  8
0
100
AcDbLine
 62
7
  6
CONTINUOUS
 10
102.5039963523
 20
86.3983133224
 11
102.4695019595
 21
86.3983133224
  0
LINE
  5
620
100
AcDbEntity
  8
0
100
AcDbLine
 62
7
  6
CONTINUOUS
 10
100.7718700224
 20
86.4919303325
 11
100.7373756295
 21
86.4919303325
  0
LINE
  5
621
100
AcDbEntity
  8
0
100
AcDbLine
 62
7
  6
CONTINUOUS
 10
158.7035768694
 20
95.662994186
 11
158.7035768694
 21
96.162994186
  0
LINE
  5
622
100
AcDbEntity
  8
0
100
AcDbLine
 62
7
  6
CONTINUOUS
 10
160.3329046434
 20
95.662994186
 11
160.3329046434
 21
96.162994186
  0
LINE
  5
623
100
AcDbEntity
  8
0
100
AcDbLine
 62
7
  6
CONTINUOUS
 10
161.8753350443
 20
95.662994186
 11
161.8753350443
 21
96.162994186
  0
LINE
  5
624
100
AcDbEntity
  8
0
100
AcDbLine
 62
7
  6
CONTINUOUS
 10
162.0274055666
 20
95.662994186
 11
162.0274055666
 21
96.162994186
  0
LINE
  5
625
100
AcDbEntity
  8
0
100
AcDbLine
 62
7
  6
CONTINUOUS
 10
163.4177655643
 20
75.662994186
 11
163.4177655643
 21
75.162994186
  0
LINE
  5
626
100
AcDbEntity
  8
0
100
AcDbLine
 62
7
  6
CONTINUOUS
 10
163.9174260563
 20
75.662994186
 11
163.9174260563
 21
75.162994186
  0
LINE
  5
627
100
AcDbEntity
  8
0
100
AcDbLine
 62
7
  6
CONTINUOUS
 10
164.726658768
 20
75.662994186
 11
164.726658768
 21
75.162994186
  0
LINE
  5
628
100
AcDbEntity
  8
0
100
AcDbLine
 62
7
  6
CONTINUOUS
 10
102.2305028311
 20
86.6791644183
 11
102.1960084382
 21
86.6791644183
  0
LINE
  5
629
100
AcDbEntity
  8
0
100
AcDbLine
 62
7
  6
CONTINUOUS
 10
104.9654380434
 20
86.7727814285
 11
104.9309436505
 21
86.7727814285
  0
LINE
  5
62A
100
AcDbEntity
  8
0
100
AcDbLine
 62
7
  6
CONTINUOUS
 10
100.863035225
 20
86.7727814285
 11
100.8285408321
 21
86.7727814285
  0
LINE
  5
62B
100
AcDbEntity
  8
0
100
AcDbLine
 62
7
  6
CONTINUOUS
 10
102.1393376285
 20
86.9600154487
 11
101.5578561932
 21
86.9600154487
  0
LINE
  5
62C
100
AcDbEntity
  8
0
100
AcDbLine
 62
7
  6
CONTINUOUS
 10
104.9654380434
 20
87.240866479
 11
104.9309436505
 21
87.240866479
  0
LINE
  5
62D
100
AcDbEntity
  8
0
100
AcDbLine
 62
7
  6
CONTINUOUS
 10
100.863035225
 20
87.240866479
 11
100.8285408321
 21
87.240866479
  0
LINE
  5
62E
100
AcDbEntity
  8
0
100
AcDbLine
 62
7
  6
CONTINUOUS
 10
100.7718700224
 20
87.5217176405
 11
100.7373756295
 21
87.5217176405
  0
LINE
  5
62F
100
AcDbEntity
  8
0
100
AcDbLine
 62
7
  6
CONTINUOUS
 10
104.7831086815
 20
87.6153346506
 11
104.7486142886
 21
87.6153346506
  0
LINE
  5
630
100
AcDbEntity
  8
0
100
AcDbLine
 62
7
  6
CONTINUOUS
 10
217.9446584903
 20
87.682994186
 11
220.604690687
 21
87.682994186
  0
LINE
  5
631
100
AcDbEntity
  8
0
100
AcDbLine
 62
7
  6
CONTINUOUS
 10
223.7407497651
 20
87.682994186
 11
224.0324761182
 21
87.682994186
  0
LINE
  5
632
100
AcDbEntity
  8
0
100
AcDbLine
 62
7
  6
CONTINUOUS
 10
93.8088734395
 20
87.7089516608
 11
95.3586698859
 21
87.7089516608
  0
LINE
  5
633
100
AcDbEntity
  8
0
100
AcDbLine
 62
7
  6
CONTINUOUS
 10
98.0024404172
 20
87.7089516608
 11
99.7345667472
 21
87.7089516608
  0
LINE
  5
634
100
AcDbEntity
  8
0
100
AcDbLine
 62
7
  6
CONTINUOUS
 10
103.0164890019
 20
87.7089516608
 11
103.5634760444
 21
87.7089516608
  0
LINE
  5
635
100
AcDbEntity
  8
0
100
AcDbLine
 62
7
  6
CONTINUOUS
 10
223.3415973787
 20
87.7766111962
 11
223.3760917716
 21
87.7766111962
  0
LINE
  5
636
100
AcDbEntity
  8
0
100
AcDbLine
 62
7
  6
CONTINUOUS
 10
100.4983765011
 20
87.896185681
 11
100.4638821083
 21
87.896185681
  0
LINE
  5
637
100
AcDbEntity
  8
0
100
AcDbLine
 62
7
  6
CONTINUOUS
 10
95.9401513213
 20
87.896185681
 11
95.9056569284
 21
87.896185681
  0
LINE
  5
638
100
AcDbEntity
  8
0
100
AcDbLine
 62
7
  6
CONTINUOUS
 10
104.4184510009
 20
87.9898026911
 11
104.383956608
 21
87.9898026911
  0
LINE
  5
639
100
AcDbEntity
  8
0
100
AcDbLine
 62
7
  6
CONTINUOUS
 10
100.3160481825
 20
87.9898026911
 11
100.2815537897
 21
87.9898026911
  0
LINE
  5
63A
100
AcDbEntity
  8
0
100
AcDbLine
 62
7
  6
CONTINUOUS
 10
222.9769392809
 20
88.0574622265
 11
223.0114336738
 21
88.0574622265
  0
LINE
  5
63B
100
AcDbEntity
  8
0
100
AcDbLine
 62
7
  6
CONTINUOUS
 10
100.4983765011
 20
88.0834197012
 11
100.4638821083
 21
88.0834197012
  0
LINE
  5
63C
100
AcDbEntity
  8
0
100
AcDbLine
 62
7
  6
CONTINUOUS
 10
96.3048095234
 20
88.0834197012
 11
96.2703151306
 21
88.0834197012
  0
LINE
  5
63D
100
AcDbEntity
  8
0
100
AcDbLine
 62
7
  6
CONTINUOUS
 10
224.1054077587
 20
88.1510792366
 11
223.6678181247
 21
88.1510792366
  0
LINE
  5
63E
100
AcDbEntity
  8
0
100
AcDbLine
 62
7
  6
CONTINUOUS
 10
220.604690687
 20
88.1510792366
 11
218.4167425172
 21
88.1510792366
  0
LINE
  5
63F
100
AcDbEntity
  8
0
100
AcDbLine
 62
7
  6
CONTINUOUS
 10
217.9446584903
 20
88.1510792366
 11
217.9791528832
 21
88.1510792366
  0
LINE
  5
640
100
AcDbEntity
  8
0
100
AcDbLine
 62
7
  6
CONTINUOUS
 10
104.0537922771
 20
88.1770367113
 11
104.0192978842
 21
88.1770367113
  0
LINE
  5
641
100
AcDbEntity
  8
0
100
AcDbLine
 62
7
  6
CONTINUOUS
 10
224.2897081828
 20
88.2446962467
 11
224.3242025756
 21
88.2446962467
  0
LINE
  5
642
100
AcDbEntity
  8
0
100
AcDbLine
 62
7
  6
CONTINUOUS
 10
103.5634760444
 20
88.2706537215
 11
103.0164890019
 21
88.2706537215
  0
LINE
  5
643
100
AcDbEntity
  8
0
100
AcDbLine
 62
7
  6
CONTINUOUS
 10
99.7345667472
 20
88.2706537215
 11
98.0024404172
 21
88.2706537215
  0
LINE
  5
644
100
AcDbEntity
  8
0
100
AcDbLine
 62
7
  6
CONTINUOUS
 10
95.5409992478
 20
88.2706537215
 11
93.8088734395
 21
88.2706537215
  0
LINE
  5
645
100
AcDbEntity
  8
0
100
AcDbLine
 62
7
  6
CONTINUOUS
 10
216.4130947715
 20
88.3383132569
 11
216.8122474708
 21
88.3383132569
  0
LINE
  5
646
100
AcDbEntity
  8
0
100
AcDbLine
 62
7
  6
CONTINUOUS
 10
102.7774898736
 20
88.3642707316
 11
102.7429954807
 21
88.3642707316
  0
LINE
  5
647
100
AcDbEntity
  8
0
100
AcDbLine
 62
7
  6
CONTINUOUS
 10
222.7581444639
 20
88.431930267
 11
222.7926388568
 21
88.431930267
  0
LINE
  5
648
100
AcDbEntity
  8
0
100
AcDbLine
 62
7
  6
CONTINUOUS
 10
224.5085029997
 20
88.431930267
 11
224.5429973926
 21
88.431930267
  0
LINE
  5
649
100
AcDbEntity
  8
0
100
AcDbLine
 62
7
  6
CONTINUOUS
 10
100.7718700224
 20
88.4578877417
 11
100.7373756295
 21
88.4578877417
  0
LINE
  5
64A
100
AcDbEntity
  8
0
100
AcDbLine
 62
7
  6
CONTINUOUS
 10
96.5783030447
 20
88.4578877417
 11
96.5438086518
 21
88.4578877417
  0
LINE
  5
64B
100
AcDbEntity
  8
0
100
AcDbLine
 62
7
  6
CONTINUOUS
 10
102.5039963523
 20
88.5515047518
 11
102.4695019595
 21
88.5515047518
  0
LINE
  5
64C
100
AcDbEntity
  8
0
100
AcDbLine
 62
7
  6
CONTINUOUS
 10
222.6852129278
 20
88.7127812973
 11
223.0843652099
 21
88.7127812973
  0
LINE
  5
64D
100
AcDbEntity
  8
0
100
AcDbLine
 62
7
  6
CONTINUOUS
 10
224.6543662285
 20
88.7127812973
 11
224.6888606213
 21
88.7127812973
  0
LINE
  5
64E
100
AcDbEntity
  8
0
100
AcDbLine
 62
7
  6
CONTINUOUS
 10
100.863035225
 20
88.738738772
 11
100.8285408321
 21
88.738738772
  0
LINE
  5
64F
100
AcDbEntity
  8
0
100
AcDbLine
 62
7
  6
CONTINUOUS
 10
96.6694677256
 20
88.738738772
 11
96.6349733328
 21
88.738738772
  0
LINE
  5
650
100
AcDbEntity
  8
0
100
AcDbLine
 62
7
  6
CONTINUOUS
 10
102.4128311497
 20
88.8323557822
 11
102.3783367569
 21
88.8323557822
  0
LINE
  5
651
100
AcDbEntity
  8
0
100
AcDbLine
 62
7
  6
CONTINUOUS
 10
224.7272978167
 20
88.9936325899
 11
224.7617922096
 21
88.9936325899
  0
LINE
  5
652
100
AcDbEntity
  8
0
100
AcDbLine
 62
7
  6
CONTINUOUS
 10
102.4128311497
 20
89.0195898024
 11
102.3783367569
 21
89.0195898024
  0
LINE
  5
653
100
AcDbEntity
  8
0
100
AcDbLine
 62
7
  6
CONTINUOUS
 10
215.610846831
 20
89.0872496001
 11
216.4475891643
 21
89.0872496001
  0
LINE
  5
654
100
AcDbEntity
  8
0
100
AcDbLine
 62
7
  6
CONTINUOUS
 10
216.8122474708
 20
89.0872496001
 11
217.3956997597
 21
89.0872496001
  0
LINE
  5
655
100
AcDbEntity
  8
0
100
AcDbLine
 62
7
  6
CONTINUOUS
 10
100.863035225
 20
89.1132070748
 11
100.8285408321
 21
89.1132070748
  0
LINE
  5
656
100
AcDbEntity
  8
0
100
AcDbLine
 62
7
  6
CONTINUOUS
 10
96.6694677256
 20
89.1132070748
 11
96.6349733328
 21
89.1132070748
  0
LINE
  5
657
100
AcDbEntity
  8
0
100
AcDbLine
 62
7
  6
CONTINUOUS
 10
104.1104630868
 20
89.1132070748
 11
104.6919445221
 21
89.1132070748
  0
LINE
  5
658
100
AcDbEntity
  8
0
100
AcDbLine
 62
7
  6
CONTINUOUS
 10
223.6678181247
 20
89.2744836203
 11
224.0324761182
 21
89.2744836203
  0
LINE
  5
659
100
AcDbEntity
  8
0
100
AcDbLine
 62
7
  6
CONTINUOUS
 10
102.5039963523
 20
89.300441095
 11
102.4695019595
 21
89.300441095
  0
LINE
  5
65A
100
AcDbEntity
  8
0
100
AcDbLine
 62
7
  6
CONTINUOUS
 10
223.268665634
 20
89.3681006304
 11
223.3031600268
 21
89.3681006304
  0
LINE
  5
65B
100
AcDbEntity
  8
0
100
AcDbLine
 62
7
  6
CONTINUOUS
 10
104.6007793195
 20
89.3940581051
 11
104.5662849267
 21
89.3940581051
  0
LINE
  5
65C
100
AcDbEntity
  8
0
100
AcDbLine
 62
7
  6
CONTINUOUS
 10
100.7718700224
 20
89.3940581051
 11
100.7373756295
 21
89.3940581051
  0
LINE
  5
65D
100
AcDbEntity
  8
0
100
AcDbLine
 62
7
  6
CONTINUOUS
 10
96.5783030447
 20
89.3940581051
 11
96.5438086518
 21
89.3940581051
  0
LINE
  5
65E
100
AcDbEntity
  8
0
100
AcDbLine
 62
7
  6
CONTINUOUS
 10
217.3956997597
 20
89.4617176405
 11
216.8122474708
 21
89.4617176405
  0
LINE
  5
65F
100
AcDbEntity
  8
0
100
AcDbLine
 62
7
  6
CONTINUOUS
 10
215.610846831
 20
89.4617176405
 11
216.4475891643
 21
89.4617176405
  0
LINE
  5
660
100
AcDbEntity
  8
0
100
AcDbLine
 62
7
  6
CONTINUOUS
 10
102.7774898736
 20
89.4876751152
 11
102.7429954807
 21
89.4876751152
  0
LINE
  5
661
100
AcDbEntity
  8
0
100
AcDbLine
 62
7
  6
CONTINUOUS
 10
224.8002294311
 20
89.5553346506
 11
224.834723824
 21
89.5553346506
  0
LINE
  5
662
100
AcDbEntity
  8
0
100
AcDbLine
 62
7
  6
CONTINUOUS
 10
98.0024404172
 20
89.5812921253
 11
99.7345667472
 21
89.5812921253
  0
LINE
  5
663
100
AcDbEntity
  8
0
100
AcDbLine
 62
7
  6
CONTINUOUS
 10
103.0164890019
 20
89.5812921253
 11
103.5634760444
 21
89.5812921253
  0
LINE
  5
664
100
AcDbEntity
  8
0
100
AcDbLine
 62
7
  6
CONTINUOUS
 10
222.9040077448
 20
89.6489516608
 11
222.9385021377
 21
89.6489516608
  0
LINE
  5
665
100
AcDbEntity
  8
0
100
AcDbLine
 62
7
  6
CONTINUOUS
 10
93.8088734395
 20
89.6749091355
 11
95.5409992478
 21
89.6749091355
  0
LINE
  5
666
100
AcDbEntity
  8
0
100
AcDbLine
 62
7
  6
CONTINUOUS
 10
224.1054077587
 20
89.7425686709
 11
223.5948864843
 21
89.7425686709
  0
LINE
  5
667
100
AcDbEntity
  8
0
100
AcDbLine
 62
7
  6
CONTINUOUS
 10
104.3272857983
 20
89.7685261456
 11
104.2927914054
 21
89.7685261456
  0
LINE
  5
668
100
AcDbEntity
  8
0
100
AcDbLine
 62
7
  6
CONTINUOUS
 10
100.4983765011
 20
89.7685261456
 11
100.4638821083
 21
89.7685261456
  0
LINE
  5
669
100
AcDbEntity
  8
0
100
AcDbLine
 62
7
  6
CONTINUOUS
 10
96.3048095234
 20
89.7685261456
 11
96.2703151306
 21
89.7685261456
  0
LINE
  5
66A
100
AcDbEntity
  8
0
100
AcDbLine
 62
7
  6
CONTINUOUS
 10
224.2897081828
 20
89.836185681
 11
224.3242025756
 21
89.836185681
  0
LINE
  5
66B
100
AcDbEntity
  8
0
100
AcDbLine
 62
7
  6
CONTINUOUS
 10
222.6852129278
 20
89.9298026911
 11
222.7197073207
 21
89.9298026911
  0
LINE
  5
66C
100
AcDbEntity
  8
0
100
AcDbLine
 62
7
  6
CONTINUOUS
 10
224.5085029997
 20
90.0234197012
 11
224.5429973926
 21
90.0234197012
  0
LINE
  5
66D
100
AcDbEntity
  8
0
100
AcDbLine
 62
7
  6
CONTINUOUS
 10
103.9626281178
 20
90.0493771759
 11
103.9281337249
 21
90.0493771759
  0
LINE
  5
66E
100
AcDbEntity
  8
0
100
AcDbLine
 62
7
  6
CONTINUOUS
 10
100.1337188206
 20
90.0493771759
 11
100.0992244277
 21
90.0493771759
  0
LINE
  5
66F
100
AcDbEntity
  8
0
100
AcDbLine
 62
7
  6
CONTINUOUS
 10
95.9401513213
 20
90.0493771759
 11
95.9056569284
 21
90.0493771759
  0
LINE
  5
670
100
AcDbEntity
  8
0
100
AcDbLine
 62
7
  6
CONTINUOUS
 10
103.4723108418
 20
90.142994186
 11
103.0164890019
 21
90.142994186
  0
LINE
  5
671
100
AcDbEntity
  8
0
100
AcDbLine
 62
7
  6
CONTINUOUS
 10
99.6434015446
 20
90.142994186
 11
97.4554538964
 21
90.142994186
  0
LINE
  5
672
100
AcDbEntity
  8
0
100
AcDbLine
 62
7
  6
CONTINUOUS
 10
95.4498345669
 20
90.142994186
 11
93.2618863971
 21
90.142994186
  0
LINE
  5
673
100
AcDbEntity
  8
0
100
AcDbLine
 62
7
  6
CONTINUOUS
 10
92.5670646464
 20
90.142994186
 11
91.9855832111
 21
90.142994186
  0
LINE
  5
674
100
AcDbEntity
  8
0
100
AcDbLine
 62
7
  6
CONTINUOUS
 10
89.4674714928
 20
90.142994186
 11
88.8859900575
 21
90.142994186
  0
LINE
  5
675
100
AcDbEntity
  8
0
100
AcDbLine
 62
7
  6
CONTINUOUS
 10
224.6543662285
 20
90.2106537215
 11
224.6888606213
 21
90.2106537215
  0
LINE
  5
676
100
AcDbEntity
  8
0
100
AcDbLine
 62
7
  6
CONTINUOUS
 10
222.5393496469
 20
90.3978877417
 11
222.5738440398
 21
90.3978877417
  0
LINE
  5
677
100
AcDbEntity
  8
0
100
AcDbLine
 62
7
  6
CONTINUOUS
 10
224.7272978167
 20
90.4915048829
 11
224.7617922096
 21
90.4915048829
  0
LINE
  5
678
100
AcDbEntity
  8
0
100
AcDbLine
 62
7
  6
CONTINUOUS
 10
224.7272978167
 20
90.7723559133
 11
224.7617922096
 21
90.7723559133
  0
LINE
  5
679
100
AcDbEntity
  8
0
100
AcDbLine
 62
7
  6
CONTINUOUS
 10
222.5393496469
 20
90.8659729234
 11
222.5738440398
 21
90.8659729234
  0
LINE
  5
67A
100
AcDbEntity
  8
0
100
AcDbLine
 62
7
  6
CONTINUOUS
 10
224.6543662285
 20
91.0532069436
 11
224.6888606213
 21
91.0532069436
  0
LINE
  5
67B
100
AcDbEntity
  8
0
100
AcDbLine
 62
7
  6
CONTINUOUS
 10
216.4130947715
 20
91.1468239538
 11
216.4475891643
 21
91.1468239538
  0
LINE
  5
67C
100
AcDbEntity
  8
0
100
AcDbLine
 62
7
  6
CONTINUOUS
 10
222.6852129278
 20
91.3340580395
 11
222.7197073207
 21
91.3340580395
  0
LINE
  5
67D
100
AcDbEntity
  8
0
100
AcDbLine
 62
7
  6
CONTINUOUS
 10
224.5085029997
 20
91.3340580395
 11
224.5429973926
 21
91.3340580395
  0
LINE
  5
67E
100
AcDbEntity
  8
0
100
AcDbLine
 62
7
  6
CONTINUOUS
 10
216.340163444
 20
91.4276750497
 11
216.3746578369
 21
91.4276750497
  0
LINE
  5
67F
100
AcDbEntity
  8
0
100
AcDbLine
 62
7
  6
CONTINUOUS
 10
224.2897081828
 20
91.5212920598
 11
224.3242025756
 21
91.5212920598
  0
LINE
  5
680
100
AcDbEntity
  8
0
100
AcDbLine
 62
7
  6
CONTINUOUS
 10
216.121368627
 20
91.6149090699
 11
216.1558630199
 21
91.6149090699
  0
LINE
  5
681
100
AcDbEntity
  8
0
100
AcDbLine
 62
7
  6
CONTINUOUS
 10
221.1536490003
 20
91.6149090699
 11
221.5528016997
 21
91.6149090699
  0
LINE
  5
682
100
AcDbEntity
  8
0
100
AcDbLine
 62
7
  6
CONTINUOUS
 10
223.5948864843
 20
91.6149090699
 11
224.1054077587
 21
91.6149090699
  0
LINE
  5
683
100
AcDbEntity
  8
0
100
AcDbLine
 62
7
  6
CONTINUOUS
 10
215.7567103205
 20
91.7085261128
 11
215.7912047134
 21
91.7085261128
  0
LINE
  5
684
100
AcDbEntity
  8
0
100
AcDbLine
 62
7
  6
CONTINUOUS
 10
222.9040077448
 20
91.7085261128
 11
222.9385021377
 21
91.7085261128
  0
LINE
  5
685
100
AcDbEntity
  8
0
100
AcDbLine
 62
7
  6
CONTINUOUS
 10
223.268665634
 20
91.9893771677
 11
223.3031600268
 21
91.9893771677
  0
LINE
  5
686
100
AcDbEntity
  8
0
100
AcDbLine
 62
7
  6
CONTINUOUS
 10
224.0324761182
 20
92.082994186
 11
223.6678181247
 21
92.082994186
  0
LINE
  5
687
100
AcDbEntity
  8
0
100
AcDbLine
 62
7
  6
CONTINUOUS
 10
215.7567103205
 20
92.082994186
 11
215.7912047134
 21
92.082994186
  0
LINE
  5
688
100
AcDbEntity
  8
0
100
AcDbLine
 62
7
  6
CONTINUOUS
 10
219.4032904644
 20
92.082994186
 11
219.8753744913
 21
92.082994186
  0
LINE
  5
689
100
AcDbEntity
  8
0
100
AcDbLine
 62
7
  6
CONTINUOUS
 10
221.5912386342
 20
92.6446963123
 11
221.990391125
 21
92.6446963123
  0
LINE
  5
68A
100
AcDbEntity
  8
0
100
AcDbLine
 62
7
  6
CONTINUOUS
 10
211.0874300218
 20
81.2766111962
 11
211.5432529049
 21
81.182994186
  0
LINE
  5
68B
100
AcDbEntity
  8
0
100
AcDbLine
 62
7
  6
CONTINUOUS
 10
211.1219244146
 20
81.2766111962
 11
211.5777472978
 21
81.182994186
  0
LINE
  5
68C
100
AcDbEntity
  8
0
100
AcDbLine
 62
7
  6
CONTINUOUS
 10
166.2799500888
 20
75.662994186
 11
166.2799500888
 21
75.162994186
  0
LINE
  5
68D
100
AcDbEntity
  8
0
100
AcDbLine
 62
7
  6
CONTINUOUS
 10
167.2466859287
 20
75.662994186
 11
167.2466859287
 21
75.162994186
  0
LINE
  5
68E
100
AcDbEntity
  8
0
100
AcDbLine
 62
7
  6
CONTINUOUS
 10
167.2466859287
 20
95.662994186
 11
167.2466859287
 21
96.162994186
  0
LINE
  5
68F
100
AcDbEntity
  8
0
100
AcDbLine
 62
7
  6
CONTINUOUS
 10
91.4167344077
 20
79.242994186
 11
91.7813925056
 21
79.3366112044
  0
LINE
  5
690
100
AcDbEntity
  8
0
100
AcDbLine
 62
7
  6
CONTINUOUS
 10
91.3822400148
 20
79.242994186
 11
91.7468981127
 21
79.3366112044
  0
LINE
  5
691
100
AcDbEntity
  8
0
100
AcDbLine
 62
7
  6
CONTINUOUS
 10
91.0175820213
 20
82.0515047518
 11
90.6529239756
 21
81.9578877417
  0
LINE
  5
692
100
AcDbEntity
  8
0
100
AcDbLine
 62
7
  6
CONTINUOUS
 10
103.5634760444
 20
85.742994186
 11
104.0192978842
 21
85.8366112044
  0
LINE
  5
693
100
AcDbEntity
  8
0
100
AcDbLine
 62
7
  6
CONTINUOUS
 10
99.6778959375
 20
85.742994186
 11
100.1337188206
 21
85.8366112044
  0
LINE
  5
694
100
AcDbEntity
  8
0
100
AcDbLine
 62
7
  6
CONTINUOUS
 10
99.6434015446
 20
85.742994186
 11
100.0992244277
 21
85.8366112044
  0
LINE
  5
695
100
AcDbEntity
  8
BEZUGSACHSEN
100
AcDbLine
 62
7
  6
CONTINUOUS
 10
109.8650987848
 20
97.1649454032
 11
109.7584100195
 21
97.1629731569
  0
LINE
  5
696
100
AcDbEntity
  8
BEZUGSACHSEN
100
AcDbLine
 62
7
  6
CONTINUOUS
 10
203.9302633097
 20
95.662994186
 11
111.1197948301
 21
95.662994186
  0
LINE
  5
697
100
AcDbEntity
  8
0
100
AcDbLine
 62
7
  6
CONTINUOUS
 10
147.8033722108
 20
96.162994186
 11
151.1326320833
 21
96.162994186
  0
LINE
  5
698
100
AcDbEntity
  8
0
100
AcDbLine
 62
7
  6
CONTINUOUS
 10
151.6322925752
 20
96.162994186
 11
157.1557148164
 21
96.162994186
  0
LINE
  5
699
100
AcDbEntity
  8
0
100
AcDbLine
 62
7
  6
CONTINUOUS
 10
158.7035768694
 20
96.162994186
 11
160.3329046434
 21
96.162994186
  0
LINE
  5
69A
100
AcDbEntity
  8
0
100
AcDbLine
 62
7
  6
CONTINUOUS
 10
161.8753350443
 20
96.162994186
 11
167.2466859287
 21
96.162994186
  0
LINE
  5
69B
100
AcDbEntity
  8
BEZUGSACHSEN
100
AcDbLine
 62
7
  6
CONTINUOUS
 10
206.2250290698
 20
97.162994186
 11
205.290016985
 21
97.162994186
  0
LINE
  5
69C
100
AcDbEntity
  8
BEZUGSACHSEN
100
AcDbLine
 62
7
  6
CONTINUOUS
 10
109.7600021453
 20
97.162994186
 11
108.8250290698
 21
97.162994186
  0
LINE
  5
69D
100
AcDbEntity
  8
0
100
AcDbLine
 62
7
  6
CONTINUOUS
 10
185.1200290698
 20
97.5803305176
 11
187.6200290698
 21
97.5803305176
  0
LINE
  5
69E
100
AcDbEntity
  8
0
100
AcDbLine
 62
7
  6
CONTINUOUS
 10
188.4533622044
 20
97.5803305176
 11
189.0783622044
 21
97.5803305176
  0
LINE
  5
69F
100
AcDbEntity
  8
0
100
AcDbLine
 62
7
  6
CONTINUOUS
 10
191.5783622044
 20
97.5803305176
 11
192.2033625024
 21
97.5803305176
  0
LINE
  5
6A0
100
AcDbEntity
  8
0
100
AcDbLine
 62
7
  6
CONTINUOUS
 10
194.4950290698
 20
97.5803305176
 11
196.9950290698
 21
97.5803305176
  0
LINE
  5
6A1
100
AcDbEntity
  8
0
100
AcDbLine
 62
7
  6
CONTINUOUS
 10
201.8974761678
 20
97.662994186
 11
196.9950290698
 21
97.662994186
  0
LINE
  5
6A2
100
AcDbEntity
  8
0
100
AcDbLine
 62
7
  6
CONTINUOUS
 10
193.1408625024
 20
97.662994186
 11
192.2033625024
 21
97.662994186
  0
LINE
  5
6A3
100
AcDbEntity
  8
0
100
AcDbLine
 62
7
  6
CONTINUOUS
 10
191.5783622044
 20
97.662994186
 11
189.0783622044
 21
97.662994186
  0
LINE
  5
6A4
100
AcDbEntity
  8
0
100
AcDbLine
 62
7
  6
CONTINUOUS
 10
188.4533622044
 20
97.662994186
 11
187.6200290698
 21
97.662994186
  0
LINE
  5
6A5
100
AcDbEntity
  8
0
100
AcDbLine
 62
7
  6
CONTINUOUS
 10
183.4533628005
 20
97.662994186
 11
176.2750290698
 21
97.662994186
  0
LINE
  5
6A6
100
AcDbEntity
  8
0
100
AcDbLine
 62
7
  6
CONTINUOUS
 10
138.7750290698
 20
97.662994186
 11
126.5489689296
 21
97.662994186
  0
LINE
  5
6A7
100
AcDbEntity
  8
0
100
AcDbLine
 62
7
  6
CONTINUOUS
 10
124.5250290698
 20
97.662994186
 11
121.4889689296
 21
97.662994186
  0
LINE
  5
6A8
100
AcDbEntity
  8
0
100
AcDbLine
 62
7
  6
CONTINUOUS
 10
119.4650290698
 20
97.662994186
 11
113.1525819842
 21
97.662994186
  0
LINE
  5
6A9
100
AcDbEntity
  8
BEZUGSACHSEN
100
AcDbLine
 62
7
  6
CONTINUOUS
 10
112.1667425211
 20
97.6629919131
 11
119.4650290698
 21
97.662994186
  0
LINE
  5
6AA
100
AcDbEntity
  8
BEZUGSACHSEN
100
AcDbLine
 62
7
  6
CONTINUOUS
 10
121.4889689296
 20
97.662994186
 11
124.5250290698
 21
97.662994186
  0
LINE
  5
6AB
100
AcDbEntity
  8
BEZUGSACHSEN
100
AcDbLine
 62
7
  6
CONTINUOUS
 10
126.5489689296
 20
97.662994186
 11
138.7750290698
 21
97.662994186
  0
LINE
  5
6AC
100
AcDbEntity
  8
BEZUGSACHSEN
100
AcDbLine
 62
7
  6
CONTINUOUS
 10
176.2750290698
 20
97.662994186
 11
183.4533628005
 21
97.662994186
  0
LINE
  5
6AD
100
AcDbEntity
  8
BEZUGSACHSEN
100
AcDbLine
 62
7
  6
CONTINUOUS
 10
187.6200290698
 20
97.662994186
 11
188.4533622044
 21
97.662994186
  0
LINE
  5
6AE
100
AcDbEntity
  8
BEZUGSACHSEN
100
AcDbLine
 62
7
  6
CONTINUOUS
 10
189.0783622044
 20
97.662994186
 11
191.5783622044
 21
97.662994186
  0
LINE
  5
6AF
100
AcDbEntity
  8
0
100
AcDbLine
 62
7
  6
CONTINUOUS
 10
185.1200290698
 20
98.0819565932
 11
187.6200290698
 21
98.0819565932
  0
LINE
  5
6B0
100
AcDbEntity
  8
0
100
AcDbLine
 62
7
  6
CONTINUOUS
 10
188.4533622044
 20
98.0819565932
 11
189.0783622044
 21
98.0819565932
  0
LINE
  5
6B1
100
AcDbEntity
  8
0
100
AcDbLine
 62
7
  6
CONTINUOUS
 10
191.5783622044
 20
98.0819565932
 11
192.2033625024
 21
98.0819565932
  0
LINE
  5
6B2
100
AcDbEntity
  8
0
100
AcDbLine
 62
7
  6
CONTINUOUS
 10
194.4950290698
 20
98.0819565932
 11
196.9950290698
 21
98.0819565932
  0
LINE
  5
6B3
100
AcDbEntity
  8
0
100
AcDbLine
 62
7
  6
CONTINUOUS
 10
194.3908625024
 20
98.1188720592
 11
196.3700290698
 21
98.1188720592
  0
LINE
  5
6B4
100
AcDbEntity
  8
0
100
AcDbLine
 62
7
  6
CONTINUOUS
 10
185.1200290698
 20
98.1249153227
 11
186.9950290698
 21
98.1249153227
  0
LINE
  5
6B5
100
AcDbEntity
  8
0
100
AcDbLine
 62
7
  6
CONTINUOUS
 10
121.4889689296
 20
98.162994186
 11
122.744726858
 21
98.162994186
  0
LINE
  5
6B6
100
AcDbEntity
  8
0
100
AcDbLine
 62
7
  6
CONTINUOUS
 10
126.5489689296
 20
98.162994186
 11
127.804726858
 21
98.162994186
  0
LINE
  5
6B7
100
AcDbEntity
  8
0
100
AcDbLine
 62
7
  6
CONTINUOUS
 10
183.4533628005
 20
98.162994186
 11
187.6200290698
 21
98.162994186
  0
LINE
  5
6B8
100
AcDbEntity
  8
0
100
AcDbLine
 62
7
  6
CONTINUOUS
 10
188.4533622044
 20
98.162994186
 11
192.2033625024
 21
98.162994186
  0
LINE
  5
6B9
100
AcDbEntity
  8
0
100
AcDbLine
 62
7
  6
CONTINUOUS
 10
193.0366956371
 20
98.162994186
 11
193.7658625024
 21
98.162994186
  0
LINE
  5
6BA
100
AcDbEntity
  8
0
100
AcDbLine
 62
7
  6
CONTINUOUS
 10
194.0783625024
 20
98.162994186
 11
196.9950290698
 21
98.162994186
  0
LINE
  5
6BB
100
AcDbEntity
  8
BEZUGSACHSEN
100
AcDbLine
 62
7
  6
CONTINUOUS
 10
202.8832740656
 20
97.6629919644
 11
196.9950290698
 21
97.662994186
  0
LINE
  5
6BC
100
AcDbEntity
  8
BEZUGSACHSEN
100
AcDbLine
 62
7
  6
CONTINUOUS
 10
205.2916459262
 20
97.1629695137
 11
205.1850224344
 21
97.1649395063
  0
LINE
  5
6BD
100
AcDbEntity
  8
0
100
AcDbLine
 62
7
  6
CONTINUOUS
 10
214.9163393189
 20
81.2766111962
 11
215.3721622021
 21
81.182994186
  0
LINE
  5
6BE
100
AcDbEntity
  8
0
100
AcDbLine
 62
7
  6
CONTINUOUS
 10
214.9508337118
 20
81.2766111962
 11
215.4066565949
 21
81.182994186
  0
LINE
  5
6BF
100
AcDbEntity
  8
0
100
AcDbLine
 62
7
  6
CONTINUOUS
 10
219.1099068183
 20
81.2766111962
 11
219.5657291798
 21
81.182994186
  0
LINE
  5
6C0
100
AcDbEntity
  8
0
100
AcDbLine
 62
7
  6
CONTINUOUS
 10
219.1444012112
 20
81.2766111962
 11
219.6002235726
 21
81.182994186
  0
LINE
  5
6C1
100
AcDbEntity
  8
0
100
AcDbLine
 62
7
  6
CONTINUOUS
 10
210.9962658624
 20
83.1489516608
 11
211.4520877023
 21
83.0553346506
  0
LINE
  5
6C2
100
AcDbEntity
  8
0
100
AcDbLine
 62
7
  6
CONTINUOUS
 10
211.0307602553
 20
83.1489516608
 11
211.4865820952
 21
83.0553346506
  0
LINE
  5
6C3
100
AcDbEntity
  8
0
100
AcDbLine
 62
7
  6
CONTINUOUS
 10
212.6717213827
 20
85.4893771677
 11
212.2158984995
 21
85.582994186
  0
LINE
  5
6C4
100
AcDbEntity
  8
0
100
AcDbLine
 62
7
  6
CONTINUOUS
 10
211.4865820952
 20
83.6170367113
 11
211.1219244146
 21
83.7106537215
  0
LINE
  5
6C5
100
AcDbEntity
  8
0
100
AcDbLine
 62
7
  6
CONTINUOUS
 10
212.3982278615
 20
83.5234197012
 11
212.0335691376
 21
83.6170367113
  0
LINE
  5
6C6
100
AcDbEntity
  8
0
100
AcDbLine
 62
7
  6
CONTINUOUS
 10
212.2158984995
 20
85.0212920598
 11
212.5805561801
 21
84.9276750497
  0
LINE
  5
6C7
100
AcDbEntity
  8
0
100
AcDbLine
 62
7
  6
CONTINUOUS
 10
176.2750290698
 20
73.662994186
 11
176.2750290698
 21
75.662994186
  0
LINE
  5
6C8
100
AcDbEntity
  8
BEZUGSACHSEN
100
AcDbLine
 62
7
  6
CONTINUOUS
 10
176.2750290698
 20
95.662994186
 11
176.2750290698
 21
97.662994186
  0
LINE
  5
6C9
100
AcDbEntity
  8
0
100
AcDbLine
 62
7
  6
CONTINUOUS
 10
215.0419978711
 20
84.9276750497
 11
215.3154913923
 21
85.0212920598
  0
LINE
  5
6CA
100
AcDbEntity
  8
0
100
AcDbLine
 62
7
  6
CONTINUOUS
 10
103.9281337249
 20
86.3983133224
 11
103.5634760444
 21
86.3046963123
  0
LINE
  5
6CB
100
AcDbEntity
  8
0
100
AcDbLine
 62
7
  6
CONTINUOUS
 10
91.0175820213
 20
83.642994186
 11
90.6529239756
 21
83.5493771759
  0
LINE
  5
6CC
100
AcDbEntity
  8
0
100
AcDbLine
 62
7
  6
CONTINUOUS
 10
103.0164890019
 20
90.142994186
 11
102.6518302781
 21
90.0493771759
  0
LWPOLYLINE
  5
6CD
100
AcDbEntity
  8
BEZUGSACHSEN
100
AcDbPolyline
 62
7
  6
CONTINUOUS
 90
5
 70
0
 10
112.1667425292
 20
97.662985284
 10
111.876993037
 20
97.6493635746
 10
111.5761211966
 20
97.606755004
 10
111.2812690429
 20
97.5357690072
 10
110.9961606589
 20
97.4377694677
  0
LWPOLYLINE
  5
6CE
100
AcDbEntity
  8
BEZUGSACHSEN
100
AcDbPolyline
 62
7
  6
CONTINUOUS
 90
5
 70
0
 10
205.1850224344
 20
97.1649395063
 10
204.9376837182
 20
97.1847076474
 10
204.6934283836
 20
97.2254799698
 10
204.4549075225
 20
97.2865834128
 10
204.2246399499
 20
97.3669134863
  0
LINE
  5
6CF
100
AcDbEntity
  8
0
100
AcDbLine
 62
7
  6
CONTINUOUS
 10
216.2287943473
 20
91.9893771677
 11
215.7912047134
 21
92.082994186
  0
LINE
  5
6D0
100
AcDbEntity
  8
0
100
AcDbLine
 62
7
  6
CONTINUOUS
 10
223.3415973787
 20
87.7766111962
 11
223.7062553723
 21
87.682994186
  0
LINE
  5
6D1
100
AcDbEntity
  8
0
100
AcDbLine
 62
7
  6
CONTINUOUS
 10
223.3760917716
 20
87.7766111962
 11
223.7407497651
 21
87.682994186
  0
LINE
  5
6D2
100
AcDbEntity
  8
0
100
AcDbLine
 62
7
  6
CONTINUOUS
 10
223.268665634
 20
89.3681006304
 11
223.6333237318
 21
89.2744836203
  0
LINE
  5
6D3
100
AcDbEntity
  8
0
100
AcDbLine
 62
7
  6
CONTINUOUS
 10
223.3031600268
 20
89.3681006304
 11
223.6678181247
 21
89.2744836203
  0
LINE
  5
6D4
100
AcDbEntity
  8
0
100
AcDbLine
 62
7
  6
CONTINUOUS
 10
211.4865820952
 20
81.7446962467
 11
211.2130885739
 21
81.8383132569
  0
LINE
  5
6D5
100
AcDbEntity
  8
0
100
AcDbLine
 62
7
  6
CONTINUOUS
 10
215.3154913923
 20
81.7446962467
 11
215.0419978711
 21
81.8383132569
  0
LINE
  5
6D6
100
AcDbEntity
  8
0
100
AcDbLine
 62
7
  6
CONTINUOUS
 10
212.0299513356
 20
83.0447655735
 11
212.272568266
 21
82.9617176405
  0
LINE
  5
6D7
100
AcDbEntity
  8
0
100
AcDbLine
 62
7
  6
CONTINUOUS
 10
212.0335691376
 20
83.0553346506
 11
212.3070626588
 21
82.9617176405
  0
LINE
  5
6D8
100
AcDbEntity
  8
0
100
AcDbLine
 62
7
  6
CONTINUOUS
 10
219.5090588917
 20
81.6510792366
 11
219.2355653705
 21
81.7446962467
  0
LINE
  5
6D9
100
AcDbEntity
  8
0
100
AcDbLine
 62
7
  6
CONTINUOUS
 10
215.3154913923
 20
83.6170367113
 11
215.0419978711
 21
83.7106537215
  0
LINE
  5
6DA
100
AcDbEntity
  8
0
100
AcDbLine
 62
7
  6
CONTINUOUS
 10
183.4533628005
 20
97.6608264523
 11
183.4533628005
 21
98.1608689604
  0
LINE
  5
6DB
100
AcDbEntity
  8
0
100
AcDbLine
 62
7
  6
CONTINUOUS
 10
183.5575290698
 20
97.6481589099
 11
183.5575290698
 21
98.1484499653
  0
LINE
  5
6DC
100
AcDbEntity
  8
0
100
AcDbLine
 62
7
  6
CONTINUOUS
 10
183.7658628005
 20
97.629862291
 11
183.7658628005
 21
98.1305127729
  0
LINE
  5
6DD
100
AcDbEntity
  8
0
100
AcDbLine
 62
7
  6
CONTINUOUS
 10
210.9962658624
 20
85.4893771677
 11
210.6316071386
 21
85.3021431229
  0
LINE
  5
6DE
100
AcDbEntity
  8
0
100
AcDbLine
 62
7
  6
CONTINUOUS
 10
211.0307602553
 20
85.4893771677
 11
210.6661015315
 21
85.3021431229
  0
LINE
  5
6DF
100
AcDbEntity
  8
0
100
AcDbLine
 62
7
  6
CONTINUOUS
 10
223.3760917716
 20
91.5212920598
 11
223.5948864843
 21
91.6149090699
  0
LINE
  5
6E0
100
AcDbEntity
  8
0
100
AcDbLine
 62
7
  6
CONTINUOUS
 10
224.2897081828
 20
89.836185681
 11
224.1000698553
 21
89.7550440275
  0
LINE
  5
6E1
100
AcDbEntity
  8
0
100
AcDbLine
 62
7
  6
CONTINUOUS
 10
224.3242025756
 20
89.836185681
 11
224.1054077587
 21
89.7425686709
  0
LINE
  5
6E2
100
AcDbEntity
  8
0
100
AcDbLine
 62
7
  6
CONTINUOUS
 10
224.2897081828
 20
88.2446962467
 11
224.1000698553
 21
88.1635545933
  0
LINE
  5
6E3
100
AcDbEntity
  8
0
100
AcDbLine
 62
7
  6
CONTINUOUS
 10
224.3242025756
 20
88.2446962467
 11
224.1054077587
 21
88.1510792366
  0
LWPOLYLINE
  5
6E4
100
AcDbEntity
  8
RUNDUNGEN
100
AcDbPolyline
 62
7
  6
CONTINUOUS
 90
5
 70
0
 10
204.236602623
 20
73.9637936828
 10
204.4673263471
 20
74.0431264359
 10
204.7061601966
 20
74.1031682193
 10
204.9505817328
 20
74.1428408076
 10
205.1979401959
 20
74.1614967859
  0
LINE
  5
6E5
100
AcDbEntity
  8
0
100
AcDbLine
 62
7
  6
CONTINUOUS
 10
215.0419978711
 20
82.9617176405
 11
215.3154913923
 21
83.0553346506
  0
LINE
  5
6E6
100
AcDbEntity
  8
0
100
AcDbLine
 62
7
  6
CONTINUOUS
 10
212.272568266
 20
81.8383132569
 11
212.0299513356
 21
81.7552653239
  0
LINE
  5
6E7
100
AcDbEntity
  8
0
100
AcDbLine
 62
7
  6
CONTINUOUS
 10
212.3070626588
 20
81.8383132569
 11
212.0335691376
 21
81.7446962467
  0
LINE
  5
6E8
100
AcDbEntity
  8
0
100
AcDbLine
 62
7
  6
CONTINUOUS
 10
219.2355653705
 20
82.9617176405
 11
219.5090588917
 21
83.0553346506
  0
LINE
  5
6E9
100
AcDbEntity
  8
0
100
AcDbLine
 62
7
  6
CONTINUOUS
 10
215.7567103205
 20
91.7085261128
 11
216.121368627
 21
91.6149090699
  0
LINE
  5
6EA
100
AcDbEntity
  8
0
100
AcDbLine
 62
7
  6
CONTINUOUS
 10
215.7912047134
 20
91.7085261128
 11
216.1558630199
 21
91.6149090699
  0
LINE
  5
6EB
100
AcDbEntity
  8
0
100
AcDbLine
 62
7
  6
CONTINUOUS
 10
224.3971341639
 20
91.9893771677
 11
224.0324761182
 21
92.082994186
  0
LWPOLYLINE
  5
6EC
100
AcDbEntity
  8
BEZUGSACHSEN
100
AcDbPolyline
 62
7
  6
CONTINUOUS
 90
5
 70
0
 10
204.0578619663
 20
97.4361913459
 10
203.7770028812
 20
97.5333605591
 10
203.4866032258
 20
97.6043112211
 10
203.1902319405
 20
97.6477194355
 10
202.8832740576
 20
97.6629853363
  0
LINE
  5
6ED
100
AcDbEntity
  8
0
100
AcDbLine
 62
7
  6
CONTINUOUS
 10
210.6316071386
 20
83.336185681
 11
210.9962658624
 21
83.1489516608
  0
LINE
  5
6EE
100
AcDbEntity
  8
0
100
AcDbLine
 62
7
  6
CONTINUOUS
 10
210.6661015315
 20
83.336185681
 11
211.0307602553
 21
83.1489516608
  0
LINE
  5
6EF
100
AcDbEntity
  8
0
100
AcDbLine
 62
7
  6
CONTINUOUS
 10
212.762885542
 20
83.336185681
 11
212.3982278615
 21
83.5234197012
  0
LINE
  5
6F0
100
AcDbEntity
  8
0
100
AcDbLine
 62
7
  6
CONTINUOUS
 10
214.5516816384
 20
83.4298026911
 11
214.734009957
 21
83.336185681
  0
LINE
  5
6F1
100
AcDbEntity
  8
0
100
AcDbLine
 62
7
  6
CONTINUOUS
 10
214.5861760313
 20
83.4298026911
 11
214.7685043499
 21
83.336185681
  0
LINE
  5
6F2
100
AcDbEntity
  8
0
100
AcDbLine
 62
7
  6
CONTINUOUS
 10
184.0783628005
 20
98.162994186
 11
184.0783628005
 21
98.160869049
  0
LINE
  5
6F3
100
AcDbEntity
  8
0
100
AcDbLine
 62
7
  6
CONTINUOUS
 10
184.1825290698
 20
97.6042931685
 11
184.1825290698
 21
98.1054467984
  0
LINE
  5
6F4
100
AcDbEntity
  8
0
100
AcDbLine
 62
7
  6
CONTINUOUS
 10
184.1825290698
 20
98.1518222952
 11
184.1825290698
 21
98.162994186
  0
LINE
  5
6F5
100
AcDbEntity
  8
0
100
AcDbLine
 62
7
  6
CONTINUOUS
 10
184.3908628005
 20
98.1403713856
 11
184.3908628005
 21
98.162994186
  0
LINE
  5
6F6
100
AcDbEntity
  8
0
100
AcDbLine
 62
7
  6
CONTINUOUS
 10
184.5991953391
 20
97.5887746731
 11
184.5991953391
 21
98.0902341638
  0
LINE
  5
6F7
100
AcDbEntity
  8
0
100
AcDbLine
 62
7
  6
CONTINUOUS
 10
184.7033628005
 20
98.1305127729
 11
184.7033628005
 21
98.162994186
  0
LINE
  5
6F8
100
AcDbEntity
  8
0
100
AcDbLine
 62
7
  6
CONTINUOUS
 10
185.1200290698
 20
97.5803305176
 11
185.1200290698
 21
98.0819565932
  0
LINE
  5
6F9
100
AcDbEntity
  8
0
100
AcDbLine
 62
7
  6
CONTINUOUS
 10
185.1200290698
 20
98.1249153227
 11
185.1200290698
 21
98.162994186
  0
LINE
  5
6FA
100
AcDbEntity
  8
0
100
AcDbLine
 62
7
  6
CONTINUOUS
 10
186.9950290698
 20
98.162994186
 11
186.9950290698
 21
98.1249153227
  0
LINE
  5
6FB
100
AcDbEntity
  8
0
100
AcDbLine
 62
7
  6
CONTINUOUS
 10
187.6200290698
 20
97.5803305176
 11
187.6200290698
 21
98.162994186
  0
LINE
  5
6FC
100
AcDbEntity
  8
0
100
AcDbLine
 62
7
  6
CONTINUOUS
 10
188.4533622044
 20
97.5803305176
 11
188.4533622044
 21
98.162994186
  0
LINE
  5
6FD
100
AcDbEntity
  8
0
100
AcDbLine
 62
7
  6
CONTINUOUS
 10
189.0783622044
 20
97.5803305176
 11
189.0783622044
 21
98.162994186
  0
LINE
  5
6FE
100
AcDbEntity
  8
0
100
AcDbLine
 62
7
  6
CONTINUOUS
 10
189.1825290698
 20
97.662994186
 11
189.1825290698
 21
98.162994186
  0
LINE
  5
6FF
100
AcDbEntity
  8
0
100
AcDbLine
 62
7
  6
CONTINUOUS
 10
189.3908622044
 20
97.662994186
 11
189.3908622044
 21
98.162994186
  0
LINE
  5
700
100
AcDbEntity
  8
0
100
AcDbLine
 62
7
  6
CONTINUOUS
 10
189.7033622044
 20
97.662994186
 11
189.7033622044
 21
98.162994186
  0
LINE
  5
701
100
AcDbEntity
  8
0
100
AcDbLine
 62
7
  6
CONTINUOUS
 10
190.1200290698
 20
97.662994186
 11
190.1200290698
 21
98.162994186
  0
LINE
  5
702
100
AcDbEntity
  8
0
100
AcDbLine
 62
7
  6
CONTINUOUS
 10
210.8484308934
 20
84.7404409639
 11
211.1219244146
 21
84.9276750497
  0
LINE
  5
703
100
AcDbEntity
  8
0
100
AcDbLine
 62
7
  6
CONTINUOUS
 10
214.734009957
 20
83.336185681
 11
214.5516816384
 21
83.2425686709
  0
LINE
  5
704
100
AcDbEntity
  8
0
100
AcDbLine
 62
7
  6
CONTINUOUS
 10
214.7685043499
 20
83.336185681
 11
214.5861760313
 21
83.2425686709
  0
LINE
  5
705
100
AcDbEntity
  8
0
100
AcDbLine
 62
7
  6
CONTINUOUS
 10
212.3982278615
 20
81.2766111962
 11
212.762885542
 21
81.4638452164
  0
LINE
  5
706
100
AcDbEntity
  8
0
100
AcDbLine
 62
7
  6
CONTINUOUS
 10
219.1099068183
 20
83.4298026911
 11
218.7452486161
 21
83.2425686709
  0
LINE
  5
707
100
AcDbEntity
  8
0
100
AcDbLine
 62
7
  6
CONTINUOUS
 10
219.1444012112
 20
83.4298026911
 11
218.779743009
 21
83.2425686709
  0
LINE
  5
708
100
AcDbEntity
  8
RUNDUNGEN
100
AcDbLine
 62
7
  6
CONTINUOUS
 10
204.1437259713
 20
73.925492152
 11
204.1436191078
 21
73.9254458077
  0
LINE
  5
709
100
AcDbEntity
  8
RUNDUNGEN
100
AcDbLine
 62
7
  6
CONTINUOUS
 10
204.046517758
 20
73.8852975125
 11
204.236602623
 21
73.9637936828
  0
LINE
  5
70A
100
AcDbEntity
  8
BEZUGSACHSEN
100
AcDbLine
 62
7
  6
CONTINUOUS
 10
204.2246399499
 20
97.3669134863
 11
204.0578619663
 21
97.4361913459
  0
LINE
  5
70B
100
AcDbEntity
  8
0
100
AcDbLine
 62
7
  6
CONTINUOUS
 10
223.6678181247
 20
88.1510792366
 11
223.4490233077
 21
88.2446962467
  0
LINE
  5
70C
100
AcDbEntity
  8
0
100
AcDbLine
 62
7
  6
CONTINUOUS
 10
216.4475891643
 20
91.8957601494
 11
216.2287943473
 21
91.9893771677
  0
LINE
  5
70D
100
AcDbEntity
  8
0
100
AcDbLine
 62
7
  6
CONTINUOUS
 10
223.5948864843
 20
89.7425686709
 11
223.3760917716
 21
89.836185681
  0
LINE
  5
70E
100
AcDbEntity
  8
0
100
AcDbLine
 62
7
  6
CONTINUOUS
 10
224.1000698553
 20
91.6024337133
 11
224.2897081828
 21
91.5212920598
  0
LINE
  5
70F
100
AcDbEntity
  8
0
100
AcDbLine
 62
7
  6
CONTINUOUS
 10
224.1054077587
 20
91.6149090699
 11
224.3242025756
 21
91.5212920598
  0
LINE
  5
710
100
AcDbEntity
  8
BEZUGSACHSEN
100
AcDbLine
 62
7
  6
CONTINUOUS
 10
204.1437340267
 20
97.4004927229
 11
204.1436216247
 21
97.4005414739
  0
LINE
  5
711
100
AcDbEntity
  8
0
100
AcDbLine
 62
7
  6
CONTINUOUS
 10
213.1275432225
 20
85.2085261128
 11
212.6717213827
 21
85.4893771677
  0
LINE
  5
712
100
AcDbEntity
  8
0
100
AcDbLine
 62
7
  6
CONTINUOUS
 10
211.1219244146
 20
83.7106537215
 11
210.8484308934
 21
83.8978877417
  0
LINE
  5
713
100
AcDbEntity
  8
0
100
AcDbLine
 62
7
  6
CONTINUOUS
 10
212.272568266
 20
82.9617176405
 11
212.5460617872
 21
82.7744836203
  0
LINE
  5
714
100
AcDbEntity
  8
0
100
AcDbLine
 62
7
  6
CONTINUOUS
 10
212.3070626588
 20
82.9617176405
 11
212.5805561801
 21
82.7744836203
  0
LINE
  5
715
100
AcDbEntity
  8
0
100
AcDbLine
 62
7
  6
CONTINUOUS
 10
210.7227723412
 20
81.5574622265
 11
211.0874300218
 21
81.2766111962
  0
LINE
  5
716
100
AcDbEntity
  8
0
100
AcDbLine
 62
7
  6
CONTINUOUS
 10
210.7572667341
 20
81.5574622265
 11
211.1219244146
 21
81.2766111962
  0
LINE
  5
717
100
AcDbEntity
  8
0
100
AcDbLine
 62
7
  6
CONTINUOUS
 10
214.5516816384
 20
81.5574622265
 11
214.9163393189
 21
81.2766111962
  0
LINE
  5
718
100
AcDbEntity
  8
0
100
AcDbLine
 62
7
  6
CONTINUOUS
 10
214.5861760313
 20
81.5574622265
 11
214.9508337118
 21
81.2766111962
  0
LINE
  5
719
100
AcDbEntity
  8
0
100
AcDbLine
 62
7
  6
CONTINUOUS
 10
190.5366959351
 20
97.662994186
 11
190.5366959351
 21
98.162994186
  0
LINE
  5
71A
100
AcDbEntity
  8
0
100
AcDbLine
 62
7
  6
CONTINUOUS
 10
190.9533622044
 20
97.662994186
 11
190.9533622044
 21
98.162994186
  0
LINE
  5
71B
100
AcDbEntity
  8
0
100
AcDbLine
 62
7
  6
CONTINUOUS
 10
191.2658622044
 20
97.662994186
 11
191.2658622044
 21
98.162994186
  0
LINE
  5
71C
100
AcDbEntity
  8
0
100
AcDbLine
 62
7
  6
CONTINUOUS
 10
191.4741959351
 20
97.662994186
 11
191.4741959351
 21
98.162994186
  0
LINE
  5
71D
100
AcDbEntity
  8
0
100
AcDbLine
 62
7
  6
CONTINUOUS
 10
191.5783622044
 20
97.5803305176
 11
191.5783622044
 21
98.162994186
  0
LINE
  5
71E
100
AcDbEntity
  8
0
100
AcDbLine
 62
7
  6
CONTINUOUS
 10
192.2033625024
 20
97.5803305176
 11
192.2033625024
 21
98.162994186
  0
LINE
  5
71F
100
AcDbEntity
  8
0
100
AcDbLine
 62
7
  6
CONTINUOUS
 10
193.0366956371
 20
97.662994186
 11
193.0366956371
 21
98.162994186
  0
LINE
  5
720
100
AcDbEntity
  8
0
100
AcDbLine
 62
7
  6
CONTINUOUS
 10
193.1408625024
 20
97.6481589099
 11
193.1408625024
 21
98.1484499653
  0
LINE
  5
721
100
AcDbEntity
  8
0
100
AcDbLine
 62
7
  6
CONTINUOUS
 10
193.2450290698
 20
97.63511751
 11
193.2450290698
 21
98.1356647038
  0
LINE
  5
722
100
AcDbEntity
  8
0
100
AcDbLine
 62
7
  6
CONTINUOUS
 10
193.5575290698
 20
97.6113683605
 11
193.5575290698
 21
98.1123826649
  0
LINE
  5
723
100
AcDbEntity
  8
0
100
AcDbLine
 62
7
  6
CONTINUOUS
 10
193.7658625024
 20
98.1572338793
 11
193.7658625024
 21
98.1484499653
  0
LINE
  5
724
100
AcDbEntity
  8
0
100
AcDbLine
 62
7
  6
CONTINUOUS
 10
193.8700290698
 20
98.1356647038
 11
193.8700290698
 21
98.1620205734
  0
LINE
  5
725
100
AcDbEntity
  8
0
100
AcDbLine
 62
7
  6
CONTINUOUS
 10
193.9741956371
 20
97.5887746731
 11
193.9741956371
 21
98.0902341638
  0
LINE
  5
726
100
AcDbEntity
  8
0
100
AcDbLine
 62
7
  6
CONTINUOUS
 10
194.0783625024
 20
98.1249153227
 11
194.0783625024
 21
98.1629921996
  0
LINE
  5
727
100
AcDbEntity
  8
0
100
AcDbLine
 62
7
  6
CONTINUOUS
 10
194.3908625024
 20
98.1188720592
 11
194.3908625024
 21
98.162994186
  0
LINE
  5
728
100
AcDbEntity
  8
0
100
AcDbLine
 62
7
  6
CONTINUOUS
 10
194.4950290698
 20
97.5803305176
 11
194.4950290698
 21
98.0819565932
  0
LINE
  5
729
100
AcDbEntity
  8
0
100
AcDbLine
 62
7
  6
CONTINUOUS
 10
196.3700290698
 20
98.162994186
 11
196.3700290698
 21
98.1188720592
  0
LINE
  5
72A
100
AcDbEntity
  8
0
100
AcDbLine
 62
7
  6
CONTINUOUS
 10
210.6316071386
 20
85.3021431229
 11
210.2669494581
 21
84.9276750497
  0
LINE
  5
72B
100
AcDbEntity
  8
0
100
AcDbLine
 62
7
  6
CONTINUOUS
 10
210.6661015315
 20
85.3021431229
 11
210.301443851
 21
84.9276750497
  0
LINE
  5
72C
100
AcDbEntity
  8
0
100
AcDbLine
 62
7
  6
CONTINUOUS
 10
223.1572969546
 20
91.3340580395
 11
223.3760917716
 21
91.5212920598
  0
LINE
  5
72D
100
AcDbEntity
  8
0
100
AcDbLine
 62
7
  6
CONTINUOUS
 10
223.268665634
 20
91.9893771677
 11
222.9040077448
 21
91.7085261128
  0
LINE
  5
72E
100
AcDbEntity
  8
0
100
AcDbLine
 62
7
  6
CONTINUOUS
 10
223.3031600268
 20
91.9893771677
 11
222.9385021377
 21
91.7085261128
  0
LINE
  5
72F
100
AcDbEntity
  8
0
100
AcDbLine
 62
7
  6
CONTINUOUS
 10
214.9163393189
 20
85.4893771677
 11
214.5516816384
 21
85.2085261128
  0
LINE
  5
730
100
AcDbEntity
  8
0
100
AcDbLine
 62
7
  6
CONTINUOUS
 10
214.9508337118
 20
85.4893771677
 11
214.5861760313
 21
85.2085261128
  0
LINE
  5
731
100
AcDbEntity
  8
0
100
AcDbLine
 62
7
  6
CONTINUOUS
 10
224.3971341639
 20
87.7766111962
 11
224.7617922096
 21
88.0574622265
  0
LINE
  5
732
100
AcDbEntity
  8
0
100
AcDbLine
 62
7
  6
CONTINUOUS
 10
212.5460617872
 20
82.0255472771
 11
212.272568266
 21
81.8383132569
  0
LINE
  5
733
100
AcDbEntity
  8
0
100
AcDbLine
 62
7
  6
CONTINUOUS
 10
212.5805561801
 20
82.0255472771
 11
212.3070626588
 21
81.8383132569
  0
LINE
  5
734
100
AcDbEntity
  8
0
100
AcDbLine
 62
7
  6
CONTINUOUS
 10
218.7452486161
 20
81.5574622265
 11
219.1099068183
 21
81.2766111962
  0
LINE
  5
735
100
AcDbEntity
  8
0
100
AcDbLine
 62
7
  6
CONTINUOUS
 10
218.779743009
 20
81.5574622265
 11
219.1444012112
 21
81.2766111962
  0
LINE
  5
736
100
AcDbEntity
  8
0
100
AcDbLine
 62
7
  6
CONTINUOUS
 10
211.2130885739
 20
81.8383132569
 11
211.0307602553
 21
82.0255472771
  0
LINE
  5
737
100
AcDbEntity
  8
0
100
AcDbLine
 62
7
  6
CONTINUOUS
 10
210.2669494581
 20
83.7106537215
 11
210.6316071386
 21
83.336185681
  0
LINE
  5
738
100
AcDbEntity
  8
0
100
AcDbLine
 62
7
  6
CONTINUOUS
 10
210.301443851
 20
83.7106537215
 11
210.6661015315
 21
83.336185681
  0
LINE
  5
739
100
AcDbEntity
  8
0
100
AcDbLine
 62
7
  6
CONTINUOUS
 10
213.1275432225
 20
82.9617176405
 11
212.762885542
 21
83.336185681
  0
LINE
  5
73A
100
AcDbEntity
  8
0
100
AcDbLine
 62
7
  6
CONTINUOUS
 10
215.0419978711
 20
81.8383132569
 11
214.8596695525
 21
82.0255472771
  0
LINE
  5
73B
100
AcDbEntity
  8
0
100
AcDbLine
 62
7
  6
CONTINUOUS
 10
212.5460617872
 20
84.9276750497
 11
212.8195553084
 21
84.6468239538
  0
LINE
  5
73C
100
AcDbEntity
  8
0
100
AcDbLine
 62
7
  6
CONTINUOUS
 10
212.5805561801
 20
84.9276750497
 11
212.8540497013
 21
84.6468239538
  0
LINE
  5
73D
100
AcDbEntity
  8
0
100
AcDbLine
 62
7
  6
CONTINUOUS
 10
196.9950290698
 20
97.5803305176
 11
196.9950290698
 21
98.162994186
  0
LINE
  5
73E
100
AcDbEntity
  8
0
100
AcDbLine
 62
7
  6
CONTINUOUS
 10
210.6661015315
 20
84.4595899335
 11
210.8484308934
 21
84.7404409639
  0
LINE
  5
73F
100
AcDbEntity
  8
0
100
AcDbLine
 62
7
  6
CONTINUOUS
 10
214.8596695525
 20
84.7404409639
 11
215.0419978711
 21
84.9276750497
  0
LINE
  5
740
100
AcDbEntity
  8
0
100
AcDbLine
 62
7
  6
CONTINUOUS
 10
212.762885542
 20
81.4638452164
 11
213.1275432225
 21
81.8383132569
  0
LINE
  5
741
100
AcDbEntity
  8
0
100
AcDbLine
 62
7
  6
CONTINUOUS
 10
214.8596695525
 20
82.7744836203
 11
215.0419978711
 21
82.9617176405
  0
LINE
  5
742
100
AcDbEntity
  8
0
100
AcDbLine
 62
7
  6
CONTINUOUS
 10
224.5085029997
 20
90.0234197012
 11
224.2897081828
 21
89.836185681
  0
LINE
  5
743
100
AcDbEntity
  8
0
100
AcDbLine
 62
7
  6
CONTINUOUS
 10
224.5429973926
 20
90.0234197012
 11
224.3242025756
 21
89.836185681
  0
LINE
  5
744
100
AcDbEntity
  8
0
100
AcDbLine
 62
7
  6
CONTINUOUS
 10
224.3971341639
 20
89.3681006304
 11
224.834723824
 21
89.7425686709
  0
LINE
  5
745
100
AcDbEntity
  8
0
100
AcDbLine
 62
7
  6
CONTINUOUS
 10
224.5085029997
 20
88.431930267
 11
224.2897081828
 21
88.2446962467
  0
LINE
  5
746
100
AcDbEntity
  8
0
100
AcDbLine
 62
7
  6
CONTINUOUS
 10
224.5429973926
 20
88.431930267
 11
224.3242025756
 21
88.2446962467
  0
LINE
  5
747
100
AcDbEntity
  8
RUNDUNGEN
100
AcDbLine
 62
7
  6
CONTINUOUS
 10
101.3292843327
 20
129.662994186
 11
93.5032036628
 21
129.662994186
  0
LINE
  5
748
100
AcDbEntity
  8
RUNDUNGEN
100
AcDbLine
 62
7
  6
CONTINUOUS
 10
213.7207738068
 20
129.662994186
 11
221.5468544767
 21
129.662994186
  0
LINE
  5
749
100
AcDbEntity
  8
0
100
AcDbLine
 62
7
  6
CONTINUOUS
 10
222.9769392809
 20
88.0574622265
 11
223.3415973787
 21
87.7766111962
  0
LINE
  5
74A
100
AcDbEntity
  8
0
100
AcDbLine
 62
7
  6
CONTINUOUS
 10
223.0114336738
 20
88.0574622265
 11
223.3760917716
 21
87.7766111962
  0
LINE
  5
74B
100
AcDbEntity
  8
0
100
AcDbLine
 62
7
  6
CONTINUOUS
 10
222.9040077448
 20
89.6489516608
 11
223.268665634
 21
89.3681006304
  0
LINE
  5
74C
100
AcDbEntity
  8
0
100
AcDbLine
 62
7
  6
CONTINUOUS
 10
222.9385021377
 20
89.6489516608
 11
223.3031600268
 21
89.3681006304
  0
LINE
  5
74D
100
AcDbEntity
  8
0
100
AcDbLine
 62
7
  6
CONTINUOUS
 10
216.121368627
 20
91.6149090699
 11
216.340163444
 21
91.4276750497
  0
LINE
  5
74E
100
AcDbEntity
  8
0
100
AcDbLine
 62
7
  6
CONTINUOUS
 10
216.1558630199
 20
91.6149090699
 11
216.3746578369
 21
91.4276750497
  0
LINE
  5
74F
100
AcDbEntity
  8
0
100
AcDbLine
 62
7
  6
CONTINUOUS
 10
216.6663839813
 20
91.7085261128
 11
216.4475891643
 21
91.8957601494
  0
LINE
  5
750
100
AcDbEntity
  8
0
100
AcDbLine
 62
7
  6
CONTINUOUS
 10
223.4490233077
 20
88.2446962467
 11
223.2302284907
 21
88.431930267
  0
LINE
  5
751
100
AcDbEntity
  8
0
100
AcDbLine
 62
7
  6
CONTINUOUS
 10
215.0419978711
 20
83.7106537215
 11
214.8596695525
 21
83.8978877417
  0
LINE
  5
752
100
AcDbEntity
  8
0
100
AcDbLine
 62
7
  6
CONTINUOUS
 10
219.2355653705
 20
81.7446962467
 11
219.0532365302
 21
81.931930267
  0
LINE
  5
753
100
AcDbEntity
  8
0
100
AcDbLine
 62
7
  6
CONTINUOUS
 10
210.44927882
 20
81.931930267
 11
210.7227723412
 21
81.5574622265
  0
LINE
  5
754
100
AcDbEntity
  8
0
100
AcDbLine
 62
7
  6
CONTINUOUS
 10
210.4837732129
 20
81.931930267
 11
210.7572667341
 21
81.5574622265
  0
LINE
  5
755
100
AcDbEntity
  8
0
100
AcDbLine
 62
7
  6
CONTINUOUS
 10
214.2781881172
 20
81.931930267
 11
214.5516816384
 21
81.5574622265
  0
LINE
  5
756
100
AcDbEntity
  8
0
100
AcDbLine
 62
7
  6
CONTINUOUS
 10
214.31268251
 20
81.931930267
 11
214.5861760313
 21
81.5574622265
  0
LINE
  5
757
100
AcDbEntity
  8
0
100
AcDbLine
 62
7
  6
CONTINUOUS
 10
214.2781881172
 20
83.8042707316
 11
214.5516816384
 21
83.4298026911
  0
LINE
  5
758
100
AcDbEntity
  8
0
100
AcDbLine
 62
7
  6
CONTINUOUS
 10
214.31268251
 20
83.8042707316
 11
214.5861760313
 21
83.4298026911
  0
LINE
  5
759
100
AcDbEntity
  8
0
100
AcDbLine
 62
7
  6
CONTINUOUS
 10
210.8484308934
 20
83.8978877417
 11
210.6661015315
 21
84.1787389032
  0
LINE
  5
75A
100
AcDbEntity
  8
RUNDUNGEN
100
AcDbLine
 62
7
  6
CONTINUOUS
 10
206.2400938575
 20
65.7196623051
 11
208.2509033823
 21
46.5880876381
  0
LINE
  5
75B
100
AcDbEntity
  8
RUNDUNGEN
100
AcDbLine
 62
7
  6
CONTINUOUS
 10
206.2250290698
 20
105.318872793
 11
206.2250290698
 21
94.5928989146
  0
LINE
  5
75C
100
AcDbEntity
  8
RUNDUNGEN
100
AcDbLine
 62
7
  6
CONTINUOUS
 10
206.2250290698
 20
66.0071155791
 11
206.2250290698
 21
76.7330894574
  0
LINE
  5
75D
100
AcDbEntity
  8
RUNDUNGEN
100
AcDbLine
 62
7
  6
CONTINUOUS
 10
206.9302197255
 20
78.662994186
 11
206.9302197255
 21
92.662994186
  0
LINE
  5
75E
100
AcDbEntity
  8
RUNDUNGEN
100
AcDbLine
 62
7
  6
CONTINUOUS
 10
206.2400938575
 20
105.606326067
 11
208.2509033823
 21
124.737900734
  0
LINE
  5
75F
100
AcDbEntity
  8
0
100
AcDbLine
 62
7
  6
CONTINUOUS
 10
210.2669494581
 20
84.9276750497
 11
210.0846200962
 21
84.5532069436
  0
LINE
  5
760
100
AcDbEntity
  8
0
100
AcDbLine
 62
7
  6
CONTINUOUS
 10
210.301443851
 20
84.9276750497
 11
210.119114489
 21
84.5532069436
  0
LINE
  5
761
100
AcDbEntity
  8
0
100
AcDbLine
 62
7
  6
CONTINUOUS
 10
214.5516816384
 20
85.2085261128
 11
214.2781881172
 21
84.8340580395
  0
LINE
  5
762
100
AcDbEntity
  8
0
100
AcDbLine
 62
7
  6
CONTINUOUS
 10
214.5861760313
 20
85.2085261128
 11
214.31268251
 21
84.8340580395
  0
LINE
  5
763
100
AcDbEntity
  8
0
100
AcDbLine
 62
7
  6
CONTINUOUS
 10
214.5516816384
 20
83.2425686709
 11
214.2781881172
 21
82.8681006304
  0
LINE
  5
764
100
AcDbEntity
  8
0
100
AcDbLine
 62
7
  6
CONTINUOUS
 10
214.5861760313
 20
83.2425686709
 11
214.31268251
 21
82.8681006304
  0
LINE
  5
765
100
AcDbEntity
  8
0
100
AcDbLine
 62
7
  6
CONTINUOUS
 10
218.7452486161
 20
83.2425686709
 11
218.4717550949
 21
82.8681006304
  0
LINE
  5
766
100
AcDbEntity
  8
0
100
AcDbLine
 62
7
  6
CONTINUOUS
 10
218.779743009
 20
83.2425686709
 11
218.5062494877
 21
82.8681006304
  0
LINE
  5
767
100
AcDbEntity
  8
0
100
AcDbLine
 62
7
  6
CONTINUOUS
 10
224.6543662285
 20
90.2106537215
 11
224.5085029997
 21
90.0234197012
  0
LINE
  5
768
100
AcDbEntity
  8
0
100
AcDbLine
 62
7
  6
CONTINUOUS
 10
224.6888606213
 20
90.2106537215
 11
224.5429973926
 21
90.0234197012
  0
LINE
  5
769
100
AcDbEntity
  8
0
100
AcDbLine
 62
7
  6
CONTINUOUS
 10
219.0532365302
 20
82.7744836203
 11
219.2355653705
 21
82.9617176405
  0
LINE
  5
76A
100
AcDbEntity
  8
0
100
AcDbLine
 62
7
  6
CONTINUOUS
 10
224.7617922096
 20
91.7085261128
 11
224.3971341639
 21
91.9893771677
  0
LINE
  5
76B
100
AcDbEntity
  8
0
100
AcDbLine
 62
7
  6
CONTINUOUS
 10
223.3760917716
 20
89.836185681
 11
223.1572969546
 21
90.0234197012
  0
LINE
  5
76C
100
AcDbEntity
  8
0
100
AcDbLine
 62
7
  6
CONTINUOUS
 10
224.2897081828
 20
91.5212920598
 11
224.5085029997
 21
91.3340580395
  0
LINE
  5
76D
100
AcDbEntity
  8
0
100
AcDbLine
 62
7
  6
CONTINUOUS
 10
224.3242025756
 20
91.5212920598
 11
224.5429973926
 21
91.3340580395
  0
LINE
  5
76E
100
AcDbEntity
  8
0
100
AcDbLine
 62
7
  6
CONTINUOUS
 10
218.4717550949
 20
81.931930267
 11
218.7452486161
 21
81.5574622265
  0
LINE
  5
76F
100
AcDbEntity
  8
0
100
AcDbLine
 62
7
  6
CONTINUOUS
 10
218.5062494877
 20
81.931930267
 11
218.779743009
 21
81.5574622265
  0
LINE
  5
770
100
AcDbEntity
  8
0
100
AcDbLine
 62
7
  6
CONTINUOUS
 10
213.4010367438
 20
84.7404409639
 11
213.1275432225
 21
85.2085261128
  0
LINE
  5
771
100
AcDbEntity
  8
0
100
AcDbLine
 62
7
  6
CONTINUOUS
 10
211.0307602553
 20
82.0255472771
 11
210.9395950527
 21
82.2127812973
  0
LINE
  5
772
100
AcDbEntity
  8
0
100
AcDbLine
 62
7
  6
CONTINUOUS
 10
210.0846200962
 20
84.0851218931
 11
210.2669494581
 21
83.7106537215
  0
LINE
  5
773
100
AcDbEntity
  8
0
100
AcDbLine
 62
7
  6
CONTINUOUS
 10
210.119114489
 20
84.0851218931
 11
210.301443851
 21
83.7106537215
  0
LINE
  5
774
100
AcDbEntity
  8
0
100
AcDbLine
 62
7
  6
CONTINUOUS
 10
210.3581136174
 20
82.2127812973
 11
210.44927882
 21
81.931930267
  0
LINE
  5
775
100
AcDbEntity
  8
0
100
AcDbLine
 62
7
  6
CONTINUOUS
 10
210.3926080103
 20
82.2127812973
 11
210.4837732129
 21
81.931930267
  0
LINE
  5
776
100
AcDbEntity
  8
0
100
AcDbLine
 62
7
  6
CONTINUOUS
 10
212.5460617872
 20
82.7744836203
 11
212.6372269898
 21
82.4936325899
  0
LINE
  5
777
100
AcDbEntity
  8
0
100
AcDbLine
 62
7
  6
CONTINUOUS
 10
212.5805561801
 20
82.7744836203
 11
212.6717213827
 21
82.4936325899
  0
LINE
  5
778
100
AcDbEntity
  8
0
100
AcDbLine
 62
7
  6
CONTINUOUS
 10
210.0846200962
 20
84.5532069436
 11
210.0846200962
 21
84.0851218931
  0
LINE
  5
779
100
AcDbEntity
  8
0
100
AcDbLine
 62
7
  6
CONTINUOUS
 10
210.119114489
 20
84.5532069436
 11
210.119114489
 21
84.0851218931
  0
LINE
  5
77A
100
AcDbEntity
  8
0
100
AcDbLine
 62
7
  6
CONTINUOUS
 10
210.6661015315
 20
84.1787389032
 11
210.6661015315
 21
84.4595899335
  0
LINE
  5
77B
100
AcDbEntity
  8
0
100
AcDbLine
 62
7
  6
CONTINUOUS
 10
212.6372269898
 20
82.4936325899
 11
212.6372269898
 21
82.3063985697
  0
LINE
  5
77C
100
AcDbEntity
  8
0
100
AcDbLine
 62
7
  6
CONTINUOUS
 10
212.6717213827
 20
82.4936325899
 11
212.6717213827
 21
82.3063985697
  0
LINE
  5
77D
100
AcDbEntity
  8
0
100
AcDbLine
 62
7
  6
CONTINUOUS
 10
213.2187084251
 20
82.2127812973
 11
213.2187084251
 21
82.5872496001
  0
LINE
  5
77E
100
AcDbEntity
  8
0
100
AcDbLine
 62
7
  6
CONTINUOUS
 10
214.1870229146
 20
84.5532069436
 11
214.1870229146
 21
84.0851218931
  0
LINE
  5
77F
100
AcDbEntity
  8
0
100
AcDbLine
 62
7
  6
CONTINUOUS
 10
214.1870229146
 20
82.5872496001
 11
214.1870229146
 21
82.2127812973
  0
LINE
  5
780
100
AcDbEntity
  8
0
100
AcDbLine
 62
7
  6
CONTINUOUS
 10
214.2215173074
 20
84.5532069436
 11
214.2215173074
 21
84.0851218931
  0
LINE
  5
781
100
AcDbEntity
  8
0
100
AcDbLine
 62
7
  6
CONTINUOUS
 10
214.2215173074
 20
82.5872496001
 11
214.2215173074
 21
82.2127812973
  0
LINE
  5
782
100
AcDbEntity
  8
0
100
AcDbLine
 62
7
  6
CONTINUOUS
 10
214.7685043499
 20
82.3063985697
 11
214.7685043499
 21
82.4936325899
  0
LINE
  5
783
100
AcDbEntity
  8
0
100
AcDbLine
 62
7
  6
CONTINUOUS
 10
214.7685043499
 20
84.1787389032
 11
214.7685043499
 21
84.4595899335
  0
LINE
  5
784
100
AcDbEntity
  8
0
100
AcDbLine
 62
7
  6
CONTINUOUS
 10
215.610846831
 20
89.4617176405
 11
215.610846831
 21
89.0872496001
  0
LINE
  5
785
100
AcDbEntity
  8
0
100
AcDbLine
 62
7
  6
CONTINUOUS
 10
215.6453412239
 20
89.4617176405
 11
215.6453412239
 21
89.0872496001
  0
LINE
  5
786
100
AcDbEntity
  8
0
100
AcDbLine
 62
7
  6
CONTINUOUS
 10
215.7567103205
 20
92.082994186
 11
215.7567103205
 21
91.7085261128
  0
LINE
  5
787
100
AcDbEntity
  8
0
100
AcDbLine
 62
7
  6
CONTINUOUS
 10
215.7912047134
 20
92.082994186
 11
215.7912047134
 21
91.7085261128
  0
LINE
  5
788
100
AcDbEntity
  8
0
100
AcDbLine
 62
7
  6
CONTINUOUS
 10
213.1275432225
 20
81.8383132569
 11
213.2187084251
 21
82.2127812973
  0
LINE
  5
789
100
AcDbEntity
  8
0
100
AcDbLine
 62
7
  6
CONTINUOUS
 10
212.6372269898
 20
82.3063985697
 11
212.5460617872
 21
82.0255472771
  0
LINE
  5
78A
100
AcDbEntity
  8
0
100
AcDbLine
 62
7
  6
CONTINUOUS
 10
212.6717213827
 20
82.3063985697
 11
212.5805561801
 21
82.0255472771
  0
LINE
  5
78B
100
AcDbEntity
  8
0
100
AcDbLine
 62
7
  6
CONTINUOUS
 10
214.2781881172
 20
84.8340580395
 11
214.1870229146
 21
84.5532069436
  0
LINE
  5
78C
100
AcDbEntity
  8
0
100
AcDbLine
 62
7
  6
CONTINUOUS
 10
214.31268251
 20
84.8340580395
 11
214.2215173074
 21
84.5532069436
  0
LINE
  5
78D
100
AcDbEntity
  8
0
100
AcDbLine
 62
7
  6
CONTINUOUS
 10
214.7685043499
 20
84.4595899335
 11
214.8596695525
 21
84.7404409639
  0
LINE
  5
78E
100
AcDbEntity
  8
0
100
AcDbLine
 62
7
  6
CONTINUOUS
 10
214.2781881172
 20
82.8681006304
 11
214.1870229146
 21
82.5872496001
  0
LINE
  5
78F
100
AcDbEntity
  8
0
100
AcDbLine
 62
7
  6
CONTINUOUS
 10
214.31268251
 20
82.8681006304
 11
214.2215173074
 21
82.5872496001
  0
LINE
  5
790
100
AcDbEntity
  8
0
100
AcDbLine
 62
7
  6
CONTINUOUS
 10
214.7685043499
 20
82.4936325899
 11
214.8596695525
 21
82.7744836203
  0
LINE
  5
791
100
AcDbEntity
  8
0
100
AcDbLine
 62
7
  6
CONTINUOUS
 10
219.4032904644
 20
92.082994186
 11
217.9446584903
 21
88.1510792366
  0
LINE
  5
792
100
AcDbEntity
  8
0
100
AcDbLine
 62
7
  6
CONTINUOUS
 10
219.4377848573
 20
92.082994186
 11
217.9791528832
 21
88.1510792366
  0
LINE
  5
793
100
AcDbEntity
  8
0
100
AcDbLine
 62
7
  6
CONTINUOUS
 10
218.4167425172
 20
88.1510792366
 11
219.8753744913
 21
92.082994186
  0
LINE
  5
794
100
AcDbEntity
  8
0
100
AcDbLine
 62
7
  6
CONTINUOUS
 10
221.5912386342
 20
92.6446963123
 11
221.1536490003
 21
91.6149090699
  0
LINE
  5
795
100
AcDbEntity
  8
0
100
AcDbLine
 62
7
  6
CONTINUOUS
 10
221.6257330271
 20
92.6446963123
 11
221.1881433931
 21
91.6149090699
  0
LINE
  5
796
100
AcDbEntity
  8
0
100
AcDbLine
 62
7
  6
CONTINUOUS
 10
221.5528016997
 20
91.6149090699
 11
221.990391125
 21
92.6446963123
  0
LINE
  5
797
100
AcDbEntity
  8
0
100
AcDbLine
 62
7
  6
CONTINUOUS
 10
223.0114336738
 20
91.0532069436
 11
223.1572969546
 21
91.3340580395
  0
LINE
  5
798
100
AcDbEntity
  8
0
100
AcDbLine
 62
7
  6
CONTINUOUS
 10
224.6543662285
 20
88.7127812973
 11
224.5085029997
 21
88.431930267
  0
LINE
  5
799
100
AcDbEntity
  8
0
100
AcDbLine
 62
7
  6
CONTINUOUS
 10
224.6888606213
 20
88.7127812973
 11
224.5429973926
 21
88.431930267
  0
LINE
  5
79A
100
AcDbEntity
  8
0
100
AcDbLine
 62
7
  6
CONTINUOUS
 10
222.9040077448
 20
91.7085261128
 11
222.6852129278
 21
91.3340580395
  0
LINE
  5
79B
100
AcDbEntity
  8
0
100
AcDbLine
 62
7
  6
CONTINUOUS
 10
222.9385021377
 20
91.7085261128
 11
222.7197073207
 21
91.3340580395
  0
LINE
  5
79C
100
AcDbEntity
  8
0
100
AcDbLine
 62
7
  6
CONTINUOUS
 10
224.7617922096
 20
88.0574622265
 11
224.9805870266
 21
88.431930267
  0
LINE
  5
79D
100
AcDbEntity
  8
0
100
AcDbLine
 62
7
  6
CONTINUOUS
 10
222.6852129278
 20
89.9298026911
 11
222.9040077448
 21
89.6489516608
  0
LINE
  5
79E
100
AcDbEntity
  8
0
100
AcDbLine
 62
7
  6
CONTINUOUS
 10
222.7197073207
 20
89.9298026911
 11
222.9385021377
 21
89.6489516608
  0
LINE
  5
79F
100
AcDbEntity
  8
0
100
AcDbLine
 62
7
  6
CONTINUOUS
 10
223.1572969546
 20
90.0234197012
 11
223.0114336738
 21
90.2106537215
  0
LINE
  5
7A0
100
AcDbEntity
  8
0
100
AcDbLine
 62
7
  6
CONTINUOUS
 10
222.7581444639
 20
88.431930267
 11
222.9769392809
 21
88.0574622265
  0
LINE
  5
7A1
100
AcDbEntity
  8
0
100
AcDbLine
 62
7
  6
CONTINUOUS
 10
222.7926388568
 20
88.431930267
 11
223.0114336738
 21
88.0574622265
  0
LINE
  5
7A2
100
AcDbEntity
  8
0
100
AcDbLine
 62
7
  6
CONTINUOUS
 10
216.8122474708
 20
91.3340580395
 11
216.6663839813
 21
91.7085261128
  0
LINE
  5
7A3
100
AcDbEntity
  8
0
100
AcDbLine
 62
7
  6
CONTINUOUS
 10
218.2894262546
 20
85.582994186
 11
219.1099068183
 21
83.4298026911
  0
LINE
  5
7A4
100
AcDbEntity
  8
0
100
AcDbLine
 62
7
  6
CONTINUOUS
 10
218.3239206475
 20
85.582994186
 11
219.1444012112
 21
83.4298026911
  0
LINE
  5
7A5
100
AcDbEntity
  8
0
100
AcDbLine
 62
7
  6
CONTINUOUS
 10
219.6913882536
 20
83.6170367113
 11
218.9620718492
 21
85.582994186
  0
LINE
  5
7A6
100
AcDbEntity
  8
0
100
AcDbLine
 62
7
  6
CONTINUOUS
 10
212.8195553084
 20
84.6468239538
 11
212.910720511
 21
84.3659729234
  0
LINE
  5
7A7
100
AcDbEntity
  8
0
100
AcDbLine
 62
7
  6
CONTINUOUS
 10
212.8540497013
 20
84.6468239538
 11
212.9452149039
 21
84.3659729234
  0
LINE
  5
7A8
100
AcDbEntity
  8
0
100
AcDbLine
 62
7
  6
CONTINUOUS
 10
214.1870229146
 20
82.2127812973
 11
214.2781881172
 21
81.931930267
  0
LINE
  5
7A9
100
AcDbEntity
  8
0
100
AcDbLine
 62
7
  6
CONTINUOUS
 10
214.2215173074
 20
82.2127812973
 11
214.31268251
 21
81.931930267
  0
LINE
  5
7AA
100
AcDbEntity
  8
0
100
AcDbLine
 62
7
  6
CONTINUOUS
 10
214.1870229146
 20
84.0851218931
 11
214.2781881172
 21
83.8042707316
  0
LINE
  5
7AB
100
AcDbEntity
  8
0
100
AcDbLine
 62
7
  6
CONTINUOUS
 10
214.8596695525
 20
82.0255472771
 11
214.7685043499
 21
82.3063985697
  0
LINE
  5
7AC
100
AcDbEntity
  8
0
100
AcDbLine
 62
7
  6
CONTINUOUS
 10
214.2215173074
 20
84.0851218931
 11
214.31268251
 21
83.8042707316
  0
LINE
  5
7AD
100
AcDbEntity
  8
0
100
AcDbLine
 62
7
  6
CONTINUOUS
 10
214.8596695525
 20
83.8978877417
 11
214.7685043499
 21
84.1787389032
  0
LINE
  5
7AE
100
AcDbEntity
  8
0
100
AcDbLine
 62
7
  6
CONTINUOUS
 10
218.3805904139
 20
82.2127812973
 11
218.4717550949
 21
81.931930267
  0
LINE
  5
7AF
100
AcDbEntity
  8
0
100
AcDbLine
 62
7
  6
CONTINUOUS
 10
218.4150848068
 20
82.2127812973
 11
218.5062494877
 21
81.931930267
  0
LINE
  5
7B0
100
AcDbEntity
  8
0
100
AcDbLine
 62
7
  6
CONTINUOUS
 10
219.0532365302
 20
81.931930267
 11
218.9620718492
 21
82.2127812973
  0
LINE
  5
7B1
100
AcDbEntity
  8
0
100
AcDbLine
 62
7
  6
CONTINUOUS
 10
213.2187084251
 20
82.5872496001
 11
213.1275432225
 21
82.9617176405
  0
LINE
  5
7B2
100
AcDbEntity
  8
0
100
AcDbLine
 62
7
  6
CONTINUOUS
 10
213.4922019464
 20
84.3659729234
 11
213.4010367438
 21
84.7404409639
  0
LINE
  5
7B3
100
AcDbEntity
  8
0
100
AcDbLine
 62
7
  6
CONTINUOUS
 10
216.4130947715
 20
91.1468239538
 11
216.4130947715
 21
89.4617176405
  0
LINE
  5
7B4
100
AcDbEntity
  8
0
100
AcDbLine
 62
7
  6
CONTINUOUS
 10
216.4130947715
 20
89.0872496001
 11
216.4130947715
 21
88.3383132569
  0
LINE
  5
7B5
100
AcDbEntity
  8
0
100
AcDbLine
 62
7
  6
CONTINUOUS
 10
216.4475891643
 20
91.1468239538
 11
216.4475891643
 21
89.4617176405
  0
LINE
  5
7B6
100
AcDbEntity
  8
0
100
AcDbLine
 62
7
  6
CONTINUOUS
 10
216.4475891643
 20
89.0872496001
 11
216.4475891643
 21
88.3383132569
  0
LINE
  5
7B7
100
AcDbEntity
  8
0
100
AcDbLine
 62
7
  6
CONTINUOUS
 10
216.8122474708
 20
88.3383132569
 11
216.8122474708
 21
89.0872496001
  0
LINE
  5
7B8
100
AcDbEntity
  8
0
100
AcDbLine
 62
7
  6
CONTINUOUS
 10
216.8122474708
 20
89.4617176405
 11
216.8122474708
 21
91.3340580395
  0
LINE
  5
7B9
100
AcDbEntity
  8
0
100
AcDbLine
 62
7
  6
CONTINUOUS
 10
217.0131233294
 20
85.0212920598
 11
217.0131233294
 21
83.6170367113
  0
LINE
  5
7BA
100
AcDbEntity
  8
0
100
AcDbLine
 62
7
  6
CONTINUOUS
 10
217.0131233294
 20
83.0553346506
 11
217.0131233294
 21
81.7446962467
  0
LINE
  5
7BB
100
AcDbEntity
  8
0
100
AcDbLine
 62
7
  6
CONTINUOUS
 10
217.0476177223
 20
85.0212920598
 11
217.0476177223
 21
83.6170367113
  0
LINE
  5
7BC
100
AcDbEntity
  8
0
100
AcDbLine
 62
7
  6
CONTINUOUS
 10
217.0476177223
 20
83.0553346506
 11
217.0476177223
 21
81.7446962467
  0
LINE
  5
7BD
100
AcDbEntity
  8
0
100
AcDbLine
 62
7
  6
CONTINUOUS
 10
217.3956997597
 20
89.0872496001
 11
217.3956997597
 21
89.4617176405
  0
LINE
  5
7BE
100
AcDbEntity
  8
0
100
AcDbLine
 62
7
  6
CONTINUOUS
 10
217.5946042431
 20
81.182994186
 11
217.5946042431
 21
85.582994186
  0
LINE
  5
7BF
100
AcDbEntity
  8
0
100
AcDbLine
 62
7
  6
CONTINUOUS
 10
217.9446584903
 20
88.1510792366
 11
217.9446584903
 21
87.682994186
  0
LINE
  5
7C0
100
AcDbEntity
  8
0
100
AcDbLine
 62
7
  6
CONTINUOUS
 10
217.9791528832
 20
88.1510792366
 11
217.9791528832
 21
87.682994186
  0
LINE
  5
7C1
100
AcDbEntity
  8
0
100
AcDbLine
 62
7
  6
CONTINUOUS
 10
218.3805904139
 20
82.5872496001
 11
218.3805904139
 21
82.2127812973
  0
LINE
  5
7C2
100
AcDbEntity
  8
0
100
AcDbLine
 62
7
  6
CONTINUOUS
 10
218.4150848068
 20
82.5872496001
 11
218.4150848068
 21
82.2127812973
  0
LINE
  5
7C3
100
AcDbEntity
  8
0
100
AcDbLine
 62
7
  6
CONTINUOUS
 10
218.9620718492
 20
82.2127812973
 11
218.9620718492
 21
82.4936325899
  0
LINE
  5
7C4
100
AcDbEntity
  8
0
100
AcDbLine
 62
7
  6
CONTINUOUS
 10
220.604690687
 20
87.682994186
 11
220.604690687
 21
88.1510792366
  0
LINE
  5
7C5
100
AcDbEntity
  8
0
100
AcDbLine
 62
7
  6
CONTINUOUS
 10
221.2066903071
 20
85.582994186
 11
221.2066903071
 21
83.6170367113
  0
LINE
  5
7C6
100
AcDbEntity
  8
0
100
AcDbLine
 62
7
  6
CONTINUOUS
 10
221.2066903071
 20
83.0553346506
 11
221.2066903071
 21
81.6510792366
  0
LINE
  5
7C7
100
AcDbEntity
  8
0
100
AcDbLine
 62
7
  6
CONTINUOUS
 10
221.2411847
 20
85.582994186
 11
221.2411847
 21
83.6170367113
  0
LINE
  5
7C8
100
AcDbEntity
  8
0
100
AcDbLine
 62
7
  6
CONTINUOUS
 10
221.2411847
 20
83.0553346506
 11
221.2411847
 21
81.6510792366
  0
LINE
  5
7C9
100
AcDbEntity
  8
0
100
AcDbLine
 62
7
  6
CONTINUOUS
 10
221.7881717425
 20
81.182994186
 11
221.7881717425
 21
85.582994186
  0
LINE
  5
7CA
100
AcDbEntity
  8
0
100
AcDbLine
 62
7
  6
CONTINUOUS
 10
222.9385021377
 20
90.7723559133
 11
223.0114336738
 21
91.0532069436
  0
LINE
  5
7CB
100
AcDbEntity
  8
0
100
AcDbLine
 62
7
  6
CONTINUOUS
 10
224.7272978167
 20
90.4915048829
 11
224.6543662285
 21
90.2106537215
  0
LINE
  5
7CC
100
AcDbEntity
  8
0
100
AcDbLine
 62
7
  6
CONTINUOUS
 10
224.7617922096
 20
90.4915048829
 11
224.6888606213
 21
90.2106537215
  0
LINE
  5
7CD
100
AcDbEntity
  8
0
100
AcDbLine
 62
7
  6
CONTINUOUS
 10
224.7272978167
 20
88.9936325899
 11
224.6543662285
 21
88.7127812973
  0
LINE
  5
7CE
100
AcDbEntity
  8
0
100
AcDbLine
 62
7
  6
CONTINUOUS
 10
224.7617922096
 20
88.9936325899
 11
224.6888606213
 21
88.7127812973
  0
LINE
  5
7CF
100
AcDbEntity
  8
0
100
AcDbLine
 62
7
  6
CONTINUOUS
 10
222.6852129278
 20
91.3340580395
 11
222.5393496469
 21
90.8659729234
  0
LINE
  5
7D0
100
AcDbEntity
  8
0
100
AcDbLine
 62
7
  6
CONTINUOUS
 10
222.7197073207
 20
91.3340580395
 11
222.5738440398
 21
90.8659729234
  0
LINE
  5
7D1
100
AcDbEntity
  8
0
100
AcDbLine
 62
7
  6
CONTINUOUS
 10
224.9805870266
 20
88.431930267
 11
225.1264502357
 21
88.9000155798
  0
LINE
  5
7D2
100
AcDbEntity
  8
0
100
AcDbLine
 62
7
  6
CONTINUOUS
 10
218.4717550949
 20
82.8681006304
 11
218.3805904139
 21
82.5872496001
  0
LINE
  5
7D3
100
AcDbEntity
  8
0
100
AcDbLine
 62
7
  6
CONTINUOUS
 10
218.5062494877
 20
82.8681006304
 11
218.4150848068
 21
82.5872496001
  0
LINE
  5
7D4
100
AcDbEntity
  8
0
100
AcDbLine
 62
7
  6
CONTINUOUS
 10
218.9620718492
 20
82.4936325899
 11
219.0532365302
 21
82.7744836203
  0
LINE
  5
7D5
100
AcDbEntity
  8
0
100
AcDbLine
 62
7
  6
CONTINUOUS
 10
223.9416255194
 20
85.582994186
 11
222.4829934931
 21
81.182994186
  0
LINE
  5
7D6
100
AcDbEntity
  8
0
100
AcDbLine
 62
7
  6
CONTINUOUS
 10
223.9761199123
 20
85.582994186
 11
222.517487886
 21
81.182994186
  0
LINE
  5
7D7
100
AcDbEntity
  8
0
100
AcDbLine
 62
7
  6
CONTINUOUS
 10
223.0644749285
 20
81.182994186
 11
224.340777984
 21
85.0212920598
  0
LINE
  5
7D8
100
AcDbEntity
  8
0
100
AcDbLine
 62
7
  6
CONTINUOUS
 10
224.9805870266
 20
91.3340580395
 11
224.7617922096
 21
91.7085261128
  0
LINE
  5
7D9
100
AcDbEntity
  8
0
100
AcDbLine
 62
7
  6
CONTINUOUS
 10
223.2302284907
 20
88.431930267
 11
223.0843652099
 21
88.7127812973
  0
LINE
  5
7DA
100
AcDbEntity
  8
0
100
AcDbLine
 62
7
  6
CONTINUOUS
 10
224.5085029997
 20
91.3340580395
 11
224.6543662285
 21
91.0532069436
  0
LINE
  5
7DB
100
AcDbEntity
  8
0
100
AcDbLine
 62
7
  6
CONTINUOUS
 10
224.5429973926
 20
91.3340580395
 11
224.6888606213
 21
91.0532069436
  0
LINE
  5
7DC
100
AcDbEntity
  8
0
100
AcDbLine
 62
7
  6
CONTINUOUS
 10
224.3235307876
 20
84.9694235971
 11
225.5825866467
 21
81.182994186
  0
LINE
  5
7DD
100
AcDbEntity
  8
0
100
AcDbLine
 62
7
  6
CONTINUOUS
 10
224.340777984
 20
85.0212920598
 11
225.6170810396
 21
81.182994186
  0
LINE
  5
7DE
100
AcDbEntity
  8
0
100
AcDbLine
 62
7
  6
CONTINUOUS
 10
226.1640680821
 20
81.182994186
 11
224.7054359254
 21
85.582994186
  0
LINE
  5
7DF
100
AcDbEntity
  8
0
100
AcDbLine
 62
7
  6
CONTINUOUS
 10
222.5393496469
 20
90.3978877417
 11
222.6852129278
 21
89.9298026911
  0
LINE
  5
7E0
100
AcDbEntity
  8
0
100
AcDbLine
 62
7
  6
CONTINUOUS
 10
222.5738440398
 20
90.3978877417
 11
222.7197073207
 21
89.9298026911
  0
LINE
  5
7E1
100
AcDbEntity
  8
0
100
AcDbLine
 62
7
  6
CONTINUOUS
 10
216.340163444
 20
91.4276750497
 11
216.4130947715
 21
91.1468239538
  0
LINE
  5
7E2
100
AcDbEntity
  8
0
100
AcDbLine
 62
7
  6
CONTINUOUS
 10
216.3746578369
 20
91.4276750497
 11
216.4475891643
 21
91.1468239538
  0
LINE
  5
7E3
100
AcDbEntity
  8
0
100
AcDbLine
 62
7
  6
CONTINUOUS
 10
222.6852129278
 20
88.7127812973
 11
222.7581444639
 21
88.431930267
  0
LINE
  5
7E4
100
AcDbEntity
  8
0
100
AcDbLine
 62
7
  6
CONTINUOUS
 10
222.7197073207
 20
88.7127812973
 11
222.7926388568
 21
88.431930267
  0
LINE
  5
7E5
100
AcDbEntity
  8
0
100
AcDbLine
 62
7
  6
CONTINUOUS
 10
223.0114336738
 20
90.2106537215
 11
222.9385021377
 21
90.4915048829
  0
LINE
  5
7E6
100
AcDbEntity
  8
0
100
AcDbLine
 62
7
  6
CONTINUOUS
 10
222.5393496469
 20
90.8659729234
 11
222.5393496469
 21
90.3978877417
  0
LINE
  5
7E7
100
AcDbEntity
  8
0
100
AcDbLine
 62
7
  6
CONTINUOUS
 10
222.5738440398
 20
90.8659729234
 11
222.5738440398
 21
90.3978877417
  0
LINE
  5
7E8
100
AcDbEntity
  8
0
100
AcDbLine
 62
7
  6
CONTINUOUS
 10
222.9385021377
 20
90.4915048829
 11
222.9385021377
 21
90.7723559133
  0
LINE
  5
7E9
100
AcDbEntity
  8
0
100
AcDbLine
 62
7
  6
CONTINUOUS
 10
224.7272978167
 20
90.7723559133
 11
224.7272978167
 21
90.4915048829
  0
LINE
  5
7EA
100
AcDbEntity
  8
0
100
AcDbLine
 62
7
  6
CONTINUOUS
 10
224.7617922096
 20
90.7723559133
 11
224.7617922096
 21
90.4915048829
  0
LINE
  5
7EB
100
AcDbEntity
  8
0
100
AcDbLine
 62
7
  6
CONTINUOUS
 10
224.8002294311
 20
89.7130500399
 11
224.8002294311
 21
89.5553346506
  0
LINE
  5
7EC
100
AcDbEntity
  8
0
100
AcDbLine
 62
7
  6
CONTINUOUS
 10
224.834723824
 20
89.7425686709
 11
224.834723824
 21
89.5553346506
  0
LINE
  5
7ED
100
AcDbEntity
  8
0
100
AcDbLine
 62
7
  6
CONTINUOUS
 10
225.1993818436
 20
89.5553346506
 11
225.1993818436
 21
90.2106537215
  0
LINE
  5
7EE
100
AcDbEntity
  8
0
100
AcDbLine
 62
7
  6
CONTINUOUS
 10
225.1264502357
 20
88.9000155798
 11
225.1993818436
 21
89.5553346506
  0
LINE
  5
7EF
100
AcDbEntity
  8
0
100
AcDbLine
 62
7
  6
CONTINUOUS
 10
224.8002294311
 20
89.5553346506
 11
224.7272978167
 21
88.9936325899
  0
LINE
  5
7F0
100
AcDbEntity
  8
0
100
AcDbLine
 62
7
  6
CONTINUOUS
 10
224.834723824
 20
89.5553346506
 11
224.7617922096
 21
88.9936325899
  0
LINE
  5
7F1
100
AcDbEntity
  8
0
100
AcDbLine
 62
7
  6
CONTINUOUS
 10
225.1264502357
 20
90.8659729234
 11
224.9805870266
 21
91.3340580395
  0
LINE
  5
7F2
100
AcDbEntity
  8
0
100
AcDbLine
 62
7
  6
CONTINUOUS
 10
224.6543662285
 20
91.0532069436
 11
224.7272978167
 21
90.7723559133
  0
LINE
  5
7F3
100
AcDbEntity
  8
0
100
AcDbLine
 62
7
  6
CONTINUOUS
 10
224.6888606213
 20
91.0532069436
 11
224.7617922096
 21
90.7723559133
  0
LINE
  5
7F4
100
AcDbEntity
  8
0
100
AcDbLine
 62
7
  6
CONTINUOUS
 10
225.1993818436
 20
90.2106537215
 11
225.1264502357
 21
90.8659729234
  0
LINE
  5
7F5
100
AcDbEntity
  8
RUNDUNGEN
100
AcDbLine
 62
7
  6
CONTINUOUS
 10
225.4359417732
 20
43.2739068895
 11
242.5250290698
 21
60.362994186
  0
LINE
  5
7F6
100
AcDbEntity
  8
RUNDUNGEN
100
AcDbLine
 62
7
  6
CONTINUOUS
 10
225.4359417732
 20
128.0520814826
 11
242.5250290698
 21
110.962994186
  0
LINE
  5
7F7
100
AcDbEntity
  8
RUNDUNGEN
100
AcDbLine
 62
7
  6
CONTINUOUS
 10
242.5250290698
 20
60.362994186
 11
242.5250290698
 21
110.962994186
  0
ARC
  5
7F8
100
AcDbEntity
  8
RUNDUNGEN
100
AcDbCircle
 62
7
  6
CONTINUOUS
 10
90.288973058
 20
191.8161615668
 40
16.5
100
AcDbArc
 50
96.0
 51
174.0
  0
ARC
  5
7F9
100
AcDbEntity
  8
RUNDUNGEN
100
AcDbCircle
 62
7
  6
CONTINUOUS
 10
104.9238093962
 20
196.8607669974
 40
6.0
100
AcDbArc
 50
357.0475458268
 51
3.0597351824
  0
ARC
  5
7FA
100
AcDbEntity
  8
BEZUGSACHSEN
100
AcDbCircle
 62
7
  6
CONTINUOUS
 10
104.9238093962
 20
196.8607669974
 40
6.0
100
AcDbArc
 50
1.6219805686
 51
3.0597351824
  0
ARC
  5
7FB
100
AcDbEntity
  8
RUNDUNGEN
100
AcDbCircle
 62
7
  6
CONTINUOUS
 10
110.9758024287
 20
175.2552661716
 40
3.0
100
AcDbArc
 50
266.9281416369
 51
270.0
  0
ARC
  5
7FC
100
AcDbEntity
  8
BEZUGSACHSEN
100
AcDbCircle
 62
7
  6
CONTINUOUS
 10
107.7937665879
 20
198.2552650083
 40
2.9999997593
100
AcDbArc
 50
290.1331189562
 51
1.9061392466
  0
ARC
  5
7FD
100
AcDbEntity
  8
BEZUGSACHSEN
100
AcDbCircle
 62
7
  6
CONTINUOUS
 10
107.7937665879
 20
198.2552650083
 40
2.9999997593
100
AcDbArc
 50
4.5140574443
 51
6.000022339
  0
ARC
  5
7FE
100
AcDbEntity
  8
RUNDUNGEN
100
AcDbCircle
 62
7
  6
CONTINUOUS
 10
106.0750290698
 20
207.3010817558
 40
2.75
100
AcDbArc
 50
0.0
 51
96.0
  0
ARC
  5
7FF
100
AcDbEntity
  8
0
100
AcDbCircle
 62
7
  6
CONTINUOUS
 10
142.0494081346
 20
267.0821845691
 40
76.0454269621
100
AcDbArc
 50
295.5182197636
 51
296.7480533509
  0
ARC
  5
800
100
AcDbEntity
  8
BEZUGSACHSEN
100
AcDbCircle
 62
7
  6
CONTINUOUS
 10
112.6198384141
 20
224.0890505232
 40
4.5
100
AcDbArc
 50
157.5
 51
186.0
  0
ARC
  5
801
100
AcDbEntity
  8
RUNDUNGEN
100
AcDbCircle
 62
7
  6
CONTINUOUS
 10
112.6198384141
 20
224.0890505232
 40
4.5
100
AcDbArc
 50
157.5
 51
186.0
  0
ARC
  5
802
100
AcDbEntity
  8
BEZUGSACHSEN
100
AcDbCircle
 62
7
  6
CONTINUOUS
 10
125.9673942923
 20
256.312900949
 40
4.5
100
AcDbArc
 50
118.124999868
 51
120.4996853356
  0
ARC
  5
803
100
AcDbEntity
  8
BEZUGSACHSEN
100
AcDbCircle
 62
7
  6
CONTINUOUS
 10
125.9673942923
 20
256.312900949
 40
4.5
100
AcDbArc
 50
123.7499998238
 51
127.118521997
  0
ARC
  5
804
100
AcDbEntity
  8
BEZUGSACHSEN
100
AcDbCircle
 62
7
  6
CONTINUOUS
 10
125.9673942923
 20
256.312900949
 40
4.5
100
AcDbArc
 50
134.9999999713
 51
142.6872386981
  0
ARC
  5
805
100
AcDbEntity
  8
BEZUGSACHSEN
100
AcDbCircle
 62
7
  6
CONTINUOUS
 10
125.9673942923
 20
256.312900949
 40
4.5
100
AcDbArc
 50
149.4683740086
 51
157.5
  0
ARC
  5
806
100
AcDbEntity
  8
RUNDUNGEN
100
AcDbCircle
 62
7
  6
CONTINUOUS
 10
125.9673942923
 20
256.312900949
 40
4.5
100
AcDbArc
 50
112.5
 51
157.5
  0
ARC
  5
807
100
AcDbEntity
  8
RUNDUNGEN
100
AcDbCircle
 62
7
  6
CONTINUOUS
 10
224.7610850816
 20
191.8161615668
 40
16.5
100
AcDbArc
 50
6.0
 51
84.0
  0
ARC
  5
808
100
AcDbEntity
  8
RUNDUNGEN
100
AcDbCircle
 62
7
  6
CONTINUOUS
 10
204.0742549305
 20
175.2552717241
 40
3.0
100
AcDbArc
 50
270.0000149037
 51
273.0718676018
  0
ARC
  5
809
100
AcDbEntity
  8
BEZUGSACHSEN
100
AcDbCircle
 62
7
  6
CONTINUOUS
 10
207.2562914621
 20
198.2552641562
 40
2.999999583
100
AcDbArc
 50
173.9999612975
 51
175.4857140161
  0
ARC
  5
80A
100
AcDbEntity
  8
BEZUGSACHSEN
100
AcDbCircle
 62
7
  6
CONTINUOUS
 10
207.2562914621
 20
198.2552641562
 40
2.999999583
100
AcDbArc
 50
178.6272980306
 51
249.8687382589
  0
ARC
  5
80B
100
AcDbEntity
  8
RUNDUNGEN
100
AcDbCircle
 62
7
  6
CONTINUOUS
 10
208.9750290698
 20
207.3010817558
 40
2.75
100
AcDbArc
 50
84.0
 51
180.0
  0
ARC
  5
80C
100
AcDbEntity
  8
0
100
AcDbCircle
 62
7
  6
CONTINUOUS
 10
157.5250290698
 20
224.7552661716
 40
31.0
100
AcDbArc
 50
256.3493194826
 51
283.6506815209
  0
ARC
  5
80D
100
AcDbEntity
  8
BEZUGSACHSEN
100
AcDbCircle
 62
7
  6
CONTINUOUS
 10
157.5250290698
 20
224.7552661716
 40
30.0
100
AcDbArc
 50
302.5194323387
 51
325.8421647684
  0
ARC
  5
80E
100
AcDbEntity
  8
BEZUGSACHSEN
100
AcDbCircle
 62
7
  6
CONTINUOUS
 10
157.5250290698
 20
224.7552661716
 40
30.0
100
AcDbArc
 50
214.1578352316
 51
228.9633487683
  0
CIRCLE
  5
80F
100
AcDbEntity
  8
RUNDUNGEN
100
AcDbCircle
 62
7
  6
CONTINUOUS
 10
157.5250290698
 20
224.7552661716
 40
30.0
  0
ARC
  5
810
100
AcDbEntity
  8
0
100
AcDbCircle
 62
7
  6
CONTINUOUS
 10
173.0006508647
 20
267.0821854393
 40
76.0454281262
100
AcDbArc
 50
243.2519463657
 51
244.481779661
  0
ARC
  5
811
100
AcDbEntity
  8
BEZUGSACHSEN
100
AcDbCircle
 62
7
  6
CONTINUOUS
 10
157.5250290698
 20
269.3845012703
 40
4.5
100
AcDbArc
 50
67.5
 51
75.4996827745
  0
ARC
  5
812
100
AcDbEntity
  8
BEZUGSACHSEN
100
AcDbCircle
 62
7
  6
CONTINUOUS
 10
157.5250290698
 20
269.3845012703
 40
4.5
100
AcDbArc
 50
82.1184789648
 51
95.6250000946
  0
ARC
  5
813
100
AcDbEntity
  8
BEZUGSACHSEN
100
AcDbCircle
 62
7
  6
CONTINUOUS
 10
157.5250290698
 20
269.3845012703
 40
4.5
100
AcDbArc
 50
104.4683739338
 51
112.5
  0
ARC
  5
814
100
AcDbEntity
  8
RUNDUNGEN
100
AcDbCircle
 62
7
  6
CONTINUOUS
 10
157.5250290698
 20
269.3845012703
 40
4.5
100
AcDbArc
 50
67.5
 51
112.5
  0
ARC
  5
815
100
AcDbEntity
  8
RUNDUNGEN
100
AcDbCircle
 62
7
  6
CONTINUOUS
 10
202.4302197255
 20
224.0890505232
 40
4.5
100
AcDbArc
 50
354.0
 51
22.5
  0
ARC
  5
816
100
AcDbEntity
  8
BEZUGSACHSEN
100
AcDbCircle
 62
7
  6
CONTINUOUS
 10
189.0826638472
 20
256.312900949
 40
4.5
100
AcDbArc
 50
61.8750001324
 51
67.5000000077
  0
ARC
  5
817
100
AcDbEntity
  8
BEZUGSACHSEN
100
AcDbCircle
 62
7
  6
CONTINUOUS
 10
189.0826638472
 20
256.312900949
 40
4.5
100
AcDbArc
 50
50.6250001169
 51
52.8814345091
  0
ARC
  5
818
100
AcDbEntity
  8
BEZUGSACHSEN
100
AcDbCircle
 62
7
  6
CONTINUOUS
 10
189.0826638472
 20
256.312900949
 40
4.5
100
AcDbArc
 50
22.4999999878
 51
39.3749999051
  0
ARC
  5
819
100
AcDbEntity
  8
RUNDUNGEN
100
AcDbCircle
 62
7
  6
CONTINUOUS
 10
189.0826638472
 20
256.312900949
 40
4.5
100
AcDbArc
 50
22.5
 51
67.5
  0
ARC
  5
81A
100
AcDbEntity
  8
BEZUGSACHSEN
100
AcDbCircle
 62
7
  6
CONTINUOUS
 10
329.9542386185
 20
183.7552661716
 40
11.5
100
AcDbArc
 50
217.5253509772
 51
270.0015716959
  0
ARC
  5
81B
100
AcDbEntity
  8
RUNDUNGEN
100
AcDbCircle
 62
7
  6
CONTINUOUS
 10
289.2042386185
 20
180.1675529313
 40
2.75
100
AcDbArc
 50
120.0
 51
180.0
  0
ARC
  5
81C
100
AcDbEntity
  8
RUNDUNGEN
100
AcDbCircle
 62
7
  6
CONTINUOUS
 10
303.351301367
 20
194.6862163785
 40
2.75
100
AcDbArc
 50
300.0
 51
338.3997473846
  0
ARC
  5
81D
100
AcDbEntity
  8
BEZUGSACHSEN
100
AcDbCircle
 62
7
  6
CONTINUOUS
 10
323.4542386185
 20
270.8845012703
 40
3.0
100
AcDbArc
 50
90.0
 51
180.0
  0
ARC
  5
81E
100
AcDbEntity
  8
RUNDUNGEN
100
AcDbCircle
 62
7
  6
CONTINUOUS
 10
330.4542386185
 20
183.9552661716
 40
26.4
100
AcDbArc
 50
99.7703992367
 51
158.3997473846
  0
ARC
  5
81F
100
AcDbEntity
  8
RUNDUNGEN
100
AcDbCircle
 62
7
  6
CONTINUOUS
 10
330.4542386185
 20
183.9552661716
 40
26.4
100
AcDbArc
 50
76.8453270103
 51
80.8004712345
  0
ARC
  5
820
100
AcDbEntity
  8
RUNDUNGEN
100
AcDbCircle
 62
7
  6
CONTINUOUS
 10
330.4542386185
 20
183.9552661716
 40
26.4
100
AcDbArc
 50
21.6002526154
 51
75.9392307351
  0
ARC
  5
821
100
AcDbEntity
  8
RUNDUNGEN
100
AcDbCircle
 62
7
  6
CONTINUOUS
 10
330.9542386185
 20
183.7552661716
 40
11.5
100
AcDbArc
 50
269.9984283065
 51
322.4746490228
  0
ARC
  5
822
100
AcDbEntity
  8
RUNDUNGEN
100
AcDbCircle
 62
7
  6
CONTINUOUS
 10
330.4542386185
 20
183.7552661716
 40
11.5
100
AcDbArc
 50
271.9763936927
 51
274.4574574129
  0
ARC
  5
823
100
AcDbEntity
  8
BEZUGSACHSEN
100
AcDbCircle
 62
7
  6
CONTINUOUS
 10
330.4542386185
 20
183.7552661716
 40
11.5
100
AcDbArc
 50
217.5423457479
 51
322.4576542521
  0
ARC
  5
824
100
AcDbEntity
  8
RUNDUNGEN
100
AcDbCircle
 62
7
  6
CONTINUOUS
 10
334.2348223161
 20
207.2968228747
 40
2.7542587072
100
AcDbArc
 50
80.8078031533
 51
89.9928977514
  0
ARC
  5
825
100
AcDbEntity
  8
RUNDUNGEN
100
AcDbCircle
 62
7
  6
CONTINUOUS
 10
371.7042248747
 20
180.1675608663
 40
2.75
100
AcDbArc
 50
359.9998346765
 51
59.9996693514
  0
ARC
  5
826
100
AcDbEntity
  8
RUNDUNGEN
100
AcDbCircle
 62
7
  6
CONTINUOUS
 10
357.55717587
 20
194.6862163785
 40
2.75
100
AcDbArc
 50
201.6002526154
 51
240.0
  0
ARC
  5
827
100
AcDbEntity
  8
RUNDUNGEN
100
AcDbCircle
 62
7
  6
CONTINUOUS
 10
337.4542386185
 20
270.8845012703
 40
3.0
100
AcDbArc
 50
0.0
 51
90.0
  0
ARC
  5
828
100
AcDbEntity
  8
RUNDUNGEN
100
AcDbCircle
 62
7
  6
CONTINUOUS
 10
213.7207738068
 20
124.162994186
 40
5.5
100
AcDbArc
 50
90.0
 51
174.0
  0
ARC
  5
829
100
AcDbEntity
  8
RUNDUNGEN
100
AcDbCircle
 62
7
  6
CONTINUOUS
 10
221.5468544767
 20
124.162994186
 40
5.5
100
AcDbArc
 50
45.0
 51
90.0
  0
ARC
  5
82A
100
AcDbEntity
  8
RUNDUNGEN
100
AcDbCircle
 62
7
  6
CONTINUOUS
 10
221.5468544767
 20
47.162994186
 40
5.5
100
AcDbArc
 50
270.0
 51
315.0
  0
ARC
  5
82B
100
AcDbEntity
  8
RUNDUNGEN
100
AcDbCircle
 62
7
  6
CONTINUOUS
 10
213.7207738068
 20
47.162994186
 40
5.5
100
AcDbArc
 50
186.0
 51
270.0
  0
ARC
  5
82C
100
AcDbEntity
  8
RUNDUNGEN
100
AcDbCircle
 62
7
  6
CONTINUOUS
 10
101.3292843327
 20
47.162994186
 40
5.5
100
AcDbArc
 50
270.0
 51
354.0
  0
ARC
  5
82D
100
AcDbEntity
  8
RUNDUNGEN
100
AcDbCircle
 62
7
  6
CONTINUOUS
 10
93.5032036628
 20
47.162994186
 40
5.5
100
AcDbArc
 50
225.0
 51
270.0
  0
ARC
  5
82E
100
AcDbEntity
  8
RUNDUNGEN
100
AcDbCircle
 62
7
  6
CONTINUOUS
 10
93.5032036628
 20
124.162994186
 40
5.5
100
AcDbArc
 50
90.0
 51
135.0
  0
ARC
  5
82F
100
AcDbEntity
  8
RUNDUNGEN
100
AcDbCircle
 62
7
  6
CONTINUOUS
 10
101.3292843327
 20
124.162994186
 40
5.5
100
AcDbArc
 50
6.0
 51
90.0
  0
ARC
  5
830
100
AcDbEntity
  8
BEZUGSACHSEN
100
AcDbCircle
 62
7
  6
CONTINUOUS
 10
111.1198384141
 20
92.662994186
 40
3.0
100
AcDbArc
 50
90.0
 51
180.0
  0
ARC
  5
831
100
AcDbEntity
  8
BEZUGSACHSEN
100
AcDbCircle
 62
7
  6
CONTINUOUS
 10
203.9302197255
 20
92.662994186
 40
3.0
100
AcDbArc
 50
0.0
 51
90.0
  0
ARC
  5
832
100
AcDbEntity
  8
RUNDUNGEN
100
AcDbCircle
 62
7
  6
CONTINUOUS
 10
111.1198384141
 20
78.662994186
 40
3.0
100
AcDbArc
 50
180.0
 51
270.0
  0
ARC
  5
833
100
AcDbEntity
  8
RUNDUNGEN
100
AcDbCircle
 62
7
  6
CONTINUOUS
 10
203.9302197255
 20
78.662994186
 40
3.0
100
AcDbArc
 50
270.0
 51
360.0
  0
ARC
  5
834
100
AcDbEntity
  8
RUNDUNGEN
100
AcDbCircle
 62
7
  6
CONTINUOUS
 10
208.9750290698
 20
66.0071155791
 40
2.75
100
AcDbArc
 50
180.0
 51
186.0
  0
ARC
  5
835
100
AcDbEntity
  8
RUNDUNGEN
100
AcDbCircle
 62
7
  6
CONTINUOUS
 10
208.9750290698
 20
105.318872793
 40
2.75
100
AcDbArc
 50
174.0
 51
180.0
  0
ARC
  5
836
100
AcDbEntity
  8
RUNDUNGEN
100
AcDbCircle
 62
7
  6
CONTINUOUS
 10
106.0750290698
 20
105.318872793
 40
2.75
100
AcDbArc
 50
0.0
 51
6.0
  0
ARC
  5
837
100
AcDbEntity
  8
RUNDUNGEN
100
AcDbCircle
 62
7
  6
CONTINUOUS
 10
106.0750290698
 20
66.0071155791
 40
2.75
100
AcDbArc
 50
354.0
 51
360.0
  0
ARC
  5
838
100
AcDbEntity
  8
0
100
AcDbCircle
 62
7
  6
CONTINUOUS
 10
121.106928204
 20
75.890335098
 40
2.7273479093
100
AcDbArc
 50
273.1783212345
 51
273.7266388077
  0
ARC
  5
839
100
AcDbEntity
  8
0
100
AcDbCircle
 62
7
  6
CONTINUOUS
 10
193.9431299355
 20
95.4356532747
 40
2.7273479087
100
AcDbArc
 50
93.1783212344
 51
93.7266388078
  0
ARC
  5
83A
100
AcDbEntity
  8
0
100
AcDbCircle
 62
7
  6
CONTINUOUS
 10
193.9429590434
 20
95.4391197617
 40
2.723877279
100
AcDbArc
 50
91.5342391264
 51
93.178774862
  0
ARC
  5
83B
100
AcDbEntity
  8
0
100
AcDbCircle
 62
7
  6
CONTINUOUS
 10
121.1070990961
 20
75.8868686101
 40
2.7238772787
100
AcDbArc
 50
271.5342391263
 51
273.178774862
  0
ARC
  5
83C
100
AcDbEntity
  8
0
100
AcDbCircle
 62
7
  6
CONTINUOUS
 10
193.2831284569
 20
95.4417923457
 40
2.7212026759
100
AcDbArc
 50
90.8022208071
 51
92.9968207215
  0
ARC
  5
83D
100
AcDbEntity
  8
0
100
AcDbCircle
 62
7
  6
CONTINUOUS
 10
121.7669296827
 20
75.8841960264
 40
2.7212026759
100
AcDbArc
 50
270.802220807
 51
272.9968207215
  0
SPLINE
  5
83E
100
AcDbEntity
  8
0
100
AcDbSpline
 62
7
  6
CONTINUOUS
 70
0
 71
3
 72
8
 73
4
 74
0
 42
0.0000001
 43
0.0000001
 44
0.0000000001
 40
0.0
 40
0.0
 40
0.0
 40
0.0
 40
1.0
 40
1.0
 40
1.0
 40
1.0
 10
164.726658768
 20
182.949767214
 30
0.0
 10
164.726658768
 20
182.3523469983
 30
0.0
 10
164.7701062626
 20
181.9504460513
 30
0.0
 10
164.8655813434
 20
181.7322173334
 30
0.0
  0
SPLINE
  5
83F
100
AcDbEntity
  8
0
100
AcDbSpline
 62
7
  6
CONTINUOUS
 70
0
 71
3
 72
8
 73
4
 74
0
 42
0.0000001
 43
0.0000001
 44
0.0000000001
 40
0.0
 40
0.0
 40
0.0
 40
0.0
 40
1.0
 40
1.0
 40
1.0
 40
1.0
 10
164.8655813434
 20
181.7322173334
 30
0.0
 10
164.9601945346
 20
181.5159586488
 30
0.0
 10
165.1448525852
 20
181.3530258431
 30
0.0
 10
165.4209217876
 20
181.2474697547
 30
0.0
  0
SPLINE
  5
840
100
AcDbEntity
  8
0
100
AcDbSpline
 62
7
  6
CONTINUOUS
 70
0
 71
3
 72
8
 73
4
 74
0
 42
0.0000001
 43
0.0000001
 44
0.0000000001
 40
0.0
 40
0.0
 40
0.0
 40
0.0
 40
1.0
 40
1.0
 40
1.0
 40
1.0
 10
165.4209217876
 20
181.2474697547
 30
0.0
 10
165.6988229221
 20
181.1412132203
 30
0.0
 10
166.0138272709
 20
181.0869022875
 30
0.0
 10
166.3614167636
 20
181.0869022875
 30
0.0
  0
SPLINE
  5
841
100
AcDbEntity
  8
0
100
AcDbSpline
 62
7
  6
CONTINUOUS
 70
0
 71
3
 72
8
 73
4
 74
0
 42
0.0000001
 43
0.0000001
 44
0.0000000001
 40
0.0
 40
0.0
 40
0.0
 40
0.0
 40
1.0
 40
1.0
 40
1.0
 40
1.0
 10
166.3614167636
 20
181.0869022875
 30
0.0
 10
166.5786599582
 20
181.0869022875
 30
0.0
 10
166.8719396061
 20
181.1031955748
 30
0.0
 10
167.2466859287
 20
181.135782127
 30
0.0
  0
SPLINE
  5
842
100
AcDbEntity
  8
0
100
AcDbSpline
 62
7
  6
CONTINUOUS
 70
0
 71
3
 72
8
 73
4
 74
0
 42
0.0000001
 43
0.0000001
 44
0.0000000001
 40
0.0
 40
0.0
 40
0.0
 40
0.0
 40
1.0
 40
1.0
 40
1.0
 40
1.0
 10
167.2466859287
 20
182.3034671365
 30
0.0
 10
167.0620278782
 20
182.3686402856
 30
0.0
 10
166.9262513584
 20
182.4066579162
 30
0.0
 10
166.8338260814
 20
182.416611386
 30
0.0
  0
SPLINE
  5
843
100
AcDbEntity
  8
0
100
AcDbSpline
 62
7
  6
CONTINUOUS
 70
0
 71
3
 72
8
 73
4
 74
0
 42
0.0000001
 43
0.0000001
 44
0.0000000001
 40
0.0
 40
0.0
 40
0.0
 40
0.0
 40
1.0
 40
1.0
 40
1.0
 40
1.0
 10
166.8338260814
 20
182.416611386
 30
0.0
 10
166.5732297367
 20
182.4446755468
 30
0.0
 10
166.415728516
 20
182.4935554086
 30
0.0
 10
166.3614173558
 20
182.558728932
 30
0.0
  0
SPLINE
  5
844
100
AcDbEntity
  8
0
100
AcDbSpline
 62
7
  6
CONTINUOUS
 70
0
 71
3
 72
8
 73
4
 74
0
 42
0.0000001
 43
0.0000001
 44
0.0000000001
 40
0.0
 40
0.0
 40
0.0
 40
0.0
 40
1.0
 40
1.0
 40
1.0
 40
1.0
 10
166.3614173558
 20
182.558728932
 30
0.0
 10
166.3071069187
 20
182.6239015876
 30
0.0
 10
166.2799500888
 20
182.7542478858
 30
0.0
 10
166.2799500888
 20
182.960629326
 30
0.0
  0
SPLINE
  5
845
100
AcDbEntity
  8
0
100
AcDbSpline
 62
7
  6
CONTINUOUS
 70
0
 71
3
 72
8
 73
4
 74
0
 42
0.0000001
 43
0.0000001
 44
0.0000000001
 40
0.0
 40
0.0
 40
0.0
 40
0.0
 40
1.0
 40
1.0
 40
1.0
 40
1.0
 10
161.7667121357
 20
187.6259383975
 30
0.0
 10
161.0715321964
 20
186.778687936
 30
0.0
 10
160.5555781787
 20
186.0509214221
 30
0.0
 10
160.2134194467
 20
185.4372079119
 30
0.0
  0
SPLINE
  5
846
100
AcDbEntity
  8
0
100
AcDbSpline
 62
7
  6
CONTINUOUS
 70
0
 71
3
 72
8
 73
4
 74
0
 42
0.0000001
 43
0.0000001
 44
0.0000000001
 40
0.0
 40
0.0
 40
0.0
 40
0.0
 40
1.0
 40
1.0
 40
1.0
 40
1.0
 10
160.2134194467
 20
185.4372079119
 30
0.0
 10
159.8712605899
 20
184.823494178
 30
0.0
 10
159.5997065967
 20
184.2097806751
 30
0.0
 10
159.4017339137
 20
183.6023033124
 30
0.0
  0
SPLINE
  5
847
100
AcDbEntity
  8
0
100
AcDbSpline
 62
7
  6
CONTINUOUS
 70
0
 71
3
 72
8
 73
4
 74
0
 42
0.0000001
 43
0.0000001
 44
0.0000000001
 40
0.0
 40
0.0
 40
0.0
 40
0.0
 40
1.0
 40
1.0
 40
1.0
 40
1.0
 10
159.4017339137
 20
183.6023033124
 30
0.0
 10
159.2032365268
 20
182.9932159006
 30
0.0
 10
159.0565967029
 20
182.2111385285
 30
0.0
 10
158.9696998066
 20
181.2552661716
 30
0.0
  0
SPLINE
  5
848
100
AcDbEntity
  8
0
100
AcDbSpline
 62
7
  6
CONTINUOUS
 70
0
 71
3
 72
8
 73
4
 74
0
 42
0.0000001
 43
0.0000001
 44
0.0000000001
 40
0.0
 40
0.0
 40
0.0
 40
0.0
 40
1.0
 40
1.0
 40
1.0
 40
1.0
 10
160.5827340549
 20
181.2552661716
 30
0.0
 10
160.6804933017
 20
182.4881242334
 30
0.0
 10
160.9411858982
 20
183.5960671722
 30
0.0
 10
161.3603601912
 20
184.5786766699
 30
0.0
  0
SPLINE
  5
849
100
AcDbEntity
  8
0
100
AcDbSpline
 62
7
  6
CONTINUOUS
 70
0
 71
3
 72
8
 73
4
 74
0
 42
0.0000001
 43
0.0000001
 44
0.0000000001
 40
0.0
 40
0.0
 40
0.0
 40
0.0
 40
1.0
 40
1.0
 40
1.0
 40
1.0
 10
161.3603601912
 20
184.5786766699
 30
0.0
 10
161.7775744861
 20
185.5566916286
 30
0.0
 10
162.3861031525
 20
186.5278951008
 30
0.0
 10
163.2059516376
 20
187.4738678752
 30
0.0
  0
SPLINE
  5
84A
100
AcDbEntity
  8
0
100
AcDbSpline
 62
7
  6
CONTINUOUS
 70
0
 71
3
 72
8
 73
4
 74
0
 42
0.0000001
 43
0.0000001
 44
0.0000000001
 40
0.0
 40
0.0
 40
0.0
 40
0.0
 40
1.0
 40
1.0
 40
1.0
 40
1.0
 10
155.6024217075
 20
181.135782127
 30
0.0
 10
155.5806970066
 20
180.5926728069
 30
0.0
 10
155.2874183124
 20
180.2124962627
 30
0.0
 10
154.7171534961
 20
179.9952525913
 30
0.0
  0
SPLINE
  5
84B
100
AcDbEntity
  8
0
100
AcDbSpline
 62
7
  6
CONTINUOUS
 70
0
 71
3
 72
8
 73
4
 74
0
 42
0.0000001
 43
0.0000001
 44
0.0000000001
 40
0.0
 40
0.0
 40
0.0
 40
0.0
 40
1.0
 40
1.0
 40
1.0
 40
1.0
 10
154.7171534961
 20
179.3761080324
 30
0.0
 10
155.8033723301
 20
179.604213935
 30
0.0
 10
156.3464812702
 20
180.2776694118
 30
0.0
 10
156.3464812702
 20
181.3964745968
 30
0.0
  0
SPLINE
  5
84C
100
AcDbEntity
  8
0
100
AcDbSpline
 62
7
  6
CONTINUOUS
 70
0
 71
3
 72
8
 73
4
 74
0
 42
0.0000001
 43
0.0000001
 44
0.0000000001
 40
0.0
 40
0.0
 40
0.0
 40
0.0
 40
1.0
 40
1.0
 40
1.0
 40
1.0
 10
149.6988580555
 20
184.752854774
 30
0.0
 10
149.910636372
 20
184.9592716514
 30
0.0
 10
150.1767599052
 20
185.0678934871
 30
0.0
 10
150.5026254123
 20
185.0678934871
 30
0.0
  0
SPLINE
  5
84D
100
AcDbEntity
  8
0
100
AcDbSpline
 62
7
  6
CONTINUOUS
 70
0
 71
3
 72
8
 73
4
 74
0
 42
0.0000001
 43
0.0000001
 44
0.0000000001
 40
0.0
 40
0.0
 40
0.0
 40
0.0
 40
1.0
 40
1.0
 40
1.0
 40
1.0
 10
150.5026254123
 20
185.0678934871
 30
0.0
 10
150.8339220947
 20
185.0678934871
 30
0.0
 10
151.1000456279
 20
184.9484093009
 30
0.0
 10
151.2993830548
 20
184.7081123768
 30
0.0
  0
SPLINE
  5
84E
100
AcDbEntity
  8
0
100
AcDbSpline
 62
7
  6
CONTINUOUS
 70
0
 71
3
 72
8
 73
4
 74
0
 42
0.0000001
 43
0.0000001
 44
0.0000000001
 40
0.0
 40
0.0
 40
0.0
 40
0.0
 40
1.0
 40
1.0
 40
1.0
 40
1.0
 10
151.2993830548
 20
184.7081123768
 30
0.0
 10
151.4965156978
 20
184.4704732715
 30
0.0
 10
151.5997061199
 20
184.1446077644
 30
0.0
 10
151.5997061199
 20
183.7427067577
 30
0.0
  0
SPLINE
  5
84F
100
AcDbEntity
  8
0
100
AcDbSpline
 62
7
  6
CONTINUOUS
 70
0
 71
3
 72
8
 73
4
 74
0
 42
0.0000001
 43
0.0000001
 44
0.0000000001
 40
0.0
 40
0.0
 40
0.0
 40
0.0
 40
1.0
 40
1.0
 40
1.0
 40
1.0
 10
151.5997061199
 20
183.7427067577
 30
0.0
 10
151.5997061199
 20
183.3516681014
 30
0.0
 10
151.5073775714
 20
183.0258024751
 30
0.0
 10
151.3281515689
 20
182.7651100535
 30
0.0
  0
SPLINE
  5
850
100
AcDbEntity
  8
0
100
AcDbSpline
 62
7
  6
CONTINUOUS
 70
0
 71
3
 72
8
 73
4
 74
0
 42
0.0000001
 43
0.0000001
 44
0.0000000001
 40
0.0
 40
0.0
 40
0.0
 40
0.0
 40
1.0
 40
1.0
 40
1.0
 40
1.0
 10
151.3281515689
 20
182.7651100535
 30
0.0
 10
151.1489254898
 20
182.5044175207
 30
0.0
 10
150.8773707813
 20
182.3795023977
 30
0.0
 10
150.5189186996
 20
182.3795023977
 30
0.0
  0
SPLINE
  5
851
100
AcDbEntity
  8
0
100
AcDbSpline
 62
7
  6
CONTINUOUS
 70
0
 71
3
 72
8
 73
4
 74
0
 42
0.0000001
 43
0.0000001
 44
0.0000000001
 40
0.0
 40
0.0
 40
0.0
 40
0.0
 40
1.0
 40
1.0
 40
1.0
 40
1.0
 10
150.5189186996
 20
182.3795023977
 30
0.0
 10
150.1767599052
 20
182.3795023977
 30
0.0
 10
149.8997740215
 20
182.4989864646
 30
0.0
 10
149.6918588784
 20
182.7366038134
 30
0.0
  0
SPLINE
  5
852
100
AcDbEntity
  8
0
100
AcDbSpline
 62
7
  6
CONTINUOUS
 70
0
 71
3
 72
8
 73
4
 74
0
 42
0.0000001
 43
0.0000001
 44
0.0000000001
 40
0.0
 40
0.0
 40
0.0
 40
0.0
 40
1.0
 40
1.0
 40
1.0
 40
1.0
 10
149.6918588784
 20
182.7366038134
 30
0.0
 10
149.4815799659
 20
182.9769226133
 30
0.0
 10
149.3783893055
 20
183.3190815269
 30
0.0
 10
149.3783893055
 20
183.769862157
 30
0.0
  0
SPLINE
  5
853
100
AcDbEntity
  8
0
100
AcDbSpline
 62
7
  6
CONTINUOUS
 70
0
 71
3
 72
8
 73
4
 74
0
 42
0.0000001
 43
0.0000001
 44
0.0000000001
 40
0.0
 40
0.0
 40
0.0
 40
0.0
 40
1.0
 40
1.0
 40
1.0
 40
1.0
 10
149.3783893055
 20
183.769862157
 30
0.0
 10
149.3783893055
 20
184.2152118503
 30
0.0
 10
149.4815799659
 20
184.5410773574
 30
0.0
 10
149.6988580555
 20
184.752854774
 30
0.0
  0
SPLINE
  5
854
100
AcDbEntity
  8
0
100
AcDbSpline
 62
7
  6
CONTINUOUS
 70
0
 71
3
 72
8
 73
4
 74
0
 42
0.0000001
 43
0.0000001
 44
0.0000000001
 40
0.0
 40
0.0
 40
0.0
 40
0.0
 40
1.0
 40
1.0
 40
1.0
 40
1.0
 10
150.6438338226
 20
189.1575064479
 30
0.0
 10
148.7483823961
 20
189.1575064479
 30
0.0
 10
147.8033722108
 20
187.7236981212
 30
0.0
 10
147.8033722108
 20
184.8615119277
 30
0.0
  0
SPLINE
  5
855
100
AcDbEntity
  8
0
100
AcDbSpline
 62
7
  6
CONTINUOUS
 70
0
 71
3
 72
8
 73
4
 74
0
 42
0.0000001
 43
0.0000001
 44
0.0000000001
 40
0.0
 40
0.0
 40
0.0
 40
0.0
 40
1.0
 40
1.0
 40
1.0
 40
1.0
 10
147.8033722108
 20
184.8615119277
 30
0.0
 10
147.8033722108
 20
183.5852050601
 30
0.0
 10
148.0423403448
 20
182.6347638189
 30
0.0
 10
148.5311387283
 20
182.0156192032
 30
0.0
  0
SPLINE
  5
856
100
AcDbEntity
  8
0
100
AcDbSpline
 62
7
  6
CONTINUOUS
 70
0
 71
3
 72
8
 73
4
 74
0
 42
0.0000001
 43
0.0000001
 44
0.0000000001
 40
0.0
 40
0.0
 40
0.0
 40
0.0
 40
1.0
 40
1.0
 40
1.0
 40
1.0
 10
148.5311387283
 20
182.0156192032
 30
0.0
 10
149.0199371046
 20
181.3964745968
 30
0.0
 10
149.6988236374
 20
181.0869022875
 30
0.0
 10
150.5677985614
 20
181.0869022875
 30
0.0
  0
SPLINE
  5
857
100
AcDbEntity
  8
0
100
AcDbSpline
 62
7
  6
CONTINUOUS
 70
0
 71
3
 72
8
 73
4
 74
0
 42
0.0000001
 43
0.0000001
 44
0.0000000001
 40
0.0
 40
0.0
 40
0.0
 40
0.0
 40
1.0
 40
1.0
 40
1.0
 40
1.0
 10
150.5677985614
 20
181.0869022875
 30
0.0
 10
151.3661693996
 20
181.0869022875
 30
0.0
 10
152.0016068882
 20
181.3421636565
 30
0.0
 10
152.4686811545
 20
181.8526865042
 30
0.0
  0
SPLINE
  5
858
100
AcDbEntity
  8
0
100
AcDbSpline
 62
7
  6
CONTINUOUS
 70
0
 71
3
 72
8
 73
4
 74
0
 42
0.0000001
 43
0.0000001
 44
0.0000000001
 40
0.0
 40
0.0
 40
0.0
 40
0.0
 40
1.0
 40
1.0
 40
1.0
 40
1.0
 10
152.4686811545
 20
181.8526865042
 30
0.0
 10
152.9357551998
 20
182.3632091104
 30
0.0
 10
153.1747230953
 20
183.0366647064
 30
0.0
 10
153.1747230953
 20
183.8730530559
 30
0.0
  0
SPLINE
  5
859
100
AcDbEntity
  8
0
100
AcDbSpline
 62
7
  6
CONTINUOUS
 70
0
 71
3
 72
8
 73
4
 74
0
 42
0.0000001
 43
0.0000001
 44
0.0000000001
 40
0.0
 40
0.0
 40
0.0
 40
0.0
 40
1.0
 40
1.0
 40
1.0
 40
1.0
 10
153.1747230953
 20
183.8730530559
 30
0.0
 10
153.1747230953
 20
184.6442682563
 30
0.0
 10
152.9520482486
 20
185.2471196472
 30
0.0
 10
152.5066987342
 20
185.6924692809
 30
0.0
  0
SPLINE
  5
85A
100
AcDbEntity
  8
0
100
AcDbSpline
 62
7
  6
CONTINUOUS
 70
0
 71
3
 72
8
 73
4
 74
0
 42
0.0000001
 43
0.0000001
 44
0.0000000001
 40
0.0
 40
0.0
 40
0.0
 40
0.0
 40
1.0
 40
1.0
 40
1.0
 40
1.0
 10
152.5066987342
 20
185.6924692809
 30
0.0
 10
152.0613493389
 20
186.1378187953
 30
0.0
 10
151.5236710971
 20
186.360493642
 30
0.0
 10
150.8828019565
 20
186.360493642
 30
0.0
  0
SPLINE
  5
85B
100
AcDbEntity
  8
0
100
AcDbSpline
 62
7
  6
CONTINUOUS
 70
0
 71
3
 72
8
 73
4
 74
0
 42
0.0000001
 43
0.0000001
 44
0.0000000001
 40
0.0
 40
0.0
 40
0.0
 40
0.0
 40
1.0
 40
1.0
 40
1.0
 40
1.0
 10
150.8828019565
 20
186.360493642
 30
0.0
 10
150.3288304275
 20
186.360493642
 30
0.0
 10
149.796583361
 20
186.1378187953
 30
0.0
 10
149.2914916938
 20
185.692469102
 30
0.0
  0
SPLINE
  5
85C
100
AcDbEntity
  8
0
100
AcDbSpline
 62
7
  6
CONTINUOUS
 70
0
 71
3
 72
8
 73
4
 74
0
 42
0.0000001
 43
0.0000001
 44
0.0000000001
 40
0.0
 40
0.0
 40
0.0
 40
0.0
 40
1.0
 40
1.0
 40
1.0
 40
1.0
 10
149.2914916938
 20
185.692469102
 30
0.0
 10
149.3783893055
 20
186.5451507388
 30
0.0
 10
149.5304598278
 20
187.1208467304
 30
0.0
 10
149.7472131569
 20
187.4199113603
 30
0.0
  0
SPLINE
  5
85D
100
AcDbEntity
  8
0
100
AcDbSpline
 62
7
  6
CONTINUOUS
 70
0
 71
3
 72
8
 73
4
 74
0
 42
0.0000001
 43
0.0000001
 44
0.0000000001
 40
0.0
 40
0.0
 40
0.0
 40
0.0
 40
1.0
 40
1.0
 40
1.0
 40
1.0
 10
149.7472131569
 20
187.4199113603
 30
0.0
 10
149.9595162338
 20
187.7128357707
 30
0.0
 10
150.2365018791
 20
187.864906293
 30
0.0
 10
150.5840918487
 20
187.864906293
 30
0.0
  0
SPLINE
  5
85E
100
AcDbEntity
  8
0
100
AcDbSpline
 62
7
  6
CONTINUOUS
 70
0
 71
3
 72
8
 73
4
 74
0
 42
0.0000001
 43
0.0000001
 44
0.0000000001
 40
0.0
 40
0.0
 40
0.0
 40
0.0
 40
1.0
 40
1.0
 40
1.0
 40
1.0
 10
150.5840918487
 20
187.864906293
 30
0.0
 10
151.0131482547
 20
187.864906293
 30
0.0
 10
151.3009962505
 20
187.6150760471
 30
0.0
 10
151.4476355976
 20
187.1154155551
 30
0.0
  0
SPLINE
  5
85F
100
AcDbEntity
  8
0
100
AcDbSpline
 62
7
  6
CONTINUOUS
 70
0
 71
3
 72
8
 73
4
 74
0
 42
0.0000001
 43
0.0000001
 44
0.0000000001
 40
0.0
 40
0.0
 40
0.0
 40
0.0
 40
1.0
 40
1.0
 40
1.0
 40
1.0
 10
153.022652573
 20
187.1154155551
 30
0.0
 10
152.8325643009
 20
188.4731888591
 30
0.0
 10
152.0396246379
 20
189.1575064479
 30
0.0
 10
150.6438338226
 20
189.1575064479
 30
0.0
  0
SPLINE
  5
860
100
AcDbEntity
  8
0
100
AcDbSpline
 62
7
  6
CONTINUOUS
 70
0
 71
3
 72
11
 73
7
 74
0
 42
0.0000001
 43
0.0000001
 44
0.0000000001
 40
0.0
 40
0.0
 40
0.0
 40
0.0
 40
0.250021633
 40
0.5000281157
 40
0.7500198821
 40
1.0
 40
1.0
 40
1.0
 40
1.0
 10
140.2404247938
 20
198.4551155129
 30
0.0
 10
141.0452047091
 20
198.0715888793
 30
0.0
 10
142.6546711201
 20
197.3042086123
 30
0.0
 10
145.111691337
 20
196.2454359326
 30
0.0
 10
147.6265390226
 20
195.3310097256
 30
0.0
 10
149.3428150887
 20
194.8413329223
 30
0.0
 10
150.2089759528
 20
194.6309408232
 30
0.0
  0
SPLINE
  5
861
100
AcDbEntity
  8
0
100
AcDbSpline
 62
7
  6
CONTINUOUS
 70
0
 71
3
 72
11
 73
7
 74
0
 42
0.0000001
 43
0.0000001
 44
0.0000000001
 40
0.0
 40
0.0
 40
0.0
 40
0.0
 40
0.2499802757
 40
0.4999721243
 40
0.7499784579
 40
1.0
 40
1.0
 40
1.0
 40
1.0
 10
164.8410827144
 20
194.6309409509
 30
0.0
 10
165.7072440487
 20
194.8413331797
 30
0.0
 10
167.4235206328
 20
195.3310107437
 30
0.0
 10
169.9383685202
 20
196.2454365868
 30
0.0
 10
172.3953883254
 20
197.3042082848
 30
0.0
 10
174.0048534437
 20
198.0715889374
 30
0.0
 10
174.8096330149
 20
198.4551153642
 30
0.0
  0
SPLINE
  5
862
100
AcDbEntity
  8
0
100
AcDbSpline
 62
7
  6
CONTINUOUS
 70
0
 71
3
 72
9
 73
5
 74
0
 42
0.0000001
 43
0.0000001
 44
0.0000000001
 40
0.0
 40
0.0
 40
0.0
 40
0.0
 40
0.5237358372
 40
1.0
 40
1.0
 40
1.0
 40
1.0
 10
124.5250290698
 20
97.6574131583
 30
0.0
 10
124.8783664759
 20
97.6566294609
 30
0.0
 10
125.5530204608
 20
97.6578350367
 30
0.0
 10
126.2276574098
 20
97.662994186
 30
0.0
 10
126.5489689296
 20
97.662994186
 30
0.0
  0
SPLINE
  5
863
100
AcDbEntity
  8
0
100
AcDbSpline
 62
7
  6
CONTINUOUS
 70
0
 71
3
 72
9
 73
5
 74
0
 42
0.0000001
 43
0.0000001
 44
0.0000000001
 40
0.0
 40
0.0
 40
0.0
 40
0.0
 40
0.5237358372
 40
1.0
 40
1.0
 40
1.0
 40
1.0
 10
119.4650290698
 20
97.6574131583
 30
0.0
 10
119.8183664759
 20
97.6566294609
 30
0.0
 10
120.4930204608
 20
97.6578350367
 30
0.0
 10
121.1676574098
 20
97.662994186
 30
0.0
 10
121.4889689296
 20
97.662994186
 30
0.0
  0
SPLINE
  5
864
100
AcDbEntity
  8
0
100
AcDbSpline
 62
7
  6
CONTINUOUS
 70
0
 71
3
 72
9
 73
5
 74
0
 42
0.0000001
 43
0.0000001
 44
0.0000000001
 40
0.0
 40
0.0
 40
0.0
 40
0.0
 40
0.4762642121
 40
1.0
 40
1.0
 40
1.0
 40
1.0
 10
121.4889689296
 20
98.162994186
 30
0.0
 10
121.1676574352
 20
98.162994186
 30
0.0
 10
120.4930201107
 20
98.1579362053
 30
0.0
 10
119.8183664117
 20
98.15675429
 30
0.0
 10
119.4650290698
 20
98.1575226139
 30
0.0
  0
SPLINE
  5
865
100
AcDbEntity
  8
0
100
AcDbSpline
 62
7
  6
CONTINUOUS
 70
0
 71
3
 72
9
 73
5
 74
0
 42
0.0000001
 43
0.0000001
 44
0.0000000001
 40
0.0
 40
0.0
 40
0.0
 40
0.0
 40
0.4762642121
 40
1.0
 40
1.0
 40
1.0
 40
1.0
 10
126.5489689296
 20
98.162994186
 30
0.0
 10
126.2276574352
 20
98.162994186
 30
0.0
 10
125.5530201107
 20
98.1579362053
 30
0.0
 10
124.8783664117
 20
98.15675429
 30
0.0
 10
124.5250290698
 20
98.1575226139
 30
0.0
  0
ELLIPSE
  5
866
100
AcDbEntity
  8
RUNDUNGEN
100
AcDbEllipse
 62
7
  6
CONTINUOUS
 10
309.043325915
 20
154.3466425294
 30
0.0
 11
2.7649827097
 21
-26.3070532093
 31
0.0
 40
0.1039620512
 41
3.1306662365
 42
3.9215276085
  0
ELLIPSE
  5
867
100
AcDbEntity
  8
RUNDUNGEN
100
AcDbEllipse
 62
7
  6
CONTINUOUS
 10
351.865151322
 20
154.3466425294
 30
0.0
 11
-2.7649827097
 21
-26.3070532093
 31
0.0
 40
0.1039620512
 41
2.3616576987
 42
3.1525190706
  0
ELLIPSE
  5
868
100
AcDbEntity
  8
0
100
AcDbEllipse
 62
7
  6
CONTINUOUS
 10
121.7195123618
 20
98.662994186
 30
0.0
 11
0.0
 21
25.5
 31
0.0
 40
0.7343750875
 41
-3.1415926536
 42
-3.1370260389
  0
ELLIPSE
  5
869
100
AcDbEntity
  8
0
100
AcDbEllipse
 62
7
  6
CONTINUOUS
 10
183.9977742052
 20
72.662994186
 30
0.0
 11
-0.0
 21
25.5
 31
0.0
 40
0.244790762
 41
-0.0296022081
 42
-0.0129107195
  0
ELLIPSE
  5
86A
100
AcDbEntity
  8
0
100
AcDbEllipse
 62
7
  6
CONTINUOUS
 10
183.6898470719
 20
72.662994186
 30
0.0
 11
-0.0
 21
25.5
 31
0.0
 40
0.6527784911
 41
-0.042125998
 42
-0.0296022081
  0
ELLIPSE
  5
86B
100
AcDbEntity
  8
0
100
AcDbEllipse
 62
7
  6
CONTINUOUS
 10
182.8135789468
 20
72.662994186
 30
0.0
 11
37.4531294648
 21
-0.0
 31
0.0
 40
0.6808509827
 41
1.5203175903
 42
1.5286703288
  0
ELLIPSE
  5
86C
100
AcDbEntity
  8
0
100
AcDbEllipse
 62
7
  6
CONTINUOUS
 10
179.6639439966
 20
72.662994186
 30
0.0
 11
99.8749166578
 21
0.0
 31
0.0
 40
0.255319362
 41
1.5161399354
 42
1.5203175903
  0
ELLIPSE
  5
86D
100
AcDbEntity
  8
0
100
AcDbEllipse
 62
7
  6
CONTINUOUS
 10
193.4847996919
 20
72.662994186
 30
0.0
 11
-0.0
 21
25.5
 31
0.0
 40
0.3263886165
 41
-0.0463019632
 42
-0.0337761994
  0
ELLIPSE
  5
86E
100
AcDbEntity
  8
0
100
AcDbEllipse
 62
7
  6
CONTINUOUS
 10
192.7143392829
 20
72.662994186
 30
0.0
 11
0.0
 21
25.5
 31
0.0
 40
0.9791672503
 41
-0.0546563914
 42
-0.0463019632
  0
ELLIPSE
  5
86F
100
AcDbEntity
  8
0
100
AcDbEllipse
 62
7
  6
CONTINUOUS
 10
189.986294795
 20
72.662994186
 30
0.0
 11
74.9062589295
 21
-0.0
 31
0.0
 40
0.3404254913
 41
1.5119613255
 42
1.5161399354
  0
ELLIPSE
  5
870
100
AcDbEntity
  8
0
100
AcDbEllipse
 62
7
  6
CONTINUOUS
 10
193.3305457778
 20
72.662994186
 30
0.0
 11
-0.0
 21
25.5
 31
0.0
 40
0.7343750875
 41
-0.0
 42
0.0045666147
  0
ELLIPSE
  5
871
100
AcDbEntity
  8
0
100
AcDbEllipse
 62
7
  6
CONTINUOUS
 10
131.0522839343
 20
98.662994186
 30
0.0
 11
0.0
 21
25.5
 31
0.0
 40
0.244790762
 41
-3.1711948617
 42
-3.1545033731
  0
ELLIPSE
  5
872
100
AcDbEntity
  8
0
100
AcDbEllipse
 62
7
  6
CONTINUOUS
 10
131.3602110676
 20
98.662994186
 30
0.0
 11
-0.0
 21
25.5
 31
0.0
 40
0.6527784911
 41
-3.1837186516
 42
-3.1711948617
  0
ELLIPSE
  5
873
100
AcDbEntity
  8
0
100
AcDbEllipse
 62
7
  6
CONTINUOUS
 10
132.2364791928
 20
98.662994186
 30
0.0
 11
37.4531294648
 21
0.0
 31
0.0
 40
0.6808509827
 41
-1.6212750633
 42
-1.6129223248
  0
ELLIPSE
  5
874
100
AcDbEntity
  8
0
100
AcDbEllipse
 62
7
  6
CONTINUOUS
 10
135.386114143
 20
98.662994186
 30
0.0
 11
99.8749166578
 21
-0.0
 31
0.0
 40
0.255319362
 41
-1.6254527182
 42
-1.6212750633
  0
ELLIPSE
  5
875
100
AcDbEntity
  8
0
100
AcDbEllipse
 62
7
  6
CONTINUOUS
 10
121.5652584477
 20
98.662994186
 30
0.0
 11
0.0
 21
25.5
 31
0.0
 40
0.3263886165
 41
-3.1878946168
 42
-3.175368853
  0
ELLIPSE
  5
876
100
AcDbEntity
  8
0
100
AcDbEllipse
 62
7
  6
CONTINUOUS
 10
122.3357188566
 20
98.662994186
 30
0.0
 11
-0.0
 21
25.5
 31
0.0
 40
0.9791672503
 41
-3.196249045
 42
-3.1878946168
  0
ELLIPSE
  5
877
100
AcDbEntity
  8
0
100
AcDbEllipse
 62
7
  6
CONTINUOUS
 10
125.0637633445
 20
98.662994186
 30
0.0
 11
74.9062589295
 21
-0.0
 31
0.0
 40
0.3404254913
 41
-1.6296313281
 42
-1.6254527182
  0
ELLIPSE
  5
878
100
AcDbEntity
  8
0
100
AcDbEllipse
 62
7
  6
CONTINUOUS
 10
183.3888919604
 20
72.662994186
 30
0.0
 11
-0.0
 21
25.5
 31
0.0
 40
0.1958324999
 41
-0.0337761994
 42
-0.0129107195
  0
ELLIPSE
  5
879
100
AcDbEntity
  8
0
100
AcDbEllipse
 62
7
  6
CONTINUOUS
 10
122.1902584477
 20
98.662994186
 30
0.0
 11
0.0
 21
25.0
 31
0.0
 40
0.3263886165
 41
-3.1888213384
 42
-3.1760446418
  0
ELLIPSE
  5
87A
100
AcDbEntity
  8
0
100
AcDbEllipse
 62
7
  6
CONTINUOUS
 10
122.6717959966
 20
98.662994186
 30
0.0
 11
-0.0
 21
25.0
 31
0.0
 40
0.7343750875
 41
-3.2058693078
 42
-3.1888213384
  0
ELLIPSE
  5
87B
100
AcDbEntity
  8
0
100
AcDbEllipse
 62
7
  6
CONTINUOUS
 10
123.5890031066
 20
98.662994186
 30
0.0
 11
32.638884998
 21
0.0
 31
0.0
 40
0.7659575381
 41
-1.6478709741
 42
-1.635072981
  0
ELLIPSE
  5
87C
100
AcDbEntity
  8
0
100
AcDbEllipse
 62
7
  6
CONTINUOUS
 10
130.5001438123
 20
98.662994186
 30
0.0
 11
122.3958712692
 21
-0.0
 31
0.0
 40
0.2042552558
 41
-1.65213968
 42
-1.6478709741
  0
ELLIPSE
  5
87D
100
AcDbEntity
  8
0
100
AcDbEllipse
 62
7
  6
CONTINUOUS
 10
194.1079293344
 20
72.662994186
 30
0.0
 11
74.9062589295
 21
-0.0
 31
0.0
 40
0.3404254913
 41
1.5707963268
 42
1.5711910446
  0
ELLIPSE
  5
87E
100
AcDbEntity
  8
0
100
AcDbEllipse
 62
7
  6
CONTINUOUS
 10
194.0882181178
 20
72.662994186
 30
0.0
 11
0.0
 21
25.5
 31
0.0
 40
0.9791672503
 41
6.283580025
 42
6.2919238982
  0
ELLIPSE
  5
87F
100
AcDbEntity
  8
0
100
AcDbEllipse
 62
7
  6
CONTINUOUS
 10
184.5499143272
 20
72.662994186
 30
0.0
 11
124.8437886946
 21
-0.0
 31
0.0
 40
0.2042552558
 41
1.491051365
 42
1.4952358588
  0
ELLIPSE
  5
880
100
AcDbEntity
  8
0
100
AcDbEllipse
 62
7
  6
CONTINUOUS
 10
191.461055033
 20
72.662994186
 30
0.0
 11
33.291662698
 21
-0.0
 31
0.0
 40
0.7659575381
 41
1.4952358588
 42
1.5077816867
  0
ELLIPSE
  5
881
100
AcDbEntity
  8
0
100
AcDbEllipse
 62
7
  6
CONTINUOUS
 10
192.3782621429
 20
72.662994186
 30
0.0
 11
-0.0
 21
25.5
 31
0.0
 40
0.7343750875
 41
-0.0630146401
 42
-0.0463019632
  0
ELLIPSE
  5
882
100
AcDbEntity
  8
0
100
AcDbEllipse
 62
7
  6
CONTINUOUS
 10
192.8597996919
 20
72.662994186
 30
0.0
 11
-0.0
 21
25.5
 31
0.0
 40
0.3263886165
 41
-0.0463019632
 42
-0.0337761994
  0
ELLIPSE
  5
883
100
AcDbEntity
  8
0
100
AcDbEllipse
 62
7
  6
CONTINUOUS
 10
183.3888919604
 20
72.662994186
 30
0.0
 11
-0.0
 21
25.0
 31
0.0
 40
0.1958324999
 41
-0.0344519882
 42
-0.0131689487
  0
ELLIPSE
  5
884
100
AcDbEntity
  8
0
100
AcDbEllipse
 62
7
  6
CONTINUOUS
 10
183.1359336477
 20
72.662994186
 30
0.0
 11
0.0
 21
25.0
 31
0.0
 40
0.4895843255
 41
-0.0514891956
 42
-0.0344519882
  0
ELLIPSE
  5
885
100
AcDbEntity
  8
0
100
AcDbEllipse
 62
7
  6
CONTINUOUS
 10
182.5060080995
 20
72.662994186
 30
0.0
 11
-0.0
 21
25.0
 31
0.0
 40
0.9791658496
 41
-0.0685413767
 42
-0.0514891956
  0
ELLIPSE
  5
886
100
AcDbEntity
  8
0
100
AcDbEllipse
 62
7
  6
CONTINUOUS
 10
180.8294871292
 20
72.662994186
 30
0.0
 11
48.9582924793
 21
0.0
 31
0.0
 40
0.510638724
 41
1.4937216795
 42
1.5022549501
  0
ELLIPSE
  5
887
100
AcDbEntity
  8
0
100
AcDbEllipse
 62
7
  6
CONTINUOUS
 10
175.1749086366
 20
72.662994186
 30
0.0
 11
122.3959413047
 21
0.0
 31
0.0
 40
0.204255139
 41
1.4894529736
 42
1.4937216795
  0
ELLIPSE
  5
888
100
AcDbEntity
  8
0
100
AcDbEllipse
 62
7
  6
CONTINUOUS
 10
192.8597996919
 20
72.662994186
 30
0.0
 11
-0.0
 21
25.0
 31
0.0
 40
0.3263886165
 41
-0.0472286848
 42
-0.0344519882
  0
ELLIPSE
  5
889
100
AcDbEntity
  8
0
100
AcDbEllipse
 62
7
  6
CONTINUOUS
 10
192.3782621429
 20
72.662994186
 30
0.0
 11
0.0
 21
25.0
 31
0.0
 40
0.7343750875
 41
-0.0642766542
 42
-0.0472286848
  0
ELLIPSE
  5
88A
100
AcDbEntity
  8
0
100
AcDbEllipse
 62
7
  6
CONTINUOUS
 10
191.461055033
 20
72.662994186
 30
0.0
 11
32.638884998
 21
-0.0
 31
0.0
 40
0.7659575381
 41
1.4937216795
 42
1.5065196726
  0
ELLIPSE
  5
88B
100
AcDbEntity
  8
0
100
AcDbEllipse
 62
7
  6
CONTINUOUS
 10
184.5499143272
 20
72.662994186
 30
0.0
 11
122.3958712692
 21
0.0
 31
0.0
 40
0.2042552558
 41
1.4894529736
 42
1.4937216795
  0
ELLIPSE
  5
88C
100
AcDbEntity
  8
0
100
AcDbEllipse
 62
7
  6
CONTINUOUS
 10
139.875149503
 20
98.662994186
 30
0.0
 11
124.8438601308
 21
-0.0
 31
0.0
 40
0.204255139
 41
-1.6505412886
 42
-1.6463567947
  0
ELLIPSE
  5
88D
100
AcDbEntity
  8
0
100
AcDbEllipse
 62
7
  6
CONTINUOUS
 10
134.2205710103
 20
98.662994186
 30
0.0
 11
49.9374583289
 21
0.0
 31
0.0
 40
0.510638724
 41
-1.6463567947
 42
-1.6379917082
  0
ELLIPSE
  5
88E
100
AcDbEntity
  8
0
100
AcDbEllipse
 62
7
  6
CONTINUOUS
 10
132.54405004
 20
98.662994186
 30
0.0
 11
-0.0
 21
25.5
 31
0.0
 40
0.9791658496
 41
-3.208788035
 42
-3.1920713901
  0
ELLIPSE
  5
88F
100
AcDbEntity
  8
0
100
AcDbEllipse
 62
7
  6
CONTINUOUS
 10
131.9141244918
 20
98.662994186
 30
0.0
 11
-0.0
 21
25.5
 31
0.0
 40
0.4895843255
 41
-3.1920713901
 42
-3.175368853
  0
ELLIPSE
  5
890
100
AcDbEntity
  8
0
100
AcDbEllipse
 62
7
  6
CONTINUOUS
 10
131.6611661791
 20
98.662994186
 30
0.0
 11
-0.0
 21
25.5
 31
0.0
 40
0.1958324999
 41
-3.175368853
 42
-3.1545033731
  0
ELLIPSE
  5
891
100
AcDbEntity
  8
0
100
AcDbEllipse
 62
7
  6
CONTINUOUS
 10
120.9618400217
 20
98.662994186
 30
0.0
 11
0.0
 21
25.5
 31
0.0
 40
0.9791672503
 41
3.1419873714
 42
3.1503312446
  0
ELLIPSE
  5
892
100
AcDbEntity
  8
0
100
AcDbEllipse
 62
7
  6
CONTINUOUS
 10
130.5001438123
 20
98.662994186
 30
0.0
 11
124.8437886946
 21
-0.0
 31
0.0
 40
0.2042552558
 41
-1.6505412886
 42
-1.6463567947
  0
ELLIPSE
  5
893
100
AcDbEntity
  8
0
100
AcDbEllipse
 62
7
  6
CONTINUOUS
 10
123.5890031066
 20
98.662994186
 30
0.0
 11
33.291662698
 21
0.0
 31
0.0
 40
0.7659575381
 41
-1.6463567947
 42
-1.6338109669
  0
ELLIPSE
  5
894
100
AcDbEntity
  8
0
100
AcDbEllipse
 62
7
  6
CONTINUOUS
 10
122.6717959966
 20
98.662994186
 30
0.0
 11
-0.0
 21
25.5
 31
0.0
 40
0.7343750875
 41
-3.2046072937
 42
-3.1878946168
  0
ELLIPSE
  5
895
100
AcDbEntity
  8
0
100
AcDbEllipse
 62
7
  6
CONTINUOUS
 10
122.1902584477
 20
98.662994186
 30
0.0
 11
-0.0
 21
25.5
 31
0.0
 40
0.3263886165
 41
-3.1878946168
 42
-3.175368853
  0
ELLIPSE
  5
896
100
AcDbEntity
  8
0
100
AcDbEllipse
 62
7
  6
CONTINUOUS
 10
120.9421288051
 20
98.662994186
 30
0.0
 11
74.9062589295
 21
-0.0
 31
0.0
 40
0.3404254913
 41
-1.5706976472
 42
-1.570401609
  0
ELLIPSE
  5
897
100
AcDbEntity
  8
0
100
AcDbEllipse
 62
7
  6
CONTINUOUS
 10
131.6611661791
 20
98.662994186
 30
0.0
 11
-0.0
 21
25.0
 31
0.0
 40
0.1958324999
 41
-3.1760446418
 42
-3.1547616023
  0
ELLIPSE
  5
898
100
AcDbEntity
  8
0
100
AcDbEllipse
 62
7
  6
CONTINUOUS
 10
131.9141244918
 20
98.662994186
 30
0.0
 11
0.0
 21
25.0
 31
0.0
 40
0.4895843255
 41
-3.1930818491
 42
-3.1760446418
  0
ELLIPSE
  5
899
100
AcDbEntity
  8
0
100
AcDbEllipse
 62
7
  6
CONTINUOUS
 10
132.54405004
 20
98.662994186
 30
0.0
 11
-0.0
 21
25.0
 31
0.0
 40
0.9791658496
 41
-3.2101340303
 42
-3.1930818491
  0
ELLIPSE
  5
89A
100
AcDbEntity
  8
0
100
AcDbEllipse
 62
7
  6
CONTINUOUS
 10
134.2205710103
 20
98.662994186
 30
0.0
 11
48.9582924793
 21
0.0
 31
0.0
 40
0.510638724
 41
-1.6478709741
 42
-1.6393377035
  0
ELLIPSE
  5
89B
100
AcDbEntity
  8
0
100
AcDbEllipse
 62
7
  6
CONTINUOUS
 10
139.875149503
 20
98.662994186
 30
0.0
 11
122.3959413047
 21
-0.0
 31
0.0
 40
0.204255139
 41
-1.65213968
 42
-1.6478709741
  0
ELLIPSE
  5
89C
100
AcDbEntity
  8
0
100
AcDbEllipse
 62
7
  6
CONTINUOUS
 10
175.1749086366
 20
72.662994186
 30
0.0
 11
124.8438601308
 21
-0.0
 31
0.0
 40
0.204255139
 41
1.491051365
 42
1.4952358588
  0
ELLIPSE
  5
89D
100
AcDbEntity
  8
0
100
AcDbEllipse
 62
7
  6
CONTINUOUS
 10
180.8294871292
 20
72.662994186
 30
0.0
 11
49.9374583289
 21
0.0
 31
0.0
 40
0.510638724
 41
1.4952358588
 42
1.5036009454
  0
ELLIPSE
  5
89E
100
AcDbEntity
  8
0
100
AcDbEllipse
 62
7
  6
CONTINUOUS
 10
182.5060080995
 20
72.662994186
 30
0.0
 11
0.0
 21
25.5
 31
0.0
 40
0.9791658496
 41
-0.0671953814
 42
-0.0504787365
  0
ELLIPSE
  5
89F
100
AcDbEntity
  8
0
100
AcDbEllipse
 62
7
  6
CONTINUOUS
 10
183.1359336477
 20
72.662994186
 30
0.0
 11
0.0
 21
25.5
 31
0.0
 40
0.4895843255
 41
-0.0504787365
 42
-0.0337761994
  0
ENDSEC
  0
SECTION
  2
OBJECTS
  0
DICTIONARY
  5
C
100
AcDbDictionary
280
0
281
1
  3
ACAD_GROUP
350
D
  3
ACAD_MLINESTYLE
350
17
  3
ACAD_LAYOUT
350
1A
  3
ACAD_PLOTSETTINGS
350
19
  3
ACAD_PLOTSTYLENAME
350
E
  0
DICTIONARY
  5
D
102
{ACAD_REACTORS
330
C
102
}
100
AcDbDictionary
280
0
281
1
  0
ACDBDICTIONARYWDFLT
  5
E
102
{ACAD_REACTORS
330
C
102
}
100
AcDbDictionary
281
1
  3
Normal
350
F
100
AcDbDictionaryWithDefault
340
F
  0
DICTIONARY
  5
17
102
{ACAD_REACTORS
330
C
102
}
100
AcDbDictionary
280
0
281
1
  3
Standard
350
18
  0
DICTIONARY
  5
19
102
{ACAD_REACTORS
330
C
102
}
100
AcDbDictionary
281
1
  0
DICTIONARY
  5
1A
102
{ACAD_REACTORS
330
C
102
}
100
AcDbDictionary
281
1
  3
Model
350
8A0
  3
Layout1
350
8A1
  0
ACDBPLACEHOLDER
  5
F
102
{ACAD_REACTORS
330
E
102
}
  0
MLINESTYLE
  5
18
102
{ACAD_REACTORS
330
17
102
}
100
AcDbMlineStyle
  2
STANDARD
 70
0
  3

 62
256
 51
90.0
 52
90.0
 71
2
 49
0.5
 62
256
  6
BYLAYER
 49
-0.5
 62
256
  6
BYLAYER
  0
LAYOUT
  5
8A0
102
{ACAD_REACTORS
330
1A
102
}
100
AcDbPlotSettings
  1

  2
none_device
  4
ISO_A3_(420.00_x_297.00_MM)
  6

 40
0.0
 41
0.0
 42
0.0
 43
0.0
 44
420.0
 45
297.0
 46
0.0
 47
0.0
 48
0.0
 49
0.0
140
0.0
141
0.0
142
1.0
143
1.0
 70
1024
 72
1
 73
0
 74
0
  7

 75
0
147
1.0
148
0.0
149
0.0
100
AcDbLayout
  1
Model
 70
0
 71
0
 10
0.0
 20
0.0
 11
420.0
 21
297.0
 12
0.0
 22
0.0
 32
0.0
 14
0.0
 24
0.0
 34
0.0
 15
0.0
 25
0.0
 35
0.0
146
0.0
 13
0.0
 23
0.0
 33
0.0
 16
1.0
 26
0.0
 36
0.0
 17
0.0
 27
1.0
 37
0.0
 76
0
330
213
345
0
346
0
  0
LAYOUT
  5
8A1
102
{ACAD_REACTORS
330
1A
102
}
100
AcDbPlotSettings
  1

  2
none_device
  4
ISO_A3_(420.00_x_297.00_MM)
  6

 40
0.0
 41
0.0
 42
0.0
 43
0.0
 44
420.0
 45
297.0
 46
0.0
 47
0.0
 48
0.0
 49
0.0
140
0.0
141
0.0
142
1.0
143
1.0
 70
0
 72
1
 73
0
 74
0
  7

 75
0
147
1.0
148
0.0
149
0.0
100
AcDbLayout
  1
Layout1
 70
0
 71
1
 10
0.0
 20
0.0
 11
420.0
 21
297.0
 12
0.0
 22
0.0
 32
0.0
 14
0.0
 24
0.0
 34
0.0
 15
0.0
 25
0.0
 35
0.0
146
0.0
 13
0.0
 23
0.0
 33
0.0
 16
1.0
 26
0.0
 36
0.0
 17
0.0
 27
1.0
 37
0.0
 76
0
330
214
345
0
346
0
  0
ENDSEC
  0
EOF
