999
DXF file: VRBS-Ringbock-4t-7992488-M32032-P-10.dxf
999
Pro/ENGINEER 2011490 by Parametric Technology Corporation
  0
SECTION
  2
HEADER
  9
$ACADVER
  1
AC1015
  9
$DWGCODEPAGE
  3
ANSI_1252
  9
$EXTMAX
 10
420.0
 20
297.0
 30
0.0
  9
$EXTMIN
 10
0.0
 20
0.0
 30
0.0
  9
$LIMMIN
 10
0.0
 20
0.0
  9
$LIMMAX
 10
420.0
 20
297.0
  9
$VIEWCTR
 10
210.0
 20
148.5
  9
$VIEWSIZE
 40
297.0
  9
$CLAYER
  8
0
  9
$LTSCALE
 40
23.1
  9
$CELTYPE
  6
BYLAYER
  9
$DIMSCALE
 40
1.0
  9
$DIMASZ
 40
3.5
  9
$DIMEXO
 40
2.625
  9
$DIMDLI
 40
15.96
  9
$DIMEXE
 40
7.56
  9
$DIMCEN
 40
3.78
  9
$DIMLFAC
 40
1.0
  9
$DIMBLK
  1
_FILLED
  9
$DIMTXT
 40
3.5
  9
$DIMTOL
 70
1
  9
$DIMLIM
 70
0
  9
$DIMTFAC
 40
1.0
  9
$DIMTP
 40
0.005
  9
$DIMTM
 40
0.005
  9
$PDMODE
 70
3
  9
$PDSIZE
 40
0.3125
  9
$HANDSEED
  5
765
  9
$TILEMODE
 70
1
  9
$MEASUREMENT
 70
1
  9
$INSUNITS
 70
4
  0
ENDSEC
  0
SECTION
  2
CLASSES
  0
CLASS
  1
ACDBDICTIONARYWDFLT
  2
AcDbDictionaryWithDefault
  3
AutoCAD 2000
 90
0
280
0
281
0
  0
CLASS
  1
ACDBPLACEHOLDER
  2
AcDbPlaceHolder
  3
AutoCAD 2000
 90
0
280
0
281
0
  0
CLASS
  1
LAYOUT
  2
AcDbLayout
  3
AutoCAD 2000
 90
0
280
0
281
0
  0
ENDSEC
  0
SECTION
  2
TABLES
  0
TABLE
  2
VPORT
  5
8
100
AcDbSymbolTable
 70
2
  0
VPORT
  5
1F4
100
AcDbSymbolTableRecord
100
AcDbViewportTableRecord
  2
*ACTIVE
 70
0
 10
0.0
 20
0.0
 11
1.0
 21
1.0
 12
210.0
 22
148.5
 13
0.0
 23
0.0
 14
1.0
 24
1.0
 15
0.0
 25
0.0
 16
0.0
 26
0.0
 36
1.0
 17
0.0
 27
0.0
 37
0.0
 40
297.0
 41
1.4141414141
 42
50.0
 43
0.0
 44
0.0
 50
0.0
 51
0.0
 71
0
 72
100
 73
1
 74
1
 75
0
 76
0
 77
0
 78
0
  0
ENDTAB
  0
TABLE
  2
LTYPE
  5
5
100
AcDbSymbolTable
 70
6
  0
LTYPE
  5
14
100
AcDbSymbolTableRecord
100
AcDbLinetypeTableRecord
  2
BYBLOCK
 70
0
  3

 72
65
 73
0
 40
0.0
  0
LTYPE
  5
15
100
AcDbSymbolTableRecord
100
AcDbLinetypeTableRecord
  2
BYLAYER
 70
0
  3

 72
65
 73
0
 40
0.0
  0
LTYPE
  5
16
100
AcDbSymbolTableRecord
100
AcDbLinetypeTableRecord
  2
CONTINUOUS
 70
64
  3
Solid line
 72
65
 73
0
 40
0.0
  0
LTYPE
  5
1F5
100
AcDbSymbolTableRecord
100
AcDbLinetypeTableRecord
  2
CENTER
 70
64
  3
____ _ ____ _ ____ _ ____ _ ____ _ ____ _ ____
 72
65
 73
4
 40
0.6
 49
0.375
 74
0
 49
-0.075
 74
0
 49
0.075
 74
0
 49
-0.075
 74
0
  0
LTYPE
  5
1F6
100
AcDbSymbolTableRecord
100
AcDbLinetypeTableRecord
  2
HIDDEN
 70
64
  3
- - - - - - - - - - - - - - - - - - - -
 72
65
 73
2
 40
0.2
 49
0.1
 74
0
 49
-0.1
 74
0
  0
LTYPE
  5
1F7
100
AcDbSymbolTableRecord
100
AcDbLinetypeTableRecord
  2
PHANTOM
 70
64
  3
_____ _ _ _____ _ _ _____ _ _ _____
 72
65
 73
6
 40
0.8
 49
0.45
 74
0
 49
-0.05
 74
0
 49
0.1
 74
0
 49
-0.05
 74
0
 49
0.1
 74
0
 49
-0.05
 74
0
  0
LTYPE
  5
1F8
100
AcDbSymbolTableRecord
100
AcDbLinetypeTableRecord
  2
DOT
 70
64
  3
. . . . . . . . . . . . . . . . . . . .
 72
65
 73
2
 40
0.2
 49
0.1
 74
0
 49
-0.1
 74
0
  0
LTYPE
  5
1F9
100
AcDbSymbolTableRecord
100
AcDbLinetypeTableRecord
  2
DASHED
 70
64
  3
- - - - - - - - - - - - - - - - - - - -
 72
65
 73
2
 40
0.2
 49
0.1
 74
0
 49
-0.1
 74
0
  0
ENDTAB
  0
TABLE
  2
LAYER
  5
2
100
AcDbSymbolTable
 70
36
  0
LAYER
  5
10
100
AcDbSymbolTableRecord
100
AcDbLayerTableRecord
  2
0
 70
0
 62
7
  6
CONTINUOUS
370
-3
390
F
  0
LAYER
  5
1FA
100
AcDbSymbolTableRecord
100
AcDbLayerTableRecord
  2
DEFAULT_1
 70
0
 62
7
  6
CENTER
370
-3
390
F
  0
LAYER
  5
1FB
100
AcDbSymbolTableRecord
100
AcDbLayerTableRecord
  2
DEFAULT_2
 70
0
 62
8
  6
HIDDEN
370
-3
390
F
  0
LAYER
  5
1FC
100
AcDbSymbolTableRecord
100
AcDbLayerTableRecord
  2
DEFAULT_3
 70
0
 62
7
  6
PHANTOM
370
-3
390
F
  0
LAYER
  5
1FD
100
AcDbSymbolTableRecord
100
AcDbLayerTableRecord
  2
AUSFORMSCHRAEGEN
 70
0
 62
7
  6
CONTINUOUS
370
-3
390
F
  0
LAYER
  5
1FE
100
AcDbSymbolTableRecord
100
AcDbLayerTableRecord
  2
B-ACHSEN
 70
0
 62
7
  6
CONTINUOUS
370
-3
390
F
  0
LAYER
  5
1FF
100
AcDbSymbolTableRecord
100
AcDbLayerTableRecord
  2
B-EBENEN
 70
0
 62
7
  6
CONTINUOUS
370
-3
390
F
  0
LAYER
  5
200
100
AcDbSymbolTableRecord
100
AcDbLayerTableRecord
  2
B-KOORSYS
 70
0
 62
7
  6
CONTINUOUS
370
-3
390
F
  0
LAYER
  5
201
100
AcDbSymbolTableRecord
100
AcDbLayerTableRecord
  2
B-KURVEN
 70
0
 62
7
  6
CONTINUOUS
370
-3
390
F
  0
LAYER
  5
202
100
AcDbSymbolTableRecord
100
AcDbLayerTableRecord
  2
BEMASSUNG
 70
0
 62
7
  6
CONTINUOUS
370
-3
390
F
  0
LAYER
  5
203
100
AcDbSymbolTableRecord
100
AcDbLayerTableRecord
  2
BEZUGSACHSEN
 70
0
 62
7
  6
CONTINUOUS
370
-3
390
F
  0
LAYER
  5
204
100
AcDbSymbolTableRecord
100
AcDbLayerTableRecord
  2
BEZUGSEBENEN
 70
0
 62
7
  6
CONTINUOUS
370
-3
390
F
  0
LAYER
  5
205
100
AcDbSymbolTableRecord
100
AcDbLayerTableRecord
  2
BG_STARTBEZUEGE
 70
0
 62
7
  6
CONTINUOUS
370
-3
390
F
  0
LAYER
  5
206
100
AcDbSymbolTableRecord
100
AcDbLayerTableRecord
  2
FLAECHEN
 70
0
 62
7
  6
CONTINUOUS
370
-3
390
F
  0
LAYER
  5
207
100
AcDbSymbolTableRecord
100
AcDbLayerTableRecord
  2
HILFEN
 70
0
 62
7
  6
CONTINUOUS
370
-3
390
F
  0
LAYER
  5
208
100
AcDbSymbolTableRecord
100
AcDbLayerTableRecord
  2
KONSTRUKTIONSELEMENTE
 70
0
 62
7
  6
CONTINUOUS
370
-3
390
F
  0
LAYER
  5
209
100
AcDbSymbolTableRecord
100
AcDbLayerTableRecord
  2
KURVEN
 70
0
 62
7
  6
CONTINUOUS
370
-3
390
F
  0
LAYER
  5
20A
100
AcDbSymbolTableRecord
100
AcDbLayerTableRecord
  2
KURVENELEMENTE
 70
0
 62
7
  6
CONTINUOUS
370
-3
390
F
  0
LAYER
  5
20B
100
AcDbSymbolTableRecord
100
AcDbLayerTableRecord
  2
NOTIZEN
 70
0
 62
7
  6
CONTINUOUS
370
-3
390
F
  0
LAYER
  5
20C
100
AcDbSymbolTableRecord
100
AcDbLayerTableRecord
  2
PLATZIERUNG
 70
0
 62
7
  6
CONTINUOUS
370
-3
390
F
  0
LAYER
  5
20D
100
AcDbSymbolTableRecord
100
AcDbLayerTableRecord
  2
RUNDUNGEN
 70
0
 62
7
  6
CONTINUOUS
370
-3
390
F
  0
LAYER
  5
20E
100
AcDbSymbolTableRecord
100
AcDbLayerTableRecord
  2
T_STARTBEZUEGE
 70
0
 62
7
  6
CONTINUOUS
370
-3
390
F
  0
LAYER
  5
20F
100
AcDbSymbolTableRecord
100
AcDbLayerTableRecord
  2
VERBUNDFLAECHEN
 70
0
 62
7
  6
CONTINUOUS
370
-3
390
F
  0
LAYER
  5
210
100
AcDbSymbolTableRecord
100
AcDbLayerTableRecord
  2
ZEICHNUNGSBEMASSUNGEN
 70
0
 62
7
  6
CONTINUOUS
370
-3
390
F
  0
ENDTAB
  0
TABLE
  2
STYLE
  5
3
100
AcDbSymbolTable
 70
1
  0
STYLE
  5
11
100
AcDbSymbolTableRecord
100
AcDbTextStyleTableRecord
  2
STANDARD
 70
0
 40
0.0
 41
0.7
 50
0.0
 71
0
 42
0.2
  3
txt
  4

  0
STYLE
  5
211
100
AcDbSymbolTableRecord
100
AcDbTextStyleTableRecord
  2
TEXTSTYLE_1
 70
0
 40
0.0
 41
0.8
 50
0.0
 71
0
 42
0.2
  3
gdt
  4

  0
ENDTAB
  0
TABLE
  2
VIEW
  5
6
100
AcDbSymbolTable
 70
0
  0
ENDTAB
  0
TABLE
  2
UCS
  5
7
100
AcDbSymbolTable
 70
0
  0
ENDTAB
  0
TABLE
  2
APPID
  5
9
100
AcDbSymbolTable
 70
1
  0
APPID
  5
212
100
AcDbSymbolTableRecord
100
AcDbRegAppTableRecord
  2
ACAD
 70
0
  0
ENDTAB
  0
TABLE
  2
BLOCK_RECORD
  5
1
100
AcDbSymbolTable
 70
0
  0
BLOCK_RECORD
  5
213
100
AcDbSymbolTableRecord
100
AcDbBlockTableRecord
  2
*Model_Space
  0
BLOCK_RECORD
  5
214
100
AcDbSymbolTableRecord
100
AcDbBlockTableRecord
  2
*Paper_Space
  0
ENDTAB
  0
TABLE
  2
DIMSTYLE
  5
A
100
AcDbSymbolTable
 70
1
100
AcDbDimStyleTable
 71
0
  0
DIMSTYLE
105
215
100
AcDbSymbolTableRecord
100
AcDbDimStyleTableRecord
  2
STANDARD
 70
0
  3

  4

 40
1.0
 41
3.5
 42
0.0625
 43
0.38
 44
0.18
 45
0.0
 46
0.0
 47
0.005
 48
0.005
140
3.5
141
0.09
142
0.0
143
25.4
144
1.0
145
0.0
146
1.0
147
0.09
 71
1.0
 72
0.0
 73
0
 74
0
 75
0
 76
0
 77
1
 78
8
170
0
171
2
172
0
173
0
174
0
175
0
176
0
177
0
178
5
270
2
271
3
272
3
273
2
274
2
275
0
280
0
281
0
282
0
283
1
284
8
285
0
286
0
287
3
288
0
340
11
  0
ENDTAB
  0
ENDSEC
  0
SECTION
  2
BLOCKS
  0
BLOCK
  5
20
100
AcDbEntity
  8
0
100
AcDbBlockBegin
  2
*Model_Space
 70
0
 10
0.0
 20
0.0
 30
0.0
  3
*Model_Space
  1

  0
ENDBLK
  5
21
100
AcDbEntity
  8
0
100
AcDbBlockEnd
  0
BLOCK
  5
1C
100
AcDbEntity
  8
0
100
AcDbBlockBegin
  2
*Paper_Space
 70
0
 10
0.0
 20
0.0
 30
0.0
  3
*Paper_Space
  1

  0
ENDBLK
  5
1D
100
AcDbEntity
  8
0
100
AcDbBlockEnd
  0
ENDSEC
  0
SECTION
  2
ENTITIES
  0
MTEXT
  5
216
100
AcDbEntity
  8
0
100
AcDbMText
 62
5
  6
CONTINUOUS
  7
STANDARD
 71
1
 72
1
 10
123.1500387717
 20
106.4159738711
 30
0.0
 11
1.0
 21
0.0
 31
0.0
 44
0.9
  1
VRBS 4t
 40
3.5
 41
19.3333333333
  0
MTEXT
  5
217
100
AcDbEntity
  8
0
100
AcDbMText
 62
5
  6
CONTINUOUS
  7
STANDARD
 71
1
 72
1
 10
124.077383889
 20
237.0834369441
 30
0.0
 11
1.0
 21
0.0
 31
0.0
 44
0.9
  1
VRBS 4t
 40
3.5
 41
19.3333333333
  0
MTEXT
  5
218
100
AcDbEntity
  8
0
100
AcDbMText
 62
5
  6
CONTINUOUS
  7
STANDARD
 71
1
 72
1
 10
260.401608208
 20
208.3567622692
 30
0.0
 11
0.0
 21
1.0
 31
0.0
 44
0.9
  1
VRBS 4t
 40
3.5
 41
19.3333333333
  0
LINE
  5
219
100
AcDbEntity
  8
0
100
AcDbLine
 62
7
  6
CONTINUOUS
 10
0.0
 20
0.0
 11
0.0
 21
297.0
  0
LINE
  5
21A
100
AcDbEntity
  8
0
100
AcDbLine
 62
7
  6
CONTINUOUS
 10
0.0
 20
0.0
 11
420.0
 21
0.0
  0
LINE
  5
21B
100
AcDbEntity
  8
0
100
AcDbLine
 62
7
  6
CONTINUOUS
 10
0.0
 20
297.0
 11
420.0
 21
297.0
  0
LINE
  5
21C
100
AcDbEntity
  8
0
100
AcDbLine
 62
7
  6
CONTINUOUS
 10
420.0
 20
0.0
 11
420.0
 21
297.0
  0
LINE
  5
21D
100
AcDbEntity
  8
RUNDUNGEN
100
AcDbLine
 62
7
  6
CONTINUOUS
 10
64.889127907
 20
165.9694479784
 11
64.889127907
 21
172.9694479784
  0
LINE
  5
21E
100
AcDbEntity
  8
0
100
AcDbLine
 62
7
  6
CONTINUOUS
 10
75.4496745635
 20
191.9262791008
 11
75.4183160245
 21
192.2246356694
  0
LINE
  5
21F
100
AcDbEntity
  8
0
100
AcDbLine
 62
7
  6
CONTINUOUS
 10
76.7757037968
 20
192.0656503893
 11
76.7443452578
 21
192.3640069579
  0
LINE
  5
220
100
AcDbEntity
  8
RUNDUNGEN
100
AcDbLine
 62
7
  6
CONTINUOUS
 10
64.889127907
 20
172.9694479784
 11
68.3867096816
 21
186.0226008648
  0
LINE
  5
221
100
AcDbEntity
  8
0
100
AcDbLine
 62
7
  6
CONTINUOUS
 10
77.4387183542
 20
192.1353360273
 11
77.4073598152
 21
192.4336925959
  0
LINE
  5
222
100
AcDbEntity
  8
0
100
AcDbLine
 62
7
  6
CONTINUOUS
 10
78.764747469
 20
192.2747073034
 11
78.73338893
 21
192.573063872
  0
LINE
  5
223
100
AcDbEntity
  8
0
100
AcDbLine
 62
7
  6
CONTINUOUS
 10
79.427762145
 20
192.3443929538
 11
79.396403606
 21
192.6427495224
  0
LINE
  5
224
100
AcDbEntity
  8
0
100
AcDbLine
 62
7
  6
CONTINUOUS
 10
79.6664473998
 20
192.369479785
 11
79.6350888609
 21
192.6678363536
  0
LINE
  5
225
100
AcDbEntity
  8
0
100
AcDbLine
 62
7
  6
CONTINUOUS
 10
81.0587780534
 20
192.5158196336
 11
81.0274195144
 21
192.8141762022
  0
LINE
  5
226
100
AcDbEntity
  8
0
100
AcDbLine
 62
7
  6
CONTINUOUS
 10
81.4068607167
 20
192.5524045957
 11
81.3755021778
 21
192.8507611644
  0
LINE
  5
227
100
AcDbEntity
  8
0
100
AcDbLine
 62
7
  6
CONTINUOUS
 10
81.9869984337
 20
192.6133795268
 11
81.9556398947
 21
192.9117360954
  0
LINE
  5
228
100
AcDbEntity
  8
0
100
AcDbLine
 62
7
  6
CONTINUOUS
 10
81.9969438661
 20
192.6144248339
 11
81.9655853271
 21
192.9127814025
  0
LINE
  5
229
100
AcDbEntity
  8
0
100
AcDbLine
 62
7
  6
CONTINUOUS
 10
82.4511087069
 20
192.6621594822
 11
82.4197501679
 21
192.9605160508
  0
LINE
  5
22A
100
AcDbEntity
  8
0
100
AcDbLine
 62
7
  6
CONTINUOUS
 10
82.9152188141
 20
192.7109394201
 11
82.8838602751
 21
193.0092959887
  0
LINE
  5
22B
100
AcDbEntity
  8
0
100
AcDbLine
 62
7
  6
CONTINUOUS
 10
83.0312465898
 20
192.7231344307
 11
82.9998880508
 21
193.0214909993
  0
LINE
  5
22C
100
AcDbEntity
  8
0
100
AcDbLine
 62
7
  6
CONTINUOUS
 10
83.2052879215
 20
192.7414269118
 11
83.1739293825
 21
193.0397834804
  0
LINE
  5
22D
100
AcDbEntity
  8
0
100
AcDbLine
 62
7
  6
CONTINUOUS
 10
83.3793292532
 20
192.7597193929
 11
83.3479707142
 21
193.0580759615
  0
LINE
  5
22E
100
AcDbEntity
  8
0
100
AcDbLine
 62
7
  6
CONTINUOUS
 10
83.7274119166
 20
192.796304355
 11
83.6960533776
 21
193.0946609236
  0
LINE
  5
22F
100
AcDbEntity
  8
0
100
AcDbLine
 62
7
  6
CONTINUOUS
 10
83.8434393604
 20
192.8084993307
 11
83.8120808214
 21
193.1068558994
  0
LINE
  5
230
100
AcDbEntity
  8
0
100
AcDbLine
 62
7
  6
CONTINUOUS
 10
85.2291395518
 20
192.9541422897
 11
85.1977810128
 21
193.2524988583
  0
LINE
  5
231
100
AcDbEntity
  8
0
100
AcDbLine
 62
7
  6
CONTINUOUS
 10
85.643523991
 20
192.9976958493
 11
85.612165452
 21
193.2960524179
  0
LINE
  5
232
100
AcDbEntity
  8
0
100
AcDbLine
 62
7
  6
CONTINUOUS
 10
85.9750309733
 20
193.0325386371
 11
85.9436724343
 21
193.3308952057
  0
LINE
  5
233
100
AcDbEntity
  8
0
100
AcDbLine
 62
7
  6
CONTINUOUS
 10
86.2236614472
 20
193.0586707529
 11
86.1923029082
 21
193.3570273215
  0
LINE
  5
234
100
AcDbEntity
  8
0
100
AcDbLine
 62
7
  6
CONTINUOUS
 10
86.3065389041
 20
193.0673815247
 11
86.2751803651
 21
193.3657380933
  0
LINE
  5
235
100
AcDbEntity
  8
0
100
AcDbLine
 62
7
  6
CONTINUOUS
 10
86.9695528687
 20
193.1370671004
 11
86.9381943297
 21
193.435423669
  0
LINE
  5
236
100
AcDbEntity
  8
0
100
AcDbLine
 62
7
  6
CONTINUOUS
 10
87.0524303256
 20
193.1457778721
 11
87.0210717866
 21
193.4441344407
  0
LINE
  5
237
100
AcDbEntity
  8
0
100
AcDbLine
 62
7
  6
CONTINUOUS
 10
87.3010607994
 20
193.1719099879
 11
87.2697022605
 21
193.4702665565
  0
LINE
  5
238
100
AcDbEntity
  8
0
100
AcDbLine
 62
7
  6
CONTINUOUS
 10
87.7154442902
 20
193.2154634478
 11
87.6840857512
 21
193.5138200165
  0
LINE
  5
239
100
AcDbEntity
  8
0
100
AcDbLine
 62
7
  6
CONTINUOUS
 10
88.1298287294
 20
193.2590170074
 11
88.0984701904
 21
193.557373576
  0
LINE
  5
23A
100
AcDbEntity
  8
0
100
AcDbLine
 62
7
  6
CONTINUOUS
 10
88.7928436425
 20
193.3287026828
 11
88.7614851035
 21
193.6270592514
  0
LINE
  5
23B
100
AcDbEntity
  8
0
100
AcDbLine
 62
7
  6
CONTINUOUS
 10
89.2072271333
 20
193.3722561427
 11
89.1758685943
 21
193.6706127114
  0
LINE
  5
23C
100
AcDbEntity
  8
0
100
AcDbLine
 62
7
  6
CONTINUOUS
 10
89.538735064
 20
193.4070990303
 11
89.507376525
 21
193.7054555989
  0
LINE
  5
23D
100
AcDbEntity
  8
0
100
AcDbLine
 62
7
  6
CONTINUOUS
 10
89.8702420463
 20
193.4419418181
 11
89.8388835073
 21
193.7402983868
  0
LINE
  5
23E
100
AcDbEntity
  8
0
100
AcDbLine
 62
7
  6
CONTINUOUS
 10
90.0359960117
 20
193.4593632619
 11
90.0046374727
 21
193.7577198305
  0
LINE
  5
23F
100
AcDbEntity
  8
BEZUGSACHSEN
100
AcDbLine
 62
7
  6
CONTINUOUS
 10
96.3846965581
 20
186.0800076472
 11
95.433903947
 21
195.1261950693
  0
LINE
  5
240
100
AcDbEntity
  8
RUNDUNGEN
100
AcDbLine
 62
7
  6
CONTINUOUS
 10
96.3846965581
 20
186.0800076472
 11
94.2820418743
 21
206.0854306304
  0
LINE
  5
241
100
AcDbEntity
  8
RUNDUNGEN
100
AcDbLine
 62
7
  6
CONTINUOUS
 10
94.889127907
 20
191.1929166913
 11
94.889127907
 21
181.373109797
  0
LWPOLYLINE
  5
242
100
AcDbEntity
  8
RUNDUNGEN
100
AcDbPolyline
 62
7
  6
CONTINUOUS
 90
9
 70
0
 10
94.7177008552
 20
165.9694479784
 10
94.7197783735
 20
176.1359289177
 10
94.7276690972
 20
176.9266661245
 10
94.7413744942
 20
177.7080227866
 10
94.7607750202
 20
178.4759501937
 10
94.7857110599
 20
179.2264529883
 10
94.8160171524
 20
179.955640011
 10
94.8514469306
 20
180.6596986578
 10
94.8841963893
 20
181.2162017559
  0
LINE
  5
243
100
AcDbEntity
  8
RUNDUNGEN
100
AcDbLine
 62
7
  6
CONTINUOUS
 10
94.5292901443
 20
207.7906722652
 11
104.8228545284
 21
232.6415350065
  0
LINE
  5
244
100
AcDbEntity
  8
RUNDUNGEN
100
AcDbLine
 62
7
  6
CONTINUOUS
 10
106.7170408789
 20
234.535721357
 11
131.0497358937
 21
244.6146536412
  0
LINE
  5
245
100
AcDbEntity
  8
B-ACHSEN
100
AcDbLine
 62
7
  6
CONTINUOUS
 10
64.889127907
 20
165.9694479784
 11
93.2466460728
 21
165.9694479784
  0
LINE
  5
246
100
AcDbEntity
  8
RUNDUNGEN
100
AcDbLine
 62
7
  6
CONTINUOUS
 10
93.2466460728
 20
165.9694479784
 11
94.7176111586
 21
165.9694479784
  0
LINE
  5
247
100
AcDbEntity
  8
RUNDUNGEN
100
AcDbLine
 62
7
  6
CONTINUOUS
 10
170.0606446553
 20
165.9694479784
 11
171.5316097411
 21
165.9694479784
  0
LINE
  5
248
100
AcDbEntity
  8
B-ACHSEN
100
AcDbLine
 62
7
  6
CONTINUOUS
 10
171.5316097411
 20
165.9694479784
 11
199.889127907
 21
165.9694479784
  0
LINE
  5
249
100
AcDbEntity
  8
BEZUGSACHSEN
100
AcDbLine
 62
7
  6
CONTINUOUS
 10
170.0605549588
 20
167.4694479784
 11
169.7077422838
 21
167.4694479784
  0
LINE
  5
24A
100
AcDbEntity
  8
BEZUGSACHSEN
100
AcDbLine
 62
7
  6
CONTINUOUS
 10
95.0704963574
 20
167.4694479784
 11
94.7177008552
 21
167.4694479784
  0
LINE
  5
24B
100
AcDbEntity
  8
RUNDUNGEN
100
AcDbLine
 62
7
  6
CONTINUOUS
 10
95.0704963728
 20
167.4694479784
 11
169.7087534662
 21
167.4694479784
  0
LINE
  5
24C
100
AcDbEntity
  8
0
100
AcDbLine
 62
7
  6
CONTINUOUS
 10
106.3366280858
 20
179.3196607315
 11
106.0553780858
 21
179.5111501375
  0
LINE
  5
24D
100
AcDbEntity
  8
0
100
AcDbLine
 62
7
  6
CONTINUOUS
 10
105.4928780858
 20
179.3196607315
 11
105.8678777282
 21
178.9366820203
  0
LINE
  5
24E
100
AcDbEntity
  8
0
100
AcDbLine
 62
7
  6
CONTINUOUS
 10
103.711627907
 20
182.3834906229
 11
103.5241278176
 21
182.5749799618
  0
LINE
  5
24F
100
AcDbEntity
  8
0
100
AcDbLine
 62
7
  6
CONTINUOUS
 10
104.274127907
 20
182.3834906229
 11
103.992877907
 21
182.7664693007
  0
LINE
  5
250
100
AcDbEntity
  8
0
100
AcDbLine
 62
7
  6
CONTINUOUS
 10
106.0553780858
 20
179.5111501375
 11
105.8678777282
 21
179.7983841458
  0
LINE
  5
251
100
AcDbEntity
  8
0
100
AcDbLine
 62
7
  6
CONTINUOUS
 10
103.8053778176
 20
178.6494479784
 11
103.0553778623
 21
180.6600863048
  0
LINE
  5
252
100
AcDbEntity
  8
0
100
AcDbLine
 62
7
  6
CONTINUOUS
 10
100.899127907
 20
178.6494479784
 11
100.899127907
 21
183.1494479784
  0
LINE
  5
253
100
AcDbEntity
  8
0
100
AcDbLine
 62
7
  6
CONTINUOUS
 10
101.461627907
 20
178.6494479784
 11
101.461627907
 21
180.6600863048
  0
LINE
  5
254
100
AcDbEntity
  8
0
100
AcDbLine
 62
7
  6
CONTINUOUS
 10
101.461627907
 20
181.2345543214
 11
101.461627907
 21
182.6707246312
  0
LINE
  5
255
100
AcDbEntity
  8
RUNDUNGEN
100
AcDbLine
 62
7
  6
CONTINUOUS
 10
96.0746334596
 20
182.8066239931
 11
96.3634270072
 21
184.8614968576
  0
LINE
  5
256
100
AcDbEntity
  8
0
100
AcDbLine
 62
7
  6
CONTINUOUS
 10
118.889127907
 20
170.8125937289
 11
145.889127907
 21
170.8125937289
  0
LINE
  5
257
100
AcDbEntity
  8
0
100
AcDbLine
 62
7
  6
CONTINUOUS
 10
131.1182520805
 20
173.7194479784
 11
132.2710014997
 21
173.7194479784
  0
LINE
  5
258
100
AcDbEntity
  8
0
100
AcDbLine
 62
7
  6
CONTINUOUS
 10
106.242877907
 20
178.7451926562
 11
106.7116277282
 21
178.6494479784
  0
LINE
  5
259
100
AcDbEntity
  8
0
100
AcDbLine
 62
7
  6
CONTINUOUS
 10
106.7116277282
 20
179.2239160621
 11
106.3366280858
 21
179.3196607315
  0
LINE
  5
25A
100
AcDbEntity
  8
0
100
AcDbLine
 62
7
  6
CONTINUOUS
 10
103.5241278176
 20
182.5749799618
 11
103.2428778176
 21
182.6707246312
  0
LINE
  5
25B
100
AcDbEntity
  8
0
100
AcDbLine
 62
7
  6
CONTINUOUS
 10
105.8678777282
 20
178.9366820203
 11
106.242877907
 21
178.7451926562
  0
LINE
  5
25C
100
AcDbEntity
  8
0
100
AcDbLine
 62
7
  6
CONTINUOUS
 10
103.992877907
 20
182.7664693007
 11
103.6178779964
 21
183.053703309
  0
LINE
  5
25D
100
AcDbEntity
  8
0
100
AcDbLine
 62
7
  6
CONTINUOUS
 10
105.3053779964
 20
179.7026394763
 11
105.4928780858
 21
179.3196607315
  0
LINE
  5
25E
100
AcDbEntity
  8
0
100
AcDbLine
 62
7
  6
CONTINUOUS
 10
104.4616279964
 20
178.6494479784
 11
103.6178779964
 21
180.8515756437
  0
LINE
  5
25F
100
AcDbEntity
  8
0
100
AcDbLine
 62
7
  6
CONTINUOUS
 10
103.8053778176
 20
182.0962566146
 11
103.711627907
 21
182.3834906229
  0
LINE
  5
260
100
AcDbEntity
  8
0
100
AcDbLine
 62
7
  6
CONTINUOUS
 10
104.3678778176
 20
182.0962566146
 11
104.274127907
 21
182.3834906229
  0
LINE
  5
261
100
AcDbEntity
  8
0
100
AcDbLine
 62
7
  6
CONTINUOUS
 10
105.8678777282
 20
179.7983841458
 11
105.7741280858
 21
180.1813628235
  0
LINE
  5
262
100
AcDbEntity
  8
0
100
AcDbLine
 62
7
  6
CONTINUOUS
 10
105.3053779964
 20
179.7026394763
 11
105.2116278176
 21
180.1813628235
  0
LINE
  5
263
100
AcDbEntity
  8
0
100
AcDbLine
 62
7
  6
CONTINUOUS
 10
103.8053778176
 20
181.8090223381
 11
103.8053778176
 21
182.0962566146
  0
LINE
  5
264
100
AcDbEntity
  8
0
100
AcDbLine
 62
7
  6
CONTINUOUS
 10
104.3678778176
 20
181.7132776686
 11
104.3678778176
 21
182.0962566146
  0
LINE
  5
265
100
AcDbEntity
  8
0
100
AcDbLine
 62
7
  6
CONTINUOUS
 10
105.2116278176
 20
180.1813628235
 11
105.2116278176
 21
183.1494479784
  0
LINE
  5
266
100
AcDbEntity
  8
0
100
AcDbLine
 62
7
  6
CONTINUOUS
 10
105.7741280858
 20
180.1813628235
 11
105.7741280858
 21
183.1494479784
  0
LINE
  5
267
100
AcDbEntity
  8
0
100
AcDbLine
 62
7
  6
CONTINUOUS
 10
128.8331197022
 20
174.9699571213
 11
131.1182520805
 21
174.9699571213
  0
LINE
  5
268
100
AcDbEntity
  8
0
100
AcDbLine
 62
7
  6
CONTINUOUS
 10
132.2710014997
 20
174.9699571213
 11
132.9186594902
 21
174.9699571213
  0
LINE
  5
269
100
AcDbEntity
  8
0
100
AcDbLine
 62
7
  6
CONTINUOUS
 10
132.9186594902
 20
175.8823807916
 11
132.2710014997
 21
175.8823807916
  0
LINE
  5
26A
100
AcDbEntity
  8
0
100
AcDbLine
 62
7
  6
CONTINUOUS
 10
131.1182520805
 20
175.8823807916
 11
129.6925901292
 21
175.8823807916
  0
LINE
  5
26B
100
AcDbEntity
  8
0
100
AcDbLine
 62
7
  6
CONTINUOUS
 10
133.4481908498
 20
177.2265764555
 11
134.0551157413
 21
177.2265764555
  0
LINE
  5
26C
100
AcDbEntity
  8
0
100
AcDbLine
 62
7
  6
CONTINUOUS
 10
135.2200849472
 20
177.2265764555
 11
135.9451361118
 21
177.2265764555
  0
LINE
  5
26D
100
AcDbEntity
  8
0
100
AcDbLine
 62
7
  6
CONTINUOUS
 10
135.9451361118
 20
178.098266848
 11
135.2200849472
 21
178.098266848
  0
LINE
  5
26E
100
AcDbEntity
  8
0
100
AcDbLine
 62
7
  6
CONTINUOUS
 10
134.0551157413
 20
178.098266848
 11
133.4481908498
 21
178.098266848
  0
LINE
  5
26F
100
AcDbEntity
  8
0
100
AcDbLine
 62
7
  6
CONTINUOUS
 10
100.899127907
 20
178.6494479784
 11
101.461627907
 21
178.6494479784
  0
LINE
  5
270
100
AcDbEntity
  8
0
100
AcDbLine
 62
7
  6
CONTINUOUS
 10
103.8053778176
 20
178.6494479784
 11
104.4616279964
 21
178.6494479784
  0
LINE
  5
271
100
AcDbEntity
  8
0
100
AcDbLine
 62
7
  6
CONTINUOUS
 10
106.7116277282
 20
178.6494479784
 11
107.086627907
 21
178.6494479784
  0
LINE
  5
272
100
AcDbEntity
  8
0
100
AcDbLine
 62
7
  6
CONTINUOUS
 10
109.336627907
 20
178.6494479784
 11
111.586627907
 21
178.6494479784
  0
LINE
  5
273
100
AcDbEntity
  8
0
100
AcDbLine
 62
7
  6
CONTINUOUS
 10
111.586627907
 20
179.2239160621
 11
109.899127907
 21
179.2239160621
  0
LINE
  5
274
100
AcDbEntity
  8
0
100
AcDbLine
 62
7
  6
CONTINUOUS
 10
107.086627907
 20
179.2239160621
 11
106.7116277282
 21
179.2239160621
  0
LINE
  5
275
100
AcDbEntity
  8
0
100
AcDbLine
 62
7
  6
CONTINUOUS
 10
135.2200849472
 20
179.2754561981
 11
134.0551157413
 21
179.2754561981
  0
LINE
  5
276
100
AcDbEntity
  8
0
100
AcDbLine
 62
7
  6
CONTINUOUS
 10
132.2710014997
 20
179.5157821259
 11
131.0001258073
 21
179.5157821259
  0
LINE
  5
277
100
AcDbEntity
  8
0
100
AcDbLine
 62
7
  6
CONTINUOUS
 10
103.6178779964
 20
183.053703309
 11
103.149127907
 21
183.1494479784
  0
LINE
  5
278
100
AcDbEntity
  8
0
100
AcDbLine
 62
7
  6
CONTINUOUS
 10
112.0553782646
 20
183.053703309
 11
111.586627907
 21
183.1494479784
  0
LINE
  5
279
100
AcDbEntity
  8
0
100
AcDbLine
 62
7
  6
CONTINUOUS
 10
111.9616275493
 20
182.4792352924
 11
111.586627907
 21
182.5749799618
  0
LINE
  5
27A
100
AcDbEntity
  8
0
100
AcDbLine
 62
7
  6
CONTINUOUS
 10
112.430377907
 20
182.8622139701
 11
112.0553782646
 21
183.053703309
  0
LINE
  5
27B
100
AcDbEntity
  8
0
100
AcDbLine
 62
7
  6
CONTINUOUS
 10
112.2428775493
 20
182.2877459535
 11
111.9616275493
 21
182.4792352924
  0
LINE
  5
27C
100
AcDbEntity
  8
0
100
AcDbLine
 62
7
  6
CONTINUOUS
 10
112.8053775493
 20
182.4792352924
 11
112.430377907
 21
182.8622139701
  0
LINE
  5
27D
100
AcDbEntity
  8
0
100
AcDbLine
 62
7
  6
CONTINUOUS
 10
112.430377907
 20
182.0005116769
 11
112.2428775493
 21
182.2877459535
  0
LINE
  5
27E
100
AcDbEntity
  8
0
100
AcDbLine
 62
7
  6
CONTINUOUS
 10
112.992877907
 20
182.0962566146
 11
112.8053775493
 21
182.4792352924
  0
LINE
  5
27F
100
AcDbEntity
  8
0
100
AcDbLine
 62
7
  6
CONTINUOUS
 10
108.0241280858
 20
180.1813628235
 11
108.0241280858
 21
183.1494479784
  0
LINE
  5
280
100
AcDbEntity
  8
0
100
AcDbLine
 62
7
  6
CONTINUOUS
 10
108.5866280858
 20
180.1813628235
 11
108.5866280858
 21
183.1494479784
  0
LINE
  5
281
100
AcDbEntity
  8
0
100
AcDbLine
 62
7
  6
CONTINUOUS
 10
109.336627907
 20
178.6494479784
 11
109.336627907
 21
183.1494479784
  0
LINE
  5
282
100
AcDbEntity
  8
0
100
AcDbLine
 62
7
  6
CONTINUOUS
 10
109.899127907
 20
179.2239160621
 11
109.899127907
 21
182.5749799618
  0
LINE
  5
283
100
AcDbEntity
  8
0
100
AcDbLine
 62
7
  6
CONTINUOUS
 10
111.9616275493
 20
179.3196607315
 11
111.586627907
 21
179.2239160621
  0
LINE
  5
284
100
AcDbEntity
  8
0
100
AcDbLine
 62
7
  6
CONTINUOUS
 10
111.586627907
 20
178.6494479784
 11
112.0553782646
 21
178.7451926562
  0
LINE
  5
285
100
AcDbEntity
  8
0
100
AcDbLine
 62
7
  6
CONTINUOUS
 10
107.086627907
 20
178.6494479784
 11
107.5553777282
 21
178.7451926562
  0
LINE
  5
286
100
AcDbEntity
  8
0
100
AcDbLine
 62
7
  6
CONTINUOUS
 10
103.0553778623
 20
180.6600863048
 11
101.461627907
 21
180.6600863048
  0
LINE
  5
287
100
AcDbEntity
  8
0
100
AcDbLine
 62
7
  6
CONTINUOUS
 10
103.2428778176
 20
181.2345543214
 11
101.461627907
 21
181.2345543214
  0
LINE
  5
288
100
AcDbEntity
  8
0
100
AcDbLine
 62
7
  6
CONTINUOUS
 10
111.586627907
 20
182.5749799618
 11
109.899127907
 21
182.5749799618
  0
LINE
  5
289
100
AcDbEntity
  8
0
100
AcDbLine
 62
7
  6
CONTINUOUS
 10
103.2428778176
 20
182.6707246312
 11
101.461627907
 21
182.6707246312
  0
LINE
  5
28A
100
AcDbEntity
  8
0
100
AcDbLine
 62
7
  6
CONTINUOUS
 10
111.586627907
 20
183.1494479784
 11
109.336627907
 21
183.1494479784
  0
LINE
  5
28B
100
AcDbEntity
  8
0
100
AcDbLine
 62
7
  6
CONTINUOUS
 10
108.5866280858
 20
183.1494479784
 11
108.0241280858
 21
183.1494479784
  0
LINE
  5
28C
100
AcDbEntity
  8
0
100
AcDbLine
 62
7
  6
CONTINUOUS
 10
105.7741280858
 20
183.1494479784
 11
105.2116278176
 21
183.1494479784
  0
LINE
  5
28D
100
AcDbEntity
  8
0
100
AcDbLine
 62
7
  6
CONTINUOUS
 10
103.149127907
 20
183.1494479784
 11
100.899127907
 21
183.1494479784
  0
LINE
  5
28E
100
AcDbEntity
  8
BEZUGSACHSEN
100
AcDbLine
 62
7
  6
CONTINUOUS
 10
169.889127907
 20
184.4694479784
 11
169.3671350323
 21
184.4694479784
  0
LINE
  5
28F
100
AcDbEntity
  8
BEZUGSACHSEN
100
AcDbLine
 62
7
  6
CONTINUOUS
 10
95.4111207816
 20
184.4694479784
 11
94.889127907
 21
184.4694479784
  0
LINE
  5
290
100
AcDbEntity
  8
0
100
AcDbLine
 62
7
  6
CONTINUOUS
 10
112.5241275493
 20
181.6175329992
 11
112.430377907
 21
182.0005116769
  0
LINE
  5
291
100
AcDbEntity
  8
0
100
AcDbLine
 62
7
  6
CONTINUOUS
 10
113.0866275493
 20
181.6175329992
 11
112.992877907
 21
182.0962566146
  0
LINE
  5
292
100
AcDbEntity
  8
0
100
AcDbLine
 62
7
  6
CONTINUOUS
 10
112.5241275493
 20
180.1813628235
 11
112.5241275493
 21
181.6175329992
  0
LINE
  5
293
100
AcDbEntity
  8
0
100
AcDbLine
 62
7
  6
CONTINUOUS
 10
113.0866275493
 20
180.1813628235
 11
113.0866275493
 21
181.6175329992
  0
LINE
  5
294
100
AcDbEntity
  8
0
100
AcDbLine
 62
7
  6
CONTINUOUS
 10
108.492877907
 20
179.7026394763
 11
108.5866280858
 21
180.1813628235
  0
LINE
  5
295
100
AcDbEntity
  8
0
100
AcDbLine
 62
7
  6
CONTINUOUS
 10
107.930377907
 20
179.7983841458
 11
108.0241280858
 21
180.1813628235
  0
LINE
  5
296
100
AcDbEntity
  8
0
100
AcDbLine
 62
7
  6
CONTINUOUS
 10
103.711627907
 20
181.5217883298
 11
103.8053778176
 21
181.8090223381
  0
LINE
  5
297
100
AcDbEntity
  8
0
100
AcDbLine
 62
7
  6
CONTINUOUS
 10
104.274127907
 20
181.4260436603
 11
104.3678778176
 21
181.7132776686
  0
LINE
  5
298
100
AcDbEntity
  8
0
100
AcDbLine
 62
7
  6
CONTINUOUS
 10
107.4616280858
 20
179.3196607315
 11
107.086627907
 21
179.2239160621
  0
LINE
  5
299
100
AcDbEntity
  8
0
100
AcDbLine
 62
7
  6
CONTINUOUS
 10
118.889127907
 20
170.8125937289
 11
118.889127907
 21
186.2951307648
  0
LINE
  5
29A
100
AcDbEntity
  8
0
100
AcDbLine
 62
7
  6
CONTINUOUS
 10
112.992877907
 20
179.7026394763
 11
113.0866275493
 21
180.1813628235
  0
LINE
  5
29B
100
AcDbEntity
  8
0
100
AcDbLine
 62
7
  6
CONTINUOUS
 10
112.430377907
 20
179.7983841458
 11
112.5241275493
 21
180.1813628235
  0
LINE
  5
29C
100
AcDbEntity
  8
0
100
AcDbLine
 62
7
  6
CONTINUOUS
 10
108.3053780858
 20
179.3196607315
 11
108.492877907
 21
179.7026394763
  0
LINE
  5
29D
100
AcDbEntity
  8
0
100
AcDbLine
 62
7
  6
CONTINUOUS
 10
112.8053775493
 20
179.3196607315
 11
112.992877907
 21
179.7026394763
  0
LINE
  5
29E
100
AcDbEntity
  8
0
100
AcDbLine
 62
7
  6
CONTINUOUS
 10
107.930377907
 20
179.7983841458
 11
107.7428780858
 21
179.5111501375
  0
LINE
  5
29F
100
AcDbEntity
  8
0
100
AcDbLine
 62
7
  6
CONTINUOUS
 10
103.992877907
 20
181.0430649826
 11
104.274127907
 21
181.4260436603
  0
LINE
  5
2A0
100
AcDbEntity
  8
RUNDUNGEN
100
AcDbLine
 62
7
  6
CONTINUOUS
 10
75.2778885857
 20
191.9082236669
 11
92.1278067488
 21
193.6792214298
  0
LINE
  5
2A1
100
AcDbEntity
  8
0
100
AcDbLine
 62
7
  6
CONTINUOUS
 10
75.4183160245
 20
192.2246356694
 11
78.73338893
 21
192.573063872
  0
LINE
  5
2A2
100
AcDbEntity
  8
0
100
AcDbLine
 62
7
  6
CONTINUOUS
 10
79.396403606
 20
192.6427495224
 11
81.9556398947
 21
192.9117360954
  0
LINE
  5
2A3
100
AcDbEntity
  8
0
100
AcDbLine
 62
7
  6
CONTINUOUS
 10
81.9655853271
 20
192.9127814025
 11
86.2751803651
 21
193.3657380933
  0
LINE
  5
2A4
100
AcDbEntity
  8
0
100
AcDbLine
 62
7
  6
CONTINUOUS
 10
86.9381943297
 20
193.435423669
 11
90.0046374727
 21
193.7577198305
  0
LINE
  5
2A5
100
AcDbEntity
  8
RUNDUNGEN
100
AcDbLine
 62
7
  6
CONTINUOUS
 10
172.6504490651
 20
193.6792214298
 11
189.5003672282
 21
191.9082236669
  0
LINE
  5
2A6
100
AcDbEntity
  8
0
100
AcDbLine
 62
7
  6
CONTINUOUS
 10
174.7736183412
 20
193.7577198305
 11
177.8400614843
 21
193.435423669
  0
LINE
  5
2A7
100
AcDbEntity
  8
0
100
AcDbLine
 62
7
  6
CONTINUOUS
 10
178.5030754489
 20
193.3657380933
 11
185.381852208
 21
192.6427495224
  0
LINE
  5
2A8
100
AcDbEntity
  8
0
100
AcDbLine
 62
7
  6
CONTINUOUS
 10
186.0448668839
 20
192.573063872
 11
189.3599397895
 21
192.2246356694
  0
LINE
  5
2A9
100
AcDbEntity
  8
0
100
AcDbLine
 62
7
  6
CONTINUOUS
 10
128.8331197022
 20
176.0005070647
 11
128.8331197022
 21
174.9699571213
  0
LINE
  5
2AA
100
AcDbEntity
  8
0
100
AcDbLine
 62
7
  6
CONTINUOUS
 10
131.1182520805
 20
178.32229925
 11
131.1182520805
 21
175.8823807916
  0
LINE
  5
2AB
100
AcDbEntity
  8
0
100
AcDbLine
 62
7
  6
CONTINUOUS
 10
131.1182520805
 20
174.9699571213
 11
131.1182520805
 21
173.7194479784
  0
LINE
  5
2AC
100
AcDbEntity
  8
0
100
AcDbLine
 62
7
  6
CONTINUOUS
 10
132.2710014997
 20
173.7194479784
 11
132.2710014997
 21
174.9699571213
  0
LINE
  5
2AD
100
AcDbEntity
  8
0
100
AcDbLine
 62
7
  6
CONTINUOUS
 10
132.2710014997
 20
175.8823807916
 11
132.2710014997
 21
179.5157821259
  0
LINE
  5
2AE
100
AcDbEntity
  8
0
100
AcDbLine
 62
7
  6
CONTINUOUS
 10
132.9186594902
 20
174.9699571213
 11
132.9186594902
 21
175.8823807916
  0
LINE
  5
2AF
100
AcDbEntity
  8
0
100
AcDbLine
 62
7
  6
CONTINUOUS
 10
112.430377907
 20
179.7983841458
 11
112.2428775493
 21
179.5111501375
  0
LINE
  5
2B0
100
AcDbEntity
  8
0
100
AcDbLine
 62
7
  6
CONTINUOUS
 10
103.5241278176
 20
181.3302989909
 11
103.711627907
 21
181.5217883298
  0
LINE
  5
2B1
100
AcDbEntity
  8
0
100
AcDbLine
 62
7
  6
CONTINUOUS
 10
133.4481908498
 20
178.098266848
 11
133.4481908498
 21
177.2265764555
  0
LINE
  5
2B2
100
AcDbEntity
  8
0
100
AcDbLine
 62
7
  6
CONTINUOUS
 10
134.0551157413
 20
179.2754561981
 11
134.0551157413
 21
178.098266848
  0
LINE
  5
2B3
100
AcDbEntity
  8
0
100
AcDbLine
 62
7
  6
CONTINUOUS
 10
134.0551157413
 20
177.2265764555
 11
134.0551157413
 21
174.9903237602
  0
LINE
  5
2B4
100
AcDbEntity
  8
0
100
AcDbLine
 62
7
  6
CONTINUOUS
 10
135.2200849472
 20
174.9984703442
 11
135.2200849472
 21
177.2265764555
  0
LINE
  5
2B5
100
AcDbEntity
  8
0
100
AcDbLine
 62
7
  6
CONTINUOUS
 10
135.2200849472
 20
178.098266848
 11
135.2200849472
 21
179.2754561981
  0
LINE
  5
2B6
100
AcDbEntity
  8
0
100
AcDbLine
 62
7
  6
CONTINUOUS
 10
135.9451361118
 20
173.629834945
 11
135.9451361118
 21
174.5055987021
  0
LINE
  5
2B7
100
AcDbEntity
  8
0
100
AcDbLine
 62
7
  6
CONTINUOUS
 10
135.9451361118
 20
177.2265764555
 11
135.9451361118
 21
178.098266848
  0
LINE
  5
2B8
100
AcDbEntity
  8
0
100
AcDbLine
 62
7
  6
CONTINUOUS
 10
107.930377907
 20
178.9366820203
 11
108.3053780858
 21
179.3196607315
  0
LINE
  5
2B9
100
AcDbEntity
  8
0
100
AcDbLine
 62
7
  6
CONTINUOUS
 10
112.430377907
 20
178.9366820203
 11
112.8053775493
 21
179.3196607315
  0
LINE
  5
2BA
100
AcDbEntity
  8
0
100
AcDbLine
 62
7
  6
CONTINUOUS
 10
107.7428780858
 20
179.5111501375
 11
107.4616280858
 21
179.3196607315
  0
LINE
  5
2BB
100
AcDbEntity
  8
0
100
AcDbLine
 62
7
  6
CONTINUOUS
 10
112.2428775493
 20
179.5111501375
 11
111.9616275493
 21
179.3196607315
  0
LINE
  5
2BC
100
AcDbEntity
  8
0
100
AcDbLine
 62
7
  6
CONTINUOUS
 10
103.6178779964
 20
180.8515756437
 11
103.992877907
 21
181.0430649826
  0
LINE
  5
2BD
100
AcDbEntity
  8
0
100
AcDbLine
 62
7
  6
CONTINUOUS
 10
145.889127907
 20
170.8125937289
 11
145.889127907
 21
186.2951307651
  0
LINE
  5
2BE
100
AcDbEntity
  8
0
100
AcDbLine
 62
7
  6
CONTINUOUS
 10
129.6925901292
 20
175.8823807916
 11
131.1182520805
 21
178.32229925
  0
LINE
  5
2BF
100
AcDbEntity
  8
0
100
AcDbLine
 62
7
  6
CONTINUOUS
 10
131.0001258073
 20
179.5157821259
 11
128.8331197022
 21
176.0005070647
  0
LINE
  5
2C0
100
AcDbEntity
  8
0
100
AcDbLine
 62
7
  6
CONTINUOUS
 10
107.5553777282
 20
178.7451926562
 11
107.930377907
 21
178.9366820203
  0
LINE
  5
2C1
100
AcDbEntity
  8
0
100
AcDbLine
 62
7
  6
CONTINUOUS
 10
112.0553782646
 20
178.7451926562
 11
112.430377907
 21
178.9366820203
  0
LINE
  5
2C2
100
AcDbEntity
  8
0
100
AcDbLine
 62
7
  6
CONTINUOUS
 10
103.2428778176
 20
181.2345543214
 11
103.5241278176
 21
181.3302989909
  0
LWPOLYLINE
  5
2C3
100
AcDbEntity
  8
RUNDUNGEN
100
AcDbPolyline
 62
7
  6
CONTINUOUS
 90
8
 70
0
 10
169.8940867657
 20
181.2157260488
 10
169.9273712674
 20
180.6494488599
 10
169.9627269223
 20
179.9449821858
 10
169.9929549501
 20
179.2154527418
 10
170.0178093328
 20
178.464675734
 10
170.0371262037
 20
177.6965432139
 10
170.0507455956
 20
176.9150530197
 10
170.0585498456
 20
176.1242543735
  0
LINE
  5
2C4
100
AcDbEntity
  8
RUNDUNGEN
100
AcDbLine
 62
7
  6
CONTINUOUS
 10
133.7285199203
 20
244.6146536412
 11
158.061214935
 21
234.535721357
  0
LINE
  5
2C5
100
AcDbEntity
  8
RUNDUNGEN
100
AcDbLine
 62
7
  6
CONTINUOUS
 10
159.9554012855
 20
232.6415350065
 11
170.2489656697
 21
207.7906722652
  0
LINE
  5
2C6
100
AcDbEntity
  8
RUNDUNGEN
100
AcDbLine
 62
7
  6
CONTINUOUS
 10
168.4148288094
 20
184.8614968384
 11
168.7036228593
 21
182.8066203999
  0
LINE
  5
2C7
100
AcDbEntity
  8
RUNDUNGEN
100
AcDbLine
 62
7
  6
CONTINUOUS
 10
169.889127907
 20
181.373109797
 11
169.889127907
 21
191.1929166913
  0
LINE
  5
2C8
100
AcDbEntity
  8
RUNDUNGEN
100
AcDbLine
 62
7
  6
CONTINUOUS
 10
170.0605549588
 20
165.9694479784
 11
170.0585498456
 21
176.1242543735
  0
LINE
  5
2C9
100
AcDbEntity
  8
BEZUGSACHSEN
100
AcDbLine
 62
7
  6
CONTINUOUS
 10
168.5759496557
 20
187.8153363842
 11
168.3935592554
 21
186.0800076434
  0
LINE
  5
2CA
100
AcDbEntity
  8
RUNDUNGEN
100
AcDbLine
 62
7
  6
CONTINUOUS
 10
170.4962139397
 20
206.0854306304
 11
168.3935592554
 21
186.0800076434
  0
LINE
  5
2CB
100
AcDbEntity
  8
0
100
AcDbLine
 62
7
  6
CONTINUOUS
 10
174.7422598023
 20
193.4593632619
 11
174.7736183412
 21
193.7577198305
  0
LINE
  5
2CC
100
AcDbEntity
  8
0
100
AcDbLine
 62
7
  6
CONTINUOUS
 10
174.9080137676
 20
193.4419418181
 11
174.9393723066
 21
193.7402983868
  0
LINE
  5
2CD
100
AcDbEntity
  8
0
100
AcDbLine
 62
7
  6
CONTINUOUS
 10
174.9908902761
 20
193.4332311461
 11
175.0222488151
 21
193.7315877147
  0
LINE
  5
2CE
100
AcDbEntity
  8
0
100
AcDbLine
 62
7
  6
CONTINUOUS
 10
175.073767733
 20
193.4245203744
 11
175.105126272
 21
193.722876943
  0
LINE
  5
2CF
100
AcDbEntity
  8
0
100
AcDbLine
 62
7
  6
CONTINUOUS
 10
175.3223982069
 20
193.3983882586
 11
175.3537567458
 21
193.6967448272
  0
LINE
  5
2D0
100
AcDbEntity
  8
0
100
AcDbLine
 62
7
  6
CONTINUOUS
 10
175.6539051892
 20
193.3635454707
 11
175.6852637281
 21
193.6619020393
  0
LINE
  5
2D1
100
AcDbEntity
  8
0
100
AcDbLine
 62
7
  6
CONTINUOUS
 10
176.0682896284
 20
193.3199919111
 11
176.0996481674
 21
193.6183484797
  0
LINE
  5
2D2
100
AcDbEntity
  8
0
100
AcDbLine
 62
7
  6
CONTINUOUS
 10
176.4826731191
 20
193.2764384512
 11
176.5140316581
 21
193.5747950198
  0
LINE
  5
2D3
100
AcDbEntity
  8
0
100
AcDbLine
 62
7
  6
CONTINUOUS
 10
176.8141810499
 20
193.2415955637
 11
176.8455395889
 21
193.5399521323
  0
LINE
  5
2D4
100
AcDbEntity
  8
0
100
AcDbLine
 62
7
  6
CONTINUOUS
 10
177.1456880322
 20
193.2067527758
 11
177.1770465712
 21
193.5051093444
  0
LINE
  5
2D5
100
AcDbEntity
  8
0
100
AcDbLine
 62
7
  6
CONTINUOUS
 10
177.4771950145
 20
193.1719099879
 11
177.5085535535
 21
193.4702665565
  0
LINE
  5
2D6
100
AcDbEntity
  8
0
100
AcDbLine
 62
7
  6
CONTINUOUS
 10
177.5600724714
 20
193.1631992162
 11
177.5914310104
 21
193.4615557848
  0
LINE
  5
2D7
100
AcDbEntity
  8
0
100
AcDbLine
 62
7
  6
CONTINUOUS
 10
177.8087029453
 20
193.1370671004
 11
177.8400614843
 21
193.435423669
  0
LINE
  5
2D8
100
AcDbEntity
  8
0
100
AcDbLine
 62
7
  6
CONTINUOUS
 10
178.4717169099
 20
193.0673815247
 11
178.5030754489
 21
193.3657380933
  0
LINE
  5
2D9
100
AcDbEntity
  8
0
100
AcDbLine
 62
7
  6
CONTINUOUS
 10
178.5545943668
 20
193.0586707529
 11
178.5859529058
 21
193.3570273215
  0
LINE
  5
2DA
100
AcDbEntity
  8
0
100
AcDbLine
 62
7
  6
CONTINUOUS
 10
178.8032248406
 20
193.0325386371
 11
178.8345833796
 21
193.3308952057
  0
LINE
  5
2DB
100
AcDbEntity
  8
0
100
AcDbLine
 62
7
  6
CONTINUOUS
 10
179.1347318229
 20
192.9976958493
 11
179.1660903619
 21
193.2960524179
  0
LINE
  5
2DC
100
AcDbEntity
  8
0
100
AcDbLine
 62
7
  6
CONTINUOUS
 10
179.5491162622
 20
192.9541422897
 11
179.5804748011
 21
193.2524988583
  0
LINE
  5
2DD
100
AcDbEntity
  8
0
100
AcDbLine
 62
7
  6
CONTINUOUS
 10
181.5381595787
 20
192.745085413
 11
181.5695181177
 21
193.0434419816
  0
LINE
  5
2DE
100
AcDbEntity
  8
0
100
AcDbLine
 62
7
  6
CONTINUOUS
 10
181.5729678924
 20
192.7414269118
 11
181.6043264314
 21
193.0397834804
  0
LINE
  5
2DF
100
AcDbEntity
  8
0
100
AcDbLine
 62
7
  6
CONTINUOUS
 10
181.8630369999
 20
192.7109394201
 11
181.8943955389
 21
193.0092959887
  0
LINE
  5
2E0
100
AcDbEntity
  8
0
100
AcDbLine
 62
7
  6
CONTINUOUS
 10
182.2011744917
 20
192.6753997376
 11
182.2325330307
 21
192.9737563062
  0
LINE
  5
2E1
100
AcDbEntity
  8
0
100
AcDbLine
 62
7
  6
CONTINUOUS
 10
182.2840510002
 20
192.6666890655
 11
182.3154095392
 21
192.9650456341
  0
LINE
  5
2E2
100
AcDbEntity
  8
0
100
AcDbLine
 62
7
  6
CONTINUOUS
 10
182.3669279829
 20
192.6579783436
 11
182.3982865219
 21
192.9563349123
  0
LINE
  5
2E3
100
AcDbEntity
  8
0
100
AcDbLine
 62
7
  6
CONTINUOUS
 10
182.6155584567
 20
192.6318462278
 11
182.6469169957
 21
192.9302027964
  0
LINE
  5
2E4
100
AcDbEntity
  8
0
100
AcDbLine
 62
7
  6
CONTINUOUS
 10
182.9470659133
 20
192.5970033901
 11
182.9784244522
 21
192.8953599587
  0
LINE
  5
2E5
100
AcDbEntity
  8
0
100
AcDbLine
 62
7
  6
CONTINUOUS
 10
183.3614498783
 20
192.5534498804
 11
183.3928084172
 21
192.851806449
  0
LINE
  5
2E6
100
AcDbEntity
  8
0
100
AcDbLine
 62
7
  6
CONTINUOUS
 10
185.350493669
 20
192.3443929538
 11
185.381852208
 21
192.6427495224
  0
LINE
  5
2E7
100
AcDbEntity
  8
0
100
AcDbLine
 62
7
  6
CONTINUOUS
 10
186.0135083449
 20
192.2747073034
 11
186.0448668839
 21
192.573063872
  0
LINE
  5
2E8
100
AcDbEntity
  8
0
100
AcDbLine
 62
7
  6
CONTINUOUS
 10
186.5107692926
 20
192.2224430717
 11
186.5421278316
 21
192.5207996403
  0
LINE
  5
2E9
100
AcDbEntity
  8
0
100
AcDbLine
 62
7
  6
CONTINUOUS
 10
187.6710447977
 20
192.1004932021
 11
187.7024033367
 21
192.3988497707
  0
LINE
  5
2EA
100
AcDbEntity
  8
0
100
AcDbLine
 62
7
  6
CONTINUOUS
 10
188.8313203028
 20
191.9785433324
 11
188.8626788418
 21
192.276899901
  0
LINE
  5
2EB
100
AcDbEntity
  8
RUNDUNGEN
100
AcDbLine
 62
7
  6
CONTINUOUS
 10
196.3915461324
 20
186.0226008648
 11
199.889127907
 21
172.9694479784
  0
LINE
  5
2EC
100
AcDbEntity
  8
0
100
AcDbLine
 62
7
  6
CONTINUOUS
 10
189.3285812505
 20
191.9262791008
 11
189.3599397895
 21
192.2246356694
  0
LINE
  5
2ED
100
AcDbEntity
  8
RUNDUNGEN
100
AcDbLine
 62
7
  6
CONTINUOUS
 10
199.889127907
 20
172.9694479784
 11
199.889127907
 21
165.9694479784
  0
LINE
  5
2EE
100
AcDbEntity
  8
B-ACHSEN
100
AcDbLine
 62
7
  6
CONTINUOUS
 10
231.4638755264
 20
165.9694479784
 11
243.4625789052
 21
165.9694479784
  0
LINE
  5
2EF
100
AcDbEntity
  8
0
100
AcDbLine
 62
7
  6
CONTINUOUS
 10
243.4625789052
 20
165.9694479784
 11
255.4636862929
 21
165.9694479784
  0
LINE
  5
2F0
100
AcDbEntity
  8
0
100
AcDbLine
 62
7
  6
CONTINUOUS
 10
269.4636862929
 20
165.9694479784
 11
281.4647936806
 21
165.9694479784
  0
LINE
  5
2F1
100
AcDbEntity
  8
B-ACHSEN
100
AcDbLine
 62
7
  6
CONTINUOUS
 10
281.4647936806
 20
165.9694479784
 11
293.4634970595
 21
165.9694479784
  0
LINE
  5
2F2
100
AcDbEntity
  8
0
100
AcDbLine
 62
7
  6
CONTINUOUS
 10
255.4636862929
 20
170.9694479784
 11
269.4636862929
 21
170.9694479784
  0
LINE
  5
2F3
100
AcDbEntity
  8
B-ACHSEN
100
AcDbLine
 62
7
  6
CONTINUOUS
 10
231.4636862929
 20
173.5276624912
 11
231.4636862929
 21
165.9694479784
  0
LINE
  5
2F4
100
AcDbEntity
  8
RUNDUNGEN
100
AcDbLine
 62
7
  6
CONTINUOUS
 10
244.9551364116
 20
172.9694479784
 11
279.9722361742
 21
172.9694479784
  0
LINE
  5
2F5
100
AcDbEntity
  8
RUNDUNGEN
100
AcDbLine
 62
7
  6
CONTINUOUS
 10
243.4625789052
 20
167.975253225
 11
243.4625789052
 21
165.9694479784
  0
LINE
  5
2F6
100
AcDbEntity
  8
0
100
AcDbLine
 62
7
  6
CONTINUOUS
 10
267.2647501274
 20
193.0397834804
 11
267.3392182102
 21
193.0580759615
  0
LINE
  5
2F7
100
AcDbEntity
  8
0
100
AcDbLine
 62
7
  6
CONTINUOUS
 10
261.9530479963
 20
192.3988497707
 11
258.4636862929
 21
192.276899901
  0
LINE
  5
2F8
100
AcDbEntity
  8
0
100
AcDbLine
 62
7
  6
CONTINUOUS
 10
258.4636862929
 20
191.9262791008
 11
262.4636862929
 21
192.0656503893
  0
LINE
  5
2F9
100
AcDbEntity
  8
0
100
AcDbLine
 62
7
  6
CONTINUOUS
 10
258.4636862929
 20
192.2246356694
 11
262.4636862929
 21
192.3640069579
  0
LINE
  5
2FA
100
AcDbEntity
  8
0
100
AcDbLine
 62
7
  6
CONTINUOUS
 10
265.9243245597
 20
192.369479785
 11
266.3711331214
 21
192.369479785
  0
LINE
  5
2FB
100
AcDbEntity
  8
0
100
AcDbLine
 62
7
  6
CONTINUOUS
 10
258.4636862929
 20
192.5207996403
 11
261.9530479963
 21
192.3988497707
  0
LINE
  5
2FC
100
AcDbEntity
  8
0
100
AcDbLine
 62
7
  6
CONTINUOUS
 10
262.4636862929
 20
192.4336925959
 11
258.4636862929
 21
192.573063872
  0
LINE
  5
2FD
100
AcDbEntity
  8
0
100
AcDbLine
 62
7
  6
CONTINUOUS
 10
260.5062394793
 20
193.3308952057
 11
260.4211331065
 21
193.3134738616
  0
LINE
  5
2FE
100
AcDbEntity
  8
0
100
AcDbLine
 62
7
  6
CONTINUOUS
 10
260.4211331065
 20
193.5051093444
 11
260.5913458522
 21
193.5399521323
  0
LINE
  5
2FF
100
AcDbEntity
  8
0
100
AcDbLine
 62
7
  6
CONTINUOUS
 10
260.4211331065
 20
193.7054555989
 11
260.2509203608
 21
193.6706127114
  0
LINE
  5
300
100
AcDbEntity
  8
0
100
AcDbLine
 62
7
  6
CONTINUOUS
 10
262.1232607718
 20
193.4702665565
 11
262.3785799126
 21
193.5138200165
  0
LINE
  5
301
100
AcDbEntity
  8
0
100
AcDbLine
 62
7
  6
CONTINUOUS
 10
260.7615585978
 20
193.3635454707
 11
260.9317713435
 21
193.3896775865
  0
LINE
  5
302
100
AcDbEntity
  8
0
100
AcDbLine
 62
7
  6
CONTINUOUS
 10
260.0807076152
 20
193.548662904
 11
259.9104948695
 21
193.5225307882
  0
LINE
  5
303
100
AcDbEntity
  8
0
100
AcDbLine
 62
7
  6
CONTINUOUS
 10
260.7615585978
 20
193.6619020393
 11
260.9317713435
 21
193.6880341551
  0
LINE
  5
304
100
AcDbEntity
  8
0
100
AcDbLine
 62
7
  6
CONTINUOUS
 10
258.8041117843
 20
192.9302027964
 11
258.5487926658
 21
192.8953599587
  0
LINE
  5
305
100
AcDbEntity
  8
0
100
AcDbLine
 62
7
  6
CONTINUOUS
 10
258.8041117843
 20
193.3308952057
 11
258.5487926658
 21
193.2960524179
  0
LINE
  5
306
100
AcDbEntity
  8
0
100
AcDbLine
 62
7
  6
CONTINUOUS
 10
258.8041117843
 20
193.6967448272
 11
258.5487926658
 21
193.6619020393
  0
LINE
  5
307
100
AcDbEntity
  8
0
100
AcDbLine
 62
7
  6
CONTINUOUS
 10
267.1158139619
 20
193.0214909993
 11
267.2647501274
 21
193.0397834804
  0
LINE
  5
308
100
AcDbEntity
  8
0
100
AcDbLine
 62
7
  6
CONTINUOUS
 10
267.0413458596
 20
193.0641734319
 11
266.8924097072
 21
193.0458809508
  0
LINE
  5
309
100
AcDbEntity
  8
0
100
AcDbLine
 62
7
  6
CONTINUOUS
 10
258.9743245299
 20
192.8866492867
 11
259.1445372756
 21
192.9040706806
  0
LINE
  5
30A
100
AcDbEntity
  8
0
100
AcDbLine
 62
7
  6
CONTINUOUS
 10
260.7615585978
 20
193.2873417458
 11
260.9317713435
 21
193.3047630899
  0
LINE
  5
30B
100
AcDbEntity
  8
0
100
AcDbLine
 62
7
  6
CONTINUOUS
 10
261.8679416235
 20
193.5225307882
 11
261.6126224454
 21
193.4963986724
  0
LINE
  5
30C
100
AcDbEntity
  8
0
100
AcDbLine
 62
7
  6
CONTINUOUS
 10
259.0594309028
 20
193.2873417458
 11
259.2296436484
 21
193.3047630899
  0
LINE
  5
30D
100
AcDbEntity
  8
0
100
AcDbLine
 62
7
  6
CONTINUOUS
 10
260.0807076152
 20
193.4702665565
 11
260.4211331065
 21
193.5051093444
  0
LINE
  5
30E
100
AcDbEntity
  8
0
100
AcDbLine
 62
7
  6
CONTINUOUS
 10
260.7615585978
 20
193.7402983868
 11
260.4211331065
 21
193.7054555989
  0
LINE
  5
30F
100
AcDbEntity
  8
0
100
AcDbLine
 62
7
  6
CONTINUOUS
 10
259.0594309028
 20
193.6531913673
 11
259.2296436484
 21
193.6706127114
  0
LINE
  5
310
100
AcDbEntity
  8
0
100
AcDbLine
 62
7
  6
CONTINUOUS
 10
259.1445372756
 20
192.9563349123
 11
258.8041117843
 21
192.9302027964
  0
LINE
  5
311
100
AcDbEntity
  8
0
100
AcDbLine
 62
7
  6
CONTINUOUS
 10
260.8466649707
 20
193.3570273215
 11
260.5062394793
 21
193.3308952057
  0
LINE
  5
312
100
AcDbEntity
  8
0
100
AcDbLine
 62
7
  6
CONTINUOUS
 10
259.1445372756
 20
193.3570273215
 11
258.8041117843
 21
193.3308952057
  0
LINE
  5
313
100
AcDbEntity
  8
0
100
AcDbLine
 62
7
  6
CONTINUOUS
 10
259.1445372756
 20
193.722876943
 11
258.8041117843
 21
193.6967448272
  0
LINE
  5
314
100
AcDbEntity
  8
0
100
AcDbLine
 62
7
  6
CONTINUOUS
 10
260.9317713435
 20
193.3896775865
 11
261.1870905812
 21
193.4070990303
  0
LINE
  5
315
100
AcDbEntity
  8
0
100
AcDbLine
 62
7
  6
CONTINUOUS
 10
260.9317713435
 20
193.6880341551
 11
261.1870905812
 21
193.7054555989
  0
LINE
  5
316
100
AcDbEntity
  8
0
100
AcDbLine
 62
7
  6
CONTINUOUS
 10
261.6977288182
 20
193.4441344407
 11
262.1232607718
 21
193.4702665565
  0
LINE
  5
317
100
AcDbEntity
  8
0
100
AcDbLine
 62
7
  6
CONTINUOUS
 10
261.1019842084
 20
193.7577198305
 11
260.7615585978
 21
193.7402983868
  0
LINE
  5
318
100
AcDbEntity
  8
0
100
AcDbLine
 62
7
  6
CONTINUOUS
 10
259.2296436484
 20
193.6706127114
 11
259.3998563941
 21
193.6793234831
  0
LINE
  5
319
100
AcDbEntity
  8
0
100
AcDbLine
 62
7
  6
CONTINUOUS
 10
266.8179416309
 20
193.0092959887
 11
267.1158139619
 21
193.0214909993
  0
LINE
  5
31A
100
AcDbEntity
  8
0
100
AcDbLine
 62
7
  6
CONTINUOUS
 10
262.4636862929
 20
192.9737563062
 11
260.5062394793
 21
192.8953599587
  0
LINE
  5
31B
100
AcDbEntity
  8
0
100
AcDbLine
 62
7
  6
CONTINUOUS
 10
260.676452225
 20
192.8430957271
 11
262.4636862929
 21
192.9127814025
  0
LINE
  5
31C
100
AcDbEntity
  8
0
100
AcDbLine
 62
7
  6
CONTINUOUS
 10
259.1445372756
 20
192.9040706806
 11
259.3998563941
 21
192.9127814025
  0
LINE
  5
31D
100
AcDbEntity
  8
0
100
AcDbLine
 62
7
  6
CONTINUOUS
 10
259.3998563941
 20
192.9650456341
 11
259.1445372756
 21
192.9563349123
  0
LINE
  5
31E
100
AcDbEntity
  8
0
100
AcDbLine
 62
7
  6
CONTINUOUS
 10
260.9317713435
 20
193.3047630899
 11
261.1870905812
 21
193.3134738616
  0
LINE
  5
31F
100
AcDbEntity
  8
0
100
AcDbLine
 62
7
  6
CONTINUOUS
 10
261.1019842084
 20
193.3657380933
 11
260.8466649707
 21
193.3570273215
  0
LINE
  5
320
100
AcDbEntity
  8
0
100
AcDbLine
 62
7
  6
CONTINUOUS
 10
259.2296436484
 20
193.3047630899
 11
259.4849630053
 21
193.3134738616
  0
LINE
  5
321
100
AcDbEntity
  8
0
100
AcDbLine
 62
7
  6
CONTINUOUS
 10
259.3998563941
 20
193.3657380933
 11
259.1445372756
 21
193.3570273215
  0
LINE
  5
322
100
AcDbEntity
  8
0
100
AcDbLine
 62
7
  6
CONTINUOUS
 10
261.6126224454
 20
193.4963986724
 11
261.3573033269
 21
193.4876879006
  0
LINE
  5
323
100
AcDbEntity
  8
0
100
AcDbLine
 62
7
  6
CONTINUOUS
 10
259.9104948695
 20
193.5225307882
 11
259.655175751
 21
193.5138200165
  0
LINE
  5
324
100
AcDbEntity
  8
0
100
AcDbLine
 62
7
  6
CONTINUOUS
 10
259.3998563941
 20
193.7315877147
 11
259.1445372756
 21
193.722876943
  0
LINE
  5
325
100
AcDbEntity
  8
0
100
AcDbLine
 62
7
  6
CONTINUOUS
 10
266.8924097072
 20
193.0458809508
 11
266.6690054263
 21
193.0397834804
  0
LINE
  5
326
100
AcDbEntity
  8
0
100
AcDbLine
 62
7
  6
CONTINUOUS
 10
261.3573033269
 20
193.435423669
 11
261.6977288182
 21
193.4441344407
  0
LINE
  5
327
100
AcDbEntity
  8
0
100
AcDbLine
 62
7
  6
CONTINUOUS
 10
259.7402821238
 20
193.4615557848
 11
260.0807076152
 21
193.4702665565
  0
LINE
  5
328
100
AcDbEntity
  8
0
100
AcDbLine
 62
7
  6
CONTINUOUS
 10
266.3711331214
 20
192.5158196336
 11
267.4136862929
 21
192.5158196336
  0
LINE
  5
329
100
AcDbEntity
  8
0
100
AcDbLine
 62
7
  6
CONTINUOUS
 10
258.4636862929
 20
192.6427495224
 11
262.4636862929
 21
192.6427495224
  0
LINE
  5
32A
100
AcDbEntity
  8
0
100
AcDbLine
 62
7
  6
CONTINUOUS
 10
265.9243245597
 20
192.6678363536
 11
266.3711331214
 21
192.6678363536
  0
LINE
  5
32B
100
AcDbEntity
  8
0
100
AcDbLine
 62
7
  6
CONTINUOUS
 10
262.4636862929
 20
192.6950137541
 11
260.676452225
 21
192.6950137541
  0
LINE
  5
32C
100
AcDbEntity
  8
0
100
AcDbLine
 62
7
  6
CONTINUOUS
 10
260.165813988
 20
192.6950137541
 11
258.8892181571
 21
192.6950137541
  0
LINE
  5
32D
100
AcDbEntity
  8
0
100
AcDbLine
 62
7
  6
CONTINUOUS
 10
264.5094309028
 20
192.8141762022
 11
265.9243245597
 21
192.8141762022
  0
LINE
  5
32E
100
AcDbEntity
  8
0
100
AcDbLine
 62
7
  6
CONTINUOUS
 10
266.3711331214
 20
192.8141762022
 11
267.4136862929
 21
192.8141762022
  0
LINE
  5
32F
100
AcDbEntity
  8
0
100
AcDbLine
 62
7
  6
CONTINUOUS
 10
267.4136862929
 20
192.8507611644
 11
266.3711331214
 21
192.8507611644
  0
LINE
  5
330
100
AcDbEntity
  8
0
100
AcDbLine
 62
7
  6
CONTINUOUS
 10
265.9243245597
 20
192.8507611644
 11
263.9136862929
 21
192.8507611644
  0
LINE
  5
331
100
AcDbEntity
  8
0
100
AcDbLine
 62
7
  6
CONTINUOUS
 10
266.3711331214
 20
192.9117360954
 11
265.9243245597
 21
192.9117360954
  0
LINE
  5
332
100
AcDbEntity
  8
0
100
AcDbLine
 62
7
  6
CONTINUOUS
 10
259.3998563941
 20
192.9127814025
 11
259.655175751
 21
192.9127814025
  0
LINE
  5
333
100
AcDbEntity
  8
0
100
AcDbLine
 62
7
  6
CONTINUOUS
 10
265.030707645
 20
192.9605160508
 11
265.3285799499
 21
192.9605160508
  0
LINE
  5
334
100
AcDbEntity
  8
0
100
AcDbLine
 62
7
  6
CONTINUOUS
 10
259.7402821238
 20
192.9650456341
 11
259.3998563941
 21
192.9650456341
  0
LINE
  5
335
100
AcDbEntity
  8
0
100
AcDbLine
 62
7
  6
CONTINUOUS
 10
264.4349628265
 20
193.0092959887
 11
265.030707645
 21
193.0092959887
  0
LINE
  5
336
100
AcDbEntity
  8
0
100
AcDbLine
 62
7
  6
CONTINUOUS
 10
265.3285799499
 20
193.0092959887
 11
266.8179416309
 21
193.0092959887
  0
LINE
  5
337
100
AcDbEntity
  8
0
100
AcDbLine
 62
7
  6
CONTINUOUS
 10
266.6690054263
 20
193.0397834804
 11
265.3285799499
 21
193.0397834804
  0
LINE
  5
338
100
AcDbEntity
  8
0
100
AcDbLine
 62
7
  6
CONTINUOUS
 10
265.030707645
 20
193.0397834804
 11
264.4349628265
 21
193.0397834804
  0
LINE
  5
339
100
AcDbEntity
  8
0
100
AcDbLine
 62
7
  6
CONTINUOUS
 10
258.4636862929
 20
193.0434419816
 11
262.4636862929
 21
193.0434419816
  0
LINE
  5
33A
100
AcDbEntity
  8
0
100
AcDbLine
 62
7
  6
CONTINUOUS
 10
267.4136862929
 20
193.0946609236
 11
267.1158139619
 21
193.0946609236
  0
LINE
  5
33B
100
AcDbEntity
  8
0
100
AcDbLine
 62
7
  6
CONTINUOUS
 10
261.9530479963
 20
193.0957061634
 11
260.676452225
 21
193.0957061634
  0
LINE
  5
33C
100
AcDbEntity
  8
0
100
AcDbLine
 62
7
  6
CONTINUOUS
 10
260.165813988
 20
193.0957061634
 11
258.9743245299
 21
193.0957061634
  0
LINE
  5
33D
100
AcDbEntity
  8
0
100
AcDbLine
 62
7
  6
CONTINUOUS
 10
265.3285799499
 20
193.1068558994
 11
265.030707645
 21
193.1068558994
  0
LINE
  5
33E
100
AcDbEntity
  8
0
100
AcDbLine
 62
7
  6
CONTINUOUS
 10
259.4849630053
 20
193.3134738616
 11
259.655175751
 21
193.3134738616
  0
LINE
  5
33F
100
AcDbEntity
  8
0
100
AcDbLine
 62
7
  6
CONTINUOUS
 10
261.1870905812
 20
193.3134738616
 11
261.4424096997
 21
193.3134738616
  0
LINE
  5
340
100
AcDbEntity
  8
0
100
AcDbLine
 62
7
  6
CONTINUOUS
 10
261.5275160725
 20
193.3657380933
 11
261.1019842084
 21
193.3657380933
  0
LINE
  5
341
100
AcDbEntity
  8
0
100
AcDbLine
 62
7
  6
CONTINUOUS
 10
259.7402821238
 20
193.3657380933
 11
259.3998563941
 21
193.3657380933
  0
LINE
  5
342
100
AcDbEntity
  8
0
100
AcDbLine
 62
7
  6
CONTINUOUS
 10
261.1870905812
 20
193.4070990303
 11
261.3573033269
 21
193.4070990303
  0
LINE
  5
343
100
AcDbEntity
  8
0
100
AcDbLine
 62
7
  6
CONTINUOUS
 10
259.3998563941
 20
193.4615557848
 11
259.7402821238
 21
193.4615557848
  0
LINE
  5
344
100
AcDbEntity
  8
0
100
AcDbLine
 62
7
  6
CONTINUOUS
 10
259.655175751
 20
193.5138200165
 11
259.4849630053
 21
193.5138200165
  0
LINE
  5
345
100
AcDbEntity
  8
RUNDUNGEN
100
AcDbLine
 62
7
  6
CONTINUOUS
 10
259.5018403088
 20
193.6929166913
 11
260.3598786574
 21
193.6929166913
  0
LINE
  5
346
100
AcDbEntity
  8
RUNDUNGEN
100
AcDbLine
 62
7
  6
CONTINUOUS
 10
262.2696216018
 20
193.6929166913
 11
265.425532277
 21
193.6929166913
  0
LINE
  5
347
100
AcDbEntity
  8
0
100
AcDbLine
 62
7
  6
CONTINUOUS
 10
261.1870905812
 20
193.7054555989
 11
261.4424096997
 21
193.7054555989
  0
LINE
  5
348
100
AcDbEntity
  8
0
100
AcDbLine
 62
7
  6
CONTINUOUS
 10
261.5275160725
 20
193.7577198305
 11
261.1019842084
 21
193.7577198305
  0
LINE
  5
349
100
AcDbEntity
  8
0
100
AcDbLine
 62
7
  6
CONTINUOUS
 10
259.0594309028
 20
193.4702665565
 11
259.3998563941
 21
193.4615557848
  0
LINE
  5
34A
100
AcDbEntity
  8
0
100
AcDbLine
 62
7
  6
CONTINUOUS
 10
259.655175751
 20
192.9127814025
 11
259.9104948695
 21
192.9040706806
  0
LINE
  5
34B
100
AcDbEntity
  8
0
100
AcDbLine
 62
7
  6
CONTINUOUS
 10
259.9956012423
 20
192.9563349123
 11
259.7402821238
 21
192.9650456341
  0
LINE
  5
34C
100
AcDbEntity
  8
0
100
AcDbLine
 62
7
  6
CONTINUOUS
 10
259.655175751
 20
193.3134738616
 11
259.9104948695
 21
193.3047630899
  0
LINE
  5
34D
100
AcDbEntity
  8
0
100
AcDbLine
 62
7
  6
CONTINUOUS
 10
259.9956012423
 20
193.3570273215
 11
259.7402821238
 21
193.3657380933
  0
LINE
  5
34E
100
AcDbEntity
  8
0
100
AcDbLine
 62
7
  6
CONTINUOUS
 10
261.4424096997
 20
193.3134738616
 11
261.6977288182
 21
193.3047630899
  0
LINE
  5
34F
100
AcDbEntity
  8
0
100
AcDbLine
 62
7
  6
CONTINUOUS
 10
261.7828352506
 20
193.3570273215
 11
261.5275160725
 21
193.3657380933
  0
LINE
  5
350
100
AcDbEntity
  8
0
100
AcDbLine
 62
7
  6
CONTINUOUS
 10
259.4849630053
 20
193.5138200165
 11
259.2296436484
 21
193.5225307882
  0
LINE
  5
351
100
AcDbEntity
  8
0
100
AcDbLine
 62
7
  6
CONTINUOUS
 10
261.8679416235
 20
193.7402983868
 11
261.5275160725
 21
193.7577198305
  0
LINE
  5
352
100
AcDbEntity
  8
0
100
AcDbLine
 62
7
  6
CONTINUOUS
 10
261.4424096997
 20
193.7054555989
 11
261.6977288182
 21
193.6880341551
  0
LINE
  5
353
100
AcDbEntity
  8
0
100
AcDbLine
 62
7
  6
CONTINUOUS
 10
263.9136862929
 20
192.5158196336
 11
265.9243245597
 21
192.369479785
  0
LINE
  5
354
100
AcDbEntity
  8
0
100
AcDbLine
 62
7
  6
CONTINUOUS
 10
263.9136862929
 20
192.8141762022
 11
265.9243245597
 21
192.6678363536
  0
LINE
  5
355
100
AcDbEntity
  8
0
100
AcDbLine
 62
7
  6
CONTINUOUS
 10
265.9243245597
 20
192.710518808
 11
264.5094309028
 21
192.8141762022
  0
LINE
  5
356
100
AcDbEntity
  8
0
100
AcDbLine
 62
7
  6
CONTINUOUS
 10
260.3360267337
 20
192.9302027964
 11
259.9956012423
 21
192.9563349123
  0
LINE
  5
357
100
AcDbEntity
  8
0
100
AcDbLine
 62
7
  6
CONTINUOUS
 10
260.3360267337
 20
193.3308952057
 11
259.9956012423
 21
193.3570273215
  0
LINE
  5
358
100
AcDbEntity
  8
0
100
AcDbLine
 62
7
  6
CONTINUOUS
 10
262.1232607718
 20
193.3308952057
 11
261.7828352506
 21
193.3570273215
  0
LINE
  5
359
100
AcDbEntity
  8
0
100
AcDbLine
 62
7
  6
CONTINUOUS
 10
259.9104948695
 20
192.9040706806
 11
260.0807076152
 21
192.8866492867
  0
LINE
  5
35A
100
AcDbEntity
  8
0
100
AcDbLine
 62
7
  6
CONTINUOUS
 10
259.9104948695
 20
193.3047630899
 11
260.0807076152
 21
193.2873417458
  0
LINE
  5
35B
100
AcDbEntity
  8
0
100
AcDbLine
 62
7
  6
CONTINUOUS
 10
258.7190054114
 20
193.5051093444
 11
259.0594309028
 21
193.4702665565
  0
LINE
  5
35C
100
AcDbEntity
  8
0
100
AcDbLine
 62
7
  6
CONTINUOUS
 10
261.6977288182
 20
193.3047630899
 11
261.8679416235
 21
193.2873417458
  0
LINE
  5
35D
100
AcDbEntity
  8
0
100
AcDbLine
 62
7
  6
CONTINUOUS
 10
262.2083671446
 20
193.7054555989
 11
261.8679416235
 21
193.7402983868
  0
LINE
  5
35E
100
AcDbEntity
  8
0
100
AcDbLine
 62
7
  6
CONTINUOUS
 10
262.3785799126
 20
193.2960524179
 11
262.1232607718
 21
193.3308952057
  0
LINE
  5
35F
100
AcDbEntity
  8
0
100
AcDbLine
 62
7
  6
CONTINUOUS
 10
259.2296436484
 20
193.5225307882
 11
259.0594309028
 21
193.548662904
  0
LINE
  5
360
100
AcDbEntity
  8
0
100
AcDbLine
 62
7
  6
CONTINUOUS
 10
261.6977288182
 20
193.6880341551
 11
261.8679416235
 21
193.6619020393
  0
LINE
  5
361
100
AcDbEntity
  8
0
100
AcDbLine
 62
7
  6
CONTINUOUS
 10
260.5062394793
 20
192.8953599587
 11
260.3360267337
 21
192.9302027964
  0
LINE
  5
362
100
AcDbEntity
  8
0
100
AcDbLine
 62
7
  6
CONTINUOUS
 10
258.5487926658
 20
193.5399521323
 11
258.7190054114
 21
193.5051093444
  0
LINE
  5
363
100
AcDbEntity
  8
0
100
AcDbLine
 62
7
  6
CONTINUOUS
 10
260.4211331065
 20
193.3134738616
 11
260.3360267337
 21
193.3308952057
  0
LINE
  5
364
100
AcDbEntity
  8
0
100
AcDbLine
 62
7
  6
CONTINUOUS
 10
262.3785799126
 20
193.6706127114
 11
262.2083671446
 21
193.7054555989
  0
LINE
  5
365
100
AcDbEntity
  8
0
100
AcDbLine
 62
7
  6
CONTINUOUS
 10
260.0807076152
 20
192.8866492867
 11
260.165813988
 21
192.8605171709
  0
LINE
  5
366
100
AcDbEntity
  8
0
100
AcDbLine
 62
7
  6
CONTINUOUS
 10
259.0594309028
 20
193.548662904
 11
258.9743245299
 21
193.5747950198
  0
LINE
  5
367
100
AcDbEntity
  8
0
100
AcDbLine
 62
7
  6
CONTINUOUS
 10
260.0807076152
 20
193.2873417458
 11
260.165813988
 21
193.26120963
  0
LINE
  5
368
100
AcDbEntity
  8
0
100
AcDbLine
 62
7
  6
CONTINUOUS
 10
261.8679416235
 20
193.2873417458
 11
261.9530479963
 21
193.26120963
  0
LINE
  5
369
100
AcDbEntity
  8
0
100
AcDbLine
 62
7
  6
CONTINUOUS
 10
258.4636862929
 20
193.2764384512
 11
258.4896748676
 21
193.2657986254
  0
LINE
  5
36A
100
AcDbEntity
  8
0
100
AcDbLine
 62
7
  6
CONTINUOUS
 10
258.4636862929
 20
193.5747950198
 11
258.5487926658
 21
193.5399521323
  0
LINE
  5
36B
100
AcDbEntity
  8
0
100
AcDbLine
 62
7
  6
CONTINUOUS
 10
261.8679416235
 20
193.6619020393
 11
261.9530479963
 21
193.6270592514
  0
LINE
  5
36C
100
AcDbEntity
  8
0
100
AcDbLine
 62
7
  6
CONTINUOUS
 10
262.4636862929
 20
193.2524988583
 11
262.3785799126
 21
193.2960524179
  0
LINE
  5
36D
100
AcDbEntity
  8
0
100
AcDbLine
 62
7
  6
CONTINUOUS
 10
262.4636862929
 20
193.6270592514
 11
262.3785799126
 21
193.6706127114
  0
LINE
  5
36E
100
AcDbEntity
  8
RUNDUNGEN
100
AcDbLine
 62
7
  6
CONTINUOUS
 10
292.213681716
 20
175.6911384574
 11
279.9621545004
 21
182.7645609933
  0
LINE
  5
36F
100
AcDbEntity
  8
0
100
AcDbLine
 62
7
  6
CONTINUOUS
 10
255.4636862929
 20
165.9694479784
 11
255.4636862929
 21
170.9694479784
  0
LINE
  5
370
100
AcDbEntity
  8
BEZUGSACHSEN
100
AcDbLine
 62
7
  6
CONTINUOUS
 10
255.4636862929
 20
195.3875294346
 11
255.4636862929
 21
242.3810752774
  0
LINE
  5
371
100
AcDbEntity
  8
0
100
AcDbLine
 62
7
  6
CONTINUOUS
 10
258.4636862929
 20
191.9262791008
 11
258.4636862929
 21
193.2524988583
  0
LINE
  5
372
100
AcDbEntity
  8
0
100
AcDbLine
 62
7
  6
CONTINUOUS
 10
258.4636862929
 20
193.2764384512
 11
258.4636862929
 21
193.6183484797
  0
LINE
  5
373
100
AcDbEntity
  8
0
100
AcDbLine
 62
7
  6
CONTINUOUS
 10
258.5487926658
 20
193.2960524179
 11
258.5487926658
 21
193.5399521323
  0
LINE
  5
374
100
AcDbEntity
  8
0
100
AcDbLine
 62
7
  6
CONTINUOUS
 10
258.7190054114
 20
193.3192809431
 11
258.7190054114
 21
193.5051093444
  0
LINE
  5
375
100
AcDbEntity
  8
0
100
AcDbLine
 62
7
  6
CONTINUOUS
 10
258.8892181571
 20
192.6950137541
 11
258.8892181571
 21
192.8605171709
  0
LINE
  5
376
100
AcDbEntity
  8
0
100
AcDbLine
 62
7
  6
CONTINUOUS
 10
258.9743245299
 20
192.6950137541
 11
258.9743245299
 21
192.8866492867
  0
LINE
  5
377
100
AcDbEntity
  8
0
100
AcDbLine
 62
7
  6
CONTINUOUS
 10
258.9743245299
 20
193.0957061634
 11
258.9743245299
 21
193.26120963
  0
LINE
  5
378
100
AcDbEntity
  8
0
100
AcDbLine
 62
7
  6
CONTINUOUS
 10
258.9743245299
 20
193.5747950198
 11
258.9743245299
 21
193.6270592514
  0
LINE
  5
379
100
AcDbEntity
  8
0
100
AcDbLine
 62
7
  6
CONTINUOUS
 10
259.0594309028
 20
193.3504942926
 11
259.0594309028
 21
193.4702665565
  0
LINE
  5
37A
100
AcDbEntity
  8
0
100
AcDbLine
 62
7
  6
CONTINUOUS
 10
259.0594309028
 20
193.0957061634
 11
259.0594309028
 21
193.2873417458
  0
LINE
  5
37B
100
AcDbEntity
  8
0
100
AcDbLine
 62
7
  6
CONTINUOUS
 10
259.0594309028
 20
193.548662904
 11
259.0594309028
 21
193.6531913673
  0
LINE
  5
37C
100
AcDbEntity
  8
0
100
AcDbLine
 62
7
  6
CONTINUOUS
 10
259.1445372756
 20
192.6950137541
 11
259.1445372756
 21
192.9040706806
  0
LINE
  5
37D
100
AcDbEntity
  8
0
100
AcDbLine
 62
7
  6
CONTINUOUS
 10
259.2296436484
 20
193.0957061634
 11
259.2296436484
 21
193.3047630899
  0
LINE
  5
37E
100
AcDbEntity
  8
0
100
AcDbLine
 62
7
  6
CONTINUOUS
 10
259.2296436484
 20
193.5225307882
 11
259.2296436484
 21
193.6706127114
  0
LINE
  5
37F
100
AcDbEntity
  8
0
100
AcDbLine
 62
7
  6
CONTINUOUS
 10
259.3998563941
 20
192.6950137541
 11
259.3998563941
 21
192.9127814025
  0
LINE
  5
380
100
AcDbEntity
  8
0
100
AcDbLine
 62
7
  6
CONTINUOUS
 10
259.3998563941
 20
193.3657380933
 11
259.3998563941
 21
193.4615557848
  0
LINE
  5
381
100
AcDbEntity
  8
0
100
AcDbLine
 62
7
  6
CONTINUOUS
 10
259.3998563941
 20
193.5167236124
 11
259.3998563941
 21
193.7315877147
  0
LINE
  5
382
100
AcDbEntity
  8
0
100
AcDbLine
 62
7
  6
CONTINUOUS
 10
259.4849630053
 20
193.0957061634
 11
259.4849630053
 21
193.3134738616
  0
LINE
  5
383
100
AcDbEntity
  8
0
100
AcDbLine
 62
7
  6
CONTINUOUS
 10
259.655175751
 20
192.6950137541
 11
259.655175751
 21
192.9127814025
  0
LINE
  5
384
100
AcDbEntity
  8
0
100
AcDbLine
 62
7
  6
CONTINUOUS
 10
259.655175751
 20
193.0957061634
 11
259.655175751
 21
193.3134738616
  0
LINE
  5
385
100
AcDbEntity
  8
0
100
AcDbLine
 62
7
  6
CONTINUOUS
 10
259.7402821238
 20
193.3657380933
 11
259.7402821238
 21
193.4615557848
  0
LINE
  5
386
100
AcDbEntity
  8
0
100
AcDbLine
 62
7
  6
CONTINUOUS
 10
259.9104948695
 20
192.6950137541
 11
259.9104948695
 21
192.9040706806
  0
LINE
  5
387
100
AcDbEntity
  8
0
100
AcDbLine
 62
7
  6
CONTINUOUS
 10
259.9104948695
 20
193.0957061634
 11
259.9104948695
 21
193.3047630899
  0
LINE
  5
388
100
AcDbEntity
  8
0
100
AcDbLine
 62
7
  6
CONTINUOUS
 10
260.0807076152
 20
192.6950137541
 11
260.0807076152
 21
192.8866492867
  0
LINE
  5
389
100
AcDbEntity
  8
0
100
AcDbLine
 62
7
  6
CONTINUOUS
 10
260.0807076152
 20
193.3504942926
 11
260.0807076152
 21
193.4702665565
  0
LINE
  5
38A
100
AcDbEntity
  8
0
100
AcDbLine
 62
7
  6
CONTINUOUS
 10
260.0807076152
 20
193.0957061634
 11
260.0807076152
 21
193.2873417458
  0
LINE
  5
38B
100
AcDbEntity
  8
0
100
AcDbLine
 62
7
  6
CONTINUOUS
 10
260.165813988
 20
193.6270592514
 11
260.165813988
 21
193.5747950198
  0
LINE
  5
38C
100
AcDbEntity
  8
0
100
AcDbLine
 62
7
  6
CONTINUOUS
 10
260.165813988
 20
193.26120963
 11
260.165813988
 21
193.0957061634
  0
LINE
  5
38D
100
AcDbEntity
  8
0
100
AcDbLine
 62
7
  6
CONTINUOUS
 10
260.165813988
 20
192.8605171709
 11
260.165813988
 21
192.6950137541
  0
LINE
  5
38E
100
AcDbEntity
  8
0
100
AcDbLine
 62
7
  6
CONTINUOUS
 10
260.4211331065
 20
193.3134738616
 11
260.4211331065
 21
193.5051093444
  0
LINE
  5
38F
100
AcDbEntity
  8
0
100
AcDbLine
 62
7
  6
CONTINUOUS
 10
260.5913458522
 20
193.3374282347
 11
260.5913458522
 21
193.5399521323
  0
LINE
  5
390
100
AcDbEntity
  8
0
100
AcDbLine
 62
7
  6
CONTINUOUS
 10
260.676452225
 20
192.6950137541
 11
260.676452225
 21
192.8430957271
  0
LINE
  5
391
100
AcDbEntity
  8
0
100
AcDbLine
 62
7
  6
CONTINUOUS
 10
260.676452225
 20
193.0957061634
 11
260.676452225
 21
193.26120963
  0
LINE
  5
392
100
AcDbEntity
  8
0
100
AcDbLine
 62
7
  6
CONTINUOUS
 10
260.676452225
 20
193.3439612636
 11
260.676452225
 21
193.6270592514
  0
LINE
  5
393
100
AcDbEntity
  8
0
100
AcDbLine
 62
7
  6
CONTINUOUS
 10
260.7615585978
 20
193.0957061634
 11
260.7615585978
 21
193.2873417458
  0
LINE
  5
394
100
AcDbEntity
  8
0
100
AcDbLine
 62
7
  6
CONTINUOUS
 10
260.7615585978
 20
193.3635454707
 11
260.7615585978
 21
193.6619020393
  0
LINE
  5
395
100
AcDbEntity
  8
0
100
AcDbLine
 62
7
  6
CONTINUOUS
 10
260.9317713435
 20
193.0957061634
 11
260.9317713435
 21
193.3047630899
  0
LINE
  5
396
100
AcDbEntity
  8
0
100
AcDbLine
 62
7
  6
CONTINUOUS
 10
260.9317713435
 20
193.3896775865
 11
260.9317713435
 21
193.6880341551
  0
LINE
  5
397
100
AcDbEntity
  8
0
100
AcDbLine
 62
7
  6
CONTINUOUS
 10
261.1870905812
 20
193.0957061634
 11
261.1870905812
 21
193.3134738616
  0
LINE
  5
398
100
AcDbEntity
  8
0
100
AcDbLine
 62
7
  6
CONTINUOUS
 10
261.1870905812
 20
193.4070990303
 11
261.1870905812
 21
193.7054555989
  0
LINE
  5
399
100
AcDbEntity
  8
0
100
AcDbLine
 62
7
  6
CONTINUOUS
 10
261.3573033269
 20
193.3657380933
 11
261.3573033269
 21
193.4876879006
  0
LINE
  5
39A
100
AcDbEntity
  8
0
100
AcDbLine
 62
7
  6
CONTINUOUS
 10
261.4424096997
 20
193.0957061634
 11
261.4424096997
 21
193.3134738616
  0
LINE
  5
39B
100
AcDbEntity
  8
0
100
AcDbLine
 62
7
  6
CONTINUOUS
 10
261.4424096997
 20
193.4905914912
 11
261.4424096997
 21
193.7054555989
  0
LINE
  5
39C
100
AcDbEntity
  8
0
100
AcDbLine
 62
7
  6
CONTINUOUS
 10
261.6977288182
 20
193.0957061634
 11
261.6977288182
 21
193.3047630899
  0
LINE
  5
39D
100
AcDbEntity
  8
0
100
AcDbLine
 62
7
  6
CONTINUOUS
 10
261.6977288182
 20
193.3599309135
 11
261.6977288182
 21
193.4441344407
  0
LINE
  5
39E
100
AcDbEntity
  8
0
100
AcDbLine
 62
7
  6
CONTINUOUS
 10
261.6977288182
 20
193.5051093756
 11
261.6977288182
 21
193.6880341551
  0
LINE
  5
39F
100
AcDbEntity
  8
0
100
AcDbLine
 62
7
  6
CONTINUOUS
 10
261.8679416235
 20
193.0957061634
 11
261.8679416235
 21
193.2873417458
  0
LINE
  5
3A0
100
AcDbEntity
  8
0
100
AcDbLine
 62
7
  6
CONTINUOUS
 10
261.8679416235
 20
193.5225307882
 11
261.8679416235
 21
193.6619020393
  0
LINE
  5
3A1
100
AcDbEntity
  8
0
100
AcDbLine
 62
7
  6
CONTINUOUS
 10
261.9530479963
 20
193.6270592514
 11
261.9530479963
 21
193.557373576
  0
LINE
  5
3A2
100
AcDbEntity
  8
0
100
AcDbLine
 62
7
  6
CONTINUOUS
 10
261.9530479963
 20
193.26120963
 11
261.9530479963
 21
193.0957061634
  0
LINE
  5
3A3
100
AcDbEntity
  8
0
100
AcDbLine
 62
7
  6
CONTINUOUS
 10
262.1232607718
 20
193.3308952057
 11
262.1232607718
 21
193.4702665565
  0
LINE
  5
3A4
100
AcDbEntity
  8
0
100
AcDbLine
 62
7
  6
CONTINUOUS
 10
262.3785799126
 20
193.2960524179
 11
262.3785799126
 21
193.5138200165
  0
LINE
  5
3A5
100
AcDbEntity
  8
0
100
AcDbLine
 62
7
  6
CONTINUOUS
 10
262.4636862929
 20
192.0656503893
 11
262.4636862929
 21
193.2524988583
  0
LINE
  5
3A6
100
AcDbEntity
  8
0
100
AcDbLine
 62
7
  6
CONTINUOUS
 10
262.4636862929
 20
193.2590170074
 11
262.4636862929
 21
193.6270592514
  0
LINE
  5
3A7
100
AcDbEntity
  8
0
100
AcDbLine
 62
7
  6
CONTINUOUS
 10
263.9136862929
 20
192.5158196336
 11
263.9136862929
 21
192.8507611644
  0
LINE
  5
3A8
100
AcDbEntity
  8
0
100
AcDbLine
 62
7
  6
CONTINUOUS
 10
264.4349628265
 20
192.8507611644
 11
264.4349628265
 21
193.0397834804
  0
LINE
  5
3A9
100
AcDbEntity
  8
0
100
AcDbLine
 62
7
  6
CONTINUOUS
 10
265.030707645
 20
193.1068558994
 11
265.030707645
 21
193.0397834804
  0
LINE
  5
3AA
100
AcDbEntity
  8
0
100
AcDbLine
 62
7
  6
CONTINUOUS
 10
265.030707645
 20
192.8507611644
 11
265.030707645
 21
193.0092959887
  0
LINE
  5
3AB
100
AcDbEntity
  8
0
100
AcDbLine
 62
7
  6
CONTINUOUS
 10
265.3285799499
 20
192.8507611644
 11
265.3285799499
 21
193.0092959887
  0
LINE
  5
3AC
100
AcDbEntity
  8
0
100
AcDbLine
 62
7
  6
CONTINUOUS
 10
265.3285799499
 20
193.0397834804
 11
265.3285799499
 21
193.1068558994
  0
LINE
  5
3AD
100
AcDbEntity
  8
0
100
AcDbLine
 62
7
  6
CONTINUOUS
 10
265.9243245597
 20
192.8141762022
 11
265.9243245597
 21
192.710518808
  0
LINE
  5
3AE
100
AcDbEntity
  8
0
100
AcDbLine
 62
7
  6
CONTINUOUS
 10
265.9243245597
 20
192.9117360954
 11
265.9243245597
 21
192.8507611644
  0
LINE
  5
3AF
100
AcDbEntity
  8
0
100
AcDbLine
 62
7
  6
CONTINUOUS
 10
265.9243245597
 20
192.369479785
 11
265.9243245597
 21
192.6678363536
  0
LINE
  5
3B0
100
AcDbEntity
  8
0
100
AcDbLine
 62
7
  6
CONTINUOUS
 10
266.3711331214
 20
192.369479785
 11
266.3711331214
 21
192.8141762022
  0
LINE
  5
3B1
100
AcDbEntity
  8
0
100
AcDbLine
 62
7
  6
CONTINUOUS
 10
266.3711331214
 20
192.8507611644
 11
266.3711331214
 21
192.9117360954
  0
LINE
  5
3B2
100
AcDbEntity
  8
0
100
AcDbLine
 62
7
  6
CONTINUOUS
 10
266.8179416309
 20
192.8507611644
 11
266.8179416309
 21
193.0092959887
  0
LINE
  5
3B3
100
AcDbEntity
  8
0
100
AcDbLine
 62
7
  6
CONTINUOUS
 10
267.1158139619
 20
192.8507611644
 11
267.1158139619
 21
193.0214909993
  0
LINE
  5
3B4
100
AcDbEntity
  8
0
100
AcDbLine
 62
7
  6
CONTINUOUS
 10
267.2647501274
 20
192.8507611644
 11
267.2647501274
 21
193.0397834804
  0
LINE
  5
3B5
100
AcDbEntity
  8
0
100
AcDbLine
 62
7
  6
CONTINUOUS
 10
267.3392182102
 20
192.8507611644
 11
267.3392182102
 21
193.0580759615
  0
LINE
  5
3B6
100
AcDbEntity
  8
0
100
AcDbLine
 62
7
  6
CONTINUOUS
 10
267.4136862929
 20
192.5158196336
 11
267.4136862929
 21
193.0946609236
  0
LINE
  5
3B7
100
AcDbEntity
  8
0
100
AcDbLine
 62
7
  6
CONTINUOUS
 10
269.4636862929
 20
165.9694479784
 11
269.4636862929
 21
170.9694479784
  0
LINE
  5
3B8
100
AcDbEntity
  8
RUNDUNGEN
100
AcDbLine
 62
7
  6
CONTINUOUS
 10
269.4636862929
 20
195.3875294346
 11
269.4636862929
 21
242.3810752774
  0
LINE
  5
3B9
100
AcDbEntity
  8
0
100
AcDbLine
 62
7
  6
CONTINUOUS
 10
258.5487926658
 20
193.6619020393
 11
258.4636862929
 21
193.6183484797
  0
LINE
  5
3BA
100
AcDbEntity
  8
0
100
AcDbLine
 62
7
  6
CONTINUOUS
 10
258.5487926658
 20
193.2960524179
 11
258.4636862929
 21
193.2524988583
  0
LINE
  5
3BB
100
AcDbEntity
  8
0
100
AcDbLine
 62
7
  6
CONTINUOUS
 10
258.5487926658
 20
192.8953599587
 11
258.4636862929
 21
192.851806449
  0
LINE
  5
3BC
100
AcDbEntity
  8
0
100
AcDbLine
 62
7
  6
CONTINUOUS
 10
260.2509203608
 20
193.6706127114
 11
260.165813988
 21
193.6270592514
  0
LINE
  5
3BD
100
AcDbEntity
  8
0
100
AcDbLine
 62
7
  6
CONTINUOUS
 10
260.676452225
 20
193.6270592514
 11
260.7615585978
 21
193.6619020393
  0
LINE
  5
3BE
100
AcDbEntity
  8
0
100
AcDbLine
 62
7
  6
CONTINUOUS
 10
260.5913458522
 20
193.5399521323
 11
260.676452225
 21
193.5747950198
  0
LINE
  5
3BF
100
AcDbEntity
  8
0
100
AcDbLine
 62
7
  6
CONTINUOUS
 10
258.9743245299
 20
193.6270592514
 11
259.0594309028
 21
193.6531913673
  0
LINE
  5
3C0
100
AcDbEntity
  8
RUNDUNGEN
100
AcDbLine
 62
7
  6
CONTINUOUS
 10
232.7136909515
 20
175.6911385046
 11
244.9652180854
 21
182.7645609933
  0
LINE
  5
3C1
100
AcDbEntity
  8
0
100
AcDbLine
 62
7
  6
CONTINUOUS
 10
262.3785799126
 20
193.5138200165
 11
262.4636862929
 21
193.557373576
  0
LINE
  5
3C2
100
AcDbEntity
  8
0
100
AcDbLine
 62
7
  6
CONTINUOUS
 10
262.4573178573
 20
193.2557579329
 11
262.4636862929
 21
193.2590170074
  0
LINE
  5
3C3
100
AcDbEntity
  8
0
100
AcDbLine
 62
7
  6
CONTINUOUS
 10
267.3392182102
 20
193.0580759615
 11
267.4136862929
 21
193.0946609236
  0
LINE
  5
3C4
100
AcDbEntity
  8
0
100
AcDbLine
 62
7
  6
CONTINUOUS
 10
260.7223234198
 20
193.3474824787
 11
260.7615585978
 21
193.3635454707
  0
LINE
  5
3C5
100
AcDbEntity
  8
0
100
AcDbLine
 62
7
  6
CONTINUOUS
 10
261.9530479963
 20
193.557373576
 11
261.8679416235
 21
193.5225307882
  0
LINE
  5
3C6
100
AcDbEntity
  8
0
100
AcDbLine
 62
7
  6
CONTINUOUS
 10
267.1158139619
 20
193.0946609236
 11
267.0413458596
 21
193.0641734319
  0
LINE
  5
3C7
100
AcDbEntity
  8
0
100
AcDbLine
 62
7
  6
CONTINUOUS
 10
258.9743245299
 20
193.26120963
 11
259.0594309028
 21
193.2873417458
  0
LINE
  5
3C8
100
AcDbEntity
  8
0
100
AcDbLine
 62
7
  6
CONTINUOUS
 10
260.165813988
 20
193.5747950198
 11
260.0807076152
 21
193.548662904
  0
LINE
  5
3C9
100
AcDbEntity
  8
0
100
AcDbLine
 62
7
  6
CONTINUOUS
 10
258.8892181571
 20
192.8605171709
 11
258.9743245299
 21
192.8866492867
  0
LINE
  5
3CA
100
AcDbEntity
  8
0
100
AcDbLine
 62
7
  6
CONTINUOUS
 10
260.676452225
 20
193.26120963
 11
260.7615585978
 21
193.2873417458
  0
LINE
  5
3CB
100
AcDbEntity
  8
RUNDUNGEN
100
AcDbLine
 62
7
  6
CONTINUOUS
 10
281.4647936806
 20
167.975253225
 11
281.4647936806
 21
165.9694479784
  0
LINE
  5
3CC
100
AcDbEntity
  8
B-ACHSEN
100
AcDbLine
 62
7
  6
CONTINUOUS
 10
293.4636862929
 20
173.5276614434
 11
293.4636862929
 21
165.9694479784
  0
LINE
  5
3CD
100
AcDbEntity
  8
BEZUGSACHSEN
100
AcDbLine
 62
7
  6
CONTINUOUS
 10
257.9636862929
 20
244.8810752774
 11
266.9636862929
 21
244.8810752774
  0
LINE
  5
3CE
100
AcDbEntity
  8
RUNDUNGEN
100
AcDbLine
 62
7
  6
CONTINUOUS
 10
64.889127907
 20
86.0288926123
 11
64.889127907
 21
124.0311073877
  0
LINE
  5
3CF
100
AcDbEntity
  8
0
100
AcDbLine
 62
7
  6
CONTINUOUS
 10
79.396403606
 20
109.03
 11
79.396403606
 21
105.03
  0
LINE
  5
3D0
100
AcDbEntity
  8
0
100
AcDbLine
 62
7
  6
CONTINUOUS
 10
79.6350888609
 20
101.5693617332
 11
79.6350888609
 21
101.1225531715
  0
LINE
  5
3D1
100
AcDbEntity
  8
0
100
AcDbLine
 62
7
  6
CONTINUOUS
 10
79.8936645537
 20
105.03
 11
79.8936645537
 21
106.8172340679
  0
LINE
  5
3D2
100
AcDbEntity
  8
0
100
AcDbLine
 62
7
  6
CONTINUOUS
 10
79.8936645537
 20
107.3278723049
 11
79.8936645537
 21
108.6044681358
  0
LINE
  5
3D3
100
AcDbEntity
  8
0
100
AcDbLine
 62
7
  6
CONTINUOUS
 10
79.9250230926
 20
105.03
 11
79.9250230926
 21
106.8172340679
  0
LINE
  5
3D4
100
AcDbEntity
  8
0
100
AcDbLine
 62
7
  6
CONTINUOUS
 10
79.9250230926
 20
107.3278723049
 11
79.9250230926
 21
108.6044681358
  0
LINE
  5
3D5
100
AcDbEntity
  8
0
100
AcDbLine
 62
7
  6
CONTINUOUS
 10
81.0274195144
 20
102.9842553902
 11
81.0274195144
 21
101.5693617332
  0
LINE
  5
3D6
100
AcDbEntity
  8
0
100
AcDbLine
 62
7
  6
CONTINUOUS
 10
81.0274195144
 20
101.1225531715
 11
81.0274195144
 21
100.08
  0
LINE
  5
3D7
100
AcDbEntity
  8
0
100
AcDbLine
 62
7
  6
CONTINUOUS
 10
81.3755021778
 20
100.08
 11
81.3755021778
 21
101.1225531715
  0
LINE
  5
3D8
100
AcDbEntity
  8
0
100
AcDbLine
 62
7
  6
CONTINUOUS
 10
81.3755021778
 20
101.5693617332
 11
81.3755021778
 21
103.58
  0
LINE
  5
3D9
100
AcDbEntity
  8
0
100
AcDbLine
 62
7
  6
CONTINUOUS
 10
81.4068607167
 20
100.08
 11
81.4068607167
 21
101.1225531715
  0
LINE
  5
3DA
100
AcDbEntity
  8
0
100
AcDbLine
 62
7
  6
CONTINUOUS
 10
81.4068607167
 20
101.5693617332
 11
81.4068607167
 21
103.58
  0
LINE
  5
3DB
100
AcDbEntity
  8
0
100
AcDbLine
 62
7
  6
CONTINUOUS
 10
81.9556398947
 20
101.1225531715
 11
81.9556398947
 21
101.5693617332
  0
LINE
  5
3DC
100
AcDbEntity
  8
0
100
AcDbLine
 62
7
  6
CONTINUOUS
 10
81.9655853271
 20
108.0938298988
 11
81.9655853271
 21
107.8385105419
  0
LINE
  5
3DD
100
AcDbEntity
  8
0
100
AcDbLine
 62
7
  6
CONTINUOUS
 10
81.9869984337
 20
101.1225531715
 11
81.9869984337
 21
101.5693617332
  0
LINE
  5
3DE
100
AcDbEntity
  8
0
100
AcDbLine
 62
7
  6
CONTINUOUS
 10
82.4197501679
 20
102.4629786479
 11
82.4197501679
 21
102.165106343
  0
LINE
  5
3DF
100
AcDbEntity
  8
0
100
AcDbLine
 62
7
  6
CONTINUOUS
 10
82.4628462748
 20
107.7534041691
 11
82.4628462748
 21
108.0938298988
  0
LINE
  5
3E0
100
AcDbEntity
  8
0
100
AcDbLine
 62
7
  6
CONTINUOUS
 10
82.4942048137
 20
107.7534041691
 11
82.4942048137
 21
108.0938298988
  0
LINE
  5
3E1
100
AcDbEntity
  8
0
100
AcDbLine
 62
7
  6
CONTINUOUS
 10
82.8838602751
 20
103.0587234664
 11
82.8838602751
 21
102.4629786479
  0
LINE
  5
3E2
100
AcDbEntity
  8
0
100
AcDbLine
 62
7
  6
CONTINUOUS
 10
82.8838602751
 20
102.165106343
 11
82.8838602751
 21
100.675744662
  0
LINE
  5
3E3
100
AcDbEntity
  8
0
100
AcDbLine
 62
7
  6
CONTINUOUS
 10
83.1739293825
 20
100.8246808666
 11
83.1739293825
 21
102.165106343
  0
LINE
  5
3E4
100
AcDbEntity
  8
0
100
AcDbLine
 62
7
  6
CONTINUOUS
 10
83.1739293825
 20
102.4629786479
 11
83.1739293825
 21
103.0587234664
  0
LINE
  5
3E5
100
AcDbEntity
  8
0
100
AcDbLine
 62
7
  6
CONTINUOUS
 10
83.2052879215
 20
100.8246808666
 11
83.2052879215
 21
102.165106343
  0
LINE
  5
3E6
100
AcDbEntity
  8
0
100
AcDbLine
 62
7
  6
CONTINUOUS
 10
83.2052879215
 20
102.4629786479
 11
83.2052879215
 21
103.0587234664
  0
LINE
  5
3E7
100
AcDbEntity
  8
0
100
AcDbLine
 62
7
  6
CONTINUOUS
 10
83.2087376963
 20
109.03
 11
83.2087376963
 21
105.03
  0
LINE
  5
3E8
100
AcDbEntity
  8
0
100
AcDbLine
 62
7
  6
CONTINUOUS
 10
77.4073598152
 20
105.03
 11
78.73338893
 21
109.03
  0
LINE
  5
3E9
100
AcDbEntity
  8
0
100
AcDbLine
 62
7
  6
CONTINUOUS
 10
77.4387183542
 20
105.03
 11
78.764747469
 21
109.03
  0
LINE
  5
3EA
100
AcDbEntity
  8
0
100
AcDbLine
 62
7
  6
CONTINUOUS
 10
78.2361279823
 20
109.03
 11
77.0758524773
 21
105.5406382966
  0
LINE
  5
3EB
100
AcDbEntity
  8
RUNDUNGEN
100
AcDbLine
 62
7
  6
CONTINUOUS
 10
84.2795147006
 20
135.2261524227
 11
64.889127907
 21
124.0311073877
  0
LINE
  5
3EC
100
AcDbEntity
  8
RUNDUNGEN
100
AcDbLine
 62
7
  6
CONTINUOUS
 10
64.889127907
 20
86.0288926123
 11
84.2795147006
 21
74.8338475773
  0
LINE
  5
3ED
100
AcDbEntity
  8
0
100
AcDbLine
 62
7
  6
CONTINUOUS
 10
77.0758524773
 20
105.5406382966
 11
75.9155769722
 21
109.03
  0
LINE
  5
3EE
100
AcDbEntity
  8
0
100
AcDbLine
 62
7
  6
CONTINUOUS
 10
77.0915317468
 20
105.5877914445
 11
75.9469355112
 21
109.03
  0
LINE
  5
3EF
100
AcDbEntity
  8
0
100
AcDbLine
 62
7
  6
CONTINUOUS
 10
75.4183160245
 20
109.03
 11
76.7443452578
 21
105.03
  0
LINE
  5
3F0
100
AcDbEntity
  8
0
100
AcDbLine
 62
7
  6
CONTINUOUS
 10
83.6960533776
 20
100.08
 11
83.6960533776
 21
100.377872331
  0
LINE
  5
3F1
100
AcDbEntity
  8
0
100
AcDbLine
 62
7
  6
CONTINUOUS
 10
83.7059981698
 20
105.5406382966
 11
83.7059981698
 21
106.8172340679
  0
LINE
  5
3F2
100
AcDbEntity
  8
0
100
AcDbLine
 62
7
  6
CONTINUOUS
 10
83.7059981698
 20
107.3278723049
 11
83.7059981698
 21
108.519361763
  0
LINE
  5
3F3
100
AcDbEntity
  8
0
100
AcDbLine
 62
7
  6
CONTINUOUS
 10
83.7274119166
 20
100.08
 11
83.7274119166
 21
100.377872331
  0
LINE
  5
3F4
100
AcDbEntity
  8
0
100
AcDbLine
 62
7
  6
CONTINUOUS
 10
83.7373567087
 20
105.5406382966
 11
83.7373567087
 21
106.8172340679
  0
LINE
  5
3F5
100
AcDbEntity
  8
0
100
AcDbLine
 62
7
  6
CONTINUOUS
 10
83.7373567087
 20
107.3278723049
 11
83.7373567087
 21
108.519361763
  0
LINE
  5
3F6
100
AcDbEntity
  8
0
100
AcDbLine
 62
7
  6
CONTINUOUS
 10
83.8120808214
 20
102.165106343
 11
83.8120808214
 21
102.4629786479
  0
LINE
  5
3F7
100
AcDbEntity
  8
0
100
AcDbLine
 62
7
  6
CONTINUOUS
 10
83.8434393604
 20
102.165106343
 11
83.8434393604
 21
102.4629786479
  0
LINE
  5
3F8
100
AcDbEntity
  8
0
100
AcDbLine
 62
7
  6
CONTINUOUS
 10
85.7779194174
 20
108.0087232876
 11
85.7779194174
 21
107.8385105419
  0
LINE
  5
3F9
100
AcDbEntity
  8
0
100
AcDbLine
 62
7
  6
CONTINUOUS
 10
85.7779194174
 20
106.3065957117
 11
85.7779194174
 21
106.0512765932
  0
LINE
  5
3FA
100
AcDbEntity
  8
0
100
AcDbLine
 62
7
  6
CONTINUOUS
 10
86.2751803651
 20
105.9661702204
 11
86.2751803651
 21
106.3917020845
  0
LINE
  5
3FB
100
AcDbEntity
  8
0
100
AcDbLine
 62
7
  6
CONTINUOUS
 10
86.2751803651
 20
107.7534041691
 11
86.2751803651
 21
108.0938298988
  0
LINE
  5
3FC
100
AcDbEntity
  8
0
100
AcDbLine
 62
7
  6
CONTINUOUS
 10
86.3065389041
 20
105.9661702204
 11
86.3065389041
 21
106.3917020845
  0
LINE
  5
3FD
100
AcDbEntity
  8
0
100
AcDbLine
 62
7
  6
CONTINUOUS
 10
86.3065389041
 20
107.7534041691
 11
86.3065389041
 21
108.0938298988
  0
LINE
  5
3FE
100
AcDbEntity
  8
0
100
AcDbLine
 62
7
  6
CONTINUOUS
 10
87.1868248035
 20
108.0938298988
 11
87.1868248035
 21
107.7534041691
  0
LINE
  5
3FF
100
AcDbEntity
  8
0
100
AcDbLine
 62
7
  6
CONTINUOUS
 10
87.6840857512
 20
107.8385105419
 11
87.6840857512
 21
108.0087232876
  0
LINE
  5
400
100
AcDbEntity
  8
0
100
AcDbLine
 62
7
  6
CONTINUOUS
 10
87.7154442902
 20
107.8385105419
 11
87.7154442902
 21
108.0087232876
  0
LINE
  5
401
100
AcDbEntity
  8
0
100
AcDbLine
 62
7
  6
CONTINUOUS
 10
87.2697022605
 20
108.4342553902
 11
87.1868248035
 21
108.0938298988
  0
LINE
  5
402
100
AcDbEntity
  8
0
100
AcDbLine
 62
7
  6
CONTINUOUS
 10
81.9655853271
 20
107.8385105419
 11
81.8827083444
 21
107.5831914234
  0
LINE
  5
403
100
AcDbEntity
  8
0
100
AcDbLine
 62
7
  6
CONTINUOUS
 10
82.3799692921
 20
107.4980850506
 11
82.4628462748
 21
107.7534041691
  0
LINE
  5
404
100
AcDbEntity
  8
0
100
AcDbLine
 62
7
  6
CONTINUOUS
 10
82.4113278311
 20
107.4980850506
 11
82.4942048137
 21
107.7534041691
  0
LINE
  5
405
100
AcDbEntity
  8
0
100
AcDbLine
 62
7
  6
CONTINUOUS
 10
85.7779194174
 20
107.8385105419
 11
85.6950419605
 21
107.5831914234
  0
LINE
  5
406
100
AcDbEntity
  8
0
100
AcDbLine
 62
7
  6
CONTINUOUS
 10
86.1923029082
 20
107.4980850506
 11
86.2751803651
 21
107.7534041691
  0
LINE
  5
407
100
AcDbEntity
  8
0
100
AcDbLine
 62
7
  6
CONTINUOUS
 10
86.2236614472
 20
107.4980850506
 11
86.3065389041
 21
107.7534041691
  0
LINE
  5
408
100
AcDbEntity
  8
0
100
AcDbLine
 62
7
  6
CONTINUOUS
 10
85.7779194174
 20
106.0512765932
 11
85.6950419605
 21
105.7959574747
  0
LINE
  5
409
100
AcDbEntity
  8
0
100
AcDbLine
 62
7
  6
CONTINUOUS
 10
86.1923029082
 20
105.7108510423
 11
86.2751803651
 21
105.9661702204
  0
LINE
  5
40A
100
AcDbEntity
  8
0
100
AcDbLine
 62
7
  6
CONTINUOUS
 10
86.2236614472
 20
105.7108510423
 11
86.3065389041
 21
105.9661702204
  0
LINE
  5
40B
100
AcDbEntity
  8
0
100
AcDbLine
 62
7
  6
CONTINUOUS
 10
82.8838602751
 20
100.675744662
 11
82.9998880508
 21
100.377872331
  0
LINE
  5
40C
100
AcDbEntity
  8
0
100
AcDbLine
 62
7
  6
CONTINUOUS
 10
82.5457227832
 20
105.03
 11
81.7998313617
 21
106.9874468136
  0
LINE
  5
40D
100
AcDbEntity
  8
0
100
AcDbLine
 62
7
  6
CONTINUOUS
 10
82.5770813222
 20
105.03
 11
81.8311899007
 21
106.9874468136
  0
LINE
  5
40E
100
AcDbEntity
  8
0
100
AcDbLine
 62
7
  6
CONTINUOUS
 10
81.302570414
 20
106.8172340679
 11
81.9655853271
 21
105.03
  0
LINE
  5
40F
100
AcDbEntity
  8
0
100
AcDbLine
 62
7
  6
CONTINUOUS
 10
81.8827083444
 20
108.3491490173
 11
81.9655853271
 21
108.0938298988
  0
LINE
  5
410
100
AcDbEntity
  8
0
100
AcDbLine
 62
7
  6
CONTINUOUS
 10
82.4628462748
 20
108.0938298988
 11
82.3799692921
 21
108.3491490173
  0
LINE
  5
411
100
AcDbEntity
  8
0
100
AcDbLine
 62
7
  6
CONTINUOUS
 10
82.4942048137
 20
108.0938298988
 11
82.4113278311
 21
108.3491490173
  0
LINE
  5
412
100
AcDbEntity
  8
0
100
AcDbLine
 62
7
  6
CONTINUOUS
 10
85.6950419605
 20
106.5619149494
 11
85.7779194174
 21
106.3065957117
  0
LINE
  5
413
100
AcDbEntity
  8
0
100
AcDbLine
 62
7
  6
CONTINUOUS
 10
83.2319429385
 20
100.6012765858
 11
83.1739293825
 21
100.8246808666
  0
LINE
  5
414
100
AcDbEntity
  8
0
100
AcDbLine
 62
7
  6
CONTINUOUS
 10
83.2633014774
 20
100.6012765858
 11
83.2052879215
 21
100.8246808666
  0
LINE
  5
415
100
AcDbEntity
  8
0
100
AcDbLine
 62
7
  6
CONTINUOUS
 10
89.507376525
 20
106.3065957117
 11
89.507376525
 21
106.0512765932
  0
LINE
  5
416
100
AcDbEntity
  8
0
100
AcDbLine
 62
7
  6
CONTINUOUS
 10
90.0046374727
 20
105.9661702204
 11
90.0046374727
 21
106.3917020845
  0
LINE
  5
417
100
AcDbEntity
  8
0
100
AcDbLine
 62
7
  6
CONTINUOUS
 10
90.0359960117
 20
105.9661702204
 11
90.0359960117
 21
106.3917020845
  0
LINE
  5
418
100
AcDbEntity
  8
0
100
AcDbLine
 62
7
  6
CONTINUOUS
 10
87.6840857512
 20
108.0087232876
 11
87.7669632081
 21
108.2640426445
  0
LINE
  5
419
100
AcDbEntity
  8
0
100
AcDbLine
 62
7
  6
CONTINUOUS
 10
87.7154442902
 20
108.0087232876
 11
87.7983217471
 21
108.2640426445
  0
LINE
  5
41A
100
AcDbEntity
  8
0
100
AcDbLine
 62
7
  6
CONTINUOUS
 10
81.0274195144
 20
103.58
 11
79.6350888609
 21
101.5693617332
  0
LINE
  5
41B
100
AcDbEntity
  8
0
100
AcDbLine
 62
7
  6
CONTINUOUS
 10
80.0411852876
 20
101.5693617332
 11
81.0274195144
 21
102.9842553902
  0
LINE
  5
41C
100
AcDbEntity
  8
0
100
AcDbLine
 62
7
  6
CONTINUOUS
 10
80.0725438266
 20
101.5693617332
 11
81.0274195144
 21
102.9392670936
  0
LINE
  5
41D
100
AcDbEntity
  8
0
100
AcDbLine
 62
7
  6
CONTINUOUS
 10
82.1313388182
 20
107.1576595592
 11
82.3799692921
 21
107.4980850506
  0
LINE
  5
41E
100
AcDbEntity
  8
0
100
AcDbLine
 62
7
  6
CONTINUOUS
 10
82.1626973572
 20
107.1576595592
 11
82.4113278311
 21
107.4980850506
  0
LINE
  5
41F
100
AcDbEntity
  8
0
100
AcDbLine
 62
7
  6
CONTINUOUS
 10
86.2751803651
 20
106.3917020845
 11
86.1923029082
 21
106.6470213223
  0
LINE
  5
420
100
AcDbEntity
  8
0
100
AcDbLine
 62
7
  6
CONTINUOUS
 10
85.6950419605
 20
108.2640426445
 11
85.7779194174
 21
108.0087232876
  0
LINE
  5
421
100
AcDbEntity
  8
0
100
AcDbLine
 62
7
  6
CONTINUOUS
 10
86.3065389041
 20
106.3917020845
 11
86.2236614472
 21
106.6470213223
  0
LINE
  5
422
100
AcDbEntity
  8
0
100
AcDbLine
 62
7
  6
CONTINUOUS
 10
86.2751803651
 20
108.0938298988
 11
86.1923029082
 21
108.3491490173
  0
LINE
  5
423
100
AcDbEntity
  8
0
100
AcDbLine
 62
7
  6
CONTINUOUS
 10
86.3065389041
 20
108.0938298988
 11
86.2236614472
 21
108.3491490173
  0
LINE
  5
424
100
AcDbEntity
  8
0
100
AcDbLine
 62
7
  6
CONTINUOUS
 10
87.5183327343
 20
105.8810638475
 11
87.4354552774
 21
106.136382966
  0
LINE
  5
425
100
AcDbEntity
  8
0
100
AcDbLine
 62
7
  6
CONTINUOUS
 10
87.5496912733
 20
105.8810638475
 11
87.4668138164
 21
106.136382966
  0
LINE
  5
426
100
AcDbEntity
  8
0
100
AcDbLine
 62
7
  6
CONTINUOUS
 10
87.7669632081
 20
107.5831914234
 11
87.6840857512
 21
107.8385105419
  0
LINE
  5
427
100
AcDbEntity
  8
0
100
AcDbLine
 62
7
  6
CONTINUOUS
 10
87.7983217471
 20
107.5831914234
 11
87.7154442902
 21
107.8385105419
  0
LINE
  5
428
100
AcDbEntity
  8
0
100
AcDbLine
 62
7
  6
CONTINUOUS
 10
89.7560069989
 20
108.0938298988
 11
89.673129542
 21
108.3491490173
  0
LINE
  5
429
100
AcDbEntity
  8
0
100
AcDbLine
 62
7
  6
CONTINUOUS
 10
89.7873655379
 20
108.0938298988
 11
89.7044880809
 21
108.3491490173
  0
LINE
  5
42A
100
AcDbEntity
  8
0
100
AcDbLine
 62
7
  6
CONTINUOUS
 10
86.9381943297
 20
106.136382966
 11
87.0210717866
 21
105.7959574747
  0
LINE
  5
42B
100
AcDbEntity
  8
0
100
AcDbLine
 62
7
  6
CONTINUOUS
 10
87.1868248035
 20
107.7534041691
 11
87.2697022605
 21
107.4129786777
  0
LINE
  5
42C
100
AcDbEntity
  8
RUNDUNGEN
100
AcDbLine
 62
7
  6
CONTINUOUS
 10
94.8754326454
 20
115.16030171
 11
93.2466460728
 21
130.6571707796
  0
LINE
  5
42D
100
AcDbEntity
  8
BEZUGSACHSEN
100
AcDbLine
 62
7
  6
CONTINUOUS
 10
94.2628685081
 20
109.53
 11
94.2628685081
 21
100.53
  0
LINE
  5
42E
100
AcDbEntity
  8
RUNDUNGEN
100
AcDbLine
 62
7
  6
CONTINUOUS
 10
94.889127907
 20
114.8989805518
 11
94.889127907
 21
111.179182386
  0
LINE
  5
42F
100
AcDbEntity
  8
RUNDUNGEN
100
AcDbLine
 62
7
  6
CONTINUOUS
 10
94.889127907
 20
98.880817614
 11
94.889127907
 21
95.1610194482
  0
LINE
  5
430
100
AcDbEntity
  8
RUNDUNGEN
100
AcDbLine
 62
7
  6
CONTINUOUS
 10
94.889127907
 20
95.1610194482
 11
94.8754326453
 21
94.8996982887
  0
LINE
  5
431
100
AcDbEntity
  8
RUNDUNGEN
100
AcDbLine
 62
7
  6
CONTINUOUS
 10
94.8754326454
 20
94.89969829
 11
93.2466460728
 21
79.4028292204
  0
LINE
  5
432
100
AcDbEntity
  8
0
100
AcDbLine
 62
7
  6
CONTINUOUS
 10
89.8388835073
 20
105.6257446694
 11
90.0046374727
 21
105.9661702204
  0
LINE
  5
433
100
AcDbEntity
  8
0
100
AcDbLine
 62
7
  6
CONTINUOUS
 10
89.8702420463
 20
105.6257446694
 11
90.0359960117
 21
105.9661702204
  0
LINE
  5
434
100
AcDbEntity
  8
0
100
AcDbLine
 62
7
  6
CONTINUOUS
 10
89.507376525
 20
106.0512765932
 11
89.3416225597
 21
105.7959574747
  0
LINE
  5
435
100
AcDbEntity
  8
0
100
AcDbLine
 62
7
  6
CONTINUOUS
 10
85.9436724343
 20
107.1576595592
 11
86.1923029082
 21
107.4980850506
  0
LINE
  5
436
100
AcDbEntity
  8
0
100
AcDbLine
 62
7
  6
CONTINUOUS
 10
85.9750309733
 20
107.1576595592
 11
86.2236614472
 21
107.4980850506
  0
LINE
  5
437
100
AcDbEntity
  8
0
100
AcDbLine
 62
7
  6
CONTINUOUS
 10
85.9436724343
 20
105.3704255211
 11
86.1923029082
 21
105.7108510423
  0
LINE
  5
438
100
AcDbEntity
  8
0
100
AcDbLine
 62
7
  6
CONTINUOUS
 10
85.9750309733
 20
105.3704255211
 11
86.2236614472
 21
105.7108510423
  0
LINE
  5
439
100
AcDbEntity
  8
0
100
AcDbLine
 62
7
  6
CONTINUOUS
 10
81.8827083444
 20
107.5831914234
 11
81.7169548532
 21
107.4129786777
  0
LINE
  5
43A
100
AcDbEntity
  8
0
100
AcDbLine
 62
7
  6
CONTINUOUS
 10
85.6950419605
 20
107.5831914234
 11
85.5292889436
 21
107.4129786777
  0
LINE
  5
43B
100
AcDbEntity
  8
0
100
AcDbLine
 62
7
  6
CONTINUOUS
 10
87.6012092428
 20
108.7746808815
 11
87.2697022605
 21
108.4342553902
  0
LINE
  5
43C
100
AcDbEntity
  8
0
100
AcDbLine
 62
7
  6
CONTINUOUS
 10
82.9998880508
 20
100.377872331
 11
83.1739293825
 21
100.2289361655
  0
LINE
  5
43D
100
AcDbEntity
  8
0
100
AcDbLine
 62
7
  6
CONTINUOUS
 10
83.4059842701
 20
100.4523404333
 11
83.2319429385
 21
100.6012765858
  0
LINE
  5
43E
100
AcDbEntity
  8
0
100
AcDbLine
 62
7
  6
CONTINUOUS
 10
83.4373428091
 20
100.4523404333
 11
83.2633014774
 21
100.6012765858
  0
LINE
  5
43F
100
AcDbEntity
  8
0
100
AcDbLine
 62
7
  6
CONTINUOUS
 10
82.3799692921
 20
108.3491490173
 11
82.1313388182
 21
108.6895745087
  0
LINE
  5
440
100
AcDbEntity
  8
0
100
AcDbLine
 62
7
  6
CONTINUOUS
 10
82.4113278311
 20
108.3491490173
 11
82.1626973572
 21
108.6895745087
  0
LINE
  5
441
100
AcDbEntity
  8
0
100
AcDbLine
 62
7
  6
CONTINUOUS
 10
86.1923029082
 20
106.6470213223
 11
85.9436724343
 21
106.9874468136
  0
LINE
  5
442
100
AcDbEntity
  8
0
100
AcDbLine
 62
7
  6
CONTINUOUS
 10
86.2236614472
 20
106.6470213223
 11
85.9750309733
 21
106.9874468136
  0
LINE
  5
443
100
AcDbEntity
  8
0
100
AcDbLine
 62
7
  6
CONTINUOUS
 10
86.1923029082
 20
108.3491490173
 11
85.9436724343
 21
108.6895745087
  0
LINE
  5
444
100
AcDbEntity
  8
0
100
AcDbLine
 62
7
  6
CONTINUOUS
 10
86.2236614472
 20
108.3491490173
 11
85.9750309733
 21
108.6895745087
  0
LINE
  5
445
100
AcDbEntity
  8
0
100
AcDbLine
 62
7
  6
CONTINUOUS
 10
89.3416225597
 20
106.5619149494
 11
89.507376525
 21
106.3065957117
  0
LINE
  5
446
100
AcDbEntity
  8
0
100
AcDbLine
 62
7
  6
CONTINUOUS
 10
87.0210717866
 20
105.7959574747
 11
87.2697022605
 21
105.3704255211
  0
LINE
  5
447
100
AcDbEntity
  8
0
100
AcDbLine
 62
7
  6
CONTINUOUS
 10
90.0046374727
 20
106.3917020845
 11
89.8388835073
 21
106.7321276951
  0
LINE
  5
448
100
AcDbEntity
  8
0
100
AcDbLine
 62
7
  6
CONTINUOUS
 10
90.0359960117
 20
106.3917020845
 11
89.8702420463
 21
106.7321276951
  0
LINE
  5
449
100
AcDbEntity
  8
0
100
AcDbLine
 62
7
  6
CONTINUOUS
 10
89.1758685943
 20
108.2640426445
 11
89.2587460512
 21
108.0938298988
  0
LINE
  5
44A
100
AcDbEntity
  8
0
100
AcDbLine
 62
7
  6
CONTINUOUS
 10
100.899127907
 20
95.73
 11
100.899127907
 21
96.2077641922
  0
LINE
  5
44B
100
AcDbEntity
  8
0
100
AcDbLine
 62
7
  6
CONTINUOUS
 10
101.461627907
 20
95.73
 11
101.461627907
 21
95.7398276098
  0
LINE
  5
44C
100
AcDbEntity
  8
0
100
AcDbLine
 62
7
  6
CONTINUOUS
 10
101.461627907
 20
95.7599166854
 11
101.461627907
 21
95.8580125721
  0
LINE
  5
44D
100
AcDbEntity
  8
0
100
AcDbLine
 62
7
  6
CONTINUOUS
 10
102.459127907
 20
113.8058291163
 11
102.459127907
 21
114.33
  0
LINE
  5
44E
100
AcDbEntity
  8
0
100
AcDbLine
 62
7
  6
CONTINUOUS
 10
103.019127907
 20
114.1972130702
 11
103.019127907
 21
114.3257931613
  0
LINE
  5
44F
100
AcDbEntity
  8
0
100
AcDbLine
 62
7
  6
CONTINUOUS
 10
103.149127907
 20
96.2077641922
 11
103.149127907
 21
95.905993816
  0
LINE
  5
450
100
AcDbEntity
  8
0
100
AcDbLine
 62
7
  6
CONTINUOUS
 10
103.2428778176
 20
95.8580125721
 11
103.2428778176
 21
95.7599166854
  0
LINE
  5
451
100
AcDbEntity
  8
0
100
AcDbLine
 62
7
  6
CONTINUOUS
 10
85.6950419605
 20
105.7959574747
 11
85.5292889436
 21
105.6257446694
  0
LINE
  5
452
100
AcDbEntity
  8
0
100
AcDbLine
 62
7
  6
CONTINUOUS
 10
89.507376525
 20
105.2853191483
 11
89.8388835073
 21
105.6257446694
  0
LINE
  5
453
100
AcDbEntity
  8
0
100
AcDbLine
 62
7
  6
CONTINUOUS
 10
89.538735064
 20
105.2853191483
 11
89.8702420463
 21
105.6257446694
  0
LINE
  5
454
100
AcDbEntity
  8
0
100
AcDbLine
 62
7
  6
CONTINUOUS
 10
81.7169548532
 20
108.519361763
 11
81.8827083444
 21
108.3491490173
  0
LINE
  5
455
100
AcDbEntity
  8
0
100
AcDbLine
 62
7
  6
CONTINUOUS
 10
85.5292889436
 20
106.7321276951
 11
85.6950419605
 21
106.5619149494
  0
LINE
  5
456
100
AcDbEntity
  8
0
100
AcDbLine
 62
7
  6
CONTINUOUS
 10
87.7669632081
 20
105.6257446694
 11
87.5183327343
 21
105.8810638475
  0
LINE
  5
457
100
AcDbEntity
  8
0
100
AcDbLine
 62
7
  6
CONTINUOUS
 10
87.7983217471
 20
105.6257446694
 11
87.5496912733
 21
105.8810638475
  0
LINE
  5
458
100
AcDbEntity
  8
0
100
AcDbLine
 62
7
  6
CONTINUOUS
 10
85.5292889436
 20
108.4342553902
 11
85.6950419605
 21
108.2640426445
  0
LINE
  5
459
100
AcDbEntity
  8
0
100
AcDbLine
 62
7
  6
CONTINUOUS
 10
87.2697022605
 20
107.4129786777
 11
87.6012092428
 21
107.0725531864
  0
LINE
  5
45A
100
AcDbEntity
  8
0
100
AcDbLine
 62
7
  6
CONTINUOUS
 10
89.8388835073
 20
106.7321276951
 11
89.507376525
 21
107.0725531864
  0
LINE
  5
45B
100
AcDbEntity
  8
0
100
AcDbLine
 62
7
  6
CONTINUOUS
 10
89.8702420463
 20
106.7321276951
 11
89.538735064
 21
107.0725531864
  0
LINE
  5
45C
100
AcDbEntity
  8
0
100
AcDbLine
 62
7
  6
CONTINUOUS
 10
89.673129542
 20
108.3491490173
 11
89.4244990681
 21
108.6895745087
  0
LINE
  5
45D
100
AcDbEntity
  8
0
100
AcDbLine
 62
7
  6
CONTINUOUS
 10
89.7044880809
 20
108.3491490173
 11
89.4558576071
 21
108.6895745087
  0
LINE
  5
45E
100
AcDbEntity
  8
0
100
AcDbLine
 62
7
  6
CONTINUOUS
 10
103.5241278176
 20
95.8493366797
 11
103.5241278176
 21
95.7643262426
  0
LINE
  5
45F
100
AcDbEntity
  8
0
100
AcDbLine
 62
7
  6
CONTINUOUS
 10
103.6178779964
 20
96.1974501241
 11
103.6178779964
 21
95.8957830349
  0
LINE
  5
460
100
AcDbEntity
  8
0
100
AcDbLine
 62
7
  6
CONTINUOUS
 10
103.711627907
 20
95.8329030797
 11
103.711627907
 21
95.7740562208
  0
LINE
  5
461
100
AcDbEntity
  8
0
100
AcDbLine
 62
7
  6
CONTINUOUS
 10
103.8053778176
 20
95.7909306143
 11
103.8053778176
 21
95.8105444668
  0
LINE
  5
462
100
AcDbEntity
  8
0
100
AcDbLine
 62
7
  6
CONTINUOUS
 10
103.992877907
 20
96.1683711402
 11
103.992877907
 21
95.8669948752
  0
LINE
  5
463
100
AcDbEntity
  8
0
100
AcDbLine
 62
7
  6
CONTINUOUS
 10
104.274127907
 20
96.1339356702
 11
104.274127907
 21
95.8329030797
  0
LINE
  5
464
100
AcDbEntity
  8
0
100
AcDbLine
 62
7
  6
CONTINUOUS
 10
104.3678778176
 20
95.785001676
 11
104.3678778176
 21
96.1113520906
  0
LINE
  5
465
100
AcDbEntity
  8
0
100
AcDbLine
 62
7
  6
CONTINUOUS
 10
104.4616279964
 20
96.03
 11
104.4616279964
 21
95.73
  0
LINE
  5
466
100
AcDbEntity
  8
0
100
AcDbLine
 62
7
  6
CONTINUOUS
 10
105.2116278176
 20
95.7314160533
 11
105.2116278176
 21
96.2077641922
  0
LINE
  5
467
100
AcDbEntity
  8
0
100
AcDbLine
 62
7
  6
CONTINUOUS
 10
105.489127907
 20
114.0154333941
 11
105.489127907
 21
114.3155817682
  0
LINE
  5
468
100
AcDbEntity
  8
0
100
AcDbLine
 62
7
  6
CONTINUOUS
 10
105.7741280858
 20
95.7314160533
 11
105.7741280858
 21
96.2077641922
  0
LINE
  5
469
100
AcDbEntity
  8
0
100
AcDbLine
 62
7
  6
CONTINUOUS
 10
105.8678777282
 20
96.03
 11
105.8678777282
 21
95.73
  0
LINE
  5
46A
100
AcDbEntity
  8
0
100
AcDbLine
 62
7
  6
CONTINUOUS
 10
106.0553780858
 20
96.03
 11
106.0553780858
 21
95.73
  0
LINE
  5
46B
100
AcDbEntity
  8
0
100
AcDbLine
 62
7
  6
CONTINUOUS
 10
106.3366280858
 20
96.03
 11
106.3366280858
 21
95.73
  0
LINE
  5
46C
100
AcDbEntity
  8
0
100
AcDbLine
 62
7
  6
CONTINUOUS
 10
106.7116277282
 20
96.03
 11
106.7116277282
 21
95.73
  0
LINE
  5
46D
100
AcDbEntity
  8
0
100
AcDbLine
 62
7
  6
CONTINUOUS
 10
107.086627907
 20
96.03
 11
107.086627907
 21
95.73
  0
LINE
  5
46E
100
AcDbEntity
  8
0
100
AcDbLine
 62
7
  6
CONTINUOUS
 10
107.139127907
 20
113.8058291163
 11
107.139127907
 21
114.33
  0
LINE
  5
46F
100
AcDbEntity
  8
0
100
AcDbLine
 62
7
  6
CONTINUOUS
 10
107.4616280858
 20
96.03
 11
107.4616280858
 21
95.73
  0
LINE
  5
470
100
AcDbEntity
  8
0
100
AcDbLine
 62
7
  6
CONTINUOUS
 10
107.7428780858
 20
96.03
 11
107.7428780858
 21
95.73
  0
LINE
  5
471
100
AcDbEntity
  8
0
100
AcDbLine
 62
7
  6
CONTINUOUS
 10
107.930377907
 20
96.03
 11
107.930377907
 21
95.73
  0
LINE
  5
472
100
AcDbEntity
  8
0
100
AcDbLine
 62
7
  6
CONTINUOUS
 10
108.0241280858
 20
95.7314160533
 11
108.0241280858
 21
96.2077641922
  0
LINE
  5
473
100
AcDbEntity
  8
0
100
AcDbLine
 62
7
  6
CONTINUOUS
 10
85.612165452
 20
105.1151063803
 11
85.9436724343
 21
105.3704255211
  0
LINE
  5
474
100
AcDbEntity
  8
0
100
AcDbLine
 62
7
  6
CONTINUOUS
 10
85.643523991
 20
105.1151063803
 11
85.9750309733
 21
105.3704255211
  0
LINE
  5
475
100
AcDbEntity
  8
0
100
AcDbLine
 62
7
  6
CONTINUOUS
 10
87.7669632081
 20
108.2640426445
 11
88.015593682
 21
108.4342553902
  0
LINE
  5
476
100
AcDbEntity
  8
0
100
AcDbLine
 62
7
  6
CONTINUOUS
 10
87.7983217471
 20
108.2640426445
 11
88.046952221
 21
108.4342553902
  0
LINE
  5
477
100
AcDbEntity
  8
0
100
AcDbLine
 62
7
  6
CONTINUOUS
 10
89.3416225597
 20
105.7959574747
 11
89.0929920858
 21
105.6257446694
  0
LINE
  5
478
100
AcDbEntity
  8
BEZUGSACHSEN
100
AcDbLine
 62
7
  6
CONTINUOUS
 10
96.1269846953
 20
113.6721291711
 11
96.1267939193
 21
113.672012013
  0
LWPOLYLINE
  5
479
100
AcDbEntity
  8
BEZUGSACHSEN
100
AcDbPolyline
 62
7
  6
CONTINUOUS
 90
5
 70
0
 10
96.1269097222
 20
113.6720614585
 10
96.0598261045
 20
113.6347530805
 10
95.9279014292
 20
113.5798501025
 10
95.7832669702
 20
113.5437633927
 10
95.6195622833
 20
113.5299626491
  0
LINE
  5
47A
100
AcDbEntity
  8
BEZUGSACHSEN
100
AcDbLine
 62
7
  6
CONTINUOUS
 10
96.3723398993
 20
113.8033407122
 11
96.1267564302
 21
113.6719891723
  0
LINE
  5
47B
100
AcDbEntity
  8
0
100
AcDbLine
 62
7
  6
CONTINUOUS
 10
81.7998313617
 20
106.9874468136
 11
82.1313388182
 21
107.1576595592
  0
LINE
  5
47C
100
AcDbEntity
  8
0
100
AcDbLine
 62
7
  6
CONTINUOUS
 10
81.8311899007
 20
106.9874468136
 11
82.1626973572
 21
107.1576595592
  0
LWPOLYLINE
  5
47D
100
AcDbEntity
  8
RUNDUNGEN
100
AcDbPolyline
 62
7
  6
CONTINUOUS
 90
6
 70
0
 10
96.1267552779
 20
96.3880115377
 10
96.3596357842
 20
96.2625993207
 10
96.657333955
 20
96.1454902792
 10
96.9709915297
 20
96.0678047277
 10
97.2908740226
 20
96.032392462
 10
97.3945520558
 20
96.0300047345
  0
LINE
  5
47E
100
AcDbEntity
  8
RUNDUNGEN
100
AcDbLine
 62
7
  6
CONTINUOUS
 10
96.126969976
 20
96.3878798439
 11
96.1267927033
 21
96.3879887359
  0
LINE
  5
47F
100
AcDbEntity
  8
0
100
AcDbLine
 62
7
  6
CONTINUOUS
 10
82.1313388182
 20
108.6895745087
 11
81.7998313617
 21
108.9448936272
  0
LINE
  5
480
100
AcDbEntity
  8
0
100
AcDbLine
 62
7
  6
CONTINUOUS
 10
82.1626973572
 20
108.6895745087
 11
81.8311899007
 21
108.9448936272
  0
LINE
  5
481
100
AcDbEntity
  8
0
100
AcDbLine
 62
7
  6
CONTINUOUS
 10
85.9436724343
 20
108.6895745087
 11
85.612165452
 21
108.9448936272
  0
LINE
  5
482
100
AcDbEntity
  8
0
100
AcDbLine
 62
7
  6
CONTINUOUS
 10
85.9750309733
 20
108.6895745087
 11
85.643523991
 21
108.9448936272
  0
LINE
  5
483
100
AcDbEntity
  8
0
100
AcDbLine
 62
7
  6
CONTINUOUS
 10
89.0101155774
 20
108.4342553902
 11
89.1758685943
 21
108.2640426445
  0
LINE
  5
484
100
AcDbEntity
  8
0
100
AcDbLine
 62
7
  6
CONTINUOUS
 10
108.5866280858
 20
95.7314160533
 11
108.5866280858
 21
96.2077641922
  0
LINE
  5
485
100
AcDbEntity
  8
0
100
AcDbLine
 62
7
  6
CONTINUOUS
 10
109.336627907
 20
95.73
 11
109.336627907
 21
96.2077641922
  0
LINE
  5
486
100
AcDbEntity
  8
0
100
AcDbLine
 62
7
  6
CONTINUOUS
 10
109.899127907
 20
95.73
 11
109.899127907
 21
95.8493366797
  0
LINE
  5
487
100
AcDbEntity
  8
0
100
AcDbLine
 62
7
  6
CONTINUOUS
 10
110.169127907
 20
114.0154333941
 11
110.169127907
 21
114.3155817682
  0
LINE
  5
488
100
AcDbEntity
  8
0
100
AcDbLine
 62
7
  6
CONTINUOUS
 10
111.586627907
 20
96.2077641922
 11
111.586627907
 21
95.905993816
  0
LINE
  5
489
100
AcDbEntity
  8
0
100
AcDbLine
 62
7
  6
CONTINUOUS
 10
111.586627907
 20
95.8493366797
 11
111.586627907
 21
95.73
  0
LINE
  5
48A
100
AcDbEntity
  8
0
100
AcDbLine
 62
7
  6
CONTINUOUS
 10
111.9616275493
 20
95.8409669338
 11
111.9616275493
 21
95.73
  0
LINE
  5
48B
100
AcDbEntity
  8
0
100
AcDbLine
 62
7
  6
CONTINUOUS
 10
112.0553782646
 20
96.1974501241
 11
112.0553782646
 21
95.8957830349
  0
LINE
  5
48C
100
AcDbEntity
  8
0
100
AcDbLine
 62
7
  6
CONTINUOUS
 10
112.2428775493
 20
95.8251448726
 11
112.2428775493
 21
95.73
  0
LINE
  5
48D
100
AcDbEntity
  8
0
100
AcDbLine
 62
7
  6
CONTINUOUS
 10
112.430377907
 20
96.1777539054
 11
112.430377907
 21
95.8762838627
  0
LINE
  5
48E
100
AcDbEntity
  8
0
100
AcDbLine
 62
7
  6
CONTINUOUS
 10
112.430377907
 20
95.8037018069
 11
112.430377907
 21
95.73
  0
LINE
  5
48F
100
AcDbEntity
  8
0
100
AcDbLine
 62
7
  6
CONTINUOUS
 10
112.5241275493
 20
95.7314160533
 11
112.5241275493
 21
95.7793769348
  0
LINE
  5
490
100
AcDbEntity
  8
0
100
AcDbLine
 62
7
  6
CONTINUOUS
 10
112.8053775493
 20
96.1420807436
 11
112.8053775493
 21
95.8409669338
  0
LINE
  5
491
100
AcDbEntity
  8
0
100
AcDbLine
 62
7
  6
CONTINUOUS
 10
112.992877907
 20
96.1113520906
 11
112.992877907
 21
95.8105444668
  0
LINE
  5
492
100
AcDbEntity
  8
0
100
AcDbLine
 62
7
  6
CONTINUOUS
 10
113.0866275493
 20
95.7314160533
 11
113.0866275493
 21
96.0798715222
  0
LINE
  5
493
100
AcDbEntity
  8
0
100
AcDbLine
 62
7
  6
CONTINUOUS
 10
87.9327162251
 20
108.9448936272
 11
87.6012092428
 21
108.7746808815
  0
LINE
  5
494
100
AcDbEntity
  8
0
100
AcDbLine
 62
7
  6
CONTINUOUS
 10
85.7779194174
 20
107.0725531864
 11
85.9436724343
 21
107.1576595592
  0
LINE
  5
495
100
AcDbEntity
  8
0
100
AcDbLine
 62
7
  6
CONTINUOUS
 10
85.8092779564
 20
107.0725531864
 11
85.9750309733
 21
107.1576595592
  0
LINE
  5
496
100
AcDbEntity
  8
0
100
AcDbLine
 62
7
  6
CONTINUOUS
 10
89.1758685943
 20
105.1151063803
 11
89.507376525
 21
105.2853191483
  0
LINE
  5
497
100
AcDbEntity
  8
0
100
AcDbLine
 62
7
  6
CONTINUOUS
 10
89.2072271333
 20
105.1151063803
 11
89.538735064
 21
105.2853191483
  0
LINE
  5
498
100
AcDbEntity
  8
0
100
AcDbLine
 62
7
  6
CONTINUOUS
 10
83.1739293825
 20
100.2289361655
 11
83.3479707142
 21
100.1544680827
  0
LINE
  5
499
100
AcDbEntity
  8
0
100
AcDbLine
 62
7
  6
CONTINUOUS
 10
85.9436724343
 20
106.9874468136
 11
85.7779194174
 21
107.0725531864
  0
LINE
  5
49A
100
AcDbEntity
  8
0
100
AcDbLine
 62
7
  6
CONTINUOUS
 10
85.9750309733
 20
106.9874468136
 11
85.8092779564
 21
107.0725531864
  0
LINE
  5
49B
100
AcDbEntity
  8
0
100
AcDbLine
 62
7
  6
CONTINUOUS
 10
87.2697022605
 20
105.3704255211
 11
87.6840857512
 21
105.1151063803
  0
LINE
  5
49C
100
AcDbEntity
  8
0
100
AcDbLine
 62
7
  6
CONTINUOUS
 10
88.015593682
 20
107.4129786777
 11
87.7669632081
 21
107.5831914234
  0
LINE
  5
49D
100
AcDbEntity
  8
0
100
AcDbLine
 62
7
  6
CONTINUOUS
 10
88.046952221
 20
107.4129786777
 11
87.7983217471
 21
107.5831914234
  0
LINE
  5
49E
100
AcDbEntity
  8
0
100
AcDbLine
 62
7
  6
CONTINUOUS
 10
89.0929920858
 20
106.7321276951
 11
89.3416225597
 21
106.5619149494
  0
LINE
  5
49F
100
AcDbEntity
  8
0
100
AcDbLine
 62
7
  6
CONTINUOUS
 10
89.4244990681
 20
108.6895745087
 11
89.0929920858
 21
108.9448936272
  0
LINE
  5
4A0
100
AcDbEntity
  8
0
100
AcDbLine
 62
7
  6
CONTINUOUS
 10
89.4558576071
 20
108.6895745087
 11
89.1243506248
 21
108.9448936272
  0
LINE
  5
4A1
100
AcDbEntity
  8
0
100
AcDbLine
 62
7
  6
CONTINUOUS
 10
81.7169548532
 20
107.4129786777
 11
81.4683243794
 21
107.3278723049
  0
LINE
  5
4A2
100
AcDbEntity
  8
0
100
AcDbLine
 62
7
  6
CONTINUOUS
 10
88.015593682
 20
108.4342553902
 11
88.2642241558
 21
108.519361763
  0
LINE
  5
4A3
100
AcDbEntity
  8
0
100
AcDbLine
 62
7
  6
CONTINUOUS
 10
88.046952221
 20
108.4342553902
 11
88.2675130667
 21
108.5097535111
  0
LINE
  5
4A4
100
AcDbEntity
  8
0
100
AcDbLine
 62
7
  6
CONTINUOUS
 10
85.5292889436
 20
107.4129786777
 11
85.2806584697
 21
107.3278723049
  0
LINE
  5
4A5
100
AcDbEntity
  8
0
100
AcDbLine
 62
7
  6
CONTINUOUS
 10
85.5292889436
 20
105.6257446694
 11
85.2806584697
 21
105.5406382966
  0
LINE
  5
4A6
100
AcDbEntity
  8
0
100
AcDbLine
 62
7
  6
CONTINUOUS
 10
176.5140316581
 20
101.03
 11
176.8455395889
 21
101.1151063728
  0
LINE
  5
4A7
100
AcDbEntity
  8
0
100
AcDbLine
 62
7
  6
CONTINUOUS
 10
83.3479707142
 20
100.1544680827
 11
83.6960533776
 21
100.08
  0
LINE
  5
4A8
100
AcDbEntity
  8
0
100
AcDbLine
 62
7
  6
CONTINUOUS
 10
83.6960533776
 20
100.377872331
 11
83.4059842701
 21
100.4523404333
  0
LINE
  5
4A9
100
AcDbEntity
  8
0
100
AcDbLine
 62
7
  6
CONTINUOUS
 10
83.7274119166
 20
100.377872331
 11
83.4373428091
 21
100.4523404333
  0
LINE
  5
4AA
100
AcDbEntity
  8
0
100
AcDbLine
 62
7
  6
CONTINUOUS
 10
87.6012092428
 20
107.0725531864
 11
87.9327162251
 21
106.9023404408
  0
LINE
  5
4AB
100
AcDbEntity
  8
0
100
AcDbLine
 62
7
  6
CONTINUOUS
 10
89.507376525
 20
107.0725531864
 11
89.1758685943
 21
107.2427659321
  0
LINE
  5
4AC
100
AcDbEntity
  8
0
100
AcDbLine
 62
7
  6
CONTINUOUS
 10
89.538735064
 20
107.0725531864
 11
89.2072271333
 21
107.2427659321
  0
LINE
  5
4AD
100
AcDbEntity
  8
BEZUGSACHSEN
100
AcDbLine
 62
7
  6
CONTINUOUS
 10
118.889127907
 20
114.03
 11
118.889127907
 21
112.03
  0
LINE
  5
4AE
100
AcDbEntity
  8
0
100
AcDbLine
 62
7
  6
CONTINUOUS
 10
118.889127907
 20
96.03
 11
118.889127907
 21
98.03
  0
LINE
  5
4AF
100
AcDbEntity
  8
0
100
AcDbLine
 62
7
  6
CONTINUOUS
 10
175.6852637281
 20
104.4342553306
 11
176.0167707104
 21
104.5193617034
  0
LINE
  5
4B0
100
AcDbEntity
  8
0
100
AcDbLine
 62
7
  6
CONTINUOUS
 10
179.5804748011
 20
105.03
 11
179.1660903619
 21
104.9448936197
  0
LINE
  5
4B1
100
AcDbEntity
  8
0
100
AcDbLine
 62
7
  6
CONTINUOUS
 10
179.5491162622
 20
105.03
 11
179.1347318229
 21
104.9448936197
  0
LWPOLYLINE
  5
4B2
100
AcDbEntity
  8
RUNDUNGEN
100
AcDbPolyline
 62
7
  6
CONTINUOUS
 90
5
 70
0
 10
167.3838811209
 20
96.0300051216
 10
167.4736925246
 20
96.0318209334
 10
167.7970346569
 20
96.0659306562
 10
168.1142143034
 20
96.1431416983
 10
168.4152316605
 20
96.2605872552
  0
LINE
  5
4B3
100
AcDbEntity
  8
0
100
AcDbLine
 62
7
  6
CONTINUOUS
 10
113.0292613546
 20
95.73
 11
112.5241275493
 21
95.73
  0
LINE
  5
4B4
100
AcDbEntity
  8
0
100
AcDbLine
 62
7
  6
CONTINUOUS
 10
112.452419806
 20
95.73
 11
109.336627907
 21
95.73
  0
LINE
  5
4B5
100
AcDbEntity
  8
0
100
AcDbLine
 62
7
  6
CONTINUOUS
 10
108.5292615628
 20
95.73
 11
108.0241280858
 21
95.73
  0
LINE
  5
4B6
100
AcDbEntity
  8
0
100
AcDbLine
 62
7
  6
CONTINUOUS
 10
107.9524199321
 20
95.73
 11
105.8458358292
 21
95.73
  0
LINE
  5
4B7
100
AcDbEntity
  8
0
100
AcDbLine
 62
7
  6
CONTINUOUS
 10
105.7741280858
 20
95.73
 11
105.2689943405
 21
95.73
  0
LINE
  5
4B8
100
AcDbEntity
  8
0
100
AcDbLine
 62
7
  6
CONTINUOUS
 10
104.4616279964
 20
95.73
 11
103.9869101163
 21
95.73
  0
LINE
  5
4B9
100
AcDbEntity
  8
0
100
AcDbLine
 62
7
  6
CONTINUOUS
 10
103.711627907
 20
95.73
 11
103.3432186444
 21
95.73
  0
LINE
  5
4BA
100
AcDbEntity
  8
0
100
AcDbLine
 62
7
  6
CONTINUOUS
 10
101.461627907
 20
95.73
 11
100.899127907
 21
95.73
  0
LINE
  5
4BB
100
AcDbEntity
  8
0
100
AcDbLine
 62
7
  6
CONTINUOUS
 10
103.0553778623
 20
95.7398276098
 11
101.461627907
 21
95.7398276098
  0
LINE
  5
4BC
100
AcDbEntity
  8
0
100
AcDbLine
 62
7
  6
CONTINUOUS
 10
103.2428778176
 20
95.7599166854
 11
101.461627907
 21
95.7599166854
  0
LWPOLYLINE
  5
4BD
100
AcDbEntity
  8
RUNDUNGEN
100
AcDbPolyline
 62
7
  6
CONTINUOUS
 90
5
 70
0
 10
95.6195592259
 20
96.5300373405
 10
95.7690140191
 20
96.518548125
 10
95.9139557924
 20
96.4846696398
 10
96.0468595814
 20
96.4316787836
 10
96.1268950723
 20
96.3879475001
  0
LINE
  5
4BE
100
AcDbEntity
  8
0
100
AcDbLine
 62
7
  6
CONTINUOUS
 10
88.0984701904
 20
105.5406382966
 11
87.7669632081
 21
105.6257446694
  0
LINE
  5
4BF
100
AcDbEntity
  8
0
100
AcDbLine
 62
7
  6
CONTINUOUS
 10
88.1004091773
 20
105.5481910527
 11
87.7983217471
 21
105.6257446694
  0
LINE
  5
4C0
100
AcDbEntity
  8
0
100
AcDbLine
 62
7
  6
CONTINUOUS
 10
87.9327162251
 20
106.9023404408
 11
88.2642241558
 21
106.8172340679
  0
LINE
  5
4C1
100
AcDbEntity
  8
0
100
AcDbLine
 62
7
  6
CONTINUOUS
 10
85.2806584697
 20
106.8172340679
 11
85.5292889436
 21
106.7321276951
  0
LINE
  5
4C2
100
AcDbEntity
  8
0
100
AcDbLine
 62
7
  6
CONTINUOUS
 10
81.4683243794
 20
108.6044681358
 11
81.7169548532
 21
108.519361763
  0
LINE
  5
4C3
100
AcDbEntity
  8
0
100
AcDbLine
 62
7
  6
CONTINUOUS
 10
88.2642241558
 20
107.3278723049
 11
88.015593682
 21
107.4129786777
  0
LINE
  5
4C4
100
AcDbEntity
  8
0
100
AcDbLine
 62
7
  6
CONTINUOUS
 10
88.2675130667
 20
107.3374805569
 11
88.046952221
 21
107.4129786777
  0
LINE
  5
4C5
100
AcDbEntity
  8
0
100
AcDbLine
 62
7
  6
CONTINUOUS
 10
85.2806584697
 20
108.519361763
 11
85.5292889436
 21
108.4342553902
  0
LINE
  5
4C6
100
AcDbEntity
  8
0
100
AcDbLine
 62
7
  6
CONTINUOUS
 10
88.7614851035
 20
108.519361763
 11
89.0101155774
 21
108.4342553902
  0
LINE
  5
4C7
100
AcDbEntity
  8
0
100
AcDbLine
 62
7
  6
CONTINUOUS
 10
176.0167707104
 20
105.03
 11
175.6023872197
 21
104.9448936197
  0
LINE
  5
4C8
100
AcDbEntity
  8
0
100
AcDbLine
 62
7
  6
CONTINUOUS
 10
111.586627907
 20
95.8493366797
 11
109.899127907
 21
95.8493366797
  0
LINE
  5
4C9
100
AcDbEntity
  8
0
100
AcDbLine
 62
7
  6
CONTINUOUS
 10
103.2428778176
 20
95.8580125721
 11
101.461627907
 21
95.8580125721
  0
LINE
  5
4CA
100
AcDbEntity
  8
0
100
AcDbLine
 62
7
  6
CONTINUOUS
 10
111.586627907
 20
95.905993816
 11
109.336627907
 21
95.905993816
  0
LINE
  5
4CB
100
AcDbEntity
  8
0
100
AcDbLine
 62
7
  6
CONTINUOUS
 10
108.5866280858
 20
95.905993816
 11
108.0241280858
 21
95.905993816
  0
LINE
  5
4CC
100
AcDbEntity
  8
0
100
AcDbLine
 62
7
  6
CONTINUOUS
 10
105.7741280858
 20
95.905993816
 11
105.2116278176
 21
95.905993816
  0
LINE
  5
4CD
100
AcDbEntity
  8
0
100
AcDbLine
 62
7
  6
CONTINUOUS
 10
103.149127907
 20
95.905993816
 11
100.899127907
 21
95.905993816
  0
LINE
  5
4CE
100
AcDbEntity
  8
0
100
AcDbLine
 62
7
  6
CONTINUOUS
 10
118.889127907
 20
96.03
 11
113.0866275493
 21
96.03
  0
LINE
  5
4CF
100
AcDbEntity
  8
0
100
AcDbLine
 62
7
  6
CONTINUOUS
 10
109.336627907
 20
96.03
 11
108.5866280858
 21
96.03
  0
LINE
  5
4D0
100
AcDbEntity
  8
RUNDUNGEN
100
AcDbLine
 62
7
  6
CONTINUOUS
 10
109.336627907
 20
96.03
 11
108.5866280858
 21
96.03
  0
LINE
  5
4D1
100
AcDbEntity
  8
0
100
AcDbLine
 62
7
  6
CONTINUOUS
 10
107.9524199321
 20
96.03
 11
105.8458358292
 21
96.03
  0
LINE
  5
4D2
100
AcDbEntity
  8
0
100
AcDbLine
 62
7
  6
CONTINUOUS
 10
105.2116278176
 20
96.03
 11
104.3678778176
 21
96.03
  0
LINE
  5
4D3
100
AcDbEntity
  8
0
100
AcDbLine
 62
7
  6
CONTINUOUS
 10
100.899127907
 20
96.03
 11
98.0339356358
 21
96.03
  0
LINE
  5
4D4
100
AcDbEntity
  8
RUNDUNGEN
100
AcDbLine
 62
7
  6
CONTINUOUS
 10
145.889127907
 20
96.03
 11
167.3838811051
 21
96.030004909
  0
LINE
  5
4D5
100
AcDbEntity
  8
0
100
AcDbLine
 62
7
  6
CONTINUOUS
 10
111.586627907
 20
96.2077641922
 11
109.336627907
 21
96.2077641922
  0
LINE
  5
4D6
100
AcDbEntity
  8
0
100
AcDbLine
 62
7
  6
CONTINUOUS
 10
108.5866280858
 20
96.2077641922
 11
108.0241280858
 21
96.2077641922
  0
LINE
  5
4D7
100
AcDbEntity
  8
0
100
AcDbLine
 62
7
  6
CONTINUOUS
 10
105.7741280858
 20
96.2077641922
 11
105.2116278176
 21
96.2077641922
  0
LINE
  5
4D8
100
AcDbEntity
  8
0
100
AcDbLine
 62
7
  6
CONTINUOUS
 10
103.149127907
 20
96.2077641922
 11
100.899127907
 21
96.2077641922
  0
LINE
  5
4D9
100
AcDbEntity
  8
BEZUGSACHSEN
100
AcDbLine
 62
7
  6
CONTINUOUS
 10
94.889127907
 20
96.53
 11
95.6194347912
 21
96.53
  0
LINE
  5
4DA
100
AcDbEntity
  8
BEZUGSACHSEN
100
AcDbLine
 62
7
  6
CONTINUOUS
 10
169.1595560243
 20
96.53
 11
169.889127907
 21
96.53
  0
LINE
  5
4DB
100
AcDbEntity
  8
0
100
AcDbLine
 62
7
  6
CONTINUOUS
 10
135.9451361118
 20
97.53
 11
133.4481908498
 21
97.53
  0
LINE
  5
4DC
100
AcDbEntity
  8
0
100
AcDbLine
 62
7
  6
CONTINUOUS
 10
132.9186594902
 20
97.53
 11
128.8331197022
 21
97.53
  0
LINE
  5
4DD
100
AcDbEntity
  8
RUNDUNGEN
100
AcDbLine
 62
7
  6
CONTINUOUS
 10
96.763116842
 20
98.03
 11
168.0153774151
 21
98.03
  0
LINE
  5
4DE
100
AcDbEntity
  8
0
100
AcDbLine
 62
7
  6
CONTINUOUS
 10
83.7274119166
 20
100.08
 11
83.6960533776
 21
100.08
  0
LINE
  5
4DF
100
AcDbEntity
  8
0
100
AcDbLine
 62
7
  6
CONTINUOUS
 10
81.0274195144
 20
100.08
 11
81.4068607167
 21
100.08
  0
LINE
  5
4E0
100
AcDbEntity
  8
0
100
AcDbLine
 62
7
  6
CONTINUOUS
 10
83.7274119166
 20
100.377872331
 11
83.6960533776
 21
100.377872331
  0
LINE
  5
4E1
100
AcDbEntity
  8
0
100
AcDbLine
 62
7
  6
CONTINUOUS
 10
83.4373428091
 20
100.4523404333
 11
83.4059842701
 21
100.4523404333
  0
LINE
  5
4E2
100
AcDbEntity
  8
0
100
AcDbLine
 62
7
  6
CONTINUOUS
 10
83.2633014774
 20
100.6012765858
 11
83.2319429385
 21
100.6012765858
  0
LINE
  5
4E3
100
AcDbEntity
  8
RUNDUNGEN
100
AcDbLine
 62
7
  6
CONTINUOUS
 10
97.3945520557
 20
96.0300045264
 11
98.0339356358
 21
96.03
  0
LINE
  5
4E4
100
AcDbEntity
  8
0
100
AcDbLine
 62
7
  6
CONTINUOUS
 10
87.6840857512
 20
105.1151063803
 11
88.0984701904
 21
105.03
  0
LINE
  5
4E5
100
AcDbEntity
  8
0
100
AcDbLine
 62
7
  6
CONTINUOUS
 10
89.1758685943
 20
107.2427659321
 11
88.7614851035
 21
107.3278723049
  0
LINE
  5
4E6
100
AcDbEntity
  8
0
100
AcDbLine
 62
7
  6
CONTINUOUS
 10
89.2072271333
 20
107.2427659321
 11
88.7928436425
 21
107.3278723049
  0
LINE
  5
4E7
100
AcDbEntity
  8
0
100
AcDbLine
 62
7
  6
CONTINUOUS
 10
81.7998313617
 20
108.9448936272
 11
81.3854473967
 21
109.03
  0
LINE
  5
4E8
100
AcDbEntity
  8
0
100
AcDbLine
 62
7
  6
CONTINUOUS
 10
81.8311899007
 20
108.9448936272
 11
81.4168059357
 21
109.03
  0
LINE
  5
4E9
100
AcDbEntity
  8
0
100
AcDbLine
 62
7
  6
CONTINUOUS
 10
85.612165452
 20
108.9448936272
 11
85.1977810128
 21
109.03
  0
LINE
  5
4EA
100
AcDbEntity
  8
0
100
AcDbLine
 62
7
  6
CONTINUOUS
 10
85.643523991
 20
108.9448936272
 11
85.2291395518
 21
109.03
  0
LINE
  5
4EB
100
AcDbEntity
  8
0
100
AcDbLine
 62
7
  6
CONTINUOUS
 10
89.0929920858
 20
108.9448936272
 11
88.6786076466
 21
109.03
  0
LINE
  5
4EC
100
AcDbEntity
  8
0
100
AcDbLine
 62
7
  6
CONTINUOUS
 10
89.1243506248
 20
108.9448936272
 11
88.7099661856
 21
109.03
  0
LINE
  5
4ED
100
AcDbEntity
  8
0
100
AcDbLine
 62
7
  6
CONTINUOUS
 10
88.7614851035
 20
106.8172340679
 11
89.0929920858
 21
106.7321276951
  0
LINE
  5
4EE
100
AcDbEntity
  8
0
100
AcDbLine
 62
7
  6
CONTINUOUS
 10
128.8331197022
 20
98.03
 11
128.8331197022
 21
97.53
  0
LINE
  5
4EF
100
AcDbEntity
  8
0
100
AcDbLine
 62
7
  6
CONTINUOUS
 10
128.8331197022
 20
112.03
 11
128.8331197022
 21
112.53
  0
LINE
  5
4F0
100
AcDbEntity
  8
0
100
AcDbLine
 62
7
  6
CONTINUOUS
 10
129.5581708668
 20
112.03
 11
129.5581708668
 21
112.53
  0
LINE
  5
4F1
100
AcDbEntity
  8
0
100
AcDbLine
 62
7
  6
CONTINUOUS
 10
130.7231400726
 20
112.03
 11
130.7231400726
 21
112.53
  0
LINE
  5
4F2
100
AcDbEntity
  8
0
100
AcDbLine
 62
7
  6
CONTINUOUS
 10
131.0001258073
 20
98.03
 11
131.0001258073
 21
97.53
  0
LINE
  5
4F3
100
AcDbEntity
  8
0
100
AcDbLine
 62
7
  6
CONTINUOUS
 10
131.3300649641
 20
112.03
 11
131.3300649641
 21
112.53
  0
LINE
  5
4F4
100
AcDbEntity
  8
0
100
AcDbLine
 62
7
  6
CONTINUOUS
 10
131.8595963238
 20
112.03
 11
131.8595963238
 21
112.53
  0
LINE
  5
4F5
100
AcDbEntity
  8
0
100
AcDbLine
 62
7
  6
CONTINUOUS
 10
132.2710014997
 20
98.03
 11
132.2710014997
 21
97.53
  0
LINE
  5
4F6
100
AcDbEntity
  8
0
100
AcDbLine
 62
7
  6
CONTINUOUS
 10
132.5072543142
 20
112.03
 11
132.5072543142
 21
112.53
  0
LINE
  5
4F7
100
AcDbEntity
  8
0
100
AcDbLine
 62
7
  6
CONTINUOUS
 10
132.9186594902
 20
98.03
 11
132.9186594902
 21
97.53
  0
LINE
  5
4F8
100
AcDbEntity
  8
0
100
AcDbLine
 62
7
  6
CONTINUOUS
 10
83.2052879215
 20
100.8246808666
 11
83.1739293825
 21
100.8246808666
  0
LINE
  5
4F9
100
AcDbEntity
  8
0
100
AcDbLine
 62
7
  6
CONTINUOUS
 10
176.0996481674
 20
101.03
 11
176.5140316581
 21
101.03
  0
LINE
  5
4FA
100
AcDbEntity
  8
0
100
AcDbLine
 62
7
  6
CONTINUOUS
 10
179.5804748011
 20
101.03
 11
181.5695181177
 21
101.03
  0
LINE
  5
4FB
100
AcDbEntity
  8
0
100
AcDbLine
 62
7
  6
CONTINUOUS
 10
183.3928084172
 20
101.03
 11
185.381852208
 21
101.03
  0
LINE
  5
4FC
100
AcDbEntity
  8
0
100
AcDbLine
 62
7
  6
CONTINUOUS
 10
186.0135083449
 20
101.03
 11
186.5421278316
 21
101.03
  0
LINE
  5
4FD
100
AcDbEntity
  8
0
100
AcDbLine
 62
7
  6
CONTINUOUS
 10
188.8313203028
 20
101.03
 11
189.3599397895
 21
101.03
  0
LINE
  5
4FE
100
AcDbEntity
  8
0
100
AcDbLine
 62
7
  6
CONTINUOUS
 10
175.6539051892
 20
101.1151063728
 11
175.6852637281
 21
101.1151063728
  0
LINE
  5
4FF
100
AcDbEntity
  8
0
100
AcDbLine
 62
7
  6
CONTINUOUS
 10
179.1347318229
 20
101.1151063728
 11
179.1660903619
 21
101.1151063728
  0
LINE
  5
500
100
AcDbEntity
  8
0
100
AcDbLine
 62
7
  6
CONTINUOUS
 10
182.9470659133
 20
101.1151063728
 11
182.9784244522
 21
101.1151063728
  0
LINE
  5
501
100
AcDbEntity
  8
0
100
AcDbLine
 62
7
  6
CONTINUOUS
 10
79.6350888609
 20
101.1225531715
 11
81.0274195144
 21
101.1225531715
  0
LINE
  5
502
100
AcDbEntity
  8
0
100
AcDbLine
 62
7
  6
CONTINUOUS
 10
81.3755021778
 20
101.1225531715
 11
81.9869984337
 21
101.1225531715
  0
LINE
  5
503
100
AcDbEntity
  8
0
100
AcDbLine
 62
7
  6
CONTINUOUS
 10
175.3223982069
 20
101.3704254913
 11
175.3537567458
 21
101.3704254913
  0
LINE
  5
504
100
AcDbEntity
  8
0
100
AcDbLine
 62
7
  6
CONTINUOUS
 10
178.8032248406
 20
101.3704254913
 11
178.8345833796
 21
101.3704254913
  0
LINE
  5
505
100
AcDbEntity
  8
0
100
AcDbLine
 62
7
  6
CONTINUOUS
 10
182.6155584567
 20
101.3704254913
 11
182.6469169957
 21
101.3704254913
  0
LINE
  5
506
100
AcDbEntity
  8
0
100
AcDbLine
 62
7
  6
CONTINUOUS
 10
184.8845912603
 20
101.4555318642
 11
183.3099314346
 21
101.4555318642
  0
LINE
  5
507
100
AcDbEntity
  8
0
100
AcDbLine
 62
7
  6
CONTINUOUS
 10
181.0722576442
 20
101.540638237
 11
179.4975973442
 21
101.540638237
  0
LINE
  5
508
100
AcDbEntity
  8
0
100
AcDbLine
 62
7
  6
CONTINUOUS
 10
176.5140316581
 20
101.540638237
 11
176.0167707104
 21
101.540638237
  0
LINE
  5
509
100
AcDbEntity
  8
0
100
AcDbLine
 62
7
  6
CONTINUOUS
 10
81.9869984337
 20
101.5693617332
 11
81.3755021778
 21
101.5693617332
  0
LINE
  5
50A
100
AcDbEntity
  8
0
100
AcDbLine
 62
7
  6
CONTINUOUS
 10
81.0274195144
 20
101.5693617332
 11
80.0411852876
 21
101.5693617332
  0
LINE
  5
50B
100
AcDbEntity
  8
0
100
AcDbLine
 62
7
  6
CONTINUOUS
 10
176.731303593
 20
101.6257446098
 11
176.762662132
 21
101.6257446098
  0
LINE
  5
50C
100
AcDbEntity
  8
0
100
AcDbLine
 62
7
  6
CONTINUOUS
 10
175.073767733
 20
101.7108509827
 11
175.105126272
 21
101.7108509827
  0
LINE
  5
50D
100
AcDbEntity
  8
0
100
AcDbLine
 62
7
  6
CONTINUOUS
 10
178.5545943668
 20
101.7108509827
 11
178.5859529058
 21
101.7108509827
  0
LINE
  5
50E
100
AcDbEntity
  8
0
100
AcDbLine
 62
7
  6
CONTINUOUS
 10
182.3669279829
 20
101.7108509827
 11
182.3982865219
 21
101.7108509827
  0
LINE
  5
50F
100
AcDbEntity
  8
0
100
AcDbLine
 62
7
  6
CONTINUOUS
 10
176.9799340668
 20
101.7959573555
 11
177.0112926058
 21
101.7959573555
  0
LINE
  5
510
100
AcDbEntity
  8
0
100
AcDbLine
 62
7
  6
CONTINUOUS
 10
174.9908902761
 20
101.9661701012
 11
175.5195097628
 21
101.9661701012
  0
LINE
  5
511
100
AcDbEntity
  8
0
100
AcDbLine
 62
7
  6
CONTINUOUS
 10
178.4717169099
 20
101.9661701012
 11
178.5030754489
 21
101.9661701012
  0
LINE
  5
512
100
AcDbEntity
  8
0
100
AcDbLine
 62
7
  6
CONTINUOUS
 10
182.2840510002
 20
101.9661701012
 11
182.3154095392
 21
101.9661701012
  0
LINE
  5
513
100
AcDbEntity
  8
0
100
AcDbLine
 62
7
  6
CONTINUOUS
 10
177.0628115237
 20
102.0512767124
 11
177.0941700627
 21
102.0512767124
  0
LINE
  5
514
100
AcDbEntity
  8
0
100
AcDbLine
 62
7
  6
CONTINUOUS
 10
82.4197501679
 20
102.165106343
 11
82.8838602751
 21
102.165106343
  0
LINE
  5
515
100
AcDbEntity
  8
0
100
AcDbLine
 62
7
  6
CONTINUOUS
 10
83.1739293825
 20
102.165106343
 11
83.8434393604
 21
102.165106343
  0
LINE
  5
516
100
AcDbEntity
  8
0
100
AcDbLine
 62
7
  6
CONTINUOUS
 10
177.0628115237
 20
102.2214894581
 11
177.0941700627
 21
102.2214894581
  0
LINE
  5
517
100
AcDbEntity
  8
0
100
AcDbLine
 62
7
  6
CONTINUOUS
 10
178.4717169099
 20
102.3065958309
 11
178.5030754489
 21
102.3065958309
  0
LINE
  5
518
100
AcDbEntity
  8
0
100
AcDbLine
 62
7
  6
CONTINUOUS
 10
182.2840510002
 20
102.3065958309
 11
182.3154095392
 21
102.3065958309
  0
LINE
  5
519
100
AcDbEntity
  8
0
100
AcDbLine
 62
7
  6
CONTINUOUS
 10
83.8434393604
 20
102.4629786479
 11
83.1739293825
 21
102.4629786479
  0
LINE
  5
51A
100
AcDbEntity
  8
0
100
AcDbLine
 62
7
  6
CONTINUOUS
 10
82.8838602751
 20
102.4629786479
 11
82.4197501679
 21
102.4629786479
  0
LINE
  5
51B
100
AcDbEntity
  8
0
100
AcDbLine
 62
7
  6
CONTINUOUS
 10
176.9799340668
 20
102.4768085766
 11
177.0112926058
 21
102.4768085766
  0
LINE
  5
51C
100
AcDbEntity
  8
0
100
AcDbLine
 62
7
  6
CONTINUOUS
 10
178.5545943668
 20
102.5619149494
 11
178.5859529058
 21
102.5619149494
  0
LINE
  5
51D
100
AcDbEntity
  8
0
100
AcDbLine
 62
7
  6
CONTINUOUS
 10
182.3669279829
 20
102.5619149494
 11
182.3982865219
 21
102.5619149494
  0
LINE
  5
51E
100
AcDbEntity
  8
0
100
AcDbLine
 62
7
  6
CONTINUOUS
 10
176.731303593
 20
102.6470213223
 11
176.762662132
 21
102.6470213223
  0
LINE
  5
51F
100
AcDbEntity
  8
0
100
AcDbLine
 62
7
  6
CONTINUOUS
 10
176.0167707104
 20
102.7321276951
 11
176.5140316581
 21
102.7321276951
  0
LINE
  5
520
100
AcDbEntity
  8
0
100
AcDbLine
 62
7
  6
CONTINUOUS
 10
179.4975973442
 20
102.7321276951
 11
181.0722576442
 21
102.7321276951
  0
LINE
  5
521
100
AcDbEntity
  8
0
100
AcDbLine
 62
7
  6
CONTINUOUS
 10
183.3099314346
 20
102.7321276951
 11
184.8845912603
 21
102.7321276951
  0
LINE
  5
522
100
AcDbEntity
  8
0
100
AcDbLine
 62
7
  6
CONTINUOUS
 10
175.5710286807
 20
102.8172340679
 11
175.6023872197
 21
102.8172340679
  0
LINE
  5
523
100
AcDbEntity
  8
0
100
AcDbLine
 62
7
  6
CONTINUOUS
 10
178.8032248406
 20
102.9023404408
 11
178.8345833796
 21
102.9023404408
  0
LINE
  5
524
100
AcDbEntity
  8
0
100
AcDbLine
 62
7
  6
CONTINUOUS
 10
182.6155584567
 20
102.9023404408
 11
182.6469169957
 21
102.9023404408
  0
LINE
  5
525
100
AcDbEntity
  8
0
100
AcDbLine
 62
7
  6
CONTINUOUS
 10
175.2395207499
 20
102.9874468136
 11
175.2708792889
 21
102.9874468136
  0
LINE
  5
526
100
AcDbEntity
  8
0
100
AcDbLine
 62
7
  6
CONTINUOUS
 10
178.9689778576
 20
102.9874468136
 11
179.0003363965
 21
102.9874468136
  0
LINE
  5
527
100
AcDbEntity
  8
0
100
AcDbLine
 62
7
  6
CONTINUOUS
 10
83.2052879215
 20
103.0587234664
 11
82.8838602751
 21
103.0587234664
  0
LINE
  5
528
100
AcDbEntity
  8
0
100
AcDbLine
 62
7
  6
CONTINUOUS
 10
178.8032248406
 20
103.0725531864
 11
178.8345833796
 21
103.0725531864
  0
LINE
  5
529
100
AcDbEntity
  8
0
100
AcDbLine
 62
7
  6
CONTINUOUS
 10
182.9470659133
 20
103.0725531864
 11
182.9784244522
 21
103.0725531864
  0
LINE
  5
52A
100
AcDbEntity
  8
0
100
AcDbLine
 62
7
  6
CONTINUOUS
 10
184.8845912603
 20
103.2427659321
 11
183.4756853999
 21
103.2427659321
  0
LINE
  5
52B
100
AcDbEntity
  8
0
100
AcDbLine
 62
7
  6
CONTINUOUS
 10
181.0722576442
 20
103.2427659321
 11
179.4975973442
 21
103.2427659321
  0
LINE
  5
52C
100
AcDbEntity
  8
0
100
AcDbLine
 62
7
  6
CONTINUOUS
 10
176.5140316581
 20
103.2427659321
 11
176.0167707104
 21
103.2427659321
  0
LINE
  5
52D
100
AcDbEntity
  8
0
100
AcDbLine
 62
7
  6
CONTINUOUS
 10
174.9080137676
 20
103.3278723049
 11
174.9393723066
 21
103.3278723049
  0
LINE
  5
52E
100
AcDbEntity
  8
0
100
AcDbLine
 62
7
  6
CONTINUOUS
 10
178.5545943668
 20
103.4129786777
 11
178.5859529058
 21
103.4129786777
  0
LINE
  5
52F
100
AcDbEntity
  8
0
100
AcDbLine
 62
7
  6
CONTINUOUS
 10
81.4068607167
 20
103.58
 11
81.0274195144
 21
103.58
  0
LINE
  5
530
100
AcDbEntity
  8
0
100
AcDbLine
 62
7
  6
CONTINUOUS
 10
174.7422598023
 20
103.6682979155
 11
174.7736183412
 21
103.6682979155
  0
LINE
  5
531
100
AcDbEntity
  8
0
100
AcDbLine
 62
7
  6
CONTINUOUS
 10
178.4717169099
 20
103.6682979155
 11
178.5030754489
 21
103.6682979155
  0
LINE
  5
532
100
AcDbEntity
  8
0
100
AcDbLine
 62
7
  6
CONTINUOUS
 10
177.3114419976
 20
103.923617034
 11
177.8400614843
 21
103.923617034
  0
LINE
  5
533
100
AcDbEntity
  8
0
100
AcDbLine
 62
7
  6
CONTINUOUS
 10
174.7422598023
 20
104.0938297796
 11
174.7736183412
 21
104.0938297796
  0
LINE
  5
534
100
AcDbEntity
  8
0
100
AcDbLine
 62
7
  6
CONTINUOUS
 10
178.4717169099
 20
104.0938297796
 11
178.5030754489
 21
104.0938297796
  0
LINE
  5
535
100
AcDbEntity
  8
0
100
AcDbLine
 62
7
  6
CONTINUOUS
 10
177.2285645407
 20
104.1789361525
 11
177.2599230797
 21
104.1789361525
  0
LINE
  5
536
100
AcDbEntity
  8
0
100
AcDbLine
 62
7
  6
CONTINUOUS
 10
178.5545943668
 20
104.3491489577
 11
178.5859529058
 21
104.3491489577
  0
LINE
  5
537
100
AcDbEntity
  8
0
100
AcDbLine
 62
7
  6
CONTINUOUS
 10
174.9080137676
 20
104.4342553306
 11
174.9393723066
 21
104.4342553306
  0
LINE
  5
538
100
AcDbEntity
  8
0
100
AcDbLine
 62
7
  6
CONTINUOUS
 10
176.9799340668
 20
104.4342553306
 11
177.0112926058
 21
104.4342553306
  0
LINE
  5
539
100
AcDbEntity
  8
0
100
AcDbLine
 62
7
  6
CONTINUOUS
 10
176.0167707104
 20
104.5193617034
 11
176.6797856235
 21
104.5193617034
  0
LINE
  5
53A
100
AcDbEntity
  8
0
100
AcDbLine
 62
7
  6
CONTINUOUS
 10
179.4975973442
 20
104.5193617034
 11
181.0722576442
 21
104.5193617034
  0
LINE
  5
53B
100
AcDbEntity
  8
0
100
AcDbLine
 62
7
  6
CONTINUOUS
 10
178.8032248406
 20
104.6895744789
 11
178.8345833796
 21
104.6895744789
  0
LINE
  5
53C
100
AcDbEntity
  8
0
100
AcDbLine
 62
7
  6
CONTINUOUS
 10
175.2395207499
 20
104.7746808517
 11
175.2708792889
 21
104.7746808517
  0
LINE
  5
53D
100
AcDbEntity
  8
0
100
AcDbLine
 62
7
  6
CONTINUOUS
 10
175.5710286807
 20
104.9448936197
 11
175.6023872197
 21
104.9448936197
  0
LINE
  5
53E
100
AcDbEntity
  8
0
100
AcDbLine
 62
7
  6
CONTINUOUS
 10
179.1347318229
 20
104.9448936197
 11
179.1660903619
 21
104.9448936197
  0
LINE
  5
53F
100
AcDbEntity
  8
0
100
AcDbLine
 62
7
  6
CONTINUOUS
 10
181.5695181177
 20
105.03
 11
179.5804748011
 21
105.03
  0
LINE
  5
540
100
AcDbEntity
  8
0
100
AcDbLine
 62
7
  6
CONTINUOUS
 10
176.6797856235
 20
105.03
 11
176.0167707104
 21
105.03
  0
LINE
  5
541
100
AcDbEntity
  8
0
100
AcDbLine
 62
7
  6
CONTINUOUS
 10
76.7443452578
 20
105.03
 11
77.4387183542
 21
105.03
  0
LINE
  5
542
100
AcDbEntity
  8
0
100
AcDbLine
 62
7
  6
CONTINUOUS
 10
79.396403606
 20
105.03
 11
79.9250230926
 21
105.03
  0
LINE
  5
543
100
AcDbEntity
  8
0
100
AcDbLine
 62
7
  6
CONTINUOUS
 10
81.9655853271
 20
105.03
 11
82.5770813222
 21
105.03
  0
LINE
  5
544
100
AcDbEntity
  8
0
100
AcDbLine
 62
7
  6
CONTINUOUS
 10
83.2087376963
 20
105.03
 11
85.1977810128
 21
105.03
  0
LINE
  5
545
100
AcDbEntity
  8
0
100
AcDbLine
 62
7
  6
CONTINUOUS
 10
88.0984701904
 20
105.03
 11
88.7614851035
 21
105.03
  0
LINE
  5
546
100
AcDbEntity
  8
0
100
AcDbLine
 62
7
  6
CONTINUOUS
 10
182.2011744917
 20
105.03
 11
182.8126704869
 21
105.03
  0
LINE
  5
547
100
AcDbEntity
  8
0
100
AcDbLine
 62
7
  6
CONTINUOUS
 10
184.8532327213
 20
105.03
 11
185.381852208
 21
105.03
  0
LINE
  5
548
100
AcDbEntity
  8
0
100
AcDbLine
 62
7
  6
CONTINUOUS
 10
187.3395374597
 20
105.03
 11
188.0339105561
 21
105.03
  0
LINE
  5
549
100
AcDbEntity
  8
0
100
AcDbLine
 62
7
  6
CONTINUOUS
 10
89.2072271333
 20
105.1151063803
 11
89.1758685943
 21
105.1151063803
  0
LINE
  5
54A
100
AcDbEntity
  8
0
100
AcDbLine
 62
7
  6
CONTINUOUS
 10
85.643523991
 20
105.1151063803
 11
85.612165452
 21
105.1151063803
  0
LINE
  5
54B
100
AcDbEntity
  8
0
100
AcDbLine
 62
7
  6
CONTINUOUS
 10
89.538735064
 20
105.2853191483
 11
89.507376525
 21
105.2853191483
  0
LINE
  5
54C
100
AcDbEntity
  8
0
100
AcDbLine
 62
7
  6
CONTINUOUS
 10
85.9750309733
 20
105.3704255211
 11
85.9436724343
 21
105.3704255211
  0
LINE
  5
54D
100
AcDbEntity
  8
0
100
AcDbLine
 62
7
  6
CONTINUOUS
 10
88.7614851035
 20
105.5406382966
 11
88.0984701904
 21
105.5406382966
  0
LINE
  5
54E
100
AcDbEntity
  8
0
100
AcDbLine
 62
7
  6
CONTINUOUS
 10
85.2806584697
 20
105.5406382966
 11
83.7059981698
 21
105.5406382966
  0
LINE
  5
54F
100
AcDbEntity
  8
0
100
AcDbLine
 62
7
  6
CONTINUOUS
 10
89.8702420463
 20
105.6257446694
 11
89.8388835073
 21
105.6257446694
  0
LINE
  5
550
100
AcDbEntity
  8
0
100
AcDbLine
 62
7
  6
CONTINUOUS
 10
87.7983217471
 20
105.6257446694
 11
87.7669632081
 21
105.6257446694
  0
LINE
  5
551
100
AcDbEntity
  8
0
100
AcDbLine
 62
7
  6
CONTINUOUS
 10
133.4481908498
 20
98.03
 11
133.4481908498
 21
97.53
  0
LINE
  5
552
100
AcDbEntity
  8
0
100
AcDbLine
 62
7
  6
CONTINUOUS
 10
133.7781300066
 20
112.03
 11
133.7781300066
 21
112.53
  0
LINE
  5
553
100
AcDbEntity
  8
0
100
AcDbLine
 62
7
  6
CONTINUOUS
 10
134.0551157413
 20
98.03
 11
134.0551157413
 21
97.53
  0
LINE
  5
554
100
AcDbEntity
  8
0
100
AcDbLine
 62
7
  6
CONTINUOUS
 10
135.2200849472
 20
98.03
 11
135.2200849472
 21
97.53
  0
LINE
  5
555
100
AcDbEntity
  8
0
100
AcDbLine
 62
7
  6
CONTINUOUS
 10
135.9451361118
 20
98.03
 11
135.9451361118
 21
97.53
  0
LINE
  5
556
100
AcDbEntity
  8
0
100
AcDbLine
 62
7
  6
CONTINUOUS
 10
135.9451361118
 20
112.03
 11
135.9451361118
 21
112.53
  0
LINE
  5
557
100
AcDbEntity
  8
0
100
AcDbLine
 62
7
  6
CONTINUOUS
 10
86.2236614472
 20
105.7108510423
 11
86.1923029082
 21
105.7108510423
  0
LINE
  5
558
100
AcDbEntity
  8
0
100
AcDbLine
 62
7
  6
CONTINUOUS
 10
87.5496912733
 20
105.8810638475
 11
87.5183327343
 21
105.8810638475
  0
LINE
  5
559
100
AcDbEntity
  8
0
100
AcDbLine
 62
7
  6
CONTINUOUS
 10
90.0359960117
 20
105.9661702204
 11
90.0046374727
 21
105.9661702204
  0
LINE
  5
55A
100
AcDbEntity
  8
0
100
AcDbLine
 62
7
  6
CONTINUOUS
 10
86.3065389041
 20
105.9661702204
 11
86.2751803651
 21
105.9661702204
  0
LINE
  5
55B
100
AcDbEntity
  8
0
100
AcDbLine
 62
7
  6
CONTINUOUS
 10
87.4668138164
 20
106.136382966
 11
86.9381943297
 21
106.136382966
  0
LINE
  5
55C
100
AcDbEntity
  8
0
100
AcDbLine
 62
7
  6
CONTINUOUS
 10
90.0359960117
 20
106.3917020845
 11
90.0046374727
 21
106.3917020845
  0
LINE
  5
55D
100
AcDbEntity
  8
0
100
AcDbLine
 62
7
  6
CONTINUOUS
 10
86.3065389041
 20
106.3917020845
 11
86.2751803651
 21
106.3917020845
  0
LINE
  5
55E
100
AcDbEntity
  8
0
100
AcDbLine
 62
7
  6
CONTINUOUS
 10
183.3713950972
 20
106.48
 11
183.7508362996
 21
106.48
  0
LINE
  5
55F
100
AcDbEntity
  8
0
100
AcDbLine
 62
7
  6
CONTINUOUS
 10
86.2236614472
 20
106.6470213223
 11
86.1923029082
 21
106.6470213223
  0
LINE
  5
560
100
AcDbEntity
  8
0
100
AcDbLine
 62
7
  6
CONTINUOUS
 10
89.8702420463
 20
106.7321276951
 11
89.8388835073
 21
106.7321276951
  0
LINE
  5
561
100
AcDbEntity
  8
0
100
AcDbLine
 62
7
  6
CONTINUOUS
 10
79.8936645537
 20
106.8172340679
 11
81.302570414
 21
106.8172340679
  0
LINE
  5
562
100
AcDbEntity
  8
0
100
AcDbLine
 62
7
  6
CONTINUOUS
 10
83.7059981698
 20
106.8172340679
 11
85.2806584697
 21
106.8172340679
  0
LINE
  5
563
100
AcDbEntity
  8
0
100
AcDbLine
 62
7
  6
CONTINUOUS
 10
88.2642241558
 20
106.8172340679
 11
88.7614851035
 21
106.8172340679
  0
LINE
  5
564
100
AcDbEntity
  8
0
100
AcDbLine
 62
7
  6
CONTINUOUS
 10
85.9750309733
 20
106.9874468136
 11
85.9436724343
 21
106.9874468136
  0
LINE
  5
565
100
AcDbEntity
  8
0
100
AcDbLine
 62
7
  6
CONTINUOUS
 10
81.8311899007
 20
106.9874468136
 11
81.7998313617
 21
106.9874468136
  0
LINE
  5
566
100
AcDbEntity
  8
0
100
AcDbLine
 62
7
  6
CONTINUOUS
 10
181.5729678924
 20
107.0012765336
 11
181.8943955389
 21
107.0012765336
  0
LINE
  5
567
100
AcDbEntity
  8
0
100
AcDbLine
 62
7
  6
CONTINUOUS
 10
89.538735064
 20
107.0725531864
 11
89.507376525
 21
107.0725531864
  0
LINE
  5
568
100
AcDbEntity
  8
0
100
AcDbLine
 62
7
  6
CONTINUOUS
 10
85.8092779564
 20
107.0725531864
 11
85.7779194174
 21
107.0725531864
  0
LINE
  5
569
100
AcDbEntity
  8
0
100
AcDbLine
 62
7
  6
CONTINUOUS
 10
85.9750309733
 20
107.1576595592
 11
85.9436724343
 21
107.1576595592
  0
LINE
  5
56A
100
AcDbEntity
  8
0
100
AcDbLine
 62
7
  6
CONTINUOUS
 10
82.1626973572
 20
107.1576595592
 11
82.1313388182
 21
107.1576595592
  0
LINE
  5
56B
100
AcDbEntity
  8
0
100
AcDbLine
 62
7
  6
CONTINUOUS
 10
89.2072271333
 20
107.2427659321
 11
89.1758685943
 21
107.2427659321
  0
LINE
  5
56C
100
AcDbEntity
  8
0
100
AcDbLine
 62
7
  6
CONTINUOUS
 10
88.7614851035
 20
107.3278723049
 11
88.2642241558
 21
107.3278723049
  0
LINE
  5
56D
100
AcDbEntity
  8
0
100
AcDbLine
 62
7
  6
CONTINUOUS
 10
85.2806584697
 20
107.3278723049
 11
83.7059981698
 21
107.3278723049
  0
LINE
  5
56E
100
AcDbEntity
  8
0
100
AcDbLine
 62
7
  6
CONTINUOUS
 10
81.4683243794
 20
107.3278723049
 11
79.8936645537
 21
107.3278723049
  0
LINE
  5
56F
100
AcDbEntity
  8
0
100
AcDbLine
 62
7
  6
CONTINUOUS
 10
88.046952221
 20
107.4129786777
 11
88.015593682
 21
107.4129786777
  0
LINE
  5
570
100
AcDbEntity
  8
0
100
AcDbLine
 62
7
  6
CONTINUOUS
 10
86.2236614472
 20
107.4980850506
 11
86.1923029082
 21
107.4980850506
  0
LINE
  5
571
100
AcDbEntity
  8
0
100
AcDbLine
 62
7
  6
CONTINUOUS
 10
82.4113278311
 20
107.4980850506
 11
82.3799692921
 21
107.4980850506
  0
LINE
  5
572
100
AcDbEntity
  8
0
100
AcDbLine
 62
7
  6
CONTINUOUS
 10
87.7983217471
 20
107.5831914234
 11
87.7669632081
 21
107.5831914234
  0
LINE
  5
573
100
AcDbEntity
  8
0
100
AcDbLine
 62
7
  6
CONTINUOUS
 10
180.9348164536
 20
107.5970213521
 11
181.6043264314
 21
107.5970213521
  0
LINE
  5
574
100
AcDbEntity
  8
0
100
AcDbLine
 62
7
  6
CONTINUOUS
 10
181.8943955389
 20
107.5970213521
 11
182.3585056461
 21
107.5970213521
  0
LINE
  5
575
100
AcDbEntity
  8
0
100
AcDbLine
 62
7
  6
CONTINUOUS
 10
86.3065389041
 20
107.7534041691
 11
86.2751803651
 21
107.7534041691
  0
LINE
  5
576
100
AcDbEntity
  8
0
100
AcDbLine
 62
7
  6
CONTINUOUS
 10
82.4942048137
 20
107.7534041691
 11
82.4628462748
 21
107.7534041691
  0
LINE
  5
577
100
AcDbEntity
  8
0
100
AcDbLine
 62
7
  6
CONTINUOUS
 10
87.7154442902
 20
107.8385105419
 11
87.6840857512
 21
107.8385105419
  0
LINE
  5
578
100
AcDbEntity
  8
0
100
AcDbLine
 62
7
  6
CONTINUOUS
 10
182.3585056461
 20
107.894893657
 11
181.8943955389
 21
107.894893657
  0
LINE
  5
579
100
AcDbEntity
  8
0
100
AcDbLine
 62
7
  6
CONTINUOUS
 10
180.9348164536
 20
107.894893657
 11
181.6043264314
 21
107.894893657
  0
LINE
  5
57A
100
AcDbEntity
  8
0
100
AcDbLine
 62
7
  6
CONTINUOUS
 10
87.7154442902
 20
108.0087232876
 11
87.6840857512
 21
108.0087232876
  0
LINE
  5
57B
100
AcDbEntity
  8
0
100
AcDbLine
 62
7
  6
CONTINUOUS
 10
86.3065389041
 20
108.0938298988
 11
86.2751803651
 21
108.0938298988
  0
LINE
  5
57C
100
AcDbEntity
  8
0
100
AcDbLine
 62
7
  6
CONTINUOUS
 10
82.4942048137
 20
108.0938298988
 11
82.4628462748
 21
108.0938298988
  0
LINE
  5
57D
100
AcDbEntity
  8
0
100
AcDbLine
 62
7
  6
CONTINUOUS
 10
89.2587460512
 20
108.0938298988
 11
89.7873655379
 21
108.0938298988
  0
LINE
  5
57E
100
AcDbEntity
  8
0
100
AcDbLine
 62
7
  6
CONTINUOUS
 10
87.7983217471
 20
108.2640426445
 11
87.7669632081
 21
108.2640426445
  0
LINE
  5
57F
100
AcDbEntity
  8
0
100
AcDbLine
 62
7
  6
CONTINUOUS
 10
89.7044880809
 20
108.3491490173
 11
89.673129542
 21
108.3491490173
  0
LINE
  5
580
100
AcDbEntity
  8
0
100
AcDbLine
 62
7
  6
CONTINUOUS
 10
86.2236614472
 20
108.3491490173
 11
86.1923029082
 21
108.3491490173
  0
LINE
  5
581
100
AcDbEntity
  8
0
100
AcDbLine
 62
7
  6
CONTINUOUS
 10
82.4113278311
 20
108.3491490173
 11
82.3799692921
 21
108.3491490173
  0
LINE
  5
582
100
AcDbEntity
  8
0
100
AcDbLine
 62
7
  6
CONTINUOUS
 10
88.046952221
 20
108.4342553902
 11
88.015593682
 21
108.4342553902
  0
LINE
  5
583
100
AcDbEntity
  8
0
100
AcDbLine
 62
7
  6
CONTINUOUS
 10
182.7912573802
 20
108.4906382668
 11
183.4027536362
 21
108.4906382668
  0
LINE
  5
584
100
AcDbEntity
  8
0
100
AcDbLine
 62
7
  6
CONTINUOUS
 10
183.7508362996
 20
108.4906382668
 11
184.7370705263
 21
108.4906382668
  0
LINE
  5
585
100
AcDbEntity
  8
0
100
AcDbLine
 62
7
  6
CONTINUOUS
 10
83.7059981698
 20
108.519361763
 11
85.2806584697
 21
108.519361763
  0
LINE
  5
586
100
AcDbEntity
  8
0
100
AcDbLine
 62
7
  6
CONTINUOUS
 10
88.2642241558
 20
108.519361763
 11
88.7614851035
 21
108.519361763
  0
LINE
  5
587
100
AcDbEntity
  8
0
100
AcDbLine
 62
7
  6
CONTINUOUS
 10
79.8936645537
 20
108.6044681358
 11
81.4683243794
 21
108.6044681358
  0
LINE
  5
588
100
AcDbEntity
  8
0
100
AcDbLine
 62
7
  6
CONTINUOUS
 10
89.4558576071
 20
108.6895745087
 11
89.4244990681
 21
108.6895745087
  0
LINE
  5
589
100
AcDbEntity
  8
0
100
AcDbLine
 62
7
  6
CONTINUOUS
 10
85.9750309733
 20
108.6895745087
 11
85.9436724343
 21
108.6895745087
  0
LINE
  5
58A
100
AcDbEntity
  8
0
100
AcDbLine
 62
7
  6
CONTINUOUS
 10
82.1626973572
 20
108.6895745087
 11
82.1313388182
 21
108.6895745087
  0
LINE
  5
58B
100
AcDbEntity
  8
0
100
AcDbLine
 62
7
  6
CONTINUOUS
 10
185.1431669531
 20
108.9374468285
 11
183.7508362996
 21
108.9374468285
  0
LINE
  5
58C
100
AcDbEntity
  8
0
100
AcDbLine
 62
7
  6
CONTINUOUS
 10
182.7912573802
 20
108.9374468285
 11
183.4027536362
 21
108.9374468285
  0
LINE
  5
58D
100
AcDbEntity
  8
0
100
AcDbLine
 62
7
  6
CONTINUOUS
 10
89.1243506248
 20
108.9448936272
 11
89.0929920858
 21
108.9448936272
  0
LINE
  5
58E
100
AcDbEntity
  8
0
100
AcDbLine
 62
7
  6
CONTINUOUS
 10
85.643523991
 20
108.9448936272
 11
85.612165452
 21
108.9448936272
  0
LINE
  5
58F
100
AcDbEntity
  8
0
100
AcDbLine
 62
7
  6
CONTINUOUS
 10
81.8311899007
 20
108.9448936272
 11
81.7998313617
 21
108.9448936272
  0
LINE
  5
590
100
AcDbEntity
  8
0
100
AcDbLine
 62
7
  6
CONTINUOUS
 10
88.6786076466
 20
109.03
 11
88.2642241558
 21
109.03
  0
LINE
  5
591
100
AcDbEntity
  8
0
100
AcDbLine
 62
7
  6
CONTINUOUS
 10
85.1977810128
 20
109.03
 11
83.2087376963
 21
109.03
  0
LINE
  5
592
100
AcDbEntity
  8
0
100
AcDbLine
 62
7
  6
CONTINUOUS
 10
81.3854473967
 20
109.03
 11
79.396403606
 21
109.03
  0
LINE
  5
593
100
AcDbEntity
  8
0
100
AcDbLine
 62
7
  6
CONTINUOUS
 10
78.764747469
 20
109.03
 11
78.2361279823
 21
109.03
  0
LINE
  5
594
100
AcDbEntity
  8
0
100
AcDbLine
 62
7
  6
CONTINUOUS
 10
75.9469355112
 20
109.03
 11
75.4183160245
 21
109.03
  0
LINE
  5
595
100
AcDbEntity
  8
0
100
AcDbLine
 62
7
  6
CONTINUOUS
 10
181.5729678924
 20
109.2353191334
 11
181.6043264314
 21
109.2353191334
  0
LINE
  5
596
100
AcDbEntity
  8
0
100
AcDbLine
 62
7
  6
CONTINUOUS
 10
181.5149543365
 20
109.4587234142
 11
181.5463128755
 21
109.4587234142
  0
LINE
  5
597
100
AcDbEntity
  8
0
100
AcDbLine
 62
7
  6
CONTINUOUS
 10
181.3409130048
 20
109.6076595667
 11
181.3722715438
 21
109.6076595667
  0
LINE
  5
598
100
AcDbEntity
  8
0
100
AcDbLine
 62
7
  6
CONTINUOUS
 10
181.0508438974
 20
109.682127669
 11
181.0822024364
 21
109.682127669
  0
LINE
  5
599
100
AcDbEntity
  8
0
100
AcDbLine
 62
7
  6
CONTINUOUS
 10
181.0508438974
 20
109.98
 11
181.0822024364
 21
109.98
  0
LINE
  5
59A
100
AcDbEntity
  8
0
100
AcDbLine
 62
7
  6
CONTINUOUS
 10
183.3713950972
 20
109.98
 11
183.7508362996
 21
109.98
  0
LINE
  5
59B
100
AcDbEntity
  8
0
100
AcDbLine
 62
7
  6
CONTINUOUS
 10
175.6539051892
 20
101.1151063728
 11
176.0682896284
 21
101.03
  0
LINE
  5
59C
100
AcDbEntity
  8
0
100
AcDbLine
 62
7
  6
CONTINUOUS
 10
175.6852637281
 20
101.1151063728
 11
176.0996481674
 21
101.03
  0
LINE
  5
59D
100
AcDbEntity
  8
0
100
AcDbLine
 62
7
  6
CONTINUOUS
 10
179.1347318229
 20
101.1151063728
 11
179.5491162622
 21
101.03
  0
LINE
  5
59E
100
AcDbEntity
  8
0
100
AcDbLine
 62
7
  6
CONTINUOUS
 10
179.1660903619
 20
101.1151063728
 11
179.5804748011
 21
101.03
  0
LINE
  5
59F
100
AcDbEntity
  8
0
100
AcDbLine
 62
7
  6
CONTINUOUS
 10
88.7614851035
 20
105.03
 11
89.1758685943
 21
105.1151063803
  0
LINE
  5
5A0
100
AcDbEntity
  8
0
100
AcDbLine
 62
7
  6
CONTINUOUS
 10
85.2291395518
 20
105.03
 11
85.643523991
 21
105.1151063803
  0
LINE
  5
5A1
100
AcDbEntity
  8
0
100
AcDbLine
 62
7
  6
CONTINUOUS
 10
85.1977810128
 20
105.03
 11
85.612165452
 21
105.1151063803
  0
LWPOLYLINE
  5
5A2
100
AcDbEntity
  8
BEZUGSACHSEN
100
AcDbPolyline
 62
7
  6
CONTINUOUS
 90
5
 70
0
 10
97.3946967325
 20
114.0299955667
 10
97.294387912
 20
114.0277605985
 10
96.9779052401
 20
113.9934170723
 10
96.6674248416
 20
113.9177091026
 10
96.3723398993
 20
113.8033407122
  0
LINE
  5
5A3
100
AcDbEntity
  8
BEZUGSACHSEN
100
AcDbLine
 62
7
  6
CONTINUOUS
 10
96.763116842
 20
112.03
 11
168.0153774151
 21
112.03
  0
LINE
  5
5A4
100
AcDbEntity
  8
0
100
AcDbLine
 62
7
  6
CONTINUOUS
 10
128.8331197022
 20
112.53
 11
131.3300649641
 21
112.53
  0
LINE
  5
5A5
100
AcDbEntity
  8
0
100
AcDbLine
 62
7
  6
CONTINUOUS
 10
131.8595963238
 20
112.53
 11
135.9451361118
 21
112.53
  0
LINE
  5
5A6
100
AcDbEntity
  8
BEZUGSACHSEN
100
AcDbLine
 62
7
  6
CONTINUOUS
 10
169.889127907
 20
113.53
 11
169.1595560243
 21
113.53
  0
LINE
  5
5A7
100
AcDbEntity
  8
BEZUGSACHSEN
100
AcDbLine
 62
7
  6
CONTINUOUS
 10
95.6194347912
 20
113.53
 11
94.889127907
 21
113.53
  0
LINE
  5
5A8
100
AcDbEntity
  8
0
100
AcDbLine
 62
7
  6
CONTINUOUS
 10
153.191627907
 20
113.8522358078
 11
155.441627907
 21
113.8522358078
  0
LINE
  5
5A9
100
AcDbEntity
  8
0
100
AcDbLine
 62
7
  6
CONTINUOUS
 10
156.1916277282
 20
113.8522358078
 11
156.7541277282
 21
113.8522358078
  0
LINE
  5
5AA
100
AcDbEntity
  8
0
100
AcDbLine
 62
7
  6
CONTINUOUS
 10
159.0041277282
 20
113.8522358078
 11
159.5666279964
 21
113.8522358078
  0
LINE
  5
5AB
100
AcDbEntity
  8
0
100
AcDbLine
 62
7
  6
CONTINUOUS
 10
161.629127907
 20
113.8522358078
 11
163.879127907
 21
113.8522358078
  0
LINE
  5
5AC
100
AcDbEntity
  8
0
100
AcDbLine
 62
7
  6
CONTINUOUS
 10
166.7443203478
 20
114.03
 11
163.879127907
 21
114.03
  0
LINE
  5
5AD
100
AcDbEntity
  8
0
100
AcDbLine
 62
7
  6
CONTINUOUS
 10
160.4103779964
 20
114.03
 11
159.5666279964
 21
114.03
  0
LINE
  5
5AE
100
AcDbEntity
  8
0
100
AcDbLine
 62
7
  6
CONTINUOUS
 10
158.9324199848
 20
114.03
 11
156.8258358819
 21
114.03
  0
LINE
  5
5AF
100
AcDbEntity
  8
0
100
AcDbLine
 62
7
  6
CONTINUOUS
 10
156.1916277282
 20
114.03
 11
155.441627907
 21
114.03
  0
LINE
  5
5B0
100
AcDbEntity
  8
0
100
AcDbLine
 62
7
  6
CONTINUOUS
 10
151.6916282646
 20
114.03
 11
145.889127907
 21
114.03
  0
LINE
  5
5B1
100
AcDbEntity
  8
0
100
AcDbLine
 62
7
  6
CONTINUOUS
 10
118.889127907
 20
114.03
 11
110.169127907
 21
114.03
  0
LINE
  5
5B2
100
AcDbEntity
  8
0
100
AcDbLine
 62
7
  6
CONTINUOUS
 10
107.139127907
 20
114.03
 11
105.489127907
 21
114.03
  0
LINE
  5
5B3
100
AcDbEntity
  8
0
100
AcDbLine
 62
7
  6
CONTINUOUS
 10
102.459127907
 20
114.03
 11
98.0339356358
 21
114.03
  0
LINE
  5
5B4
100
AcDbEntity
  8
BEZUGSACHSEN
100
AcDbLine
 62
7
  6
CONTINUOUS
 10
97.3946967324
 20
114.0299957789
 11
98.0339356358
 21
114.03
  0
LINE
  5
5B5
100
AcDbEntity
  8
BEZUGSACHSEN
100
AcDbLine
 62
7
  6
CONTINUOUS
 10
110.169127907
 20
114.03
 11
118.889127907
 21
114.03
  0
LINE
  5
5B6
100
AcDbEntity
  8
BEZUGSACHSEN
100
AcDbLine
 62
7
  6
CONTINUOUS
 10
155.441627907
 20
114.03
 11
156.1916277282
 21
114.03
  0
LINE
  5
5B7
100
AcDbEntity
  8
BEZUGSACHSEN
100
AcDbLine
 62
7
  6
CONTINUOUS
 10
159.5666279964
 20
114.03
 11
160.4103779964
 21
114.03
  0
LINE
  5
5B8
100
AcDbEntity
  8
0
100
AcDbLine
 62
7
  6
CONTINUOUS
 10
153.191627907
 20
114.154006184
 11
155.441627907
 21
114.154006184
  0
LINE
  5
5B9
100
AcDbEntity
  8
0
100
AcDbLine
 62
7
  6
CONTINUOUS
 10
156.1916277282
 20
114.154006184
 11
156.7541277282
 21
114.154006184
  0
LINE
  5
5BA
100
AcDbEntity
  8
0
100
AcDbLine
 62
7
  6
CONTINUOUS
 10
159.0041277282
 20
114.154006184
 11
159.5666279964
 21
114.154006184
  0
LINE
  5
5BB
100
AcDbEntity
  8
0
100
AcDbLine
 62
7
  6
CONTINUOUS
 10
161.629127907
 20
114.154006184
 11
163.879127907
 21
114.154006184
  0
LINE
  5
5BC
100
AcDbEntity
  8
0
100
AcDbLine
 62
7
  6
CONTINUOUS
 10
161.5353779964
 20
114.2019874279
 11
163.316627907
 21
114.2019874279
  0
LINE
  5
5BD
100
AcDbEntity
  8
0
100
AcDbLine
 62
7
  6
CONTINUOUS
 10
153.191627907
 20
114.2106633203
 11
154.879127907
 21
114.2106633203
  0
LINE
  5
5BE
100
AcDbEntity
  8
0
100
AcDbLine
 62
7
  6
CONTINUOUS
 10
161.5353779964
 20
114.3000833146
 11
163.316627907
 21
114.3000833146
  0
LINE
  5
5BF
100
AcDbEntity
  8
0
100
AcDbLine
 62
7
  6
CONTINUOUS
 10
103.019127907
 20
114.3007513248
 11
104.6259137156
 21
114.3007513248
  0
LINE
  5
5C0
100
AcDbEntity
  8
0
100
AcDbLine
 62
7
  6
CONTINUOUS
 10
161.7228779517
 20
114.3201723902
 11
163.316627907
 21
114.3201723902
  0
LINE
  5
5C1
100
AcDbEntity
  8
0
100
AcDbLine
 62
7
  6
CONTINUOUS
 10
103.019127907
 20
114.3257931613
 11
104.6228741744
 21
114.3257931613
  0
LINE
  5
5C2
100
AcDbEntity
  8
0
100
AcDbLine
 62
7
  6
CONTINUOUS
 10
102.459127907
 20
114.33
 11
104.4330798942
 21
114.33
  0
LINE
  5
5C3
100
AcDbEntity
  8
0
100
AcDbLine
 62
7
  6
CONTINUOUS
 10
104.6259137156
 20
114.33
 11
105.3289297015
 21
114.33
  0
LINE
  5
5C4
100
AcDbEntity
  8
0
100
AcDbLine
 62
7
  6
CONTINUOUS
 10
107.139127907
 20
114.33
 11
109.1130798942
 21
114.33
  0
LINE
  5
5C5
100
AcDbEntity
  8
0
100
AcDbLine
 62
7
  6
CONTINUOUS
 10
109.3491278983
 20
114.33
 11
110.0089297015
 21
114.33
  0
LINE
  5
5C6
100
AcDbEntity
  8
0
100
AcDbLine
 62
7
  6
CONTINUOUS
 10
151.7489944593
 20
114.33
 11
152.2541282646
 21
114.33
  0
LINE
  5
5C7
100
AcDbEntity
  8
0
100
AcDbLine
 62
7
  6
CONTINUOUS
 10
152.325836008
 20
114.33
 11
155.441627907
 21
114.33
  0
LINE
  5
5C8
100
AcDbEntity
  8
0
100
AcDbLine
 62
7
  6
CONTINUOUS
 10
156.2489942511
 20
114.33
 11
156.7541277282
 21
114.33
  0
LINE
  5
5C9
100
AcDbEntity
  8
0
100
AcDbLine
 62
7
  6
CONTINUOUS
 10
159.0041277282
 20
114.33
 11
159.5092614734
 21
114.33
  0
LINE
  5
5CA
100
AcDbEntity
  8
0
100
AcDbLine
 62
7
  6
CONTINUOUS
 10
156.8258358819
 20
114.33
 11
158.9324199848
 21
114.33
  0
LINE
  5
5CB
100
AcDbEntity
  8
0
100
AcDbLine
 62
7
  6
CONTINUOUS
 10
160.3166278176
 20
114.33
 11
160.7913456977
 21
114.33
  0
LINE
  5
5CC
100
AcDbEntity
  8
0
100
AcDbLine
 62
7
  6
CONTINUOUS
 10
161.066627907
 20
114.33
 11
161.4350371695
 21
114.33
  0
LINE
  5
5CD
100
AcDbEntity
  8
0
100
AcDbLine
 62
7
  6
CONTINUOUS
 10
163.316627907
 20
114.33
 11
163.879127907
 21
114.33
  0
LINE
  5
5CE
100
AcDbEntity
  8
BEZUGSACHSEN
100
AcDbLine
 62
7
  6
CONTINUOUS
 10
167.3837288944
 20
114.029995425
 11
166.7443203478
 21
114.03
  0
LINE
  5
5CF
100
AcDbEntity
  8
0
100
AcDbLine
 62
7
  6
CONTINUOUS
 10
182.9470659133
 20
101.1151063728
 11
183.3614498783
 21
101.03
  0
LINE
  5
5D0
100
AcDbEntity
  8
0
100
AcDbLine
 62
7
  6
CONTINUOUS
 10
182.9784244522
 20
101.1151063728
 11
183.3928084172
 21
101.03
  0
LINE
  5
5D1
100
AcDbEntity
  8
0
100
AcDbLine
 62
7
  6
CONTINUOUS
 10
175.5710286807
 20
102.8172340679
 11
175.9854121715
 21
102.7321276951
  0
LINE
  5
5D2
100
AcDbEntity
  8
0
100
AcDbLine
 62
7
  6
CONTINUOUS
 10
175.6023872197
 20
102.8172340679
 11
176.0167707104
 21
102.7321276951
  0
LINE
  5
5D3
100
AcDbEntity
  8
0
100
AcDbLine
 62
7
  6
CONTINUOUS
 10
177.0941700627
 20
104.9448936197
 11
176.6797856235
 21
105.03
  0
LINE
  5
5D4
100
AcDbEntity
  8
0
100
AcDbLine
 62
7
  6
CONTINUOUS
 10
176.0167707104
 20
103.2427659321
 11
175.6852637281
 21
103.3278723049
  0
LINE
  5
5D5
100
AcDbEntity
  8
0
100
AcDbLine
 62
7
  6
CONTINUOUS
 10
176.8455395889
 20
103.1576595592
 11
176.5140316581
 21
103.2427659321
  0
LINE
  5
5D6
100
AcDbEntity
  8
0
100
AcDbLine
 62
7
  6
CONTINUOUS
 10
176.6778466367
 20
104.5118089473
 11
176.9799340668
 21
104.4342553306
  0
LINE
  5
5D7
100
AcDbEntity
  8
0
100
AcDbLine
 62
7
  6
CONTINUOUS
 10
176.6797856235
 20
104.5193617034
 11
177.0112926058
 21
104.4342553306
  0
LINE
  5
5D8
100
AcDbEntity
  8
0
100
AcDbLine
 62
7
  6
CONTINUOUS
 10
145.889127907
 20
96.03
 11
145.889127907
 21
98.03
  0
LINE
  5
5D9
100
AcDbEntity
  8
BEZUGSACHSEN
100
AcDbLine
 62
7
  6
CONTINUOUS
 10
145.889127907
 20
112.03
 11
145.889127907
 21
114.03
  0
LINE
  5
5DA
100
AcDbEntity
  8
0
100
AcDbLine
 62
7
  6
CONTINUOUS
 10
89.0929920858
 20
105.6257446694
 11
88.7614851035
 21
105.5406382966
  0
LINE
  5
5DB
100
AcDbEntity
  8
0
100
AcDbLine
 62
7
  6
CONTINUOUS
 10
88.2642241558
 20
109.03
 11
87.9327162251
 21
108.9448936272
  0
LWPOLYLINE
  5
5DC
100
AcDbEntity
  8
BEZUGSACHSEN
100
AcDbPolyline
 62
7
  6
CONTINUOUS
 90
5
 70
0
 10
169.1594732751
 20
113.5299619827
 10
168.9957054377
 20
113.5437864548
 10
168.851138091
 20
113.5798952396
 10
168.7193565535
 20
113.6347841738
 10
168.6526888738
 20
113.6718702647
  0
LINE
  5
5DD
100
AcDbEntity
  8
0
100
AcDbLine
 62
7
  6
CONTINUOUS
 10
181.4302850997
 20
109.9055319173
 11
181.0822024364
 21
109.98
  0
LINE
  5
5DE
100
AcDbEntity
  8
0
100
AcDbLine
 62
7
  6
CONTINUOUS
 10
176.0167707104
 20
101.540638237
 11
175.7681402366
 21
101.6257446098
  0
LINE
  5
5DF
100
AcDbEntity
  8
0
100
AcDbLine
 62
7
  6
CONTINUOUS
 10
179.4975973442
 20
101.540638237
 11
179.2489668704
 21
101.6257446098
  0
LINE
  5
5E0
100
AcDbEntity
  8
0
100
AcDbLine
 62
7
  6
CONTINUOUS
 10
176.5107427472
 20
102.7225194431
 11
176.731303593
 21
102.6470213223
  0
LINE
  5
5E1
100
AcDbEntity
  8
0
100
AcDbLine
 62
7
  6
CONTINUOUS
 10
176.5140316581
 20
102.7321276951
 11
176.762662132
 21
102.6470213223
  0
LINE
  5
5E2
100
AcDbEntity
  8
0
100
AcDbLine
 62
7
  6
CONTINUOUS
 10
183.3099314346
 20
101.4555318642
 11
183.0613009607
 21
101.540638237
  0
LINE
  5
5E3
100
AcDbEntity
  8
0
100
AcDbLine
 62
7
  6
CONTINUOUS
 10
179.4975973442
 20
103.2427659321
 11
179.2489668704
 21
103.3278723049
  0
LINE
  5
5E4
100
AcDbEntity
  8
0
100
AcDbLine
 62
7
  6
CONTINUOUS
 10
151.6916282646
 20
113.9801284778
 11
151.6916282646
 21
114.3285839467
  0
LINE
  5
5E5
100
AcDbEntity
  8
0
100
AcDbLine
 62
7
  6
CONTINUOUS
 10
151.785377907
 20
113.9486479094
 11
151.785377907
 21
114.2494555332
  0
LINE
  5
5E6
100
AcDbEntity
  8
0
100
AcDbLine
 62
7
  6
CONTINUOUS
 10
151.9728782646
 20
113.9179192564
 11
151.9728782646
 21
114.2190330662
  0
LINE
  5
5E7
100
AcDbEntity
  8
0
100
AcDbLine
 62
7
  6
CONTINUOUS
 10
152.2541282646
 20
114.3285839467
 11
152.2541282646
 21
114.2806230652
  0
LINE
  5
5E8
100
AcDbEntity
  8
0
100
AcDbLine
 62
7
  6
CONTINUOUS
 10
152.347877907
 20
114.2562981931
 11
152.347877907
 21
114.33
  0
LINE
  5
5E9
100
AcDbEntity
  8
0
100
AcDbLine
 62
7
  6
CONTINUOUS
 10
152.347877907
 20
113.8822460946
 11
152.347877907
 21
114.1837161373
  0
LINE
  5
5EA
100
AcDbEntity
  8
0
100
AcDbLine
 62
7
  6
CONTINUOUS
 10
152.5353782646
 20
114.2348551274
 11
152.5353782646
 21
114.33
  0
LINE
  5
5EB
100
AcDbEntity
  8
0
100
AcDbLine
 62
7
  6
CONTINUOUS
 10
152.7228775493
 20
113.8625498759
 11
152.7228775493
 21
114.1642169651
  0
LINE
  5
5EC
100
AcDbEntity
  8
0
100
AcDbLine
 62
7
  6
CONTINUOUS
 10
152.8166282646
 20
114.2190330662
 11
152.8166282646
 21
114.33
  0
LINE
  5
5ED
100
AcDbEntity
  8
0
100
AcDbLine
 62
7
  6
CONTINUOUS
 10
175.5710286807
 20
104.9448936197
 11
175.2395207499
 21
104.7746808517
  0
LINE
  5
5EE
100
AcDbEntity
  8
0
100
AcDbLine
 62
7
  6
CONTINUOUS
 10
175.6023872197
 20
104.9448936197
 11
175.2708792889
 21
104.7746808517
  0
LINE
  5
5EF
100
AcDbEntity
  8
0
100
AcDbLine
 62
7
  6
CONTINUOUS
 10
179.2489668704
 20
104.4342553306
 11
179.4975973442
 21
104.5193617034
  0
LINE
  5
5F0
100
AcDbEntity
  8
0
100
AcDbLine
 62
7
  6
CONTINUOUS
 10
179.2489668704
 20
102.6470213223
 11
179.4975973442
 21
102.7321276951
  0
LINE
  5
5F1
100
AcDbEntity
  8
0
100
AcDbLine
 62
7
  6
CONTINUOUS
 10
176.731303593
 20
101.6257446098
 11
176.5107427472
 21
101.5502464889
  0
LINE
  5
5F2
100
AcDbEntity
  8
0
100
AcDbLine
 62
7
  6
CONTINUOUS
 10
176.762662132
 20
101.6257446098
 11
176.5140316581
 21
101.540638237
  0
LINE
  5
5F3
100
AcDbEntity
  8
0
100
AcDbLine
 62
7
  6
CONTINUOUS
 10
183.0613009607
 20
102.6470213223
 11
183.3099314346
 21
102.7321276951
  0
LINE
  5
5F4
100
AcDbEntity
  8
0
100
AcDbLine
 62
7
  6
CONTINUOUS
 10
181.0508438974
 20
109.682127669
 11
181.3409130048
 21
109.6076595667
  0
LINE
  5
5F5
100
AcDbEntity
  8
0
100
AcDbLine
 62
7
  6
CONTINUOUS
 10
181.0822024364
 20
109.682127669
 11
181.3722715438
 21
109.6076595667
  0
LINE
  5
5F6
100
AcDbEntity
  8
0
100
AcDbLine
 62
7
  6
CONTINUOUS
 10
175.2395207499
 20
102.9874468136
 11
175.5710286807
 21
102.8172340679
  0
LINE
  5
5F7
100
AcDbEntity
  8
0
100
AcDbLine
 62
7
  6
CONTINUOUS
 10
175.2708792889
 20
102.9874468136
 11
175.6023872197
 21
102.8172340679
  0
LINE
  5
5F8
100
AcDbEntity
  8
0
100
AcDbLine
 62
7
  6
CONTINUOUS
 10
177.1770465712
 20
102.9874468136
 11
176.8455395889
 21
103.1576595592
  0
LINE
  5
5F9
100
AcDbEntity
  8
0
100
AcDbLine
 62
7
  6
CONTINUOUS
 10
178.8032248406
 20
103.0725531864
 11
178.9689778576
 21
102.9874468136
  0
LINE
  5
5FA
100
AcDbEntity
  8
0
100
AcDbLine
 62
7
  6
CONTINUOUS
 10
178.8345833796
 20
103.0725531864
 11
179.0003363965
 21
102.9874468136
  0
LINE
  5
5FB
100
AcDbEntity
  8
0
100
AcDbLine
 62
7
  6
CONTINUOUS
 10
153.191627907
 20
114.2106633203
 11
153.191627907
 21
114.33
  0
LINE
  5
5FC
100
AcDbEntity
  8
0
100
AcDbLine
 62
7
  6
CONTINUOUS
 10
153.191627907
 20
113.8522358078
 11
153.191627907
 21
114.154006184
  0
LINE
  5
5FD
100
AcDbEntity
  8
0
100
AcDbLine
 62
7
  6
CONTINUOUS
 10
154.879127907
 20
114.33
 11
154.879127907
 21
114.2106633203
  0
LINE
  5
5FE
100
AcDbEntity
  8
0
100
AcDbLine
 62
7
  6
CONTINUOUS
 10
155.441627907
 20
113.8522358078
 11
155.441627907
 21
114.33
  0
LINE
  5
5FF
100
AcDbEntity
  8
0
100
AcDbLine
 62
7
  6
CONTINUOUS
 10
156.1916277282
 20
113.8522358078
 11
156.1916277282
 21
114.3285839467
  0
LINE
  5
600
100
AcDbEntity
  8
0
100
AcDbLine
 62
7
  6
CONTINUOUS
 10
156.7541277282
 20
113.8522358078
 11
156.7541277282
 21
114.3285839467
  0
LINE
  5
601
100
AcDbEntity
  8
0
100
AcDbLine
 62
7
  6
CONTINUOUS
 10
156.847877907
 20
114.03
 11
156.847877907
 21
114.33
  0
LINE
  5
602
100
AcDbEntity
  8
0
100
AcDbLine
 62
7
  6
CONTINUOUS
 10
157.0353777282
 20
114.03
 11
157.0353777282
 21
114.33
  0
LINE
  5
603
100
AcDbEntity
  8
0
100
AcDbLine
 62
7
  6
CONTINUOUS
 10
157.3166277282
 20
114.03
 11
157.3166277282
 21
114.33
  0
LINE
  5
604
100
AcDbEntity
  8
0
100
AcDbLine
 62
7
  6
CONTINUOUS
 10
157.691627907
 20
114.03
 11
157.691627907
 21
114.33
  0
LINE
  5
605
100
AcDbEntity
  8
0
100
AcDbLine
 62
7
  6
CONTINUOUS
 10
175.4366332543
 20
104.2640425253
 11
175.6852637281
 21
104.4342553306
  0
LWPOLYLINE
  5
606
100
AcDbEntity
  8
RUNDUNGEN
100
AcDbPolyline
 62
7
  6
CONTINUOUS
 90
5
 70
0
 10
168.6527038779
 20
96.3881389084
 10
168.7323131997
 20
96.4316475951
 10
168.8650770648
 20
96.4846267746
 10
169.009952839
 20
96.5185272674
 10
169.1594764127
 20
96.5300380065
  0
LINE
  5
607
100
AcDbEntity
  8
RUNDUNGEN
100
AcDbLine
 62
7
  6
CONTINUOUS
 10
168.4152316605
 20
96.2605872552
 11
168.6528626607
 21
96.388212141
  0
LINE
  5
608
100
AcDbEntity
  8
0
100
AcDbLine
 62
7
  6
CONTINUOUS
 10
178.9689778576
 20
102.9874468136
 11
178.8032248406
 21
102.9023404408
  0
LINE
  5
609
100
AcDbEntity
  8
0
100
AcDbLine
 62
7
  6
CONTINUOUS
 10
179.0003363965
 20
102.9874468136
 11
178.8345833796
 21
102.9023404408
  0
LINE
  5
60A
100
AcDbEntity
  8
0
100
AcDbLine
 62
7
  6
CONTINUOUS
 10
176.8455395889
 20
101.1151063728
 11
177.1770465712
 21
101.2853191185
  0
LINE
  5
60B
100
AcDbEntity
  8
0
100
AcDbLine
 62
7
  6
CONTINUOUS
 10
182.9470659133
 20
103.0725531864
 11
182.6155584567
 21
102.9023404408
  0
LINE
  5
60C
100
AcDbEntity
  8
0
100
AcDbLine
 62
7
  6
CONTINUOUS
 10
182.9784244522
 20
103.0725531864
 11
182.6469169957
 21
102.9023404408
  0
LINE
  5
60D
100
AcDbEntity
  8
0
100
AcDbLine
 62
7
  6
CONTINUOUS
 10
181.6043264314
 20
109.8310638345
 11
181.4302850997
 21
109.9055319173
  0
LWPOLYLINE
  5
60E
100
AcDbEntity
  8
BEZUGSACHSEN
100
AcDbPolyline
 62
7
  6
CONTINUOUS
 90
6
 70
0
 10
168.6528611115
 20
113.6717888135
 10
168.4024951236
 20
113.8053342027
 10
168.1040966309
 20
113.9200283381
 10
167.7901051918
 20
113.9952611187
 10
167.4701726321
 20
114.028312325
 10
167.3837289097
 20
114.0299952081
  0
LINE
  5
60F
100
AcDbEntity
  8
0
100
AcDbLine
 62
7
  6
CONTINUOUS
 10
177.5085535535
 20
104.6895744789
 11
177.0941700627
 21
104.9448936197
  0
LINE
  5
610
100
AcDbEntity
  8
0
100
AcDbLine
 62
7
  6
CONTINUOUS
 10
175.6852637281
 20
103.3278723049
 11
175.4366332543
 21
103.4980850506
  0
LINE
  5
611
100
AcDbEntity
  8
0
100
AcDbLine
 62
7
  6
CONTINUOUS
 10
176.731303593
 20
102.6470213223
 11
176.9799340668
 21
102.4768085766
  0
LINE
  5
612
100
AcDbEntity
  8
0
100
AcDbLine
 62
7
  6
CONTINUOUS
 10
176.762662132
 20
102.6470213223
 11
177.0112926058
 21
102.4768085766
  0
LINE
  5
613
100
AcDbEntity
  8
0
100
AcDbLine
 62
7
  6
CONTINUOUS
 10
175.3223982069
 20
101.3704254913
 11
175.6539051892
 21
101.1151063728
  0
LINE
  5
614
100
AcDbEntity
  8
0
100
AcDbLine
 62
7
  6
CONTINUOUS
 10
175.3537567458
 20
101.3704254913
 11
175.6852637281
 21
101.1151063728
  0
LINE
  5
615
100
AcDbEntity
  8
0
100
AcDbLine
 62
7
  6
CONTINUOUS
 10
178.8032248406
 20
101.3704254913
 11
179.1347318229
 21
101.1151063728
  0
LINE
  5
616
100
AcDbEntity
  8
0
100
AcDbLine
 62
7
  6
CONTINUOUS
 10
158.0666280858
 20
114.03
 11
158.0666280858
 21
114.33
  0
LINE
  5
617
100
AcDbEntity
  8
0
100
AcDbLine
 62
7
  6
CONTINUOUS
 10
158.4416277282
 20
114.03
 11
158.4416277282
 21
114.33
  0
LINE
  5
618
100
AcDbEntity
  8
0
100
AcDbLine
 62
7
  6
CONTINUOUS
 10
158.7228777282
 20
114.03
 11
158.7228777282
 21
114.33
  0
LINE
  5
619
100
AcDbEntity
  8
0
100
AcDbLine
 62
7
  6
CONTINUOUS
 10
158.9103780858
 20
114.03
 11
158.9103780858
 21
114.33
  0
LINE
  5
61A
100
AcDbEntity
  8
0
100
AcDbLine
 62
7
  6
CONTINUOUS
 10
159.0041277282
 20
113.8522358078
 11
159.0041277282
 21
114.3285839467
  0
LINE
  5
61B
100
AcDbEntity
  8
0
100
AcDbLine
 62
7
  6
CONTINUOUS
 10
159.5666279964
 20
113.8522358078
 11
159.5666279964
 21
114.3285839467
  0
LINE
  5
61C
100
AcDbEntity
  8
0
100
AcDbLine
 62
7
  6
CONTINUOUS
 10
160.3166278176
 20
114.03
 11
160.3166278176
 21
114.33
  0
LINE
  5
61D
100
AcDbEntity
  8
0
100
AcDbLine
 62
7
  6
CONTINUOUS
 10
160.4103779964
 20
113.9486479094
 11
160.4103779964
 21
114.274998324
  0
LINE
  5
61E
100
AcDbEntity
  8
0
100
AcDbLine
 62
7
  6
CONTINUOUS
 10
160.504127907
 20
113.9260643298
 11
160.504127907
 21
114.2270969203
  0
LINE
  5
61F
100
AcDbEntity
  8
0
100
AcDbLine
 62
7
  6
CONTINUOUS
 10
160.785377907
 20
113.8916288598
 11
160.785377907
 21
114.1930051248
  0
LINE
  5
620
100
AcDbEntity
  8
0
100
AcDbLine
 62
7
  6
CONTINUOUS
 10
160.9728779964
 20
114.2690693857
 11
160.9728779964
 21
114.2494555332
  0
LINE
  5
621
100
AcDbEntity
  8
0
100
AcDbLine
 62
7
  6
CONTINUOUS
 10
161.066627907
 20
114.2270969203
 11
161.066627907
 21
114.2859437792
  0
LINE
  5
622
100
AcDbEntity
  8
0
100
AcDbLine
 62
7
  6
CONTINUOUS
 10
161.1603778176
 20
113.8625498759
 11
161.1603778176
 21
114.1642169651
  0
LINE
  5
623
100
AcDbEntity
  8
0
100
AcDbLine
 62
7
  6
CONTINUOUS
 10
161.2541279964
 20
114.2106633203
 11
161.2541279964
 21
114.2956737574
  0
LINE
  5
624
100
AcDbEntity
  8
0
100
AcDbLine
 62
7
  6
CONTINUOUS
 10
161.5353779964
 20
114.2019874279
 11
161.5353779964
 21
114.3000833146
  0
LINE
  5
625
100
AcDbEntity
  8
0
100
AcDbLine
 62
7
  6
CONTINUOUS
 10
161.629127907
 20
113.8522358078
 11
161.629127907
 21
114.154006184
  0
LINE
  5
626
100
AcDbEntity
  8
0
100
AcDbLine
 62
7
  6
CONTINUOUS
 10
179.1347318229
 20
104.9448936197
 11
178.8032248406
 21
104.6895744789
  0
LINE
  5
627
100
AcDbEntity
  8
0
100
AcDbLine
 62
7
  6
CONTINUOUS
 10
179.1660903619
 20
104.9448936197
 11
178.8345833796
 21
104.6895744789
  0
LINE
  5
628
100
AcDbEntity
  8
0
100
AcDbLine
 62
7
  6
CONTINUOUS
 10
176.9799340668
 20
101.7959573555
 11
176.731303593
 21
101.6257446098
  0
LINE
  5
629
100
AcDbEntity
  8
0
100
AcDbLine
 62
7
  6
CONTINUOUS
 10
177.0112926058
 20
101.7959573555
 11
176.762662132
 21
101.6257446098
  0
LINE
  5
62A
100
AcDbEntity
  8
RUNDUNGEN
100
AcDbLine
 62
7
  6
CONTINUOUS
 10
168.6528202557
 20
96.3881863112
 11
168.6526266903
 21
96.3880674253
  0
LINE
  5
62B
100
AcDbEntity
  8
BEZUGSACHSEN
100
AcDbLine
 62
7
  6
CONTINUOUS
 10
168.652818643
 20
113.6718146821
 11
168.6526116185
 21
113.6719418027
  0
LINE
  5
62C
100
AcDbEntity
  8
0
100
AcDbLine
 62
7
  6
CONTINUOUS
 10
178.8345833796
 20
101.3704254913
 11
179.1660903619
 21
101.1151063728
  0
LINE
  5
62D
100
AcDbEntity
  8
0
100
AcDbLine
 62
7
  6
CONTINUOUS
 10
182.6155584567
 20
101.3704254913
 11
182.9470659133
 21
101.1151063728
  0
LINE
  5
62E
100
AcDbEntity
  8
0
100
AcDbLine
 62
7
  6
CONTINUOUS
 10
182.6469169957
 20
101.3704254913
 11
182.9784244522
 21
101.1151063728
  0
LINE
  5
62F
100
AcDbEntity
  8
0
100
AcDbLine
 62
7
  6
CONTINUOUS
 10
175.7681402366
 20
101.6257446098
 11
175.6023872197
 21
101.7959573555
  0
LINE
  5
630
100
AcDbEntity
  8
0
100
AcDbLine
 62
7
  6
CONTINUOUS
 10
174.9080137676
 20
103.3278723049
 11
175.2395207499
 21
102.9874468136
  0
LINE
  5
631
100
AcDbEntity
  8
0
100
AcDbLine
 62
7
  6
CONTINUOUS
 10
174.9393723066
 20
103.3278723049
 11
175.2708792889
 21
102.9874468136
  0
LINE
  5
632
100
AcDbEntity
  8
0
100
AcDbLine
 62
7
  6
CONTINUOUS
 10
163.316627907
 20
114.33
 11
163.316627907
 21
114.3201723902
  0
LINE
  5
633
100
AcDbEntity
  8
0
100
AcDbLine
 62
7
  6
CONTINUOUS
 10
163.316627907
 20
114.3000833146
 11
163.316627907
 21
114.2019874279
  0
LINE
  5
634
100
AcDbEntity
  8
0
100
AcDbLine
 62
7
  6
CONTINUOUS
 10
163.879127907
 20
113.8522358078
 11
163.879127907
 21
114.33
  0
LINE
  5
635
100
AcDbEntity
  8
0
100
AcDbLine
 62
7
  6
CONTINUOUS
 10
175.2395207499
 20
104.7746808517
 11
174.9080137676
 21
104.4342553306
  0
LINE
  5
636
100
AcDbEntity
  8
0
100
AcDbLine
 62
7
  6
CONTINUOUS
 10
175.2708792889
 20
104.7746808517
 11
174.9393723066
 21
104.4342553306
  0
LINE
  5
637
100
AcDbEntity
  8
0
100
AcDbLine
 62
7
  6
CONTINUOUS
 10
179.0832138535
 20
104.2640425253
 11
179.2489668704
 21
104.4342553306
  0
LINE
  5
638
100
AcDbEntity
  8
0
100
AcDbLine
 62
7
  6
CONTINUOUS
 10
177.1770465712
 20
101.2853191185
 11
177.5085535535
 21
101.6257446098
  0
LINE
  5
639
100
AcDbEntity
  8
0
100
AcDbLine
 62
7
  6
CONTINUOUS
 10
179.0832138535
 20
102.4768085766
 11
179.2489668704
 21
102.6470213223
  0
LINE
  5
63A
100
AcDbEntity
  8
0
100
AcDbLine
 62
7
  6
CONTINUOUS
 10
181.3409130048
 20
109.6076595667
 11
181.5149543365
 21
109.4587234142
  0
LINE
  5
63B
100
AcDbEntity
  8
0
100
AcDbLine
 62
7
  6
CONTINUOUS
 10
181.3722715438
 20
109.6076595667
 11
181.5463128755
 21
109.4587234142
  0
LINE
  5
63C
100
AcDbEntity
  8
0
100
AcDbLine
 62
7
  6
CONTINUOUS
 10
177.5085535535
 20
102.6470213223
 11
177.1770465712
 21
102.9874468136
  0
LINE
  5
63D
100
AcDbEntity
  8
0
100
AcDbLine
 62
7
  6
CONTINUOUS
 10
179.2489668704
 20
101.6257446098
 11
179.0832138535
 21
101.7959573555
  0
LINE
  5
63E
100
AcDbEntity
  8
0
100
AcDbLine
 62
7
  6
CONTINUOUS
 10
176.9799340668
 20
104.4342553306
 11
177.2285645407
 21
104.1789361525
  0
LINE
  5
63F
100
AcDbEntity
  8
0
100
AcDbLine
 62
7
  6
CONTINUOUS
 10
177.0112926058
 20
104.4342553306
 11
177.2599230797
 21
104.1789361525
  0
LINE
  5
640
100
AcDbEntity
  8
0
100
AcDbLine
 62
7
  6
CONTINUOUS
 10
179.2489668704
 20
103.3278723049
 11
179.0832138535
 21
103.4980850506
  0
LINE
  5
641
100
AcDbEntity
  8
0
100
AcDbLine
 62
7
  6
CONTINUOUS
 10
183.0613009607
 20
101.540638237
 11
182.8955474696
 21
101.7108509827
  0
LINE
  5
642
100
AcDbEntity
  8
0
100
AcDbLine
 62
7
  6
CONTINUOUS
 10
175.073767733
 20
101.7108509827
 11
175.3223982069
 21
101.3704254913
  0
LINE
  5
643
100
AcDbEntity
  8
0
100
AcDbLine
 62
7
  6
CONTINUOUS
 10
175.105126272
 20
101.7108509827
 11
175.3537567458
 21
101.3704254913
  0
LINE
  5
644
100
AcDbEntity
  8
0
100
AcDbLine
 62
7
  6
CONTINUOUS
 10
178.5545943668
 20
101.7108509827
 11
178.8032248406
 21
101.3704254913
  0
LINE
  5
645
100
AcDbEntity
  8
0
100
AcDbLine
 62
7
  6
CONTINUOUS
 10
175.4366332543
 20
103.4980850506
 11
175.2708792889
 21
103.7534042883
  0
LINE
  5
646
100
AcDbEntity
  8
RUNDUNGEN
100
AcDbLine
 62
7
  6
CONTINUOUS
 10
169.9028231686
 20
94.89969829
 11
171.5316097411
 21
79.4028292204
  0
LINE
  5
647
100
AcDbEntity
  8
RUNDUNGEN
100
AcDbLine
 62
7
  6
CONTINUOUS
 10
169.889127907
 20
95.1610194482
 11
169.889127907
 21
98.880817614
  0
LINE
  5
648
100
AcDbEntity
  8
RUNDUNGEN
100
AcDbLine
 62
7
  6
CONTINUOUS
 10
169.889127907
 20
111.179182386
 11
169.889127907
 21
114.8989805518
  0
LINE
  5
649
100
AcDbEntity
  8
RUNDUNGEN
100
AcDbLine
 62
7
  6
CONTINUOUS
 10
170.5153873059
 20
100.53
 11
170.5153873059
 21
109.53
  0
LINE
  5
64A
100
AcDbEntity
  8
RUNDUNGEN
100
AcDbLine
 62
7
  6
CONTINUOUS
 10
169.889127907
 20
114.8989805518
 11
169.9028231687
 21
115.1603017113
  0
LINE
  5
64B
100
AcDbEntity
  8
RUNDUNGEN
100
AcDbLine
 62
7
  6
CONTINUOUS
 10
169.9028231686
 20
115.16030171
 11
171.5316097411
 21
130.6571707796
  0
LINE
  5
64C
100
AcDbEntity
  8
0
100
AcDbLine
 62
7
  6
CONTINUOUS
 10
174.9080137676
 20
104.4342553306
 11
174.7422598023
 21
104.0938297796
  0
LINE
  5
64D
100
AcDbEntity
  8
0
100
AcDbLine
 62
7
  6
CONTINUOUS
 10
174.9393723066
 20
104.4342553306
 11
174.7736183412
 21
104.0938297796
  0
LINE
  5
64E
100
AcDbEntity
  8
0
100
AcDbLine
 62
7
  6
CONTINUOUS
 10
175.2708792889
 20
104.0087234068
 11
175.4366332543
 21
104.2640425253
  0
LINE
  5
64F
100
AcDbEntity
  8
0
100
AcDbLine
 62
7
  6
CONTINUOUS
 10
178.8032248406
 20
104.6895744789
 11
178.5545943668
 21
104.3491489577
  0
LINE
  5
650
100
AcDbEntity
  8
0
100
AcDbLine
 62
7
  6
CONTINUOUS
 10
178.8345833796
 20
104.6895744789
 11
178.5859529058
 21
104.3491489577
  0
LINE
  5
651
100
AcDbEntity
  8
0
100
AcDbLine
 62
7
  6
CONTINUOUS
 10
178.8032248406
 20
102.9023404408
 11
178.5545943668
 21
102.5619149494
  0
LINE
  5
652
100
AcDbEntity
  8
0
100
AcDbLine
 62
7
  6
CONTINUOUS
 10
178.8345833796
 20
102.9023404408
 11
178.5859529058
 21
102.5619149494
  0
LINE
  5
653
100
AcDbEntity
  8
0
100
AcDbLine
 62
7
  6
CONTINUOUS
 10
182.8955474696
 20
102.4768085766
 11
183.0613009607
 21
102.6470213223
  0
LINE
  5
654
100
AcDbEntity
  8
0
100
AcDbLine
 62
7
  6
CONTINUOUS
 10
181.7783677631
 20
109.682127669
 11
181.6043264314
 21
109.8310638345
  0
LINE
  5
655
100
AcDbEntity
  8
0
100
AcDbLine
 62
7
  6
CONTINUOUS
 10
178.5859529058
 20
101.7108509827
 11
178.8345833796
 21
101.3704254913
  0
LINE
  5
656
100
AcDbEntity
  8
0
100
AcDbLine
 62
7
  6
CONTINUOUS
 10
178.5545943668
 20
103.4129786777
 11
178.8032248406
 21
103.0725531864
  0
LINE
  5
657
100
AcDbEntity
  8
0
100
AcDbLine
 62
7
  6
CONTINUOUS
 10
178.5859529058
 20
103.4129786777
 11
178.8345833796
 21
103.0725531864
  0
LINE
  5
658
100
AcDbEntity
  8
0
100
AcDbLine
 62
7
  6
CONTINUOUS
 10
182.3669279829
 20
101.7108509827
 11
182.6155584567
 21
101.3704254913
  0
LINE
  5
659
100
AcDbEntity
  8
0
100
AcDbLine
 62
7
  6
CONTINUOUS
 10
182.3982865219
 20
101.7108509827
 11
182.6469169957
 21
101.3704254913
  0
LINE
  5
65A
100
AcDbEntity
  8
0
100
AcDbLine
 62
7
  6
CONTINUOUS
 10
177.7571840273
 20
104.2640425253
 11
177.5085535535
 21
104.6895744789
  0
LINE
  5
65B
100
AcDbEntity
  8
0
100
AcDbLine
 62
7
  6
CONTINUOUS
 10
175.6023872197
 20
101.7959573555
 11
175.5195097628
 21
101.9661701012
  0
LINE
  5
65C
100
AcDbEntity
  8
0
100
AcDbLine
 62
7
  6
CONTINUOUS
 10
174.7422598023
 20
103.6682979155
 11
174.9080137676
 21
103.3278723049
  0
LINE
  5
65D
100
AcDbEntity
  8
0
100
AcDbLine
 62
7
  6
CONTINUOUS
 10
174.7736183412
 20
103.6682979155
 11
174.9393723066
 21
103.3278723049
  0
LINE
  5
65E
100
AcDbEntity
  8
0
100
AcDbLine
 62
7
  6
CONTINUOUS
 10
174.9908902761
 20
101.9661701012
 11
175.073767733
 21
101.7108509827
  0
LINE
  5
65F
100
AcDbEntity
  8
0
100
AcDbLine
 62
7
  6
CONTINUOUS
 10
175.0222488151
 20
101.9661701012
 11
175.105126272
 21
101.7108509827
  0
LINE
  5
660
100
AcDbEntity
  8
0
100
AcDbLine
 62
7
  6
CONTINUOUS
 10
174.7422598023
 20
104.0938297796
 11
174.7422598023
 21
103.6682979155
  0
LINE
  5
661
100
AcDbEntity
  8
0
100
AcDbLine
 62
7
  6
CONTINUOUS
 10
174.7736183412
 20
104.0938297796
 11
174.7736183412
 21
103.6682979155
  0
LINE
  5
662
100
AcDbEntity
  8
0
100
AcDbLine
 62
7
  6
CONTINUOUS
 10
175.2708792889
 20
103.7534042883
 11
175.2708792889
 21
104.0087234068
  0
LINE
  5
663
100
AcDbEntity
  8
0
100
AcDbLine
 62
7
  6
CONTINUOUS
 10
177.0628115237
 20
102.2214894581
 11
177.0628115237
 21
102.0512767124
  0
LINE
  5
664
100
AcDbEntity
  8
0
100
AcDbLine
 62
7
  6
CONTINUOUS
 10
177.0941700627
 20
102.2214894581
 11
177.0941700627
 21
102.0512767124
  0
LINE
  5
665
100
AcDbEntity
  8
0
100
AcDbLine
 62
7
  6
CONTINUOUS
 10
177.5914310104
 20
101.9661701012
 11
177.5914310104
 21
102.3065958309
  0
LINE
  5
666
100
AcDbEntity
  8
0
100
AcDbLine
 62
7
  6
CONTINUOUS
 10
177.5085535535
 20
101.6257446098
 11
177.5914310104
 21
101.9661701012
  0
LINE
  5
667
100
AcDbEntity
  8
0
100
AcDbLine
 62
7
  6
CONTINUOUS
 10
177.0628115237
 20
102.0512767124
 11
176.9799340668
 21
101.7959573555
  0
LINE
  5
668
100
AcDbEntity
  8
0
100
AcDbLine
 62
7
  6
CONTINUOUS
 10
177.0941700627
 20
102.0512767124
 11
177.0112926058
 21
101.7959573555
  0
LINE
  5
669
100
AcDbEntity
  8
0
100
AcDbLine
 62
7
  6
CONTINUOUS
 10
178.5545943668
 20
104.3491489577
 11
178.4717169099
 21
104.0938297796
  0
LINE
  5
66A
100
AcDbEntity
  8
0
100
AcDbLine
 62
7
  6
CONTINUOUS
 10
178.5859529058
 20
104.3491489577
 11
178.5030754489
 21
104.0938297796
  0
LINE
  5
66B
100
AcDbEntity
  8
0
100
AcDbLine
 62
7
  6
CONTINUOUS
 10
179.0003363965
 20
104.0087234068
 11
179.0832138535
 21
104.2640425253
  0
LINE
  5
66C
100
AcDbEntity
  8
0
100
AcDbLine
 62
7
  6
CONTINUOUS
 10
178.5545943668
 20
102.5619149494
 11
178.4717169099
 21
102.3065958309
  0
LINE
  5
66D
100
AcDbEntity
  8
0
100
AcDbLine
 62
7
  6
CONTINUOUS
 10
178.5859529058
 20
102.5619149494
 11
178.5030754489
 21
102.3065958309
  0
LINE
  5
66E
100
AcDbEntity
  8
0
100
AcDbLine
 62
7
  6
CONTINUOUS
 10
179.0003363965
 20
102.2214894581
 11
179.0832138535
 21
102.4768085766
  0
LINE
  5
66F
100
AcDbEntity
  8
0
100
AcDbLine
 62
7
  6
CONTINUOUS
 10
183.7508362996
 20
106.48
 11
185.1431669531
 21
108.4906382668
  0
LINE
  5
670
100
AcDbEntity
  8
0
100
AcDbLine
 62
7
  6
CONTINUOUS
 10
184.7057119873
 20
108.4906382668
 11
183.7508362996
 21
107.1207329064
  0
LINE
  5
671
100
AcDbEntity
  8
0
100
AcDbLine
 62
7
  6
CONTINUOUS
 10
184.7370705263
 20
108.4906382668
 11
183.7508362996
 21
107.0757446098
  0
LINE
  5
672
100
AcDbEntity
  8
0
100
AcDbLine
 62
7
  6
CONTINUOUS
 10
182.6155584567
 20
102.9023404408
 11
182.3669279829
 21
102.5619149494
  0
LINE
  5
673
100
AcDbEntity
  8
0
100
AcDbLine
 62
7
  6
CONTINUOUS
 10
182.6469169957
 20
102.9023404408
 11
182.3982865219
 21
102.5619149494
  0
LINE
  5
674
100
AcDbEntity
  8
0
100
AcDbLine
 62
7
  6
CONTINUOUS
 10
176.9799340668
 20
102.4768085766
 11
177.0628115237
 21
102.2214894581
  0
LINE
  5
675
100
AcDbEntity
  8
0
100
AcDbLine
 62
7
  6
CONTINUOUS
 10
177.0112926058
 20
102.4768085766
 11
177.0941700627
 21
102.2214894581
  0
LINE
  5
676
100
AcDbEntity
  8
0
100
AcDbLine
 62
7
  6
CONTINUOUS
 10
177.2285645407
 20
104.1789361525
 11
177.3114419976
 21
103.923617034
  0
LINE
  5
677
100
AcDbEntity
  8
0
100
AcDbLine
 62
7
  6
CONTINUOUS
 10
177.2599230797
 20
104.1789361525
 11
177.3428005366
 21
103.923617034
  0
LINE
  5
678
100
AcDbEntity
  8
0
100
AcDbLine
 62
7
  6
CONTINUOUS
 10
178.4717169099
 20
101.9661701012
 11
178.5545943668
 21
101.7108509827
  0
LINE
  5
679
100
AcDbEntity
  8
0
100
AcDbLine
 62
7
  6
CONTINUOUS
 10
178.5030754489
 20
101.9661701012
 11
178.5859529058
 21
101.7108509827
  0
LINE
  5
67A
100
AcDbEntity
  8
0
100
AcDbLine
 62
7
  6
CONTINUOUS
 10
178.4717169099
 20
103.6682979155
 11
178.5545943668
 21
103.4129786777
  0
LINE
  5
67B
100
AcDbEntity
  8
0
100
AcDbLine
 62
7
  6
CONTINUOUS
 10
179.0832138535
 20
101.7959573555
 11
179.0003363965
 21
102.0512767124
  0
LINE
  5
67C
100
AcDbEntity
  8
0
100
AcDbLine
 62
7
  6
CONTINUOUS
 10
178.5030754489
 20
103.6682979155
 11
178.5859529058
 21
103.4129786777
  0
LINE
  5
67D
100
AcDbEntity
  8
0
100
AcDbLine
 62
7
  6
CONTINUOUS
 10
179.0832138535
 20
103.4980850506
 11
179.0003363965
 21
103.7534042883
  0
LINE
  5
67E
100
AcDbEntity
  8
0
100
AcDbLine
 62
7
  6
CONTINUOUS
 10
177.5914310104
 20
102.3065958309
 11
177.5085535535
 21
102.6470213223
  0
LINE
  5
67F
100
AcDbEntity
  8
0
100
AcDbLine
 62
7
  6
CONTINUOUS
 10
177.8400614843
 20
103.923617034
 11
177.7571840273
 21
104.2640425253
  0
LINE
  5
680
100
AcDbEntity
  8
0
100
AcDbLine
 62
7
  6
CONTINUOUS
 10
178.4717169099
 20
104.0938297796
 11
178.4717169099
 21
103.6682979155
  0
LINE
  5
681
100
AcDbEntity
  8
0
100
AcDbLine
 62
7
  6
CONTINUOUS
 10
178.4717169099
 20
102.3065958309
 11
178.4717169099
 21
101.9661701012
  0
LINE
  5
682
100
AcDbEntity
  8
0
100
AcDbLine
 62
7
  6
CONTINUOUS
 10
178.5030754489
 20
104.0938297796
 11
178.5030754489
 21
103.6682979155
  0
LINE
  5
683
100
AcDbEntity
  8
0
100
AcDbLine
 62
7
  6
CONTINUOUS
 10
178.5030754489
 20
102.3065958309
 11
178.5030754489
 21
101.9661701012
  0
LINE
  5
684
100
AcDbEntity
  8
0
100
AcDbLine
 62
7
  6
CONTINUOUS
 10
179.0003363965
 20
102.0512767124
 11
179.0003363965
 21
102.2214894581
  0
LINE
  5
685
100
AcDbEntity
  8
0
100
AcDbLine
 62
7
  6
CONTINUOUS
 10
179.0003363965
 20
103.7534042883
 11
179.0003363965
 21
104.0087234068
  0
LINE
  5
686
100
AcDbEntity
  8
0
100
AcDbLine
 62
7
  6
CONTINUOUS
 10
180.9348164536
 20
107.894893657
 11
180.9348164536
 21
107.5970213521
  0
LINE
  5
687
100
AcDbEntity
  8
0
100
AcDbLine
 62
7
  6
CONTINUOUS
 10
180.9661749925
 20
107.894893657
 11
180.9661749925
 21
107.5970213521
  0
LINE
  5
688
100
AcDbEntity
  8
0
100
AcDbLine
 62
7
  6
CONTINUOUS
 10
181.0408991052
 20
104.5193617034
 11
181.0408991052
 21
103.2427659321
  0
LINE
  5
689
100
AcDbEntity
  8
0
100
AcDbLine
 62
7
  6
CONTINUOUS
 10
181.0408991052
 20
102.7321276951
 11
181.0408991052
 21
101.540638237
  0
LINE
  5
68A
100
AcDbEntity
  8
0
100
AcDbLine
 62
7
  6
CONTINUOUS
 10
181.0508438974
 20
109.98
 11
181.0508438974
 21
109.682127669
  0
LINE
  5
68B
100
AcDbEntity
  8
0
100
AcDbLine
 62
7
  6
CONTINUOUS
 10
181.0722576442
 20
104.5193617034
 11
181.0722576442
 21
103.2427659321
  0
LINE
  5
68C
100
AcDbEntity
  8
0
100
AcDbLine
 62
7
  6
CONTINUOUS
 10
181.0722576442
 20
102.7321276951
 11
181.0722576442
 21
101.540638237
  0
LINE
  5
68D
100
AcDbEntity
  8
0
100
AcDbLine
 62
7
  6
CONTINUOUS
 10
181.0822024364
 20
109.98
 11
181.0822024364
 21
109.682127669
  0
LINE
  5
68E
100
AcDbEntity
  8
0
100
AcDbLine
 62
7
  6
CONTINUOUS
 10
181.5695181177
 20
101.03
 11
181.5695181177
 21
105.03
  0
LINE
  5
68F
100
AcDbEntity
  8
0
100
AcDbLine
 62
7
  6
CONTINUOUS
 10
181.5729678924
 20
109.2353191334
 11
181.5729678924
 21
107.894893657
  0
LINE
  5
690
100
AcDbEntity
  8
0
100
AcDbLine
 62
7
  6
CONTINUOUS
 10
181.5729678924
 20
107.5970213521
 11
181.5729678924
 21
107.0012765336
  0
LINE
  5
691
100
AcDbEntity
  8
0
100
AcDbLine
 62
7
  6
CONTINUOUS
 10
181.6043264314
 20
109.2353191334
 11
181.6043264314
 21
107.894893657
  0
LINE
  5
692
100
AcDbEntity
  8
0
100
AcDbLine
 62
7
  6
CONTINUOUS
 10
181.6043264314
 20
107.5970213521
 11
181.6043264314
 21
107.0012765336
  0
LINE
  5
693
100
AcDbEntity
  8
0
100
AcDbLine
 62
7
  6
CONTINUOUS
 10
181.8943955389
 20
107.0012765336
 11
181.8943955389
 21
107.5970213521
  0
LINE
  5
694
100
AcDbEntity
  8
0
100
AcDbLine
 62
7
  6
CONTINUOUS
 10
181.8943955389
 20
107.894893657
 11
181.8943955389
 21
109.384255338
  0
LINE
  5
695
100
AcDbEntity
  8
0
100
AcDbLine
 62
7
  6
CONTINUOUS
 10
182.2840510002
 20
102.3065958309
 11
182.2840510002
 21
101.9661701012
  0
LINE
  5
696
100
AcDbEntity
  8
0
100
AcDbLine
 62
7
  6
CONTINUOUS
 10
182.3154095392
 20
102.3065958309
 11
182.3154095392
 21
101.9661701012
  0
LINE
  5
697
100
AcDbEntity
  8
0
100
AcDbLine
 62
7
  6
CONTINUOUS
 10
182.3585056461
 20
107.5970213521
 11
182.3585056461
 21
107.894893657
  0
LINE
  5
698
100
AcDbEntity
  8
0
100
AcDbLine
 62
7
  6
CONTINUOUS
 10
182.3669279829
 20
102.5619149494
 11
182.2840510002
 21
102.3065958309
  0
LINE
  5
699
100
AcDbEntity
  8
0
100
AcDbLine
 62
7
  6
CONTINUOUS
 10
182.3982865219
 20
102.5619149494
 11
182.3154095392
 21
102.3065958309
  0
LINE
  5
69A
100
AcDbEntity
  8
0
100
AcDbLine
 62
7
  6
CONTINUOUS
 10
182.8126704869
 20
102.2214894581
 11
182.8955474696
 21
102.4768085766
  0
LINE
  5
69B
100
AcDbEntity
  8
0
100
AcDbLine
 62
7
  6
CONTINUOUS
 10
181.8943955389
 20
109.384255338
 11
181.7783677631
 21
109.682127669
  0
LINE
  5
69C
100
AcDbEntity
  8
0
100
AcDbLine
 62
7
  6
CONTINUOUS
 10
182.2011744917
 20
105.03
 11
182.9470659133
 21
103.0725531864
  0
LINE
  5
69D
100
AcDbEntity
  8
0
100
AcDbLine
 62
7
  6
CONTINUOUS
 10
182.2325330307
 20
105.03
 11
182.9784244522
 21
103.0725531864
  0
LINE
  5
69E
100
AcDbEntity
  8
0
100
AcDbLine
 62
7
  6
CONTINUOUS
 10
183.4756853999
 20
103.2427659321
 11
182.8126704869
 21
105.03
  0
LINE
  5
69F
100
AcDbEntity
  8
0
100
AcDbLine
 62
7
  6
CONTINUOUS
 10
182.2840510002
 20
101.9661701012
 11
182.3669279829
 21
101.7108509827
  0
LINE
  5
6A0
100
AcDbEntity
  8
0
100
AcDbLine
 62
7
  6
CONTINUOUS
 10
182.3154095392
 20
101.9661701012
 11
182.3982865219
 21
101.7108509827
  0
LINE
  5
6A1
100
AcDbEntity
  8
0
100
AcDbLine
 62
7
  6
CONTINUOUS
 10
182.8955474696
 20
101.7108509827
 11
182.8126704869
 21
101.9661701012
  0
LINE
  5
6A2
100
AcDbEntity
  8
0
100
AcDbLine
 62
7
  6
CONTINUOUS
 10
181.5149543365
 20
109.4587234142
 11
181.5729678924
 21
109.2353191334
  0
LINE
  5
6A3
100
AcDbEntity
  8
0
100
AcDbLine
 62
7
  6
CONTINUOUS
 10
181.5463128755
 20
109.4587234142
 11
181.6043264314
 21
109.2353191334
  0
LINE
  5
6A4
100
AcDbEntity
  8
0
100
AcDbLine
 62
7
  6
CONTINUOUS
 10
182.7912573802
 20
108.9374468285
 11
182.7912573802
 21
108.4906382668
  0
LINE
  5
6A5
100
AcDbEntity
  8
0
100
AcDbLine
 62
7
  6
CONTINUOUS
 10
182.8126704869
 20
101.9661701012
 11
182.8126704869
 21
102.2214894581
  0
LINE
  5
6A6
100
AcDbEntity
  8
0
100
AcDbLine
 62
7
  6
CONTINUOUS
 10
182.8226159192
 20
108.9374468285
 11
182.8226159192
 21
108.4906382668
  0
LINE
  5
6A7
100
AcDbEntity
  8
0
100
AcDbLine
 62
7
  6
CONTINUOUS
 10
183.3713950972
 20
109.98
 11
183.3713950972
 21
108.9374468285
  0
LINE
  5
6A8
100
AcDbEntity
  8
0
100
AcDbLine
 62
7
  6
CONTINUOUS
 10
183.3713950972
 20
108.4906382668
 11
183.3713950972
 21
106.48
  0
LINE
  5
6A9
100
AcDbEntity
  8
0
100
AcDbLine
 62
7
  6
CONTINUOUS
 10
183.4027536362
 20
109.98
 11
183.4027536362
 21
108.9374468285
  0
LINE
  5
6AA
100
AcDbEntity
  8
0
100
AcDbLine
 62
7
  6
CONTINUOUS
 10
183.4027536362
 20
108.4906382668
 11
183.4027536362
 21
106.48
  0
LINE
  5
6AB
100
AcDbEntity
  8
0
100
AcDbLine
 62
7
  6
CONTINUOUS
 10
183.7508362996
 20
107.0757446098
 11
183.7508362996
 21
108.4906382668
  0
LINE
  5
6AC
100
AcDbEntity
  8
0
100
AcDbLine
 62
7
  6
CONTINUOUS
 10
183.7508362996
 20
108.9374468285
 11
183.7508362996
 21
109.98
  0
LINE
  5
6AD
100
AcDbEntity
  8
0
100
AcDbLine
 62
7
  6
CONTINUOUS
 10
184.8532327213
 20
105.03
 11
184.8532327213
 21
103.2427659321
  0
LINE
  5
6AE
100
AcDbEntity
  8
0
100
AcDbLine
 62
7
  6
CONTINUOUS
 10
184.8532327213
 20
102.7321276951
 11
184.8532327213
 21
101.4555318642
  0
LINE
  5
6AF
100
AcDbEntity
  8
0
100
AcDbLine
 62
7
  6
CONTINUOUS
 10
184.8845912603
 20
105.03
 11
184.8845912603
 21
103.2427659321
  0
LINE
  5
6B0
100
AcDbEntity
  8
0
100
AcDbLine
 62
7
  6
CONTINUOUS
 10
184.8845912603
 20
102.7321276951
 11
184.8845912603
 21
101.4555318642
  0
LINE
  5
6B1
100
AcDbEntity
  8
0
100
AcDbLine
 62
7
  6
CONTINUOUS
 10
185.1431669531
 20
108.4906382668
 11
185.1431669531
 21
108.9374468285
  0
LINE
  5
6B2
100
AcDbEntity
  8
0
100
AcDbLine
 62
7
  6
CONTINUOUS
 10
185.381852208
 20
101.03
 11
185.381852208
 21
105.03
  0
LINE
  5
6B3
100
AcDbEntity
  8
0
100
AcDbLine
 62
7
  6
CONTINUOUS
 10
187.3395374597
 20
105.03
 11
186.0135083449
 21
101.03
  0
LINE
  5
6B4
100
AcDbEntity
  8
0
100
AcDbLine
 62
7
  6
CONTINUOUS
 10
187.3708959987
 20
105.03
 11
186.0448668839
 21
101.03
  0
LINE
  5
6B5
100
AcDbEntity
  8
0
100
AcDbLine
 62
7
  6
CONTINUOUS
 10
186.5421278316
 20
101.03
 11
187.7024033367
 21
104.5193617034
  0
LINE
  5
6B6
100
AcDbEntity
  8
RUNDUNGEN
100
AcDbLine
 62
7
  6
CONTINUOUS
 10
180.4987411133
 20
74.8338475773
 11
199.889127907
 21
86.0288926123
  0
LINE
  5
6B7
100
AcDbEntity
  8
RUNDUNGEN
100
AcDbLine
 62
7
  6
CONTINUOUS
 10
180.4987411133
 20
135.2261524227
 11
199.889127907
 21
124.0311073877
  0
LINE
  5
6B8
100
AcDbEntity
  8
0
100
AcDbLine
 62
7
  6
CONTINUOUS
 10
187.6867240672
 20
104.4722085555
 11
188.8313203028
 21
101.03
  0
LINE
  5
6B9
100
AcDbEntity
  8
0
100
AcDbLine
 62
7
  6
CONTINUOUS
 10
187.7024033367
 20
104.5193617034
 11
188.8626788418
 21
101.03
  0
LINE
  5
6BA
100
AcDbEntity
  8
0
100
AcDbLine
 62
7
  6
CONTINUOUS
 10
189.3599397895
 20
101.03
 11
188.0339105561
 21
105.03
  0
LINE
  5
6BB
100
AcDbEntity
  8
RUNDUNGEN
100
AcDbLine
 62
7
  6
CONTINUOUS
 10
199.889127907
 20
86.0288926123
 11
199.889127907
 21
124.0311073877
  0
ARC
  5
6BC
100
AcDbEntity
  8
RUNDUNGEN
100
AcDbCircle
 62
7
  6
CONTINUOUS
 10
76.1141162919
 20
183.952048504
 40
8.0
100
AcDbArc
 50
96.0
 51
165.0
  0
ARC
  5
6BD
100
AcDbEntity
  8
RUNDUNGEN
100
AcDbCircle
 62
7
  6
CONTINUOUS
 10
91.412087081
 20
185.5573653332
 40
5.0
100
AcDbArc
 50
351.9999656224
 51
5.999999973
  0
ARC
  5
6BE
100
AcDbEntity
  8
BEZUGSACHSEN
100
AcDbCircle
 62
7
  6
CONTINUOUS
 10
97.7628685081
 20
206.4512802519
 40
3.5
100
AcDbArc
 50
157.5
 51
186.0
  0
ARC
  5
6BF
100
AcDbEntity
  8
RUNDUNGEN
100
AcDbCircle
 62
7
  6
CONTINUOUS
 10
97.7628685081
 20
206.4512802519
 40
3.5
100
AcDbArc
 50
157.5
 51
186.0
  0
ARC
  5
6C0
100
AcDbEntity
  8
RUNDUNGEN
100
AcDbCircle
 62
7
  6
CONTINUOUS
 10
92.3883006766
 20
181.3731013194
 40
2.500825069
100
AcDbArc
 50
356.4037985225
 51
0.0001941804
  0
ARC
  5
6C1
100
AcDbEntity
  8
RUNDUNGEN
100
AcDbCircle
 62
7
  6
CONTINUOUS
 10
92.389127907
 20
191.1929166913
 40
2.5
100
AcDbArc
 50
0.0
 51
96.0
  0
ARC
  5
6C2
100
AcDbEntity
  8
BEZUGSACHSEN
100
AcDbCircle
 62
7
  6
CONTINUOUS
 10
95.4111230741
 20
185.4694474355
 40
0.9999999429
100
AcDbArc
 50
269.9998686506
 51
358.7406034509
  0
ARC
  5
6C3
100
AcDbEntity
  8
BEZUGSACHSEN
100
AcDbCircle
 62
7
  6
CONTINUOUS
 10
108.0564328922
 20
231.3021429932
 40
3.5
100
AcDbArc
 50
112.5
 51
157.5
  0
ARC
  5
6C4
100
AcDbEntity
  8
RUNDUNGEN
100
AcDbCircle
 62
7
  6
CONTINUOUS
 10
108.0564328922
 20
231.3021429932
 40
3.5
100
AcDbArc
 50
112.5
 51
157.5
  0
ARC
  5
6C5
100
AcDbEntity
  8
0
100
AcDbCircle
 62
7
  6
CONTINUOUS
 10
132.389127907
 20
206.9694479784
 40
24.5358983849
100
AcDbArc
 50
255.2801343632
 51
284.7198648258
  0
ARC
  5
6C6
100
AcDbEntity
  8
BEZUGSACHSEN
100
AcDbCircle
 62
7
  6
CONTINUOUS
 10
132.389127907
 20
206.9694479784
 40
24.0
100
AcDbArc
 50
316.6230408568
 51
335.5662736249
  0
ARC
  5
6C7
100
AcDbEntity
  8
BEZUGSACHSEN
100
AcDbCircle
 62
7
  6
CONTINUOUS
 10
132.389127907
 20
206.9694479784
 40
24.0
100
AcDbArc
 50
204.4337263751
 51
223.3769591432
  0
CIRCLE
  5
6C8
100
AcDbEntity
  8
RUNDUNGEN
100
AcDbCircle
 62
7
  6
CONTINUOUS
 10
132.389127907
 20
206.9694479784
 40
24.0
  0
ARC
  5
6C9
100
AcDbEntity
  8
RUNDUNGEN
100
AcDbCircle
 62
7
  6
CONTINUOUS
 10
188.6641395221
 20
183.952048504
 40
8.0
100
AcDbArc
 50
15.0
 51
84.0
  0
ARC
  5
6CA
100
AcDbEntity
  8
RUNDUNGEN
100
AcDbCircle
 62
7
  6
CONTINUOUS
 10
173.3661687329
 20
185.5573653332
 40
5.0
100
AcDbArc
 50
174.0000000714
 51
188.0000346
  0
ARC
  5
6CB
100
AcDbEntity
  8
RUNDUNGEN
100
AcDbCircle
 62
7
  6
CONTINUOUS
 10
172.3892373965
 20
181.3731110834
 40
2.5001094895
100
AcDbArc
 50
180.0000294809
 51
183.6126681488
  0
ARC
  5
6CC
100
AcDbEntity
  8
RUNDUNGEN
100
AcDbCircle
 62
7
  6
CONTINUOUS
 10
172.389127907
 20
191.1929166913
 40
2.5
100
AcDbArc
 50
84.0
 51
180.0
  0
ARC
  5
6CD
100
AcDbEntity
  8
BEZUGSACHSEN
100
AcDbCircle
 62
7
  6
CONTINUOUS
 10
169.3671340382
 20
185.4694477567
 40
0.9999999767
100
AcDbArc
 50
181.259413313
 51
270.0000569554
  0
ARC
  5
6CE
100
AcDbEntity
  8
RUNDUNGEN
100
AcDbCircle
 62
7
  6
CONTINUOUS
 10
167.0153873059
 20
206.4512802519
 40
3.5
100
AcDbArc
 50
354.0
 51
22.5
  0
ARC
  5
6CF
100
AcDbEntity
  8
BEZUGSACHSEN
100
AcDbCircle
 62
7
  6
CONTINUOUS
 10
132.389127907
 20
241.3810752774
 40
3.5
100
AcDbArc
 50
97.7362442621
 51
112.5
  0
ARC
  5
6D0
100
AcDbEntity
  8
BEZUGSACHSEN
100
AcDbCircle
 62
7
  6
CONTINUOUS
 10
132.389127907
 20
241.3810752774
 40
3.5
100
AcDbArc
 50
67.5
 51
95.6249998568
  0
ARC
  5
6D1
100
AcDbEntity
  8
RUNDUNGEN
100
AcDbCircle
 62
7
  6
CONTINUOUS
 10
132.389127907
 20
241.3810752774
 40
3.5
100
AcDbArc
 50
67.5
 51
112.5
  0
ARC
  5
6D2
100
AcDbEntity
  8
BEZUGSACHSEN
100
AcDbCircle
 62
7
  6
CONTINUOUS
 10
156.7218229217
 20
231.3021429932
 40
3.5
100
AcDbArc
 50
22.5
 51
67.5
  0
ARC
  5
6D3
100
AcDbEntity
  8
RUNDUNGEN
100
AcDbCircle
 62
7
  6
CONTINUOUS
 10
156.7218229217
 20
231.3021429932
 40
3.5
100
AcDbArc
 50
22.5
 51
67.5
  0
ARC
  5
6D4
100
AcDbEntity
  8
BEZUGSACHSEN
100
AcDbCircle
 62
7
  6
CONTINUOUS
 10
225.4636862929
 20
195.3875162275
 40
30.0
100
AcDbArc
 50
354.5310257065
 51
0.0000252238
  0
ARC
  5
6D5
100
AcDbEntity
  8
RUNDUNGEN
100
AcDbCircle
 62
7
  6
CONTINUOUS
 10
233.9636864576
 20
173.5260724005
 40
2.5
100
AcDbArc
 50
120.000000002
 51
179.9999953434
  0
ARC
  5
6D6
100
AcDbEntity
  8
RUNDUNGEN
100
AcDbCircle
 62
7
  6
CONTINUOUS
 10
243.7152180854
 20
184.9296245027
 40
2.5
100
AcDbArc
 50
300.0
 51
333.2252205974
  0
ARC
  5
6D7
100
AcDbEntity
  8
RUNDUNGEN
100
AcDbCircle
 62
7
  6
CONTINUOUS
 10
259.5017991598
 20
191.1937922002
 40
2.499123778
100
AcDbArc
 50
89.9994320705
 51
92.3383045507
  0
ARC
  5
6D8
100
AcDbEntity
  8
BEZUGSACHSEN
100
AcDbCircle
 62
7
  6
CONTINUOUS
 10
257.9636862929
 20
242.3810752774
 40
2.5
100
AcDbArc
 50
90.0
 51
180.0
  0
ARC
  5
6D9
100
AcDbEntity
  8
RUNDUNGEN
100
AcDbCircle
 62
7
  6
CONTINUOUS
 10
262.4636862929
 20
175.4694479784
 40
18.5
100
AcDbArc
 50
26.7747794026
 51
79.332395148
  0
ARC
  5
6DA
100
AcDbEntity
  8
RUNDUNGEN
100
AcDbCircle
 62
7
  6
CONTINUOUS
 10
262.4636862929
 20
175.4694479784
 40
18.5
100
AcDbArc
 50
102.4876713572
 51
153.2252205974
  0
ARC
  5
6DB
100
AcDbEntity
  8
BEZUGSACHSEN
100
AcDbCircle
 62
7
  6
CONTINUOUS
 10
262.4636862929
 20
176.4694479784
 40
9.0
100
AcDbArc
 50
219.0044610293
 51
320.9955389707
  0
ARC
  5
6DC
100
AcDbEntity
  8
BEZUGSACHSEN
100
AcDbCircle
 62
7
  6
CONTINUOUS
 10
262.4636862929
 20
175.9694479784
 40
8.5
100
AcDbArc
 50
216.0589950336
 51
323.9189432419
  0
ARC
  5
6DD
100
AcDbEntity
  8
RUNDUNGEN
100
AcDbCircle
 62
7
  6
CONTINUOUS
 10
265.4250221709
 20
191.1874378082
 40
2.5054786715
100
AcDbArc
 50
79.3438708864
 51
89.9883347888
  0
ARC
  5
6DE
100
AcDbEntity
  8
RUNDUNGEN
100
AcDbCircle
 62
7
  6
CONTINUOUS
 10
290.9636862264
 20
173.5260723438
 40
2.5
100
AcDbArc
 50
0.0000015465
 51
59.9999999996
  0
ARC
  5
6DF
100
AcDbEntity
  8
RUNDUNGEN
100
AcDbCircle
 62
7
  6
CONTINUOUS
 10
299.4636862929
 20
195.3875162275
 40
30.0
100
AcDbArc
 50
179.9999747762
 51
185.4514518137
  0
ARC
  5
6E0
100
AcDbEntity
  8
RUNDUNGEN
100
AcDbCircle
 62
7
  6
CONTINUOUS
 10
281.2121545004
 20
184.9296245027
 40
2.5
100
AcDbArc
 50
206.7747794026
 51
240.0
  0
ARC
  5
6E1
100
AcDbEntity
  8
RUNDUNGEN
100
AcDbCircle
 62
7
  6
CONTINUOUS
 10
266.9636862929
 20
242.3810752774
 40
2.5
100
AcDbArc
 50
0.0
 51
90.0
  0
ARC
  5
6E2
100
AcDbEntity
  8
0
100
AcDbCircle
 62
7
  6
CONTINUOUS
 10
104.436667238
 20
107.6260869896
 40
6.7039139702
100
AcDbArc
 50
89.5125902408
 51
90.0306596524
  0
ARC
  5
6E3
100
AcDbEntity
  8
RUNDUNGEN
100
AcDbCircle
 62
7
  6
CONTINUOUS
 10
87.2795147006
 20
80.03
 40
6.0
100
AcDbArc
 50
240.0
 51
354.0
  0
ARC
  5
6E4
100
AcDbEntity
  8
RUNDUNGEN
100
AcDbCircle
 62
7
  6
CONTINUOUS
 10
92.389127907
 20
95.1610194482
 40
2.5
100
AcDbArc
 50
354.0
 51
360.0
  0
ARC
  5
6E5
100
AcDbEntity
  8
RUNDUNGEN
100
AcDbCircle
 62
7
  6
CONTINUOUS
 10
96.7628685081
 20
100.53
 40
2.5
100
AcDbArc
 50
180.0
 51
270.0
  0
ARC
  5
6E6
100
AcDbEntity
  8
0
100
AcDbCircle
 62
7
  6
CONTINUOUS
 10
107.952412501
 20
97.5465913204
 40
1.8165913205
100
AcDbArc
 50
270.000234378
 51
271.6967510642
  0
ARC
  5
6E7
100
AcDbEntity
  8
0
100
AcDbCircle
 62
7
  6
CONTINUOUS
 10
105.8458432603
 20
97.5465705417
 40
1.8165705417
100
AcDbArc
 50
268.3032392311
 51
269.999765618
  0
ARC
  5
6E8
100
AcDbEntity
  8
0
100
AcDbCircle
 62
7
  6
CONTINUOUS
 10
112.4524123749
 20
97.5465705416
 40
1.8165705416
100
AcDbArc
 50
270.000234382
 51
271.696760769
  0
ARC
  5
6E9
100
AcDbEntity
  8
0
100
AcDbCircle
 62
7
  6
CONTINUOUS
 10
105.269014858
 20
96.8935689718
 40
1.163568972
100
AcDbArc
 50
267.1730342152
 51
269.9989896904
  0
ARC
  5
6EA
100
AcDbEntity
  8
0
100
AcDbCircle
 62
7
  6
CONTINUOUS
 10
108.5292410454
 20
96.8935689718
 40
1.163568972
100
AcDbArc
 50
270.0010103096
 51
272.8269657848
  0
ARC
  5
6EB
100
AcDbEntity
  8
0
100
AcDbCircle
 62
7
  6
CONTINUOUS
 10
113.029240837
 20
96.8935556741
 40
1.1635556743
100
AcDbArc
 50
270.0010103277
 51
272.826981942
  0
ARC
  5
6EC
100
AcDbEntity
  8
0
100
AcDbCircle
 62
7
  6
CONTINUOUS
 10
102.739125805
 20
136.5960648333
 40
22.4897428015
100
AcDbArc
 50
269.2866475868
 51
270.7365481923
  0
ARC
  5
6ED
100
AcDbEntity
  8
0
100
AcDbCircle
 62
7
  6
CONTINUOUS
 10
102.7393961725
 20
134.5056864903
 40
20.3104812387
100
AcDbArc
 50
269.7190912483
 51
270.7945279307
  0
ARC
  5
6EE
100
AcDbEntity
  8
0
100
AcDbCircle
 62
7
  6
CONTINUOUS
 10
107.4182037661
 20
134.4907640582
 40
20.2955524583
100
AcDbArc
 50
269.2121242889
 51
269.7729185864
  0
ARC
  5
6EF
100
AcDbEntity
  8
0
100
AcDbCircle
 62
7
  6
CONTINUOUS
 10
102.7382267908
 20
134.4846390775
 40
20.2894283736
100
AcDbArc
 50
269.2118214382
 51
269.7221020503
  0
ARC
  5
6F0
100
AcDbEntity
  8
0
100
AcDbCircle
 62
7
  6
CONTINUOUS
 10
107.8487281947
 20
130.1105047771
 40
15.9886133017
100
AcDbArc
 50
274.9779400851
 51
275.6104679101
  0
ARC
  5
6F1
100
AcDbEntity
  8
RUNDUNGEN
100
AcDbCircle
 62
7
  6
CONTINUOUS
 10
87.2795147006
 20
130.03
 40
6.0
100
AcDbArc
 50
6.0
 51
120.0
  0
ARC
  5
6F2
100
AcDbEntity
  8
RUNDUNGEN
100
AcDbCircle
 62
7
  6
CONTINUOUS
 10
92.389127907
 20
114.8989805518
 40
2.5
100
AcDbArc
 50
0.0
 51
6.0
  0
ARC
  5
6F3
100
AcDbEntity
  8
BEZUGSACHSEN
100
AcDbCircle
 62
7
  6
CONTINUOUS
 10
96.7628685081
 20
109.53
 40
2.5
100
AcDbArc
 50
90.0
 51
180.0
  0
ARC
  5
6F4
100
AcDbEntity
  8
RUNDUNGEN
100
AcDbCircle
 62
7
  6
CONTINUOUS
 10
177.4987411133
 20
80.03
 40
6.0
100
AcDbArc
 50
186.0
 51
300.0
  0
ARC
  5
6F5
100
AcDbEntity
  8
RUNDUNGEN
100
AcDbCircle
 62
7
  6
CONTINUOUS
 10
172.389127907
 20
95.1610194482
 40
2.5
100
AcDbArc
 50
180.0
 51
186.0
  0
ARC
  5
6F6
100
AcDbEntity
  8
RUNDUNGEN
100
AcDbCircle
 62
7
  6
CONTINUOUS
 10
168.0153873059
 20
100.53
 40
2.5
100
AcDbArc
 50
270.0
 51
360.0
  0
ARC
  5
6F7
100
AcDbEntity
  8
RUNDUNGEN
100
AcDbCircle
 62
7
  6
CONTINUOUS
 10
177.4987411133
 20
130.03
 40
6.0
100
AcDbArc
 50
60.0
 51
174.0
  0
ARC
  5
6F8
100
AcDbEntity
  8
RUNDUNGEN
100
AcDbCircle
 62
7
  6
CONTINUOUS
 10
172.389127907
 20
114.8989805518
 40
2.5
100
AcDbArc
 50
174.0
 51
180.0
  0
ARC
  5
6F9
100
AcDbEntity
  8
BEZUGSACHSEN
100
AcDbCircle
 62
7
  6
CONTINUOUS
 10
168.0153873059
 20
109.53
 40
2.5
100
AcDbArc
 50
0.0
 51
90.0
  0
ARC
  5
6FA
100
AcDbEntity
  8
0
100
AcDbCircle
 62
7
  6
CONTINUOUS
 10
156.8258433129
 20
112.5134086796
 40
1.8165913204
100
AcDbArc
 50
90.0002343779
 51
91.6967510643
  0
ARC
  5
6FB
100
AcDbEntity
  8
0
100
AcDbCircle
 62
7
  6
CONTINUOUS
 10
152.3258434391
 20
112.5134294584
 40
1.8165705416
100
AcDbArc
 50
90.000234382
 51
91.696760769
  0
ARC
  5
6FC
100
AcDbEntity
  8
0
100
AcDbCircle
 62
7
  6
CONTINUOUS
 10
158.9324125537
 20
112.5134294584
 40
1.8165705417
100
AcDbArc
 50
88.3032392311
 51
89.999765618
  0
ARC
  5
6FD
100
AcDbEntity
  8
0
100
AcDbCircle
 62
7
  6
CONTINUOUS
 10
159.5092409559
 20
113.1664310282
 40
1.163568972
100
AcDbArc
 50
87.1730342152
 51
89.9989896905
  0
ARC
  5
6FE
100
AcDbEntity
  8
0
100
AcDbCircle
 62
7
  6
CONTINUOUS
 10
156.2490147686
 20
113.1664310282
 40
1.163568972
100
AcDbArc
 50
90.0010103096
 51
92.8269657848
  0
ARC
  5
6FF
100
AcDbEntity
  8
0
100
AcDbCircle
 62
7
  6
CONTINUOUS
 10
151.7490149769
 20
113.1664443259
 40
1.1635556743
100
AcDbArc
 50
90.0010103277
 51
92.826981942
  0
SPLINE
  5
700
100
AcDbEntity
  8
0
100
AcDbSpline
 62
7
  6
CONTINUOUS
 70
0
 71
3
 72
8
 73
4
 74
0
 42
0.0000001
 43
0.0000001
 44
0.0000000001
 40
0.0
 40
0.0
 40
0.0
 40
0.0
 40
1.0
 40
1.0
 40
1.0
 40
1.0
 10
134.0551157413
 20
174.9903237602
 30
0.0
 10
134.0551157413
 20
174.5422585985
 30
0.0
 10
134.0877020774
 20
174.2408328882
 30
0.0
 10
134.1593084442
 20
174.0771612217
 30
0.0
  0
SPLINE
  5
701
100
AcDbEntity
  8
0
100
AcDbSpline
 62
7
  6
CONTINUOUS
 70
0
 71
3
 72
8
 73
4
 74
0
 42
0.0000001
 43
0.0000001
 44
0.0000000001
 40
0.0
 40
0.0
 40
0.0
 40
0.0
 40
1.0
 40
1.0
 40
1.0
 40
1.0
 10
134.1593084442
 20
174.0771612217
 30
0.0
 10
134.2302682815
 20
173.9149673363
 30
0.0
 10
134.3687611042
 20
173.7927677321
 30
0.0
 10
134.5758136754
 20
173.7136005461
 30
0.0
  0
SPLINE
  5
702
100
AcDbEntity
  8
0
100
AcDbSpline
 62
7
  6
CONTINUOUS
 70
0
 71
3
 72
8
 73
4
 74
0
 42
0.0000001
 43
0.0000001
 44
0.0000000001
 40
0.0
 40
0.0
 40
0.0
 40
0.0
 40
1.0
 40
1.0
 40
1.0
 40
1.0
 10
134.5758136754
 20
173.7136005461
 30
0.0
 10
134.7842395721
 20
173.6339082649
 30
0.0
 10
135.0204921184
 20
173.5931750654
 30
0.0
 10
135.2811849533
 20
173.5931750654
 30
0.0
  0
SPLINE
  5
703
100
AcDbEntity
  8
0
100
AcDbSpline
 62
7
  6
CONTINUOUS
 70
0
 71
3
 72
8
 73
4
 74
0
 42
0.0000001
 43
0.0000001
 44
0.0000000001
 40
0.0
 40
0.0
 40
0.0
 40
0.0
 40
1.0
 40
1.0
 40
1.0
 40
1.0
 10
135.2811849533
 20
173.5931750654
 30
0.0
 10
135.4441173492
 20
173.5931750654
 30
0.0
 10
135.6640770851
 20
173.6053950308
 30
0.0
 10
135.9451361118
 20
173.629834945
 30
0.0
  0
SPLINE
  5
704
100
AcDbEntity
  8
0
100
AcDbSpline
 62
7
  6
CONTINUOUS
 70
0
 71
3
 72
8
 73
4
 74
0
 42
0.0000001
 43
0.0000001
 44
0.0000000001
 40
0.0
 40
0.0
 40
0.0
 40
0.0
 40
1.0
 40
1.0
 40
1.0
 40
1.0
 10
135.9451361118
 20
174.5055987021
 30
0.0
 10
135.8066432891
 20
174.5544785639
 30
0.0
 10
135.7048101841
 20
174.5829917869
 30
0.0
 10
135.6354912282
 20
174.5904569092
 30
0.0
  0
SPLINE
  5
705
100
AcDbEntity
  8
0
100
AcDbSpline
 62
7
  6
CONTINUOUS
 70
0
 71
3
 72
8
 73
4
 74
0
 42
0.0000001
 43
0.0000001
 44
0.0000000001
 40
0.0
 40
0.0
 40
0.0
 40
0.0
 40
1.0
 40
1.0
 40
1.0
 40
1.0
 10
135.6354912282
 20
174.5904569092
 30
0.0
 10
135.440044683
 20
174.6115050098
 30
0.0
 10
135.3219180523
 20
174.6481649062
 30
0.0
 10
135.2811849753
 20
174.6970446969
 30
0.0
  0
SPLINE
  5
706
100
AcDbEntity
  8
0
100
AcDbSpline
 62
7
  6
CONTINUOUS
 70
0
 71
3
 72
8
 73
4
 74
0
 42
0.0000001
 43
0.0000001
 44
0.0000000001
 40
0.0
 40
0.0
 40
0.0
 40
0.0
 40
1.0
 40
1.0
 40
1.0
 40
1.0
 10
135.2811849753
 20
174.6970446969
 30
0.0
 10
135.2404518543
 20
174.7459245404
 30
0.0
 10
135.2200849472
 20
174.8436842641
 30
0.0
 10
135.2200849472
 20
174.9984703442
 30
0.0
  0
SPLINE
  5
707
100
AcDbEntity
  8
0
100
AcDbSpline
 62
7
  6
CONTINUOUS
 70
0
 71
3
 72
10
 73
6
 74
0
 42
0.0000001
 43
0.0000001
 44
0.0000000001
 40
0.0
 40
0.0
 40
0.0
 40
0.0
 40
0.499824218
 40
0.7499085725
 40
1.0
 40
1.0
 40
1.0
 40
1.0
 10
138.6235343106
 20
183.2388273488
 30
0.0
 10
139.8968151827
 20
183.5733504115
 30
0.0
 10
141.7713971215
 20
184.2243865723
 30
0.0
 10
144.1591079187
 20
185.3384681543
 30
0.0
 10
145.3179677373
 20
185.9669760172
 30
0.0
 10
145.889127907
 20
186.2951307651
 30
0.0
  0
SPLINE
  5
708
100
AcDbEntity
  8
0
100
AcDbSpline
 62
7
  6
CONTINUOUS
 70
0
 71
3
 72
10
 73
6
 74
0
 42
0.0000001
 43
0.0000001
 44
0.0000000001
 40
0.0
 40
0.0
 40
0.0
 40
0.0
 40
0.2500913588
 40
0.5001757208
 40
1.0
 40
1.0
 40
1.0
 40
1.0
 10
118.889127907
 20
186.2951307648
 30
0.0
 10
119.460287909
 20
185.9669761461
 30
0.0
 10
120.6191475399
 20
185.3384684034
 30
0.0
 10
123.0068581561
 20
184.2243867041
 30
0.0
 10
124.8814401998
 20
183.5733505434
 30
0.0
 10
126.1547211644
 20
183.2388274251
 30
0.0
  0
SPLINE
  5
709
100
AcDbEntity
  8
0
100
AcDbSpline
 62
7
  6
CONTINUOUS
 70
0
 71
3
 72
11
 73
7
 74
0
 42
0.0000001
 43
0.0000001
 44
0.0000000001
 40
0.0
 40
0.0
 40
0.0
 40
0.0
 40
0.4292497276
 40
0.7385343887
 40
0.9267219094
 40
1.0
 40
1.0
 40
1.0
 40
1.0
 10
110.0089297015
 20
114.33
 30
0.0
 10
110.0321633195
 20
114.33
 30
0.0
 10
110.0712720327
 20
114.3297531511
 30
0.0
 10
110.1240636189
 20
114.3274002331
 30
0.0
 10
110.1500999851
 20
114.3244148183
 30
0.0
 10
110.1691211063
 20
114.3198512318
 30
0.0
 10
110.1691273718
 20
114.3158849788
 30
0.0
  0
SPLINE
  5
70A
100
AcDbEntity
  8
0
100
AcDbSpline
 62
7
  6
CONTINUOUS
 70
0
 71
3
 72
11
 73
7
 74
0
 42
0.0000001
 43
0.0000001
 44
0.0000000001
 40
0.0
 40
0.0
 40
0.0
 40
0.0
 40
0.4292497276
 40
0.7385343887
 40
0.9267219094
 40
1.0
 40
1.0
 40
1.0
 40
1.0
 10
105.3289297015
 20
114.33
 30
0.0
 10
105.3521633195
 20
114.33
 30
0.0
 10
105.3912720327
 20
114.3297531511
 30
0.0
 10
105.4440636189
 20
114.3274002331
 30
0.0
 10
105.4700999851
 20
114.3244148183
 30
0.0
 10
105.4891211063
 20
114.3198512318
 30
0.0
 10
105.4891273718
 20
114.3158849788
 30
0.0
  0
SPLINE
  5
70B
100
AcDbEntity
  8
0
100
AcDbSpline
 62
7
  6
CONTINUOUS
 70
0
 71
3
 72
12
 73
8
 74
0
 42
0.0000001
 43
0.0000001
 44
0.0000000001
 40
0.0
 40
0.0
 40
0.0
 40
0.0
 40
0.3464239597
 40
0.6454230495
 40
0.8700187518
 40
0.9477891026
 40
1.0
 40
1.0
 40
1.0
 40
1.0
 10
103.0210351969
 20
114.1971580452
 30
0.0
 10
103.2068529305
 20
114.1997352339
 30
0.0
 10
103.5530183376
 20
114.2092310944
 30
0.0
 10
104.0190326103
 20
114.2352787118
 30
0.0
 10
104.3406162859
 20
114.2621686006
 30
0.0
 10
104.5294673895
 20
114.2847484566
 30
0.0
 10
104.5984724165
 20
114.2951456673
 30
0.0
 10
104.6259137156
 20
114.3007513248
 30
0.0
  0
SPLINE
  5
70C
100
AcDbEntity
  8
0
100
AcDbSpline
 62
7
  6
CONTINUOUS
 70
0
 71
3
 72
20
 73
16
 74
0
 42
0.0000001
 43
0.0000001
 44
0.0000000001
 40
0.0
 40
0.0
 40
0.0
 40
0.0
 40
0.192373101
 40
0.3784922218
 40
0.5509255945
 40
0.7027005961
 40
0.7689103914
 40
0.8277580954
 40
0.8786618587
 40
0.9211061345
 40
0.9546748063
 40
0.9790456772
 40
0.9940275181
 40
0.9980370702
 40
1.0
 40
1.0
 40
1.0
 40
1.0
 10
107.3377662414
 20
114.1953709998
 30
0.0
 10
107.4672467413
 20
114.1948545666
 30
0.0
 10
107.7220147813
 20
114.1962562743
 30
0.0
 10
108.0927398007
 20
114.2053084239
 30
0.0
 10
108.435927395
 20
114.2201694282
 30
0.0
 10
108.6982157151
 20
114.2365321505
 30
0.0
 10
108.8839786146
 20
114.2511285942
 30
0.0
 10
109.0019330396
 20
114.2617327547
 30
0.0
 10
109.1038614727
 20
114.2722167541
 30
0.0
 10
109.1886312197
 20
114.282246464
 30
0.0
 10
109.255725733
 20
114.2916593749
 30
0.0
 10
109.3037090644
 20
114.2998533853
 30
0.0
 10
109.3328532071
 20
114.3067772153
 30
0.0
 10
109.3453843706
 20
114.3115501138
 30
0.0
 10
109.3491305679
 20
114.3145646801
 30
0.0
 10
109.3491262872
 20
114.3158858722
 30
0.0
  0
SPLINE
  5
70D
100
AcDbEntity
  8
0
100
AcDbSpline
 62
7
  6
CONTINUOUS
 70
0
 71
3
 72
9
 73
5
 74
0
 42
0.0000001
 43
0.0000001
 44
0.0000000001
 40
0.0
 40
0.0
 40
0.0
 40
0.0
 40
0.1911384544
 40
1.0
 40
1.0
 40
1.0
 40
1.0
 10
104.6228741744
 20
114.3257931613
 30
0.0
 10
104.6146620776
 20
114.3264069856
 30
0.0
 10
104.5716414411
 20
114.3288447784
 30
0.0
 10
104.5285437636
 20
114.3294549214
 30
0.0
 10
104.4936961101
 20
114.3297583888
 30
0.0
  0
LINE
  5
70E
100
AcDbEntity
  8
0
100
AcDbLine
 62
7
  6
CONTINUOUS
 10
152.2720552692
 20
114.3292034987
 11
152.2541282646
 21
114.328583978
  0
SPLINE
  5
70F
100
AcDbEntity
  8
0
100
AcDbSpline
 62
7
  6
CONTINUOUS
 70
0
 71
3
 72
17
 73
13
 74
0
 42
0.0000001
 43
0.0000001
 44
0.0000000001
 40
0.0
 40
0.0
 40
0.0
 40
0.0
 40
0.0065268507
 40
0.0201115717
 40
0.0415489192
 40
0.0709505937
 40
0.1534730172
 40
0.2669195305
 40
0.4100429096
 40
0.5812505132
 40
0.7786335993
 40
1.0
 40
1.0
 40
1.0
 40
1.0
 10
105.4891273718
 20
114.3158849788
 30
0.0
 10
105.4891306222
 20
114.3138273544
 30
0.0
 10
105.4830791966
 20
114.3091919582
 30
0.0
 10
105.4716578723
 20
114.3046513803
 30
0.0
 10
105.4518570703
 20
114.2984500526
 30
0.0
 10
105.4112230437
 20
114.2885909001
 30
0.0
 10
105.3412532494
 20
114.275123696
 30
0.0
 10
105.2357729184
 20
114.2582364629
 30
0.0
 10
105.102145945
 20
114.2397452917
 30
0.0
 10
104.9420067949
 20
114.220300323
 30
0.0
 10
104.7570622717
 20
114.2005424769
 30
0.0
 10
104.6256179595
 20
114.1882637062
 30
0.0
 10
104.5560950782
 20
114.1821976341
 30
0.0
  0
SPLINE
  5
710
100
AcDbEntity
  8
0
100
AcDbSpline
 62
7
  6
CONTINUOUS
 70
0
 71
3
 72
9
 73
5
 74
0
 42
0.0000001
 43
0.0000001
 44
0.0000000001
 40
0.0
 40
0.0
 40
0.0
 40
0.0
 40
0.2216131579
 40
1.0
 40
1.0
 40
1.0
 40
1.0
 10
104.5560950782
 20
114.1821976341
 30
0.0
 10
104.4435115798
 20
114.172374399
 30
0.0
 10
103.9350649099
 20
114.1330783114
 30
0.0
 10
103.4251320032
 20
114.1132811246
 30
0.0
 10
103.0282277827
 20
114.108180288
 30
0.0
  0
SPLINE
  5
711
100
AcDbEntity
  8
0
100
AcDbSpline
 62
7
  6
CONTINUOUS
 70
0
 71
3
 72
21
 73
17
 74
0
 42
0.0000001
 43
0.0000001
 44
0.0000000001
 40
0.0
 40
0.0
 40
0.0
 40
0.0
 40
0.1888468132
 40
0.3734785347
 40
0.545832215
 40
0.6984617933
 40
0.7652973823
 40
0.824841252
 40
0.8764528791
 40
0.9195745227
 40
0.9537415961
 40
0.9785912171
 40
0.9874464629
 40
0.993906644
 40
0.9980084639
 40
1.0
 40
1.0
 40
1.0
 40
1.0
 10
107.139127907
 20
113.8058291163
 30
0.0
 10
107.3308002794
 20
113.803417344
 30
0.0
 10
107.709946439
 20
113.8035457881
 30
0.0
 10
108.2638618006
 20
113.8178898001
 30
0.0
 10
108.7805195744
 20
113.8443211817
 30
0.0
 10
109.1771365835
 20
113.8744530571
 30
0.0
 10
109.459054143
 20
113.9014958781
 30
0.0
 10
109.6386607242
 20
113.9211427883
 30
0.0
 10
109.7940626983
 20
113.9404212533
 30
0.0
 10
109.9236550161
 20
113.9587188273
 30
0.0
 10
110.0259057875
 20
113.9754124378
 30
0.0
 10
110.0936946739
 20
113.9887217652
 30
0.0
 10
110.133064801
 20
113.9984729439
 30
0.0
 10
110.152220579
 20
114.0046103493
 30
0.0
 10
110.1633379106
 20
114.0091205551
 30
0.0
 10
110.1691346078
 20
114.0137274446
 30
0.0
 10
110.1691273361
 20
114.0157489254
 30
0.0
  0
SPLINE
  5
712
100
AcDbEntity
  8
0
100
AcDbSpline
 62
7
  6
CONTINUOUS
 70
0
 71
3
 72
13
 73
9
 74
0
 42
0.0000001
 43
0.0000001
 44
0.0000000001
 40
0.0
 40
0.0
 40
0.0
 40
0.0
 40
0.02143831
 40
0.0704365292
 40
0.1498769549
 40
0.2600153271
 40
0.5712972975
 40
1.0
 40
1.0
 40
1.0
 40
1.0
 10
109.3491262872
 20
114.3158858722
 30
0.0
 10
109.3491207757
 20
114.3175868986
 30
0.0
 10
109.3427190735
 20
114.3207916911
 30
0.0
 10
109.3321101035
 20
114.3226971684
 30
0.0
 10
109.3127383113
 20
114.3252372116
 30
0.0
 10
109.2734203844
 20
114.3278100077
 30
0.0
 10
109.2057180888
 20
114.3297239292
 30
0.0
 10
109.1470955616
 20
114.33
 30
0.0
 10
109.1130798942
 20
114.33
 30
0.0
  0
SPLINE
  5
713
100
AcDbEntity
  8
0
100
AcDbSpline
 62
7
  6
CONTINUOUS
 70
0
 71
3
 72
21
 73
17
 74
0
 42
0.0000001
 43
0.0000001
 44
0.0000000001
 40
0.0
 40
0.0
 40
0.0
 40
0.0
 40
0.1888468132
 40
0.3734785347
 40
0.545832215
 40
0.6984617933
 40
0.7652973823
 40
0.824841252
 40
0.8764528791
 40
0.9195745227
 40
0.9537415961
 40
0.9785912171
 40
0.9874464629
 40
0.993906644
 40
0.9980084639
 40
1.0
 40
1.0
 40
1.0
 40
1.0
 10
102.459127907
 20
113.8058291163
 30
0.0
 10
102.6508002794
 20
113.803417344
 30
0.0
 10
103.029946439
 20
113.8035457881
 30
0.0
 10
103.5838618006
 20
113.8178898001
 30
0.0
 10
104.1005195744
 20
113.8443211817
 30
0.0
 10
104.4971365835
 20
113.8744530571
 30
0.0
 10
104.779054143
 20
113.9014958781
 30
0.0
 10
104.9586607242
 20
113.9211427883
 30
0.0
 10
105.1140626983
 20
113.9404212533
 30
0.0
 10
105.2436550161
 20
113.9587188273
 30
0.0
 10
105.3459057875
 20
113.9754124378
 30
0.0
 10
105.4136946739
 20
113.9887217652
 30
0.0
 10
105.453064801
 20
113.9984729439
 30
0.0
 10
105.472220579
 20
114.0046103493
 30
0.0
 10
105.4833379106
 20
114.0091205551
 30
0.0
 10
105.4891346078
 20
114.0137274446
 30
0.0
 10
105.4891273361
 20
114.0157489254
 30
0.0
  0
SPLINE
  5
714
100
AcDbEntity
  8
0
100
AcDbSpline
 62
7
  6
CONTINUOUS
 70
0
 71
3
 72
17
 73
13
 74
0
 42
0.0000001
 43
0.0000001
 44
0.0000000001
 40
0.0
 40
0.0
 40
0.0
 40
0.0
 40
0.006865627
 40
0.0205026385
 40
0.0418235927
 40
0.0709850916
 40
0.1527806024
 40
0.2653726577
 40
0.4077899998
 40
0.5787589947
 40
0.7767470594
 40
1.0
 40
1.0
 40
1.0
 40
1.0
 10
110.1691273718
 20
114.3158849788
 30
0.0
 10
110.169130153
 20
114.3141243928
 30
0.0
 10
110.1644854816
 20
114.3100142235
 30
0.0
 10
110.1551089944
 20
114.3059734904
 30
0.0
 10
110.1392754204
 20
114.3005844635
 30
0.0
 10
110.1065900454
 20
114.2920450266
 30
0.0
 10
110.0503089257
 20
114.2804544289
 30
0.0
 10
109.9652214995
 20
114.2659069364
 30
0.0
 10
109.8571378025
 20
114.24989163
 30
0.0
 10
109.7271166486
 20
114.2328604005
 30
0.0
 10
109.5762704128
 20
114.2152537517
 30
0.0
 10
109.4688259269
 20
114.2040842441
 30
0.0
 10
109.4118505881
 20
114.1984840477
 30
0.0
  0
SPLINE
  5
715
100
AcDbEntity
  8
0
100
AcDbSpline
 62
7
  6
CONTINUOUS
 70
0
 71
3
 72
9
 73
5
 74
0
 42
0.0000001
 43
0.0000001
 44
0.0000000001
 40
0.0
 40
0.0
 40
0.0
 40
0.0
 40
0.4666366015
 40
1.0
 40
1.0
 40
1.0
 40
1.0
 10
109.2360950782
 20
114.1821976341
 30
0.0
 10
108.9108558858
 20
114.1538195761
 30
0.0
 10
108.212157698
 20
114.1120790319
 30
0.0
 10
107.5122581819
 20
114.1034172493
 30
0.0
 10
107.139127907
 20
114.10806509
 30
0.0
  0
LINE
  5
716
100
AcDbEntity
  8
0
100
AcDbLine
 62
7
  6
CONTINUOUS
 10
158.9862007236
 20
114.3292034987
 11
159.0041277282
 21
114.328583978
  0
LINE
  5
717
100
AcDbEntity
  8
0
100
AcDbLine
 62
7
  6
CONTINUOUS
 10
105.7920550903
 20
95.7307965013
 11
105.7741280858
 21
95.731416022
  0
LINE
  5
718
100
AcDbEntity
  8
0
100
AcDbLine
 62
7
  6
CONTINUOUS
 10
108.0062009787
 20
95.7307965013
 11
108.0241280858
 21
95.731416022
  0
LINE
  5
719
100
AcDbEntity
  8
0
100
AcDbLine
 62
7
  6
CONTINUOUS
 10
156.7720548353
 20
114.3292034987
 11
156.7541277282
 21
114.328583978
  0
LINE
  5
71A
100
AcDbEntity
  8
0
100
AcDbLine
 62
7
  6
CONTINUOUS
 10
112.5062005448
 20
95.7307965013
 11
112.5241275493
 21
95.731416022
  0
ELLIPSE
  5
71B
100
AcDbEntity
  8
RUNDUNGEN
100
AcDbEllipse
 62
7
  6
CONTINUOUS
 10
278.5780423347
 20
163.3101897155
 30
0.0
 11
1.4931221984
 21
9.6516936142
 31
0.0
 40
0.2559769554
 41
-1.0271819583
 42
0.0395790929
  0
ELLIPSE
  5
71C
100
AcDbEntity
  8
RUNDUNGEN
100
AcDbEllipse
 62
7
  6
CONTINUOUS
 10
246.3493302512
 20
163.3101897155
 30
0.0
 11
1.4931221984
 21
-9.6516936142
 31
0.0
 40
0.2559769554
 41
3.1020135607
 42
4.1687746119
  0
ELLIPSE
  5
71D
100
AcDbEntity
  8
0
100
AcDbEllipse
 62
7
  6
CONTINUOUS
 10
161.4350371695
 20
84.03
 30
0.0
 11
-0.0
 21
30.3
 31
0.0
 40
0.3730158455
 41
-0.0254700252
 42
0.0
  0
ELLIPSE
  5
71E
100
AcDbEntity
  8
0
100
AcDbEllipse
 62
7
  6
CONTINUOUS
 10
103.3432186444
 20
126.03
 30
0.0
 11
-0.0
 21
30.3
 31
0.0
 40
0.3730158455
 41
-3.1670626787
 42
-3.1415926536
  0
ELLIPSE
  5
71F
100
AcDbEntity
  8
0
100
AcDbEllipse
 62
7
  6
CONTINUOUS
 10
151.8308593295
 20
84.03
 30
0.0
 11
-0.0
 21
30.3
 31
0.0
 40
0.244790762
 41
-0.0697623051
 42
-0.0570971908
  0
ELLIPSE
  5
720
100
AcDbEntity
  8
0
100
AcDbEllipse
 62
7
  6
CONTINUOUS
 10
150.9691550987
 20
84.03
 30
0.0
 11
0.0
 21
30.3
 31
0.0
 40
0.6527784911
 41
-0.0792683991
 42
-0.0697623051
  0
ELLIPSE
  5
721
100
AcDbEntity
  8
0
100
AcDbEllipse
 62
7
  6
CONTINUOUS
 10
149.0113795721
 20
84.03
 30
0.0
 11
44.5031303052
 21
0.0
 31
0.0
 40
0.6808509827
 41
1.4851866007
 42
1.4915279277
  0
ELLIPSE
  5
722
100
AcDbEntity
  8
0
100
AcDbEllipse
 62
7
  6
CONTINUOUS
 10
142.6693080953
 20
84.03
 30
0.0
 11
118.6749009699
 21
-0.0
 31
0.0
 40
0.255319362
 41
1.4820146586
 42
1.4851866007
  0
ELLIPSE
  5
723
100
AcDbEntity
  8
0
100
AcDbEllipse
 62
7
  6
CONTINUOUS
 10
160.2522678631
 20
84.03
 30
0.0
 11
-0.0
 21
30.3
 31
0.0
 40
0.3263886165
 41
-0.0824386473
 42
-0.0729302648
  0
ELLIPSE
  5
724
100
AcDbEntity
  8
0
100
AcDbEllipse
 62
7
  6
CONTINUOUS
 10
158.6235442804
 20
84.03
 30
0.0
 11
0.0
 21
30.3
 31
0.0
 40
0.9791672503
 41
-0.0887816682
 42
-0.0824386473
  0
ELLIPSE
  5
725
100
AcDbEntity
  8
0
100
AcDbEllipse
 62
7
  6
CONTINUOUS
 10
153.3623806114
 20
84.03
 30
0.0
 11
89.0062606104
 21
0.0
 31
0.0
 40
0.3404254913
 41
1.4788418207
 42
1.4820146586
  0
ELLIPSE
  5
726
100
AcDbEntity
  8
0
100
AcDbEllipse
 62
7
  6
CONTINUOUS
 10
161.0059881614
 20
84.03
 30
0.0
 11
-0.0
 21
30.3
 31
0.0
 40
0.3263886165
 41
0.0507681977
 42
0.0602625303
  0
ELLIPSE
  5
727
100
AcDbEntity
  8
0
100
AcDbEllipse
 62
7
  6
CONTINUOUS
 10
161.6333145562
 20
84.03
 30
0.0
 11
-0.0
 21
30.3
 31
0.0
 40
0.7343750875
 41
6.3213013676
 42
6.3339535048
  0
ELLIPSE
  5
728
100
AcDbEntity
  8
0
100
AcDbEllipse
 62
7
  6
CONTINUOUS
 10
163.0465417659
 20
84.03
 30
0.0
 11
59.3374929264
 21
-0.0
 31
0.0
 40
0.5106383587
 41
7.885774041
 42
7.8920976944
  0
ELLIPSE
  5
729
100
AcDbEntity
  8
0
100
AcDbEllipse
 62
7
  6
CONTINUOUS
 10
112.9473964845
 20
126.03
 30
0.0
 11
0.0
 21
30.3
 31
0.0
 40
0.244790762
 41
-3.2113549587
 42
-3.1986898444
  0
ELLIPSE
  5
72A
100
AcDbEntity
  8
0
100
AcDbEllipse
 62
7
  6
CONTINUOUS
 10
113.8091007152
 20
126.03
 30
0.0
 11
-0.0
 21
30.3
 31
0.0
 40
0.6527784911
 41
-3.2208610527
 42
-3.2113549587
  0
ELLIPSE
  5
72B
100
AcDbEntity
  8
0
100
AcDbEllipse
 62
7
  6
CONTINUOUS
 10
115.7668762418
 20
126.03
 30
0.0
 11
44.5031303052
 21
-0.0
 31
0.0
 40
0.6808509827
 41
-1.6564060529
 42
-1.6500647259
  0
ELLIPSE
  5
72C
100
AcDbEntity
  8
0
100
AcDbEllipse
 62
7
  6
CONTINUOUS
 10
122.1089477187
 20
126.03
 30
0.0
 11
118.6749009699
 21
-0.0
 31
0.0
 40
0.255319362
 41
-1.659577995
 42
-1.6564060529
  0
ELLIPSE
  5
72D
100
AcDbEntity
  8
0
100
AcDbEllipse
 62
7
  6
CONTINUOUS
 10
104.5259879509
 20
126.03
 30
0.0
 11
-0.0
 21
30.3
 31
0.0
 40
0.3263886165
 41
-3.2240313009
 42
-3.2145229184
  0
ELLIPSE
  5
72E
100
AcDbEntity
  8
0
100
AcDbEllipse
 62
7
  6
CONTINUOUS
 10
106.1547115336
 20
126.03
 30
0.0
 11
-0.0
 21
30.3
 31
0.0
 40
0.9791672503
 41
-3.2303743218
 42
-3.2240313009
  0
ELLIPSE
  5
72F
100
AcDbEntity
  8
0
100
AcDbEllipse
 62
7
  6
CONTINUOUS
 10
111.4158752025
 20
126.03
 30
0.0
 11
89.0062606104
 21
-0.0
 31
0.0
 40
0.3404254913
 41
-1.6627508329
 42
-1.659577995
  0
ELLIPSE
  5
730
100
AcDbEntity
  8
0
100
AcDbEllipse
 62
7
  6
CONTINUOUS
 10
103.7722676526
 20
126.03
 30
0.0
 11
-0.0
 21
30.3
 31
0.0
 40
0.3263886165
 41
-3.0908244559
 42
-3.0813301233
  0
ELLIPSE
  5
731
100
AcDbEntity
  8
0
100
AcDbEllipse
 62
7
  6
CONTINUOUS
 10
103.1449412577
 20
126.03
 30
0.0
 11
0.0
 21
30.3
 31
0.0
 40
0.7343750875
 41
3.179708714
 42
3.1923608513
  0
ELLIPSE
  5
732
100
AcDbEntity
  8
0
100
AcDbEllipse
 62
7
  6
CONTINUOUS
 10
101.7317140481
 20
126.03
 30
0.0
 11
59.3374929264
 21
0.0
 31
0.0
 40
0.5106383587
 41
4.7441813874
 42
4.7505050408
  0
ELLIPSE
  5
733
100
AcDbEntity
  8
0
100
AcDbEllipse
 62
7
  6
CONTINUOUS
 10
114.0737961995
 20
126.03
 30
0.0
 11
-0.0
 21
30.0
 31
0.0
 40
0.4895843255
 41
-3.2280606063
 42
-3.2152535364
  0
ELLIPSE
  5
734
100
AcDbEntity
  8
0
100
AcDbEllipse
 62
7
  6
CONTINUOUS
 10
115.3422075917
 20
126.03
 30
0.0
 11
-0.0
 21
30.0
 31
0.0
 40
0.9791658496
 41
-3.240881911
 42
-3.2280606063
  0
ELLIPSE
  5
735
100
AcDbEntity
  8
0
100
AcDbEllipse
 62
7
  6
CONTINUOUS
 10
118.2540372764
 20
126.03
 30
0.0
 11
58.7499509752
 21
0.0
 31
0.0
 40
0.510638724
 41
-1.6765022496
 42
-1.6700855842
  0
ELLIPSE
  5
736
100
AcDbEntity
  8
0
100
AcDbEllipse
 62
7
  6
CONTINUOUS
 10
127.5520523958
 20
126.03
 30
0.0
 11
146.8751295656
 21
-0.0
 31
0.0
 40
0.204255139
 41
-1.6797122045
 42
-1.6765022496
  0
ELLIPSE
  5
737
100
AcDbEntity
  8
0
100
AcDbEllipse
 62
7
  6
CONTINUOUS
 10
103.9869101163
 20
126.03
 30
0.0
 11
0.0
 21
30.3
 31
0.0
 40
0.3831521729
 41
-3.1733850606
 42
-3.1415926536
  0
ELLIPSE
  5
738
100
AcDbEntity
  8
0
100
AcDbEllipse
 62
7
  6
CONTINUOUS
 10
107.9524199321
 20
126.03
 30
0.0
 11
0.0
 21
30.0
 31
0.0
 40
0.2447921628
 41
-3.1415926536
 42
-3.1318280037
  0
ELLIPSE
  5
739
100
AcDbEntity
  8
0
100
AcDbEllipse
 62
7
  6
CONTINUOUS
 10
105.8458358292
 20
126.03
 30
0.0
 11
-0.0
 21
30.0
 31
0.0
 40
0.244790762
 41
-3.1513573035
 42
-3.1415926536
  0
ELLIPSE
  5
73A
100
AcDbEntity
  8
0
100
AcDbEllipse
 62
7
  6
CONTINUOUS
 10
105.0884879509
 20
126.03
 30
0.0
 11
-0.0
 21
30.0
 31
0.0
 40
0.3263886165
 41
-3.2248575883
 42
-3.2152535364
  0
ELLIPSE
  5
73B
100
AcDbEntity
  8
0
100
AcDbEllipse
 62
7
  6
CONTINUOUS
 10
106.1064397532
 20
126.03
 30
0.0
 11
0.0
 21
30.0
 31
0.0
 40
0.7343750875
 41
-3.2376751324
 42
-3.2248575883
  0
ELLIPSE
  5
73C
100
AcDbEntity
  8
0
100
AcDbEllipse
 62
7
  6
CONTINUOUS
 10
107.7503202933
 20
126.03
 30
0.0
 11
39.1666619976
 21
0.0
 31
0.0
 40
0.7659575381
 41
-1.6765022496
 42
-1.6668788056
  0
ELLIPSE
  5
73D
100
AcDbEntity
  8
0
100
AcDbEllipse
 62
7
  6
CONTINUOUS
 10
119.1145432604
 20
126.03
 30
0.0
 11
146.8750455231
 21
0.0
 31
0.0
 40
0.2042552558
 41
-1.6797122045
 42
-1.6765022496
  0
ELLIPSE
  5
73E
100
AcDbEntity
  8
0
100
AcDbEllipse
 62
7
  6
CONTINUOUS
 10
151.3530133062
 20
84.03
 30
0.0
 11
-0.0
 21
30.0
 31
0.0
 40
0.1958324999
 41
-0.0736608828
 42
-0.0576687934
  0
ELLIPSE
  5
73F
100
AcDbEntity
  8
0
100
AcDbEllipse
 62
7
  6
CONTINUOUS
 10
150.7044596145
 20
84.03
 30
0.0
 11
-0.0
 21
30.0
 31
0.0
 40
0.4895843255
 41
-0.0864679527
 42
-0.0736608828
  0
ELLIPSE
  5
740
100
AcDbEntity
  8
0
100
AcDbEllipse
 62
7
  6
CONTINUOUS
 10
149.4360482223
 20
84.03
 30
0.0
 11
0.0
 21
30.0
 31
0.0
 40
0.9791658496
 41
-0.0992892574
 42
-0.0864679527
  0
ELLIPSE
  5
741
100
AcDbEntity
  8
0
100
AcDbEllipse
 62
7
  6
CONTINUOUS
 10
146.5242185376
 20
84.03
 30
0.0
 11
58.7499509752
 21
-0.0
 31
0.0
 40
0.510638724
 41
1.465090404
 42
1.4715070694
  0
ELLIPSE
  5
742
100
AcDbEntity
  8
0
100
AcDbEllipse
 62
7
  6
CONTINUOUS
 10
137.2262034181
 20
84.03
 30
0.0
 11
146.8751295656
 21
0.0
 31
0.0
 40
0.204255139
 41
1.4618804491
 42
1.465090404
  0
ELLIPSE
  5
743
100
AcDbEntity
  8
0
100
AcDbEllipse
 62
7
  6
CONTINUOUS
 10
137.2262034181
 20
84.03
 30
0.0
 11
148.3438808613
 21
0.0
 31
0.0
 40
0.204255139
 41
1.4629630447
 42
1.4661408546
  0
ELLIPSE
  5
744
100
AcDbEntity
  8
0
100
AcDbEllipse
 62
7
  6
CONTINUOUS
 10
156.8258358819
 20
84.03
 30
0.0
 11
-0.0
 21
30.0
 31
0.0
 40
0.2447921628
 41
-0.0
 42
0.0097646499
  0
ELLIPSE
  5
745
100
AcDbEntity
  8
0
100
AcDbEllipse
 62
7
  6
CONTINUOUS
 10
158.9324199848
 20
84.03
 30
0.0
 11
-0.0
 21
30.0
 31
0.0
 40
0.244790762
 41
-0.0097646499
 42
0.0
  0
ELLIPSE
  5
746
100
AcDbEntity
  8
0
100
AcDbEllipse
 62
7
  6
CONTINUOUS
 10
146.5242185376
 20
84.03
 30
0.0
 11
59.3374504849
 21
-0.0
 31
0.0
 40
0.510638724
 41
1.4661408546
 42
1.4724933263
  0
ELLIPSE
  5
747
100
AcDbEntity
  8
0
100
AcDbEllipse
 62
7
  6
CONTINUOUS
 10
149.4360482223
 20
84.03
 30
0.0
 11
-0.0
 21
30.3
 31
0.0
 40
0.9791658496
 41
-0.0983030005
 42
-0.0856097261
  0
ELLIPSE
  5
748
100
AcDbEntity
  8
0
100
AcDbEllipse
 62
7
  6
CONTINUOUS
 10
150.7044596145
 20
84.03
 30
0.0
 11
-0.0
 21
30.3
 31
0.0
 40
0.4895843255
 41
-0.0856097261
 42
-0.0729302648
  0
ELLIPSE
  5
749
100
AcDbEntity
  8
0
100
AcDbEllipse
 62
7
  6
CONTINUOUS
 10
151.3530133062
 20
84.03
 30
0.0
 11
-0.0
 21
30.3
 31
0.0
 40
0.1958324999
 41
-0.0729302648
 42
-0.0570971908
  0
ELLIPSE
  5
74A
100
AcDbEntity
  8
0
100
AcDbEllipse
 62
7
  6
CONTINUOUS
 10
159.6897678631
 20
84.03
 30
0.0
 11
-0.0
 21
30.0
 31
0.0
 40
0.3263886165
 41
-0.0832649347
 42
-0.0736608828
  0
ELLIPSE
  5
74B
100
AcDbEntity
  8
0
100
AcDbEllipse
 62
7
  6
CONTINUOUS
 10
158.6718160607
 20
84.03
 30
0.0
 11
-0.0
 21
30.0
 31
0.0
 40
0.7343750875
 41
-0.0960824788
 42
-0.0832649347
  0
ELLIPSE
  5
74C
100
AcDbEntity
  8
0
100
AcDbEllipse
 62
7
  6
CONTINUOUS
 10
157.0279355206
 20
84.03
 30
0.0
 11
39.1666619976
 21
-0.0
 31
0.0
 40
0.7659575381
 41
1.465090404
 42
1.474713848
  0
ELLIPSE
  5
74D
100
AcDbEntity
  8
0
100
AcDbEllipse
 62
7
  6
CONTINUOUS
 10
145.6637125536
 20
84.03
 30
0.0
 11
146.8750455231
 21
0.0
 31
0.0
 40
0.2042552558
 41
1.4618804491
 42
1.465090404
  0
ELLIPSE
  5
74E
100
AcDbEntity
  8
0
100
AcDbEllipse
 62
7
  6
CONTINUOUS
 10
165.4896245934
 20
84.03
 30
0.0
 11
89.0062606104
 21
-0.0
 31
0.0
 40
0.3404254913
 41
7.8984228732
 42
7.901586114
  0
ELLIPSE
  5
74F
100
AcDbEntity
  8
0
100
AcDbEllipse
 62
7
  6
CONTINUOUS
 10
162.6659608686
 20
84.03
 30
0.0
 11
0.0
 21
30.3
 31
0.0
 40
0.9791672503
 41
6.3307897872
 42
6.3371177311
  0
ELLIPSE
  5
750
100
AcDbEntity
  8
0
100
AcDbEllipse
 62
7
  6
CONTINUOUS
 10
161.5997381316
 20
84.03
 30
0.0
 11
-0.0
 21
30.3
 31
0.0
 40
0.3263886165
 41
6.3371177311
 42
6.3466137816
  0
ELLIPSE
  5
751
100
AcDbEntity
  8
0
100
AcDbEllipse
 62
7
  6
CONTINUOUS
 10
145.6637125536
 20
84.03
 30
0.0
 11
148.3437959783
 21
-0.0
 31
0.0
 40
0.2042552558
 41
1.4629630447
 42
1.4661408546
  0
ELLIPSE
  5
752
100
AcDbEntity
  8
0
100
AcDbEllipse
 62
7
  6
CONTINUOUS
 10
157.0279355206
 20
84.03
 30
0.0
 11
39.5583286176
 21
-0.0
 31
0.0
 40
0.7659575381
 41
1.4661408546
 42
1.4756680542
  0
ELLIPSE
  5
753
100
AcDbEntity
  8
0
100
AcDbEllipse
 62
7
  6
CONTINUOUS
 10
158.6718160607
 20
84.03
 30
0.0
 11
-0.0
 21
30.3
 31
0.0
 40
0.7343750875
 41
-0.0951282726
 42
-0.0824386473
  0
ELLIPSE
  5
754
100
AcDbEntity
  8
0
100
AcDbEllipse
 62
7
  6
CONTINUOUS
 10
159.6897678631
 20
84.03
 30
0.0
 11
-0.0
 21
30.3
 31
0.0
 40
0.3263886165
 41
-0.0824386473
 42
-0.0729302648
  0
ELLIPSE
  5
755
100
AcDbEntity
  8
0
100
AcDbEllipse
 62
7
  6
CONTINUOUS
 10
127.5520523958
 20
126.03
 30
0.0
 11
148.3438808613
 21
-0.0
 31
0.0
 40
0.204255139
 41
-1.6786296089
 42
-1.675451799
  0
ELLIPSE
  5
756
100
AcDbEntity
  8
0
100
AcDbEllipse
 62
7
  6
CONTINUOUS
 10
118.2540372764
 20
126.03
 30
0.0
 11
59.3374504849
 21
0.0
 31
0.0
 40
0.510638724
 41
-1.675451799
 42
-1.6690993273
  0
ELLIPSE
  5
757
100
AcDbEntity
  8
0
100
AcDbEllipse
 62
7
  6
CONTINUOUS
 10
115.3422075917
 20
126.03
 30
0.0
 11
0.0
 21
30.3
 31
0.0
 40
0.9791658496
 41
-3.2398956541
 42
-3.2272023797
  0
ELLIPSE
  5
758
100
AcDbEntity
  8
0
100
AcDbEllipse
 62
7
  6
CONTINUOUS
 10
114.0737961995
 20
126.03
 30
0.0
 11
0.0
 21
30.3
 31
0.0
 40
0.4895843255
 41
-3.2272023797
 42
-3.2145229184
  0
ELLIPSE
  5
759
100
AcDbEntity
  8
0
100
AcDbEllipse
 62
7
  6
CONTINUOUS
 10
113.4252425077
 20
126.03
 30
0.0
 11
-0.0
 21
30.3
 31
0.0
 40
0.1958324999
 41
-3.2145229184
 42
-3.1986898444
  0
ELLIPSE
  5
75A
100
AcDbEntity
  8
0
100
AcDbEllipse
 62
7
  6
CONTINUOUS
 10
99.2886312205
 20
126.03
 30
0.0
 11
89.0062606104
 21
0.0
 31
0.0
 40
0.3404254913
 41
4.7568302196
 42
4.7599934604
  0
ELLIPSE
  5
75B
100
AcDbEntity
  8
0
100
AcDbEllipse
 62
7
  6
CONTINUOUS
 10
102.1122949453
 20
126.03
 30
0.0
 11
-0.0
 21
30.3
 31
0.0
 40
0.9791672503
 41
3.1891971336
 42
3.1955250775
  0
ELLIPSE
  5
75C
100
AcDbEntity
  8
0
100
AcDbEllipse
 62
7
  6
CONTINUOUS
 10
103.1785176824
 20
126.03
 30
0.0
 11
-0.0
 21
30.3
 31
0.0
 40
0.3263886165
 41
3.1955250775
 42
3.205021128
  0
ELLIPSE
  5
75D
100
AcDbEntity
  8
0
100
AcDbEllipse
 62
7
  6
CONTINUOUS
 10
119.1145432604
 20
126.03
 30
0.0
 11
148.3437959783
 21
0.0
 31
0.0
 40
0.2042552558
 41
-1.6786296089
 42
-1.675451799
  0
ELLIPSE
  5
75E
100
AcDbEntity
  8
0
100
AcDbEllipse
 62
7
  6
CONTINUOUS
 10
107.7503202933
 20
126.03
 30
0.0
 11
39.5583286176
 21
-0.0
 31
0.0
 40
0.7659575381
 41
-1.675451799
 42
-1.6659245994
  0
ELLIPSE
  5
75F
100
AcDbEntity
  8
0
100
AcDbEllipse
 62
7
  6
CONTINUOUS
 10
106.1064397532
 20
126.03
 30
0.0
 11
0.0
 21
30.3
 31
0.0
 40
0.7343750875
 41
-3.2367209262
 42
-3.2240313009
  0
ELLIPSE
  5
760
100
AcDbEntity
  8
0
100
AcDbEllipse
 62
7
  6
CONTINUOUS
 10
105.0884879509
 20
126.03
 30
0.0
 11
-0.0
 21
30.3
 31
0.0
 40
0.3263886165
 41
-3.2240313009
 42
-3.2145229184
  0
ELLIPSE
  5
761
100
AcDbEntity
  8
0
100
AcDbEllipse
 62
7
  6
CONTINUOUS
 10
160.7913456977
 20
84.03
 30
0.0
 11
-0.0
 21
30.3
 31
0.0
 40
0.3831521729
 41
-0.031792407
 42
0.0
  0
ELLIPSE
  5
762
100
AcDbEntity
  8
0
100
AcDbEllipse
 62
7
  6
CONTINUOUS
 10
113.4252425077
 20
126.03
 30
0.0
 11
0.0
 21
30.0
 31
0.0
 40
0.1958324999
 41
-3.2152535364
 42
-3.199261447
  0
ENDSEC
  0
SECTION
  2
OBJECTS
  0
DICTIONARY
  5
C
100
AcDbDictionary
280
0
281
1
  3
ACAD_GROUP
350
D
  3
ACAD_MLINESTYLE
350
17
  3
ACAD_LAYOUT
350
1A
  3
ACAD_PLOTSETTINGS
350
19
  3
ACAD_PLOTSTYLENAME
350
E
  0
DICTIONARY
  5
D
102
{ACAD_REACTORS
330
C
102
}
100
AcDbDictionary
280
0
281
1
  0
ACDBDICTIONARYWDFLT
  5
E
102
{ACAD_REACTORS
330
C
102
}
100
AcDbDictionary
281
1
  3
Normal
350
F
100
AcDbDictionaryWithDefault
340
F
  0
DICTIONARY
  5
17
102
{ACAD_REACTORS
330
C
102
}
100
AcDbDictionary
280
0
281
1
  3
Standard
350
18
  0
DICTIONARY
  5
19
102
{ACAD_REACTORS
330
C
102
}
100
AcDbDictionary
281
1
  0
DICTIONARY
  5
1A
102
{ACAD_REACTORS
330
C
102
}
100
AcDbDictionary
281
1
  3
Model
350
763
  3
Layout1
350
764
  0
ACDBPLACEHOLDER
  5
F
102
{ACAD_REACTORS
330
E
102
}
  0
MLINESTYLE
  5
18
102
{ACAD_REACTORS
330
17
102
}
100
AcDbMlineStyle
  2
STANDARD
 70
0
  3

 62
256
 51
90.0
 52
90.0
 71
2
 49
0.5
 62
256
  6
BYLAYER
 49
-0.5
 62
256
  6
BYLAYER
  0
LAYOUT
  5
763
102
{ACAD_REACTORS
330
1A
102
}
100
AcDbPlotSettings
  1

  2
none_device
  4
ISO_A3_(420.00_x_297.00_MM)
  6

 40
0.0
 41
0.0
 42
0.0
 43
0.0
 44
420.0
 45
297.0
 46
0.0
 47
0.0
 48
0.0
 49
0.0
140
0.0
141
0.0
142
1.0
143
1.0
 70
1024
 72
1
 73
0
 74
0
  7

 75
0
147
1.0
148
0.0
149
0.0
100
AcDbLayout
  1
Model
 70
0
 71
0
 10
0.0
 20
0.0
 11
420.0
 21
297.0
 12
0.0
 22
0.0
 32
0.0
 14
0.0
 24
0.0
 34
0.0
 15
0.0
 25
0.0
 35
0.0
146
0.0
 13
0.0
 23
0.0
 33
0.0
 16
1.0
 26
0.0
 36
0.0
 17
0.0
 27
1.0
 37
0.0
 76
0
330
213
345
0
346
0
  0
LAYOUT
  5
764
102
{ACAD_REACTORS
330
1A
102
}
100
AcDbPlotSettings
  1

  2
none_device
  4
ISO_A3_(420.00_x_297.00_MM)
  6

 40
0.0
 41
0.0
 42
0.0
 43
0.0
 44
420.0
 45
297.0
 46
0.0
 47
0.0
 48
0.0
 49
0.0
140
0.0
141
0.0
142
1.0
143
1.0
 70
0
 72
1
 73
0
 74
0
  7

 75
0
147
1.0
148
0.0
149
0.0
100
AcDbLayout
  1
Layout1
 70
0
 71
1
 10
0.0
 20
0.0
 11
420.0
 21
297.0
 12
0.0
 22
0.0
 32
0.0
 14
0.0
 24
0.0
 34
0.0
 15
0.0
 25
0.0
 35
0.0
146
0.0
 13
0.0
 23
0.0
 33
0.0
 16
1.0
 26
0.0
 36
0.0
 17
0.0
 27
1.0
 37
0.0
 76
0
330
214
345
0
346
0
  0
ENDSEC
  0
EOF
