999
DXF file: 001-m06828-p-10.dxf
999
Pro/ENGINEER 2011490 by Parametric Technology Corporation
  0
SECTION
  2
HEADER
  9
$ACADVER
  1
AC1015
  9
$DWGCODEPAGE
  3
ANSI_1252
  9
$EXTMAX
 10
841.0
 20
594.0
 30
0.0
  9
$EXTMIN
 10
0.0
 20
0.0
 30
0.0
  9
$LIMMIN
 10
0.0
 20
0.0
  9
$LIMMAX
 10
841.0
 20
594.0
  9
$VIEWCTR
 10
420.5
 20
297.0
  9
$VIEWSIZE
 40
594.0
  9
$CLAYER
  8
0
  9
$LTSCALE
 40
46.255
  9
$CELTYPE
  6
BYLAYER
  9
$DIMSCALE
 40
1.0
  9
$DIMASZ
 40
3.5
  9
$DIMEXO
 40
5.25625
  9
$DIMDLI
 40
31.958
  9
$DIMEXE
 40
15.138
  9
$DIMCEN
 40
7.569
  9
$DIMLFAC
 40
1.0
  9
$DIMBLK
  1
_FILLED
  9
$DIMTXT
 40
3.5
  9
$DIMTOL
 70
1
  9
$DIMLIM
 70
0
  9
$DIMTFAC
 40
1.0
  9
$DIMTP
 40
0.005
  9
$DIMTM
 40
0.005
  9
$PDMODE
 70
3
  9
$PDSIZE
 40
0.3125
  9
$HANDSEED
  5
948
  9
$TILEMODE
 70
1
  9
$MEASUREMENT
 70
1
  9
$INSUNITS
 70
4
  0
ENDSEC
  0
SECTION
  2
CLASSES
  0
CLASS
  1
ACDBDICTIONARYWDFLT
  2
AcDbDictionaryWithDefault
  3
AutoCAD 2000
 90
0
280
0
281
0
  0
CLASS
  1
ACDBPLACEHOLDER
  2
AcDbPlaceHolder
  3
AutoCAD 2000
 90
0
280
0
281
0
  0
CLASS
  1
LAYOUT
  2
AcDbLayout
  3
AutoCAD 2000
 90
0
280
0
281
0
  0
ENDSEC
  0
SECTION
  2
TABLES
  0
TABLE
  2
VPORT
  5
8
100
AcDbSymbolTable
 70
2
  0
VPORT
  5
1F4
100
AcDbSymbolTableRecord
100
AcDbViewportTableRecord
  2
*ACTIVE
 70
0
 10
0.0
 20
0.0
 11
1.0
 21
1.0
 12
420.5
 22
297.0
 13
0.0
 23
0.0
 14
1.0
 24
1.0
 15
0.0
 25
0.0
 16
0.0
 26
0.0
 36
1.0
 17
0.0
 27
0.0
 37
0.0
 40
594.0
 41
1.4158249158
 42
50.0
 43
0.0
 44
0.0
 50
0.0
 51
0.0
 71
0
 72
100
 73
1
 74
1
 75
0
 76
0
 77
0
 78
0
  0
ENDTAB
  0
TABLE
  2
LTYPE
  5
5
100
AcDbSymbolTable
 70
6
  0
LTYPE
  5
14
100
AcDbSymbolTableRecord
100
AcDbLinetypeTableRecord
  2
BYBLOCK
 70
0
  3

 72
65
 73
0
 40
0.0
  0
LTYPE
  5
15
100
AcDbSymbolTableRecord
100
AcDbLinetypeTableRecord
  2
BYLAYER
 70
0
  3

 72
65
 73
0
 40
0.0
  0
LTYPE
  5
16
100
AcDbSymbolTableRecord
100
AcDbLinetypeTableRecord
  2
CONTINUOUS
 70
64
  3
Solid line
 72
65
 73
0
 40
0.0
  0
LTYPE
  5
1F5
100
AcDbSymbolTableRecord
100
AcDbLinetypeTableRecord
  2
CENTER
 70
64
  3
____ _ ____ _ ____ _ ____ _ ____ _ ____ _ ____
 72
65
 73
4
 40
0.6
 49
0.375
 74
0
 49
-0.075
 74
0
 49
0.075
 74
0
 49
-0.075
 74
0
  0
LTYPE
  5
1F6
100
AcDbSymbolTableRecord
100
AcDbLinetypeTableRecord
  2
HIDDEN
 70
64
  3
- - - - - - - - - - - - - - - - - - - -
 72
65
 73
2
 40
0.2
 49
0.1
 74
0
 49
-0.1
 74
0
  0
LTYPE
  5
1F7
100
AcDbSymbolTableRecord
100
AcDbLinetypeTableRecord
  2
PHANTOM
 70
64
  3
_____ _ _ _____ _ _ _____ _ _ _____
 72
65
 73
6
 40
0.8
 49
0.45
 74
0
 49
-0.05
 74
0
 49
0.1
 74
0
 49
-0.05
 74
0
 49
0.1
 74
0
 49
-0.05
 74
0
  0
LTYPE
  5
1F8
100
AcDbSymbolTableRecord
100
AcDbLinetypeTableRecord
  2
DOT
 70
64
  3
. . . . . . . . . . . . . . . . . . . .
 72
65
 73
2
 40
0.2
 49
0.1
 74
0
 49
-0.1
 74
0
  0
LTYPE
  5
1F9
100
AcDbSymbolTableRecord
100
AcDbLinetypeTableRecord
  2
DASHED
 70
64
  3
- - - - - - - - - - - - - - - - - - - -
 72
65
 73
2
 40
0.2
 49
0.1
 74
0
 49
-0.1
 74
0
  0
ENDTAB
  0
TABLE
  2
LAYER
  5
2
100
AcDbSymbolTable
 70
36
  0
LAYER
  5
10
100
AcDbSymbolTableRecord
100
AcDbLayerTableRecord
  2
0
 70
0
 62
7
  6
CONTINUOUS
370
-3
390
F
  0
LAYER
  5
1FA
100
AcDbSymbolTableRecord
100
AcDbLayerTableRecord
  2
DEFAULT_1
 70
0
 62
7
  6
CENTER
370
-3
390
F
  0
LAYER
  5
1FB
100
AcDbSymbolTableRecord
100
AcDbLayerTableRecord
  2
DEFAULT_2
 70
0
 62
8
  6
HIDDEN
370
-3
390
F
  0
LAYER
  5
1FC
100
AcDbSymbolTableRecord
100
AcDbLayerTableRecord
  2
DEFAULT_3
 70
0
 62
7
  6
PHANTOM
370
-3
390
F
  0
LAYER
  5
1FD
100
AcDbSymbolTableRecord
100
AcDbLayerTableRecord
  2
AUSFORMSCHRAEGEN
 70
0
 62
7
  6
CONTINUOUS
370
-3
390
F
  0
LAYER
  5
1FE
100
AcDbSymbolTableRecord
100
AcDbLayerTableRecord
  2
B-ACHSEN
 70
0
 62
7
  6
CONTINUOUS
370
-3
390
F
  0
LAYER
  5
1FF
100
AcDbSymbolTableRecord
100
AcDbLayerTableRecord
  2
B-EBENEN
 70
0
 62
7
  6
CONTINUOUS
370
-3
390
F
  0
LAYER
  5
200
100
AcDbSymbolTableRecord
100
AcDbLayerTableRecord
  2
B-KOORSYS
 70
0
 62
7
  6
CONTINUOUS
370
-3
390
F
  0
LAYER
  5
201
100
AcDbSymbolTableRecord
100
AcDbLayerTableRecord
  2
B-KURVEN
 70
0
 62
7
  6
CONTINUOUS
370
-3
390
F
  0
LAYER
  5
202
100
AcDbSymbolTableRecord
100
AcDbLayerTableRecord
  2
BEMASSUNG
 70
0
 62
7
  6
CONTINUOUS
370
-3
390
F
  0
LAYER
  5
203
100
AcDbSymbolTableRecord
100
AcDbLayerTableRecord
  2
BEZUGSACHSEN
 70
0
 62
7
  6
CONTINUOUS
370
-3
390
F
  0
LAYER
  5
204
100
AcDbSymbolTableRecord
100
AcDbLayerTableRecord
  2
BEZUGSEBENEN
 70
0
 62
7
  6
CONTINUOUS
370
-3
390
F
  0
LAYER
  5
205
100
AcDbSymbolTableRecord
100
AcDbLayerTableRecord
  2
FLAECHEN
 70
0
 62
7
  6
CONTINUOUS
370
-3
390
F
  0
LAYER
  5
206
100
AcDbSymbolTableRecord
100
AcDbLayerTableRecord
  2
HILFEN
 70
0
 62
7
  6
CONTINUOUS
370
-3
390
F
  0
LAYER
  5
207
100
AcDbSymbolTableRecord
100
AcDbLayerTableRecord
  2
KURVEN
 70
0
 62
7
  6
CONTINUOUS
370
-3
390
F
  0
LAYER
  5
208
100
AcDbSymbolTableRecord
100
AcDbLayerTableRecord
  2
KURVENELEMENTE
 70
0
 62
7
  6
CONTINUOUS
370
-3
390
F
  0
LAYER
  5
209
100
AcDbSymbolTableRecord
100
AcDbLayerTableRecord
  2
NOTIZEN
 70
0
 62
7
  6
CONTINUOUS
370
-3
390
F
  0
LAYER
  5
20A
100
AcDbSymbolTableRecord
100
AcDbLayerTableRecord
  2
PLATZIERUNG
 70
0
 62
7
  6
CONTINUOUS
370
-3
390
F
  0
LAYER
  5
20B
100
AcDbSymbolTableRecord
100
AcDbLayerTableRecord
  2
RUNDUNGEN
 70
0
 62
7
  6
CONTINUOUS
370
-3
390
F
  0
LAYER
  5
20C
100
AcDbSymbolTableRecord
100
AcDbLayerTableRecord
  2
T_STARTBEZUEGE
 70
0
 62
7
  6
CONTINUOUS
370
-3
390
F
  0
LAYER
  5
20D
100
AcDbSymbolTableRecord
100
AcDbLayerTableRecord
  2
VERBUNDFLAECHEN
 70
0
 62
7
  6
CONTINUOUS
370
-3
390
F
  0
LAYER
  5
20E
100
AcDbSymbolTableRecord
100
AcDbLayerTableRecord
  2
ZEICHNUNGSBEMASSUNGEN
 70
0
 62
7
  6
CONTINUOUS
370
-3
390
F
  0
ENDTAB
  0
TABLE
  2
STYLE
  5
3
100
AcDbSymbolTable
 70
1
  0
STYLE
  5
11
100
AcDbSymbolTableRecord
100
AcDbTextStyleTableRecord
  2
STANDARD
 70
0
 40
0.0
 41
0.7
 50
0.0
 71
0
 42
0.2
  3
txt
  4

  0
STYLE
  5
20F
100
AcDbSymbolTableRecord
100
AcDbTextStyleTableRecord
  2
TEXTSTYLE_1
 70
0
 40
0.0
 41
0.8
 50
0.0
 71
0
 42
0.2
  3
gdt
  4

  0
ENDTAB
  0
TABLE
  2
VIEW
  5
6
100
AcDbSymbolTable
 70
0
  0
ENDTAB
  0
TABLE
  2
UCS
  5
7
100
AcDbSymbolTable
 70
0
  0
ENDTAB
  0
TABLE
  2
APPID
  5
9
100
AcDbSymbolTable
 70
1
  0
APPID
  5
210
100
AcDbSymbolTableRecord
100
AcDbRegAppTableRecord
  2
ACAD
 70
0
  0
ENDTAB
  0
TABLE
  2
BLOCK_RECORD
  5
1
100
AcDbSymbolTable
 70
0
  0
BLOCK_RECORD
  5
211
100
AcDbSymbolTableRecord
100
AcDbBlockTableRecord
  2
*Model_Space
  0
BLOCK_RECORD
  5
212
100
AcDbSymbolTableRecord
100
AcDbBlockTableRecord
  2
*Paper_Space
  0
ENDTAB
  0
TABLE
  2
DIMSTYLE
  5
A
100
AcDbSymbolTable
 70
1
100
AcDbDimStyleTable
 71
0
  0
DIMSTYLE
105
213
100
AcDbSymbolTableRecord
100
AcDbDimStyleTableRecord
  2
STANDARD
 70
0
  3

  4

 40
1.0
 41
3.5
 42
0.0625
 43
0.38
 44
0.18
 45
0.0
 46
0.0
 47
0.005
 48
0.005
140
3.5
141
0.09
142
0.0
143
25.4
144
1.0
145
0.0
146
1.0
147
0.09
 71
1.0
 72
0.0
 73
0
 74
0
 75
0
 76
0
 77
1
 78
8
170
0
171
2
172
0
173
0
174
0
175
0
176
0
177
0
178
5
270
2
271
3
272
3
273
2
274
2
275
0
280
0
281
0
282
0
283
1
284
8
285
0
286
0
287
3
288
0
340
11
  0
ENDTAB
  0
ENDSEC
  0
SECTION
  2
BLOCKS
  0
BLOCK
  5
20
100
AcDbEntity
  8
0
100
AcDbBlockBegin
  2
*Model_Space
 70
0
 10
0.0
 20
0.0
 30
0.0
  3
*Model_Space
  1

  0
ENDBLK
  5
21
100
AcDbEntity
  8
0
100
AcDbBlockEnd
  0
BLOCK
  5
1C
100
AcDbEntity
  8
0
100
AcDbBlockBegin
  2
*Paper_Space
 70
0
 10
0.0
 20
0.0
 30
0.0
  3
*Paper_Space
  1

  0
ENDBLK
  5
1D
100
AcDbEntity
  8
0
100
AcDbBlockEnd
  0
ENDSEC
  0
SECTION
  2
ENTITIES
  0
MTEXT
  5
214
100
AcDbEntity
  8
0
100
AcDbMText
 62
5
  6
CONTINUOUS
  7
STANDARD
 71
1
 72
1
 10
240.8192434211
 20
510.0685855263
 30
0.0
 11
1.0
 21
0.0
 31
0.0
 44
0.9
  1
VRBS 31,5t
 40
12.0
 41
87.7142857143
  0
MTEXT
  5
215
100
AcDbEntity
  8
0
100
AcDbMText
 62
5
  6
CONTINUOUS
  7
STANDARD
 71
1
 72
1
 10
608.0991776316
 20
418.3949013158
 30
0.0
 11
0.0
 21
1.0
 31
0.0
 44
0.9
  1
VRBS 31,5t
 40
12.0
 41
87.7142857143
  0
MTEXT
  5
216
100
AcDbEntity
  8
0
100
AcDbMText
 62
5
  6
CONTINUOUS
  7
STANDARD
 71
1
 72
1
 10
244.9311901914
 20
156.9538001
 30
0.0
 11
1.0
 21
0.0
 31
0.0
 44
0.9
  1
VRBS 31,5t
 40
12.0
 41
87.7142857143
  0
LINE
  5
217
100
AcDbEntity
  8
0
100
AcDbLine
 62
7
  6
CONTINUOUS
 10
0.0
 20
0.0
 11
0.0
 21
594.0
  0
LINE
  5
218
100
AcDbEntity
  8
0
100
AcDbLine
 62
7
  6
CONTINUOUS
 10
0.0
 20
0.0
 11
841.0
 21
0.0
  0
LINE
  5
219
100
AcDbEntity
  8
0
100
AcDbLine
 62
7
  6
CONTINUOUS
 10
0.0
 20
594.0
 11
841.0
 21
594.0
  0
LINE
  5
21A
100
AcDbEntity
  8
0
100
AcDbLine
 62
7
  6
CONTINUOUS
 10
841.0
 20
0.0
 11
841.0
 21
594.0
  0
LINE
  5
21B
100
AcDbEntity
  8
RUNDUNGEN
100
AcDbLine
 62
7
  6
CONTINUOUS
 10
96.6787718023
 20
312.7163129872
 11
96.6787718023
 21
336.7163129872
  0
LINE
  5
21C
100
AcDbEntity
  8
0
100
AcDbLine
 62
7
  6
CONTINUOUS
 10
128.7633785118
 20
346.9411745926
 11
129.6900952275
 21
345.3773447832
  0
LINE
  5
21D
100
AcDbEntity
  8
0
100
AcDbLine
 62
7
  6
CONTINUOUS
 10
128.7633785118
 20
347.2009822137
 11
129.6900952275
 21
345.6371524043
  0
LINE
  5
21E
100
AcDbEntity
  8
0
100
AcDbLine
 62
7
  6
CONTINUOUS
 10
122.8555624317
 20
346.0839609138
 11
121.2338090077
 21
349.1371524043
  0
LINE
  5
21F
100
AcDbEntity
  8
0
100
AcDbLine
 62
7
  6
CONTINUOUS
 10
120.5387718023
 20
348.8773447832
 11
122.3922044053
 21
345.3773447832
  0
LINE
  5
220
100
AcDbEntity
  8
0
100
AcDbLine
 62
7
  6
CONTINUOUS
 10
120.5387718023
 20
349.1371524043
 11
122.3922044053
 21
345.6371524043
  0
LINE
  5
221
100
AcDbEntity
  8
0
100
AcDbLine
 62
7
  6
CONTINUOUS
 10
120.5387718023
 20
348.8773447832
 11
120.5387718023
 21
349.1371524043
  0
LINE
  5
222
100
AcDbEntity
  8
0
100
AcDbLine
 62
7
  6
CONTINUOUS
 10
122.3922044053
 20
345.3773447832
 11
122.3922044053
 21
345.6371524043
  0
LINE
  5
223
100
AcDbEntity
  8
0
100
AcDbLine
 62
7
  6
CONTINUOUS
 10
123.3189206239
 20
345.3773447832
 11
123.3189206239
 21
345.6371524043
  0
LINE
  5
224
100
AcDbEntity
  8
0
100
AcDbLine
 62
7
  6
CONTINUOUS
 10
125.1723530611
 20
348.8773447832
 11
125.1723530611
 21
349.1371524043
  0
LINE
  5
225
100
AcDbEntity
  8
0
100
AcDbLine
 62
7
  6
CONTINUOUS
 10
126.0990694454
 20
345.3773447832
 11
126.0990694454
 21
349.1371524043
  0
LINE
  5
226
100
AcDbEntity
  8
0
100
AcDbLine
 62
7
  6
CONTINUOUS
 10
126.7941066508
 20
345.3773447832
 11
126.7941066508
 21
347.2009822137
  0
LINE
  5
227
100
AcDbEntity
  8
0
100
AcDbLine
 62
7
  6
CONTINUOUS
 10
126.7941066508
 20
347.6477906711
 11
126.7941066508
 21
348.7648120232
  0
LINE
  5
228
100
AcDbEntity
  8
RUNDUNGEN
100
AcDbLine
 62
7
  6
CONTINUOUS
 10
96.6787718023
 20
336.7163129872
 11
101.1199887971
 21
364.7570535152
  0
LINE
  5
229
100
AcDbEntity
  8
0
100
AcDbLine
 62
7
  6
CONTINUOUS
 10
136.7563070365
 20
346.0475575736
 11
137.1038256392
 21
345.6752171142
  0
LINE
  5
22A
100
AcDbEntity
  8
0
100
AcDbLine
 62
7
  6
CONTINUOUS
 10
136.7563070365
 20
346.3073651947
 11
137.1038256392
 21
345.9350247353
  0
LINE
  5
22B
100
AcDbEntity
  8
0
100
AcDbLine
 62
7
  6
CONTINUOUS
 10
139.7681340427
 20
348.2071320971
 11
139.8839744607
 21
348.0581959447
  0
LINE
  5
22C
100
AcDbEntity
  8
0
100
AcDbLine
 62
7
  6
CONTINUOUS
 10
140.9265302688
 20
346.8286417283
 11
140.6948507585
 21
347.1265141375
  0
LINE
  5
22D
100
AcDbEntity
  8
0
100
AcDbLine
 62
7
  6
CONTINUOUS
 10
139.7681340427
 20
348.4669397183
 11
139.8839744607
 21
348.3180035658
  0
LINE
  5
22E
100
AcDbEntity
  8
0
100
AcDbLine
 62
7
  6
CONTINUOUS
 10
130.5009715252
 20
345.6371524043
 11
129.4584157171
 21
347.3499183662
  0
LINE
  5
22F
100
AcDbEntity
  8
0
100
AcDbLine
 62
7
  6
CONTINUOUS
 10
129.5742554723
 20
348.2816001733
 11
129.6752190767
 21
348.0868855338
  0
LINE
  5
230
100
AcDbEntity
  8
0
100
AcDbLine
 62
7
  6
CONTINUOUS
 10
129.5742554723
 20
348.5414077945
 11
129.6900952275
 21
348.3180035658
  0
LINE
  5
231
100
AcDbEntity
  8
0
100
AcDbLine
 62
7
  6
CONTINUOUS
 10
130.3851324329
 20
348.3180035658
 11
130.2692926777
 21
348.5414077945
  0
LINE
  5
232
100
AcDbEntity
  8
0
100
AcDbLine
 62
7
  6
CONTINUOUS
 10
134.902873605
 20
346.7177703639
 11
135.003837742
 21
346.5230557206
  0
LINE
  5
233
100
AcDbEntity
  8
0
100
AcDbLine
 62
7
  6
CONTINUOUS
 10
134.902873605
 20
346.9775779851
 11
135.018714023
 21
346.7541736521
  0
LINE
  5
234
100
AcDbEntity
  8
0
100
AcDbLine
 62
7
  6
CONTINUOUS
 10
134.902873605
 20
348.2071320971
 11
134.9734063038
 21
348.071106018
  0
LINE
  5
235
100
AcDbEntity
  8
0
100
AcDbLine
 62
7
  6
CONTINUOUS
 10
135.7137512284
 20
346.8286417283
 11
135.5979108104
 21
347.0520460613
  0
LINE
  5
236
100
AcDbEntity
  8
0
100
AcDbLine
 62
7
  6
CONTINUOUS
 10
134.902873605
 20
348.4669397183
 11
135.018714023
 21
348.243535281
  0
LINE
  5
237
100
AcDbEntity
  8
0
100
AcDbLine
 62
7
  6
CONTINUOUS
 10
135.7137512284
 20
348.3180035658
 11
135.5979108104
 21
348.5414077945
  0
LINE
  5
238
100
AcDbEntity
  8
0
100
AcDbLine
 62
7
  6
CONTINUOUS
 10
137.4513442419
 20
346.3818332709
 11
137.3355038239
 21
346.6052374996
  0
LINE
  5
239
100
AcDbEntity
  8
0
100
AcDbLine
 62
7
  6
CONTINUOUS
 10
137.7988628446
 20
347.8711948998
 11
137.6830224266
 21
348.0945991285
  0
LINE
  5
23A
100
AcDbEntity
  8
0
100
AcDbLine
 62
7
  6
CONTINUOUS
 10
140.5790116661
 20
348.3180035658
 11
140.4631712481
 21
348.5414077945
  0
LINE
  5
23B
100
AcDbEntity
  8
0
100
AcDbLine
 62
7
  6
CONTINUOUS
 10
136.6404666185
 20
346.3454298785
 11
136.7563070365
 21
346.0475575736
  0
LINE
  5
23C
100
AcDbEntity
  8
0
100
AcDbLine
 62
7
  6
CONTINUOUS
 10
136.6404666185
 20
346.6052374996
 11
136.7563070365
 21
346.3073651947
  0
LINE
  5
23D
100
AcDbEntity
  8
0
100
AcDbLine
 62
7
  6
CONTINUOUS
 10
136.9879852212
 20
347.7603234311
 11
137.1038256392
 21
347.4624511262
  0
LINE
  5
23E
100
AcDbEntity
  8
0
100
AcDbLine
 62
7
  6
CONTINUOUS
 10
136.9879852212
 20
348.0201310523
 11
137.1038256392
 21
347.7222587473
  0
LINE
  5
23F
100
AcDbEntity
  8
0
100
AcDbLine
 62
7
  6
CONTINUOUS
 10
128.7633785118
 20
346.9411745926
 11
128.7633785118
 21
347.2009822137
  0
LINE
  5
240
100
AcDbEntity
  8
0
100
AcDbLine
 62
7
  6
CONTINUOUS
 10
128.9950580221
 20
348.505004402
 11
128.9950580221
 21
348.7648120232
  0
LINE
  5
241
100
AcDbEntity
  8
0
100
AcDbLine
 62
7
  6
CONTINUOUS
 10
129.3425766248
 20
348.4305363258
 11
129.3425766248
 21
348.6903439469
  0
LINE
  5
242
100
AcDbEntity
  8
0
100
AcDbLine
 62
7
  6
CONTINUOUS
 10
129.5742554723
 20
348.2816001733
 11
129.5742554723
 21
348.5414077945
  0
LINE
  5
243
100
AcDbEntity
  8
0
100
AcDbLine
 62
7
  6
CONTINUOUS
 10
129.6900952275
 20
348.3180035658
 11
129.6900952275
 21
348.0945991285
  0
LINE
  5
244
100
AcDbEntity
  8
0
100
AcDbLine
 62
7
  6
CONTINUOUS
 10
129.6900952275
 20
345.3773447832
 11
129.6900952275
 21
345.6371524043
  0
LINE
  5
245
100
AcDbEntity
  8
0
100
AcDbLine
 62
7
  6
CONTINUOUS
 10
129.921774075
 20
347.2390468975
 11
129.921774075
 21
347.4988545187
  0
LINE
  5
246
100
AcDbEntity
  8
0
100
AcDbLine
 62
7
  6
CONTINUOUS
 10
130.2692926777
 20
347.5369192024
 11
130.2692926777
 21
347.7967268236
  0
LINE
  5
247
100
AcDbEntity
  8
0
100
AcDbLine
 62
7
  6
CONTINUOUS
 10
130.3851324329
 20
347.7603234311
 11
130.3851324329
 21
348.3180035658
  0
LINE
  5
248
100
AcDbEntity
  8
0
100
AcDbLine
 62
7
  6
CONTINUOUS
 10
130.5009715252
 20
345.3773447832
 11
130.5009715252
 21
345.6371524043
  0
LINE
  5
249
100
AcDbEntity
  8
0
100
AcDbLine
 62
7
  6
CONTINUOUS
 10
131.427688241
 20
345.3773447832
 11
131.427688241
 21
349.1371524043
  0
LINE
  5
24A
100
AcDbEntity
  8
0
100
AcDbLine
 62
7
  6
CONTINUOUS
 10
132.1227247835
 20
346.0839609138
 11
132.1227247835
 21
347.2009822137
  0
LINE
  5
24B
100
AcDbEntity
  8
0
100
AcDbLine
 62
7
  6
CONTINUOUS
 10
132.1227247835
 20
347.6477906711
 11
132.1227247835
 21
348.6903439469
  0
LINE
  5
24C
100
AcDbEntity
  8
0
100
AcDbLine
 62
7
  6
CONTINUOUS
 10
134.2078363996
 20
345.3773447832
 11
134.2078363996
 21
345.6371524043
  0
LINE
  5
24D
100
AcDbEntity
  8
0
100
AcDbLine
 62
7
  6
CONTINUOUS
 10
134.3236768177
 20
346.9411745926
 11
134.3236768177
 21
347.2009822137
  0
LINE
  5
24E
100
AcDbEntity
  8
0
100
AcDbLine
 62
7
  6
CONTINUOUS
 10
134.3236768177
 20
348.4305363258
 11
134.3236768177
 21
348.6903439469
  0
LINE
  5
24F
100
AcDbEntity
  8
0
100
AcDbLine
 62
7
  6
CONTINUOUS
 10
134.6711954204
 20
346.8667065164
 11
134.6711954204
 21
347.1265141375
  0
LINE
  5
250
100
AcDbEntity
  8
0
100
AcDbLine
 62
7
  6
CONTINUOUS
 10
134.6711954204
 20
348.3560682496
 11
134.6711954204
 21
348.6158758707
  0
LINE
  5
251
100
AcDbEntity
  8
0
100
AcDbLine
 62
7
  6
CONTINUOUS
 10
134.7870345127
 20
345.4518128659
 11
134.7870345127
 21
345.7116204871
  0
LINE
  5
252
100
AcDbEntity
  8
0
100
AcDbLine
 62
7
  6
CONTINUOUS
 10
134.902873605
 20
346.7177703639
 11
134.902873605
 21
346.9775779851
  0
LINE
  5
253
100
AcDbEntity
  8
0
100
AcDbLine
 62
7
  6
CONTINUOUS
 10
134.902873605
 20
348.2071320971
 11
134.902873605
 21
348.4669397183
  0
LINE
  5
254
100
AcDbEntity
  8
0
100
AcDbLine
 62
7
  6
CONTINUOUS
 10
135.018714023
 20
348.243535281
 11
135.018714023
 21
348.0945991285
  0
LINE
  5
255
100
AcDbEntity
  8
0
100
AcDbLine
 62
7
  6
CONTINUOUS
 10
135.018714023
 20
346.7541736521
 11
135.018714023
 21
346.5307694234
  0
LINE
  5
256
100
AcDbEntity
  8
0
100
AcDbLine
 62
7
  6
CONTINUOUS
 10
135.2503922077
 20
345.6752171142
 11
135.2503922077
 21
345.9350247353
  0
LINE
  5
257
100
AcDbEntity
  8
0
100
AcDbLine
 62
7
  6
CONTINUOUS
 10
135.2503922077
 20
347.3499183662
 11
135.2503922077
 21
347.4988545187
  0
LINE
  5
258
100
AcDbEntity
  8
0
100
AcDbLine
 62
7
  6
CONTINUOUS
 10
135.5979108104
 20
345.9730894452
 11
135.5979108104
 21
346.2328970663
  0
LINE
  5
259
100
AcDbEntity
  8
0
100
AcDbLine
 62
7
  6
CONTINUOUS
 10
135.5979108104
 20
347.5369192024
 11
135.5979108104
 21
347.7967268236
  0
LINE
  5
25A
100
AcDbEntity
  8
0
100
AcDbLine
 62
7
  6
CONTINUOUS
 10
135.7137512284
 20
346.196493726
 11
135.7137512284
 21
346.8286417283
  0
LINE
  5
25B
100
AcDbEntity
  8
0
100
AcDbLine
 62
7
  6
CONTINUOUS
 10
135.7137512284
 20
347.7603234311
 11
135.7137512284
 21
348.3180035658
  0
LINE
  5
25C
100
AcDbEntity
  8
0
100
AcDbLine
 62
7
  6
CONTINUOUS
 10
136.6404666185
 20
346.3454298785
 11
136.6404666185
 21
346.6052374996
  0
LINE
  5
25D
100
AcDbEntity
  8
0
100
AcDbLine
 62
7
  6
CONTINUOUS
 10
136.7563070365
 20
346.0475575736
 11
136.7563070365
 21
346.3073651947
  0
LINE
  5
25E
100
AcDbEntity
  8
0
100
AcDbLine
 62
7
  6
CONTINUOUS
 10
136.9879852212
 20
347.7603234311
 11
136.9879852212
 21
348.3180035658
  0
LINE
  5
25F
100
AcDbEntity
  8
0
100
AcDbLine
 62
7
  6
CONTINUOUS
 10
137.1038256392
 20
345.6752171142
 11
137.1038256392
 21
345.9350247353
  0
LINE
  5
260
100
AcDbEntity
  8
0
100
AcDbLine
 62
7
  6
CONTINUOUS
 10
137.1038256392
 20
347.4624511262
 11
137.1038256392
 21
347.7222587473
  0
LINE
  5
261
100
AcDbEntity
  8
0
100
AcDbLine
 62
7
  6
CONTINUOUS
 10
137.5671833342
 20
347.1645788213
 11
137.5671833342
 21
347.4243864424
  0
LINE
  5
262
100
AcDbEntity
  8
0
100
AcDbLine
 62
7
  6
CONTINUOUS
 10
137.6830224266
 20
345.4518128659
 11
137.6830224266
 21
345.7116204871
  0
LINE
  5
263
100
AcDbEntity
  8
0
100
AcDbLine
 62
7
  6
CONTINUOUS
 10
137.6830224266
 20
348.0945991285
 11
137.6830224266
 21
348.243535281
  0
LINE
  5
264
100
AcDbEntity
  8
0
100
AcDbLine
 62
7
  6
CONTINUOUS
 10
137.7988628446
 20
348.2071320971
 11
137.7988628446
 21
348.4669397183
  0
LINE
  5
265
100
AcDbEntity
  8
0
100
AcDbLine
 62
7
  6
CONTINUOUS
 10
138.0305410293
 20
347.0156426688
 11
138.0305410293
 21
347.27545029
  0
LINE
  5
266
100
AcDbEntity
  8
0
100
AcDbLine
 62
7
  6
CONTINUOUS
 10
138.1463814473
 20
348.3560682496
 11
138.1463814473
 21
348.6158758707
  0
LINE
  5
267
100
AcDbEntity
  8
0
100
AcDbLine
 62
7
  6
CONTINUOUS
 10
138.2622205396
 20
345.3773447832
 11
138.2622205396
 21
345.6371524043
  0
LINE
  5
268
100
AcDbEntity
  8
0
100
AcDbLine
 62
7
  6
CONTINUOUS
 10
138.49390005
 20
346.9411745926
 11
138.49390005
 21
347.2009822137
  0
LINE
  5
269
100
AcDbEntity
  8
0
100
AcDbLine
 62
7
  6
CONTINUOUS
 10
138.49390005
 20
348.4305363258
 11
138.49390005
 21
348.6903439469
  0
LINE
  5
26A
100
AcDbEntity
  8
0
100
AcDbLine
 62
7
  6
CONTINUOUS
 10
139.1889372553
 20
345.3773447832
 11
139.1889372553
 21
345.6371524043
  0
LINE
  5
26B
100
AcDbEntity
  8
0
100
AcDbLine
 62
7
  6
CONTINUOUS
 10
139.1889372553
 20
346.9411745926
 11
139.1889372553
 21
347.2009822137
  0
LINE
  5
26C
100
AcDbEntity
  8
0
100
AcDbLine
 62
7
  6
CONTINUOUS
 10
139.1889372553
 20
348.4305363258
 11
139.1889372553
 21
348.6903439469
  0
LINE
  5
26D
100
AcDbEntity
  8
0
100
AcDbLine
 62
7
  6
CONTINUOUS
 10
139.536455858
 20
348.3560682496
 11
139.536455858
 21
348.6158758707
  0
LINE
  5
26E
100
AcDbEntity
  8
0
100
AcDbLine
 62
7
  6
CONTINUOUS
 10
139.6522949504
 20
346.8667065164
 11
139.6522949504
 21
347.1265141375
  0
LINE
  5
26F
100
AcDbEntity
  8
0
100
AcDbLine
 62
7
  6
CONTINUOUS
 10
139.7681340427
 20
345.4518128659
 11
139.7681340427
 21
345.7116204871
  0
LINE
  5
270
100
AcDbEntity
  8
0
100
AcDbLine
 62
7
  6
CONTINUOUS
 10
139.7681340427
 20
348.2071320971
 11
139.7681340427
 21
348.4669397183
  0
LINE
  5
271
100
AcDbEntity
  8
0
100
AcDbLine
 62
7
  6
CONTINUOUS
 10
139.8839744607
 20
348.0581959447
 11
139.8839744607
 21
348.3180035658
  0
LINE
  5
272
100
AcDbEntity
  8
0
100
AcDbLine
 62
7
  6
CONTINUOUS
 10
139.9998135531
 20
346.7177703639
 11
139.9998135531
 21
346.9775779851
  0
LINE
  5
273
100
AcDbEntity
  8
0
100
AcDbLine
 62
7
  6
CONTINUOUS
 10
140.2314930634
 20
346.7541736521
 11
140.2314930634
 21
346.5307694234
  0
LINE
  5
274
100
AcDbEntity
  8
0
100
AcDbLine
 62
7
  6
CONTINUOUS
 10
140.2314930634
 20
345.6007490379
 11
140.2314930634
 21
345.8605566591
  0
LINE
  5
275
100
AcDbEntity
  8
0
100
AcDbLine
 62
7
  6
CONTINUOUS
 10
140.5790116661
 20
348.0581959447
 11
140.5790116661
 21
348.3180035658
  0
LINE
  5
276
100
AcDbEntity
  8
0
100
AcDbLine
 62
7
  6
CONTINUOUS
 10
140.6948507585
 20
345.8986213689
 11
140.6948507585
 21
346.1584289901
  0
LINE
  5
277
100
AcDbEntity
  8
0
100
AcDbLine
 62
7
  6
CONTINUOUS
 10
140.9265302688
 20
346.196493726
 11
140.9265302688
 21
346.8286417283
  0
LINE
  5
278
100
AcDbEntity
  8
0
100
AcDbLine
 62
7
  6
CONTINUOUS
 10
129.3425766248
 20
348.4305363258
 11
129.5742554723
 21
348.2816001733
  0
LINE
  5
279
100
AcDbEntity
  8
0
100
AcDbLine
 62
7
  6
CONTINUOUS
 10
129.3425766248
 20
348.6903439469
 11
129.5742554723
 21
348.5414077945
  0
LINE
  5
27A
100
AcDbEntity
  8
0
100
AcDbLine
 62
7
  6
CONTINUOUS
 10
134.6711954204
 20
346.8667065164
 11
134.902873605
 21
346.7177703639
  0
LINE
  5
27B
100
AcDbEntity
  8
0
100
AcDbLine
 62
7
  6
CONTINUOUS
 10
134.6711954204
 20
347.1265141375
 11
134.902873605
 21
346.9775779851
  0
LINE
  5
27C
100
AcDbEntity
  8
0
100
AcDbLine
 62
7
  6
CONTINUOUS
 10
137.7988628446
 20
346.1584289901
 11
137.4513442419
 21
346.3818332709
  0
LINE
  5
27D
100
AcDbEntity
  8
0
100
AcDbLine
 62
7
  6
CONTINUOUS
 10
134.6711954204
 20
348.3560682496
 11
134.902873605
 21
348.2071320971
  0
LINE
  5
27E
100
AcDbEntity
  8
0
100
AcDbLine
 62
7
  6
CONTINUOUS
 10
134.6711954204
 20
348.6158758707
 11
134.902873605
 21
348.4669397183
  0
LINE
  5
27F
100
AcDbEntity
  8
0
100
AcDbLine
 62
7
  6
CONTINUOUS
 10
130.2692926777
 20
348.5414077945
 11
129.921774075
 21
348.8392800994
  0
LINE
  5
280
100
AcDbEntity
  8
0
100
AcDbLine
 62
7
  6
CONTINUOUS
 10
135.5979108104
 20
347.0520460613
 11
135.2503922077
 21
347.3499183662
  0
LINE
  5
281
100
AcDbEntity
  8
0
100
AcDbLine
 62
7
  6
CONTINUOUS
 10
135.5979108104
 20
348.5414077945
 11
135.2503922077
 21
348.8392800994
  0
LINE
  5
282
100
AcDbEntity
  8
0
100
AcDbLine
 62
7
  6
CONTINUOUS
 10
140.4631712481
 20
348.5414077945
 11
140.1156526454
 21
348.8392800994
  0
LINE
  5
283
100
AcDbEntity
  8
0
100
AcDbLine
 62
7
  6
CONTINUOUS
 10
139.9998135531
 20
346.7177703639
 11
140.2133034001
 21
346.511905992
  0
LINE
  5
284
100
AcDbEntity
  8
0
100
AcDbLine
 62
7
  6
CONTINUOUS
 10
139.9998135531
 20
346.9775779851
 11
140.2314930634
 21
346.7541736521
  0
LINE
  5
285
100
AcDbEntity
  8
0
100
AcDbLine
 62
7
  6
CONTINUOUS
 10
147.5293823943
 20
345.9730894452
 11
147.7610632303
 21
345.7496852165
  0
LINE
  5
286
100
AcDbEntity
  8
0
100
AcDbLine
 62
7
  6
CONTINUOUS
 10
147.5293823943
 20
346.2328970663
 11
147.7610632303
 21
346.0094928376
  0
LINE
  5
287
100
AcDbEntity
  8
0
100
AcDbLine
 62
7
  6
CONTINUOUS
 10
151.4679274419
 20
347.0520460613
 11
151.2362492572
 21
347.27545029
  0
LINE
  5
288
100
AcDbEntity
  8
0
100
AcDbLine
 62
7
  6
CONTINUOUS
 10
150.6570498185
 20
348.2816001733
 11
150.8333316847
 21
348.1116158318
  0
LINE
  5
289
100
AcDbEntity
  8
0
100
AcDbLine
 62
7
  6
CONTINUOUS
 10
150.6570498185
 20
348.5414077945
 11
150.8887306545
 21
348.3180035658
  0
LINE
  5
28A
100
AcDbEntity
  8
0
100
AcDbLine
 62
7
  6
CONTINUOUS
 10
148.108581833
 20
346.3073651947
 11
147.992741415
 21
346.4563013471
  0
LINE
  5
28B
100
AcDbEntity
  8
0
100
AcDbLine
 62
7
  6
CONTINUOUS
 10
150.7728902365
 20
346.7922384402
 11
151.0045684212
 21
346.4943660309
  0
LINE
  5
28C
100
AcDbEntity
  8
0
100
AcDbLine
 62
7
  6
CONTINUOUS
 10
150.7728902365
 20
347.0520460613
 11
151.0045684212
 21
346.7541736521
  0
LINE
  5
28D
100
AcDbEntity
  8
0
100
AcDbLine
 62
7
  6
CONTINUOUS
 10
157.028225085
 20
346.2709618022
 11
157.2599032696
 21
345.9730894452
  0
LINE
  5
28E
100
AcDbEntity
  8
0
100
AcDbLine
 62
7
  6
CONTINUOUS
 10
157.028225085
 20
346.5307694234
 11
157.2599032696
 21
346.2328970663
  0
LINE
  5
28F
100
AcDbEntity
  8
0
100
AcDbLine
 62
7
  6
CONTINUOUS
 10
157.954940475
 20
346.2328970663
 11
157.7232622904
 21
346.5307694234
  0
LINE
  5
290
100
AcDbEntity
  8
0
100
AcDbLine
 62
7
  6
CONTINUOUS
 10
161.1984483173
 20
346.9031098045
 11
160.9667701326
 21
347.27545029
  0
LINE
  5
291
100
AcDbEntity
  8
0
100
AcDbLine
 62
7
  6
CONTINUOUS
 10
160.5034111119
 20
346.7922384402
 11
160.5739437984
 21
346.656212448
  0
LINE
  5
292
100
AcDbEntity
  8
0
100
AcDbLine
 62
7
  6
CONTINUOUS
 10
160.5034111119
 20
347.0520460613
 11
160.6192515299
 21
346.8286417283
  0
LINE
  5
293
100
AcDbEntity
  8
0
100
AcDbLine
 62
7
  6
CONTINUOUS
 10
147.4135446276
 20
346.196493726
 11
147.5293823943
 21
345.9730894452
  0
LINE
  5
294
100
AcDbEntity
  8
0
100
AcDbLine
 62
7
  6
CONTINUOUS
 10
147.4135446276
 20
346.4563013471
 11
147.5293823943
 21
346.2328970663
  0
LINE
  5
295
100
AcDbEntity
  8
0
100
AcDbLine
 62
7
  6
CONTINUOUS
 10
151.5837678599
 20
346.7541736521
 11
151.4679274419
 21
347.0520460613
  0
LINE
  5
296
100
AcDbEntity
  8
0
100
AcDbLine
 62
7
  6
CONTINUOUS
 10
151.4679274419
 20
348.3180035658
 11
151.3520870239
 21
348.6158758707
  0
LINE
  5
297
100
AcDbEntity
  8
0
100
AcDbLine
 62
7
  6
CONTINUOUS
 10
147.4135446276
 20
346.196493726
 11
147.4135446276
 21
346.4563013471
  0
LINE
  5
298
100
AcDbEntity
  8
0
100
AcDbLine
 62
7
  6
CONTINUOUS
 10
147.5293823943
 20
345.9730894452
 11
147.5293823943
 21
346.2328970663
  0
LINE
  5
299
100
AcDbEntity
  8
0
100
AcDbLine
 62
7
  6
CONTINUOUS
 10
147.5293823943
 20
348.0581959447
 11
147.5293823943
 21
348.3180035658
  0
LINE
  5
29A
100
AcDbEntity
  8
0
100
AcDbLine
 62
7
  6
CONTINUOUS
 10
147.7610632303
 20
345.7496852165
 11
147.7610632303
 21
346.0094928376
  0
LINE
  5
29B
100
AcDbEntity
  8
0
100
AcDbLine
 62
7
  6
CONTINUOUS
 10
148.108581833
 20
345.6007490379
 11
148.108581833
 21
345.8605566591
  0
LINE
  5
29C
100
AcDbEntity
  8
0
100
AcDbLine
 62
7
  6
CONTINUOUS
 10
148.108581833
 20
348.0581959447
 11
148.108581833
 21
348.3180035658
  0
LINE
  5
29D
100
AcDbEntity
  8
0
100
AcDbLine
 62
7
  6
CONTINUOUS
 10
148.3402600177
 20
348.2816001733
 11
148.3402600177
 21
348.5414077945
  0
LINE
  5
29E
100
AcDbEntity
  8
0
100
AcDbLine
 62
7
  6
CONTINUOUS
 10
148.5719382024
 20
345.4518128659
 11
148.5719382024
 21
345.7116204871
  0
LINE
  5
29F
100
AcDbEntity
  8
0
100
AcDbLine
 62
7
  6
CONTINUOUS
 10
148.6877786204
 20
348.4305363258
 11
148.6877786204
 21
348.6903439469
  0
LINE
  5
2A0
100
AcDbEntity
  8
0
100
AcDbLine
 62
7
  6
CONTINUOUS
 10
149.0352972231
 20
345.3773447832
 11
149.0352972231
 21
345.6371524043
  0
LINE
  5
2A1
100
AcDbEntity
  8
0
100
AcDbLine
 62
7
  6
CONTINUOUS
 10
149.2669754077
 20
347.0156426688
 11
149.2669754077
 21
347.5733225949
  0
LINE
  5
2A2
100
AcDbEntity
  8
0
100
AcDbLine
 62
7
  6
CONTINUOUS
 10
149.2669754077
 20
348.505004402
 11
149.2669754077
 21
348.7648120232
  0
LINE
  5
2A3
100
AcDbEntity
  8
0
100
AcDbLine
 62
7
  6
CONTINUOUS
 10
149.7303344284
 20
347.0156426688
 11
149.7303344284
 21
347.27545029
  0
LINE
  5
2A4
100
AcDbEntity
  8
0
100
AcDbLine
 62
7
  6
CONTINUOUS
 10
149.7303344284
 20
348.505004402
 11
149.7303344284
 21
348.7648120232
  0
LINE
  5
2A5
100
AcDbEntity
  8
0
100
AcDbLine
 62
7
  6
CONTINUOUS
 10
149.9620126131
 20
345.3773447832
 11
149.9620126131
 21
345.6371524043
  0
LINE
  5
2A6
100
AcDbEntity
  8
0
100
AcDbLine
 62
7
  6
CONTINUOUS
 10
150.3095312158
 20
348.4305363258
 11
150.3095312158
 21
348.6903439469
  0
LINE
  5
2A7
100
AcDbEntity
  8
0
100
AcDbLine
 62
7
  6
CONTINUOUS
 10
150.4253716338
 20
345.4518128659
 11
150.4253716338
 21
345.7116204871
  0
LINE
  5
2A8
100
AcDbEntity
  8
0
100
AcDbLine
 62
7
  6
CONTINUOUS
 10
150.4253716338
 20
346.9411745926
 11
150.4253716338
 21
347.2009822137
  0
LINE
  5
2A9
100
AcDbEntity
  8
0
100
AcDbLine
 62
7
  6
CONTINUOUS
 10
150.6570498185
 20
348.2816001733
 11
150.6570498185
 21
348.5414077945
  0
LINE
  5
2AA
100
AcDbEntity
  8
0
100
AcDbLine
 62
7
  6
CONTINUOUS
 10
150.7728902365
 20
346.7922384402
 11
150.7728902365
 21
347.0520460613
  0
LINE
  5
2AB
100
AcDbEntity
  8
0
100
AcDbLine
 62
7
  6
CONTINUOUS
 10
150.8887306545
 20
348.3180035658
 11
150.8887306545
 21
348.1690672047
  0
LINE
  5
2AC
100
AcDbEntity
  8
0
100
AcDbLine
 62
7
  6
CONTINUOUS
 10
150.8887306545
 20
345.6007490379
 11
150.8887306545
 21
345.8605566591
  0
LINE
  5
2AD
100
AcDbEntity
  8
0
100
AcDbLine
 62
7
  6
CONTINUOUS
 10
151.0045684212
 20
346.7541736521
 11
151.0045684212
 21
346.4563013471
  0
LINE
  5
2AE
100
AcDbEntity
  8
0
100
AcDbLine
 62
7
  6
CONTINUOUS
 10
151.1204088392
 20
347.38798305
 11
151.1204088392
 21
347.6477906711
  0
LINE
  5
2AF
100
AcDbEntity
  8
0
100
AcDbLine
 62
7
  6
CONTINUOUS
 10
151.2362492572
 20
345.7496852165
 11
151.2362492572
 21
346.0094928376
  0
LINE
  5
2B0
100
AcDbEntity
  8
0
100
AcDbLine
 62
7
  6
CONTINUOUS
 10
151.3520870239
 20
347.6113872787
 11
151.3520870239
 21
347.8711948998
  0
LINE
  5
2B1
100
AcDbEntity
  8
0
100
AcDbLine
 62
7
  6
CONTINUOUS
 10
151.4679274419
 20
345.9730894452
 11
151.4679274419
 21
346.2328970663
  0
LINE
  5
2B2
100
AcDbEntity
  8
0
100
AcDbLine
 62
7
  6
CONTINUOUS
 10
151.4679274419
 20
347.9092595836
 11
151.4679274419
 21
348.3180035658
  0
LINE
  5
2B3
100
AcDbEntity
  8
0
100
AcDbLine
 62
7
  6
CONTINUOUS
 10
151.5837678599
 20
346.196493726
 11
151.5837678599
 21
346.7541736521
  0
LINE
  5
2B4
100
AcDbEntity
  8
0
100
AcDbLine
 62
7
  6
CONTINUOUS
 10
152.51048325
 20
347.7603234311
 11
152.51048325
 21
348.6158758707
  0
LINE
  5
2B5
100
AcDbEntity
  8
0
100
AcDbLine
 62
7
  6
CONTINUOUS
 10
153.2055204554
 20
345.3773447832
 11
153.2055204554
 21
348.5414077945
  0
LINE
  5
2B6
100
AcDbEntity
  8
0
100
AcDbLine
 62
7
  6
CONTINUOUS
 10
153.9005576607
 20
345.3773447832
 11
153.9005576607
 21
349.1371524043
  0
LINE
  5
2B7
100
AcDbEntity
  8
0
100
AcDbLine
 62
7
  6
CONTINUOUS
 10
154.8272730508
 20
344.9305362737
 11
154.8272730508
 21
345.1903438948
  0
LINE
  5
2B8
100
AcDbEntity
  8
0
100
AcDbLine
 62
7
  6
CONTINUOUS
 10
155.4064724895
 20
344.9305362737
 11
155.4064724895
 21
345.1903438948
  0
LINE
  5
2B9
100
AcDbEntity
  8
0
100
AcDbLine
 62
7
  6
CONTINUOUS
 10
129.921774075
 20
348.8392800994
 11
129.4584157171
 21
349.0626843281
  0
LINE
  5
2BA
100
AcDbEntity
  8
0
100
AcDbLine
 62
7
  6
CONTINUOUS
 10
135.2503922077
 20
348.8392800994
 11
134.7870345127
 21
349.0626843281
  0
LINE
  5
2BB
100
AcDbEntity
  8
0
100
AcDbLine
 62
7
  6
CONTINUOUS
 10
140.1156526454
 20
348.8392800994
 11
139.6522949504
 21
349.0626843281
  0
LINE
  5
2BC
100
AcDbEntity
  8
0
100
AcDbLine
 62
7
  6
CONTINUOUS
 10
137.1038256392
 20
347.4624511262
 11
137.5671833342
 21
347.1645788213
  0
LINE
  5
2BD
100
AcDbEntity
  8
0
100
AcDbLine
 62
7
  6
CONTINUOUS
 10
137.1038256392
 20
347.7222587473
 11
137.5671833342
 21
347.4243864424
  0
LINE
  5
2BE
100
AcDbEntity
  8
0
100
AcDbLine
 62
7
  6
CONTINUOUS
 10
140.6948507585
 20
347.1265141375
 11
140.2314930634
 21
347.4243864424
  0
LINE
  5
2BF
100
AcDbEntity
  8
0
100
AcDbLine
 62
7
  6
CONTINUOUS
 10
139.536455858
 20
348.3560682496
 11
139.7681340427
 21
348.2071320971
  0
LINE
  5
2C0
100
AcDbEntity
  8
0
100
AcDbLine
 62
7
  6
CONTINUOUS
 10
139.536455858
 20
348.6158758707
 11
139.7681340427
 21
348.4669397183
  0
LINE
  5
2C1
100
AcDbEntity
  8
0
100
AcDbLine
 62
7
  6
CONTINUOUS
 10
148.3402600177
 20
346.1584289901
 11
148.108581833
 21
346.3073651947
  0
LINE
  5
2C2
100
AcDbEntity
  8
0
100
AcDbLine
 62
7
  6
CONTINUOUS
 10
151.3520870239
 20
348.6158758707
 11
150.8887306545
 21
348.9137481756
  0
LINE
  5
2C3
100
AcDbEntity
  8
0
100
AcDbLine
 62
7
  6
CONTINUOUS
 10
157.2599032696
 20
345.9730894452
 11
157.6074218723
 21
345.6752171142
  0
LINE
  5
2C4
100
AcDbEntity
  8
0
100
AcDbLine
 62
7
  6
CONTINUOUS
 10
157.2599032696
 20
346.2328970663
 11
157.6074218723
 21
345.9350247353
  0
LINE
  5
2C5
100
AcDbEntity
  8
0
100
AcDbLine
 62
7
  6
CONTINUOUS
 10
160.9667701326
 20
347.27545029
 11
160.6192515299
 21
347.5733225949
  0
LINE
  5
2C6
100
AcDbEntity
  8
0
100
AcDbLine
 62
7
  6
CONTINUOUS
 10
160.2717329272
 20
347.0156426688
 11
160.5034111119
 21
346.7922384402
  0
LINE
  5
2C7
100
AcDbEntity
  8
0
100
AcDbLine
 62
7
  6
CONTINUOUS
 10
160.2717329272
 20
347.27545029
 11
160.5034111119
 21
347.0520460613
  0
LINE
  5
2C8
100
AcDbEntity
  8
0
100
AcDbLine
 62
7
  6
CONTINUOUS
 10
163.0518817488
 20
345.9730894452
 11
163.2835599334
 21
345.6752171142
  0
LINE
  5
2C9
100
AcDbEntity
  8
0
100
AcDbLine
 62
7
  6
CONTINUOUS
 10
163.0518817488
 20
346.2328970663
 11
163.2835599334
 21
345.9350247353
  0
LINE
  5
2CA
100
AcDbEntity
  8
0
100
AcDbLine
 62
7
  6
CONTINUOUS
 10
163.7469189541
 20
346.1584289901
 11
163.6310785361
 21
346.3818332709
  0
LINE
  5
2CB
100
AcDbEntity
  8
0
100
AcDbLine
 62
7
  6
CONTINUOUS
 10
156.1015096949
 20
345.7496852165
 11
156.1015096949
 21
346.0094928376
  0
LINE
  5
2CC
100
AcDbEntity
  8
0
100
AcDbLine
 62
7
  6
CONTINUOUS
 10
157.028225085
 20
346.2709618022
 11
157.028225085
 21
346.5307694234
  0
LINE
  5
2CD
100
AcDbEntity
  8
0
100
AcDbLine
 62
7
  6
CONTINUOUS
 10
157.028225085
 20
346.9411745926
 11
157.028225085
 21
349.1371524043
  0
LINE
  5
2CE
100
AcDbEntity
  8
0
100
AcDbLine
 62
7
  6
CONTINUOUS
 10
157.2599032696
 20
345.9730894452
 11
157.2599032696
 21
346.2328970663
  0
LINE
  5
2CF
100
AcDbEntity
  8
0
100
AcDbLine
 62
7
  6
CONTINUOUS
 10
157.6074218723
 20
345.6752171142
 11
157.6074218723
 21
345.9350247353
  0
LINE
  5
2D0
100
AcDbEntity
  8
0
100
AcDbLine
 62
7
  6
CONTINUOUS
 10
157.6074218723
 20
347.5733225949
 11
157.6074218723
 21
348.7648120232
  0
LINE
  5
2D1
100
AcDbEntity
  8
0
100
AcDbLine
 62
7
  6
CONTINUOUS
 10
157.8391027084
 20
346.9411745926
 11
157.8391027084
 21
347.2009822137
  0
LINE
  5
2D2
100
AcDbEntity
  8
0
100
AcDbLine
 62
7
  6
CONTINUOUS
 10
158.1866213111
 20
345.4518128659
 11
158.1866213111
 21
345.7116204871
  0
LINE
  5
2D3
100
AcDbEntity
  8
0
100
AcDbLine
 62
7
  6
CONTINUOUS
 10
158.3024590777
 20
347.1645788213
 11
158.3024590777
 21
347.4243864424
  0
LINE
  5
2D4
100
AcDbEntity
  8
0
100
AcDbLine
 62
7
  6
CONTINUOUS
 10
158.7658180984
 20
345.3773447832
 11
158.7658180984
 21
345.6371524043
  0
LINE
  5
2D5
100
AcDbEntity
  8
0
100
AcDbLine
 62
7
  6
CONTINUOUS
 10
158.7658180984
 20
347.2390468975
 11
158.7658180984
 21
347.4988545187
  0
LINE
  5
2D6
100
AcDbEntity
  8
0
100
AcDbLine
 62
7
  6
CONTINUOUS
 10
159.4608553038
 20
345.3773447832
 11
159.4608553038
 21
345.6371524043
  0
LINE
  5
2D7
100
AcDbEntity
  8
0
100
AcDbLine
 62
7
  6
CONTINUOUS
 10
159.4608553038
 20
347.2390468975
 11
159.4608553038
 21
347.4988545187
  0
LINE
  5
2D8
100
AcDbEntity
  8
0
100
AcDbLine
 62
7
  6
CONTINUOUS
 10
159.9242143245
 20
347.1645788213
 11
159.9242143245
 21
347.4243864424
  0
LINE
  5
2D9
100
AcDbEntity
  8
0
100
AcDbLine
 62
7
  6
CONTINUOUS
 10
160.0400520912
 20
345.4518128659
 11
160.0400520912
 21
345.7116204871
  0
LINE
  5
2DA
100
AcDbEntity
  8
0
100
AcDbLine
 62
7
  6
CONTINUOUS
 10
160.2717329272
 20
347.0156426688
 11
160.2717329272
 21
347.27545029
  0
LINE
  5
2DB
100
AcDbEntity
  8
0
100
AcDbLine
 62
7
  6
CONTINUOUS
 10
160.5034111119
 20
346.7922384402
 11
160.5034111119
 21
347.0520460613
  0
LINE
  5
2DC
100
AcDbEntity
  8
0
100
AcDbLine
 62
7
  6
CONTINUOUS
 10
160.6192515299
 20
346.8286417283
 11
160.6192515299
 21
346.6797055758
  0
LINE
  5
2DD
100
AcDbEntity
  8
0
100
AcDbLine
 62
7
  6
CONTINUOUS
 10
160.6192515299
 20
345.6752171142
 11
160.6192515299
 21
345.9350247353
  0
LINE
  5
2DE
100
AcDbEntity
  8
0
100
AcDbLine
 62
7
  6
CONTINUOUS
 10
160.9667701326
 20
345.9730894452
 11
160.9667701326
 21
346.2328970663
  0
LINE
  5
2DF
100
AcDbEntity
  8
0
100
AcDbLine
 62
7
  6
CONTINUOUS
 10
160.9667701326
 20
348.505004402
 11
160.9667701326
 21
349.1371524043
  0
LINE
  5
2E0
100
AcDbEntity
  8
0
100
AcDbLine
 62
7
  6
CONTINUOUS
 10
161.1984483173
 20
346.3454298785
 11
161.1984483173
 21
346.9031098045
  0
LINE
  5
2E1
100
AcDbEntity
  8
0
100
AcDbLine
 62
7
  6
CONTINUOUS
 10
162.1251637073
 20
347.4624511262
 11
162.1251637073
 21
348.0201310523
  0
LINE
  5
2E2
100
AcDbEntity
  8
0
100
AcDbLine
 62
7
  6
CONTINUOUS
 10
163.0518817488
 20
348.6158758707
 11
163.0518817488
 21
348.0201310523
  0
LINE
  5
2E3
100
AcDbEntity
  8
0
100
AcDbLine
 62
7
  6
CONTINUOUS
 10
163.0518817488
 20
345.9730894452
 11
163.0518817488
 21
347.7222587473
  0
LINE
  5
2E4
100
AcDbEntity
  8
0
100
AcDbLine
 62
7
  6
CONTINUOUS
 10
163.2835599334
 20
345.6752171142
 11
163.2835599334
 21
345.9350247353
  0
LINE
  5
2E5
100
AcDbEntity
  8
0
100
AcDbLine
 62
7
  6
CONTINUOUS
 10
163.6310785361
 20
345.5262809487
 11
163.6310785361
 21
345.7860885698
  0
LINE
  5
2E6
100
AcDbEntity
  8
0
100
AcDbLine
 62
7
  6
CONTINUOUS
 10
163.6310785361
 20
346.3818332709
 11
163.6310785361
 21
347.7222587473
  0
LINE
  5
2E7
100
AcDbEntity
  8
0
100
AcDbLine
 62
7
  6
CONTINUOUS
 10
163.6310785361
 20
348.0201310523
 11
163.6310785361
 21
348.6158758707
  0
LINE
  5
2E8
100
AcDbEntity
  8
0
100
AcDbLine
 62
7
  6
CONTINUOUS
 10
163.9785971388
 20
345.4518128659
 11
163.9785971388
 21
345.7116204871
  0
LINE
  5
2E9
100
AcDbEntity
  8
0
100
AcDbLine
 62
7
  6
CONTINUOUS
 10
164.6736343442
 20
345.3773447832
 11
164.6736343442
 21
345.9350247353
  0
LINE
  5
2EA
100
AcDbEntity
  8
0
100
AcDbLine
 62
7
  6
CONTINUOUS
 10
164.9053125289
 20
347.4624511262
 11
164.9053125289
 21
348.0201310523
  0
LINE
  5
2EB
100
AcDbEntity
  8
0
100
AcDbLine
 62
7
  6
CONTINUOUS
 10
135.2503922077
 20
347.3499183662
 11
135.018714023
 21
347.4243864424
  0
LINE
  5
2EC
100
AcDbEntity
  8
0
100
AcDbLine
 62
7
  6
CONTINUOUS
 10
137.5671833342
 20
347.1645788213
 11
138.0305410293
 21
347.0156426688
  0
LINE
  5
2ED
100
AcDbEntity
  8
0
100
AcDbLine
 62
7
  6
CONTINUOUS
 10
137.5671833342
 20
347.4243864424
 11
138.0305410293
 21
347.27545029
  0
LINE
  5
2EE
100
AcDbEntity
  8
0
100
AcDbLine
 62
7
  6
CONTINUOUS
 10
140.2314930634
 20
347.4243864424
 11
139.7681340427
 21
347.5733225949
  0
LINE
  5
2EF
100
AcDbEntity
  8
0
100
AcDbLine
 62
7
  6
CONTINUOUS
 10
148.108581833
 20
345.6007490379
 11
148.5719382024
 21
345.4518128659
  0
LINE
  5
2F0
100
AcDbEntity
  8
0
100
AcDbLine
 62
7
  6
CONTINUOUS
 10
148.108581833
 20
345.8605566591
 11
148.5719382024
 21
345.7116204871
  0
LINE
  5
2F1
100
AcDbEntity
  8
0
100
AcDbLine
 62
7
  6
CONTINUOUS
 10
148.5719382024
 20
346.0839609138
 11
148.3402600177
 21
346.1584289901
  0
LINE
  5
2F2
100
AcDbEntity
  8
0
100
AcDbLine
 62
7
  6
CONTINUOUS
 10
137.1038256392
 20
345.6752171142
 11
137.6830224266
 21
345.4518128659
  0
LINE
  5
2F3
100
AcDbEntity
  8
0
100
AcDbLine
 62
7
  6
CONTINUOUS
 10
137.1038256392
 20
345.9350247353
 11
137.6830224266
 21
345.7116204871
  0
LINE
  5
2F4
100
AcDbEntity
  8
0
100
AcDbLine
 62
7
  6
CONTINUOUS
 10
157.6074218723
 20
345.6752171142
 11
158.1866213111
 21
345.4518128659
  0
LINE
  5
2F5
100
AcDbEntity
  8
0
100
AcDbLine
 62
7
  6
CONTINUOUS
 10
157.6074218723
 20
345.9350247353
 11
158.1866213111
 21
345.7116204871
  0
LINE
  5
2F6
100
AcDbEntity
  8
0
100
AcDbLine
 62
7
  6
CONTINUOUS
 10
160.6192515299
 20
347.5733225949
 11
160.0400520912
 21
347.7967268236
  0
LINE
  5
2F7
100
AcDbEntity
  8
0
100
AcDbLine
 62
7
  6
CONTINUOUS
 10
139.6522949504
 20
346.8667065164
 11
139.9998135531
 21
346.7177703639
  0
LINE
  5
2F8
100
AcDbEntity
  8
0
100
AcDbLine
 62
7
  6
CONTINUOUS
 10
138.1463814473
 20
347.7222587473
 11
137.7988628446
 21
347.8711948998
  0
LINE
  5
2F9
100
AcDbEntity
  8
0
100
AcDbLine
 62
7
  6
CONTINUOUS
 10
139.6522949504
 20
347.1265141375
 11
139.9998135531
 21
346.9775779851
  0
LINE
  5
2FA
100
AcDbEntity
  8
0
100
AcDbLine
 62
7
  6
CONTINUOUS
 10
147.7610632303
 20
345.7496852165
 11
148.108581833
 21
345.6007490379
  0
LINE
  5
2FB
100
AcDbEntity
  8
0
100
AcDbLine
 62
7
  6
CONTINUOUS
 10
147.7610632303
 20
346.0094928376
 11
148.108581833
 21
345.8605566591
  0
LINE
  5
2FC
100
AcDbEntity
  8
0
100
AcDbLine
 62
7
  6
CONTINUOUS
 10
150.4253716338
 20
346.9411745926
 11
150.7728902365
 21
346.7922384402
  0
LINE
  5
2FD
100
AcDbEntity
  8
0
100
AcDbLine
 62
7
  6
CONTINUOUS
 10
150.4253716338
 20
347.2009822137
 11
150.7728902365
 21
347.0520460613
  0
LINE
  5
2FE
100
AcDbEntity
  8
0
100
AcDbLine
 62
7
  6
CONTINUOUS
 10
150.3095312158
 20
348.4305363258
 11
150.6570498185
 21
348.2816001733
  0
LINE
  5
2FF
100
AcDbEntity
  8
0
100
AcDbLine
 62
7
  6
CONTINUOUS
 10
150.3095312158
 20
348.6903439469
 11
150.6570498185
 21
348.5414077945
  0
LINE
  5
300
100
AcDbEntity
  8
0
100
AcDbLine
 62
7
  6
CONTINUOUS
 10
158.3024590777
 20
346.0839609138
 11
157.954940475
 21
346.2328970663
  0
LINE
  5
301
100
AcDbEntity
  8
0
100
AcDbLine
 62
7
  6
CONTINUOUS
 10
163.2835599334
 20
345.6752171142
 11
163.6310785361
 21
345.5262809487
  0
LINE
  5
302
100
AcDbEntity
  8
0
100
AcDbLine
 62
7
  6
CONTINUOUS
 10
159.9242143245
 20
347.1645788213
 11
160.2717329272
 21
347.0156426688
  0
LINE
  5
303
100
AcDbEntity
  8
0
100
AcDbLine
 62
7
  6
CONTINUOUS
 10
163.2835599334
 20
345.9350247353
 11
163.6310785361
 21
345.7860885698
  0
LINE
  5
304
100
AcDbEntity
  8
0
100
AcDbLine
 62
7
  6
CONTINUOUS
 10
159.9242143245
 20
347.4243864424
 11
160.2717329272
 21
347.27545029
  0
LINE
  5
305
100
AcDbEntity
  8
0
100
AcDbLine
 62
7
  6
CONTINUOUS
 10
164.0944375568
 20
346.0094928376
 11
163.7469189541
 21
346.1584289901
  0
LINE
  5
306
100
AcDbEntity
  8
RUNDUNGEN
100
AcDbLine
 62
7
  6
CONTINUOUS
 10
177.3911465848
 20
423.6957019062
 11
183.3566801182
 21
366.9374417057
  0
LINE
  5
307
100
AcDbEntity
  8
RUNDUNGEN
100
AcDbLine
 62
7
  6
CONTINUOUS
 10
176.6787718023
 20
381.3495164583
 11
176.6787718023
 21
312.7163129872
  0
LINE
  5
308
100
AcDbEntity
  8
0
100
AcDbLine
 62
7
  6
CONTINUOUS
 10
137.1038256392
 20
348.6158758707
 11
136.9879852212
 21
348.3180035658
  0
LINE
  5
309
100
AcDbEntity
  8
0
100
AcDbLine
 62
7
  6
CONTINUOUS
 10
147.6452228123
 20
348.6158758707
 11
147.5293823943
 21
348.3180035658
  0
LINE
  5
30A
100
AcDbEntity
  8
RUNDUNGEN
100
AcDbLine
 62
7
  6
CONTINUOUS
 10
207.2502448731
 20
498.3152711153
 11
177.9562854876
 21
427.5933970712
  0
LINE
  5
30B
100
AcDbEntity
  8
0
100
AcDbLine
 62
7
  6
CONTINUOUS
 10
129.6900952275
 20
348.0945991285
 11
129.5742554723
 21
347.8711948998
  0
LINE
  5
30C
100
AcDbEntity
  8
0
100
AcDbLine
 62
7
  6
CONTINUOUS
 10
130.2692926777
 20
347.7967268236
 11
130.3851324329
 21
348.0201310523
  0
LINE
  5
30D
100
AcDbEntity
  8
0
100
AcDbLine
 62
7
  6
CONTINUOUS
 10
130.2692926777
 20
347.5369192024
 11
130.3851324329
 21
347.7603234311
  0
LINE
  5
30E
100
AcDbEntity
  8
0
100
AcDbLine
 62
7
  6
CONTINUOUS
 10
123.3189206239
 20
345.6371524043
 11
125.1723530611
 21
349.1371524043
  0
LINE
  5
30F
100
AcDbEntity
  8
0
100
AcDbLine
 62
7
  6
CONTINUOUS
 10
123.3189206239
 20
345.3773447832
 11
125.1723530611
 21
348.8773447832
  0
LINE
  5
310
100
AcDbEntity
  8
0
100
AcDbLine
 62
7
  6
CONTINUOUS
 10
124.4773158557
 20
349.1371524043
 11
122.8555624317
 21
346.0839609138
  0
LINE
  5
311
100
AcDbEntity
  8
RUNDUNGEN
100
AcDbLine
 62
7
  6
CONTINUOUS
 10
281.1173043434
 20
531.448211645
 11
211.5798136743
 21
502.6448399165
  0
LINE
  5
312
100
AcDbEntity
  8
B-ACHSEN
100
AcDbLine
 62
7
  6
CONTINUOUS
 10
96.6787718023
 20
312.7163129872
 11
173.2978156583
 21
312.7163129872
  0
LINE
  5
313
100
AcDbEntity
  8
RUNDUNGEN
100
AcDbLine
 62
7
  6
CONTINUOUS
 10
173.2978156583
 20
312.7163129872
 11
176.6776146715
 21
312.7163129872
  0
LINE
  5
314
100
AcDbEntity
  8
RUNDUNGEN
100
AcDbLine
 62
7
  6
CONTINUOUS
 10
391.6799289332
 20
312.7163129872
 11
395.0597279464
 21
312.7163129872
  0
LINE
  5
315
100
AcDbEntity
  8
B-ACHSEN
100
AcDbLine
 62
7
  6
CONTINUOUS
 10
395.0597279464
 20
312.7163129872
 11
471.6787718023
 21
312.7163129872
  0
LINE
  5
316
100
AcDbEntity
  8
BEZUGSACHSEN
100
AcDbLine
 62
7
  6
CONTINUOUS
 10
391.6787718023
 20
315.7163129872
 11
382.6966118905
 21
315.7163129872
  0
LINE
  5
317
100
AcDbEntity
  8
BEZUGSACHSEN
100
AcDbLine
 62
7
  6
CONTINUOUS
 10
185.6609317141
 20
315.7163129872
 11
176.6787718023
 21
315.7163129872
  0
LINE
  5
318
100
AcDbEntity
  8
RUNDUNGEN
100
AcDbLine
 62
7
  6
CONTINUOUS
 10
185.6609314409
 20
315.7163129872
 11
382.696612187
 21
315.7163129872
  0
LINE
  5
319
100
AcDbEntity
  8
0
100
AcDbLine
 62
7
  6
CONTINUOUS
 10
134.3236768177
 20
346.9411745926
 11
134.6711954204
 21
346.8667065164
  0
LINE
  5
31A
100
AcDbEntity
  8
0
100
AcDbLine
 62
7
  6
CONTINUOUS
 10
134.3236768177
 20
347.2009822137
 11
134.6711954204
 21
347.1265141375
  0
LINE
  5
31B
100
AcDbEntity
  8
0
100
AcDbLine
 62
7
  6
CONTINUOUS
 10
128.9950580221
 20
348.505004402
 11
129.3425766248
 21
348.4305363258
  0
LINE
  5
31C
100
AcDbEntity
  8
0
100
AcDbLine
 62
7
  6
CONTINUOUS
 10
128.9950580221
 20
348.7648120232
 11
129.3425766248
 21
348.6903439469
  0
LINE
  5
31D
100
AcDbEntity
  8
0
100
AcDbLine
 62
7
  6
CONTINUOUS
 10
134.3236768177
 20
348.4305363258
 11
134.6711954204
 21
348.3560682496
  0
LINE
  5
31E
100
AcDbEntity
  8
0
100
AcDbLine
 62
7
  6
CONTINUOUS
 10
138.49390005
 20
347.6477906711
 11
138.1463814473
 21
347.7222587473
  0
LINE
  5
31F
100
AcDbEntity
  8
0
100
AcDbLine
 62
7
  6
CONTINUOUS
 10
134.3236768177
 20
348.6903439469
 11
134.6711954204
 21
348.6158758707
  0
LINE
  5
320
100
AcDbEntity
  8
0
100
AcDbLine
 62
7
  6
CONTINUOUS
 10
139.1889372553
 20
348.4305363258
 11
139.536455858
 21
348.3560682496
  0
LINE
  5
321
100
AcDbEntity
  8
0
100
AcDbLine
 62
7
  6
CONTINUOUS
 10
139.1889372553
 20
348.6903439469
 11
139.536455858
 21
348.6158758707
  0
LINE
  5
322
100
AcDbEntity
  8
0
100
AcDbLine
 62
7
  6
CONTINUOUS
 10
163.6310785361
 20
345.5262809487
 11
163.9785971388
 21
345.4518128659
  0
LINE
  5
323
100
AcDbEntity
  8
0
100
AcDbLine
 62
7
  6
CONTINUOUS
 10
163.6310785361
 20
345.7860885698
 11
163.9785971388
 21
345.7116204871
  0
LINE
  5
324
100
AcDbEntity
  8
0
100
AcDbLine
 62
7
  6
CONTINUOUS
 10
151.2362492572
 20
347.27545029
 11
150.6570498185
 21
347.4243864424
  0
LINE
  5
325
100
AcDbEntity
  8
0
100
AcDbLine
 62
7
  6
CONTINUOUS
 10
150.8887306545
 20
348.9137481756
 11
150.4253716338
 21
349.0626843281
  0
LINE
  5
326
100
AcDbEntity
  8
0
100
AcDbLine
 62
7
  6
CONTINUOUS
 10
211.9187722792
 20
350.0235469956
 11
212.9187713255
 21
349.0022704321
  0
LINE
  5
327
100
AcDbEntity
  8
0
100
AcDbLine
 62
7
  6
CONTINUOUS
 10
206.6687715639
 20
358.7043982762
 11
207.1687718023
 21
358.1937600392
  0
LINE
  5
328
100
AcDbEntity
  8
BEZUGSACHSEN
100
AcDbLine
 62
7
  6
CONTINUOUS
 10
183.3141420463
 20
364.5004110584
 11
182.9041182089
 21
361.5829398602
  0
LINE
  5
329
100
AcDbEntity
  8
RUNDUNGEN
100
AcDbLine
 62
7
  6
CONTINUOUS
 10
183.3141420463
 20
364.5004110584
 11
182.8698275874
 21
361.3389494108
  0
LINE
  5
32A
100
AcDbEntity
  8
0
100
AcDbLine
 62
7
  6
CONTINUOUS
 10
151.3520870239
 20
347.8711948998
 11
151.4679274419
 21
348.1690672047
  0
LINE
  5
32B
100
AcDbEntity
  8
0
100
AcDbLine
 62
7
  6
CONTINUOUS
 10
151.3520870239
 20
347.6113872787
 11
151.4679274419
 21
347.9092595836
  0
LINE
  5
32C
100
AcDbEntity
  8
0
100
AcDbLine
 62
7
  6
CONTINUOUS
 10
135.018714023
 20
348.0945991285
 11
134.902873605
 21
347.8711948998
  0
LINE
  5
32D
100
AcDbEntity
  8
0
100
AcDbLine
 62
7
  6
CONTINUOUS
 10
135.5979108104
 20
347.7967268236
 11
135.7137512284
 21
348.0201310523
  0
LINE
  5
32E
100
AcDbEntity
  8
0
100
AcDbLine
 62
7
  6
CONTINUOUS
 10
135.018714023
 20
346.5307694234
 11
134.902873605
 21
346.3073651947
  0
LINE
  5
32F
100
AcDbEntity
  8
0
100
AcDbLine
 62
7
  6
CONTINUOUS
 10
135.5979108104
 20
347.5369192024
 11
135.7137512284
 21
347.7603234311
  0
LINE
  5
330
100
AcDbEntity
  8
0
100
AcDbLine
 62
7
  6
CONTINUOUS
 10
135.5979108104
 20
346.2328970663
 11
135.7137512284
 21
346.4563013471
  0
LINE
  5
331
100
AcDbEntity
  8
0
100
AcDbLine
 62
7
  6
CONTINUOUS
 10
135.5979108104
 20
345.9730894452
 11
135.7137512284
 21
346.196493726
  0
LINE
  5
332
100
AcDbEntity
  8
0
100
AcDbLine
 62
7
  6
CONTINUOUS
 10
137.6830224266
 20
348.243535281
 11
137.7988628446
 21
348.4669397183
  0
LINE
  5
333
100
AcDbEntity
  8
0
100
AcDbLine
 62
7
  6
CONTINUOUS
 10
137.7283301458
 20
348.071106018
 11
137.7988628446
 21
348.2071320971
  0
LINE
  5
334
100
AcDbEntity
  8
RUNDUNGEN
100
AcDbLine
 62
7
  6
CONTINUOUS
 10
248.0185177645
 20
329.7294800067
 11
320.3390258402
 21
329.7294800067
  0
LINE
  5
335
100
AcDbEntity
  8
0
100
AcDbLine
 62
7
  6
CONTINUOUS
 10
276.8223551299
 20
334.7163129872
 11
279.5121046092
 21
334.7163129872
  0
LINE
  5
336
100
AcDbEntity
  8
0
100
AcDbLine
 62
7
  6
CONTINUOUS
 10
284.8725927855
 20
334.7163129872
 11
286.4218121554
 21
334.7163129872
  0
LINE
  5
337
100
AcDbEntity
  8
0
100
AcDbLine
 62
7
  6
CONTINUOUS
 10
150.4253716338
 20
349.0626843281
 11
149.6144940104
 21
349.1371524043
  0
LINE
  5
338
100
AcDbEntity
  8
0
100
AcDbLine
 62
7
  6
CONTINUOUS
 10
163.9785971388
 20
345.4518128659
 11
164.6736343442
 21
345.3773447832
  0
LINE
  5
339
100
AcDbEntity
  8
0
100
AcDbLine
 62
7
  6
CONTINUOUS
 10
149.7303344284
 20
347.0156426688
 11
150.4253716338
 21
346.9411745926
  0
LINE
  5
33A
100
AcDbEntity
  8
0
100
AcDbLine
 62
7
  6
CONTINUOUS
 10
163.9785971388
 20
345.7116204871
 11
164.6736343442
 21
345.6371524043
  0
LINE
  5
33B
100
AcDbEntity
  8
0
100
AcDbLine
 62
7
  6
CONTINUOUS
 10
149.7303344284
 20
347.27545029
 11
150.4253716338
 21
347.2009822137
  0
LINE
  5
33C
100
AcDbEntity
  8
0
100
AcDbLine
 62
7
  6
CONTINUOUS
 10
137.6830224266
 20
345.4518128659
 11
138.2622205396
 21
345.3773447832
  0
LINE
  5
33D
100
AcDbEntity
  8
0
100
AcDbLine
 62
7
  6
CONTINUOUS
 10
137.6830224266
 20
345.7116204871
 11
138.2622205396
 21
345.6371524043
  0
LINE
  5
33E
100
AcDbEntity
  8
0
100
AcDbLine
 62
7
  6
CONTINUOUS
 10
149.1511376411
 20
346.0094928376
 11
148.5719382024
 21
346.0839609138
  0
LINE
  5
33F
100
AcDbEntity
  8
0
100
AcDbLine
 62
7
  6
CONTINUOUS
 10
139.7681340427
 20
347.5733225949
 11
139.1889372553
 21
347.6477906711
  0
LINE
  5
340
100
AcDbEntity
  8
0
100
AcDbLine
 62
7
  6
CONTINUOUS
 10
129.4584157171
 20
349.0626843281
 11
128.8792182669
 21
349.1371524043
  0
LINE
  5
341
100
AcDbEntity
  8
0
100
AcDbLine
 62
7
  6
CONTINUOUS
 10
158.1866213111
 20
345.4518128659
 11
158.7658180984
 21
345.3773447832
  0
LINE
  5
342
100
AcDbEntity
  8
0
100
AcDbLine
 62
7
  6
CONTINUOUS
 10
158.1866213111
 20
345.7116204871
 11
158.7658180984
 21
345.6371524043
  0
LINE
  5
343
100
AcDbEntity
  8
0
100
AcDbLine
 62
7
  6
CONTINUOUS
 10
134.7870345127
 20
349.0626843281
 11
134.2078363996
 21
349.1371524043
  0
LINE
  5
344
100
AcDbEntity
  8
0
100
AcDbLine
 62
7
  6
CONTINUOUS
 10
139.6522949504
 20
349.0626843281
 11
139.0730968373
 21
349.1371524043
  0
LINE
  5
345
100
AcDbEntity
  8
0
100
AcDbLine
 62
7
  6
CONTINUOUS
 10
164.6736343442
 20
345.9350247353
 11
164.0944375568
 21
346.0094928376
  0
LINE
  5
346
100
AcDbEntity
  8
0
100
AcDbLine
 62
7
  6
CONTINUOUS
 10
149.7303344284
 20
348.505004402
 11
150.3095312158
 21
348.4305363258
  0
LINE
  5
347
100
AcDbEntity
  8
0
100
AcDbLine
 62
7
  6
CONTINUOUS
 10
149.7303344284
 20
348.7648120232
 11
150.3095312158
 21
348.6903439469
  0
LINE
  5
348
100
AcDbEntity
  8
0
100
AcDbLine
 62
7
  6
CONTINUOUS
 10
160.0400520912
 20
347.7967268236
 11
159.4608553038
 21
347.8711948998
  0
LINE
  5
349
100
AcDbEntity
  8
0
100
AcDbLine
 62
7
  6
CONTINUOUS
 10
138.2622205396
 20
346.0839609138
 11
137.7988628446
 21
346.1584289901
  0
LINE
  5
34A
100
AcDbEntity
  8
0
100
AcDbLine
 62
7
  6
CONTINUOUS
 10
138.0305410293
 20
347.0156426688
 11
138.49390005
 21
346.9411745926
  0
LINE
  5
34B
100
AcDbEntity
  8
0
100
AcDbLine
 62
7
  6
CONTINUOUS
 10
139.1889372553
 20
346.9411745926
 11
139.6522949504
 21
346.8667065164
  0
LINE
  5
34C
100
AcDbEntity
  8
0
100
AcDbLine
 62
7
  6
CONTINUOUS
 10
148.5719382024
 20
345.4518128659
 11
149.0352972231
 21
345.3773447832
  0
LINE
  5
34D
100
AcDbEntity
  8
0
100
AcDbLine
 62
7
  6
CONTINUOUS
 10
138.0305410293
 20
347.27545029
 11
138.49390005
 21
347.2009822137
  0
LINE
  5
34E
100
AcDbEntity
  8
0
100
AcDbLine
 62
7
  6
CONTINUOUS
 10
139.1889372553
 20
347.2009822137
 11
139.6522949504
 21
347.1265141375
  0
LINE
  5
34F
100
AcDbEntity
  8
0
100
AcDbLine
 62
7
  6
CONTINUOUS
 10
148.5719382024
 20
345.7116204871
 11
149.0352972231
 21
345.6371524043
  0
LINE
  5
350
100
AcDbEntity
  8
0
100
AcDbLine
 62
7
  6
CONTINUOUS
 10
158.7658180984
 20
346.0094928376
 11
158.3024590777
 21
346.0839609138
  0
LINE
  5
351
100
AcDbEntity
  8
0
100
AcDbLine
 62
7
  6
CONTINUOUS
 10
159.4608553038
 20
347.2390468975
 11
159.9242143245
 21
347.1645788213
  0
LINE
  5
352
100
AcDbEntity
  8
0
100
AcDbLine
 62
7
  6
CONTINUOUS
 10
159.4608553038
 20
347.4988545187
 11
159.9242143245
 21
347.4243864424
  0
LINE
  5
353
100
AcDbEntity
  8
0
100
AcDbLine
 62
7
  6
CONTINUOUS
 10
213.9187718023
 20
348.4916321281
 11
215.1687713255
 21
348.2363129872
  0
LINE
  5
354
100
AcDbEntity
  8
0
100
AcDbLine
 62
7
  6
CONTINUOUS
 10
215.1687713255
 20
349.7682278771
 11
214.1687722792
 21
350.0235469956
  0
LINE
  5
355
100
AcDbEntity
  8
0
100
AcDbLine
 62
7
  6
CONTINUOUS
 10
205.9187715639
 20
358.9597173947
 11
206.6687715639
 21
358.7043982762
  0
LINE
  5
356
100
AcDbEntity
  8
0
100
AcDbLine
 62
7
  6
CONTINUOUS
 10
212.9187713255
 20
349.0022704321
 11
213.9187718023
 21
348.4916321281
  0
LINE
  5
357
100
AcDbEntity
  8
0
100
AcDbLine
 62
7
  6
CONTINUOUS
 10
214.1687722792
 20
350.0235469956
 11
213.4187722792
 21
350.5341854114
  0
LINE
  5
358
100
AcDbEntity
  8
0
100
AcDbLine
 62
7
  6
CONTINUOUS
 10
207.9187718023
 20
359.2150365132
 11
206.9187720407
 21
359.9809938687
  0
LINE
  5
359
100
AcDbEntity
  8
0
100
AcDbLine
 62
7
  6
CONTINUOUS
 10
208.6687718023
 20
358.1937600392
 11
207.9187718023
 21
359.2150365132
  0
LINE
  5
35A
100
AcDbEntity
  8
0
100
AcDbLine
 62
7
  6
CONTINUOUS
 10
213.4187722792
 20
350.5341854114
 11
212.9187713255
 21
351.3001427669
  0
LINE
  5
35B
100
AcDbEntity
  8
0
100
AcDbLine
 62
7
  6
CONTINUOUS
 10
211.4187720407
 20
351.0448236484
 11
211.9187722792
 21
350.0235469956
  0
LINE
  5
35C
100
AcDbEntity
  8
0
100
AcDbLine
 62
7
  6
CONTINUOUS
 10
209.1687720407
 20
348.2363129872
 11
206.9187720407
 21
354.108653428
  0
LINE
  5
35D
100
AcDbEntity
  8
0
100
AcDbLine
 62
7
  6
CONTINUOUS
 10
205.4187716831
 20
353.598015191
 11
207.4187715639
 21
348.2363129872
  0
LINE
  5
35E
100
AcDbEntity
  8
0
100
AcDbLine
 62
7
  6
CONTINUOUS
 10
207.1687718023
 20
358.1937600392
 11
207.4187715639
 21
357.4278026837
  0
LINE
  5
35F
100
AcDbEntity
  8
0
100
AcDbLine
 62
7
  6
CONTINUOUS
 10
208.9187715639
 20
357.4278026837
 11
208.6687718023
 21
358.1937600392
  0
LINE
  5
360
100
AcDbEntity
  8
0
100
AcDbLine
 62
7
  6
CONTINUOUS
 10
212.9187713255
 20
351.3001427669
 11
212.6687722792
 21
352.3214192409
  0
LINE
  5
361
100
AcDbEntity
  8
0
100
AcDbLine
 62
7
  6
CONTINUOUS
 10
211.1687715639
 20
352.3214192409
 11
211.4187720407
 21
351.0448236484
  0
LINE
  5
362
100
AcDbEntity
  8
0
100
AcDbLine
 62
7
  6
CONTINUOUS
 10
199.6687718023
 20
360.2363129872
 11
199.6687718023
 21
348.2363129872
  0
LINE
  5
363
100
AcDbEntity
  8
0
100
AcDbLine
 62
7
  6
CONTINUOUS
 10
201.1687718023
 20
348.2363129872
 11
201.1687718023
 21
353.598015191
  0
LINE
  5
364
100
AcDbEntity
  8
0
100
AcDbLine
 62
7
  6
CONTINUOUS
 10
201.1687718023
 20
355.129929902
 11
201.1687718023
 21
358.9597173947
  0
LINE
  5
365
100
AcDbEntity
  8
0
100
AcDbLine
 62
7
  6
CONTINUOUS
 10
207.4187715639
 20
357.4278026837
 11
207.4187715639
 21
356.661844613
  0
LINE
  5
366
100
AcDbEntity
  8
0
100
AcDbLine
 62
7
  6
CONTINUOUS
 10
208.9187715639
 20
356.4065254945
 11
208.9187715639
 21
357.4278026837
  0
LINE
  5
367
100
AcDbEntity
  8
0
100
AcDbLine
 62
7
  6
CONTINUOUS
 10
211.1687715639
 20
360.2363129872
 11
211.1687715639
 21
352.3214192409
  0
LINE
  5
368
100
AcDbEntity
  8
0
100
AcDbLine
 62
7
  6
CONTINUOUS
 10
212.6687722792
 20
352.3214192409
 11
212.6687722792
 21
360.2363129872
  0
LINE
  5
369
100
AcDbEntity
  8
0
100
AcDbLine
 62
7
  6
CONTINUOUS
 10
151.4679274419
 20
346.2328970663
 11
151.5837678599
 21
346.4563013471
  0
LINE
  5
36A
100
AcDbEntity
  8
0
100
AcDbLine
 62
7
  6
CONTINUOUS
 10
151.4679274419
 20
345.9730894452
 11
151.5837678599
 21
346.196493726
  0
LINE
  5
36B
100
AcDbEntity
  8
0
100
AcDbLine
 62
7
  6
CONTINUOUS
 10
160.6192515299
 20
346.6797055758
 11
160.5034111119
 21
346.4563013471
  0
LINE
  5
36C
100
AcDbEntity
  8
0
100
AcDbLine
 62
7
  6
CONTINUOUS
 10
287.7239163901
 20
337.5676368004
 11
284.8725927855
 21
337.5676368004
  0
LINE
  5
36D
100
AcDbEntity
  8
0
100
AcDbLine
 62
7
  6
CONTINUOUS
 10
292.9988652255
 20
338.4040250606
 11
290.2425871874
 21
338.4040250606
  0
LINE
  5
36E
100
AcDbEntity
  8
0
100
AcDbLine
 62
7
  6
CONTINUOUS
 10
264.3145484115
 20
338.9647855586
 11
261.5582685481
 21
338.9647855586
  0
LINE
  5
36F
100
AcDbEntity
  8
0
100
AcDbLine
 62
7
  6
CONTINUOUS
 10
265.0083701993
 20
340.7326063937
 11
265.4170602943
 21
340.7326063937
  0
LINE
  5
370
100
AcDbEntity
  8
0
100
AcDbLine
 62
7
  6
CONTINUOUS
 10
265.5976439501
 20
342.7000195808
 11
265.0083701993
 21
342.7000195808
  0
LINE
  5
371
100
AcDbEntity
  8
0
100
AcDbLine
 62
7
  6
CONTINUOUS
 10
300.9730697657
 20
342.8996127671
 11
302.3892270113
 21
342.8996127671
  0
LINE
  5
372
100
AcDbEntity
  8
0
100
AcDbLine
 62
7
  6
CONTINUOUS
 10
305.1074868227
 20
342.8996127671
 11
306.7992745425
 21
342.8996127671
  0
LINE
  5
373
100
AcDbEntity
  8
0
100
AcDbLine
 62
7
  6
CONTINUOUS
 10
273.6858989979
 20
344.0496465987
 11
276.8223551299
 21
344.0496465987
  0
LINE
  5
374
100
AcDbEntity
  8
0
100
AcDbLine
 62
7
  6
CONTINUOUS
 10
261.7483568127
 20
344.1161768264
 11
264.2480173494
 21
344.1161768264
  0
LINE
  5
375
100
AcDbEntity
  8
0
100
AcDbLine
 62
7
  6
CONTINUOUS
 10
154.8272730508
 20
344.9305362737
 11
155.4064724895
 21
344.9305362737
  0
LINE
  5
376
100
AcDbEntity
  8
0
100
AcDbLine
 62
7
  6
CONTINUOUS
 10
306.7992745425
 20
344.9335570163
 11
305.1074868227
 21
344.9335570163
  0
LINE
  5
377
100
AcDbEntity
  8
0
100
AcDbLine
 62
7
  6
CONTINUOUS
 10
302.3892270113
 20
344.9335570163
 11
300.9730697657
 21
344.9335570163
  0
LINE
  5
378
100
AcDbEntity
  8
0
100
AcDbLine
 62
7
  6
CONTINUOUS
 10
154.8272730508
 20
345.1903438948
 11
155.4064724895
 21
345.1903438948
  0
LINE
  5
379
100
AcDbEntity
  8
0
100
AcDbLine
 62
7
  6
CONTINUOUS
 10
122.3922044053
 20
345.3773447832
 11
123.3189206239
 21
345.3773447832
  0
LINE
  5
37A
100
AcDbEntity
  8
0
100
AcDbLine
 62
7
  6
CONTINUOUS
 10
126.0990694454
 20
345.3773447832
 11
126.7941066508
 21
345.3773447832
  0
LINE
  5
37B
100
AcDbEntity
  8
0
100
AcDbLine
 62
7
  6
CONTINUOUS
 10
129.6900952275
 20
345.3773447832
 11
130.5009715252
 21
345.3773447832
  0
LINE
  5
37C
100
AcDbEntity
  8
0
100
AcDbLine
 62
7
  6
CONTINUOUS
 10
131.427688241
 20
345.3773447832
 11
134.2078363996
 21
345.3773447832
  0
LINE
  5
37D
100
AcDbEntity
  8
0
100
AcDbLine
 62
7
  6
CONTINUOUS
 10
138.2622205396
 20
345.3773447832
 11
139.1889372553
 21
345.3773447832
  0
LINE
  5
37E
100
AcDbEntity
  8
0
100
AcDbLine
 62
7
  6
CONTINUOUS
 10
149.0352972231
 20
345.3773447832
 11
149.9620126131
 21
345.3773447832
  0
LINE
  5
37F
100
AcDbEntity
  8
0
100
AcDbLine
 62
7
  6
CONTINUOUS
 10
153.2055204554
 20
345.3773447832
 11
153.9005576607
 21
345.3773447832
  0
LINE
  5
380
100
AcDbEntity
  8
0
100
AcDbLine
 62
7
  6
CONTINUOUS
 10
158.7658180984
 20
345.3773447832
 11
159.4608553038
 21
345.3773447832
  0
LINE
  5
381
100
AcDbEntity
  8
0
100
AcDbLine
 62
7
  6
CONTINUOUS
 10
122.3922044053
 20
345.6371524043
 11
123.3189206239
 21
345.6371524043
  0
LINE
  5
382
100
AcDbEntity
  8
0
100
AcDbLine
 62
7
  6
CONTINUOUS
 10
126.0990694454
 20
345.6371524043
 11
126.7941066508
 21
345.6371524043
  0
LINE
  5
383
100
AcDbEntity
  8
0
100
AcDbLine
 62
7
  6
CONTINUOUS
 10
129.6900952275
 20
345.6371524043
 11
130.5009715252
 21
345.6371524043
  0
LINE
  5
384
100
AcDbEntity
  8
0
100
AcDbLine
 62
7
  6
CONTINUOUS
 10
131.427688241
 20
345.6371524043
 11
134.2078363996
 21
345.6371524043
  0
LINE
  5
385
100
AcDbEntity
  8
0
100
AcDbLine
 62
7
  6
CONTINUOUS
 10
138.2622205396
 20
345.6371524043
 11
139.1889372553
 21
345.6371524043
  0
LINE
  5
386
100
AcDbEntity
  8
0
100
AcDbLine
 62
7
  6
CONTINUOUS
 10
149.0352972231
 20
345.6371524043
 11
149.9620126131
 21
345.6371524043
  0
LINE
  5
387
100
AcDbEntity
  8
0
100
AcDbLine
 62
7
  6
CONTINUOUS
 10
153.2055204554
 20
345.6371524043
 11
153.9005576607
 21
345.6371524043
  0
LINE
  5
388
100
AcDbEntity
  8
0
100
AcDbLine
 62
7
  6
CONTINUOUS
 10
158.7658180984
 20
345.6371524043
 11
159.4608553038
 21
345.6371524043
  0
LINE
  5
389
100
AcDbEntity
  8
0
100
AcDbLine
 62
7
  6
CONTINUOUS
 10
293.4835926081
 20
345.8649893827
 11
299.1577244784
 21
345.8649893827
  0
LINE
  5
38A
100
AcDbEntity
  8
0
100
AcDbLine
 62
7
  6
CONTINUOUS
 10
159.4608553038
 20
346.0094928376
 11
158.7658180984
 21
346.0094928376
  0
LINE
  5
38B
100
AcDbEntity
  8
0
100
AcDbLine
 62
7
  6
CONTINUOUS
 10
156.1015096949
 20
346.0094928376
 11
155.5223102562
 21
346.0094928376
  0
LINE
  5
38C
100
AcDbEntity
  8
0
100
AcDbLine
 62
7
  6
CONTINUOUS
 10
149.8461748465
 20
346.0094928376
 11
149.1511376411
 21
346.0094928376
  0
LINE
  5
38D
100
AcDbEntity
  8
0
100
AcDbLine
 62
7
  6
CONTINUOUS
 10
139.1889372553
 20
346.0839609138
 11
138.2622205396
 21
346.0839609138
  0
LINE
  5
38E
100
AcDbEntity
  8
0
100
AcDbLine
 62
7
  6
CONTINUOUS
 10
134.3236768177
 20
346.0839609138
 11
132.1227247835
 21
346.0839609138
  0
LINE
  5
38F
100
AcDbEntity
  8
0
100
AcDbLine
 62
7
  6
CONTINUOUS
 10
147.992741415
 20
346.4563013471
 11
147.4135446276
 21
346.4563013471
  0
LINE
  5
390
100
AcDbEntity
  8
0
100
AcDbLine
 62
7
  6
CONTINUOUS
 10
157.7232622904
 20
346.5307694234
 11
157.028225085
 21
346.5307694234
  0
LINE
  5
391
100
AcDbEntity
  8
0
100
AcDbLine
 62
7
  6
CONTINUOUS
 10
137.3355038239
 20
346.6052374996
 11
136.6404666185
 21
346.6052374996
  0
LINE
  5
392
100
AcDbEntity
  8
0
100
AcDbLine
 62
7
  6
CONTINUOUS
 10
126.7941066508
 20
346.9411745926
 11
128.7633785118
 21
346.9411745926
  0
LINE
  5
393
100
AcDbEntity
  8
0
100
AcDbLine
 62
7
  6
CONTINUOUS
 10
132.1227247835
 20
346.9411745926
 11
134.3236768177
 21
346.9411745926
  0
LINE
  5
394
100
AcDbEntity
  8
0
100
AcDbLine
 62
7
  6
CONTINUOUS
 10
138.49390005
 20
346.9411745926
 11
139.1889372553
 21
346.9411745926
  0
LINE
  5
395
100
AcDbEntity
  8
0
100
AcDbLine
 62
7
  6
CONTINUOUS
 10
157.028225085
 20
346.9411745926
 11
157.8391027084
 21
346.9411745926
  0
LINE
  5
396
100
AcDbEntity
  8
0
100
AcDbLine
 62
7
  6
CONTINUOUS
 10
149.2669754077
 20
347.0156426688
 11
149.7303344284
 21
347.0156426688
  0
LINE
  5
397
100
AcDbEntity
  8
0
100
AcDbLine
 62
7
  6
CONTINUOUS
 10
126.7941066508
 20
347.2009822137
 11
128.7633785118
 21
347.2009822137
  0
LINE
  5
398
100
AcDbEntity
  8
0
100
AcDbLine
 62
7
  6
CONTINUOUS
 10
132.1227247835
 20
347.2009822137
 11
134.3236768177
 21
347.2009822137
  0
LINE
  5
399
100
AcDbEntity
  8
0
100
AcDbLine
 62
7
  6
CONTINUOUS
 10
138.49390005
 20
347.2009822137
 11
139.1889372553
 21
347.2009822137
  0
LINE
  5
39A
100
AcDbEntity
  8
0
100
AcDbLine
 62
7
  6
CONTINUOUS
 10
157.028225085
 20
347.2009822137
 11
157.8391027084
 21
347.2009822137
  0
LINE
  5
39B
100
AcDbEntity
  8
0
100
AcDbLine
 62
7
  6
CONTINUOUS
 10
158.7658180984
 20
347.2390468975
 11
159.4608553038
 21
347.2390468975
  0
LINE
  5
39C
100
AcDbEntity
  8
0
100
AcDbLine
 62
7
  6
CONTINUOUS
 10
149.2669754077
 20
347.27545029
 11
149.7303344284
 21
347.27545029
  0
LINE
  5
39D
100
AcDbEntity
  8
0
100
AcDbLine
 62
7
  6
CONTINUOUS
 10
162.1251637073
 20
347.4624511262
 11
163.0518817488
 21
347.4624511262
  0
LINE
  5
39E
100
AcDbEntity
  8
0
100
AcDbLine
 62
7
  6
CONTINUOUS
 10
163.6310785361
 20
347.4624511262
 11
164.9053125289
 21
347.4624511262
  0
LINE
  5
39F
100
AcDbEntity
  8
0
100
AcDbLine
 62
7
  6
CONTINUOUS
 10
158.7658180984
 20
347.4988545187
 11
159.4608553038
 21
347.4988545187
  0
LINE
  5
3A0
100
AcDbEntity
  8
0
100
AcDbLine
 62
7
  6
CONTINUOUS
 10
149.7303344284
 20
347.5733225949
 11
149.2669754077
 21
347.5733225949
  0
LINE
  5
3A1
100
AcDbEntity
  8
0
100
AcDbLine
 62
7
  6
CONTINUOUS
 10
139.1889372553
 20
347.6477906711
 11
138.49390005
 21
347.6477906711
  0
LINE
  5
3A2
100
AcDbEntity
  8
0
100
AcDbLine
 62
7
  6
CONTINUOUS
 10
134.3236768177
 20
347.6477906711
 11
132.1227247835
 21
347.6477906711
  0
LINE
  5
3A3
100
AcDbEntity
  8
0
100
AcDbLine
 62
7
  6
CONTINUOUS
 10
128.9950580221
 20
347.6477906711
 11
126.7941066508
 21
347.6477906711
  0
LINE
  5
3A4
100
AcDbEntity
  8
0
100
AcDbLine
 62
7
  6
CONTINUOUS
 10
305.1074868227
 20
347.6803321666
 11
302.3892270113
 21
347.6803321666
  0
LINE
  5
3A5
100
AcDbEntity
  8
0
100
AcDbLine
 62
7
  6
CONTINUOUS
 10
162.1251637073
 20
347.7222587473
 11
163.0518817488
 21
347.7222587473
  0
LINE
  5
3A6
100
AcDbEntity
  8
0
100
AcDbLine
 62
7
  6
CONTINUOUS
 10
163.6310785361
 20
347.7222587473
 11
164.9053125289
 21
347.7222587473
  0
LINE
  5
3A7
100
AcDbEntity
  8
0
100
AcDbLine
 62
7
  6
CONTINUOUS
 10
159.4608553038
 20
347.8711948998
 11
158.7658180984
 21
347.8711948998
  0
LINE
  5
3A8
100
AcDbEntity
  8
0
100
AcDbLine
 62
7
  6
CONTINUOUS
 10
164.9053125289
 20
348.0201310523
 11
163.6310785361
 21
348.0201310523
  0
LINE
  5
3A9
100
AcDbEntity
  8
0
100
AcDbLine
 62
7
  6
CONTINUOUS
 10
163.0518817488
 20
348.0201310523
 11
162.1251637073
 21
348.0201310523
  0
LINE
  5
3AA
100
AcDbEntity
  8
0
100
AcDbLine
 62
7
  6
CONTINUOUS
 10
139.8839744607
 20
348.0581959447
 11
140.5790116661
 21
348.0581959447
  0
LINE
  5
3AB
100
AcDbEntity
  8
0
100
AcDbLine
 62
7
  6
CONTINUOUS
 10
147.5293823943
 20
348.0581959447
 11
148.108581833
 21
348.0581959447
  0
LINE
  5
3AC
100
AcDbEntity
  8
0
100
AcDbLine
 62
7
  6
CONTINUOUS
 10
199.6687718023
 20
348.2363129872
 11
201.1687718023
 21
348.2363129872
  0
LINE
  5
3AD
100
AcDbEntity
  8
0
100
AcDbLine
 62
7
  6
CONTINUOUS
 10
207.4187715639
 20
348.2363129872
 11
209.1687720407
 21
348.2363129872
  0
LINE
  5
3AE
100
AcDbEntity
  8
0
100
AcDbLine
 62
7
  6
CONTINUOUS
 10
215.1687713255
 20
348.2363129872
 11
216.1687718023
 21
348.2363129872
  0
LINE
  5
3AF
100
AcDbEntity
  8
0
100
AcDbLine
 62
7
  6
CONTINUOUS
 10
222.1687718023
 20
348.2363129872
 11
228.1687718023
 21
348.2363129872
  0
LINE
  5
3B0
100
AcDbEntity
  8
0
100
AcDbLine
 62
7
  6
CONTINUOUS
 10
299.1577244784
 20
348.2410926646
 11
291.6682473208
 21
348.2410926646
  0
LINE
  5
3B1
100
AcDbEntity
  8
0
100
AcDbLine
 62
7
  6
CONTINUOUS
 10
279.5121046092
 20
348.2410926646
 11
277.4116292979
 21
348.2410926646
  0
LINE
  5
3B2
100
AcDbEntity
  8
0
100
AcDbLine
 62
7
  6
CONTINUOUS
 10
139.8839744607
 20
348.3180035658
 11
140.5790116661
 21
348.3180035658
  0
LINE
  5
3B3
100
AcDbEntity
  8
0
100
AcDbLine
 62
7
  6
CONTINUOUS
 10
147.5293823943
 20
348.3180035658
 11
148.108581833
 21
348.3180035658
  0
LINE
  5
3B4
100
AcDbEntity
  8
0
100
AcDbLine
 62
7
  6
CONTINUOUS
 10
132.1227247835
 20
348.4305363258
 11
134.3236768177
 21
348.4305363258
  0
LINE
  5
3B5
100
AcDbEntity
  8
0
100
AcDbLine
 62
7
  6
CONTINUOUS
 10
138.49390005
 20
348.4305363258
 11
139.1889372553
 21
348.4305363258
  0
LINE
  5
3B6
100
AcDbEntity
  8
0
100
AcDbLine
 62
7
  6
CONTINUOUS
 10
126.7941066508
 20
348.505004402
 11
128.9950580221
 21
348.505004402
  0
LINE
  5
3B7
100
AcDbEntity
  8
0
100
AcDbLine
 62
7
  6
CONTINUOUS
 10
149.2669754077
 20
348.505004402
 11
149.7303344284
 21
348.505004402
  0
LINE
  5
3B8
100
AcDbEntity
  8
0
100
AcDbLine
 62
7
  6
CONTINUOUS
 10
157.6074218723
 20
348.505004402
 11
160.9667701326
 21
348.505004402
  0
LINE
  5
3B9
100
AcDbEntity
  8
0
100
AcDbLine
 62
7
  6
CONTINUOUS
 10
163.6310785361
 20
348.6158758707
 11
163.0518817488
 21
348.6158758707
  0
LINE
  5
3BA
100
AcDbEntity
  8
0
100
AcDbLine
 62
7
  6
CONTINUOUS
 10
132.1227247835
 20
348.6903439469
 11
134.3236768177
 21
348.6903439469
  0
LINE
  5
3BB
100
AcDbEntity
  8
0
100
AcDbLine
 62
7
  6
CONTINUOUS
 10
138.49390005
 20
348.6903439469
 11
139.1889372553
 21
348.6903439469
  0
LINE
  5
3BC
100
AcDbEntity
  8
0
100
AcDbLine
 62
7
  6
CONTINUOUS
 10
126.7941066508
 20
348.7648120232
 11
128.9950580221
 21
348.7648120232
  0
LINE
  5
3BD
100
AcDbEntity
  8
0
100
AcDbLine
 62
7
  6
CONTINUOUS
 10
149.2669754077
 20
348.7648120232
 11
149.7303344284
 21
348.7648120232
  0
LINE
  5
3BE
100
AcDbEntity
  8
0
100
AcDbLine
 62
7
  6
CONTINUOUS
 10
157.6074218723
 20
348.7648120232
 11
160.9667701326
 21
348.7648120232
  0
LINE
  5
3BF
100
AcDbEntity
  8
0
100
AcDbLine
 62
7
  6
CONTINUOUS
 10
160.9667701326
 20
349.1371524043
 11
157.028225085
 21
349.1371524043
  0
LINE
  5
3C0
100
AcDbEntity
  8
0
100
AcDbLine
 62
7
  6
CONTINUOUS
 10
153.9005576607
 20
349.1371524043
 11
153.2055204554
 21
349.1371524043
  0
LINE
  5
3C1
100
AcDbEntity
  8
0
100
AcDbLine
 62
7
  6
CONTINUOUS
 10
149.6144940104
 20
349.1371524043
 11
149.3828158258
 21
349.1371524043
  0
LINE
  5
3C2
100
AcDbEntity
  8
0
100
AcDbLine
 62
7
  6
CONTINUOUS
 10
139.0730968373
 20
349.1371524043
 11
138.49390005
 21
349.1371524043
  0
LINE
  5
3C3
100
AcDbEntity
  8
0
100
AcDbLine
 62
7
  6
CONTINUOUS
 10
134.2078363996
 20
349.1371524043
 11
131.427688241
 21
349.1371524043
  0
LINE
  5
3C4
100
AcDbEntity
  8
0
100
AcDbLine
 62
7
  6
CONTINUOUS
 10
128.8792182669
 20
349.1371524043
 11
126.0990694454
 21
349.1371524043
  0
LINE
  5
3C5
100
AcDbEntity
  8
0
100
AcDbLine
 62
7
  6
CONTINUOUS
 10
125.1723530611
 20
349.1371524043
 11
124.4773158557
 21
349.1371524043
  0
LINE
  5
3C6
100
AcDbEntity
  8
0
100
AcDbLine
 62
7
  6
CONTINUOUS
 10
121.2338090077
 20
349.1371524043
 11
120.5387718023
 21
349.1371524043
  0
LINE
  5
3C7
100
AcDbEntity
  8
0
100
AcDbLine
 62
7
  6
CONTINUOUS
 10
228.1687718023
 20
349.7682278771
 11
223.6687718023
 21
349.7682278771
  0
LINE
  5
3C8
100
AcDbEntity
  8
0
100
AcDbLine
 62
7
  6
CONTINUOUS
 10
216.1687718023
 20
349.7682278771
 11
215.1687713255
 21
349.7682278771
  0
LINE
  5
3C9
100
AcDbEntity
  8
0
100
AcDbLine
 62
7
  6
CONTINUOUS
 10
290.6702838923
 20
340.7135972804
 11
293.0558925654
 21
340.6090488261
  0
LINE
  5
3CA
100
AcDbEntity
  8
0
100
AcDbLine
 62
7
  6
CONTINUOUS
 10
206.9187720407
 20
359.9809938687
 11
205.6687718023
 21
360.2363129872
  0
LINE
  5
3CB
100
AcDbEntity
  8
0
100
AcDbLine
 62
7
  6
CONTINUOUS
 10
229.418772756
 20
359.9809938687
 11
228.1687718023
 21
360.2363129872
  0
LINE
  5
3CC
100
AcDbEntity
  8
0
100
AcDbLine
 62
7
  6
CONTINUOUS
 10
228.1687718023
 20
358.7043982762
 11
229.1687708487
 21
358.4490791577
  0
LINE
  5
3CD
100
AcDbEntity
  8
0
100
AcDbLine
 62
7
  6
CONTINUOUS
 10
230.4187718023
 20
359.4703556317
 11
229.418772756
 21
359.9809938687
  0
LINE
  5
3CE
100
AcDbEntity
  8
0
100
AcDbLine
 62
7
  6
CONTINUOUS
 10
229.1687708487
 20
358.4490791577
 11
229.9187708487
 21
357.9384409207
  0
LINE
  5
3CF
100
AcDbEntity
  8
0
100
AcDbLine
 62
7
  6
CONTINUOUS
 10
231.4187708487
 20
358.4490791577
 11
230.4187718023
 21
359.4703556317
  0
LINE
  5
3D0
100
AcDbEntity
  8
0
100
AcDbLine
 62
7
  6
CONTINUOUS
 10
229.9187708487
 20
357.9384409207
 11
230.4187718023
 21
357.17248285
  0
LINE
  5
3D1
100
AcDbEntity
  8
0
100
AcDbLine
 62
7
  6
CONTINUOUS
 10
231.9187718023
 20
357.4278026837
 11
231.4187708487
 21
358.4490791577
  0
LINE
  5
3D2
100
AcDbEntity
  8
0
100
AcDbLine
 62
7
  6
CONTINUOUS
 10
218.6687722792
 20
360.2363129872
 11
218.6687722792
 21
352.3214192409
  0
LINE
  5
3D3
100
AcDbEntity
  8
0
100
AcDbLine
 62
7
  6
CONTINUOUS
 10
220.1687722792
 20
352.3214192409
 11
220.1687722792
 21
360.2363129872
  0
LINE
  5
3D4
100
AcDbEntity
  8
0
100
AcDbLine
 62
7
  6
CONTINUOUS
 10
222.1687718023
 20
360.2363129872
 11
222.1687718023
 21
348.2363129872
  0
LINE
  5
3D5
100
AcDbEntity
  8
0
100
AcDbLine
 62
7
  6
CONTINUOUS
 10
223.6687718023
 20
349.7682278771
 11
223.6687718023
 21
358.7043982762
  0
LINE
  5
3D6
100
AcDbEntity
  8
0
100
AcDbLine
 62
7
  6
CONTINUOUS
 10
160.9667701326
 20
346.2328970663
 11
161.1984483173
 21
346.6052374996
  0
LINE
  5
3D7
100
AcDbEntity
  8
0
100
AcDbLine
 62
7
  6
CONTINUOUS
 10
160.9667701326
 20
345.9730894452
 11
161.1984483173
 21
346.3454298785
  0
LINE
  5
3D8
100
AcDbEntity
  8
0
100
AcDbLine
 62
7
  6
CONTINUOUS
 10
140.6948507585
 20
346.1584289901
 11
140.9265302688
 21
346.4563013471
  0
LINE
  5
3D9
100
AcDbEntity
  8
0
100
AcDbLine
 62
7
  6
CONTINUOUS
 10
140.6948507585
 20
345.8986213689
 11
140.9265302688
 21
346.196493726
  0
LINE
  5
3DA
100
AcDbEntity
  8
0
100
AcDbLine
 62
7
  6
CONTINUOUS
 10
150.8887306545
 20
348.1690672047
 11
150.6570498185
 21
347.8711948998
  0
LINE
  5
3DB
100
AcDbEntity
  8
0
100
AcDbLine
 62
7
  6
CONTINUOUS
 10
151.0045684212
 20
346.4563013471
 11
150.8887306545
 21
346.3073651947
  0
LINE
  5
3DC
100
AcDbEntity
  8
0
100
AcDbLine
 62
7
  6
CONTINUOUS
 10
229.1687708487
 20
350.0235469956
 11
228.1687718023
 21
349.7682278771
  0
LINE
  5
3DD
100
AcDbEntity
  8
0
100
AcDbLine
 62
7
  6
CONTINUOUS
 10
228.1687718023
 20
348.2363129872
 11
229.418772756
 21
348.4916321281
  0
LINE
  5
3DE
100
AcDbEntity
  8
0
100
AcDbLine
 62
7
  6
CONTINUOUS
 10
216.1687718023
 20
348.2363129872
 11
217.4187713255
 21
348.4916321281
  0
LINE
  5
3DF
100
AcDbEntity
  8
0
100
AcDbLine
 62
7
  6
CONTINUOUS
 10
159.4608553038
 20
345.3773447832
 11
160.0400520912
 21
345.4518128659
  0
LINE
  5
3E0
100
AcDbEntity
  8
0
100
AcDbLine
 62
7
  6
CONTINUOUS
 10
159.4608553038
 20
345.6371524043
 11
160.0400520912
 21
345.7116204871
  0
LINE
  5
3E1
100
AcDbEntity
  8
0
100
AcDbLine
 62
7
  6
CONTINUOUS
 10
150.4253716338
 20
346.0839609138
 11
149.8461748465
 21
346.0094928376
  0
LINE
  5
3E2
100
AcDbEntity
  8
0
100
AcDbLine
 62
7
  6
CONTINUOUS
 10
158.7658180984
 20
347.8711948998
 11
158.1866213111
 21
347.7967268236
  0
LINE
  5
3E3
100
AcDbEntity
  8
0
100
AcDbLine
 62
7
  6
CONTINUOUS
 10
139.1889372553
 20
345.3773447832
 11
139.7681340427
 21
345.4518128659
  0
LINE
  5
3E4
100
AcDbEntity
  8
0
100
AcDbLine
 62
7
  6
CONTINUOUS
 10
139.1889372553
 20
345.6371524043
 11
139.7681340427
 21
345.7116204871
  0
LINE
  5
3E5
100
AcDbEntity
  8
0
100
AcDbLine
 62
7
  6
CONTINUOUS
 10
134.2078363996
 20
345.3773447832
 11
134.7870345127
 21
345.4518128659
  0
LINE
  5
3E6
100
AcDbEntity
  8
0
100
AcDbLine
 62
7
  6
CONTINUOUS
 10
134.2078363996
 20
345.6371524043
 11
134.7870345127
 21
345.7116204871
  0
LINE
  5
3E7
100
AcDbEntity
  8
0
100
AcDbLine
 62
7
  6
CONTINUOUS
 10
148.6877786204
 20
348.4305363258
 11
149.2669754077
 21
348.505004402
  0
LINE
  5
3E8
100
AcDbEntity
  8
0
100
AcDbLine
 62
7
  6
CONTINUOUS
 10
149.3828158258
 20
349.1371524043
 11
148.5719382024
 21
349.0626843281
  0
LINE
  5
3E9
100
AcDbEntity
  8
0
100
AcDbLine
 62
7
  6
CONTINUOUS
 10
201.1687718023
 20
353.598015191
 11
205.4187716831
 21
353.598015191
  0
LINE
  5
3EA
100
AcDbEntity
  8
0
100
AcDbLine
 62
7
  6
CONTINUOUS
 10
205.9187715639
 20
355.129929902
 11
201.1687718023
 21
355.129929902
  0
LINE
  5
3EB
100
AcDbEntity
  8
0
100
AcDbLine
 62
7
  6
CONTINUOUS
 10
223.6687718023
 20
358.7043982762
 11
228.1687718023
 21
358.7043982762
  0
LINE
  5
3EC
100
AcDbEntity
  8
0
100
AcDbLine
 62
7
  6
CONTINUOUS
 10
201.1687718023
 20
358.9597173947
 11
205.9187715639
 21
358.9597173947
  0
LINE
  5
3ED
100
AcDbEntity
  8
0
100
AcDbLine
 62
7
  6
CONTINUOUS
 10
228.1687718023
 20
360.2363129872
 11
222.1687718023
 21
360.2363129872
  0
LINE
  5
3EE
100
AcDbEntity
  8
0
100
AcDbLine
 62
7
  6
CONTINUOUS
 10
220.1687722792
 20
360.2363129872
 11
218.6687722792
 21
360.2363129872
  0
LINE
  5
3EF
100
AcDbEntity
  8
0
100
AcDbLine
 62
7
  6
CONTINUOUS
 10
212.6687722792
 20
360.2363129872
 11
211.1687715639
 21
360.2363129872
  0
LINE
  5
3F0
100
AcDbEntity
  8
0
100
AcDbLine
 62
7
  6
CONTINUOUS
 10
205.6687718023
 20
360.2363129872
 11
199.6687718023
 21
360.2363129872
  0
LINE
  5
3F1
100
AcDbEntity
  8
BEZUGSACHSEN
100
AcDbLine
 62
7
  6
CONTINUOUS
 10
391.6787718023
 20
361.7163129872
 11
390.0051633195
 21
361.7163129872
  0
LINE
  5
3F2
100
AcDbEntity
  8
BEZUGSACHSEN
100
AcDbLine
 62
7
  6
CONTINUOUS
 10
178.3523802852
 20
361.7163129872
 11
176.6787718023
 21
361.7163129872
  0
LINE
  5
3F3
100
AcDbEntity
  8
0
100
AcDbLine
 62
7
  6
CONTINUOUS
 10
230.4187718023
 20
357.17248285
 11
230.6687708487
 21
356.151206376
  0
LINE
  5
3F4
100
AcDbEntity
  8
0
100
AcDbLine
 62
7
  6
CONTINUOUS
 10
232.1687708487
 20
356.151206376
 11
231.9187718023
 21
357.4278026837
  0
LINE
  5
3F5
100
AcDbEntity
  8
0
100
AcDbLine
 62
7
  6
CONTINUOUS
 10
230.6687708487
 20
356.151206376
 11
230.6687708487
 21
352.3214192409
  0
LINE
  5
3F6
100
AcDbEntity
  8
0
100
AcDbLine
 62
7
  6
CONTINUOUS
 10
232.1687708487
 20
352.3214192409
 11
232.1687708487
 21
356.151206376
  0
LINE
  5
3F7
100
AcDbEntity
  8
0
100
AcDbLine
 62
7
  6
CONTINUOUS
 10
219.9187718023
 20
351.0448236484
 11
220.1687722792
 21
352.3214192409
  0
LINE
  5
3F8
100
AcDbEntity
  8
0
100
AcDbLine
 62
7
  6
CONTINUOUS
 10
218.6687722792
 20
352.3214192409
 11
218.4187718023
 21
351.3001427669
  0
LINE
  5
3F9
100
AcDbEntity
  8
0
100
AcDbLine
 62
7
  6
CONTINUOUS
 10
207.4187715639
 20
356.661844613
 11
207.1687718023
 21
355.8958872575
  0
LINE
  5
3FA
100
AcDbEntity
  8
0
100
AcDbLine
 62
7
  6
CONTINUOUS
 10
208.6687718023
 20
355.640568139
 11
208.9187715639
 21
356.4065254945
  0
LINE
  5
3FB
100
AcDbEntity
  8
0
100
AcDbLine
 62
7
  6
CONTINUOUS
 10
155.5223102562
 20
346.0094928376
 11
154.8272730508
 21
345.1903438948
  0
LINE
  5
3FC
100
AcDbEntity
  8
0
100
AcDbLine
 62
7
  6
CONTINUOUS
 10
155.4064724895
 20
345.1903438948
 11
156.1015096949
 21
346.0094928376
  0
LINE
  5
3FD
100
AcDbEntity
  8
0
100
AcDbLine
 62
7
  6
CONTINUOUS
 10
155.4064724895
 20
344.9305362737
 11
156.1015096949
 21
345.7496852165
  0
LINE
  5
3FE
100
AcDbEntity
  8
0
100
AcDbLine
 62
7
  6
CONTINUOUS
 10
140.2314930634
 20
346.5307694234
 11
139.9998135531
 21
346.3073651947
  0
LINE
  5
3FF
100
AcDbEntity
  8
0
100
AcDbLine
 62
7
  6
CONTINUOUS
 10
129.921774075
 20
347.4988545187
 11
130.2692926777
 21
347.7967268236
  0
LINE
  5
400
100
AcDbEntity
  8
0
100
AcDbLine
 62
7
  6
CONTINUOUS
 10
129.921774075
 20
347.2390468975
 11
130.2692926777
 21
347.5369192024
  0
LINE
  5
401
100
AcDbEntity
  8
0
100
AcDbLine
 62
7
  6
CONTINUOUS
 10
217.1687722792
 20
350.0235469956
 11
216.1687718023
 21
349.7682278771
  0
LINE
  5
402
100
AcDbEntity
  8
0
100
AcDbLine
 62
7
  6
CONTINUOUS
 10
150.4253716338
 20
347.7222587473
 11
149.7303344284
 21
347.5733225949
  0
LINE
  5
403
100
AcDbEntity
  8
0
100
AcDbLine
 62
7
  6
CONTINUOUS
 10
134.6711954204
 20
346.1584289901
 11
134.3236768177
 21
346.0839609138
  0
LINE
  5
404
100
AcDbEntity
  8
0
100
AcDbLine
 62
7
  6
CONTINUOUS
 10
138.1463814473
 20
348.3560682496
 11
138.49390005
 21
348.4305363258
  0
LINE
  5
405
100
AcDbEntity
  8
0
100
AcDbLine
 62
7
  6
CONTINUOUS
 10
134.6711954204
 20
347.7222587473
 11
134.3236768177
 21
347.6477906711
  0
LINE
  5
406
100
AcDbEntity
  8
0
100
AcDbLine
 62
7
  6
CONTINUOUS
 10
138.1463814473
 20
348.6158758707
 11
138.49390005
 21
348.6903439469
  0
LINE
  5
407
100
AcDbEntity
  8
0
100
AcDbLine
 62
7
  6
CONTINUOUS
 10
159.9242143245
 20
346.0839609138
 11
159.4608553038
 21
346.0094928376
  0
LINE
  5
408
100
AcDbEntity
  8
0
100
AcDbLine
 62
7
  6
CONTINUOUS
 10
149.9620126131
 20
345.3773447832
 11
150.4253716338
 21
345.4518128659
  0
LINE
  5
409
100
AcDbEntity
  8
0
100
AcDbLine
 62
7
  6
CONTINUOUS
 10
149.9620126131
 20
345.6371524043
 11
150.4253716338
 21
345.7116204871
  0
LINE
  5
40A
100
AcDbEntity
  8
0
100
AcDbLine
 62
7
  6
CONTINUOUS
 10
158.3024590777
 20
347.1645788213
 11
158.7658180984
 21
347.2390468975
  0
LINE
  5
40B
100
AcDbEntity
  8
0
100
AcDbLine
 62
7
  6
CONTINUOUS
 10
158.3024590777
 20
347.4243864424
 11
158.7658180984
 21
347.4988545187
  0
LINE
  5
40C
100
AcDbEntity
  8
0
100
AcDbLine
 62
7
  6
CONTINUOUS
 10
139.6522949504
 20
346.1584289901
 11
139.1889372553
 21
346.0839609138
  0
LINE
  5
40D
100
AcDbEntity
  8
0
100
AcDbLine
 62
7
  6
CONTINUOUS
 10
138.49390005
 20
349.1371524043
 11
138.0305410293
 21
349.0626843281
  0
LINE
  5
40E
100
AcDbEntity
  8
0
100
AcDbLine
 62
7
  6
CONTINUOUS
 10
148.6877786204
 20
348.6903439469
 11
149.2669754077
 21
348.7648120232
  0
LINE
  5
40F
100
AcDbEntity
  8
0
100
AcDbLine
 62
7
  6
CONTINUOUS
 10
243.2146701872
 20
339.2163129872
 11
243.2146701872
 21
360.4695550525
  0
LINE
  5
410
100
AcDbEntity
  8
0
100
AcDbLine
 62
7
  6
CONTINUOUS
 10
231.9187718023
 20
351.0448236484
 11
232.1687708487
 21
352.3214192409
  0
LINE
  5
411
100
AcDbEntity
  8
0
100
AcDbLine
 62
7
  6
CONTINUOUS
 10
230.6687708487
 20
352.3214192409
 11
230.4187718023
 21
351.3001427669
  0
LINE
  5
412
100
AcDbEntity
  8
0
100
AcDbLine
 62
7
  6
CONTINUOUS
 10
148.108581833
 20
348.3180035658
 11
148.3402600177
 21
348.5414077945
  0
LINE
  5
413
100
AcDbEntity
  8
0
100
AcDbLine
 62
7
  6
CONTINUOUS
 10
148.108581833
 20
348.0581959447
 11
148.3402600177
 21
348.2816001733
  0
LINE
  5
414
100
AcDbEntity
  8
0
100
AcDbLine
 62
7
  6
CONTINUOUS
 10
151.1204088392
 20
347.6477906711
 11
151.3520870239
 21
347.8711948998
  0
LINE
  5
415
100
AcDbEntity
  8
0
100
AcDbLine
 62
7
  6
CONTINUOUS
 10
151.1204088392
 20
347.38798305
 11
151.3520870239
 21
347.6113872787
  0
LINE
  5
416
100
AcDbEntity
  8
0
100
AcDbLine
 62
7
  6
CONTINUOUS
 10
151.2362492572
 20
346.0094928376
 11
151.4679274419
 21
346.2328970663
  0
LINE
  5
417
100
AcDbEntity
  8
0
100
AcDbLine
 62
7
  6
CONTINUOUS
 10
151.2362492572
 20
345.7496852165
 11
151.4679274419
 21
345.9730894452
  0
LINE
  5
418
100
AcDbEntity
  8
0
100
AcDbLine
 62
7
  6
CONTINUOUS
 10
160.5034111119
 20
346.4563013471
 11
160.2717329272
 21
346.2328970663
  0
LINE
  5
419
100
AcDbEntity
  8
0
100
AcDbLine
 62
7
  6
CONTINUOUS
 10
135.2503922077
 20
347.4988545187
 11
135.5979108104
 21
347.7967268236
  0
LINE
  5
41A
100
AcDbEntity
  8
0
100
AcDbLine
 62
7
  6
CONTINUOUS
 10
135.3051757349
 20
347.2860040831
 11
135.5979108104
 21
347.5369192024
  0
LINE
  5
41B
100
AcDbEntity
  8
0
100
AcDbLine
 62
7
  6
CONTINUOUS
 10
135.2503922077
 20
345.9350247353
 11
135.5979108104
 21
346.2328970663
  0
LINE
  5
41C
100
AcDbEntity
  8
0
100
AcDbLine
 62
7
  6
CONTINUOUS
 10
135.2503922077
 20
345.6752171142
 11
135.5979108104
 21
345.9730894452
  0
LINE
  5
41D
100
AcDbEntity
  8
0
100
AcDbLine
 62
7
  6
CONTINUOUS
 10
129.3425766248
 20
347.7222587473
 11
128.9950580221
 21
347.6477906711
  0
LINE
  5
41E
100
AcDbEntity
  8
0
100
AcDbLine
 62
7
  6
CONTINUOUS
 10
265.0083701993
 20
342.7000195808
 11
265.0083701993
 21
340.7326063937
  0
LINE
  5
41F
100
AcDbEntity
  8
0
100
AcDbLine
 62
7
  6
CONTINUOUS
 10
219.4187722792
 20
350.0235469956
 11
219.9187718023
 21
351.0448236484
  0
LINE
  5
420
100
AcDbEntity
  8
0
100
AcDbLine
 62
7
  6
CONTINUOUS
 10
231.4187708487
 20
350.0235469956
 11
231.9187718023
 21
351.0448236484
  0
LINE
  5
421
100
AcDbEntity
  8
0
100
AcDbLine
 62
7
  6
CONTINUOUS
 10
218.4187718023
 20
351.3001427669
 11
217.9187722792
 21
350.5341854114
  0
LINE
  5
422
100
AcDbEntity
  8
0
100
AcDbLine
 62
7
  6
CONTINUOUS
 10
207.9187718023
 20
354.619291665
 11
208.6687718023
 21
355.640568139
  0
LINE
  5
423
100
AcDbEntity
  8
0
100
AcDbLine
 62
7
  6
CONTINUOUS
 10
160.6192515299
 20
345.9350247353
 11
160.9667701326
 21
346.2328970663
  0
LINE
  5
424
100
AcDbEntity
  8
0
100
AcDbLine
 62
7
  6
CONTINUOUS
 10
160.6192515299
 20
345.6752171142
 11
160.9667701326
 21
345.9730894452
  0
LINE
  5
425
100
AcDbEntity
  8
0
100
AcDbLine
 62
7
  6
CONTINUOUS
 10
153.2055204554
 20
349.1371524043
 11
152.51048325
 21
348.6158758707
  0
LINE
  5
426
100
AcDbEntity
  8
0
100
AcDbLine
 62
7
  6
CONTINUOUS
 10
152.51048325
 20
348.0201310523
 11
153.2055204554
 21
348.5414077945
  0
LINE
  5
427
100
AcDbEntity
  8
0
100
AcDbLine
 62
7
  6
CONTINUOUS
 10
152.51048325
 20
347.7603234311
 11
153.2055204554
 21
348.2816001733
  0
LINE
  5
428
100
AcDbEntity
  8
0
100
AcDbLine
 62
7
  6
CONTINUOUS
 10
129.5742554723
 20
347.8711948998
 11
129.3425766248
 21
347.7222587473
  0
LINE
  5
429
100
AcDbEntity
  8
0
100
AcDbLine
 62
7
  6
CONTINUOUS
 10
134.902873605
 20
347.8711948998
 11
134.6711954204
 21
347.7222587473
  0
LINE
  5
42A
100
AcDbEntity
  8
0
100
AcDbLine
 62
7
  6
CONTINUOUS
 10
137.5671833342
 20
348.9137481756
 11
137.1038256392
 21
348.6158758707
  0
LINE
  5
42B
100
AcDbEntity
  8
0
100
AcDbLine
 62
7
  6
CONTINUOUS
 10
134.902873605
 20
346.3073651947
 11
134.6711954204
 21
346.1584289901
  0
LINE
  5
42C
100
AcDbEntity
  8
0
100
AcDbLine
 62
7
  6
CONTINUOUS
 10
140.2314930634
 20
345.8605566591
 11
140.6948507585
 21
346.1584289901
  0
LINE
  5
42D
100
AcDbEntity
  8
0
100
AcDbLine
 62
7
  6
CONTINUOUS
 10
140.2314930634
 20
345.6007490379
 11
140.6948507585
 21
345.8986213689
  0
LINE
  5
42E
100
AcDbEntity
  8
RUNDUNGEN
100
AcDbLine
 62
7
  6
CONTINUOUS
 10
117.7450663082
 20
381.3821310263
 11
167.427296082
 21
389.2510231831
  0
LINE
  5
42F
100
AcDbEntity
  8
RUNDUNGEN
100
AcDbLine
 62
7
  6
CONTINUOUS
 10
400.9302475226
 20
389.2510231831
 11
450.6124772964
 21
381.3821310263
  0
LINE
  5
430
100
AcDbEntity
  8
0
100
AcDbLine
 62
7
  6
CONTINUOUS
 10
273.6858989979
 20
345.9125113315
 11
273.6858989979
 21
344.0496465987
  0
LINE
  5
431
100
AcDbEntity
  8
0
100
AcDbLine
 62
7
  6
CONTINUOUS
 10
276.8223551299
 20
344.0496465987
 11
276.8223551299
 21
334.7163129872
  0
LINE
  5
432
100
AcDbEntity
  8
0
100
AcDbLine
 62
7
  6
CONTINUOUS
 10
279.5121046092
 20
334.7163129872
 11
279.5121046092
 21
348.2410926646
  0
LINE
  5
433
100
AcDbEntity
  8
0
100
AcDbLine
 62
7
  6
CONTINUOUS
 10
284.8725927855
 20
337.5676368004
 11
284.8725927855
 21
334.7163129872
  0
LINE
  5
434
100
AcDbEntity
  8
0
100
AcDbLine
 62
7
  6
CONTINUOUS
 10
284.8725927855
 20
332.5112892217
 11
284.8725927855
 21
331.4277862436
  0
LINE
  5
435
100
AcDbEntity
  8
0
100
AcDbLine
 62
7
  6
CONTINUOUS
 10
230.4187718023
 20
351.3001427669
 11
229.9187708487
 21
350.5341854114
  0
LINE
  5
436
100
AcDbEntity
  8
0
100
AcDbLine
 62
7
  6
CONTINUOUS
 10
207.1687718023
 20
355.8958872575
 11
206.6687715639
 21
355.3852490205
  0
LINE
  5
437
100
AcDbEntity
  8
0
100
AcDbLine
 62
7
  6
CONTINUOUS
 10
148.108581833
 20
348.9137481756
 11
147.6452228123
 21
348.6158758707
  0
LINE
  5
438
100
AcDbEntity
  8
0
100
AcDbLine
 62
7
  6
CONTINUOUS
 10
150.6570498185
 20
347.8711948998
 11
150.4253716338
 21
347.7222587473
  0
LINE
  5
439
100
AcDbEntity
  8
0
100
AcDbLine
 62
7
  6
CONTINUOUS
 10
150.8887306545
 20
346.3073651947
 11
150.6570498185
 21
346.1584289901
  0
LINE
  5
43A
100
AcDbEntity
  8
0
100
AcDbLine
 62
7
  6
CONTINUOUS
 10
286.4218121554
 20
334.7163129872
 11
286.4218121554
 21
334.5072159092
  0
LINE
  5
43B
100
AcDbEntity
  8
0
100
AcDbLine
 62
7
  6
CONTINUOUS
 10
287.7239163901
 20
334.9634277313
 11
287.7239163901
 21
337.5676368004
  0
LINE
  5
43C
100
AcDbEntity
  8
0
100
AcDbLine
 62
7
  6
CONTINUOUS
 10
299.1577244784
 20
345.8649893827
 11
299.1577244784
 21
348.2410926646
  0
LINE
  5
43D
100
AcDbEntity
  8
0
100
AcDbLine
 62
7
  6
CONTINUOUS
 10
218.4187718023
 20
349.0022704321
 11
219.4187722792
 21
350.0235469956
  0
LINE
  5
43E
100
AcDbEntity
  8
0
100
AcDbLine
 62
7
  6
CONTINUOUS
 10
230.4187718023
 20
349.0022704321
 11
231.4187708487
 21
350.0235469956
  0
LINE
  5
43F
100
AcDbEntity
  8
0
100
AcDbLine
 62
7
  6
CONTINUOUS
 10
134.7870345127
 20
345.7116204871
 11
135.2503922077
 21
345.9350247353
  0
LINE
  5
440
100
AcDbEntity
  8
0
100
AcDbLine
 62
7
  6
CONTINUOUS
 10
134.7870345127
 20
345.4518128659
 11
135.2503922077
 21
345.6752171142
  0
LINE
  5
441
100
AcDbEntity
  8
0
100
AcDbLine
 62
7
  6
CONTINUOUS
 10
150.6570498185
 20
347.4243864424
 11
151.1204088392
 21
347.6477906711
  0
LINE
  5
442
100
AcDbEntity
  8
0
100
AcDbLine
 62
7
  6
CONTINUOUS
 10
151.0084821512
 20
347.3340186417
 11
151.1204088392
 21
347.38798305
  0
LINE
  5
443
100
AcDbEntity
  8
0
100
AcDbLine
 62
7
  6
CONTINUOUS
 10
157.8391027084
 20
347.2009822137
 11
158.3024590777
 21
347.4243864424
  0
LINE
  5
444
100
AcDbEntity
  8
0
100
AcDbLine
 62
7
  6
CONTINUOUS
 10
157.8391027084
 20
346.9411745926
 11
158.3024590777
 21
347.1645788213
  0
LINE
  5
445
100
AcDbEntity
  8
0
100
AcDbLine
 62
7
  6
CONTINUOUS
 10
137.7988628446
 20
348.4669397183
 11
138.1463814473
 21
348.6158758707
  0
LINE
  5
446
100
AcDbEntity
  8
0
100
AcDbLine
 62
7
  6
CONTINUOUS
 10
137.7988628446
 20
348.2071320971
 11
138.1463814473
 21
348.3560682496
  0
LINE
  5
447
100
AcDbEntity
  8
0
100
AcDbLine
 62
7
  6
CONTINUOUS
 10
139.9998135531
 20
346.3073651947
 11
139.6522949504
 21
346.1584289901
  0
LINE
  5
448
100
AcDbEntity
  8
0
100
AcDbLine
 62
7
  6
CONTINUOUS
 10
148.3402600177
 20
348.5414077945
 11
148.6877786204
 21
348.6903439469
  0
LINE
  5
449
100
AcDbEntity
  8
0
100
AcDbLine
 62
7
  6
CONTINUOUS
 10
148.3402600177
 20
348.2816001733
 11
148.6877786204
 21
348.4305363258
  0
LINE
  5
44A
100
AcDbEntity
  8
0
100
AcDbLine
 62
7
  6
CONTINUOUS
 10
300.9730697657
 20
344.9335570163
 11
300.9730697657
 21
342.8996127671
  0
LINE
  5
44B
100
AcDbEntity
  8
0
100
AcDbLine
 62
7
  6
CONTINUOUS
 10
302.3892270113
 20
347.6803321666
 11
302.3892270113
 21
344.9335570163
  0
LINE
  5
44C
100
AcDbEntity
  8
0
100
AcDbLine
 62
7
  6
CONTINUOUS
 10
302.3892270113
 20
342.8996127671
 11
302.3892270113
 21
337.6816898114
  0
LINE
  5
44D
100
AcDbEntity
  8
0
100
AcDbLine
 62
7
  6
CONTINUOUS
 10
305.1074868227
 20
337.7006985075
 11
305.1074868227
 21
342.8996127671
  0
LINE
  5
44E
100
AcDbEntity
  8
0
100
AcDbLine
 62
7
  6
CONTINUOUS
 10
305.1074868227
 20
344.9335570163
 11
305.1074868227
 21
347.6803321666
  0
LINE
  5
44F
100
AcDbEntity
  8
0
100
AcDbLine
 62
7
  6
CONTINUOUS
 10
306.7992745425
 20
334.5072159092
 11
306.7992745425
 21
336.5506646759
  0
LINE
  5
450
100
AcDbEntity
  8
0
100
AcDbLine
 62
7
  6
CONTINUOUS
 10
306.7992745425
 20
342.8996127671
 11
306.7992745425
 21
344.9335570163
  0
LINE
  5
451
100
AcDbEntity
  8
0
100
AcDbLine
 62
7
  6
CONTINUOUS
 10
291.6682473208
 20
348.2410926646
 11
290.6702838923
 21
340.7135972804
  0
LINE
  5
452
100
AcDbEntity
  8
0
100
AcDbLine
 62
7
  6
CONTINUOUS
 10
293.1034136797
 20
342.9946566648
 11
293.4835926081
 21
345.8649893827
  0
LINE
  5
453
100
AcDbEntity
  8
0
100
AcDbLine
 62
7
  6
CONTINUOUS
 10
217.9187722792
 20
350.5341854114
 11
217.1687722792
 21
350.0235469956
  0
LINE
  5
454
100
AcDbEntity
  8
0
100
AcDbLine
 62
7
  6
CONTINUOUS
 10
229.9187708487
 20
350.5341854114
 11
229.1687708487
 21
350.0235469956
  0
LINE
  5
455
100
AcDbEntity
  8
0
100
AcDbLine
 62
7
  6
CONTINUOUS
 10
206.9187720407
 20
354.108653428
 11
207.9187718023
 21
354.619291665
  0
LINE
  5
456
100
AcDbEntity
  8
0
100
AcDbLine
 62
7
  6
CONTINUOUS
 10
150.8887306545
 20
345.8605566591
 11
151.2362492572
 21
346.0094928376
  0
LINE
  5
457
100
AcDbEntity
  8
0
100
AcDbLine
 62
7
  6
CONTINUOUS
 10
150.8887306545
 20
345.6007490379
 11
151.2362492572
 21
345.7496852165
  0
LINE
  5
458
100
AcDbEntity
  8
0
100
AcDbLine
 62
7
  6
CONTINUOUS
 10
160.2717329272
 20
346.2328970663
 11
159.9242143245
 21
346.0839609138
  0
LINE
  5
459
100
AcDbEntity
  8
0
100
AcDbLine
 62
7
  6
CONTINUOUS
 10
158.1866213111
 20
347.7967268236
 11
157.6074218723
 21
347.5733225949
  0
LINE
  5
45A
100
AcDbEntity
  8
0
100
AcDbLine
 62
7
  6
CONTINUOUS
 10
160.0400520912
 20
345.7116204871
 11
160.6192515299
 21
345.9350247353
  0
LINE
  5
45B
100
AcDbEntity
  8
0
100
AcDbLine
 62
7
  6
CONTINUOUS
 10
160.0400520912
 20
345.4518128659
 11
160.6192515299
 21
345.6752171142
  0
LINE
  5
45C
100
AcDbEntity
  8
0
100
AcDbLine
 62
7
  6
CONTINUOUS
 10
129.4584157171
 20
347.3499183662
 11
129.921774075
 21
347.4988545187
  0
LINE
  5
45D
100
AcDbEntity
  8
0
100
AcDbLine
 62
7
  6
CONTINUOUS
 10
129.5906817597
 20
347.1326246981
 11
129.921774075
 21
347.2390468975
  0
LINE
  5
45E
100
AcDbEntity
  8
0
100
AcDbLine
 62
7
  6
CONTINUOUS
 10
138.0305410293
 20
349.0626843281
 11
137.5671833342
 21
348.9137481756
  0
LINE
  5
45F
100
AcDbEntity
  8
0
100
AcDbLine
 62
7
  6
CONTINUOUS
 10
135.018714023
 20
347.4243864424
 11
135.2503922077
 21
347.4988545187
  0
LINE
  5
460
100
AcDbEntity
  8
0
100
AcDbLine
 62
7
  6
CONTINUOUS
 10
148.5719382024
 20
349.0626843281
 11
148.108581833
 21
348.9137481756
  0
LINE
  5
461
100
AcDbEntity
  8
0
100
AcDbLine
 62
7
  6
CONTINUOUS
 10
139.7681340427
 20
345.7116204871
 11
140.2314930634
 21
345.8605566591
  0
LINE
  5
462
100
AcDbEntity
  8
0
100
AcDbLine
 62
7
  6
CONTINUOUS
 10
139.7681340427
 20
345.4518128659
 11
140.2314930634
 21
345.6007490379
  0
LINE
  5
463
100
AcDbEntity
  8
0
100
AcDbLine
 62
7
  6
CONTINUOUS
 10
325.1428734175
 20
339.2163129872
 11
325.1428734175
 21
360.4695550525
  0
LINE
  5
464
100
AcDbEntity
  8
0
100
AcDbLine
 62
7
  6
CONTINUOUS
 10
217.4187713255
 20
348.4916321281
 11
218.4187718023
 21
349.0022704321
  0
LINE
  5
465
100
AcDbEntity
  8
0
100
AcDbLine
 62
7
  6
CONTINUOUS
 10
229.418772756
 20
348.4916321281
 11
230.4187718023
 21
349.0022704321
  0
LINE
  5
466
100
AcDbEntity
  8
0
100
AcDbLine
 62
7
  6
CONTINUOUS
 10
206.6687715639
 20
355.3852490205
 11
205.9187715639
 21
355.129929902
  0
LINE
  5
467
100
AcDbEntity
  8
0
100
AcDbLine
 62
7
  6
CONTINUOUS
 10
150.6570498185
 20
346.1584289901
 11
150.4253716338
 21
346.0839609138
  0
LINE
  5
468
100
AcDbEntity
  8
0
100
AcDbLine
 62
7
  6
CONTINUOUS
 10
150.4253716338
 20
345.7116204871
 11
150.8887306545
 21
345.8605566591
  0
LINE
  5
469
100
AcDbEntity
  8
0
100
AcDbLine
 62
7
  6
CONTINUOUS
 10
150.4253716338
 20
345.4518128659
 11
150.8887306545
 21
345.6007490379
  0
LINE
  5
46A
100
AcDbEntity
  8
RUNDUNGEN
100
AcDbLine
 62
7
  6
CONTINUOUS
 10
356.7777299304
 20
502.6448399165
 11
287.2402392612
 21
531.448211645
  0
LINE
  5
46B
100
AcDbEntity
  8
RUNDUNGEN
100
AcDbLine
 62
7
  6
CONTINUOUS
 10
390.401258117
 20
427.5933970712
 11
361.1072987315
 21
498.3152711153
  0
LINE
  5
46C
100
AcDbEntity
  8
RUNDUNGEN
100
AcDbLine
 62
7
  6
CONTINUOUS
 10
385.487716724
 20
361.3389443819
 11
385.0433726703
 21
364.500616608
  0
LINE
  5
46D
100
AcDbEntity
  8
BEZUGSACHSEN
100
AcDbLine
 62
7
  6
CONTINUOUS
 10
385.4534253958
 20
361.5829398602
 11
385.0434015605
 21
364.5004110434
  0
LINE
  5
46E
100
AcDbEntity
  8
RUNDUNGEN
100
AcDbLine
 62
7
  6
CONTINUOUS
 10
391.6787718023
 20
312.7163129872
 11
391.6787718023
 21
381.3495164583
  0
LINE
  5
46F
100
AcDbEntity
  8
RUNDUNGEN
100
AcDbLine
 62
7
  6
CONTINUOUS
 10
385.0008634869
 20
366.9374417099
 11
390.9663970199
 21
423.6957019062
  0
LINE
  5
470
100
AcDbEntity
  8
RUNDUNGEN
100
AcDbLine
 62
7
  6
CONTINUOUS
 10
467.2375548075
 20
364.7570535152
 11
471.6787718023
 21
336.7163129872
  0
LINE
  5
471
100
AcDbEntity
  8
RUNDUNGEN
100
AcDbLine
 62
7
  6
CONTINUOUS
 10
471.6787718023
 20
336.7163129872
 11
471.6787718023
 21
312.7163129872
  0
LINE
  5
472
100
AcDbEntity
  8
B-ACHSEN
100
AcDbLine
 62
7
  6
CONTINUOUS
 10
532.3530758278
 20
312.7163129872
 11
583.2402211153
 21
312.7163129872
  0
LINE
  5
473
100
AcDbEntity
  8
B-ACHSEN
100
AcDbLine
 62
7
  6
CONTINUOUS
 10
641.4659305403
 20
312.7163129872
 11
692.3530758278
 21
312.7163129872
  0
LINE
  5
474
100
AcDbEntity
  8
B-ACHSEN
100
AcDbLine
 62
7
  6
CONTINUOUS
 10
585.3530758278
 20
318.7163129872
 11
589.3530758278
 21
318.7163129872
  0
LINE
  5
475
100
AcDbEntity
  8
B-ACHSEN
100
AcDbLine
 62
7
  6
CONTINUOUS
 10
635.3530758278
 20
318.7163129872
 11
639.3530758278
 21
318.7163129872
  0
LINE
  5
476
100
AcDbEntity
  8
B-ACHSEN
100
AcDbLine
 62
7
  6
CONTINUOUS
 10
595.3530758278
 20
327.7163129872
 11
629.3530758278
 21
327.7163129872
  0
LINE
  5
477
100
AcDbEntity
  8
0
100
AcDbLine
 62
7
  6
CONTINUOUS
 10
546.5805279046
 20
344.9305362737
 11
546.4305279046
 21
345.1903438948
  0
LINE
  5
478
100
AcDbEntity
  8
0
100
AcDbLine
 62
7
  6
CONTINUOUS
 10
547.3544229443
 20
345.3773447832
 11
547.2044229443
 21
345.6371524043
  0
LINE
  5
479
100
AcDbEntity
  8
0
100
AcDbLine
 62
7
  6
CONTINUOUS
 10
547.8703529558
 20
345.6752171142
 11
547.7203529558
 21
345.9350247353
  0
LINE
  5
47A
100
AcDbEntity
  8
0
100
AcDbLine
 62
7
  6
CONTINUOUS
 10
547.9993354925
 20
345.7496852165
 11
547.8493354925
 21
346.0094928376
  0
LINE
  5
47B
100
AcDbEntity
  8
0
100
AcDbLine
 62
7
  6
CONTINUOUS
 10
548.2573004757
 20
345.8986213689
 11
548.1073004757
 21
346.1584289901
  0
LINE
  5
47C
100
AcDbEntity
  8
0
100
AcDbLine
 62
7
  6
CONTINUOUS
 10
548.6442480407
 20
346.1220256498
 11
548.4942480407
 21
346.3818332709
  0
LINE
  5
47D
100
AcDbEntity
  8
0
100
AcDbLine
 62
7
  6
CONTINUOUS
 10
550.9659330697
 20
347.4624511262
 11
550.8159330697
 21
347.7222587473
  0
LINE
  5
47E
100
AcDbEntity
  8
0
100
AcDbLine
 62
7
  6
CONTINUOUS
 10
551.4818630359
 20
347.7603234311
 11
551.3318630359
 21
348.0201310523
  0
LINE
  5
47F
100
AcDbEntity
  8
RUNDUNGEN
100
AcDbLine
 62
7
  6
CONTINUOUS
 10
565.6326514931
 20
336.7163129872
 11
659.0735001625
 21
336.7163129872
  0
LINE
  5
480
100
AcDbEntity
  8
0
100
AcDbLine
 62
7
  6
CONTINUOUS
 10
552.5137233298
 20
348.3560682496
 11
552.3637233298
 21
348.6158758707
  0
LINE
  5
481
100
AcDbEntity
  8
0
100
AcDbLine
 62
7
  6
CONTINUOUS
 10
552.771688313
 20
348.505004402
 11
552.621688313
 21
348.7648120232
  0
LINE
  5
482
100
AcDbEntity
  8
0
100
AcDbLine
 62
7
  6
CONTINUOUS
 10
553.4166007708
 20
348.8773447832
 11
553.2666007708
 21
349.1371524043
  0
LINE
  5
483
100
AcDbEntity
  8
RUNDUNGEN
100
AcDbLine
 62
7
  6
CONTINUOUS
 10
532.3530758278
 20
332.0975108337
 11
532.3530758278
 21
312.7163129872
  0
LINE
  5
484
100
AcDbEntity
  8
RUNDUNGEN
100
AcDbLine
 62
7
  6
CONTINUOUS
 10
564.3530758278
 20
330.932442855
 11
564.3530758278
 21
312.7163129872
  0
LINE
  5
485
100
AcDbEntity
  8
B-ACHSEN
100
AcDbLine
 62
7
  6
CONTINUOUS
 10
582.3530758278
 20
312.7163129872
 11
582.3530758278
 21
315.7163129872
  0
LWPOLYLINE
  5
486
100
AcDbEntity
  8
RUNDUNGEN
100
AcDbPolyline
 62
7
  6
CONTINUOUS
 90
3
 70
0
 10
600.6243307391
 20
389.3494069971
 10
600.294152375
 20
389.33116859
 10
599.9355608686
 20
389.2691968351
  0
LINE
  5
487
100
AcDbEntity
  8
RUNDUNGEN
100
AcDbLine
 62
7
  6
CONTINUOUS
 10
600.6088342081
 20
389.3495164583
 11
624.0980702996
 21
389.3495164583
  0
LWPOLYLINE
  5
488
100
AcDbEntity
  8
RUNDUNGEN
100
AcDbPolyline
 62
7
  6
CONTINUOUS
 90
3
 70
0
 10
624.7702771284
 20
389.269270418
 10
624.4116550548
 20
389.3312132287
 10
624.0816714481
 20
389.3494270356
  0
LINE
  5
489
100
AcDbEntity
  8
RUNDUNGEN
100
AcDbLine
 62
7
  6
CONTINUOUS
 10
666.9507636118
 20
351.3823447832
 11
688.3530758278
 21
339.025714064
  0
LINE
  5
48A
100
AcDbEntity
  8
0
100
AcDbLine
 62
7
  6
CONTINUOUS
 10
671.4395508848
 20
349.1371524043
 11
678.275623751
 21
345.1903438948
  0
LINE
  5
48B
100
AcDbEntity
  8
BEZUGSACHSEN
100
AcDbLine
 62
7
  6
CONTINUOUS
 10
591.3530758278
 20
524.0571753849
 11
591.3530758278
 21
386.4655544947
  0
LINE
  5
48C
100
AcDbEntity
  8
B-ACHSEN
100
AcDbLine
 62
7
  6
CONTINUOUS
 10
592.3530758278
 20
321.7163129872
 11
592.3530758278
 21
324.7163129872
  0
LINE
  5
48D
100
AcDbEntity
  8
B-ACHSEN
100
AcDbLine
 62
7
  6
CONTINUOUS
 10
583.2402211153
 20
312.7163129872
 11
584.1506948711
 21
318.4648180418
  0
LINE
  5
48E
100
AcDbEntity
  8
B-ACHSEN
100
AcDbLine
 62
7
  6
CONTINUOUS
 10
641.4659305403
 20
312.7163129872
 11
640.5554567845
 21
318.4648180418
  0
LINE
  5
48F
100
AcDbEntity
  8
B-ACHSEN
100
AcDbLine
 62
7
  6
CONTINUOUS
 10
632.3530758278
 20
324.7163129872
 11
632.3530758278
 21
321.7163129872
  0
LINE
  5
490
100
AcDbEntity
  8
RUNDUNGEN
100
AcDbLine
 62
7
  6
CONTINUOUS
 10
633.3530758278
 20
524.0571753849
 11
633.3530758278
 21
386.4655797219
  0
LINE
  5
491
100
AcDbEntity
  8
B-ACHSEN
100
AcDbLine
 62
7
  6
CONTINUOUS
 10
642.3530758278
 20
312.7163129872
 11
642.3530758278
 21
315.7163129872
  0
LINE
  5
492
100
AcDbEntity
  8
0
100
AcDbLine
 62
7
  6
CONTINUOUS
 10
546.4305279046
 20
345.1903438948
 11
553.2666007708
 21
349.1371524043
  0
LINE
  5
493
100
AcDbEntity
  8
RUNDUNGEN
100
AcDbLine
 62
7
  6
CONTINUOUS
 10
536.3530758278
 20
339.025714064
 11
557.7553880438
 21
351.3823447832
  0
LINE
  5
494
100
AcDbEntity
  8
RUNDUNGEN
100
AcDbLine
 62
7
  6
CONTINUOUS
 10
660.3530758278
 20
312.7163129872
 11
660.3530758278
 21
330.932442855
  0
LINE
  5
495
100
AcDbEntity
  8
RUNDUNGEN
100
AcDbLine
 62
7
  6
CONTINUOUS
 10
692.3530758278
 20
332.0975108337
 11
692.3530758278
 21
312.7163129872
  0
LINE
  5
496
100
AcDbEntity
  8
B-ACHSEN
100
AcDbLine
 62
7
  6
CONTINUOUS
 10
692.3530758278
 20
332.0975108337
 11
692.3530758278
 21
312.7163129872
  0
LINE
  5
497
100
AcDbEntity
  8
0
100
AcDbLine
 62
7
  6
CONTINUOUS
 10
671.2895508848
 20
348.8773447832
 11
671.4395508848
 21
349.1371524043
  0
LINE
  5
498
100
AcDbEntity
  8
0
100
AcDbLine
 62
7
  6
CONTINUOUS
 10
677.3517287113
 20
345.3773447832
 11
677.5017287113
 21
345.6371524043
  0
LINE
  5
499
100
AcDbEntity
  8
0
100
AcDbLine
 62
7
  6
CONTINUOUS
 10
678.125623751
 20
344.9305362737
 11
678.275623751
 21
345.1903438948
  0
LINE
  5
49A
100
AcDbEntity
  8
BEZUGSACHSEN
100
AcDbLine
 62
7
  6
CONTINUOUS
 10
599.3530758278
 20
532.0571753849
 11
625.3530758278
 21
532.0571753849
  0
LINE
  5
49B
100
AcDbEntity
  8
RUNDUNGEN
100
AcDbLine
 62
7
  6
CONTINUOUS
 10
96.6787718023
 20
101.7183357558
 11
96.6787718023
 21
197.7183357558
  0
LINE
  5
49C
100
AcDbEntity
  8
0
100
AcDbLine
 62
7
  6
CONTINUOUS
 10
120.5387718023
 20
90.7818606988
 11
120.5387718023
 21
90.6318606988
  0
LINE
  5
49D
100
AcDbEntity
  8
0
100
AcDbLine
 62
7
  6
CONTINUOUS
 10
121.2338090077
 20
90.7818606988
 11
121.2338090077
 21
90.6318606988
  0
LINE
  5
49E
100
AcDbEntity
  8
0
100
AcDbLine
 62
7
  6
CONTINUOUS
 10
122.8555624317
 20
85.4935779121
 11
122.8555624317
 21
85.3435779121
  0
LINE
  5
49F
100
AcDbEntity
  8
RUNDUNGEN
100
AcDbLine
 62
7
  6
CONTINUOUS
 10
124.2853735201
 20
225.3249374736
 11
96.6787718023
 21
197.7183357558
  0
LINE
  5
4A0
100
AcDbEntity
  8
RUNDUNGEN
100
AcDbLine
 62
7
  6
CONTINUOUS
 10
96.6787718023
 20
101.7183357558
 11
124.2853735201
 21
74.111734038
  0
LINE
  5
4A1
100
AcDbEntity
  8
0
100
AcDbLine
 62
7
  6
CONTINUOUS
 10
130.5009715252
 20
84.5696828724
 11
129.4584157171
 21
87.5362805398
  0
LINE
  5
4A2
100
AcDbEntity
  8
0
100
AcDbLine
 62
7
  6
CONTINUOUS
 10
130.5009715252
 20
84.7196828724
 11
129.5053356373
 21
87.5527696768
  0
LINE
  5
4A3
100
AcDbEntity
  8
0
100
AcDbLine
 62
7
  6
CONTINUOUS
 10
128.7633785118
 20
87.2783155567
 11
129.6900952275
 21
84.5696828724
  0
LINE
  5
4A4
100
AcDbEntity
  8
0
100
AcDbLine
 62
7
  6
CONTINUOUS
 10
122.8555624317
 20
85.3435779121
 11
121.2338090077
 21
90.6318606988
  0
LINE
  5
4A5
100
AcDbEntity
  8
0
100
AcDbLine
 62
7
  6
CONTINUOUS
 10
122.8555624317
 20
85.4935779121
 11
121.2338090077
 21
90.7818606988
  0
LINE
  5
4A6
100
AcDbEntity
  8
0
100
AcDbLine
 62
7
  6
CONTINUOUS
 10
120.5387718023
 20
90.6318606988
 11
122.3922044053
 21
84.5696828724
  0
LINE
  5
4A7
100
AcDbEntity
  8
0
100
AcDbLine
 62
7
  6
CONTINUOUS
 10
129.5742554723
 20
89.6000007663
 11
129.6900952275
 21
89.2130532916
  0
LINE
  5
4A8
100
AcDbEntity
  8
0
100
AcDbLine
 62
7
  6
CONTINUOUS
 10
130.3851324329
 20
89.2130532916
 11
130.2692926777
 21
89.6000007663
  0
LINE
  5
4A9
100
AcDbEntity
  8
0
100
AcDbLine
 62
7
  6
CONTINUOUS
 10
130.3851324329
 20
89.3630532916
 11
130.2692926777
 21
89.7500007663
  0
LINE
  5
4AA
100
AcDbEntity
  8
0
100
AcDbLine
 62
7
  6
CONTINUOUS
 10
124.4773158557
 20
90.7818606988
 11
124.4773158557
 21
90.6318606988
  0
LINE
  5
4AB
100
AcDbEntity
  8
0
100
AcDbLine
 62
7
  6
CONTINUOUS
 10
125.1723530611
 20
90.7818606988
 11
125.1723530611
 21
90.6318606988
  0
LINE
  5
4AC
100
AcDbEntity
  8
0
100
AcDbLine
 62
7
  6
CONTINUOUS
 10
126.0990694454
 20
90.7818606988
 11
126.0990694454
 21
84.5696828724
  0
LINE
  5
4AD
100
AcDbEntity
  8
0
100
AcDbLine
 62
7
  6
CONTINUOUS
 10
126.7941066508
 20
84.5696828724
 11
126.7941066508
 21
87.2783155567
  0
LINE
  5
4AE
100
AcDbEntity
  8
0
100
AcDbLine
 62
7
  6
CONTINUOUS
 10
126.7941066508
 20
88.0522105061
 11
126.7941066508
 21
89.986948241
  0
LINE
  5
4AF
100
AcDbEntity
  8
0
100
AcDbLine
 62
7
  6
CONTINUOUS
 10
128.8792182669
 20
90.7818606988
 11
128.8792182669
 21
90.6318606988
  0
LINE
  5
4B0
100
AcDbEntity
  8
0
100
AcDbLine
 62
7
  6
CONTINUOUS
 10
128.9950580221
 20
88.2022105061
 11
128.9950580221
 21
88.0522105061
  0
LINE
  5
4B1
100
AcDbEntity
  8
0
100
AcDbLine
 62
7
  6
CONTINUOUS
 10
129.3425766248
 20
88.3311929977
 11
129.3425766248
 21
88.1811929977
  0
LINE
  5
4B2
100
AcDbEntity
  8
0
100
AcDbLine
 62
7
  6
CONTINUOUS
 10
129.4584157171
 20
90.6528782073
 11
129.4584157171
 21
90.5028782073
  0
LINE
  5
4B3
100
AcDbEntity
  8
0
100
AcDbLine
 62
7
  6
CONTINUOUS
 10
129.5742554723
 20
88.5891579808
 11
129.5742554723
 21
88.4391579808
  0
LINE
  5
4B4
100
AcDbEntity
  8
0
100
AcDbLine
 62
7
  6
CONTINUOUS
 10
129.6900952275
 20
89.2130532916
 11
129.6900952275
 21
88.8261054555
  0
LINE
  5
4B5
100
AcDbEntity
  8
0
100
AcDbLine
 62
7
  6
CONTINUOUS
 10
129.921774075
 20
90.2659307326
 11
129.921774075
 21
90.1159307326
  0
LINE
  5
4B6
100
AcDbEntity
  8
0
100
AcDbLine
 62
7
  6
CONTINUOUS
 10
130.2692926777
 20
89.7500007663
 11
130.2692926777
 21
89.6000007663
  0
LINE
  5
4B7
100
AcDbEntity
  8
0
100
AcDbLine
 62
7
  6
CONTINUOUS
 10
130.3851324329
 20
88.6971229639
 11
130.3851324329
 21
89.3630532916
  0
LINE
  5
4B8
100
AcDbEntity
  8
0
100
AcDbLine
 62
7
  6
CONTINUOUS
 10
130.5009715252
 20
84.7196828724
 11
130.5009715252
 21
84.5696828724
  0
LINE
  5
4B9
100
AcDbEntity
  8
0
100
AcDbLine
 62
7
  6
CONTINUOUS
 10
131.427688241
 20
90.7818606988
 11
131.427688241
 21
84.5696828724
  0
LINE
  5
4BA
100
AcDbEntity
  8
0
100
AcDbLine
 62
7
  6
CONTINUOUS
 10
132.1227247835
 20
85.3435779121
 11
132.1227247835
 21
87.2783155567
  0
LINE
  5
4BB
100
AcDbEntity
  8
0
100
AcDbLine
 62
7
  6
CONTINUOUS
 10
132.1227247835
 20
88.0522105061
 11
132.1227247835
 21
89.8579657494
  0
LINE
  5
4BC
100
AcDbEntity
  8
0
100
AcDbLine
 62
7
  6
CONTINUOUS
 10
134.2078363996
 20
90.7818606988
 11
134.2078363996
 21
90.6318606988
  0
LINE
  5
4BD
100
AcDbEntity
  8
0
100
AcDbLine
 62
7
  6
CONTINUOUS
 10
134.3236768177
 20
88.2022105061
 11
134.3236768177
 21
88.0522105061
  0
LINE
  5
4BE
100
AcDbEntity
  8
0
100
AcDbLine
 62
7
  6
CONTINUOUS
 10
134.3236768177
 20
85.4935779121
 11
134.3236768177
 21
85.3435779121
  0
LINE
  5
4BF
100
AcDbEntity
  8
0
100
AcDbLine
 62
7
  6
CONTINUOUS
 10
134.6711954204
 20
88.3311929977
 11
134.6711954204
 21
88.1811929977
  0
LINE
  5
4C0
100
AcDbEntity
  8
0
100
AcDbLine
 62
7
  6
CONTINUOUS
 10
134.6711954204
 20
85.6225604037
 11
134.6711954204
 21
85.4725604037
  0
LINE
  5
4C1
100
AcDbEntity
  8
0
100
AcDbLine
 62
7
  6
CONTINUOUS
 10
134.7870345127
 20
90.6528782073
 11
134.7870345127
 21
90.5028782073
  0
LINE
  5
4C2
100
AcDbEntity
  8
0
100
AcDbLine
 62
7
  6
CONTINUOUS
 10
134.902873605
 20
88.5891579808
 11
134.902873605
 21
88.4391579808
  0
LINE
  5
4C3
100
AcDbEntity
  8
0
100
AcDbLine
 62
7
  6
CONTINUOUS
 10
134.902873605
 20
85.8805254772
 11
134.902873605
 21
85.7305254772
  0
LINE
  5
4C4
100
AcDbEntity
  8
0
100
AcDbLine
 62
7
  6
CONTINUOUS
 10
135.018714023
 20
89.0840704387
 11
135.018714023
 21
88.8261054555
  0
LINE
  5
4C5
100
AcDbEntity
  8
0
100
AcDbLine
 62
7
  6
CONTINUOUS
 10
135.018714023
 20
86.5044204266
 11
135.018714023
 21
86.1174729519
  0
LINE
  5
4C6
100
AcDbEntity
  8
0
100
AcDbLine
 62
7
  6
CONTINUOUS
 10
135.2503922077
 20
90.2659307326
 11
135.2503922077
 21
90.1159307326
  0
LINE
  5
4C7
100
AcDbEntity
  8
0
100
AcDbLine
 62
7
  6
CONTINUOUS
 10
135.2503922077
 20
87.6862805398
 11
135.2503922077
 21
87.5362805398
  0
LINE
  5
4C8
100
AcDbEntity
  8
0
100
AcDbLine
 62
7
  6
CONTINUOUS
 10
135.5979108104
 20
89.7500007663
 11
135.5979108104
 21
89.6000007663
  0
LINE
  5
4C9
100
AcDbEntity
  8
0
100
AcDbLine
 62
7
  6
CONTINUOUS
 10
135.5979108104
 20
87.1703505735
 11
135.5979108104
 21
87.0203505735
  0
LINE
  5
4CA
100
AcDbEntity
  8
0
100
AcDbLine
 62
7
  6
CONTINUOUS
 10
135.7137512284
 20
85.9884904603
 11
135.7137512284
 21
86.7834029181
  0
LINE
  5
4CB
100
AcDbEntity
  8
0
100
AcDbLine
 62
7
  6
CONTINUOUS
 10
135.7137512284
 20
88.6971229639
 11
135.7137512284
 21
89.3630532916
  0
LINE
  5
4CC
100
AcDbEntity
  8
0
100
AcDbLine
 62
7
  6
CONTINUOUS
 10
129.3425766248
 20
89.8579657494
 11
129.5742554723
 21
89.6000007663
  0
LINE
  5
4CD
100
AcDbEntity
  8
0
100
AcDbLine
 62
7
  6
CONTINUOUS
 10
134.6711954204
 20
87.1493330651
 11
134.902873605
 21
86.891368082
  0
LINE
  5
4CE
100
AcDbEntity
  8
0
100
AcDbLine
 62
7
  6
CONTINUOUS
 10
137.7988628446
 20
85.4725604037
 11
137.4513442419
 21
85.8595079687
  0
LINE
  5
4CF
100
AcDbEntity
  8
0
100
AcDbLine
 62
7
  6
CONTINUOUS
 10
137.7988628446
 20
85.6225604037
 11
137.4513442419
 21
86.0095079687
  0
LINE
  5
4D0
100
AcDbEntity
  8
0
100
AcDbLine
 62
7
  6
CONTINUOUS
 10
134.6711954204
 20
89.7289832578
 11
134.902873605
 21
89.4710182747
  0
LINE
  5
4D1
100
AcDbEntity
  8
0
100
AcDbLine
 62
7
  6
CONTINUOUS
 10
137.1038256392
 20
88.1811929977
 11
137.5671833342
 21
87.6652630314
  0
LINE
  5
4D2
100
AcDbEntity
  8
0
100
AcDbLine
 62
7
  6
CONTINUOUS
 10
140.6948507585
 20
87.1493330651
 11
140.2314930634
 21
87.6652630314
  0
LINE
  5
4D3
100
AcDbEntity
  8
0
100
AcDbLine
 62
7
  6
CONTINUOUS
 10
140.6948507585
 20
87.2993330651
 11
140.2314930634
 21
87.8152630314
  0
LINE
  5
4D4
100
AcDbEntity
  8
0
100
AcDbLine
 62
7
  6
CONTINUOUS
 10
139.536455858
 20
89.7289832578
 11
139.7681340427
 21
89.4710182747
  0
LINE
  5
4D5
100
AcDbEntity
  8
0
100
AcDbLine
 62
7
  6
CONTINUOUS
 10
130.2692926777
 20
89.6000007663
 11
129.921774075
 21
90.1159307326
  0
LINE
  5
4D6
100
AcDbEntity
  8
0
100
AcDbLine
 62
7
  6
CONTINUOUS
 10
130.2692926777
 20
89.7500007663
 11
129.921774075
 21
90.2659307326
  0
LINE
  5
4D7
100
AcDbEntity
  8
0
100
AcDbLine
 62
7
  6
CONTINUOUS
 10
135.5979108104
 20
87.0203505735
 11
135.2503922077
 21
87.5362805398
  0
LINE
  5
4D8
100
AcDbEntity
  8
0
100
AcDbLine
 62
7
  6
CONTINUOUS
 10
135.5979108104
 20
87.1703505735
 11
135.2503922077
 21
87.6862805398
  0
LINE
  5
4D9
100
AcDbEntity
  8
0
100
AcDbLine
 62
7
  6
CONTINUOUS
 10
135.5979108104
 20
89.6000007663
 11
135.2503922077
 21
90.1159307326
  0
LINE
  5
4DA
100
AcDbEntity
  8
0
100
AcDbLine
 62
7
  6
CONTINUOUS
 10
135.5979108104
 20
89.7500007663
 11
135.2503922077
 21
90.2659307326
  0
LINE
  5
4DB
100
AcDbEntity
  8
0
100
AcDbLine
 62
7
  6
CONTINUOUS
 10
140.4631712481
 20
89.6000007663
 11
140.1156526454
 21
90.1159307326
  0
LINE
  5
4DC
100
AcDbEntity
  8
0
100
AcDbLine
 62
7
  6
CONTINUOUS
 10
140.4631712481
 20
89.7500007663
 11
140.1156526454
 21
90.2659307326
  0
LINE
  5
4DD
100
AcDbEntity
  8
0
100
AcDbLine
 62
7
  6
CONTINUOUS
 10
139.9998135531
 20
86.891368082
 11
140.2314930634
 21
86.5044204266
  0
LINE
  5
4DE
100
AcDbEntity
  8
0
100
AcDbLine
 62
7
  6
CONTINUOUS
 10
147.5293823943
 20
85.6015428952
 11
147.7610632303
 21
85.2145954205
  0
LINE
  5
4DF
100
AcDbEntity
  8
0
100
AcDbLine
 62
7
  6
CONTINUOUS
 10
136.7563070365
 20
85.7305254772
 11
137.1038256392
 21
85.0856128838
  0
LINE
  5
4E0
100
AcDbEntity
  8
0
100
AcDbLine
 62
7
  6
CONTINUOUS
 10
140.9265302688
 20
86.6334029181
 11
140.6948507585
 21
87.1493330651
  0
LINE
  5
4E1
100
AcDbEntity
  8
0
100
AcDbLine
 62
7
  6
CONTINUOUS
 10
140.9265302688
 20
86.7834029181
 11
140.6948507585
 21
87.2993330651
  0
LINE
  5
4E2
100
AcDbEntity
  8
0
100
AcDbLine
 62
7
  6
CONTINUOUS
 10
139.7681340427
 20
89.4710182747
 11
139.8839744607
 21
89.2130532916
  0
LINE
  5
4E3
100
AcDbEntity
  8
0
100
AcDbLine
 62
7
  6
CONTINUOUS
 10
148.108581833
 20
85.7305254772
 11
147.992741415
 21
85.9884904603
  0
LINE
  5
4E4
100
AcDbEntity
  8
0
100
AcDbLine
 62
7
  6
CONTINUOUS
 10
148.108581833
 20
85.8805254772
 11
147.992741415
 21
86.1384904603
  0
LINE
  5
4E5
100
AcDbEntity
  8
0
100
AcDbLine
 62
7
  6
CONTINUOUS
 10
134.902873605
 20
86.891368082
 11
135.018714023
 21
86.5044204266
  0
LINE
  5
4E6
100
AcDbEntity
  8
0
100
AcDbLine
 62
7
  6
CONTINUOUS
 10
135.7137512284
 20
86.6334029181
 11
135.5979108104
 21
87.0203505735
  0
LINE
  5
4E7
100
AcDbEntity
  8
0
100
AcDbLine
 62
7
  6
CONTINUOUS
 10
134.902873605
 20
89.4710182747
 11
135.018714023
 21
89.0840704387
  0
LINE
  5
4E8
100
AcDbEntity
  8
0
100
AcDbLine
 62
7
  6
CONTINUOUS
 10
135.7137512284
 20
86.7834029181
 11
135.5979108104
 21
87.1703505735
  0
LINE
  5
4E9
100
AcDbEntity
  8
0
100
AcDbLine
 62
7
  6
CONTINUOUS
 10
135.7137512284
 20
89.2130532916
 11
135.5979108104
 21
89.6000007663
  0
LINE
  5
4EA
100
AcDbEntity
  8
0
100
AcDbLine
 62
7
  6
CONTINUOUS
 10
135.7137512284
 20
89.3630532916
 11
135.5979108104
 21
89.7500007663
  0
LINE
  5
4EB
100
AcDbEntity
  8
0
100
AcDbLine
 62
7
  6
CONTINUOUS
 10
137.4513442419
 20
85.8595079687
 11
137.3355038239
 21
86.2464554434
  0
LINE
  5
4EC
100
AcDbEntity
  8
0
100
AcDbLine
 62
7
  6
CONTINUOUS
 10
137.4513442419
 20
86.0095079687
 11
137.3355038239
 21
86.3964554434
  0
LINE
  5
4ED
100
AcDbEntity
  8
0
100
AcDbLine
 62
7
  6
CONTINUOUS
 10
137.7988628446
 20
88.4391579808
 11
137.6830224266
 21
88.8261054555
  0
LINE
  5
4EE
100
AcDbEntity
  8
0
100
AcDbLine
 62
7
  6
CONTINUOUS
 10
137.7988628446
 20
88.5891579808
 11
137.6830224266
 21
88.9761054555
  0
LINE
  5
4EF
100
AcDbEntity
  8
0
100
AcDbLine
 62
7
  6
CONTINUOUS
 10
140.5790116661
 20
89.2130532916
 11
140.4631712481
 21
89.6000007663
  0
LINE
  5
4F0
100
AcDbEntity
  8
0
100
AcDbLine
 62
7
  6
CONTINUOUS
 10
140.5790116661
 20
89.3630532916
 11
140.4631712481
 21
89.7500007663
  0
LINE
  5
4F1
100
AcDbEntity
  8
0
100
AcDbLine
 62
7
  6
CONTINUOUS
 10
147.4135446276
 20
85.9884904603
 11
147.5293823943
 21
85.6015428952
  0
LINE
  5
4F2
100
AcDbEntity
  8
0
100
AcDbLine
 62
7
  6
CONTINUOUS
 10
136.6404666185
 20
86.2464554434
 11
136.7563070365
 21
85.7305254772
  0
LINE
  5
4F3
100
AcDbEntity
  8
0
100
AcDbLine
 62
7
  6
CONTINUOUS
 10
136.9879852212
 20
88.6971229639
 11
137.1038256392
 21
88.1811929977
  0
LINE
  5
4F4
100
AcDbEntity
  8
0
100
AcDbLine
 62
7
  6
CONTINUOUS
 10
136.6404666185
 20
86.3964554434
 11
136.6404666185
 21
86.2464554434
  0
LINE
  5
4F5
100
AcDbEntity
  8
0
100
AcDbLine
 62
7
  6
CONTINUOUS
 10
136.9879852212
 20
89.3630532916
 11
136.9879852212
 21
88.6971229639
  0
LINE
  5
4F6
100
AcDbEntity
  8
0
100
AcDbLine
 62
7
  6
CONTINUOUS
 10
137.1038256392
 20
89.8789832578
 11
137.1038256392
 21
89.7289832578
  0
LINE
  5
4F7
100
AcDbEntity
  8
0
100
AcDbLine
 62
7
  6
CONTINUOUS
 10
137.3355038239
 20
86.3964554434
 11
137.3355038239
 21
86.2464554434
  0
LINE
  5
4F8
100
AcDbEntity
  8
0
100
AcDbLine
 62
7
  6
CONTINUOUS
 10
137.4513442419
 20
86.0095079687
 11
137.4513442419
 21
85.8595079687
  0
LINE
  5
4F9
100
AcDbEntity
  8
0
100
AcDbLine
 62
7
  6
CONTINUOUS
 10
137.5671833342
 20
90.3949132241
 11
137.5671833342
 21
90.2449132241
  0
LINE
  5
4FA
100
AcDbEntity
  8
0
100
AcDbLine
 62
7
  6
CONTINUOUS
 10
137.6830224266
 20
88.8261054555
 11
137.6830224266
 21
89.0840704387
  0
LINE
  5
4FB
100
AcDbEntity
  8
0
100
AcDbLine
 62
7
  6
CONTINUOUS
 10
137.7988628446
 20
88.5891579808
 11
137.7988628446
 21
88.4391579808
  0
LINE
  5
4FC
100
AcDbEntity
  8
0
100
AcDbLine
 62
7
  6
CONTINUOUS
 10
137.7988628446
 20
85.6225604037
 11
137.7988628446
 21
85.4725604037
  0
LINE
  5
4FD
100
AcDbEntity
  8
0
100
AcDbLine
 62
7
  6
CONTINUOUS
 10
138.0305410293
 20
90.6528782073
 11
138.0305410293
 21
90.5028782073
  0
LINE
  5
4FE
100
AcDbEntity
  8
0
100
AcDbLine
 62
7
  6
CONTINUOUS
 10
138.1463814473
 20
88.3311929977
 11
138.1463814473
 21
88.1811929977
  0
LINE
  5
4FF
100
AcDbEntity
  8
0
100
AcDbLine
 62
7
  6
CONTINUOUS
 10
138.2622205396
 20
85.4935779121
 11
138.2622205396
 21
85.3435779121
  0
LINE
  5
500
100
AcDbEntity
  8
0
100
AcDbLine
 62
7
  6
CONTINUOUS
 10
138.49390005
 20
90.7818606988
 11
138.49390005
 21
90.6318606988
  0
LINE
  5
501
100
AcDbEntity
  8
0
100
AcDbLine
 62
7
  6
CONTINUOUS
 10
138.49390005
 20
88.2022105061
 11
138.49390005
 21
88.0522105061
  0
LINE
  5
502
100
AcDbEntity
  8
0
100
AcDbLine
 62
7
  6
CONTINUOUS
 10
139.0730968373
 20
90.7818606988
 11
139.0730968373
 21
90.6318606988
  0
LINE
  5
503
100
AcDbEntity
  8
0
100
AcDbLine
 62
7
  6
CONTINUOUS
 10
139.1889372553
 20
88.2022105061
 11
139.1889372553
 21
88.0522105061
  0
LINE
  5
504
100
AcDbEntity
  8
0
100
AcDbLine
 62
7
  6
CONTINUOUS
 10
139.1889372553
 20
85.4935779121
 11
139.1889372553
 21
85.3435779121
  0
LINE
  5
505
100
AcDbEntity
  8
0
100
AcDbLine
 62
7
  6
CONTINUOUS
 10
139.6522949504
 20
90.6528782073
 11
139.6522949504
 21
90.5028782073
  0
LINE
  5
506
100
AcDbEntity
  8
0
100
AcDbLine
 62
7
  6
CONTINUOUS
 10
139.6522949504
 20
85.6225604037
 11
139.6522949504
 21
85.4725604037
  0
LINE
  5
507
100
AcDbEntity
  8
0
100
AcDbLine
 62
7
  6
CONTINUOUS
 10
139.7681340427
 20
88.0732280145
 11
139.7681340427
 21
87.9232280145
  0
LINE
  5
508
100
AcDbEntity
  8
0
100
AcDbLine
 62
7
  6
CONTINUOUS
 10
139.9998135531
 20
85.8805254772
 11
139.9998135531
 21
85.7305254772
  0
LINE
  5
509
100
AcDbEntity
  8
0
100
AcDbLine
 62
7
  6
CONTINUOUS
 10
140.1156526454
 20
90.2659307326
 11
140.1156526454
 21
90.1159307326
  0
LINE
  5
50A
100
AcDbEntity
  8
0
100
AcDbLine
 62
7
  6
CONTINUOUS
 10
140.2314930634
 20
87.8152630314
 11
140.2314930634
 21
87.6652630314
  0
LINE
  5
50B
100
AcDbEntity
  8
0
100
AcDbLine
 62
7
  6
CONTINUOUS
 10
140.2314930634
 20
86.5044204266
 11
140.2314930634
 21
86.1174729519
  0
LINE
  5
50C
100
AcDbEntity
  8
0
100
AcDbLine
 62
7
  6
CONTINUOUS
 10
140.4631712481
 20
89.7500007663
 11
140.4631712481
 21
89.6000007663
  0
LINE
  5
50D
100
AcDbEntity
  8
0
100
AcDbLine
 62
7
  6
CONTINUOUS
 10
140.5790116661
 20
89.3630532916
 11
140.5790116661
 21
89.2130532916
  0
LINE
  5
50E
100
AcDbEntity
  8
0
100
AcDbLine
 62
7
  6
CONTINUOUS
 10
140.6948507585
 20
87.2993330651
 11
140.6948507585
 21
87.1493330651
  0
LINE
  5
50F
100
AcDbEntity
  8
0
100
AcDbLine
 62
7
  6
CONTINUOUS
 10
140.9265302688
 20
85.9884904603
 11
140.9265302688
 21
86.7834029181
  0
LINE
  5
510
100
AcDbEntity
  8
0
100
AcDbLine
 62
7
  6
CONTINUOUS
 10
147.4135446276
 20
86.1384904603
 11
147.4135446276
 21
85.9884904603
  0
LINE
  5
511
100
AcDbEntity
  8
0
100
AcDbLine
 62
7
  6
CONTINUOUS
 10
147.5293823943
 20
89.3630532916
 11
147.5293823943
 21
89.2130532916
  0
LINE
  5
512
100
AcDbEntity
  8
0
100
AcDbLine
 62
7
  6
CONTINUOUS
 10
147.6452228123
 20
89.8789832578
 11
147.6452228123
 21
89.7289832578
  0
LINE
  5
513
100
AcDbEntity
  8
0
100
AcDbLine
 62
7
  6
CONTINUOUS
 10
147.992741415
 20
86.1384904603
 11
147.992741415
 21
85.9884904603
  0
LINE
  5
514
100
AcDbEntity
  8
0
100
AcDbLine
 62
7
  6
CONTINUOUS
 10
148.108581833
 20
90.3949132241
 11
148.108581833
 21
90.2449132241
  0
LINE
  5
515
100
AcDbEntity
  8
0
100
AcDbLine
 62
7
  6
CONTINUOUS
 10
148.108581833
 20
85.8805254772
 11
148.108581833
 21
85.7305254772
  0
LINE
  5
516
100
AcDbEntity
  8
0
100
AcDbLine
 62
7
  6
CONTINUOUS
 10
148.3402600177
 20
85.6225604037
 11
148.3402600177
 21
85.4725604037
  0
LINE
  5
517
100
AcDbEntity
  8
0
100
AcDbLine
 62
7
  6
CONTINUOUS
 10
148.5719382024
 20
90.6528782073
 11
148.5719382024
 21
90.5028782073
  0
LINE
  5
518
100
AcDbEntity
  8
0
100
AcDbLine
 62
7
  6
CONTINUOUS
 10
148.5719382024
 20
85.4935779121
 11
148.5719382024
 21
85.3435779121
  0
LINE
  5
519
100
AcDbEntity
  8
0
100
AcDbLine
 62
7
  6
CONTINUOUS
 10
149.1511376411
 20
85.3645954205
 11
149.1511376411
 21
85.2145954205
  0
LINE
  5
51A
100
AcDbEntity
  8
0
100
AcDbLine
 62
7
  6
CONTINUOUS
 10
149.2669754077
 20
88.0732280145
 11
149.2669754077
 21
87.4072980482
  0
LINE
  5
51B
100
AcDbEntity
  8
0
100
AcDbLine
 62
7
  6
CONTINUOUS
 10
149.3828158258
 20
90.7818606988
 11
149.3828158258
 21
90.6318606988
  0
LINE
  5
51C
100
AcDbEntity
  8
0
100
AcDbLine
 62
7
  6
CONTINUOUS
 10
149.6144940104
 20
90.7818606988
 11
149.6144940104
 21
90.6318606988
  0
LINE
  5
51D
100
AcDbEntity
  8
0
100
AcDbLine
 62
7
  6
CONTINUOUS
 10
149.7303344284
 20
88.0732280145
 11
149.7303344284
 21
87.9232280145
  0
LINE
  5
51E
100
AcDbEntity
  8
0
100
AcDbLine
 62
7
  6
CONTINUOUS
 10
149.8461748465
 20
85.3645954205
 11
149.8461748465
 21
85.2145954205
  0
LINE
  5
51F
100
AcDbEntity
  8
0
100
AcDbLine
 62
7
  6
CONTINUOUS
 10
123.3189206239
 20
84.5696828724
 11
125.1723530611
 21
90.6318606988
  0
LINE
  5
520
100
AcDbEntity
  8
0
100
AcDbLine
 62
7
  6
CONTINUOUS
 10
124.4773158557
 20
90.7818606988
 11
122.8555624317
 21
85.4935779121
  0
LINE
  5
521
100
AcDbEntity
  8
0
100
AcDbLine
 62
7
  6
CONTINUOUS
 10
124.4773158557
 20
90.6318606988
 11
122.8555624317
 21
85.3435779121
  0
LINE
  5
522
100
AcDbEntity
  8
0
100
AcDbLine
 62
7
  6
CONTINUOUS
 10
137.1038256392
 20
85.0856128838
 11
137.6830224266
 21
84.6986653752
  0
LINE
  5
523
100
AcDbEntity
  8
0
100
AcDbLine
 62
7
  6
CONTINUOUS
 10
138.1463814473
 20
88.1811929977
 11
137.7988628446
 21
88.4391579808
  0
LINE
  5
524
100
AcDbEntity
  8
0
100
AcDbLine
 62
7
  6
CONTINUOUS
 10
139.6522949504
 20
87.1493330651
 11
139.9998135531
 21
86.891368082
  0
LINE
  5
525
100
AcDbEntity
  8
0
100
AcDbLine
 62
7
  6
CONTINUOUS
 10
138.1463814473
 20
88.3311929977
 11
137.7988628446
 21
88.5891579808
  0
LINE
  5
526
100
AcDbEntity
  8
0
100
AcDbLine
 62
7
  6
CONTINUOUS
 10
129.921774075
 20
90.1159307326
 11
129.4584157171
 21
90.5028782073
  0
LINE
  5
527
100
AcDbEntity
  8
0
100
AcDbLine
 62
7
  6
CONTINUOUS
 10
129.921774075
 20
90.2659307326
 11
129.4584157171
 21
90.6528782073
  0
LINE
  5
528
100
AcDbEntity
  8
0
100
AcDbLine
 62
7
  6
CONTINUOUS
 10
135.2503922077
 20
90.1159307326
 11
134.7870345127
 21
90.5028782073
  0
LINE
  5
529
100
AcDbEntity
  8
0
100
AcDbLine
 62
7
  6
CONTINUOUS
 10
135.2503922077
 20
90.2659307326
 11
134.7870345127
 21
90.6528782073
  0
LINE
  5
52A
100
AcDbEntity
  8
0
100
AcDbLine
 62
7
  6
CONTINUOUS
 10
140.1156526454
 20
90.1159307326
 11
139.6522949504
 21
90.5028782073
  0
LINE
  5
52B
100
AcDbEntity
  8
0
100
AcDbLine
 62
7
  6
CONTINUOUS
 10
140.1156526454
 20
90.2659307326
 11
139.6522949504
 21
90.6528782073
  0
LINE
  5
52C
100
AcDbEntity
  8
0
100
AcDbLine
 62
7
  6
CONTINUOUS
 10
148.3402600177
 20
85.4725604037
 11
148.108581833
 21
85.7305254772
  0
LINE
  5
52D
100
AcDbEntity
  8
0
100
AcDbLine
 62
7
  6
CONTINUOUS
 10
148.3402600177
 20
85.6225604037
 11
148.108581833
 21
85.8805254772
  0
LINE
  5
52E
100
AcDbEntity
  8
0
100
AcDbLine
 62
7
  6
CONTINUOUS
 10
151.3520870239
 20
89.7289832578
 11
150.8887306545
 21
90.2449132241
  0
LINE
  5
52F
100
AcDbEntity
  8
0
100
AcDbLine
 62
7
  6
CONTINUOUS
 10
151.3520870239
 20
89.8789832578
 11
150.8887306545
 21
90.3949132241
  0
LINE
  5
530
100
AcDbEntity
  8
0
100
AcDbLine
 62
7
  6
CONTINUOUS
 10
157.2599032696
 20
85.6015428952
 11
157.6074218723
 21
85.0856128838
  0
LINE
  5
531
100
AcDbEntity
  8
0
100
AcDbLine
 62
7
  6
CONTINUOUS
 10
160.9667701326
 20
87.4072980482
 11
160.6192515299
 21
87.9232280145
  0
LINE
  5
532
100
AcDbEntity
  8
0
100
AcDbLine
 62
7
  6
CONTINUOUS
 10
160.9667701326
 20
87.5572980482
 11
160.6192515299
 21
88.0732280145
  0
LINE
  5
533
100
AcDbEntity
  8
0
100
AcDbLine
 62
7
  6
CONTINUOUS
 10
151.4679274419
 20
87.0203505735
 11
151.2362492572
 21
87.4072980482
  0
LINE
  5
534
100
AcDbEntity
  8
0
100
AcDbLine
 62
7
  6
CONTINUOUS
 10
151.4679274419
 20
87.1703505735
 11
151.2362492572
 21
87.5572980482
  0
LINE
  5
535
100
AcDbEntity
  8
0
100
AcDbLine
 62
7
  6
CONTINUOUS
 10
150.6570498185
 20
89.6000007663
 11
150.8887306545
 21
89.2130532916
  0
LINE
  5
536
100
AcDbEntity
  8
0
100
AcDbLine
 62
7
  6
CONTINUOUS
 10
160.2717329272
 20
87.4072980482
 11
160.5034111119
 21
87.0203505735
  0
LINE
  5
537
100
AcDbEntity
  8
0
100
AcDbLine
 62
7
  6
CONTINUOUS
 10
150.7728902365
 20
87.0203505735
 11
151.0045684212
 21
86.5044204266
  0
LINE
  5
538
100
AcDbEntity
  8
0
100
AcDbLine
 62
7
  6
CONTINUOUS
 10
157.028225085
 20
86.1174729519
 11
157.2599032696
 21
85.6015428952
  0
LINE
  5
539
100
AcDbEntity
  8
0
100
AcDbLine
 62
7
  6
CONTINUOUS
 10
157.954940475
 20
85.6015428952
 11
157.7232622904
 21
86.1174729519
  0
LINE
  5
53A
100
AcDbEntity
  8
0
100
AcDbLine
 62
7
  6
CONTINUOUS
 10
157.954940475
 20
85.7515428952
 11
157.7232622904
 21
86.2674729519
  0
LINE
  5
53B
100
AcDbEntity
  8
0
100
AcDbLine
 62
7
  6
CONTINUOUS
 10
163.0518817488
 20
85.6015428952
 11
163.2835599334
 21
85.0856128838
  0
LINE
  5
53C
100
AcDbEntity
  8
0
100
AcDbLine
 62
7
  6
CONTINUOUS
 10
161.1984483173
 20
86.7623854097
 11
160.9667701326
 21
87.4072980482
  0
LINE
  5
53D
100
AcDbEntity
  8
0
100
AcDbLine
 62
7
  6
CONTINUOUS
 10
161.1984483173
 20
86.9123854097
 11
160.9667701326
 21
87.5572980482
  0
LINE
  5
53E
100
AcDbEntity
  8
0
100
AcDbLine
 62
7
  6
CONTINUOUS
 10
160.5034111119
 20
87.0203505735
 11
160.6192515299
 21
86.6334029181
  0
LINE
  5
53F
100
AcDbEntity
  8
0
100
AcDbLine
 62
7
  6
CONTINUOUS
 10
151.5837678599
 20
86.5044204266
 11
151.4679274419
 21
87.0203505735
  0
LINE
  5
540
100
AcDbEntity
  8
0
100
AcDbLine
 62
7
  6
CONTINUOUS
 10
151.5837678599
 20
86.6544204266
 11
151.4679274419
 21
87.1703505735
  0
LINE
  5
541
100
AcDbEntity
  8
0
100
AcDbLine
 62
7
  6
CONTINUOUS
 10
151.4679274419
 20
89.2130532916
 11
151.3520870239
 21
89.7289832578
  0
LINE
  5
542
100
AcDbEntity
  8
0
100
AcDbLine
 62
7
  6
CONTINUOUS
 10
151.4679274419
 20
89.3630532916
 11
151.3520870239
 21
89.8789832578
  0
LINE
  5
543
100
AcDbEntity
  8
0
100
AcDbLine
 62
7
  6
CONTINUOUS
 10
150.4253716338
 20
90.6528782073
 11
150.4253716338
 21
90.5028782073
  0
LINE
  5
544
100
AcDbEntity
  8
0
100
AcDbLine
 62
7
  6
CONTINUOUS
 10
150.4253716338
 20
88.3311929977
 11
150.4253716338
 21
88.1811929977
  0
LINE
  5
545
100
AcDbEntity
  8
0
100
AcDbLine
 62
7
  6
CONTINUOUS
 10
150.4253716338
 20
85.4935779121
 11
150.4253716338
 21
85.3435779121
  0
LINE
  5
546
100
AcDbEntity
  8
0
100
AcDbLine
 62
7
  6
CONTINUOUS
 10
150.6570498185
 20
88.5891579808
 11
150.6570498185
 21
88.4391579808
  0
LINE
  5
547
100
AcDbEntity
  8
0
100
AcDbLine
 62
7
  6
CONTINUOUS
 10
150.6570498185
 20
85.6225604037
 11
150.6570498185
 21
85.4725604037
  0
LINE
  5
548
100
AcDbEntity
  8
0
100
AcDbLine
 62
7
  6
CONTINUOUS
 10
150.8887306545
 20
90.3949132241
 11
150.8887306545
 21
90.2449132241
  0
LINE
  5
549
100
AcDbEntity
  8
0
100
AcDbLine
 62
7
  6
CONTINUOUS
 10
150.8887306545
 20
89.2130532916
 11
150.8887306545
 21
88.9550879471
  0
LINE
  5
54A
100
AcDbEntity
  8
0
100
AcDbLine
 62
7
  6
CONTINUOUS
 10
150.8887306545
 20
85.8805254772
 11
150.8887306545
 21
85.7305254772
  0
LINE
  5
54B
100
AcDbEntity
  8
0
100
AcDbLine
 62
7
  6
CONTINUOUS
 10
151.0045684212
 20
86.5044204266
 11
151.0045684212
 21
85.9884904603
  0
LINE
  5
54C
100
AcDbEntity
  8
0
100
AcDbLine
 62
7
  6
CONTINUOUS
 10
151.2362492572
 20
87.5572980482
 11
151.2362492572
 21
87.4072980482
  0
LINE
  5
54D
100
AcDbEntity
  8
0
100
AcDbLine
 62
7
  6
CONTINUOUS
 10
151.3520870239
 20
89.8789832578
 11
151.3520870239
 21
89.7289832578
  0
LINE
  5
54E
100
AcDbEntity
  8
0
100
AcDbLine
 62
7
  6
CONTINUOUS
 10
151.4679274419
 20
87.1703505735
 11
151.4679274419
 21
87.0203505735
  0
LINE
  5
54F
100
AcDbEntity
  8
0
100
AcDbLine
 62
7
  6
CONTINUOUS
 10
151.4679274419
 20
88.9550879471
 11
151.4679274419
 21
89.3630532916
  0
LINE
  5
550
100
AcDbEntity
  8
0
100
AcDbLine
 62
7
  6
CONTINUOUS
 10
151.5837678599
 20
85.9884904603
 11
151.5837678599
 21
86.6544204266
  0
LINE
  5
551
100
AcDbEntity
  8
0
100
AcDbLine
 62
7
  6
CONTINUOUS
 10
152.51048325
 20
89.8789832578
 11
152.51048325
 21
88.6971229639
  0
LINE
  5
552
100
AcDbEntity
  8
0
100
AcDbLine
 62
7
  6
CONTINUOUS
 10
153.2055204554
 20
90.7818606988
 11
153.2055204554
 21
90.6318606988
  0
LINE
  5
553
100
AcDbEntity
  8
0
100
AcDbLine
 62
7
  6
CONTINUOUS
 10
153.2055204554
 20
89.6000007663
 11
153.2055204554
 21
84.5696828724
  0
LINE
  5
554
100
AcDbEntity
  8
0
100
AcDbLine
 62
7
  6
CONTINUOUS
 10
153.9005576607
 20
84.5696828724
 11
153.9005576607
 21
90.7818606988
  0
LINE
  5
555
100
AcDbEntity
  8
0
100
AcDbLine
 62
7
  6
CONTINUOUS
 10
154.8272730508
 20
83.9457878326
 11
154.8272730508
 21
83.7957878326
  0
LINE
  5
556
100
AcDbEntity
  8
0
100
AcDbLine
 62
7
  6
CONTINUOUS
 10
155.5223102562
 20
85.3645954205
 11
155.5223102562
 21
85.2145954205
  0
LINE
  5
557
100
AcDbEntity
  8
0
100
AcDbLine
 62
7
  6
CONTINUOUS
 10
156.1015096949
 20
85.3645954205
 11
156.1015096949
 21
85.2145954205
  0
LINE
  5
558
100
AcDbEntity
  8
0
100
AcDbLine
 62
7
  6
CONTINUOUS
 10
157.028225085
 20
90.7818606988
 11
157.028225085
 21
87.2783155567
  0
LINE
  5
559
100
AcDbEntity
  8
0
100
AcDbLine
 62
7
  6
CONTINUOUS
 10
157.028225085
 20
86.2674729519
 11
157.028225085
 21
86.1174729519
  0
LINE
  5
55A
100
AcDbEntity
  8
0
100
AcDbLine
 62
7
  6
CONTINUOUS
 10
157.6074218723
 20
87.9232280145
 11
157.6074218723
 21
89.986948241
  0
LINE
  5
55B
100
AcDbEntity
  8
0
100
AcDbLine
 62
7
  6
CONTINUOUS
 10
157.7232622904
 20
86.2674729519
 11
157.7232622904
 21
86.1174729519
  0
LINE
  5
55C
100
AcDbEntity
  8
0
100
AcDbLine
 62
7
  6
CONTINUOUS
 10
157.954940475
 20
85.7515428952
 11
157.954940475
 21
85.6015428952
  0
LINE
  5
55D
100
AcDbEntity
  8
0
100
AcDbLine
 62
7
  6
CONTINUOUS
 10
158.1866213111
 20
88.4601754892
 11
158.1866213111
 21
88.3101754892
  0
LINE
  5
55E
100
AcDbEntity
  8
0
100
AcDbLine
 62
7
  6
CONTINUOUS
 10
158.3024590777
 20
85.4935779121
 11
158.3024590777
 21
85.3435779121
  0
LINE
  5
55F
100
AcDbEntity
  8
0
100
AcDbLine
 62
7
  6
CONTINUOUS
 10
158.7658180984
 20
88.5891579808
 11
158.7658180984
 21
88.4391579808
  0
LINE
  5
560
100
AcDbEntity
  8
0
100
AcDbLine
 62
7
  6
CONTINUOUS
 10
158.7658180984
 20
85.3645954205
 11
158.7658180984
 21
85.2145954205
  0
LINE
  5
561
100
AcDbEntity
  8
0
100
AcDbLine
 62
7
  6
CONTINUOUS
 10
159.4608553038
 20
88.5891579808
 11
159.4608553038
 21
88.4391579808
  0
LINE
  5
562
100
AcDbEntity
  8
0
100
AcDbLine
 62
7
  6
CONTINUOUS
 10
159.4608553038
 20
85.3645954205
 11
159.4608553038
 21
85.2145954205
  0
LINE
  5
563
100
AcDbEntity
  8
0
100
AcDbLine
 62
7
  6
CONTINUOUS
 10
159.9242143245
 20
85.4935779121
 11
159.9242143245
 21
85.3435779121
  0
LINE
  5
564
100
AcDbEntity
  8
0
100
AcDbLine
 62
7
  6
CONTINUOUS
 10
160.0400520912
 20
88.4601754892
 11
160.0400520912
 21
88.3101754892
  0
LINE
  5
565
100
AcDbEntity
  8
0
100
AcDbLine
 62
7
  6
CONTINUOUS
 10
160.2717329272
 20
85.7515428952
 11
160.2717329272
 21
85.6015428952
  0
LINE
  5
566
100
AcDbEntity
  8
0
100
AcDbLine
 62
7
  6
CONTINUOUS
 10
160.5034111119
 20
86.1384904603
 11
160.5034111119
 21
85.9884904603
  0
LINE
  5
567
100
AcDbEntity
  8
0
100
AcDbLine
 62
7
  6
CONTINUOUS
 10
160.6192515299
 20
88.0732280145
 11
160.6192515299
 21
87.9232280145
  0
LINE
  5
568
100
AcDbEntity
  8
0
100
AcDbLine
 62
7
  6
CONTINUOUS
 10
160.6192515299
 20
86.6334029181
 11
160.6192515299
 21
86.375437935
  0
LINE
  5
569
100
AcDbEntity
  8
0
100
AcDbLine
 62
7
  6
CONTINUOUS
 10
160.9667701326
 20
87.5572980482
 11
160.9667701326
 21
87.4072980482
  0
LINE
  5
56A
100
AcDbEntity
  8
0
100
AcDbLine
 62
7
  6
CONTINUOUS
 10
160.9667701326
 20
89.986948241
 11
160.9667701326
 21
90.7818606988
  0
LINE
  5
56B
100
AcDbEntity
  8
0
100
AcDbLine
 62
7
  6
CONTINUOUS
 10
161.1984483173
 20
86.2464554434
 11
161.1984483173
 21
86.9123854097
  0
LINE
  5
56C
100
AcDbEntity
  8
0
100
AcDbLine
 62
7
  6
CONTINUOUS
 10
162.1251637073
 20
88.8471229639
 11
162.1251637073
 21
88.1811929977
  0
LINE
  5
56D
100
AcDbEntity
  8
0
100
AcDbLine
 62
7
  6
CONTINUOUS
 10
163.0518817488
 20
89.8789832578
 11
163.0518817488
 21
88.6971229639
  0
LINE
  5
56E
100
AcDbEntity
  8
0
100
AcDbLine
 62
7
  6
CONTINUOUS
 10
163.0518817488
 20
88.1811929977
 11
163.0518817488
 21
85.6015428952
  0
LINE
  5
56F
100
AcDbEntity
  8
0
100
AcDbLine
 62
7
  6
CONTINUOUS
 10
163.6310785361
 20
85.8595079687
 11
163.6310785361
 21
88.1811929977
  0
LINE
  5
570
100
AcDbEntity
  8
0
100
AcDbLine
 62
7
  6
CONTINUOUS
 10
163.6310785361
 20
88.6971229639
 11
163.6310785361
 21
89.8789832578
  0
LINE
  5
571
100
AcDbEntity
  8
0
100
AcDbLine
 62
7
  6
CONTINUOUS
 10
137.1038256392
 20
89.8789832578
 11
136.9879852212
 21
89.3630532916
  0
LINE
  5
572
100
AcDbEntity
  8
0
100
AcDbLine
 62
7
  6
CONTINUOUS
 10
137.1038256392
 20
89.7289832578
 11
136.9879852212
 21
89.2130532916
  0
LINE
  5
573
100
AcDbEntity
  8
0
100
AcDbLine
 62
7
  6
CONTINUOUS
 10
129.6900952275
 20
88.9761054555
 11
129.5742554723
 21
88.5891579808
  0
LINE
  5
574
100
AcDbEntity
  8
0
100
AcDbLine
 62
7
  6
CONTINUOUS
 10
129.6900952275
 20
88.8261054555
 11
129.5742554723
 21
88.4391579808
  0
LINE
  5
575
100
AcDbEntity
  8
0
100
AcDbLine
 62
7
  6
CONTINUOUS
 10
130.2692926777
 20
88.3101754892
 11
130.3851324329
 21
88.6971229639
  0
LINE
  5
576
100
AcDbEntity
  8
0
100
AcDbLine
 62
7
  6
CONTINUOUS
 10
135.018714023
 20
88.9761054555
 11
134.902873605
 21
88.5891579808
  0
LINE
  5
577
100
AcDbEntity
  8
0
100
AcDbLine
 62
7
  6
CONTINUOUS
 10
135.018714023
 20
88.8261054555
 11
134.902873605
 21
88.4391579808
  0
LINE
  5
578
100
AcDbEntity
  8
0
100
AcDbLine
 62
7
  6
CONTINUOUS
 10
135.5979108104
 20
88.3101754892
 11
135.7137512284
 21
88.6971229639
  0
LINE
  5
579
100
AcDbEntity
  8
0
100
AcDbLine
 62
7
  6
CONTINUOUS
 10
135.018714023
 20
86.2674729519
 11
134.902873605
 21
85.8805254772
  0
LINE
  5
57A
100
AcDbEntity
  8
0
100
AcDbLine
 62
7
  6
CONTINUOUS
 10
135.018714023
 20
86.1174729519
 11
134.902873605
 21
85.7305254772
  0
LINE
  5
57B
100
AcDbEntity
  8
0
100
AcDbLine
 62
7
  6
CONTINUOUS
 10
135.5979108104
 20
85.6015428952
 11
135.7137512284
 21
85.9884904603
  0
LINE
  5
57C
100
AcDbEntity
  8
0
100
AcDbLine
 62
7
  6
CONTINUOUS
 10
137.6830224266
 20
89.0840704387
 11
137.7988628446
 21
89.4710182747
  0
LINE
  5
57D
100
AcDbEntity
  8
0
100
AcDbLine
 62
7
  6
CONTINUOUS
 10
135.2503922077
 20
87.5362805398
 11
135.018714023
 21
87.6652630314
  0
LINE
  5
57E
100
AcDbEntity
  8
0
100
AcDbLine
 62
7
  6
CONTINUOUS
 10
135.2503922077
 20
87.6862805398
 11
135.1534289261
 21
87.7402630314
  0
LINE
  5
57F
100
AcDbEntity
  8
0
100
AcDbLine
 62
7
  6
CONTINUOUS
 10
137.5671833342
 20
87.6652630314
 11
138.0305410293
 21
87.4072980482
  0
LINE
  5
580
100
AcDbEntity
  8
0
100
AcDbLine
 62
7
  6
CONTINUOUS
 10
140.2314930634
 20
87.6652630314
 11
139.7681340427
 21
87.9232280145
  0
LINE
  5
581
100
AcDbEntity
  8
0
100
AcDbLine
 62
7
  6
CONTINUOUS
 10
140.2314930634
 20
87.8152630314
 11
139.7681340427
 21
88.0732280145
  0
LINE
  5
582
100
AcDbEntity
  8
0
100
AcDbLine
 62
7
  6
CONTINUOUS
 10
148.108581833
 20
84.9566303922
 11
148.5719382024
 21
84.6986653752
  0
LINE
  5
583
100
AcDbEntity
  8
0
100
AcDbLine
 62
7
  6
CONTINUOUS
 10
148.5719382024
 20
85.3435779121
 11
148.3402600177
 21
85.4725604037
  0
LINE
  5
584
100
AcDbEntity
  8
0
100
AcDbLine
 62
7
  6
CONTINUOUS
 10
148.5719382024
 20
85.4935779121
 11
148.3402600177
 21
85.6225604037
  0
LINE
  5
585
100
AcDbEntity
  8
0
100
AcDbLine
 62
7
  6
CONTINUOUS
 10
157.6074218723
 20
85.0856128838
 11
158.1866213111
 21
84.6986653752
  0
LINE
  5
586
100
AcDbEntity
  8
0
100
AcDbLine
 62
7
  6
CONTINUOUS
 10
147.7610632303
 20
85.2145954205
 11
148.108581833
 21
84.9566303922
  0
LINE
  5
587
100
AcDbEntity
  8
0
100
AcDbLine
 62
7
  6
CONTINUOUS
 10
150.4253716338
 20
87.2783155567
 11
150.7728902365
 21
87.0203505735
  0
LINE
  5
588
100
AcDbEntity
  8
0
100
AcDbLine
 62
7
  6
CONTINUOUS
 10
150.3095312158
 20
89.8579657494
 11
150.6570498185
 21
89.6000007663
  0
LINE
  5
589
100
AcDbEntity
  8
0
100
AcDbLine
 62
7
  6
CONTINUOUS
 10
158.3024590777
 20
85.3435779121
 11
157.954940475
 21
85.6015428952
  0
LINE
  5
58A
100
AcDbEntity
  8
0
100
AcDbLine
 62
7
  6
CONTINUOUS
 10
158.3024590777
 20
85.4935779121
 11
157.954940475
 21
85.7515428952
  0
LINE
  5
58B
100
AcDbEntity
  8
0
100
AcDbLine
 62
7
  6
CONTINUOUS
 10
163.2835599334
 20
85.0856128838
 11
163.6310785361
 21
84.8276478781
  0
LINE
  5
58C
100
AcDbEntity
  8
0
100
AcDbLine
 62
7
  6
CONTINUOUS
 10
159.9242143245
 20
87.6652630314
 11
160.2717329272
 21
87.4072980482
  0
LINE
  5
58D
100
AcDbEntity
  8
0
100
AcDbLine
 62
7
  6
CONTINUOUS
 10
164.0944375568
 20
85.2145954205
 11
163.7469189541
 21
85.4725604037
  0
LINE
  5
58E
100
AcDbEntity
  8
0
100
AcDbLine
 62
7
  6
CONTINUOUS
 10
164.0944375568
 20
85.3645954205
 11
163.7469189541
 21
85.6225604037
  0
LINE
  5
58F
100
AcDbEntity
  8
0
100
AcDbLine
 62
7
  6
CONTINUOUS
 10
163.7469189541
 20
85.4725604037
 11
163.6310785361
 21
85.8595079687
  0
LINE
  5
590
100
AcDbEntity
  8
0
100
AcDbLine
 62
7
  6
CONTINUOUS
 10
163.7469189541
 20
85.6225604037
 11
163.6310785361
 21
86.0095079687
  0
LINE
  5
591
100
AcDbEntity
  8
0
100
AcDbLine
 62
7
  6
CONTINUOUS
 10
163.7469189541
 20
85.6225604037
 11
163.7469189541
 21
85.4725604037
  0
LINE
  5
592
100
AcDbEntity
  8
0
100
AcDbLine
 62
7
  6
CONTINUOUS
 10
164.0944375568
 20
85.3645954205
 11
164.0944375568
 21
85.2145954205
  0
LINE
  5
593
100
AcDbEntity
  8
0
100
AcDbLine
 62
7
  6
CONTINUOUS
 10
164.6736343442
 20
84.5696828724
 11
164.6736343442
 21
85.2356128838
  0
LINE
  5
594
100
AcDbEntity
  8
0
100
AcDbLine
 62
7
  6
CONTINUOUS
 10
164.9053125289
 20
88.1811929977
 11
164.9053125289
 21
88.8471229639
  0
LINE
  5
595
100
AcDbEntity
  8
RUNDUNGEN
100
AcDbLine
 62
7
  6
CONTINUOUS
 10
176.6787718023
 20
195.4822306353
 11
176.6787718023
 21
103.9545547013
  0
LINE
  5
596
100
AcDbEntity
  8
0
100
AcDbLine
 62
7
  6
CONTINUOUS
 10
147.6452228123
 20
89.8789832578
 11
147.5293823943
 21
89.3630532916
  0
LINE
  5
597
100
AcDbEntity
  8
0
100
AcDbLine
 62
7
  6
CONTINUOUS
 10
147.6452228123
 20
89.7289832578
 11
147.5293823943
 21
89.2130532916
  0
LINE
  5
598
100
AcDbEntity
  8
0
100
AcDbLine
 62
7
  6
CONTINUOUS
 10
151.3520870239
 20
88.4391579808
 11
151.4679274419
 21
88.9550879471
  0
LINE
  5
599
100
AcDbEntity
  8
0
100
AcDbLine
 62
7
  6
CONTINUOUS
 10
151.4679274419
 20
85.6015428952
 11
151.5837678599
 21
85.9884904603
  0
LINE
  5
59A
100
AcDbEntity
  8
0
100
AcDbLine
 62
7
  6
CONTINUOUS
 10
134.3236768177
 20
87.2783155567
 11
134.6711954204
 21
87.1493330651
  0
LINE
  5
59B
100
AcDbEntity
  8
0
100
AcDbLine
 62
7
  6
CONTINUOUS
 10
128.9950580221
 20
89.986948241
 11
129.3425766248
 21
89.8579657494
  0
LINE
  5
59C
100
AcDbEntity
  8
0
100
AcDbLine
 62
7
  6
CONTINUOUS
 10
138.49390005
 20
88.0522105061
 11
138.1463814473
 21
88.1811929977
  0
LINE
  5
59D
100
AcDbEntity
  8
0
100
AcDbLine
 62
7
  6
CONTINUOUS
 10
138.49390005
 20
88.2022105061
 11
138.1463814473
 21
88.3311929977
  0
LINE
  5
59E
100
AcDbEntity
  8
0
100
AcDbLine
 62
7
  6
CONTINUOUS
 10
134.3236768177
 20
89.8579657494
 11
134.6711954204
 21
89.7289832578
  0
LINE
  5
59F
100
AcDbEntity
  8
0
100
AcDbLine
 62
7
  6
CONTINUOUS
 10
151.2362492572
 20
87.4072980482
 11
150.6570498185
 21
87.6652630314
  0
LINE
  5
5A0
100
AcDbEntity
  8
0
100
AcDbLine
 62
7
  6
CONTINUOUS
 10
151.2362492572
 20
87.5572980482
 11
150.7741939294
 21
87.7630891573
  0
LINE
  5
5A1
100
AcDbEntity
  8
0
100
AcDbLine
 62
7
  6
CONTINUOUS
 10
150.8887306545
 20
90.2449132241
 11
150.4253716338
 21
90.5028782073
  0
LINE
  5
5A2
100
AcDbEntity
  8
0
100
AcDbLine
 62
7
  6
CONTINUOUS
 10
150.8887306545
 20
90.3949132241
 11
150.4253716338
 21
90.6528782073
  0
LINE
  5
5A3
100
AcDbEntity
  8
0
100
AcDbLine
 62
7
  6
CONTINUOUS
 10
160.6192515299
 20
87.9232280145
 11
160.0400520912
 21
88.3101754892
  0
LINE
  5
5A4
100
AcDbEntity
  8
0
100
AcDbLine
 62
7
  6
CONTINUOUS
 10
160.6192515299
 20
88.0732280145
 11
160.0400520912
 21
88.4601754892
  0
LINE
  5
5A5
100
AcDbEntity
  8
BEZUGSACHSEN
100
AcDbLine
 62
7
  6
CONTINUOUS
 10
177.3473217477
 20
162.7183357558
 11
177.3473217477
 21
136.7183357558
  0
LINE
  5
5A6
100
AcDbEntity
  8
RUNDUNGEN
100
AcDbLine
 62
7
  6
CONTINUOUS
 10
173.2978156583
 20
82.3718187802
 11
176.6418542594
 21
103.4852475633
  0
LINE
  5
5A7
100
AcDbEntity
  8
0
100
AcDbLine
 62
7
  6
CONTINUOUS
 10
160.6192515299
 20
86.525437935
 11
160.5034111119
 21
86.1384904603
  0
LINE
  5
5A8
100
AcDbEntity
  8
0
100
AcDbLine
 62
7
  6
CONTINUOUS
 10
160.6192515299
 20
86.375437935
 11
160.5034111119
 21
85.9884904603
  0
LINE
  5
5A9
100
AcDbEntity
  8
0
100
AcDbLine
 62
7
  6
CONTINUOUS
 10
160.9667701326
 20
85.6015428952
 11
161.1984483173
 21
86.2464554434
  0
LINE
  5
5AA
100
AcDbEntity
  8
0
100
AcDbLine
 62
7
  6
CONTINUOUS
 10
140.6948507585
 20
85.4725604037
 11
140.9265302688
 21
85.9884904603
  0
LINE
  5
5AB
100
AcDbEntity
  8
0
100
AcDbLine
 62
7
  6
CONTINUOUS
 10
151.0045684212
 20
86.1384904603
 11
150.8887306545
 21
85.8805254772
  0
LINE
  5
5AC
100
AcDbEntity
  8
0
100
AcDbLine
 62
7
  6
CONTINUOUS
 10
151.0045684212
 20
85.9884904603
 11
150.8887306545
 21
85.7305254772
  0
LINE
  5
5AD
100
AcDbEntity
  8
0
100
AcDbLine
 62
7
  6
CONTINUOUS
 10
150.8887306545
 20
89.1050879471
 11
150.6570498185
 21
88.5891579808
  0
LINE
  5
5AE
100
AcDbEntity
  8
0
100
AcDbLine
 62
7
  6
CONTINUOUS
 10
150.8887306545
 20
88.9550879471
 11
150.6570498185
 21
88.4391579808
  0
LINE
  5
5AF
100
AcDbEntity
  8
0
100
AcDbLine
 62
7
  6
CONTINUOUS
 10
129.921774075
 20
87.794245523
 11
130.2692926777
 21
88.3101754892
  0
LINE
  5
5B0
100
AcDbEntity
  8
0
100
AcDbLine
 62
7
  6
CONTINUOUS
 10
137.6830224266
 20
84.6986653752
 11
138.2622205396
 21
84.5696828724
  0
LINE
  5
5B1
100
AcDbEntity
  8
0
100
AcDbLine
 62
7
  6
CONTINUOUS
 10
138.2622205396
 20
85.3435779121
 11
137.7988628446
 21
85.4725604037
  0
LINE
  5
5B2
100
AcDbEntity
  8
0
100
AcDbLine
 62
7
  6
CONTINUOUS
 10
138.2622205396
 20
85.4935779121
 11
137.7988628446
 21
85.6225604037
  0
LINE
  5
5B3
100
AcDbEntity
  8
0
100
AcDbLine
 62
7
  6
CONTINUOUS
 10
138.0305410293
 20
87.4072980482
 11
138.49390005
 21
87.2783155567
  0
LINE
  5
5B4
100
AcDbEntity
  8
0
100
AcDbLine
 62
7
  6
CONTINUOUS
 10
139.1889372553
 20
87.2783155567
 11
139.6522949504
 21
87.1493330651
  0
LINE
  5
5B5
100
AcDbEntity
  8
0
100
AcDbLine
 62
7
  6
CONTINUOUS
 10
148.5719382024
 20
84.6986653752
 11
149.0352972231
 21
84.5696828724
  0
LINE
  5
5B6
100
AcDbEntity
  8
0
100
AcDbLine
 62
7
  6
CONTINUOUS
 10
158.7658180984
 20
85.2145954205
 11
158.3024590777
 21
85.3435779121
  0
LINE
  5
5B7
100
AcDbEntity
  8
0
100
AcDbLine
 62
7
  6
CONTINUOUS
 10
158.7658180984
 20
85.3645954205
 11
158.3024590777
 21
85.4935779121
  0
LINE
  5
5B8
100
AcDbEntity
  8
0
100
AcDbLine
 62
7
  6
CONTINUOUS
 10
139.1889372553
 20
89.8579657494
 11
139.536455858
 21
89.7289832578
  0
LINE
  5
5B9
100
AcDbEntity
  8
0
100
AcDbLine
 62
7
  6
CONTINUOUS
 10
163.6310785361
 20
84.8276478781
 11
163.9785971388
 21
84.6986653752
  0
LINE
  5
5BA
100
AcDbEntity
  8
RUNDUNGEN
100
AcDbLine
 62
7
  6
CONTINUOUS
 10
176.6418542436
 20
195.9514240483
 11
173.2978156583
 21
217.0648527314
  0
LINE
  5
5BB
100
AcDbEntity
  8
0
100
AcDbLine
 62
7
  6
CONTINUOUS
 10
199.6687718023
 20
126.2183357558
 11
199.6687718023
 21
125.7183357558
  0
LINE
  5
5BC
100
AcDbEntity
  8
0
100
AcDbLine
 62
7
  6
CONTINUOUS
 10
155.5223102562
 20
85.3645954205
 11
154.8272730508
 21
83.9457878326
  0
LINE
  5
5BD
100
AcDbEntity
  8
0
100
AcDbLine
 62
7
  6
CONTINUOUS
 10
155.5223102562
 20
85.2145954205
 11
154.8272730508
 21
83.7957878326
  0
LINE
  5
5BE
100
AcDbEntity
  8
0
100
AcDbLine
 62
7
  6
CONTINUOUS
 10
155.4064724895
 20
83.7957878326
 11
156.1015096949
 21
85.2145954205
  0
LINE
  5
5BF
100
AcDbEntity
  8
0
100
AcDbLine
 62
7
  6
CONTINUOUS
 10
140.2314930634
 20
86.2674729519
 11
139.9998135531
 21
85.8805254772
  0
LINE
  5
5C0
100
AcDbEntity
  8
0
100
AcDbLine
 62
7
  6
CONTINUOUS
 10
140.2314930634
 20
86.1174729519
 11
139.9998135531
 21
85.7305254772
  0
LINE
  5
5C1
100
AcDbEntity
  8
0
100
AcDbLine
 62
7
  6
CONTINUOUS
 10
148.108581833
 20
89.2130532916
 11
148.3402600177
 21
89.6000007663
  0
LINE
  5
5C2
100
AcDbEntity
  8
0
100
AcDbLine
 62
7
  6
CONTINUOUS
 10
151.1204088392
 20
88.0522105061
 11
151.3520870239
 21
88.4391579808
  0
LINE
  5
5C3
100
AcDbEntity
  8
0
100
AcDbLine
 62
7
  6
CONTINUOUS
 10
151.2362492572
 20
85.2145954205
 11
151.4679274419
 21
85.6015428952
  0
LINE
  5
5C4
100
AcDbEntity
  8
0
100
AcDbLine
 62
7
  6
CONTINUOUS
 10
135.2503922077
 20
87.794245523
 11
135.5979108104
 21
88.3101754892
  0
LINE
  5
5C5
100
AcDbEntity
  8
0
100
AcDbLine
 62
7
  6
CONTINUOUS
 10
135.2503922077
 20
85.0856128838
 11
135.5979108104
 21
85.6015428952
  0
LINE
  5
5C6
100
AcDbEntity
  8
RUNDUNGEN
100
AcDbLine
 62
7
  6
CONTINUOUS
 10
134.8919752379
 20
69.7183357558
 11
158.4824905493
 21
69.7183357558
  0
LINE
  5
5C7
100
AcDbEntity
  8
RUNDUNGEN
100
AcDbLine
 62
7
  6
CONTINUOUS
 10
409.8750530553
 20
69.7183357558
 11
433.4655683667
 21
69.7183357558
  0
LINE
  5
5C8
100
AcDbEntity
  8
0
100
AcDbLine
 62
7
  6
CONTINUOUS
 10
163.9785971388
 20
84.6986653752
 11
164.6736343442
 21
84.5696828724
  0
LINE
  5
5C9
100
AcDbEntity
  8
0
100
AcDbLine
 62
7
  6
CONTINUOUS
 10
149.7303344284
 20
87.4072980482
 11
150.4253716338
 21
87.2783155567
  0
LINE
  5
5CA
100
AcDbEntity
  8
0
100
AcDbLine
 62
7
  6
CONTINUOUS
 10
149.1511376411
 20
85.2145954205
 11
148.5719382024
 21
85.3435779121
  0
LINE
  5
5CB
100
AcDbEntity
  8
0
100
AcDbLine
 62
7
  6
CONTINUOUS
 10
149.1511376411
 20
85.3645954205
 11
148.5719382024
 21
85.4935779121
  0
LINE
  5
5CC
100
AcDbEntity
  8
0
100
AcDbLine
 62
7
  6
CONTINUOUS
 10
139.7681340427
 20
87.9232280145
 11
139.1889372553
 21
88.0522105061
  0
LINE
  5
5CD
100
AcDbEntity
  8
0
100
AcDbLine
 62
7
  6
CONTINUOUS
 10
139.7681340427
 20
88.0732280145
 11
139.1889372553
 21
88.2022105061
  0
LINE
  5
5CE
100
AcDbEntity
  8
0
100
AcDbLine
 62
7
  6
CONTINUOUS
 10
129.4584157171
 20
90.5028782073
 11
128.8792182669
 21
90.6318606988
  0
LINE
  5
5CF
100
AcDbEntity
  8
0
100
AcDbLine
 62
7
  6
CONTINUOUS
 10
129.4584157171
 20
90.6528782073
 11
128.8792182669
 21
90.7818606988
  0
LINE
  5
5D0
100
AcDbEntity
  8
0
100
AcDbLine
 62
7
  6
CONTINUOUS
 10
158.1866213111
 20
84.6986653752
 11
158.7658180984
 21
84.5696828724
  0
LINE
  5
5D1
100
AcDbEntity
  8
0
100
AcDbLine
 62
7
  6
CONTINUOUS
 10
134.7870345127
 20
90.5028782073
 11
134.2078363996
 21
90.6318606988
  0
LINE
  5
5D2
100
AcDbEntity
  8
0
100
AcDbLine
 62
7
  6
CONTINUOUS
 10
134.7870345127
 20
90.6528782073
 11
134.2078363996
 21
90.7818606988
  0
LINE
  5
5D3
100
AcDbEntity
  8
0
100
AcDbLine
 62
7
  6
CONTINUOUS
 10
139.6522949504
 20
90.5028782073
 11
139.0730968373
 21
90.6318606988
  0
LINE
  5
5D4
100
AcDbEntity
  8
0
100
AcDbLine
 62
7
  6
CONTINUOUS
 10
139.6522949504
 20
90.6528782073
 11
139.0730968373
 21
90.7818606988
  0
LINE
  5
5D5
100
AcDbEntity
  8
0
100
AcDbLine
 62
7
  6
CONTINUOUS
 10
164.6736343442
 20
85.0856128838
 11
164.0944375568
 21
85.2145954205
  0
LINE
  5
5D6
100
AcDbEntity
  8
0
100
AcDbLine
 62
7
  6
CONTINUOUS
 10
164.6736343442
 20
85.2356128838
 11
164.0944375568
 21
85.3645954205
  0
LINE
  5
5D7
100
AcDbEntity
  8
0
100
AcDbLine
 62
7
  6
CONTINUOUS
 10
149.7303344284
 20
89.986948241
 11
150.3095312158
 21
89.8579657494
  0
LINE
  5
5D8
100
AcDbEntity
  8
0
100
AcDbLine
 62
7
  6
CONTINUOUS
 10
160.0400520912
 20
88.3101754892
 11
159.4608553038
 21
88.4391579808
  0
LINE
  5
5D9
100
AcDbEntity
  8
0
100
AcDbLine
 62
7
  6
CONTINUOUS
 10
160.0400520912
 20
88.4601754892
 11
159.4608553038
 21
88.5891579808
  0
LINE
  5
5DA
100
AcDbEntity
  8
0
100
AcDbLine
 62
7
  6
CONTINUOUS
 10
159.4608553038
 20
87.794245523
 11
159.9242143245
 21
87.6652630314
  0
LINE
  5
5DB
100
AcDbEntity
  8
0
100
AcDbLine
 62
7
  6
CONTINUOUS
 10
205.6687718023
 20
126.2183357558
 11
205.6687718023
 21
125.7183357558
  0
LINE
  5
5DC
100
AcDbEntity
  8
0
100
AcDbLine
 62
7
  6
CONTINUOUS
 10
206.9187720407
 20
126.2183357558
 11
206.9187720407
 21
125.7183357558
  0
LINE
  5
5DD
100
AcDbEntity
  8
0
100
AcDbLine
 62
7
  6
CONTINUOUS
 10
207.5287718023
 20
173.2183357558
 11
207.5287718023
 21
173.7183357558
  0
LINE
  5
5DE
100
AcDbEntity
  8
0
100
AcDbLine
 62
7
  6
CONTINUOUS
 10
207.9187718023
 20
126.2183357558
 11
207.9187718023
 21
125.7183357558
  0
LINE
  5
5DF
100
AcDbEntity
  8
0
100
AcDbLine
 62
7
  6
CONTINUOUS
 10
208.6687718023
 20
126.2183357558
 11
208.6687718023
 21
125.7183357558
  0
LINE
  5
5E0
100
AcDbEntity
  8
0
100
AcDbLine
 62
7
  6
CONTINUOUS
 10
208.9187715639
 20
126.2183357558
 11
208.9187715639
 21
125.7183357558
  0
LINE
  5
5E1
100
AcDbEntity
  8
0
100
AcDbLine
 62
7
  6
CONTINUOUS
 10
209.1687720407
 20
126.2183357558
 11
209.1687720407
 21
125.7183357558
  0
LINE
  5
5E2
100
AcDbEntity
  8
0
100
AcDbLine
 62
7
  6
CONTINUOUS
 10
211.1687715639
 20
126.2183357558
 11
211.1687715639
 21
125.7183357558
  0
LINE
  5
5E3
100
AcDbEntity
  8
0
100
AcDbLine
 62
7
  6
CONTINUOUS
 10
212.6687722792
 20
126.2183357558
 11
212.6687722792
 21
125.7183357558
  0
LINE
  5
5E4
100
AcDbEntity
  8
0
100
AcDbLine
 62
7
  6
CONTINUOUS
 10
212.9187713255
 20
126.2183357558
 11
212.9187713255
 21
125.7183357558
  0
LINE
  5
5E5
100
AcDbEntity
  8
0
100
AcDbLine
 62
7
  6
CONTINUOUS
 10
213.4187722792
 20
126.2183357558
 11
213.4187722792
 21
125.7183357558
  0
LINE
  5
5E6
100
AcDbEntity
  8
0
100
AcDbLine
 62
7
  6
CONTINUOUS
 10
213.7687718023
 20
173.2183357558
 11
213.7687718023
 21
173.7183357558
  0
LINE
  5
5E7
100
AcDbEntity
  8
0
100
AcDbLine
 62
7
  6
CONTINUOUS
 10
214.1687722792
 20
126.2183357558
 11
214.1687722792
 21
125.7183357558
  0
LINE
  5
5E8
100
AcDbEntity
  8
0
100
AcDbLine
 62
7
  6
CONTINUOUS
 10
215.1687713255
 20
126.2183357558
 11
215.1687713255
 21
125.7183357558
  0
LINE
  5
5E9
100
AcDbEntity
  8
0
100
AcDbLine
 62
7
  6
CONTINUOUS
 10
216.1687718023
 20
126.2183357558
 11
216.1687718023
 21
125.7183357558
  0
LINE
  5
5EA
100
AcDbEntity
  8
0
100
AcDbLine
 62
7
  6
CONTINUOUS
 10
217.1687722792
 20
126.2183357558
 11
217.1687722792
 21
125.7183357558
  0
LINE
  5
5EB
100
AcDbEntity
  8
0
100
AcDbLine
 62
7
  6
CONTINUOUS
 10
217.1787718023
 20
173.2183357558
 11
217.1787718023
 21
173.7183357558
  0
LINE
  5
5EC
100
AcDbEntity
  8
0
100
AcDbLine
 62
7
  6
CONTINUOUS
 10
217.9187722792
 20
126.2183357558
 11
217.9187722792
 21
125.7183357558
  0
LINE
  5
5ED
100
AcDbEntity
  8
0
100
AcDbLine
 62
7
  6
CONTINUOUS
 10
160.5034111119
 20
86.1384904603
 11
160.2717329272
 21
85.7515428952
  0
LINE
  5
5EE
100
AcDbEntity
  8
0
100
AcDbLine
 62
7
  6
CONTINUOUS
 10
160.5034111119
 20
85.9884904603
 11
160.2717329272
 21
85.6015428952
  0
LINE
  5
5EF
100
AcDbEntity
  8
0
100
AcDbLine
 62
7
  6
CONTINUOUS
 10
160.6192515299
 20
85.0856128838
 11
160.9667701326
 21
85.6015428952
  0
LINE
  5
5F0
100
AcDbEntity
  8
0
100
AcDbLine
 62
7
  6
CONTINUOUS
 10
153.2055204554
 20
90.7818606988
 11
152.51048325
 21
89.8789832578
  0
LINE
  5
5F1
100
AcDbEntity
  8
0
100
AcDbLine
 62
7
  6
CONTINUOUS
 10
153.2055204554
 20
90.6318606988
 11
152.51048325
 21
89.7289832578
  0
LINE
  5
5F2
100
AcDbEntity
  8
0
100
AcDbLine
 62
7
  6
CONTINUOUS
 10
152.51048325
 20
88.6971229639
 11
153.2055204554
 21
89.6000007663
  0
LINE
  5
5F3
100
AcDbEntity
  8
0
100
AcDbLine
 62
7
  6
CONTINUOUS
 10
129.5742554723
 20
88.5891579808
 11
129.3425766248
 21
88.3311929977
  0
LINE
  5
5F4
100
AcDbEntity
  8
0
100
AcDbLine
 62
7
  6
CONTINUOUS
 10
129.5742554723
 20
88.4391579808
 11
129.3425766248
 21
88.1811929977
  0
LINE
  5
5F5
100
AcDbEntity
  8
0
100
AcDbLine
 62
7
  6
CONTINUOUS
 10
134.902873605
 20
88.5891579808
 11
134.6711954204
 21
88.3311929977
  0
LINE
  5
5F6
100
AcDbEntity
  8
0
100
AcDbLine
 62
7
  6
CONTINUOUS
 10
134.902873605
 20
88.4391579808
 11
134.6711954204
 21
88.1811929977
  0
LINE
  5
5F7
100
AcDbEntity
  8
0
100
AcDbLine
 62
7
  6
CONTINUOUS
 10
137.5671833342
 20
90.3949132241
 11
137.1038256392
 21
89.8789832578
  0
LINE
  5
5F8
100
AcDbEntity
  8
0
100
AcDbLine
 62
7
  6
CONTINUOUS
 10
137.5671833342
 20
90.2449132241
 11
137.1038256392
 21
89.7289832578
  0
LINE
  5
5F9
100
AcDbEntity
  8
0
100
AcDbLine
 62
7
  6
CONTINUOUS
 10
134.902873605
 20
85.8805254772
 11
134.6711954204
 21
85.6225604037
  0
LINE
  5
5FA
100
AcDbEntity
  8
0
100
AcDbLine
 62
7
  6
CONTINUOUS
 10
134.902873605
 20
85.7305254772
 11
134.6711954204
 21
85.4725604037
  0
LINE
  5
5FB
100
AcDbEntity
  8
0
100
AcDbLine
 62
7
  6
CONTINUOUS
 10
150.4253716338
 20
90.5028782073
 11
149.6144940104
 21
90.6318606988
  0
LINE
  5
5FC
100
AcDbEntity
  8
0
100
AcDbLine
 62
7
  6
CONTINUOUS
 10
150.4253716338
 20
90.6528782073
 11
149.6144940104
 21
90.7818606988
  0
LINE
  5
5FD
100
AcDbEntity
  8
0
100
AcDbLine
 62
7
  6
CONTINUOUS
 10
218.4187718023
 20
126.2183357558
 11
218.4187718023
 21
125.7183357558
  0
LINE
  5
5FE
100
AcDbEntity
  8
0
100
AcDbLine
 62
7
  6
CONTINUOUS
 10
218.6687722792
 20
126.2183357558
 11
218.6687722792
 21
125.7183357558
  0
LINE
  5
5FF
100
AcDbEntity
  8
0
100
AcDbLine
 62
7
  6
CONTINUOUS
 10
220.1687722792
 20
126.2183357558
 11
220.1687722792
 21
125.7183357558
  0
LINE
  5
600
100
AcDbEntity
  8
0
100
AcDbLine
 62
7
  6
CONTINUOUS
 10
222.1687718023
 20
126.2183357558
 11
222.1687718023
 21
125.7183357558
  0
LINE
  5
601
100
AcDbEntity
  8
0
100
AcDbLine
 62
7
  6
CONTINUOUS
 10
223.4187718023
 20
173.2183357558
 11
223.4187718023
 21
173.7183357558
  0
LINE
  5
602
100
AcDbEntity
  8
0
100
AcDbLine
 62
7
  6
CONTINUOUS
 10
228.1687718023
 20
126.2183357558
 11
228.1687718023
 21
125.7183357558
  0
LINE
  5
603
100
AcDbEntity
  8
0
100
AcDbLine
 62
7
  6
CONTINUOUS
 10
229.418772756
 20
126.2183357558
 11
229.418772756
 21
125.7183357558
  0
LINE
  5
604
100
AcDbEntity
  8
0
100
AcDbLine
 62
7
  6
CONTINUOUS
 10
230.4187718023
 20
126.2183357558
 11
230.4187718023
 21
125.7183357558
  0
LINE
  5
605
100
AcDbEntity
  8
0
100
AcDbLine
 62
7
  6
CONTINUOUS
 10
231.4187708487
 20
126.2183357558
 11
231.4187708487
 21
125.7183357558
  0
LINE
  5
606
100
AcDbEntity
  8
0
100
AcDbLine
 62
7
  6
CONTINUOUS
 10
140.2314930634
 20
84.9566303922
 11
140.6948507585
 21
85.4725604037
  0
LINE
  5
607
100
AcDbEntity
  8
0
100
AcDbLine
 62
7
  6
CONTINUOUS
 10
148.108581833
 20
90.3949132241
 11
147.6452228123
 21
89.8789832578
  0
LINE
  5
608
100
AcDbEntity
  8
0
100
AcDbLine
 62
7
  6
CONTINUOUS
 10
148.108581833
 20
90.2449132241
 11
147.6452228123
 21
89.7289832578
  0
LINE
  5
609
100
AcDbEntity
  8
0
100
AcDbLine
 62
7
  6
CONTINUOUS
 10
150.6570498185
 20
88.5891579808
 11
150.4253716338
 21
88.3311929977
  0
LINE
  5
60A
100
AcDbEntity
  8
0
100
AcDbLine
 62
7
  6
CONTINUOUS
 10
150.6570498185
 20
88.4391579808
 11
150.4253716338
 21
88.1811929977
  0
LINE
  5
60B
100
AcDbEntity
  8
0
100
AcDbLine
 62
7
  6
CONTINUOUS
 10
150.8887306545
 20
85.8805254772
 11
150.6570498185
 21
85.6225604037
  0
LINE
  5
60C
100
AcDbEntity
  8
0
100
AcDbLine
 62
7
  6
CONTINUOUS
 10
150.8887306545
 20
85.7305254772
 11
150.6570498185
 21
85.4725604037
  0
LINE
  5
60D
100
AcDbEntity
  8
0
100
AcDbLine
 62
7
  6
CONTINUOUS
 10
154.8272730508
 20
83.7957878326
 11
155.4064724895
 21
83.7957878326
  0
LINE
  5
60E
100
AcDbEntity
  8
0
100
AcDbLine
 62
7
  6
CONTINUOUS
 10
122.3922044053
 20
84.5696828724
 11
123.3189206239
 21
84.5696828724
  0
LINE
  5
60F
100
AcDbEntity
  8
0
100
AcDbLine
 62
7
  6
CONTINUOUS
 10
126.0990694454
 20
84.5696828724
 11
126.7941066508
 21
84.5696828724
  0
LINE
  5
610
100
AcDbEntity
  8
0
100
AcDbLine
 62
7
  6
CONTINUOUS
 10
129.6900952275
 20
84.5696828724
 11
130.5009715252
 21
84.5696828724
  0
LINE
  5
611
100
AcDbEntity
  8
0
100
AcDbLine
 62
7
  6
CONTINUOUS
 10
131.427688241
 20
84.5696828724
 11
134.2078363996
 21
84.5696828724
  0
LINE
  5
612
100
AcDbEntity
  8
0
100
AcDbLine
 62
7
  6
CONTINUOUS
 10
138.2622205396
 20
84.5696828724
 11
139.1889372553
 21
84.5696828724
  0
LINE
  5
613
100
AcDbEntity
  8
0
100
AcDbLine
 62
7
  6
CONTINUOUS
 10
149.0352972231
 20
84.5696828724
 11
149.9620126131
 21
84.5696828724
  0
LINE
  5
614
100
AcDbEntity
  8
0
100
AcDbLine
 62
7
  6
CONTINUOUS
 10
153.2055204554
 20
84.5696828724
 11
153.9005576607
 21
84.5696828724
  0
LINE
  5
615
100
AcDbEntity
  8
0
100
AcDbLine
 62
7
  6
CONTINUOUS
 10
158.7658180984
 20
84.5696828724
 11
159.4608553038
 21
84.5696828724
  0
LINE
  5
616
100
AcDbEntity
  8
0
100
AcDbLine
 62
7
  6
CONTINUOUS
 10
159.4608553038
 20
85.2145954205
 11
158.7658180984
 21
85.2145954205
  0
LINE
  5
617
100
AcDbEntity
  8
0
100
AcDbLine
 62
7
  6
CONTINUOUS
 10
156.1015096949
 20
85.2145954205
 11
155.5223102562
 21
85.2145954205
  0
LINE
  5
618
100
AcDbEntity
  8
0
100
AcDbLine
 62
7
  6
CONTINUOUS
 10
149.8461748465
 20
85.2145954205
 11
149.1511376411
 21
85.2145954205
  0
LINE
  5
619
100
AcDbEntity
  8
0
100
AcDbLine
 62
7
  6
CONTINUOUS
 10
139.1889372553
 20
85.3435779121
 11
138.2622205396
 21
85.3435779121
  0
LINE
  5
61A
100
AcDbEntity
  8
0
100
AcDbLine
 62
7
  6
CONTINUOUS
 10
134.3236768177
 20
85.3435779121
 11
132.1227247835
 21
85.3435779121
  0
LINE
  5
61B
100
AcDbEntity
  8
0
100
AcDbLine
 62
7
  6
CONTINUOUS
 10
159.4608553038
 20
85.3645954205
 11
158.7658180984
 21
85.3645954205
  0
LINE
  5
61C
100
AcDbEntity
  8
0
100
AcDbLine
 62
7
  6
CONTINUOUS
 10
156.1015096949
 20
85.3645954205
 11
155.5223102562
 21
85.3645954205
  0
LINE
  5
61D
100
AcDbEntity
  8
0
100
AcDbLine
 62
7
  6
CONTINUOUS
 10
149.8461748465
 20
85.3645954205
 11
149.1511376411
 21
85.3645954205
  0
LINE
  5
61E
100
AcDbEntity
  8
0
100
AcDbLine
 62
7
  6
CONTINUOUS
 10
139.1889372553
 20
85.4935779121
 11
138.2622205396
 21
85.4935779121
  0
LINE
  5
61F
100
AcDbEntity
  8
0
100
AcDbLine
 62
7
  6
CONTINUOUS
 10
134.3236768177
 20
85.4935779121
 11
132.1227247835
 21
85.4935779121
  0
LINE
  5
620
100
AcDbEntity
  8
0
100
AcDbLine
 62
7
  6
CONTINUOUS
 10
147.992741415
 20
85.9884904603
 11
147.4135446276
 21
85.9884904603
  0
LINE
  5
621
100
AcDbEntity
  8
0
100
AcDbLine
 62
7
  6
CONTINUOUS
 10
157.7232622904
 20
86.1174729519
 11
157.028225085
 21
86.1174729519
  0
LINE
  5
622
100
AcDbEntity
  8
0
100
AcDbLine
 62
7
  6
CONTINUOUS
 10
147.992741415
 20
86.1384904603
 11
147.4135446276
 21
86.1384904603
  0
LINE
  5
623
100
AcDbEntity
  8
0
100
AcDbLine
 62
7
  6
CONTINUOUS
 10
137.3355038239
 20
86.2464554434
 11
136.6404666185
 21
86.2464554434
  0
LINE
  5
624
100
AcDbEntity
  8
0
100
AcDbLine
 62
7
  6
CONTINUOUS
 10
157.7232622904
 20
86.2674729519
 11
157.028225085
 21
86.2674729519
  0
LINE
  5
625
100
AcDbEntity
  8
0
100
AcDbLine
 62
7
  6
CONTINUOUS
 10
137.3355038239
 20
86.3964554434
 11
136.6404666185
 21
86.3964554434
  0
LINE
  5
626
100
AcDbEntity
  8
0
100
AcDbLine
 62
7
  6
CONTINUOUS
 10
126.7941066508
 20
87.2783155567
 11
128.7633785118
 21
87.2783155567
  0
LINE
  5
627
100
AcDbEntity
  8
0
100
AcDbLine
 62
7
  6
CONTINUOUS
 10
132.1227247835
 20
87.2783155567
 11
134.3236768177
 21
87.2783155567
  0
LINE
  5
628
100
AcDbEntity
  8
0
100
AcDbLine
 62
7
  6
CONTINUOUS
 10
138.49390005
 20
87.2783155567
 11
139.1889372553
 21
87.2783155567
  0
LINE
  5
629
100
AcDbEntity
  8
0
100
AcDbLine
 62
7
  6
CONTINUOUS
 10
157.028225085
 20
87.2783155567
 11
157.8391027084
 21
87.2783155567
  0
LINE
  5
62A
100
AcDbEntity
  8
0
100
AcDbLine
 62
7
  6
CONTINUOUS
 10
149.2669754077
 20
87.4072980482
 11
149.7303344284
 21
87.4072980482
  0
LINE
  5
62B
100
AcDbEntity
  8
0
100
AcDbLine
 62
7
  6
CONTINUOUS
 10
158.7658180984
 20
87.794245523
 11
159.4608553038
 21
87.794245523
  0
LINE
  5
62C
100
AcDbEntity
  8
0
100
AcDbLine
 62
7
  6
CONTINUOUS
 10
149.7303344284
 20
87.9232280145
 11
149.2669754077
 21
87.9232280145
  0
LINE
  5
62D
100
AcDbEntity
  8
0
100
AcDbLine
 62
7
  6
CONTINUOUS
 10
139.1889372553
 20
88.0522105061
 11
138.49390005
 21
88.0522105061
  0
LINE
  5
62E
100
AcDbEntity
  8
0
100
AcDbLine
 62
7
  6
CONTINUOUS
 10
134.3236768177
 20
88.0522105061
 11
132.1227247835
 21
88.0522105061
  0
LINE
  5
62F
100
AcDbEntity
  8
0
100
AcDbLine
 62
7
  6
CONTINUOUS
 10
128.9950580221
 20
88.0522105061
 11
126.7941066508
 21
88.0522105061
  0
LINE
  5
630
100
AcDbEntity
  8
0
100
AcDbLine
 62
7
  6
CONTINUOUS
 10
149.7303344284
 20
88.0732280145
 11
149.2669754077
 21
88.0732280145
  0
LINE
  5
631
100
AcDbEntity
  8
0
100
AcDbLine
 62
7
  6
CONTINUOUS
 10
162.1251637073
 20
88.1811929977
 11
163.0518817488
 21
88.1811929977
  0
LINE
  5
632
100
AcDbEntity
  8
0
100
AcDbLine
 62
7
  6
CONTINUOUS
 10
163.6310785361
 20
88.1811929977
 11
164.9053125289
 21
88.1811929977
  0
LINE
  5
633
100
AcDbEntity
  8
0
100
AcDbLine
 62
7
  6
CONTINUOUS
 10
139.1889372553
 20
88.2022105061
 11
138.49390005
 21
88.2022105061
  0
LINE
  5
634
100
AcDbEntity
  8
0
100
AcDbLine
 62
7
  6
CONTINUOUS
 10
134.3236768177
 20
88.2022105061
 11
132.1227247835
 21
88.2022105061
  0
LINE
  5
635
100
AcDbEntity
  8
0
100
AcDbLine
 62
7
  6
CONTINUOUS
 10
128.9950580221
 20
88.2022105061
 11
126.7941066508
 21
88.2022105061
  0
LINE
  5
636
100
AcDbEntity
  8
0
100
AcDbLine
 62
7
  6
CONTINUOUS
 10
159.4608553038
 20
88.4391579808
 11
158.7658180984
 21
88.4391579808
  0
LINE
  5
637
100
AcDbEntity
  8
0
100
AcDbLine
 62
7
  6
CONTINUOUS
 10
159.4608553038
 20
88.5891579808
 11
158.7658180984
 21
88.5891579808
  0
LINE
  5
638
100
AcDbEntity
  8
0
100
AcDbLine
 62
7
  6
CONTINUOUS
 10
164.9053125289
 20
88.6971229639
 11
163.6310785361
 21
88.6971229639
  0
LINE
  5
639
100
AcDbEntity
  8
0
100
AcDbLine
 62
7
  6
CONTINUOUS
 10
163.0518817488
 20
88.6971229639
 11
162.1251637073
 21
88.6971229639
  0
LINE
  5
63A
100
AcDbEntity
  8
0
100
AcDbLine
 62
7
  6
CONTINUOUS
 10
164.9053125289
 20
88.8471229639
 11
163.6310785361
 21
88.8471229639
  0
LINE
  5
63B
100
AcDbEntity
  8
0
100
AcDbLine
 62
7
  6
CONTINUOUS
 10
163.0518817488
 20
88.8471229639
 11
162.1251637073
 21
88.8471229639
  0
LINE
  5
63C
100
AcDbEntity
  8
0
100
AcDbLine
 62
7
  6
CONTINUOUS
 10
139.8839744607
 20
89.2130532916
 11
140.5790116661
 21
89.2130532916
  0
LINE
  5
63D
100
AcDbEntity
  8
0
100
AcDbLine
 62
7
  6
CONTINUOUS
 10
147.5293823943
 20
89.2130532916
 11
148.108581833
 21
89.2130532916
  0
LINE
  5
63E
100
AcDbEntity
  8
0
100
AcDbLine
 62
7
  6
CONTINUOUS
 10
163.6310785361
 20
89.7289832578
 11
163.0518817488
 21
89.7289832578
  0
LINE
  5
63F
100
AcDbEntity
  8
0
100
AcDbLine
 62
7
  6
CONTINUOUS
 10
132.1227247835
 20
89.8579657494
 11
134.3236768177
 21
89.8579657494
  0
LINE
  5
640
100
AcDbEntity
  8
0
100
AcDbLine
 62
7
  6
CONTINUOUS
 10
138.49390005
 20
89.8579657494
 11
139.1889372553
 21
89.8579657494
  0
LINE
  5
641
100
AcDbEntity
  8
0
100
AcDbLine
 62
7
  6
CONTINUOUS
 10
163.6310785361
 20
89.8789832578
 11
163.0518817488
 21
89.8789832578
  0
LINE
  5
642
100
AcDbEntity
  8
0
100
AcDbLine
 62
7
  6
CONTINUOUS
 10
126.7941066508
 20
89.986948241
 11
128.9950580221
 21
89.986948241
  0
LINE
  5
643
100
AcDbEntity
  8
0
100
AcDbLine
 62
7
  6
CONTINUOUS
 10
149.2669754077
 20
89.986948241
 11
149.7303344284
 21
89.986948241
  0
LINE
  5
644
100
AcDbEntity
  8
0
100
AcDbLine
 62
7
  6
CONTINUOUS
 10
157.6074218723
 20
89.986948241
 11
160.9667701326
 21
89.986948241
  0
LINE
  5
645
100
AcDbEntity
  8
0
100
AcDbLine
 62
7
  6
CONTINUOUS
 10
160.9667701326
 20
90.6318606988
 11
157.028225085
 21
90.6318606988
  0
LINE
  5
646
100
AcDbEntity
  8
0
100
AcDbLine
 62
7
  6
CONTINUOUS
 10
153.9005576607
 20
90.6318606988
 11
153.2055204554
 21
90.6318606988
  0
LINE
  5
647
100
AcDbEntity
  8
0
100
AcDbLine
 62
7
  6
CONTINUOUS
 10
149.6144940104
 20
90.6318606988
 11
149.3828158258
 21
90.6318606988
  0
LINE
  5
648
100
AcDbEntity
  8
0
100
AcDbLine
 62
7
  6
CONTINUOUS
 10
139.0730968373
 20
90.6318606988
 11
138.49390005
 21
90.6318606988
  0
LINE
  5
649
100
AcDbEntity
  8
0
100
AcDbLine
 62
7
  6
CONTINUOUS
 10
134.2078363996
 20
90.6318606988
 11
131.427688241
 21
90.6318606988
  0
LINE
  5
64A
100
AcDbEntity
  8
0
100
AcDbLine
 62
7
  6
CONTINUOUS
 10
128.8792182669
 20
90.6318606988
 11
126.0990694454
 21
90.6318606988
  0
LINE
  5
64B
100
AcDbEntity
  8
0
100
AcDbLine
 62
7
  6
CONTINUOUS
 10
125.1723530611
 20
90.6318606988
 11
124.4773158557
 21
90.6318606988
  0
LINE
  5
64C
100
AcDbEntity
  8
0
100
AcDbLine
 62
7
  6
CONTINUOUS
 10
121.2338090077
 20
90.6318606988
 11
120.5387718023
 21
90.6318606988
  0
LINE
  5
64D
100
AcDbEntity
  8
0
100
AcDbLine
 62
7
  6
CONTINUOUS
 10
160.9667701326
 20
90.7818606988
 11
157.028225085
 21
90.7818606988
  0
LINE
  5
64E
100
AcDbEntity
  8
0
100
AcDbLine
 62
7
  6
CONTINUOUS
 10
153.9005576607
 20
90.7818606988
 11
153.2055204554
 21
90.7818606988
  0
LINE
  5
64F
100
AcDbEntity
  8
0
100
AcDbLine
 62
7
  6
CONTINUOUS
 10
149.6144940104
 20
90.7818606988
 11
149.3828158258
 21
90.7818606988
  0
LINE
  5
650
100
AcDbEntity
  8
0
100
AcDbLine
 62
7
  6
CONTINUOUS
 10
139.0730968373
 20
90.7818606988
 11
138.49390005
 21
90.7818606988
  0
LINE
  5
651
100
AcDbEntity
  8
0
100
AcDbLine
 62
7
  6
CONTINUOUS
 10
134.2078363996
 20
90.7818606988
 11
131.427688241
 21
90.7818606988
  0
LINE
  5
652
100
AcDbEntity
  8
0
100
AcDbLine
 62
7
  6
CONTINUOUS
 10
128.8792182669
 20
90.7818606988
 11
126.0990694454
 21
90.7818606988
  0
LINE
  5
653
100
AcDbEntity
  8
0
100
AcDbLine
 62
7
  6
CONTINUOUS
 10
125.1723530611
 20
90.7818606988
 11
124.4773158557
 21
90.7818606988
  0
LINE
  5
654
100
AcDbEntity
  8
0
100
AcDbLine
 62
7
  6
CONTINUOUS
 10
121.2338090077
 20
90.7818606988
 11
120.5387718023
 21
90.7818606988
  0
LINE
  5
655
100
AcDbEntity
  8
0
100
AcDbLine
 62
7
  6
CONTINUOUS
 10
231.9187718023
 20
126.2183357558
 11
231.9187718023
 21
125.7183357558
  0
LINE
  5
656
100
AcDbEntity
  8
0
100
AcDbLine
 62
7
  6
CONTINUOUS
 10
232.1687708487
 20
126.2183357558
 11
232.1687708487
 21
125.7183357558
  0
LINE
  5
657
100
AcDbEntity
  8
0
100
AcDbLine
 62
7
  6
CONTINUOUS
 10
134.7870345127
 20
84.6986653752
 11
135.2503922077
 21
85.0856128838
  0
LINE
  5
658
100
AcDbEntity
  8
RUNDUNGEN
100
AcDbLine
 62
7
  6
CONTINUOUS
 10
382.5499189487
 20
126.4705115603
 11
382.881589705
 21
126.5594015201
  0
LWPOLYLINE
  5
659
100
AcDbEntity
  8
RUNDUNGEN
100
AcDbPolyline
 62
7
  6
CONTINUOUS
 90
6
 70
0
 10
382.881589705
 20
126.5594015201
 10
383.1592068888
 20
126.6227845067
 10
383.4400362957
 20
126.6702475018
 10
383.7231462407
 20
126.7016263171
 10
384.0075967265
 20
126.716813268
 10
384.131513177
 20
126.7183510024
  0
LWPOLYLINE
  5
65A
100
AcDbEntity
  8
RUNDUNGEN
100
AcDbPolyline
 62
7
  6
CONTINUOUS
 90
6
 70
0
 10
185.812997669
 20
126.4691596504
 10
186.2910123635
 20
126.3638808955
 10
186.7748396941
 20
126.2868255031
 10
187.262468534
 20
126.2383949068
 10
187.7518483795
 20
126.218798575
 10
187.8394491784
 20
126.2183375712
  0
LINE
  5
65B
100
AcDbEntity
  8
RUNDUNGEN
100
AcDbLine
 62
7
  6
CONTINUOUS
 10
185.5815253892
 20
126.5308672353
 11
185.812997669
 21
126.4691596504
  0
LINE
  5
65C
100
AcDbEntity
  8
0
100
AcDbLine
 62
7
  6
CONTINUOUS
 10
150.6570498185
 20
87.6652630314
 11
151.1204088392
 21
88.0522105061
  0
LINE
  5
65D
100
AcDbEntity
  8
0
100
AcDbLine
 62
7
  6
CONTINUOUS
 10
157.8391027084
 20
87.2783155567
 11
158.3024590777
 21
87.6652630314
  0
LINE
  5
65E
100
AcDbEntity
  8
0
100
AcDbLine
 62
7
  6
CONTINUOUS
 10
137.7988628446
 20
89.4710182747
 11
138.1463814473
 21
89.7289832578
  0
LINE
  5
65F
100
AcDbEntity
  8
0
100
AcDbLine
 62
7
  6
CONTINUOUS
 10
139.9998135531
 20
85.8805254772
 11
139.6522949504
 21
85.6225604037
  0
LINE
  5
660
100
AcDbEntity
  8
0
100
AcDbLine
 62
7
  6
CONTINUOUS
 10
139.9998135531
 20
85.7305254772
 11
139.6522949504
 21
85.4725604037
  0
LINE
  5
661
100
AcDbEntity
  8
0
100
AcDbLine
 62
7
  6
CONTINUOUS
 10
148.3402600177
 20
89.6000007663
 11
148.6877786204
 21
89.8579657494
  0
LINE
  5
662
100
AcDbEntity
  8
0
100
AcDbLine
 62
7
  6
CONTINUOUS
 10
150.8887306545
 20
84.9566303922
 11
151.2362492572
 21
85.2145954205
  0
LINE
  5
663
100
AcDbEntity
  8
0
100
AcDbLine
 62
7
  6
CONTINUOUS
 10
159.9242143245
 20
85.3435779121
 11
159.4608553038
 21
85.2145954205
  0
LINE
  5
664
100
AcDbEntity
  8
0
100
AcDbLine
 62
7
  6
CONTINUOUS
 10
159.9242143245
 20
85.4935779121
 11
159.4608553038
 21
85.3645954205
  0
LINE
  5
665
100
AcDbEntity
  8
0
100
AcDbLine
 62
7
  6
CONTINUOUS
 10
149.9620126131
 20
84.5696828724
 11
150.4253716338
 21
84.6986653752
  0
LINE
  5
666
100
AcDbEntity
  8
0
100
AcDbLine
 62
7
  6
CONTINUOUS
 10
158.3024590777
 20
87.6652630314
 11
158.7658180984
 21
87.794245523
  0
LINE
  5
667
100
AcDbEntity
  8
0
100
AcDbLine
 62
7
  6
CONTINUOUS
 10
159.4608553038
 20
84.5696828724
 11
160.0400520912
 21
84.6986653752
  0
LINE
  5
668
100
AcDbEntity
  8
0
100
AcDbLine
 62
7
  6
CONTINUOUS
 10
150.4253716338
 20
85.3435779121
 11
149.8461748465
 21
85.2145954205
  0
LINE
  5
669
100
AcDbEntity
  8
0
100
AcDbLine
 62
7
  6
CONTINUOUS
 10
150.4253716338
 20
85.4935779121
 11
149.8461748465
 21
85.3645954205
  0
LINE
  5
66A
100
AcDbEntity
  8
0
100
AcDbLine
 62
7
  6
CONTINUOUS
 10
158.7658180984
 20
88.4391579808
 11
158.1866213111
 21
88.3101754892
  0
LINE
  5
66B
100
AcDbEntity
  8
0
100
AcDbLine
 62
7
  6
CONTINUOUS
 10
158.7658180984
 20
88.5891579808
 11
158.1866213111
 21
88.4601754892
  0
LINE
  5
66C
100
AcDbEntity
  8
0
100
AcDbLine
 62
7
  6
CONTINUOUS
 10
139.1889372553
 20
84.5696828724
 11
139.7681340427
 21
84.6986653752
  0
LINE
  5
66D
100
AcDbEntity
  8
0
100
AcDbLine
 62
7
  6
CONTINUOUS
 10
134.2078363996
 20
84.5696828724
 11
134.7870345127
 21
84.6986653752
  0
LINE
  5
66E
100
AcDbEntity
  8
0
100
AcDbLine
 62
7
  6
CONTINUOUS
 10
148.6877786204
 20
89.8579657494
 11
149.2669754077
 21
89.986948241
  0
LINE
  5
66F
100
AcDbEntity
  8
0
100
AcDbLine
 62
7
  6
CONTINUOUS
 10
149.3828158258
 20
90.6318606988
 11
148.5719382024
 21
90.5028782073
  0
LINE
  5
670
100
AcDbEntity
  8
0
100
AcDbLine
 62
7
  6
CONTINUOUS
 10
149.3828158258
 20
90.7818606988
 11
148.5719382024
 21
90.6528782073
  0
LINE
  5
671
100
AcDbEntity
  8
0
100
AcDbLine
 62
7
  6
CONTINUOUS
 10
261.5582685481
 20
128.2183357558
 11
261.5582685481
 21
127.7183357558
  0
LINE
  5
672
100
AcDbEntity
  8
0
100
AcDbLine
 62
7
  6
CONTINUOUS
 10
261.5582690622
 20
171.2183357558
 11
261.5582690622
 21
171.7183357558
  0
LINE
  5
673
100
AcDbEntity
  8
0
100
AcDbLine
 62
7
  6
CONTINUOUS
 10
261.7483568127
 20
128.2183357558
 11
261.7483568127
 21
127.7183357558
  0
LINE
  5
674
100
AcDbEntity
  8
0
100
AcDbLine
 62
7
  6
CONTINUOUS
 10
263.2500567819
 20
171.2183357558
 11
263.2500567819
 21
171.7183357558
  0
LINE
  5
675
100
AcDbEntity
  8
0
100
AcDbLine
 62
7
  6
CONTINUOUS
 10
265.9683165933
 20
171.2183357558
 11
265.9683165933
 21
171.7183357558
  0
LINE
  5
676
100
AcDbEntity
  8
0
100
AcDbLine
 62
7
  6
CONTINUOUS
 10
267.3844738389
 20
171.2183357558
 11
267.3844738389
 21
171.7183357558
  0
LINE
  5
677
100
AcDbEntity
  8
0
100
AcDbLine
 62
7
  6
CONTINUOUS
 10
268.6675706293
 20
171.2183357558
 11
268.6675706293
 21
171.7183357558
  0
LINE
  5
678
100
AcDbEntity
  8
0
100
AcDbLine
 62
7
  6
CONTINUOUS
 10
269.1998191263
 20
171.2183357558
 11
269.1998191263
 21
171.7183357558
  0
LINE
  5
679
100
AcDbEntity
  8
0
100
AcDbLine
 62
7
  6
CONTINUOUS
 10
270.4448944117
 20
128.2183357558
 11
270.4448944117
 21
127.7183357558
  0
LINE
  5
67A
100
AcDbEntity
  8
0
100
AcDbLine
 62
7
  6
CONTINUOUS
 10
270.84407995
 20
128.2183357558
 11
270.84407995
 21
127.7183357558
  0
LINE
  5
67B
100
AcDbEntity
  8
0
100
AcDbLine
 62
7
  6
CONTINUOUS
 10
160.2717329272
 20
85.7515428952
 11
159.9242143245
 21
85.4935779121
  0
LINE
  5
67C
100
AcDbEntity
  8
0
100
AcDbLine
 62
7
  6
CONTINUOUS
 10
160.2717329272
 20
85.6015428952
 11
159.9242143245
 21
85.3435779121
  0
LINE
  5
67D
100
AcDbEntity
  8
0
100
AcDbLine
 62
7
  6
CONTINUOUS
 10
158.1866213111
 20
88.4601754892
 11
157.6074218723
 21
88.0732280145
  0
LINE
  5
67E
100
AcDbEntity
  8
0
100
AcDbLine
 62
7
  6
CONTINUOUS
 10
158.1866213111
 20
88.3101754892
 11
157.6074218723
 21
87.9232280145
  0
LINE
  5
67F
100
AcDbEntity
  8
0
100
AcDbLine
 62
7
  6
CONTINUOUS
 10
160.0400520912
 20
84.6986653752
 11
160.6192515299
 21
85.0856128838
  0
LINE
  5
680
100
AcDbEntity
  8
0
100
AcDbLine
 62
7
  6
CONTINUOUS
 10
129.4584157171
 20
87.5362805398
 11
129.921774075
 21
87.794245523
  0
LINE
  5
681
100
AcDbEntity
  8
0
100
AcDbLine
 62
7
  6
CONTINUOUS
 10
138.0305410293
 20
90.6528782073
 11
137.5671833342
 21
90.3949132241
  0
LINE
  5
682
100
AcDbEntity
  8
0
100
AcDbLine
 62
7
  6
CONTINUOUS
 10
138.0305410293
 20
90.5028782073
 11
137.5671833342
 21
90.2449132241
  0
LINE
  5
683
100
AcDbEntity
  8
0
100
AcDbLine
 62
7
  6
CONTINUOUS
 10
135.018714023
 20
87.6652630314
 11
135.2503922077
 21
87.794245523
  0
LINE
  5
684
100
AcDbEntity
  8
0
100
AcDbLine
 62
7
  6
CONTINUOUS
 10
148.5719382024
 20
90.6528782073
 11
148.108581833
 21
90.3949132241
  0
LINE
  5
685
100
AcDbEntity
  8
0
100
AcDbLine
 62
7
  6
CONTINUOUS
 10
148.5719382024
 20
90.5028782073
 11
148.108581833
 21
90.2449132241
  0
LINE
  5
686
100
AcDbEntity
  8
0
100
AcDbLine
 62
7
  6
CONTINUOUS
 10
139.7681340427
 20
84.6986653752
 11
140.2314930634
 21
84.9566303922
  0
LINE
  5
687
100
AcDbEntity
  8
0
100
AcDbLine
 62
7
  6
CONTINUOUS
 10
139.6522949504
 20
85.4725604037
 11
139.1889372553
 21
85.3435779121
  0
LINE
  5
688
100
AcDbEntity
  8
0
100
AcDbLine
 62
7
  6
CONTINUOUS
 10
139.6522949504
 20
85.6225604037
 11
139.1889372553
 21
85.4935779121
  0
LINE
  5
689
100
AcDbEntity
  8
0
100
AcDbLine
 62
7
  6
CONTINUOUS
 10
138.49390005
 20
90.6318606988
 11
138.0305410293
 21
90.5028782073
  0
LINE
  5
68A
100
AcDbEntity
  8
0
100
AcDbLine
 62
7
  6
CONTINUOUS
 10
138.49390005
 20
90.7818606988
 11
138.0305410293
 21
90.6528782073
  0
LWPOLYLINE
  5
68B
100
AcDbEntity
  8
RUNDUNGEN
100
AcDbPolyline
 62
7
  6
CONTINUOUS
 90
6
 70
0
 10
380.5180969588
 20
126.2183375703
 10
380.6334473113
 20
126.219137355
 10
381.1172243836
 20
126.2399666193
 10
381.5992102895
 20
126.288974732
 10
382.0774230547
 20
126.3659535982
 10
382.5499189487
 20
126.4705115603
  0
LINE
  5
68C
100
AcDbEntity
  8
0
100
AcDbLine
 62
7
  6
CONTINUOUS
 10
232.1687708487
 20
125.7183357558
 11
222.1687718023
 21
125.7183357558
  0
LINE
  5
68D
100
AcDbEntity
  8
0
100
AcDbLine
 62
7
  6
CONTINUOUS
 10
220.1687722792
 20
125.7183357558
 11
211.1687715639
 21
125.7183357558
  0
LINE
  5
68E
100
AcDbEntity
  8
0
100
AcDbLine
 62
7
  6
CONTINUOUS
 10
209.1687720407
 20
125.7183357558
 11
199.6687718023
 21
125.7183357558
  0
LINE
  5
68F
100
AcDbEntity
  8
RUNDUNGEN
100
AcDbLine
 62
7
  6
CONTINUOUS
 10
380.5182076847
 20
126.2183357558
 11
325.1428734175
 21
126.2183357558
  0
LINE
  5
690
100
AcDbEntity
  8
0
100
AcDbLine
 62
7
  6
CONTINUOUS
 10
377.5312839041
 20
126.2183357558
 11
325.1428734175
 21
126.2183357558
  0
LINE
  5
691
100
AcDbEntity
  8
0
100
AcDbLine
 62
7
  6
CONTINUOUS
 10
243.2146701872
 20
126.2183357558
 11
190.8262597012
 21
126.2183357558
  0
LINE
  5
692
100
AcDbEntity
  8
RUNDUNGEN
100
AcDbLine
 62
7
  6
CONTINUOUS
 10
243.2146701872
 20
126.2183357558
 11
187.8393359203
 21
126.2183357558
  0
LINE
  5
693
100
AcDbEntity
  8
BEZUGSACHSEN
100
AcDbLine
 62
7
  6
CONTINUOUS
 10
176.6787718023
 20
126.7183357558
 11
184.2273482199
 21
126.7183357558
  0
LINE
  5
694
100
AcDbEntity
  8
BEZUGSACHSEN
100
AcDbLine
 62
7
  6
CONTINUOUS
 10
384.1301952228
 20
126.7183357558
 11
391.6787718023
 21
126.7183357558
  0
LINE
  5
695
100
AcDbEntity
  8
0
100
AcDbLine
 62
7
  6
CONTINUOUS
 10
306.7992745425
 20
127.7183357558
 11
300.9730697657
 21
127.7183357558
  0
LINE
  5
696
100
AcDbEntity
  8
0
100
AcDbLine
 62
7
  6
CONTINUOUS
 10
299.6899729754
 20
127.7183357558
 11
290.2425871874
 21
127.7183357558
  0
LINE
  5
697
100
AcDbEntity
  8
0
100
AcDbLine
 62
7
  6
CONTINUOUS
 10
287.7239163901
 20
127.7183357558
 11
284.8725927855
 21
127.7183357558
  0
LINE
  5
698
100
AcDbEntity
  8
0
100
AcDbLine
 62
7
  6
CONTINUOUS
 10
279.5121046092
 20
127.7183357558
 11
273.6858989979
 21
127.7183357558
  0
LINE
  5
699
100
AcDbEntity
  8
0
100
AcDbLine
 62
7
  6
CONTINUOUS
 10
270.84407995
 20
127.7183357558
 11
261.5582685481
 21
127.7183357558
  0
LINE
  5
69A
100
AcDbEntity
  8
RUNDUNGEN
100
AcDbLine
 62
7
  6
CONTINUOUS
 10
248.0185177645
 20
128.2183357558
 11
253.8126676091
 21
128.2183357558
  0
LINE
  5
69B
100
AcDbEntity
  8
0
100
AcDbLine
 62
7
  6
CONTINUOUS
 10
253.8126676091
 20
128.2183357558
 11
314.544875825
 21
128.2183357558
  0
LINE
  5
69C
100
AcDbEntity
  8
RUNDUNGEN
100
AcDbLine
 62
7
  6
CONTINUOUS
 10
314.544875825
 20
128.2183357558
 11
320.3390258402
 21
128.2183357558
  0
LINE
  5
69D
100
AcDbEntity
  8
RUNDUNGEN
100
AcDbLine
 62
7
  6
CONTINUOUS
 10
383.0102218569
 20
128.7183357558
 11
185.3473217477
 21
128.7183357558
  0
LWPOLYLINE
  5
69E
100
AcDbEntity
  8
RUNDUNGEN
100
AcDbPolyline
 62
7
  6
CONTINUOUS
 90
7
 70
0
 10
184.226032679
 20
126.7183507358
 10
184.363260705
 20
126.7164648209
 10
184.6476707738
 20
126.7005193582
 10
184.9306962451
 20
126.6683856564
 10
185.2113973515
 20
126.6201740618
 10
185.4888428031
 20
126.5560514166
 10
185.5815574209
 20
126.5308638267
  0
LINE
  5
69F
100
AcDbEntity
  8
0
100
AcDbLine
 62
7
  6
CONTINUOUS
 10
273.6858989979
 20
128.2183357558
 11
273.6858989979
 21
127.7183357558
  0
LINE
  5
6A0
100
AcDbEntity
  8
0
100
AcDbLine
 62
7
  6
CONTINUOUS
 10
276.6892962839
 20
171.2183357558
 11
276.6892962839
 21
171.7183357558
  0
LINE
  5
6A1
100
AcDbEntity
  8
0
100
AcDbLine
 62
7
  6
CONTINUOUS
 10
277.4116292979
 20
128.2183357558
 11
277.4116292979
 21
127.7183357558
  0
LINE
  5
6A2
100
AcDbEntity
  8
0
100
AcDbLine
 62
7
  6
CONTINUOUS
 10
277.6872597124
 20
171.2183357558
 11
277.6872597124
 21
171.7183357558
  0
LINE
  5
6A3
100
AcDbEntity
  8
0
100
AcDbLine
 62
7
  6
CONTINUOUS
 10
278.1149564172
 20
171.2183357558
 11
278.1149564172
 21
171.7183357558
  0
LINE
  5
6A4
100
AcDbEntity
  8
0
100
AcDbLine
 62
7
  6
CONTINUOUS
 10
279.5121046092
 20
128.2183357558
 11
279.5121046092
 21
127.7183357558
  0
LINE
  5
6A5
100
AcDbEntity
  8
0
100
AcDbLine
 62
7
  6
CONTINUOUS
 10
280.6336272146
 20
171.2183357558
 11
280.6336272146
 21
171.7183357558
  0
LINE
  5
6A6
100
AcDbEntity
  8
0
100
AcDbLine
 62
7
  6
CONTINUOUS
 10
283.4849508192
 20
171.2183357558
 11
283.4849508192
 21
171.7183357558
  0
LINE
  5
6A7
100
AcDbEntity
  8
0
100
AcDbLine
 62
7
  6
CONTINUOUS
 10
284.8725927855
 20
128.2183357558
 11
284.8725927855
 21
127.7183357558
  0
LINE
  5
6A8
100
AcDbEntity
  8
0
100
AcDbLine
 62
7
  6
CONTINUOUS
 10
243.2146701872
 20
126.2183357558
 11
244.1656922714
 21
126.7674086121
  0
LINE
  5
6A9
100
AcDbEntity
  8
RUNDUNGEN
100
AcDbLine
 62
7
  6
CONTINUOUS
 10
244.1656922714
 20
126.7674086121
 11
245.5185177645
 21
127.5484627747
  0
LINE
  5
6AA
100
AcDbEntity
  8
BEZUGSACHSEN
100
AcDbLine
 62
7
  6
CONTINUOUS
 10
322.8390258402
 20
171.8882087369
 11
325.1428734175
 21
173.2183357558
  0
LINE
  5
6AB
100
AcDbEntity
  8
0
100
AcDbLine
 62
7
  6
CONTINUOUS
 10
150.6570498185
 20
85.6225604037
 11
150.4253716338
 21
85.4935779121
  0
LINE
  5
6AC
100
AcDbEntity
  8
0
100
AcDbLine
 62
7
  6
CONTINUOUS
 10
150.6570498185
 20
85.4725604037
 11
150.4253716338
 21
85.3435779121
  0
LINE
  5
6AD
100
AcDbEntity
  8
0
100
AcDbLine
 62
7
  6
CONTINUOUS
 10
150.4253716338
 20
84.6986653752
 11
150.8887306545
 21
84.9566303922
  0
LINE
  5
6AE
100
AcDbEntity
  8
0
100
AcDbLine
 62
7
  6
CONTINUOUS
 10
417.9321719708
 20
211.255478514
 11
418.6272091762
 21
211.5134434971
  0
LINE
  5
6AF
100
AcDbEntity
  8
0
100
AcDbLine
 62
7
  6
CONTINUOUS
 10
417.9321719708
 20
211.105478514
 11
418.6272091762
 21
211.3634434971
  0
LINE
  5
6B0
100
AcDbEntity
  8
0
100
AcDbLine
 62
7
  6
CONTINUOUS
 10
433.6863481843
 20
213.9641111079
 11
434.033866787
 21
214.0930935995
  0
LINE
  5
6B1
100
AcDbEntity
  8
0
100
AcDbLine
 62
7
  6
CONTINUOUS
 10
433.6863481843
 20
213.8141111079
 11
434.033866787
 21
213.9430935995
  0
LINE
  5
6B2
100
AcDbEntity
  8
0
100
AcDbLine
 62
7
  6
CONTINUOUS
 10
433.6863481843
 20
211.255478514
 11
434.033866787
 21
211.3844610055
  0
LINE
  5
6B3
100
AcDbEntity
  8
0
100
AcDbLine
 62
7
  6
CONTINUOUS
 10
433.6863481843
 20
211.105478514
 11
434.033866787
 21
211.2344610055
  0
LINE
  5
6B4
100
AcDbEntity
  8
0
100
AcDbLine
 62
7
  6
CONTINUOUS
 10
430.2111621574
 20
209.7076882538
 11
429.8636435547
 21
209.5787057622
  0
LINE
  5
6B5
100
AcDbEntity
  8
0
100
AcDbLine
 62
7
  6
CONTINUOUS
 10
439.0149669799
 20
211.255478514
 11
439.3624855825
 21
211.3844610055
  0
LINE
  5
6B6
100
AcDbEntity
  8
0
100
AcDbLine
 62
7
  6
CONTINUOUS
 10
439.0149669799
 20
211.105478514
 11
439.3624855825
 21
211.2344610055
  0
LINE
  5
6B7
100
AcDbEntity
  8
BEZUGSACHSEN
100
AcDbLine
 62
7
  6
CONTINUOUS
 10
243.2146701872
 20
173.2183357558
 11
245.5185177645
 21
171.8882087369
  0
LINE
  5
6B8
100
AcDbEntity
  8
0
100
AcDbLine
 62
7
  6
CONTINUOUS
 10
325.1428734175
 20
126.2183357558
 11
324.1918513145
 21
126.7674086229
  0
LINE
  5
6B9
100
AcDbEntity
  8
RUNDUNGEN
100
AcDbLine
 62
7
  6
CONTINUOUS
 10
322.8390258402
 20
127.5484627747
 11
324.1918513145
 21
126.7674086229
  0
LINE
  5
6BA
100
AcDbEntity
  8
0
100
AcDbLine
 62
7
  6
CONTINUOUS
 10
287.7239163901
 20
128.2183357558
 11
287.7239163901
 21
127.7183357558
  0
LINE
  5
6BB
100
AcDbEntity
  8
0
100
AcDbLine
 62
7
  6
CONTINUOUS
 10
288.8454389955
 20
171.2183357558
 11
288.8454389955
 21
171.7183357558
  0
LINE
  5
6BC
100
AcDbEntity
  8
0
100
AcDbLine
 62
7
  6
CONTINUOUS
 10
290.2425871874
 20
128.2183357558
 11
290.2425871874
 21
127.7183357558
  0
LINE
  5
6BD
100
AcDbEntity
  8
0
100
AcDbLine
 62
7
  6
CONTINUOUS
 10
290.6702838923
 20
128.2183357558
 11
290.6702838923
 21
127.7183357558
  0
LINE
  5
6BE
100
AcDbEntity
  8
0
100
AcDbLine
 62
7
  6
CONTINUOUS
 10
290.9459143068
 20
171.2183357558
 11
290.9459143068
 21
171.7183357558
  0
LINE
  5
6BF
100
AcDbEntity
  8
0
100
AcDbLine
 62
7
  6
CONTINUOUS
 10
291.6682473208
 20
128.2183357558
 11
291.6682473208
 21
127.7183357558
  0
LINE
  5
6C0
100
AcDbEntity
  8
0
100
AcDbLine
 62
7
  6
CONTINUOUS
 10
294.6716446067
 20
171.2183357558
 11
294.6716446067
 21
171.7183357558
  0
LINE
  5
6C1
100
AcDbEntity
  8
0
100
AcDbLine
 62
7
  6
CONTINUOUS
 10
297.5134636547
 20
171.2183357558
 11
297.5134636547
 21
171.7183357558
  0
LINE
  5
6C2
100
AcDbEntity
  8
0
100
AcDbLine
 62
7
  6
CONTINUOUS
 10
297.9126491929
 20
171.2183357558
 11
297.9126491929
 21
171.7183357558
  0
LINE
  5
6C3
100
AcDbEntity
  8
0
100
AcDbLine
 62
7
  6
CONTINUOUS
 10
299.1577244784
 20
128.2183357558
 11
299.1577244784
 21
127.7183357558
  0
LINE
  5
6C4
100
AcDbEntity
  8
0
100
AcDbLine
 62
7
  6
CONTINUOUS
 10
408.3174915135
 20
214.7380061364
 11
407.7382920747
 21
214.3510586278
  0
LINE
  5
6C5
100
AcDbEntity
  8
0
100
AcDbLine
 62
7
  6
CONTINUOUS
 10
417.9321719708
 20
214.7380061364
 11
417.4688129501
 21
214.4800411194
  0
LINE
  5
6C6
100
AcDbEntity
  8
0
100
AcDbLine
 62
7
  6
CONTINUOUS
 10
417.7004937861
 20
213.9641111079
 11
417.9321719708
 21
214.0930935995
  0
LINE
  5
6C7
100
AcDbEntity
  8
0
100
AcDbLine
 62
7
  6
CONTINUOUS
 10
417.7004937861
 20
213.8141111079
 11
417.9321719708
 21
213.9430935995
  0
LINE
  5
6C8
100
AcDbEntity
  8
0
100
AcDbLine
 62
7
  6
CONTINUOUS
 10
428.5894095619
 20
214.7380061364
 11
428.1260505412
 21
214.4800411194
  0
LINE
  5
6C9
100
AcDbEntity
  8
0
100
AcDbLine
 62
7
  6
CONTINUOUS
 10
419.7856054023
 20
208.9337933044
 11
420.2489617717
 21
209.1917582875
  0
LINE
  5
6CA
100
AcDbEntity
  8
0
100
AcDbLine
 62
7
  6
CONTINUOUS
 10
419.7856054023
 20
208.7837933044
 11
420.2489617717
 21
209.0417582875
  0
LINE
  5
6CB
100
AcDbEntity
  8
0
100
AcDbLine
 62
7
  6
CONTINUOUS
 10
129.3425766248
 20
88.3311929977
 11
128.9950580221
 21
88.2022105061
  0
LINE
  5
6CC
100
AcDbEntity
  8
0
100
AcDbLine
 62
7
  6
CONTINUOUS
 10
129.3425766248
 20
88.1811929977
 11
128.9950580221
 21
88.0522105061
  0
LINE
  5
6CD
100
AcDbEntity
  8
0
100
AcDbLine
 62
7
  6
CONTINUOUS
 10
138.1463814473
 20
89.7289832578
 11
138.49390005
 21
89.8579657494
  0
LINE
  5
6CE
100
AcDbEntity
  8
0
100
AcDbLine
 62
7
  6
CONTINUOUS
 10
134.6711954204
 20
88.3311929977
 11
134.3236768177
 21
88.2022105061
  0
LINE
  5
6CF
100
AcDbEntity
  8
0
100
AcDbLine
 62
7
  6
CONTINUOUS
 10
134.6711954204
 20
88.1811929977
 11
134.3236768177
 21
88.0522105061
  0
LINE
  5
6D0
100
AcDbEntity
  8
0
100
AcDbLine
 62
7
  6
CONTINUOUS
 10
134.6711954204
 20
85.6225604037
 11
134.3236768177
 21
85.4935779121
  0
LINE
  5
6D1
100
AcDbEntity
  8
0
100
AcDbLine
 62
7
  6
CONTINUOUS
 10
134.6711954204
 20
85.4725604037
 11
134.3236768177
 21
85.3435779121
  0
LINE
  5
6D2
100
AcDbEntity
  8
0
100
AcDbLine
 62
7
  6
CONTINUOUS
 10
150.4253716338
 20
88.3311929977
 11
149.7303344284
 21
88.0732280145
  0
LINE
  5
6D3
100
AcDbEntity
  8
0
100
AcDbLine
 62
7
  6
CONTINUOUS
 10
150.4253716338
 20
88.1811929977
 11
149.7303344284
 21
87.9232280145
  0
LINE
  5
6D4
100
AcDbEntity
  8
0
100
AcDbLine
 62
7
  6
CONTINUOUS
 10
299.6899729754
 20
128.2183357558
 11
299.6899729754
 21
127.7183357558
  0
LINE
  5
6D5
100
AcDbEntity
  8
0
100
AcDbLine
 62
7
  6
CONTINUOUS
 10
300.9730697657
 20
128.2183357558
 11
300.9730697657
 21
127.7183357558
  0
LINE
  5
6D6
100
AcDbEntity
  8
0
100
AcDbLine
 62
7
  6
CONTINUOUS
 10
302.3892270113
 20
128.2183357558
 11
302.3892270113
 21
127.7183357558
  0
LINE
  5
6D7
100
AcDbEntity
  8
0
100
AcDbLine
 62
7
  6
CONTINUOUS
 10
305.1074868227
 20
128.2183357558
 11
305.1074868227
 21
127.7183357558
  0
LINE
  5
6D8
100
AcDbEntity
  8
0
100
AcDbLine
 62
7
  6
CONTINUOUS
 10
306.6091867919
 20
171.2183357558
 11
306.6091867919
 21
171.7183357558
  0
LINE
  5
6D9
100
AcDbEntity
  8
0
100
AcDbLine
 62
7
  6
CONTINUOUS
 10
306.7992745425
 20
128.2183357558
 11
306.7992745425
 21
127.7183357558
  0
LINE
  5
6DA
100
AcDbEntity
  8
0
100
AcDbLine
 62
7
  6
CONTINUOUS
 10
306.7992750566
 20
171.2183357558
 11
306.7992750566
 21
171.7183357558
  0
LINE
  5
6DB
100
AcDbEntity
  8
0
100
AcDbLine
 62
7
  6
CONTINUOUS
 10
408.0858106774
 20
213.8351286164
 11
408.4333292801
 21
214.0930935995
  0
LINE
  5
6DC
100
AcDbEntity
  8
0
100
AcDbLine
 62
7
  6
CONTINUOUS
 10
408.0858106774
 20
213.6851286164
 11
408.4333292801
 21
213.9430935995
  0
LINE
  5
6DD
100
AcDbEntity
  8
0
100
AcDbLine
 62
7
  6
CONTINUOUS
 10
417.4688129501
 20
214.4800411194
 11
417.1212943474
 21
214.2220760911
  0
LINE
  5
6DE
100
AcDbEntity
  8
0
100
AcDbLine
 62
7
  6
CONTINUOUS
 10
410.1709222936
 20
211.1264960224
 11
410.7501217323
 21
211.5134434971
  0
LINE
  5
6DF
100
AcDbEntity
  8
0
100
AcDbLine
 62
7
  6
CONTINUOUS
 10
410.1709222936
 20
210.9764960224
 11
410.7501217323
 21
211.3634434971
  0
LINE
  5
6E0
100
AcDbEntity
  8
0
100
AcDbLine
 62
7
  6
CONTINUOUS
 10
433.3388295816
 20
211.7714084802
 11
433.1071513969
 21
211.6424259887
  0
LINE
  5
6E1
100
AcDbEntity
  8
0
100
AcDbLine
 62
7
  6
CONTINUOUS
 10
430.3270025754
 20
208.9337933044
 11
430.7903602704
 21
209.1917582875
  0
LINE
  5
6E2
100
AcDbEntity
  8
0
100
AcDbLine
 62
7
  6
CONTINUOUS
 10
430.3270025754
 20
208.7837933044
 11
430.7903602704
 21
209.0417582875
  0
LINE
  5
6E3
100
AcDbEntity
  8
0
100
AcDbLine
 62
7
  6
CONTINUOUS
 10
438.8991278875
 20
211.9003909718
 11
438.4357695296
 21
211.6424259887
  0
LINE
  5
6E4
100
AcDbEntity
  8
0
100
AcDbLine
 62
7
  6
CONTINUOUS
 10
429.8636435547
 20
208.6548108128
 11
430.3270025754
 21
208.7837933044
  0
LINE
  5
6E5
100
AcDbEntity
  8
0
100
AcDbLine
 62
7
  6
CONTINUOUS
 10
429.8636435547
 20
208.8048108128
 11
430.3270025754
 21
208.9337933044
  0
LINE
  5
6E6
100
AcDbEntity
  8
0
100
AcDbLine
 62
7
  6
CONTINUOUS
 10
428.7052486543
 20
213.8141111079
 11
429.1686063493
 21
213.9430935995
  0
LINE
  5
6E7
100
AcDbEntity
  8
0
100
AcDbLine
 62
7
  6
CONTINUOUS
 10
428.7052486543
 20
213.9641111079
 11
429.1686063493
 21
214.0930935995
  0
LINE
  5
6E8
100
AcDbEntity
  8
0
100
AcDbLine
 62
7
  6
CONTINUOUS
 10
410.0550845269
 20
211.7714084802
 11
409.5917255062
 21
211.6424259887
  0
LINE
  5
6E9
100
AcDbEntity
  8
0
100
AcDbLine
 62
7
  6
CONTINUOUS
 10
418.3955309915
 20
214.8669886393
 11
417.9321719708
 21
214.7380061364
  0
LINE
  5
6EA
100
AcDbEntity
  8
0
100
AcDbLine
 62
7
  6
CONTINUOUS
 10
408.4333292801
 20
213.9430935995
 11
408.8966883008
 21
214.0720760911
  0
LINE
  5
6EB
100
AcDbEntity
  8
0
100
AcDbLine
 62
7
  6
CONTINUOUS
 10
408.4333292801
 20
214.0930935995
 11
408.8966883008
 21
214.2220760911
  0
LINE
  5
6EC
100
AcDbEntity
  8
0
100
AcDbLine
 62
7
  6
CONTINUOUS
 10
419.6697649843
 20
209.5787057622
 11
419.0905681969
 21
209.4497232706
  0
LWPOLYLINE
  5
6ED
100
AcDbEntity
  8
BEZUGSACHSEN
100
AcDbPolyline
 62
7
  6
CONTINUOUS
 90
6
 70
0
 10
187.8394500807
 20
173.2183339401
 10
187.74950228
 20
173.2178478854
 10
187.257786523
 20
173.1979493285
 10
186.7678539646
 20
173.1489405269
 10
186.2817850652
 20
173.0710356427
 10
185.8016198524
 20
172.9646445798
  0
LINE
  5
6EE
100
AcDbEntity
  8
BEZUGSACHSEN
100
AcDbLine
 62
7
  6
CONTINUOUS
 10
383.0102218569
 20
170.7183357558
 11
185.3473217477
 21
170.7183357558
  0
LINE
  5
6EF
100
AcDbEntity
  8
BEZUGSACHSEN
100
AcDbLine
 62
7
  6
CONTINUOUS
 10
248.0185177645
 20
171.2183357558
 11
320.3390258402
 21
171.2183357558
  0
LINE
  5
6F0
100
AcDbEntity
  8
0
100
AcDbLine
 62
7
  6
CONTINUOUS
 10
261.5582690622
 20
171.7183357558
 11
267.3844738389
 21
171.7183357558
  0
LINE
  5
6F1
100
AcDbEntity
  8
0
100
AcDbLine
 62
7
  6
CONTINUOUS
 10
268.6675706293
 20
171.7183357558
 11
278.1149564172
 21
171.7183357558
  0
LINE
  5
6F2
100
AcDbEntity
  8
0
100
AcDbLine
 62
7
  6
CONTINUOUS
 10
280.6336272146
 20
171.7183357558
 11
283.4849508192
 21
171.7183357558
  0
LINE
  5
6F3
100
AcDbEntity
  8
0
100
AcDbLine
 62
7
  6
CONTINUOUS
 10
288.8454389955
 20
171.7183357558
 11
294.6716446067
 21
171.7183357558
  0
LINE
  5
6F4
100
AcDbEntity
  8
0
100
AcDbLine
 62
7
  6
CONTINUOUS
 10
297.5134636547
 20
171.7183357558
 11
306.7992750566
 21
171.7183357558
  0
LINE
  5
6F5
100
AcDbEntity
  8
BEZUGSACHSEN
100
AcDbLine
 62
7
  6
CONTINUOUS
 10
391.6787718023
 20
172.7183357558
 11
384.1301952228
 21
172.7183357558
  0
LINE
  5
6F6
100
AcDbEntity
  8
BEZUGSACHSEN
100
AcDbLine
 62
7
  6
CONTINUOUS
 10
184.2273482199
 20
172.7183357558
 11
176.6787718023
 21
172.7183357558
  0
LINE
  5
6F7
100
AcDbEntity
  8
BEZUGSACHSEN
100
AcDbLine
 62
7
  6
CONTINUOUS
 10
380.5182076847
 20
173.2183357558
 11
325.1428734175
 21
173.2183357558
  0
LINE
  5
6F8
100
AcDbEntity
  8
BEZUGSACHSEN
100
AcDbLine
 62
7
  6
CONTINUOUS
 10
243.2146701872
 20
173.2183357558
 11
187.8393359203
 21
173.2183357558
  0
LINE
  5
6F9
100
AcDbEntity
  8
0
100
AcDbLine
 62
7
  6
CONTINUOUS
 10
207.5287718023
 20
173.7183357558
 11
213.7687718023
 21
173.7183357558
  0
LINE
  5
6FA
100
AcDbEntity
  8
0
100
AcDbLine
 62
7
  6
CONTINUOUS
 10
217.1787718023
 20
173.7183357558
 11
223.4187718023
 21
173.7183357558
  0
LINE
  5
6FB
100
AcDbEntity
  8
0
100
AcDbLine
 62
7
  6
CONTINUOUS
 10
336.188772756
 20
173.7183357558
 11
346.1887718023
 21
173.7183357558
  0
LINE
  5
6FC
100
AcDbEntity
  8
0
100
AcDbLine
 62
7
  6
CONTINUOUS
 10
348.1887713255
 20
173.7183357558
 11
357.1887720407
 21
173.7183357558
  0
LINE
  5
6FD
100
AcDbEntity
  8
0
100
AcDbLine
 62
7
  6
CONTINUOUS
 10
359.1887715639
 20
173.7183357558
 11
368.6887718023
 21
173.7183357558
  0
LWPOLYLINE
  5
6FE
100
AcDbEntity
  8
BEZUGSACHSEN
100
AcDbPolyline
 62
7
  6
CONTINUOUS
 90
7
 70
0
 10
384.1315132194
 20
172.7183205092
 10
383.9942847045
 20
172.7202064288
 10
383.7098746567
 20
172.7361518997
 10
383.4268491809
 20
172.7682856112
 10
383.146148044
 20
172.8164972214
 10
382.8687025354
 20
172.8806198925
 10
382.5612947561
 20
172.9632851336
  0
LINE
  5
6FF
100
AcDbEntity
  8
0
100
AcDbLine
 62
7
  6
CONTINUOUS
 10
410.5184408963
 20
212.158355955
 11
410.0550845269
 21
211.7714084802
  0
LINE
  5
700
100
AcDbEntity
  8
0
100
AcDbLine
 62
7
  6
CONTINUOUS
 10
417.7004937861
 20
211.7714084802
 11
417.2371347654
 21
211.3844610055
  0
LINE
  5
701
100
AcDbEntity
  8
0
100
AcDbLine
 62
7
  6
CONTINUOUS
 10
420.017283587
 20
209.8366707454
 11
419.6697649843
 21
209.5787057622
  0
LINE
  5
702
100
AcDbEntity
  8
0
100
AcDbLine
 62
7
  6
CONTINUOUS
 10
428.3577300516
 20
213.7061460345
 11
428.7052486543
 21
213.9641111079
  0
LINE
  5
703
100
AcDbEntity
  8
0
100
AcDbLine
 62
7
  6
CONTINUOUS
 10
428.3577300516
 20
213.5561460345
 11
428.7052486543
 21
213.8141111079
  0
LINE
  5
704
100
AcDbEntity
  8
0
100
AcDbLine
 62
7
  6
CONTINUOUS
 10
430.5586807601
 20
209.9656532369
 11
430.2111621574
 21
209.7076882538
  0
LINE
  5
705
100
AcDbEntity
  8
0
100
AcDbLine
 62
7
  6
CONTINUOUS
 10
434.149707205
 20
214.8669886393
 11
433.570509092
 21
214.7380061364
  0
LINE
  5
706
100
AcDbEntity
  8
0
100
AcDbLine
 62
7
  6
CONTINUOUS
 10
429.1686063493
 20
214.8669886393
 11
428.5894095619
 21
214.7380061364
  0
LINE
  5
707
100
AcDbEntity
  8
0
100
AcDbLine
 62
7
  6
CONTINUOUS
 10
409.5917255062
 20
210.8475135308
 11
410.1709222936
 21
210.9764960224
  0
LINE
  5
708
100
AcDbEntity
  8
0
100
AcDbLine
 62
7
  6
CONTINUOUS
 10
409.5917255062
 20
210.9975135308
 11
410.1709222936
 21
211.1264960224
  0
LINE
  5
709
100
AcDbEntity
  8
0
100
AcDbLine
 62
7
  6
CONTINUOUS
 10
417.9321719708
 20
213.9430935995
 11
418.5113687582
 21
214.0720760911
  0
LINE
  5
70A
100
AcDbEntity
  8
0
100
AcDbLine
 62
7
  6
CONTINUOUS
 10
417.9321719708
 20
214.0930935995
 11
418.5113687582
 21
214.2220760911
  0
LINE
  5
70B
100
AcDbEntity
  8
0
100
AcDbLine
 62
7
  6
CONTINUOUS
 10
408.8966883008
 20
214.8669886393
 11
408.3174915135
 21
214.7380061364
  0
LINE
  5
70C
100
AcDbEntity
  8
0
100
AcDbLine
 62
7
  6
CONTINUOUS
 10
418.9747277789
 20
208.6548108128
 11
419.7856054023
 21
208.7837933044
  0
LINE
  5
70D
100
AcDbEntity
  8
0
100
AcDbLine
 62
7
  6
CONTINUOUS
 10
418.9747277789
 20
208.8048108128
 11
419.7856054023
 21
208.9337933044
  0
LINE
  5
70E
100
AcDbEntity
  8
0
100
AcDbLine
 62
7
  6
CONTINUOUS
 10
336.188772756
 20
173.2183357558
 11
336.188772756
 21
173.7183357558
  0
LINE
  5
70F
100
AcDbEntity
  8
0
100
AcDbLine
 62
7
  6
CONTINUOUS
 10
336.4387718023
 20
173.2183357558
 11
336.4387718023
 21
173.7183357558
  0
LINE
  5
710
100
AcDbEntity
  8
0
100
AcDbLine
 62
7
  6
CONTINUOUS
 10
336.938772756
 20
173.2183357558
 11
336.938772756
 21
173.7183357558
  0
LINE
  5
711
100
AcDbEntity
  8
0
100
AcDbLine
 62
7
  6
CONTINUOUS
 10
337.9387718023
 20
173.2183357558
 11
337.9387718023
 21
173.7183357558
  0
LINE
  5
712
100
AcDbEntity
  8
0
100
AcDbLine
 62
7
  6
CONTINUOUS
 10
338.9387708487
 20
173.2183357558
 11
338.9387708487
 21
173.7183357558
  0
LINE
  5
713
100
AcDbEntity
  8
0
100
AcDbLine
 62
7
  6
CONTINUOUS
 10
340.1887718023
 20
173.2183357558
 11
340.1887718023
 21
173.7183357558
  0
LINE
  5
714
100
AcDbEntity
  8
0
100
AcDbLine
 62
7
  6
CONTINUOUS
 10
433.570509092
 20
214.7380061364
 11
433.1071513969
 21
214.3510586278
  0
LINE
  5
715
100
AcDbEntity
  8
BEZUGSACHSEN
100
AcDbLine
 62
7
  6
CONTINUOUS
 10
185.8016198524
 20
172.9646445798
 11
185.4759556336
 21
172.8772701948
  0
LWPOLYLINE
  5
716
100
AcDbEntity
  8
BEZUGSACHSEN
100
AcDbPolyline
 62
7
  6
CONTINUOUS
 90
6
 70
0
 10
185.4759556336
 20
172.8772701948
 10
185.1983385063
 20
172.8138872338
 10
184.9175091296
 20
172.7664242542
 10
184.6343991889
 20
172.7350454487
 10
184.3499486822
 20
172.719858506
 10
184.2260327215
 20
172.7183207758
  0
LWPOLYLINE
  5
717
100
AcDbEntity
  8
BEZUGSACHSEN
100
AcDbPolyline
 62
7
  6
CONTINUOUS
 90
6
 70
0
 10
382.5612947561
 20
172.9632851336
 10
382.0866478671
 20
173.0689506764
 10
381.6061941354
 20
173.1467773209
 10
381.1219055464
 20
173.1963651008
 10
380.6357933598
 20
173.2175012655
 10
380.5180961133
 20
173.218333941
  0
LINE
  5
718
100
AcDbEntity
  8
0
100
AcDbLine
 62
7
  6
CONTINUOUS
 10
346.1887718023
 20
173.2183357558
 11
346.1887718023
 21
173.7183357558
  0
LINE
  5
719
100
AcDbEntity
  8
0
100
AcDbLine
 62
7
  6
CONTINUOUS
 10
348.1887713255
 20
173.2183357558
 11
348.1887713255
 21
173.7183357558
  0
LINE
  5
71A
100
AcDbEntity
  8
0
100
AcDbLine
 62
7
  6
CONTINUOUS
 10
349.6887713255
 20
173.2183357558
 11
349.6887713255
 21
173.7183357558
  0
LINE
  5
71B
100
AcDbEntity
  8
0
100
AcDbLine
 62
7
  6
CONTINUOUS
 10
349.9387718023
 20
173.2183357558
 11
349.9387718023
 21
173.7183357558
  0
LINE
  5
71C
100
AcDbEntity
  8
0
100
AcDbLine
 62
7
  6
CONTINUOUS
 10
350.4387713255
 20
173.2183357558
 11
350.4387713255
 21
173.7183357558
  0
LINE
  5
71D
100
AcDbEntity
  8
0
100
AcDbLine
 62
7
  6
CONTINUOUS
 10
351.1887713255
 20
173.2183357558
 11
351.1887713255
 21
173.7183357558
  0
LINE
  5
71E
100
AcDbEntity
  8
0
100
AcDbLine
 62
7
  6
CONTINUOUS
 10
352.1887718023
 20
173.2183357558
 11
352.1887718023
 21
173.7183357558
  0
LINE
  5
71F
100
AcDbEntity
  8
0
100
AcDbLine
 62
7
  6
CONTINUOUS
 10
353.1887722792
 20
173.2183357558
 11
353.1887722792
 21
173.7183357558
  0
LINE
  5
720
100
AcDbEntity
  8
0
100
AcDbLine
 62
7
  6
CONTINUOUS
 10
407.7382920747
 20
214.3510586278
 11
407.3907734721
 21
213.8351286164
  0
LINE
  5
721
100
AcDbEntity
  8
0
100
AcDbLine
 62
7
  6
CONTINUOUS
 10
415.8470603547
 20
210.7395485477
 11
415.1520231493
 21
209.8366707454
  0
LINE
  5
722
100
AcDbEntity
  8
0
100
AcDbLine
 62
7
  6
CONTINUOUS
 10
415.1520231493
 20
208.8048108128
 11
415.8470603547
 21
209.7076882538
  0
LINE
  5
723
100
AcDbEntity
  8
0
100
AcDbLine
 62
7
  6
CONTINUOUS
 10
415.1520231493
 20
208.6548108128
 11
415.8470603547
 21
209.5576882538
  0
LINE
  5
724
100
AcDbEntity
  8
0
100
AcDbLine
 62
7
  6
CONTINUOUS
 10
417.4688129501
 20
213.7061460345
 11
417.7004937861
 21
213.9641111079
  0
LINE
  5
725
100
AcDbEntity
  8
0
100
AcDbLine
 62
7
  6
CONTINUOUS
 10
417.4688129501
 20
213.5561460345
 11
417.7004937861
 21
213.8141111079
  0
LINE
  5
726
100
AcDbEntity
  8
0
100
AcDbLine
 62
7
  6
CONTINUOUS
 10
417.7004937861
 20
210.9975135308
 11
417.9321719708
 21
211.255478514
  0
LINE
  5
727
100
AcDbEntity
  8
0
100
AcDbLine
 62
7
  6
CONTINUOUS
 10
417.7004937861
 20
210.8475135308
 11
417.9321719708
 21
211.105478514
  0
LINE
  5
728
100
AcDbEntity
  8
0
100
AcDbLine
 62
7
  6
CONTINUOUS
 10
420.2489617717
 20
209.1917582875
 11
420.7123207924
 21
209.7076882538
  0
LINE
  5
729
100
AcDbEntity
  8
0
100
AcDbLine
 62
7
  6
CONTINUOUS
 10
420.2489617717
 20
209.0417582875
 11
420.7123207924
 21
209.5576882538
  0
LINE
  5
72A
100
AcDbEntity
  8
0
100
AcDbLine
 62
7
  6
CONTINUOUS
 10
428.1260505412
 20
214.4800411194
 11
427.6626928462
 21
213.9641111079
  0
LINE
  5
72B
100
AcDbEntity
  8
0
100
AcDbLine
 62
7
  6
CONTINUOUS
 10
433.4546699996
 20
213.7061460345
 11
433.6863481843
 21
213.9641111079
  0
LINE
  5
72C
100
AcDbEntity
  8
0
100
AcDbLine
 62
7
  6
CONTINUOUS
 10
433.4546699996
 20
213.5561460345
 11
433.6863481843
 21
213.8141111079
  0
LINE
  5
72D
100
AcDbEntity
  8
0
100
AcDbLine
 62
7
  6
CONTINUOUS
 10
430.7903602704
 20
209.1917582875
 11
431.2537179655
 21
209.7076882538
  0
LINE
  5
72E
100
AcDbEntity
  8
0
100
AcDbLine
 62
7
  6
CONTINUOUS
 10
430.7903602704
 20
209.0417582875
 11
431.2537179655
 21
209.5576882538
  0
LINE
  5
72F
100
AcDbEntity
  8
0
100
AcDbLine
 62
7
  6
CONTINUOUS
 10
407.3907734721
 20
208.6548108128
 11
411.3293185197
 21
208.6548108128
  0
LINE
  5
730
100
AcDbEntity
  8
0
100
AcDbLine
 62
7
  6
CONTINUOUS
 10
414.4569859439
 20
208.6548108128
 11
415.1520231493
 21
208.6548108128
  0
LINE
  5
731
100
AcDbEntity
  8
0
100
AcDbLine
 62
7
  6
CONTINUOUS
 10
418.7430495942
 20
208.6548108128
 11
418.9747277789
 21
208.6548108128
  0
LINE
  5
732
100
AcDbEntity
  8
0
100
AcDbLine
 62
7
  6
CONTINUOUS
 10
429.2844467673
 20
208.6548108128
 11
429.8636435547
 21
208.6548108128
  0
LINE
  5
733
100
AcDbEntity
  8
0
100
AcDbLine
 62
7
  6
CONTINUOUS
 10
434.149707205
 20
208.6548108128
 11
436.9298553637
 21
208.6548108128
  0
LINE
  5
734
100
AcDbEntity
  8
0
100
AcDbLine
 62
7
  6
CONTINUOUS
 10
439.4783253377
 20
208.6548108128
 11
442.2584741593
 21
208.6548108128
  0
LINE
  5
735
100
AcDbEntity
  8
0
100
AcDbLine
 62
7
  6
CONTINUOUS
 10
443.1851905436
 20
208.6548108128
 11
443.880227749
 21
208.6548108128
  0
LINE
  5
736
100
AcDbEntity
  8
0
100
AcDbLine
 62
7
  6
CONTINUOUS
 10
447.1237345969
 20
208.6548108128
 11
447.8187718023
 21
208.6548108128
  0
LINE
  5
737
100
AcDbEntity
  8
0
100
AcDbLine
 62
7
  6
CONTINUOUS
 10
407.3907734721
 20
208.8048108128
 11
411.3293185197
 21
208.8048108128
  0
LINE
  5
738
100
AcDbEntity
  8
0
100
AcDbLine
 62
7
  6
CONTINUOUS
 10
414.4569859439
 20
208.8048108128
 11
415.1520231493
 21
208.8048108128
  0
LINE
  5
739
100
AcDbEntity
  8
0
100
AcDbLine
 62
7
  6
CONTINUOUS
 10
418.7430495942
 20
208.8048108128
 11
418.9747277789
 21
208.8048108128
  0
LINE
  5
73A
100
AcDbEntity
  8
0
100
AcDbLine
 62
7
  6
CONTINUOUS
 10
429.2844467673
 20
208.8048108128
 11
429.8636435547
 21
208.8048108128
  0
LINE
  5
73B
100
AcDbEntity
  8
0
100
AcDbLine
 62
7
  6
CONTINUOUS
 10
434.149707205
 20
208.8048108128
 11
436.9298553637
 21
208.8048108128
  0
LINE
  5
73C
100
AcDbEntity
  8
0
100
AcDbLine
 62
7
  6
CONTINUOUS
 10
439.4783253377
 20
208.8048108128
 11
442.2584741593
 21
208.8048108128
  0
LINE
  5
73D
100
AcDbEntity
  8
0
100
AcDbLine
 62
7
  6
CONTINUOUS
 10
443.1851905436
 20
208.8048108128
 11
443.880227749
 21
208.8048108128
  0
LINE
  5
73E
100
AcDbEntity
  8
0
100
AcDbLine
 62
7
  6
CONTINUOUS
 10
447.1237345969
 20
208.8048108128
 11
447.8187718023
 21
208.8048108128
  0
LINE
  5
73F
100
AcDbEntity
  8
0
100
AcDbLine
 62
7
  6
CONTINUOUS
 10
441.5634369539
 20
209.4497232706
 11
439.3624855825
 21
209.4497232706
  0
LINE
  5
740
100
AcDbEntity
  8
0
100
AcDbLine
 62
7
  6
CONTINUOUS
 10
419.0905681969
 20
209.4497232706
 11
418.6272091762
 21
209.4497232706
  0
LINE
  5
741
100
AcDbEntity
  8
0
100
AcDbLine
 62
7
  6
CONTINUOUS
 10
410.7501217323
 20
209.4497232706
 11
407.3907734721
 21
209.4497232706
  0
LINE
  5
742
100
AcDbEntity
  8
0
100
AcDbLine
 62
7
  6
CONTINUOUS
 10
404.7264650685
 20
209.5576882538
 11
405.3056618559
 21
209.5576882538
  0
LINE
  5
743
100
AcDbEntity
  8
0
100
AcDbLine
 62
7
  6
CONTINUOUS
 10
436.2348188212
 20
209.5787057622
 11
434.033866787
 21
209.5787057622
  0
LINE
  5
744
100
AcDbEntity
  8
0
100
AcDbLine
 62
7
  6
CONTINUOUS
 10
429.8636435547
 20
209.5787057622
 11
429.1686063493
 21
209.5787057622
  0
LINE
  5
745
100
AcDbEntity
  8
0
100
AcDbLine
 62
7
  6
CONTINUOUS
 10
404.7264650685
 20
209.7076882538
 11
405.3056618559
 21
209.7076882538
  0
LINE
  5
746
100
AcDbEntity
  8
0
100
AcDbLine
 62
7
  6
CONTINUOUS
 10
428.4735691439
 20
210.2236182201
 11
427.7785319385
 21
210.2236182201
  0
LINE
  5
747
100
AcDbEntity
  8
0
100
AcDbLine
 62
7
  6
CONTINUOUS
 10
420.8281612104
 20
210.2236182201
 11
420.2489617717
 21
210.2236182201
  0
LINE
  5
748
100
AcDbEntity
  8
0
100
AcDbLine
 62
7
  6
CONTINUOUS
 10
403.4522310758
 20
210.5895485477
 11
404.7264650685
 21
210.5895485477
  0
LINE
  5
749
100
AcDbEntity
  8
0
100
AcDbLine
 62
7
  6
CONTINUOUS
 10
405.3056618559
 20
210.5895485477
 11
406.2323798973
 21
210.5895485477
  0
LINE
  5
74A
100
AcDbEntity
  8
0
100
AcDbLine
 62
7
  6
CONTINUOUS
 10
403.4522310758
 20
210.7395485477
 11
404.7264650685
 21
210.7395485477
  0
LINE
  5
74B
100
AcDbEntity
  8
0
100
AcDbLine
 62
7
  6
CONTINUOUS
 10
405.3056618559
 20
210.7395485477
 11
406.2323798973
 21
210.7395485477
  0
LINE
  5
74C
100
AcDbEntity
  8
0
100
AcDbLine
 62
7
  6
CONTINUOUS
 10
408.8966883008
 20
210.8475135308
 11
409.5917255062
 21
210.8475135308
  0
LINE
  5
74D
100
AcDbEntity
  8
0
100
AcDbLine
 62
7
  6
CONTINUOUS
 10
408.8966883008
 20
210.9975135308
 11
409.5917255062
 21
210.9975135308
  0
LINE
  5
74E
100
AcDbEntity
  8
0
100
AcDbLine
 62
7
  6
CONTINUOUS
 10
429.1686063493
 20
211.2344610055
 11
429.8636435547
 21
211.2344610055
  0
LINE
  5
74F
100
AcDbEntity
  8
0
100
AcDbLine
 62
7
  6
CONTINUOUS
 10
434.033866787
 20
211.2344610055
 11
436.2348188212
 21
211.2344610055
  0
LINE
  5
750
100
AcDbEntity
  8
0
100
AcDbLine
 62
7
  6
CONTINUOUS
 10
439.3624855825
 20
211.2344610055
 11
441.5634369539
 21
211.2344610055
  0
LINE
  5
751
100
AcDbEntity
  8
0
100
AcDbLine
 62
7
  6
CONTINUOUS
 10
406.2323798973
 20
211.255478514
 11
405.3056618559
 21
211.255478514
  0
LINE
  5
752
100
AcDbEntity
  8
0
100
AcDbLine
 62
7
  6
CONTINUOUS
 10
404.7264650685
 20
211.255478514
 11
403.4522310758
 21
211.255478514
  0
LINE
  5
753
100
AcDbEntity
  8
0
100
AcDbLine
 62
7
  6
CONTINUOUS
 10
418.6272091762
 20
211.3634434971
 11
419.0905681969
 21
211.3634434971
  0
LINE
  5
754
100
AcDbEntity
  8
0
100
AcDbLine
 62
7
  6
CONTINUOUS
 10
429.1686063493
 20
211.3844610055
 11
429.8636435547
 21
211.3844610055
  0
LINE
  5
755
100
AcDbEntity
  8
0
100
AcDbLine
 62
7
  6
CONTINUOUS
 10
434.033866787
 20
211.3844610055
 11
436.2348188212
 21
211.3844610055
  0
LINE
  5
756
100
AcDbEntity
  8
0
100
AcDbLine
 62
7
  6
CONTINUOUS
 10
439.3624855825
 20
211.3844610055
 11
441.5634369539
 21
211.3844610055
  0
LINE
  5
757
100
AcDbEntity
  8
0
100
AcDbLine
 62
7
  6
CONTINUOUS
 10
418.6272091762
 20
211.5134434971
 11
419.0905681969
 21
211.5134434971
  0
LINE
  5
758
100
AcDbEntity
  8
0
100
AcDbLine
 62
7
  6
CONTINUOUS
 10
409.5917255062
 20
211.6424259887
 11
408.8966883008
 21
211.6424259887
  0
LINE
  5
759
100
AcDbEntity
  8
0
100
AcDbLine
 62
7
  6
CONTINUOUS
 10
419.0905681969
 20
212.0293734634
 11
418.6272091762
 21
212.0293734634
  0
LINE
  5
75A
100
AcDbEntity
  8
0
100
AcDbLine
 62
7
  6
CONTINUOUS
 10
441.5634369539
 20
212.158355955
 11
439.5941650929
 21
212.158355955
  0
LINE
  5
75B
100
AcDbEntity
  8
0
100
AcDbLine
 62
7
  6
CONTINUOUS
 10
436.2348188212
 20
212.158355955
 11
434.033866787
 21
212.158355955
  0
LINE
  5
75C
100
AcDbEntity
  8
0
100
AcDbLine
 62
7
  6
CONTINUOUS
 10
429.8636435547
 20
212.158355955
 11
429.1686063493
 21
212.158355955
  0
LINE
  5
75D
100
AcDbEntity
  8
0
100
AcDbLine
 62
7
  6
CONTINUOUS
 10
411.3293185197
 20
212.158355955
 11
410.5184408963
 21
212.158355955
  0
LINE
  5
75E
100
AcDbEntity
  8
0
100
AcDbLine
 62
7
  6
CONTINUOUS
 10
431.0220397808
 20
213.0402160682
 11
431.7170769862
 21
213.0402160682
  0
LINE
  5
75F
100
AcDbEntity
  8
0
100
AcDbLine
 62
7
  6
CONTINUOUS
 10
410.6342813143
 20
213.1691985598
 11
411.3293185197
 21
213.1691985598
  0
LINE
  5
760
100
AcDbEntity
  8
0
100
AcDbLine
 62
7
  6
CONTINUOUS
 10
431.0220397808
 20
213.1902160682
 11
431.7170769862
 21
213.1902160682
  0
LINE
  5
761
100
AcDbEntity
  8
0
100
AcDbLine
 62
7
  6
CONTINUOUS
 10
420.3648021897
 20
213.2981810513
 11
420.943998977
 21
213.2981810513
  0
LINE
  5
762
100
AcDbEntity
  8
0
100
AcDbLine
 62
7
  6
CONTINUOUS
 10
410.6342813143
 20
213.3191985598
 11
411.3293185197
 21
213.3191985598
  0
LINE
  5
763
100
AcDbEntity
  8
0
100
AcDbLine
 62
7
  6
CONTINUOUS
 10
420.3648021897
 20
213.4481810513
 11
420.943998977
 21
213.4481810513
  0
LINE
  5
764
100
AcDbEntity
  8
0
100
AcDbLine
 62
7
  6
CONTINUOUS
 10
429.1686063493
 20
213.9430935995
 11
430.095323065
 21
213.9430935995
  0
LINE
  5
765
100
AcDbEntity
  8
0
100
AcDbLine
 62
7
  6
CONTINUOUS
 10
434.033866787
 20
213.9430935995
 11
436.2348188212
 21
213.9430935995
  0
LINE
  5
766
100
AcDbEntity
  8
0
100
AcDbLine
 62
7
  6
CONTINUOUS
 10
408.8966883008
 20
214.0720760911
 11
409.5917255062
 21
214.0720760911
  0
LINE
  5
767
100
AcDbEntity
  8
0
100
AcDbLine
 62
7
  6
CONTINUOUS
 10
412.2560339097
 20
214.0720760911
 11
412.8352333485
 21
214.0720760911
  0
LINE
  5
768
100
AcDbEntity
  8
0
100
AcDbLine
 62
7
  6
CONTINUOUS
 10
418.5113687582
 20
214.0720760911
 11
419.2064059636
 21
214.0720760911
  0
LINE
  5
769
100
AcDbEntity
  8
0
100
AcDbLine
 62
7
  6
CONTINUOUS
 10
429.1686063493
 20
214.0930935995
 11
430.095323065
 21
214.0930935995
  0
LINE
  5
76A
100
AcDbEntity
  8
0
100
AcDbLine
 62
7
  6
CONTINUOUS
 10
434.033866787
 20
214.0930935995
 11
436.2348188212
 21
214.0930935995
  0
LINE
  5
76B
100
AcDbEntity
  8
0
100
AcDbLine
 62
7
  6
CONTINUOUS
 10
408.8966883008
 20
214.2220760911
 11
409.5917255062
 21
214.2220760911
  0
LINE
  5
76C
100
AcDbEntity
  8
0
100
AcDbLine
 62
7
  6
CONTINUOUS
 10
412.2560339097
 20
214.2220760911
 11
412.8352333485
 21
214.2220760911
  0
LINE
  5
76D
100
AcDbEntity
  8
0
100
AcDbLine
 62
7
  6
CONTINUOUS
 10
418.5113687582
 20
214.2220760911
 11
419.2064059636
 21
214.2220760911
  0
LINE
  5
76E
100
AcDbEntity
  8
0
100
AcDbLine
 62
7
  6
CONTINUOUS
 10
445.9653391994
 20
214.8669886393
 11
445.0386229808
 21
214.8669886393
  0
LINE
  5
76F
100
AcDbEntity
  8
0
100
AcDbLine
 62
7
  6
CONTINUOUS
 10
442.2584741593
 20
214.8669886393
 11
441.5634369539
 21
214.8669886393
  0
LINE
  5
770
100
AcDbEntity
  8
0
100
AcDbLine
 62
7
  6
CONTINUOUS
 10
438.6674483772
 20
214.8669886393
 11
437.8565720794
 21
214.8669886393
  0
LINE
  5
771
100
AcDbEntity
  8
0
100
AcDbLine
 62
7
  6
CONTINUOUS
 10
436.9298553637
 20
214.8669886393
 11
434.149707205
 21
214.8669886393
  0
LINE
  5
772
100
AcDbEntity
  8
0
100
AcDbLine
 62
7
  6
CONTINUOUS
 10
430.095323065
 20
214.8669886393
 11
429.1686063493
 21
214.8669886393
  0
LINE
  5
773
100
AcDbEntity
  8
0
100
AcDbLine
 62
7
  6
CONTINUOUS
 10
419.3222463816
 20
214.8669886393
 11
418.3955309915
 21
214.8669886393
  0
LINE
  5
774
100
AcDbEntity
  8
0
100
AcDbLine
 62
7
  6
CONTINUOUS
 10
415.1520231493
 20
214.8669886393
 11
414.4569859439
 21
214.8669886393
  0
LINE
  5
775
100
AcDbEntity
  8
0
100
AcDbLine
 62
7
  6
CONTINUOUS
 10
409.5917255062
 20
214.8669886393
 11
408.8966883008
 21
214.8669886393
  0
LINE
  5
776
100
AcDbEntity
  8
0
100
AcDbLine
 62
7
  6
CONTINUOUS
 10
413.5302705538
 20
215.640883679
 11
412.9510711151
 21
215.640883679
  0
LINE
  5
777
100
AcDbEntity
  8
0
100
AcDbLine
 62
7
  6
CONTINUOUS
 10
354.1887713255
 20
173.2183357558
 11
354.1887713255
 21
173.7183357558
  0
LINE
  5
778
100
AcDbEntity
  8
0
100
AcDbLine
 62
7
  6
CONTINUOUS
 10
354.9387713255
 20
173.2183357558
 11
354.9387713255
 21
173.7183357558
  0
LINE
  5
779
100
AcDbEntity
  8
0
100
AcDbLine
 62
7
  6
CONTINUOUS
 10
355.4387722792
 20
173.2183357558
 11
355.4387722792
 21
173.7183357558
  0
LINE
  5
77A
100
AcDbEntity
  8
0
100
AcDbLine
 62
7
  6
CONTINUOUS
 10
355.6887713255
 20
173.2183357558
 11
355.6887713255
 21
173.7183357558
  0
LINE
  5
77B
100
AcDbEntity
  8
0
100
AcDbLine
 62
7
  6
CONTINUOUS
 10
357.1887720407
 20
173.2183357558
 11
357.1887720407
 21
173.7183357558
  0
LINE
  5
77C
100
AcDbEntity
  8
0
100
AcDbLine
 62
7
  6
CONTINUOUS
 10
359.1887715639
 20
173.2183357558
 11
359.1887715639
 21
173.7183357558
  0
LINE
  5
77D
100
AcDbEntity
  8
0
100
AcDbLine
 62
7
  6
CONTINUOUS
 10
359.4387720407
 20
173.2183357558
 11
359.4387720407
 21
173.7183357558
  0
LINE
  5
77E
100
AcDbEntity
  8
0
100
AcDbLine
 62
7
  6
CONTINUOUS
 10
359.6887718023
 20
173.2183357558
 11
359.6887718023
 21
173.7183357558
  0
LINE
  5
77F
100
AcDbEntity
  8
0
100
AcDbLine
 62
7
  6
CONTINUOUS
 10
360.4387718023
 20
173.2183357558
 11
360.4387718023
 21
173.7183357558
  0
LINE
  5
780
100
AcDbEntity
  8
0
100
AcDbLine
 62
7
  6
CONTINUOUS
 10
361.4387715639
 20
173.2183357558
 11
361.4387715639
 21
173.7183357558
  0
LINE
  5
781
100
AcDbEntity
  8
0
100
AcDbLine
 62
7
  6
CONTINUOUS
 10
362.6887718023
 20
173.2183357558
 11
362.6887718023
 21
173.7183357558
  0
LINE
  5
782
100
AcDbEntity
  8
0
100
AcDbLine
 62
7
  6
CONTINUOUS
 10
407.8541324928
 20
213.4481810513
 11
408.0858106774
 21
213.8351286164
  0
LINE
  5
783
100
AcDbEntity
  8
0
100
AcDbLine
 62
7
  6
CONTINUOUS
 10
407.8541324928
 20
213.2981810513
 11
408.0858106774
 21
213.6851286164
  0
LINE
  5
784
100
AcDbEntity
  8
0
100
AcDbLine
 62
7
  6
CONTINUOUS
 10
417.1212943474
 20
214.2220760911
 11
416.8896161627
 21
213.8351286164
  0
LINE
  5
785
100
AcDbEntity
  8
0
100
AcDbLine
 62
7
  6
CONTINUOUS
 10
417.2371347654
 20
211.3844610055
 11
417.0054565808
 21
210.9975135308
  0
LINE
  5
786
100
AcDbEntity
  8
0
100
AcDbLine
 62
7
  6
CONTINUOUS
 10
433.4546699996
 20
210.9975135308
 11
433.6863481843
 21
211.255478514
  0
LINE
  5
787
100
AcDbEntity
  8
0
100
AcDbLine
 62
7
  6
CONTINUOUS
 10
433.4546699996
 20
210.8475135308
 11
433.6863481843
 21
211.105478514
  0
LINE
  5
788
100
AcDbEntity
  8
0
100
AcDbLine
 62
7
  6
CONTINUOUS
 10
438.7832881323
 20
210.9975135308
 11
439.0149669799
 21
211.255478514
  0
LINE
  5
789
100
AcDbEntity
  8
0
100
AcDbLine
 62
7
  6
CONTINUOUS
 10
438.7832881323
 20
210.8475135308
 11
439.0149669799
 21
211.105478514
  0
LINE
  5
78A
100
AcDbEntity
  8
RUNDUNGEN
100
AcDbLine
 62
7
  6
CONTINUOUS
 10
433.4655683667
 20
229.7183357558
 11
409.8750530553
 21
229.7183357558
  0
LINE
  5
78B
100
AcDbEntity
  8
RUNDUNGEN
100
AcDbLine
 62
7
  6
CONTINUOUS
 10
158.4824905493
 20
229.7183357558
 11
134.8919752379
 21
229.7183357558
  0
LINE
  5
78C
100
AcDbEntity
  8
0
100
AcDbLine
 62
7
  6
CONTINUOUS
 10
417.9321719708
 20
208.7837933044
 11
418.7430495942
 21
208.6548108128
  0
LINE
  5
78D
100
AcDbEntity
  8
0
100
AcDbLine
 62
7
  6
CONTINUOUS
 10
417.9321719708
 20
208.9337933044
 11
418.7430495942
 21
208.8048108128
  0
LINE
  5
78E
100
AcDbEntity
  8
0
100
AcDbLine
 62
7
  6
CONTINUOUS
 10
368.6887718023
 20
173.2183357558
 11
368.6887718023
 21
173.7183357558
  0
LINE
  5
78F
100
AcDbEntity
  8
0
100
AcDbLine
 62
7
  6
CONTINUOUS
 10
407.3907734721
 20
213.8351286164
 11
407.1590952874
 21
213.1902160682
  0
LINE
  5
790
100
AcDbEntity
  8
0
100
AcDbLine
 62
7
  6
CONTINUOUS
 10
417.3529751835
 20
213.4481810513
 11
417.4688129501
 21
213.7061460345
  0
LINE
  5
791
100
AcDbEntity
  8
0
100
AcDbLine
 62
7
  6
CONTINUOUS
 10
417.3529751835
 20
213.2981810513
 11
417.4688129501
 21
213.5561460345
  0
LINE
  5
792
100
AcDbEntity
  8
0
100
AcDbLine
 62
7
  6
CONTINUOUS
 10
417.4688129501
 20
210.4815835645
 11
417.7004937861
 21
210.9975135308
  0
LINE
  5
793
100
AcDbEntity
  8
0
100
AcDbLine
 62
7
  6
CONTINUOUS
 10
417.4688129501
 20
210.3315835645
 11
417.7004937861
 21
210.8475135308
  0
LINE
  5
794
100
AcDbEntity
  8
0
100
AcDbLine
 62
7
  6
CONTINUOUS
 10
412.9510711151
 20
215.640883679
 11
412.2560339097
 21
214.2220760911
  0
LINE
  5
795
100
AcDbEntity
  8
0
100
AcDbLine
 62
7
  6
CONTINUOUS
 10
412.8352333485
 20
214.2220760911
 11
413.5302705538
 21
215.640883679
  0
LINE
  5
796
100
AcDbEntity
  8
0
100
AcDbLine
 62
7
  6
CONTINUOUS
 10
412.8352333485
 20
214.0720760911
 11
413.5302705538
 21
215.490883679
  0
LINE
  5
797
100
AcDbEntity
  8
0
100
AcDbLine
 62
7
  6
CONTINUOUS
 10
420.2489617717
 20
210.2236182201
 11
420.017283587
 21
209.8366707454
  0
LINE
  5
798
100
AcDbEntity
  8
0
100
AcDbLine
 62
7
  6
CONTINUOUS
 10
428.1260505412
 20
213.3191985598
 11
428.3577300516
 21
213.7061460345
  0
LINE
  5
799
100
AcDbEntity
  8
0
100
AcDbLine
 62
7
  6
CONTINUOUS
 10
428.1260505412
 20
213.1691985598
 11
428.3577300516
 21
213.5561460345
  0
LINE
  5
79A
100
AcDbEntity
  8
0
100
AcDbLine
 62
7
  6
CONTINUOUS
 10
433.1071513969
 20
214.3510586278
 11
432.7596327942
 21
213.8351286164
  0
LINE
  5
79B
100
AcDbEntity
  8
0
100
AcDbLine
 62
7
  6
CONTINUOUS
 10
433.1071513969
 20
211.6424259887
 11
432.7596327942
 21
211.1264960224
  0
LINE
  5
79C
100
AcDbEntity
  8
0
100
AcDbLine
 62
7
  6
CONTINUOUS
 10
438.4357695296
 20
211.6424259887
 11
438.088250927
 21
211.1264960224
  0
LINE
  5
79D
100
AcDbEntity
  8
0
100
AcDbLine
 62
7
  6
CONTINUOUS
 10
418.6272091762
 20
212.0293734634
 11
417.9321719708
 21
212.158355955
  0
LINE
  5
79E
100
AcDbEntity
  8
0
100
AcDbLine
 62
7
  6
CONTINUOUS
 10
404.3789464658
 20
214.7380061364
 11
403.6839092605
 21
214.8669886393
  0
LINE
  5
79F
100
AcDbEntity
  8
0
100
AcDbLine
 62
7
  6
CONTINUOUS
 10
408.3174915135
 20
210.9764960224
 11
408.8966883008
 21
210.8475135308
  0
LINE
  5
7A0
100
AcDbEntity
  8
0
100
AcDbLine
 62
7
  6
CONTINUOUS
 10
408.3174915135
 20
211.1264960224
 11
408.8966883008
 21
210.9975135308
  0
LINE
  5
7A1
100
AcDbEntity
  8
0
100
AcDbLine
 62
7
  6
CONTINUOUS
 10
418.6272091762
 20
209.4497232706
 11
418.0480123888
 21
209.5787057622
  0
LINE
  5
7A2
100
AcDbEntity
  8
0
100
AcDbLine
 62
7
  6
CONTINUOUS
 10
403.6839092605
 20
214.2010586278
 11
404.2631060478
 21
214.0720760911
  0
LINE
  5
7A3
100
AcDbEntity
  8
0
100
AcDbLine
 62
7
  6
CONTINUOUS
 10
403.6839092605
 20
214.3510586278
 11
404.2631060478
 21
214.2220760911
  0
LINE
  5
7A4
100
AcDbEntity
  8
0
100
AcDbLine
 62
7
  6
CONTINUOUS
 10
428.7052486543
 20
208.7837933044
 11
429.2844467673
 21
208.6548108128
  0
LINE
  5
7A5
100
AcDbEntity
  8
0
100
AcDbLine
 62
7
  6
CONTINUOUS
 10
428.7052486543
 20
208.9337933044
 11
429.2844467673
 21
208.8048108128
  0
LINE
  5
7A6
100
AcDbEntity
  8
0
100
AcDbLine
 62
7
  6
CONTINUOUS
 10
433.570509092
 20
208.7837933044
 11
434.149707205
 21
208.6548108128
  0
LINE
  5
7A7
100
AcDbEntity
  8
0
100
AcDbLine
 62
7
  6
CONTINUOUS
 10
433.570509092
 20
208.9337933044
 11
434.149707205
 21
208.8048108128
  0
LINE
  5
7A8
100
AcDbEntity
  8
0
100
AcDbLine
 62
7
  6
CONTINUOUS
 10
410.1709222936
 20
214.7380061364
 11
409.5917255062
 21
214.8669886393
  0
LINE
  5
7A9
100
AcDbEntity
  8
0
100
AcDbLine
 62
7
  6
CONTINUOUS
 10
438.8991278875
 20
208.7837933044
 11
439.4783253377
 21
208.6548108128
  0
LINE
  5
7AA
100
AcDbEntity
  8
0
100
AcDbLine
 62
7
  6
CONTINUOUS
 10
438.8991278875
 20
208.9337933044
 11
439.4783253377
 21
208.8048108128
  0
LINE
  5
7AB
100
AcDbEntity
  8
0
100
AcDbLine
 62
7
  6
CONTINUOUS
 10
428.5894095619
 20
211.3634434971
 11
429.1686063493
 21
211.2344610055
  0
LINE
  5
7AC
100
AcDbEntity
  8
0
100
AcDbLine
 62
7
  6
CONTINUOUS
 10
428.5894095619
 20
211.5134434971
 11
429.1686063493
 21
211.3844610055
  0
LINE
  5
7AD
100
AcDbEntity
  8
0
100
AcDbLine
 62
7
  6
CONTINUOUS
 10
419.2064059636
 20
214.0720760911
 11
419.7856054023
 21
213.9430935995
  0
LINE
  5
7AE
100
AcDbEntity
  8
0
100
AcDbLine
 62
7
  6
CONTINUOUS
 10
419.2064059636
 20
214.2220760911
 11
419.7856054023
 21
214.0930935995
  0
LINE
  5
7AF
100
AcDbEntity
  8
0
100
AcDbLine
 62
7
  6
CONTINUOUS
 10
430.6745211781
 20
214.7380061364
 11
430.095323065
 21
214.8669886393
  0
LINE
  5
7B0
100
AcDbEntity
  8
0
100
AcDbLine
 62
7
  6
CONTINUOUS
 10
408.8966883008
 20
211.6424259887
 11
408.4333292801
 21
211.7714084802
  0
LINE
  5
7B1
100
AcDbEntity
  8
0
100
AcDbLine
 62
7
  6
CONTINUOUS
 10
409.5917255062
 20
214.0720760911
 11
410.0550845269
 21
213.9430935995
  0
LINE
  5
7B2
100
AcDbEntity
  8
0
100
AcDbLine
 62
7
  6
CONTINUOUS
 10
409.5917255062
 20
214.2220760911
 11
410.0550845269
 21
214.0930935995
  0
LINE
  5
7B3
100
AcDbEntity
  8
RUNDUNGEN
100
AcDbLine
 62
7
  6
CONTINUOUS
 10
391.0102218569
 20
136.7183357558
 11
391.0102218569
 21
162.7183357558
  0
LINE
  5
7B4
100
AcDbEntity
  8
RUNDUNGEN
100
AcDbLine
 62
7
  6
CONTINUOUS
 10
391.6787718023
 20
103.9544408763
 11
391.6787718023
 21
195.4821168103
  0
LINE
  5
7B5
100
AcDbEntity
  8
RUNDUNGEN
100
AcDbLine
 62
7
  6
CONTINUOUS
 10
395.0597279464
 20
217.0648527314
 11
391.7156893452
 21
195.9514239483
  0
LINE
  5
7B6
100
AcDbEntity
  8
0
100
AcDbLine
 62
7
  6
CONTINUOUS
 10
407.7382920747
 20
213.0612335766
 11
407.8541324928
 21
213.4481810513
  0
LINE
  5
7B7
100
AcDbEntity
  8
0
100
AcDbLine
 62
7
  6
CONTINUOUS
 10
407.7382920747
 20
212.9112335766
 11
407.8541324928
 21
213.2981810513
  0
LINE
  5
7B8
100
AcDbEntity
  8
0
100
AcDbLine
 62
7
  6
CONTINUOUS
 10
416.8896161627
 20
213.8351286164
 11
416.7737757447
 21
213.4481810513
  0
LINE
  5
7B9
100
AcDbEntity
  8
0
100
AcDbLine
 62
7
  6
CONTINUOUS
 10
427.6626928462
 20
213.9641111079
 11
427.4310133358
 21
213.4481810513
  0
LINE
  5
7BA
100
AcDbEntity
  8
0
100
AcDbLine
 62
7
  6
CONTINUOUS
 10
419.7856054023
 20
214.7380061364
 11
419.3222463816
 21
214.8669886393
  0
LINE
  5
7BB
100
AcDbEntity
  8
0
100
AcDbLine
 62
7
  6
CONTINUOUS
 10
429.1686063493
 20
212.158355955
 11
428.7052486543
 21
212.2873384465
  0
LINE
  5
7BC
100
AcDbEntity
  8
0
100
AcDbLine
 62
7
  6
CONTINUOUS
 10
430.3270025754
 20
212.0293734634
 11
429.8636435547
 21
212.158355955
  0
LINE
  5
7BD
100
AcDbEntity
  8
0
100
AcDbLine
 62
7
  6
CONTINUOUS
 10
430.095323065
 20
213.9430935995
 11
430.5586807601
 21
213.8141111079
  0
LINE
  5
7BE
100
AcDbEntity
  8
0
100
AcDbLine
 62
7
  6
CONTINUOUS
 10
430.095323065
 20
214.0930935995
 11
430.5586807601
 21
213.9641111079
  0
LINE
  5
7BF
100
AcDbEntity
  8
0
100
AcDbLine
 62
7
  6
CONTINUOUS
 10
404.7264650685
 20
214.6090236336
 11
404.3789464658
 21
214.7380061364
  0
LINE
  5
7C0
100
AcDbEntity
  8
0
100
AcDbLine
 62
7
  6
CONTINUOUS
 10
429.1686063493
 20
209.5787057622
 11
428.8210877466
 21
209.7076882538
  0
LINE
  5
7C1
100
AcDbEntity
  8
0
100
AcDbLine
 62
7
  6
CONTINUOUS
 10
434.033866787
 20
209.5787057622
 11
433.6863481843
 21
209.7076882538
  0
LINE
  5
7C2
100
AcDbEntity
  8
0
100
AcDbLine
 62
7
  6
CONTINUOUS
 10
429.8636435547
 20
211.2344610055
 11
430.2111621574
 21
211.105478514
  0
LINE
  5
7C3
100
AcDbEntity
  8
0
100
AcDbLine
 62
7
  6
CONTINUOUS
 10
429.8636435547
 20
211.3844610055
 11
430.2111621574
 21
211.255478514
  0
LINE
  5
7C4
100
AcDbEntity
  8
0
100
AcDbLine
 62
7
  6
CONTINUOUS
 10
439.3624855825
 20
209.4497232706
 11
439.0149669799
 21
209.5787057622
  0
LINE
  5
7C5
100
AcDbEntity
  8
RUNDUNGEN
100
AcDbLine
 62
7
  6
CONTINUOUS
 10
391.7156893611
 20
103.4852474634
 11
395.0597279464
 21
82.3718187802
  0
LINE
  5
7C6
100
AcDbEntity
  8
0
100
AcDbLine
 62
7
  6
CONTINUOUS
 10
403.4522310758
 20
210.5895485477
 11
403.4522310758
 21
211.255478514
  0
LINE
  5
7C7
100
AcDbEntity
  8
0
100
AcDbLine
 62
7
  6
CONTINUOUS
 10
403.6839092605
 20
214.2010586278
 11
403.6839092605
 21
214.8669886393
  0
LINE
  5
7C8
100
AcDbEntity
  8
0
100
AcDbLine
 62
7
  6
CONTINUOUS
 10
404.2631060478
 20
214.0720760911
 11
404.2631060478
 21
214.2220760911
  0
LINE
  5
7C9
100
AcDbEntity
  8
0
100
AcDbLine
 62
7
  6
CONTINUOUS
 10
404.6106246505
 20
213.8141111079
 11
404.6106246505
 21
213.9641111079
  0
LINE
  5
7CA
100
AcDbEntity
  8
0
100
AcDbLine
 62
7
  6
CONTINUOUS
 10
404.7264650685
 20
213.5771635429
 11
404.7264650685
 21
211.255478514
  0
LINE
  5
7CB
100
AcDbEntity
  8
0
100
AcDbLine
 62
7
  6
CONTINUOUS
 10
404.7264650685
 20
209.5576882538
 11
404.7264650685
 21
210.7395485477
  0
LINE
  5
7CC
100
AcDbEntity
  8
0
100
AcDbLine
 62
7
  6
CONTINUOUS
 10
405.3056618559
 20
209.5576882538
 11
405.3056618559
 21
210.7395485477
  0
LINE
  5
7CD
100
AcDbEntity
  8
0
100
AcDbLine
 62
7
  6
CONTINUOUS
 10
405.3056618559
 20
211.255478514
 11
405.3056618559
 21
213.8351286164
  0
LINE
  5
7CE
100
AcDbEntity
  8
0
100
AcDbLine
 62
7
  6
CONTINUOUS
 10
406.2323798973
 20
210.5895485477
 11
406.2323798973
 21
211.255478514
  0
LINE
  5
7CF
100
AcDbEntity
  8
0
100
AcDbLine
 62
7
  6
CONTINUOUS
 10
407.1590952874
 20
212.5242861019
 11
407.1590952874
 21
213.1902160682
  0
LINE
  5
7D0
100
AcDbEntity
  8
0
100
AcDbLine
 62
7
  6
CONTINUOUS
 10
407.3907734721
 20
208.6548108128
 11
407.3907734721
 21
209.4497232706
  0
LINE
  5
7D1
100
AcDbEntity
  8
0
100
AcDbLine
 62
7
  6
CONTINUOUS
 10
407.3907734721
 20
211.8793734634
 11
407.3907734721
 21
212.0293734634
  0
LINE
  5
7D2
100
AcDbEntity
  8
0
100
AcDbLine
 62
7
  6
CONTINUOUS
 10
407.7382920747
 20
211.3634434971
 11
407.7382920747
 21
211.5134434971
  0
LINE
  5
7D3
100
AcDbEntity
  8
0
100
AcDbLine
 62
7
  6
CONTINUOUS
 10
407.7382920747
 20
212.8032685935
 11
407.7382920747
 21
213.0612335766
  0
LINE
  5
7D4
100
AcDbEntity
  8
0
100
AcDbLine
 62
7
  6
CONTINUOUS
 10
407.8541324928
 20
213.2981810513
 11
407.8541324928
 21
213.4481810513
  0
LINE
  5
7D5
100
AcDbEntity
  8
0
100
AcDbLine
 62
7
  6
CONTINUOUS
 10
408.0858106774
 20
213.6851286164
 11
408.0858106774
 21
213.8351286164
  0
LINE
  5
7D6
100
AcDbEntity
  8
0
100
AcDbLine
 62
7
  6
CONTINUOUS
 10
417.0054565808
 20
210.9975135308
 11
416.8896161627
 21
210.4815835645
  0
LINE
  5
7D7
100
AcDbEntity
  8
0
100
AcDbLine
 62
7
  6
CONTINUOUS
 10
420.7123207924
 20
209.7076882538
 11
420.8281612104
 21
210.2236182201
  0
LINE
  5
7D8
100
AcDbEntity
  8
0
100
AcDbLine
 62
7
  6
CONTINUOUS
 10
420.7123207924
 20
209.5576882538
 11
420.8281612104
 21
210.0736182201
  0
LINE
  5
7D9
100
AcDbEntity
  8
0
100
AcDbLine
 62
7
  6
CONTINUOUS
 10
430.6745211781
 20
210.352601073
 11
430.5586807601
 21
209.9656532369
  0
LINE
  5
7DA
100
AcDbEntity
  8
0
100
AcDbLine
 62
7
  6
CONTINUOUS
 10
432.7596327942
 20
213.8351286164
 11
432.6437923762
 21
213.4481810513
  0
LINE
  5
7DB
100
AcDbEntity
  8
0
100
AcDbLine
 62
7
  6
CONTINUOUS
 10
434.033866787
 20
212.158355955
 11
433.6863481843
 21
212.2873384465
  0
LINE
  5
7DC
100
AcDbEntity
  8
0
100
AcDbLine
 62
7
  6
CONTINUOUS
 10
417.1212943474
 20
211.8793734634
 11
417.5833496752
 21
211.6735823544
  0
LINE
  5
7DD
100
AcDbEntity
  8
0
100
AcDbLine
 62
7
  6
CONTINUOUS
 10
417.1212943474
 20
212.0293734634
 11
417.7004937861
 21
211.7714084802
  0
LINE
  5
7DE
100
AcDbEntity
  8
0
100
AcDbLine
 62
7
  6
CONTINUOUS
 10
417.4688129501
 20
209.0417582875
 11
417.9321719708
 21
208.7837933044
  0
LINE
  5
7DF
100
AcDbEntity
  8
0
100
AcDbLine
 62
7
  6
CONTINUOUS
 10
417.4688129501
 20
209.1917582875
 11
417.9321719708
 21
208.9337933044
  0
LINE
  5
7E0
100
AcDbEntity
  8
0
100
AcDbLine
 62
7
  6
CONTINUOUS
 10
419.7856054023
 20
213.9430935995
 11
420.017283587
 21
213.8141111079
  0
LINE
  5
7E1
100
AcDbEntity
  8
0
100
AcDbLine
 62
7
  6
CONTINUOUS
 10
419.7856054023
 20
214.0930935995
 11
420.017283587
 21
213.9641111079
  0
LINE
  5
7E2
100
AcDbEntity
  8
0
100
AcDbLine
 62
7
  6
CONTINUOUS
 10
420.2489617717
 20
214.4800411194
 11
419.7856054023
 21
214.7380061364
  0
LINE
  5
7E3
100
AcDbEntity
  8
0
100
AcDbLine
 62
7
  6
CONTINUOUS
 10
428.1260505412
 20
211.6214084802
 11
428.5894095619
 21
211.3634434971
  0
LINE
  5
7E4
100
AcDbEntity
  8
0
100
AcDbLine
 62
7
  6
CONTINUOUS
 10
407.7382920747
 20
211.3634434971
 11
408.3174915135
 21
210.9764960224
  0
LINE
  5
7E5
100
AcDbEntity
  8
0
100
AcDbLine
 62
7
  6
CONTINUOUS
 10
407.7382920747
 20
211.5134434971
 11
408.3174915135
 21
211.1264960224
  0
LINE
  5
7E6
100
AcDbEntity
  8
0
100
AcDbLine
 62
7
  6
CONTINUOUS
 10
410.7501217323
 20
214.3510586278
 11
410.1709222936
 21
214.7380061364
  0
LINE
  5
7E7
100
AcDbEntity
  8
0
100
AcDbLine
 62
7
  6
CONTINUOUS
 10
404.2631060478
 20
214.0720760911
 11
404.6106246505
 21
213.8141111079
  0
LINE
  5
7E8
100
AcDbEntity
  8
0
100
AcDbLine
 62
7
  6
CONTINUOUS
 10
404.2631060478
 20
214.2220760911
 11
404.6106246505
 21
213.9641111079
  0
LINE
  5
7E9
100
AcDbEntity
  8
0
100
AcDbLine
 62
7
  6
CONTINUOUS
 10
408.4333292801
 20
211.7714084802
 11
408.0858106774
 21
212.0293734634
  0
LINE
  5
7EA
100
AcDbEntity
  8
0
100
AcDbLine
 62
7
  6
CONTINUOUS
 10
405.0739836712
 20
214.3510586278
 11
404.7264650685
 21
214.6090236336
  0
LINE
  5
7EB
100
AcDbEntity
  8
0
100
AcDbLine
 62
7
  6
CONTINUOUS
 10
408.3174915135
 20
210.9764960224
 11
408.3174915135
 21
211.1264960224
  0
LINE
  5
7EC
100
AcDbEntity
  8
0
100
AcDbLine
 62
7
  6
CONTINUOUS
 10
408.4333292801
 20
213.9430935995
 11
408.4333292801
 21
214.0930935995
  0
LINE
  5
7ED
100
AcDbEntity
  8
0
100
AcDbLine
 62
7
  6
CONTINUOUS
 10
408.8966883008
 20
210.8475135308
 11
408.8966883008
 21
210.9975135308
  0
LINE
  5
7EE
100
AcDbEntity
  8
0
100
AcDbLine
 62
7
  6
CONTINUOUS
 10
408.8966883008
 20
214.0720760911
 11
408.8966883008
 21
214.2220760911
  0
LINE
  5
7EF
100
AcDbEntity
  8
0
100
AcDbLine
 62
7
  6
CONTINUOUS
 10
409.5917255062
 20
210.8475135308
 11
409.5917255062
 21
210.9975135308
  0
LINE
  5
7F0
100
AcDbEntity
  8
0
100
AcDbLine
 62
7
  6
CONTINUOUS
 10
409.5917255062
 20
214.0720760911
 11
409.5917255062
 21
214.2220760911
  0
LINE
  5
7F1
100
AcDbEntity
  8
0
100
AcDbLine
 62
7
  6
CONTINUOUS
 10
410.0550845269
 20
213.9430935995
 11
410.0550845269
 21
214.0930935995
  0
LINE
  5
7F2
100
AcDbEntity
  8
0
100
AcDbLine
 62
7
  6
CONTINUOUS
 10
410.1709222936
 20
210.9764960224
 11
410.1709222936
 21
211.1264960224
  0
LINE
  5
7F3
100
AcDbEntity
  8
0
100
AcDbLine
 62
7
  6
CONTINUOUS
 10
410.4026031296
 20
213.6851286164
 11
410.4026031296
 21
213.8351286164
  0
LINE
  5
7F4
100
AcDbEntity
  8
0
100
AcDbLine
 62
7
  6
CONTINUOUS
 10
410.6342813143
 20
213.1691985598
 11
410.6342813143
 21
213.3191985598
  0
LINE
  5
7F5
100
AcDbEntity
  8
0
100
AcDbLine
 62
7
  6
CONTINUOUS
 10
410.7501217323
 20
211.5134434971
 11
410.7501217323
 21
209.4497232706
  0
LINE
  5
7F6
100
AcDbEntity
  8
0
100
AcDbLine
 62
7
  6
CONTINUOUS
 10
411.3293185197
 20
208.6548108128
 11
411.3293185197
 21
212.158355955
  0
LINE
  5
7F7
100
AcDbEntity
  8
0
100
AcDbLine
 62
7
  6
CONTINUOUS
 10
411.3293185197
 20
213.1691985598
 11
411.3293185197
 21
213.3191985598
  0
LINE
  5
7F8
100
AcDbEntity
  8
0
100
AcDbLine
 62
7
  6
CONTINUOUS
 10
412.2560339097
 20
214.0720760911
 11
412.2560339097
 21
214.2220760911
  0
LINE
  5
7F9
100
AcDbEntity
  8
0
100
AcDbLine
 62
7
  6
CONTINUOUS
 10
412.8352333485
 20
214.0720760911
 11
412.8352333485
 21
214.2220760911
  0
LINE
  5
7FA
100
AcDbEntity
  8
0
100
AcDbLine
 62
7
  6
CONTINUOUS
 10
413.5302705538
 20
215.490883679
 11
413.5302705538
 21
215.640883679
  0
LINE
  5
7FB
100
AcDbEntity
  8
0
100
AcDbLine
 62
7
  6
CONTINUOUS
 10
414.4569859439
 20
208.6548108128
 11
414.4569859439
 21
214.8669886393
  0
LINE
  5
7FC
100
AcDbEntity
  8
0
100
AcDbLine
 62
7
  6
CONTINUOUS
 10
415.1520231493
 20
208.6548108128
 11
415.1520231493
 21
208.8048108128
  0
LINE
  5
7FD
100
AcDbEntity
  8
0
100
AcDbLine
 62
7
  6
CONTINUOUS
 10
415.1520231493
 20
209.8366707454
 11
415.1520231493
 21
214.8669886393
  0
LINE
  5
7FE
100
AcDbEntity
  8
0
100
AcDbLine
 62
7
  6
CONTINUOUS
 10
415.8470603547
 20
209.5576882538
 11
415.8470603547
 21
210.7395485477
  0
LINE
  5
7FF
100
AcDbEntity
  8
0
100
AcDbLine
 62
7
  6
CONTINUOUS
 10
416.7737757447
 20
212.7822510851
 11
416.7737757447
 21
213.4481810513
  0
LINE
  5
800
100
AcDbEntity
  8
0
100
AcDbLine
 62
7
  6
CONTINUOUS
 10
416.8896161627
 20
210.0736182201
 11
416.8896161627
 21
210.4815835645
  0
LINE
  5
801
100
AcDbEntity
  8
0
100
AcDbLine
 62
7
  6
CONTINUOUS
 10
416.8896161627
 20
212.2663209381
 11
416.8896161627
 21
212.4163209381
  0
LINE
  5
802
100
AcDbEntity
  8
0
100
AcDbLine
 62
7
  6
CONTINUOUS
 10
417.0054565808
 20
209.5576882538
 11
417.0054565808
 21
209.7076882538
  0
LINE
  5
803
100
AcDbEntity
  8
0
100
AcDbLine
 62
7
  6
CONTINUOUS
 10
417.1212943474
 20
211.8793734634
 11
417.1212943474
 21
212.0293734634
  0
LINE
  5
804
100
AcDbEntity
  8
0
100
AcDbLine
 62
7
  6
CONTINUOUS
 10
417.3529751835
 20
212.932251085
 11
417.3529751835
 21
213.4481810513
  0
LINE
  5
805
100
AcDbEntity
  8
0
100
AcDbLine
 62
7
  6
CONTINUOUS
 10
417.4688129501
 20
209.0417582875
 11
417.4688129501
 21
209.1917582875
  0
LINE
  5
806
100
AcDbEntity
  8
0
100
AcDbLine
 62
7
  6
CONTINUOUS
 10
417.4688129501
 20
210.2236182201
 11
417.4688129501
 21
210.4815835645
  0
LINE
  5
807
100
AcDbEntity
  8
0
100
AcDbLine
 62
7
  6
CONTINUOUS
 10
417.4688129501
 20
213.5561460345
 11
417.4688129501
 21
213.7061460345
  0
LINE
  5
808
100
AcDbEntity
  8
0
100
AcDbLine
 62
7
  6
CONTINUOUS
 10
417.7004937861
 20
210.8475135308
 11
417.7004937861
 21
210.9975135308
  0
LINE
  5
809
100
AcDbEntity
  8
0
100
AcDbLine
 62
7
  6
CONTINUOUS
 10
417.7004937861
 20
213.8141111079
 11
417.7004937861
 21
213.9641111079
  0
LINE
  5
80A
100
AcDbEntity
  8
0
100
AcDbLine
 62
7
  6
CONTINUOUS
 10
417.9321719708
 20
208.7837933044
 11
417.9321719708
 21
208.9337933044
  0
LINE
  5
80B
100
AcDbEntity
  8
0
100
AcDbLine
 62
7
  6
CONTINUOUS
 10
417.9321719708
 20
211.105478514
 11
417.9321719708
 21
211.255478514
  0
LINE
  5
80C
100
AcDbEntity
  8
0
100
AcDbLine
 62
7
  6
CONTINUOUS
 10
417.9321719708
 20
213.9430935995
 11
417.9321719708
 21
214.0930935995
  0
LINE
  5
80D
100
AcDbEntity
  8
0
100
AcDbLine
 62
7
  6
CONTINUOUS
 10
418.5113687582
 20
214.0720760911
 11
418.5113687582
 21
214.2220760911
  0
LINE
  5
80E
100
AcDbEntity
  8
0
100
AcDbLine
 62
7
  6
CONTINUOUS
 10
418.6272091762
 20
211.3634434971
 11
418.6272091762
 21
211.5134434971
  0
LINE
  5
80F
100
AcDbEntity
  8
0
100
AcDbLine
 62
7
  6
CONTINUOUS
 10
418.7430495942
 20
208.6548108128
 11
418.7430495942
 21
208.8048108128
  0
LINE
  5
810
100
AcDbEntity
  8
0
100
AcDbLine
 62
7
  6
CONTINUOUS
 10
418.9747277789
 20
208.6548108128
 11
418.9747277789
 21
208.8048108128
  0
LINE
  5
811
100
AcDbEntity
  8
0
100
AcDbLine
 62
7
  6
CONTINUOUS
 10
419.0905681969
 20
211.3634434971
 11
419.0905681969
 21
212.0293734634
  0
LINE
  5
812
100
AcDbEntity
  8
0
100
AcDbLine
 62
7
  6
CONTINUOUS
 10
419.2064059636
 20
214.0720760911
 11
419.2064059636
 21
214.2220760911
  0
LINE
  5
813
100
AcDbEntity
  8
0
100
AcDbLine
 62
7
  6
CONTINUOUS
 10
419.7856054023
 20
208.7837933044
 11
419.7856054023
 21
208.9337933044
  0
LINE
  5
814
100
AcDbEntity
  8
0
100
AcDbLine
 62
7
  6
CONTINUOUS
 10
419.7856054023
 20
213.9430935995
 11
419.7856054023
 21
214.0930935995
  0
LINE
  5
815
100
AcDbEntity
  8
0
100
AcDbLine
 62
7
  6
CONTINUOUS
 10
420.017283587
 20
213.8141111079
 11
420.017283587
 21
213.9641111079
  0
LINE
  5
816
100
AcDbEntity
  8
0
100
AcDbLine
 62
7
  6
CONTINUOUS
 10
420.2489617717
 20
209.0417582875
 11
420.2489617717
 21
209.1917582875
  0
LINE
  5
817
100
AcDbEntity
  8
0
100
AcDbLine
 62
7
  6
CONTINUOUS
 10
420.2489617717
 20
213.5561460345
 11
420.2489617717
 21
213.7061460345
  0
LINE
  5
818
100
AcDbEntity
  8
0
100
AcDbLine
 62
7
  6
CONTINUOUS
 10
420.3648021897
 20
213.2981810513
 11
420.3648021897
 21
213.4481810513
  0
LINE
  5
819
100
AcDbEntity
  8
0
100
AcDbLine
 62
7
  6
CONTINUOUS
 10
420.7123207924
 20
209.5576882538
 11
420.7123207924
 21
209.7076882538
  0
LINE
  5
81A
100
AcDbEntity
  8
0
100
AcDbLine
 62
7
  6
CONTINUOUS
 10
420.8281612104
 20
210.0736182201
 11
420.8281612104
 21
210.2236182201
  0
LINE
  5
81B
100
AcDbEntity
  8
0
100
AcDbLine
 62
7
  6
CONTINUOUS
 10
420.943998977
 20
213.2981810513
 11
420.943998977
 21
213.4481810513
  0
LINE
  5
81C
100
AcDbEntity
  8
0
100
AcDbLine
 62
7
  6
CONTINUOUS
 10
431.2537179655
 20
209.7076882538
 11
431.3695583835
 21
210.2236182201
  0
LINE
  5
81D
100
AcDbEntity
  8
0
100
AcDbLine
 62
7
  6
CONTINUOUS
 10
431.2537179655
 20
209.5576882538
 11
431.3695583835
 21
210.0736182201
  0
LINE
  5
81E
100
AcDbEntity
  8
0
100
AcDbLine
 62
7
  6
CONTINUOUS
 10
433.3388295816
 20
213.3191985598
 11
433.4546699996
 21
213.7061460345
  0
LINE
  5
81F
100
AcDbEntity
  8
0
100
AcDbLine
 62
7
  6
CONTINUOUS
 10
433.3388295816
 20
213.1691985598
 11
433.4546699996
 21
213.5561460345
  0
LINE
  5
820
100
AcDbEntity
  8
0
100
AcDbLine
 62
7
  6
CONTINUOUS
 10
432.7596327942
 20
211.1264960224
 11
432.6437923762
 21
210.7395485477
  0
LINE
  5
821
100
AcDbEntity
  8
0
100
AcDbLine
 62
7
  6
CONTINUOUS
 10
433.3388295816
 20
210.6105660561
 11
433.4546699996
 21
210.9975135308
  0
LINE
  5
822
100
AcDbEntity
  8
0
100
AcDbLine
 62
7
  6
CONTINUOUS
 10
433.3388295816
 20
210.4605660561
 11
433.4546699996
 21
210.8475135308
  0
LINE
  5
823
100
AcDbEntity
  8
0
100
AcDbLine
 62
7
  6
CONTINUOUS
 10
438.088250927
 20
211.1264960224
 11
437.9724111718
 21
210.7395485477
  0
LINE
  5
824
100
AcDbEntity
  8
0
100
AcDbLine
 62
7
  6
CONTINUOUS
 10
438.6674483772
 20
210.6105660561
 11
438.7832881323
 21
210.9975135308
  0
LINE
  5
825
100
AcDbEntity
  8
0
100
AcDbLine
 62
7
  6
CONTINUOUS
 10
438.6674483772
 20
210.4605660561
 11
438.7832881323
 21
210.8475135308
  0
LINE
  5
826
100
AcDbEntity
  8
0
100
AcDbLine
 62
7
  6
CONTINUOUS
 10
445.0386229808
 20
214.8669886393
 11
443.1851905436
 21
208.8048108128
  0
LINE
  5
827
100
AcDbEntity
  8
0
100
AcDbLine
 62
7
  6
CONTINUOUS
 10
443.880227749
 20
208.8048108128
 11
445.5019811729
 21
214.0930935995
  0
LINE
  5
828
100
AcDbEntity
  8
0
100
AcDbLine
 62
7
  6
CONTINUOUS
 10
443.880227749
 20
208.6548108128
 11
445.5019811729
 21
213.9430935995
  0
LINE
  5
829
100
AcDbEntity
  8
0
100
AcDbLine
 62
7
  6
CONTINUOUS
 10
428.1260505412
 20
211.7714084802
 11
428.5894095619
 21
211.5134434971
  0
LINE
  5
82A
100
AcDbEntity
  8
0
100
AcDbLine
 62
7
  6
CONTINUOUS
 10
430.7903602704
 20
211.7714084802
 11
430.3270025754
 21
212.0293734634
  0
LINE
  5
82B
100
AcDbEntity
  8
0
100
AcDbLine
 62
7
  6
CONTINUOUS
 10
433.1071513969
 20
211.7503909718
 11
433.2041146785
 21
211.6964084802
  0
LINE
  5
82C
100
AcDbEntity
  8
0
100
AcDbLine
 62
7
  6
CONTINUOUS
 10
433.1071513969
 20
211.9003909718
 11
433.3388295816
 21
211.7714084802
  0
LINE
  5
82D
100
AcDbEntity
  8
0
100
AcDbLine
 62
7
  6
CONTINUOUS
 10
431.2537179655
 20
214.3510586278
 11
430.6745211781
 21
214.7380061364
  0
LINE
  5
82E
100
AcDbEntity
  8
0
100
AcDbLine
 62
7
  6
CONTINUOUS
 10
410.0550845269
 20
213.9430935995
 11
410.4026031296
 21
213.6851286164
  0
LINE
  5
82F
100
AcDbEntity
  8
0
100
AcDbLine
 62
7
  6
CONTINUOUS
 10
410.0550845269
 20
214.0930935995
 11
410.4026031296
 21
213.8351286164
  0
LINE
  5
830
100
AcDbEntity
  8
0
100
AcDbLine
 62
7
  6
CONTINUOUS
 10
418.0480123888
 20
209.5787057622
 11
417.7004937861
 21
209.8366707454
  0
LINE
  5
831
100
AcDbEntity
  8
0
100
AcDbLine
 62
7
  6
CONTINUOUS
 10
417.9321719708
 20
212.158355955
 11
417.5846533681
 21
212.4163209381
  0
LINE
  5
832
100
AcDbEntity
  8
0
100
AcDbLine
 62
7
  6
CONTINUOUS
 10
420.5964803743
 20
214.2220760911
 11
420.2489617717
 21
214.4800411194
  0
LINE
  5
833
100
AcDbEntity
  8
0
100
AcDbLine
 62
7
  6
CONTINUOUS
 10
430.2111621574
 20
211.105478514
 11
430.5586807601
 21
210.8475135308
  0
LINE
  5
834
100
AcDbEntity
  8
0
100
AcDbLine
 62
7
  6
CONTINUOUS
 10
428.7052486543
 20
212.2873384465
 11
428.3577300516
 21
212.5453034297
  0
LINE
  5
835
100
AcDbEntity
  8
0
100
AcDbLine
 62
7
  6
CONTINUOUS
 10
430.2111621574
 20
211.255478514
 11
430.5586807601
 21
210.9975135308
  0
LINE
  5
836
100
AcDbEntity
  8
0
100
AcDbLine
 62
7
  6
CONTINUOUS
 10
407.3907734721
 20
211.8793734634
 11
407.7382920747
 21
211.3634434971
  0
LINE
  5
837
100
AcDbEntity
  8
0
100
AcDbLine
 62
7
  6
CONTINUOUS
 10
407.3907734721
 20
212.0293734634
 11
407.7382920747
 21
211.5134434971
  0
LINE
  5
838
100
AcDbEntity
  8
0
100
AcDbLine
 62
7
  6
CONTINUOUS
 10
405.3056618559
 20
213.8351286164
 11
405.0739836712
 21
214.3510586278
  0
LINE
  5
839
100
AcDbEntity
  8
0
100
AcDbLine
 62
7
  6
CONTINUOUS
 10
407.1590952874
 20
212.5242861019
 11
407.3907734721
 21
211.8793734634
  0
LINE
  5
83A
100
AcDbEntity
  8
0
100
AcDbLine
 62
7
  6
CONTINUOUS
 10
407.1590952874
 20
212.6742861019
 11
407.3907734721
 21
212.0293734634
  0
LINE
  5
83B
100
AcDbEntity
  8
0
100
AcDbLine
 62
7
  6
CONTINUOUS
 10
404.6106246505
 20
213.8141111079
 11
404.7264650685
 21
213.4271635429
  0
LINE
  5
83C
100
AcDbEntity
  8
0
100
AcDbLine
 62
7
  6
CONTINUOUS
 10
404.6106246505
 20
213.9641111079
 11
404.7264650685
 21
213.5771635429
  0
LINE
  5
83D
100
AcDbEntity
  8
0
100
AcDbLine
 62
7
  6
CONTINUOUS
 10
407.8541324928
 20
212.4163209381
 11
407.7382920747
 21
212.8032685935
  0
LINE
  5
83E
100
AcDbEntity
  8
0
100
AcDbLine
 62
7
  6
CONTINUOUS
 10
427.4310133358
 20
212.6532685935
 11
427.4310133358
 21
213.4481810513
  0
LINE
  5
83F
100
AcDbEntity
  8
0
100
AcDbLine
 62
7
  6
CONTINUOUS
 10
427.6626928462
 20
212.1373384465
 11
427.6626928462
 21
212.2873384465
  0
LINE
  5
840
100
AcDbEntity
  8
0
100
AcDbLine
 62
7
  6
CONTINUOUS
 10
427.7785319385
 20
210.0736182201
 11
427.7785319385
 21
210.2236182201
  0
LINE
  5
841
100
AcDbEntity
  8
0
100
AcDbLine
 62
7
  6
CONTINUOUS
 10
427.8943723566
 20
209.6866707454
 11
427.8943723566
 21
209.8366707454
  0
LINE
  5
842
100
AcDbEntity
  8
0
100
AcDbLine
 62
7
  6
CONTINUOUS
 10
428.1260505412
 20
211.6214084802
 11
428.1260505412
 21
211.7714084802
  0
LINE
  5
843
100
AcDbEntity
  8
0
100
AcDbLine
 62
7
  6
CONTINUOUS
 10
428.1260505412
 20
212.932251085
 11
428.1260505412
 21
213.3191985598
  0
LINE
  5
844
100
AcDbEntity
  8
0
100
AcDbLine
 62
7
  6
CONTINUOUS
 10
428.2418909592
 20
209.1707407791
 11
428.2418909592
 21
209.3207407791
  0
LINE
  5
845
100
AcDbEntity
  8
0
100
AcDbLine
 62
7
  6
CONTINUOUS
 10
428.3577300516
 20
213.5561460345
 11
428.3577300516
 21
213.7061460345
  0
LINE
  5
846
100
AcDbEntity
  8
0
100
AcDbLine
 62
7
  6
CONTINUOUS
 10
428.5894095619
 20
211.3634434971
 11
428.5894095619
 21
211.5134434971
  0
LINE
  5
847
100
AcDbEntity
  8
0
100
AcDbLine
 62
7
  6
CONTINUOUS
 10
428.7052486543
 20
208.7837933044
 11
428.7052486543
 21
208.9337933044
  0
LINE
  5
848
100
AcDbEntity
  8
0
100
AcDbLine
 62
7
  6
CONTINUOUS
 10
428.7052486543
 20
213.8141111079
 11
428.7052486543
 21
213.9641111079
  0
LINE
  5
849
100
AcDbEntity
  8
0
100
AcDbLine
 62
7
  6
CONTINUOUS
 10
429.1686063493
 20
211.2344610055
 11
429.1686063493
 21
211.3844610055
  0
LINE
  5
84A
100
AcDbEntity
  8
0
100
AcDbLine
 62
7
  6
CONTINUOUS
 10
429.1686063493
 20
213.9430935995
 11
429.1686063493
 21
214.0930935995
  0
LINE
  5
84B
100
AcDbEntity
  8
0
100
AcDbLine
 62
7
  6
CONTINUOUS
 10
429.2844467673
 20
208.6548108128
 11
429.2844467673
 21
208.8048108128
  0
LINE
  5
84C
100
AcDbEntity
  8
0
100
AcDbLine
 62
7
  6
CONTINUOUS
 10
429.8636435547
 20
208.6548108128
 11
429.8636435547
 21
208.8048108128
  0
LINE
  5
84D
100
AcDbEntity
  8
0
100
AcDbLine
 62
7
  6
CONTINUOUS
 10
429.8636435547
 20
211.2344610055
 11
429.8636435547
 21
211.3844610055
  0
LINE
  5
84E
100
AcDbEntity
  8
0
100
AcDbLine
 62
7
  6
CONTINUOUS
 10
430.095323065
 20
213.9430935995
 11
430.095323065
 21
214.0930935995
  0
LINE
  5
84F
100
AcDbEntity
  8
0
100
AcDbLine
 62
7
  6
CONTINUOUS
 10
430.2111621574
 20
211.105478514
 11
430.2111621574
 21
211.255478514
  0
LINE
  5
850
100
AcDbEntity
  8
0
100
AcDbLine
 62
7
  6
CONTINUOUS
 10
430.3270025754
 20
208.7837933044
 11
430.3270025754
 21
208.9337933044
  0
LINE
  5
851
100
AcDbEntity
  8
0
100
AcDbLine
 62
7
  6
CONTINUOUS
 10
430.5586807601
 20
210.8475135308
 11
430.5586807601
 21
210.9975135308
  0
LINE
  5
852
100
AcDbEntity
  8
0
100
AcDbLine
 62
7
  6
CONTINUOUS
 10
430.5586807601
 20
213.8141111079
 11
430.5586807601
 21
213.9641111079
  0
LINE
  5
853
100
AcDbEntity
  8
0
100
AcDbLine
 62
7
  6
CONTINUOUS
 10
430.6745211781
 20
210.6105660561
 11
430.6745211781
 21
210.352601073
  0
LINE
  5
854
100
AcDbEntity
  8
0
100
AcDbLine
 62
7
  6
CONTINUOUS
 10
430.7903602704
 20
209.0417582875
 11
430.7903602704
 21
209.1917582875
  0
LINE
  5
855
100
AcDbEntity
  8
0
100
AcDbLine
 62
7
  6
CONTINUOUS
 10
430.9061993628
 20
213.4271635429
 11
430.9061993628
 21
213.5771635429
  0
LINE
  5
856
100
AcDbEntity
  8
0
100
AcDbLine
 62
7
  6
CONTINUOUS
 10
431.0220397808
 20
213.0402160682
 11
431.0220397808
 21
213.1902160682
  0
LINE
  5
857
100
AcDbEntity
  8
0
100
AcDbLine
 62
7
  6
CONTINUOUS
 10
431.2537179655
 20
209.5576882538
 11
431.2537179655
 21
209.7076882538
  0
LINE
  5
858
100
AcDbEntity
  8
0
100
AcDbLine
 62
7
  6
CONTINUOUS
 10
431.3695583835
 20
210.0736182201
 11
431.3695583835
 21
210.7395485477
  0
LINE
  5
859
100
AcDbEntity
  8
0
100
AcDbLine
 62
7
  6
CONTINUOUS
 10
431.7170769862
 20
213.0402160682
 11
431.7170769862
 21
213.1902160682
  0
LINE
  5
85A
100
AcDbEntity
  8
0
100
AcDbLine
 62
7
  6
CONTINUOUS
 10
432.6437923762
 20
210.0736182201
 11
432.6437923762
 21
210.7395485477
  0
LINE
  5
85B
100
AcDbEntity
  8
0
100
AcDbLine
 62
7
  6
CONTINUOUS
 10
432.6437923762
 20
212.6532685935
 11
432.6437923762
 21
213.4481810513
  0
LINE
  5
85C
100
AcDbEntity
  8
0
100
AcDbLine
 62
7
  6
CONTINUOUS
 10
432.7596327942
 20
209.6866707454
 11
432.7596327942
 21
209.8366707454
  0
LINE
  5
85D
100
AcDbEntity
  8
0
100
AcDbLine
 62
7
  6
CONTINUOUS
 10
432.7596327942
 20
212.2663209381
 11
432.7596327942
 21
212.4163209381
  0
LINE
  5
85E
100
AcDbEntity
  8
0
100
AcDbLine
 62
7
  6
CONTINUOUS
 10
433.1071513969
 20
209.1707407791
 11
433.1071513969
 21
209.3207407791
  0
LINE
  5
85F
100
AcDbEntity
  8
0
100
AcDbLine
 62
7
  6
CONTINUOUS
 10
433.1071513969
 20
211.7503909718
 11
433.1071513969
 21
211.9003909718
  0
LINE
  5
860
100
AcDbEntity
  8
0
100
AcDbLine
 62
7
  6
CONTINUOUS
 10
433.3388295816
 20
210.352601073
 11
433.3388295816
 21
210.6105660561
  0
LINE
  5
861
100
AcDbEntity
  8
0
100
AcDbLine
 62
7
  6
CONTINUOUS
 10
433.3388295816
 20
212.932251085
 11
433.3388295816
 21
213.3191985598
  0
LINE
  5
862
100
AcDbEntity
  8
0
100
AcDbLine
 62
7
  6
CONTINUOUS
 10
433.4546699996
 20
210.8475135308
 11
433.4546699996
 21
210.9975135308
  0
LINE
  5
863
100
AcDbEntity
  8
0
100
AcDbLine
 62
7
  6
CONTINUOUS
 10
433.4546699996
 20
213.5561460345
 11
433.4546699996
 21
213.7061460345
  0
LINE
  5
864
100
AcDbEntity
  8
0
100
AcDbLine
 62
7
  6
CONTINUOUS
 10
433.570509092
 20
208.7837933044
 11
433.570509092
 21
208.9337933044
  0
LINE
  5
865
100
AcDbEntity
  8
0
100
AcDbLine
 62
7
  6
CONTINUOUS
 10
433.6863481843
 20
211.105478514
 11
433.6863481843
 21
211.255478514
  0
LINE
  5
866
100
AcDbEntity
  8
0
100
AcDbLine
 62
7
  6
CONTINUOUS
 10
433.6863481843
 20
213.8141111079
 11
433.6863481843
 21
213.9641111079
  0
LINE
  5
867
100
AcDbEntity
  8
0
100
AcDbLine
 62
7
  6
CONTINUOUS
 10
434.033866787
 20
211.2344610055
 11
434.033866787
 21
211.3844610055
  0
LINE
  5
868
100
AcDbEntity
  8
0
100
AcDbLine
 62
7
  6
CONTINUOUS
 10
434.033866787
 20
213.9430935995
 11
434.033866787
 21
214.0930935995
  0
LINE
  5
869
100
AcDbEntity
  8
0
100
AcDbLine
 62
7
  6
CONTINUOUS
 10
434.149707205
 20
208.6548108128
 11
434.149707205
 21
208.8048108128
  0
LINE
  5
86A
100
AcDbEntity
  8
0
100
AcDbLine
 62
7
  6
CONTINUOUS
 10
428.2418909592
 20
209.1707407791
 11
428.7052486543
 21
208.7837933044
  0
LINE
  5
86B
100
AcDbEntity
  8
0
100
AcDbLine
 62
7
  6
CONTINUOUS
 10
428.2418909592
 20
209.3207407791
 11
428.7052486543
 21
208.9337933044
  0
LINE
  5
86C
100
AcDbEntity
  8
0
100
AcDbLine
 62
7
  6
CONTINUOUS
 10
433.1071513969
 20
209.1707407791
 11
433.570509092
 21
208.7837933044
  0
LINE
  5
86D
100
AcDbEntity
  8
0
100
AcDbLine
 62
7
  6
CONTINUOUS
 10
433.1071513969
 20
209.3207407791
 11
433.570509092
 21
208.9337933044
  0
LINE
  5
86E
100
AcDbEntity
  8
0
100
AcDbLine
 62
7
  6
CONTINUOUS
 10
438.4357695296
 20
209.1707407791
 11
438.8991278875
 21
208.7837933044
  0
LINE
  5
86F
100
AcDbEntity
  8
0
100
AcDbLine
 62
7
  6
CONTINUOUS
 10
438.4357695296
 20
209.3207407791
 11
438.8991278875
 21
208.9337933044
  0
LINE
  5
870
100
AcDbEntity
  8
0
100
AcDbLine
 62
7
  6
CONTINUOUS
 10
417.0054565808
 20
209.5576882538
 11
417.4688129501
 21
209.0417582875
  0
LINE
  5
871
100
AcDbEntity
  8
0
100
AcDbLine
 62
7
  6
CONTINUOUS
 10
417.0054565808
 20
209.7076882538
 11
417.4688129501
 21
209.1917582875
  0
LINE
  5
872
100
AcDbEntity
  8
0
100
AcDbLine
 62
7
  6
CONTINUOUS
 10
420.017283587
 20
213.8141111079
 11
420.2489617717
 21
213.5561460345
  0
LINE
  5
873
100
AcDbEntity
  8
0
100
AcDbLine
 62
7
  6
CONTINUOUS
 10
420.017283587
 20
213.9641111079
 11
420.2489617717
 21
213.7061460345
  0
LINE
  5
874
100
AcDbEntity
  8
0
100
AcDbLine
 62
7
  6
CONTINUOUS
 10
428.8210877466
 20
209.7076882538
 11
428.5894095619
 21
209.9656532369
  0
LINE
  5
875
100
AcDbEntity
  8
0
100
AcDbLine
 62
7
  6
CONTINUOUS
 10
427.6626928462
 20
212.1373384465
 11
428.1260505412
 21
211.6214084802
  0
LINE
  5
876
100
AcDbEntity
  8
0
100
AcDbLine
 62
7
  6
CONTINUOUS
 10
427.6626928462
 20
212.2873384465
 11
428.1260505412
 21
211.7714084802
  0
LINE
  5
877
100
AcDbEntity
  8
0
100
AcDbLine
 62
7
  6
CONTINUOUS
 10
431.2537179655
 20
211.255478514
 11
430.7903602704
 21
211.7714084802
  0
LINE
  5
878
100
AcDbEntity
  8
0
100
AcDbLine
 62
7
  6
CONTINUOUS
 10
411.097640335
 20
213.8351286164
 11
410.7501217323
 21
214.3510586278
  0
LINE
  5
879
100
AcDbEntity
  8
0
100
AcDbLine
 62
7
  6
CONTINUOUS
 10
408.0858106774
 20
212.0293734634
 11
407.8541324928
 21
212.4163209381
  0
LINE
  5
87A
100
AcDbEntity
  8
0
100
AcDbLine
 62
7
  6
CONTINUOUS
 10
417.7004937861
 20
209.8366707454
 11
417.4688129501
 21
210.2236182201
  0
LINE
  5
87B
100
AcDbEntity
  8
0
100
AcDbLine
 62
7
  6
CONTINUOUS
 10
416.8896161627
 20
212.2663209381
 11
417.1212943474
 21
211.8793734634
  0
LINE
  5
87C
100
AcDbEntity
  8
0
100
AcDbLine
 62
7
  6
CONTINUOUS
 10
416.8896161627
 20
212.4163209381
 11
417.1212943474
 21
212.0293734634
  0
LINE
  5
87D
100
AcDbEntity
  8
0
100
AcDbLine
 62
7
  6
CONTINUOUS
 10
420.8281612104
 20
213.8351286164
 11
420.5964803743
 21
214.2220760911
  0
LINE
  5
87E
100
AcDbEntity
  8
0
100
AcDbLine
 62
7
  6
CONTINUOUS
 10
410.4026031296
 20
213.6851286164
 11
410.6342813143
 21
213.1691985598
  0
LINE
  5
87F
100
AcDbEntity
  8
0
100
AcDbLine
 62
7
  6
CONTINUOUS
 10
410.4026031296
 20
213.8351286164
 11
410.6342813143
 21
213.3191985598
  0
LINE
  5
880
100
AcDbEntity
  8
0
100
AcDbLine
 62
7
  6
CONTINUOUS
 10
411.3293185197
 20
213.3191985598
 11
411.097640335
 21
213.8351286164
  0
LINE
  5
881
100
AcDbEntity
  8
0
100
AcDbLine
 62
7
  6
CONTINUOUS
 10
417.5846533681
 20
212.4163209381
 11
417.3529751835
 21
212.932251085
  0
LINE
  5
882
100
AcDbEntity
  8
0
100
AcDbLine
 62
7
  6
CONTINUOUS
 10
420.2489617717
 20
213.5561460345
 11
420.3648021897
 21
213.2981810513
  0
LINE
  5
883
100
AcDbEntity
  8
0
100
AcDbLine
 62
7
  6
CONTINUOUS
 10
420.2489617717
 20
213.7061460345
 11
420.3648021897
 21
213.4481810513
  0
LINE
  5
884
100
AcDbEntity
  8
0
100
AcDbLine
 62
7
  6
CONTINUOUS
 10
420.943998977
 20
213.4481810513
 11
420.8281612104
 21
213.8351286164
  0
LINE
  5
885
100
AcDbEntity
  8
0
100
AcDbLine
 62
7
  6
CONTINUOUS
 10
416.8896161627
 20
210.0736182201
 11
417.0054565808
 21
209.5576882538
  0
LINE
  5
886
100
AcDbEntity
  8
0
100
AcDbLine
 62
7
  6
CONTINUOUS
 10
416.8896161627
 20
210.2236182201
 11
417.0054565808
 21
209.7076882538
  0
LINE
  5
887
100
AcDbEntity
  8
0
100
AcDbLine
 62
7
  6
CONTINUOUS
 10
416.7737757447
 20
212.7822510851
 11
416.8896161627
 21
212.2663209381
  0
LINE
  5
888
100
AcDbEntity
  8
0
100
AcDbLine
 62
7
  6
CONTINUOUS
 10
416.7737757447
 20
212.932251085
 11
416.8896161627
 21
212.4163209381
  0
LINE
  5
889
100
AcDbEntity
  8
0
100
AcDbLine
 62
7
  6
CONTINUOUS
 10
436.2348188212
 20
214.0930935995
 11
436.2348188212
 21
212.158355955
  0
LINE
  5
88A
100
AcDbEntity
  8
0
100
AcDbLine
 62
7
  6
CONTINUOUS
 10
436.2348188212
 20
211.3844610055
 11
436.2348188212
 21
209.5787057622
  0
LINE
  5
88B
100
AcDbEntity
  8
0
100
AcDbLine
 62
7
  6
CONTINUOUS
 10
436.9298553637
 20
208.6548108128
 11
436.9298553637
 21
214.8669886393
  0
LINE
  5
88C
100
AcDbEntity
  8
0
100
AcDbLine
 62
7
  6
CONTINUOUS
 10
437.8565720794
 20
214.7169886393
 11
437.8565720794
 21
214.8669886393
  0
LINE
  5
88D
100
AcDbEntity
  8
0
100
AcDbLine
 62
7
  6
CONTINUOUS
 10
437.9724111718
 20
210.0736182201
 11
437.9724111718
 21
210.7395485477
  0
LINE
  5
88E
100
AcDbEntity
  8
0
100
AcDbLine
 62
7
  6
CONTINUOUS
 10
438.088250927
 20
209.6866707454
 11
438.088250927
 21
209.8366707454
  0
LINE
  5
88F
100
AcDbEntity
  8
0
100
AcDbLine
 62
7
  6
CONTINUOUS
 10
438.4357695296
 20
209.1707407791
 11
438.4357695296
 21
209.3207407791
  0
LINE
  5
890
100
AcDbEntity
  8
0
100
AcDbLine
 62
7
  6
CONTINUOUS
 10
438.6674483772
 20
210.2236182201
 11
438.6674483772
 21
210.6105660561
  0
LINE
  5
891
100
AcDbEntity
  8
0
100
AcDbLine
 62
7
  6
CONTINUOUS
 10
438.7832881323
 20
210.8475135308
 11
438.7832881323
 21
210.9975135308
  0
LINE
  5
892
100
AcDbEntity
  8
0
100
AcDbLine
 62
7
  6
CONTINUOUS
 10
438.8991278875
 20
208.7837933044
 11
438.8991278875
 21
208.9337933044
  0
LINE
  5
893
100
AcDbEntity
  8
0
100
AcDbLine
 62
7
  6
CONTINUOUS
 10
439.0149669799
 20
211.105478514
 11
439.0149669799
 21
211.255478514
  0
LINE
  5
894
100
AcDbEntity
  8
0
100
AcDbLine
 62
7
  6
CONTINUOUS
 10
439.3624855825
 20
211.2344610055
 11
439.3624855825
 21
211.3844610055
  0
LINE
  5
895
100
AcDbEntity
  8
0
100
AcDbLine
 62
7
  6
CONTINUOUS
 10
439.4783253377
 20
208.6548108128
 11
439.4783253377
 21
208.8048108128
  0
LINE
  5
896
100
AcDbEntity
  8
0
100
AcDbLine
 62
7
  6
CONTINUOUS
 10
441.5634369539
 20
214.8669886393
 11
441.5634369539
 21
212.158355955
  0
LINE
  5
897
100
AcDbEntity
  8
0
100
AcDbLine
 62
7
  6
CONTINUOUS
 10
441.5634369539
 20
211.3844610055
 11
441.5634369539
 21
209.4497232706
  0
LINE
  5
898
100
AcDbEntity
  8
0
100
AcDbLine
 62
7
  6
CONTINUOUS
 10
442.2584741593
 20
208.6548108128
 11
442.2584741593
 21
214.8669886393
  0
LINE
  5
899
100
AcDbEntity
  8
0
100
AcDbLine
 62
7
  6
CONTINUOUS
 10
443.1851905436
 20
208.6548108128
 11
443.1851905436
 21
208.8048108128
  0
LINE
  5
89A
100
AcDbEntity
  8
0
100
AcDbLine
 62
7
  6
CONTINUOUS
 10
443.880227749
 20
208.6548108128
 11
443.880227749
 21
208.8048108128
  0
LINE
  5
89B
100
AcDbEntity
  8
0
100
AcDbLine
 62
7
  6
CONTINUOUS
 10
445.5019811729
 20
213.9430935995
 11
445.5019811729
 21
214.0930935995
  0
LINE
  5
89C
100
AcDbEntity
  8
0
100
AcDbLine
 62
7
  6
CONTINUOUS
 10
447.1237345969
 20
208.6548108128
 11
447.1237345969
 21
208.8048108128
  0
LINE
  5
89D
100
AcDbEntity
  8
0
100
AcDbLine
 62
7
  6
CONTINUOUS
 10
447.8187718023
 20
208.6548108128
 11
447.8187718023
 21
208.8048108128
  0
LINE
  5
89E
100
AcDbEntity
  8
0
100
AcDbLine
 62
7
  6
CONTINUOUS
 10
433.6863481843
 20
209.7076882538
 11
433.4546699996
 21
209.9656532369
  0
LINE
  5
89F
100
AcDbEntity
  8
0
100
AcDbLine
 62
7
  6
CONTINUOUS
 10
430.5586807601
 20
213.8141111079
 11
430.9061993628
 21
213.4271635429
  0
LINE
  5
8A0
100
AcDbEntity
  8
0
100
AcDbLine
 62
7
  6
CONTINUOUS
 10
430.5586807601
 20
213.9641111079
 11
430.9061993628
 21
213.5771635429
  0
LINE
  5
8A1
100
AcDbEntity
  8
0
100
AcDbLine
 62
7
  6
CONTINUOUS
 10
433.6863481843
 20
212.2873384465
 11
433.4546699996
 21
212.5453034297
  0
LINE
  5
8A2
100
AcDbEntity
  8
0
100
AcDbLine
 62
7
  6
CONTINUOUS
 10
439.0149669799
 20
209.5787057622
 11
438.7832881323
 21
209.8366707454
  0
LINE
  5
8A3
100
AcDbEntity
  8
0
100
AcDbLine
 62
7
  6
CONTINUOUS
 10
427.8943723566
 20
209.6866707454
 11
428.2418909592
 21
209.1707407791
  0
LINE
  5
8A4
100
AcDbEntity
  8
0
100
AcDbLine
 62
7
  6
CONTINUOUS
 10
427.8943723566
 20
209.8366707454
 11
428.2418909592
 21
209.3207407791
  0
LINE
  5
8A5
100
AcDbEntity
  8
0
100
AcDbLine
 62
7
  6
CONTINUOUS
 10
432.7596327942
 20
209.6866707454
 11
433.1071513969
 21
209.1707407791
  0
LINE
  5
8A6
100
AcDbEntity
  8
0
100
AcDbLine
 62
7
  6
CONTINUOUS
 10
432.7596327942
 20
209.8366707454
 11
433.1071513969
 21
209.3207407791
  0
LINE
  5
8A7
100
AcDbEntity
  8
0
100
AcDbLine
 62
7
  6
CONTINUOUS
 10
432.7596327942
 20
212.2663209381
 11
433.1071513969
 21
211.7503909718
  0
LINE
  5
8A8
100
AcDbEntity
  8
0
100
AcDbLine
 62
7
  6
CONTINUOUS
 10
432.7596327942
 20
212.4163209381
 11
433.1071513969
 21
211.9003909718
  0
LINE
  5
8A9
100
AcDbEntity
  8
0
100
AcDbLine
 62
7
  6
CONTINUOUS
 10
438.088250927
 20
209.6866707454
 11
438.4357695296
 21
209.1707407791
  0
LINE
  5
8AA
100
AcDbEntity
  8
0
100
AcDbLine
 62
7
  6
CONTINUOUS
 10
438.088250927
 20
209.8366707454
 11
438.4357695296
 21
209.3207407791
  0
LINE
  5
8AB
100
AcDbEntity
  8
0
100
AcDbLine
 62
7
  6
CONTINUOUS
 10
428.3577300516
 20
212.5453034297
 11
428.1260505412
 21
212.932251085
  0
LINE
  5
8AC
100
AcDbEntity
  8
0
100
AcDbLine
 62
7
  6
CONTINUOUS
 10
431.6012365681
 20
213.7061460345
 11
431.2537179655
 21
214.3510586278
  0
LINE
  5
8AD
100
AcDbEntity
  8
0
100
AcDbLine
 62
7
  6
CONTINUOUS
 10
428.5894095619
 20
209.9656532369
 11
428.4735691439
 21
210.2236182201
  0
LINE
  5
8AE
100
AcDbEntity
  8
0
100
AcDbLine
 62
7
  6
CONTINUOUS
 10
427.4310133358
 20
212.6532685935
 11
427.6626928462
 21
212.1373384465
  0
LINE
  5
8AF
100
AcDbEntity
  8
0
100
AcDbLine
 62
7
  6
CONTINUOUS
 10
427.4310133358
 20
212.8032685935
 11
427.6626928462
 21
212.2873384465
  0
LINE
  5
8B0
100
AcDbEntity
  8
0
100
AcDbLine
 62
7
  6
CONTINUOUS
 10
427.7785319385
 20
210.0736182201
 11
427.8943723566
 21
209.6866707454
  0
LINE
  5
8B1
100
AcDbEntity
  8
0
100
AcDbLine
 62
7
  6
CONTINUOUS
 10
427.7785319385
 20
210.2236182201
 11
427.8943723566
 21
209.8366707454
  0
LINE
  5
8B2
100
AcDbEntity
  8
0
100
AcDbLine
 62
7
  6
CONTINUOUS
 10
430.5586807601
 20
210.8475135308
 11
430.6745211781
 21
210.4605660561
  0
LINE
  5
8B3
100
AcDbEntity
  8
0
100
AcDbLine
 62
7
  6
CONTINUOUS
 10
430.5586807601
 20
210.9975135308
 11
430.6745211781
 21
210.6105660561
  0
LINE
  5
8B4
100
AcDbEntity
  8
0
100
AcDbLine
 62
7
  6
CONTINUOUS
 10
430.9061993628
 20
213.4271635429
 11
431.0220397808
 21
213.0402160682
  0
LINE
  5
8B5
100
AcDbEntity
  8
0
100
AcDbLine
 62
7
  6
CONTINUOUS
 10
430.9061993628
 20
213.5771635429
 11
431.0220397808
 21
213.1902160682
  0
LINE
  5
8B6
100
AcDbEntity
  8
0
100
AcDbLine
 62
7
  6
CONTINUOUS
 10
432.6437923762
 20
210.0736182201
 11
432.7596327942
 21
209.6866707454
  0
LINE
  5
8B7
100
AcDbEntity
  8
0
100
AcDbLine
 62
7
  6
CONTINUOUS
 10
432.6437923762
 20
210.2236182201
 11
432.7596327942
 21
209.8366707454
  0
LINE
  5
8B8
100
AcDbEntity
  8
0
100
AcDbLine
 62
7
  6
CONTINUOUS
 10
432.6437923762
 20
212.6532685935
 11
432.7596327942
 21
212.2663209381
  0
LINE
  5
8B9
100
AcDbEntity
  8
0
100
AcDbLine
 62
7
  6
CONTINUOUS
 10
433.4546699996
 20
209.9656532369
 11
433.3388295816
 21
210.352601073
  0
LINE
  5
8BA
100
AcDbEntity
  8
0
100
AcDbLine
 62
7
  6
CONTINUOUS
 10
432.6437923762
 20
212.8032685935
 11
432.7596327942
 21
212.4163209381
  0
LINE
  5
8BB
100
AcDbEntity
  8
0
100
AcDbLine
 62
7
  6
CONTINUOUS
 10
433.4546699996
 20
212.5453034297
 11
433.3388295816
 21
212.932251085
  0
LINE
  5
8BC
100
AcDbEntity
  8
0
100
AcDbLine
 62
7
  6
CONTINUOUS
 10
437.9724111718
 20
210.0736182201
 11
438.088250927
 21
209.6866707454
  0
LINE
  5
8BD
100
AcDbEntity
  8
0
100
AcDbLine
 62
7
  6
CONTINUOUS
 10
437.9724111718
 20
210.2236182201
 11
438.088250927
 21
209.8366707454
  0
LINE
  5
8BE
100
AcDbEntity
  8
0
100
AcDbLine
 62
7
  6
CONTINUOUS
 10
431.3695583835
 20
210.7395485477
 11
431.2537179655
 21
211.255478514
  0
LINE
  5
8BF
100
AcDbEntity
  8
0
100
AcDbLine
 62
7
  6
CONTINUOUS
 10
431.7170769862
 20
213.1902160682
 11
431.6012365681
 21
213.7061460345
  0
LINE
  5
8C0
100
AcDbEntity
  8
RUNDUNGEN
100
AcDbLine
 62
7
  6
CONTINUOUS
 10
444.0721700845
 20
74.111734038
 11
471.6787718023
 21
101.7183357558
  0
LINE
  5
8C1
100
AcDbEntity
  8
RUNDUNGEN
100
AcDbLine
 62
7
  6
CONTINUOUS
 10
471.6787718023
 20
197.7183357558
 11
444.0721700845
 21
225.3249374736
  0
LINE
  5
8C2
100
AcDbEntity
  8
0
100
AcDbLine
 62
7
  6
CONTINUOUS
 10
437.8565720794
 20
214.7169886393
 11
438.8522079674
 21
211.8839018348
  0
LINE
  5
8C3
100
AcDbEntity
  8
0
100
AcDbLine
 62
7
  6
CONTINUOUS
 10
437.8565720794
 20
214.8669886393
 11
438.8991278875
 21
211.9003909718
  0
LINE
  5
8C4
100
AcDbEntity
  8
0
100
AcDbLine
 62
7
  6
CONTINUOUS
 10
439.5941650929
 20
212.158355955
 11
438.6674483772
 21
214.8669886393
  0
LINE
  5
8C5
100
AcDbEntity
  8
0
100
AcDbLine
 62
7
  6
CONTINUOUS
 10
445.5019811729
 20
213.9430935995
 11
447.1237345969
 21
208.6548108128
  0
LINE
  5
8C6
100
AcDbEntity
  8
0
100
AcDbLine
 62
7
  6
CONTINUOUS
 10
445.5019811729
 20
214.0930935995
 11
447.1237345969
 21
208.8048108128
  0
LINE
  5
8C7
100
AcDbEntity
  8
0
100
AcDbLine
 62
7
  6
CONTINUOUS
 10
447.8187718023
 20
208.8048108128
 11
445.9653391994
 21
214.8669886393
  0
LINE
  5
8C8
100
AcDbEntity
  8
0
100
AcDbLine
 62
7
  6
CONTINUOUS
 10
438.7832881323
 20
209.8366707454
 11
438.6674483772
 21
210.2236182201
  0
LINE
  5
8C9
100
AcDbEntity
  8
RUNDUNGEN
100
AcDbLine
 62
7
  6
CONTINUOUS
 10
471.6787718023
 20
101.7183357558
 11
471.6787718023
 21
197.7183357558
  0
ARC
  5
8CA
100
AcDbEntity
  8
RUNDUNGEN
100
AcDbCircle
 62
7
  6
CONTINUOUS
 10
120.873755609
 20
361.6283642144
 40
20.0
100
AcDbArc
 50
99.0
 51
171.0
  0
ARC
  5
8CB
100
AcDbEntity
  8
RUNDUNGEN
100
AcDbCircle
 62
7
  6
CONTINUOUS
 10
173.4114621499
 20
365.8921476969
 40
10.0
100
AcDbArc
 50
351.9999674317
 51
6.0000540173
  0
ARC
  5
8CC
100
AcDbEntity
  8
RUNDUNGEN
100
AcDbCircle
 62
7
  6
CONTINUOUS
 10
168.6787718023
 20
381.3495164583
 40
8.0
100
AcDbArc
 50
0.0
 51
99.0
  0
ARC
  5
8CD
100
AcDbEntity
  8
BEZUGSACHSEN
100
AcDbCircle
 62
7
  6
CONTINUOUS
 10
185.3473217477
 20
424.5319296123
 40
8.0
100
AcDbArc
 50
157.4999999995
 51
161.0624999997
  0
ARC
  5
8CE
100
AcDbEntity
  8
BEZUGSACHSEN
100
AcDbCircle
 62
7
  6
CONTINUOUS
 10
185.3473217477
 20
424.5319296123
 40
8.0
100
AcDbArc
 50
182.4375000009
 51
186.0000000011
  0
ARC
  5
8CF
100
AcDbEntity
  8
RUNDUNGEN
100
AcDbCircle
 62
7
  6
CONTINUOUS
 10
185.3473217477
 20
424.5319296123
 40
8.0
100
AcDbArc
 50
157.5
 51
186.0
  0
ARC
  5
8D0
100
AcDbEntity
  8
BEZUGSACHSEN
100
AcDbCircle
 62
7
  6
CONTINUOUS
 10
178.3523803063
 20
366.7163127864
 40
4.9999999641
100
AcDbArc
 50
269.9999997581
 51
2.5300102583
  0
ARC
  5
8D1
100
AcDbEntity
  8
BEZUGSACHSEN
100
AcDbCircle
 62
7
  6
CONTINUOUS
 10
214.6412811332
 20
495.2538036564
 40
8.0
100
AcDbArc
 50
112.5
 51
157.5
  0
ARC
  5
8D2
100
AcDbEntity
  8
RUNDUNGEN
100
AcDbCircle
 62
7
  6
CONTINUOUS
 10
214.6412811332
 20
495.2538036564
 40
8.0
100
AcDbArc
 50
112.5
 51
157.5
  0
ARC
  5
8D3
100
AcDbEntity
  8
0
100
AcDbCircle
 62
7
  6
CONTINUOUS
 10
284.1787718023
 20
425.7163129872
 40
67.7084973779
100
AcDbArc
 50
243.3536086044
 51
296.646391237
  0
ARC
  5
8D4
100
AcDbEntity
  8
BEZUGSACHSEN
100
AcDbCircle
 62
7
  6
CONTINUOUS
 10
284.1787718023
 20
425.7163129872
 40
65.0
100
AcDbArc
 50
235.6897771979
 51
243.3535835065
  0
CIRCLE
  5
8D5
100
AcDbEntity
  8
RUNDUNGEN
100
AcDbCircle
 62
7
  6
CONTINUOUS
 10
284.1787718023
 20
425.7163129872
 40
65.0
  0
ARC
  5
8D6
100
AcDbEntity
  8
RUNDUNGEN
100
AcDbCircle
 62
7
  6
CONTINUOUS
 10
447.4837879956
 20
361.6283642144
 40
20.0
100
AcDbArc
 50
9.0
 51
81.0
  0
ARC
  5
8D7
100
AcDbEntity
  8
RUNDUNGEN
100
AcDbCircle
 62
7
  6
CONTINUOUS
 10
394.9460814547
 20
365.8921476969
 40
10.0
100
AcDbArc
 50
173.9999459587
 51
188.000032655
  0
ARC
  5
8D8
100
AcDbEntity
  8
RUNDUNGEN
100
AcDbCircle
 62
7
  6
CONTINUOUS
 10
399.6787718023
 20
381.3495164583
 40
8.0
100
AcDbArc
 50
81.0
 51
180.0
  0
ARC
  5
8D9
100
AcDbEntity
  8
BEZUGSACHSEN
100
AcDbCircle
 62
7
  6
CONTINUOUS
 10
390.0051633004
 20
366.7163128056
 40
4.9999999676
100
AcDbArc
 50
177.4699802143
 51
270.0000002187
  0
ARC
  5
8DA
100
AcDbEntity
  8
BEZUGSACHSEN
100
AcDbCircle
 62
7
  6
CONTINUOUS
 10
383.0102218569
 20
424.5319296123
 40
8.0
100
AcDbArc
 50
353.9999999989
 51
22.5000000005
  0
ARC
  5
8DB
100
AcDbEntity
  8
RUNDUNGEN
100
AcDbCircle
 62
7
  6
CONTINUOUS
 10
383.0102218569
 20
424.5319296123
 40
8.0
100
AcDbArc
 50
354.0
 51
22.5
  0
ARC
  5
8DC
100
AcDbEntity
  8
BEZUGSACHSEN
100
AcDbCircle
 62
7
  6
CONTINUOUS
 10
353.7162624714
 20
495.2538036564
 40
8.0
100
AcDbArc
 50
22.4999999988
 51
67.5000000005
  0
ARC
  5
8DD
100
AcDbEntity
  8
BEZUGSACHSEN
100
AcDbCircle
 62
7
  6
CONTINUOUS
 10
284.1787718023
 20
524.0571753849
 40
8.0
100
AcDbArc
 50
108.7500000011
 51
112.5000000012
  0
ARC
  5
8DE
100
AcDbEntity
  8
RUNDUNGEN
100
AcDbCircle
 62
7
  6
CONTINUOUS
 10
353.7162624714
 20
495.2538036564
 40
8.0
100
AcDbArc
 50
22.5
 51
67.5
  0
ARC
  5
8DF
100
AcDbEntity
  8
RUNDUNGEN
100
AcDbCircle
 62
7
  6
CONTINUOUS
 10
284.1787718023
 20
524.0571753849
 40
8.0
100
AcDbArc
 50
67.5
 51
112.5
  0
ARC
  5
8E0
100
AcDbEntity
  8
RUNDUNGEN
100
AcDbCircle
 62
7
  6
CONTINUOUS
 10
575.8472625658
 20
351.2969833821
 40
14.6900936795
100
AcDbArc
 50
159.6867809738
 51
160.0919595497
  0
ARC
  5
8E1
100
AcDbEntity
  8
RUNDUNGEN
100
AcDbCircle
 62
7
  6
CONTINUOUS
 10
575.7871647152
 20
351.3194195251
 40
14.6259446309
100
AcDbArc
 50
158.2320985299
 51
159.6874771874
  0
ARC
  5
8E2
100
AcDbEntity
  8
RUNDUNGEN
100
AcDbCircle
 62
7
  6
CONTINUOUS
 10
552.7553880438
 20
360.042598821
 40
10.0
100
AcDbArc
 50
300.0
 51
338.6248328731
  0
ARC
  5
8E3
100
AcDbEntity
  8
RUNDUNGEN
100
AcDbCircle
 62
7
  6
CONTINUOUS
 10
540.3530758278
 20
332.0975108337
 40
8.0
100
AcDbArc
 50
120.0
 51
180.0
  0
ARC
  5
8E4
100
AcDbEntity
  8
B-ACHSEN
100
AcDbCircle
 62
7
  6
CONTINUOUS
 10
595.3530758278
 20
324.7163129872
 40
3.0
100
AcDbArc
 50
90.0
 51
180.0
  0
ARC
  5
8E5
100
AcDbEntity
  8
B-ACHSEN
100
AcDbCircle
 62
7
  6
CONTINUOUS
 10
589.3530758278
 20
321.7163129872
 40
3.0
100
AcDbArc
 50
270.0
 51
360.0
  0
ARC
  5
8E6
100
AcDbEntity
  8
B-ACHSEN
100
AcDbCircle
 62
7
  6
CONTINUOUS
 10
585.3530758278
 20
315.7163129872
 40
3.0
100
AcDbArc
 50
90.0
 51
180.0
  0
ARC
  5
8E7
100
AcDbEntity
  8
BEZUGSACHSEN
100
AcDbCircle
 62
7
  6
CONTINUOUS
 10
599.3530758278
 20
524.0571753849
 40
8.0
100
AcDbArc
 50
90.0
 51
180.0
  0
ARC
  5
8E8
100
AcDbEntity
  8
RUNDUNGEN
100
AcDbCircle
 62
7
  6
CONTINUOUS
 10
612.3530758278
 20
336.7163129872
 40
54.0
100
AcDbArc
 50
21.3751671269
 51
76.7056903358
  0
ARC
  5
8E9
100
AcDbEntity
  8
RUNDUNGEN
100
AcDbCircle
 62
7
  6
CONTINUOUS
 10
612.3530758278
 20
336.7163129872
 40
54.0
100
AcDbArc
 50
103.2943422937
 51
158.6248328731
  0
ARC
  5
8EA
100
AcDbEntity
  8
B-ACHSEN
100
AcDbCircle
 62
7
  6
CONTINUOUS
 10
639.3530758278
 20
315.7163129872
 40
3.0
100
AcDbArc
 50
0.0
 51
90.0
  0
ARC
  5
8EB
100
AcDbEntity
  8
B-ACHSEN
100
AcDbCircle
 62
7
  6
CONTINUOUS
 10
635.3530758278
 20
321.7163129872
 40
3.0
100
AcDbArc
 50
180.0
 51
270.0
  0
ARC
  5
8EC
100
AcDbEntity
  8
B-ACHSEN
100
AcDbCircle
 62
7
  6
CONTINUOUS
 10
629.3530758278
 20
324.7163129872
 40
3.0
100
AcDbArc
 50
0.0
 51
90.0
  0
ARC
  5
8ED
100
AcDbEntity
  8
BEZUGSACHSEN
100
AcDbCircle
 62
7
  6
CONTINUOUS
 10
612.3530758278
 20
339.2163129872
 40
23.5
100
AcDbArc
 50
213.5353316096
 51
326.4646683904
  0
ARC
  5
8EE
100
AcDbEntity
  8
BEZUGSACHSEN
100
AcDbCircle
 62
7
  6
CONTINUOUS
 10
612.3530758278
 20
338.7163129872
 40
23.0
100
AcDbArc
 50
212.2519134305
 51
327.7480865695
  0
ARC
  5
8EF
100
AcDbEntity
  8
RUNDUNGEN
100
AcDbCircle
 62
7
  6
CONTINUOUS
 10
684.3530561904
 20
332.0975221714
 40
8.0
100
AcDbArc
 50
359.9999188025
 51
59.9998376003
  0
ARC
  5
8F0
100
AcDbEntity
  8
RUNDUNGEN
100
AcDbCircle
 62
7
  6
CONTINUOUS
 10
648.8796196657
 20
351.3046061415
 40
14.6680062692
100
AcDbArc
 50
19.9079928835
 51
20.8381368721
  0
ARC
  5
8F1
100
AcDbEntity
  8
RUNDUNGEN
100
AcDbCircle
 62
7
  6
CONTINUOUS
 10
648.9351559839
 20
351.3257377116
 40
14.6085855165
100
AcDbArc
 50
20.8381625625
 51
21.7684518577
  0
ARC
  5
8F2
100
AcDbEntity
  8
RUNDUNGEN
100
AcDbCircle
 62
7
  6
CONTINUOUS
 10
671.9507636118
 20
360.042598821
 40
10.0
100
AcDbArc
 50
201.3751671269
 51
240.0
  0
ARC
  5
8F3
100
AcDbEntity
  8
RUNDUNGEN
100
AcDbCircle
 62
7
  6
CONTINUOUS
 10
625.3530758278
 20
524.0571753849
 40
8.0
100
AcDbArc
 50
0.0
 51
90.0
  0
ARC
  5
8F4
100
AcDbEntity
  8
RUNDUNGEN
100
AcDbCircle
 62
7
  6
CONTINUOUS
 10
433.4655683667
 20
84.7183357558
 40
15.0
100
AcDbArc
 50
270.0
 51
315.0
  0
ARC
  5
8F5
100
AcDbEntity
  8
RUNDUNGEN
100
AcDbCircle
 62
7
  6
CONTINUOUS
 10
409.8750530553
 20
84.7183357558
 40
15.0
100
AcDbArc
 50
189.0
 51
270.0
  0
ARC
  5
8F6
100
AcDbEntity
  8
RUNDUNGEN
100
AcDbCircle
 62
7
  6
CONTINUOUS
 10
409.8750530553
 20
214.7183357558
 40
15.0
100
AcDbArc
 50
90.0
 51
171.0
  0
ARC
  5
8F7
100
AcDbEntity
  8
RUNDUNGEN
100
AcDbCircle
 62
7
  6
CONTINUOUS
 10
433.4655683667
 20
214.7183357558
 40
15.0
100
AcDbArc
 50
45.0
 51
90.0
  0
ARC
  5
8F8
100
AcDbEntity
  8
RUNDUNGEN
100
AcDbCircle
 62
7
  6
CONTINUOUS
 10
134.8919752379
 20
214.7183357558
 40
15.0
100
AcDbArc
 50
90.0
 51
135.0
  0
ARC
  5
8F9
100
AcDbEntity
  8
RUNDUNGEN
100
AcDbCircle
 62
7
  6
CONTINUOUS
 10
158.4824905493
 20
214.7183357558
 40
15.0
100
AcDbArc
 50
9.0
 51
90.0
  0
ARC
  5
8FA
100
AcDbEntity
  8
RUNDUNGEN
100
AcDbCircle
 62
7
  6
CONTINUOUS
 10
158.4824905493
 20
84.7183357558
 40
15.0
100
AcDbArc
 50
270.0
 51
351.0
  0
ARC
  5
8FB
100
AcDbEntity
  8
RUNDUNGEN
100
AcDbCircle
 62
7
  6
CONTINUOUS
 10
134.8919752379
 20
84.7183357558
 40
15.0
100
AcDbArc
 50
225.0
 51
270.0
  0
ARC
  5
8FC
100
AcDbEntity
  8
BEZUGSACHSEN
100
AcDbCircle
 62
7
  6
CONTINUOUS
 10
383.0102016191
 20
162.7183155179
 40
8.0000202379
100
AcDbArc
 50
0.0001449427
 51
89.9998550573
  0
ARC
  5
8FD
100
AcDbEntity
  8
BEZUGSACHSEN
100
AcDbCircle
 62
7
  6
CONTINUOUS
 10
185.3473419856
 20
162.7183155179
 40
8.0000202379
100
AcDbArc
 50
90.0001449427
 51
179.9998550573
  0
ARC
  5
8FE
100
AcDbEntity
  8
RUNDUNGEN
100
AcDbCircle
 62
7
  6
CONTINUOUS
 10
383.0102016191
 20
136.7183559937
 40
8.0000202379
100
AcDbArc
 50
270.0001449427
 51
359.9998550573
  0
ARC
  5
8FF
100
AcDbEntity
  8
RUNDUNGEN
100
AcDbCircle
 62
7
  6
CONTINUOUS
 10
185.3473419856
 20
136.7183559937
 40
8.0000202379
100
AcDbArc
 50
180.0001449427
 51
269.9998550573
  0
ARC
  5
900
100
AcDbEntity
  8
RUNDUNGEN
100
AcDbCircle
 62
7
  6
CONTINUOUS
 10
248.0185177645
 20
123.2183357558
 40
5.0
100
AcDbArc
 50
90.0
 51
120.0
  0
ARC
  5
901
100
AcDbEntity
  8
RUNDUNGEN
100
AcDbCircle
 62
7
  6
CONTINUOUS
 10
320.3390258402
 20
123.2183357558
 40
5.0
100
AcDbArc
 50
60.0
 51
90.0
  0
ARC
  5
902
100
AcDbEntity
  8
BEZUGSACHSEN
100
AcDbCircle
 62
7
  6
CONTINUOUS
 10
248.0185177645
 20
176.2183357558
 40
5.0
100
AcDbArc
 50
240.0
 51
270.0
  0
ARC
  5
903
100
AcDbEntity
  8
BEZUGSACHSEN
100
AcDbCircle
 62
7
  6
CONTINUOUS
 10
320.3390258402
 20
176.2183357558
 40
5.0
100
AcDbArc
 50
270.0
 51
300.0
  0
ARC
  5
904
100
AcDbEntity
  8
RUNDUNGEN
100
AcDbCircle
 62
7
  6
CONTINUOUS
 10
394.6787718023
 20
195.4822306353
 40
3.0
100
AcDbArc
 50
171.0021286291
 51
180.0021738977
  0
ARC
  5
905
100
AcDbEntity
  8
RUNDUNGEN
100
AcDbCircle
 62
7
  6
CONTINUOUS
 10
394.6787718023
 20
103.9544408763
 40
3.0
100
AcDbArc
 50
179.9978278773
 51
188.9978733049
  0
ARC
  5
906
100
AcDbEntity
  8
RUNDUNGEN
100
AcDbCircle
 62
7
  6
CONTINUOUS
 10
173.6787718023
 20
103.9544408763
 40
3.0
100
AcDbArc
 50
351.0021286291
 51
0.0021738977
  0
ARC
  5
907
100
AcDbEntity
  8
RUNDUNGEN
100
AcDbCircle
 62
7
  6
CONTINUOUS
 10
173.6787718023
 20
195.4822306353
 40
3.0
100
AcDbArc
 50
359.9978278773
 51
8.9978733049
  0
SPLINE
  5
908
100
AcDbEntity
  8
0
100
AcDbSpline
 62
7
  6
CONTINUOUS
 70
0
 71
3
 72
8
 73
4
 74
0
 42
0.0000001
 43
0.0000001
 44
0.0000000001
 40
0.0
 40
0.0
 40
0.0
 40
0.0
 40
1.0
 40
1.0
 40
1.0
 40
1.0
 10
302.3892270113
 20
337.6816898114
 30
0.0
 10
302.3892270113
 20
336.6362044341
 30
0.0
 10
302.4652601267
 20
335.9328777767
 30
0.0
 10
302.6323420416
 20
335.5509763244
 30
0.0
  0
SPLINE
  5
909
100
AcDbEntity
  8
0
100
AcDbSpline
 62
7
  6
CONTINUOUS
 70
0
 71
3
 72
8
 73
4
 74
0
 42
0.0000001
 43
0.0000001
 44
0.0000000001
 40
0.0
 40
0.0
 40
0.0
 40
0.0
 40
1.0
 40
1.0
 40
1.0
 40
1.0
 10
302.6323420416
 20
335.5509763244
 30
0.0
 10
302.7979146029
 20
335.1725248224
 30
0.0
 10
303.1210661913
 20
334.8873924124
 30
0.0
 10
303.6041872955
 20
334.7026692577
 30
0.0
  0
SPLINE
  5
90A
100
AcDbEntity
  8
0
100
AcDbSpline
 62
7
  6
CONTINUOUS
 70
0
 71
3
 72
8
 73
4
 74
0
 42
0.0000001
 43
0.0000001
 44
0.0000000001
 40
0.0
 40
0.0
 40
0.0
 40
0.0
 40
1.0
 40
1.0
 40
1.0
 40
1.0
 10
303.6041872955
 20
334.7026692577
 30
0.0
 10
304.0905142809
 20
334.5167203224
 30
0.0
 10
304.6417718913
 20
334.4216761901
 30
0.0
 10
305.2500535037
 20
334.4216761901
 30
0.0
  0
SPLINE
  5
90B
100
AcDbEntity
  8
0
100
AcDbSpline
 62
7
  6
CONTINUOUS
 70
0
 71
3
 72
8
 73
4
 74
0
 42
0.0000001
 43
0.0000001
 44
0.0000000001
 40
0.0
 40
0.0
 40
0.0
 40
0.0
 40
1.0
 40
1.0
 40
1.0
 40
1.0
 10
305.2500535037
 20
334.4216761901
 30
0.0
 10
305.6302290942
 20
334.4216761901
 30
0.0
 10
306.1434684779
 20
334.4501894428
 30
0.0
 10
306.7992745425
 20
334.5072159092
 30
0.0
  0
SPLINE
  5
90C
100
AcDbEntity
  8
0
100
AcDbSpline
 62
7
  6
CONTINUOUS
 70
0
 71
3
 72
8
 73
4
 74
0
 42
0.0000001
 43
0.0000001
 44
0.0000000001
 40
0.0
 40
0.0
 40
0.0
 40
0.0
 40
1.0
 40
1.0
 40
1.0
 40
1.0
 10
306.7992745425
 20
336.5506646759
 30
0.0
 10
306.476122954
 20
336.6647176868
 30
0.0
 10
306.2385140444
 20
336.7312485403
 30
0.0
 10
306.0767698098
 20
336.7486671124
 30
0.0
  0
SPLINE
  5
90D
100
AcDbEntity
  8
0
100
AcDbSpline
 62
7
  6
CONTINUOUS
 70
0
 71
3
 72
8
 73
4
 74
0
 42
0.0000001
 43
0.0000001
 44
0.0000000001
 40
0.0
 40
0.0
 40
0.0
 40
0.0
 40
1.0
 40
1.0
 40
1.0
 40
1.0
 10
306.0767698098
 20
336.7486671124
 30
0.0
 10
305.6207262064
 20
336.7977793938
 30
0.0
 10
305.3450990702
 20
336.883319152
 30
0.0
 10
305.2500545399
 20
336.9973728179
 30
0.0
  0
SPLINE
  5
90E
100
AcDbEntity
  8
0
100
AcDbSpline
 62
7
  6
CONTINUOUS
 70
0
 71
3
 72
8
 73
4
 74
0
 42
0.0000001
 43
0.0000001
 44
0.0000000001
 40
0.0
 40
0.0
 40
0.0
 40
0.0
 40
1.0
 40
1.0
 40
1.0
 40
1.0
 10
305.2500545399
 20
336.9973728179
 30
0.0
 10
305.155011275
 20
337.1114249653
 30
0.0
 10
305.1074868227
 20
337.3395309872
 30
0.0
 10
305.1074868227
 20
337.7006985075
 30
0.0
  0
SPLINE
  5
90F
100
AcDbEntity
  8
0
100
AcDbSpline
 62
7
  6
CONTINUOUS
 70
0
 71
3
 72
8
 73
4
 74
0
 42
0.0000001
 43
0.0000001
 44
0.0000000001
 40
0.0
 40
0.0
 40
0.0
 40
0.0
 40
1.0
 40
1.0
 40
1.0
 40
1.0
 10
291.7918055202
 20
335.3245961914
 30
0.0
 10
292.5711685206
 20
334.7163129872
 30
0.0
 10
293.5786348368
 20
334.4216761901
 30
0.0
 10
294.8237134005
 20
334.4216761901
 30
0.0
  0
SPLINE
  5
910
100
AcDbEntity
  8
0
100
AcDbSpline
 62
7
  6
CONTINUOUS
 70
0
 71
3
 72
8
 73
4
 74
0
 42
0.0000001
 43
0.0000001
 44
0.0000000001
 40
0.0
 40
0.0
 40
0.0
 40
0.0
 40
1.0
 40
1.0
 40
1.0
 40
1.0
 10
294.8237134005
 20
334.4216761901
 30
0.0
 10
296.3064008738
 20
334.4216761901
 30
0.0
 10
297.4944520976
 20
334.8778879992
 30
0.0
 10
298.3688579454
 20
335.8093204299
 30
0.0
  0
SPLINE
  5
911
100
AcDbEntity
  8
0
100
AcDbSpline
 62
7
  6
CONTINUOUS
 70
0
 71
3
 72
8
 73
4
 74
0
 42
0.0000001
 43
0.0000001
 44
0.0000000001
 40
0.0
 40
0.0
 40
0.0
 40
0.0
 40
1.0
 40
1.0
 40
1.0
 40
1.0
 10
298.3688579454
 20
335.8093204299
 30
0.0
 10
299.2432638194
 20
336.7407528884
 30
0.0
 10
299.6899729754
 20
337.9288045293
 30
0.0
 10
299.6899729754
 20
339.3924839324
 30
0.0
  0
SPLINE
  5
912
100
AcDbEntity
  8
0
100
AcDbSpline
 62
7
  6
CONTINUOUS
 70
0
 71
3
 72
8
 73
4
 74
0
 42
0.0000001
 43
0.0000001
 44
0.0000000001
 40
0.0
 40
0.0
 40
0.0
 40
0.0
 40
1.0
 40
1.0
 40
1.0
 40
1.0
 10
299.6899729754
 20
339.3924839324
 30
0.0
 10
299.6899729754
 20
340.7135972804
 30
0.0
 10
299.2907882716
 20
341.7685872144
 30
0.0
 10
298.5114252854
 20
342.5669589216
 30
0.0
  0
SPLINE
  5
913
100
AcDbEntity
  8
0
100
AcDbSpline
 62
7
  6
CONTINUOUS
 70
0
 71
3
 72
8
 73
4
 74
0
 42
0.0000001
 43
0.0000001
 44
0.0000000001
 40
0.0
 40
0.0
 40
0.0
 40
0.0
 40
1.0
 40
1.0
 40
1.0
 40
1.0
 10
298.5114252854
 20
342.5669589216
 30
0.0
 10
297.732064345
 20
343.3653285331
 30
0.0
 10
296.7341009165
 20
343.7645140714
 30
0.0
 10
295.5270405795
 20
343.7645140714
 30
0.0
  0
SPLINE
  5
914
100
AcDbEntity
  8
0
100
AcDbSpline
 62
7
  6
CONTINUOUS
 70
0
 71
3
 72
8
 73
4
 74
0
 42
0.0000001
 43
0.0000001
 44
0.0000000001
 40
0.0
 40
0.0
 40
0.0
 40
0.0
 40
1.0
 40
1.0
 40
1.0
 40
1.0
 10
295.5270405795
 20
343.7645140714
 30
0.0
 10
294.6716438319
 20
343.7645140714
 30
0.0
 10
293.8637681986
 20
343.5078943795
 30
0.0
 10
293.1034136797
 20
342.9946566648
 30
0.0
  0
SPLINE
  5
915
100
AcDbEntity
  8
0
100
AcDbSpline
 62
7
  6
CONTINUOUS
 70
0
 71
3
 72
8
 73
4
 74
0
 42
0.0000001
 43
0.0000001
 44
0.0000000001
 40
0.0
 40
0.0
 40
0.0
 40
0.0
 40
1.0
 40
1.0
 40
1.0
 40
1.0
 10
293.0558925654
 20
340.6090488261
 30
0.0
 10
293.5691319491
 20
341.1983225769
 30
0.0
 10
294.1964226748
 20
341.5024638003
 30
0.0
 10
294.9472709681
 20
341.5024638003
 30
0.0
  0
SPLINE
  5
916
100
AcDbEntity
  8
0
100
AcDbSpline
 62
7
  6
CONTINUOUS
 70
0
 71
3
 72
8
 73
4
 74
0
 42
0.0000001
 43
0.0000001
 44
0.0000000001
 40
0.0
 40
0.0
 40
0.0
 40
0.0
 40
1.0
 40
1.0
 40
1.0
 40
1.0
 10
294.9472709681
 20
341.5024638003
 30
0.0
 10
296.2683826472
 20
341.5024638003
 30
0.0
 10
296.9336915995
 20
340.6945885843
 30
0.0
 10
296.9336915995
 20
339.088342709
 30
0.0
  0
SPLINE
  5
917
100
AcDbEntity
  8
0
100
AcDbSpline
 62
7
  6
CONTINUOUS
 70
0
 71
3
 72
8
 73
4
 74
0
 42
0.0000001
 43
0.0000001
 44
0.0000000001
 40
0.0
 40
0.0
 40
0.0
 40
0.0
 40
1.0
 40
1.0
 40
1.0
 40
1.0
 10
296.9336915995
 20
339.088342709
 30
0.0
 10
296.9336915995
 20
338.3089811629
 30
0.0
 10
296.7341009165
 20
337.7102030641
 30
0.0
 10
296.3467973534
 20
337.2992843707
 30
0.0
  0
SPLINE
  5
918
100
AcDbEntity
  8
0
100
AcDbSpline
 62
7
  6
CONTINUOUS
 70
0
 71
3
 72
8
 73
4
 74
0
 42
0.0000001
 43
0.0000001
 44
0.0000000001
 40
0.0
 40
0.0
 40
0.0
 40
0.0
 40
1.0
 40
1.0
 40
1.0
 40
1.0
 10
296.3467973534
 20
337.2992843707
 30
0.0
 10
295.9547372843
 20
336.883319152
 30
0.0
 10
295.4700132395
 20
336.6837263829
 30
0.0
 10
294.8902436282
 20
336.6837263829
 30
0.0
  0
SPLINE
  5
919
100
AcDbEntity
  8
0
100
AcDbSpline
 62
7
  6
CONTINUOUS
 70
0
 71
3
 72
8
 73
4
 74
0
 42
0.0000001
 43
0.0000001
 44
0.0000000001
 40
0.0
 40
0.0
 40
0.0
 40
0.0
 40
1.0
 40
1.0
 40
1.0
 40
1.0
 10
294.8902436282
 20
336.6837263829
 30
0.0
 10
294.3960133578
 20
336.6837263829
 30
0.0
 10
294.0158377673
 20
336.7977793938
 30
0.0
 10
293.737867203
 20
337.0422025447
 30
0.0
  0
SPLINE
  5
91A
100
AcDbEntity
  8
0
100
AcDbSpline
 62
7
  6
CONTINUOUS
 70
0
 71
3
 72
8
 73
4
 74
0
 42
0.0000001
 43
0.0000001
 44
0.0000000001
 40
0.0
 40
0.0
 40
0.0
 40
0.0
 40
1.0
 40
1.0
 40
1.0
 40
1.0
 10
293.737867203
 20
337.0422025447
 30
0.0
 10
293.4645834948
 20
337.2825044817
 30
0.0
 10
293.2174683596
 20
337.7387163169
 30
0.0
 10
292.9988652255
 20
338.4040250606
 30
0.0
  0
SPLINE
  5
91B
100
AcDbEntity
  8
0
100
AcDbSpline
 62
7
  6
CONTINUOUS
 70
0
 71
3
 72
8
 73
4
 74
0
 42
0.0000001
 43
0.0000001
 44
0.0000000001
 40
0.0
 40
0.0
 40
0.0
 40
0.0
 40
1.0
 40
1.0
 40
1.0
 40
1.0
 10
290.2425871874
 20
338.4040250606
 30
0.0
 10
290.4992052103
 20
336.9593543536
 30
0.0
 10
291.012444594
 20
335.9328777767
 30
0.0
 10
291.7918055202
 20
335.3245961914
 30
0.0
  0
SPLINE
  5
91C
100
AcDbEntity
  8
0
100
AcDbSpline
 62
7
  6
CONTINUOUS
 70
0
 71
3
 72
8
 73
4
 74
0
 42
0.0000001
 43
0.0000001
 44
0.0000000001
 40
0.0
 40
0.0
 40
0.0
 40
0.0
 40
1.0
 40
1.0
 40
1.0
 40
1.0
 10
286.4218121554
 20
334.5072159092
 30
0.0
 10
286.3837939288
 20
333.556774599
 30
0.0
 10
285.870556214
 20
332.8914656467
 30
0.0
 10
284.8725927855
 20
332.5112892217
 30
0.0
  0
SPLINE
  5
91D
100
AcDbEntity
  8
0
100
AcDbSpline
 62
7
  6
CONTINUOUS
 70
0
 71
3
 72
8
 73
4
 74
0
 42
0.0000001
 43
0.0000001
 44
0.0000000001
 40
0.0
 40
0.0
 40
0.0
 40
0.0
 40
1.0
 40
1.0
 40
1.0
 40
1.0
 10
284.8725927855
 20
331.4277862436
 30
0.0
 10
286.7734757449
 20
331.8269715733
 30
0.0
 10
287.7239163901
 20
333.0055186576
 30
0.0
 10
287.7239163901
 20
334.9634277313
 30
0.0
  0
SPLINE
  5
91E
100
AcDbEntity
  8
0
100
AcDbSpline
 62
7
  6
CONTINUOUS
 70
0
 71
3
 72
8
 73
4
 74
0
 42
0.0000001
 43
0.0000001
 44
0.0000000001
 40
0.0
 40
0.0
 40
0.0
 40
0.0
 40
1.0
 40
1.0
 40
1.0
 40
1.0
 10
277.4116292979
 20
348.2410926646
 30
0.0
 10
277.2595580603
 20
347.585288269
 30
0.0
 10
277.0599657084
 20
347.1195716685
 30
0.0
 10
276.7938419059
 20
346.8344387249
 30
0.0
  0
SPLINE
  5
91F
100
AcDbEntity
  8
0
100
AcDbSpline
 62
7
  6
CONTINUOUS
 70
0
 71
3
 72
8
 73
4
 74
0
 42
0.0000001
 43
0.0000001
 44
0.0000000001
 40
0.0
 40
0.0
 40
0.0
 40
0.0
 40
1.0
 40
1.0
 40
1.0
 40
1.0
 10
276.7938419059
 20
346.8344387249
 30
0.0
 10
276.5277188803
 20
346.5493066138
 30
0.0
 10
276.1855598475
 20
346.321200592
 30
0.0
 10
275.7690180389
 20
346.1555304033
 30
0.0
  0
SPLINE
  5
920
100
AcDbEntity
  8
0
100
AcDbSpline
 62
7
  6
CONTINUOUS
 70
0
 71
3
 72
8
 73
4
 74
0
 42
0.0000001
 43
0.0000001
 44
0.0000000001
 40
0.0
 40
0.0
 40
0.0
 40
0.0
 40
1.0
 40
1.0
 40
1.0
 40
1.0
 10
275.7690180389
 20
346.1555304033
 30
0.0
 10
275.3491722132
 20
345.9885461158
 30
0.0
 10
274.6553495909
 20
345.9125113315
 30
0.0
 10
273.6858989979
 20
345.9125113315
 30
0.0
  0
SPLINE
  5
921
100
AcDbEntity
  8
0
100
AcDbSpline
 62
7
  6
CONTINUOUS
 70
0
 71
3
 72
8
 73
4
 74
0
 42
0.0000001
 43
0.0000001
 44
0.0000000001
 40
0.0
 40
0.0
 40
0.0
 40
0.0
 40
1.0
 40
1.0
 40
1.0
 40
1.0
 10
262.1665509428
 20
336.2940455056
 30
0.0
 10
262.5657362725
 20
335.6667542583
 30
0.0
 10
263.1169922139
 20
335.1915336228
 30
0.0
 10
263.8108144213
 20
334.8873924179
 30
0.0
  0
SPLINE
  5
922
100
AcDbEntity
  8
0
100
AcDbSpline
 62
7
  6
CONTINUOUS
 70
0
 71
3
 72
8
 73
4
 74
0
 42
0.0000001
 43
0.0000001
 44
0.0000000001
 40
0.0
 40
0.0
 40
0.0
 40
0.0
 40
1.0
 40
1.0
 40
1.0
 40
1.0
 10
263.8108144213
 20
334.8873924179
 30
0.0
 10
264.504636624
 20
334.583251215
 30
0.0
 10
265.28399817
 20
334.4216761901
 30
0.0
 10
266.1393953349
 20
334.4216761901
 30
0.0
  0
SPLINE
  5
923
100
AcDbEntity
  8
0
100
AcDbSpline
 62
7
  6
CONTINUOUS
 70
0
 71
3
 72
8
 73
4
 74
0
 42
0.0000001
 43
0.0000001
 44
0.0000000001
 40
0.0
 40
0.0
 40
0.0
 40
0.0
 40
1.0
 40
1.0
 40
1.0
 40
1.0
 10
266.1393953349
 20
334.4216761901
 30
0.0
 10
267.5650575544
 20
334.4216761901
 30
0.0
 10
268.7055872466
 20
334.830365946
 30
0.0
 10
269.5633558555
 20
335.6643076288
 30
0.0
  0
SPLINE
  5
924
100
AcDbEntity
  8
0
100
AcDbSpline
 62
7
  6
CONTINUOUS
 70
0
 71
3
 72
8
 73
4
 74
0
 42
0.0000001
 43
0.0000001
 44
0.0000000001
 40
0.0
 40
0.0
 40
0.0
 40
0.0
 40
1.0
 40
1.0
 40
1.0
 40
1.0
 10
269.5633558555
 20
335.6643076288
 30
0.0
 10
270.4163815762
 20
336.4936381704
 30
0.0
 10
270.84407995
 20
337.5486278957
 30
0.0
 10
270.84407995
 20
338.8317238516
 30
0.0
  0
SPLINE
  5
925
100
AcDbEntity
  8
0
100
AcDbSpline
 62
7
  6
CONTINUOUS
 70
0
 71
3
 72
8
 73
4
 74
0
 42
0.0000001
 43
0.0000001
 44
0.0000000001
 40
0.0
 40
0.0
 40
0.0
 40
0.0
 40
1.0
 40
1.0
 40
1.0
 40
1.0
 10
270.84407995
 20
338.8317238516
 30
0.0
 10
270.84407995
 20
339.5160415
 30
0.0
 10
270.7015132691
 20
340.1243239469
 30
0.0
 10
270.4222020234
 20
340.645074354
 30
0.0
  0
SPLINE
  5
926
100
AcDbEntity
  8
0
100
AcDbSpline
 62
7
  6
CONTINUOUS
 70
0
 71
3
 72
8
 73
4
 74
0
 42
0.0000001
 43
0.0000001
 44
0.0000000001
 40
0.0
 40
0.0
 40
0.0
 40
0.0
 40
1.0
 40
1.0
 40
1.0
 40
1.0
 10
270.4222020234
 20
340.645074354
 30
0.0
 10
270.1407536055
 20
341.1698093242
 30
0.0
 10
269.6370196129
 20
341.6260209507
 30
0.0
 10
268.8956750418
 20
342.0157023496
 30
0.0
  0
SPLINE
  5
927
100
AcDbEntity
  8
0
100
AcDbSpline
 62
7
  6
CONTINUOUS
 70
0
 71
3
 72
8
 73
4
 74
0
 42
0.0000001
 43
0.0000001
 44
0.0000000001
 40
0.0
 40
0.0
 40
0.0
 40
0.0
 40
1.0
 40
1.0
 40
1.0
 40
1.0
 10
268.8956750418
 20
342.0157023496
 30
0.0
 10
269.9221521403
 20
342.7000195808
 30
0.0
 10
270.4448944117
 20
343.6409565038
 30
0.0
 10
270.4448944117
 20
344.8385122842
 30
0.0
  0
SPLINE
  5
928
100
AcDbEntity
  8
0
100
AcDbSpline
 62
7
  6
CONTINUOUS
 70
0
 71
3
 72
8
 73
4
 74
0
 42
0.0000001
 43
0.0000001
 44
0.0000000001
 40
0.0
 40
0.0
 40
0.0
 40
0.0
 40
1.0
 40
1.0
 40
1.0
 40
1.0
 10
270.4448944117
 20
344.8385122842
 30
0.0
 10
270.4448944117
 20
345.9315204448
 30
0.0
 10
270.0552134301
 20
346.8249345845
 30
0.0
 10
269.2927519266
 20
347.5068877486
 30
0.0
  0
SPLINE
  5
929
100
AcDbEntity
  8
0
100
AcDbSpline
 62
7
  6
CONTINUOUS
 70
0
 71
3
 72
8
 73
4
 74
0
 42
0.0000001
 43
0.0000001
 44
0.0000000001
 40
0.0
 40
0.0
 40
0.0
 40
0.0
 40
1.0
 40
1.0
 40
1.0
 40
1.0
 10
269.2927519266
 20
347.5068877486
 30
0.0
 10
268.5250031735
 20
348.1935698814
 30
0.0
 10
267.4795177962
 20
348.5452334708
 30
0.0
 10
266.1488998915
 20
348.5452334708
 30
0.0
  0
SPLINE
  5
92A
100
AcDbEntity
  8
0
100
AcDbSpline
 62
7
  6
CONTINUOUS
 70
0
 71
3
 72
8
 73
4
 74
0
 42
0.0000001
 43
0.0000001
 44
0.0000000001
 40
0.0
 40
0.0
 40
0.0
 40
0.0
 40
1.0
 40
1.0
 40
1.0
 40
1.0
 10
266.1488998915
 20
348.5452334708
 30
0.0
 10
264.7802645947
 20
348.5452334708
 30
0.0
 10
263.696761408
 20
348.1460479325
 30
0.0
 10
262.9197790805
 20
347.3643280959
 30
0.0
  0
SPLINE
  5
92B
100
AcDbEntity
  8
0
100
AcDbSpline
 62
7
  6
CONTINUOUS
 70
0
 71
3
 72
8
 73
4
 74
0
 42
0.0000001
 43
0.0000001
 44
0.0000000001
 40
0.0
 40
0.0
 40
0.0
 40
0.0
 40
1.0
 40
1.0
 40
1.0
 40
1.0
 10
262.9197790805
 20
347.3643280959
 30
0.0
 10
262.1380377944
 20
346.5778202838
 30
0.0
 10
261.7483568127
 20
345.4943166799
 30
0.0
 10
261.7483568127
 20
344.1161768264
 30
0.0
  0
SPLINE
  5
92C
100
AcDbEntity
  8
0
100
AcDbSpline
 62
7
  6
CONTINUOUS
 70
0
 71
3
 72
8
 73
4
 74
0
 42
0.0000001
 43
0.0000001
 44
0.0000000001
 40
0.0
 40
0.0
 40
0.0
 40
0.0
 40
1.0
 40
1.0
 40
1.0
 40
1.0
 10
264.2480173494
 20
344.1161768264
 30
0.0
 10
264.2670260455
 20
345.560847742
 30
0.0
 10
264.8753084923
 20
346.2831831998
 30
0.0
 10
266.0633601333
 20
346.2831831998
 30
0.0
  0
SPLINE
  5
92D
100
AcDbEntity
  8
0
100
AcDbSpline
 62
7
  6
CONTINUOUS
 70
0
 71
3
 72
8
 73
4
 74
0
 42
0.0000001
 43
0.0000001
 44
0.0000000001
 40
0.0
 40
0.0
 40
0.0
 40
0.0
 40
1.0
 40
1.0
 40
1.0
 40
1.0
 10
266.0633601333
 20
346.2831831998
 30
0.0
 10
266.5290763165
 20
346.2831831998
 30
0.0
 10
266.9187572981
 20
346.1311127967
 30
0.0
 10
267.2205150033
 20
345.8434997834
 30
0.0
  0
SPLINE
  5
92E
100
AcDbEntity
  8
0
100
AcDbSpline
 62
7
  6
CONTINUOUS
 70
0
 71
3
 72
8
 73
4
 74
0
 42
0.0000001
 43
0.0000001
 44
0.0000000001
 40
0.0
 40
0.0
 40
0.0
 40
0.0
 40
1.0
 40
1.0
 40
1.0
 40
1.0
 10
267.2205150033
 20
345.8434997834
 30
0.0
 10
267.527039745
 20
345.5513431853
 30
0.0
 10
267.6886147047
 20
345.1331493682
 30
0.0
 10
267.6886147047
 20
344.6009025401
 30
0.0
  0
SPLINE
  5
92F
100
AcDbEntity
  8
0
100
AcDbSpline
 62
7
  6
CONTINUOUS
 70
0
 71
3
 72
8
 73
4
 74
0
 42
0.0000001
 43
0.0000001
 44
0.0000000001
 40
0.0
 40
0.0
 40
0.0
 40
0.0
 40
1.0
 40
1.0
 40
1.0
 40
1.0
 10
267.6886147047
 20
344.6009025401
 30
0.0
 10
267.6886147047
 20
344.1732033319
 30
0.0
 10
267.5745616938
 20
343.7930269069
 30
0.0
 10
267.3559602286
 20
343.4603724307
 30
0.0
  0
SPLINE
  5
930
100
AcDbEntity
  8
0
100
AcDbSpline
 62
7
  6
CONTINUOUS
 70
0
 71
3
 72
8
 73
4
 74
0
 42
0.0000001
 43
0.0000001
 44
0.0000000001
 40
0.0
 40
0.0
 40
0.0
 40
0.0
 40
1.0
 40
1.0
 40
1.0
 40
1.0
 10
267.3559602286
 20
343.4603724307
 30
0.0
 10
267.1373587634
 20
343.1277179546
 30
0.0
 10
266.8522266532
 20
342.9091164893
 30
0.0
 10
266.5106498193
 20
342.8027240636
 30
0.0
  0
SPLINE
  5
931
100
AcDbEntity
  8
0
100
AcDbSpline
 62
7
  6
CONTINUOUS
 70
0
 71
3
 72
8
 73
4
 74
0
 42
0.0000001
 43
0.0000001
 44
0.0000000001
 40
0.0
 40
0.0
 40
0.0
 40
0.0
 40
1.0
 40
1.0
 40
1.0
 40
1.0
 10
266.5106498193
 20
342.8027240636
 30
0.0
 10
266.2724574591
 20
342.7285332507
 30
0.0
 10
265.9683162357
 20
342.7000195808
 30
0.0
 10
265.5976439501
 20
342.7000195808
 30
0.0
  0
SPLINE
  5
932
100
AcDbEntity
  8
0
100
AcDbSpline
 62
7
  6
CONTINUOUS
 70
0
 71
3
 72
8
 73
4
 74
0
 42
0.0000001
 43
0.0000001
 44
0.0000000001
 40
0.0
 40
0.0
 40
0.0
 40
0.0
 40
1.0
 40
1.0
 40
1.0
 40
1.0
 10
265.4170602943
 20
340.7326063937
 30
0.0
 10
266.0063336278
 20
340.7326063937
 30
0.0
 10
266.5005630638
 20
340.6660753316
 30
0.0
 10
266.889939487
 20
340.5321298704
 30
0.0
  0
SPLINE
  5
933
100
AcDbEntity
  8
0
100
AcDbSpline
 62
7
  6
CONTINUOUS
 70
0
 71
3
 72
8
 73
4
 74
0
 42
0.0000001
 43
0.0000001
 44
0.0000000001
 40
0.0
 40
0.0
 40
0.0
 40
0.0
 40
1.0
 40
1.0
 40
1.0
 40
1.0
 10
266.889939487
 20
340.5321298704
 30
0.0
 10
267.6886147047
 20
340.2573856539
 30
0.0
 10
268.087800243
 20
339.6300945109
 30
0.0
 10
268.087800243
 20
338.6511397785
 30
0.0
  0
SPLINE
  5
934
100
AcDbEntity
  8
0
100
AcDbSpline
 62
7
  6
CONTINUOUS
 70
0
 71
3
 72
8
 73
4
 74
0
 42
0.0000001
 43
0.0000001
 44
0.0000000001
 40
0.0
 40
0.0
 40
0.0
 40
0.0
 40
1.0
 40
1.0
 40
1.0
 40
1.0
 10
268.087800243
 20
338.6511397785
 30
0.0
 10
268.087800243
 20
338.0618662364
 30
0.0
 10
267.90721617
 20
337.5866457051
 30
0.0
 10
267.5555529977
 20
337.2254779762
 30
0.0
  0
SPLINE
  5
935
100
AcDbEntity
  8
0
100
AcDbSpline
 62
7
  6
CONTINUOUS
 70
0
 71
3
 72
8
 73
4
 74
0
 42
0.0000001
 43
0.0000001
 44
0.0000000001
 40
0.0
 40
0.0
 40
0.0
 40
0.0
 40
1.0
 40
1.0
 40
1.0
 40
1.0
 10
267.5555529977
 20
337.2254779762
 30
0.0
 10
267.2038898255
 20
336.8643102473
 30
0.0
 10
266.7571823384
 20
336.6837263829
 30
0.0
 10
266.2154309536
 20
336.6837263829
 30
0.0
  0
SPLINE
  5
936
100
AcDbEntity
  8
0
100
AcDbSpline
 62
7
  6
CONTINUOUS
 70
0
 71
3
 72
8
 73
4
 74
0
 42
0.0000001
 43
0.0000001
 44
0.0000000001
 40
0.0
 40
0.0
 40
0.0
 40
0.0
 40
1.0
 40
1.0
 40
1.0
 40
1.0
 10
266.2154309536
 20
336.6837263829
 30
0.0
 10
265.0558925654
 20
336.6837263829
 30
0.0
 10
264.4286014224
 20
337.4440794415
 30
0.0
 10
264.3145484115
 20
338.9647855586
 30
0.0
  0
SPLINE
  5
937
100
AcDbEntity
  8
0
100
AcDbSpline
 62
7
  6
CONTINUOUS
 70
0
 71
3
 72
8
 73
4
 74
0
 42
0.0000001
 43
0.0000001
 44
0.0000000001
 40
0.0
 40
0.0
 40
0.0
 40
0.0
 40
1.0
 40
1.0
 40
1.0
 40
1.0
 10
261.5582685481
 20
338.9647855586
 30
0.0
 10
261.5582685481
 20
337.8052471704
 30
0.0
 10
261.7673656131
 20
336.9213367528
 30
0.0
 10
262.1665509428
 20
336.2940455056
 30
0.0
  0
SPLINE
  5
938
100
AcDbEntity
  8
0
100
AcDbSpline
 62
7
  6
CONTINUOUS
 70
0
 71
3
 72
9
 73
5
 74
0
 42
0.0000001
 43
0.0000001
 44
0.0000000001
 40
0.0
 40
0.0
 40
0.0
 40
0.0
 40
0.502112688
 40
1.0
 40
1.0
 40
1.0
 40
1.0
 10
325.1428734175
 20
360.4695550525
 30
0.0
 10
325.1428734175
 20
361.4421877441
 30
0.0
 10
324.9782529679
 20
363.3827236322
 30
0.0
 10
324.4990395438
 20
365.2687502483
 30
0.0
 10
324.1918513145
 20
366.1829684647
 30
0.0
  0
SPLINE
  5
939
100
AcDbEntity
  8
0
100
AcDbSpline
 62
7
  6
CONTINUOUS
 70
0
 71
3
 72
9
 73
5
 74
0
 42
0.0000001
 43
0.0000001
 44
0.0000000001
 40
0.0
 40
0.0
 40
0.0
 40
0.0
 40
0.5021126884
 40
1.0
 40
1.0
 40
1.0
 40
1.0
 10
243.2146701872
 20
360.4695550525
 30
0.0
 10
243.2146701872
 20
361.4421877132
 30
0.0
 10
243.3792906107
 20
363.3827235414
 30
0.0
 10
243.8585040486
 20
365.26875009
 30
0.0
 10
244.1656922714
 20
366.1829682748
 30
0.0
  0
SPLINE
  5
93A
100
AcDbEntity
  8
RUNDUNGEN
100
AcDbSpline
 62
7
  6
CONTINUOUS
 70
0
 71
3
 72
9
 73
5
 74
0
 42
0.0000001
 43
0.0000001
 44
0.0000000001
 40
0.0
 40
0.0
 40
0.0
 40
0.0
 40
0.4999994904
 40
1.0
 40
1.0
 40
1.0
 40
1.0
 10
248.0185177645
 20
368.1254545901
 30
0.0
 10
248.9883676748
 20
367.6460419627
 30
0.0
 10
250.9173526724
 20
366.6656948371
 30
0.0
 10
252.8457033327
 20
365.6842528502
 30
0.0
 10
253.8126676091
 20
365.199041375
 30
0.0
  0
SPLINE
  5
93B
100
AcDbEntity
  8
RUNDUNGEN
100
AcDbSpline
 62
7
  6
CONTINUOUS
 70
0
 71
3
 72
9
 73
5
 74
0
 42
0.0000001
 43
0.0000001
 44
0.0000000001
 40
0.0
 40
0.0
 40
0.0
 40
0.0
 40
0.5102291735
 40
1.0
 40
1.0
 40
1.0
 40
1.0
 10
244.1656922714
 20
366.1829682748
 30
0.0
 10
244.2962178227
 20
366.5714233775
 30
0.0
 10
244.6495591184
 20
367.3058992957
 30
0.0
 10
245.2084749034
 20
367.9029537835
 30
0.0
 10
245.5185177645
 20
368.1450500153
 30
0.0
  0
SPLINE
  5
93C
100
AcDbEntity
  8
RUNDUNGEN
100
AcDbSpline
 62
7
  6
CONTINUOUS
 70
0
 71
3
 72
9
 73
5
 74
0
 42
0.0000001
 43
0.0000001
 44
0.0000000001
 40
0.0
 40
0.0
 40
0.0
 40
0.0
 40
0.4897710491
 40
1.0
 40
1.0
 40
1.0
 40
1.0
 10
322.8390258402
 20
368.1450500945
 30
0.0
 10
323.1490688354
 20
367.9029537694
 30
0.0
 10
323.7079846107
 20
367.3058992931
 30
0.0
 10
324.0613258269
 20
366.5714233831
 30
0.0
 10
324.1918513145
 20
366.1829684647
 30
0.0
  0
SPLINE
  5
93D
100
AcDbEntity
  8
RUNDUNGEN
100
AcDbSpline
 62
7
  6
CONTINUOUS
 70
0
 71
3
 72
9
 73
5
 74
0
 42
0.0000001
 43
0.0000001
 44
0.0000000001
 40
0.0
 40
0.0
 40
0.0
 40
0.0
 40
0.5000005097
 40
1.0
 40
1.0
 40
1.0
 40
1.0
 10
314.544875825
 20
365.199041297
 30
0.0
 10
315.5118401152
 20
365.6842528118
 30
0.0
 10
317.4401908393
 20
366.6656948052
 30
0.0
 10
319.3691759196
 20
367.646041899
 30
0.0
 10
320.3390258402
 20
368.125454573
 30
0.0
  0
SPLINE
  5
93E
100
AcDbEntity
  8
RUNDUNGEN
100
AcDbSpline
 62
7
  6
CONTINUOUS
 70
0
 71
3
 72
11
 73
7
 74
0
 42
0.0000001
 43
0.0000001
 44
0.0000000001
 40
0.0
 40
0.0
 40
0.0
 40
0.0
 40
0.2550308623
 40
0.5061865415
 40
0.7537959121
 40
1.0
 40
1.0
 40
1.0
 40
1.0
 10
248.0185177645
 20
329.7294800067
 30
0.0
 10
247.7508388016
 20
329.7294800067
 30
0.0
 10
247.2153091088
 20
329.8301707569
 30
0.0
 10
246.5188744294
 20
330.2276769703
 30
0.0
 10
245.9534218344
 20
330.7763033324
 30
0.0
 10
245.6529153807
 20
331.2015785741
 30
0.0
 10
245.5185177645
 20
331.4222939981
 30
0.0
  0
SPLINE
  5
93F
100
AcDbEntity
  8
RUNDUNGEN
100
AcDbSpline
 62
7
  6
CONTINUOUS
 70
0
 71
3
 72
11
 73
7
 74
0
 42
0.0000001
 43
0.0000001
 44
0.0000000001
 40
0.0
 40
0.0
 40
0.0
 40
0.0
 40
0.2378663683
 40
0.4840030679
 40
0.7396784552
 40
1.0
 40
1.0
 40
1.0
 40
1.0
 10
245.5185177645
 20
368.1450500153
 30
0.0
 10
245.6830799283
 20
368.2735479902
 30
0.0
 10
246.0716284501
 20
368.4747351393
 30
0.0
 10
246.7311461125
 20
368.5324598377
 30
0.0
 10
247.3926838121
 20
368.3995712509
 30
0.0
 10
247.813679257
 20
368.2267096049
 30
0.0
 10
248.0185177645
 20
368.1254545901
 30
0.0
  0
SPLINE
  5
940
100
AcDbEntity
  8
RUNDUNGEN
100
AcDbSpline
 62
7
  6
CONTINUOUS
 70
0
 71
3
 72
11
 73
7
 74
0
 42
0.0000001
 43
0.0000001
 44
0.0000000001
 40
0.0
 40
0.0
 40
0.0
 40
0.0
 40
0.2462041192
 40
0.4938136478
 40
0.7449698752
 40
1.0
 40
1.0
 40
1.0
 40
1.0
 10
322.8390258402
 20
331.4222939981
 30
0.0
 10
322.7046282074
 20
331.2015785467
 30
0.0
 10
322.4041216298
 20
330.7763031554
 30
0.0
 10
321.8386684621
 20
330.2276762424
 30
0.0
 10
321.1422334613
 20
329.8301705313
 30
0.0
 10
320.6067040282
 20
329.7294800067
 30
0.0
 10
320.3390258402
 20
329.7294800067
 30
0.0
  0
SPLINE
  5
941
100
AcDbEntity
  8
RUNDUNGEN
100
AcDbSpline
 62
7
  6
CONTINUOUS
 70
0
 71
3
 72
11
 73
7
 74
0
 42
0.0000001
 43
0.0000001
 44
0.0000000001
 40
0.0
 40
0.0
 40
0.0
 40
0.0
 40
0.2603242665
 40
0.5159986521
 40
0.7621306876
 40
1.0
 40
1.0
 40
1.0
 40
1.0
 10
320.3390258402
 20
368.125454573
 30
0.0
 10
320.5438664775
 20
368.2267106494
 30
0.0
 10
320.9648634645
 20
368.399572449
 30
0.0
 10
321.6263989452
 20
368.5324598957
 30
0.0
 10
322.2859133119
 20
368.4747342468
 30
0.0
 10
322.6744616432
 20
368.2735496508
 30
0.0
 10
322.8390258402
 20
368.1450500945
 30
0.0
  0
ELLIPSE
  5
942
100
AcDbEntity
  8
RUNDUNGEN
100
AcDbEllipse
 62
7
  6
CONTINUOUS
 10
283.9178641651
 20
339.2163129872
 30
0.0
 11
40.7031939779
 21
0.0
 31
0.0
 40
0.5773502692
 41
-3.1415926536
 42
-2.8035296211
  0
ELLIPSE
  5
943
100
AcDbEntity
  8
RUNDUNGEN
100
AcDbEllipse
 62
7
  6
CONTINUOUS
 10
284.4396794396
 20
339.2163129872
 30
0.0
 11
40.7031939779
 21
-0.0
 31
0.0
 40
0.5773502692
 41
-0.3380630325
 42
0.0
  0
ELLIPSE
  5
944
100
AcDbEntity
  8
RUNDUNGEN
100
AcDbEllipse
 62
7
  6
CONTINUOUS
 10
568.5957165149
 20
317.5389533227
 30
0.0
 11
3.0364857445
 21
-19.1716164688
 31
0.0
 40
0.1545547829
 41
3.1171184685
 42
3.9147537245
  0
ELLIPSE
  5
945
100
AcDbEntity
  8
RUNDUNGEN
100
AcDbEllipse
 62
7
  6
CONTINUOUS
 10
656.1104351407
 20
317.5389533227
 30
0.0
 11
3.0364857445
 21
19.1716164688
 31
0.0
 40
0.1545547829
 41
-0.7731610709
 42
0.0244741851
  0
ENDSEC
  0
SECTION
  2
OBJECTS
  0
DICTIONARY
  5
C
100
AcDbDictionary
280
0
281
1
  3
ACAD_GROUP
350
D
  3
ACAD_MLINESTYLE
350
17
  3
ACAD_LAYOUT
350
1A
  3
ACAD_PLOTSETTINGS
350
19
  3
ACAD_PLOTSTYLENAME
350
E
  0
DICTIONARY
  5
D
102
{ACAD_REACTORS
330
C
102
}
100
AcDbDictionary
280
0
281
1
  0
ACDBDICTIONARYWDFLT
  5
E
102
{ACAD_REACTORS
330
C
102
}
100
AcDbDictionary
281
1
  3
Normal
350
F
100
AcDbDictionaryWithDefault
340
F
  0
DICTIONARY
  5
17
102
{ACAD_REACTORS
330
C
102
}
100
AcDbDictionary
280
0
281
1
  3
Standard
350
18
  0
DICTIONARY
  5
19
102
{ACAD_REACTORS
330
C
102
}
100
AcDbDictionary
281
1
  0
DICTIONARY
  5
1A
102
{ACAD_REACTORS
330
C
102
}
100
AcDbDictionary
281
1
  3
Model
350
946
  3
Layout1
350
947
  0
ACDBPLACEHOLDER
  5
F
102
{ACAD_REACTORS
330
E
102
}
  0
MLINESTYLE
  5
18
102
{ACAD_REACTORS
330
17
102
}
100
AcDbMlineStyle
  2
STANDARD
 70
0
  3

 62
256
 51
90.0
 52
90.0
 71
2
 49
0.5
 62
256
  6
BYLAYER
 49
-0.5
 62
256
  6
BYLAYER
  0
LAYOUT
  5
946
102
{ACAD_REACTORS
330
1A
102
}
100
AcDbPlotSettings
  1

  2
none_device
  4
ISO_A1_(594.00_x_841.00_MM)
  6

 40
0.0
 41
0.0
 42
0.0
 43
0.0
 44
841.0
 45
594.0
 46
0.0
 47
0.0
 48
0.0
 49
0.0
140
0.0
141
0.0
142
1.0
143
1.0
 70
1024
 72
1
 73
0
 74
0
  7

 75
0
147
1.0
148
0.0
149
0.0
100
AcDbLayout
  1
Model
 70
0
 71
0
 10
0.0
 20
0.0
 11
841.0
 21
594.0
 12
0.0
 22
0.0
 32
0.0
 14
0.0
 24
0.0
 34
0.0
 15
0.0
 25
0.0
 35
0.0
146
0.0
 13
0.0
 23
0.0
 33
0.0
 16
1.0
 26
0.0
 36
0.0
 17
0.0
 27
1.0
 37
0.0
 76
0
330
211
345
0
346
0
  0
LAYOUT
  5
947
102
{ACAD_REACTORS
330
1A
102
}
100
AcDbPlotSettings
  1

  2
none_device
  4
ISO_A1_(594.00_x_841.00_MM)
  6

 40
0.0
 41
0.0
 42
0.0
 43
0.0
 44
841.0
 45
594.0
 46
0.0
 47
0.0
 48
0.0
 49
0.0
140
0.0
141
0.0
142
1.0
143
1.0
 70
0
 72
1
 73
0
 74
0
  7

 75
0
147
1.0
148
0.0
149
0.0
100
AcDbLayout
  1
Layout1
 70
0
 71
1
 10
0.0
 20
0.0
 11
841.0
 21
594.0
 12
0.0
 22
0.0
 32
0.0
 14
0.0
 24
0.0
 34
0.0
 15
0.0
 25
0.0
 35
0.0
146
0.0
 13
0.0
 23
0.0
 33
0.0
 16
1.0
 26
0.0
 36
0.0
 17
0.0
 27
1.0
 37
0.0
 76
0
330
212
345
0
346
0
  0
ENDSEC
  0
EOF
