999
DXF file: VRBS-Ringbock-16t-7992491-M31835-P-10.dxf
999
Pro/ENGINEER 2011490 by Parametric Technology Corporation
  0
SECTION
  2
HEADER
  9
$ACADVER
  1
AC1015
  9
$DWGCODEPAGE
  3
ANSI_1252
  9
$EXTMAX
 10
594.0
 20
420.0
 30
0.0
  9
$EXTMIN
 10
0.0
 20
0.0
 30
0.0
  9
$LIMMIN
 10
0.0
 20
0.0
  9
$LIMMAX
 10
594.0
 20
420.0
  9
$VIEWCTR
 10
297.0
 20
210.0
  9
$VIEWSIZE
 40
420.0
  9
$CLAYER
  8
0
  9
$LTSCALE
 40
32.67
  9
$CELTYPE
  6
BYLAYER
  9
$DIMSCALE
 40
1.0
  9
$DIMASZ
 40
3.5
  9
$DIMEXO
 40
3.7125
  9
$DIMDLI
 40
22.572
  9
$DIMEXE
 40
10.692
  9
$DIMCEN
 40
5.346
  9
$DIMLFAC
 40
1.0
  9
$DIMBLK
  1
_FILLED
  9
$DIMTXT
 40
3.5
  9
$DIMTOL
 70
1
  9
$DIMLIM
 70
0
  9
$DIMTFAC
 40
1.0
  9
$DIMTP
 40
0.005
  9
$DIMTM
 40
0.005
  9
$PDMODE
 70
3
  9
$PDSIZE
 40
0.3125
  9
$HANDSEED
  5
840
  9
$TILEMODE
 70
1
  9
$MEASUREMENT
 70
1
  9
$INSUNITS
 70
4
  0
ENDSEC
  0
SECTION
  2
CLASSES
  0
CLASS
  1
ACDBDICTIONARYWDFLT
  2
AcDbDictionaryWithDefault
  3
AutoCAD 2000
 90
0
280
0
281
0
  0
CLASS
  1
ACDBPLACEHOLDER
  2
AcDbPlaceHolder
  3
AutoCAD 2000
 90
0
280
0
281
0
  0
CLASS
  1
LAYOUT
  2
AcDbLayout
  3
AutoCAD 2000
 90
0
280
0
281
0
  0
ENDSEC
  0
SECTION
  2
TABLES
  0
TABLE
  2
VPORT
  5
8
100
AcDbSymbolTable
 70
2
  0
VPORT
  5
1F4
100
AcDbSymbolTableRecord
100
AcDbViewportTableRecord
  2
*ACTIVE
 70
0
 10
0.0
 20
0.0
 11
1.0
 21
1.0
 12
297.0
 22
210.0
 13
0.0
 23
0.0
 14
1.0
 24
1.0
 15
0.0
 25
0.0
 16
0.0
 26
0.0
 36
1.0
 17
0.0
 27
0.0
 37
0.0
 40
420.0
 41
1.4142857143
 42
50.0
 43
0.0
 44
0.0
 50
0.0
 51
0.0
 71
0
 72
100
 73
1
 74
1
 75
0
 76
0
 77
0
 78
0
  0
ENDTAB
  0
TABLE
  2
LTYPE
  5
5
100
AcDbSymbolTable
 70
6
  0
LTYPE
  5
14
100
AcDbSymbolTableRecord
100
AcDbLinetypeTableRecord
  2
BYBLOCK
 70
0
  3

 72
65
 73
0
 40
0.0
  0
LTYPE
  5
15
100
AcDbSymbolTableRecord
100
AcDbLinetypeTableRecord
  2
BYLAYER
 70
0
  3

 72
65
 73
0
 40
0.0
  0
LTYPE
  5
16
100
AcDbSymbolTableRecord
100
AcDbLinetypeTableRecord
  2
CONTINUOUS
 70
64
  3
Solid line
 72
65
 73
0
 40
0.0
  0
LTYPE
  5
1F5
100
AcDbSymbolTableRecord
100
AcDbLinetypeTableRecord
  2
CENTER
 70
64
  3
____ _ ____ _ ____ _ ____ _ ____ _ ____ _ ____
 72
65
 73
4
 40
0.6
 49
0.375
 74
0
 49
-0.075
 74
0
 49
0.075
 74
0
 49
-0.075
 74
0
  0
LTYPE
  5
1F6
100
AcDbSymbolTableRecord
100
AcDbLinetypeTableRecord
  2
HIDDEN
 70
64
  3
- - - - - - - - - - - - - - - - - - - -
 72
65
 73
2
 40
0.2
 49
0.1
 74
0
 49
-0.1
 74
0
  0
LTYPE
  5
1F7
100
AcDbSymbolTableRecord
100
AcDbLinetypeTableRecord
  2
PHANTOM
 70
64
  3
_____ _ _ _____ _ _ _____ _ _ _____
 72
65
 73
6
 40
0.8
 49
0.45
 74
0
 49
-0.05
 74
0
 49
0.1
 74
0
 49
-0.05
 74
0
 49
0.1
 74
0
 49
-0.05
 74
0
  0
LTYPE
  5
1F8
100
AcDbSymbolTableRecord
100
AcDbLinetypeTableRecord
  2
DOT
 70
64
  3
. . . . . . . . . . . . . . . . . . . .
 72
65
 73
2
 40
0.2
 49
0.1
 74
0
 49
-0.1
 74
0
  0
LTYPE
  5
1F9
100
AcDbSymbolTableRecord
100
AcDbLinetypeTableRecord
  2
DASHED
 70
64
  3
- - - - - - - - - - - - - - - - - - - -
 72
65
 73
2
 40
0.2
 49
0.1
 74
0
 49
-0.1
 74
0
  0
ENDTAB
  0
TABLE
  2
LAYER
  5
2
100
AcDbSymbolTable
 70
36
  0
LAYER
  5
10
100
AcDbSymbolTableRecord
100
AcDbLayerTableRecord
  2
0
 70
0
 62
7
  6
CONTINUOUS
370
-3
390
F
  0
LAYER
  5
1FA
100
AcDbSymbolTableRecord
100
AcDbLayerTableRecord
  2
DEFAULT_1
 70
0
 62
7
  6
CENTER
370
-3
390
F
  0
LAYER
  5
1FB
100
AcDbSymbolTableRecord
100
AcDbLayerTableRecord
  2
DEFAULT_2
 70
0
 62
8
  6
HIDDEN
370
-3
390
F
  0
LAYER
  5
1FC
100
AcDbSymbolTableRecord
100
AcDbLayerTableRecord
  2
DEFAULT_3
 70
0
 62
7
  6
PHANTOM
370
-3
390
F
  0
LAYER
  5
1FD
100
AcDbSymbolTableRecord
100
AcDbLayerTableRecord
  2
AUSFORMSCHRAEGEN
 70
0
 62
7
  6
CONTINUOUS
370
-3
390
F
  0
LAYER
  5
1FE
100
AcDbSymbolTableRecord
100
AcDbLayerTableRecord
  2
B-ACHSEN
 70
0
 62
7
  6
CONTINUOUS
370
-3
390
F
  0
LAYER
  5
1FF
100
AcDbSymbolTableRecord
100
AcDbLayerTableRecord
  2
B-EBENEN
 70
0
 62
7
  6
CONTINUOUS
370
-3
390
F
  0
LAYER
  5
200
100
AcDbSymbolTableRecord
100
AcDbLayerTableRecord
  2
B-KOORSYS
 70
0
 62
7
  6
CONTINUOUS
370
-3
390
F
  0
LAYER
  5
201
100
AcDbSymbolTableRecord
100
AcDbLayerTableRecord
  2
B-KURVEN
 70
0
 62
7
  6
CONTINUOUS
370
-3
390
F
  0
LAYER
  5
202
100
AcDbSymbolTableRecord
100
AcDbLayerTableRecord
  2
BEMASSUNG
 70
0
 62
7
  6
CONTINUOUS
370
-3
390
F
  0
LAYER
  5
203
100
AcDbSymbolTableRecord
100
AcDbLayerTableRecord
  2
BEZUGSACHSEN
 70
0
 62
7
  6
CONTINUOUS
370
-3
390
F
  0
LAYER
  5
204
100
AcDbSymbolTableRecord
100
AcDbLayerTableRecord
  2
BEZUGSEBENEN
 70
0
 62
7
  6
CONTINUOUS
370
-3
390
F
  0
LAYER
  5
205
100
AcDbSymbolTableRecord
100
AcDbLayerTableRecord
  2
BG_STARTBEZUEGE
 70
0
 62
7
  6
CONTINUOUS
370
-3
390
F
  0
LAYER
  5
206
100
AcDbSymbolTableRecord
100
AcDbLayerTableRecord
  2
FLAECHEN
 70
0
 62
7
  6
CONTINUOUS
370
-3
390
F
  0
LAYER
  5
207
100
AcDbSymbolTableRecord
100
AcDbLayerTableRecord
  2
HILFEN
 70
0
 62
7
  6
CONTINUOUS
370
-3
390
F
  0
LAYER
  5
208
100
AcDbSymbolTableRecord
100
AcDbLayerTableRecord
  2
KONSTRUKTIONSELEMENTE
 70
0
 62
7
  6
CONTINUOUS
370
-3
390
F
  0
LAYER
  5
209
100
AcDbSymbolTableRecord
100
AcDbLayerTableRecord
  2
KURVEN
 70
0
 62
7
  6
CONTINUOUS
370
-3
390
F
  0
LAYER
  5
20A
100
AcDbSymbolTableRecord
100
AcDbLayerTableRecord
  2
KURVENELEMENTE
 70
0
 62
7
  6
CONTINUOUS
370
-3
390
F
  0
LAYER
  5
20B
100
AcDbSymbolTableRecord
100
AcDbLayerTableRecord
  2
NOTIZEN
 70
0
 62
7
  6
CONTINUOUS
370
-3
390
F
  0
LAYER
  5
20C
100
AcDbSymbolTableRecord
100
AcDbLayerTableRecord
  2
PLATZIERUNG
 70
0
 62
7
  6
CONTINUOUS
370
-3
390
F
  0
LAYER
  5
20D
100
AcDbSymbolTableRecord
100
AcDbLayerTableRecord
  2
RUNDUNGEN
 70
0
 62
7
  6
CONTINUOUS
370
-3
390
F
  0
LAYER
  5
20E
100
AcDbSymbolTableRecord
100
AcDbLayerTableRecord
  2
T_STARTBEZUEGE
 70
0
 62
7
  6
CONTINUOUS
370
-3
390
F
  0
LAYER
  5
20F
100
AcDbSymbolTableRecord
100
AcDbLayerTableRecord
  2
VERBUNDFLAECHEN
 70
0
 62
7
  6
CONTINUOUS
370
-3
390
F
  0
LAYER
  5
210
100
AcDbSymbolTableRecord
100
AcDbLayerTableRecord
  2
ZEICHNUNGSBEMASSUNGEN
 70
0
 62
7
  6
CONTINUOUS
370
-3
390
F
  0
ENDTAB
  0
TABLE
  2
STYLE
  5
3
100
AcDbSymbolTable
 70
1
  0
STYLE
  5
11
100
AcDbSymbolTableRecord
100
AcDbTextStyleTableRecord
  2
STANDARD
 70
0
 40
0.0
 41
0.7
 50
0.0
 71
0
 42
0.2
  3
txt
  4

  0
STYLE
  5
211
100
AcDbSymbolTableRecord
100
AcDbTextStyleTableRecord
  2
TEXTSTYLE_1
 70
0
 40
0.0
 41
0.8
 50
0.0
 71
0
 42
0.2
  3
gdt
  4

  0
ENDTAB
  0
TABLE
  2
VIEW
  5
6
100
AcDbSymbolTable
 70
0
  0
ENDTAB
  0
TABLE
  2
UCS
  5
7
100
AcDbSymbolTable
 70
0
  0
ENDTAB
  0
TABLE
  2
APPID
  5
9
100
AcDbSymbolTable
 70
1
  0
APPID
  5
212
100
AcDbSymbolTableRecord
100
AcDbRegAppTableRecord
  2
ACAD
 70
0
  0
ENDTAB
  0
TABLE
  2
BLOCK_RECORD
  5
1
100
AcDbSymbolTable
 70
0
  0
BLOCK_RECORD
  5
213
100
AcDbSymbolTableRecord
100
AcDbBlockTableRecord
  2
*Model_Space
  0
BLOCK_RECORD
  5
214
100
AcDbSymbolTableRecord
100
AcDbBlockTableRecord
  2
*Paper_Space
  0
ENDTAB
  0
TABLE
  2
DIMSTYLE
  5
A
100
AcDbSymbolTable
 70
1
100
AcDbDimStyleTable
 71
0
  0
DIMSTYLE
105
215
100
AcDbSymbolTableRecord
100
AcDbDimStyleTableRecord
  2
STANDARD
 70
0
  3

  4

 40
1.0
 41
3.5
 42
0.0625
 43
0.38
 44
0.18
 45
0.0
 46
0.0
 47
0.005
 48
0.005
140
3.5
141
0.09
142
0.0
143
25.4
144
1.0
145
0.0
146
1.0
147
0.09
 71
1.0
 72
0.0
 73
0
 74
0
 75
0
 76
0
 77
1
 78
8
170
0
171
2
172
0
173
0
174
0
175
0
176
0
177
0
178
5
270
2
271
3
272
3
273
2
274
2
275
0
280
0
281
0
282
0
283
1
284
8
285
0
286
0
287
3
288
0
340
11
  0
ENDTAB
  0
ENDSEC
  0
SECTION
  2
BLOCKS
  0
BLOCK
  5
20
100
AcDbEntity
  8
0
100
AcDbBlockBegin
  2
*Model_Space
 70
0
 10
0.0
 20
0.0
 30
0.0
  3
*Model_Space
  1

  0
ENDBLK
  5
21
100
AcDbEntity
  8
0
100
AcDbBlockEnd
  0
BLOCK
  5
1C
100
AcDbEntity
  8
0
100
AcDbBlockBegin
  2
*Paper_Space
 70
0
 10
0.0
 20
0.0
 30
0.0
  3
*Paper_Space
  1

  0
ENDBLK
  5
1D
100
AcDbEntity
  8
0
100
AcDbBlockEnd
  0
ENDSEC
  0
SECTION
  2
ENTITIES
  0
MTEXT
  5
216
100
AcDbEntity
  8
0
100
AcDbMText
 62
5
  6
CONTINUOUS
  7
STANDARD
 71
1
 72
1
 10
469.0778343023
 20
316.1446947674
 30
0.0
 11
0.0
 21
1.0
 31
0.0
 44
0.9
  1
VRBS 16t
 40
8.0
 41
48.7619047619
  0
MTEXT
  5
217
100
AcDbEntity
  8
0
100
AcDbMText
 62
5
  6
CONTINUOUS
  7
STANDARD
 71
1
 72
1
 10
186.8553052326
 20
107.9347383721
 30
0.0
 11
1.0
 21
0.0
 31
0.0
 44
0.9
  1
VRBS 16t
 40
8.0
 41
48.7619047619
  0
MTEXT
  5
218
100
AcDbEntity
  8
0
100
AcDbMText
 62
5
  6
CONTINUOUS
  7
STANDARD
 71
1
 72
1
 10
183.3600997531
 20
378.5250408171
 30
0.0
 11
1.0
 21
0.0
 31
0.0
 44
0.9
  1
VRBS 16t
 40
8.0
 41
48.7619047619
  0
LINE
  5
219
100
AcDbEntity
  8
0
100
AcDbLine
 62
7
  6
CONTINUOUS
 10
0.0
 20
0.0
 11
0.0
 21
420.0
  0
LINE
  5
21A
100
AcDbEntity
  8
0
100
AcDbLine
 62
7
  6
CONTINUOUS
 10
0.0
 20
0.0
 11
594.0
 21
0.0
  0
LINE
  5
21B
100
AcDbEntity
  8
0
100
AcDbLine
 62
7
  6
CONTINUOUS
 10
0.0
 20
420.0
 11
594.0
 21
420.0
  0
LINE
  5
21C
100
AcDbEntity
  8
0
100
AcDbLine
 62
7
  6
CONTINUOUS
 10
594.0
 20
0.0
 11
594.0
 21
420.0
  0
LINE
  5
21D
100
AcDbEntity
  8
RUNDUNGEN
100
AcDbLine
 62
7
  6
CONTINUOUS
 10
77.6860755814
 20
240.0130186534
 11
77.6860755814
 21
255.0130186534
  0
LINE
  5
21E
100
AcDbEntity
  8
0
100
AcDbLine
 62
7
  6
CONTINUOUS
 10
98.4929871713
 20
293.2089717741
 11
98.4616286323
 21
293.5073283427
  0
LINE
  5
21F
100
AcDbEntity
  8
RUNDUNGEN
100
AcDbLine
 62
7
  6
CONTINUOUS
 10
77.6860755814
 20
255.0130186534
 11
81.6853533098
 21
280.2634644684
  0
LINE
  5
220
100
AcDbEntity
  8
0
100
AcDbLine
 62
7
  6
CONTINUOUS
 10
100.8135383297
 20
293.452871529
 11
100.7821797907
 21
293.7512280976
  0
LINE
  5
221
100
AcDbEntity
  8
0
100
AcDbLine
 62
7
  6
CONTINUOUS
 10
101.9738138051
 20
293.5748213956
 11
101.9424552661
 21
293.8731779642
  0
LINE
  5
222
100
AcDbEntity
  8
0
100
AcDbLine
 62
7
  6
CONTINUOUS
 10
102.5605817234
 20
293.6364931889
 11
102.5292231844
 21
293.9348497575
  0
LINE
  5
223
100
AcDbEntity
  8
0
100
AcDbLine
 62
7
  6
CONTINUOUS
 10
103.2567470501
 20
293.7096631132
 11
103.2253885111
 21
294.0080196818
  0
LINE
  5
224
100
AcDbEntity
  8
0
100
AcDbLine
 62
7
  6
CONTINUOUS
 10
103.9529123769
 20
293.7828330375
 11
103.9215538379
 21
294.0811896061
  0
LINE
  5
225
100
AcDbEntity
  8
0
100
AcDbLine
 62
7
  6
CONTINUOUS
 10
104.294364756
 20
293.8187211286
 11
104.263006217
 21
294.1170776973
  0
LINE
  5
226
100
AcDbEntity
  8
0
100
AcDbLine
 62
7
  6
CONTINUOUS
 10
104.8811327572
 20
293.8803929307
 11
104.8497742183
 21
294.1787494993
  0
LINE
  5
227
100
AcDbEntity
  8
0
100
AcDbLine
 62
7
  6
CONTINUOUS
 10
104.997160367
 20
293.8925879239
 11
104.965801828
 21
294.1909444925
  0
LINE
  5
228
100
AcDbEntity
  8
0
100
AcDbLine
 62
7
  6
CONTINUOUS
 10
105.2292154206
 20
293.9169778928
 11
105.1978568816
 21
294.2153344614
  0
LINE
  5
229
100
AcDbEntity
  8
0
100
AcDbLine
 62
7
  6
CONTINUOUS
 10
105.57729825
 20
293.9535628724
 11
105.545939711
 21
294.251919441
  0
LINE
  5
22A
100
AcDbEntity
  8
0
100
AcDbLine
 62
7
  6
CONTINUOUS
 10
106.157435801
 20
294.0145377861
 11
106.126077262
 21
294.3128943547
  0
LINE
  5
22B
100
AcDbEntity
  8
0
100
AcDbLine
 62
7
  6
CONTINUOUS
 10
106.7375736839
 20
294.0755127346
 11
106.7062151449
 21
294.3738693032
  0
LINE
  5
22C
100
AcDbEntity
  8
0
100
AcDbLine
 62
7
  6
CONTINUOUS
 10
107.3177115669
 20
294.1364876831
 11
107.2863530279
 21
294.4348442518
  0
LINE
  5
22D
100
AcDbEntity
  8
0
100
AcDbLine
 62
7
  6
CONTINUOUS
 10
107.8978491179
 20
294.1974625968
 11
107.8664905789
 21
294.4958191654
  0
LINE
  5
22E
100
AcDbEntity
  8
0
100
AcDbLine
 62
7
  6
CONTINUOUS
 10
108.4779870008
 20
294.2584375453
 11
108.4466284618
 21
294.5567941139
  0
LINE
  5
22F
100
AcDbEntity
  8
0
100
AcDbLine
 62
7
  6
CONTINUOUS
 10
108.8260696642
 20
294.2950225075
 11
108.7947111252
 21
294.5933790761
  0
LINE
  5
230
100
AcDbEntity
  8
0
100
AcDbLine
 62
7
  6
CONTINUOUS
 10
109.0581245518
 20
294.319412459
 11
109.0267660128
 21
294.6177690276
  0
LINE
  5
231
100
AcDbEntity
  8
0
100
AcDbLine
 62
7
  6
CONTINUOUS
 10
109.9507084508
 20
294.4132268071
 11
109.9193499118
 21
294.7115833757
  0
LINE
  5
232
100
AcDbEntity
  8
0
100
AcDbLine
 62
7
  6
CONTINUOUS
 10
109.9863454301
 20
294.4169724045
 11
109.9549868911
 21
294.7153289732
  0
LINE
  5
233
100
AcDbEntity
  8
0
100
AcDbLine
 62
7
  6
CONTINUOUS
 10
110.9145656445
 20
294.5145322803
 11
110.8832071055
 21
294.8128888489
  0
LINE
  5
234
100
AcDbEntity
  8
0
100
AcDbLine
 62
7
  6
CONTINUOUS
 10
111.1466205321
 20
294.5389222318
 11
111.1152619931
 21
294.8372788004
  0
LINE
  5
235
100
AcDbEntity
  8
0
100
AcDbLine
 62
7
  6
CONTINUOUS
 10
111.4947031955
 20
294.575507194
 11
111.4633446565
 21
294.8738637626
  0
LINE
  5
236
100
AcDbEntity
  8
0
100
AcDbLine
 62
7
  6
CONTINUOUS
 10
111.8427858588
 20
294.6120921561
 11
111.8114273198
 21
294.9104487247
  0
LINE
  5
237
100
AcDbEntity
  8
0
100
AcDbLine
 62
7
  6
CONTINUOUS
 10
112.5389511856
 20
294.6852620804
 11
112.5075926466
 21
294.983618649
  0
LINE
  5
238
100
AcDbEntity
  8
0
100
AcDbLine
 62
7
  6
CONTINUOUS
 10
112.7710067371
 20
294.7096521017
 11
112.7396481981
 21
295.0080086703
  0
LINE
  5
239
100
AcDbEntity
  8
0
100
AcDbLine
 62
7
  6
CONTINUOUS
 10
115.6070509008
 20
295.0077323547
 11
115.5756923619
 21
295.3060889233
  0
LINE
  5
23A
100
AcDbEntity
  8
0
100
AcDbLine
 62
7
  6
CONTINUOUS
 10
116.3322236695
 20
295.083951084
 11
116.3008651305
 21
295.3823076526
  0
LINE
  5
23B
100
AcDbEntity
  8
0
100
AcDbLine
 62
7
  6
CONTINUOUS
 10
116.9123608885
 20
295.1449259627
 11
116.8810023495
 21
295.4432825313
  0
LINE
  5
23C
100
AcDbEntity
  8
0
100
AcDbLine
 62
7
  6
CONTINUOUS
 10
117.3474642177
 20
295.1906571654
 11
117.3161056788
 21
295.489013734
  0
LINE
  5
23D
100
AcDbEntity
  8
0
100
AcDbLine
 62
7
  6
CONTINUOUS
 10
117.4924997673
 20
295.2059010159
 11
117.4611412284
 21
295.5042575846
  0
LINE
  5
23E
100
AcDbEntity
  8
0
100
AcDbLine
 62
7
  6
CONTINUOUS
 10
118.6527742054
 20
295.3278507735
 11
118.6214156664
 21
295.6262073421
  0
LINE
  5
23F
100
AcDbEntity
  8
0
100
AcDbLine
 62
7
  6
CONTINUOUS
 10
118.797809755
 20
295.343094624
 11
118.766451216
 21
295.6414511926
  0
LINE
  5
240
100
AcDbEntity
  8
0
100
AcDbLine
 62
7
  6
CONTINUOUS
 10
119.2329130842
 20
295.3888258267
 11
119.2015545452
 21
295.6871823953
  0
LINE
  5
241
100
AcDbEntity
  8
0
100
AcDbLine
 62
7
  6
CONTINUOUS
 10
119.9580841931
 20
295.4650443815
 11
119.9267256541
 21
295.7634009501
  0
LINE
  5
242
100
AcDbEntity
  8
0
100
AcDbLine
 62
7
  6
CONTINUOUS
 10
120.6832569617
 20
295.5412631108
 11
120.6518984227
 21
295.8396196794
  0
LINE
  5
243
100
AcDbEntity
  8
0
100
AcDbLine
 62
7
  6
CONTINUOUS
 10
121.8435330596
 20
295.6632130427
 11
121.8121745206
 21
295.9615696114
  0
LINE
  5
244
100
AcDbEntity
  8
0
100
AcDbLine
 62
7
  6
CONTINUOUS
 10
122.5687041684
 20
295.7394315976
 11
122.5373456294
 21
296.0377881662
  0
LINE
  5
245
100
AcDbEntity
  8
0
100
AcDbLine
 62
7
  6
CONTINUOUS
 10
123.1488430472
 20
295.8004066508
 11
123.1174845083
 21
296.0987632194
  0
LINE
  5
246
100
AcDbEntity
  8
0
100
AcDbLine
 62
7
  6
CONTINUOUS
 10
123.7289802663
 20
295.8613815295
 11
123.6976217273
 21
296.1597380981
  0
LINE
  5
247
100
AcDbEntity
  8
0
100
AcDbLine
 62
7
  6
CONTINUOUS
 10
124.0190497057
 20
295.8918690561
 11
123.9876911667
 21
296.1902256247
  0
LINE
  5
248
100
AcDbEntity
  8
BEZUGSACHSEN
100
AcDbLine
 62
7
  6
CONTINUOUS
 10
139.7988055105
 20
287.640189433
 11
139.8623969098
 21
287.035157684
  0
LINE
  5
249
100
AcDbEntity
  8
RUNDUNGEN
100
AcDbLine
 62
7
  6
CONTINUOUS
 10
136.3984503638
 20
319.9924075723
 11
140.1840924998
 21
283.9744285974
  0
LINE
  5
24A
100
AcDbEntity
  8
RUNDUNGEN
100
AcDbLine
 62
7
  6
CONTINUOUS
 10
134.6860755814
 20
292.570568594
 11
134.6860755814
 21
240.0130186534
  0
LINE
  5
24B
100
AcDbEntity
  8
RUNDUNGEN
100
AcDbLine
 62
7
  6
CONTINUOUS
 10
206.1246081225
 20
393.7449173111
 11
160.6287480137
 21
374.8999150222
  0
LINE
  5
24C
100
AcDbEntity
  8
B-ACHSEN
100
AcDbLine
 62
7
  6
CONTINUOUS
 10
77.6860755814
 20
240.0130186534
 11
131.4230846815
 21
240.0130186534
  0
LINE
  5
24D
100
AcDbEntity
  8
RUNDUNGEN
100
AcDbLine
 62
7
  6
CONTINUOUS
 10
131.4230846815
 20
240.0130186534
 11
134.6860755814
 21
240.0130186534
  0
LINE
  5
24E
100
AcDbEntity
  8
RUNDUNGEN
100
AcDbLine
 62
7
  6
CONTINUOUS
 10
283.6860755814
 20
240.0130186534
 11
286.9490664813
 21
240.0130186534
  0
LINE
  5
24F
100
AcDbEntity
  8
B-ACHSEN
100
AcDbLine
 62
7
  6
CONTINUOUS
 10
286.9490664813
 20
240.0130186534
 11
340.6860755814
 21
240.0130186534
  0
LINE
  5
250
100
AcDbEntity
  8
RUNDUNGEN
100
AcDbLine
 62
7
  6
CONTINUOUS
 10
134.6860755814
 20
246.0130186534
 11
283.6860755814
 21
246.0130186534
  0
LINE
  5
251
100
AcDbEntity
  8
0
100
AcDbLine
 62
7
  6
CONTINUOUS
 10
149.2660755814
 20
270.6630186534
 11
149.2660755814
 21
278.6630186534
  0
LINE
  5
252
100
AcDbEntity
  8
RUNDUNGEN
100
AcDbLine
 62
7
  6
CONTINUOUS
 10
156.2991792125
 20
370.5703462211
 11
136.9635892667
 21
323.8901027373
  0
LINE
  5
253
100
AcDbEntity
  8
0
100
AcDbLine
 62
7
  6
CONTINUOUS
 10
179.1860755814
 20
256.146418388
 11
239.1860755814
 21
256.146418388
  0
LINE
  5
254
100
AcDbEntity
  8
0
100
AcDbLine
 62
7
  6
CONTINUOUS
 10
158.0994085968
 20
271.17365695
 11
158.7660755814
 21
270.8332314139
  0
LINE
  5
255
100
AcDbEntity
  8
0
100
AcDbLine
 62
7
  6
CONTINUOUS
 10
158.932742566
 20
271.8545079922
 11
158.432742566
 21
272.1949336028
  0
LINE
  5
256
100
AcDbEntity
  8
0
100
AcDbLine
 62
7
  6
CONTINUOUS
 10
154.7660755814
 20
277.9821676707
 11
154.0994090737
 21
278.4928059077
  0
LINE
  5
257
100
AcDbEntity
  8
0
100
AcDbLine
 62
7
  6
CONTINUOUS
 10
157.432742566
 20
271.8545079922
 11
158.0994085968
 21
271.17365695
  0
LINE
  5
258
100
AcDbEntity
  8
0
100
AcDbLine
 62
7
  6
CONTINUOUS
 10
153.9327420891
 20
277.6417421794
 11
154.2660755814
 21
277.301316688
  0
LINE
  5
259
100
AcDbEntity
  8
0
100
AcDbLine
 62
7
  6
CONTINUOUS
 10
155.2660755814
 20
277.301316688
 11
154.7660755814
 21
277.9821676707
  0
LINE
  5
25A
100
AcDbEntity
  8
0
100
AcDbLine
 62
7
  6
CONTINUOUS
 10
158.432742566
 20
272.1949336028
 11
158.0994085968
 21
272.7055718398
  0
LINE
  5
25B
100
AcDbEntity
  8
0
100
AcDbLine
 62
7
  6
CONTINUOUS
 10
157.0994090737
 20
272.5353590941
 11
157.432742566
 21
271.8545079922
  0
LINE
  5
25C
100
AcDbEntity
  8
0
100
AcDbLine
 62
7
  6
CONTINUOUS
 10
155.5994090737
 20
270.6630186534
 11
154.0994090737
 21
274.5779122805
  0
LINE
  5
25D
100
AcDbEntity
  8
0
100
AcDbLine
 62
7
  6
CONTINUOUS
 10
153.0994088353
 20
274.2374867892
 11
154.4327420891
 21
270.6630186534
  0
LINE
  5
25E
100
AcDbEntity
  8
0
100
AcDbLine
 62
7
  6
CONTINUOUS
 10
154.2660755814
 20
277.301316688
 11
154.4327420891
 21
276.790678451
  0
LINE
  5
25F
100
AcDbEntity
  8
0
100
AcDbLine
 62
7
  6
CONTINUOUS
 10
155.4327420891
 20
276.790678451
 11
155.2660755814
 21
277.301316688
  0
LINE
  5
260
100
AcDbEntity
  8
0
100
AcDbLine
 62
7
  6
CONTINUOUS
 10
158.0994085968
 20
272.7055718398
 11
157.932742566
 21
273.3864228224
  0
LINE
  5
261
100
AcDbEntity
  8
0
100
AcDbLine
 62
7
  6
CONTINUOUS
 10
156.9327420891
 20
273.3864228224
 11
157.0994090737
 21
272.5353590941
  0
LINE
  5
262
100
AcDbEntity
  8
0
100
AcDbLine
 62
7
  6
CONTINUOUS
 10
150.2660755814
 20
270.6630186534
 11
150.2660755814
 21
274.2374867892
  0
LINE
  5
263
100
AcDbEntity
  8
0
100
AcDbLine
 62
7
  6
CONTINUOUS
 10
150.2660755814
 20
275.2587632632
 11
150.2660755814
 21
277.811954925
  0
LINE
  5
264
100
AcDbEntity
  8
0
100
AcDbLine
 62
7
  6
CONTINUOUS
 10
154.4327420891
 20
276.790678451
 11
154.4327420891
 21
276.2800397372
  0
LINE
  5
265
100
AcDbEntity
  8
0
100
AcDbLine
 62
7
  6
CONTINUOUS
 10
155.4327420891
 20
276.1098269915
 11
155.4327420891
 21
276.790678451
  0
LINE
  5
266
100
AcDbEntity
  8
0
100
AcDbLine
 62
7
  6
CONTINUOUS
 10
156.9327420891
 20
273.3864228224
 11
156.9327420891
 21
278.6630186534
  0
LINE
  5
267
100
AcDbEntity
  8
0
100
AcDbLine
 62
7
  6
CONTINUOUS
 10
157.932742566
 20
273.3864228224
 11
157.932742566
 21
278.6630186534
  0
LINE
  5
268
100
AcDbEntity
  8
0
100
AcDbLine
 62
7
  6
CONTINUOUS
 10
201.180644734
 20
259.0130186534
 11
203.294018997
 21
259.0130186534
  0
LINE
  5
269
100
AcDbEntity
  8
0
100
AcDbLine
 62
7
  6
CONTINUOUS
 10
215.0781331194
 20
265.4427541947
 11
216.1908280981
 21
265.4427541947
  0
LINE
  5
26A
100
AcDbEntity
  8
0
100
AcDbLine
 62
7
  6
CONTINUOUS
 10
218.3266049755
 20
265.4427541947
 11
219.655865444
 21
265.4427541947
  0
LINE
  5
26B
100
AcDbEntity
  8
0
100
AcDbLine
 62
7
  6
CONTINUOUS
 10
198.7162861807
 20
266.3463522052
 11
201.180644734
 21
266.3463522052
  0
LINE
  5
26C
100
AcDbEntity
  8
0
100
AcDbLine
 62
7
  6
CONTINUOUS
 10
219.655865444
 20
267.0408532476
 11
218.3266049755
 21
267.0408532476
  0
LINE
  5
26D
100
AcDbEntity
  8
0
100
AcDbLine
 62
7
  6
CONTINUOUS
 10
216.1908280981
 20
267.0408532476
 11
215.0781331194
 21
267.0408532476
  0
LINE
  5
26E
100
AcDbEntity
  8
0
100
AcDbLine
 62
7
  6
CONTINUOUS
 10
211.7549826039
 20
267.0707240557
 11
213.9206309451
 21
267.0707240557
  0
LINE
  5
26F
100
AcDbEntity
  8
0
100
AcDbLine
 62
7
  6
CONTINUOUS
 10
158.7660755814
 20
270.8332314139
 11
159.5994085968
 21
270.6630186534
  0
LINE
  5
270
100
AcDbEntity
  8
0
100
AcDbLine
 62
7
  6
CONTINUOUS
 10
159.5994085968
 20
271.6842952466
 11
158.932742566
 21
271.8545079922
  0
LINE
  5
271
100
AcDbEntity
  8
0
100
AcDbLine
 62
7
  6
CONTINUOUS
 10
153.4327420891
 20
277.811954925
 11
153.9327420891
 21
277.6417421794
  0
LINE
  5
272
100
AcDbEntity
  8
0
100
AcDbLine
 62
7
  6
CONTINUOUS
 10
169.7660755814
 20
278.1523804164
 11
169.0994095505
 21
278.4928059077
  0
LINE
  5
273
100
AcDbEntity
  8
0
100
AcDbLine
 62
7
  6
CONTINUOUS
 10
168.9327416123
 20
277.4715294337
 11
169.4327416123
 21
277.1311039424
  0
LINE
  5
274
100
AcDbEntity
  8
0
100
AcDbLine
 62
7
  6
CONTINUOUS
 10
170.4327416123
 20
277.4715294337
 11
169.7660755814
 21
278.1523804164
  0
LINE
  5
275
100
AcDbEntity
  8
0
100
AcDbLine
 62
7
  6
CONTINUOUS
 10
169.4327416123
 20
277.1311039424
 11
169.7660755814
 21
276.6204652285
  0
LINE
  5
276
100
AcDbEntity
  8
0
100
AcDbLine
 62
7
  6
CONTINUOUS
 10
170.7660755814
 20
276.790678451
 11
170.4327416123
 21
277.4715294337
  0
LINE
  5
277
100
AcDbEntity
  8
0
100
AcDbLine
 62
7
  6
CONTINUOUS
 10
161.932742566
 20
273.3864228224
 11
161.932742566
 21
278.6630186534
  0
LINE
  5
278
100
AcDbEntity
  8
0
100
AcDbLine
 62
7
  6
CONTINUOUS
 10
162.932742566
 20
273.3864228224
 11
162.932742566
 21
278.6630186534
  0
LINE
  5
279
100
AcDbEntity
  8
0
100
AcDbLine
 62
7
  6
CONTINUOUS
 10
164.2660755814
 20
270.6630186534
 11
164.2660755814
 21
278.6630186534
  0
LINE
  5
27A
100
AcDbEntity
  8
0
100
AcDbLine
 62
7
  6
CONTINUOUS
 10
165.2660755814
 20
271.6842952466
 11
165.2660755814
 21
277.6417421794
  0
LINE
  5
27B
100
AcDbEntity
  8
0
100
AcDbLine
 62
7
  6
CONTINUOUS
 10
154.4327420891
 20
276.2800397372
 11
154.2660755814
 21
275.7694015002
  0
LINE
  5
27C
100
AcDbEntity
  8
0
100
AcDbLine
 62
7
  6
CONTINUOUS
 10
218.3266049755
 20
269.1990337228
 11
216.1908280981
 21
269.1990337228
  0
LINE
  5
27D
100
AcDbEntity
  8
0
100
AcDbLine
 62
7
  6
CONTINUOUS
 10
203.294018997
 20
269.639631257
 11
201.6436452103
 21
269.639631257
  0
LINE
  5
27E
100
AcDbEntity
  8
0
100
AcDbLine
 62
7
  6
CONTINUOUS
 10
149.2660755814
 20
270.6630186534
 11
150.2660755814
 21
270.6630186534
  0
LINE
  5
27F
100
AcDbEntity
  8
0
100
AcDbLine
 62
7
  6
CONTINUOUS
 10
154.4327420891
 20
270.6630186534
 11
155.5994090737
 21
270.6630186534
  0
LINE
  5
280
100
AcDbEntity
  8
0
100
AcDbLine
 62
7
  6
CONTINUOUS
 10
159.5994085968
 20
270.6630186534
 11
160.2660755814
 21
270.6630186534
  0
LINE
  5
281
100
AcDbEntity
  8
0
100
AcDbLine
 62
7
  6
CONTINUOUS
 10
164.2660755814
 20
270.6630186534
 11
168.2660755814
 21
270.6630186534
  0
LINE
  5
282
100
AcDbEntity
  8
0
100
AcDbLine
 62
7
  6
CONTINUOUS
 10
168.2660755814
 20
271.6842952466
 11
165.2660755814
 21
271.6842952466
  0
LINE
  5
283
100
AcDbEntity
  8
0
100
AcDbLine
 62
7
  6
CONTINUOUS
 10
160.2660755814
 20
271.6842952466
 11
159.5994085968
 21
271.6842952466
  0
LINE
  5
284
100
AcDbEntity
  8
0
100
AcDbLine
 62
7
  6
CONTINUOUS
 10
150.2660755814
 20
274.2374867892
 11
153.0994088353
 21
274.2374867892
  0
LINE
  5
285
100
AcDbEntity
  8
0
100
AcDbLine
 62
7
  6
CONTINUOUS
 10
153.4327420891
 20
275.2587632632
 11
150.2660755814
 21
275.2587632632
  0
LINE
  5
286
100
AcDbEntity
  8
0
100
AcDbLine
 62
7
  6
CONTINUOUS
 10
165.2660755814
 20
277.6417421794
 11
168.2660755814
 21
277.6417421794
  0
LINE
  5
287
100
AcDbEntity
  8
0
100
AcDbLine
 62
7
  6
CONTINUOUS
 10
153.4327420891
 20
277.811954925
 11
150.2660755814
 21
277.811954925
  0
LINE
  5
288
100
AcDbEntity
  8
0
100
AcDbLine
 62
7
  6
CONTINUOUS
 10
154.0994090737
 20
278.4928059077
 11
153.2660755814
 21
278.6630186534
  0
LINE
  5
289
100
AcDbEntity
  8
0
100
AcDbLine
 62
7
  6
CONTINUOUS
 10
169.0994095505
 20
278.4928059077
 11
168.2660755814
 21
278.6630186534
  0
LINE
  5
28A
100
AcDbEntity
  8
0
100
AcDbLine
 62
7
  6
CONTINUOUS
 10
168.2660755814
 20
277.6417421794
 11
168.9327416123
 21
277.4715294337
  0
LINE
  5
28B
100
AcDbEntity
  8
0
100
AcDbLine
 62
7
  6
CONTINUOUS
 10
169.7660755814
 20
276.6204652285
 11
169.9327416123
 21
275.9396142459
  0
LINE
  5
28C
100
AcDbEntity
  8
0
100
AcDbLine
 62
7
  6
CONTINUOUS
 10
170.9327416123
 20
275.9396142459
 11
170.7660755814
 21
276.790678451
  0
LINE
  5
28D
100
AcDbEntity
  8
0
100
AcDbLine
 62
7
  6
CONTINUOUS
 10
169.9327416123
 20
275.9396142459
 11
169.9327416123
 21
273.3864228224
  0
LINE
  5
28E
100
AcDbEntity
  8
0
100
AcDbLine
 62
7
  6
CONTINUOUS
 10
170.9327416123
 20
273.3864228224
 11
170.9327416123
 21
275.9396142459
  0
LINE
  5
28F
100
AcDbEntity
  8
0
100
AcDbLine
 62
7
  6
CONTINUOUS
 10
179.1860755814
 20
256.146418388
 11
179.1860755814
 21
284.655369189
  0
LINE
  5
290
100
AcDbEntity
  8
0
100
AcDbLine
 62
7
  6
CONTINUOUS
 10
162.7660755814
 20
272.5353590941
 11
162.932742566
 21
273.3864228224
  0
LINE
  5
291
100
AcDbEntity
  8
0
100
AcDbLine
 62
7
  6
CONTINUOUS
 10
161.932742566
 20
273.3864228224
 11
161.7660755814
 21
272.7055718398
  0
LINE
  5
292
100
AcDbEntity
  8
0
100
AcDbLine
 62
7
  6
CONTINUOUS
 10
155.2660755814
 20
275.5991887545
 11
155.4327420891
 21
276.1098269915
  0
LINE
  5
293
100
AcDbEntity
  8
0
100
AcDbLine
 62
7
  6
CONTINUOUS
 10
168.9327416123
 20
271.8545079922
 11
168.2660755814
 21
271.6842952466
  0
LINE
  5
294
100
AcDbEntity
  8
0
100
AcDbLine
 62
7
  6
CONTINUOUS
 10
160.932742566
 20
271.8545079922
 11
160.2660755814
 21
271.6842952466
  0
LINE
  5
295
100
AcDbEntity
  8
0
100
AcDbLine
 62
7
  6
CONTINUOUS
 10
168.2660755814
 20
270.6630186534
 11
169.0994095505
 21
270.8332314139
  0
LINE
  5
296
100
AcDbEntity
  8
0
100
AcDbLine
 62
7
  6
CONTINUOUS
 10
160.2660755814
 20
270.6630186534
 11
161.0994085968
 21
270.8332314139
  0
LINE
  5
297
100
AcDbEntity
  8
0
100
AcDbLine
 62
7
  6
CONTINUOUS
 10
168.2660755814
 20
278.6630186534
 11
164.2660755814
 21
278.6630186534
  0
LINE
  5
298
100
AcDbEntity
  8
0
100
AcDbLine
 62
7
  6
CONTINUOUS
 10
162.932742566
 20
278.6630186534
 11
161.932742566
 21
278.6630186534
  0
LINE
  5
299
100
AcDbEntity
  8
0
100
AcDbLine
 62
7
  6
CONTINUOUS
 10
157.932742566
 20
278.6630186534
 11
156.9327420891
 21
278.6630186534
  0
LINE
  5
29A
100
AcDbEntity
  8
0
100
AcDbLine
 62
7
  6
CONTINUOUS
 10
153.2660755814
 20
278.6630186534
 11
149.2660755814
 21
278.6630186534
  0
LINE
  5
29B
100
AcDbEntity
  8
0
100
AcDbLine
 62
7
  6
CONTINUOUS
 10
170.7660755814
 20
272.5353590941
 11
170.9327416123
 21
273.3864228224
  0
LINE
  5
29C
100
AcDbEntity
  8
0
100
AcDbLine
 62
7
  6
CONTINUOUS
 10
169.9327416123
 20
273.3864228224
 11
169.7660755814
 21
272.7055718398
  0
LINE
  5
29D
100
AcDbEntity
  8
0
100
AcDbLine
 62
7
  6
CONTINUOUS
 10
162.432742566
 20
271.8545079922
 11
162.7660755814
 21
272.5353590941
  0
LINE
  5
29E
100
AcDbEntity
  8
0
100
AcDbLine
 62
7
  6
CONTINUOUS
 10
198.7162861807
 20
267.8100316381
 11
198.7162861807
 21
266.3463522052
  0
LINE
  5
29F
100
AcDbEntity
  8
0
100
AcDbLine
 62
7
  6
CONTINUOUS
 10
170.4327416123
 20
271.8545079922
 11
170.7660755814
 21
272.5353590941
  0
LINE
  5
2A0
100
AcDbEntity
  8
0
100
AcDbLine
 62
7
  6
CONTINUOUS
 10
161.7660755814
 20
272.7055718398
 11
161.432742566
 21
272.1949336028
  0
LINE
  5
2A1
100
AcDbEntity
  8
0
100
AcDbLine
 62
7
  6
CONTINUOUS
 10
154.7660755814
 20
274.9183377719
 11
155.2660755814
 21
275.5991887545
  0
LINE
  5
2A2
100
AcDbEntity
  8
0
100
AcDbLine
 62
7
  6
CONTINUOUS
 10
154.2660755814
 20
275.7694015002
 11
153.9327420891
 21
275.4289760089
  0
LINE
  5
2A3
100
AcDbEntity
  8
RUNDUNGEN
100
AcDbLine
 62
7
  6
CONTINUOUS
 10
94.9327514697
 20
292.8347759233
 11
130.2679617283
 21
296.5486561755
  0
LINE
  5
2A4
100
AcDbEntity
  8
0
100
AcDbLine
 62
7
  6
CONTINUOUS
 10
98.4616286323
 20
293.5073283427
 11
104.263006217
 21
294.1170776973
  0
LINE
  5
2A5
100
AcDbEntity
  8
0
100
AcDbLine
 62
7
  6
CONTINUOUS
 10
104.8497742183
 20
294.1787494993
 11
117.4611412284
 21
295.5042575846
  0
LINE
  5
2A6
100
AcDbEntity
  8
0
100
AcDbLine
 62
7
  6
CONTINUOUS
 10
118.6214156664
 20
295.6262073421
 11
123.9876911667
 21
296.1902256247
  0
LINE
  5
2A7
100
AcDbEntity
  8
RUNDUNGEN
100
AcDbLine
 62
7
  6
CONTINUOUS
 10
288.1041894345
 20
296.5486561755
 11
323.4393996931
 21
292.8347759233
  0
LINE
  5
2A8
100
AcDbEntity
  8
0
100
AcDbLine
 62
7
  6
CONTINUOUS
 10
294.3844599961
 20
296.1902256247
 11
299.7507354964
 21
295.6262073421
  0
LINE
  5
2A9
100
AcDbEntity
  8
0
100
AcDbLine
 62
7
  6
CONTINUOUS
 10
300.9110099344
 20
295.5042575846
 11
313.5223769445
 21
294.1787494993
  0
LINE
  5
2AA
100
AcDbEntity
  8
0
100
AcDbLine
 62
7
  6
CONTINUOUS
 10
314.1091449458
 20
294.1170776973
 11
319.9105225305
 21
293.5073283427
  0
LINE
  5
2AB
100
AcDbEntity
  8
0
100
AcDbLine
 62
7
  6
CONTINUOUS
 10
201.180644734
 20
266.3463522052
 11
201.180644734
 21
259.0130186534
  0
LINE
  5
2AC
100
AcDbEntity
  8
0
100
AcDbLine
 62
7
  6
CONTINUOUS
 10
203.294018997
 20
259.0130186534
 11
203.294018997
 21
269.639631257
  0
LINE
  5
2AD
100
AcDbEntity
  8
0
100
AcDbLine
 62
7
  6
CONTINUOUS
 10
169.7660755814
 20
272.7055718398
 11
169.4327416123
 21
272.1949336028
  0
LINE
  5
2AE
100
AcDbEntity
  8
0
100
AcDbLine
 62
7
  6
CONTINUOUS
 10
161.7660755814
 20
271.17365695
 11
162.432742566
 21
271.8545079922
  0
LINE
  5
2AF
100
AcDbEntity
  8
0
100
AcDbLine
 62
7
  6
CONTINUOUS
 10
215.0781331194
 20
267.0408532476
 11
215.0781331194
 21
265.4427541947
  0
LINE
  5
2B0
100
AcDbEntity
  8
0
100
AcDbLine
 62
7
  6
CONTINUOUS
 10
216.1908280981
 20
269.1990337228
 11
216.1908280981
 21
267.0408532476
  0
LINE
  5
2B1
100
AcDbEntity
  8
0
100
AcDbLine
 62
7
  6
CONTINUOUS
 10
216.1908280981
 20
265.4427541947
 11
216.1908280981
 21
261.3429575866
  0
LINE
  5
2B2
100
AcDbEntity
  8
0
100
AcDbLine
 62
7
  6
CONTINUOUS
 10
218.3266049755
 20
261.3578929907
 11
218.3266049755
 21
265.4427541947
  0
LINE
  5
2B3
100
AcDbEntity
  8
0
100
AcDbLine
 62
7
  6
CONTINUOUS
 10
218.3266049755
 20
267.0408532476
 11
218.3266049755
 21
269.1990337228
  0
LINE
  5
2B4
100
AcDbEntity
  8
0
100
AcDbLine
 62
7
  6
CONTINUOUS
 10
219.655865444
 20
258.848728092
 11
219.655865444
 21
260.4542949801
  0
LINE
  5
2B5
100
AcDbEntity
  8
0
100
AcDbLine
 62
7
  6
CONTINUOUS
 10
219.655865444
 20
265.4427541947
 11
219.655865444
 21
267.0408532476
  0
LINE
  5
2B6
100
AcDbEntity
  8
0
100
AcDbLine
 62
7
  6
CONTINUOUS
 10
169.7660755814
 20
271.17365695
 11
170.4327416123
 21
271.8545079922
  0
LINE
  5
2B7
100
AcDbEntity
  8
0
100
AcDbLine
 62
7
  6
CONTINUOUS
 10
161.432742566
 20
272.1949336028
 11
160.932742566
 21
271.8545079922
  0
LINE
  5
2B8
100
AcDbEntity
  8
0
100
AcDbLine
 62
7
  6
CONTINUOUS
 10
169.4327416123
 20
272.1949336028
 11
168.9327416123
 21
271.8545079922
  0
LINE
  5
2B9
100
AcDbEntity
  8
0
100
AcDbLine
 62
7
  6
CONTINUOUS
 10
154.0994090737
 20
274.5779122805
 11
154.7660755814
 21
274.9183377719
  0
LINE
  5
2BA
100
AcDbEntity
  8
0
100
AcDbLine
 62
7
  6
CONTINUOUS
 10
161.0994085968
 20
270.8332314139
 11
161.7660755814
 21
271.17365695
  0
LINE
  5
2BB
100
AcDbEntity
  8
0
100
AcDbLine
 62
7
  6
CONTINUOUS
 10
239.1860755814
 20
256.146418388
 11
239.1860755814
 21
284.655369245
  0
LINE
  5
2BC
100
AcDbEntity
  8
0
100
AcDbLine
 62
7
  6
CONTINUOUS
 10
169.0994095505
 20
270.8332314139
 11
169.7660755814
 21
271.17365695
  0
LINE
  5
2BD
100
AcDbEntity
  8
0
100
AcDbLine
 62
7
  6
CONTINUOUS
 10
153.9327420891
 20
275.4289760089
 11
153.4327420891
 21
275.2587632632
  0
LINE
  5
2BE
100
AcDbEntity
  8
BEZUGSACHSEN
100
AcDbLine
 62
7
  6
CONTINUOUS
 10
278.509754253
 20
287.035157684
 11
278.5733456523
 21
287.640189433
  0
LINE
  5
2BF
100
AcDbEntity
  8
RUNDUNGEN
100
AcDbLine
 62
7
  6
CONTINUOUS
 10
278.1880590027
 20
283.9744318295
 11
281.9737007989
 21
319.9924075723
  0
LINE
  5
2C0
100
AcDbEntity
  8
RUNDUNGEN
100
AcDbLine
 62
7
  6
CONTINUOUS
 10
257.7434031491
 20
374.8999150222
 11
212.2475430403
 21
393.7449173111
  0
LINE
  5
2C1
100
AcDbEntity
  8
RUNDUNGEN
100
AcDbLine
 62
7
  6
CONTINUOUS
 10
281.4085618961
 20
323.8901027373
 11
262.0729719504
 21
370.5703462208
  0
LINE
  5
2C2
100
AcDbEntity
  8
RUNDUNGEN
100
AcDbLine
 62
7
  6
CONTINUOUS
 10
283.6860755814
 20
240.0130186534
 11
283.6860755814
 21
292.570568594
  0
LINE
  5
2C3
100
AcDbEntity
  8
0
100
AcDbLine
 62
7
  6
CONTINUOUS
 10
294.3531014571
 20
295.8918690561
 11
294.3844599961
 21
296.1902256247
  0
LINE
  5
2C4
100
AcDbEntity
  8
0
100
AcDbLine
 62
7
  6
CONTINUOUS
 10
294.6431708965
 20
295.8613815295
 11
294.6745294355
 21
296.1597380981
  0
LINE
  5
2C5
100
AcDbEntity
  8
0
100
AcDbLine
 62
7
  6
CONTINUOUS
 10
294.7882047863
 20
295.8461378535
 11
294.8195633253
 21
296.1444944221
  0
LINE
  5
2C6
100
AcDbEntity
  8
0
100
AcDbLine
 62
7
  6
CONTINUOUS
 10
294.9332403359
 20
295.8308940029
 11
294.9645988749
 21
296.1292505715
  0
LINE
  5
2C7
100
AcDbEntity
  8
0
100
AcDbLine
 62
7
  6
CONTINUOUS
 10
295.3683436651
 20
295.7851628003
 11
295.3997022041
 21
296.0835193689
  0
LINE
  5
2C8
100
AcDbEntity
  8
0
100
AcDbLine
 62
7
  6
CONTINUOUS
 10
295.9484808842
 20
295.7241879215
 11
295.9798394232
 21
296.0225444901
  0
LINE
  5
2C9
100
AcDbEntity
  8
0
100
AcDbLine
 62
7
  6
CONTINUOUS
 10
296.6736536528
 20
295.6479691922
 11
296.7050121918
 21
295.9463257608
  0
LINE
  5
2CA
100
AcDbEntity
  8
0
100
AcDbLine
 62
7
  6
CONTINUOUS
 10
297.3988247617
 20
295.5717506374
 11
297.4301833006
 21
295.870107206
  0
LINE
  5
2CB
100
AcDbEntity
  8
0
100
AcDbLine
 62
7
  6
CONTINUOUS
 10
297.9789636405
 20
295.5107755842
 11
298.0103221795
 21
295.8091321528
  0
LINE
  5
2CC
100
AcDbEntity
  8
0
100
AcDbLine
 62
7
  6
CONTINUOUS
 10
298.5591008595
 20
295.4498007054
 11
298.5904593985
 21
295.748157274
  0
LINE
  5
2CD
100
AcDbEntity
  8
0
100
AcDbLine
 62
7
  6
CONTINUOUS
 10
299.1392380786
 20
295.3888258267
 11
299.1705966175
 21
295.6871823953
  0
LINE
  5
2CE
100
AcDbEntity
  8
0
100
AcDbLine
 62
7
  6
CONTINUOUS
 10
299.2842736282
 20
295.3735819761
 11
299.3156321671
 21
295.6719385447
  0
LINE
  5
2CF
100
AcDbEntity
  8
0
100
AcDbLine
 62
7
  6
CONTINUOUS
 10
299.7193769574
 20
295.3278507735
 11
299.7507354964
 21
295.6262073421
  0
LINE
  5
2D0
100
AcDbEntity
  8
0
100
AcDbLine
 62
7
  6
CONTINUOUS
 10
300.8796513955
 20
295.2059010159
 11
300.9110099344
 21
295.5042575846
  0
LINE
  5
2D1
100
AcDbEntity
  8
0
100
AcDbLine
 62
7
  6
CONTINUOUS
 10
301.0246869451
 20
295.1906571654
 11
301.056045484
 21
295.489013734
  0
LINE
  5
2D2
100
AcDbEntity
  8
0
100
AcDbLine
 62
7
  6
CONTINUOUS
 10
301.4597902743
 20
295.1449259627
 11
301.4911488133
 21
295.4432825313
  0
LINE
  5
2D3
100
AcDbEntity
  8
0
100
AcDbLine
 62
7
  6
CONTINUOUS
 10
302.0399274933
 20
295.083951084
 11
302.0712860323
 21
295.3823076526
  0
LINE
  5
2D4
100
AcDbEntity
  8
0
100
AcDbLine
 62
7
  6
CONTINUOUS
 10
302.7651002619
 20
295.0077323547
 11
302.7964588009
 21
295.3060889233
  0
LINE
  5
2D5
100
AcDbEntity
  8
0
100
AcDbLine
 62
7
  6
CONTINUOUS
 10
306.2459260658
 20
294.6418828205
 11
306.2772846048
 21
294.9402393891
  0
LINE
  5
2D6
100
AcDbEntity
  8
0
100
AcDbLine
 62
7
  6
CONTINUOUS
 10
306.8774479673
 20
294.575507194
 11
306.9088065063
 21
294.8738637626
  0
LINE
  5
2D7
100
AcDbEntity
  8
0
100
AcDbLine
 62
7
  6
CONTINUOUS
 10
307.4062021637
 20
294.5199328885
 11
307.4375607027
 21
294.8182894571
  0
LINE
  5
2D8
100
AcDbEntity
  8
0
100
AcDbLine
 62
7
  6
CONTINUOUS
 10
307.5512360535
 20
294.5046892124
 11
307.5825945925
 21
294.8030457811
  0
LINE
  5
2D9
100
AcDbEntity
  8
0
100
AcDbLine
 62
7
  6
CONTINUOUS
 10
307.6962707732
 20
294.4894454491
 11
307.7276293122
 21
294.7878020178
  0
LINE
  5
2DA
100
AcDbEntity
  8
0
100
AcDbLine
 62
7
  6
CONTINUOUS
 10
308.1313741024
 20
294.4437142465
 11
308.1627326414
 21
294.7420708151
  0
LINE
  5
2DB
100
AcDbEntity
  8
0
100
AcDbLine
 62
7
  6
CONTINUOUS
 10
308.7115121514
 20
294.3827392805
 11
308.7428706904
 21
294.6810958491
  0
LINE
  5
2DC
100
AcDbEntity
  8
0
100
AcDbLine
 62
7
  6
CONTINUOUS
 10
309.4366840901
 20
294.3065206384
 11
309.4680426291
 21
294.604877207
  0
LINE
  5
2DD
100
AcDbEntity
  8
0
100
AcDbLine
 62
7
  6
CONTINUOUS
 10
312.9175107239
 20
293.940671017
 11
312.9488692629
 21
294.2390275856
  0
LINE
  5
2DE
100
AcDbEntity
  8
0
100
AcDbLine
 62
7
  6
CONTINUOUS
 10
313.1429357422
 20
293.9169778928
 11
313.1742942812
 21
294.2153344614
  0
LINE
  5
2DF
100
AcDbEntity
  8
0
100
AcDbLine
 62
7
  6
CONTINUOUS
 10
313.3749907958
 20
293.8925879239
 11
313.4063493348
 21
294.1909444925
  0
LINE
  5
2E0
100
AcDbEntity
  8
0
100
AcDbLine
 62
7
  6
CONTINUOUS
 10
313.4910184056
 20
293.8803929307
 11
313.5223769445
 21
294.1787494993
  0
LINE
  5
2E1
100
AcDbEntity
  8
0
100
AcDbLine
 62
7
  6
CONTINUOUS
 10
314.0777864068
 20
293.8187211286
 11
314.1091449458
 21
294.1170776973
  0
LINE
  5
2E2
100
AcDbEntity
  8
0
100
AcDbLine
 62
7
  6
CONTINUOUS
 10
314.9479930653
 20
293.7272587233
 11
314.9793516042
 21
294.0256152919
  0
LINE
  5
2E3
100
AcDbEntity
  8
0
100
AcDbLine
 62
7
  6
CONTINUOUS
 10
316.9784751991
 20
293.5138464514
 11
317.0098337381
 21
293.81220302
  0
LINE
  5
2E4
100
AcDbEntity
  8
0
100
AcDbLine
 62
7
  6
CONTINUOUS
 10
319.008957333
 20
293.3004341795
 11
319.040315872
 21
293.5987907481
  0
LINE
  5
2E5
100
AcDbEntity
  8
0
100
AcDbLine
 62
7
  6
CONTINUOUS
 10
319.8791639915
 20
293.2089717741
 11
319.9105225305
 21
293.5073283427
  0
LINE
  5
2E6
100
AcDbEntity
  8
RUNDUNGEN
100
AcDbLine
 62
7
  6
CONTINUOUS
 10
336.686797853
 20
280.2634644684
 11
340.6860755814
 21
255.0130186534
  0
LINE
  5
2E7
100
AcDbEntity
  8
RUNDUNGEN
100
AcDbLine
 62
7
  6
CONTINUOUS
 10
340.6860755814
 20
255.0130186534
 11
340.6860755814
 21
240.0130186534
  0
LINE
  5
2E8
100
AcDbEntity
  8
B-ACHSEN
100
AcDbLine
 62
7
  6
CONTINUOUS
 10
408.4286572232
 20
240.0130186534
 11
433.4286572232
 21
240.0130186534
  0
LINE
  5
2E9
100
AcDbEntity
  8
KONSTRUKTIONSELEMENTE
100
AcDbLine
 62
7
  6
CONTINUOUS
 10
433.4286572232
 20
240.0130186534
 11
458.4286572232
 21
240.0130186534
  0
LINE
  5
2EA
100
AcDbEntity
  8
KONSTRUKTIONSELEMENTE
100
AcDbLine
 62
7
  6
CONTINUOUS
 10
488.4286572232
 20
240.0130186534
 11
513.4286572232
 21
240.0130186534
  0
LINE
  5
2EB
100
AcDbEntity
  8
B-ACHSEN
100
AcDbLine
 62
7
  6
CONTINUOUS
 10
513.4286572232
 20
240.0130186534
 11
538.4286572232
 21
240.0130186534
  0
LINE
  5
2EC
100
AcDbEntity
  8
KONSTRUKTIONSELEMENTE
100
AcDbLine
 62
7
  6
CONTINUOUS
 10
458.4286572232
 20
250.0130186534
 11
488.4286572232
 21
250.0130186534
  0
LINE
  5
2ED
100
AcDbEntity
  8
RUNDUNGEN
100
AcDbLine
 62
7
  6
CONTINUOUS
 10
408.4286572232
 20
253.7036175766
 11
408.4286572232
 21
240.0130186534
  0
LINE
  5
2EE
100
AcDbEntity
  8
RUNDUNGEN
100
AcDbLine
 62
7
  6
CONTINUOUS
 10
434.4949702776
 20
255.0130186534
 11
512.3623441687
 21
255.0130186534
  0
LINE
  5
2EF
100
AcDbEntity
  8
RUNDUNGEN
100
AcDbLine
 62
7
  6
CONTINUOUS
 10
433.4286572232
 20
250.1931268765
 11
433.4286572232
 21
240.0130186534
  0
LINE
  5
2F0
100
AcDbEntity
  8
0
100
AcDbLine
 62
7
  6
CONTINUOUS
 10
481.4939763566
 20
294.3616743275
 11
481.3450402041
 21
294.3250893653
  0
LINE
  5
2F1
100
AcDbEntity
  8
0
100
AcDbLine
 62
7
  6
CONTINUOUS
 10
481.9407848922
 20
294.575507194
 11
482.0897210577
 21
294.6120921561
  0
LINE
  5
2F2
100
AcDbEntity
  8
0
100
AcDbLine
 62
7
  6
CONTINUOUS
 10
481.9407848922
 20
294.8738637626
 11
482.0897210577
 21
294.9104487247
  0
LINE
  5
2F3
100
AcDbEntity
  8
0
100
AcDbLine
 62
7
  6
CONTINUOUS
 10
478.5152529945
 20
294.4470392275
 11
478.6641891469
 21
294.4836241896
  0
LINE
  5
2F4
100
AcDbEntity
  8
0
100
AcDbLine
 62
7
  6
CONTINUOUS
 10
475.9833379854
 20
294.4348442518
 11
476.1322741379
 21
294.4714292139
  0
LINE
  5
2F5
100
AcDbEntity
  8
0
100
AcDbLine
 62
7
  6
CONTINUOUS
 10
468.9531252994
 20
295.4432825313
 11
468.8041891469
 21
295.4127951792
  0
LINE
  5
2F6
100
AcDbEntity
  8
0
100
AcDbLine
 62
7
  6
CONTINUOUS
 10
468.8041891469
 20
295.4498007054
 11
469.1020614518
 21
295.5107755842
  0
LINE
  5
2F7
100
AcDbEntity
  8
0
100
AcDbLine
 62
7
  6
CONTINUOUS
 10
468.8041891469
 20
295.748157274
 11
469.1020614518
 21
295.8091321528
  0
LINE
  5
2F8
100
AcDbEntity
  8
0
100
AcDbLine
 62
7
  6
CONTINUOUS
 10
468.8041891469
 20
296.0987632194
 11
468.506316842
 21
296.0377881662
  0
LINE
  5
2F9
100
AcDbEntity
  8
0
100
AcDbLine
 62
7
  6
CONTINUOUS
 10
471.9602659352
 20
295.4190795438
 11
472.2297210577
 21
295.4650443815
  0
LINE
  5
2FA
100
AcDbEntity
  8
0
100
AcDbLine
 62
7
  6
CONTINUOUS
 10
471.7829125612
 20
295.6871823953
 11
472.2297210577
 21
295.7634009501
  0
LINE
  5
2FB
100
AcDbEntity
  8
0
100
AcDbLine
 62
7
  6
CONTINUOUS
 10
469.3999337568
 20
295.7241879215
 11
469.6978060617
 21
295.7699191242
  0
LINE
  5
2FC
100
AcDbEntity
  8
0
100
AcDbLine
 62
7
  6
CONTINUOUS
 10
468.2084445371
 20
295.8243760033
 11
467.9105722322
 21
295.7786448006
  0
LINE
  5
2FD
100
AcDbEntity
  8
0
100
AcDbLine
 62
7
  6
CONTINUOUS
 10
469.3999337568
 20
296.0225444901
 11
469.6978060617
 21
296.0682756928
  0
LINE
  5
2FE
100
AcDbEntity
  8
0
100
AcDbLine
 62
7
  6
CONTINUOUS
 10
481.6429125612
 20
294.251919441
 11
482.0897210577
 21
294.3128943547
  0
LINE
  5
2FF
100
AcDbEntity
  8
0
100
AcDbLine
 62
7
  6
CONTINUOUS
 10
478.366316842
 20
294.5567941139
 11
477.9195083846
 21
294.4958191654
  0
LINE
  5
300
100
AcDbEntity
  8
0
100
AcDbLine
 62
7
  6
CONTINUOUS
 10
475.834401833
 20
294.5445991033
 11
475.3875933756
 21
294.4836241896
  0
LINE
  5
301
100
AcDbEntity
  8
0
100
AcDbLine
 62
7
  6
CONTINUOUS
 10
465.974401833
 20
294.7420708151
 11
465.5275933756
 21
294.6810958491
  0
LINE
  5
302
100
AcDbEntity
  8
0
100
AcDbLine
 62
7
  6
CONTINUOUS
 10
465.974401833
 20
295.4432825313
 11
465.5275933756
 21
295.3823076526
  0
LINE
  5
303
100
AcDbEntity
  8
0
100
AcDbLine
 62
7
  6
CONTINUOUS
 10
465.974401833
 20
296.0835193689
 11
465.5275933756
 21
296.0225444901
  0
LINE
  5
304
100
AcDbEntity
  8
0
100
AcDbLine
 62
7
  6
CONTINUOUS
 10
481.3450402041
 20
294.3250893653
 11
481.0471678992
 21
294.2885044032
  0
LINE
  5
305
100
AcDbEntity
  8
0
100
AcDbLine
 62
7
  6
CONTINUOUS
 10
481.7118391379
 20
294.5473878593
 11
481.9407848922
 21
294.575507194
  0
LINE
  5
306
100
AcDbEntity
  8
0
100
AcDbLine
 62
7
  6
CONTINUOUS
 10
481.6429125612
 20
294.8372788004
 11
481.9407848922
 21
294.8738637626
  0
LINE
  5
307
100
AcDbEntity
  8
0
100
AcDbLine
 62
7
  6
CONTINUOUS
 10
478.6641891469
 20
294.4836241896
 11
478.9620614518
 21
294.5202091518
  0
LINE
  5
308
100
AcDbEntity
  8
0
100
AcDbLine
 62
7
  6
CONTINUOUS
 10
481.4939763566
 20
294.9226437354
 11
481.1961040516
 21
294.8860587732
  0
LINE
  5
309
100
AcDbEntity
  8
0
100
AcDbLine
 62
7
  6
CONTINUOUS
 10
476.1322741379
 20
294.4714292139
 11
476.4301464428
 21
294.508014176
  0
LINE
  5
30A
100
AcDbEntity
  8
0
100
AcDbLine
 62
7
  6
CONTINUOUS
 10
466.2722741379
 20
294.3674956044
 11
466.5701464428
 21
294.3979830438
  0
LINE
  5
30B
100
AcDbEntity
  8
0
100
AcDbLine
 62
7
  6
CONTINUOUS
 10
466.2722741379
 20
294.665852173
 11
466.5701464428
 21
294.6963396124
  0
LINE
  5
30C
100
AcDbEntity
  8
0
100
AcDbLine
 62
7
  6
CONTINUOUS
 10
469.3999337568
 20
295.0687074079
 11
469.6978060617
 21
295.0991947601
  0
LINE
  5
30D
100
AcDbEntity
  8
0
100
AcDbLine
 62
7
  6
CONTINUOUS
 10
469.3999337568
 20
295.3670639765
 11
469.6978060617
 21
295.3975513287
  0
LINE
  5
30E
100
AcDbEntity
  8
0
100
AcDbLine
 62
7
  6
CONTINUOUS
 10
466.4212102904
 20
295.0687074079
 11
466.7190825953
 21
295.0991947601
  0
LINE
  5
30F
100
AcDbEntity
  8
0
100
AcDbLine
 62
7
  6
CONTINUOUS
 10
468.6836701984
 20
295.4374655065
 11
468.8041891469
 21
295.4498007054
  0
LINE
  5
310
100
AcDbEntity
  8
0
100
AcDbLine
 62
7
  6
CONTINUOUS
 10
471.3361040516
 20
295.7786448006
 11
470.88929549
 21
295.732913598
  0
LINE
  5
311
100
AcDbEntity
  8
0
100
AcDbLine
 62
7
  6
CONTINUOUS
 10
466.4212102904
 20
295.3670639765
 11
466.7190825953
 21
295.3975513287
  0
LINE
  5
312
100
AcDbEntity
  8
0
100
AcDbLine
 62
7
  6
CONTINUOUS
 10
468.2084445371
 20
295.6871823953
 11
468.8041891469
 21
295.748157274
  0
LINE
  5
313
100
AcDbEntity
  8
0
100
AcDbLine
 62
7
  6
CONTINUOUS
 10
469.3999337568
 20
296.1597380981
 11
468.8041891469
 21
296.0987632194
  0
LINE
  5
314
100
AcDbEntity
  8
0
100
AcDbLine
 62
7
  6
CONTINUOUS
 10
466.4212102904
 20
296.007300814
 11
466.7190825953
 21
296.0377881662
  0
LINE
  5
315
100
AcDbEntity
  8
RUNDUNGEN
100
AcDbLine
 62
7
  6
CONTINUOUS
 10
467.8445308857
 20
296.5689134207
 11
467.5217141626
 21
296.5384661956
  0
LINE
  5
316
100
AcDbEntity
  8
0
100
AcDbLine
 62
7
  6
CONTINUOUS
 10
478.9620614518
 20
294.5202091518
 11
479.2599337568
 21
294.5445991033
  0
LINE
  5
317
100
AcDbEntity
  8
0
100
AcDbLine
 62
7
  6
CONTINUOUS
 10
478.8131252994
 20
294.5933790761
 11
478.366316842
 21
294.5567941139
  0
LINE
  5
318
100
AcDbEntity
  8
0
100
AcDbLine
 62
7
  6
CONTINUOUS
 10
466.5701464428
 20
294.7878020178
 11
465.974401833
 21
294.7420708151
  0
LINE
  5
319
100
AcDbEntity
  8
0
100
AcDbLine
 62
7
  6
CONTINUOUS
 10
469.5488699092
 20
295.489013734
 11
468.9531252994
 21
295.4432825313
  0
LINE
  5
31A
100
AcDbEntity
  8
0
100
AcDbLine
 62
7
  6
CONTINUOUS
 10
466.5701464428
 20
295.489013734
 11
465.974401833
 21
295.4432825313
  0
LINE
  5
31B
100
AcDbEntity
  8
0
100
AcDbLine
 62
7
  6
CONTINUOUS
 10
466.5701464428
 20
296.1292505715
 11
465.974401833
 21
296.0835193689
  0
LINE
  5
31C
100
AcDbEntity
  8
0
100
AcDbLine
 62
7
  6
CONTINUOUS
 10
469.6978060617
 20
295.7699191242
 11
470.1446147277
 21
295.8004066508
  0
LINE
  5
31D
100
AcDbEntity
  8
0
100
AcDbLine
 62
7
  6
CONTINUOUS
 10
469.6978060617
 20
296.0682756928
 11
470.1446147277
 21
296.0987632194
  0
LINE
  5
31E
100
AcDbEntity
  8
0
100
AcDbLine
 62
7
  6
CONTINUOUS
 10
481.0471678992
 20
294.2153344614
 11
481.6429125612
 21
294.251919441
  0
LINE
  5
31F
100
AcDbEntity
  8
0
100
AcDbLine
 62
7
  6
CONTINUOUS
 10
476.4301464428
 20
294.5811840654
 11
475.834401833
 21
294.5445991033
  0
LINE
  5
320
100
AcDbEntity
  8
0
100
AcDbLine
 62
7
  6
CONTINUOUS
 10
471.0382316424
 20
295.6414511926
 11
471.7829125612
 21
295.6871823953
  0
LINE
  5
321
100
AcDbEntity
  8
0
100
AcDbLine
 62
7
  6
CONTINUOUS
 10
481.0471678992
 20
294.2885044032
 11
480.6003593375
 21
294.2641144168
  0
LINE
  5
322
100
AcDbEntity
  8
0
100
AcDbLine
 62
7
  6
CONTINUOUS
 10
476.4301464428
 20
294.508014176
 11
476.8769549002
 21
294.5324041624
  0
LINE
  5
323
100
AcDbEntity
  8
0
100
AcDbLine
 62
7
  6
CONTINUOUS
 10
469.9956785752
 20
296.1902256247
 11
469.3999337568
 21
296.1597380981
  0
LINE
  5
324
100
AcDbEntity
  8
0
100
AcDbLine
 62
7
  6
CONTINUOUS
 10
466.7190825953
 20
296.0377881662
 11
467.0169549002
 21
296.0530320167
  0
LINE
  5
325
100
AcDbEntity
  8
0
100
AcDbLine
 62
7
  6
CONTINUOUS
 10
481.0471678992
 20
294.8128888489
 11
481.6429125612
 21
294.8372788004
  0
LINE
  5
326
100
AcDbEntity
  8
0
100
AcDbLine
 62
7
  6
CONTINUOUS
 10
472.3786572232
 20
294.8182894571
 11
468.9531252994
 21
294.6810958491
  0
LINE
  5
327
100
AcDbEntity
  8
0
100
AcDbLine
 62
7
  6
CONTINUOUS
 10
470.2566995096
 20
294.330489991
 11
472.3786572232
 21
294.4132268071
  0
LINE
  5
328
100
AcDbEntity
  8
0
100
AcDbLine
 62
7
  6
CONTINUOUS
 10
469.2509976043
 20
294.5896334437
 11
472.3786572232
 21
294.7115833757
  0
LINE
  5
329
100
AcDbEntity
  8
0
100
AcDbLine
 62
7
  6
CONTINUOUS
 10
471.4850402041
 20
293.81220302
 11
465.3786572232
 21
293.5987907481
  0
LINE
  5
32A
100
AcDbEntity
  8
0
100
AcDbLine
 62
7
  6
CONTINUOUS
 10
465.3786572232
 20
293.2089717741
 11
472.3786572232
 21
293.452871529
  0
LINE
  5
32B
100
AcDbEntity
  8
0
100
AcDbLine
 62
7
  6
CONTINUOUS
 10
465.3786572232
 20
293.5073283427
 11
472.3786572232
 21
293.7512280976
  0
LINE
  5
32C
100
AcDbEntity
  8
0
100
AcDbLine
 62
7
  6
CONTINUOUS
 10
466.5701464428
 20
294.3979830438
 11
467.0169549002
 21
294.4132268071
  0
LINE
  5
32D
100
AcDbEntity
  8
0
100
AcDbLine
 62
7
  6
CONTINUOUS
 10
466.5701464428
 20
294.6963396124
 11
467.0169549002
 21
294.7115833757
  0
LINE
  5
32E
100
AcDbEntity
  8
0
100
AcDbLine
 62
7
  6
CONTINUOUS
 10
467.0169549002
 20
294.8030457811
 11
466.5701464428
 21
294.7878020178
  0
LINE
  5
32F
100
AcDbEntity
  8
0
100
AcDbLine
 62
7
  6
CONTINUOUS
 10
469.6978060617
 20
295.0991947601
 11
470.1446147277
 21
295.1144386106
  0
LINE
  5
330
100
AcDbEntity
  8
0
100
AcDbLine
 62
7
  6
CONTINUOUS
 10
466.7190825953
 20
295.0991947601
 11
467.1658914699
 21
295.1144386106
  0
LINE
  5
331
100
AcDbEntity
  8
0
100
AcDbLine
 62
7
  6
CONTINUOUS
 10
469.6978060617
 20
295.3975513287
 11
470.1446147277
 21
295.4127951792
  0
LINE
  5
332
100
AcDbEntity
  8
0
100
AcDbLine
 62
7
  6
CONTINUOUS
 10
469.9956785752
 20
295.5042575846
 11
469.5488699092
 21
295.489013734
  0
LINE
  5
333
100
AcDbEntity
  8
0
100
AcDbLine
 62
7
  6
CONTINUOUS
 10
466.7190825953
 20
295.3975513287
 11
467.1658914699
 21
295.4127951792
  0
LINE
  5
334
100
AcDbEntity
  8
0
100
AcDbLine
 62
7
  6
CONTINUOUS
 10
467.0169549002
 20
295.5042575846
 11
466.5701464428
 21
295.489013734
  0
LINE
  5
335
100
AcDbEntity
  8
0
100
AcDbLine
 62
7
  6
CONTINUOUS
 10
470.88929549
 20
295.732913598
 11
470.4424870326
 21
295.7176697474
  0
LINE
  5
336
100
AcDbEntity
  8
0
100
AcDbLine
 62
7
  6
CONTINUOUS
 10
467.9105722322
 20
295.7786448006
 11
467.4637637748
 21
295.7634009501
  0
LINE
  5
337
100
AcDbEntity
  8
0
100
AcDbLine
 62
7
  6
CONTINUOUS
 10
467.0169549002
 20
296.1444944221
 11
466.5701464428
 21
296.1292505715
  0
LINE
  5
338
100
AcDbEntity
  8
0
100
AcDbLine
 62
7
  6
CONTINUOUS
 10
480.3024870326
 20
294.1909444925
 11
481.0471678992
 21
294.2153344614
  0
LINE
  5
339
100
AcDbEntity
  8
0
100
AcDbLine
 62
7
  6
CONTINUOUS
 10
479.5578060617
 20
294.6177690276
 11
478.8131252994
 21
294.5933790761
  0
LINE
  5
33A
100
AcDbEntity
  8
0
100
AcDbLine
 62
7
  6
CONTINUOUS
 10
480.6003593375
 20
294.2641144168
 11
480.1535508801
 21
294.251919441
  0
LINE
  5
33B
100
AcDbEntity
  8
0
100
AcDbLine
 62
7
  6
CONTINUOUS
 10
479.5873349973
 20
294.2551784885
 11
479.7067424227
 21
294.2584375453
  0
LINE
  5
33C
100
AcDbEntity
  8
0
100
AcDbLine
 62
7
  6
CONTINUOUS
 10
479.2599337568
 20
294.5445991033
 11
479.7067424227
 21
294.5567941139
  0
LINE
  5
33D
100
AcDbEntity
  8
0
100
AcDbLine
 62
7
  6
CONTINUOUS
 10
476.8769549002
 20
294.5933790761
 11
476.4301464428
 21
294.5811840654
  0
LINE
  5
33E
100
AcDbEntity
  8
0
100
AcDbLine
 62
7
  6
CONTINUOUS
 10
481.1961040516
 20
294.8860587732
 11
480.74929549
 21
294.8738637626
  0
LINE
  5
33F
100
AcDbEntity
  8
0
100
AcDbLine
 62
7
  6
CONTINUOUS
 10
470.4424870326
 20
295.6262073421
 11
471.0382316424
 21
295.6414511926
  0
LINE
  5
340
100
AcDbEntity
  8
0
100
AcDbLine
 62
7
  6
CONTINUOUS
 10
467.6126999273
 20
295.6719385447
 11
468.2084445371
 21
295.6871823953
  0
LINE
  5
341
100
AcDbEntity
  8
RUNDUNGEN
100
AcDbLine
 62
7
  6
CONTINUOUS
 10
467.9124938475
 20
296.5698566809
 11
467.8445308857
 21
296.5689134207
  0
LINE
  5
342
100
AcDbEntity
  8
0
100
AcDbLine
 62
7
  6
CONTINUOUS
 10
479.2599337568
 20
294.1787494993
 11
480.3024870326
 21
294.1909444925
  0
LINE
  5
343
100
AcDbEntity
  8
0
100
AcDbLine
 62
7
  6
CONTINUOUS
 10
476.2812102904
 20
293.6364931889
 11
477.4726999273
 21
293.6364931889
  0
LINE
  5
344
100
AcDbEntity
  8
0
100
AcDbLine
 62
7
  6
CONTINUOUS
 10
477.4726999273
 20
293.7096631132
 11
482.2386572232
 21
293.7096631132
  0
LINE
  5
345
100
AcDbEntity
  8
0
100
AcDbLine
 62
7
  6
CONTINUOUS
 10
476.2812102904
 20
293.9348497575
 11
477.4726999273
 21
293.9348497575
  0
LINE
  5
346
100
AcDbEntity
  8
0
100
AcDbLine
 62
7
  6
CONTINUOUS
 10
470.4415851165
 20
293.940671017
 11
472.3786572232
 21
293.940671017
  0
LINE
  5
347
100
AcDbEntity
  8
0
100
AcDbLine
 62
7
  6
CONTINUOUS
 10
476.4301464428
 20
294.0080196818
 11
482.2386572232
 21
294.0080196818
  0
LINE
  5
348
100
AcDbEntity
  8
0
100
AcDbLine
 62
7
  6
CONTINUOUS
 10
482.2386572232
 20
294.0811896061
 11
475.2386572232
 21
294.0811896061
  0
LINE
  5
349
100
AcDbEntity
  8
0
100
AcDbLine
 62
7
  6
CONTINUOUS
 10
478.2173806895
 20
294.1787494993
 11
479.2599337568
 21
294.1787494993
  0
LINE
  5
34A
100
AcDbEntity
  8
0
100
AcDbLine
 62
7
  6
CONTINUOUS
 10
465.3786572232
 20
294.2390275856
 11
472.3786572232
 21
294.2390275856
  0
LINE
  5
34B
100
AcDbEntity
  8
0
100
AcDbLine
 62
7
  6
CONTINUOUS
 10
478.5152529945
 20
294.2397244304
 11
478.2173806895
 21
294.2397244304
  0
LINE
  5
34C
100
AcDbEntity
  8
0
100
AcDbLine
 62
7
  6
CONTINUOUS
 10
480.1535508801
 20
294.251919441
 11
479.7067424227
 21
294.251919441
  0
LINE
  5
34D
100
AcDbEntity
  8
0
100
AcDbLine
 62
7
  6
CONTINUOUS
 10
479.7067424227
 20
294.2584375453
 11
480.1535508801
 21
294.2584375453
  0
LINE
  5
34E
100
AcDbEntity
  8
0
100
AcDbLine
 62
7
  6
CONTINUOUS
 10
472.3786572232
 20
294.330489991
 11
469.2509976043
 21
294.330489991
  0
LINE
  5
34F
100
AcDbEntity
  8
0
100
AcDbLine
 62
7
  6
CONTINUOUS
 10
468.3573806895
 20
294.330489991
 11
466.1233379854
 21
294.330489991
  0
LINE
  5
350
100
AcDbEntity
  8
0
100
AcDbLine
 62
7
  6
CONTINUOUS
 10
467.0169549002
 20
294.4132268071
 11
467.4637637748
 21
294.4132268071
  0
LINE
  5
351
100
AcDbEntity
  8
0
100
AcDbLine
 62
7
  6
CONTINUOUS
 10
477.4726999273
 20
294.4169724045
 11
477.7705722322
 21
294.4169724045
  0
LINE
  5
352
100
AcDbEntity
  8
0
100
AcDbLine
 62
7
  6
CONTINUOUS
 10
476.8769549002
 20
294.5145322803
 11
477.4726999273
 21
294.5145322803
  0
LINE
  5
353
100
AcDbEntity
  8
0
100
AcDbLine
 62
7
  6
CONTINUOUS
 10
479.7067424227
 20
294.5567941139
 11
480.1535508801
 21
294.5567941139
  0
LINE
  5
354
100
AcDbEntity
  8
0
100
AcDbLine
 62
7
  6
CONTINUOUS
 10
480.3024870326
 20
294.6177690276
 11
479.5578060617
 21
294.6177690276
  0
LINE
  5
355
100
AcDbEntity
  8
0
100
AcDbLine
 62
7
  6
CONTINUOUS
 10
465.3786572232
 20
294.6418828205
 11
465.4509685834
 21
294.6418828205
  0
LINE
  5
356
100
AcDbEntity
  8
0
100
AcDbLine
 62
7
  6
CONTINUOUS
 10
467.0169549002
 20
294.7115833757
 11
467.4637637748
 21
294.7115833757
  0
LINE
  5
357
100
AcDbEntity
  8
0
100
AcDbLine
 62
7
  6
CONTINUOUS
 10
477.4726999273
 20
294.7153289732
 11
478.0684445371
 21
294.7153289732
  0
LINE
  5
358
100
AcDbEntity
  8
0
100
AcDbLine
 62
7
  6
CONTINUOUS
 10
467.6126999273
 20
294.8030457811
 11
467.0169549002
 21
294.8030457811
  0
LINE
  5
359
100
AcDbEntity
  8
0
100
AcDbLine
 62
7
  6
CONTINUOUS
 10
476.2812102904
 20
294.8128888489
 11
477.4726999273
 21
294.8128888489
  0
LINE
  5
35A
100
AcDbEntity
  8
0
100
AcDbLine
 62
7
  6
CONTINUOUS
 10
478.0684445371
 20
294.8128888489
 11
481.0471678992
 21
294.8128888489
  0
LINE
  5
35B
100
AcDbEntity
  8
0
100
AcDbLine
 62
7
  6
CONTINUOUS
 10
480.74929549
 20
294.8738637626
 11
478.0684445371
 21
294.8738637626
  0
LINE
  5
35C
100
AcDbEntity
  8
0
100
AcDbLine
 62
7
  6
CONTINUOUS
 10
477.4726999273
 20
294.8738637626
 11
476.2812102904
 21
294.8738637626
  0
LINE
  5
35D
100
AcDbEntity
  8
0
100
AcDbLine
 62
7
  6
CONTINUOUS
 10
465.3786572232
 20
294.9402393891
 11
472.3786572232
 21
294.9402393891
  0
LINE
  5
35E
100
AcDbEntity
  8
0
100
AcDbLine
 62
7
  6
CONTINUOUS
 10
482.2386572232
 20
294.983618649
 11
481.6429125612
 21
294.983618649
  0
LINE
  5
35F
100
AcDbEntity
  8
0
100
AcDbLine
 62
7
  6
CONTINUOUS
 10
478.0684445371
 20
295.0080086703
 11
477.4726999273
 21
295.0080086703
  0
LINE
  5
360
100
AcDbEntity
  8
0
100
AcDbLine
 62
7
  6
CONTINUOUS
 10
471.4850402041
 20
295.0317017072
 11
469.2509976043
 21
295.0317017072
  0
LINE
  5
361
100
AcDbEntity
  8
0
100
AcDbLine
 62
7
  6
CONTINUOUS
 10
468.3573806895
 20
295.0317017072
 11
466.2722741379
 21
295.0317017072
  0
LINE
  5
362
100
AcDbEntity
  8
0
100
AcDbLine
 62
7
  6
CONTINUOUS
 10
467.1658914699
 20
295.1144386106
 11
467.4637637748
 21
295.1144386106
  0
LINE
  5
363
100
AcDbEntity
  8
0
100
AcDbLine
 62
7
  6
CONTINUOUS
 10
470.1446147277
 20
295.1144386106
 11
470.591423185
 21
295.1144386106
  0
LINE
  5
364
100
AcDbEntity
  8
0
100
AcDbLine
 62
7
  6
CONTINUOUS
 10
467.1658914699
 20
295.4127951792
 11
467.4637637748
 21
295.4127951792
  0
LINE
  5
365
100
AcDbEntity
  8
0
100
AcDbLine
 62
7
  6
CONTINUOUS
 10
470.1446147277
 20
295.4127951792
 11
470.591423185
 21
295.4127951792
  0
LINE
  5
366
100
AcDbEntity
  8
0
100
AcDbLine
 62
7
  6
CONTINUOUS
 10
470.7403593375
 20
295.5042575846
 11
469.9956785752
 21
295.5042575846
  0
LINE
  5
367
100
AcDbEntity
  8
0
100
AcDbLine
 62
7
  6
CONTINUOUS
 10
467.6126999273
 20
295.5042575846
 11
467.0169549002
 21
295.5042575846
  0
LINE
  5
368
100
AcDbEntity
  8
0
100
AcDbLine
 62
7
  6
CONTINUOUS
 10
467.0169549002
 20
295.6719385447
 11
467.6126999273
 21
295.6719385447
  0
LINE
  5
369
100
AcDbEntity
  8
0
100
AcDbLine
 62
7
  6
CONTINUOUS
 10
467.4637637748
 20
295.7634009501
 11
467.1658914699
 21
295.7634009501
  0
LINE
  5
36A
100
AcDbEntity
  8
0
100
AcDbLine
 62
7
  6
CONTINUOUS
 10
470.1446147277
 20
295.8004066508
 11
470.591423185
 21
295.8004066508
  0
LINE
  5
36B
100
AcDbEntity
  8
0
100
AcDbLine
 62
7
  6
CONTINUOUS
 10
470.1446147277
 20
296.0987632194
 11
470.591423185
 21
296.0987632194
  0
LINE
  5
36C
100
AcDbEntity
  8
0
100
AcDbLine
 62
7
  6
CONTINUOUS
 10
470.7403593375
 20
296.1902256247
 11
469.9956785752
 21
296.1902256247
  0
LINE
  5
36D
100
AcDbEntity
  8
RUNDUNGEN
100
AcDbLine
 62
7
  6
CONTINUOUS
 10
467.9112811239
 20
296.570568594
 11
478.9457869334
 21
296.570568594
  0
LINE
  5
36E
100
AcDbEntity
  8
0
100
AcDbLine
 62
7
  6
CONTINUOUS
 10
477.1748276223
 20
294.1909444925
 11
478.2173806895
 21
294.1787494993
  0
LINE
  5
36F
100
AcDbEntity
  8
0
100
AcDbLine
 62
7
  6
CONTINUOUS
 10
478.2173806895
 20
294.2397244304
 11
477.3237637748
 21
294.251919441
  0
LINE
  5
370
100
AcDbEntity
  8
RUNDUNGEN
100
AcDbLine
 62
7
  6
CONTINUOUS
 10
479.0135344136
 20
296.5688648051
 11
478.9452867168
 21
296.5698167778
  0
LINE
  5
371
100
AcDbEntity
  8
0
100
AcDbLine
 62
7
  6
CONTINUOUS
 10
466.4212102904
 20
295.6871823953
 11
467.0169549002
 21
295.6719385447
  0
LINE
  5
372
100
AcDbEntity
  8
0
100
AcDbLine
 62
7
  6
CONTINUOUS
 10
477.3237637748
 20
294.251919441
 11
476.8769549002
 21
294.2641144168
  0
LINE
  5
373
100
AcDbEntity
  8
0
100
AcDbLine
 62
7
  6
CONTINUOUS
 10
479.7067424227
 20
294.251919441
 11
479.2599337568
 21
294.2641144168
  0
LINE
  5
374
100
AcDbEntity
  8
0
100
AcDbLine
 62
7
  6
CONTINUOUS
 10
480.1535508801
 20
294.2584375453
 11
480.2729582499
 21
294.2551784885
  0
LINE
  5
375
100
AcDbEntity
  8
0
100
AcDbLine
 62
7
  6
CONTINUOUS
 10
480.1535508801
 20
294.5567941139
 11
480.6003593375
 21
294.5445991033
  0
LINE
  5
376
100
AcDbEntity
  8
0
100
AcDbLine
 62
7
  6
CONTINUOUS
 10
476.4301464428
 20
294.2153344614
 11
477.1748276223
 21
294.1909444925
  0
LINE
  5
377
100
AcDbEntity
  8
0
100
AcDbLine
 62
7
  6
CONTINUOUS
 10
481.0471678992
 20
294.5933790761
 11
480.3024870326
 21
294.6177690276
  0
LINE
  5
378
100
AcDbEntity
  8
0
100
AcDbLine
 62
7
  6
CONTINUOUS
 10
467.4637637748
 20
294.4132268071
 11
467.9105722322
 21
294.3979830438
  0
LINE
  5
379
100
AcDbEntity
  8
0
100
AcDbLine
 62
7
  6
CONTINUOUS
 10
467.4637637748
 20
294.7115833757
 11
467.9105722322
 21
294.6963396124
  0
LINE
  5
37A
100
AcDbEntity
  8
0
100
AcDbLine
 62
7
  6
CONTINUOUS
 10
468.0595083846
 20
294.7878020178
 11
467.6126999273
 21
294.8030457811
  0
LINE
  5
37B
100
AcDbEntity
  8
0
100
AcDbLine
 62
7
  6
CONTINUOUS
 10
467.4637637748
 20
295.1144386106
 11
467.9105722322
 21
295.0991947601
  0
LINE
  5
37C
100
AcDbEntity
  8
0
100
AcDbLine
 62
7
  6
CONTINUOUS
 10
470.591423185
 20
295.1144386106
 11
471.0382316424
 21
295.0991947601
  0
LINE
  5
37D
100
AcDbEntity
  8
0
100
AcDbLine
 62
7
  6
CONTINUOUS
 10
467.4637637748
 20
295.4127951792
 11
467.9105722322
 21
295.3975513287
  0
LINE
  5
37E
100
AcDbEntity
  8
0
100
AcDbLine
 62
7
  6
CONTINUOUS
 10
468.0595083846
 20
295.489013734
 11
467.6126999273
 21
295.5042575846
  0
LINE
  5
37F
100
AcDbEntity
  8
0
100
AcDbLine
 62
7
  6
CONTINUOUS
 10
470.591423185
 20
295.4127951792
 11
471.0382316424
 21
295.3975513287
  0
LINE
  5
380
100
AcDbEntity
  8
0
100
AcDbLine
 62
7
  6
CONTINUOUS
 10
471.1871678992
 20
295.489013734
 11
470.7403593375
 21
295.5042575846
  0
LINE
  5
381
100
AcDbEntity
  8
0
100
AcDbLine
 62
7
  6
CONTINUOUS
 10
467.1658914699
 20
295.7634009501
 11
466.7190825953
 21
295.7786448006
  0
LINE
  5
382
100
AcDbEntity
  8
0
100
AcDbLine
 62
7
  6
CONTINUOUS
 10
465.3786572232
 20
293.7272587233
 11
467.2165896212
 21
293.6630247357
  0
LINE
  5
383
100
AcDbEntity
  8
0
100
AcDbLine
 62
7
  6
CONTINUOUS
 10
465.3786572232
 20
294.0256152919
 11
471.4850402041
 21
293.81220302
  0
LINE
  5
384
100
AcDbEntity
  8
0
100
AcDbLine
 62
7
  6
CONTINUOUS
 10
472.3786572232
 20
293.8731779642
 11
465.3786572232
 21
294.1170776973
  0
LINE
  5
385
100
AcDbEntity
  8
0
100
AcDbLine
 62
7
  6
CONTINUOUS
 10
471.3361040516
 20
296.1597380981
 11
470.7403593375
 21
296.1902256247
  0
LINE
  5
386
100
AcDbEntity
  8
0
100
AcDbLine
 62
7
  6
CONTINUOUS
 10
476.8769549002
 20
294.2641144168
 11
476.4301464428
 21
294.2885044032
  0
LINE
  5
387
100
AcDbEntity
  8
0
100
AcDbLine
 62
7
  6
CONTINUOUS
 10
480.6003593375
 20
294.5445991033
 11
481.0471678992
 21
294.5202091518
  0
LINE
  5
388
100
AcDbEntity
  8
0
100
AcDbLine
 62
7
  6
CONTINUOUS
 10
475.834401833
 20
294.251919441
 11
476.4301464428
 21
294.2153344614
  0
LINE
  5
389
100
AcDbEntity
  8
0
100
AcDbLine
 62
7
  6
CONTINUOUS
 10
481.6429125612
 20
294.5567941139
 11
481.0471678992
 21
294.5933790761
  0
LINE
  5
38A
100
AcDbEntity
  8
0
100
AcDbLine
 62
7
  6
CONTINUOUS
 10
470.591423185
 20
295.8004066508
 11
471.0382316424
 21
295.7699191242
  0
LINE
  5
38B
100
AcDbEntity
  8
0
100
AcDbLine
 62
7
  6
CONTINUOUS
 10
470.591423185
 20
296.0987632194
 11
471.0382316424
 21
296.0682756928
  0
LINE
  5
38C
100
AcDbEntity
  8
0
100
AcDbLine
 62
7
  6
CONTINUOUS
 10
475.2386572232
 20
293.7096631132
 11
476.2812102904
 21
293.6364931889
  0
LINE
  5
38D
100
AcDbEntity
  8
0
100
AcDbLine
 62
7
  6
CONTINUOUS
 10
475.2386572232
 20
294.0080196818
 11
476.2812102904
 21
293.9348497575
  0
LINE
  5
38E
100
AcDbEntity
  8
0
100
AcDbLine
 62
7
  6
CONTINUOUS
 10
477.4726999273
 20
293.9348497575
 11
476.4301464428
 21
294.0080196818
  0
LINE
  5
38F
100
AcDbEntity
  8
0
100
AcDbLine
 62
7
  6
CONTINUOUS
 10
468.6552529945
 20
294.7420708151
 11
468.0595083846
 21
294.7878020178
  0
LINE
  5
390
100
AcDbEntity
  8
0
100
AcDbLine
 62
7
  6
CONTINUOUS
 10
468.6552529945
 20
295.4432825313
 11
468.0595083846
 21
295.489013734
  0
LINE
  5
391
100
AcDbEntity
  8
0
100
AcDbLine
 62
7
  6
CONTINUOUS
 10
471.7829125612
 20
295.4432825313
 11
471.1871678992
 21
295.489013734
  0
LINE
  5
392
100
AcDbEntity
  8
0
100
AcDbLine
 62
7
  6
CONTINUOUS
 10
479.2599337568
 20
294.2641144168
 11
478.9620614518
 21
294.2885044032
  0
LINE
  5
393
100
AcDbEntity
  8
RUNDUNGEN
100
AcDbLine
 62
7
  6
CONTINUOUS
 10
479.3356208517
 20
296.5384631559
 11
479.0135344136
 21
296.5688648051
  0
LINE
  5
394
100
AcDbEntity
  8
0
100
AcDbLine
 62
7
  6
CONTINUOUS
 10
467.9105722322
 20
294.3979830438
 11
468.2084445371
 21
294.3674956044
  0
LINE
  5
395
100
AcDbEntity
  8
0
100
AcDbLine
 62
7
  6
CONTINUOUS
 10
467.9105722322
 20
294.6963396124
 11
468.2084445371
 21
294.665852173
  0
LINE
  5
396
100
AcDbEntity
  8
0
100
AcDbLine
 62
7
  6
CONTINUOUS
 10
467.9105722322
 20
295.0991947601
 11
468.2084445371
 21
295.0687074079
  0
LINE
  5
397
100
AcDbEntity
  8
0
100
AcDbLine
 62
7
  6
CONTINUOUS
 10
465.8254656805
 20
295.4498007054
 11
465.9378654977
 21
295.4382965053
  0
LINE
  5
398
100
AcDbEntity
  8
0
100
AcDbLine
 62
7
  6
CONTINUOUS
 10
467.9105722322
 20
295.3975513287
 11
468.2084445371
 21
295.3670639765
  0
LINE
  5
399
100
AcDbEntity
  8
0
100
AcDbLine
 62
7
  6
CONTINUOUS
 10
471.0382316424
 20
295.0991947601
 11
471.3361040516
 21
295.0687074079
  0
LINE
  5
39A
100
AcDbEntity
  8
0
100
AcDbLine
 62
7
  6
CONTINUOUS
 10
465.8254656805
 20
295.748157274
 11
466.4212102904
 21
295.6871823953
  0
LINE
  5
39B
100
AcDbEntity
  8
0
100
AcDbLine
 62
7
  6
CONTINUOUS
 10
471.0382316424
 20
295.3975513287
 11
471.3361040516
 21
295.3670639765
  0
LINE
  5
39C
100
AcDbEntity
  8
0
100
AcDbLine
 62
7
  6
CONTINUOUS
 10
471.9318487136
 20
296.0987632194
 11
471.3361040516
 21
296.1597380981
  0
LINE
  5
39D
100
AcDbEntity
  8
0
100
AcDbLine
 62
7
  6
CONTINUOUS
 10
476.4301464428
 20
294.2885044032
 11
476.1322741379
 21
294.3250893653
  0
LINE
  5
39E
100
AcDbEntity
  8
0
100
AcDbLine
 62
7
  6
CONTINUOUS
 10
477.9195083846
 20
294.3128943547
 11
478.5152529945
 21
294.2397244304
  0
LINE
  5
39F
100
AcDbEntity
  8
0
100
AcDbLine
 62
7
  6
CONTINUOUS
 10
478.9620614518
 20
294.2885044032
 11
478.6641891469
 21
294.3250893653
  0
LINE
  5
3A0
100
AcDbEntity
  8
0
100
AcDbLine
 62
7
  6
CONTINUOUS
 10
481.0471678992
 20
294.5202091518
 11
481.3450402041
 21
294.4836241896
  0
LINE
  5
3A1
100
AcDbEntity
  8
0
100
AcDbLine
 62
7
  6
CONTINUOUS
 10
475.3875933756
 20
294.3128943547
 11
475.834401833
 21
294.251919441
  0
LINE
  5
3A2
100
AcDbEntity
  8
0
100
AcDbLine
 62
7
  6
CONTINUOUS
 10
472.2297210577
 20
295.3823076526
 11
471.7829125612
 21
295.4432825313
  0
LINE
  5
3A3
100
AcDbEntity
  8
0
100
AcDbLine
 62
7
  6
CONTINUOUS
 10
482.0897210577
 20
294.4958191654
 11
481.6429125612
 21
294.5567941139
  0
LINE
  5
3A4
100
AcDbEntity
  8
0
100
AcDbLine
 62
7
  6
CONTINUOUS
 10
466.7190825953
 20
295.7786448006
 11
466.4212102904
 21
295.8243760033
  0
LINE
  5
3A5
100
AcDbEntity
  8
0
100
AcDbLine
 62
7
  6
CONTINUOUS
 10
471.0382316424
 20
295.7699191242
 11
471.1232795457
 21
295.7568620475
  0
LINE
  5
3A6
100
AcDbEntity
  8
0
100
AcDbLine
 62
7
  6
CONTINUOUS
 10
471.0382316424
 20
296.0682756928
 11
471.3361040516
 21
296.0225444901
  0
LINE
  5
3A7
100
AcDbEntity
  8
0
100
AcDbLine
 62
7
  6
CONTINUOUS
 10
468.9531252994
 20
294.6810958491
 11
468.6552529945
 21
294.7420708151
  0
LINE
  5
3A8
100
AcDbEntity
  8
0
100
AcDbLine
 62
7
  6
CONTINUOUS
 10
465.5275933756
 20
295.5107755842
 11
465.8254656805
 21
295.4498007054
  0
LINE
  5
3A9
100
AcDbEntity
  8
0
100
AcDbLine
 62
7
  6
CONTINUOUS
 10
465.5275933756
 20
295.8091321528
 11
465.8254656805
 21
295.748157274
  0
LINE
  5
3AA
100
AcDbEntity
  8
0
100
AcDbLine
 62
7
  6
CONTINUOUS
 10
468.8041891469
 20
295.4127951792
 11
468.6552529945
 21
295.4432825313
  0
LINE
  5
3AB
100
AcDbEntity
  8
0
100
AcDbLine
 62
7
  6
CONTINUOUS
 10
472.2297210577
 20
296.0377881662
 11
471.9318487136
 21
296.0987632194
  0
LINE
  5
3AC
100
AcDbEntity
  8
0
100
AcDbLine
 62
7
  6
CONTINUOUS
 10
476.1322741379
 20
294.3250893653
 11
475.9833379854
 21
294.3616743275
  0
LINE
  5
3AD
100
AcDbEntity
  8
0
100
AcDbLine
 62
7
  6
CONTINUOUS
 10
478.6641891469
 20
294.3250893653
 11
478.5152529945
 21
294.3616743275
  0
LINE
  5
3AE
100
AcDbEntity
  8
0
100
AcDbLine
 62
7
  6
CONTINUOUS
 10
481.3450402041
 20
294.4836241896
 11
481.4939763566
 21
294.4470392275
  0
LINE
  5
3AF
100
AcDbEntity
  8
0
100
AcDbLine
 62
7
  6
CONTINUOUS
 10
468.2084445371
 20
294.3674956044
 11
468.3289634249
 21
294.330489991
  0
LINE
  5
3B0
100
AcDbEntity
  8
0
100
AcDbLine
 62
7
  6
CONTINUOUS
 10
468.2084445371
 20
294.665852173
 11
468.3573806895
 21
294.6201209703
  0
LINE
  5
3B1
100
AcDbEntity
  8
0
100
AcDbLine
 62
7
  6
CONTINUOUS
 10
468.2084445371
 20
295.0687074079
 11
468.328963709
 21
295.0317017072
  0
LINE
  5
3B2
100
AcDbEntity
  8
0
100
AcDbLine
 62
7
  6
CONTINUOUS
 10
466.4212102904
 20
295.8243760033
 11
466.2722741379
 21
295.870107206
  0
LINE
  5
3B3
100
AcDbEntity
  8
0
100
AcDbLine
 62
7
  6
CONTINUOUS
 10
468.2084445371
 20
295.3670639765
 11
468.3573806895
 21
295.3213327738
  0
LINE
  5
3B4
100
AcDbEntity
  8
0
100
AcDbLine
 62
7
  6
CONTINUOUS
 10
471.3361040516
 20
295.0687074079
 11
471.4566232235
 21
295.0317017072
  0
LINE
  5
3B5
100
AcDbEntity
  8
0
100
AcDbLine
 62
7
  6
CONTINUOUS
 10
471.3361040516
 20
295.3670639765
 11
471.4850402041
 21
295.3213327738
  0
LINE
  5
3B6
100
AcDbEntity
  8
0
100
AcDbLine
 62
7
  6
CONTINUOUS
 10
465.3786572232
 20
295.5717506374
 11
465.5275933756
 21
295.5107755842
  0
LINE
  5
3B7
100
AcDbEntity
  8
0
100
AcDbLine
 62
7
  6
CONTINUOUS
 10
465.3786572232
 20
295.870107206
 11
465.5275933756
 21
295.8091321528
  0
LINE
  5
3B8
100
AcDbEntity
  8
0
100
AcDbLine
 62
7
  6
CONTINUOUS
 10
475.2386572232
 20
294.3738693032
 11
475.3875933756
 21
294.3128943547
  0
LINE
  5
3B9
100
AcDbEntity
  8
0
100
AcDbLine
 62
7
  6
CONTINUOUS
 10
471.3361040516
 20
296.0225444901
 11
471.4850402041
 21
295.9615696114
  0
LINE
  5
3BA
100
AcDbEntity
  8
0
100
AcDbLine
 62
7
  6
CONTINUOUS
 10
477.7705722322
 20
294.3738693032
 11
477.9195083846
 21
294.3128943547
  0
LINE
  5
3BB
100
AcDbEntity
  8
0
100
AcDbLine
 62
7
  6
CONTINUOUS
 10
472.3786572232
 20
295.3060889233
 11
472.2297210577
 21
295.3823076526
  0
LINE
  5
3BC
100
AcDbEntity
  8
0
100
AcDbLine
 62
7
  6
CONTINUOUS
 10
472.3786572232
 20
295.9615696114
 11
472.2297210577
 21
296.0377881662
  0
LINE
  5
3BD
100
AcDbEntity
  8
RUNDUNGEN
100
AcDbLine
 62
7
  6
CONTINUOUS
 10
536.4286572232
 20
257.1677191917
 11
510.6159464581
 21
272.0706947004
  0
LINE
  5
3BE
100
AcDbEntity
  8
BEZUGSACHSEN
100
AcDbLine
 62
7
  6
CONTINUOUS
 10
457.4286572232
 20
389.353881051
 11
457.4286572232
 21
295.431158204
  0
LINE
  5
3BF
100
AcDbEntity
  8
KONSTRUKTIONSELEMENTE
100
AcDbLine
 62
7
  6
CONTINUOUS
 10
458.4286572232
 20
240.0130186534
 11
458.4286572232
 21
250.0130186534
  0
LINE
  5
3C0
100
AcDbEntity
  8
0
100
AcDbLine
 62
7
  6
CONTINUOUS
 10
482.2386572232
 20
294.4348442518
 11
482.0897210577
 21
294.4958191654
  0
LINE
  5
3C1
100
AcDbEntity
  8
0
100
AcDbLine
 62
7
  6
CONTINUOUS
 10
465.3786572232
 20
293.2089717741
 11
465.3786572232
 21
293.5987907481
  0
LINE
  5
3C2
100
AcDbEntity
  8
0
100
AcDbLine
 62
7
  6
CONTINUOUS
 10
465.3786572232
 20
293.7272587233
 11
465.3786572232
 21
294.604877207
  0
LINE
  5
3C3
100
AcDbEntity
  8
0
100
AcDbLine
 62
7
  6
CONTINUOUS
 10
465.3786572232
 20
294.6418828205
 11
465.3786572232
 21
295.3060889233
  0
LINE
  5
3C4
100
AcDbEntity
  8
0
100
AcDbLine
 62
7
  6
CONTINUOUS
 10
465.3786572232
 20
295.5717506374
 11
465.3786572232
 21
295.9463257608
  0
LINE
  5
3C5
100
AcDbEntity
  8
0
100
AcDbLine
 62
7
  6
CONTINUOUS
 10
465.5275933756
 20
295.5107755842
 11
465.5275933756
 21
295.8091321528
  0
LINE
  5
3C6
100
AcDbEntity
  8
0
100
AcDbLine
 62
7
  6
CONTINUOUS
 10
465.8254656805
 20
295.4498007054
 11
465.8254656805
 21
295.748157274
  0
LINE
  5
3C7
100
AcDbEntity
  8
0
100
AcDbLine
 62
7
  6
CONTINUOUS
 10
466.1233379854
 20
294.330489991
 11
466.1233379854
 21
294.6201209703
  0
LINE
  5
3C8
100
AcDbEntity
  8
0
100
AcDbLine
 62
7
  6
CONTINUOUS
 10
466.2722741379
 20
294.3674956044
 11
466.2722741379
 21
294.665852173
  0
LINE
  5
3C9
100
AcDbEntity
  8
0
100
AcDbLine
 62
7
  6
CONTINUOUS
 10
466.2722741379
 20
295.0317017072
 11
466.2722741379
 21
295.3213327738
  0
LINE
  5
3CA
100
AcDbEntity
  8
0
100
AcDbLine
 62
7
  6
CONTINUOUS
 10
466.2722741379
 20
295.870107206
 11
466.2722741379
 21
295.9615696114
  0
LINE
  5
3CB
100
AcDbEntity
  8
0
100
AcDbLine
 62
7
  6
CONTINUOUS
 10
466.4212102904
 20
295.0687074079
 11
466.4212102904
 21
295.3670639765
  0
LINE
  5
3CC
100
AcDbEntity
  8
0
100
AcDbLine
 62
7
  6
CONTINUOUS
 10
466.4212102904
 20
295.8243760033
 11
466.4212102904
 21
296.007300814
  0
LINE
  5
3CD
100
AcDbEntity
  8
0
100
AcDbLine
 62
7
  6
CONTINUOUS
 10
466.4212102904
 20
295.489013734
 11
466.4212102904
 21
295.6871823953
  0
LINE
  5
3CE
100
AcDbEntity
  8
0
100
AcDbLine
 62
7
  6
CONTINUOUS
 10
466.5701464428
 20
294.3979830438
 11
466.5701464428
 21
294.6963396124
  0
LINE
  5
3CF
100
AcDbEntity
  8
0
100
AcDbLine
 62
7
  6
CONTINUOUS
 10
466.7190825953
 20
295.0991947601
 11
466.7190825953
 21
295.3975513287
  0
LINE
  5
3D0
100
AcDbEntity
  8
0
100
AcDbLine
 62
7
  6
CONTINUOUS
 10
466.7190825953
 20
295.7786448006
 11
466.7190825953
 21
296.0377881662
  0
LINE
  5
3D1
100
AcDbEntity
  8
0
100
AcDbLine
 62
7
  6
CONTINUOUS
 10
467.0169549002
 20
294.4132268071
 11
467.0169549002
 21
294.7115833757
  0
LINE
  5
3D2
100
AcDbEntity
  8
0
100
AcDbLine
 62
7
  6
CONTINUOUS
 10
467.0169549002
 20
295.7546754481
 11
467.0169549002
 21
296.1444944221
  0
LINE
  5
3D3
100
AcDbEntity
  8
0
100
AcDbLine
 62
7
  6
CONTINUOUS
 10
467.0169549002
 20
295.5042575846
 11
467.0169549002
 21
295.6719385447
  0
LINE
  5
3D4
100
AcDbEntity
  8
0
100
AcDbLine
 62
7
  6
CONTINUOUS
 10
467.1658914699
 20
295.1144386106
 11
467.1658914699
 21
295.4127951792
  0
LINE
  5
3D5
100
AcDbEntity
  8
0
100
AcDbLine
 62
7
  6
CONTINUOUS
 10
467.4637637748
 20
294.4132268071
 11
467.4637637748
 21
294.7115833757
  0
LINE
  5
3D6
100
AcDbEntity
  8
0
100
AcDbLine
 62
7
  6
CONTINUOUS
 10
467.4637637748
 20
295.1144386106
 11
467.4637637748
 21
295.4127951792
  0
LINE
  5
3D7
100
AcDbEntity
  8
0
100
AcDbLine
 62
7
  6
CONTINUOUS
 10
467.6126999273
 20
295.5042575846
 11
467.6126999273
 21
295.6719385447
  0
LINE
  5
3D8
100
AcDbEntity
  8
0
100
AcDbLine
 62
7
  6
CONTINUOUS
 10
467.9105722322
 20
294.3979830438
 11
467.9105722322
 21
294.6963396124
  0
LINE
  5
3D9
100
AcDbEntity
  8
0
100
AcDbLine
 62
7
  6
CONTINUOUS
 10
467.9105722322
 20
295.0991947601
 11
467.9105722322
 21
295.3975513287
  0
LINE
  5
3DA
100
AcDbEntity
  8
0
100
AcDbLine
 62
7
  6
CONTINUOUS
 10
468.2084445371
 20
294.3674956044
 11
468.2084445371
 21
294.665852173
  0
LINE
  5
3DB
100
AcDbEntity
  8
0
100
AcDbLine
 62
7
  6
CONTINUOUS
 10
468.2084445371
 20
295.0687074079
 11
468.2084445371
 21
295.3670639765
  0
LINE
  5
3DC
100
AcDbEntity
  8
0
100
AcDbLine
 62
7
  6
CONTINUOUS
 10
468.2084445371
 20
295.489013734
 11
468.2084445371
 21
295.6871823953
  0
LINE
  5
3DD
100
AcDbEntity
  8
0
100
AcDbLine
 62
7
  6
CONTINUOUS
 10
468.3573806895
 20
295.9615696114
 11
468.3573806895
 21
295.870107206
  0
LINE
  5
3DE
100
AcDbEntity
  8
0
100
AcDbLine
 62
7
  6
CONTINUOUS
 10
468.3573806895
 20
295.3213327738
 11
468.3573806895
 21
295.0317017072
  0
LINE
  5
3DF
100
AcDbEntity
  8
0
100
AcDbLine
 62
7
  6
CONTINUOUS
 10
468.3573806895
 20
294.6201209703
 11
468.3573806895
 21
294.330489991
  0
LINE
  5
3E0
100
AcDbEntity
  8
0
100
AcDbLine
 62
7
  6
CONTINUOUS
 10
468.8041891469
 20
295.4498007054
 11
468.8041891469
 21
295.748157274
  0
LINE
  5
3E1
100
AcDbEntity
  8
0
100
AcDbLine
 62
7
  6
CONTINUOUS
 10
469.1020614518
 20
295.5107755842
 11
469.1020614518
 21
295.8091321528
  0
LINE
  5
3E2
100
AcDbEntity
  8
0
100
AcDbLine
 62
7
  6
CONTINUOUS
 10
469.2509976043
 20
294.330489991
 11
469.2509976043
 21
294.5896334437
  0
LINE
  5
3E3
100
AcDbEntity
  8
0
100
AcDbLine
 62
7
  6
CONTINUOUS
 10
469.2509976043
 20
295.0317017072
 11
469.2509976043
 21
295.3213327738
  0
LINE
  5
3E4
100
AcDbEntity
  8
0
100
AcDbLine
 62
7
  6
CONTINUOUS
 10
469.2509976043
 20
295.5717506374
 11
469.2509976043
 21
295.9615696114
  0
LINE
  5
3E5
100
AcDbEntity
  8
0
100
AcDbLine
 62
7
  6
CONTINUOUS
 10
469.3999337568
 20
295.0687074079
 11
469.3999337568
 21
295.3670639765
  0
LINE
  5
3E6
100
AcDbEntity
  8
0
100
AcDbLine
 62
7
  6
CONTINUOUS
 10
469.3999337568
 20
295.7241879215
 11
469.3999337568
 21
296.0225444901
  0
LINE
  5
3E7
100
AcDbEntity
  8
0
100
AcDbLine
 62
7
  6
CONTINUOUS
 10
469.6978060617
 20
295.0991947601
 11
469.6978060617
 21
295.3975513287
  0
LINE
  5
3E8
100
AcDbEntity
  8
0
100
AcDbLine
 62
7
  6
CONTINUOUS
 10
469.6978060617
 20
295.7699191242
 11
469.6978060617
 21
296.0682756928
  0
LINE
  5
3E9
100
AcDbEntity
  8
0
100
AcDbLine
 62
7
  6
CONTINUOUS
 10
470.1446147277
 20
295.1144386106
 11
470.1446147277
 21
295.4127951792
  0
LINE
  5
3EA
100
AcDbEntity
  8
0
100
AcDbLine
 62
7
  6
CONTINUOUS
 10
470.1446147277
 20
295.8004066508
 11
470.1446147277
 21
296.0987632194
  0
LINE
  5
3EB
100
AcDbEntity
  8
0
100
AcDbLine
 62
7
  6
CONTINUOUS
 10
470.4424870326
 20
295.5042575846
 11
470.4424870326
 21
295.7176697474
  0
LINE
  5
3EC
100
AcDbEntity
  8
0
100
AcDbLine
 62
7
  6
CONTINUOUS
 10
470.591423185
 20
295.1144386106
 11
470.591423185
 21
295.4127951792
  0
LINE
  5
3ED
100
AcDbEntity
  8
0
100
AcDbLine
 62
7
  6
CONTINUOUS
 10
470.591423185
 20
295.8004066508
 11
470.591423185
 21
296.0987632194
  0
LINE
  5
3EE
100
AcDbEntity
  8
0
100
AcDbLine
 62
7
  6
CONTINUOUS
 10
471.0382316424
 20
295.0991947601
 11
471.0382316424
 21
295.3975513287
  0
LINE
  5
3EF
100
AcDbEntity
  8
0
100
AcDbLine
 62
7
  6
CONTINUOUS
 10
471.0382316424
 20
295.489013734
 11
471.0382316424
 21
295.6414511926
  0
LINE
  5
3F0
100
AcDbEntity
  8
0
100
AcDbLine
 62
7
  6
CONTINUOUS
 10
471.0382316424
 20
295.7699191242
 11
471.0382316424
 21
296.0682756928
  0
LINE
  5
3F1
100
AcDbEntity
  8
0
100
AcDbLine
 62
7
  6
CONTINUOUS
 10
471.3361040516
 20
295.0687074079
 11
471.3361040516
 21
295.3670639765
  0
LINE
  5
3F2
100
AcDbEntity
  8
0
100
AcDbLine
 62
7
  6
CONTINUOUS
 10
471.3361040516
 20
295.7786448006
 11
471.3361040516
 21
296.0225444901
  0
LINE
  5
3F3
100
AcDbEntity
  8
0
100
AcDbLine
 62
7
  6
CONTINUOUS
 10
471.4850402041
 20
295.9615696114
 11
471.4850402041
 21
295.8396196794
  0
LINE
  5
3F4
100
AcDbEntity
  8
0
100
AcDbLine
 62
7
  6
CONTINUOUS
 10
471.4850402041
 20
295.3213327738
 11
471.4850402041
 21
295.0317017072
  0
LINE
  5
3F5
100
AcDbEntity
  8
0
100
AcDbLine
 62
7
  6
CONTINUOUS
 10
471.7829125612
 20
295.4432825313
 11
471.7829125612
 21
295.6871823953
  0
LINE
  5
3F6
100
AcDbEntity
  8
0
100
AcDbLine
 62
7
  6
CONTINUOUS
 10
472.2297210577
 20
295.4650443815
 11
472.2297210577
 21
295.7634009501
  0
LINE
  5
3F7
100
AcDbEntity
  8
0
100
AcDbLine
 62
7
  6
CONTINUOUS
 10
472.3786572232
 20
293.452871529
 11
472.3786572232
 21
293.8731779642
  0
LINE
  5
3F8
100
AcDbEntity
  8
0
100
AcDbLine
 62
7
  6
CONTINUOUS
 10
472.3786572232
 20
293.940671017
 11
472.3786572232
 21
294.330489991
  0
LINE
  5
3F9
100
AcDbEntity
  8
0
100
AcDbLine
 62
7
  6
CONTINUOUS
 10
472.3786572232
 20
294.4132268071
 11
472.3786572232
 21
295.3060889233
  0
LINE
  5
3FA
100
AcDbEntity
  8
0
100
AcDbLine
 62
7
  6
CONTINUOUS
 10
472.3786572232
 20
295.5412631108
 11
472.3786572232
 21
295.9615696114
  0
LINE
  5
3FB
100
AcDbEntity
  8
0
100
AcDbLine
 62
7
  6
CONTINUOUS
 10
475.2386572232
 20
293.7096631132
 11
475.2386572232
 21
294.4226492411
  0
LINE
  5
3FC
100
AcDbEntity
  8
0
100
AcDbLine
 62
7
  6
CONTINUOUS
 10
475.3875933756
 20
294.0811896061
 11
475.3875933756
 21
294.3128943547
  0
LINE
  5
3FD
100
AcDbEntity
  8
0
100
AcDbLine
 62
7
  6
CONTINUOUS
 10
475.834401833
 20
294.0811896061
 11
475.834401833
 21
294.251919441
  0
LINE
  5
3FE
100
AcDbEntity
  8
0
100
AcDbLine
 62
7
  6
CONTINUOUS
 10
475.9833379854
 20
294.3616743275
 11
475.9833379854
 21
294.4348442518
  0
LINE
  5
3FF
100
AcDbEntity
  8
0
100
AcDbLine
 62
7
  6
CONTINUOUS
 10
476.1322741379
 20
294.3250893653
 11
476.1322741379
 21
294.4714292139
  0
LINE
  5
400
100
AcDbEntity
  8
0
100
AcDbLine
 62
7
  6
CONTINUOUS
 10
476.2812102904
 20
293.6364931889
 11
476.2812102904
 21
293.9348497575
  0
LINE
  5
401
100
AcDbEntity
  8
0
100
AcDbLine
 62
7
  6
CONTINUOUS
 10
476.2812102904
 20
294.5811840654
 11
476.2812102904
 21
294.8738637626
  0
LINE
  5
402
100
AcDbEntity
  8
0
100
AcDbLine
 62
7
  6
CONTINUOUS
 10
476.4301464428
 20
294.0811896061
 11
476.4301464428
 21
294.2153344614
  0
LINE
  5
403
100
AcDbEntity
  8
0
100
AcDbLine
 62
7
  6
CONTINUOUS
 10
476.4301464428
 20
294.2885044032
 11
476.4301464428
 21
294.508014176
  0
LINE
  5
404
100
AcDbEntity
  8
0
100
AcDbLine
 62
7
  6
CONTINUOUS
 10
476.8769549002
 20
294.2641144168
 11
476.8769549002
 21
294.5933790761
  0
LINE
  5
405
100
AcDbEntity
  8
0
100
AcDbLine
 62
7
  6
CONTINUOUS
 10
477.1748276223
 20
294.0811896061
 11
477.1748276223
 21
294.1909444925
  0
LINE
  5
406
100
AcDbEntity
  8
0
100
AcDbLine
 62
7
  6
CONTINUOUS
 10
477.4726999273
 20
295.0080086703
 11
477.4726999273
 21
294.8738637626
  0
LINE
  5
407
100
AcDbEntity
  8
0
100
AcDbLine
 62
7
  6
CONTINUOUS
 10
477.4726999273
 20
293.6364931889
 11
477.4726999273
 21
293.9348497575
  0
LINE
  5
408
100
AcDbEntity
  8
0
100
AcDbLine
 62
7
  6
CONTINUOUS
 10
477.4726999273
 20
294.4169724045
 11
477.4726999273
 21
294.8128888489
  0
LINE
  5
409
100
AcDbEntity
  8
0
100
AcDbLine
 62
7
  6
CONTINUOUS
 10
477.7705722322
 20
294.2458219357
 11
477.7705722322
 21
294.4348442518
  0
LINE
  5
40A
100
AcDbEntity
  8
0
100
AcDbLine
 62
7
  6
CONTINUOUS
 10
477.9195083846
 20
294.2437894339
 11
477.9195083846
 21
294.3128943547
  0
LINE
  5
40B
100
AcDbEntity
  8
0
100
AcDbLine
 62
7
  6
CONTINUOUS
 10
478.0684445371
 20
294.8738637626
 11
478.0684445371
 21
295.0080086703
  0
LINE
  5
40C
100
AcDbEntity
  8
0
100
AcDbLine
 62
7
  6
CONTINUOUS
 10
478.0684445371
 20
294.5161441482
 11
478.0684445371
 21
294.8128888489
  0
LINE
  5
40D
100
AcDbEntity
  8
0
100
AcDbLine
 62
7
  6
CONTINUOUS
 10
478.2173806895
 20
294.0811896061
 11
478.2173806895
 21
294.1787494993
  0
LINE
  5
40E
100
AcDbEntity
  8
0
100
AcDbLine
 62
7
  6
CONTINUOUS
 10
478.5152529945
 20
294.3616743275
 11
478.5152529945
 21
294.4470392275
  0
LINE
  5
40F
100
AcDbEntity
  8
0
100
AcDbLine
 62
7
  6
CONTINUOUS
 10
478.6641891469
 20
294.3250893653
 11
478.6641891469
 21
294.4836241896
  0
LINE
  5
410
100
AcDbEntity
  8
0
100
AcDbLine
 62
7
  6
CONTINUOUS
 10
478.9620614518
 20
294.2885044032
 11
478.9620614518
 21
294.5202091518
  0
LINE
  5
411
100
AcDbEntity
  8
0
100
AcDbLine
 62
7
  6
CONTINUOUS
 10
479.2599337568
 20
294.0811896061
 11
479.2599337568
 21
294.1787494993
  0
LINE
  5
412
100
AcDbEntity
  8
0
100
AcDbLine
 62
7
  6
CONTINUOUS
 10
479.2599337568
 20
294.2462425347
 11
479.2599337568
 21
294.5445991033
  0
LINE
  5
413
100
AcDbEntity
  8
0
100
AcDbLine
 62
7
  6
CONTINUOUS
 10
479.7067424227
 20
294.2584375453
 11
479.7067424227
 21
294.5567941139
  0
LINE
  5
414
100
AcDbEntity
  8
0
100
AcDbLine
 62
7
  6
CONTINUOUS
 10
480.1535508801
 20
294.2584375453
 11
480.1535508801
 21
294.5567941139
  0
LINE
  5
415
100
AcDbEntity
  8
0
100
AcDbLine
 62
7
  6
CONTINUOUS
 10
480.3024870326
 20
294.0811896061
 11
480.3024870326
 21
294.1909444925
  0
LINE
  5
416
100
AcDbEntity
  8
0
100
AcDbLine
 62
7
  6
CONTINUOUS
 10
480.6003593375
 20
294.2462425347
 11
480.6003593375
 21
294.5445991033
  0
LINE
  5
417
100
AcDbEntity
  8
0
100
AcDbLine
 62
7
  6
CONTINUOUS
 10
481.0471678992
 20
294.0811896061
 11
481.0471678992
 21
294.2153344614
  0
LINE
  5
418
100
AcDbEntity
  8
0
100
AcDbLine
 62
7
  6
CONTINUOUS
 10
481.0471678992
 20
294.5933790761
 11
481.0471678992
 21
294.8128888489
  0
LINE
  5
419
100
AcDbEntity
  8
0
100
AcDbLine
 62
7
  6
CONTINUOUS
 10
481.0471678992
 20
294.2885044032
 11
481.0471678992
 21
294.5202091518
  0
LINE
  5
41A
100
AcDbEntity
  8
0
100
AcDbLine
 62
7
  6
CONTINUOUS
 10
481.3450402041
 20
294.3250893653
 11
481.3450402041
 21
294.4836241896
  0
LINE
  5
41B
100
AcDbEntity
  8
0
100
AcDbLine
 62
7
  6
CONTINUOUS
 10
481.4939763566
 20
294.4470392275
 11
481.4939763566
 21
294.3616743275
  0
LINE
  5
41C
100
AcDbEntity
  8
0
100
AcDbLine
 62
7
  6
CONTINUOUS
 10
481.6429125612
 20
294.0811896061
 11
481.6429125612
 21
294.251919441
  0
LINE
  5
41D
100
AcDbEntity
  8
0
100
AcDbLine
 62
7
  6
CONTINUOUS
 10
481.6429125612
 20
294.5389222318
 11
481.6429125612
 21
294.8372788004
  0
LINE
  5
41E
100
AcDbEntity
  8
0
100
AcDbLine
 62
7
  6
CONTINUOUS
 10
481.9407848922
 20
294.575507194
 11
481.9407848922
 21
294.8738637626
  0
LINE
  5
41F
100
AcDbEntity
  8
0
100
AcDbLine
 62
7
  6
CONTINUOUS
 10
482.0897210577
 20
294.0811896061
 11
482.0897210577
 21
294.3128943547
  0
LINE
  5
420
100
AcDbEntity
  8
0
100
AcDbLine
 62
7
  6
CONTINUOUS
 10
482.0897210577
 20
294.6120921561
 11
482.0897210577
 21
294.9104487247
  0
LINE
  5
421
100
AcDbEntity
  8
0
100
AcDbLine
 62
7
  6
CONTINUOUS
 10
482.2386572232
 20
294.6852620804
 11
482.2386572232
 21
294.983618649
  0
LINE
  5
422
100
AcDbEntity
  8
0
100
AcDbLine
 62
7
  6
CONTINUOUS
 10
482.2386572232
 20
293.7096631132
 11
482.2386572232
 21
294.4348442518
  0
LINE
  5
423
100
AcDbEntity
  8
KONSTRUKTIONSELEMENTE
100
AcDbLine
 62
7
  6
CONTINUOUS
 10
488.4286572232
 20
240.0130186534
 11
488.4286572232
 21
250.0130186534
  0
LINE
  5
424
100
AcDbEntity
  8
RUNDUNGEN
100
AcDbLine
 62
7
  6
CONTINUOUS
 10
489.4286572232
 20
389.353881051
 11
489.4286572232
 21
295.431158204
  0
LINE
  5
425
100
AcDbEntity
  8
RUNDUNGEN
100
AcDbLine
 62
7
  6
CONTINUOUS
 10
410.4286572232
 20
257.1677191917
 11
436.2413679882
 21
272.0706947004
  0
LINE
  5
426
100
AcDbEntity
  8
0
100
AcDbLine
 62
7
  6
CONTINUOUS
 10
465.5275933756
 20
296.0225444901
 11
465.3786572232
 21
295.9463257608
  0
LINE
  5
427
100
AcDbEntity
  8
0
100
AcDbLine
 62
7
  6
CONTINUOUS
 10
465.5275933756
 20
295.3823076526
 11
465.3786572232
 21
295.3060889233
  0
LINE
  5
428
100
AcDbEntity
  8
0
100
AcDbLine
 62
7
  6
CONTINUOUS
 10
465.5275933756
 20
294.6810958491
 11
465.3786572232
 21
294.604877207
  0
LINE
  5
429
100
AcDbEntity
  8
0
100
AcDbLine
 62
7
  6
CONTINUOUS
 10
468.506316842
 20
296.0377881662
 11
468.3573806895
 21
295.9615696114
  0
LINE
  5
42A
100
AcDbEntity
  8
0
100
AcDbLine
 62
7
  6
CONTINUOUS
 10
472.2297210577
 20
295.7634009501
 11
472.3786572232
 21
295.8396196794
  0
LINE
  5
42B
100
AcDbEntity
  8
0
100
AcDbLine
 62
7
  6
CONTINUOUS
 10
472.2297210577
 20
295.4650443815
 11
472.3786572232
 21
295.5412631108
  0
LINE
  5
42C
100
AcDbEntity
  8
0
100
AcDbLine
 62
7
  6
CONTINUOUS
 10
469.2509976043
 20
295.9615696114
 11
469.3999337568
 21
296.0225444901
  0
LINE
  5
42D
100
AcDbEntity
  8
0
100
AcDbLine
 62
7
  6
CONTINUOUS
 10
469.1020614518
 20
295.8091321528
 11
469.2509976043
 21
295.870107206
  0
LINE
  5
42E
100
AcDbEntity
  8
0
100
AcDbLine
 62
7
  6
CONTINUOUS
 10
469.2509976043
 20
295.6632130427
 11
469.3999337568
 21
295.7241879215
  0
LINE
  5
42F
100
AcDbEntity
  8
0
100
AcDbLine
 62
7
  6
CONTINUOUS
 10
469.1020614518
 20
295.5107755842
 11
469.2509976043
 21
295.5717506374
  0
LINE
  5
430
100
AcDbEntity
  8
0
100
AcDbLine
 62
7
  6
CONTINUOUS
 10
471.4850402041
 20
295.8396196794
 11
471.3361040516
 21
295.7786448006
  0
LINE
  5
431
100
AcDbEntity
  8
0
100
AcDbLine
 62
7
  6
CONTINUOUS
 10
466.2722741379
 20
295.9615696114
 11
466.4212102904
 21
296.007300814
  0
LINE
  5
432
100
AcDbEntity
  8
0
100
AcDbLine
 62
7
  6
CONTINUOUS
 10
466.2722741379
 20
295.3213327738
 11
466.4212102904
 21
295.3670639765
  0
LINE
  5
433
100
AcDbEntity
  8
0
100
AcDbLine
 62
7
  6
CONTINUOUS
 10
468.3573806895
 20
295.870107206
 11
468.2084445371
 21
295.8243760033
  0
LINE
  5
434
100
AcDbEntity
  8
0
100
AcDbLine
 62
7
  6
CONTINUOUS
 10
466.3006911184
 20
295.0317017072
 11
466.4212102904
 21
295.0687074079
  0
LINE
  5
435
100
AcDbEntity
  8
0
100
AcDbLine
 62
7
  6
CONTINUOUS
 10
466.1233379854
 20
294.6201209703
 11
466.2722741379
 21
294.665852173
  0
LINE
  5
436
100
AcDbEntity
  8
0
100
AcDbLine
 62
7
  6
CONTINUOUS
 10
469.2509976043
 20
295.3213327738
 11
469.3999337568
 21
295.3670639765
  0
LINE
  5
437
100
AcDbEntity
  8
0
100
AcDbLine
 62
7
  6
CONTINUOUS
 10
466.1517552501
 20
294.330489991
 11
466.2722741379
 21
294.3674956044
  0
LINE
  5
438
100
AcDbEntity
  8
0
100
AcDbLine
 62
7
  6
CONTINUOUS
 10
469.2794145848
 20
295.0317017072
 11
469.3999337568
 21
295.0687074079
  0
LINE
  5
439
100
AcDbEntity
  8
0
100
AcDbLine
 62
7
  6
CONTINUOUS
 10
482.0897210577
 20
294.9104487247
 11
482.2386572232
 21
294.983618649
  0
LINE
  5
43A
100
AcDbEntity
  8
0
100
AcDbLine
 62
7
  6
CONTINUOUS
 10
482.0897210577
 20
294.6120921561
 11
482.2386572232
 21
294.6852620804
  0
LINE
  5
43B
100
AcDbEntity
  8
0
100
AcDbLine
 62
7
  6
CONTINUOUS
 10
475.3875933756
 20
294.4836241896
 11
475.2386572232
 21
294.4226492411
  0
LINE
  5
43C
100
AcDbEntity
  8
0
100
AcDbLine
 62
7
  6
CONTINUOUS
 10
477.9195083846
 20
294.4958191654
 11
477.7705722322
 21
294.4348442518
  0
LINE
  5
43D
100
AcDbEntity
  8
0
100
AcDbLine
 62
7
  6
CONTINUOUS
 10
481.6429125612
 20
294.983618649
 11
481.4939763566
 21
294.9226437354
  0
LINE
  5
43E
100
AcDbEntity
  8
0
100
AcDbLine
 62
7
  6
CONTINUOUS
 10
482.0897210577
 20
294.3128943547
 11
482.2386572232
 21
294.3738693032
  0
LINE
  5
43F
100
AcDbEntity
  8
RUNDUNGEN
100
AcDbLine
 62
7
  6
CONTINUOUS
 10
513.4286572232
 20
240.0130186534
 11
513.4286572232
 21
250.1931268765
  0
LINE
  5
440
100
AcDbEntity
  8
B-ACHSEN
100
AcDbLine
 62
7
  6
CONTINUOUS
 10
538.4286572232
 20
253.7036175766
 11
538.4286572232
 21
240.0130186534
  0
LINE
  5
441
100
AcDbEntity
  8
RUNDUNGEN
100
AcDbLine
 62
7
  6
CONTINUOUS
 10
538.4286572232
 20
253.7036175766
 11
538.4286572232
 21
240.0130186534
  0
LINE
  5
442
100
AcDbEntity
  8
BEZUGSACHSEN
100
AcDbLine
 62
7
  6
CONTINUOUS
 10
462.4286572232
 20
394.353881051
 11
484.4286572232
 21
394.353881051
  0
LINE
  5
443
100
AcDbEntity
  8
RUNDUNGEN
100
AcDbLine
 62
7
  6
CONTINUOUS
 10
77.6860755814
 20
65.03
 11
77.6860755814
 21
145.03
  0
LINE
  5
444
100
AcDbEntity
  8
RUNDUNGEN
100
AcDbLine
 62
7
  6
CONTINUOUS
 10
99.7571433933
 20
167.1010678119
 11
77.6860755814
 21
145.03
  0
LINE
  5
445
100
AcDbEntity
  8
RUNDUNGEN
100
AcDbLine
 62
7
  6
CONTINUOUS
 10
99.7571433933
 20
42.9589321881
 11
77.6860755814
 21
65.03
  0
LINE
  5
446
100
AcDbEntity
  8
0
100
AcDbLine
 62
7
  6
CONTINUOUS
 10
102.5292231844
 20
102.1774469328
 11
102.5292231844
 21
100.9859572959
  0
LINE
  5
447
100
AcDbEntity
  8
0
100
AcDbLine
 62
7
  6
CONTINUOUS
 10
103.2253885111
 20
102.0285107803
 11
103.2253885111
 21
96.22
  0
LINE
  5
448
100
AcDbEntity
  8
0
100
AcDbLine
 62
7
  6
CONTINUOUS
 10
103.9215538379
 20
96.22
 11
103.9215538379
 21
103.22
  0
LINE
  5
449
100
AcDbEntity
  8
0
100
AcDbLine
 62
7
  6
CONTINUOUS
 10
103.9529123769
 20
96.22
 11
103.9529123769
 21
103.22
  0
LINE
  5
44A
100
AcDbEntity
  8
0
100
AcDbLine
 62
7
  6
CONTINUOUS
 10
104.8497742183
 20
100.2412765336
 11
104.8497742183
 21
99.1987234664
  0
LINE
  5
44B
100
AcDbEntity
  8
0
100
AcDbLine
 62
7
  6
CONTINUOUS
 10
105.4232818999
 20
113.08
 11
105.4232818999
 21
106.08
  0
LINE
  5
44C
100
AcDbEntity
  8
0
100
AcDbLine
 62
7
  6
CONTINUOUS
 10
105.4299119352
 20
99.9434042287
 11
105.4299119352
 21
100.2412765336
  0
LINE
  5
44D
100
AcDbEntity
  8
0
100
AcDbLine
 62
7
  6
CONTINUOUS
 10
105.4612704742
 20
99.9702393494
 11
105.4612704742
 21
100.2412765336
  0
LINE
  5
44E
100
AcDbEntity
  8
0
100
AcDbLine
 62
7
  6
CONTINUOUS
 10
105.545939711
 20
98.305106343
 11
105.545939711
 21
98.7519148004
  0
LINE
  5
44F
100
AcDbEntity
  8
0
100
AcDbLine
 62
7
  6
CONTINUOUS
 10
105.57729825
 20
98.305106343
 11
105.57729825
 21
98.7519148004
  0
LINE
  5
450
100
AcDbEntity
  8
0
100
AcDbLine
 62
7
  6
CONTINUOUS
 10
106.2934885584
 20
106.08
 11
106.2934885584
 21
109.2076596189
  0
LINE
  5
451
100
AcDbEntity
  8
0
100
AcDbLine
 62
7
  6
CONTINUOUS
 10
106.2934885584
 20
110.1012765336
 11
106.2934885584
 21
112.3353192377
  0
LINE
  5
452
100
AcDbEntity
  8
0
100
AcDbLine
 62
7
  6
CONTINUOUS
 10
106.3248470973
 20
106.08
 11
106.3248470973
 21
109.2076596189
  0
LINE
  5
453
100
AcDbEntity
  8
0
100
AcDbLine
 62
7
  6
CONTINUOUS
 10
106.3248470973
 20
110.1012765336
 11
106.3248470973
 21
112.3353192377
  0
LINE
  5
454
100
AcDbEntity
  8
0
100
AcDbLine
 62
7
  6
CONTINUOUS
 10
108.4466284618
 20
98.7519148004
 11
108.4466284618
 21
98.305106343
  0
LINE
  5
455
100
AcDbEntity
  8
0
100
AcDbLine
 62
7
  6
CONTINUOUS
 10
109.0267660128
 20
98.1561701906
 11
109.0267660128
 21
98.9008511615
  0
LINE
  5
456
100
AcDbEntity
  8
0
100
AcDbLine
 62
7
  6
CONTINUOUS
 10
109.0581245518
 20
98.1561701906
 11
109.0581245518
 21
98.9008511615
  0
LINE
  5
457
100
AcDbEntity
  8
0
100
AcDbLine
 62
7
  6
CONTINUOUS
 10
109.9193499118
 20
111.441702323
 11
109.9193499118
 21
110.9948934484
  0
LINE
  5
458
100
AcDbEntity
  8
0
100
AcDbLine
 62
7
  6
CONTINUOUS
 10
109.9549868911
 20
100.9859572959
 11
109.9549868911
 21
100.3902126861
  0
LINE
  5
459
100
AcDbEntity
  8
0
100
AcDbLine
 62
7
  6
CONTINUOUS
 10
110.7895565703
 20
110.8459572959
 11
110.7895565703
 21
111.441702323
  0
LINE
  5
45A
100
AcDbEntity
  8
0
100
AcDbLine
 62
7
  6
CONTINUOUS
 10
110.8209151093
 20
110.8459572959
 11
110.8209151093
 21
111.441702323
  0
LINE
  5
45B
100
AcDbEntity
  8
0
100
AcDbLine
 62
7
  6
CONTINUOUS
 10
110.8832071055
 20
102.1774469328
 11
110.8832071055
 21
100.9859572959
  0
LINE
  5
45C
100
AcDbEntity
  8
0
100
AcDbLine
 62
7
  6
CONTINUOUS
 10
110.8832071055
 20
100.3902126861
 11
110.8832071055
 21
97.411489324
  0
LINE
  5
45D
100
AcDbEntity
  8
0
100
AcDbLine
 62
7
  6
CONTINUOUS
 10
111.4633446565
 20
97.7093617332
 11
111.4633446565
 21
100.3902126861
  0
LINE
  5
45E
100
AcDbEntity
  8
0
100
AcDbLine
 62
7
  6
CONTINUOUS
 10
111.4633446565
 20
100.9859572959
 11
111.4633446565
 21
102.1774469328
  0
LINE
  5
45F
100
AcDbEntity
  8
0
100
AcDbLine
 62
7
  6
CONTINUOUS
 10
111.4947031955
 20
97.7093617332
 11
111.4947031955
 21
100.3902126861
  0
LINE
  5
460
100
AcDbEntity
  8
0
100
AcDbLine
 62
7
  6
CONTINUOUS
 10
111.4947031955
 20
100.9859572959
 11
111.4947031955
 21
102.1774469328
  0
LINE
  5
461
100
AcDbEntity
  8
0
100
AcDbLine
 62
7
  6
CONTINUOUS
 10
112.094866558
 20
113.08
 11
112.094866558
 21
106.08
  0
LINE
  5
462
100
AcDbEntity
  8
0
100
AcDbLine
 62
7
  6
CONTINUOUS
 10
112.5075926466
 20
96.22
 11
112.5075926466
 21
96.815744662
  0
LINE
  5
463
100
AcDbEntity
  8
0
100
AcDbLine
 62
7
  6
CONTINUOUS
 10
112.5389511856
 20
96.22
 11
112.5389511856
 21
96.815744662
  0
LINE
  5
464
100
AcDbEntity
  8
0
100
AcDbLine
 62
7
  6
CONTINUOUS
 10
104.965801828
 20
101.2838296008
 11
104.8497742183
 21
100.2412765336
  0
LINE
  5
465
100
AcDbEntity
  8
0
100
AcDbLine
 62
7
  6
CONTINUOUS
 10
105.4299119352
 20
100.2412765336
 11
105.545939711
 21
101.1348934484
  0
LINE
  5
466
100
AcDbEntity
  8
0
100
AcDbLine
 62
7
  6
CONTINUOUS
 10
105.4612704742
 20
100.2412765336
 11
105.57729825
 21
101.1348934484
  0
LINE
  5
467
100
AcDbEntity
  8
0
100
AcDbLine
 62
7
  6
CONTINUOUS
 10
105.545939711
 20
101.1348934484
 11
105.6619671548
 21
101.581702323
  0
LINE
  5
468
100
AcDbEntity
  8
0
100
AcDbLine
 62
7
  6
CONTINUOUS
 10
105.57729825
 20
101.1348934484
 11
105.6933256938
 21
101.581702323
  0
LINE
  5
469
100
AcDbEntity
  8
0
100
AcDbLine
 62
7
  6
CONTINUOUS
 10
105.545939711
 20
98.7519148004
 11
105.6619671548
 21
99.1987234664
  0
LINE
  5
46A
100
AcDbEntity
  8
0
100
AcDbLine
 62
7
  6
CONTINUOUS
 10
105.57729825
 20
98.7519148004
 11
105.6933256938
 21
99.1987234664
  0
LINE
  5
46B
100
AcDbEntity
  8
0
100
AcDbLine
 62
7
  6
CONTINUOUS
 10
105.1978568816
 20
102.0285107803
 11
104.965801828
 21
101.2838296008
  0
LINE
  5
46C
100
AcDbEntity
  8
0
100
AcDbLine
 62
7
  6
CONTINUOUS
 10
101.9424552661
 20
106.08
 11
104.263006217
 21
113.08
  0
LINE
  5
46D
100
AcDbEntity
  8
0
100
AcDbLine
 62
7
  6
CONTINUOUS
 10
101.9738138051
 20
106.08
 11
104.294364756
 21
113.08
  0
LINE
  5
46E
100
AcDbEntity
  8
0
100
AcDbLine
 62
7
  6
CONTINUOUS
 10
103.3927995585
 20
113.08
 11
101.3623174247
 21
106.9736170191
  0
LINE
  5
46F
100
AcDbEntity
  8
0
100
AcDbLine
 62
7
  6
CONTINUOUS
 10
101.3623174247
 20
106.9736170191
 11
99.3318352908
 21
113.08
  0
LINE
  5
470
100
AcDbEntity
  8
0
100
AcDbLine
 62
7
  6
CONTINUOUS
 10
101.3779966942
 20
107.020770167
 11
99.3631938298
 21
113.08
  0
LINE
  5
471
100
AcDbEntity
  8
0
100
AcDbLine
 62
7
  6
CONTINUOUS
 10
98.4616286323
 20
113.08
 11
100.7821797907
 21
106.08
  0
LINE
  5
472
100
AcDbEntity
  8
0
100
AcDbLine
 62
7
  6
CONTINUOUS
 10
104.965801828
 20
98.1561701906
 11
105.1978568816
 21
97.411489324
  0
LINE
  5
473
100
AcDbEntity
  8
0
100
AcDbLine
 62
7
  6
CONTINUOUS
 10
109.0267660128
 20
98.9008511615
 11
108.7947111252
 21
99.6455319238
  0
LINE
  5
474
100
AcDbEntity
  8
0
100
AcDbLine
 62
7
  6
CONTINUOUS
 10
109.0581245518
 20
98.9008511615
 11
108.8260696642
 21
99.6455319238
  0
LINE
  5
475
100
AcDbEntity
  8
0
100
AcDbLine
 62
7
  6
CONTINUOUS
 10
105.6619671548
 20
97.8582978857
 11
105.545939711
 21
98.305106343
  0
LINE
  5
476
100
AcDbEntity
  8
0
100
AcDbLine
 62
7
  6
CONTINUOUS
 10
105.6933256938
 20
97.8582978857
 11
105.57729825
 21
98.305106343
  0
LINE
  5
477
100
AcDbEntity
  8
0
100
AcDbLine
 62
7
  6
CONTINUOUS
 10
108.3306006861
 20
99.1987234664
 11
108.4466284618
 21
98.7519148004
  0
LINE
  5
478
100
AcDbEntity
  8
0
100
AcDbLine
 62
7
  6
CONTINUOUS
 10
108.7947111252
 20
101.581702323
 11
108.6786833494
 21
102.0285107803
  0
LINE
  5
479
100
AcDbEntity
  8
0
100
AcDbLine
 62
7
  6
CONTINUOUS
 10
108.8260696642
 20
101.581702323
 11
108.7100418884
 21
102.0285107803
  0
LINE
  5
47A
100
AcDbEntity
  8
0
100
AcDbLine
 62
7
  6
CONTINUOUS
 10
104.8497742183
 20
99.1987234664
 11
104.965801828
 21
98.1561701906
  0
LINE
  5
47B
100
AcDbEntity
  8
0
100
AcDbLine
 62
7
  6
CONTINUOUS
 10
112.7396481981
 20
100.3902126861
 11
112.7396481981
 21
100.9859572959
  0
LINE
  5
47C
100
AcDbEntity
  8
0
100
AcDbLine
 62
7
  6
CONTINUOUS
 10
112.7710067371
 20
100.3902126861
 11
112.7710067371
 21
100.9859572959
  0
LINE
  5
47D
100
AcDbEntity
  8
0
100
AcDbLine
 62
7
  6
CONTINUOUS
 10
112.9650723865
 20
106.9736170191
 11
112.9650723865
 21
109.2076596189
  0
LINE
  5
47E
100
AcDbEntity
  8
0
100
AcDbLine
 62
7
  6
CONTINUOUS
 10
112.9650723865
 20
110.1012765336
 11
112.9650723865
 21
112.1863830853
  0
LINE
  5
47F
100
AcDbEntity
  8
0
100
AcDbLine
 62
7
  6
CONTINUOUS
 10
112.9964309255
 20
106.9736170191
 11
112.9964309255
 21
109.2076596189
  0
LINE
  5
480
100
AcDbEntity
  8
0
100
AcDbLine
 62
7
  6
CONTINUOUS
 10
112.9964309255
 20
110.1012765336
 11
112.9964309255
 21
112.1863830853
  0
LINE
  5
481
100
AcDbEntity
  8
0
100
AcDbLine
 62
7
  6
CONTINUOUS
 10
116.5909345699
 20
111.2927657533
 11
116.5909345699
 21
110.9948934484
  0
LINE
  5
482
100
AcDbEntity
  8
0
100
AcDbLine
 62
7
  6
CONTINUOUS
 10
116.5909345699
 20
108.3140424955
 11
116.5909345699
 21
107.8672340381
  0
LINE
  5
483
100
AcDbEntity
  8
0
100
AcDbLine
 62
7
  6
CONTINUOUS
 10
117.4611412284
 20
107.7182978857
 11
117.4611412284
 21
108.4629786479
  0
LINE
  5
484
100
AcDbEntity
  8
0
100
AcDbLine
 62
7
  6
CONTINUOUS
 10
117.4611412284
 20
110.8459572959
 11
117.4611412284
 21
111.441702323
  0
LINE
  5
485
100
AcDbEntity
  8
0
100
AcDbLine
 62
7
  6
CONTINUOUS
 10
117.4924997673
 20
107.7182978857
 11
117.4924997673
 21
108.4629786479
  0
LINE
  5
486
100
AcDbEntity
  8
0
100
AcDbLine
 62
7
  6
CONTINUOUS
 10
117.4924997673
 20
110.8459572959
 11
117.4924997673
 21
111.441702323
  0
LINE
  5
487
100
AcDbEntity
  8
0
100
AcDbLine
 62
7
  6
CONTINUOUS
 10
119.0565189957
 20
111.441702323
 11
119.0565189957
 21
110.8459572959
  0
LINE
  5
488
100
AcDbEntity
  8
0
100
AcDbLine
 62
7
  6
CONTINUOUS
 10
119.9267256541
 20
110.9948934484
 11
119.9267256541
 21
111.2927657533
  0
LINE
  5
489
100
AcDbEntity
  8
0
100
AcDbLine
 62
7
  6
CONTINUOUS
 10
119.9580841931
 20
110.9948934484
 11
119.9580841931
 21
111.2927657533
  0
LINE
  5
48A
100
AcDbEntity
  8
0
100
AcDbLine
 62
7
  6
CONTINUOUS
 10
119.2015545452
 20
112.0374469328
 11
119.0565189957
 21
111.441702323
  0
LINE
  5
48B
100
AcDbEntity
  8
0
100
AcDbLine
 62
7
  6
CONTINUOUS
 10
108.4466284618
 20
98.305106343
 11
108.3306006861
 21
97.8582978857
  0
LINE
  5
48C
100
AcDbEntity
  8
0
100
AcDbLine
 62
7
  6
CONTINUOUS
 10
108.7947111252
 20
97.411489324
 11
109.0267660128
 21
98.1561701906
  0
LINE
  5
48D
100
AcDbEntity
  8
0
100
AcDbLine
 62
7
  6
CONTINUOUS
 10
108.8260696642
 20
97.411489324
 11
109.0581245518
 21
98.1561701906
  0
LINE
  5
48E
100
AcDbEntity
  8
0
100
AcDbLine
 62
7
  6
CONTINUOUS
 10
109.9193499118
 20
110.9948934484
 11
109.7743151921
 21
110.548084991
  0
LINE
  5
48F
100
AcDbEntity
  8
0
100
AcDbLine
 62
7
  6
CONTINUOUS
 10
110.6445218506
 20
110.3991488385
 11
110.7895565703
 21
110.8459572959
  0
LINE
  5
490
100
AcDbEntity
  8
0
100
AcDbLine
 62
7
  6
CONTINUOUS
 10
110.6758803896
 20
110.3991488385
 11
110.8209151093
 21
110.8459572959
  0
LINE
  5
491
100
AcDbEntity
  8
0
100
AcDbLine
 62
7
  6
CONTINUOUS
 10
116.5909345699
 20
110.9948934484
 11
116.4458990203
 21
110.548084991
  0
LINE
  5
492
100
AcDbEntity
  8
0
100
AcDbLine
 62
7
  6
CONTINUOUS
 10
117.3161056788
 20
110.3991488385
 11
117.4611412284
 21
110.8459572959
  0
LINE
  5
493
100
AcDbEntity
  8
0
100
AcDbLine
 62
7
  6
CONTINUOUS
 10
117.3474642177
 20
110.3991488385
 11
117.4924997673
 21
110.8459572959
  0
LINE
  5
494
100
AcDbEntity
  8
0
100
AcDbLine
 62
7
  6
CONTINUOUS
 10
116.5909345699
 20
107.8672340381
 11
116.4458990203
 21
107.4204255807
  0
LINE
  5
495
100
AcDbEntity
  8
0
100
AcDbLine
 62
7
  6
CONTINUOUS
 10
117.3161056788
 20
107.271489324
 11
117.4611412284
 21
107.7182978857
  0
LINE
  5
496
100
AcDbEntity
  8
0
100
AcDbLine
 62
7
  6
CONTINUOUS
 10
117.3474642177
 20
107.271489324
 11
117.4924997673
 21
107.7182978857
  0
LINE
  5
497
100
AcDbEntity
  8
0
100
AcDbLine
 62
7
  6
CONTINUOUS
 10
119.9267256541
 20
111.2927657533
 11
120.0717612037
 21
111.7395746279
  0
LINE
  5
498
100
AcDbEntity
  8
0
100
AcDbLine
 62
7
  6
CONTINUOUS
 10
119.9580841931
 20
111.2927657533
 11
120.1031197427
 21
111.7395746279
  0
LINE
  5
499
100
AcDbEntity
  8
0
100
AcDbLine
 62
7
  6
CONTINUOUS
 10
105.6619671548
 20
101.581702323
 11
105.8940223744
 21
102.0285107803
  0
LINE
  5
49A
100
AcDbEntity
  8
0
100
AcDbLine
 62
7
  6
CONTINUOUS
 10
105.6933256938
 20
101.581702323
 11
105.9253809133
 21
102.0285107803
  0
LINE
  5
49B
100
AcDbEntity
  8
0
100
AcDbLine
 62
7
  6
CONTINUOUS
 10
105.545939711
 20
102.6242553902
 11
105.1978568816
 21
102.0285107803
  0
LINE
  5
49C
100
AcDbEntity
  8
0
100
AcDbLine
 62
7
  6
CONTINUOUS
 10
103.2253885111
 20
103.22
 11
102.5292231844
 21
102.1774469328
  0
LINE
  5
49D
100
AcDbEntity
  8
0
100
AcDbLine
 62
7
  6
CONTINUOUS
 10
105.1978568816
 20
97.411489324
 11
105.545939711
 21
96.815744662
  0
LINE
  5
49E
100
AcDbEntity
  8
0
100
AcDbLine
 62
7
  6
CONTINUOUS
 10
108.6786833494
 20
102.0285107803
 11
108.3306006861
 21
102.6242553902
  0
LINE
  5
49F
100
AcDbEntity
  8
0
100
AcDbLine
 62
7
  6
CONTINUOUS
 10
108.7100418884
 20
102.0285107803
 11
108.361959225
 21
102.6242553902
  0
LINE
  5
4A0
100
AcDbEntity
  8
0
100
AcDbLine
 62
7
  6
CONTINUOUS
 10
105.8940223744
 20
97.411489324
 11
105.6619671548
 21
97.8582978857
  0
LINE
  5
4A1
100
AcDbEntity
  8
0
100
AcDbLine
 62
7
  6
CONTINUOUS
 10
105.9253809133
 20
97.411489324
 11
105.6933256938
 21
97.8582978857
  0
LINE
  5
4A2
100
AcDbEntity
  8
0
100
AcDbLine
 62
7
  6
CONTINUOUS
 10
107.9825183546
 20
102.0285107803
 11
108.2145735742
 21
101.581702323
  0
LINE
  5
4A3
100
AcDbEntity
  8
0
100
AcDbLine
 62
7
  6
CONTINUOUS
 10
110.8832071055
 20
97.411489324
 11
111.1152619931
 21
96.815744662
  0
LINE
  5
4A4
100
AcDbEntity
  8
0
100
AcDbLine
 62
7
  6
CONTINUOUS
 10
110.9345904601
 20
106.08
 11
109.6292804724
 21
109.5055319238
  0
LINE
  5
4A5
100
AcDbEntity
  8
0
100
AcDbLine
 62
7
  6
CONTINUOUS
 10
110.9659489991
 20
106.08
 11
109.6606390114
 21
109.5055319238
  0
LINE
  5
4A6
100
AcDbEntity
  8
0
100
AcDbLine
 62
7
  6
CONTINUOUS
 10
108.759073814
 20
109.2076596189
 11
109.9193499118
 21
106.08
  0
LINE
  5
4A7
100
AcDbEntity
  8
0
100
AcDbLine
 62
7
  6
CONTINUOUS
 10
109.7743151921
 20
111.8885107803
 11
109.9193499118
 21
111.441702323
  0
LINE
  5
4A8
100
AcDbEntity
  8
0
100
AcDbLine
 62
7
  6
CONTINUOUS
 10
110.7895565703
 20
111.441702323
 11
110.6445218506
 21
111.8885107803
  0
LINE
  5
4A9
100
AcDbEntity
  8
0
100
AcDbLine
 62
7
  6
CONTINUOUS
 10
110.8209151093
 20
111.441702323
 11
110.6758803896
 21
111.8885107803
  0
LINE
  5
4AA
100
AcDbEntity
  8
0
100
AcDbLine
 62
7
  6
CONTINUOUS
 10
116.4458990203
 20
108.7608511615
 11
116.5909345699
 21
108.3140424955
  0
LINE
  5
4AB
100
AcDbEntity
  8
0
100
AcDbLine
 62
7
  6
CONTINUOUS
 10
111.5793724322
 20
97.2625531715
 11
111.4633446565
 21
97.7093617332
  0
LINE
  5
4AC
100
AcDbEntity
  8
0
100
AcDbLine
 62
7
  6
CONTINUOUS
 10
111.6107309712
 20
97.2625531715
 11
111.4947031955
 21
97.7093617332
  0
LINE
  5
4AD
100
AcDbEntity
  8
0
100
AcDbLine
 62
7
  6
CONTINUOUS
 10
118.6214156664
 20
108.0161701906
 11
118.766451216
 21
107.4204255807
  0
LINE
  5
4AE
100
AcDbEntity
  8
0
100
AcDbLine
 62
7
  6
CONTINUOUS
 10
123.1174845083
 20
108.3140424955
 11
123.1174845083
 21
107.8672340381
  0
LINE
  5
4AF
100
AcDbEntity
  8
0
100
AcDbLine
 62
7
  6
CONTINUOUS
 10
123.9876911667
 20
107.7182978857
 11
123.9876911667
 21
108.4629786479
  0
LINE
  5
4B0
100
AcDbEntity
  8
0
100
AcDbLine
 62
7
  6
CONTINUOUS
 10
124.0190497057
 20
107.7182978857
 11
124.0190497057
 21
108.4629786479
  0
LINE
  5
4B1
100
AcDbEntity
  8
0
100
AcDbLine
 62
7
  6
CONTINUOUS
 10
123.6976217273
 20
107.1225531715
 11
123.9876911667
 21
107.7182978857
  0
LINE
  5
4B2
100
AcDbEntity
  8
0
100
AcDbLine
 62
7
  6
CONTINUOUS
 10
123.7289802663
 20
107.1225531715
 11
124.0190497057
 21
107.7182978857
  0
LINE
  5
4B3
100
AcDbEntity
  8
0
100
AcDbLine
 62
7
  6
CONTINUOUS
 10
108.3306006861
 20
97.8582978857
 11
108.0985457984
 21
97.411489324
  0
LINE
  5
4B4
100
AcDbEntity
  8
0
100
AcDbLine
 62
7
  6
CONTINUOUS
 10
108.4466284618
 20
96.815744662
 11
108.7947111252
 21
97.411489324
  0
LINE
  5
4B5
100
AcDbEntity
  8
0
100
AcDbLine
 62
7
  6
CONTINUOUS
 10
108.4779870008
 20
96.815744662
 11
108.8260696642
 21
97.411489324
  0
LINE
  5
4B6
100
AcDbEntity
  8
0
100
AcDbLine
 62
7
  6
CONTINUOUS
 10
102.5292231844
 20
100.9859572959
 11
103.2253885111
 21
102.0285107803
  0
LINE
  5
4B7
100
AcDbEntity
  8
0
100
AcDbLine
 62
7
  6
CONTINUOUS
 10
102.5605817234
 20
100.9859572959
 11
103.2253885111
 21
101.9815493003
  0
LINE
  5
4B8
100
AcDbEntity
  8
0
100
AcDbLine
 62
7
  6
CONTINUOUS
 10
110.2094185214
 20
109.8034042287
 11
110.6445218506
 21
110.3991488385
  0
LINE
  5
4B9
100
AcDbEntity
  8
0
100
AcDbLine
 62
7
  6
CONTINUOUS
 10
110.2407770603
 20
109.8034042287
 11
110.6758803896
 21
110.3991488385
  0
LINE
  5
4BA
100
AcDbEntity
  8
0
100
AcDbLine
 62
7
  6
CONTINUOUS
 10
116.8810023495
 20
109.8034042287
 11
117.3161056788
 21
110.3991488385
  0
LINE
  5
4BB
100
AcDbEntity
  8
0
100
AcDbLine
 62
7
  6
CONTINUOUS
 10
116.9123608885
 20
109.8034042287
 11
117.3474642177
 21
110.3991488385
  0
LINE
  5
4BC
100
AcDbEntity
  8
0
100
AcDbLine
 62
7
  6
CONTINUOUS
 10
105.6619671548
 20
99.1987234664
 11
105.8940223744
 21
99.4965957713
  0
LINE
  5
4BD
100
AcDbEntity
  8
0
100
AcDbLine
 62
7
  6
CONTINUOUS
 10
105.6933256938
 20
99.1987234664
 11
105.9253809133
 21
99.4965957713
  0
LINE
  5
4BE
100
AcDbEntity
  8
0
100
AcDbLine
 62
7
  6
CONTINUOUS
 10
108.0985457984
 20
99.4965957713
 11
108.3306006861
 21
99.1987234664
  0
LINE
  5
4BF
100
AcDbEntity
  8
0
100
AcDbLine
 62
7
  6
CONTINUOUS
 10
108.7947111252
 20
99.6455319238
 11
108.4466284618
 21
100.0923403811
  0
LINE
  5
4C0
100
AcDbEntity
  8
0
100
AcDbLine
 62
7
  6
CONTINUOUS
 10
108.8260696642
 20
99.6455319238
 11
108.4779870008
 21
100.0923403811
  0
LINE
  5
4C1
100
AcDbEntity
  8
0
100
AcDbLine
 62
7
  6
CONTINUOUS
 10
117.4611412284
 20
108.4629786479
 11
117.3161056788
 21
108.9097873139
  0
LINE
  5
4C2
100
AcDbEntity
  8
0
100
AcDbLine
 62
7
  6
CONTINUOUS
 10
117.4924997673
 20
108.4629786479
 11
117.3474642177
 21
108.9097873139
  0
LINE
  5
4C3
100
AcDbEntity
  8
0
100
AcDbLine
 62
7
  6
CONTINUOUS
 10
116.4458990203
 20
111.7395746279
 11
116.5909345699
 21
111.2927657533
  0
LINE
  5
4C4
100
AcDbEntity
  8
0
100
AcDbLine
 62
7
  6
CONTINUOUS
 10
117.4611412284
 20
111.441702323
 11
117.3161056788
 21
111.8885107803
  0
LINE
  5
4C5
100
AcDbEntity
  8
0
100
AcDbLine
 62
7
  6
CONTINUOUS
 10
117.4924997673
 20
111.441702323
 11
117.3474642177
 21
111.8885107803
  0
LINE
  5
4C6
100
AcDbEntity
  8
0
100
AcDbLine
 62
7
  6
CONTINUOUS
 10
119.6366578745
 20
107.5693617332
 11
119.4916223249
 21
108.0161701906
  0
LINE
  5
4C7
100
AcDbEntity
  8
0
100
AcDbLine
 62
7
  6
CONTINUOUS
 10
119.6680164135
 20
107.5693617332
 11
119.5229808639
 21
108.0161701906
  0
LINE
  5
4C8
100
AcDbEntity
  8
0
100
AcDbLine
 62
7
  6
CONTINUOUS
 10
120.0717612037
 20
110.548084991
 11
119.9267256541
 21
110.9948934484
  0
LINE
  5
4C9
100
AcDbEntity
  8
0
100
AcDbLine
 62
7
  6
CONTINUOUS
 10
120.1031197427
 20
110.548084991
 11
119.9580841931
 21
110.9948934484
  0
LINE
  5
4CA
100
AcDbEntity
  8
0
100
AcDbLine
 62
7
  6
CONTINUOUS
 10
123.5525878375
 20
111.441702323
 11
123.4075522879
 21
111.8885107803
  0
LINE
  5
4CB
100
AcDbEntity
  8
0
100
AcDbLine
 62
7
  6
CONTINUOUS
 10
123.5839463765
 20
111.441702323
 11
123.4389108269
 21
111.8885107803
  0
LINE
  5
4CC
100
AcDbEntity
  8
0
100
AcDbLine
 62
7
  6
CONTINUOUS
 10
119.0565189957
 20
110.8459572959
 11
119.2015545452
 21
110.2502126861
  0
LINE
  5
4CD
100
AcDbEntity
  8
RUNDUNGEN
100
AcDbLine
 62
7
  6
CONTINUOUS
 10
134.6723803198
 20
130.16030171
 11
131.4230846815
 21
161.0752846327
  0
LINE
  5
4CE
100
AcDbEntity
  8
RUNDUNGEN
100
AcDbLine
 62
7
  6
CONTINUOUS
 10
134.6860755814
 20
129.8989805518
 11
134.6860755814
 21
80.1610194482
  0
LINE
  5
4CF
100
AcDbEntity
  8
BEZUGSACHSEN
100
AcDbLine
 62
7
  6
CONTINUOUS
 10
136.3546255268
 20
116.03
 11
136.3546255268
 21
94.03
  0
LINE
  5
4D0
100
AcDbEntity
  8
RUNDUNGEN
100
AcDbLine
 62
7
  6
CONTINUOUS
 10
134.6723803198
 20
79.89969829
 11
131.4230846815
 21
48.9847153673
  0
LINE
  5
4D1
100
AcDbEntity
  8
0
100
AcDbLine
 62
7
  6
CONTINUOUS
 10
123.1174845083
 20
107.8672340381
 11
122.8274150689
 21
107.4204255807
  0
LINE
  5
4D2
100
AcDbEntity
  8
0
100
AcDbLine
 62
7
  6
CONTINUOUS
 10
116.8810023495
 20
106.675744662
 11
117.3161056788
 21
107.271489324
  0
LINE
  5
4D3
100
AcDbEntity
  8
0
100
AcDbLine
 62
7
  6
CONTINUOUS
 10
116.9123608885
 20
106.675744662
 11
117.3474642177
 21
107.271489324
  0
LINE
  5
4D4
100
AcDbEntity
  8
0
100
AcDbLine
 62
7
  6
CONTINUOUS
 10
109.7743151921
 20
110.548084991
 11
109.4842465826
 21
110.2502126861
  0
LINE
  5
4D5
100
AcDbEntity
  8
0
100
AcDbLine
 62
7
  6
CONTINUOUS
 10
116.4458990203
 20
110.548084991
 11
116.1558312407
 21
110.2502126861
  0
LINE
  5
4D6
100
AcDbEntity
  8
0
100
AcDbLine
 62
7
  6
CONTINUOUS
 10
119.7816917643
 20
112.6331915426
 11
119.2015545452
 21
112.0374469328
  0
LINE
  5
4D7
100
AcDbEntity
  8
0
100
AcDbLine
 62
7
  6
CONTINUOUS
 10
116.4458990203
 20
107.4204255807
 11
116.1558312407
 21
107.1225531715
  0
LINE
  5
4D8
100
AcDbEntity
  8
0
100
AcDbLine
 62
7
  6
CONTINUOUS
 10
105.545939711
 20
96.815744662
 11
106.126077262
 21
96.3689361655
  0
LINE
  5
4D9
100
AcDbEntity
  8
0
100
AcDbLine
 62
7
  6
CONTINUOUS
 10
106.2421050377
 20
97.1136170191
 11
105.8940223744
 21
97.411489324
  0
LINE
  5
4DA
100
AcDbEntity
  8
0
100
AcDbLine
 62
7
  6
CONTINUOUS
 10
106.2734635767
 20
97.1136170191
 11
105.9253809133
 21
97.411489324
  0
LINE
  5
4DB
100
AcDbEntity
  8
0
100
AcDbLine
 62
7
  6
CONTINUOUS
 10
111.1152619931
 20
96.815744662
 11
111.4633446565
 21
96.517872331
  0
LINE
  5
4DC
100
AcDbEntity
  8
0
100
AcDbLine
 62
7
  6
CONTINUOUS
 10
107.7504631351
 20
99.7944680762
 11
108.0985457984
 21
99.4965957713
  0
LINE
  5
4DD
100
AcDbEntity
  8
0
100
AcDbLine
 62
7
  6
CONTINUOUS
 10
111.9274550956
 20
96.9646808666
 11
111.5793724322
 21
97.2625531715
  0
LINE
  5
4DE
100
AcDbEntity
  8
0
100
AcDbLine
 62
7
  6
CONTINUOUS
 10
111.9588136346
 20
96.9646808666
 11
111.6107309712
 21
97.2625531715
  0
LINE
  5
4DF
100
AcDbEntity
  8
0
100
AcDbLine
 62
7
  6
CONTINUOUS
 10
107.6344356913
 20
102.3263830853
 11
107.9825183546
 21
102.0285107803
  0
LINE
  5
4E0
100
AcDbEntity
  8
0
100
AcDbLine
 62
7
  6
CONTINUOUS
 10
110.6445218506
 20
111.8885107803
 11
110.2094185214
 21
112.4842553902
  0
LINE
  5
4E1
100
AcDbEntity
  8
0
100
AcDbLine
 62
7
  6
CONTINUOUS
 10
110.6758803896
 20
111.8885107803
 11
110.2407770603
 21
112.4842553902
  0
LINE
  5
4E2
100
AcDbEntity
  8
0
100
AcDbLine
 62
7
  6
CONTINUOUS
 10
117.3161056788
 20
108.9097873139
 11
116.8810023495
 21
109.5055319238
  0
LINE
  5
4E3
100
AcDbEntity
  8
0
100
AcDbLine
 62
7
  6
CONTINUOUS
 10
117.3474642177
 20
108.9097873139
 11
116.9123608885
 21
109.5055319238
  0
LINE
  5
4E4
100
AcDbEntity
  8
0
100
AcDbLine
 62
7
  6
CONTINUOUS
 10
117.3161056788
 20
111.8885107803
 11
116.8810023495
 21
112.4842553902
  0
LINE
  5
4E5
100
AcDbEntity
  8
0
100
AcDbLine
 62
7
  6
CONTINUOUS
 10
117.3474642177
 20
111.8885107803
 11
116.9123608885
 21
112.4842553902
  0
LINE
  5
4E6
100
AcDbEntity
  8
0
100
AcDbLine
 62
7
  6
CONTINUOUS
 10
122.8274150689
 20
108.7608511615
 11
123.1174845083
 21
108.3140424955
  0
LINE
  5
4E7
100
AcDbEntity
  8
0
100
AcDbLine
 62
7
  6
CONTINUOUS
 10
118.766451216
 20
107.4204255807
 11
119.2015545452
 21
106.675744662
  0
LINE
  5
4E8
100
AcDbEntity
  8
0
100
AcDbLine
 62
7
  6
CONTINUOUS
 10
123.9876911667
 20
108.4629786479
 11
123.6976217273
 21
109.0587234664
  0
LINE
  5
4E9
100
AcDbEntity
  8
0
100
AcDbLine
 62
7
  6
CONTINUOUS
 10
124.0190497057
 20
108.4629786479
 11
123.7289802663
 21
109.0587234664
  0
LINE
  5
4EA
100
AcDbEntity
  8
0
100
AcDbLine
 62
7
  6
CONTINUOUS
 10
122.5373456294
 20
111.7395746279
 11
122.682381179
 21
111.441702323
  0
LINE
  5
4EB
100
AcDbEntity
  8
0
100
AcDbLine
 62
7
  6
CONTINUOUS
 10
149.2660755814
 20
86.5434059085
 11
149.2660755814
 21
86.0431860437
  0
LINE
  5
4EC
100
AcDbEntity
  8
0
100
AcDbLine
 62
7
  6
CONTINUOUS
 10
123.1174845083
 20
106.5268085095
 11
123.6976217273
 21
107.1225531715
  0
LINE
  5
4ED
100
AcDbEntity
  8
0
100
AcDbLine
 62
7
  6
CONTINUOUS
 10
123.1488430472
 20
106.5268085095
 11
123.7289802663
 21
107.1225531715
  0
LINE
  5
4EE
100
AcDbEntity
  8
0
100
AcDbLine
 62
7
  6
CONTINUOUS
 10
105.8940223744
 20
102.0285107803
 11
106.2421050377
 21
102.3263830853
  0
LINE
  5
4EF
100
AcDbEntity
  8
0
100
AcDbLine
 62
7
  6
CONTINUOUS
 10
105.9253809133
 20
102.0285107803
 11
106.2734635767
 21
102.3263830853
  0
LINE
  5
4F0
100
AcDbEntity
  8
0
100
AcDbLine
 62
7
  6
CONTINUOUS
 10
106.126077262
 20
100.5391488385
 11
105.4299119352
 21
99.9434042287
  0
LINE
  5
4F1
100
AcDbEntity
  8
0
100
AcDbLine
 62
7
  6
CONTINUOUS
 10
105.8940223744
 20
99.4965957713
 11
106.2421050377
 21
99.7944680762
  0
LINE
  5
4F2
100
AcDbEntity
  8
0
100
AcDbLine
 62
7
  6
CONTINUOUS
 10
105.9253809133
 20
99.4965957713
 11
106.2734635767
 21
99.7944680762
  0
LINE
  5
4F3
100
AcDbEntity
  8
0
100
AcDbLine
 62
7
  6
CONTINUOUS
 10
108.0985457984
 20
97.411489324
 11
107.7504631351
 21
97.1136170191
  0
LINE
  5
4F4
100
AcDbEntity
  8
0
100
AcDbLine
 62
7
  6
CONTINUOUS
 10
106.126077262
 20
103.0710638475
 11
105.545939711
 21
102.6242553902
  0
LINE
  5
4F5
100
AcDbEntity
  8
0
100
AcDbLine
 62
7
  6
CONTINUOUS
 10
116.3008651305
 20
106.2289361655
 11
116.8810023495
 21
106.675744662
  0
LINE
  5
4F6
100
AcDbEntity
  8
0
100
AcDbLine
 62
7
  6
CONTINUOUS
 10
116.3322236695
 20
106.2289361655
 11
116.9123608885
 21
106.675744662
  0
LINE
  5
4F7
100
AcDbEntity
  8
RUNDUNGEN
100
AcDbLine
 62
7
  6
CONTINUOUS
 10
121.4778657278
 20
40.03
 11
106.8282112051
 21
40.03
  0
LINE
  5
4F8
100
AcDbEntity
  8
RUNDUNGEN
100
AcDbLine
 62
7
  6
CONTINUOUS
 10
296.894285435
 20
40.03
 11
311.5439399577
 21
40.03
  0
LINE
  5
4F9
100
AcDbEntity
  8
0
100
AcDbLine
 62
7
  6
CONTINUOUS
 10
108.4466284618
 20
100.0923403811
 11
107.8664905789
 21
100.5391488385
  0
LINE
  5
4FA
100
AcDbEntity
  8
0
100
AcDbLine
 62
7
  6
CONTINUOUS
 10
108.4779870008
 20
100.0923403811
 11
107.8978491179
 21
100.5391488385
  0
LINE
  5
4FB
100
AcDbEntity
  8
0
100
AcDbLine
 62
7
  6
CONTINUOUS
 10
108.3306006861
 20
102.6242553902
 11
107.7504631351
 21
103.0710638475
  0
LINE
  5
4FC
100
AcDbEntity
  8
0
100
AcDbLine
 62
7
  6
CONTINUOUS
 10
108.361959225
 20
102.6242553902
 11
107.781821674
 21
103.0710638475
  0
LINE
  5
4FD
100
AcDbEntity
  8
0
100
AcDbLine
 62
7
  6
CONTINUOUS
 10
109.4842465826
 20
112.1863830853
 11
109.7743151921
 21
111.8885107803
  0
LINE
  5
4FE
100
AcDbEntity
  8
0
100
AcDbLine
 62
7
  6
CONTINUOUS
 10
116.1558312407
 20
109.0587234664
 11
116.4458990203
 21
108.7608511615
  0
LINE
  5
4FF
100
AcDbEntity
  8
0
100
AcDbLine
 62
7
  6
CONTINUOUS
 10
120.0717612037
 20
107.1225531715
 11
119.6366578745
 21
107.5693617332
  0
LINE
  5
500
100
AcDbEntity
  8
0
100
AcDbLine
 62
7
  6
CONTINUOUS
 10
120.1031197427
 20
107.1225531715
 11
119.6680164135
 21
107.5693617332
  0
LINE
  5
501
100
AcDbEntity
  8
0
100
AcDbLine
 62
7
  6
CONTINUOUS
 10
116.1558312407
 20
112.0374469328
 11
116.4458990203
 21
111.7395746279
  0
LINE
  5
502
100
AcDbEntity
  8
0
100
AcDbLine
 62
7
  6
CONTINUOUS
 10
119.2015545452
 20
110.2502126861
 11
119.7816917643
 21
109.6544680762
  0
LINE
  5
503
100
AcDbEntity
  8
0
100
AcDbLine
 62
7
  6
CONTINUOUS
 10
123.6976217273
 20
109.0587234664
 11
123.1174845083
 21
109.6544680762
  0
LINE
  5
504
100
AcDbEntity
  8
0
100
AcDbLine
 62
7
  6
CONTINUOUS
 10
123.7289802663
 20
109.0587234664
 11
123.1488430472
 21
109.6544680762
  0
LINE
  5
505
100
AcDbEntity
  8
0
100
AcDbLine
 62
7
  6
CONTINUOUS
 10
122.2472778498
 20
112.0374469328
 11
122.5373456294
 21
111.7395746279
  0
LINE
  5
506
100
AcDbEntity
  8
0
100
AcDbLine
 62
7
  6
CONTINUOUS
 10
123.4075522879
 20
111.8885107803
 11
122.9724489587
 21
112.4842553902
  0
LINE
  5
507
100
AcDbEntity
  8
0
100
AcDbLine
 62
7
  6
CONTINUOUS
 10
123.4389108269
 20
111.8885107803
 11
123.0038074976
 21
112.4842553902
  0
LINE
  5
508
100
AcDbEntity
  8
0
100
AcDbLine
 62
7
  6
CONTINUOUS
 10
153.2660755814
 20
86.5434059085
 11
153.2660755814
 21
86.0431860437
  0
LINE
  5
509
100
AcDbEntity
  8
0
100
AcDbLine
 62
7
  6
CONTINUOUS
 10
154.0994090737
 20
86.5387990889
 11
154.0994090737
 21
86.0386548003
  0
LINE
  5
50A
100
AcDbEntity
  8
0
100
AcDbLine
 62
7
  6
CONTINUOUS
 10
154.3860755814
 20
123.53
 11
154.3860755814
 21
124.03
  0
LINE
  5
50B
100
AcDbEntity
  8
0
100
AcDbLine
 62
7
  6
CONTINUOUS
 10
154.7660755814
 20
86.5307769403
 11
154.7660755814
 21
86.0307642116
  0
LINE
  5
50C
100
AcDbEntity
  8
0
100
AcDbLine
 62
7
  6
CONTINUOUS
 10
155.2660755814
 20
86.53
 11
155.2660755814
 21
86.03
  0
LINE
  5
50D
100
AcDbEntity
  8
0
100
AcDbLine
 62
7
  6
CONTINUOUS
 10
155.4327420891
 20
86.53
 11
155.4327420891
 21
86.03
  0
LINE
  5
50E
100
AcDbEntity
  8
0
100
AcDbLine
 62
7
  6
CONTINUOUS
 10
155.5994090737
 20
86.53
 11
155.5994090737
 21
86.03
  0
LINE
  5
50F
100
AcDbEntity
  8
0
100
AcDbLine
 62
7
  6
CONTINUOUS
 10
156.9327420891
 20
86.5434059085
 11
156.9327420891
 21
86.0431860437
  0
LINE
  5
510
100
AcDbEntity
  8
0
100
AcDbLine
 62
7
  6
CONTINUOUS
 10
157.932742566
 20
86.5434059085
 11
157.932742566
 21
86.0431860437
  0
LINE
  5
511
100
AcDbEntity
  8
0
100
AcDbLine
 62
7
  6
CONTINUOUS
 10
158.0994085968
 20
86.53
 11
158.0994085968
 21
86.03
  0
LINE
  5
512
100
AcDbEntity
  8
0
100
AcDbLine
 62
7
  6
CONTINUOUS
 10
158.432742566
 20
86.53
 11
158.432742566
 21
86.03
  0
LINE
  5
513
100
AcDbEntity
  8
0
100
AcDbLine
 62
7
  6
CONTINUOUS
 10
158.7860755814
 20
123.53
 11
158.7860755814
 21
124.03
  0
LINE
  5
514
100
AcDbEntity
  8
0
100
AcDbLine
 62
7
  6
CONTINUOUS
 10
158.932742566
 20
86.53
 11
158.932742566
 21
86.03
  0
LINE
  5
515
100
AcDbEntity
  8
0
100
AcDbLine
 62
7
  6
CONTINUOUS
 10
159.5994085968
 20
86.53
 11
159.5994085968
 21
86.03
  0
LINE
  5
516
100
AcDbEntity
  8
0
100
AcDbLine
 62
7
  6
CONTINUOUS
 10
160.2660755814
 20
86.53
 11
160.2660755814
 21
86.03
  0
LINE
  5
517
100
AcDbEntity
  8
0
100
AcDbLine
 62
7
  6
CONTINUOUS
 10
160.932742566
 20
86.53
 11
160.932742566
 21
86.03
  0
LINE
  5
518
100
AcDbEntity
  8
0
100
AcDbLine
 62
7
  6
CONTINUOUS
 10
161.1860755814
 20
123.53
 11
161.1860755814
 21
124.03
  0
LINE
  5
519
100
AcDbEntity
  8
0
100
AcDbLine
 62
7
  6
CONTINUOUS
 10
161.432742566
 20
86.53
 11
161.432742566
 21
86.03
  0
LINE
  5
51A
100
AcDbEntity
  8
0
100
AcDbLine
 62
7
  6
CONTINUOUS
 10
107.8664905789
 20
96.3689361655
 11
108.4466284618
 21
96.815744662
  0
LINE
  5
51B
100
AcDbEntity
  8
0
100
AcDbLine
 62
7
  6
CONTINUOUS
 10
107.8978491179
 20
96.3689361655
 11
108.4779870008
 21
96.815744662
  0
LINE
  5
51C
100
AcDbEntity
  8
0
100
AcDbLine
 62
7
  6
CONTINUOUS
 10
120.0717612037
 20
111.7395746279
 11
120.5068645329
 21
112.0374469328
  0
LINE
  5
51D
100
AcDbEntity
  8
0
100
AcDbLine
 62
7
  6
CONTINUOUS
 10
120.1031197427
 20
111.7395746279
 11
120.5382230719
 21
112.0374469328
  0
LINE
  5
51E
100
AcDbEntity
  8
0
100
AcDbLine
 62
7
  6
CONTINUOUS
 10
122.8274150689
 20
107.4204255807
 11
122.3923117396
 21
107.1225531715
  0
LINE
  5
51F
100
AcDbEntity
  8
0
100
AcDbLine
 62
7
  6
CONTINUOUS
 10
109.6292804724
 20
109.5055319238
 11
110.2094185214
 21
109.8034042287
  0
LINE
  5
520
100
AcDbEntity
  8
0
100
AcDbLine
 62
7
  6
CONTINUOUS
 10
109.6606390114
 20
109.5055319238
 11
110.2407770603
 21
109.8034042287
  0
LINE
  5
521
100
AcDbEntity
  8
0
100
AcDbLine
 62
7
  6
CONTINUOUS
 10
120.3618289833
 20
112.9310638475
 11
119.7816917643
 21
112.6331915426
  0
LINE
  5
522
100
AcDbEntity
  8
0
100
AcDbLine
 62
7
  6
CONTINUOUS
 10
106.5901877011
 20
96.9646808666
 11
106.2421050377
 21
97.1136170191
  0
LINE
  5
523
100
AcDbEntity
  8
0
100
AcDbLine
 62
7
  6
CONTINUOUS
 10
110.2094185214
 20
112.4842553902
 11
109.6292804724
 21
112.9310638475
  0
LINE
  5
524
100
AcDbEntity
  8
0
100
AcDbLine
 62
7
  6
CONTINUOUS
 10
110.2407770603
 20
112.4842553902
 11
109.6606390114
 21
112.9310638475
  0
LINE
  5
525
100
AcDbEntity
  8
0
100
AcDbLine
 62
7
  6
CONTINUOUS
 10
116.8810023495
 20
112.4842553902
 11
116.3008651305
 21
112.9310638475
  0
LINE
  5
526
100
AcDbEntity
  8
0
100
AcDbLine
 62
7
  6
CONTINUOUS
 10
116.9123608885
 20
112.4842553902
 11
116.3322236695
 21
112.9310638475
  0
LINE
  5
527
100
AcDbEntity
  8
0
100
AcDbLine
 62
7
  6
CONTINUOUS
 10
161.7660755814
 20
86.53
 11
161.7660755814
 21
86.03
  0
LINE
  5
528
100
AcDbEntity
  8
0
100
AcDbLine
 62
7
  6
CONTINUOUS
 10
161.932742566
 20
86.5434059085
 11
161.932742566
 21
86.0431860437
  0
LINE
  5
529
100
AcDbEntity
  8
0
100
AcDbLine
 62
7
  6
CONTINUOUS
 10
162.932742566
 20
86.5434059085
 11
162.932742566
 21
86.0431860437
  0
LINE
  5
52A
100
AcDbEntity
  8
0
100
AcDbLine
 62
7
  6
CONTINUOUS
 10
164.2660755814
 20
86.5434059085
 11
164.2660755814
 21
86.0431860437
  0
LINE
  5
52B
100
AcDbEntity
  8
0
100
AcDbLine
 62
7
  6
CONTINUOUS
 10
165.5860755814
 20
123.53
 11
165.5860755814
 21
124.03
  0
LINE
  5
52C
100
AcDbEntity
  8
0
100
AcDbLine
 62
7
  6
CONTINUOUS
 10
168.2660755814
 20
86.5434059085
 11
168.2660755814
 21
86.0431860437
  0
LINE
  5
52D
100
AcDbEntity
  8
0
100
AcDbLine
 62
7
  6
CONTINUOUS
 10
169.0994095505
 20
86.5387990889
 11
169.0994095505
 21
86.0386548003
  0
LINE
  5
52E
100
AcDbEntity
  8
0
100
AcDbLine
 62
7
  6
CONTINUOUS
 10
169.7660755814
 20
86.5324849099
 11
169.7660755814
 21
86.0324441883
  0
LINE
  5
52F
100
AcDbEntity
  8
0
100
AcDbLine
 62
7
  6
CONTINUOUS
 10
170.4327416123
 20
86.53
 11
170.4327416123
 21
86.03
  0
LINE
  5
530
100
AcDbEntity
  8
0
100
AcDbLine
 62
7
  6
CONTINUOUS
 10
170.7660755814
 20
86.53
 11
170.7660755814
 21
86.03
  0
LINE
  5
531
100
AcDbEntity
  8
0
100
AcDbLine
 62
7
  6
CONTINUOUS
 10
170.9327416123
 20
86.53
 11
170.9327416123
 21
86.03
  0
LINE
  5
532
100
AcDbEntity
  8
0
100
AcDbLine
 62
7
  6
CONTINUOUS
 10
116.5909345699
 20
109.6544680762
 11
116.8810023495
 21
109.8034042287
  0
LINE
  5
533
100
AcDbEntity
  8
0
100
AcDbLine
 62
7
  6
CONTINUOUS
 10
116.6222931089
 20
109.6544680762
 11
116.9123608885
 21
109.8034042287
  0
LINE
  5
534
100
AcDbEntity
  8
0
100
AcDbLine
 62
7
  6
CONTINUOUS
 10
122.5373456294
 20
106.2289361655
 11
123.1174845083
 21
106.5268085095
  0
LINE
  5
535
100
AcDbEntity
  8
BEZUGSACHSEN
100
AcDbLine
 62
7
  6
CONTINUOUS
 10
140.8035809204
 20
123.0605236622
 11
140.8035216141
 21
123.0604968684
  0
LINE
  5
536
100
AcDbEntity
  8
BEZUGSACHSEN
100
AcDbLine
 62
7
  6
CONTINUOUS
 10
140.8550072652
 20
123.0834006243
 11
140.8033929005
 21
123.0604387974
  0
LINE
  5
537
100
AcDbEntity
  8
0
100
AcDbLine
 62
7
  6
CONTINUOUS
 10
106.2421050377
 20
102.3263830853
 11
106.5901877011
 21
102.4753192377
  0
LWPOLYLINE
  5
538
100
AcDbEntity
  8
BEZUGSACHSEN
100
AcDbPolyline
 62
7
  6
CONTINUOUS
 90
7
 70
0
 10
140.8034545262
 20
123.0604585085
 10
140.5782636053
 20
122.9643377989
 10
140.118108207
 20
122.8003980568
 10
139.6460270066
 20
122.6744429286
 10
139.1651847772
 20
122.5873380224
 10
138.6788080866
 20
122.5396806167
 10
138.3378387431
 20
122.5299765258
  0
LINE
  5
539
100
AcDbEntity
  8
0
100
AcDbLine
 62
7
  6
CONTINUOUS
 10
111.4633446565
 20
96.517872331
 11
111.8114273198
 21
96.3689361655
  0
LINE
  5
53A
100
AcDbEntity
  8
0
100
AcDbLine
 62
7
  6
CONTINUOUS
 10
107.4023804717
 20
99.9434042287
 11
107.7504631351
 21
99.7944680762
  0
LINE
  5
53B
100
AcDbEntity
  8
0
100
AcDbLine
 62
7
  6
CONTINUOUS
 10
107.2863530279
 20
102.4753192377
 11
107.6344356913
 21
102.3263830853
  0
LWPOLYLINE
  5
53C
100
AcDbEntity
  8
RUNDUNGEN
100
AcDbPolyline
 62
7
  6
CONTINUOUS
 90
7
 70
0
 10
140.565902046
 20
87.1006267275
 10
140.9759419355
 20
86.9253258025
 10
141.4217320628
 20
86.7655154835
 10
141.8824569931
 20
86.645564732
 10
142.3529964295
 20
86.5674507209
 10
142.8278786599
 20
86.5321997831
 10
142.9754763016
 20
86.5300049501
  0
LINE
  5
53D
100
AcDbEntity
  8
RUNDUNGEN
100
AcDbLine
 62
7
  6
CONTINUOUS
 10
140.8035806602
 20
86.9994764552
 11
140.8034649424
 21
86.9995288138
  0
LINE
  5
53E
100
AcDbEntity
  8
0
100
AcDbLine
 62
7
  6
CONTINUOUS
 10
116.8810023495
 20
109.5055319238
 11
116.5909345699
 21
109.6544680762
  0
LINE
  5
53F
100
AcDbEntity
  8
0
100
AcDbLine
 62
7
  6
CONTINUOUS
 10
116.9123608885
 20
109.5055319238
 11
116.6222931089
 21
109.6544680762
  0
LINE
  5
540
100
AcDbEntity
  8
0
100
AcDbLine
 62
7
  6
CONTINUOUS
 10
119.2015545452
 20
106.675744662
 11
119.9267256541
 21
106.2289361655
  0
LINE
  5
541
100
AcDbEntity
  8
0
100
AcDbLine
 62
7
  6
CONTINUOUS
 10
120.5068645329
 20
110.2502126861
 11
120.0717612037
 21
110.548084991
  0
LINE
  5
542
100
AcDbEntity
  8
0
100
AcDbLine
 62
7
  6
CONTINUOUS
 10
120.5382230719
 20
110.2502126861
 11
120.1031197427
 21
110.548084991
  0
LINE
  5
543
100
AcDbEntity
  8
0
100
AcDbLine
 62
7
  6
CONTINUOUS
 10
122.3923117396
 20
109.0587234664
 11
122.8274150689
 21
108.7608511615
  0
LINE
  5
544
100
AcDbEntity
  8
0
100
AcDbLine
 62
7
  6
CONTINUOUS
 10
122.9724489587
 20
112.4842553902
 11
122.3923117396
 21
112.9310638475
  0
LINE
  5
545
100
AcDbEntity
  8
0
100
AcDbLine
 62
7
  6
CONTINUOUS
 10
123.0038074976
 20
112.4842553902
 11
122.4236702786
 21
112.9310638475
  0
LINE
  5
546
100
AcDbEntity
  8
BEZUGSACHSEN
100
AcDbLine
 62
7
  6
CONTINUOUS
 10
179.1860755814
 20
123.53
 11
179.1860755814
 21
121.53
  0
LINE
  5
547
100
AcDbEntity
  8
0
100
AcDbLine
 62
7
  6
CONTINUOUS
 10
179.1860755814
 20
86.53
 11
179.1860755814
 21
88.53
  0
LINE
  5
548
100
AcDbEntity
  8
0
100
AcDbLine
 62
7
  6
CONTINUOUS
 10
106.2421050377
 20
99.7944680762
 11
106.5901877011
 21
99.9434042287
  0
LINE
  5
549
100
AcDbEntity
  8
0
100
AcDbLine
 62
7
  6
CONTINUOUS
 10
107.7504631351
 20
97.1136170191
 11
107.4023804717
 21
96.9646808666
  0
LINE
  5
54A
100
AcDbEntity
  8
0
100
AcDbLine
 62
7
  6
CONTINUOUS
 10
109.4842465826
 20
110.2502126861
 11
109.0491432534
 21
110.1012765336
  0
LINE
  5
54B
100
AcDbEntity
  8
0
100
AcDbLine
 62
7
  6
CONTINUOUS
 10
120.5068645329
 20
112.0374469328
 11
120.9419678621
 21
112.1863830853
  0
LINE
  5
54C
100
AcDbEntity
  8
0
100
AcDbLine
 62
7
  6
CONTINUOUS
 10
120.5382230719
 20
112.0374469328
 11
120.945256773
 21
112.1767748333
  0
LINE
  5
54D
100
AcDbEntity
  8
0
100
AcDbLine
 62
7
  6
CONTINUOUS
 10
116.1558312407
 20
110.2502126861
 11
115.7207279115
 21
110.1012765336
  0
LINE
  5
54E
100
AcDbEntity
  8
0
100
AcDbLine
 62
7
  6
CONTINUOUS
 10
116.1558312407
 20
107.1225531715
 11
115.7207279115
 21
106.9736170191
  0
LINE
  5
54F
100
AcDbEntity
  8
0
100
AcDbLine
 62
7
  6
CONTINUOUS
 10
297.4301833006
 20
96.98
 11
298.0103221795
 21
97.1289361525
  0
LINE
  5
550
100
AcDbEntity
  8
0
100
AcDbLine
 62
7
  6
CONTINUOUS
 10
111.8114273198
 20
96.3689361655
 11
112.5075926466
 21
96.22
  0
LINE
  5
551
100
AcDbEntity
  8
0
100
AcDbLine
 62
7
  6
CONTINUOUS
 10
106.126077262
 20
96.3689361655
 11
106.7062151449
 21
96.22
  0
LINE
  5
552
100
AcDbEntity
  8
0
100
AcDbLine
 62
7
  6
CONTINUOUS
 10
112.5075926466
 20
96.815744662
 11
111.9274550956
 21
96.9646808666
  0
LINE
  5
553
100
AcDbEntity
  8
0
100
AcDbLine
 62
7
  6
CONTINUOUS
 10
112.5389511856
 20
96.815744662
 11
111.9588136346
 21
96.9646808666
  0
LINE
  5
554
100
AcDbEntity
  8
0
100
AcDbLine
 62
7
  6
CONTINUOUS
 10
107.8664905789
 20
100.5391488385
 11
107.2863530279
 21
100.688084991
  0
LINE
  5
555
100
AcDbEntity
  8
0
100
AcDbLine
 62
7
  6
CONTINUOUS
 10
107.8978491179
 20
100.5391488385
 11
107.3177115669
 21
100.688084991
  0
LINE
  5
556
100
AcDbEntity
  8
0
100
AcDbLine
 62
7
  6
CONTINUOUS
 10
119.7816917643
 20
109.6544680762
 11
120.3618289833
 21
109.3565957713
  0
LINE
  5
557
100
AcDbEntity
  8
0
100
AcDbLine
 62
7
  6
CONTINUOUS
 10
123.1174845083
 20
109.6544680762
 11
122.5373456294
 21
109.9523403811
  0
LINE
  5
558
100
AcDbEntity
  8
0
100
AcDbLine
 62
7
  6
CONTINUOUS
 10
123.1488430472
 20
109.6544680762
 11
122.5687041684
 21
109.9523403811
  0
LINE
  5
559
100
AcDbEntity
  8
0
100
AcDbLine
 62
7
  6
CONTINUOUS
 10
311.6659360179
 20
106.84
 11
312.2460739008
 21
106.9889361525
  0
LINE
  5
55A
100
AcDbEntity
  8
0
100
AcDbLine
 62
7
  6
CONTINUOUS
 10
295.9798394232
 20
102.9374468285
 11
296.5599766422
 21
103.0863829809
  0
LINE
  5
55B
100
AcDbEntity
  8
0
100
AcDbLine
 62
7
  6
CONTINUOUS
 10
311.6659360179
 20
109.371915009
 11
312.2460739008
 21
109.5208511615
  0
LINE
  5
55C
100
AcDbEntity
  8
0
100
AcDbLine
 62
7
  6
CONTINUOUS
 10
302.7964588009
 20
103.98
 11
302.0712860323
 21
103.8310638345
  0
LINE
  5
55D
100
AcDbEntity
  8
0
100
AcDbLine
 62
7
  6
CONTINUOUS
 10
302.7651002619
 20
103.98
 11
302.0399274933
 21
103.8310638345
  0
LINE
  5
55E
100
AcDbEntity
  8
0
100
AcDbLine
 62
7
  6
CONTINUOUS
 10
296.5599766422
 20
103.98
 11
295.8348055334
 21
103.8310638345
  0
LWPOLYLINE
  5
55F
100
AcDbEntity
  8
RUNDUNGEN
100
AcDbPolyline
 62
7
  6
CONTINUOUS
 90
6
 70
0
 10
275.3964944749
 20
86.5300047896
 10
275.5666377968
 20
86.53289351
 10
276.0369251307
 20
86.5696112773
 10
276.5027907931
 20
86.6483693181
 10
276.9589126924
 20
86.7681473624
 10
277.4003118798
 20
86.9270079827
  0
LINE
  5
560
100
AcDbEntity
  8
0
100
AcDbLine
 62
7
  6
CONTINUOUS
 10
170.9327416123
 20
86.03
 11
170.1441508033
 21
86.03
  0
LINE
  5
561
100
AcDbEntity
  8
0
100
AcDbLine
 62
7
  6
CONTINUOUS
 10
169.7660755814
 20
86.03
 11
164.2660755814
 21
86.03
  0
LINE
  5
562
100
AcDbEntity
  8
0
100
AcDbLine
 62
7
  6
CONTINUOUS
 10
162.932742566
 20
86.03
 11
156.9327420891
 21
86.03
  0
LINE
  5
563
100
AcDbEntity
  8
0
100
AcDbLine
 62
7
  6
CONTINUOUS
 10
155.5994090737
 20
86.03
 11
154.9246322682
 21
86.03
  0
LINE
  5
564
100
AcDbEntity
  8
0
100
AcDbLine
 62
7
  6
CONTINUOUS
 10
154.0994090737
 20
86.03
 11
149.2660755814
 21
86.03
  0
LINE
  5
565
100
AcDbEntity
  8
0
100
AcDbLine
 62
7
  6
CONTINUOUS
 10
168.2660755814
 20
86.0431860437
 11
164.2660755814
 21
86.0431860437
  0
LINE
  5
566
100
AcDbEntity
  8
0
100
AcDbLine
 62
7
  6
CONTINUOUS
 10
162.932742566
 20
86.0431860437
 11
161.932742566
 21
86.0431860437
  0
LINE
  5
567
100
AcDbEntity
  8
0
100
AcDbLine
 62
7
  6
CONTINUOUS
 10
157.932742566
 20
86.0431860437
 11
156.9327420891
 21
86.0431860437
  0
LINE
  5
568
100
AcDbEntity
  8
0
100
AcDbLine
 62
7
  6
CONTINUOUS
 10
153.2660755814
 20
86.0431860437
 11
149.2660755814
 21
86.0431860437
  0
LINE
  5
569
100
AcDbEntity
  8
0
100
AcDbLine
 62
7
  6
CONTINUOUS
 10
273.5296129907
 20
86.53
 11
239.1860755814
 21
86.53
  0
LINE
  5
56A
100
AcDbEntity
  8
RUNDUNGEN
100
AcDbLine
 62
7
  6
CONTINUOUS
 10
275.3964944774
 20
86.530001852
 11
239.1860755814
 21
86.53
  0
LINE
  5
56B
100
AcDbEntity
  8
0
100
AcDbLine
 62
7
  6
CONTINUOUS
 10
179.1860755814
 20
86.53
 11
170.1441508033
 21
86.53
  0
LINE
  5
56C
100
AcDbEntity
  8
RUNDUNGEN
100
AcDbLine
 62
7
  6
CONTINUOUS
 10
179.1860755814
 20
86.53
 11
170.1441508033
 21
86.53
  0
LINE
  5
56D
100
AcDbEntity
  8
0
100
AcDbLine
 62
7
  6
CONTINUOUS
 10
164.2660755814
 20
86.53
 11
162.932742566
 21
86.53
  0
LINE
  5
56E
100
AcDbEntity
  8
RUNDUNGEN
100
AcDbLine
 62
7
  6
CONTINUOUS
 10
164.2660755814
 20
86.53
 11
162.932742566
 21
86.53
  0
LINE
  5
56F
100
AcDbEntity
  8
0
100
AcDbLine
 62
7
  6
CONTINUOUS
 10
161.932742566
 20
86.53
 11
157.932742566
 21
86.53
  0
LINE
  5
570
100
AcDbEntity
  8
RUNDUNGEN
100
AcDbLine
 62
7
  6
CONTINUOUS
 10
161.932742566
 20
86.53
 11
157.932742566
 21
86.53
  0
LINE
  5
571
100
AcDbEntity
  8
0
100
AcDbLine
 62
7
  6
CONTINUOUS
 10
156.9327420891
 20
86.53
 11
154.9246322682
 21
86.53
  0
LINE
  5
572
100
AcDbEntity
  8
RUNDUNGEN
100
AcDbLine
 62
7
  6
CONTINUOUS
 10
156.9327420891
 20
86.53
 11
154.9246322682
 21
86.53
  0
LINE
  5
573
100
AcDbEntity
  8
0
100
AcDbLine
 62
7
  6
CONTINUOUS
 10
149.2660755814
 20
86.53
 11
144.8425381723
 21
86.53
  0
LINE
  5
574
100
AcDbEntity
  8
0
100
AcDbLine
 62
7
  6
CONTINUOUS
 10
168.2660755814
 20
86.5434059085
 11
164.2660755814
 21
86.5434059085
  0
LINE
  5
575
100
AcDbEntity
  8
0
100
AcDbLine
 62
7
  6
CONTINUOUS
 10
162.932742566
 20
86.5434059085
 11
161.932742566
 21
86.5434059085
  0
LINE
  5
576
100
AcDbEntity
  8
0
100
AcDbLine
 62
7
  6
CONTINUOUS
 10
157.932742566
 20
86.5434059085
 11
156.9327420891
 21
86.5434059085
  0
LINE
  5
577
100
AcDbEntity
  8
0
100
AcDbLine
 62
7
  6
CONTINUOUS
 10
153.2660755814
 20
86.5434059085
 11
149.2660755814
 21
86.5434059085
  0
LINE
  5
578
100
AcDbEntity
  8
RUNDUNGEN
100
AcDbLine
 62
7
  6
CONTINUOUS
 10
149.2660755814
 20
86.53
 11
142.975476299
 21
86.5300020121
  0
LWPOLYLINE
  5
579
100
AcDbEntity
  8
RUNDUNGEN
100
AcDbPolyline
 62
7
  6
CONTINUOUS
 90
6
 70
0
 10
138.3378388497
 20
87.5300234743
 10
138.6655059235
 20
87.5210623236
 10
139.1519858513
 20
87.47448607
 10
139.6330201647
 20
87.3884501188
 10
140.1053810996
 20
87.2635442657
 10
140.565902046
 20
87.1006267275
  0
LINE
  5
57A
100
AcDbEntity
  8
0
100
AcDbLine
 62
7
  6
CONTINUOUS
 10
107.7504631351
 20
103.0710638475
 11
107.1703252521
 21
103.22
  0
LINE
  5
57B
100
AcDbEntity
  8
0
100
AcDbLine
 62
7
  6
CONTINUOUS
 10
107.781821674
 20
103.0710638475
 11
107.2016837911
 21
103.22
  0
LINE
  5
57C
100
AcDbEntity
  8
0
100
AcDbLine
 62
7
  6
CONTINUOUS
 10
120.6518984227
 20
106.9736170191
 11
120.0717612037
 21
107.1225531715
  0
LINE
  5
57D
100
AcDbEntity
  8
0
100
AcDbLine
 62
7
  6
CONTINUOUS
 10
115.7207279115
 20
109.2076596189
 11
116.1558312407
 21
109.0587234664
  0
LINE
  5
57E
100
AcDbEntity
  8
0
100
AcDbLine
 62
7
  6
CONTINUOUS
 10
109.0491432534
 20
112.3353192377
 11
109.4842465826
 21
112.1863830853
  0
LINE
  5
57F
100
AcDbEntity
  8
0
100
AcDbLine
 62
7
  6
CONTINUOUS
 10
120.9419678621
 20
110.1012765336
 11
120.5068645329
 21
110.2502126861
  0
LINE
  5
580
100
AcDbEntity
  8
0
100
AcDbLine
 62
7
  6
CONTINUOUS
 10
115.7207279115
 20
112.1863830853
 11
116.1558312407
 21
112.0374469328
  0
LINE
  5
581
100
AcDbEntity
  8
0
100
AcDbLine
 62
7
  6
CONTINUOUS
 10
121.8121745206
 20
112.1863830853
 11
122.2472778498
 21
112.0374469328
  0
LINE
  5
582
100
AcDbEntity
  8
0
100
AcDbLine
 62
7
  6
CONTINUOUS
 10
198.7162857188
 20
121.53
 11
198.7162857188
 21
122.03
  0
LINE
  5
583
100
AcDbEntity
  8
0
100
AcDbLine
 62
7
  6
CONTINUOUS
 10
198.7162861807
 20
88.53
 11
198.7162861807
 21
88.03
  0
LINE
  5
584
100
AcDbEntity
  8
0
100
AcDbLine
 62
7
  6
CONTINUOUS
 10
200.0455461872
 20
121.53
 11
200.0455461872
 21
122.03
  0
LINE
  5
585
100
AcDbEntity
  8
0
100
AcDbLine
 62
7
  6
CONTINUOUS
 10
311.0857981349
 20
113.84
 11
310.5056605839
 21
113.6910638345
  0
LINE
  5
586
100
AcDbEntity
  8
0
100
AcDbLine
 62
7
  6
CONTINUOUS
 10
311.0544395959
 20
113.84
 11
310.4743020449
 21
113.6910638345
  0
LINE
  5
587
100
AcDbEntity
  8
BEZUGSACHSEN
100
AcDbLine
 62
7
  6
CONTINUOUS
 10
134.6860755814
 20
87.53
 11
138.3405698471
 21
87.53
  0
LINE
  5
588
100
AcDbEntity
  8
BEZUGSACHSEN
100
AcDbLine
 62
7
  6
CONTINUOUS
 10
280.0315814437
 20
87.53
 11
283.6860755814
 21
87.53
  0
LINE
  5
589
100
AcDbEntity
  8
0
100
AcDbLine
 62
7
  6
CONTINUOUS
 10
219.655865444
 20
88.03
 11
215.0781331194
 21
88.03
  0
LINE
  5
58A
100
AcDbEntity
  8
0
100
AcDbLine
 62
7
  6
CONTINUOUS
 10
214.1297285689
 20
88.03
 11
206.744120611
 21
88.03
  0
LINE
  5
58B
100
AcDbEntity
  8
0
100
AcDbLine
 62
7
  6
CONTINUOUS
 10
203.294018997
 20
88.03
 11
198.7162861807
 21
88.03
  0
LINE
  5
58C
100
AcDbEntity
  8
0
100
AcDbLine
 62
7
  6
CONTINUOUS
 10
179.1860755814
 20
88.53
 11
239.1860755814
 21
88.53
  0
LINE
  5
58D
100
AcDbEntity
  8
RUNDUNGEN
100
AcDbLine
 62
7
  6
CONTINUOUS
 10
277.0175262348
 20
89.03
 11
141.3553394455
 21
89.03
  0
LINE
  5
58E
100
AcDbEntity
  8
0
100
AcDbLine
 62
7
  6
CONTINUOUS
 10
112.5389511856
 20
96.22
 11
112.5075926466
 21
96.22
  0
LINE
  5
58F
100
AcDbEntity
  8
0
100
AcDbLine
 62
7
  6
CONTINUOUS
 10
103.2253885111
 20
96.22
 11
103.9529123769
 21
96.22
  0
LINE
  5
590
100
AcDbEntity
  8
0
100
AcDbLine
 62
7
  6
CONTINUOUS
 10
106.7062151449
 20
96.22
 11
107.2863530279
 21
96.22
  0
LINE
  5
591
100
AcDbEntity
  8
0
100
AcDbLine
 62
7
  6
CONTINUOUS
 10
107.8978491179
 20
96.3689361655
 11
107.8664905789
 21
96.3689361655
  0
LINE
  5
592
100
AcDbEntity
  8
0
100
AcDbLine
 62
7
  6
CONTINUOUS
 10
119.9267256541
 20
106.2289361655
 11
120.6518984227
 21
106.08
  0
LINE
  5
593
100
AcDbEntity
  8
0
100
AcDbLine
 62
7
  6
CONTINUOUS
 10
122.5373456294
 20
109.9523403811
 11
121.8121745206
 21
110.1012765336
  0
LINE
  5
594
100
AcDbEntity
  8
0
100
AcDbLine
 62
7
  6
CONTINUOUS
 10
122.5687041684
 20
109.9523403811
 11
121.8435330596
 21
110.1012765336
  0
LINE
  5
595
100
AcDbEntity
  8
0
100
AcDbLine
 62
7
  6
CONTINUOUS
 10
109.6292804724
 20
112.9310638475
 11
108.9041085337
 21
113.08
  0
LINE
  5
596
100
AcDbEntity
  8
0
100
AcDbLine
 62
7
  6
CONTINUOUS
 10
109.6606390114
 20
112.9310638475
 11
108.9354670727
 21
113.08
  0
LINE
  5
597
100
AcDbEntity
  8
0
100
AcDbLine
 62
7
  6
CONTINUOUS
 10
116.3008651305
 20
112.9310638475
 11
115.5756923619
 21
113.08
  0
LINE
  5
598
100
AcDbEntity
  8
0
100
AcDbLine
 62
7
  6
CONTINUOUS
 10
116.3322236695
 20
112.9310638475
 11
115.6070509008
 21
113.08
  0
LINE
  5
599
100
AcDbEntity
  8
0
100
AcDbLine
 62
7
  6
CONTINUOUS
 10
122.3923117396
 20
112.9310638475
 11
121.667138971
 21
113.08
  0
LINE
  5
59A
100
AcDbEntity
  8
0
100
AcDbLine
 62
7
  6
CONTINUOUS
 10
122.4236702786
 20
112.9310638475
 11
121.69849751
 21
113.08
  0
LINE
  5
59B
100
AcDbEntity
  8
0
100
AcDbLine
 62
7
  6
CONTINUOUS
 10
120.3618289833
 20
109.3565957713
 11
120.9419678621
 21
109.2076596189
  0
LINE
  5
59C
100
AcDbEntity
  8
0
100
AcDbLine
 62
7
  6
CONTINUOUS
 10
121.8121745206
 20
109.2076596189
 11
122.3923117396
 21
109.0587234664
  0
LINE
  5
59D
100
AcDbEntity
  8
0
100
AcDbLine
 62
7
  6
CONTINUOUS
 10
201.6436452103
 20
88.53
 11
201.6436452103
 21
88.03
  0
LINE
  5
59E
100
AcDbEntity
  8
0
100
AcDbLine
 62
7
  6
CONTINUOUS
 10
202.1813230646
 20
121.53
 11
202.1813230646
 21
122.03
  0
LINE
  5
59F
100
AcDbEntity
  8
0
100
AcDbLine
 62
7
  6
CONTINUOUS
 10
203.2940180434
 20
121.53
 11
203.2940180434
 21
122.03
  0
LINE
  5
5A0
100
AcDbEntity
  8
0
100
AcDbLine
 62
7
  6
CONTINUOUS
 10
203.294018997
 20
88.53
 11
203.294018997
 21
88.03
  0
LINE
  5
5A1
100
AcDbEntity
  8
0
100
AcDbLine
 62
7
  6
CONTINUOUS
 10
204.2424225939
 20
121.53
 11
204.2424225939
 21
122.03
  0
LINE
  5
5A2
100
AcDbEntity
  8
0
100
AcDbLine
 62
7
  6
CONTINUOUS
 10
204.4515202177
 20
121.53
 11
204.4515202177
 21
122.03
  0
LINE
  5
5A3
100
AcDbEntity
  8
0
100
AcDbLine
 62
7
  6
CONTINUOUS
 10
206.744120611
 20
88.53
 11
206.744120611
 21
88.03
  0
LINE
  5
5A4
100
AcDbEntity
  8
0
100
AcDbLine
 62
7
  6
CONTINUOUS
 10
112.5389511856
 20
96.815744662
 11
112.5075926466
 21
96.815744662
  0
LINE
  5
5A5
100
AcDbEntity
  8
0
100
AcDbLine
 62
7
  6
CONTINUOUS
 10
108.4779870008
 20
96.815744662
 11
108.4466284618
 21
96.815744662
  0
LINE
  5
5A6
100
AcDbEntity
  8
0
100
AcDbLine
 62
7
  6
CONTINUOUS
 10
111.9588136346
 20
96.9646808666
 11
111.9274550956
 21
96.9646808666
  0
LINE
  5
5A7
100
AcDbEntity
  8
0
100
AcDbLine
 62
7
  6
CONTINUOUS
 10
107.4023804717
 20
96.9646808666
 11
106.5901877011
 21
96.9646808666
  0
LINE
  5
5A8
100
AcDbEntity
  8
0
100
AcDbLine
 62
7
  6
CONTINUOUS
 10
296.7050121918
 20
96.98
 11
297.4301833006
 21
96.98
  0
LINE
  5
5A9
100
AcDbEntity
  8
0
100
AcDbLine
 62
7
  6
CONTINUOUS
 10
302.7964588009
 20
96.98
 11
306.2772846048
 21
96.98
  0
LINE
  5
5AA
100
AcDbEntity
  8
0
100
AcDbLine
 62
7
  6
CONTINUOUS
 10
309.4680426291
 20
96.98
 11
312.9488692629
 21
96.98
  0
LINE
  5
5AB
100
AcDbEntity
  8
0
100
AcDbLine
 62
7
  6
CONTINUOUS
 10
314.0777864068
 20
96.98
 11
314.9793516042
 21
96.98
  0
LINE
  5
5AC
100
AcDbEntity
  8
0
100
AcDbLine
 62
7
  6
CONTINUOUS
 10
319.008957333
 20
96.98
 11
319.9105225305
 21
96.98
  0
LINE
  5
5AD
100
AcDbEntity
  8
0
100
AcDbLine
 62
7
  6
CONTINUOUS
 10
106.2734635767
 20
97.1136170191
 11
106.2421050377
 21
97.1136170191
  0
LINE
  5
5AE
100
AcDbEntity
  8
0
100
AcDbLine
 62
7
  6
CONTINUOUS
 10
295.9484808842
 20
97.1289361525
 11
295.9798394232
 21
97.1289361525
  0
LINE
  5
5AF
100
AcDbEntity
  8
0
100
AcDbLine
 62
7
  6
CONTINUOUS
 10
302.0399274933
 20
97.1289361525
 11
302.0712860323
 21
97.1289361525
  0
LINE
  5
5B0
100
AcDbEntity
  8
0
100
AcDbLine
 62
7
  6
CONTINUOUS
 10
308.7115121514
 20
97.1289361525
 11
308.7428706904
 21
97.1289361525
  0
LINE
  5
5B1
100
AcDbEntity
  8
0
100
AcDbLine
 62
7
  6
CONTINUOUS
 10
111.6107309712
 20
97.2625531715
 11
111.5793724322
 21
97.2625531715
  0
LINE
  5
5B2
100
AcDbEntity
  8
0
100
AcDbLine
 62
7
  6
CONTINUOUS
 10
108.8260696642
 20
97.411489324
 11
108.7947111252
 21
97.411489324
  0
LINE
  5
5B3
100
AcDbEntity
  8
0
100
AcDbLine
 62
7
  6
CONTINUOUS
 10
105.9253809133
 20
97.411489324
 11
105.8940223744
 21
97.411489324
  0
LINE
  5
5B4
100
AcDbEntity
  8
0
100
AcDbLine
 62
7
  6
CONTINUOUS
 10
295.3683436651
 20
97.5757446098
 11
295.3997022041
 21
97.5757446098
  0
LINE
  5
5B5
100
AcDbEntity
  8
0
100
AcDbLine
 62
7
  6
CONTINUOUS
 10
301.4597902743
 20
97.5757446098
 11
301.4911488133
 21
97.5757446098
  0
LINE
  5
5B6
100
AcDbEntity
  8
0
100
AcDbLine
 62
7
  6
CONTINUOUS
 10
308.1313741024
 20
97.5757446098
 11
308.1627326414
 21
97.5757446098
  0
LINE
  5
5B7
100
AcDbEntity
  8
0
100
AcDbLine
 62
7
  6
CONTINUOUS
 10
111.4947031955
 20
97.7093617332
 11
111.4633446565
 21
97.7093617332
  0
LINE
  5
5B8
100
AcDbEntity
  8
0
100
AcDbLine
 62
7
  6
CONTINUOUS
 10
312.0786626044
 20
97.7246807623
 11
309.3230079094
 21
97.7246807623
  0
LINE
  5
5B9
100
AcDbEntity
  8
0
100
AcDbLine
 62
7
  6
CONTINUOUS
 10
105.6933256938
 20
97.8582978857
 11
105.6619671548
 21
97.8582978857
  0
LINE
  5
5BA
100
AcDbEntity
  8
0
100
AcDbLine
 62
7
  6
CONTINUOUS
 10
305.4070787763
 20
97.8736169147
 11
302.6514232513
 21
97.8736169147
  0
LINE
  5
5BB
100
AcDbEntity
  8
0
100
AcDbLine
 62
7
  6
CONTINUOUS
 10
297.4301833006
 20
97.8736169147
 11
296.5599766422
 21
97.8736169147
  0
LINE
  5
5BC
100
AcDbEntity
  8
0
100
AcDbLine
 62
7
  6
CONTINUOUS
 10
297.8339280909
 20
98.0225530672
 11
297.8652866299
 21
98.0225530672
  0
LINE
  5
5BD
100
AcDbEntity
  8
0
100
AcDbLine
 62
7
  6
CONTINUOUS
 10
109.0581245518
 20
98.1561701906
 11
109.0267660128
 21
98.1561701906
  0
LINE
  5
5BE
100
AcDbEntity
  8
0
100
AcDbLine
 62
7
  6
CONTINUOUS
 10
294.9332403359
 20
98.1714892197
 11
294.9645988749
 21
98.1714892197
  0
LINE
  5
5BF
100
AcDbEntity
  8
0
100
AcDbLine
 62
7
  6
CONTINUOUS
 10
301.0246869451
 20
98.1714892197
 11
301.056045484
 21
98.1714892197
  0
LINE
  5
5C0
100
AcDbEntity
  8
0
100
AcDbLine
 62
7
  6
CONTINUOUS
 10
307.6962707732
 20
98.1714892197
 11
307.7276293122
 21
98.1714892197
  0
LINE
  5
5C1
100
AcDbEntity
  8
0
100
AcDbLine
 62
7
  6
CONTINUOUS
 10
105.57729825
 20
98.305106343
 11
105.545939711
 21
98.305106343
  0
LINE
  5
5C2
100
AcDbEntity
  8
0
100
AcDbLine
 62
7
  6
CONTINUOUS
 10
298.2690314201
 20
98.3204253721
 11
298.3003899591
 21
98.3204253721
  0
LINE
  5
5C3
100
AcDbEntity
  8
0
100
AcDbLine
 62
7
  6
CONTINUOUS
 10
294.7882047863
 20
98.618297677
 11
295.6897699838
 21
98.618297677
  0
LINE
  5
5C4
100
AcDbEntity
  8
0
100
AcDbLine
 62
7
  6
CONTINUOUS
 10
300.8796513955
 20
98.618297677
 11
300.9110099344
 21
98.618297677
  0
LINE
  5
5C5
100
AcDbEntity
  8
0
100
AcDbLine
 62
7
  6
CONTINUOUS
 10
307.5512360535
 20
98.618297677
 11
307.5825945925
 21
98.618297677
  0
LINE
  5
5C6
100
AcDbEntity
  8
0
100
AcDbLine
 62
7
  6
CONTINUOUS
 10
105.57729825
 20
98.7519148004
 11
105.545939711
 21
98.7519148004
  0
LINE
  5
5C7
100
AcDbEntity
  8
0
100
AcDbLine
 62
7
  6
CONTINUOUS
 10
298.4140669697
 20
98.7672342467
 11
298.4454255087
 21
98.7672342467
  0
LINE
  5
5C8
100
AcDbEntity
  8
0
100
AcDbLine
 62
7
  6
CONTINUOUS
 10
109.0581245518
 20
98.9008511615
 11
109.0267660128
 21
98.9008511615
  0
LINE
  5
5C9
100
AcDbEntity
  8
0
100
AcDbLine
 62
7
  6
CONTINUOUS
 10
298.4140669697
 20
99.0651065516
 11
298.4454255087
 21
99.0651065516
  0
LINE
  5
5CA
100
AcDbEntity
  8
0
100
AcDbLine
 62
7
  6
CONTINUOUS
 10
105.6933256938
 20
99.1987234664
 11
105.6619671548
 21
99.1987234664
  0
LINE
  5
5CB
100
AcDbEntity
  8
0
100
AcDbLine
 62
7
  6
CONTINUOUS
 10
300.8796513955
 20
99.2140427041
 11
300.9110099344
 21
99.2140427041
  0
LINE
  5
5CC
100
AcDbEntity
  8
0
100
AcDbLine
 62
7
  6
CONTINUOUS
 10
307.5512360535
 20
99.2140427041
 11
307.5825945925
 21
99.2140427041
  0
LINE
  5
5CD
100
AcDbEntity
  8
0
100
AcDbLine
 62
7
  6
CONTINUOUS
 10
105.9253809133
 20
99.4965957713
 11
105.8940223744
 21
99.4965957713
  0
LINE
  5
5CE
100
AcDbEntity
  8
0
100
AcDbLine
 62
7
  6
CONTINUOUS
 10
298.2690314201
 20
99.511915009
 11
298.3003899591
 21
99.511915009
  0
LINE
  5
5CF
100
AcDbEntity
  8
0
100
AcDbLine
 62
7
  6
CONTINUOUS
 10
108.8260696642
 20
99.6455319238
 11
108.7947111252
 21
99.6455319238
  0
LINE
  5
5D0
100
AcDbEntity
  8
0
100
AcDbLine
 62
7
  6
CONTINUOUS
 10
301.0246869451
 20
99.6608511615
 11
301.056045484
 21
99.6608511615
  0
LINE
  5
5D1
100
AcDbEntity
  8
0
100
AcDbLine
 62
7
  6
CONTINUOUS
 10
307.6962707732
 20
99.6608511615
 11
307.7276293122
 21
99.6608511615
  0
LINE
  5
5D2
100
AcDbEntity
  8
0
100
AcDbLine
 62
7
  6
CONTINUOUS
 10
106.2734635767
 20
99.7944680762
 11
106.2421050377
 21
99.7944680762
  0
LINE
  5
5D3
100
AcDbEntity
  8
0
100
AcDbLine
 62
7
  6
CONTINUOUS
 10
297.8339280909
 20
99.8097873139
 11
297.8652866299
 21
99.8097873139
  0
LINE
  5
5D4
100
AcDbEntity
  8
0
100
AcDbLine
 62
7
  6
CONTINUOUS
 10
106.5901877011
 20
99.9434042287
 11
107.4023804717
 21
99.9434042287
  0
LINE
  5
5D5
100
AcDbEntity
  8
0
100
AcDbLine
 62
7
  6
CONTINUOUS
 10
296.5599766422
 20
99.9587234664
 11
297.4301833006
 21
99.9587234664
  0
LINE
  5
5D6
100
AcDbEntity
  8
0
100
AcDbLine
 62
7
  6
CONTINUOUS
 10
302.6514232513
 20
99.9587234664
 11
305.4070787763
 21
99.9587234664
  0
LINE
  5
5D7
100
AcDbEntity
  8
0
100
AcDbLine
 62
7
  6
CONTINUOUS
 10
309.3230079094
 20
99.9587234664
 11
312.0786626044
 21
99.9587234664
  0
LINE
  5
5D8
100
AcDbEntity
  8
0
100
AcDbLine
 62
7
  6
CONTINUOUS
 10
108.4779870008
 20
100.0923403811
 11
108.4466284618
 21
100.0923403811
  0
LINE
  5
5D9
100
AcDbEntity
  8
0
100
AcDbLine
 62
7
  6
CONTINUOUS
 10
295.8034469944
 20
100.1076596189
 11
295.8348055334
 21
100.1076596189
  0
LINE
  5
5DA
100
AcDbEntity
  8
0
100
AcDbLine
 62
7
  6
CONTINUOUS
 10
105.4612704742
 20
100.2412765336
 11
105.4299119352
 21
100.2412765336
  0
LINE
  5
5DB
100
AcDbEntity
  8
0
100
AcDbLine
 62
7
  6
CONTINUOUS
 10
301.4597902743
 20
100.2565957713
 11
301.4911488133
 21
100.2565957713
  0
LINE
  5
5DC
100
AcDbEntity
  8
0
100
AcDbLine
 62
7
  6
CONTINUOUS
 10
308.1313741024
 20
100.2565957713
 11
308.1627326414
 21
100.2565957713
  0
LINE
  5
5DD
100
AcDbEntity
  8
0
100
AcDbLine
 62
7
  6
CONTINUOUS
 10
109.9549868911
 20
100.3902126861
 11
110.8832071055
 21
100.3902126861
  0
LINE
  5
5DE
100
AcDbEntity
  8
0
100
AcDbLine
 62
7
  6
CONTINUOUS
 10
111.4633446565
 20
100.3902126861
 11
112.7710067371
 21
100.3902126861
  0
LINE
  5
5DF
100
AcDbEntity
  8
0
100
AcDbLine
 62
7
  6
CONTINUOUS
 10
295.2233081155
 20
100.4055319238
 11
295.2546666545
 21
100.4055319238
  0
LINE
  5
5E0
100
AcDbEntity
  8
0
100
AcDbLine
 62
7
  6
CONTINUOUS
 10
301.7498580539
 20
100.4055319238
 11
301.7812165929
 21
100.4055319238
  0
LINE
  5
5E1
100
AcDbEntity
  8
0
100
AcDbLine
 62
7
  6
CONTINUOUS
 10
107.8978491179
 20
100.5391488385
 11
107.8664905789
 21
100.5391488385
  0
LINE
  5
5E2
100
AcDbEntity
  8
0
100
AcDbLine
 62
7
  6
CONTINUOUS
 10
301.4597902743
 20
100.5544680762
 11
301.4911488133
 21
100.5544680762
  0
LINE
  5
5E3
100
AcDbEntity
  8
0
100
AcDbLine
 62
7
  6
CONTINUOUS
 10
308.7115121514
 20
100.5544680762
 11
308.7428706904
 21
100.5544680762
  0
LINE
  5
5E4
100
AcDbEntity
  8
0
100
AcDbLine
 62
7
  6
CONTINUOUS
 10
107.2863530279
 20
100.688084991
 11
106.7062151449
 21
100.688084991
  0
LINE
  5
5E5
100
AcDbEntity
  8
0
100
AcDbLine
 62
7
  6
CONTINUOUS
 10
312.0786626044
 20
100.8523403811
 11
309.6130773488
 21
100.8523403811
  0
LINE
  5
5E6
100
AcDbEntity
  8
0
100
AcDbLine
 62
7
  6
CONTINUOUS
 10
305.4070787763
 20
100.8523403811
 11
302.6514232513
 21
100.8523403811
  0
LINE
  5
5E7
100
AcDbEntity
  8
0
100
AcDbLine
 62
7
  6
CONTINUOUS
 10
297.4301833006
 20
100.8523403811
 11
296.5599766422
 21
100.8523403811
  0
LINE
  5
5E8
100
AcDbEntity
  8
0
100
AcDbLine
 62
7
  6
CONTINUOUS
 10
112.7710067371
 20
100.9859572959
 11
111.4633446565
 21
100.9859572959
  0
LINE
  5
5E9
100
AcDbEntity
  8
0
100
AcDbLine
 62
7
  6
CONTINUOUS
 10
110.8832071055
 20
100.9859572959
 11
109.9549868911
 21
100.9859572959
  0
LINE
  5
5EA
100
AcDbEntity
  8
0
100
AcDbLine
 62
7
  6
CONTINUOUS
 10
102.5605817234
 20
100.9859572959
 11
102.5292231844
 21
100.9859572959
  0
LINE
  5
5EB
100
AcDbEntity
  8
0
100
AcDbLine
 62
7
  6
CONTINUOUS
 10
294.6431708965
 20
101.0012765336
 11
294.6745294355
 21
101.0012765336
  0
LINE
  5
5EC
100
AcDbEntity
  8
0
100
AcDbLine
 62
7
  6
CONTINUOUS
 10
105.57729825
 20
101.1348934484
 11
105.545939711
 21
101.1348934484
  0
LINE
  5
5ED
100
AcDbEntity
  8
0
100
AcDbLine
 62
7
  6
CONTINUOUS
 10
301.0246869451
 20
101.1502126861
 11
301.056045484
 21
101.1502126861
  0
LINE
  5
5EE
100
AcDbEntity
  8
0
100
AcDbLine
 62
7
  6
CONTINUOUS
 10
105.6933256938
 20
101.581702323
 11
105.6619671548
 21
101.581702323
  0
LINE
  5
5EF
100
AcDbEntity
  8
0
100
AcDbLine
 62
7
  6
CONTINUOUS
 10
108.2145735742
 20
101.581702323
 11
108.8260696642
 21
101.581702323
  0
LINE
  5
5F0
100
AcDbEntity
  8
0
100
AcDbLine
 62
7
  6
CONTINUOUS
 10
294.3531014571
 20
101.5970213521
 11
294.3844599961
 21
101.5970213521
  0
LINE
  5
5F1
100
AcDbEntity
  8
0
100
AcDbLine
 62
7
  6
CONTINUOUS
 10
300.8796513955
 20
101.5970213521
 11
300.9110099344
 21
101.5970213521
  0
LINE
  5
5F2
100
AcDbEntity
  8
0
100
AcDbLine
 62
7
  6
CONTINUOUS
 10
108.7100418884
 20
102.0285107803
 11
108.6786833494
 21
102.0285107803
  0
LINE
  5
5F3
100
AcDbEntity
  8
0
100
AcDbLine
 62
7
  6
CONTINUOUS
 10
105.9253809133
 20
102.0285107803
 11
105.8940223744
 21
102.0285107803
  0
LINE
  5
5F4
100
AcDbEntity
  8
0
100
AcDbLine
 62
7
  6
CONTINUOUS
 10
298.8491702989
 20
102.0438298094
 11
299.7507354964
 21
102.0438298094
  0
LINE
  5
5F5
100
AcDbEntity
  8
0
100
AcDbLine
 62
7
  6
CONTINUOUS
 10
111.4947031955
 20
102.1774469328
 11
110.8832071055
 21
102.1774469328
  0
LINE
  5
5F6
100
AcDbEntity
  8
0
100
AcDbLine
 62
7
  6
CONTINUOUS
 10
106.2734635767
 20
102.3263830853
 11
106.2421050377
 21
102.3263830853
  0
LINE
  5
5F7
100
AcDbEntity
  8
0
100
AcDbLine
 62
7
  6
CONTINUOUS
 10
294.3531014571
 20
102.3417021143
 11
294.3844599961
 21
102.3417021143
  0
LINE
  5
5F8
100
AcDbEntity
  8
0
100
AcDbLine
 62
7
  6
CONTINUOUS
 10
300.8796513955
 20
102.3417021143
 11
300.9110099344
 21
102.3417021143
  0
LINE
  5
5F9
100
AcDbEntity
  8
0
100
AcDbLine
 62
7
  6
CONTINUOUS
 10
106.5901877011
 20
102.4753192377
 11
107.2863530279
 21
102.4753192377
  0
LINE
  5
5FA
100
AcDbEntity
  8
0
100
AcDbLine
 62
7
  6
CONTINUOUS
 10
298.7041347493
 20
102.4906382668
 11
298.7354932883
 21
102.4906382668
  0
LINE
  5
5FB
100
AcDbEntity
  8
0
100
AcDbLine
 62
7
  6
CONTINUOUS
 10
108.361959225
 20
102.6242553902
 11
108.3306006861
 21
102.6242553902
  0
LINE
  5
5FC
100
AcDbEntity
  8
0
100
AcDbLine
 62
7
  6
CONTINUOUS
 10
301.0246869451
 20
102.788510676
 11
301.056045484
 21
102.788510676
  0
LINE
  5
5FD
100
AcDbEntity
  8
0
100
AcDbLine
 62
7
  6
CONTINUOUS
 10
294.6431708965
 20
102.9374468285
 11
294.6745294355
 21
102.9374468285
  0
LINE
  5
5FE
100
AcDbEntity
  8
0
100
AcDbLine
 62
7
  6
CONTINUOUS
 10
298.2690314201
 20
102.9374468285
 11
298.3003899591
 21
102.9374468285
  0
LINE
  5
5FF
100
AcDbEntity
  8
0
100
AcDbLine
 62
7
  6
CONTINUOUS
 10
107.781821674
 20
103.0710638475
 11
107.7504631351
 21
103.0710638475
  0
LINE
  5
600
100
AcDbEntity
  8
0
100
AcDbLine
 62
7
  6
CONTINUOUS
 10
296.5599766422
 20
103.0863829809
 11
297.7202527401
 21
103.0863829809
  0
LINE
  5
601
100
AcDbEntity
  8
0
100
AcDbLine
 62
7
  6
CONTINUOUS
 10
302.6514232513
 20
103.0863829809
 11
305.4070787763
 21
103.0863829809
  0
LINE
  5
602
100
AcDbEntity
  8
0
100
AcDbLine
 62
7
  6
CONTINUOUS
 10
107.1703252521
 20
103.22
 11
106.7062151449
 21
103.22
  0
LINE
  5
603
100
AcDbEntity
  8
0
100
AcDbLine
 62
7
  6
CONTINUOUS
 10
103.9529123769
 20
103.22
 11
103.2253885111
 21
103.22
  0
LINE
  5
604
100
AcDbEntity
  8
0
100
AcDbLine
 62
7
  6
CONTINUOUS
 10
301.4597902743
 20
103.384255338
 11
301.4911488133
 21
103.384255338
  0
LINE
  5
605
100
AcDbEntity
  8
0
100
AcDbLine
 62
7
  6
CONTINUOUS
 10
295.2233081155
 20
103.5331914905
 11
295.2546666545
 21
103.5331914905
  0
LINE
  5
606
100
AcDbEntity
  8
0
100
AcDbLine
 62
7
  6
CONTINUOUS
 10
295.8034469944
 20
103.8310638345
 11
295.8348055334
 21
103.8310638345
  0
LINE
  5
607
100
AcDbEntity
  8
0
100
AcDbLine
 62
7
  6
CONTINUOUS
 10
302.0399274933
 20
103.8310638345
 11
302.0712860323
 21
103.8310638345
  0
LINE
  5
608
100
AcDbEntity
  8
0
100
AcDbLine
 62
7
  6
CONTINUOUS
 10
306.2772846048
 20
103.98
 11
302.7964588009
 21
103.98
  0
LINE
  5
609
100
AcDbEntity
  8
0
100
AcDbLine
 62
7
  6
CONTINUOUS
 10
297.7202527401
 20
103.98
 11
296.5599766422
 21
103.98
  0
LINE
  5
60A
100
AcDbEntity
  8
0
100
AcDbLine
 62
7
  6
CONTINUOUS
 10
307.4062021637
 20
103.98
 11
308.4528012509
 21
103.98
  0
LINE
  5
60B
100
AcDbEntity
  8
0
100
AcDbLine
 62
7
  6
CONTINUOUS
 10
312.0473040655
 20
103.98
 11
312.9488692629
 21
103.98
  0
LINE
  5
60C
100
AcDbEntity
  8
0
100
AcDbLine
 62
7
  6
CONTINUOUS
 10
316.3983373577
 20
103.98
 11
317.5899713721
 21
103.98
  0
LINE
  5
60D
100
AcDbEntity
  8
0
100
AcDbLine
 62
7
  6
CONTINUOUS
 10
100.7821797907
 20
106.08
 11
101.9738138051
 21
106.08
  0
LINE
  5
60E
100
AcDbEntity
  8
0
100
AcDbLine
 62
7
  6
CONTINUOUS
 10
105.4232818999
 20
106.08
 11
106.3248470973
 21
106.08
  0
LINE
  5
60F
100
AcDbEntity
  8
0
100
AcDbLine
 62
7
  6
CONTINUOUS
 10
109.9193499118
 20
106.08
 11
110.9659489991
 21
106.08
  0
LINE
  5
610
100
AcDbEntity
  8
0
100
AcDbLine
 62
7
  6
CONTINUOUS
 10
112.094866558
 20
106.08
 11
115.5756923619
 21
106.08
  0
LINE
  5
611
100
AcDbEntity
  8
0
100
AcDbLine
 62
7
  6
CONTINUOUS
 10
120.6518984227
 20
106.08
 11
121.8121745206
 21
106.08
  0
LINE
  5
612
100
AcDbEntity
  8
0
100
AcDbLine
 62
7
  6
CONTINUOUS
 10
122.5687041684
 20
106.2289361655
 11
122.5373456294
 21
106.2289361655
  0
LINE
  5
613
100
AcDbEntity
  8
0
100
AcDbLine
 62
7
  6
CONTINUOUS
 10
116.3322236695
 20
106.2289361655
 11
116.3008651305
 21
106.2289361655
  0
LINE
  5
614
100
AcDbEntity
  8
0
100
AcDbLine
 62
7
  6
CONTINUOUS
 10
211.6280305518
 20
121.53
 11
211.6280305518
 21
122.03
  0
LINE
  5
615
100
AcDbEntity
  8
0
100
AcDbLine
 62
7
  6
CONTINUOUS
 10
213.9206309451
 20
88.53
 11
213.9206309451
 21
88.03
  0
LINE
  5
616
100
AcDbEntity
  8
0
100
AcDbLine
 62
7
  6
CONTINUOUS
 10
214.1297285689
 20
88.53
 11
214.1297285689
 21
88.03
  0
LINE
  5
617
100
AcDbEntity
  8
0
100
AcDbLine
 62
7
  6
CONTINUOUS
 10
215.0781321658
 20
121.53
 11
215.0781321658
 21
122.03
  0
LINE
  5
618
100
AcDbEntity
  8
0
100
AcDbLine
 62
7
  6
CONTINUOUS
 10
215.0781331194
 20
88.53
 11
215.0781331194
 21
88.03
  0
LINE
  5
619
100
AcDbEntity
  8
0
100
AcDbLine
 62
7
  6
CONTINUOUS
 10
216.1908280981
 20
88.53
 11
216.1908280981
 21
88.03
  0
LINE
  5
61A
100
AcDbEntity
  8
0
100
AcDbLine
 62
7
  6
CONTINUOUS
 10
216.7285059524
 20
121.53
 11
216.7285059524
 21
122.03
  0
LINE
  5
61B
100
AcDbEntity
  8
0
100
AcDbLine
 62
7
  6
CONTINUOUS
 10
218.3266049755
 20
88.53
 11
218.3266049755
 21
88.03
  0
LINE
  5
61C
100
AcDbEntity
  8
0
100
AcDbLine
 62
7
  6
CONTINUOUS
 10
219.6558649821
 20
121.53
 11
219.6558649821
 21
122.03
  0
LINE
  5
61D
100
AcDbEntity
  8
0
100
AcDbLine
 62
7
  6
CONTINUOUS
 10
219.655865444
 20
88.53
 11
219.655865444
 21
88.03
  0
LINE
  5
61E
100
AcDbEntity
  8
0
100
AcDbLine
 62
7
  6
CONTINUOUS
 10
123.1488430472
 20
106.5268085095
 11
123.1174845083
 21
106.5268085095
  0
LINE
  5
61F
100
AcDbEntity
  8
0
100
AcDbLine
 62
7
  6
CONTINUOUS
 10
116.9123608885
 20
106.675744662
 11
116.8810023495
 21
106.675744662
  0
LINE
  5
620
100
AcDbEntity
  8
0
100
AcDbLine
 62
7
  6
CONTINUOUS
 10
311.2018259107
 20
106.84
 11
311.6659360179
 21
106.84
  0
LINE
  5
621
100
AcDbEntity
  8
0
100
AcDbLine
 62
7
  6
CONTINUOUS
 10
314.4192387859
 20
106.84
 11
315.1467626516
 21
106.84
  0
LINE
  5
622
100
AcDbEntity
  8
0
100
AcDbLine
 62
7
  6
CONTINUOUS
 10
121.8121745206
 20
106.9736170191
 11
120.6518984227
 21
106.9736170191
  0
LINE
  5
623
100
AcDbEntity
  8
0
100
AcDbLine
 62
7
  6
CONTINUOUS
 10
115.7207279115
 20
106.9736170191
 11
112.9650723865
 21
106.9736170191
  0
LINE
  5
624
100
AcDbEntity
  8
0
100
AcDbLine
 62
7
  6
CONTINUOUS
 10
310.5903294887
 20
106.9889361525
 11
310.6216880277
 21
106.9889361525
  0
LINE
  5
625
100
AcDbEntity
  8
0
100
AcDbLine
 62
7
  6
CONTINUOUS
 10
123.7289802663
 20
107.1225531715
 11
123.6976217273
 21
107.1225531715
  0
LINE
  5
626
100
AcDbEntity
  8
0
100
AcDbLine
 62
7
  6
CONTINUOUS
 10
120.1031197427
 20
107.1225531715
 11
120.0717612037
 21
107.1225531715
  0
LINE
  5
627
100
AcDbEntity
  8
0
100
AcDbLine
 62
7
  6
CONTINUOUS
 10
117.3474642177
 20
107.271489324
 11
117.3161056788
 21
107.271489324
  0
LINE
  5
628
100
AcDbEntity
  8
0
100
AcDbLine
 62
7
  6
CONTINUOUS
 10
310.0101919377
 20
107.4357446098
 11
310.0415504767
 21
107.4357446098
  0
LINE
  5
629
100
AcDbEntity
  8
0
100
AcDbLine
 62
7
  6
CONTINUOUS
 10
119.6680164135
 20
107.5693617332
 11
119.6366578745
 21
107.5693617332
  0
LINE
  5
62A
100
AcDbEntity
  8
0
100
AcDbLine
 62
7
  6
CONTINUOUS
 10
311.7819634617
 20
107.5846807623
 11
311.0857981349
 21
107.5846807623
  0
LINE
  5
62B
100
AcDbEntity
  8
0
100
AcDbLine
 62
7
  6
CONTINUOUS
 10
124.0190497057
 20
107.7182978857
 11
123.9876911667
 21
107.7182978857
  0
LINE
  5
62C
100
AcDbEntity
  8
0
100
AcDbLine
 62
7
  6
CONTINUOUS
 10
117.4924997673
 20
107.7182978857
 11
117.4611412284
 21
107.7182978857
  0
LINE
  5
62D
100
AcDbEntity
  8
0
100
AcDbLine
 62
7
  6
CONTINUOUS
 10
312.0986875861
 20
107.7336169147
 11
312.130046125
 21
107.7336169147
  0
LINE
  5
62E
100
AcDbEntity
  8
0
100
AcDbLine
 62
7
  6
CONTINUOUS
 10
306.8774479673
 20
107.8825530672
 11
307.4889440573
 21
107.8825530672
  0
LINE
  5
62F
100
AcDbEntity
  8
0
100
AcDbLine
 62
7
  6
CONTINUOUS
 10
119.5229808639
 20
108.0161701906
 11
118.6214156664
 21
108.0161701906
  0
LINE
  5
630
100
AcDbEntity
  8
0
100
AcDbLine
 62
7
  6
CONTINUOUS
 10
309.6621092744
 20
108.0314892197
 11
309.6934678134
 21
108.0314892197
  0
LINE
  5
631
100
AcDbEntity
  8
0
100
AcDbLine
 62
7
  6
CONTINUOUS
 10
312.4467702494
 20
108.0314892197
 11
312.4781287884
 21
108.0314892197
  0
LINE
  5
632
100
AcDbEntity
  8
0
100
AcDbLine
 62
7
  6
CONTINUOUS
 10
124.0190497057
 20
108.4629786479
 11
123.9876911667
 21
108.4629786479
  0
LINE
  5
633
100
AcDbEntity
  8
0
100
AcDbLine
 62
7
  6
CONTINUOUS
 10
117.4924997673
 20
108.4629786479
 11
117.4611412284
 21
108.4629786479
  0
LINE
  5
634
100
AcDbEntity
  8
0
100
AcDbLine
 62
7
  6
CONTINUOUS
 10
309.5460814986
 20
108.478297677
 11
310.1575775886
 21
108.478297677
  0
LINE
  5
635
100
AcDbEntity
  8
0
100
AcDbLine
 62
7
  6
CONTINUOUS
 10
312.678825469
 20
108.478297677
 11
312.710184008
 21
108.478297677
  0
LINE
  5
636
100
AcDbEntity
  8
0
100
AcDbLine
 62
7
  6
CONTINUOUS
 10
117.3474642177
 20
108.9097873139
 11
117.3161056788
 21
108.9097873139
  0
LINE
  5
637
100
AcDbEntity
  8
0
100
AcDbLine
 62
7
  6
CONTINUOUS
 10
312.7948529128
 20
108.9251065516
 11
312.8262114518
 21
108.9251065516
  0
LINE
  5
638
100
AcDbEntity
  8
0
100
AcDbLine
 62
7
  6
CONTINUOUS
 10
123.7289802663
 20
109.0587234664
 11
123.6976217273
 21
109.0587234664
  0
LINE
  5
639
100
AcDbEntity
  8
0
100
AcDbLine
 62
7
  6
CONTINUOUS
 10
305.6011444257
 20
109.0740427041
 11
306.9088065063
 21
109.0740427041
  0
LINE
  5
63A
100
AcDbEntity
  8
0
100
AcDbLine
 62
7
  6
CONTINUOUS
 10
307.4889440573
 20
109.0740427041
 11
308.4171642717
 21
109.0740427041
  0
LINE
  5
63B
100
AcDbEntity
  8
0
100
AcDbLine
 62
7
  6
CONTINUOUS
 10
315.8115694394
 20
109.0740427041
 11
315.8429279784
 21
109.0740427041
  0
LINE
  5
63C
100
AcDbEntity
  8
0
100
AcDbLine
 62
7
  6
CONTINUOUS
 10
106.2934885584
 20
109.2076596189
 11
108.759073814
 21
109.2076596189
  0
LINE
  5
63D
100
AcDbEntity
  8
0
100
AcDbLine
 62
7
  6
CONTINUOUS
 10
112.9650723865
 20
109.2076596189
 11
115.7207279115
 21
109.2076596189
  0
LINE
  5
63E
100
AcDbEntity
  8
0
100
AcDbLine
 62
7
  6
CONTINUOUS
 10
120.9419678621
 20
109.2076596189
 11
121.8121745206
 21
109.2076596189
  0
LINE
  5
63F
100
AcDbEntity
  8
0
100
AcDbLine
 62
7
  6
CONTINUOUS
 10
311.0857981349
 20
109.371915009
 11
311.6659360179
 21
109.371915009
  0
LINE
  5
640
100
AcDbEntity
  8
0
100
AcDbLine
 62
7
  6
CONTINUOUS
 10
116.9123608885
 20
109.5055319238
 11
116.8810023495
 21
109.5055319238
  0
LINE
  5
641
100
AcDbEntity
  8
0
100
AcDbLine
 62
7
  6
CONTINUOUS
 10
109.6606390114
 20
109.5055319238
 11
109.6292804724
 21
109.5055319238
  0
LINE
  5
642
100
AcDbEntity
  8
0
100
AcDbLine
 62
7
  6
CONTINUOUS
 10
310.4743020449
 20
109.5208511615
 11
310.5056605839
 21
109.5208511615
  0
LINE
  5
643
100
AcDbEntity
  8
0
100
AcDbLine
 62
7
  6
CONTINUOUS
 10
123.1488430472
 20
109.6544680762
 11
123.1174845083
 21
109.6544680762
  0
LINE
  5
644
100
AcDbEntity
  8
0
100
AcDbLine
 62
7
  6
CONTINUOUS
 10
116.6222931089
 20
109.6544680762
 11
116.5909345699
 21
109.6544680762
  0
LINE
  5
645
100
AcDbEntity
  8
0
100
AcDbLine
 62
7
  6
CONTINUOUS
 10
308.4171642717
 20
109.6697873139
 11
307.4889440573
 21
109.6697873139
  0
LINE
  5
646
100
AcDbEntity
  8
0
100
AcDbLine
 62
7
  6
CONTINUOUS
 10
305.6011444257
 20
109.6697873139
 11
306.9088065063
 21
109.6697873139
  0
LINE
  5
647
100
AcDbEntity
  8
0
100
AcDbLine
 62
7
  6
CONTINUOUS
 10
116.9123608885
 20
109.8034042287
 11
116.8810023495
 21
109.8034042287
  0
LINE
  5
648
100
AcDbEntity
  8
0
100
AcDbLine
 62
7
  6
CONTINUOUS
 10
110.2407770603
 20
109.8034042287
 11
110.2094185214
 21
109.8034042287
  0
LINE
  5
649
100
AcDbEntity
  8
0
100
AcDbLine
 62
7
  6
CONTINUOUS
 10
312.9108806886
 20
109.8187234664
 11
312.9422392276
 21
109.8187234664
  0
LINE
  5
64A
100
AcDbEntity
  8
0
100
AcDbLine
 62
7
  6
CONTINUOUS
 10
122.5687041684
 20
109.9523403811
 11
122.5373456294
 21
109.9523403811
  0
LINE
  5
64B
100
AcDbEntity
  8
0
100
AcDbLine
 62
7
  6
CONTINUOUS
 10
309.894164162
 20
109.9676596189
 11
309.925522701
 21
109.9676596189
  0
LINE
  5
64C
100
AcDbEntity
  8
0
100
AcDbLine
 62
7
  6
CONTINUOUS
 10
121.8121745206
 20
110.1012765336
 11
120.9419678621
 21
110.1012765336
  0
LINE
  5
64D
100
AcDbEntity
  8
0
100
AcDbLine
 62
7
  6
CONTINUOUS
 10
115.7207279115
 20
110.1012765336
 11
112.9650723865
 21
110.1012765336
  0
LINE
  5
64E
100
AcDbEntity
  8
0
100
AcDbLine
 62
7
  6
CONTINUOUS
 10
109.0491432534
 20
110.1012765336
 11
106.2934885584
 21
110.1012765336
  0
LINE
  5
64F
100
AcDbEntity
  8
0
100
AcDbLine
 62
7
  6
CONTINUOUS
 10
311.7819634617
 20
110.1165957713
 11
310.9697706911
 21
110.1165957713
  0
LINE
  5
650
100
AcDbEntity
  8
0
100
AcDbLine
 62
7
  6
CONTINUOUS
 10
120.5382230719
 20
110.2502126861
 11
120.5068645329
 21
110.2502126861
  0
LINE
  5
651
100
AcDbEntity
  8
0
100
AcDbLine
 62
7
  6
CONTINUOUS
 10
312.0986875861
 20
110.2655319238
 11
312.130046125
 21
110.2655319238
  0
LINE
  5
652
100
AcDbEntity
  8
0
100
AcDbLine
 62
7
  6
CONTINUOUS
 10
117.3474642177
 20
110.3991488385
 11
117.3161056788
 21
110.3991488385
  0
LINE
  5
653
100
AcDbEntity
  8
0
100
AcDbLine
 62
7
  6
CONTINUOUS
 10
110.6758803896
 20
110.3991488385
 11
110.6445218506
 21
110.3991488385
  0
LINE
  5
654
100
AcDbEntity
  8
0
100
AcDbLine
 62
7
  6
CONTINUOUS
 10
309.5460814986
 20
110.4144680762
 11
309.5774400376
 21
110.4144680762
  0
LINE
  5
655
100
AcDbEntity
  8
0
100
AcDbLine
 62
7
  6
CONTINUOUS
 10
120.1031197427
 20
110.548084991
 11
120.0717612037
 21
110.548084991
  0
LINE
  5
656
100
AcDbEntity
  8
0
100
AcDbLine
 62
7
  6
CONTINUOUS
 10
312.4467702494
 20
110.5634042287
 11
312.4781287884
 21
110.5634042287
  0
LINE
  5
657
100
AcDbEntity
  8
0
100
AcDbLine
 62
7
  6
CONTINUOUS
 10
117.4924997673
 20
110.8459572959
 11
117.4611412284
 21
110.8459572959
  0
LINE
  5
658
100
AcDbEntity
  8
0
100
AcDbLine
 62
7
  6
CONTINUOUS
 10
110.8209151093
 20
110.8459572959
 11
110.7895565703
 21
110.8459572959
  0
LINE
  5
659
100
AcDbEntity
  8
0
100
AcDbLine
 62
7
  6
CONTINUOUS
 10
312.678825469
 20
110.8612765336
 11
312.710184008
 21
110.8612765336
  0
LINE
  5
65A
100
AcDbEntity
  8
0
100
AcDbLine
 62
7
  6
CONTINUOUS
 10
119.9580841931
 20
110.9948934484
 11
119.9267256541
 21
110.9948934484
  0
LINE
  5
65B
100
AcDbEntity
  8
0
100
AcDbLine
 62
7
  6
CONTINUOUS
 10
309.314026611
 20
111.1591488385
 11
309.34538515
 21
111.1591488385
  0
LINE
  5
65C
100
AcDbEntity
  8
0
100
AcDbLine
 62
7
  6
CONTINUOUS
 10
119.9580841931
 20
111.2927657533
 11
119.9267256541
 21
111.2927657533
  0
LINE
  5
65D
100
AcDbEntity
  8
0
100
AcDbLine
 62
7
  6
CONTINUOUS
 10
312.7948529128
 20
111.3080851996
 11
312.8262114518
 21
111.3080851996
  0
LINE
  5
65E
100
AcDbEntity
  8
0
100
AcDbLine
 62
7
  6
CONTINUOUS
 10
117.4924997673
 20
111.441702323
 11
117.4611412284
 21
111.441702323
  0
LINE
  5
65F
100
AcDbEntity
  8
0
100
AcDbLine
 62
7
  6
CONTINUOUS
 10
110.8209151093
 20
111.441702323
 11
110.7895565703
 21
111.441702323
  0
LINE
  5
660
100
AcDbEntity
  8
0
100
AcDbLine
 62
7
  6
CONTINUOUS
 10
122.682381179
 20
111.441702323
 11
123.5839463765
 21
111.441702323
  0
LINE
  5
661
100
AcDbEntity
  8
0
100
AcDbLine
 62
7
  6
CONTINUOUS
 10
120.1031197427
 20
111.7395746279
 11
120.0717612037
 21
111.7395746279
  0
LINE
  5
662
100
AcDbEntity
  8
0
100
AcDbLine
 62
7
  6
CONTINUOUS
 10
312.7948529128
 20
111.754893657
 11
312.8262114518
 21
111.754893657
  0
LINE
  5
663
100
AcDbEntity
  8
0
100
AcDbLine
 62
7
  6
CONTINUOUS
 10
123.4389108269
 20
111.8885107803
 11
123.4075522879
 21
111.8885107803
  0
LINE
  5
664
100
AcDbEntity
  8
0
100
AcDbLine
 62
7
  6
CONTINUOUS
 10
117.3474642177
 20
111.8885107803
 11
117.3161056788
 21
111.8885107803
  0
LINE
  5
665
100
AcDbEntity
  8
0
100
AcDbLine
 62
7
  6
CONTINUOUS
 10
110.6758803896
 20
111.8885107803
 11
110.6445218506
 21
111.8885107803
  0
LINE
  5
666
100
AcDbEntity
  8
0
100
AcDbLine
 62
7
  6
CONTINUOUS
 10
309.314026611
 20
111.9038298094
 11
309.34538515
 21
111.9038298094
  0
LINE
  5
667
100
AcDbEntity
  8
0
100
AcDbLine
 62
7
  6
CONTINUOUS
 10
120.5382230719
 20
112.0374469328
 11
120.5068645329
 21
112.0374469328
  0
LINE
  5
668
100
AcDbEntity
  8
0
100
AcDbLine
 62
7
  6
CONTINUOUS
 10
112.9650723865
 20
112.1863830853
 11
115.7207279115
 21
112.1863830853
  0
LINE
  5
669
100
AcDbEntity
  8
0
100
AcDbLine
 62
7
  6
CONTINUOUS
 10
120.9419678621
 20
112.1863830853
 11
121.8121745206
 21
112.1863830853
  0
LINE
  5
66A
100
AcDbEntity
  8
0
100
AcDbLine
 62
7
  6
CONTINUOUS
 10
312.678825469
 20
112.2017021143
 11
312.710184008
 21
112.2017021143
  0
LINE
  5
66B
100
AcDbEntity
  8
0
100
AcDbLine
 62
7
  6
CONTINUOUS
 10
106.2934885584
 20
112.3353192377
 11
109.0491432534
 21
112.3353192377
  0
LINE
  5
66C
100
AcDbEntity
  8
0
100
AcDbLine
 62
7
  6
CONTINUOUS
 10
306.8774479673
 20
112.3506382668
 11
306.9088065063
 21
112.3506382668
  0
LINE
  5
66D
100
AcDbEntity
  8
0
100
AcDbLine
 62
7
  6
CONTINUOUS
 10
123.0038074976
 20
112.4842553902
 11
122.9724489587
 21
112.4842553902
  0
LINE
  5
66E
100
AcDbEntity
  8
0
100
AcDbLine
 62
7
  6
CONTINUOUS
 10
116.9123608885
 20
112.4842553902
 11
116.8810023495
 21
112.4842553902
  0
LINE
  5
66F
100
AcDbEntity
  8
0
100
AcDbLine
 62
7
  6
CONTINUOUS
 10
110.2407770603
 20
112.4842553902
 11
110.2094185214
 21
112.4842553902
  0
LINE
  5
670
100
AcDbEntity
  8
0
100
AcDbLine
 62
7
  6
CONTINUOUS
 10
309.5460814986
 20
112.648510676
 11
309.5774400376
 21
112.648510676
  0
LINE
  5
671
100
AcDbEntity
  8
0
100
AcDbLine
 62
7
  6
CONTINUOUS
 10
312.4467702494
 20
112.648510676
 11
312.4781287884
 21
112.648510676
  0
LINE
  5
672
100
AcDbEntity
  8
0
100
AcDbLine
 62
7
  6
CONTINUOUS
 10
306.7614201916
 20
112.7974468285
 11
306.7927787306
 21
112.7974468285
  0
LINE
  5
673
100
AcDbEntity
  8
0
100
AcDbLine
 62
7
  6
CONTINUOUS
 10
122.4236702786
 20
112.9310638475
 11
122.3923117396
 21
112.9310638475
  0
LINE
  5
674
100
AcDbEntity
  8
0
100
AcDbLine
 62
7
  6
CONTINUOUS
 10
116.3322236695
 20
112.9310638475
 11
116.3008651305
 21
112.9310638475
  0
LINE
  5
675
100
AcDbEntity
  8
0
100
AcDbLine
 62
7
  6
CONTINUOUS
 10
109.6606390114
 20
112.9310638475
 11
109.6292804724
 21
112.9310638475
  0
LINE
  5
676
100
AcDbEntity
  8
0
100
AcDbLine
 62
7
  6
CONTINUOUS
 10
312.0986875861
 20
112.9463829809
 11
312.130046125
 21
112.9463829809
  0
LINE
  5
677
100
AcDbEntity
  8
0
100
AcDbLine
 62
7
  6
CONTINUOUS
 10
121.667138971
 20
113.08
 11
120.9419678621
 21
113.08
  0
LINE
  5
678
100
AcDbEntity
  8
0
100
AcDbLine
 62
7
  6
CONTINUOUS
 10
115.5756923619
 20
113.08
 11
112.094866558
 21
113.08
  0
LINE
  5
679
100
AcDbEntity
  8
0
100
AcDbLine
 62
7
  6
CONTINUOUS
 10
108.9041085337
 20
113.08
 11
105.4232818999
 21
113.08
  0
LINE
  5
67A
100
AcDbEntity
  8
0
100
AcDbLine
 62
7
  6
CONTINUOUS
 10
104.294364756
 20
113.08
 11
103.3927995585
 21
113.08
  0
LINE
  5
67B
100
AcDbEntity
  8
0
100
AcDbLine
 62
7
  6
CONTINUOUS
 10
99.3631938298
 20
113.08
 11
98.4616286323
 21
113.08
  0
LINE
  5
67C
100
AcDbEntity
  8
0
100
AcDbLine
 62
7
  6
CONTINUOUS
 10
306.4133375282
 20
113.0953191334
 11
306.4446960672
 21
113.0953191334
  0
LINE
  5
67D
100
AcDbEntity
  8
0
100
AcDbLine
 62
7
  6
CONTINUOUS
 10
310.9697706911
 20
113.0953191334
 11
311.7819634617
 21
113.0953191334
  0
LINE
  5
67E
100
AcDbEntity
  8
0
100
AcDbLine
 62
7
  6
CONTINUOUS
 10
305.8331999772
 20
113.244255338
 11
305.8645585162
 21
113.244255338
  0
LINE
  5
67F
100
AcDbEntity
  8
0
100
AcDbLine
 62
7
  6
CONTINUOUS
 10
309.894164162
 20
113.244255338
 11
309.925522701
 21
113.244255338
  0
LINE
  5
680
100
AcDbEntity
  8
0
100
AcDbLine
 62
7
  6
CONTINUOUS
 10
310.4743020449
 20
113.6910638345
 11
310.5056605839
 21
113.6910638345
  0
LINE
  5
681
100
AcDbEntity
  8
0
100
AcDbLine
 62
7
  6
CONTINUOUS
 10
311.6659360179
 20
113.84
 11
311.0857981349
 21
113.84
  0
LINE
  5
682
100
AcDbEntity
  8
0
100
AcDbLine
 62
7
  6
CONTINUOUS
 10
305.8331999772
 20
113.84
 11
305.8645585162
 21
113.84
  0
LINE
  5
683
100
AcDbEntity
  8
0
100
AcDbLine
 62
7
  6
CONTINUOUS
 10
314.4192387859
 20
113.84
 11
315.1467626516
 21
113.84
  0
LINE
  5
684
100
AcDbEntity
  8
0
100
AcDbLine
 62
7
  6
CONTINUOUS
 10
295.9484808842
 20
97.1289361525
 11
296.6736536528
 21
96.98
  0
LINE
  5
685
100
AcDbEntity
  8
0
100
AcDbLine
 62
7
  6
CONTINUOUS
 10
295.9798394232
 20
97.1289361525
 11
296.7050121918
 21
96.98
  0
LINE
  5
686
100
AcDbEntity
  8
0
100
AcDbLine
 62
7
  6
CONTINUOUS
 10
302.0399274933
 20
97.1289361525
 11
302.7651002619
 21
96.98
  0
LINE
  5
687
100
AcDbEntity
  8
0
100
AcDbLine
 62
7
  6
CONTINUOUS
 10
302.0712860323
 20
97.1289361525
 11
302.7964588009
 21
96.98
  0
LINE
  5
688
100
AcDbEntity
  8
0
100
AcDbLine
 62
7
  6
CONTINUOUS
 10
107.3177115669
 20
96.22
 11
107.8978491179
 21
96.3689361655
  0
LINE
  5
689
100
AcDbEntity
  8
0
100
AcDbLine
 62
7
  6
CONTINUOUS
 10
107.2863530279
 20
96.22
 11
107.8664905789
 21
96.3689361655
  0
LINE
  5
68A
100
AcDbEntity
  8
0
100
AcDbLine
 62
7
  6
CONTINUOUS
 10
121.8121745206
 20
106.08
 11
122.5373456294
 21
106.2289361655
  0
LINE
  5
68B
100
AcDbEntity
  8
0
100
AcDbLine
 62
7
  6
CONTINUOUS
 10
115.6070509008
 20
106.08
 11
116.3322236695
 21
106.2289361655
  0
LINE
  5
68C
100
AcDbEntity
  8
0
100
AcDbLine
 62
7
  6
CONTINUOUS
 10
115.5756923619
 20
106.08
 11
116.3008651305
 21
106.2289361655
  0
LINE
  5
68D
100
AcDbEntity
  8
BEZUGSACHSEN
100
AcDbLine
 62
7
  6
CONTINUOUS
 10
277.0175262348
 20
121.03
 11
141.3553394455
 21
121.03
  0
LINE
  5
68E
100
AcDbEntity
  8
BEZUGSACHSEN
100
AcDbLine
 62
7
  6
CONTINUOUS
 10
179.1860755814
 20
121.53
 11
239.1860755814
 21
121.53
  0
LINE
  5
68F
100
AcDbEntity
  8
0
100
AcDbLine
 62
7
  6
CONTINUOUS
 10
198.7162857188
 20
122.03
 11
203.2940180434
 21
122.03
  0
LINE
  5
690
100
AcDbEntity
  8
0
100
AcDbLine
 62
7
  6
CONTINUOUS
 10
204.2424225939
 20
122.03
 11
211.6280305518
 21
122.03
  0
LINE
  5
691
100
AcDbEntity
  8
0
100
AcDbLine
 62
7
  6
CONTINUOUS
 10
215.0781321658
 20
122.03
 11
219.6558649821
 21
122.03
  0
LINE
  5
692
100
AcDbEntity
  8
BEZUGSACHSEN
100
AcDbLine
 62
7
  6
CONTINUOUS
 10
283.6860755814
 20
122.53
 11
280.0315814437
 21
122.53
  0
LINE
  5
693
100
AcDbEntity
  8
BEZUGSACHSEN
100
AcDbLine
 62
7
  6
CONTINUOUS
 10
138.3405698471
 20
122.53
 11
134.6860755814
 21
122.53
  0
LINE
  5
694
100
AcDbEntity
  8
0
100
AcDbLine
 62
7
  6
CONTINUOUS
 10
250.1060755814
 20
123.5165940915
 11
254.1060755814
 21
123.5165940915
  0
LINE
  5
695
100
AcDbEntity
  8
0
100
AcDbLine
 62
7
  6
CONTINUOUS
 10
255.4394085968
 20
123.5165940915
 11
256.4394085968
 21
123.5165940915
  0
LINE
  5
696
100
AcDbEntity
  8
0
100
AcDbLine
 62
7
  6
CONTINUOUS
 10
260.4394085968
 20
123.5165940915
 11
261.4394090737
 21
123.5165940915
  0
LINE
  5
697
100
AcDbEntity
  8
0
100
AcDbLine
 62
7
  6
CONTINUOUS
 10
265.1060755814
 20
123.5165940915
 11
269.1060755814
 21
123.5165940915
  0
LINE
  5
698
100
AcDbEntity
  8
0
100
AcDbLine
 62
7
  6
CONTINUOUS
 10
273.5296129907
 20
123.53
 11
269.1060755814
 21
123.53
  0
LINE
  5
699
100
AcDbEntity
  8
0
100
AcDbLine
 62
7
  6
CONTINUOUS
 10
263.4475188946
 20
123.53
 11
261.4394090737
 21
123.53
  0
LINE
  5
69A
100
AcDbEntity
  8
0
100
AcDbLine
 62
7
  6
CONTINUOUS
 10
260.4394085968
 20
123.53
 11
256.4394085968
 21
123.53
  0
LINE
  5
69B
100
AcDbEntity
  8
0
100
AcDbLine
 62
7
  6
CONTINUOUS
 10
255.4394085968
 20
123.53
 11
254.1060755814
 21
123.53
  0
LINE
  5
69C
100
AcDbEntity
  8
0
100
AcDbLine
 62
7
  6
CONTINUOUS
 10
248.2280003595
 20
123.53
 11
239.1860755814
 21
123.53
  0
LINE
  5
69D
100
AcDbEntity
  8
BEZUGSACHSEN
100
AcDbLine
 62
7
  6
CONTINUOUS
 10
179.1860755814
 20
123.53
 11
142.9799463192
 21
123.53
  0
LINE
  5
69E
100
AcDbEntity
  8
BEZUGSACHSEN
100
AcDbLine
 62
7
  6
CONTINUOUS
 10
239.1860755814
 20
123.53
 11
248.2280003595
 21
123.53
  0
LINE
  5
69F
100
AcDbEntity
  8
BEZUGSACHSEN
100
AcDbLine
 62
7
  6
CONTINUOUS
 10
254.1060755814
 20
123.53
 11
255.4394085968
 21
123.53
  0
LINE
  5
6A0
100
AcDbEntity
  8
BEZUGSACHSEN
100
AcDbLine
 62
7
  6
CONTINUOUS
 10
256.4394085968
 20
123.53
 11
260.4394085968
 21
123.53
  0
LINE
  5
6A1
100
AcDbEntity
  8
BEZUGSACHSEN
100
AcDbLine
 62
7
  6
CONTINUOUS
 10
261.4394090737
 20
123.53
 11
263.4475188946
 21
123.53
  0
LINE
  5
6A2
100
AcDbEntity
  8
0
100
AcDbLine
 62
7
  6
CONTINUOUS
 10
250.1060755814
 20
124.0168139563
 11
254.1060755814
 21
124.0168139563
  0
LINE
  5
6A3
100
AcDbEntity
  8
0
100
AcDbLine
 62
7
  6
CONTINUOUS
 10
255.4394085968
 20
124.0168139563
 11
256.4394085968
 21
124.0168139563
  0
LINE
  5
6A4
100
AcDbEntity
  8
0
100
AcDbLine
 62
7
  6
CONTINUOUS
 10
260.4394085968
 20
124.0168139563
 11
261.4394090737
 21
124.0168139563
  0
LINE
  5
6A5
100
AcDbEntity
  8
0
100
AcDbLine
 62
7
  6
CONTINUOUS
 10
265.1060755814
 20
124.0168139563
 11
269.1060755814
 21
124.0168139563
  0
LINE
  5
6A6
100
AcDbEntity
  8
0
100
AcDbLine
 62
7
  6
CONTINUOUS
 10
154.3860755814
 20
124.03
 11
158.7860755814
 21
124.03
  0
LINE
  5
6A7
100
AcDbEntity
  8
0
100
AcDbLine
 62
7
  6
CONTINUOUS
 10
161.1860755814
 20
124.03
 11
165.5860755814
 21
124.03
  0
LINE
  5
6A8
100
AcDbEntity
  8
0
100
AcDbLine
 62
7
  6
CONTINUOUS
 10
247.4394095505
 20
124.03
 11
248.2280003595
 21
124.03
  0
LINE
  5
6A9
100
AcDbEntity
  8
0
100
AcDbLine
 62
7
  6
CONTINUOUS
 10
248.6060755814
 20
124.03
 11
254.1060755814
 21
124.03
  0
LINE
  5
6AA
100
AcDbEntity
  8
0
100
AcDbLine
 62
7
  6
CONTINUOUS
 10
255.4394085968
 20
124.03
 11
261.4394090737
 21
124.03
  0
LINE
  5
6AB
100
AcDbEntity
  8
0
100
AcDbLine
 62
7
  6
CONTINUOUS
 10
262.7727420891
 20
124.03
 11
263.4475188946
 21
124.03
  0
LINE
  5
6AC
100
AcDbEntity
  8
0
100
AcDbLine
 62
7
  6
CONTINUOUS
 10
264.2727420891
 20
124.03
 11
269.1060755814
 21
124.03
  0
LINE
  5
6AD
100
AcDbEntity
  8
BEZUGSACHSEN
100
AcDbLine
 62
7
  6
CONTINUOUS
 10
275.3965450377
 20
123.5299981038
 11
269.1060755814
 21
123.53
  0
LWPOLYLINE
  5
6AE
100
AcDbEntity
  8
BEZUGSACHSEN
100
AcDbPolyline
 62
7
  6
CONTINUOUS
 90
7
 70
0
 10
280.0343130822
 20
122.5299770704
 10
279.6933449052
 20
122.5396811327
 10
279.2069687868
 20
122.5873384189
 10
278.726127127
 20
122.6744431111
 10
278.254046487
 20
122.8003979287
 10
277.7938916327
 20
122.9643372612
 10
277.5686986815
 20
123.0604587628
  0
LINE
  5
6AF
100
AcDbEntity
  8
0
100
AcDbLine
 62
7
  6
CONTINUOUS
 10
308.7115121514
 20
97.1289361525
 11
309.4366840901
 21
96.98
  0
LINE
  5
6B0
100
AcDbEntity
  8
0
100
AcDbLine
 62
7
  6
CONTINUOUS
 10
308.7428706904
 20
97.1289361525
 11
309.4680426291
 21
96.98
  0
LINE
  5
6B1
100
AcDbEntity
  8
0
100
AcDbLine
 62
7
  6
CONTINUOUS
 10
295.8034469944
 20
100.1076596189
 11
296.5286181032
 21
99.9587234664
  0
LINE
  5
6B2
100
AcDbEntity
  8
0
100
AcDbLine
 62
7
  6
CONTINUOUS
 10
295.8348055334
 20
100.1076596189
 11
296.5599766422
 21
99.9587234664
  0
LINE
  5
6B3
100
AcDbEntity
  8
0
100
AcDbLine
 62
7
  6
CONTINUOUS
 10
298.4454255087
 20
103.8310638345
 11
297.7202527401
 21
103.98
  0
LINE
  5
6B4
100
AcDbEntity
  8
0
100
AcDbLine
 62
7
  6
CONTINUOUS
 10
296.5599766422
 20
100.8523403811
 11
295.9798394232
 21
101.0012765336
  0
LINE
  5
6B5
100
AcDbEntity
  8
0
100
AcDbLine
 62
7
  6
CONTINUOUS
 10
298.0103221795
 20
100.7034042287
 11
297.4301833006
 21
100.8523403811
  0
LINE
  5
6B6
100
AcDbEntity
  8
0
100
AcDbLine
 62
7
  6
CONTINUOUS
 10
297.7202527401
 20
103.0863829809
 11
298.3003899591
 21
102.9374468285
  0
LINE
  5
6B7
100
AcDbEntity
  8
0
100
AcDbLine
 62
7
  6
CONTINUOUS
 10
239.1860755814
 20
86.53
 11
239.1860755814
 21
88.53
  0
LINE
  5
6B8
100
AcDbEntity
  8
BEZUGSACHSEN
100
AcDbLine
 62
7
  6
CONTINUOUS
 10
239.1860755814
 20
121.53
 11
239.1860755814
 21
123.53
  0
LINE
  5
6B9
100
AcDbEntity
  8
0
100
AcDbLine
 62
7
  6
CONTINUOUS
 10
106.7062151449
 20
100.688084991
 11
106.126077262
 21
100.5391488385
  0
LINE
  5
6BA
100
AcDbEntity
  8
0
100
AcDbLine
 62
7
  6
CONTINUOUS
 10
122.3923117396
 20
107.1225531715
 11
121.8121745206
 21
106.9736170191
  0
LINE
  5
6BB
100
AcDbEntity
  8
0
100
AcDbLine
 62
7
  6
CONTINUOUS
 10
106.7062151449
 20
103.22
 11
106.126077262
 21
103.0710638475
  0
LINE
  5
6BC
100
AcDbEntity
  8
0
100
AcDbLine
 62
7
  6
CONTINUOUS
 10
120.9419678621
 20
113.08
 11
120.3618289833
 21
112.9310638475
  0
LWPOLYLINE
  5
6BD
100
AcDbEntity
  8
BEZUGSACHSEN
100
AcDbPolyline
 62
7
  6
CONTINUOUS
 90
7
 70
0
 10
142.9775755484
 20
123.5299965023
 10
142.5866971039
 20
123.5152932299
 10
142.2292639532
 20
123.476231294
 10
141.8753673584
 20
123.4129213628
 10
141.5269255532
 20
123.3257951983
 10
141.1860748238
 20
123.215591982
 10
140.8550072652
 20
123.0834006243
  0
LINE
  5
6BE
100
AcDbEntity
  8
0
100
AcDbLine
 62
7
  6
CONTINUOUS
 10
306.5607238429
 20
113.6910638345
 11
305.8645585162
 21
113.84
  0
LINE
  5
6BF
100
AcDbEntity
  8
0
100
AcDbLine
 62
7
  6
CONTINUOUS
 10
310.5903294887
 20
106.9889361525
 11
311.1704673717
 21
106.84
  0
LINE
  5
6C0
100
AcDbEntity
  8
0
100
AcDbLine
 62
7
  6
CONTINUOUS
 10
310.6216880277
 20
106.9889361525
 11
311.2018259107
 21
106.84
  0
LINE
  5
6C1
100
AcDbEntity
  8
0
100
AcDbLine
 62
7
  6
CONTINUOUS
 10
310.4743020449
 20
109.5208511615
 11
311.0544395959
 21
109.371915009
  0
LINE
  5
6C2
100
AcDbEntity
  8
0
100
AcDbLine
 62
7
  6
CONTINUOUS
 10
310.5056605839
 20
109.5208511615
 11
311.0857981349
 21
109.371915009
  0
LINE
  5
6C3
100
AcDbEntity
  8
0
100
AcDbLine
 62
7
  6
CONTINUOUS
 10
296.5599766422
 20
97.8736169147
 11
296.124873313
 21
98.0225530672
  0
LINE
  5
6C4
100
AcDbEntity
  8
0
100
AcDbLine
 62
7
  6
CONTINUOUS
 10
302.6514232513
 20
97.8736169147
 11
302.2163199221
 21
98.0225530672
  0
LINE
  5
6C5
100
AcDbEntity
  8
0
100
AcDbLine
 62
7
  6
CONTINUOUS
 10
297.4301833006
 20
99.9587234664
 11
297.8652866299
 21
99.8097873139
  0
LINE
  5
6C6
100
AcDbEntity
  8
0
100
AcDbLine
 62
7
  6
CONTINUOUS
 10
309.3230079094
 20
97.7246807623
 11
308.8879045802
 21
97.8736169147
  0
LINE
  5
6C7
100
AcDbEntity
  8
0
100
AcDbLine
 62
7
  6
CONTINUOUS
 10
302.6514232513
 20
100.8523403811
 11
302.2163199221
 21
101.0012765336
  0
LINE
  5
6C8
100
AcDbEntity
  8
0
100
AcDbLine
 62
7
  6
CONTINUOUS
 10
247.4394095505
 20
123.53
 11
247.4394095505
 21
124.03
  0
LINE
  5
6C9
100
AcDbEntity
  8
0
100
AcDbLine
 62
7
  6
CONTINUOUS
 10
247.6060755814
 20
123.53
 11
247.6060755814
 21
124.03
  0
LINE
  5
6CA
100
AcDbEntity
  8
0
100
AcDbLine
 62
7
  6
CONTINUOUS
 10
247.9394095505
 20
123.53
 11
247.9394095505
 21
124.03
  0
LINE
  5
6CB
100
AcDbEntity
  8
0
100
AcDbLine
 62
7
  6
CONTINUOUS
 10
248.6060755814
 20
123.5275150901
 11
248.6060755814
 21
124.0275558117
  0
LINE
  5
6CC
100
AcDbEntity
  8
0
100
AcDbLine
 62
7
  6
CONTINUOUS
 10
249.2727416123
 20
123.5212009111
 11
249.2727416123
 21
124.0213451997
  0
LINE
  5
6CD
100
AcDbEntity
  8
0
100
AcDbLine
 62
7
  6
CONTINUOUS
 10
310.6216880277
 20
112.9463829809
 11
310.9697706911
 21
113.0953191334
  0
LINE
  5
6CE
100
AcDbEntity
  8
0
100
AcDbLine
 62
7
  6
CONTINUOUS
 10
312.130046125
 20
110.2655319238
 11
311.7819634617
 21
110.1165957713
  0
LINE
  5
6CF
100
AcDbEntity
  8
0
100
AcDbLine
 62
7
  6
CONTINUOUS
 10
312.130046125
 20
107.7336169147
 11
311.7819634617
 21
107.5846807623
  0
LINE
  5
6D0
100
AcDbEntity
  8
0
100
AcDbLine
 62
7
  6
CONTINUOUS
 10
302.2163199221
 20
102.9374468285
 11
302.6514232513
 21
103.0863829809
  0
LINE
  5
6D1
100
AcDbEntity
  8
0
100
AcDbLine
 62
7
  6
CONTINUOUS
 10
302.2163199221
 20
99.8097873139
 11
302.6514232513
 21
99.9587234664
  0
LINE
  5
6D2
100
AcDbEntity
  8
0
100
AcDbLine
 62
7
  6
CONTINUOUS
 10
297.8339280909
 20
98.0225530672
 11
297.4268943898
 21
97.8832251667
  0
LINE
  5
6D3
100
AcDbEntity
  8
0
100
AcDbLine
 62
7
  6
CONTINUOUS
 10
297.8652866299
 20
98.0225530672
 11
297.4301833006
 21
97.8736169147
  0
LINE
  5
6D4
100
AcDbEntity
  8
0
100
AcDbLine
 62
7
  6
CONTINUOUS
 10
308.8879045802
 20
99.8097873139
 11
309.3230079094
 21
99.9587234664
  0
LINE
  5
6D5
100
AcDbEntity
  8
0
100
AcDbLine
 62
7
  6
CONTINUOUS
 10
305.8331999772
 20
113.244255338
 11
306.4133375282
 21
113.0953191334
  0
LINE
  5
6D6
100
AcDbEntity
  8
0
100
AcDbLine
 62
7
  6
CONTINUOUS
 10
305.8645585162
 20
113.244255338
 11
306.4446960672
 21
113.0953191334
  0
LINE
  5
6D7
100
AcDbEntity
  8
0
100
AcDbLine
 62
7
  6
CONTINUOUS
 10
312.2460739008
 20
113.6910638345
 11
311.6659360179
 21
113.84
  0
LWPOLYLINE
  5
6D8
100
AcDbEntity
  8
BEZUGSACHSEN
100
AcDbPolyline
 62
7
  6
CONTINUOUS
 90
6
 70
0
 10
277.4115639308
 20
123.1283579351
 10
276.9682540774
 20
123.2889400266
 10
276.509975607
 20
123.4100773318
 10
276.0417835217
 20
123.4897873698
 10
275.5690861197
 20
123.5270247681
 10
275.3965450352
 20
123.5299951662
  0
LINE
  5
6D9
100
AcDbEntity
  8
0
100
AcDbLine
 62
7
  6
CONTINUOUS
 10
295.2233081155
 20
100.4055319238
 11
295.8034469944
 21
100.1076596189
  0
LINE
  5
6DA
100
AcDbEntity
  8
0
100
AcDbLine
 62
7
  6
CONTINUOUS
 10
295.2546666545
 20
100.4055319238
 11
295.8348055334
 21
100.1076596189
  0
LINE
  5
6DB
100
AcDbEntity
  8
0
100
AcDbLine
 62
7
  6
CONTINUOUS
 10
298.5904593985
 20
100.4055319238
 11
298.0103221795
 21
100.7034042287
  0
LINE
  5
6DC
100
AcDbEntity
  8
0
100
AcDbLine
 62
7
  6
CONTINUOUS
 10
301.4597902743
 20
100.5544680762
 11
301.7498580539
 21
100.4055319238
  0
LINE
  5
6DD
100
AcDbEntity
  8
0
100
AcDbLine
 62
7
  6
CONTINUOUS
 10
301.4911488133
 20
100.5544680762
 11
301.7812165929
 21
100.4055319238
  0
LINE
  5
6DE
100
AcDbEntity
  8
0
100
AcDbLine
 62
7
  6
CONTINUOUS
 10
250.1060755814
 20
123.5165940915
 11
250.1060755814
 21
124.0168139563
  0
LINE
  5
6DF
100
AcDbEntity
  8
0
100
AcDbLine
 62
7
  6
CONTINUOUS
 10
254.1060755814
 20
123.5165940915
 11
254.1060755814
 21
124.0168139563
  0
LINE
  5
6E0
100
AcDbEntity
  8
0
100
AcDbLine
 62
7
  6
CONTINUOUS
 10
255.4394085968
 20
123.5165940915
 11
255.4394085968
 21
124.0168139563
  0
LINE
  5
6E1
100
AcDbEntity
  8
0
100
AcDbLine
 62
7
  6
CONTINUOUS
 10
256.4394085968
 20
123.5165940915
 11
256.4394085968
 21
124.0168139563
  0
LINE
  5
6E2
100
AcDbEntity
  8
0
100
AcDbLine
 62
7
  6
CONTINUOUS
 10
256.6060755814
 20
123.53
 11
256.6060755814
 21
124.03
  0
LINE
  5
6E3
100
AcDbEntity
  8
0
100
AcDbLine
 62
7
  6
CONTINUOUS
 10
256.9394085968
 20
123.53
 11
256.9394085968
 21
124.03
  0
LINE
  5
6E4
100
AcDbEntity
  8
0
100
AcDbLine
 62
7
  6
CONTINUOUS
 10
257.4394085968
 20
123.53
 11
257.4394085968
 21
124.03
  0
LINE
  5
6E5
100
AcDbEntity
  8
0
100
AcDbLine
 62
7
  6
CONTINUOUS
 10
258.1060755814
 20
123.53
 11
258.1060755814
 21
124.03
  0
LINE
  5
6E6
100
AcDbEntity
  8
0
100
AcDbLine
 62
7
  6
CONTINUOUS
 10
258.772742566
 20
123.53
 11
258.772742566
 21
124.03
  0
LINE
  5
6E7
100
AcDbEntity
  8
0
100
AcDbLine
 62
7
  6
CONTINUOUS
 10
295.8348055334
 20
103.8310638345
 11
295.2546666545
 21
103.5331914905
  0
LINE
  5
6E8
100
AcDbEntity
  8
0
100
AcDbLine
 62
7
  6
CONTINUOUS
 10
301.7498580539
 20
100.4055319238
 11
301.4597902743
 21
100.2565957713
  0
LINE
  5
6E9
100
AcDbEntity
  8
0
100
AcDbLine
 62
7
  6
CONTINUOUS
 10
301.7812165929
 20
100.4055319238
 11
301.4911488133
 21
100.2565957713
  0
LINE
  5
6EA
100
AcDbEntity
  8
0
100
AcDbLine
 62
7
  6
CONTINUOUS
 10
298.0103221795
 20
97.1289361525
 11
298.5904593985
 21
97.4268084574
  0
LINE
  5
6EB
100
AcDbEntity
  8
0
100
AcDbLine
 62
7
  6
CONTINUOUS
 10
308.7115121514
 20
100.5544680762
 11
308.1313741024
 21
100.2565957713
  0
LINE
  5
6EC
100
AcDbEntity
  8
0
100
AcDbLine
 62
7
  6
CONTINUOUS
 10
308.7428706904
 20
100.5544680762
 11
308.1627326414
 21
100.2565957713
  0
LINE
  5
6ED
100
AcDbEntity
  8
RUNDUNGEN
100
AcDbLine
 62
7
  6
CONTINUOUS
 10
277.5686832109
 20
86.9995274501
 11
277.5685710837
 21
86.9994767179
  0
LINE
  5
6EE
100
AcDbEntity
  8
RUNDUNGEN
100
AcDbLine
 62
7
  6
CONTINUOUS
 10
277.4003118798
 20
86.9270079827
 11
277.5688118339
 21
86.9995854776
  0
LWPOLYLINE
  5
6EF
100
AcDbEntity
  8
RUNDUNGEN
100
AcDbPolyline
 62
7
  6
CONTINUOUS
 90
7
 70
0
 10
277.5686989418
 20
86.9995413546
 10
277.8062531923
 20
87.1006272585
 10
278.2667735943
 20
87.2635443887
 10
278.7391339684
 20
87.3884499325
 10
279.2201677119
 20
87.474485671
 10
279.7066470672
 20
87.5210618064
 10
280.0343129753
 20
87.5300229297
  0
LINE
  5
6F0
100
AcDbEntity
  8
0
100
AcDbLine
 62
7
  6
CONTINUOUS
 10
311.0857981349
 20
107.5846807623
 11
310.7377154715
 21
107.7336169147
  0
LINE
  5
6F1
100
AcDbEntity
  8
0
100
AcDbLine
 62
7
  6
CONTINUOUS
 10
310.9697706911
 20
110.1165957713
 11
310.6216880277
 21
110.2655319238
  0
LINE
  5
6F2
100
AcDbEntity
  8
0
100
AcDbLine
 62
7
  6
CONTINUOUS
 10
306.9088065063
 20
113.542127669
 11
306.5607238429
 21
113.6910638345
  0
LINE
  5
6F3
100
AcDbEntity
  8
0
100
AcDbLine
 62
7
  6
CONTINUOUS
 10
311.7819634617
 20
113.0953191334
 11
312.130046125
 21
112.9463829809
  0
LINE
  5
6F4
100
AcDbEntity
  8
BEZUGSACHSEN
100
AcDbLine
 62
7
  6
CONTINUOUS
 10
277.5688154702
 20
123.0604128723
 11
277.4115639308
 21
123.1283579351
  0
LINE
  5
6F5
100
AcDbEntity
  8
BEZUGSACHSEN
100
AcDbLine
 62
7
  6
CONTINUOUS
 10
277.5686868516
 20
123.0604708976
 11
277.5685708235
 21
123.0605233995
  0
LINE
  5
6F6
100
AcDbEntity
  8
0
100
AcDbLine
 62
7
  6
CONTINUOUS
 10
299.1705966175
 20
103.384255338
 11
298.4454255087
 21
103.8310638345
  0
LINE
  5
6F7
100
AcDbEntity
  8
0
100
AcDbLine
 62
7
  6
CONTINUOUS
 10
295.9798394232
 20
101.0012765336
 11
295.5447360939
 21
101.2991488385
  0
LINE
  5
6F8
100
AcDbEntity
  8
0
100
AcDbLine
 62
7
  6
CONTINUOUS
 10
297.8339280909
 20
99.8097873139
 11
298.2690314201
 21
99.511915009
  0
LINE
  5
6F9
100
AcDbEntity
  8
0
100
AcDbLine
 62
7
  6
CONTINUOUS
 10
297.8652866299
 20
99.8097873139
 11
298.3003899591
 21
99.511915009
  0
LINE
  5
6FA
100
AcDbEntity
  8
0
100
AcDbLine
 62
7
  6
CONTINUOUS
 10
295.3683436651
 20
97.5757446098
 11
295.9484808842
 21
97.1289361525
  0
LINE
  5
6FB
100
AcDbEntity
  8
0
100
AcDbLine
 62
7
  6
CONTINUOUS
 10
295.3997022041
 20
97.5757446098
 11
295.9798394232
 21
97.1289361525
  0
LINE
  5
6FC
100
AcDbEntity
  8
0
100
AcDbLine
 62
7
  6
CONTINUOUS
 10
259.4394085968
 20
123.53
 11
259.4394085968
 21
124.03
  0
LINE
  5
6FD
100
AcDbEntity
  8
0
100
AcDbLine
 62
7
  6
CONTINUOUS
 10
259.9394085968
 20
123.53
 11
259.9394085968
 21
124.03
  0
LINE
  5
6FE
100
AcDbEntity
  8
0
100
AcDbLine
 62
7
  6
CONTINUOUS
 10
260.272742566
 20
123.53
 11
260.272742566
 21
124.03
  0
LINE
  5
6FF
100
AcDbEntity
  8
0
100
AcDbLine
 62
7
  6
CONTINUOUS
 10
260.4394085968
 20
123.5165940915
 11
260.4394085968
 21
124.0168139563
  0
LINE
  5
700
100
AcDbEntity
  8
0
100
AcDbLine
 62
7
  6
CONTINUOUS
 10
261.4394090737
 20
123.5165940915
 11
261.4394090737
 21
124.0168139563
  0
LINE
  5
701
100
AcDbEntity
  8
0
100
AcDbLine
 62
7
  6
CONTINUOUS
 10
262.7727420891
 20
123.53
 11
262.7727420891
 21
124.03
  0
LINE
  5
702
100
AcDbEntity
  8
0
100
AcDbLine
 62
7
  6
CONTINUOUS
 10
262.9394090737
 20
123.53
 11
262.9394090737
 21
124.03
  0
LINE
  5
703
100
AcDbEntity
  8
0
100
AcDbLine
 62
7
  6
CONTINUOUS
 10
263.1060755814
 20
123.53
 11
263.1060755814
 21
124.03
  0
LINE
  5
704
100
AcDbEntity
  8
0
100
AcDbLine
 62
7
  6
CONTINUOUS
 10
263.6060755814
 20
123.5292230597
 11
263.6060755814
 21
124.0292357884
  0
LINE
  5
705
100
AcDbEntity
  8
0
100
AcDbLine
 62
7
  6
CONTINUOUS
 10
264.2727420891
 20
123.5212009111
 11
264.2727420891
 21
124.0213451997
  0
LINE
  5
706
100
AcDbEntity
  8
0
100
AcDbLine
 62
7
  6
CONTINUOUS
 10
265.1060755814
 20
123.5165940915
 11
265.1060755814
 21
124.0168139563
  0
LINE
  5
707
100
AcDbEntity
  8
0
100
AcDbLine
 62
7
  6
CONTINUOUS
 10
269.1060755814
 20
123.5165940915
 11
269.1060755814
 21
124.0168139563
  0
LINE
  5
708
100
AcDbEntity
  8
0
100
AcDbLine
 62
7
  6
CONTINUOUS
 10
310.2736053643
 20
112.648510676
 11
310.6216880277
 21
112.9463829809
  0
LINE
  5
709
100
AcDbEntity
  8
0
100
AcDbLine
 62
7
  6
CONTINUOUS
 10
310.4743020449
 20
113.6910638345
 11
309.894164162
 21
113.244255338
  0
LINE
  5
70A
100
AcDbEntity
  8
0
100
AcDbLine
 62
7
  6
CONTINUOUS
 10
310.5056605839
 20
113.6910638345
 11
309.925522701
 21
113.244255338
  0
LINE
  5
70B
100
AcDbEntity
  8
0
100
AcDbLine
 62
7
  6
CONTINUOUS
 10
302.0399274933
 20
103.8310638345
 11
301.4597902743
 21
103.384255338
  0
LINE
  5
70C
100
AcDbEntity
  8
0
100
AcDbLine
 62
7
  6
CONTINUOUS
 10
302.0712860323
 20
103.8310638345
 11
301.4911488133
 21
103.384255338
  0
LINE
  5
70D
100
AcDbEntity
  8
0
100
AcDbLine
 62
7
  6
CONTINUOUS
 10
295.5447360939
 20
102.6395744193
 11
295.9798394232
 21
102.9374468285
  0
LINE
  5
70E
100
AcDbEntity
  8
0
100
AcDbLine
 62
7
  6
CONTINUOUS
 10
298.2690314201
 20
98.3204253721
 11
297.8339280909
 21
98.0225530672
  0
LINE
  5
70F
100
AcDbEntity
  8
0
100
AcDbLine
 62
7
  6
CONTINUOUS
 10
298.3003899591
 20
98.3204253721
 11
297.8652866299
 21
98.0225530672
  0
LINE
  5
710
100
AcDbEntity
  8
0
100
AcDbLine
 62
7
  6
CONTINUOUS
 10
301.4597902743
 20
97.5757446098
 11
302.0399274933
 21
97.1289361525
  0
LINE
  5
711
100
AcDbEntity
  8
0
100
AcDbLine
 62
7
  6
CONTINUOUS
 10
301.4911488133
 20
97.5757446098
 11
302.0712860323
 21
97.1289361525
  0
LINE
  5
712
100
AcDbEntity
  8
0
100
AcDbLine
 62
7
  6
CONTINUOUS
 10
308.1313741024
 20
97.5757446098
 11
308.7115121514
 21
97.1289361525
  0
LINE
  5
713
100
AcDbEntity
  8
0
100
AcDbLine
 62
7
  6
CONTINUOUS
 10
308.1627326414
 20
97.5757446098
 11
308.7428706904
 21
97.1289361525
  0
LINE
  5
714
100
AcDbEntity
  8
0
100
AcDbLine
 62
7
  6
CONTINUOUS
 10
296.124873313
 20
98.0225530672
 11
295.8348055334
 21
98.3204253721
  0
LINE
  5
715
100
AcDbEntity
  8
0
100
AcDbLine
 62
7
  6
CONTINUOUS
 10
294.6431708965
 20
101.0012765336
 11
295.2233081155
 21
100.4055319238
  0
LINE
  5
716
100
AcDbEntity
  8
0
100
AcDbLine
 62
7
  6
CONTINUOUS
 10
294.6745294355
 20
101.0012765336
 11
295.2546666545
 21
100.4055319238
  0
LINE
  5
717
100
AcDbEntity
  8
0
100
AcDbLine
 62
7
  6
CONTINUOUS
 10
295.2233081155
 20
103.5331914905
 11
294.6431708965
 21
102.9374468285
  0
LINE
  5
718
100
AcDbEntity
  8
0
100
AcDbLine
 62
7
  6
CONTINUOUS
 10
295.2546666545
 20
103.5331914905
 11
294.6745294355
 21
102.9374468285
  0
LINE
  5
719
100
AcDbEntity
  8
0
100
AcDbLine
 62
7
  6
CONTINUOUS
 10
301.9262521425
 20
102.6395744193
 11
302.2163199221
 21
102.9374468285
  0
LINE
  5
71A
100
AcDbEntity
  8
0
100
AcDbLine
 62
7
  6
CONTINUOUS
 10
298.5904593985
 20
97.4268084574
 11
299.1705966175
 21
98.0225530672
  0
LINE
  5
71B
100
AcDbEntity
  8
0
100
AcDbLine
 62
7
  6
CONTINUOUS
 10
312.4467702494
 20
110.5634042287
 11
312.0986875861
 21
110.2655319238
  0
LINE
  5
71C
100
AcDbEntity
  8
0
100
AcDbLine
 62
7
  6
CONTINUOUS
 10
312.4781287884
 20
110.5634042287
 11
312.130046125
 21
110.2655319238
  0
LINE
  5
71D
100
AcDbEntity
  8
0
100
AcDbLine
 62
7
  6
CONTINUOUS
 10
312.2460739008
 20
109.5208511615
 11
312.9422392276
 21
110.1165957713
  0
LINE
  5
71E
100
AcDbEntity
  8
0
100
AcDbLine
 62
7
  6
CONTINUOUS
 10
312.4467702494
 20
108.0314892197
 11
312.0986875861
 21
107.7336169147
  0
LINE
  5
71F
100
AcDbEntity
  8
0
100
AcDbLine
 62
7
  6
CONTINUOUS
 10
312.4781287884
 20
108.0314892197
 11
312.130046125
 21
107.7336169147
  0
LINE
  5
720
100
AcDbEntity
  8
0
100
AcDbLine
 62
7
  6
CONTINUOUS
 10
312.2460739008
 20
106.9889361525
 11
312.8262114518
 21
107.4357446098
  0
LINE
  5
721
100
AcDbEntity
  8
RUNDUNGEN
100
AcDbLine
 62
7
  6
CONTINUOUS
 10
121.4778657278
 20
170.03
 11
106.8282112051
 21
170.03
  0
LINE
  5
722
100
AcDbEntity
  8
RUNDUNGEN
100
AcDbLine
 62
7
  6
CONTINUOUS
 10
296.894285435
 20
170.03
 11
311.5439399577
 21
170.03
  0
LINE
  5
723
100
AcDbEntity
  8
0
100
AcDbLine
 62
7
  6
CONTINUOUS
 10
310.0101919377
 20
107.4357446098
 11
310.5903294887
 21
106.9889361525
  0
LINE
  5
724
100
AcDbEntity
  8
0
100
AcDbLine
 62
7
  6
CONTINUOUS
 10
310.0415504767
 20
107.4357446098
 11
310.6216880277
 21
106.9889361525
  0
LINE
  5
725
100
AcDbEntity
  8
0
100
AcDbLine
 62
7
  6
CONTINUOUS
 10
309.894164162
 20
109.9676596189
 11
310.4743020449
 21
109.5208511615
  0
LINE
  5
726
100
AcDbEntity
  8
0
100
AcDbLine
 62
7
  6
CONTINUOUS
 10
309.925522701
 20
109.9676596189
 11
310.5056605839
 21
109.5208511615
  0
LINE
  5
727
100
AcDbEntity
  8
0
100
AcDbLine
 62
7
  6
CONTINUOUS
 10
312.8262114518
 20
113.244255338
 11
312.2460739008
 21
113.6910638345
  0
LINE
  5
728
100
AcDbEntity
  8
0
100
AcDbLine
 62
7
  6
CONTINUOUS
 10
310.7377154715
 20
107.7336169147
 11
310.3896328082
 21
108.0314892197
  0
LINE
  5
729
100
AcDbEntity
  8
0
100
AcDbLine
 62
7
  6
CONTINUOUS
 10
306.4133375282
 20
113.0953191334
 11
306.7614201916
 21
112.7974468285
  0
LINE
  5
72A
100
AcDbEntity
  8
0
100
AcDbLine
 62
7
  6
CONTINUOUS
 10
306.4446960672
 20
113.0953191334
 11
306.7927787306
 21
112.7974468285
  0
LINE
  5
72B
100
AcDbEntity
  8
0
100
AcDbLine
 62
7
  6
CONTINUOUS
 10
299.1705966175
 20
99.8097873139
 11
298.5904593985
 21
100.4055319238
  0
LINE
  5
72C
100
AcDbEntity
  8
0
100
AcDbLine
 62
7
  6
CONTINUOUS
 10
302.2163199221
 20
98.0225530672
 11
301.9262521425
 21
98.3204253721
  0
LINE
  5
72D
100
AcDbEntity
  8
0
100
AcDbLine
 62
7
  6
CONTINUOUS
 10
298.2690314201
 20
102.9374468285
 11
298.7041347493
 21
102.4906382668
  0
LINE
  5
72E
100
AcDbEntity
  8
0
100
AcDbLine
 62
7
  6
CONTINUOUS
 10
298.3003899591
 20
102.9374468285
 11
298.7354932883
 21
102.4906382668
  0
LINE
  5
72F
100
AcDbEntity
  8
0
100
AcDbLine
 62
7
  6
CONTINUOUS
 10
302.2163199221
 20
101.0012765336
 11
301.9262521425
 21
101.2991488385
  0
LINE
  5
730
100
AcDbEntity
  8
0
100
AcDbLine
 62
7
  6
CONTINUOUS
 10
308.8879045802
 20
97.8736169147
 11
308.5978359706
 21
98.1714892197
  0
LINE
  5
731
100
AcDbEntity
  8
0
100
AcDbLine
 62
7
  6
CONTINUOUS
 10
294.9332403359
 20
98.1714892197
 11
295.3683436651
 21
97.5757446098
  0
LINE
  5
732
100
AcDbEntity
  8
0
100
AcDbLine
 62
7
  6
CONTINUOUS
 10
294.9645988749
 20
98.1714892197
 11
295.3997022041
 21
97.5757446098
  0
LINE
  5
733
100
AcDbEntity
  8
RUNDUNGEN
100
AcDbLine
 62
7
  6
CONTINUOUS
 10
283.699770843
 20
79.89969829
 11
286.9490664813
 21
48.9847153673
  0
LINE
  5
734
100
AcDbEntity
  8
RUNDUNGEN
100
AcDbLine
 62
7
  6
CONTINUOUS
 10
282.017525636
 20
94.03
 11
282.017525636
 21
116.03
  0
LINE
  5
735
100
AcDbEntity
  8
RUNDUNGEN
100
AcDbLine
 62
7
  6
CONTINUOUS
 10
283.6860755814
 20
80.1610194482
 11
283.6860755814
 21
129.8989805518
  0
LINE
  5
736
100
AcDbEntity
  8
RUNDUNGEN
100
AcDbLine
 62
7
  6
CONTINUOUS
 10
283.699770843
 20
130.16030171
 11
286.9490664813
 21
161.0752846327
  0
LINE
  5
737
100
AcDbEntity
  8
0
100
AcDbLine
 62
7
  6
CONTINUOUS
 10
294.6431708965
 20
102.9374468285
 11
294.3531014571
 21
102.3417021143
  0
LINE
  5
738
100
AcDbEntity
  8
0
100
AcDbLine
 62
7
  6
CONTINUOUS
 10
294.6745294355
 20
102.9374468285
 11
294.3844599961
 21
102.3417021143
  0
LINE
  5
739
100
AcDbEntity
  8
0
100
AcDbLine
 62
7
  6
CONTINUOUS
 10
295.2546666545
 20
102.1927659619
 11
295.5447360939
 21
102.6395744193
  0
LINE
  5
73A
100
AcDbEntity
  8
0
100
AcDbLine
 62
7
  6
CONTINUOUS
 10
301.4597902743
 20
103.384255338
 11
301.0246869451
 21
102.788510676
  0
LINE
  5
73B
100
AcDbEntity
  8
0
100
AcDbLine
 62
7
  6
CONTINUOUS
 10
301.4911488133
 20
103.384255338
 11
301.056045484
 21
102.788510676
  0
LINE
  5
73C
100
AcDbEntity
  8
0
100
AcDbLine
 62
7
  6
CONTINUOUS
 10
301.4597902743
 20
100.2565957713
 11
301.0246869451
 21
99.6608511615
  0
LINE
  5
73D
100
AcDbEntity
  8
0
100
AcDbLine
 62
7
  6
CONTINUOUS
 10
301.4911488133
 20
100.2565957713
 11
301.056045484
 21
99.6608511615
  0
LINE
  5
73E
100
AcDbEntity
  8
0
100
AcDbLine
 62
7
  6
CONTINUOUS
 10
312.678825469
 20
110.8612765336
 11
312.4467702494
 21
110.5634042287
  0
LINE
  5
73F
100
AcDbEntity
  8
0
100
AcDbLine
 62
7
  6
CONTINUOUS
 10
312.710184008
 20
110.8612765336
 11
312.4781287884
 21
110.5634042287
  0
LINE
  5
740
100
AcDbEntity
  8
0
100
AcDbLine
 62
7
  6
CONTINUOUS
 10
301.9262521425
 20
99.511915009
 11
302.2163199221
 21
99.8097873139
  0
LINE
  5
741
100
AcDbEntity
  8
0
100
AcDbLine
 62
7
  6
CONTINUOUS
 10
308.5978359706
 20
99.511915009
 11
308.8879045802
 21
99.8097873139
  0
LINE
  5
742
100
AcDbEntity
  8
0
100
AcDbLine
 62
7
  6
CONTINUOUS
 10
310.6216880277
 20
110.2655319238
 11
310.2736053643
 21
110.5634042287
  0
LINE
  5
743
100
AcDbEntity
  8
0
100
AcDbLine
 62
7
  6
CONTINUOUS
 10
307.2568891697
 20
113.244255338
 11
306.9088065063
 21
113.542127669
  0
LINE
  5
744
100
AcDbEntity
  8
0
100
AcDbLine
 62
7
  6
CONTINUOUS
 10
312.0986875861
 20
112.9463829809
 11
312.4467702494
 21
112.648510676
  0
LINE
  5
745
100
AcDbEntity
  8
0
100
AcDbLine
 62
7
  6
CONTINUOUS
 10
312.130046125
 20
112.9463829809
 11
312.4781287884
 21
112.648510676
  0
LINE
  5
746
100
AcDbEntity
  8
0
100
AcDbLine
 62
7
  6
CONTINUOUS
 10
301.0246869451
 20
98.1714892197
 11
301.4597902743
 21
97.5757446098
  0
LINE
  5
747
100
AcDbEntity
  8
0
100
AcDbLine
 62
7
  6
CONTINUOUS
 10
301.056045484
 20
98.1714892197
 11
301.4911488133
 21
97.5757446098
  0
LINE
  5
748
100
AcDbEntity
  8
0
100
AcDbLine
 62
7
  6
CONTINUOUS
 10
301.0246869451
 20
101.1502126861
 11
301.4597902743
 21
100.5544680762
  0
LINE
  5
749
100
AcDbEntity
  8
0
100
AcDbLine
 62
7
  6
CONTINUOUS
 10
301.056045484
 20
101.1502126861
 11
301.4911488133
 21
100.5544680762
  0
LINE
  5
74A
100
AcDbEntity
  8
0
100
AcDbLine
 62
7
  6
CONTINUOUS
 10
307.6962707732
 20
98.1714892197
 11
308.1313741024
 21
97.5757446098
  0
LINE
  5
74B
100
AcDbEntity
  8
0
100
AcDbLine
 62
7
  6
CONTINUOUS
 10
307.7276293122
 20
98.1714892197
 11
308.1627326414
 21
97.5757446098
  0
LINE
  5
74C
100
AcDbEntity
  8
0
100
AcDbLine
 62
7
  6
CONTINUOUS
 10
295.5447360939
 20
101.2991488385
 11
295.2546666545
 21
101.7459575045
  0
LINE
  5
74D
100
AcDbEntity
  8
0
100
AcDbLine
 62
7
  6
CONTINUOUS
 10
299.6056999468
 20
102.6395744193
 11
299.1705966175
 21
103.384255338
  0
LINE
  5
74E
100
AcDbEntity
  8
0
100
AcDbLine
 62
7
  6
CONTINUOUS
 10
295.8348055334
 20
98.3204253721
 11
295.6897699838
 21
98.618297677
  0
LINE
  5
74F
100
AcDbEntity
  8
0
100
AcDbLine
 62
7
  6
CONTINUOUS
 10
294.3531014571
 20
101.5970213521
 11
294.6431708965
 21
101.0012765336
  0
LINE
  5
750
100
AcDbEntity
  8
0
100
AcDbLine
 62
7
  6
CONTINUOUS
 10
294.3844599961
 20
101.5970213521
 11
294.6745294355
 21
101.0012765336
  0
LINE
  5
751
100
AcDbEntity
  8
0
100
AcDbLine
 62
7
  6
CONTINUOUS
 10
294.7882047863
 20
98.618297677
 11
294.9332403359
 21
98.1714892197
  0
LINE
  5
752
100
AcDbEntity
  8
0
100
AcDbLine
 62
7
  6
CONTINUOUS
 10
294.8195633253
 20
98.618297677
 11
294.9645988749
 21
98.1714892197
  0
LINE
  5
753
100
AcDbEntity
  8
0
100
AcDbLine
 62
7
  6
CONTINUOUS
 10
294.3531014571
 20
102.3417021143
 11
294.3531014571
 21
101.5970213521
  0
LINE
  5
754
100
AcDbEntity
  8
0
100
AcDbLine
 62
7
  6
CONTINUOUS
 10
294.3844599961
 20
102.3417021143
 11
294.3844599961
 21
101.5970213521
  0
LINE
  5
755
100
AcDbEntity
  8
0
100
AcDbLine
 62
7
  6
CONTINUOUS
 10
295.2546666545
 20
101.7459575045
 11
295.2546666545
 21
102.1927659619
  0
LINE
  5
756
100
AcDbEntity
  8
0
100
AcDbLine
 62
7
  6
CONTINUOUS
 10
298.4140669697
 20
99.0651065516
 11
298.4140669697
 21
98.7672342467
  0
LINE
  5
757
100
AcDbEntity
  8
0
100
AcDbLine
 62
7
  6
CONTINUOUS
 10
298.4454255087
 20
99.0651065516
 11
298.4454255087
 21
98.7672342467
  0
LINE
  5
758
100
AcDbEntity
  8
0
100
AcDbLine
 62
7
  6
CONTINUOUS
 10
299.1705966175
 20
98.0225530672
 11
299.3156321671
 21
98.618297677
  0
LINE
  5
759
100
AcDbEntity
  8
0
100
AcDbLine
 62
7
  6
CONTINUOUS
 10
298.4140669697
 20
98.7672342467
 11
298.2690314201
 21
98.3204253721
  0
LINE
  5
75A
100
AcDbEntity
  8
0
100
AcDbLine
 62
7
  6
CONTINUOUS
 10
298.4454255087
 20
98.7672342467
 11
298.3003899591
 21
98.3204253721
  0
LINE
  5
75B
100
AcDbEntity
  8
0
100
AcDbLine
 62
7
  6
CONTINUOUS
 10
301.0246869451
 20
102.788510676
 11
300.8796513955
 21
102.3417021143
  0
LINE
  5
75C
100
AcDbEntity
  8
0
100
AcDbLine
 62
7
  6
CONTINUOUS
 10
301.056045484
 20
102.788510676
 11
300.9110099344
 21
102.3417021143
  0
LINE
  5
75D
100
AcDbEntity
  8
0
100
AcDbLine
 62
7
  6
CONTINUOUS
 10
301.7812165929
 20
102.1927659619
 11
301.9262521425
 21
102.6395744193
  0
LINE
  5
75E
100
AcDbEntity
  8
0
100
AcDbLine
 62
7
  6
CONTINUOUS
 10
301.0246869451
 20
99.6608511615
 11
300.8796513955
 21
99.2140427041
  0
LINE
  5
75F
100
AcDbEntity
  8
0
100
AcDbLine
 62
7
  6
CONTINUOUS
 10
301.056045484
 20
99.6608511615
 11
300.9110099344
 21
99.2140427041
  0
LINE
  5
760
100
AcDbEntity
  8
0
100
AcDbLine
 62
7
  6
CONTINUOUS
 10
310.0415504767
 20
112.2017021143
 11
310.2736053643
 21
112.648510676
  0
LINE
  5
761
100
AcDbEntity
  8
0
100
AcDbLine
 62
7
  6
CONTINUOUS
 10
309.894164162
 20
113.244255338
 11
309.5460814986
 21
112.648510676
  0
LINE
  5
762
100
AcDbEntity
  8
0
100
AcDbLine
 62
7
  6
CONTINUOUS
 10
309.925522701
 20
113.244255338
 11
309.5774400376
 21
112.648510676
  0
LINE
  5
763
100
AcDbEntity
  8
0
100
AcDbLine
 62
7
  6
CONTINUOUS
 10
312.8262114518
 20
107.4357446098
 11
313.1742942812
 21
108.0314892197
  0
LINE
  5
764
100
AcDbEntity
  8
0
100
AcDbLine
 62
7
  6
CONTINUOUS
 10
315.8115694394
 20
109.0740427041
 11
315.1467626516
 21
108.0784506997
  0
LINE
  5
765
100
AcDbEntity
  8
0
100
AcDbLine
 62
7
  6
CONTINUOUS
 10
315.8429279784
 20
109.0740427041
 11
315.1467626516
 21
108.0314892197
  0
LINE
  5
766
100
AcDbEntity
  8
0
100
AcDbLine
 62
7
  6
CONTINUOUS
 10
315.1467626516
 20
106.84
 11
315.8429279784
 21
107.8825530672
  0
LINE
  5
767
100
AcDbEntity
  8
0
100
AcDbLine
 62
7
  6
CONTINUOUS
 10
308.1313741024
 20
100.2565957713
 11
307.6962707732
 21
99.6608511615
  0
LINE
  5
768
100
AcDbEntity
  8
0
100
AcDbLine
 62
7
  6
CONTINUOUS
 10
308.1627326414
 20
100.2565957713
 11
307.7276293122
 21
99.6608511615
  0
LINE
  5
769
100
AcDbEntity
  8
0
100
AcDbLine
 62
7
  6
CONTINUOUS
 10
309.5460814986
 20
110.4144680762
 11
309.894164162
 21
109.9676596189
  0
LINE
  5
76A
100
AcDbEntity
  8
0
100
AcDbLine
 62
7
  6
CONTINUOUS
 10
309.5774400376
 20
110.4144680762
 11
309.925522701
 21
109.9676596189
  0
LINE
  5
76B
100
AcDbEntity
  8
0
100
AcDbLine
 62
7
  6
CONTINUOUS
 10
310.2736053643
 20
110.5634042287
 11
310.0415504767
 21
110.8612765336
  0
LINE
  5
76C
100
AcDbEntity
  8
0
100
AcDbLine
 62
7
  6
CONTINUOUS
 10
309.6621092744
 20
108.0314892197
 11
310.0101919377
 21
107.4357446098
  0
LINE
  5
76D
100
AcDbEntity
  8
0
100
AcDbLine
 62
7
  6
CONTINUOUS
 10
309.6934678134
 20
108.0314892197
 11
310.0415504767
 21
107.4357446098
  0
LINE
  5
76E
100
AcDbEntity
  8
0
100
AcDbLine
 62
7
  6
CONTINUOUS
 10
298.2690314201
 20
99.511915009
 11
298.4140669697
 21
99.0651065516
  0
LINE
  5
76F
100
AcDbEntity
  8
0
100
AcDbLine
 62
7
  6
CONTINUOUS
 10
298.3003899591
 20
99.511915009
 11
298.4454255087
 21
99.0651065516
  0
LINE
  5
770
100
AcDbEntity
  8
0
100
AcDbLine
 62
7
  6
CONTINUOUS
 10
298.7041347493
 20
102.4906382668
 11
298.8491702989
 21
102.0438298094
  0
LINE
  5
771
100
AcDbEntity
  8
0
100
AcDbLine
 62
7
  6
CONTINUOUS
 10
298.7354932883
 20
102.4906382668
 11
298.8805288379
 21
102.0438298094
  0
LINE
  5
772
100
AcDbEntity
  8
0
100
AcDbLine
 62
7
  6
CONTINUOUS
 10
300.8796513955
 20
98.618297677
 11
301.0246869451
 21
98.1714892197
  0
LINE
  5
773
100
AcDbEntity
  8
0
100
AcDbLine
 62
7
  6
CONTINUOUS
 10
300.9110099344
 20
98.618297677
 11
301.056045484
 21
98.1714892197
  0
LINE
  5
774
100
AcDbEntity
  8
0
100
AcDbLine
 62
7
  6
CONTINUOUS
 10
301.9262521425
 20
98.3204253721
 11
301.7812165929
 21
98.7672342467
  0
LINE
  5
775
100
AcDbEntity
  8
0
100
AcDbLine
 62
7
  6
CONTINUOUS
 10
300.8796513955
 20
101.5970213521
 11
301.0246869451
 21
101.1502126861
  0
LINE
  5
776
100
AcDbEntity
  8
0
100
AcDbLine
 62
7
  6
CONTINUOUS
 10
300.9110099344
 20
101.5970213521
 11
301.056045484
 21
101.1502126861
  0
LINE
  5
777
100
AcDbEntity
  8
0
100
AcDbLine
 62
7
  6
CONTINUOUS
 10
301.9262521425
 20
101.2991488385
 11
301.7812165929
 21
101.7459575045
  0
LINE
  5
778
100
AcDbEntity
  8
0
100
AcDbLine
 62
7
  6
CONTINUOUS
 10
299.3156321671
 20
99.2140427041
 11
299.1705966175
 21
99.8097873139
  0
LINE
  5
779
100
AcDbEntity
  8
0
100
AcDbLine
 62
7
  6
CONTINUOUS
 10
299.7507354964
 20
102.0438298094
 11
299.6056999468
 21
102.6395744193
  0
LINE
  5
77A
100
AcDbEntity
  8
0
100
AcDbLine
 62
7
  6
CONTINUOUS
 10
299.3156321671
 20
98.618297677
 11
299.3156321671
 21
99.2140427041
  0
LINE
  5
77B
100
AcDbEntity
  8
0
100
AcDbLine
 62
7
  6
CONTINUOUS
 10
300.8796513955
 20
102.3417021143
 11
300.8796513955
 21
101.5970213521
  0
LINE
  5
77C
100
AcDbEntity
  8
0
100
AcDbLine
 62
7
  6
CONTINUOUS
 10
300.8796513955
 20
99.2140427041
 11
300.8796513955
 21
98.618297677
  0
LINE
  5
77D
100
AcDbEntity
  8
0
100
AcDbLine
 62
7
  6
CONTINUOUS
 10
300.9110099344
 20
102.3417021143
 11
300.9110099344
 21
101.5970213521
  0
LINE
  5
77E
100
AcDbEntity
  8
0
100
AcDbLine
 62
7
  6
CONTINUOUS
 10
300.9110099344
 20
99.2140427041
 11
300.9110099344
 21
98.618297677
  0
LINE
  5
77F
100
AcDbEntity
  8
0
100
AcDbLine
 62
7
  6
CONTINUOUS
 10
301.7812165929
 20
98.7672342467
 11
301.7812165929
 21
99.0651065516
  0
LINE
  5
780
100
AcDbEntity
  8
0
100
AcDbLine
 62
7
  6
CONTINUOUS
 10
301.7812165929
 20
101.7459575045
 11
301.7812165929
 21
102.1927659619
  0
LINE
  5
781
100
AcDbEntity
  8
0
100
AcDbLine
 62
7
  6
CONTINUOUS
 10
305.3757202373
 20
103.0863829809
 11
305.3757202373
 21
100.8523403811
  0
LINE
  5
782
100
AcDbEntity
  8
0
100
AcDbLine
 62
7
  6
CONTINUOUS
 10
305.3757202373
 20
99.9587234664
 11
305.3757202373
 21
97.8736169147
  0
LINE
  5
783
100
AcDbEntity
  8
0
100
AcDbLine
 62
7
  6
CONTINUOUS
 10
305.4070787763
 20
103.0863829809
 11
305.4070787763
 21
100.8523403811
  0
LINE
  5
784
100
AcDbEntity
  8
0
100
AcDbLine
 62
7
  6
CONTINUOUS
 10
305.4070787763
 20
99.9587234664
 11
305.4070787763
 21
97.8736169147
  0
LINE
  5
785
100
AcDbEntity
  8
0
100
AcDbLine
 62
7
  6
CONTINUOUS
 10
305.6011444257
 20
109.6697873139
 11
305.6011444257
 21
109.0740427041
  0
LINE
  5
786
100
AcDbEntity
  8
0
100
AcDbLine
 62
7
  6
CONTINUOUS
 10
305.6325029647
 20
109.6697873139
 11
305.6325029647
 21
109.0740427041
  0
LINE
  5
787
100
AcDbEntity
  8
0
100
AcDbLine
 62
7
  6
CONTINUOUS
 10
305.8331999772
 20
113.84
 11
305.8331999772
 21
113.244255338
  0
LINE
  5
788
100
AcDbEntity
  8
0
100
AcDbLine
 62
7
  6
CONTINUOUS
 10
305.8645585162
 20
113.84
 11
305.8645585162
 21
113.244255338
  0
LINE
  5
789
100
AcDbEntity
  8
0
100
AcDbLine
 62
7
  6
CONTINUOUS
 10
306.2772846048
 20
96.98
 11
306.2772846048
 21
103.98
  0
LINE
  5
78A
100
AcDbEntity
  8
0
100
AcDbLine
 62
7
  6
CONTINUOUS
 10
306.8774479673
 20
112.3506382668
 11
306.8774479673
 21
109.6697873139
  0
LINE
  5
78B
100
AcDbEntity
  8
0
100
AcDbLine
 62
7
  6
CONTINUOUS
 10
306.8774479673
 20
109.0740427041
 11
306.8774479673
 21
107.8825530672
  0
LINE
  5
78C
100
AcDbEntity
  8
0
100
AcDbLine
 62
7
  6
CONTINUOUS
 10
306.9088065063
 20
112.3506382668
 11
306.9088065063
 21
109.6697873139
  0
LINE
  5
78D
100
AcDbEntity
  8
0
100
AcDbLine
 62
7
  6
CONTINUOUS
 10
306.9088065063
 20
109.0740427041
 11
306.9088065063
 21
107.8825530672
  0
LINE
  5
78E
100
AcDbEntity
  8
0
100
AcDbLine
 62
7
  6
CONTINUOUS
 10
307.4889440573
 20
107.8825530672
 11
307.4889440573
 21
109.0740427041
  0
LINE
  5
78F
100
AcDbEntity
  8
0
100
AcDbLine
 62
7
  6
CONTINUOUS
 10
307.4889440573
 20
109.6697873139
 11
307.4889440573
 21
112.648510676
  0
LINE
  5
790
100
AcDbEntity
  8
0
100
AcDbLine
 62
7
  6
CONTINUOUS
 10
307.5512360535
 20
99.2140427041
 11
307.5512360535
 21
98.618297677
  0
LINE
  5
791
100
AcDbEntity
  8
0
100
AcDbLine
 62
7
  6
CONTINUOUS
 10
307.5825945925
 20
99.2140427041
 11
307.5825945925
 21
98.618297677
  0
LINE
  5
792
100
AcDbEntity
  8
0
100
AcDbLine
 62
7
  6
CONTINUOUS
 10
309.925522701
 20
111.754893657
 11
310.0415504767
 21
112.2017021143
  0
LINE
  5
793
100
AcDbEntity
  8
0
100
AcDbLine
 62
7
  6
CONTINUOUS
 10
312.7948529128
 20
111.3080851996
 11
312.678825469
 21
110.8612765336
  0
LINE
  5
794
100
AcDbEntity
  8
0
100
AcDbLine
 62
7
  6
CONTINUOUS
 10
312.8262114518
 20
111.3080851996
 11
312.710184008
 21
110.8612765336
  0
LINE
  5
795
100
AcDbEntity
  8
0
100
AcDbLine
 62
7
  6
CONTINUOUS
 10
309.5460814986
 20
112.648510676
 11
309.314026611
 21
111.9038298094
  0
LINE
  5
796
100
AcDbEntity
  8
0
100
AcDbLine
 62
7
  6
CONTINUOUS
 10
309.5774400376
 20
112.648510676
 11
309.34538515
 21
111.9038298094
  0
LINE
  5
797
100
AcDbEntity
  8
0
100
AcDbLine
 62
7
  6
CONTINUOUS
 10
313.1742942812
 20
108.0314892197
 11
313.4063493348
 21
108.7761703992
  0
LINE
  5
798
100
AcDbEntity
  8
0
100
AcDbLine
 62
7
  6
CONTINUOUS
 10
301.7812165929
 20
99.0651065516
 11
301.9262521425
 21
99.511915009
  0
LINE
  5
799
100
AcDbEntity
  8
0
100
AcDbLine
 62
7
  6
CONTINUOUS
 10
307.6962707732
 20
99.6608511615
 11
307.5512360535
 21
99.2140427041
  0
LINE
  5
79A
100
AcDbEntity
  8
0
100
AcDbLine
 62
7
  6
CONTINUOUS
 10
307.7276293122
 20
99.6608511615
 11
307.5825945925
 21
99.2140427041
  0
LINE
  5
79B
100
AcDbEntity
  8
0
100
AcDbLine
 62
7
  6
CONTINUOUS
 10
308.4528012509
 20
99.0651065516
 11
308.5978359706
 21
99.511915009
  0
LINE
  5
79C
100
AcDbEntity
  8
0
100
AcDbLine
 62
7
  6
CONTINUOUS
 10
312.678825469
 20
108.478297677
 11
312.4467702494
 21
108.0314892197
  0
LINE
  5
79D
100
AcDbEntity
  8
0
100
AcDbLine
 62
7
  6
CONTINUOUS
 10
312.710184008
 20
108.478297677
 11
312.4781287884
 21
108.0314892197
  0
LINE
  5
79E
100
AcDbEntity
  8
0
100
AcDbLine
 62
7
  6
CONTINUOUS
 10
313.1742942812
 20
112.648510676
 11
312.8262114518
 21
113.244255338
  0
LINE
  5
79F
100
AcDbEntity
  8
0
100
AcDbLine
 62
7
  6
CONTINUOUS
 10
310.3896328082
 20
108.0314892197
 11
310.1575775886
 21
108.478297677
  0
LINE
  5
7A0
100
AcDbEntity
  8
0
100
AcDbLine
 62
7
  6
CONTINUOUS
 10
312.4467702494
 20
112.648510676
 11
312.678825469
 21
112.2017021143
  0
LINE
  5
7A1
100
AcDbEntity
  8
0
100
AcDbLine
 62
7
  6
CONTINUOUS
 10
312.4781287884
 20
112.648510676
 11
312.710184008
 21
112.2017021143
  0
LINE
  5
7A2
100
AcDbEntity
  8
0
100
AcDbLine
 62
7
  6
CONTINUOUS
 10
307.4889440573
 20
112.648510676
 11
307.2568891697
 21
113.244255338
  0
LINE
  5
7A3
100
AcDbEntity
  8
0
100
AcDbLine
 62
7
  6
CONTINUOUS
 10
307.4062021637
 20
103.98
 11
308.7115121514
 21
100.5544680762
  0
LINE
  5
7A4
100
AcDbEntity
  8
0
100
AcDbLine
 62
7
  6
CONTINUOUS
 10
307.4375607027
 20
103.98
 11
308.7428706904
 21
100.5544680762
  0
LINE
  5
7A5
100
AcDbEntity
  8
0
100
AcDbLine
 62
7
  6
CONTINUOUS
 10
309.6130773488
 20
100.8523403811
 11
308.4528012509
 21
103.98
  0
LINE
  5
7A6
100
AcDbEntity
  8
0
100
AcDbLine
 62
7
  6
CONTINUOUS
 10
307.5512360535
 20
98.618297677
 11
307.6962707732
 21
98.1714892197
  0
LINE
  5
7A7
100
AcDbEntity
  8
0
100
AcDbLine
 62
7
  6
CONTINUOUS
 10
307.5825945925
 20
98.618297677
 11
307.7276293122
 21
98.1714892197
  0
LINE
  5
7A8
100
AcDbEntity
  8
0
100
AcDbLine
 62
7
  6
CONTINUOUS
 10
308.5978359706
 20
98.1714892197
 11
308.4528012509
 21
98.618297677
  0
LINE
  5
7A9
100
AcDbEntity
  8
0
100
AcDbLine
 62
7
  6
CONTINUOUS
 10
309.314026611
 20
111.1591488385
 11
309.5460814986
 21
110.4144680762
  0
LINE
  5
7AA
100
AcDbEntity
  8
0
100
AcDbLine
 62
7
  6
CONTINUOUS
 10
309.34538515
 20
111.1591488385
 11
309.5774400376
 21
110.4144680762
  0
LINE
  5
7AB
100
AcDbEntity
  8
0
100
AcDbLine
 62
7
  6
CONTINUOUS
 10
306.7614201916
 20
112.7974468285
 11
306.8774479673
 21
112.3506382668
  0
LINE
  5
7AC
100
AcDbEntity
  8
0
100
AcDbLine
 62
7
  6
CONTINUOUS
 10
306.7927787306
 20
112.7974468285
 11
306.9088065063
 21
112.3506382668
  0
LINE
  5
7AD
100
AcDbEntity
  8
0
100
AcDbLine
 62
7
  6
CONTINUOUS
 10
309.5460814986
 20
108.478297677
 11
309.6621092744
 21
108.0314892197
  0
LINE
  5
7AE
100
AcDbEntity
  8
0
100
AcDbLine
 62
7
  6
CONTINUOUS
 10
309.5774400376
 20
108.478297677
 11
309.6934678134
 21
108.0314892197
  0
LINE
  5
7AF
100
AcDbEntity
  8
0
100
AcDbLine
 62
7
  6
CONTINUOUS
 10
310.0415504767
 20
110.8612765336
 11
309.925522701
 21
111.3080851996
  0
LINE
  5
7B0
100
AcDbEntity
  8
0
100
AcDbLine
 62
7
  6
CONTINUOUS
 10
308.4171642717
 20
109.0740427041
 11
308.4171642717
 21
109.6697873139
  0
LINE
  5
7B1
100
AcDbEntity
  8
0
100
AcDbLine
 62
7
  6
CONTINUOUS
 10
308.4528012509
 20
98.618297677
 11
308.4528012509
 21
99.0651065516
  0
LINE
  5
7B2
100
AcDbEntity
  8
0
100
AcDbLine
 62
7
  6
CONTINUOUS
 10
309.314026611
 20
111.9038298094
 11
309.314026611
 21
111.1591488385
  0
LINE
  5
7B3
100
AcDbEntity
  8
0
100
AcDbLine
 62
7
  6
CONTINUOUS
 10
309.34538515
 20
111.9038298094
 11
309.34538515
 21
111.1591488385
  0
LINE
  5
7B4
100
AcDbEntity
  8
0
100
AcDbLine
 62
7
  6
CONTINUOUS
 10
309.925522701
 20
111.3080851996
 11
309.925522701
 21
111.754893657
  0
LINE
  5
7B5
100
AcDbEntity
  8
0
100
AcDbLine
 62
7
  6
CONTINUOUS
 10
312.0473040655
 20
103.98
 11
312.0473040655
 21
100.8523403811
  0
LINE
  5
7B6
100
AcDbEntity
  8
0
100
AcDbLine
 62
7
  6
CONTINUOUS
 10
312.0473040655
 20
99.9587234664
 11
312.0473040655
 21
97.7246807623
  0
LINE
  5
7B7
100
AcDbEntity
  8
0
100
AcDbLine
 62
7
  6
CONTINUOUS
 10
312.0786626044
 20
103.98
 11
312.0786626044
 21
100.8523403811
  0
LINE
  5
7B8
100
AcDbEntity
  8
0
100
AcDbLine
 62
7
  6
CONTINUOUS
 10
312.0786626044
 20
99.9587234664
 11
312.0786626044
 21
97.7246807623
  0
LINE
  5
7B9
100
AcDbEntity
  8
0
100
AcDbLine
 62
7
  6
CONTINUOUS
 10
312.7948529128
 20
111.754893657
 11
312.7948529128
 21
111.3080851996
  0
LINE
  5
7BA
100
AcDbEntity
  8
0
100
AcDbLine
 62
7
  6
CONTINUOUS
 10
312.8262114518
 20
111.754893657
 11
312.8262114518
 21
111.3080851996
  0
LINE
  5
7BB
100
AcDbEntity
  8
0
100
AcDbLine
 62
7
  6
CONTINUOUS
 10
312.9108806886
 20
110.0897606506
 11
312.9108806886
 21
109.8187234664
  0
LINE
  5
7BC
100
AcDbEntity
  8
0
100
AcDbLine
 62
7
  6
CONTINUOUS
 10
312.9422392276
 20
110.1165957713
 11
312.9422392276
 21
109.8187234664
  0
LINE
  5
7BD
100
AcDbEntity
  8
0
100
AcDbLine
 62
7
  6
CONTINUOUS
 10
312.9488692629
 20
96.98
 11
312.9488692629
 21
103.98
  0
LINE
  5
7BE
100
AcDbEntity
  8
0
100
AcDbLine
 62
7
  6
CONTINUOUS
 10
313.5223769445
 20
109.8187234664
 11
313.5223769445
 21
110.8612765336
  0
LINE
  5
7BF
100
AcDbEntity
  8
0
100
AcDbLine
 62
7
  6
CONTINUOUS
 10
314.4192387859
 20
113.84
 11
314.4192387859
 21
106.84
  0
LINE
  5
7C0
100
AcDbEntity
  8
0
100
AcDbLine
 62
7
  6
CONTINUOUS
 10
314.4505973249
 20
113.84
 11
314.4505973249
 21
106.84
  0
LINE
  5
7C1
100
AcDbEntity
  8
0
100
AcDbLine
 62
7
  6
CONTINUOUS
 10
315.1467626516
 20
108.0314892197
 11
315.1467626516
 21
113.84
  0
LINE
  5
7C2
100
AcDbEntity
  8
0
100
AcDbLine
 62
7
  6
CONTINUOUS
 10
315.8429279784
 20
107.8825530672
 11
315.8429279784
 21
109.0740427041
  0
LINE
  5
7C3
100
AcDbEntity
  8
0
100
AcDbLine
 62
7
  6
CONTINUOUS
 10
313.4063493348
 20
108.7761703992
 11
313.5223769445
 21
109.8187234664
  0
LINE
  5
7C4
100
AcDbEntity
  8
0
100
AcDbLine
 62
7
  6
CONTINUOUS
 10
312.9108806886
 20
109.8187234664
 11
312.7948529128
 21
108.9251065516
  0
LINE
  5
7C5
100
AcDbEntity
  8
0
100
AcDbLine
 62
7
  6
CONTINUOUS
 10
312.9422392276
 20
109.8187234664
 11
312.8262114518
 21
108.9251065516
  0
LINE
  5
7C6
100
AcDbEntity
  8
0
100
AcDbLine
 62
7
  6
CONTINUOUS
 10
312.7948529128
 20
108.9251065516
 11
312.678825469
 21
108.478297677
  0
LINE
  5
7C7
100
AcDbEntity
  8
0
100
AcDbLine
 62
7
  6
CONTINUOUS
 10
312.8262114518
 20
108.9251065516
 11
312.710184008
 21
108.478297677
  0
LINE
  5
7C8
100
AcDbEntity
  8
0
100
AcDbLine
 62
7
  6
CONTINUOUS
 10
316.3983373577
 20
103.98
 11
314.0777864068
 21
96.98
  0
LINE
  5
7C9
100
AcDbEntity
  8
0
100
AcDbLine
 62
7
  6
CONTINUOUS
 10
316.4296958967
 20
103.98
 11
314.1091449458
 21
96.98
  0
LINE
  5
7CA
100
AcDbEntity
  8
0
100
AcDbLine
 62
7
  6
CONTINUOUS
 10
314.9793516042
 20
96.98
 11
317.0098337381
 21
103.0863829809
  0
LINE
  5
7CB
100
AcDbEntity
  8
0
100
AcDbLine
 62
7
  6
CONTINUOUS
 10
316.9941544686
 20
103.039229833
 11
319.008957333
 21
96.98
  0
LINE
  5
7CC
100
AcDbEntity
  8
0
100
AcDbLine
 62
7
  6
CONTINUOUS
 10
317.0098337381
 20
103.0863829809
 11
319.040315872
 21
96.98
  0
LINE
  5
7CD
100
AcDbEntity
  8
0
100
AcDbLine
 62
7
  6
CONTINUOUS
 10
319.9105225305
 20
96.98
 11
317.5899713721
 21
103.98
  0
LINE
  5
7CE
100
AcDbEntity
  8
0
100
AcDbLine
 62
7
  6
CONTINUOUS
 10
313.4063493348
 20
111.9038298094
 11
313.1742942812
 21
112.648510676
  0
LINE
  5
7CF
100
AcDbEntity
  8
0
100
AcDbLine
 62
7
  6
CONTINUOUS
 10
312.678825469
 20
112.2017021143
 11
312.7948529128
 21
111.754893657
  0
LINE
  5
7D0
100
AcDbEntity
  8
0
100
AcDbLine
 62
7
  6
CONTINUOUS
 10
312.710184008
 20
112.2017021143
 11
312.8262114518
 21
111.754893657
  0
LINE
  5
7D1
100
AcDbEntity
  8
0
100
AcDbLine
 62
7
  6
CONTINUOUS
 10
313.5223769445
 20
110.8612765336
 11
313.4063493348
 21
111.9038298094
  0
LINE
  5
7D2
100
AcDbEntity
  8
RUNDUNGEN
100
AcDbLine
 62
7
  6
CONTINUOUS
 10
318.6150077695
 20
42.9589321881
 11
340.6860755814
 21
65.03
  0
LINE
  5
7D3
100
AcDbEntity
  8
RUNDUNGEN
100
AcDbLine
 62
7
  6
CONTINUOUS
 10
318.6150077695
 20
167.1010678119
 11
340.6860755814
 21
145.03
  0
LINE
  5
7D4
100
AcDbEntity
  8
RUNDUNGEN
100
AcDbLine
 62
7
  6
CONTINUOUS
 10
340.6860755814
 20
65.03
 11
340.6860755814
 21
145.03
  0
ARC
  5
7D5
100
AcDbEntity
  8
RUNDUNGEN
100
AcDbCircle
 62
7
  6
CONTINUOUS
 10
96.5006784187
 20
277.9169474928
 40
15.0
100
AcDbArc
 50
96.0
 51
171.0
  0
ARC
  5
7D6
100
AcDbEntity
  8
BEZUGSACHSEN
100
AcDbCircle
 62
7
  6
CONTINUOUS
 10
144.3546255268
 20
320.8286352784
 40
8.0
100
AcDbArc
 50
157.5
 51
186.0
  0
ARC
  5
7D7
100
AcDbEntity
  8
RUNDUNGEN
100
AcDbCircle
 62
7
  6
CONTINUOUS
 10
144.3546255268
 20
320.8286352784
 40
8.0
100
AcDbArc
 50
157.5
 51
186.0
  0
ARC
  5
7D8
100
AcDbEntity
  8
BEZUGSACHSEN
100
AcDbCircle
 62
7
  6
CONTINUOUS
 10
133.8316742479
 20
287.0130176107
 40
5.9999997338
100
AcDbArc
 50
278.1920078789
 51
6.0000100115
  0
ARC
  5
7D9
100
AcDbEntity
  8
RUNDUNGEN
100
AcDbCircle
 62
7
  6
CONTINUOUS
 10
130.6860755814
 20
292.570568594
 40
4.0
100
AcDbArc
 50
0.0
 51
96.0
  0
ARC
  5
7DA
100
AcDbEntity
  8
BEZUGSACHSEN
100
AcDbCircle
 62
7
  6
CONTINUOUS
 10
163.6902154726
 20
367.5088787621
 40
8.0
100
AcDbArc
 50
112.5
 51
153.0000000571
  0
ARC
  5
7DB
100
AcDbEntity
  8
RUNDUNGEN
100
AcDbCircle
 62
7
  6
CONTINUOUS
 10
163.6902154726
 20
367.5088787621
 40
8.0
100
AcDbArc
 50
112.5
 51
157.5
  0
ARC
  5
7DC
100
AcDbEntity
  8
0
100
AcDbCircle
 62
7
  6
CONTINUOUS
 10
209.1860755814
 20
322.0130186534
 40
47.7084973779
100
AcDbArc
 50
236.5996712494
 51
303.4003287419
  0
CIRCLE
  5
7DD
100
AcDbEntity
  8
RUNDUNGEN
100
AcDbCircle
 62
7
  6
CONTINUOUS
 10
209.1860755814
 20
322.0130186534
 40
45.0
  0
ARC
  5
7DE
100
AcDbEntity
  8
RUNDUNGEN
100
AcDbCircle
 62
7
  6
CONTINUOUS
 10
321.8714727441
 20
277.9169474928
 40
15.0
100
AcDbArc
 50
9.0
 51
84.0
  0
ARC
  5
7DF
100
AcDbEntity
  8
RUNDUNGEN
100
AcDbCircle
 62
7
  6
CONTINUOUS
 10
274.017525636
 20
320.8286352784
 40
8.0
100
AcDbArc
 50
354.0
 51
22.5
  0
ARC
  5
7E0
100
AcDbEntity
  8
BEZUGSACHSEN
100
AcDbCircle
 62
7
  6
CONTINUOUS
 10
284.5404769717
 20
287.0130181513
 40
5.9999998718
100
AcDbArc
 50
173.9999951794
 51
261.8080050543
  0
ARC
  5
7E1
100
AcDbEntity
  8
RUNDUNGEN
100
AcDbCircle
 62
7
  6
CONTINUOUS
 10
287.6860755814
 20
292.570568594
 40
4.0
100
AcDbArc
 50
84.0
 51
180.0
  0
ARC
  5
7E2
100
AcDbEntity
  8
RUNDUNGEN
100
AcDbCircle
 62
7
  6
CONTINUOUS
 10
254.6819356902
 20
367.5088787621
 40
8.0
100
AcDbArc
 50
22.5
 51
67.5
  0
ARC
  5
7E3
100
AcDbEntity
  8
BEZUGSACHSEN
100
AcDbCircle
 62
7
  6
CONTINUOUS
 10
209.1860755814
 20
386.353881051
 40
8.0
100
AcDbArc
 50
67.5
 51
112.5
  0
ARC
  5
7E4
100
AcDbEntity
  8
RUNDUNGEN
100
AcDbCircle
 62
7
  6
CONTINUOUS
 10
209.1860755814
 20
386.353881051
 40
8.0
100
AcDbArc
 50
67.5
 51
112.5
  0
ARC
  5
7E5
100
AcDbEntity
  8
BEZUGSACHSEN
100
AcDbCircle
 62
7
  6
CONTINUOUS
 10
427.4286572232
 20
295.4310869024
 40
30.0
100
AcDbArc
 50
355.9791972485
 51
0.000136176
  0
ARC
  5
7E6
100
AcDbEntity
  8
RUNDUNGEN
100
AcDbCircle
 62
7
  6
CONTINUOUS
 10
431.2413679882
 20
280.7309487383
 40
10.0
100
AcDbArc
 50
300.0
 51
333.8446162763
  0
ARC
  5
7E7
100
AcDbEntity
  8
RUNDUNGEN
100
AcDbCircle
 62
7
  6
CONTINUOUS
 10
412.4286572232
 20
253.7036175766
 40
4.0
100
AcDbArc
 50
120.0
 51
180.0
  0
ARC
  5
7E8
100
AcDbEntity
  8
BEZUGSACHSEN
100
AcDbCircle
 62
7
  6
CONTINUOUS
 10
462.4286572232
 20
389.353881051
 40
5.0
100
AcDbArc
 50
90.0
 51
180.0
  0
ARC
  5
7E9
100
AcDbEntity
  8
RUNDUNGEN
100
AcDbCircle
 62
7
  6
CONTINUOUS
 10
473.4286572232
 20
260.0130186534
 40
37.0
100
AcDbArc
 50
26.1553837237
 51
80.8136616931
  0
ARC
  5
7EA
100
AcDbEntity
  8
RUNDUNGEN
100
AcDbCircle
 62
7
  6
CONTINUOUS
 10
473.4286572232
 20
260.0130186534
 40
37.0
100
AcDbArc
 50
99.1861000098
 51
153.8446162763
  0
ARC
  5
7EB
100
AcDbEntity
  8
BEZUGSACHSEN
100
AcDbCircle
 62
7
  6
CONTINUOUS
 10
473.4286572232
 20
264.5130186534
 40
18.5
100
AcDbArc
 50
231.6214284786
 51
308.3785715214
  0
ARC
  5
7EC
100
AcDbEntity
  8
RUNDUNGEN
100
AcDbCircle
 62
7
  6
CONTINUOUS
 10
473.4286572232
 20
263.5130186534
 40
17.5
100
AcDbArc
 50
230.4855808614
 51
309.5144191386
  0
ARC
  5
7ED
100
AcDbEntity
  8
BEZUGSACHSEN
100
AcDbCircle
 62
7
  6
CONTINUOUS
 10
473.4286572232
 20
263.5130186534
 40
17.5
100
AcDbArc
 50
230.4948907661
 51
270.0
  0
ARC
  5
7EE
100
AcDbEntity
  8
RUNDUNGEN
100
AcDbCircle
 62
7
  6
CONTINUOUS
 10
534.4286456353
 20
253.7036242669
 40
4.0
100
AcDbArc
 50
359.9999041695
 51
59.9998083385
  0
ARC
  5
7EF
100
AcDbEntity
  8
RUNDUNGEN
100
AcDbCircle
 62
7
  6
CONTINUOUS
 10
519.4286572232
 20
295.4310869024
 40
30.0
100
AcDbArc
 50
179.999863824
 51
184.0208035018
  0
ARC
  5
7F0
100
AcDbEntity
  8
RUNDUNGEN
100
AcDbCircle
 62
7
  6
CONTINUOUS
 10
515.6159464581
 20
280.7309487383
 40
10.0
100
AcDbArc
 50
206.1553837237
 51
240.0
  0
ARC
  5
7F1
100
AcDbEntity
  8
RUNDUNGEN
100
AcDbCircle
 62
7
  6
CONTINUOUS
 10
484.4286572232
 20
389.353881051
 40
5.0
100
AcDbArc
 50
0.0
 51
90.0
  0
ARC
  5
7F2
100
AcDbEntity
  8
0
100
AcDbCircle
 62
7
  6
CONTINUOUS
 10
247.8502149257
 20
7.1048387847
 40
116.9251601766
100
AcDbArc
 50
89.3029149069
 51
89.6296098543
  0
ARC
  5
7F3
100
AcDbEntity
  8
0
100
AcDbCircle
 62
7
  6
CONTINUOUS
 10
170.521936237
 20
202.9551612091
 40
116.9251601704
100
AcDbArc
 50
269.3029149069
 51
269.6296098543
  0
ARC
  5
7F4
100
AcDbEntity
  8
0
100
AcDbCircle
 62
7
  6
CONTINUOUS
 10
263.3242770194
 20
72.0514277397
 40
51.978571931
100
AcDbArc
 50
88.9544525824
 51
89.6893730095
  0
ARC
  5
7F5
100
AcDbEntity
  8
0
100
AcDbCircle
 62
7
  6
CONTINUOUS
 10
155.0478741434
 20
138.0085722579
 40
51.9785719285
100
AcDbArc
 50
268.9544525824
 51
269.6893730095
  0
ARC
  5
7F6
100
AcDbEntity
  8
0
100
AcDbCircle
 62
7
  6
CONTINUOUS
 10
248.2280019261
 20
94.7872380901
 40
29.2427619099
100
AcDbArc
 50
89.2592140104
 51
90.0000030694
  0
ARC
  5
7F7
100
AcDbEntity
  8
0
100
AcDbCircle
 62
7
  6
CONTINUOUS
 10
170.1441492367
 20
115.2727619077
 40
29.2427619077
100
AcDbArc
 50
269.2592140103
 51
270.0000030695
  0
ARC
  5
7F8
100
AcDbEntity
  8
RUNDUNGEN
100
AcDbCircle
 62
7
  6
CONTINUOUS
 10
296.894285435
 20
160.03
 40
10.0
100
AcDbArc
 50
90.0
 51
174.0
  0
ARC
  5
7F9
100
AcDbEntity
  8
RUNDUNGEN
100
AcDbCircle
 62
7
  6
CONTINUOUS
 10
311.5439399577
 20
160.03
 40
10.0
100
AcDbArc
 50
45.0
 51
90.0
  0
ARC
  5
7FA
100
AcDbEntity
  8
RUNDUNGEN
100
AcDbCircle
 62
7
  6
CONTINUOUS
 10
311.5439399577
 20
50.03
 40
10.0
100
AcDbArc
 50
270.0
 51
315.0
  0
ARC
  5
7FB
100
AcDbEntity
  8
RUNDUNGEN
100
AcDbCircle
 62
7
  6
CONTINUOUS
 10
296.894285435
 20
50.03
 40
10.0
100
AcDbArc
 50
186.0
 51
270.0
  0
ARC
  5
7FC
100
AcDbEntity
  8
RUNDUNGEN
100
AcDbCircle
 62
7
  6
CONTINUOUS
 10
121.4778657278
 20
50.03
 40
10.0
100
AcDbArc
 50
270.0
 51
354.0
  0
ARC
  5
7FD
100
AcDbEntity
  8
RUNDUNGEN
100
AcDbCircle
 62
7
  6
CONTINUOUS
 10
106.8282112051
 20
50.03
 40
10.0
100
AcDbArc
 50
225.0
 51
270.0
  0
ARC
  5
7FE
100
AcDbEntity
  8
RUNDUNGEN
100
AcDbCircle
 62
7
  6
CONTINUOUS
 10
106.8282112051
 20
160.03
 40
10.0
100
AcDbArc
 50
90.0
 51
135.0
  0
ARC
  5
7FF
100
AcDbEntity
  8
RUNDUNGEN
100
AcDbCircle
 62
7
  6
CONTINUOUS
 10
121.4778657278
 20
160.03
 40
10.0
100
AcDbArc
 50
6.0
 51
90.0
  0
ARC
  5
800
100
AcDbEntity
  8
BEZUGSACHSEN
100
AcDbCircle
 62
7
  6
CONTINUOUS
 10
277.017525636
 20
116.03
 40
5.0
100
AcDbArc
 50
0.0
 51
90.0
  0
ARC
  5
801
100
AcDbEntity
  8
BEZUGSACHSEN
100
AcDbCircle
 62
7
  6
CONTINUOUS
 10
141.3546255268
 20
116.03
 40
5.0
100
AcDbArc
 50
90.0
 51
180.0
  0
ARC
  5
802
100
AcDbEntity
  8
RUNDUNGEN
100
AcDbCircle
 62
7
  6
CONTINUOUS
 10
277.017525636
 20
94.03
 40
5.0
100
AcDbArc
 50
270.0
 51
360.0
  0
ARC
  5
803
100
AcDbEntity
  8
RUNDUNGEN
100
AcDbCircle
 62
7
  6
CONTINUOUS
 10
141.3546255268
 20
94.03
 40
5.0
100
AcDbArc
 50
180.0
 51
270.0
  0
ARC
  5
804
100
AcDbEntity
  8
RUNDUNGEN
100
AcDbCircle
 62
7
  6
CONTINUOUS
 10
286.1860755814
 20
129.8989805518
 40
2.5
100
AcDbArc
 50
174.0
 51
180.0
  0
ARC
  5
805
100
AcDbEntity
  8
RUNDUNGEN
100
AcDbCircle
 62
7
  6
CONTINUOUS
 10
286.1860755814
 20
80.1610130942
 40
2.5
100
AcDbArc
 50
179.9998543758
 51
185.9998551735
  0
ARC
  5
806
100
AcDbEntity
  8
RUNDUNGEN
100
AcDbCircle
 62
7
  6
CONTINUOUS
 10
132.1860755814
 20
80.1610194482
 40
2.5
100
AcDbArc
 50
354.0
 51
360.0
  0
ARC
  5
807
100
AcDbEntity
  8
RUNDUNGEN
100
AcDbCircle
 62
7
  6
CONTINUOUS
 10
132.1860755814
 20
129.8989869058
 40
2.5
100
AcDbArc
 50
359.9998543758
 51
5.9998551735
  0
SPLINE
  5
808
100
AcDbEntity
  8
0
100
AcDbSpline
 62
7
  6
CONTINUOUS
 70
0
 71
3
 72
8
 73
4
 74
0
 42
0.0000001
 43
0.0000001
 44
0.0000000001
 40
0.0
 40
0.0
 40
0.0
 40
0.0
 40
1.0
 40
1.0
 40
1.0
 40
1.0
 10
216.1908280981
 20
261.3429575866
 30
0.0
 10
216.1908280981
 20
260.5215047902
 30
0.0
 10
216.2505697144
 20
259.9688909879
 30
0.0
 10
216.3818481562
 20
259.668826031
 30
0.0
  0
SPLINE
  5
809
100
AcDbEntity
  8
0
100
AcDbSpline
 62
7
  6
CONTINUOUS
 70
0
 71
3
 72
8
 73
4
 74
0
 42
0.0000001
 43
0.0000001
 44
0.0000000001
 40
0.0
 40
0.0
 40
0.0
 40
0.0
 40
1.0
 40
1.0
 40
1.0
 40
1.0
 10
216.3818481562
 20
259.668826031
 30
0.0
 10
216.5119410885
 20
259.3714708095
 30
0.0
 10
216.7658445967
 20
259.1474382017
 30
0.0
 10
217.1454409774
 20
259.0022983607
 30
0.0
  0
SPLINE
  5
80A
100
AcDbEntity
  8
0
100
AcDbSpline
 62
7
  6
CONTINUOUS
 70
0
 71
3
 72
8
 73
4
 74
0
 42
0.0000001
 43
0.0000001
 44
0.0000000001
 40
0.0
 40
0.0
 40
0.0
 40
0.0
 40
1.0
 40
1.0
 40
1.0
 40
1.0
 10
217.1454409774
 20
259.0022983607
 30
0.0
 10
217.5275551213
 20
258.8561958453
 30
0.0
 10
217.9606847895
 20
258.7815183127
 30
0.0
 10
218.4386216534
 20
258.7815183127
 30
0.0
  0
SPLINE
  5
80B
100
AcDbEntity
  8
0
100
AcDbSpline
 62
7
  6
CONTINUOUS
 70
0
 71
3
 72
8
 73
4
 74
0
 42
0.0000001
 43
0.0000001
 44
0.0000000001
 40
0.0
 40
0.0
 40
0.0
 40
0.0
 40
1.0
 40
1.0
 40
1.0
 40
1.0
 10
218.4386216534
 20
258.7815183127
 30
0.0
 10
218.7373310459
 20
258.7815183127
 30
0.0
 10
219.1405905617
 20
258.8039215827
 30
0.0
 10
219.655865444
 20
258.848728092
 30
0.0
  0
SPLINE
  5
80C
100
AcDbEntity
  8
0
100
AcDbSpline
 62
7
  6
CONTINUOUS
 70
0
 71
3
 72
8
 73
4
 74
0
 42
0.0000001
 43
0.0000001
 44
0.0000000001
 40
0.0
 40
0.0
 40
0.0
 40
0.0
 40
1.0
 40
1.0
 40
1.0
 40
1.0
 10
219.655865444
 20
260.4542949801
 30
0.0
 10
219.4019606245
 20
260.5439080602
 30
0.0
 10
219.2152679098
 20
260.5961823022
 30
0.0
 10
219.0881831575
 20
260.6098683597
 30
0.0
  0
SPLINE
  5
80D
100
AcDbEntity
  8
0
100
AcDbSpline
 62
7
  6
CONTINUOUS
 70
0
 71
3
 72
8
 73
4
 74
0
 42
0.0000001
 43
0.0000001
 44
0.0000000001
 40
0.0
 40
0.0
 40
0.0
 40
0.0
 40
1.0
 40
1.0
 40
1.0
 40
1.0
 10
219.0881831575
 20
260.6098683597
 30
0.0
 10
218.7298644913
 20
260.6484565443
 30
0.0
 10
218.5132990015
 20
260.7156663543
 30
0.0
 10
218.4386216937
 20
260.805279304
 30
0.0
  0
SPLINE
  5
80E
100
AcDbEntity
  8
0
100
AcDbSpline
 62
7
  6
CONTINUOUS
 70
0
 71
3
 72
8
 73
4
 74
0
 42
0.0000001
 43
0.0000001
 44
0.0000000001
 40
0.0
 40
0.0
 40
0.0
 40
0.0
 40
1.0
 40
1.0
 40
1.0
 40
1.0
 10
218.4386216937
 20
260.805279304
 30
0.0
 10
218.3639443053
 20
260.8948923504
 30
0.0
 10
218.3266049755
 20
261.0741185105
 30
0.0
 10
218.3266049755
 20
261.3578929907
 30
0.0
  0
SPLINE
  5
80F
100
AcDbEntity
  8
0
100
AcDbSpline
 62
7
  6
CONTINUOUS
 70
0
 71
3
 72
8
 73
4
 74
0
 42
0.0000001
 43
0.0000001
 44
0.0000000001
 40
0.0
 40
0.0
 40
0.0
 40
0.0
 40
1.0
 40
1.0
 40
1.0
 40
1.0
 10
209.3504134111
 20
263.8222033925
 30
0.0
 10
209.641608013
 20
264.1060261881
 30
0.0
 10
210.007528199
 20
264.2553812122
 30
0.0
 10
210.4555935992
 20
264.2553812122
 30
0.0
  0
SPLINE
  5
810
100
AcDbEntity
  8
0
100
AcDbSpline
 62
7
  6
CONTINUOUS
 70
0
 71
3
 72
8
 73
4
 74
0
 42
0.0000001
 43
0.0000001
 44
0.0000000001
 40
0.0
 40
0.0
 40
0.0
 40
0.0
 40
1.0
 40
1.0
 40
1.0
 40
1.0
 10
210.4555935992
 20
264.2553812122
 30
0.0
 10
210.9111268652
 20
264.2553812122
 30
0.0
 10
211.2770470513
 20
264.0910904562
 30
0.0
 10
211.5511350881
 20
263.7606825059
 30
0.0
  0
SPLINE
  5
811
100
AcDbEntity
  8
0
100
AcDbSpline
 62
7
  6
CONTINUOUS
 70
0
 71
3
 72
8
 73
4
 74
0
 42
0.0000001
 43
0.0000001
 44
0.0000000001
 40
0.0
 40
0.0
 40
0.0
 40
0.0
 40
1.0
 40
1.0
 40
1.0
 40
1.0
 10
211.5511350881
 20
263.7606825059
 30
0.0
 10
211.8221920861
 20
263.4339284157
 30
0.0
 10
211.9640802277
 20
262.9858633434
 30
0.0
 10
211.9640802277
 20
262.4332494592
 30
0.0
  0
SPLINE
  5
812
100
AcDbEntity
  8
0
100
AcDbSpline
 62
7
  6
CONTINUOUS
 70
0
 71
3
 72
8
 73
4
 74
0
 42
0.0000001
 43
0.0000001
 44
0.0000000001
 40
0.0
 40
0.0
 40
0.0
 40
0.0
 40
1.0
 40
1.0
 40
1.0
 40
1.0
 10
211.9640802277
 20
262.4332494592
 30
0.0
 10
211.9640802277
 20
261.8955713069
 30
0.0
 10
211.837127818
 20
261.4475060707
 30
0.0
 10
211.5906921757
 20
261.0890539145
 30
0.0
  0
SPLINE
  5
813
100
AcDbEntity
  8
0
100
AcDbSpline
 62
7
  6
CONTINUOUS
 70
0
 71
3
 72
8
 73
4
 74
0
 42
0.0000001
 43
0.0000001
 44
0.0000000001
 40
0.0
 40
0.0
 40
0.0
 40
0.0
 40
1.0
 40
1.0
 40
1.0
 40
1.0
 10
211.5906921757
 20
261.0890539145
 30
0.0
 10
211.3442565335
 20
260.7306017583
 30
0.0
 10
210.9708684815
 20
260.5588434642
 30
0.0
 10
210.477997197
 20
260.5588434642
 30
0.0
  0
SPLINE
  5
814
100
AcDbEntity
  8
0
100
AcDbSpline
 62
7
  6
CONTINUOUS
 70
0
 71
3
 72
8
 73
4
 74
0
 42
0.0000001
 43
0.0000001
 44
0.0000000001
 40
0.0
 40
0.0
 40
0.0
 40
0.0
 40
1.0
 40
1.0
 40
1.0
 40
1.0
 10
210.477997197
 20
260.5588434642
 30
0.0
 10
210.007528199
 20
260.5588434642
 30
0.0
 10
209.6266735924
 20
260.7231340563
 30
0.0
 10
209.3407897104
 20
261.0498579923
 30
0.0
  0
SPLINE
  5
815
100
AcDbEntity
  8
0
100
AcDbSpline
 62
7
  6
CONTINUOUS
 70
0
 71
3
 72
8
 73
4
 74
0
 42
0.0000001
 43
0.0000001
 44
0.0000000001
 40
0.0
 40
0.0
 40
0.0
 40
0.0
 40
1.0
 40
1.0
 40
1.0
 40
1.0
 10
209.3407897104
 20
261.0498579923
 30
0.0
 10
209.0516557825
 20
261.3802962607
 30
0.0
 10
208.9097689522
 20
261.8507647669
 30
0.0
 10
208.9097689522
 20
262.4705881333
 30
0.0
  0
SPLINE
  5
816
100
AcDbEntity
  8
0
100
AcDbSpline
 62
7
  6
CONTINUOUS
 70
0
 71
3
 72
8
 73
4
 74
0
 42
0.0000001
 43
0.0000001
 44
0.0000000001
 40
0.0
 40
0.0
 40
0.0
 40
0.0
 40
1.0
 40
1.0
 40
1.0
 40
1.0
 10
208.9097689522
 20
262.4705881333
 30
0.0
 10
208.9097689522
 20
263.0829439616
 30
0.0
 10
209.0516557825
 20
263.5310090339
 30
0.0
 10
209.3504134111
 20
263.8222033925
 30
0.0
  0
SPLINE
  5
817
100
AcDbEntity
  8
0
100
AcDbSpline
 62
7
  6
CONTINUOUS
 70
0
 71
3
 72
8
 73
4
 74
0
 42
0.0000001
 43
0.0000001
 44
0.0000000001
 40
0.0
 40
0.0
 40
0.0
 40
0.0
 40
1.0
 40
1.0
 40
1.0
 40
1.0
 10
210.6497554911
 20
269.8785990333
 30
0.0
 10
208.0435096157
 20
269.8785990333
 30
0.0
 10
206.744120611
 20
267.9071125841
 30
0.0
 10
206.744120611
 20
263.9716065681
 30
0.0
  0
SPLINE
  5
818
100
AcDbEntity
  8
0
100
AcDbSpline
 62
7
  6
CONTINUOUS
 70
0
 71
3
 72
8
 73
4
 74
0
 42
0.0000001
 43
0.0000001
 44
0.0000000001
 40
0.0
 40
0.0
 40
0.0
 40
0.0
 40
1.0
 40
1.0
 40
1.0
 40
1.0
 10
206.744120611
 20
263.9716065681
 30
0.0
 10
206.744120611
 20
262.2166846251
 30
0.0
 10
207.0727014674
 20
260.9098279184
 30
0.0
 10
207.7447995725
 20
260.0585040719
 30
0.0
  0
SPLINE
  5
819
100
AcDbEntity
  8
0
100
AcDbSpline
 62
7
  6
CONTINUOUS
 70
0
 71
3
 72
8
 73
4
 74
0
 42
0.0000001
 43
0.0000001
 44
0.0000000001
 40
0.0
 40
0.0
 40
0.0
 40
0.0
 40
1.0
 40
1.0
 40
1.0
 40
1.0
 10
207.7447995725
 20
260.0585040719
 30
0.0
 10
208.4168976677
 20
259.207180238
 30
0.0
 10
209.3503664864
 20
258.7815183127
 30
0.0
 10
210.5452066792
 20
258.7815183127
 30
0.0
  0
SPLINE
  5
81A
100
AcDbEntity
  8
0
100
AcDbSpline
 62
7
  6
CONTINUOUS
 70
0
 71
3
 72
8
 73
4
 74
0
 42
0.0000001
 43
0.0000001
 44
0.0000000001
 40
0.0
 40
0.0
 40
0.0
 40
0.0
 40
1.0
 40
1.0
 40
1.0
 40
1.0
 10
210.5452066792
 20
258.7815183127
 30
0.0
 10
211.642965926
 20
258.7815183127
 30
0.0
 10
212.5166931284
 20
259.1325026952
 30
0.0
 10
213.1589200661
 20
259.834471774
 30
0.0
  0
SPLINE
  5
81B
100
AcDbEntity
  8
0
100
AcDbSpline
 62
7
  6
CONTINUOUS
 70
0
 71
3
 72
8
 73
4
 74
0
 42
0.0000001
 43
0.0000001
 44
0.0000000001
 40
0.0
 40
0.0
 40
0.0
 40
0.0
 40
1.0
 40
1.0
 40
1.0
 40
1.0
 10
213.1589200661
 20
259.834471774
 30
0.0
 10
213.8011464013
 20
260.5364401942
 30
0.0
 10
214.1297285689
 20
261.4624416387
 30
0.0
 10
214.1297285689
 20
262.6124756193
 30
0.0
  0
SPLINE
  5
81C
100
AcDbEntity
  8
0
100
AcDbSpline
 62
7
  6
CONTINUOUS
 70
0
 71
3
 72
8
 73
4
 74
0
 42
0.0000001
 43
0.0000001
 44
0.0000000001
 40
0.0
 40
0.0
 40
0.0
 40
0.0
 40
1.0
 40
1.0
 40
1.0
 40
1.0
 10
214.1297285689
 20
262.6124756193
 30
0.0
 10
214.1297285689
 20
263.6728965199
 30
0.0
 10
213.8235499991
 20
264.5018171823
 30
0.0
 10
213.2111942528
 20
265.1141727647
 30
0.0
  0
SPLINE
  5
81D
100
AcDbEntity
  8
0
100
AcDbSpline
 62
7
  6
CONTINUOUS
 70
0
 71
3
 72
8
 73
4
 74
0
 42
0.0000001
 43
0.0000001
 44
0.0000000001
 40
0.0
 40
0.0
 40
0.0
 40
0.0
 40
1.0
 40
1.0
 40
1.0
 40
1.0
 10
213.2111942528
 20
265.1141727647
 30
0.0
 10
212.5988383425
 20
265.726528511
 30
0.0
 10
211.8595314158
 20
266.0327064252
 30
0.0
 10
210.9783363474
 20
266.0327064252
 30
0.0
  0
SPLINE
  5
81E
100
AcDbEntity
  8
0
100
AcDbSpline
 62
7
  6
CONTINUOUS
 70
0
 71
3
 72
8
 73
4
 74
0
 42
0.0000001
 43
0.0000001
 44
0.0000000001
 40
0.0
 40
0.0
 40
0.0
 40
0.0
 40
1.0
 40
1.0
 40
1.0
 40
1.0
 10
210.9783363474
 20
266.0327064252
 30
0.0
 10
210.2166258229
 20
266.0327064252
 30
0.0
 10
209.4847854508
 20
265.726528511
 30
0.0
 10
208.7902844084
 20
265.1141726827
 30
0.0
  0
SPLINE
  5
81F
100
AcDbEntity
  8
0
100
AcDbSpline
 62
7
  6
CONTINUOUS
 70
0
 71
3
 72
8
 73
4
 74
0
 42
0.0000001
 43
0.0000001
 44
0.0000000001
 40
0.0
 40
0.0
 40
0.0
 40
0.0
 40
1.0
 40
1.0
 40
1.0
 40
1.0
 10
208.7902844084
 20
265.1141726827
 30
0.0
 10
208.9097689522
 20
266.2866099333
 30
0.0
 10
209.118866576
 20
267.0781919217
 30
0.0
 10
209.4169020695
 20
267.4894055554
 30
0.0
  0
SPLINE
  5
820
100
AcDbEntity
  8
0
100
AcDbSpline
 62
7
  6
CONTINUOUS
 70
0
 71
3
 72
8
 73
4
 74
0
 42
0.0000001
 43
0.0000001
 44
0.0000000001
 40
0.0
 40
0.0
 40
0.0
 40
0.0
 40
1.0
 40
1.0
 40
1.0
 40
1.0
 10
209.4169020695
 20
267.4894055554
 30
0.0
 10
209.7088188065
 20
267.8921768522
 30
0.0
 10
210.0896734131
 20
268.1012738204
 30
0.0
 10
210.567610277
 20
268.1012738204
 30
0.0
  0
SPLINE
  5
821
100
AcDbEntity
  8
0
100
AcDbSpline
 62
7
  6
CONTINUOUS
 70
0
 71
3
 72
8
 73
4
 74
0
 42
0.0000001
 43
0.0000001
 44
0.0000000001
 40
0.0
 40
0.0
 40
0.0
 40
0.0
 40
1.0
 40
1.0
 40
1.0
 40
1.0
 10
210.567610277
 20
268.1012738204
 30
0.0
 10
211.1575625075
 20
268.1012738204
 30
0.0
 10
211.553352846
 20
267.7577572322
 30
0.0
 10
211.7549826039
 20
267.0707240557
 30
0.0
  0
SPLINE
  5
822
100
AcDbEntity
  8
0
100
AcDbSpline
 62
7
  6
CONTINUOUS
 70
0
 71
3
 72
8
 73
4
 74
0
 42
0.0000001
 43
0.0000001
 44
0.0000000001
 40
0.0
 40
0.0
 40
0.0
 40
0.0
 40
1.0
 40
1.0
 40
1.0
 40
1.0
 10
213.9206309451
 20
267.0707240557
 30
0.0
 10
213.6592595709
 20
268.9376623487
 30
0.0
 10
212.56896819
 20
269.8785990333
 30
0.0
 10
210.6497554911
 20
269.8785990333
 30
0.0
  0
SPLINE
  5
823
100
AcDbEntity
  8
0
100
AcDbSpline
 62
7
  6
CONTINUOUS
 70
0
 71
3
 72
8
 73
4
 74
0
 42
0.0000001
 43
0.0000001
 44
0.0000000001
 40
0.0
 40
0.0
 40
0.0
 40
0.0
 40
1.0
 40
1.0
 40
1.0
 40
1.0
 10
201.6436452103
 20
269.639631257
 30
0.0
 10
201.5241613222
 20
269.1243563747
 30
0.0
 10
201.3673384322
 20
268.7584361887
 30
0.0
 10
201.1582413764
 20
268.5344035704
 30
0.0
  0
SPLINE
  5
824
100
AcDbEntity
  8
0
100
AcDbSpline
 62
7
  6
CONTINUOUS
 70
0
 71
3
 72
8
 73
4
 74
0
 42
0.0000001
 43
0.0000001
 44
0.0000000001
 40
0.0
 40
0.0
 40
0.0
 40
0.0
 40
1.0
 40
1.0
 40
1.0
 40
1.0
 10
201.1582413764
 20
268.5344035704
 30
0.0
 10
200.949144168
 20
268.3103707885
 30
0.0
 10
200.6803052557
 20
268.1311446285
 30
0.0
 10
200.3530220774
 20
268.0009751937
 30
0.0
  0
SPLINE
  5
825
100
AcDbEntity
  8
0
100
AcDbSpline
 62
7
  6
CONTINUOUS
 70
0
 71
3
 72
8
 73
4
 74
0
 42
0.0000001
 43
0.0000001
 44
0.0000000001
 40
0.0
 40
0.0
 40
0.0
 40
0.0
 40
1.0
 40
1.0
 40
1.0
 40
1.0
 10
200.3530220774
 20
268.0009751937
 30
0.0
 10
200.0231428874
 20
267.8697732544
 30
0.0
 10
199.4779970331
 20
267.8100316381
 30
0.0
 10
198.7162861807
 20
267.8100316381
 30
0.0
  0
SPLINE
  5
826
100
AcDbEntity
  8
0
100
AcDbSpline
 62
7
  6
CONTINUOUS
 70
0
 71
3
 72
8
 73
4
 74
0
 42
0.0000001
 43
0.0000001
 44
0.0000000001
 40
0.0
 40
0.0
 40
0.0
 40
0.0
 40
1.0
 40
1.0
 40
1.0
 40
1.0
 10
179.1860755814
 20
284.655369189
 30
0.0
 10
180.4369911658
 20
283.8394327553
 30
0.0
 10
181.6764048696
 20
283.0059933916
 30
0.0
 10
182.9232386061
 20
282.1838330078
 30
0.0
  0
SPLINE
  5
827
100
AcDbEntity
  8
0
100
AcDbSpline
 62
7
  6
CONTINUOUS
 70
0
 71
3
 72
8
 73
4
 74
0
 42
0.0000001
 43
0.0000001
 44
0.0000000001
 40
0.0
 40
0.0
 40
0.0
 40
0.0
 40
1.0
 40
1.0
 40
1.0
 40
1.0
 10
235.448912552
 20
282.1838330016
 30
0.0
 10
236.6957463122
 20
283.0059933726
 30
0.0
 10
237.9351599808
 20
283.8394328128
 30
0.0
 10
239.1860755814
 20
284.655369245
 30
0.0
  0
ELLIPSE
  5
828
100
AcDbEntity
  8
RUNDUNGEN
100
AcDbEllipse
 62
7
  6
CONTINUOUS
 10
509.8931233172
 20
239.0318855996
 30
0.0
 11
2.5304047871
 21
15.9763470573
 31
0.0
 40
0.1545547829
 41
-0.7731610709
 42
0.0244741851
  0
ELLIPSE
  5
829
100
AcDbEntity
  8
RUNDUNGEN
100
AcDbEllipse
 62
7
  6
CONTINUOUS
 10
436.9641911291
 20
239.0318855996
 30
0.0
 11
2.5304047871
 21
-15.9763470573
 31
0.0
 40
0.1545547829
 41
3.1171184685
 42
3.9147537245
  0
ELLIPSE
  5
82A
100
AcDbEntity
  8
0
100
AcDbEllipse
 62
7
  6
CONTINUOUS
 10
264.8051823263
 20
93.53
 30
0.0
 11
89.5937606804
 21
0.0
 31
0.0
 40
0.3404254913
 41
1.5692981555
 42
1.5707963268
  0
ELLIPSE
  5
82B
100
AcDbEntity
  8
0
100
AcDbEllipse
 62
7
  6
CONTINUOUS
 10
153.5669688365
 20
116.53
 30
0.0
 11
89.5937606804
 21
-0.0
 31
0.0
 40
0.3404254913
 41
-1.5722944981
 42
-1.5707963268
  0
ELLIPSE
  5
82C
100
AcDbEntity
  8
0
100
AcDbEllipse
 62
7
  6
CONTINUOUS
 10
245.7156943195
 20
93.53
 30
0.0
 11
149.3230483917
 21
0.0
 31
0.0
 40
0.204255139
 41
1.5413901895
 42
1.5469729196
  0
ELLIPSE
  5
82D
100
AcDbEntity
  8
0
100
AcDbEllipse
 62
7
  6
CONTINUOUS
 10
155.0479540686
 20
116.53
 30
0.0
 11
39.1666619976
 21
0.0
 31
0.0
 40
0.7659575381
 41
-1.5950168678
 42
-1.5779932873
  0
ELLIPSE
  5
82E
100
AcDbEntity
  8
0
100
AcDbEllipse
 62
7
  6
CONTINUOUS
 10
157.6564543311
 20
116.53
 30
0.0
 11
146.8750455231
 21
-0.0
 31
0.0
 40
0.2042552558
 41
-1.6006927113
 42
-1.5950168678
  0
ELLIPSE
  5
82F
100
AcDbEntity
  8
0
100
AcDbEllipse
 62
7
  6
CONTINUOUS
 10
170.5222260252
 20
116.53
 30
0.0
 11
58.7499509752
 21
-0.0
 31
0.0
 40
0.510638724
 41
-1.5950168678
 42
-1.5836673388
  0
ELLIPSE
  5
830
100
AcDbEntity
  8
0
100
AcDbEllipse
 62
7
  6
CONTINUOUS
 10
260.7156968317
 20
93.53
 30
0.0
 11
149.3229629484
 21
-0.0
 31
0.0
 40
0.2042552558
 41
1.5413901895
 42
1.5469729196
  0
ELLIPSE
  5
831
100
AcDbEntity
  8
0
100
AcDbEllipse
 62
7
  6
CONTINUOUS
 10
172.6564568433
 20
116.53
 30
0.0
 11
146.8751295656
 21
-0.0
 31
0.0
 40
0.204255139
 41
-1.6006927113
 42
-1.5950168678
  0
ELLIPSE
  5
832
100
AcDbEntity
  8
0
100
AcDbEllipse
 62
7
  6
CONTINUOUS
 10
263.3241970942
 20
93.53
 30
0.0
 11
39.1666619976
 21
0.0
 31
0.0
 40
0.7659575381
 41
1.5465757858
 42
1.5635993663
  0
ELLIPSE
  5
833
100
AcDbEntity
  8
0
100
AcDbEllipse
 62
7
  6
CONTINUOUS
 10
260.7156968317
 20
93.53
 30
0.0
 11
146.8750455231
 21
0.0
 31
0.0
 40
0.2042552558
 41
1.5408999423
 42
1.5465757858
  0
ELLIPSE
  5
834
100
AcDbEntity
  8
0
100
AcDbEllipse
 62
7
  6
CONTINUOUS
 10
247.8499251376
 20
93.53
 30
0.0
 11
58.7499509752
 21
0.0
 31
0.0
 40
0.510638724
 41
1.5465757858
 42
1.5579253148
  0
ELLIPSE
  5
835
100
AcDbEntity
  8
0
100
AcDbEllipse
 62
7
  6
CONTINUOUS
 10
245.7156943195
 20
93.53
 30
0.0
 11
146.8751295656
 21
-0.0
 31
0.0
 40
0.204255139
 41
1.5408999423
 42
1.5465757858
  0
ELLIPSE
  5
836
100
AcDbEntity
  8
0
100
AcDbEllipse
 62
7
  6
CONTINUOUS
 10
172.6564568433
 20
116.53
 30
0.0
 11
149.3230483917
 21
-0.0
 31
0.0
 40
0.204255139
 41
-1.6002024641
 42
-1.594619734
  0
ELLIPSE
  5
837
100
AcDbEntity
  8
0
100
AcDbEllipse
 62
7
  6
CONTINUOUS
 10
157.6564543311
 20
116.53
 30
0.0
 11
149.3229629484
 21
-0.0
 31
0.0
 40
0.2042552558
 41
-1.6002024641
 42
-1.594619734
  0
ELLIPSE
  5
838
100
AcDbEntity
  8
0
100
AcDbEllipse
 62
7
  6
CONTINUOUS
 10
263.4475188946
 20
93.53
 30
0.0
 11
-0.0
 21
30.0
 31
0.0
 40
0.7343750875
 41
-0.0071969605
 42
-0.0
  0
ELLIPSE
  5
839
100
AcDbEntity
  8
0
100
AcDbEllipse
 62
7
  6
CONTINUOUS
 10
248.2280003595
 20
93.53
 30
0.0
 11
-0.0
 21
30.0
 31
0.0
 40
0.9791658496
 41
-0.012871012
 42
-0.0
  0
ELLIPSE
  5
83A
100
AcDbEntity
  8
0
100
AcDbEllipse
 62
7
  6
CONTINUOUS
 10
263.4475188946
 20
93.53
 30
0.0
 11
0.0
 21
30.5
 31
0.0
 40
0.7343750875
 41
-0.0070789756
 42
0.0
  0
ELLIPSE
  5
83B
100
AcDbEntity
  8
0
100
AcDbEllipse
 62
7
  6
CONTINUOUS
 10
154.9246322682
 20
116.53
 30
0.0
 11
-0.0
 21
30.0
 31
0.0
 40
0.7343750875
 41
-3.1487896141
 42
-3.1415926536
  0
ELLIPSE
  5
83C
100
AcDbEntity
  8
0
100
AcDbEllipse
 62
7
  6
CONTINUOUS
 10
170.1441508033
 20
116.53
 30
0.0
 11
0.0
 21
30.0
 31
0.0
 40
0.9791658496
 41
-3.1544636656
 42
-3.1415926536
  0
ELLIPSE
  5
83D
100
AcDbEntity
  8
0
100
AcDbEllipse
 62
7
  6
CONTINUOUS
 10
154.9246322682
 20
116.53
 30
0.0
 11
-0.0
 21
30.5
 31
0.0
 40
0.7343750875
 41
-3.1486716292
 42
-3.1415926536
  0
ENDSEC
  0
SECTION
  2
OBJECTS
  0
DICTIONARY
  5
C
100
AcDbDictionary
280
0
281
1
  3
ACAD_GROUP
350
D
  3
ACAD_MLINESTYLE
350
17
  3
ACAD_LAYOUT
350
1A
  3
ACAD_PLOTSETTINGS
350
19
  3
ACAD_PLOTSTYLENAME
350
E
  0
DICTIONARY
  5
D
102
{ACAD_REACTORS
330
C
102
}
100
AcDbDictionary
280
0
281
1
  0
ACDBDICTIONARYWDFLT
  5
E
102
{ACAD_REACTORS
330
C
102
}
100
AcDbDictionary
281
1
  3
Normal
350
F
100
AcDbDictionaryWithDefault
340
F
  0
DICTIONARY
  5
17
102
{ACAD_REACTORS
330
C
102
}
100
AcDbDictionary
280
0
281
1
  3
Standard
350
18
  0
DICTIONARY
  5
19
102
{ACAD_REACTORS
330
C
102
}
100
AcDbDictionary
281
1
  0
DICTIONARY
  5
1A
102
{ACAD_REACTORS
330
C
102
}
100
AcDbDictionary
281
1
  3
Model
350
83E
  3
Layout1
350
83F
  0
ACDBPLACEHOLDER
  5
F
102
{ACAD_REACTORS
330
E
102
}
  0
MLINESTYLE
  5
18
102
{ACAD_REACTORS
330
17
102
}
100
AcDbMlineStyle
  2
STANDARD
 70
0
  3

 62
256
 51
90.0
 52
90.0
 71
2
 49
0.5
 62
256
  6
BYLAYER
 49
-0.5
 62
256
  6
BYLAYER
  0
LAYOUT
  5
83E
102
{ACAD_REACTORS
330
1A
102
}
100
AcDbPlotSettings
  1

  2
none_device
  4
ISO_A2_(594.00_x_420.00_MM)
  6

 40
0.0
 41
0.0
 42
0.0
 43
0.0
 44
594.0
 45
420.0
 46
0.0
 47
0.0
 48
0.0
 49
0.0
140
0.0
141
0.0
142
1.0
143
1.0
 70
1024
 72
1
 73
0
 74
0
  7

 75
0
147
1.0
148
0.0
149
0.0
100
AcDbLayout
  1
Model
 70
0
 71
0
 10
0.0
 20
0.0
 11
594.0
 21
420.0
 12
0.0
 22
0.0
 32
0.0
 14
0.0
 24
0.0
 34
0.0
 15
0.0
 25
0.0
 35
0.0
146
0.0
 13
0.0
 23
0.0
 33
0.0
 16
1.0
 26
0.0
 36
0.0
 17
0.0
 27
1.0
 37
0.0
 76
0
330
213
345
0
346
0
  0
LAYOUT
  5
83F
102
{ACAD_REACTORS
330
1A
102
}
100
AcDbPlotSettings
  1

  2
none_device
  4
ISO_A2_(594.00_x_420.00_MM)
  6

 40
0.0
 41
0.0
 42
0.0
 43
0.0
 44
594.0
 45
420.0
 46
0.0
 47
0.0
 48
0.0
 49
0.0
140
0.0
141
0.0
142
1.0
143
1.0
 70
0
 72
1
 73
0
 74
0
  7

 75
0
147
1.0
148
0.0
149
0.0
100
AcDbLayout
  1
Layout1
 70
0
 71
1
 10
0.0
 20
0.0
 11
594.0
 21
420.0
 12
0.0
 22
0.0
 32
0.0
 14
0.0
 24
0.0
 34
0.0
 15
0.0
 25
0.0
 35
0.0
146
0.0
 13
0.0
 23
0.0
 33
0.0
 16
1.0
 26
0.0
 36
0.0
 17
0.0
 27
1.0
 37
0.0
 76
0
330
214
345
0
346
0
  0
ENDSEC
  0
EOF
