999
DXF file: VRBS-Ringbock-10t-7992490-M31836-P-10.dxf
999
Pro/ENGINEER 2011490 by Parametric Technology Corporation
  0
SECTION
  2
HEADER
  9
$ACADVER
  1
AC1015
  9
$DWGCODEPAGE
  3
ANSI_1252
  9
$EXTMAX
 10
420.0
 20
297.0
 30
0.0
  9
$EXTMIN
 10
0.0
 20
0.0
 30
0.0
  9
$LIMMIN
 10
0.0
 20
0.0
  9
$LIMMAX
 10
420.0
 20
297.0
  9
$VIEWCTR
 10
210.0
 20
148.5
  9
$VIEWSIZE
 40
297.0
  9
$CLAYER
  8
0
  9
$LTSCALE
 40
23.1
  9
$CELTYPE
  6
BYLAYER
  9
$DIMSCALE
 40
1.0
  9
$DIMASZ
 40
3.5
  9
$DIMEXO
 40
2.625
  9
$DIMDLI
 40
15.96
  9
$DIMEXE
 40
7.56
  9
$DIMCEN
 40
3.78
  9
$DIMLFAC
 40
1.0
  9
$DIMBLK
  1
_FILLED
  9
$DIMTXT
 40
3.5
  9
$DIMTOL
 70
1
  9
$DIMLIM
 70
0
  9
$DIMTFAC
 40
1.0
  9
$DIMTP
 40
0.005
  9
$DIMTM
 40
0.005
  9
$PDMODE
 70
3
  9
$PDSIZE
 40
0.3125
  9
$HANDSEED
  5
80F
  9
$TILEMODE
 70
1
  9
$MEASUREMENT
 70
1
  9
$INSUNITS
 70
4
  0
ENDSEC
  0
SECTION
  2
CLASSES
  0
CLASS
  1
ACDBDICTIONARYWDFLT
  2
AcDbDictionaryWithDefault
  3
AutoCAD 2000
 90
0
280
0
281
0
  0
CLASS
  1
ACDBPLACEHOLDER
  2
AcDbPlaceHolder
  3
AutoCAD 2000
 90
0
280
0
281
0
  0
CLASS
  1
LAYOUT
  2
AcDbLayout
  3
AutoCAD 2000
 90
0
280
0
281
0
  0
ENDSEC
  0
SECTION
  2
TABLES
  0
TABLE
  2
VPORT
  5
8
100
AcDbSymbolTable
 70
2
  0
VPORT
  5
1F4
100
AcDbSymbolTableRecord
100
AcDbViewportTableRecord
  2
*ACTIVE
 70
0
 10
0.0
 20
0.0
 11
1.0
 21
1.0
 12
210.0
 22
148.5
 13
0.0
 23
0.0
 14
1.0
 24
1.0
 15
0.0
 25
0.0
 16
0.0
 26
0.0
 36
1.0
 17
0.0
 27
0.0
 37
0.0
 40
297.0
 41
1.4141414141
 42
50.0
 43
0.0
 44
0.0
 50
0.0
 51
0.0
 71
0
 72
100
 73
1
 74
1
 75
0
 76
0
 77
0
 78
0
  0
ENDTAB
  0
TABLE
  2
LTYPE
  5
5
100
AcDbSymbolTable
 70
6
  0
LTYPE
  5
14
100
AcDbSymbolTableRecord
100
AcDbLinetypeTableRecord
  2
BYBLOCK
 70
0
  3

 72
65
 73
0
 40
0.0
  0
LTYPE
  5
15
100
AcDbSymbolTableRecord
100
AcDbLinetypeTableRecord
  2
BYLAYER
 70
0
  3

 72
65
 73
0
 40
0.0
  0
LTYPE
  5
16
100
AcDbSymbolTableRecord
100
AcDbLinetypeTableRecord
  2
CONTINUOUS
 70
64
  3
Solid line
 72
65
 73
0
 40
0.0
  0
LTYPE
  5
1F5
100
AcDbSymbolTableRecord
100
AcDbLinetypeTableRecord
  2
CENTER
 70
64
  3
____ _ ____ _ ____ _ ____ _ ____ _ ____ _ ____
 72
65
 73
4
 40
0.6
 49
0.375
 74
0
 49
-0.075
 74
0
 49
0.075
 74
0
 49
-0.075
 74
0
  0
LTYPE
  5
1F6
100
AcDbSymbolTableRecord
100
AcDbLinetypeTableRecord
  2
HIDDEN
 70
64
  3
- - - - - - - - - - - - - - - - - - - -
 72
65
 73
2
 40
0.2
 49
0.1
 74
0
 49
-0.1
 74
0
  0
LTYPE
  5
1F7
100
AcDbSymbolTableRecord
100
AcDbLinetypeTableRecord
  2
PHANTOM
 70
64
  3
_____ _ _ _____ _ _ _____ _ _ _____
 72
65
 73
6
 40
0.8
 49
0.45
 74
0
 49
-0.05
 74
0
 49
0.1
 74
0
 49
-0.05
 74
0
 49
0.1
 74
0
 49
-0.05
 74
0
  0
LTYPE
  5
1F8
100
AcDbSymbolTableRecord
100
AcDbLinetypeTableRecord
  2
DOT
 70
64
  3
. . . . . . . . . . . . . . . . . . . .
 72
65
 73
2
 40
0.2
 49
0.1
 74
0
 49
-0.1
 74
0
  0
LTYPE
  5
1F9
100
AcDbSymbolTableRecord
100
AcDbLinetypeTableRecord
  2
DASHED
 70
64
  3
- - - - - - - - - - - - - - - - - - - -
 72
65
 73
2
 40
0.2
 49
0.1
 74
0
 49
-0.1
 74
0
  0
ENDTAB
  0
TABLE
  2
LAYER
  5
2
100
AcDbSymbolTable
 70
36
  0
LAYER
  5
10
100
AcDbSymbolTableRecord
100
AcDbLayerTableRecord
  2
0
 70
0
 62
7
  6
CONTINUOUS
370
-3
390
F
  0
LAYER
  5
1FA
100
AcDbSymbolTableRecord
100
AcDbLayerTableRecord
  2
DEFAULT_1
 70
0
 62
7
  6
CENTER
370
-3
390
F
  0
LAYER
  5
1FB
100
AcDbSymbolTableRecord
100
AcDbLayerTableRecord
  2
DEFAULT_2
 70
0
 62
8
  6
HIDDEN
370
-3
390
F
  0
LAYER
  5
1FC
100
AcDbSymbolTableRecord
100
AcDbLayerTableRecord
  2
DEFAULT_3
 70
0
 62
7
  6
PHANTOM
370
-3
390
F
  0
LAYER
  5
1FD
100
AcDbSymbolTableRecord
100
AcDbLayerTableRecord
  2
AUSFORMSCHRAEGEN
 70
0
 62
7
  6
CONTINUOUS
370
-3
390
F
  0
LAYER
  5
1FE
100
AcDbSymbolTableRecord
100
AcDbLayerTableRecord
  2
B-ACHSEN
 70
0
 62
7
  6
CONTINUOUS
370
-3
390
F
  0
LAYER
  5
1FF
100
AcDbSymbolTableRecord
100
AcDbLayerTableRecord
  2
B-EBENEN
 70
0
 62
7
  6
CONTINUOUS
370
-3
390
F
  0
LAYER
  5
200
100
AcDbSymbolTableRecord
100
AcDbLayerTableRecord
  2
B-KOORSYS
 70
0
 62
7
  6
CONTINUOUS
370
-3
390
F
  0
LAYER
  5
201
100
AcDbSymbolTableRecord
100
AcDbLayerTableRecord
  2
B-KURVEN
 70
0
 62
7
  6
CONTINUOUS
370
-3
390
F
  0
LAYER
  5
202
100
AcDbSymbolTableRecord
100
AcDbLayerTableRecord
  2
BEMASSUNG
 70
0
 62
7
  6
CONTINUOUS
370
-3
390
F
  0
LAYER
  5
203
100
AcDbSymbolTableRecord
100
AcDbLayerTableRecord
  2
BEZUGSACHSEN
 70
0
 62
7
  6
CONTINUOUS
370
-3
390
F
  0
LAYER
  5
204
100
AcDbSymbolTableRecord
100
AcDbLayerTableRecord
  2
BEZUGSEBENEN
 70
0
 62
7
  6
CONTINUOUS
370
-3
390
F
  0
LAYER
  5
205
100
AcDbSymbolTableRecord
100
AcDbLayerTableRecord
  2
BG_STARTBEZUEGE
 70
0
 62
7
  6
CONTINUOUS
370
-3
390
F
  0
LAYER
  5
206
100
AcDbSymbolTableRecord
100
AcDbLayerTableRecord
  2
FLAECHEN
 70
0
 62
7
  6
CONTINUOUS
370
-3
390
F
  0
LAYER
  5
207
100
AcDbSymbolTableRecord
100
AcDbLayerTableRecord
  2
HILFEN
 70
0
 62
7
  6
CONTINUOUS
370
-3
390
F
  0
LAYER
  5
208
100
AcDbSymbolTableRecord
100
AcDbLayerTableRecord
  2
KONSTRUKTIONSELEMENTE
 70
0
 62
7
  6
CONTINUOUS
370
-3
390
F
  0
LAYER
  5
209
100
AcDbSymbolTableRecord
100
AcDbLayerTableRecord
  2
KURVEN
 70
0
 62
7
  6
CONTINUOUS
370
-3
390
F
  0
LAYER
  5
20A
100
AcDbSymbolTableRecord
100
AcDbLayerTableRecord
  2
KURVENELEMENTE
 70
0
 62
7
  6
CONTINUOUS
370
-3
390
F
  0
LAYER
  5
20B
100
AcDbSymbolTableRecord
100
AcDbLayerTableRecord
  2
NOTIZEN
 70
0
 62
7
  6
CONTINUOUS
370
-3
390
F
  0
LAYER
  5
20C
100
AcDbSymbolTableRecord
100
AcDbLayerTableRecord
  2
PLATZIERUNG
 70
0
 62
7
  6
CONTINUOUS
370
-3
390
F
  0
LAYER
  5
20D
100
AcDbSymbolTableRecord
100
AcDbLayerTableRecord
  2
RUNDUNGEN
 70
0
 62
7
  6
CONTINUOUS
370
-3
390
F
  0
LAYER
  5
20E
100
AcDbSymbolTableRecord
100
AcDbLayerTableRecord
  2
T_STARTBEZUEGE
 70
0
 62
7
  6
CONTINUOUS
370
-3
390
F
  0
LAYER
  5
20F
100
AcDbSymbolTableRecord
100
AcDbLayerTableRecord
  2
VERBUNDFLAECHEN
 70
0
 62
7
  6
CONTINUOUS
370
-3
390
F
  0
LAYER
  5
210
100
AcDbSymbolTableRecord
100
AcDbLayerTableRecord
  2
ZEICHNUNGSBEMASSUNGEN
 70
0
 62
7
  6
CONTINUOUS
370
-3
390
F
  0
ENDTAB
  0
TABLE
  2
STYLE
  5
3
100
AcDbSymbolTable
 70
1
  0
STYLE
  5
11
100
AcDbSymbolTableRecord
100
AcDbTextStyleTableRecord
  2
STANDARD
 70
0
 40
0.0
 41
0.7
 50
0.0
 71
0
 42
0.2
  3
txt
  4

  0
STYLE
  5
211
100
AcDbSymbolTableRecord
100
AcDbTextStyleTableRecord
  2
TEXTSTYLE_1
 70
0
 40
0.0
 41
0.8
 50
0.0
 71
0
 42
0.2
  3
gdt
  4

  0
ENDTAB
  0
TABLE
  2
VIEW
  5
6
100
AcDbSymbolTable
 70
0
  0
ENDTAB
  0
TABLE
  2
UCS
  5
7
100
AcDbSymbolTable
 70
0
  0
ENDTAB
  0
TABLE
  2
APPID
  5
9
100
AcDbSymbolTable
 70
1
  0
APPID
  5
212
100
AcDbSymbolTableRecord
100
AcDbRegAppTableRecord
  2
ACAD
 70
0
  0
ENDTAB
  0
TABLE
  2
BLOCK_RECORD
  5
1
100
AcDbSymbolTable
 70
0
  0
BLOCK_RECORD
  5
213
100
AcDbSymbolTableRecord
100
AcDbBlockTableRecord
  2
*Model_Space
  0
BLOCK_RECORD
  5
214
100
AcDbSymbolTableRecord
100
AcDbBlockTableRecord
  2
*Paper_Space
  0
ENDTAB
  0
TABLE
  2
DIMSTYLE
  5
A
100
AcDbSymbolTable
 70
1
100
AcDbDimStyleTable
 71
0
  0
DIMSTYLE
105
215
100
AcDbSymbolTableRecord
100
AcDbDimStyleTableRecord
  2
STANDARD
 70
0
  3

  4

 40
1.0
 41
3.5
 42
0.0625
 43
0.38
 44
0.18
 45
0.0
 46
0.0
 47
0.005
 48
0.005
140
3.5
141
0.09
142
0.0
143
25.4
144
1.0
145
0.0
146
1.0
147
0.09
 71
1.0
 72
0.0
 73
0
 74
0
 75
0
 76
0
 77
1
 78
8
170
0
171
2
172
0
173
0
174
0
175
0
176
0
177
0
178
5
270
2
271
3
272
3
273
2
274
2
275
0
280
0
281
0
282
0
283
1
284
8
285
0
286
0
287
3
288
0
340
11
  0
ENDTAB
  0
ENDSEC
  0
SECTION
  2
BLOCKS
  0
BLOCK
  5
20
100
AcDbEntity
  8
0
100
AcDbBlockBegin
  2
*Model_Space
 70
0
 10
0.0
 20
0.0
 30
0.0
  3
*Model_Space
  1

  0
ENDBLK
  5
21
100
AcDbEntity
  8
0
100
AcDbBlockEnd
  0
BLOCK
  5
1C
100
AcDbEntity
  8
0
100
AcDbBlockBegin
  2
*Paper_Space
 70
0
 10
0.0
 20
0.0
 30
0.0
  3
*Paper_Space
  1

  0
ENDBLK
  5
1D
100
AcDbEntity
  8
0
100
AcDbBlockEnd
  0
ENDSEC
  0
SECTION
  2
ENTITIES
  0
MTEXT
  5
216
100
AcDbEntity
  8
0
100
AcDbMText
 62
5
  6
CONTINUOUS
  7
STANDARD
 71
1
 72
1
 10
146.7927631579
 20
263.7006578947
 30
0.0
 11
1.0
 21
0.0
 31
0.0
 44
0.9
  1
VRBS 10t
 40
7.0
 41
42.6666666667
  0
MTEXT
  5
217
100
AcDbEntity
  8
0
100
AcDbMText
 62
5
  6
CONTINUOUS
  7
STANDARD
 71
1
 72
1
 10
146.4606164384
 20
71.4659049944
 30
0.0
 11
1.0
 21
0.0
 31
0.0
 44
0.9
  1
VRBS 10t
 40
7.0
 41
42.6666666667
  0
MTEXT
  5
218
100
AcDbEntity
  8
0
100
AcDbMText
 62
5
  6
CONTINUOUS
  7
STANDARD
 71
1
 72
1
 10
337.9111842105
 20
218.9835526316
 30
0.0
 11
0.0
 21
1.0
 31
0.0
 44
0.9
  1
VRBS 10t
 40
7.0
 41
42.6666666667
  0
LINE
  5
219
100
AcDbEntity
  8
0
100
AcDbLine
 62
7
  6
CONTINUOUS
 10
0.0
 20
0.0
 11
0.0
 21
297.0
  0
LINE
  5
21A
100
AcDbEntity
  8
0
100
AcDbLine
 62
7
  6
CONTINUOUS
 10
0.0
 20
0.0
 11
420.0
 21
0.0
  0
LINE
  5
21B
100
AcDbEntity
  8
0
100
AcDbLine
 62
7
  6
CONTINUOUS
 10
0.0
 20
297.0
 11
420.0
 21
297.0
  0
LINE
  5
21C
100
AcDbEntity
  8
0
100
AcDbLine
 62
7
  6
CONTINUOUS
 10
420.0
 20
0.0
 11
420.0
 21
297.0
  0
LINE
  5
21D
100
AcDbEntity
  8
RUNDUNGEN
100
AcDbLine
 62
7
  6
CONTINUOUS
 10
70.7386918605
 20
159.3501504063
 11
70.7386918605
 21
169.3501504063
  0
LINE
  5
21E
100
AcDbEntity
  8
RUNDUNGEN
100
AcDbLine
 62
7
  6
CONTINUOUS
 10
70.7386918605
 20
169.3501504063
 11
72.7811685719
 21
188.7830182284
  0
LINE
  5
21F
100
AcDbEntity
  8
0
100
AcDbLine
 62
7
  6
CONTINUOUS
 10
87.6822117888
 20
202.2961912889
 11
87.6508532498
 21
202.5945478575
  0
LINE
  5
220
100
AcDbEntity
  8
0
100
AcDbLine
 62
7
  6
CONTINUOUS
 10
89.6322935563
 20
202.5011531417
 11
89.6009350173
 21
202.7995097103
  0
LINE
  5
221
100
AcDbEntity
  8
0
100
AcDbLine
 62
7
  6
CONTINUOUS
 10
90.198352184
 20
202.5606483009
 11
90.1669936451
 21
202.8590048695
  0
LINE
  5
222
100
AcDbEntity
  8
0
100
AcDbLine
 62
7
  6
CONTINUOUS
 10
90.7950653213
 20
202.6233653789
 11
90.7637067823
 21
202.9217219475
  0
LINE
  5
223
100
AcDbEntity
  8
0
100
AcDbLine
 62
7
  6
CONTINUOUS
 10
91.3917784585
 20
202.6860824568
 11
91.3604199195
 21
202.9844390255
  0
LINE
  5
224
100
AcDbEntity
  8
0
100
AcDbLine
 62
7
  6
CONTINUOUS
 10
92.1873959274
 20
202.7697052225
 11
92.1560373884
 21
203.0680617911
  0
LINE
  5
225
100
AcDbEntity
  8
0
100
AcDbLine
 62
7
  6
CONTINUOUS
 10
92.2868481643
 20
202.7801580738
 11
92.2554896253
 21
203.0785146424
  0
LINE
  5
226
100
AcDbEntity
  8
0
100
AcDbLine
 62
7
  6
CONTINUOUS
 10
92.3863004013
 20
202.7906109251
 11
92.3549418623
 21
203.0889674937
  0
LINE
  5
227
100
AcDbEntity
  8
0
100
AcDbLine
 62
7
  6
CONTINUOUS
 10
92.5852047329
 20
202.8115166128
 11
92.5538461939
 21
203.1098731814
  0
LINE
  5
228
100
AcDbEntity
  8
0
100
AcDbLine
 62
7
  6
CONTINUOUS
 10
92.8835613015
 20
202.8428751517
 11
92.8522027626
 21
203.1412317204
  0
LINE
  5
229
100
AcDbEntity
  8
0
100
AcDbLine
 62
7
  6
CONTINUOUS
 10
93.3808223441
 20
202.8951393933
 11
93.3494638051
 21
203.193495962
  0
LINE
  5
22A
100
AcDbEntity
  8
0
100
AcDbLine
 62
7
  6
CONTINUOUS
 10
93.9775354813
 20
202.9578564713
 11
93.9461769423
 21
203.2562130399
  0
LINE
  5
22B
100
AcDbEntity
  8
0
100
AcDbLine
 62
7
  6
CONTINUOUS
 10
94.5742486185
 20
203.0205735493
 11
94.5428900795
 21
203.3189301179
  0
LINE
  5
22C
100
AcDbEntity
  8
0
100
AcDbLine
 62
7
  6
CONTINUOUS
 10
95.071509661
 20
203.0728377909
 11
95.0401511221
 21
203.3711943595
  0
LINE
  5
22D
100
AcDbEntity
  8
0
100
AcDbLine
 62
7
  6
CONTINUOUS
 10
95.3698662296
 20
203.1041963298
 11
95.3385076907
 21
203.4025528985
  0
LINE
  5
22E
100
AcDbEntity
  8
0
100
AcDbLine
 62
7
  6
CONTINUOUS
 10
95.568770419
 20
203.1251020026
 11
95.53741188
 21
203.4234585712
  0
LINE
  5
22F
100
AcDbEntity
  8
0
100
AcDbLine
 62
7
  6
CONTINUOUS
 10
95.6682227983
 20
203.1355548688
 11
95.6368642593
 21
203.4339114374
  0
LINE
  5
230
100
AcDbEntity
  8
0
100
AcDbLine
 62
7
  6
CONTINUOUS
 10
95.7676746084
 20
203.1460076753
 11
95.7363160694
 21
203.4443642439
  0
LINE
  5
231
100
AcDbEntity
  8
0
100
AcDbLine
 62
7
  6
CONTINUOUS
 10
96.3356991417
 20
203.2057094595
 11
96.3043406027
 21
203.5040660281
  0
LINE
  5
232
100
AcDbEntity
  8
0
100
AcDbLine
 62
7
  6
CONTINUOUS
 10
96.5632925041
 20
203.2296304858
 11
96.5319339651
 21
203.5279870544
  0
LINE
  5
233
100
AcDbEntity
  8
0
100
AcDbLine
 62
7
  6
CONTINUOUS
 10
97.3589098307
 20
203.3132532364
 11
97.3275512917
 21
203.6116098051
  0
LINE
  5
234
100
AcDbEntity
  8
0
100
AcDbLine
 62
7
  6
CONTINUOUS
 10
97.5578140201
 20
203.3341589092
 11
97.5264554811
 21
203.6325154778
  0
LINE
  5
235
100
AcDbEntity
  8
0
100
AcDbLine
 62
7
  6
CONTINUOUS
 10
97.8561705887
 20
203.3655174481
 11
97.8248120497
 21
203.6638740168
  0
LINE
  5
236
100
AcDbEntity
  8
0
100
AcDbLine
 62
7
  6
CONTINUOUS
 10
98.1545271573
 20
203.3968759871
 11
98.1231686183
 21
203.6952325557
  0
LINE
  5
237
100
AcDbEntity
  8
0
100
AcDbLine
 62
7
  6
CONTINUOUS
 10
98.7512402945
 20
203.4595930651
 11
98.7198817555
 21
203.7579496337
  0
LINE
  5
238
100
AcDbEntity
  8
0
100
AcDbLine
 62
7
  6
CONTINUOUS
 10
98.950145053
 20
203.4804987976
 11
98.918786514
 21
203.7788553662
  0
LINE
  5
239
100
AcDbEntity
  8
0
100
AcDbLine
 62
7
  6
CONTINUOUS
 10
99.1389420639
 20
203.5003421631
 11
99.1075835249
 21
203.7986987317
  0
LINE
  5
23A
100
AcDbEntity
  8
0
100
AcDbLine
 62
7
  6
CONTINUOUS
 10
102.0640639306
 20
203.8077848599
 11
102.0327053916
 21
204.1061414285
  0
LINE
  5
23B
100
AcDbEntity
  8
0
100
AcDbLine
 62
7
  6
CONTINUOUS
 10
102.6734649297
 20
203.8718354859
 11
102.6421063907
 21
204.1701920545
  0
LINE
  5
23C
100
AcDbEntity
  8
0
100
AcDbLine
 62
7
  6
CONTINUOUS
 10
103.1609848921
 20
203.9230758987
 11
103.1296263531
 21
204.2214324673
  0
LINE
  5
23D
100
AcDbEntity
  8
0
100
AcDbLine
 62
7
  6
CONTINUOUS
 10
103.5266252126
 20
203.961506245
 11
103.4952666736
 21
204.2598628136
  0
LINE
  5
23E
100
AcDbEntity
  8
0
100
AcDbLine
 62
7
  6
CONTINUOUS
 10
103.6485062493
 20
203.9743164582
 11
103.6171477103
 21
204.2726730268
  0
LINE
  5
23F
100
AcDbEntity
  8
0
100
AcDbLine
 62
7
  6
CONTINUOUS
 10
104.6235461741
 20
204.0767972838
 11
104.5921876352
 21
204.3751538524
  0
LINE
  5
240
100
AcDbEntity
  8
0
100
AcDbLine
 62
7
  6
CONTINUOUS
 10
104.7454272108
 20
204.089607497
 11
104.7140686719
 21
204.3879640656
  0
LINE
  5
241
100
AcDbEntity
  8
0
100
AcDbLine
 62
7
  6
CONTINUOUS
 10
105.1110675314
 20
204.1280378432
 11
105.0797089924
 21
204.4263944118
  0
LINE
  5
242
100
AcDbEntity
  8
0
100
AcDbLine
 62
7
  6
CONTINUOUS
 10
105.7204671357
 20
204.1920883226
 11
105.6891085967
 21
204.4904448912
  0
LINE
  5
243
100
AcDbEntity
  8
0
100
AcDbLine
 62
7
  6
CONTINUOUS
 10
106.3298681348
 20
204.2561389486
 11
106.2985095958
 21
204.5544955172
  0
LINE
  5
244
100
AcDbEntity
  8
0
100
AcDbLine
 62
7
  6
CONTINUOUS
 10
107.3049094544
 20
204.3586199209
 11
107.2735509154
 21
204.6569764895
  0
LINE
  5
245
100
AcDbEntity
  8
0
100
AcDbLine
 62
7
  6
CONTINUOUS
 10
107.9143090587
 20
204.4226704002
 11
107.8829505197
 21
204.7210269688
  0
LINE
  5
246
100
AcDbEntity
  8
0
100
AcDbLine
 62
7
  6
CONTINUOUS
 10
108.4018304159
 20
204.4739109597
 11
108.370471877
 21
204.7722675283
  0
LINE
  5
247
100
AcDbEntity
  8
0
100
AcDbLine
 62
7
  6
CONTINUOUS
 10
108.8893503784
 20
204.5251513725
 11
108.8579918394
 21
204.8235079411
  0
LINE
  5
248
100
AcDbEntity
  8
0
100
AcDbLine
 62
7
  6
CONTINUOUS
 10
109.133111057
 20
204.5507716522
 11
109.101752518
 21
204.8491282208
  0
LINE
  5
249
100
AcDbEntity
  8
RUNDUNGEN
100
AcDbLine
 62
7
  6
CONTINUOUS
 10
133.7943698747
 20
260.0828450931
 11
165.5599078339
 21
273.2405617318
  0
LINE
  5
24A
100
AcDbEntity
  8
B-ACHSEN
100
AcDbLine
 62
7
  6
CONTINUOUS
 10
70.7386918605
 20
159.3501504063
 11
114.8640287874
 21
159.3501504063
  0
LINE
  5
24B
100
AcDbEntity
  8
RUNDUNGEN
100
AcDbLine
 62
7
  6
CONTINUOUS
 10
114.8640287874
 20
159.3501504063
 11
116.7386918605
 21
159.3501504063
  0
LINE
  5
24C
100
AcDbEntity
  8
RUNDUNGEN
100
AcDbLine
 62
7
  6
CONTINUOUS
 10
219.7386918605
 20
159.3501504063
 11
221.6133549335
 21
159.3501504063
  0
LINE
  5
24D
100
AcDbEntity
  8
B-ACHSEN
100
AcDbLine
 62
7
  6
CONTINUOUS
 10
221.6133549335
 20
159.3501504063
 11
265.7386918605
 21
159.3501504063
  0
LINE
  5
24E
100
AcDbEntity
  8
RUNDUNGEN
100
AcDbLine
 62
7
  6
CONTINUOUS
 10
116.7386918605
 20
162.3501504063
 11
219.7386918605
 21
162.3501504063
  0
LINE
  5
24F
100
AcDbEntity
  8
BEZUGSACHSEN
100
AcDbLine
 62
7
  6
CONTINUOUS
 10
118.5851127935
 20
194.7682642594
 11
118.6992675076
 21
193.6821547052
  0
LINE
  5
250
100
AcDbEntity
  8
RUNDUNGEN
100
AcDbLine
 62
7
  6
CONTINUOUS
 10
118.6993025495
 20
193.6818213034
 11
115.9245197951
 21
220.0821157104
  0
LINE
  5
251
100
AcDbEntity
  8
RUNDUNGEN
100
AcDbLine
 62
7
  6
CONTINUOUS
 10
116.7386918605
 20
202.5736191192
 11
116.7386918605
 21
159.3501504063
  0
LINE
  5
252
100
AcDbEntity
  8
RUNDUNGEN
100
AcDbLine
 62
7
  6
CONTINUOUS
 10
116.4190163351
 20
223.4925989798
 11
130.0059971737
 21
256.294472392
  0
LINE
  5
253
100
AcDbEntity
  8
0
100
AcDbLine
 62
7
  6
CONTINUOUS
 10
146.2386918605
 20
169.501681178
 11
190.2386918605
 21
169.501681178
  0
LINE
  5
254
100
AcDbEntity
  8
0
100
AcDbLine
 62
7
  6
CONTINUOUS
 10
132.663691622
 20
181.5131291288
 11
133.1636918605
 21
181.2578099767
  0
LINE
  5
255
100
AcDbEntity
  8
0
100
AcDbLine
 62
7
  6
CONTINUOUS
 10
133.2886920989
 20
182.0237674105
 11
132.9136920989
 21
182.2790866184
  0
LINE
  5
256
100
AcDbEntity
  8
0
100
AcDbLine
 62
7
  6
CONTINUOUS
 10
130.1636918605
 20
186.6195121693
 11
129.6636919797
 21
187.0024908471
  0
LINE
  5
257
100
AcDbEntity
  8
0
100
AcDbLine
 62
7
  6
CONTINUOUS
 10
132.1636920989
 20
182.0237674105
 11
132.663691622
 21
181.5131291288
  0
LINE
  5
258
100
AcDbEntity
  8
0
100
AcDbLine
 62
7
  6
CONTINUOUS
 10
129.7886918605
 20
186.1088739323
 11
129.5386917413
 21
186.3641930508
  0
LINE
  5
259
100
AcDbEntity
  8
0
100
AcDbLine
 62
7
  6
CONTINUOUS
 10
130.5386918605
 20
186.1088739323
 11
130.1636918605
 21
186.6195121693
  0
LINE
  5
25A
100
AcDbEntity
  8
0
100
AcDbLine
 62
7
  6
CONTINUOUS
 10
132.9136920989
 20
182.2790866184
 11
132.663691622
 21
182.6620652961
  0
LINE
  5
25B
100
AcDbEntity
  8
0
100
AcDbLine
 62
7
  6
CONTINUOUS
 10
131.9136919797
 20
182.5344057369
 11
132.1636920989
 21
182.0237674105
  0
LINE
  5
25C
100
AcDbEntity
  8
0
100
AcDbLine
 62
7
  6
CONTINUOUS
 10
130.7886919797
 20
181.1301504063
 11
129.6636919797
 21
184.0663206267
  0
LINE
  5
25D
100
AcDbEntity
  8
0
100
AcDbLine
 62
7
  6
CONTINUOUS
 10
128.9136918009
 20
183.8110015082
 11
129.9136917413
 21
181.1301504063
  0
LINE
  5
25E
100
AcDbEntity
  8
0
100
AcDbLine
 62
7
  6
CONTINUOUS
 10
129.9136917413
 20
185.7258952546
 11
129.7886918605
 21
186.1088739323
  0
LINE
  5
25F
100
AcDbEntity
  8
0
100
AcDbLine
 62
7
  6
CONTINUOUS
 10
130.6636917413
 20
185.7258952546
 11
130.5386918605
 21
186.1088739323
  0
LINE
  5
260
100
AcDbEntity
  8
0
100
AcDbLine
 62
7
  6
CONTINUOUS
 10
126.0386918605
 20
181.1301504063
 11
126.0386918605
 21
187.1301504063
  0
LINE
  5
261
100
AcDbEntity
  8
0
100
AcDbLine
 62
7
  6
CONTINUOUS
 10
126.7886918605
 20
181.1301504063
 11
126.7886918605
 21
183.8110015082
  0
LINE
  5
262
100
AcDbEntity
  8
0
100
AcDbLine
 62
7
  6
CONTINUOUS
 10
126.7886918605
 20
184.5769588637
 11
126.7886918605
 21
186.4918526101
  0
LINE
  5
263
100
AcDbEntity
  8
0
100
AcDbLine
 62
7
  6
CONTINUOUS
 10
129.9136917413
 20
185.7258952546
 11
129.9136917413
 21
185.3429162192
  0
LINE
  5
264
100
AcDbEntity
  8
0
100
AcDbLine
 62
7
  6
CONTINUOUS
 10
130.6636917413
 20
185.2152566599
 11
130.6636917413
 21
185.7258952546
  0
LINE
  5
265
100
AcDbEntity
  8
0
100
AcDbLine
 62
7
  6
CONTINUOUS
 10
160.9610277355
 20
173.3501504063
 11
162.8822770655
 21
173.3501504063
  0
LINE
  5
266
100
AcDbEntity
  8
0
100
AcDbLine
 62
7
  6
CONTINUOUS
 10
173.5951080859
 20
179.1953645348
 11
174.6066489756
 21
179.1953645348
  0
LINE
  5
267
100
AcDbEntity
  8
0
100
AcDbLine
 62
7
  6
CONTINUOUS
 10
176.5482643187
 20
179.1953645348
 11
177.7566829264
 21
179.1953645348
  0
LINE
  5
268
100
AcDbEntity
  8
0
100
AcDbLine
 62
7
  6
CONTINUOUS
 10
133.1636918605
 20
181.2578099767
 11
133.788691622
 21
181.1301504063
  0
LINE
  5
269
100
AcDbEntity
  8
0
100
AcDbLine
 62
7
  6
CONTINUOUS
 10
129.6636919797
 20
187.0024908471
 11
129.0386918605
 21
187.1301504063
  0
LINE
  5
26A
100
AcDbEntity
  8
0
100
AcDbLine
 62
7
  6
CONTINUOUS
 10
133.788691622
 20
181.8961078512
 11
133.2886920989
 21
182.0237674105
  0
LINE
  5
26B
100
AcDbEntity
  8
0
100
AcDbLine
 62
7
  6
CONTINUOUS
 10
129.5386917413
 20
186.3641930508
 11
129.1636917413
 21
186.4918526101
  0
LINE
  5
26C
100
AcDbEntity
  8
0
100
AcDbLine
 62
7
  6
CONTINUOUS
 10
141.4136918605
 20
186.7471717286
 11
140.9136923373
 21
187.0024908471
  0
LINE
  5
26D
100
AcDbEntity
  8
0
100
AcDbLine
 62
7
  6
CONTINUOUS
 10
141.1636913836
 20
185.9812143731
 11
140.7886913836
 21
186.2365334916
  0
LINE
  5
26E
100
AcDbEntity
  8
0
100
AcDbLine
 62
7
  6
CONTINUOUS
 10
141.9136913836
 20
186.2365334916
 11
141.4136918605
 21
186.7471717286
  0
LINE
  5
26F
100
AcDbEntity
  8
0
100
AcDbLine
 62
7
  6
CONTINUOUS
 10
141.4136918605
 20
185.5982353377
 11
141.1636913836
 21
185.9812143731
  0
LINE
  5
270
100
AcDbEntity
  8
0
100
AcDbLine
 62
7
  6
CONTINUOUS
 10
142.1636918605
 20
185.7258952546
 11
141.9136913836
 21
186.2365334916
  0
LINE
  5
271
100
AcDbEntity
  8
0
100
AcDbLine
 62
7
  6
CONTINUOUS
 10
132.663691622
 20
182.6620652961
 11
132.5386920989
 21
183.1727035331
  0
LINE
  5
272
100
AcDbEntity
  8
0
100
AcDbLine
 62
7
  6
CONTINUOUS
 10
131.7886917413
 20
183.1727035331
 11
131.9136919797
 21
182.5344057369
  0
LINE
  5
273
100
AcDbEntity
  8
0
100
AcDbLine
 62
7
  6
CONTINUOUS
 10
131.7886917413
 20
183.1727035331
 11
131.7886917413
 21
187.1301504063
  0
LINE
  5
274
100
AcDbEntity
  8
0
100
AcDbLine
 62
7
  6
CONTINUOUS
 10
132.5386920989
 20
183.1727035331
 11
132.5386920989
 21
187.1301504063
  0
LINE
  5
275
100
AcDbEntity
  8
0
100
AcDbLine
 62
7
  6
CONTINUOUS
 10
135.5386920989
 20
183.1727035331
 11
135.5386920989
 21
187.1301504063
  0
LINE
  5
276
100
AcDbEntity
  8
0
100
AcDbLine
 62
7
  6
CONTINUOUS
 10
136.2886920989
 20
183.1727035331
 11
136.2886920989
 21
187.1301504063
  0
LINE
  5
277
100
AcDbEntity
  8
0
100
AcDbLine
 62
7
  6
CONTINUOUS
 10
137.2886918605
 20
181.1301504063
 11
137.2886918605
 21
187.1301504063
  0
LINE
  5
278
100
AcDbEntity
  8
0
100
AcDbLine
 62
7
  6
CONTINUOUS
 10
138.0386918605
 20
181.8961078512
 11
138.0386918605
 21
186.3641930508
  0
LINE
  5
279
100
AcDbEntity
  8
0
100
AcDbLine
 62
7
  6
CONTINUOUS
 10
158.720701778
 20
180.0168172717
 11
160.9610277355
 21
180.0168172717
  0
LINE
  5
27A
100
AcDbEntity
  8
0
100
AcDbLine
 62
7
  6
CONTINUOUS
 10
177.7566829264
 20
180.6481818556
 11
176.5482643187
 21
180.6481818556
  0
LINE
  5
27B
100
AcDbEntity
  8
0
100
AcDbLine
 62
7
  6
CONTINUOUS
 10
174.6066489756
 20
180.6481818556
 11
173.5951080859
 21
180.6481818556
  0
LINE
  5
27C
100
AcDbEntity
  8
0
100
AcDbLine
 62
7
  6
CONTINUOUS
 10
126.0386918605
 20
181.1301504063
 11
126.7886918605
 21
181.1301504063
  0
LINE
  5
27D
100
AcDbEntity
  8
0
100
AcDbLine
 62
7
  6
CONTINUOUS
 10
129.9136917413
 20
181.1301504063
 11
130.7886919797
 21
181.1301504063
  0
LINE
  5
27E
100
AcDbEntity
  8
0
100
AcDbLine
 62
7
  6
CONTINUOUS
 10
133.788691622
 20
181.1301504063
 11
134.2886918605
 21
181.1301504063
  0
LINE
  5
27F
100
AcDbEntity
  8
0
100
AcDbLine
 62
7
  6
CONTINUOUS
 10
137.2886918605
 20
181.1301504063
 11
140.2886918605
 21
181.1301504063
  0
LINE
  5
280
100
AcDbEntity
  8
0
100
AcDbLine
 62
7
  6
CONTINUOUS
 10
140.2886918605
 20
181.8961078512
 11
138.0386918605
 21
181.8961078512
  0
LINE
  5
281
100
AcDbEntity
  8
0
100
AcDbLine
 62
7
  6
CONTINUOUS
 10
134.2886918605
 20
181.8961078512
 11
133.788691622
 21
181.8961078512
  0
LINE
  5
282
100
AcDbEntity
  8
0
100
AcDbLine
 62
7
  6
CONTINUOUS
 10
176.5482643187
 20
182.6101641058
 11
174.6066489756
 21
182.6101641058
  0
LINE
  5
283
100
AcDbEntity
  8
0
100
AcDbLine
 62
7
  6
CONTINUOUS
 10
162.8822770655
 20
183.0107073187
 11
161.3819372595
 21
183.0107073187
  0
LINE
  5
284
100
AcDbEntity
  8
0
100
AcDbLine
 62
7
  6
CONTINUOUS
 10
126.7886918605
 20
183.8110015082
 11
128.9136918009
 21
183.8110015082
  0
LINE
  5
285
100
AcDbEntity
  8
0
100
AcDbLine
 62
7
  6
CONTINUOUS
 10
129.1636917413
 20
184.5769588637
 11
126.7886918605
 21
184.5769588637
  0
LINE
  5
286
100
AcDbEntity
  8
0
100
AcDbLine
 62
7
  6
CONTINUOUS
 10
140.2886918605
 20
186.3641930508
 11
138.0386918605
 21
186.3641930508
  0
LINE
  5
287
100
AcDbEntity
  8
0
100
AcDbLine
 62
7
  6
CONTINUOUS
 10
129.1636917413
 20
186.4918526101
 11
126.7886918605
 21
186.4918526101
  0
LINE
  5
288
100
AcDbEntity
  8
0
100
AcDbLine
 62
7
  6
CONTINUOUS
 10
140.2886918605
 20
187.1301504063
 11
137.2886918605
 21
187.1301504063
  0
LINE
  5
289
100
AcDbEntity
  8
0
100
AcDbLine
 62
7
  6
CONTINUOUS
 10
136.2886920989
 20
187.1301504063
 11
135.5386920989
 21
187.1301504063
  0
LINE
  5
28A
100
AcDbEntity
  8
0
100
AcDbLine
 62
7
  6
CONTINUOUS
 10
132.5386920989
 20
187.1301504063
 11
131.7886917413
 21
187.1301504063
  0
LINE
  5
28B
100
AcDbEntity
  8
0
100
AcDbLine
 62
7
  6
CONTINUOUS
 10
129.0386918605
 20
187.1301504063
 11
126.0386918605
 21
187.1301504063
  0
LINE
  5
28C
100
AcDbEntity
  8
0
100
AcDbLine
 62
7
  6
CONTINUOUS
 10
140.9136923373
 20
187.0024908471
 11
140.2886918605
 21
187.1301504063
  0
LINE
  5
28D
100
AcDbEntity
  8
0
100
AcDbLine
 62
7
  6
CONTINUOUS
 10
140.7886913836
 20
186.2365334916
 11
140.2886918605
 21
186.3641930508
  0
LINE
  5
28E
100
AcDbEntity
  8
0
100
AcDbLine
 62
7
  6
CONTINUOUS
 10
141.4136918605
 20
185.5982353377
 11
141.5386913836
 21
185.0875971007
  0
LINE
  5
28F
100
AcDbEntity
  8
0
100
AcDbLine
 62
7
  6
CONTINUOUS
 10
142.2886913836
 20
185.0875971007
 11
142.1636918605
 21
185.7258952546
  0
LINE
  5
290
100
AcDbEntity
  8
0
100
AcDbLine
 62
7
  6
CONTINUOUS
 10
141.5386913836
 20
185.0875971007
 11
141.5386913836
 21
183.1727035331
  0
LINE
  5
291
100
AcDbEntity
  8
0
100
AcDbLine
 62
7
  6
CONTINUOUS
 10
142.2886913836
 20
183.1727035331
 11
142.2886913836
 21
185.0875971007
  0
LINE
  5
292
100
AcDbEntity
  8
0
100
AcDbLine
 62
7
  6
CONTINUOUS
 10
146.2386918605
 20
169.501681178
 11
146.2386918605
 21
194.837886099
  0
LINE
  5
293
100
AcDbEntity
  8
0
100
AcDbLine
 62
7
  6
CONTINUOUS
 10
136.1636918605
 20
182.5344057369
 11
136.2886920989
 21
183.1727035331
  0
LINE
  5
294
100
AcDbEntity
  8
0
100
AcDbLine
 62
7
  6
CONTINUOUS
 10
135.5386920989
 20
183.1727035331
 11
135.4136918605
 21
182.6620652961
  0
LINE
  5
295
100
AcDbEntity
  8
0
100
AcDbLine
 62
7
  6
CONTINUOUS
 10
129.9136917413
 20
185.3429162192
 11
129.7886918605
 21
184.9599375414
  0
LINE
  5
296
100
AcDbEntity
  8
0
100
AcDbLine
 62
7
  6
CONTINUOUS
 10
130.5386918605
 20
184.8322779822
 11
130.6636917413
 21
185.2152566599
  0
LINE
  5
297
100
AcDbEntity
  8
0
100
AcDbLine
 62
7
  6
CONTINUOUS
 10
140.7886913836
 20
182.0237674105
 11
140.2886918605
 21
181.8961078512
  0
LINE
  5
298
100
AcDbEntity
  8
0
100
AcDbLine
 62
7
  6
CONTINUOUS
 10
134.7886920989
 20
182.0237674105
 11
134.2886918605
 21
181.8961078512
  0
LINE
  5
299
100
AcDbEntity
  8
0
100
AcDbLine
 62
7
  6
CONTINUOUS
 10
140.2886918605
 20
181.1301504063
 11
140.9136923373
 21
181.2578099767
  0
LINE
  5
29A
100
AcDbEntity
  8
0
100
AcDbLine
 62
7
  6
CONTINUOUS
 10
134.2886918605
 20
181.1301504063
 11
134.913691622
 21
181.2578099767
  0
LINE
  5
29B
100
AcDbEntity
  8
0
100
AcDbLine
 62
7
  6
CONTINUOUS
 10
142.1636918605
 20
182.5344057369
 11
142.2886913836
 21
183.1727035331
  0
LINE
  5
29C
100
AcDbEntity
  8
0
100
AcDbLine
 62
7
  6
CONTINUOUS
 10
141.5386913836
 20
183.1727035331
 11
141.4136918605
 21
182.6620652961
  0
LINE
  5
29D
100
AcDbEntity
  8
0
100
AcDbLine
 62
7
  6
CONTINUOUS
 10
158.720701778
 20
181.3474349379
 11
158.720701778
 21
180.0168172717
  0
LINE
  5
29E
100
AcDbEntity
  8
0
100
AcDbLine
 62
7
  6
CONTINUOUS
 10
160.9610277355
 20
180.0168172717
 11
160.9610277355
 21
173.3501504063
  0
LINE
  5
29F
100
AcDbEntity
  8
0
100
AcDbLine
 62
7
  6
CONTINUOUS
 10
135.9136920989
 20
182.0237674105
 11
136.1636918605
 21
182.5344057369
  0
LINE
  5
2A0
100
AcDbEntity
  8
0
100
AcDbLine
 62
7
  6
CONTINUOUS
 10
141.9136913836
 20
182.0237674105
 11
142.1636918605
 21
182.5344057369
  0
LINE
  5
2A1
100
AcDbEntity
  8
0
100
AcDbLine
 62
7
  6
CONTINUOUS
 10
135.4136918605
 20
182.6620652961
 11
135.1636920989
 21
182.2790866184
  0
LINE
  5
2A2
100
AcDbEntity
  8
0
100
AcDbLine
 62
7
  6
CONTINUOUS
 10
130.1636918605
 20
184.3216397452
 11
130.5386918605
 21
184.8322779822
  0
LINE
  5
2A3
100
AcDbEntity
  8
0
100
AcDbLine
 62
7
  6
CONTINUOUS
 10
162.8822770655
 20
173.3501504063
 11
162.8822770655
 21
183.0107073187
  0
LINE
  5
2A4
100
AcDbEntity
  8
0
100
AcDbLine
 62
7
  6
CONTINUOUS
 10
141.4136918605
 20
182.6620652961
 11
141.1636913836
 21
182.2790866184
  0
LINE
  5
2A5
100
AcDbEntity
  8
0
100
AcDbLine
 62
7
  6
CONTINUOUS
 10
129.7886918605
 20
184.9599375414
 11
129.5386917413
 21
184.7046184229
  0
LINE
  5
2A6
100
AcDbEntity
  8
RUNDUNGEN
100
AcDbLine
 62
7
  6
CONTINUOUS
 10
86.1310955616
 20
202.133162404
 11
113.9773707023
 21
205.0599238576
  0
LINE
  5
2A7
100
AcDbEntity
  8
0
100
AcDbLine
 62
7
  6
CONTINUOUS
 10
87.6508532498
 20
202.5945478575
 11
98.918786514
 21
203.7788553662
  0
LINE
  5
2A8
100
AcDbEntity
  8
0
100
AcDbLine
 62
7
  6
CONTINUOUS
 10
99.1075835249
 20
203.7986987317
 11
103.6171477103
 21
204.2726730268
  0
LINE
  5
2A9
100
AcDbEntity
  8
0
100
AcDbLine
 62
7
  6
CONTINUOUS
 10
104.5921876352
 20
204.3751538524
 11
109.101752518
 21
204.8491282208
  0
LINE
  5
2AA
100
AcDbEntity
  8
RUNDUNGEN
100
AcDbLine
 62
7
  6
CONTINUOUS
 10
222.5000130186
 20
205.0599238576
 11
250.3462881593
 21
202.133162404
  0
LINE
  5
2AB
100
AcDbEntity
  8
0
100
AcDbLine
 62
7
  6
CONTINUOUS
 10
227.3756312029
 20
204.8491282208
 11
231.8851960858
 21
204.3751538524
  0
LINE
  5
2AC
100
AcDbEntity
  8
0
100
AcDbLine
 62
7
  6
CONTINUOUS
 10
232.8602360106
 20
204.2726730268
 11
237.369800196
 21
203.7986987317
  0
LINE
  5
2AD
100
AcDbEntity
  8
0
100
AcDbLine
 62
7
  6
CONTINUOUS
 10
237.5585972069
 20
203.7788553662
 11
248.8265304712
 21
202.5945478575
  0
LINE
  5
2AE
100
AcDbEntity
  8
0
100
AcDbLine
 62
7
  6
CONTINUOUS
 10
173.5951080859
 20
180.6481818556
 11
173.5951080859
 21
179.1953645348
  0
LINE
  5
2AF
100
AcDbEntity
  8
0
100
AcDbLine
 62
7
  6
CONTINUOUS
 10
174.6066489756
 20
182.6101641058
 11
174.6066489756
 21
180.6481818556
  0
LINE
  5
2B0
100
AcDbEntity
  8
0
100
AcDbLine
 62
7
  6
CONTINUOUS
 10
174.6066489756
 20
179.1953645348
 11
174.6066489756
 21
175.4682767093
  0
LINE
  5
2B1
100
AcDbEntity
  8
0
100
AcDbLine
 62
7
  6
CONTINUOUS
 10
176.5482643187
 20
175.4818543493
 11
176.5482643187
 21
179.1953645348
  0
LINE
  5
2B2
100
AcDbEntity
  8
0
100
AcDbLine
 62
7
  6
CONTINUOUS
 10
176.5482643187
 20
180.6481818556
 11
176.5482643187
 21
182.6101641058
  0
LINE
  5
2B3
100
AcDbEntity
  8
0
100
AcDbLine
 62
7
  6
CONTINUOUS
 10
135.4136918605
 20
181.5131291288
 11
135.9136920989
 21
182.0237674105
  0
LINE
  5
2B4
100
AcDbEntity
  8
0
100
AcDbLine
 62
7
  6
CONTINUOUS
 10
141.4136918605
 20
181.5131291288
 11
141.9136913836
 21
182.0237674105
  0
LINE
  5
2B5
100
AcDbEntity
  8
0
100
AcDbLine
 62
7
  6
CONTINUOUS
 10
177.7566829264
 20
173.2007953505
 11
177.7566829264
 21
174.6604016125
  0
LINE
  5
2B6
100
AcDbEntity
  8
0
100
AcDbLine
 62
7
  6
CONTINUOUS
 10
177.7566829264
 20
179.1953645348
 11
177.7566829264
 21
180.6481818556
  0
LINE
  5
2B7
100
AcDbEntity
  8
0
100
AcDbLine
 62
7
  6
CONTINUOUS
 10
135.1636920989
 20
182.2790866184
 11
134.7886920989
 21
182.0237674105
  0
LINE
  5
2B8
100
AcDbEntity
  8
0
100
AcDbLine
 62
7
  6
CONTINUOUS
 10
141.1636913836
 20
182.2790866184
 11
140.7886913836
 21
182.0237674105
  0
LINE
  5
2B9
100
AcDbEntity
  8
0
100
AcDbLine
 62
7
  6
CONTINUOUS
 10
129.6636919797
 20
184.0663206267
 11
130.1636918605
 21
184.3216397452
  0
LINE
  5
2BA
100
AcDbEntity
  8
0
100
AcDbLine
 62
7
  6
CONTINUOUS
 10
190.2386918605
 20
169.501681178
 11
190.2386918605
 21
194.837886099
  0
LINE
  5
2BB
100
AcDbEntity
  8
0
100
AcDbLine
 62
7
  6
CONTINUOUS
 10
134.913691622
 20
181.2578099767
 11
135.4136918605
 21
181.5131291288
  0
LINE
  5
2BC
100
AcDbEntity
  8
0
100
AcDbLine
 62
7
  6
CONTINUOUS
 10
140.9136923373
 20
181.2578099767
 11
141.4136918605
 21
181.5131291288
  0
LINE
  5
2BD
100
AcDbEntity
  8
0
100
AcDbLine
 62
7
  6
CONTINUOUS
 10
129.5386917413
 20
184.7046184229
 11
129.1636917413
 21
184.5769588637
  0
LINE
  5
2BE
100
AcDbEntity
  8
RUNDUNGEN
100
AcDbLine
 62
7
  6
CONTINUOUS
 10
219.7386918605
 20
159.3501504063
 11
219.7386918605
 21
202.5736191192
  0
LINE
  5
2BF
100
AcDbEntity
  8
RUNDUNGEN
100
AcDbLine
 62
7
  6
CONTINUOUS
 10
220.5528639258
 20
220.0821157104
 11
217.7780811684
 21
193.6818212746
  0
LINE
  5
2C0
100
AcDbEntity
  8
BEZUGSACHSEN
100
AcDbLine
 62
7
  6
CONTINUOUS
 10
217.8922709274
 20
194.7682642594
 11
217.7780811684
 21
193.6818212746
  0
LINE
  5
2C1
100
AcDbEntity
  8
RUNDUNGEN
100
AcDbLine
 62
7
  6
CONTINUOUS
 10
170.917475887
 20
273.2405617318
 11
202.6830138462
 21
260.0828450931
  0
LINE
  5
2C2
100
AcDbEntity
  8
RUNDUNGEN
100
AcDbLine
 62
7
  6
CONTINUOUS
 10
206.4713865472
 20
256.294472392
 11
220.0583673858
 21
223.4925989798
  0
LINE
  5
2C3
100
AcDbEntity
  8
0
100
AcDbLine
 62
7
  6
CONTINUOUS
 10
227.344272664
 20
204.5507716522
 11
227.3756312029
 21
204.8491282208
  0
LINE
  5
2C4
100
AcDbEntity
  8
0
100
AcDbLine
 62
7
  6
CONTINUOUS
 10
227.5880333426
 20
204.5251513725
 11
227.6193918816
 21
204.8235079411
  0
LINE
  5
2C5
100
AcDbEntity
  8
0
100
AcDbLine
 62
7
  6
CONTINUOUS
 10
227.7099129845
 20
204.5123413059
 11
227.7412715235
 21
204.8106978745
  0
LINE
  5
2C6
100
AcDbEntity
  8
0
100
AcDbLine
 62
7
  6
CONTINUOUS
 10
227.8317940212
 20
204.4995310928
 11
227.8631525602
 21
204.7978876614
  0
LINE
  5
2C7
100
AcDbEntity
  8
0
100
AcDbLine
 62
7
  6
CONTINUOUS
 10
228.1974343417
 20
204.4611007465
 11
228.2287928807
 21
204.7594573151
  0
LINE
  5
2C8
100
AcDbEntity
  8
0
100
AcDbLine
 62
7
  6
CONTINUOUS
 10
228.6849543041
 20
204.4098603337
 11
228.7163128431
 21
204.7082169023
  0
LINE
  5
2C9
100
AcDbEntity
  8
0
100
AcDbLine
 62
7
  6
CONTINUOUS
 10
229.2943553032
 20
204.3458097077
 11
229.3257138422
 21
204.6441662763
  0
LINE
  5
2CA
100
AcDbEntity
  8
0
100
AcDbLine
 62
7
  6
CONTINUOUS
 10
229.9037549075
 20
204.2817592283
 11
229.9351134465
 21
204.5801157969
  0
LINE
  5
2CB
100
AcDbEntity
  8
0
100
AcDbLine
 62
7
  6
CONTINUOUS
 10
230.3912762648
 20
204.2305186689
 11
230.4226348037
 21
204.5288752375
  0
LINE
  5
2CC
100
AcDbEntity
  8
0
100
AcDbLine
 62
7
  6
CONTINUOUS
 10
230.8787962272
 20
204.1792782561
 11
230.9101547661
 21
204.4776348247
  0
LINE
  5
2CD
100
AcDbEntity
  8
0
100
AcDbLine
 62
7
  6
CONTINUOUS
 10
231.3663161896
 20
204.1280378432
 11
231.3976747286
 21
204.4263944118
  0
LINE
  5
2CE
100
AcDbEntity
  8
0
100
AcDbLine
 62
7
  6
CONTINUOUS
 10
231.4881972263
 20
204.1152276301
 11
231.5195557653
 21
204.4135841987
  0
LINE
  5
2CF
100
AcDbEntity
  8
0
100
AcDbLine
 62
7
  6
CONTINUOUS
 10
231.8538375468
 20
204.0767972838
 11
231.8851960858
 21
204.3751538524
  0
LINE
  5
2D0
100
AcDbEntity
  8
0
100
AcDbLine
 62
7
  6
CONTINUOUS
 10
232.8288774716
 20
203.9743164582
 11
232.8602360106
 21
204.2726730268
  0
LINE
  5
2D1
100
AcDbEntity
  8
0
100
AcDbLine
 62
7
  6
CONTINUOUS
 10
232.9507585083
 20
203.961506245
 11
232.9821170473
 21
204.2598628136
  0
LINE
  5
2D2
100
AcDbEntity
  8
0
100
AcDbLine
 62
7
  6
CONTINUOUS
 10
233.3163988288
 20
203.9230758987
 11
233.3477573678
 21
204.2214324673
  0
LINE
  5
2D3
100
AcDbEntity
  8
0
100
AcDbLine
 62
7
  6
CONTINUOUS
 10
233.8039187912
 20
203.8718354859
 11
233.8352773302
 21
204.1701920545
  0
LINE
  5
2D4
100
AcDbEntity
  8
0
100
AcDbLine
 62
7
  6
CONTINUOUS
 10
234.4133197904
 20
203.8077848599
 11
234.4446783293
 21
204.1061414285
  0
LINE
  5
2D5
100
AcDbEntity
  8
0
100
AcDbLine
 62
7
  6
CONTINUOUS
 10
237.338441657
 20
203.5003421631
 11
237.369800196
 21
203.7986987317
  0
LINE
  5
2D6
100
AcDbEntity
  8
0
100
AcDbLine
 62
7
  6
CONTINUOUS
 10
237.527238668
 20
203.4804987976
 11
237.5585972069
 21
203.7788553662
  0
LINE
  5
2D7
100
AcDbEntity
  8
0
100
AcDbLine
 62
7
  6
CONTINUOUS
 10
238.3134829767
 20
203.3978611908
 11
238.3448415157
 21
203.6962177594
  0
LINE
  5
2D8
100
AcDbEntity
  8
0
100
AcDbLine
 62
7
  6
CONTINUOUS
 10
238.4353626186
 20
203.3850511243
 11
238.4667211576
 21
203.6834076929
  0
LINE
  5
2D9
100
AcDbEntity
  8
0
100
AcDbLine
 62
7
  6
CONTINUOUS
 10
238.5572429579
 20
203.3722409844
 11
238.5886014969
 21
203.670597553
  0
LINE
  5
2DA
100
AcDbEntity
  8
0
100
AcDbLine
 62
7
  6
CONTINUOUS
 10
238.9228832784
 20
203.3338106381
 11
238.9542418174
 21
203.6321672067
  0
LINE
  5
2DB
100
AcDbEntity
  8
0
100
AcDbLine
 62
7
  6
CONTINUOUS
 10
239.4104039382
 20
203.282570152
 11
239.4417624772
 21
203.5809267206
  0
LINE
  5
2DC
100
AcDbEntity
  8
0
100
AcDbLine
 62
7
  6
CONTINUOUS
 10
240.0198042399
 20
203.2185195993
 11
240.0511627789
 21
203.5168761679
  0
LINE
  5
2DD
100
AcDbEntity
  8
0
100
AcDbLine
 62
7
  6
CONTINUOUS
 10
242.944926804
 20
202.9110768292
 11
242.976285343
 21
203.2094333978
  0
LINE
  5
2DE
100
AcDbEntity
  8
0
100
AcDbLine
 62
7
  6
CONTINUOUS
 10
243.0965613769
 20
202.8951393933
 11
243.1279199158
 21
203.193495962
  0
LINE
  5
2DF
100
AcDbEntity
  8
0
100
AcDbLine
 62
7
  6
CONTINUOUS
 10
243.5938224194
 20
202.8428751517
 11
243.6251809584
 21
203.1412317204
  0
LINE
  5
2E0
100
AcDbEntity
  8
0
100
AcDbLine
 62
7
  6
CONTINUOUS
 10
243.892178988
 20
202.8115166128
 11
243.923537527
 21
203.1098731814
  0
LINE
  5
2E1
100
AcDbEntity
  8
0
100
AcDbLine
 62
7
  6
CONTINUOUS
 10
243.9199677749
 20
202.8085958936
 11
243.9513263139
 21
203.1069524622
  0
LINE
  5
2E2
100
AcDbEntity
  8
0
100
AcDbLine
 62
7
  6
CONTINUOUS
 10
244.651248416
 20
202.731735201
 11
244.6826069549
 21
203.0300917696
  0
LINE
  5
2E3
100
AcDbEntity
  8
0
100
AcDbLine
 62
7
  6
CONTINUOUS
 10
246.3575698536
 20
202.5523935912
 11
246.3889283925
 21
202.8507501598
  0
LINE
  5
2E4
100
AcDbEntity
  8
0
100
AcDbLine
 62
7
  6
CONTINUOUS
 10
248.0638912912
 20
202.3730519814
 11
248.0952498301
 21
202.67140855
  0
LINE
  5
2E5
100
AcDbEntity
  8
0
100
AcDbLine
 62
7
  6
CONTINUOUS
 10
248.7951719322
 20
202.2961912889
 11
248.8265304712
 21
202.5945478575
  0
LINE
  5
2E6
100
AcDbEntity
  8
RUNDUNGEN
100
AcDbLine
 62
7
  6
CONTINUOUS
 10
263.6962153491
 20
188.7830163246
 11
265.7386918605
 21
169.3501504063
  0
LINE
  5
2E7
100
AcDbEntity
  8
RUNDUNGEN
100
AcDbLine
 62
7
  6
CONTINUOUS
 10
265.7386918605
 20
169.3501504063
 11
265.7386918605
 21
159.3501504063
  0
LINE
  5
2E8
100
AcDbEntity
  8
B-ACHSEN
100
AcDbLine
 62
7
  6
CONTINUOUS
 10
291.1679014092
 20
159.3501504063
 11
316.1679014092
 21
159.3501504063
  0
LINE
  5
2E9
100
AcDbEntity
  8
KONSTRUKTIONSELEMENTE
100
AcDbLine
 62
7
  6
CONTINUOUS
 10
316.1679014092
 20
159.3501504063
 11
328.1679014092
 21
159.3501504063
  0
LINE
  5
2EA
100
AcDbEntity
  8
KONSTRUKTIONSELEMENTE
100
AcDbLine
 62
7
  6
CONTINUOUS
 10
354.1679014092
 20
159.3501504063
 11
366.1679014092
 21
159.3501504063
  0
LINE
  5
2EB
100
AcDbEntity
  8
B-ACHSEN
100
AcDbLine
 62
7
  6
CONTINUOUS
 10
366.1679014092
 20
159.3501504063
 11
391.1679014092
 21
159.3501504063
  0
LINE
  5
2EC
100
AcDbEntity
  8
RUNDUNGEN
100
AcDbLine
 62
7
  6
CONTINUOUS
 10
291.1679014092
 20
169.9067747333
 11
291.1679014092
 21
159.3501504063
  0
LINE
  5
2ED
100
AcDbEntity
  8
KONSTRUKTIONSELEMENTE
100
AcDbLine
 62
7
  6
CONTINUOUS
 10
328.1679014092
 20
165.3501504063
 11
354.1679014092
 21
165.3501504063
  0
LINE
  5
2EE
100
AcDbEntity
  8
RUNDUNGEN
100
AcDbLine
 62
7
  6
CONTINUOUS
 10
317.2171305767
 20
169.3501504063
 11
365.1186722417
 21
169.3501504063
  0
LINE
  5
2EF
100
AcDbEntity
  8
RUNDUNGEN
100
AcDbLine
 62
7
  6
CONTINUOUS
 10
316.1679014092
 20
162.2523988832
 11
316.1679014092
 21
159.3501504063
  0
LINE
  5
2F0
100
AcDbEntity
  8
0
100
AcDbLine
 62
7
  6
CONTINUOUS
 10
349.4025822683
 20
203.3655174481
 11
349.5302418388
 21
203.3968759871
  0
LINE
  5
2F1
100
AcDbEntity
  8
KONSTRUKTIONSELEMENTE
100
AcDbLine
 62
7
  6
CONTINUOUS
 10
328.1679014092
 20
159.3501504063
 11
328.1679014092
 21
165.3501504063
  0
LINE
  5
2F2
100
AcDbEntity
  8
BEZUGSACHSEN
100
AcDbLine
 62
7
  6
CONTINUOUS
 10
328.6679014092
 20
202.620874593
 11
328.6679014092
 21
268.7734050043
  0
LINE
  5
2F3
100
AcDbEntity
  8
0
100
AcDbLine
 62
7
  6
CONTINUOUS
 10
337.8659864747
 20
204.1189516417
 11
338.0032205009
 21
204.157381988
  0
LINE
  5
2F4
100
AcDbEntity
  8
0
100
AcDbLine
 62
7
  6
CONTINUOUS
 10
334.9840715402
 20
203.5296863078
 11
335.1213055664
 21
203.5681166541
  0
LINE
  5
2F5
100
AcDbEntity
  8
0
100
AcDbLine
 62
7
  6
CONTINUOUS
 10
337.0425823175
 20
204.5801157969
 11
336.9053482913
 21
204.5416854507
  0
LINE
  5
2F6
100
AcDbEntity
  8
0
100
AcDbLine
 62
7
  6
CONTINUOUS
 10
335.1213055664
 20
204.1189516417
 11
335.2585395926
 21
204.157381988
  0
LINE
  5
2F7
100
AcDbEntity
  8
0
100
AcDbLine
 62
7
  6
CONTINUOUS
 10
335.1213055664
 20
204.6569764895
 11
335.2585395926
 21
204.6954068357
  0
LINE
  5
2F8
100
AcDbEntity
  8
0
100
AcDbLine
 62
7
  6
CONTINUOUS
 10
349.4025822683
 20
203.6638740168
 11
349.5302418388
 21
203.6952325557
  0
LINE
  5
2F9
100
AcDbEntity
  8
0
100
AcDbLine
 62
7
  6
CONTINUOUS
 10
337.5915184223
 20
204.2214324673
 11
337.4542843961
 21
204.1958123342
  0
LINE
  5
2FA
100
AcDbEntity
  8
0
100
AcDbLine
 62
7
  6
CONTINUOUS
 10
337.4542843961
 20
204.4776348247
 11
337.7287524485
 21
204.5288752375
  0
LINE
  5
2FB
100
AcDbEntity
  8
0
100
AcDbLine
 62
7
  6
CONTINUOUS
 10
337.4542843961
 20
204.7722675283
 11
337.1798163437
 21
204.7210269688
  0
LINE
  5
2FC
100
AcDbEntity
  8
0
100
AcDbLine
 62
7
  6
CONTINUOUS
 10
340.5324761131
 20
204.1799237323
 11
340.610667371
 21
204.1920883226
  0
LINE
  5
2FD
100
AcDbEntity
  8
0
100
AcDbLine
 62
7
  6
CONTINUOUS
 10
340.1989652564
 20
204.4263944118
 11
340.610667371
 21
204.4904448912
  0
LINE
  5
2FE
100
AcDbEntity
  8
0
100
AcDbLine
 62
7
  6
CONTINUOUS
 10
338.0032205009
 20
204.4098603337
 11
338.2776885533
 21
204.4482906799
  0
LINE
  5
2FF
100
AcDbEntity
  8
0
100
AcDbLine
 62
7
  6
CONTINUOUS
 10
336.9053482913
 20
204.5416854507
 11
336.6308802389
 21
204.5032551044
  0
LINE
  5
300
100
AcDbEntity
  8
0
100
AcDbLine
 62
7
  6
CONTINUOUS
 10
338.0032205009
 20
204.7082169023
 11
338.2776885533
 21
204.7466472486
  0
LINE
  5
301
100
AcDbEntity
  8
0
100
AcDbLine
 62
7
  6
CONTINUOUS
 10
349.1472631275
 20
203.1412317204
 11
349.5302418388
 21
203.193495962
  0
LINE
  5
302
100
AcDbEntity
  8
0
100
AcDbLine
 62
7
  6
CONTINUOUS
 10
344.1685396462
 20
203.3711943595
 11
343.7855609684
 21
203.3189301179
  0
LINE
  5
303
100
AcDbEntity
  8
0
100
AcDbLine
 62
7
  6
CONTINUOUS
 10
334.846837514
 20
203.6321672067
 11
334.4351354354
 21
203.5809267206
  0
LINE
  5
304
100
AcDbEntity
  8
0
100
AcDbLine
 62
7
  6
CONTINUOUS
 10
334.846837514
 20
204.2214324673
 11
334.4351354354
 21
204.1701920545
  0
LINE
  5
305
100
AcDbEntity
  8
0
100
AcDbLine
 62
7
  6
CONTINUOUS
 10
334.846837514
 20
204.7594573151
 11
334.4351354354
 21
204.7082169023
  0
LINE
  5
306
100
AcDbEntity
  8
0
100
AcDbLine
 62
7
  6
CONTINUOUS
 10
348.8919439643
 20
203.2039487983
 11
348.6366248458
 21
203.1725902593
  0
LINE
  5
307
100
AcDbEntity
  8
0
100
AcDbLine
 62
7
  6
CONTINUOUS
 10
349.2900979333
 20
203.3517020154
 11
349.4025822683
 21
203.3655174481
  0
LINE
  5
308
100
AcDbEntity
  8
0
100
AcDbLine
 62
7
  6
CONTINUOUS
 10
349.1472631275
 20
203.6325154778
 11
349.4025822683
 21
203.6638740168
  0
LINE
  5
309
100
AcDbEntity
  8
0
100
AcDbLine
 62
7
  6
CONTINUOUS
 10
349.0196035235
 20
203.705685422
 11
348.764284405
 21
203.674326883
  0
LINE
  5
30A
100
AcDbEntity
  8
0
100
AcDbLine
 62
7
  6
CONTINUOUS
 10
344.4238587647
 20
203.3084772516
 11
344.6791778832
 21
203.3398357906
  0
LINE
  5
30B
100
AcDbEntity
  8
0
100
AcDbLine
 62
7
  6
CONTINUOUS
 10
335.2984335739
 20
203.2862940903
 11
335.3957736187
 21
203.2953802919
  0
LINE
  5
30C
100
AcDbEntity
  8
0
100
AcDbLine
 62
7
  6
CONTINUOUS
 10
335.1213055664
 20
203.5681166541
 11
335.3957736187
 21
203.5937368605
  0
LINE
  5
30D
100
AcDbEntity
  8
0
100
AcDbLine
 62
7
  6
CONTINUOUS
 10
338.1803482299
 20
203.8755593509
 11
338.2776885533
 21
203.8846455525
  0
LINE
  5
30E
100
AcDbEntity
  8
0
100
AcDbLine
 62
7
  6
CONTINUOUS
 10
335.4356673216
 20
203.8755593509
 11
335.5330076449
 21
203.8846455525
  0
LINE
  5
30F
100
AcDbEntity
  8
0
100
AcDbLine
 62
7
  6
CONTINUOUS
 10
338.0032205009
 20
204.157381988
 11
338.2776885533
 21
204.1830021211
  0
LINE
  5
310
100
AcDbEntity
  8
0
100
AcDbLine
 62
7
  6
CONTINUOUS
 10
339.7872631297
 20
204.5032551044
 11
339.375560955
 21
204.4648247581
  0
LINE
  5
311
100
AcDbEntity
  8
0
100
AcDbLine
 62
7
  6
CONTINUOUS
 10
335.2585395926
 20
204.157381988
 11
335.5330076449
 21
204.1830021211
  0
LINE
  5
312
100
AcDbEntity
  8
0
100
AcDbLine
 62
7
  6
CONTINUOUS
 10
336.9053482913
 20
204.4263944118
 11
337.4542843961
 21
204.4776348247
  0
LINE
  5
313
100
AcDbEntity
  8
0
100
AcDbLine
 62
7
  6
CONTINUOUS
 10
338.0032205009
 20
204.8235079411
 11
337.4542843961
 21
204.7722675283
  0
LINE
  5
314
100
AcDbEntity
  8
0
100
AcDbLine
 62
7
  6
CONTINUOUS
 10
335.2585395926
 20
204.6954068357
 11
335.5330076449
 21
204.7210269688
  0
LINE
  5
315
100
AcDbEntity
  8
0
100
AcDbLine
 62
7
  6
CONTINUOUS
 10
348.764284405
 20
203.1098731814
 11
349.1472631275
 21
203.1412317204
  0
LINE
  5
316
100
AcDbEntity
  8
0
100
AcDbLine
 62
7
  6
CONTINUOUS
 10
344.5515183239
 20
203.4025528985
 11
344.1685396462
 21
203.3711943595
  0
LINE
  5
317
100
AcDbEntity
  8
RUNDUNGEN
100
AcDbLine
 62
7
  6
CONTINUOUS
 10
336.9241737304
 20
205.0484799113
 11
337.2778177104
 21
205.0736191192
  0
LINE
  5
318
100
AcDbEntity
  8
0
100
AcDbLine
 62
7
  6
CONTINUOUS
 10
335.3957736187
 20
203.670597553
 11
334.846837514
 21
203.6321672067
  0
LINE
  5
319
100
AcDbEntity
  8
0
100
AcDbLine
 62
7
  6
CONTINUOUS
 10
338.1404545271
 20
204.2598628136
 11
337.5915184223
 21
204.2214324673
  0
LINE
  5
31A
100
AcDbEntity
  8
0
100
AcDbLine
 62
7
  6
CONTINUOUS
 10
335.3957736187
 20
204.2598628136
 11
334.846837514
 21
204.2214324673
  0
LINE
  5
31B
100
AcDbEntity
  8
0
100
AcDbLine
 62
7
  6
CONTINUOUS
 10
335.3957736187
 20
204.7978876614
 11
334.846837514
 21
204.7594573151
  0
LINE
  5
31C
100
AcDbEntity
  8
0
100
AcDbLine
 62
7
  6
CONTINUOUS
 10
338.2776885533
 20
204.4482906799
 11
338.6893908241
 21
204.4739109597
  0
LINE
  5
31D
100
AcDbEntity
  8
0
100
AcDbLine
 62
7
  6
CONTINUOUS
 10
338.2776885533
 20
204.7466472486
 11
338.6893908241
 21
204.7722675283
  0
LINE
  5
31E
100
AcDbEntity
  8
0
100
AcDbLine
 62
7
  6
CONTINUOUS
 10
339.5127949812
 20
204.3879640656
 11
340.1989652564
 21
204.4263944118
  0
LINE
  5
31F
100
AcDbEntity
  8
0
100
AcDbLine
 62
7
  6
CONTINUOUS
 10
348.6366248458
 20
203.1725902593
 11
347.8706674009
 21
203.130778884
  0
LINE
  5
320
100
AcDbEntity
  8
0
100
AcDbLine
 62
7
  6
CONTINUOUS
 10
344.6791778832
 20
203.3398357906
 11
345.4451355963
 21
203.3816471659
  0
LINE
  5
321
100
AcDbEntity
  8
0
100
AcDbLine
 62
7
  6
CONTINUOUS
 10
338.5521567979
 20
204.8491282208
 11
338.0032205009
 21
204.8235079411
  0
LINE
  5
322
100
AcDbEntity
  8
0
100
AcDbLine
 62
7
  6
CONTINUOUS
 10
335.5330076449
 20
204.7210269688
 11
335.8074756973
 21
204.733837182
  0
LINE
  5
323
100
AcDbEntity
  8
0
100
AcDbLine
 62
7
  6
CONTINUOUS
 10
348.2536460786
 20
203.0889674937
 11
348.764284405
 21
203.1098731814
  0
LINE
  5
324
100
AcDbEntity
  8
0
100
AcDbLine
 62
7
  6
CONTINUOUS
 10
345.0621565609
 20
203.4234585712
 11
344.5515183239
 21
203.4025528985
  0
LINE
  5
325
100
AcDbEntity
  8
0
100
AcDbLine
 62
7
  6
CONTINUOUS
 10
348.6366248458
 20
203.6116098051
 11
349.1472631275
 21
203.6325154778
  0
LINE
  5
326
100
AcDbEntity
  8
0
100
AcDbLine
 62
7
  6
CONTINUOUS
 10
340.7479014092
 20
203.6962177594
 11
337.5915184223
 21
203.5809267206
  0
LINE
  5
327
100
AcDbEntity
  8
0
100
AcDbLine
 62
7
  6
CONTINUOUS
 10
340.1321442407
 20
203.2862940903
 11
340.7479014092
 21
203.3081904317
  0
LINE
  5
328
100
AcDbEntity
  8
0
100
AcDbLine
 62
7
  6
CONTINUOUS
 10
337.8659864747
 20
203.5040660281
 11
340.7479014092
 21
203.6065470003
  0
LINE
  5
329
100
AcDbEntity
  8
0
100
AcDbLine
 62
7
  6
CONTINUOUS
 10
334.2979014092
 20
202.2961912889
 11
340.7479014092
 21
202.5011531417
  0
LINE
  5
32A
100
AcDbEntity
  8
0
100
AcDbLine
 62
7
  6
CONTINUOUS
 10
334.2979014092
 20
202.5945478575
 11
340.7479014092
 21
202.7995097103
  0
LINE
  5
32B
100
AcDbEntity
  8
0
100
AcDbLine
 62
7
  6
CONTINUOUS
 10
339.9244971559
 20
202.8507501598
 11
334.2979014092
 21
202.67140855
  0
LINE
  5
32C
100
AcDbEntity
  8
0
100
AcDbLine
 62
7
  6
CONTINUOUS
 10
335.3957736187
 20
203.2953802919
 11
335.8074756973
 21
203.3081904317
  0
LINE
  5
32D
100
AcDbEntity
  8
0
100
AcDbLine
 62
7
  6
CONTINUOUS
 10
335.3957736187
 20
203.5937368605
 11
335.8074756973
 21
203.6065470003
  0
LINE
  5
32E
100
AcDbEntity
  8
0
100
AcDbLine
 62
7
  6
CONTINUOUS
 10
335.8074756973
 20
203.6834076929
 11
335.3957736187
 21
203.670597553
  0
LINE
  5
32F
100
AcDbEntity
  8
0
100
AcDbLine
 62
7
  6
CONTINUOUS
 10
338.2776885533
 20
203.8846455525
 11
338.6893908241
 21
203.8974557656
  0
LINE
  5
330
100
AcDbEntity
  8
0
100
AcDbLine
 62
7
  6
CONTINUOUS
 10
335.5330076449
 20
203.8846455525
 11
335.944710108
 21
203.8974557656
  0
LINE
  5
331
100
AcDbEntity
  8
0
100
AcDbLine
 62
7
  6
CONTINUOUS
 10
338.2776885533
 20
204.1830021211
 11
338.6893908241
 21
204.1958123342
  0
LINE
  5
332
100
AcDbEntity
  8
0
100
AcDbLine
 62
7
  6
CONTINUOUS
 10
338.5521567979
 20
204.2726730268
 11
338.1404545271
 21
204.2598628136
  0
LINE
  5
333
100
AcDbEntity
  8
0
100
AcDbLine
 62
7
  6
CONTINUOUS
 10
335.5330076449
 20
204.1830021211
 11
335.944710108
 21
204.1958123342
  0
LINE
  5
334
100
AcDbEntity
  8
0
100
AcDbLine
 62
7
  6
CONTINUOUS
 10
335.8074756973
 20
204.2726730268
 11
335.3957736187
 21
204.2598628136
  0
LINE
  5
335
100
AcDbEntity
  8
0
100
AcDbLine
 62
7
  6
CONTINUOUS
 10
339.375560955
 20
204.4648247581
 11
338.9638588765
 21
204.452014545
  0
LINE
  5
336
100
AcDbEntity
  8
0
100
AcDbLine
 62
7
  6
CONTINUOUS
 10
336.6308802389
 20
204.5032551044
 11
336.2191781604
 21
204.4904448912
  0
LINE
  5
337
100
AcDbEntity
  8
0
100
AcDbLine
 62
7
  6
CONTINUOUS
 10
335.8074756973
 20
204.8106978745
 11
335.3957736187
 21
204.7978876614
  0
LINE
  5
338
100
AcDbEntity
  8
0
100
AcDbLine
 62
7
  6
CONTINUOUS
 10
347.8706674009
 20
203.0785146424
 11
348.2536460786
 21
203.0889674937
  0
LINE
  5
339
100
AcDbEntity
  8
0
100
AcDbLine
 62
7
  6
CONTINUOUS
 10
345.4451355963
 20
203.4339114374
 11
345.0621565609
 21
203.4234585712
  0
LINE
  5
33A
100
AcDbEntity
  8
0
100
AcDbLine
 62
7
  6
CONTINUOUS
 10
348.764284405
 20
203.674326883
 11
348.3813056379
 21
203.6638740168
  0
LINE
  5
33B
100
AcDbEntity
  8
0
100
AcDbLine
 62
7
  6
CONTINUOUS
 10
338.9638588765
 20
204.3751538524
 11
339.5127949812
 21
204.3879640656
  0
LINE
  5
33C
100
AcDbEntity
  8
0
100
AcDbLine
 62
7
  6
CONTINUOUS
 10
336.3564121866
 20
204.4135841987
 11
336.9053482913
 21
204.4263944118
  0
LINE
  5
33D
100
AcDbEntity
  8
0
100
AcDbLine
 62
7
  6
CONTINUOUS
 10
347.2323694258
 20
203.0680617911
 11
347.8706674009
 21
203.0785146424
  0
LINE
  5
33E
100
AcDbEntity
  8
0
100
AcDbLine
 62
7
  6
CONTINUOUS
 10
346.0834333926
 20
203.4443642439
 11
345.4451355963
 21
203.4339114374
  0
LINE
  5
33F
100
AcDbEntity
  8
0
100
AcDbLine
 62
7
  6
CONTINUOUS
 10
347.8706674009
 20
203.130778884
 11
347.1047098666
 21
203.1203260177
  0
LINE
  5
340
100
AcDbEntity
  8
0
100
AcDbLine
 62
7
  6
CONTINUOUS
 10
345.4451355963
 20
203.3816471659
 11
346.2110929518
 21
203.3921000322
  0
LINE
  5
341
100
AcDbEntity
  8
0
100
AcDbLine
 62
7
  6
CONTINUOUS
 10
344.5515183239
 20
202.5606483009
 11
345.5727951556
 21
202.5606483009
  0
LINE
  5
342
100
AcDbEntity
  8
0
100
AcDbLine
 62
7
  6
CONTINUOUS
 10
345.5727951556
 20
202.6233653789
 11
349.6579014092
 21
202.6233653789
  0
LINE
  5
343
100
AcDbEntity
  8
0
100
AcDbLine
 62
7
  6
CONTINUOUS
 10
344.5515183239
 20
202.8590048695
 11
345.5727951556
 21
202.8590048695
  0
LINE
  5
344
100
AcDbEntity
  8
0
100
AcDbLine
 62
7
  6
CONTINUOUS
 10
340.4619652489
 20
202.9110768292
 11
340.7479014092
 21
202.9110768292
  0
LINE
  5
345
100
AcDbEntity
  8
0
100
AcDbLine
 62
7
  6
CONTINUOUS
 10
344.6791778832
 20
202.9217219475
 11
349.6579014092
 21
202.9217219475
  0
LINE
  5
346
100
AcDbEntity
  8
0
100
AcDbLine
 62
7
  6
CONTINUOUS
 10
349.6579014092
 20
202.9844390255
 11
343.6579014092
 21
202.9844390255
  0
LINE
  5
347
100
AcDbEntity
  8
0
100
AcDbLine
 62
7
  6
CONTINUOUS
 10
346.0834333926
 20
203.0680617911
 11
347.2323694258
 21
203.0680617911
  0
LINE
  5
348
100
AcDbEntity
  8
0
100
AcDbLine
 62
7
  6
CONTINUOUS
 10
347.1047098666
 20
203.1203260177
 11
346.2110929518
 21
203.1203260177
  0
LINE
  5
349
100
AcDbEntity
  8
0
100
AcDbLine
 62
7
  6
CONTINUOUS
 10
334.2979014092
 20
203.2094333978
 11
340.7479014092
 21
203.2094333978
  0
LINE
  5
34A
100
AcDbEntity
  8
0
100
AcDbLine
 62
7
  6
CONTINUOUS
 10
340.7479014092
 20
203.2862940903
 11
337.8659864747
 21
203.2862940903
  0
LINE
  5
34B
100
AcDbEntity
  8
0
100
AcDbLine
 62
7
  6
CONTINUOUS
 10
337.0425823175
 20
203.2862940903
 11
334.9840715402
 21
203.2862940903
  0
LINE
  5
34C
100
AcDbEntity
  8
0
100
AcDbLine
 62
7
  6
CONTINUOUS
 10
335.8074756973
 20
203.3081904317
 11
336.2191781604
 21
203.3081904317
  0
LINE
  5
34D
100
AcDbEntity
  8
0
100
AcDbLine
 62
7
  6
CONTINUOUS
 10
346.2110929518
 20
203.3921000322
 11
347.1047098666
 21
203.3921000322
  0
LINE
  5
34E
100
AcDbEntity
  8
0
100
AcDbLine
 62
7
  6
CONTINUOUS
 10
347.2323694258
 20
203.4443642439
 11
346.0834333926
 21
203.4443642439
  0
LINE
  5
34F
100
AcDbEntity
  8
0
100
AcDbLine
 62
7
  6
CONTINUOUS
 10
345.5727951556
 20
203.5279870544
 11
346.0834333926
 21
203.5279870544
  0
LINE
  5
350
100
AcDbEntity
  8
0
100
AcDbLine
 62
7
  6
CONTINUOUS
 10
335.8074756973
 20
203.6065470003
 11
336.2191781604
 21
203.6065470003
  0
LINE
  5
351
100
AcDbEntity
  8
0
100
AcDbLine
 62
7
  6
CONTINUOUS
 10
344.5515183239
 20
203.6116098051
 11
345.5727951556
 21
203.6116098051
  0
LINE
  5
352
100
AcDbEntity
  8
0
100
AcDbLine
 62
7
  6
CONTINUOUS
 10
346.0834333926
 20
203.6116098051
 11
348.6366248458
 21
203.6116098051
  0
LINE
  5
353
100
AcDbEntity
  8
0
100
AcDbLine
 62
7
  6
CONTINUOUS
 10
348.3813056379
 20
203.6638740168
 11
346.0834333926
 21
203.6638740168
  0
LINE
  5
354
100
AcDbEntity
  8
0
100
AcDbLine
 62
7
  6
CONTINUOUS
 10
345.5727951556
 20
203.6638740168
 11
344.5515183239
 21
203.6638740168
  0
LINE
  5
355
100
AcDbEntity
  8
0
100
AcDbLine
 62
7
  6
CONTINUOUS
 10
336.3564121866
 20
203.6834076929
 11
335.8074756973
 21
203.6834076929
  0
LINE
  5
356
100
AcDbEntity
  8
0
100
AcDbLine
 62
7
  6
CONTINUOUS
 10
349.6579014092
 20
203.7579496337
 11
349.1472631275
 21
203.7579496337
  0
LINE
  5
357
100
AcDbEntity
  8
0
100
AcDbLine
 62
7
  6
CONTINUOUS
 10
346.0834333926
 20
203.7788553662
 11
345.5727951556
 21
203.7788553662
  0
LINE
  5
358
100
AcDbEntity
  8
0
100
AcDbLine
 62
7
  6
CONTINUOUS
 10
334.2979014092
 20
203.7986987317
 11
340.7479014092
 21
203.7986987317
  0
LINE
  5
359
100
AcDbEntity
  8
0
100
AcDbLine
 62
7
  6
CONTINUOUS
 10
339.9244971559
 20
203.8755593509
 11
337.8659864747
 21
203.8755593509
  0
LINE
  5
35A
100
AcDbEntity
  8
0
100
AcDbLine
 62
7
  6
CONTINUOUS
 10
337.0425823175
 20
203.8755593509
 11
335.1213055664
 21
203.8755593509
  0
LINE
  5
35B
100
AcDbEntity
  8
0
100
AcDbLine
 62
7
  6
CONTINUOUS
 10
335.944710108
 20
203.8974557656
 11
336.2191781604
 21
203.8974557656
  0
LINE
  5
35C
100
AcDbEntity
  8
0
100
AcDbLine
 62
7
  6
CONTINUOUS
 10
338.6893908241
 20
203.8974557656
 11
339.1010929026
 21
203.8974557656
  0
LINE
  5
35D
100
AcDbEntity
  8
0
100
AcDbLine
 62
7
  6
CONTINUOUS
 10
335.944710108
 20
204.1958123342
 11
336.2191781604
 21
204.1958123342
  0
LINE
  5
35E
100
AcDbEntity
  8
0
100
AcDbLine
 62
7
  6
CONTINUOUS
 10
338.6893908241
 20
204.1958123342
 11
339.1010929026
 21
204.1958123342
  0
LINE
  5
35F
100
AcDbEntity
  8
0
100
AcDbLine
 62
7
  6
CONTINUOUS
 10
339.2383269288
 20
204.2726730268
 11
338.5521567979
 21
204.2726730268
  0
LINE
  5
360
100
AcDbEntity
  8
0
100
AcDbLine
 62
7
  6
CONTINUOUS
 10
336.3564121866
 20
204.2726730268
 11
335.8074756973
 21
204.2726730268
  0
LINE
  5
361
100
AcDbEntity
  8
0
100
AcDbLine
 62
7
  6
CONTINUOUS
 10
335.8074756973
 20
204.4135841987
 11
336.3564121866
 21
204.4135841987
  0
LINE
  5
362
100
AcDbEntity
  8
0
100
AcDbLine
 62
7
  6
CONTINUOUS
 10
338.6893908241
 20
204.4739109597
 11
339.1010929026
 21
204.4739109597
  0
LINE
  5
363
100
AcDbEntity
  8
0
100
AcDbLine
 62
7
  6
CONTINUOUS
 10
336.2191781604
 20
204.4904448912
 11
335.944710108
 21
204.4904448912
  0
LINE
  5
364
100
AcDbEntity
  8
0
100
AcDbLine
 62
7
  6
CONTINUOUS
 10
338.6893908241
 20
204.7722675283
 11
339.1010929026
 21
204.7722675283
  0
LINE
  5
365
100
AcDbEntity
  8
0
100
AcDbLine
 62
7
  6
CONTINUOUS
 10
339.2383269288
 20
204.8491282208
 11
338.5521567979
 21
204.8491282208
  0
LINE
  5
366
100
AcDbEntity
  8
RUNDUNGEN
100
AcDbLine
 62
7
  6
CONTINUOUS
 10
337.2778177036
 20
205.0736191192
 11
345.0579851148
 21
205.0736191192
  0
LINE
  5
367
100
AcDbEntity
  8
0
100
AcDbLine
 62
7
  6
CONTINUOUS
 10
346.2110929518
 20
203.1203260177
 11
345.4451355963
 21
203.130778884
  0
LINE
  5
368
100
AcDbEntity
  8
0
100
AcDbLine
 62
7
  6
CONTINUOUS
 10
347.1047098666
 20
203.3921000322
 11
347.8706674009
 21
203.3816471659
  0
LINE
  5
369
100
AcDbEntity
  8
0
100
AcDbLine
 62
7
  6
CONTINUOUS
 10
345.4451355963
 20
203.0785146424
 11
346.0834333926
 21
203.0680617911
  0
LINE
  5
36A
100
AcDbEntity
  8
0
100
AcDbLine
 62
7
  6
CONTINUOUS
 10
347.8706674009
 20
203.4339114374
 11
347.2323694258
 21
203.4443642439
  0
LINE
  5
36B
100
AcDbEntity
  8
0
100
AcDbLine
 62
7
  6
CONTINUOUS
 10
335.2585395926
 20
204.4263944118
 11
335.8074756973
 21
204.4135841987
  0
LINE
  5
36C
100
AcDbEntity
  8
0
100
AcDbLine
 62
7
  6
CONTINUOUS
 10
345.0621565609
 20
203.0889674937
 11
345.4451355963
 21
203.0785146424
  0
LINE
  5
36D
100
AcDbEntity
  8
0
100
AcDbLine
 62
7
  6
CONTINUOUS
 10
348.2536460786
 20
203.4234585712
 11
347.8706674009
 21
203.4339114374
  0
LINE
  5
36E
100
AcDbEntity
  8
0
100
AcDbLine
 62
7
  6
CONTINUOUS
 10
336.2191781604
 20
203.3081904317
 11
336.6308802389
 21
203.2953802919
  0
LINE
  5
36F
100
AcDbEntity
  8
0
100
AcDbLine
 62
7
  6
CONTINUOUS
 10
336.2191781604
 20
203.6065470003
 11
336.6308802389
 21
203.5937368605
  0
LINE
  5
370
100
AcDbEntity
  8
0
100
AcDbLine
 62
7
  6
CONTINUOUS
 10
336.7681142651
 20
203.670597553
 11
336.3564121866
 21
203.6834076929
  0
LINE
  5
371
100
AcDbEntity
  8
0
100
AcDbLine
 62
7
  6
CONTINUOUS
 10
336.2191781604
 20
203.8974557656
 11
336.6308802389
 21
203.8846455525
  0
LINE
  5
372
100
AcDbEntity
  8
0
100
AcDbLine
 62
7
  6
CONTINUOUS
 10
339.1010929026
 20
203.8974557656
 11
339.5127949812
 21
203.8846455525
  0
LINE
  5
373
100
AcDbEntity
  8
0
100
AcDbLine
 62
7
  6
CONTINUOUS
 10
336.2191781604
 20
204.1958123342
 11
336.6308802389
 21
204.1830021211
  0
LINE
  5
374
100
AcDbEntity
  8
0
100
AcDbLine
 62
7
  6
CONTINUOUS
 10
336.7681142651
 20
204.2598628136
 11
336.3564121866
 21
204.2726730268
  0
LINE
  5
375
100
AcDbEntity
  8
0
100
AcDbLine
 62
7
  6
CONTINUOUS
 10
339.1010929026
 20
204.1958123342
 11
339.5127949812
 21
204.1830021211
  0
LINE
  5
376
100
AcDbEntity
  8
0
100
AcDbLine
 62
7
  6
CONTINUOUS
 10
339.6500291035
 20
204.2598628136
 11
339.2383269288
 21
204.2726730268
  0
LINE
  5
377
100
AcDbEntity
  8
0
100
AcDbLine
 62
7
  6
CONTINUOUS
 10
335.944710108
 20
204.4904448912
 11
335.5330076449
 21
204.5032551044
  0
LINE
  5
378
100
AcDbEntity
  8
0
100
AcDbLine
 62
7
  6
CONTINUOUS
 10
340.7479014092
 20
202.9019906276
 11
334.2979014092
 21
203.1069524622
  0
LINE
  5
379
100
AcDbEntity
  8
0
100
AcDbLine
 62
7
  6
CONTINUOUS
 10
334.2979014092
 20
202.731735201
 11
335.2442341604
 21
202.7015718755
  0
LINE
  5
37A
100
AcDbEntity
  8
0
100
AcDbLine
 62
7
  6
CONTINUOUS
 10
334.2979014092
 20
203.0300917696
 11
339.9244971559
 21
202.8507501598
  0
LINE
  5
37B
100
AcDbEntity
  8
0
100
AcDbLine
 62
7
  6
CONTINUOUS
 10
344.5515183239
 20
203.1098731814
 11
345.0621565609
 21
203.0889674937
  0
LINE
  5
37C
100
AcDbEntity
  8
0
100
AcDbLine
 62
7
  6
CONTINUOUS
 10
348.764284405
 20
203.4025528985
 11
348.2536460786
 21
203.4234585712
  0
LINE
  5
37D
100
AcDbEntity
  8
0
100
AcDbLine
 62
7
  6
CONTINUOUS
 10
339.7872631297
 20
204.8235079411
 11
339.2383269288
 21
204.8491282208
  0
LINE
  5
37E
100
AcDbEntity
  8
0
100
AcDbLine
 62
7
  6
CONTINUOUS
 10
345.4451355963
 20
203.130778884
 11
344.6791778832
 21
203.1725902593
  0
LINE
  5
37F
100
AcDbEntity
  8
0
100
AcDbLine
 62
7
  6
CONTINUOUS
 10
347.8706674009
 20
203.3816471659
 11
348.6366248458
 21
203.3398357906
  0
LINE
  5
380
100
AcDbEntity
  8
0
100
AcDbLine
 62
7
  6
CONTINUOUS
 10
339.1010929026
 20
204.4739109597
 11
339.2899221832
 21
204.4621600863
  0
LINE
  5
381
100
AcDbEntity
  8
0
100
AcDbLine
 62
7
  6
CONTINUOUS
 10
339.1010929026
 20
204.7722675283
 11
339.5127949812
 21
204.7466472486
  0
LINE
  5
382
100
AcDbEntity
  8
0
100
AcDbLine
 62
7
  6
CONTINUOUS
 10
337.3170503699
 20
203.6321672067
 11
336.7681142651
 21
203.670597553
  0
LINE
  5
383
100
AcDbEntity
  8
0
100
AcDbLine
 62
7
  6
CONTINUOUS
 10
337.3170503699
 20
204.2214324673
 11
336.7681142651
 21
204.2598628136
  0
LINE
  5
384
100
AcDbEntity
  8
0
100
AcDbLine
 62
7
  6
CONTINUOUS
 10
340.1989652564
 20
204.2214324673
 11
339.6500291035
 21
204.2598628136
  0
LINE
  5
385
100
AcDbEntity
  8
0
100
AcDbLine
 62
7
  6
CONTINUOUS
 10
343.6579014092
 20
202.6233653789
 11
344.5515183239
 21
202.5606483009
  0
LINE
  5
386
100
AcDbEntity
  8
0
100
AcDbLine
 62
7
  6
CONTINUOUS
 10
343.6579014092
 20
202.9217219475
 11
344.5515183239
 21
202.8590048695
  0
LINE
  5
387
100
AcDbEntity
  8
0
100
AcDbLine
 62
7
  6
CONTINUOUS
 10
345.5727951556
 20
202.8590048695
 11
344.6791778832
 21
202.9217219475
  0
LINE
  5
388
100
AcDbEntity
  8
RUNDUNGEN
100
AcDbLine
 62
7
  6
CONTINUOUS
 10
345.411629088
 20
205.0484799113
 11
345.0579851084
 21
205.0736191192
  0
LINE
  5
389
100
AcDbEntity
  8
0
100
AcDbLine
 62
7
  6
CONTINUOUS
 10
344.1685396462
 20
203.1412317204
 11
344.5515183239
 21
203.1098731814
  0
LINE
  5
38A
100
AcDbEntity
  8
0
100
AcDbLine
 62
7
  6
CONTINUOUS
 10
349.1472631275
 20
203.3711943595
 11
348.764284405
 21
203.4025528985
  0
LINE
  5
38B
100
AcDbEntity
  8
0
100
AcDbLine
 62
7
  6
CONTINUOUS
 10
336.6308802389
 20
203.2953802919
 11
336.7282202838
 21
203.2862940903
  0
LINE
  5
38C
100
AcDbEntity
  8
0
100
AcDbLine
 62
7
  6
CONTINUOUS
 10
336.6308802389
 20
203.5937368605
 11
336.9053482913
 21
203.5681166541
  0
LINE
  5
38D
100
AcDbEntity
  8
0
100
AcDbLine
 62
7
  6
CONTINUOUS
 10
336.6308802389
 20
203.8846455525
 11
336.7282205623
 21
203.8755593509
  0
LINE
  5
38E
100
AcDbEntity
  8
0
100
AcDbLine
 62
7
  6
CONTINUOUS
 10
339.5127949812
 20
203.8846455525
 11
339.6101353387
 21
203.8755593509
  0
LINE
  5
38F
100
AcDbEntity
  8
0
100
AcDbLine
 62
7
  6
CONTINUOUS
 10
336.6308802389
 20
204.1830021211
 11
336.9053482913
 21
204.157381988
  0
LINE
  5
390
100
AcDbEntity
  8
0
100
AcDbLine
 62
7
  6
CONTINUOUS
 10
334.7096034878
 20
204.4776348247
 11
335.2585395926
 21
204.4263944118
  0
LINE
  5
391
100
AcDbEntity
  8
0
100
AcDbLine
 62
7
  6
CONTINUOUS
 10
339.5127949812
 20
204.1830021211
 11
339.7872631297
 21
204.157381988
  0
LINE
  5
392
100
AcDbEntity
  8
0
100
AcDbLine
 62
7
  6
CONTINUOUS
 10
340.3361992826
 20
204.7722675283
 11
339.7872631297
 21
204.8235079411
  0
LINE
  5
393
100
AcDbEntity
  8
0
100
AcDbLine
 62
7
  6
CONTINUOUS
 10
344.6791778832
 20
203.1725902593
 11
344.4238587647
 21
203.2039487983
  0
LINE
  5
394
100
AcDbEntity
  8
0
100
AcDbLine
 62
7
  6
CONTINUOUS
 10
348.6366248458
 20
203.3398357906
 11
348.8919439643
 21
203.3084772516
  0
LINE
  5
395
100
AcDbEntity
  8
0
100
AcDbLine
 62
7
  6
CONTINUOUS
 10
340.610667371
 20
204.1701920545
 11
340.1989652564
 21
204.2214324673
  0
LINE
  5
396
100
AcDbEntity
  8
0
100
AcDbLine
 62
7
  6
CONTINUOUS
 10
343.7855609684
 20
203.193495962
 11
344.1685396462
 21
203.1412317204
  0
LINE
  5
397
100
AcDbEntity
  8
0
100
AcDbLine
 62
7
  6
CONTINUOUS
 10
349.5302418388
 20
203.3189301179
 11
349.1472631275
 21
203.3711943595
  0
LINE
  5
398
100
AcDbEntity
  8
0
100
AcDbLine
 62
7
  6
CONTINUOUS
 10
335.5330076449
 20
204.5032551044
 11
335.2585395926
 21
204.5416854507
  0
LINE
  5
399
100
AcDbEntity
  8
0
100
AcDbLine
 62
7
  6
CONTINUOUS
 10
339.5127949812
 20
204.7466472486
 11
339.7872631297
 21
204.7082169023
  0
LINE
  5
39A
100
AcDbEntity
  8
0
100
AcDbLine
 62
7
  6
CONTINUOUS
 10
337.5915184223
 20
203.5809267206
 11
337.3170503699
 21
203.6321672067
  0
LINE
  5
39B
100
AcDbEntity
  8
0
100
AcDbLine
 62
7
  6
CONTINUOUS
 10
334.4351354354
 20
204.2305186689
 11
334.6290182803
 21
204.1943227003
  0
LINE
  5
39C
100
AcDbEntity
  8
0
100
AcDbLine
 62
7
  6
CONTINUOUS
 10
334.4351354354
 20
204.5288752375
 11
334.7096034878
 21
204.4776348247
  0
LINE
  5
39D
100
AcDbEntity
  8
0
100
AcDbLine
 62
7
  6
CONTINUOUS
 10
337.4542843961
 20
204.1958123342
 11
337.3170503699
 21
204.2214324673
  0
LINE
  5
39E
100
AcDbEntity
  8
0
100
AcDbLine
 62
7
  6
CONTINUOUS
 10
340.610667371
 20
204.7210269688
 11
340.3361992826
 21
204.7722675283
  0
LINE
  5
39F
100
AcDbEntity
  8
0
100
AcDbLine
 62
7
  6
CONTINUOUS
 10
336.9053482913
 20
203.5681166541
 11
337.0425823175
 21
203.5296863078
  0
LINE
  5
3A0
100
AcDbEntity
  8
0
100
AcDbLine
 62
7
  6
CONTINUOUS
 10
335.2585395926
 20
204.5416854507
 11
335.1213055664
 21
204.5801157969
  0
LINE
  5
3A1
100
AcDbEntity
  8
0
100
AcDbLine
 62
7
  6
CONTINUOUS
 10
336.9053482913
 20
204.157381988
 11
337.0425823175
 21
204.1189516417
  0
LINE
  5
3A2
100
AcDbEntity
  8
0
100
AcDbLine
 62
7
  6
CONTINUOUS
 10
339.7872631297
 20
204.157381988
 11
339.9244971559
 21
204.1189516417
  0
LINE
  5
3A3
100
AcDbEntity
  8
0
100
AcDbLine
 62
7
  6
CONTINUOUS
 10
334.2979014092
 20
204.2817592283
 11
334.4351354354
 21
204.2305186689
  0
LINE
  5
3A4
100
AcDbEntity
  8
0
100
AcDbLine
 62
7
  6
CONTINUOUS
 10
334.2979014092
 20
204.5801157969
 11
334.4351354354
 21
204.5288752375
  0
LINE
  5
3A5
100
AcDbEntity
  8
0
100
AcDbLine
 62
7
  6
CONTINUOUS
 10
339.7872631297
 20
204.7082169023
 11
339.9244971559
 21
204.6569764895
  0
LINE
  5
3A6
100
AcDbEntity
  8
0
100
AcDbLine
 62
7
  6
CONTINUOUS
 10
344.4238587647
 20
203.2039487983
 11
344.2961992054
 21
203.2562130399
  0
LINE
  5
3A7
100
AcDbEntity
  8
0
100
AcDbLine
 62
7
  6
CONTINUOUS
 10
340.7479014092
 20
204.1061414285
 11
340.610667371
 21
204.1701920545
  0
LINE
  5
3A8
100
AcDbEntity
  8
0
100
AcDbLine
 62
7
  6
CONTINUOUS
 10
340.7479014092
 20
204.6569764895
 11
340.610667371
 21
204.7210269688
  0
LINE
  5
3A9
100
AcDbEntity
  8
0
100
AcDbLine
 62
7
  6
CONTINUOUS
 10
343.6579014092
 20
203.2562130399
 11
343.7855609684
 21
203.193495962
  0
LINE
  5
3AA
100
AcDbEntity
  8
RUNDUNGEN
100
AcDbLine
 62
7
  6
CONTINUOUS
 10
389.9179014092
 20
172.0718382428
 11
370.8803535411
 21
183.0631716291
  0
LINE
  5
3AB
100
AcDbEntity
  8
0
100
AcDbLine
 62
7
  6
CONTINUOUS
 10
334.2979014092
 20
202.2961912889
 11
334.2979014092
 21
202.67140855
  0
LINE
  5
3AC
100
AcDbEntity
  8
0
100
AcDbLine
 62
7
  6
CONTINUOUS
 10
334.2979014092
 20
202.731735201
 11
334.2979014092
 21
204.1061414285
  0
LINE
  5
3AD
100
AcDbEntity
  8
0
100
AcDbLine
 62
7
  6
CONTINUOUS
 10
334.2979014092
 20
204.2817592283
 11
334.2979014092
 21
204.6441662763
  0
LINE
  5
3AE
100
AcDbEntity
  8
0
100
AcDbLine
 62
7
  6
CONTINUOUS
 10
334.4351354354
 20
204.2305186689
 11
334.4351354354
 21
204.5288752375
  0
LINE
  5
3AF
100
AcDbEntity
  8
0
100
AcDbLine
 62
7
  6
CONTINUOUS
 10
334.7096034878
 20
204.2043523297
 11
334.7096034878
 21
204.4776348247
  0
LINE
  5
3B0
100
AcDbEntity
  8
0
100
AcDbLine
 62
7
  6
CONTINUOUS
 10
334.9840715402
 20
203.2862940903
 11
334.9840715402
 21
203.5296863078
  0
LINE
  5
3B1
100
AcDbEntity
  8
0
100
AcDbLine
 62
7
  6
CONTINUOUS
 10
335.1213055664
 20
203.2862940903
 11
335.1213055664
 21
203.5681166541
  0
LINE
  5
3B2
100
AcDbEntity
  8
0
100
AcDbLine
 62
7
  6
CONTINUOUS
 10
335.1213055664
 20
203.8755593509
 11
335.1213055664
 21
204.1189516417
  0
LINE
  5
3B3
100
AcDbEntity
  8
0
100
AcDbLine
 62
7
  6
CONTINUOUS
 10
335.1213055664
 20
204.5801157969
 11
335.1213055664
 21
204.6569764895
  0
LINE
  5
3B4
100
AcDbEntity
  8
0
100
AcDbLine
 62
7
  6
CONTINUOUS
 10
335.2585395926
 20
203.8755593509
 11
335.2585395926
 21
204.157381988
  0
LINE
  5
3B5
100
AcDbEntity
  8
0
100
AcDbLine
 62
7
  6
CONTINUOUS
 10
335.2585395926
 20
204.5416854507
 11
335.2585395926
 21
204.6954068357
  0
LINE
  5
3B6
100
AcDbEntity
  8
0
100
AcDbLine
 62
7
  6
CONTINUOUS
 10
335.2585395926
 20
204.250255227
 11
335.2585395926
 21
204.4263944118
  0
LINE
  5
3B7
100
AcDbEntity
  8
0
100
AcDbLine
 62
7
  6
CONTINUOUS
 10
335.3957736187
 20
203.2953802919
 11
335.3957736187
 21
203.5937368605
  0
LINE
  5
3B8
100
AcDbEntity
  8
0
100
AcDbLine
 62
7
  6
CONTINUOUS
 10
335.5330076449
 20
203.8846455525
 11
335.5330076449
 21
204.1830021211
  0
LINE
  5
3B9
100
AcDbEntity
  8
0
100
AcDbLine
 62
7
  6
CONTINUOUS
 10
335.5330076449
 20
204.5032551044
 11
335.5330076449
 21
204.7210269688
  0
LINE
  5
3BA
100
AcDbEntity
  8
0
100
AcDbLine
 62
7
  6
CONTINUOUS
 10
335.8074756973
 20
203.3081904317
 11
335.8074756973
 21
203.6065470003
  0
LINE
  5
3BB
100
AcDbEntity
  8
0
100
AcDbLine
 62
7
  6
CONTINUOUS
 10
335.8074756973
 20
204.4947149703
 11
335.8074756973
 21
204.8106978745
  0
LINE
  5
3BC
100
AcDbEntity
  8
0
100
AcDbLine
 62
7
  6
CONTINUOUS
 10
335.8074756973
 20
204.2726730268
 11
335.8074756973
 21
204.4135841987
  0
LINE
  5
3BD
100
AcDbEntity
  8
0
100
AcDbLine
 62
7
  6
CONTINUOUS
 10
335.944710108
 20
203.8974557656
 11
335.944710108
 21
204.1958123342
  0
LINE
  5
3BE
100
AcDbEntity
  8
0
100
AcDbLine
 62
7
  6
CONTINUOUS
 10
336.2191781604
 20
203.3081904317
 11
336.2191781604
 21
203.6065470003
  0
LINE
  5
3BF
100
AcDbEntity
  8
0
100
AcDbLine
 62
7
  6
CONTINUOUS
 10
336.2191781604
 20
203.8974557656
 11
336.2191781604
 21
204.1958123342
  0
LINE
  5
3C0
100
AcDbEntity
  8
0
100
AcDbLine
 62
7
  6
CONTINUOUS
 10
336.3564121866
 20
204.2726730268
 11
336.3564121866
 21
204.4135841987
  0
LINE
  5
3C1
100
AcDbEntity
  8
0
100
AcDbLine
 62
7
  6
CONTINUOUS
 10
336.6308802389
 20
203.2953802919
 11
336.6308802389
 21
203.5937368605
  0
LINE
  5
3C2
100
AcDbEntity
  8
0
100
AcDbLine
 62
7
  6
CONTINUOUS
 10
336.6308802389
 20
203.8846455525
 11
336.6308802389
 21
204.1830021211
  0
LINE
  5
3C3
100
AcDbEntity
  8
0
100
AcDbLine
 62
7
  6
CONTINUOUS
 10
348.8919439643
 20
203.3084772516
 11
349.0196035235
 21
203.2562130399
  0
LINE
  5
3C4
100
AcDbEntity
  8
0
100
AcDbLine
 62
7
  6
CONTINUOUS
 10
349.6579014092
 20
203.2562130399
 11
349.5302418388
 21
203.3189301179
  0
LINE
  5
3C5
100
AcDbEntity
  8
0
100
AcDbLine
 62
7
  6
CONTINUOUS
 10
336.9053482913
 20
203.2862940903
 11
336.9053482913
 21
203.5681166541
  0
LINE
  5
3C6
100
AcDbEntity
  8
0
100
AcDbLine
 62
7
  6
CONTINUOUS
 10
336.9053482913
 20
203.8755593509
 11
336.9053482913
 21
204.157381988
  0
LINE
  5
3C7
100
AcDbEntity
  8
0
100
AcDbLine
 62
7
  6
CONTINUOUS
 10
336.9053482913
 20
204.250255227
 11
336.9053482913
 21
204.4263944118
  0
LINE
  5
3C8
100
AcDbEntity
  8
0
100
AcDbLine
 62
7
  6
CONTINUOUS
 10
337.0425823175
 20
204.6569764895
 11
337.0425823175
 21
204.5801157969
  0
LINE
  5
3C9
100
AcDbEntity
  8
0
100
AcDbLine
 62
7
  6
CONTINUOUS
 10
337.0425823175
 20
204.1189516417
 11
337.0425823175
 21
203.8755593509
  0
LINE
  5
3CA
100
AcDbEntity
  8
0
100
AcDbLine
 62
7
  6
CONTINUOUS
 10
337.0425823175
 20
203.5296863078
 11
337.0425823175
 21
203.2862940903
  0
LINE
  5
3CB
100
AcDbEntity
  8
0
100
AcDbLine
 62
7
  6
CONTINUOUS
 10
337.4542843961
 20
204.1958123342
 11
337.4542843961
 21
204.4776348247
  0
LINE
  5
3CC
100
AcDbEntity
  8
0
100
AcDbLine
 62
7
  6
CONTINUOUS
 10
337.7287524485
 20
204.2305186689
 11
337.7287524485
 21
204.5288752375
  0
LINE
  5
3CD
100
AcDbEntity
  8
0
100
AcDbLine
 62
7
  6
CONTINUOUS
 10
337.8659864747
 20
203.2862940903
 11
337.8659864747
 21
203.5040660281
  0
LINE
  5
3CE
100
AcDbEntity
  8
0
100
AcDbLine
 62
7
  6
CONTINUOUS
 10
337.8659864747
 20
203.8755593509
 11
337.8659864747
 21
204.1189516417
  0
LINE
  5
3CF
100
AcDbEntity
  8
0
100
AcDbLine
 62
7
  6
CONTINUOUS
 10
337.8659864747
 20
204.2817592283
 11
337.8659864747
 21
204.6569764895
  0
LINE
  5
3D0
100
AcDbEntity
  8
0
100
AcDbLine
 62
7
  6
CONTINUOUS
 10
338.0032205009
 20
203.8755593509
 11
338.0032205009
 21
204.157381988
  0
LINE
  5
3D1
100
AcDbEntity
  8
0
100
AcDbLine
 62
7
  6
CONTINUOUS
 10
338.0032205009
 20
204.4098603337
 11
338.0032205009
 21
204.7082169023
  0
LINE
  5
3D2
100
AcDbEntity
  8
0
100
AcDbLine
 62
7
  6
CONTINUOUS
 10
338.2776885533
 20
203.8846455525
 11
338.2776885533
 21
204.1830021211
  0
LINE
  5
3D3
100
AcDbEntity
  8
0
100
AcDbLine
 62
7
  6
CONTINUOUS
 10
338.2776885533
 20
204.4482906799
 11
338.2776885533
 21
204.7466472486
  0
LINE
  5
3D4
100
AcDbEntity
  8
0
100
AcDbLine
 62
7
  6
CONTINUOUS
 10
338.6893908241
 20
203.8974557656
 11
338.6893908241
 21
204.1958123342
  0
LINE
  5
3D5
100
AcDbEntity
  8
0
100
AcDbLine
 62
7
  6
CONTINUOUS
 10
338.6893908241
 20
204.4739109597
 11
338.6893908241
 21
204.7722675283
  0
LINE
  5
3D6
100
AcDbEntity
  8
0
100
AcDbLine
 62
7
  6
CONTINUOUS
 10
338.9638588765
 20
204.2726730268
 11
338.9638588765
 21
204.452014545
  0
LINE
  5
3D7
100
AcDbEntity
  8
0
100
AcDbLine
 62
7
  6
CONTINUOUS
 10
339.1010929026
 20
203.8974557656
 11
339.1010929026
 21
204.1958123342
  0
LINE
  5
3D8
100
AcDbEntity
  8
0
100
AcDbLine
 62
7
  6
CONTINUOUS
 10
339.1010929026
 20
204.4739109597
 11
339.1010929026
 21
204.7722675283
  0
LINE
  5
3D9
100
AcDbEntity
  8
0
100
AcDbLine
 62
7
  6
CONTINUOUS
 10
339.5127949812
 20
204.2641328867
 11
339.5127949812
 21
204.3879640656
  0
LINE
  5
3DA
100
AcDbEntity
  8
0
100
AcDbLine
 62
7
  6
CONTINUOUS
 10
339.5127949812
 20
203.8846455525
 11
339.5127949812
 21
204.1830021211
  0
LINE
  5
3DB
100
AcDbEntity
  8
0
100
AcDbLine
 62
7
  6
CONTINUOUS
 10
339.5127949812
 20
204.4776348705
 11
339.5127949812
 21
204.7466472486
  0
LINE
  5
3DC
100
AcDbEntity
  8
0
100
AcDbLine
 62
7
  6
CONTINUOUS
 10
339.7872631297
 20
203.8755593509
 11
339.7872631297
 21
204.157381988
  0
LINE
  5
3DD
100
AcDbEntity
  8
0
100
AcDbLine
 62
7
  6
CONTINUOUS
 10
339.7872631297
 20
204.5032551044
 11
339.7872631297
 21
204.7082169023
  0
LINE
  5
3DE
100
AcDbEntity
  8
0
100
AcDbLine
 62
7
  6
CONTINUOUS
 10
339.9244971559
 20
204.6569764895
 11
339.9244971559
 21
204.5544955172
  0
LINE
  5
3DF
100
AcDbEntity
  8
0
100
AcDbLine
 62
7
  6
CONTINUOUS
 10
339.9244971559
 20
204.1189516417
 11
339.9244971559
 21
203.8755593509
  0
LINE
  5
3E0
100
AcDbEntity
  8
0
100
AcDbLine
 62
7
  6
CONTINUOUS
 10
340.1989652564
 20
204.2214324673
 11
340.1989652564
 21
204.4263944118
  0
LINE
  5
3E1
100
AcDbEntity
  8
0
100
AcDbLine
 62
7
  6
CONTINUOUS
 10
340.610667371
 20
204.1920883226
 11
340.610667371
 21
204.4904448912
  0
LINE
  5
3E2
100
AcDbEntity
  8
0
100
AcDbLine
 62
7
  6
CONTINUOUS
 10
340.7479014092
 20
202.5011531417
 11
340.7479014092
 21
202.9019906276
  0
LINE
  5
3E3
100
AcDbEntity
  8
0
100
AcDbLine
 62
7
  6
CONTINUOUS
 10
340.7479014092
 20
202.9110768292
 11
340.7479014092
 21
203.2862940903
  0
LINE
  5
3E4
100
AcDbEntity
  8
0
100
AcDbLine
 62
7
  6
CONTINUOUS
 10
340.7479014092
 20
203.3081904317
 11
340.7479014092
 21
204.1061414285
  0
LINE
  5
3E5
100
AcDbEntity
  8
0
100
AcDbLine
 62
7
  6
CONTINUOUS
 10
340.7479014092
 20
204.2561389486
 11
340.7479014092
 21
204.6569764895
  0
LINE
  5
3E6
100
AcDbEntity
  8
0
100
AcDbLine
 62
7
  6
CONTINUOUS
 10
343.6579014092
 20
202.6233653789
 11
343.6579014092
 21
203.2562130399
  0
LINE
  5
3E7
100
AcDbEntity
  8
0
100
AcDbLine
 62
7
  6
CONTINUOUS
 10
343.7855609684
 20
202.9844390255
 11
343.7855609684
 21
203.193495962
  0
LINE
  5
3E8
100
AcDbEntity
  8
0
100
AcDbLine
 62
7
  6
CONTINUOUS
 10
344.1685396462
 20
202.9844390255
 11
344.1685396462
 21
203.1412317204
  0
LINE
  5
3E9
100
AcDbEntity
  8
0
100
AcDbLine
 62
7
  6
CONTINUOUS
 10
344.4238587647
 20
203.2039487983
 11
344.4238587647
 21
203.3084772516
  0
LINE
  5
3EA
100
AcDbEntity
  8
0
100
AcDbLine
 62
7
  6
CONTINUOUS
 10
344.5515183239
 20
202.9844390255
 11
344.5515183239
 21
203.1098731814
  0
LINE
  5
3EB
100
AcDbEntity
  8
0
100
AcDbLine
 62
7
  6
CONTINUOUS
 10
344.5515183239
 20
202.5606483009
 11
344.5515183239
 21
202.8590048695
  0
LINE
  5
3EC
100
AcDbEntity
  8
0
100
AcDbLine
 62
7
  6
CONTINUOUS
 10
344.5515183239
 20
203.4025528985
 11
344.5515183239
 21
203.6638740168
  0
LINE
  5
3ED
100
AcDbEntity
  8
0
100
AcDbLine
 62
7
  6
CONTINUOUS
 10
344.6791778832
 20
203.1725902593
 11
344.6791778832
 21
203.3398357906
  0
LINE
  5
3EE
100
AcDbEntity
  8
0
100
AcDbLine
 62
7
  6
CONTINUOUS
 10
345.0621565609
 20
202.9844390255
 11
345.0621565609
 21
203.0889674937
  0
LINE
  5
3EF
100
AcDbEntity
  8
0
100
AcDbLine
 62
7
  6
CONTINUOUS
 10
345.4451355963
 20
202.9844390255
 11
345.4451355963
 21
203.0785146424
  0
LINE
  5
3F0
100
AcDbEntity
  8
0
100
AcDbLine
 62
7
  6
CONTINUOUS
 10
345.4451355963
 20
203.130778884
 11
345.4451355963
 21
203.3816471659
  0
LINE
  5
3F1
100
AcDbEntity
  8
0
100
AcDbLine
 62
7
  6
CONTINUOUS
 10
345.5727951556
 20
203.7788553662
 11
345.5727951556
 21
203.6638740168
  0
LINE
  5
3F2
100
AcDbEntity
  8
0
100
AcDbLine
 62
7
  6
CONTINUOUS
 10
345.5727951556
 20
202.5606483009
 11
345.5727951556
 21
202.8590048695
  0
LINE
  5
3F3
100
AcDbEntity
  8
0
100
AcDbLine
 62
7
  6
CONTINUOUS
 10
345.5727951556
 20
203.4360019987
 11
345.5727951556
 21
203.6116098051
  0
LINE
  5
3F4
100
AcDbEntity
  8
0
100
AcDbLine
 62
7
  6
CONTINUOUS
 10
346.0834333926
 20
202.9844390255
 11
346.0834333926
 21
203.0680617911
  0
LINE
  5
3F5
100
AcDbEntity
  8
0
100
AcDbLine
 62
7
  6
CONTINUOUS
 10
346.0834333926
 20
203.6638740168
 11
346.0834333926
 21
203.7788553662
  0
LINE
  5
3F6
100
AcDbEntity
  8
0
100
AcDbLine
 62
7
  6
CONTINUOUS
 10
346.0834333926
 20
203.4443642439
 11
346.0834333926
 21
203.6116098051
  0
LINE
  5
3F7
100
AcDbEntity
  8
0
100
AcDbLine
 62
7
  6
CONTINUOUS
 10
346.2110929518
 20
203.1203260177
 11
346.2110929518
 21
203.3921000322
  0
LINE
  5
3F8
100
AcDbEntity
  8
0
100
AcDbLine
 62
7
  6
CONTINUOUS
 10
347.1047098666
 20
203.1203260177
 11
347.1047098666
 21
203.3921000322
  0
LINE
  5
3F9
100
AcDbEntity
  8
0
100
AcDbLine
 62
7
  6
CONTINUOUS
 10
347.2323694258
 20
202.9844390255
 11
347.2323694258
 21
203.0680617911
  0
LINE
  5
3FA
100
AcDbEntity
  8
0
100
AcDbLine
 62
7
  6
CONTINUOUS
 10
347.8706674009
 20
202.9844390255
 11
347.8706674009
 21
203.0785146424
  0
LINE
  5
3FB
100
AcDbEntity
  8
0
100
AcDbLine
 62
7
  6
CONTINUOUS
 10
347.8706674009
 20
203.130778884
 11
347.8706674009
 21
203.3816471659
  0
LINE
  5
3FC
100
AcDbEntity
  8
0
100
AcDbLine
 62
7
  6
CONTINUOUS
 10
348.2536460786
 20
202.9844390255
 11
348.2536460786
 21
203.0889674937
  0
LINE
  5
3FD
100
AcDbEntity
  8
0
100
AcDbLine
 62
7
  6
CONTINUOUS
 10
348.6366248458
 20
203.1725902593
 11
348.6366248458
 21
203.3398357906
  0
LINE
  5
3FE
100
AcDbEntity
  8
0
100
AcDbLine
 62
7
  6
CONTINUOUS
 10
348.6366248458
 20
203.4077793157
 11
348.6366248458
 21
203.6116098051
  0
LINE
  5
3FF
100
AcDbEntity
  8
0
100
AcDbLine
 62
7
  6
CONTINUOUS
 10
348.764284405
 20
202.9844390255
 11
348.764284405
 21
203.1098731814
  0
LINE
  5
400
100
AcDbEntity
  8
0
100
AcDbLine
 62
7
  6
CONTINUOUS
 10
348.8919439643
 20
203.2039487983
 11
348.8919439643
 21
203.3084772516
  0
LINE
  5
401
100
AcDbEntity
  8
0
100
AcDbLine
 62
7
  6
CONTINUOUS
 10
349.1472631275
 20
202.9844390255
 11
349.1472631275
 21
203.1412317204
  0
LINE
  5
402
100
AcDbEntity
  8
0
100
AcDbLine
 62
7
  6
CONTINUOUS
 10
349.1472631275
 20
203.3711943595
 11
349.1472631275
 21
203.6325154778
  0
LINE
  5
403
100
AcDbEntity
  8
0
100
AcDbLine
 62
7
  6
CONTINUOUS
 10
349.4025822683
 20
203.3655174481
 11
349.4025822683
 21
203.6638740168
  0
LINE
  5
404
100
AcDbEntity
  8
0
100
AcDbLine
 62
7
  6
CONTINUOUS
 10
349.5302418388
 20
202.9844390255
 11
349.5302418388
 21
203.193495962
  0
LINE
  5
405
100
AcDbEntity
  8
0
100
AcDbLine
 62
7
  6
CONTINUOUS
 10
349.5302418388
 20
203.3968759871
 11
349.5302418388
 21
203.6952325557
  0
LINE
  5
406
100
AcDbEntity
  8
0
100
AcDbLine
 62
7
  6
CONTINUOUS
 10
349.6579014092
 20
202.6233653789
 11
349.6579014092
 21
203.2562130399
  0
LINE
  5
407
100
AcDbEntity
  8
0
100
AcDbLine
 62
7
  6
CONTINUOUS
 10
349.6579014092
 20
203.4595930651
 11
349.6579014092
 21
203.7579496337
  0
LINE
  5
408
100
AcDbEntity
  8
0
100
AcDbLine
 62
7
  6
CONTINUOUS
 10
334.4351354354
 20
204.7082169023
 11
334.2979014092
 21
204.6441662763
  0
LINE
  5
409
100
AcDbEntity
  8
0
100
AcDbLine
 62
7
  6
CONTINUOUS
 10
334.4351354354
 20
204.1701920545
 11
334.2979014092
 21
204.1061414285
  0
LINE
  5
40A
100
AcDbEntity
  8
0
100
AcDbLine
 62
7
  6
CONTINUOUS
 10
334.4351354354
 20
203.5809267206
 11
334.2979014092
 21
203.5168761679
  0
LINE
  5
40B
100
AcDbEntity
  8
0
100
AcDbLine
 62
7
  6
CONTINUOUS
 10
337.1798163437
 20
204.7210269688
 11
337.0425823175
 21
204.6569764895
  0
LINE
  5
40C
100
AcDbEntity
  8
0
100
AcDbLine
 62
7
  6
CONTINUOUS
 10
340.610667371
 20
204.4904448912
 11
340.7479014092
 21
204.5544955172
  0
LINE
  5
40D
100
AcDbEntity
  8
0
100
AcDbLine
 62
7
  6
CONTINUOUS
 10
337.8659864747
 20
204.6569764895
 11
338.0032205009
 21
204.7082169023
  0
LINE
  5
40E
100
AcDbEntity
  8
0
100
AcDbLine
 62
7
  6
CONTINUOUS
 10
337.7287524485
 20
204.5288752375
 11
337.8659864747
 21
204.5801157969
  0
LINE
  5
40F
100
AcDbEntity
  8
0
100
AcDbLine
 62
7
  6
CONTINUOUS
 10
337.8659864747
 20
204.3586199209
 11
338.0032205009
 21
204.4098603337
  0
LINE
  5
410
100
AcDbEntity
  8
0
100
AcDbLine
 62
7
  6
CONTINUOUS
 10
337.7287524485
 20
204.2305186689
 11
337.8659864747
 21
204.2817592283
  0
LINE
  5
411
100
AcDbEntity
  8
0
100
AcDbLine
 62
7
  6
CONTINUOUS
 10
339.9244971559
 20
204.5544955172
 11
339.7872631297
 21
204.5032551044
  0
LINE
  5
412
100
AcDbEntity
  8
RUNDUNGEN
100
AcDbLine
 62
7
  6
CONTINUOUS
 10
353.6679014092
 20
202.6186991689
 11
353.6679014092
 21
268.7734050043
  0
LINE
  5
413
100
AcDbEntity
  8
KONSTRUKTIONSELEMENTE
100
AcDbLine
 62
7
  6
CONTINUOUS
 10
354.1679014092
 20
159.3501504063
 11
354.1679014092
 21
165.3501504063
  0
LINE
  5
414
100
AcDbEntity
  8
RUNDUNGEN
100
AcDbLine
 62
7
  6
CONTINUOUS
 10
311.4554492773
 20
183.0631716291
 11
292.4179014092
 21
172.0718382428
  0
LINE
  5
415
100
AcDbEntity
  8
0
100
AcDbLine
 62
7
  6
CONTINUOUS
 10
343.7855609684
 20
203.3189301179
 11
343.6579014092
 21
203.2562130399
  0
LINE
  5
416
100
AcDbEntity
  8
0
100
AcDbLine
 62
7
  6
CONTINUOUS
 10
349.5302418388
 20
203.6952325557
 11
349.6579014092
 21
203.7579496337
  0
LINE
  5
417
100
AcDbEntity
  8
0
100
AcDbLine
 62
7
  6
CONTINUOUS
 10
349.5302418388
 20
203.3968759871
 11
349.6579014092
 21
203.4595930651
  0
LINE
  5
418
100
AcDbEntity
  8
0
100
AcDbLine
 62
7
  6
CONTINUOUS
 10
349.5302418388
 20
203.193495962
 11
349.6579014092
 21
203.2562130399
  0
LINE
  5
419
100
AcDbEntity
  8
0
100
AcDbLine
 62
7
  6
CONTINUOUS
 10
340.610667371
 20
204.1920883226
 11
340.7479014092
 21
204.2561389486
  0
LINE
  5
41A
100
AcDbEntity
  8
0
100
AcDbLine
 62
7
  6
CONTINUOUS
 10
344.2961992054
 20
203.2562130399
 11
344.4238587647
 21
203.3084772516
  0
LINE
  5
41B
100
AcDbEntity
  8
0
100
AcDbLine
 62
7
  6
CONTINUOUS
 10
349.1472631275
 20
203.7579496337
 11
349.0196035235
 21
203.705685422
  0
LINE
  5
41C
100
AcDbEntity
  8
0
100
AcDbLine
 62
7
  6
CONTINUOUS
 10
349.0196035235
 20
203.2562130399
 11
348.8919439643
 21
203.2039487983
  0
LINE
  5
41D
100
AcDbEntity
  8
RUNDUNGEN
100
AcDbLine
 62
7
  6
CONTINUOUS
 10
366.1679014092
 20
159.3501504063
 11
366.1679014092
 21
162.2523988832
  0
LINE
  5
41E
100
AcDbEntity
  8
B-ACHSEN
100
AcDbLine
 62
7
  6
CONTINUOUS
 10
391.1679014092
 20
169.9067747333
 11
391.1679014092
 21
159.3501504063
  0
LINE
  5
41F
100
AcDbEntity
  8
RUNDUNGEN
100
AcDbLine
 62
7
  6
CONTINUOUS
 10
391.1679014092
 20
169.9067747333
 11
391.1679014092
 21
159.3501504063
  0
LINE
  5
420
100
AcDbEntity
  8
BEZUGSACHSEN
100
AcDbLine
 62
7
  6
CONTINUOUS
 10
333.6679014092
 20
273.7734050043
 11
348.6679014092
 21
273.7734050043
  0
LINE
  5
421
100
AcDbEntity
  8
RUNDUNGEN
100
AcDbLine
 62
7
  6
CONTINUOUS
 10
70.7386918605
 20
44.1804360465
 11
70.7386918605
 21
94.1804360465
  0
LINE
  5
422
100
AcDbEntity
  8
RUNDUNGEN
100
AcDbLine
 62
7
  6
CONTINUOUS
 10
70.7386918605
 20
94.1804360465
 11
93.39554611
 21
116.837290296
  0
LINE
  5
423
100
AcDbEntity
  8
RUNDUNGEN
100
AcDbLine
 62
7
  6
CONTINUOUS
 10
70.7386918605
 20
44.1804360465
 11
93.39554611
 21
21.523581797
  0
LINE
  5
424
100
AcDbEntity
  8
0
100
AcDbLine
 62
7
  6
CONTINUOUS
 10
90.1669936451
 20
65.7968191318
 11
90.1669936451
 21
64.7755423001
  0
LINE
  5
425
100
AcDbEntity
  8
0
100
AcDbLine
 62
7
  6
CONTINUOUS
 10
90.7637067823
 20
65.6691595725
 11
90.7637067823
 21
60.6904360465
  0
LINE
  5
426
100
AcDbEntity
  8
0
100
AcDbLine
 62
7
  6
CONTINUOUS
 10
91.3604199195
 20
60.6904360465
 11
91.3604199195
 21
66.6904360465
  0
LINE
  5
427
100
AcDbEntity
  8
0
100
AcDbLine
 62
7
  6
CONTINUOUS
 10
91.3917784585
 20
60.6904360465
 11
91.3917784585
 21
66.6904360465
  0
LINE
  5
428
100
AcDbEntity
  8
0
100
AcDbLine
 62
7
  6
CONTINUOUS
 10
92.1560373884
 20
64.2649040631
 11
92.1560373884
 21
63.1159680299
  0
LINE
  5
429
100
AcDbEntity
  8
0
100
AcDbLine
 62
7
  6
CONTINUOUS
 10
92.6532982886
 20
63.2436275891
 11
92.6532982886
 21
64.1372445039
  0
LINE
  5
42A
100
AcDbEntity
  8
0
100
AcDbLine
 62
7
  6
CONTINUOUS
 10
92.6846568276
 20
63.2436275891
 11
92.6846568276
 21
64.1372445039
  0
LINE
  5
42B
100
AcDbEntity
  8
0
100
AcDbLine
 62
7
  6
CONTINUOUS
 10
93.5010983779
 20
76.0504360465
 11
93.5010983779
 21
69.6004360465
  0
LINE
  5
42C
100
AcDbEntity
  8
0
100
AcDbLine
 62
7
  6
CONTINUOUS
 10
94.232379019
 20
69.6004360465
 11
94.232379019
 21
72.482350981
  0
LINE
  5
42D
100
AcDbEntity
  8
0
100
AcDbLine
 62
7
  6
CONTINUOUS
 10
94.232379019
 20
73.3057551382
 11
94.232379019
 21
75.3642659155
  0
LINE
  5
42E
100
AcDbEntity
  8
0
100
AcDbLine
 62
7
  6
CONTINUOUS
 10
94.2637375579
 20
69.6004360465
 11
94.2637375579
 21
72.482350981
  0
LINE
  5
42F
100
AcDbEntity
  8
0
100
AcDbLine
 62
7
  6
CONTINUOUS
 10
94.2637375579
 20
73.3057551382
 11
94.2637375579
 21
75.3642659155
  0
LINE
  5
430
100
AcDbEntity
  8
0
100
AcDbLine
 62
7
  6
CONTINUOUS
 10
95.2390553114
 20
64.1372445039
 11
95.2390553114
 21
63.2436275891
  0
LINE
  5
431
100
AcDbEntity
  8
0
100
AcDbLine
 62
7
  6
CONTINUOUS
 10
95.7363160694
 20
63.1159680299
 11
95.7363160694
 21
64.2649040631
  0
LINE
  5
432
100
AcDbEntity
  8
0
100
AcDbLine
 62
7
  6
CONTINUOUS
 10
95.7676746084
 20
63.1159680299
 11
95.7676746084
 21
64.2649040631
  0
LINE
  5
433
100
AcDbEntity
  8
0
100
AcDbLine
 62
7
  6
CONTINUOUS
 10
92.6532982886
 20
64.1372445039
 11
92.7527506679
 21
64.9032018594
  0
LINE
  5
434
100
AcDbEntity
  8
0
100
AcDbLine
 62
7
  6
CONTINUOUS
 10
92.6846568276
 20
64.1372445039
 11
92.7841092068
 21
64.9032018594
  0
LINE
  5
435
100
AcDbEntity
  8
0
100
AcDbLine
 62
7
  6
CONTINUOUS
 10
92.2554896253
 20
64.9032018594
 11
92.1560373884
 21
64.2649040631
  0
LINE
  5
436
100
AcDbEntity
  8
0
100
AcDbLine
 62
7
  6
CONTINUOUS
 10
92.3549418623
 20
65.2861808948
 11
92.2554896253
 21
64.9032018594
  0
LINE
  5
437
100
AcDbEntity
  8
0
100
AcDbLine
 62
7
  6
CONTINUOUS
 10
90.5759758139
 20
69.6004360465
 11
92.526057407
 21
76.0504360465
  0
LINE
  5
438
100
AcDbEntity
  8
0
100
AcDbLine
 62
7
  6
CONTINUOUS
 10
90.6073343528
 20
69.6004360465
 11
92.557415946
 21
76.0504360465
  0
LINE
  5
439
100
AcDbEntity
  8
0
100
AcDbLine
 62
7
  6
CONTINUOUS
 10
91.794776766
 20
76.0504360465
 11
90.0884553284
 21
70.4238402998
  0
LINE
  5
43A
100
AcDbEntity
  8
0
100
AcDbLine
 62
7
  6
CONTINUOUS
 10
92.3549418623
 20
62.0946913771
 11
92.5538461939
 21
61.5840530507
  0
LINE
  5
43B
100
AcDbEntity
  8
0
100
AcDbLine
 62
7
  6
CONTINUOUS
 10
90.0884553284
 20
70.4238402998
 11
88.3821338908
 21
76.0504360465
  0
LINE
  5
43C
100
AcDbEntity
  8
0
100
AcDbLine
 62
7
  6
CONTINUOUS
 10
90.1041345979
 20
70.4755426983
 11
88.4134924298
 21
76.0504360465
  0
LINE
  5
43D
100
AcDbEntity
  8
0
100
AcDbLine
 62
7
  6
CONTINUOUS
 10
87.6508532498
 20
76.0504360465
 11
89.6009350173
 21
69.6004360465
  0
LINE
  5
43E
100
AcDbEntity
  8
0
100
AcDbLine
 62
7
  6
CONTINUOUS
 10
92.2554896253
 20
62.4776700548
 11
92.3549418623
 21
62.0946913771
  0
LINE
  5
43F
100
AcDbEntity
  8
0
100
AcDbLine
 62
7
  6
CONTINUOUS
 10
92.1560373884
 20
63.1159680299
 11
92.2554896253
 21
62.4776700548
  0
LINE
  5
440
100
AcDbEntity
  8
0
100
AcDbLine
 62
7
  6
CONTINUOUS
 10
95.7363160694
 20
64.2649040631
 11
95.6368642593
 21
64.9032018594
  0
LINE
  5
441
100
AcDbEntity
  8
0
100
AcDbLine
 62
7
  6
CONTINUOUS
 10
95.7676746084
 20
64.2649040631
 11
95.6682227983
 21
64.9032018594
  0
LINE
  5
442
100
AcDbEntity
  8
0
100
AcDbLine
 62
7
  6
CONTINUOUS
 10
92.7527506679
 20
62.4776700548
 11
92.6532982886
 21
63.2436275891
  0
LINE
  5
443
100
AcDbEntity
  8
0
100
AcDbLine
 62
7
  6
CONTINUOUS
 10
92.7841092068
 20
62.4776700548
 11
92.6846568276
 21
63.2436275891
  0
LINE
  5
444
100
AcDbEntity
  8
0
100
AcDbLine
 62
7
  6
CONTINUOUS
 10
95.1396029322
 20
64.9032018594
 11
95.2390553114
 21
64.1372445039
  0
LINE
  5
445
100
AcDbEntity
  8
0
100
AcDbLine
 62
7
  6
CONTINUOUS
 10
96.5319339651
 20
64.7755423001
 11
96.5319339651
 21
64.2649040631
  0
LINE
  5
446
100
AcDbEntity
  8
0
100
AcDbLine
 62
7
  6
CONTINUOUS
 10
97.2793819224
 20
74.5408617584
 11
97.2793819224
 21
74.1291592954
  0
LINE
  5
447
100
AcDbEntity
  8
0
100
AcDbLine
 62
7
  6
CONTINUOUS
 10
97.3275512917
 20
65.7968191318
 11
97.3275512917
 21
64.7755423001
  0
LINE
  5
448
100
AcDbEntity
  8
0
100
AcDbLine
 62
7
  6
CONTINUOUS
 10
97.3275512917
 20
64.2649040631
 11
97.3275512917
 21
61.7117126099
  0
LINE
  5
449
100
AcDbEntity
  8
0
100
AcDbLine
 62
7
  6
CONTINUOUS
 10
97.8248120497
 20
61.9670318178
 11
97.8248120497
 21
64.2649040631
  0
LINE
  5
44A
100
AcDbEntity
  8
0
100
AcDbLine
 62
7
  6
CONTINUOUS
 10
97.8248120497
 20
64.7755423001
 11
97.8248120497
 21
65.7968191318
  0
LINE
  5
44B
100
AcDbEntity
  8
0
100
AcDbLine
 62
7
  6
CONTINUOUS
 10
97.8561705887
 20
61.9670318178
 11
97.8561705887
 21
64.2649040631
  0
LINE
  5
44C
100
AcDbEntity
  8
0
100
AcDbLine
 62
7
  6
CONTINUOUS
 10
97.8561705887
 20
64.7755423001
 11
97.8561705887
 21
65.7968191318
  0
LINE
  5
44D
100
AcDbEntity
  8
0
100
AcDbLine
 62
7
  6
CONTINUOUS
 10
98.0106625634
 20
73.9919252692
 11
98.0106625634
 21
74.5408617584
  0
LINE
  5
44E
100
AcDbEntity
  8
0
100
AcDbLine
 62
7
  6
CONTINUOUS
 10
98.0420211024
 20
73.9919252692
 11
98.0420211024
 21
74.5408617584
  0
LINE
  5
44F
100
AcDbEntity
  8
0
100
AcDbLine
 62
7
  6
CONTINUOUS
 10
98.7198817555
 20
60.6904360465
 11
98.7198817555
 21
61.2010743282
  0
LINE
  5
450
100
AcDbEntity
  8
0
100
AcDbLine
 62
7
  6
CONTINUOUS
 10
98.7512402945
 20
60.6904360465
 11
98.7512402945
 21
61.2010743282
  0
LINE
  5
451
100
AcDbEntity
  8
0
100
AcDbLine
 62
7
  6
CONTINUOUS
 10
98.918786514
 20
64.2649040631
 11
98.918786514
 21
64.7755423001
  0
LINE
  5
452
100
AcDbEntity
  8
0
100
AcDbLine
 62
7
  6
CONTINUOUS
 10
98.950145053
 20
64.2649040631
 11
98.950145053
 21
64.7755423001
  0
LINE
  5
453
100
AcDbEntity
  8
0
100
AcDbLine
 62
7
  6
CONTINUOUS
 10
99.1075835249
 20
76.0504360465
 11
99.1075835249
 21
69.6004360465
  0
LINE
  5
454
100
AcDbEntity
  8
0
100
AcDbLine
 62
7
  6
CONTINUOUS
 10
99.8388634685
 20
70.4238402998
 11
99.8388634685
 21
72.482350981
  0
LINE
  5
455
100
AcDbEntity
  8
0
100
AcDbLine
 62
7
  6
CONTINUOUS
 10
99.8388634685
 20
73.3057551382
 11
99.8388634685
 21
75.2270318893
  0
LINE
  5
456
100
AcDbEntity
  8
0
100
AcDbLine
 62
7
  6
CONTINUOUS
 10
99.8702220075
 20
70.4238402998
 11
99.8702220075
 21
72.482350981
  0
LINE
  5
457
100
AcDbEntity
  8
0
100
AcDbLine
 62
7
  6
CONTINUOUS
 10
99.8702220075
 20
73.3057551382
 11
99.8702220075
 21
75.2270318893
  0
LINE
  5
458
100
AcDbEntity
  8
0
100
AcDbLine
 62
7
  6
CONTINUOUS
 10
102.8858670693
 20
74.4036273477
 11
102.8858670693
 21
74.1291592954
  0
LINE
  5
459
100
AcDbEntity
  8
0
100
AcDbLine
 62
7
  6
CONTINUOUS
 10
102.8858670693
 20
71.6589466316
 11
102.8858670693
 21
71.2472445531
  0
LINE
  5
45A
100
AcDbEntity
  8
0
100
AcDbLine
 62
7
  6
CONTINUOUS
 10
95.2390553114
 20
63.2436275891
 11
95.1396029322
 21
62.4776700548
  0
LINE
  5
45B
100
AcDbEntity
  8
0
100
AcDbLine
 62
7
  6
CONTINUOUS
 10
95.6368642593
 20
62.4776700548
 11
95.7363160694
 21
63.1159680299
  0
LINE
  5
45C
100
AcDbEntity
  8
0
100
AcDbLine
 62
7
  6
CONTINUOUS
 10
95.6682227983
 20
62.4776700548
 11
95.7676746084
 21
63.1159680299
  0
LINE
  5
45D
100
AcDbEntity
  8
0
100
AcDbLine
 62
7
  6
CONTINUOUS
 10
95.53741188
 20
62.0946913771
 11
95.6368642593
 21
62.4776700548
  0
LINE
  5
45E
100
AcDbEntity
  8
0
100
AcDbLine
 62
7
  6
CONTINUOUS
 10
95.568770419
 20
62.0946913771
 11
95.6682227983
 21
62.4776700548
  0
LINE
  5
45F
100
AcDbEntity
  8
0
100
AcDbLine
 62
7
  6
CONTINUOUS
 10
97.2793819224
 20
74.1291592954
 11
97.157501583
 21
73.7174572168
  0
LINE
  5
460
100
AcDbEntity
  8
0
100
AcDbLine
 62
7
  6
CONTINUOUS
 10
97.8887822241
 20
73.5802231906
 11
98.0106625634
 21
73.9919252692
  0
LINE
  5
461
100
AcDbEntity
  8
0
100
AcDbLine
 62
7
  6
CONTINUOUS
 10
97.920140763
 20
73.5802231906
 11
98.0420211024
 21
73.9919252692
  0
LINE
  5
462
100
AcDbEntity
  8
0
100
AcDbLine
 62
7
  6
CONTINUOUS
 10
92.5538461939
 20
65.7968191318
 11
92.3549418623
 21
65.2861808948
  0
LINE
  5
463
100
AcDbEntity
  8
0
100
AcDbLine
 62
7
  6
CONTINUOUS
 10
95.3385076907
 20
61.5840530507
 11
95.53741188
 21
62.0946913771
  0
LINE
  5
464
100
AcDbEntity
  8
0
100
AcDbLine
 62
7
  6
CONTINUOUS
 10
95.3698662296
 20
61.5840530507
 11
95.568770419
 21
62.0946913771
  0
LINE
  5
465
100
AcDbEntity
  8
0
100
AcDbLine
 62
7
  6
CONTINUOUS
 10
92.7527506679
 20
64.9032018594
 11
93.1505593312
 21
65.6691595725
  0
LINE
  5
466
100
AcDbEntity
  8
0
100
AcDbLine
 62
7
  6
CONTINUOUS
 10
92.7841092068
 20
64.9032018594
 11
93.1819178701
 21
65.6691595725
  0
LINE
  5
467
100
AcDbEntity
  8
0
100
AcDbLine
 62
7
  6
CONTINUOUS
 10
93.1505593312
 20
61.7117126099
 11
92.7527506679
 21
62.4776700548
  0
LINE
  5
468
100
AcDbEntity
  8
0
100
AcDbLine
 62
7
  6
CONTINUOUS
 10
93.1819178701
 20
61.7117126099
 11
92.7841092068
 21
62.4776700548
  0
LINE
  5
469
100
AcDbEntity
  8
0
100
AcDbLine
 62
7
  6
CONTINUOUS
 10
94.7417942689
 20
65.6691595725
 11
95.1396029322
 21
64.9032018594
  0
LINE
  5
46A
100
AcDbEntity
  8
0
100
AcDbLine
 62
7
  6
CONTINUOUS
 10
95.53741188
 20
65.2861808948
 11
95.3385076907
 21
65.7968191318
  0
LINE
  5
46B
100
AcDbEntity
  8
0
100
AcDbLine
 62
7
  6
CONTINUOUS
 10
95.568770419
 20
65.2861808948
 11
95.3698662296
 21
65.7968191318
  0
LINE
  5
46C
100
AcDbEntity
  8
0
100
AcDbLine
 62
7
  6
CONTINUOUS
 10
97.3275512917
 20
61.7117126099
 11
97.5264554811
 21
61.2010743282
  0
LINE
  5
46D
100
AcDbEntity
  8
0
100
AcDbLine
 62
7
  6
CONTINUOUS
 10
98.1325422053
 20
69.6004360465
 11
97.0356212437
 21
72.7568190334
  0
LINE
  5
46E
100
AcDbEntity
  8
0
100
AcDbLine
 62
7
  6
CONTINUOUS
 10
98.1639007443
 20
69.6004360465
 11
97.0669797827
 21
72.7568190334
  0
LINE
  5
46F
100
AcDbEntity
  8
0
100
AcDbLine
 62
7
  6
CONTINUOUS
 10
96.3043406027
 20
72.482350981
 11
97.2793819224
 21
69.6004360465
  0
LINE
  5
470
100
AcDbEntity
  8
0
100
AcDbLine
 62
7
  6
CONTINUOUS
 10
97.157501583
 20
74.952563837
 11
97.2793819224
 21
74.5408617584
  0
LINE
  5
471
100
AcDbEntity
  8
0
100
AcDbLine
 62
7
  6
CONTINUOUS
 10
98.0106625634
 20
74.5408617584
 11
97.8887822241
 21
74.952563837
  0
LINE
  5
472
100
AcDbEntity
  8
0
100
AcDbLine
 62
7
  6
CONTINUOUS
 10
98.0420211024
 20
74.5408617584
 11
97.920140763
 21
74.952563837
  0
LINE
  5
473
100
AcDbEntity
  8
0
100
AcDbLine
 62
7
  6
CONTINUOUS
 10
95.6368642593
 20
64.9032018594
 11
95.53741188
 21
65.2861808948
  0
LINE
  5
474
100
AcDbEntity
  8
0
100
AcDbLine
 62
7
  6
CONTINUOUS
 10
95.6682227983
 20
64.9032018594
 11
95.568770419
 21
65.2861808948
  0
LINE
  5
475
100
AcDbEntity
  8
0
100
AcDbLine
 62
7
  6
CONTINUOUS
 10
97.9242644289
 20
61.5840530507
 11
97.8248120497
 21
61.9670318178
  0
LINE
  5
476
100
AcDbEntity
  8
0
100
AcDbLine
 62
7
  6
CONTINUOUS
 10
97.9556229679
 20
61.5840530507
 11
97.8561705887
 21
61.9670318178
  0
LINE
  5
477
100
AcDbEntity
  8
0
100
AcDbLine
 62
7
  6
CONTINUOUS
 10
103.6171477103
 20
71.1100105269
 11
103.6171477103
 21
71.7961806578
  0
LINE
  5
478
100
AcDbEntity
  8
0
100
AcDbLine
 62
7
  6
CONTINUOUS
 10
103.6171477103
 20
73.9919252692
 11
103.6171477103
 21
74.5408617584
  0
LINE
  5
479
100
AcDbEntity
  8
0
100
AcDbLine
 62
7
  6
CONTINUOUS
 10
103.6485062493
 20
71.1100105269
 11
103.6485062493
 21
71.7961806578
  0
LINE
  5
47A
100
AcDbEntity
  8
0
100
AcDbLine
 62
7
  6
CONTINUOUS
 10
103.6485062493
 20
73.9919252692
 11
103.6485062493
 21
74.5408617584
  0
LINE
  5
47B
100
AcDbEntity
  8
0
100
AcDbLine
 62
7
  6
CONTINUOUS
 10
104.9578279557
 20
74.5408617584
 11
104.9578279557
 21
73.9919252692
  0
LINE
  5
47C
100
AcDbEntity
  8
0
100
AcDbLine
 62
7
  6
CONTINUOUS
 10
105.6891085967
 20
74.1291592954
 11
105.6891085967
 21
74.4036273477
  0
LINE
  5
47D
100
AcDbEntity
  8
0
100
AcDbLine
 62
7
  6
CONTINUOUS
 10
105.7204671357
 20
74.1291592954
 11
105.7204671357
 21
74.4036273477
  0
LINE
  5
47E
100
AcDbEntity
  8
0
100
AcDbLine
 62
7
  6
CONTINUOUS
 10
108.370471877
 20
71.6589466316
 11
108.370471877
 21
71.2472445531
  0
LINE
  5
47F
100
AcDbEntity
  8
0
100
AcDbLine
 62
7
  6
CONTINUOUS
 10
109.101752518
 20
71.1100105269
 11
109.101752518
 21
71.7961806578
  0
LINE
  5
480
100
AcDbEntity
  8
0
100
AcDbLine
 62
7
  6
CONTINUOUS
 10
109.133111057
 20
71.1100105269
 11
109.133111057
 21
71.7961806578
  0
LINE
  5
481
100
AcDbEntity
  8
0
100
AcDbLine
 62
7
  6
CONTINUOUS
 10
105.0797089924
 20
75.0897978632
 11
104.9578279557
 21
74.5408617584
  0
LINE
  5
482
100
AcDbEntity
  8
0
100
AcDbLine
 62
7
  6
CONTINUOUS
 10
102.8858670693
 20
74.1291592954
 11
102.7639860326
 21
73.7174572168
  0
LINE
  5
483
100
AcDbEntity
  8
0
100
AcDbLine
 62
7
  6
CONTINUOUS
 10
103.4952666736
 20
73.5802231906
 11
103.6171477103
 21
73.9919252692
  0
LINE
  5
484
100
AcDbEntity
  8
0
100
AcDbLine
 62
7
  6
CONTINUOUS
 10
103.5266252126
 20
73.5802231906
 11
103.6485062493
 21
73.9919252692
  0
LINE
  5
485
100
AcDbEntity
  8
0
100
AcDbLine
 62
7
  6
CONTINUOUS
 10
102.8858670693
 20
71.2472445531
 11
102.7639860326
 21
70.8355424745
  0
LINE
  5
486
100
AcDbEntity
  8
0
100
AcDbLine
 62
7
  6
CONTINUOUS
 10
103.4952666736
 20
70.6983083522
 11
103.6171477103
 21
71.1100105269
  0
LINE
  5
487
100
AcDbEntity
  8
0
100
AcDbLine
 62
7
  6
CONTINUOUS
 10
103.5266252126
 20
70.6983083522
 11
103.6485062493
 21
71.1100105269
  0
LINE
  5
488
100
AcDbEntity
  8
0
100
AcDbLine
 62
7
  6
CONTINUOUS
 10
105.6891085967
 20
74.4036273477
 11
105.8109896334
 21
74.8153298108
  0
LINE
  5
489
100
AcDbEntity
  8
0
100
AcDbLine
 62
7
  6
CONTINUOUS
 10
105.7204671357
 20
74.4036273477
 11
105.8423481724
 21
74.8153298108
  0
LINE
  5
48A
100
AcDbEntity
  8
0
100
AcDbLine
 62
7
  6
CONTINUOUS
 10
95.1396029322
 20
62.4776700548
 11
94.7417942689
 21
61.7117126099
  0
LINE
  5
48B
100
AcDbEntity
  8
0
100
AcDbLine
 62
7
  6
CONTINUOUS
 10
97.5231419036
 20
73.0312870858
 11
97.8887822241
 21
73.5802231906
  0
LINE
  5
48C
100
AcDbEntity
  8
0
100
AcDbLine
 62
7
  6
CONTINUOUS
 10
97.5545004425
 20
73.0312870858
 11
97.920140763
 21
73.5802231906
  0
LINE
  5
48D
100
AcDbEntity
  8
0
100
AcDbLine
 62
7
  6
CONTINUOUS
 10
90.7637067823
 20
66.6904360465
 11
90.1669936451
 21
65.7968191318
  0
LINE
  5
48E
100
AcDbEntity
  8
0
100
AcDbLine
 62
7
  6
CONTINUOUS
 10
90.1669936451
 20
64.7755423001
 11
90.7637067823
 21
65.6691595725
  0
LINE
  5
48F
100
AcDbEntity
  8
0
100
AcDbLine
 62
7
  6
CONTINUOUS
 10
90.198352184
 20
64.7755423001
 11
90.7637067823
 21
65.6221980925
  0
LINE
  5
490
100
AcDbEntity
  8
0
100
AcDbLine
 62
7
  6
CONTINUOUS
 10
92.8522027626
 20
66.1797978095
 11
92.5538461939
 21
65.7968191318
  0
LINE
  5
491
100
AcDbEntity
  8
0
100
AcDbLine
 62
7
  6
CONTINUOUS
 10
92.5538461939
 20
61.5840530507
 11
92.8522027626
 21
61.2010743282
  0
LINE
  5
492
100
AcDbEntity
  8
0
100
AcDbLine
 62
7
  6
CONTINUOUS
 10
95.3385076907
 20
65.7968191318
 11
95.0401511221
 21
66.1797978095
  0
LINE
  5
493
100
AcDbEntity
  8
0
100
AcDbLine
 62
7
  6
CONTINUOUS
 10
95.3698662296
 20
65.7968191318
 11
95.071509661
 21
66.1797978095
  0
LINE
  5
494
100
AcDbEntity
  8
0
100
AcDbLine
 62
7
  6
CONTINUOUS
 10
102.7639860326
 20
72.0706489024
 11
102.8858670693
 21
71.6589466316
  0
LINE
  5
495
100
AcDbEntity
  8
0
100
AcDbLine
 62
7
  6
CONTINUOUS
 10
103.6171477103
 20
71.7961806578
 11
103.4952666736
 21
72.2078829286
  0
LINE
  5
496
100
AcDbEntity
  8
0
100
AcDbLine
 62
7
  6
CONTINUOUS
 10
103.6485062493
 20
71.7961806578
 11
103.5266252126
 21
72.2078829286
  0
LINE
  5
497
100
AcDbEntity
  8
0
100
AcDbLine
 62
7
  6
CONTINUOUS
 10
102.7639860326
 20
74.8153298108
 11
102.8858670693
 21
74.4036273477
  0
LINE
  5
498
100
AcDbEntity
  8
0
100
AcDbLine
 62
7
  6
CONTINUOUS
 10
103.6171477103
 20
74.5408617584
 11
103.4952666736
 21
74.952563837
  0
LINE
  5
499
100
AcDbEntity
  8
0
100
AcDbLine
 62
7
  6
CONTINUOUS
 10
103.6485062493
 20
74.5408617584
 11
103.5266252126
 21
74.952563837
  0
LINE
  5
49A
100
AcDbEntity
  8
0
100
AcDbLine
 62
7
  6
CONTINUOUS
 10
105.4453493129
 20
70.9727765007
 11
105.3234682762
 21
71.3844785793
  0
LINE
  5
49B
100
AcDbEntity
  8
0
100
AcDbLine
 62
7
  6
CONTINUOUS
 10
105.4767078519
 20
70.9727765007
 11
105.3548268152
 21
71.3844785793
  0
LINE
  5
49C
100
AcDbEntity
  8
0
100
AcDbLine
 62
7
  6
CONTINUOUS
 10
105.8109896334
 20
73.7174572168
 11
105.6891085967
 21
74.1291592954
  0
LINE
  5
49D
100
AcDbEntity
  8
0
100
AcDbLine
 62
7
  6
CONTINUOUS
 10
105.8423481724
 20
73.7174572168
 11
105.7204671357
 21
74.1291592954
  0
LINE
  5
49E
100
AcDbEntity
  8
0
100
AcDbLine
 62
7
  6
CONTINUOUS
 10
104.5921876352
 20
71.3844785793
 11
104.7140686719
 21
70.8355424745
  0
LINE
  5
49F
100
AcDbEntity
  8
0
100
AcDbLine
 62
7
  6
CONTINUOUS
 10
104.9578279557
 20
73.9919252692
 11
105.0797089924
 21
73.4429891644
  0
LINE
  5
4A0
100
AcDbEntity
  8
BEZUGSACHSEN
100
AcDbLine
 62
7
  6
CONTINUOUS
 10
115.8861730627
 20
76.6804360465
 11
115.8861730627
 21
61.6804360465
  0
LINE
  5
4A1
100
AcDbEntity
  8
RUNDUNGEN
100
AcDbLine
 62
7
  6
CONTINUOUS
 10
116.7386918605
 20
94.0494320706
 11
116.7386918605
 21
79.4671325507
  0
LINE
  5
4A2
100
AcDbEntity
  8
RUNDUNGEN
100
AcDbLine
 62
7
  6
CONTINUOUS
 10
116.7386918605
 20
58.8937395423
 11
116.7386918605
 21
44.3114399742
  0
LINE
  5
4A3
100
AcDbEntity
  8
0
100
AcDbLine
 62
7
  6
CONTINUOUS
 10
108.8579918394
 20
70.561074326
 11
109.101752518
 21
71.1100105269
  0
LINE
  5
4A4
100
AcDbEntity
  8
0
100
AcDbLine
 62
7
  6
CONTINUOUS
 10
108.8893503784
 20
70.561074326
 11
109.133111057
 21
71.1100105269
  0
LINE
  5
4A5
100
AcDbEntity
  8
0
100
AcDbLine
 62
7
  6
CONTINUOUS
 10
108.370471877
 20
71.2472445531
 11
108.1267111984
 21
70.8355424745
  0
LINE
  5
4A6
100
AcDbEntity
  8
0
100
AcDbLine
 62
7
  6
CONTINUOUS
 10
103.1296263531
 20
73.0312870858
 11
103.4952666736
 21
73.5802231906
  0
LINE
  5
4A7
100
AcDbEntity
  8
0
100
AcDbLine
 62
7
  6
CONTINUOUS
 10
103.1609848921
 20
73.0312870858
 11
103.5266252126
 21
73.5802231906
  0
LINE
  5
4A8
100
AcDbEntity
  8
0
100
AcDbLine
 62
7
  6
CONTINUOUS
 10
103.1296263531
 20
70.1493721993
 11
103.4952666736
 21
70.6983083522
  0
LINE
  5
4A9
100
AcDbEntity
  8
0
100
AcDbLine
 62
7
  6
CONTINUOUS
 10
103.1609848921
 20
70.1493721993
 11
103.5266252126
 21
70.6983083522
  0
LINE
  5
4AA
100
AcDbEntity
  8
0
100
AcDbLine
 62
7
  6
CONTINUOUS
 10
95.0401511221
 20
61.2010743282
 11
95.3385076907
 21
61.5840530507
  0
LINE
  5
4AB
100
AcDbEntity
  8
0
100
AcDbLine
 62
7
  6
CONTINUOUS
 10
95.071509661
 20
61.2010743282
 11
95.3698662296
 21
61.5840530507
  0
LINE
  5
4AC
100
AcDbEntity
  8
0
100
AcDbLine
 62
7
  6
CONTINUOUS
 10
97.157501583
 20
73.7174572168
 11
96.9137416018
 21
73.4429891644
  0
LINE
  5
4AD
100
AcDbEntity
  8
0
100
AcDbLine
 62
7
  6
CONTINUOUS
 10
102.7639860326
 20
73.7174572168
 11
102.5202267488
 21
73.4429891644
  0
LINE
  5
4AE
100
AcDbEntity
  8
0
100
AcDbLine
 62
7
  6
CONTINUOUS
 10
105.5672289548
 20
75.6387339679
 11
105.0797089924
 21
75.0897978632
  0
LINE
  5
4AF
100
AcDbEntity
  8
0
100
AcDbLine
 62
7
  6
CONTINUOUS
 10
92.8522027626
 20
61.2010743282
 11
93.3494638051
 21
60.8180956169
  0
LINE
  5
4B0
100
AcDbEntity
  8
0
100
AcDbLine
 62
7
  6
CONTINUOUS
 10
93.4489158998
 20
61.4563934914
 11
93.1505593312
 21
61.7117126099
  0
LINE
  5
4B1
100
AcDbEntity
  8
0
100
AcDbLine
 62
7
  6
CONTINUOUS
 10
93.4802744388
 20
61.4563934914
 11
93.1819178701
 21
61.7117126099
  0
LINE
  5
4B2
100
AcDbEntity
  8
0
100
AcDbLine
 62
7
  6
CONTINUOUS
 10
97.5264554811
 20
61.2010743282
 11
97.8248120497
 21
60.9457551874
  0
LINE
  5
4B3
100
AcDbEntity
  8
0
100
AcDbLine
 62
7
  6
CONTINUOUS
 10
98.2226209975
 20
61.3287339322
 11
97.9242644289
 21
61.5840530507
  0
LINE
  5
4B4
100
AcDbEntity
  8
0
100
AcDbLine
 62
7
  6
CONTINUOUS
 10
98.2539795365
 20
61.3287339322
 11
97.9556229679
 21
61.5840530507
  0
LINE
  5
4B5
100
AcDbEntity
  8
0
100
AcDbLine
 62
7
  6
CONTINUOUS
 10
94.4434377003
 20
65.924478691
 11
94.7417942689
 21
65.6691595725
  0
LINE
  5
4B6
100
AcDbEntity
  8
0
100
AcDbLine
 62
7
  6
CONTINUOUS
 10
97.8887822241
 20
74.952563837
 11
97.5231419036
 21
75.5014999417
  0
LINE
  5
4B7
100
AcDbEntity
  8
0
100
AcDbLine
 62
7
  6
CONTINUOUS
 10
97.920140763
 20
74.952563837
 11
97.5545004425
 21
75.5014999417
  0
LINE
  5
4B8
100
AcDbEntity
  8
0
100
AcDbLine
 62
7
  6
CONTINUOUS
 10
103.4952666736
 20
72.2078829286
 11
103.1296263531
 21
72.7568190334
  0
LINE
  5
4B9
100
AcDbEntity
  8
0
100
AcDbLine
 62
7
  6
CONTINUOUS
 10
103.5266252126
 20
72.2078829286
 11
103.1609848921
 21
72.7568190334
  0
LINE
  5
4BA
100
AcDbEntity
  8
0
100
AcDbLine
 62
7
  6
CONTINUOUS
 10
103.4952666736
 20
74.952563837
 11
103.1296263531
 21
75.5014999417
  0
LINE
  5
4BB
100
AcDbEntity
  8
0
100
AcDbLine
 62
7
  6
CONTINUOUS
 10
103.5266252126
 20
74.952563837
 11
103.1609848921
 21
75.5014999417
  0
LINE
  5
4BC
100
AcDbEntity
  8
0
100
AcDbLine
 62
7
  6
CONTINUOUS
 10
108.1267111984
 20
72.0706489024
 11
108.370471877
 21
71.6589466316
  0
LINE
  5
4BD
100
AcDbEntity
  8
0
100
AcDbLine
 62
7
  6
CONTINUOUS
 10
104.7140686719
 20
70.8355424745
 11
105.0797089924
 21
70.1493721993
  0
LINE
  5
4BE
100
AcDbEntity
  8
0
100
AcDbLine
 62
7
  6
CONTINUOUS
 10
109.101752518
 20
71.7961806578
 11
108.8579918394
 21
72.3451169548
  0
LINE
  5
4BF
100
AcDbEntity
  8
0
100
AcDbLine
 62
7
  6
CONTINUOUS
 10
109.133111057
 20
71.7961806578
 11
108.8893503784
 21
72.3451169548
  0
LINE
  5
4C0
100
AcDbEntity
  8
0
100
AcDbLine
 62
7
  6
CONTINUOUS
 10
107.8829505197
 20
74.8153298108
 11
108.0048315565
 21
74.5408617584
  0
LINE
  5
4C1
100
AcDbEntity
  8
0
100
AcDbLine
 62
7
  6
CONTINUOUS
 10
108.7361121975
 20
74.5408617584
 11
108.6142311608
 21
74.952563837
  0
LINE
  5
4C2
100
AcDbEntity
  8
0
100
AcDbLine
 62
7
  6
CONTINUOUS
 10
108.7674707365
 20
74.5408617584
 11
108.6455896997
 21
74.952563837
  0
LINE
  5
4C3
100
AcDbEntity
  8
RUNDUNGEN
100
AcDbLine
 62
7
  6
CONTINUOUS
 10
114.8640287874
 20
112.0166637527
 11
116.7249965989
 21
94.3107377565
  0
LINE
  5
4C4
100
AcDbEntity
  8
RUNDUNGEN
100
AcDbLine
 62
7
  6
CONTINUOUS
 10
116.7249965989
 20
44.0501343366
 11
114.8640287874
 21
26.3442083404
  0
LINE
  5
4C5
100
AcDbEntity
  8
0
100
AcDbLine
 62
7
  6
CONTINUOUS
 10
102.7639860326
 20
70.8355424745
 11
102.5202267488
 21
70.561074326
  0
LINE
  5
4C6
100
AcDbEntity
  8
0
100
AcDbLine
 62
7
  6
CONTINUOUS
 10
108.370471877
 20
70.0121381731
 11
108.8579918394
 21
70.561074326
  0
LINE
  5
4C7
100
AcDbEntity
  8
0
100
AcDbLine
 62
7
  6
CONTINUOUS
 10
108.4018304159
 20
70.0121381731
 11
108.8893503784
 21
70.561074326
  0
LINE
  5
4C8
100
AcDbEntity
  8
0
100
AcDbLine
 62
7
  6
CONTINUOUS
 10
93.1505593312
 20
65.6691595725
 11
93.4489158998
 21
65.924478691
  0
LINE
  5
4C9
100
AcDbEntity
  8
0
100
AcDbLine
 62
7
  6
CONTINUOUS
 10
93.1819178701
 20
65.6691595725
 11
93.4802744388
 21
65.924478691
  0
LINE
  5
4CA
100
AcDbEntity
  8
0
100
AcDbLine
 62
7
  6
CONTINUOUS
 10
93.3494638051
 20
66.5627764873
 11
92.8522027626
 21
66.1797978095
  0
LINE
  5
4CB
100
AcDbEntity
  8
RUNDUNGEN
100
AcDbLine
 62
7
  6
CONTINUOUS
 10
237.4249833615
 20
19.1804360465
 11
229.5695300965
 21
19.1804360465
  0
LINE
  5
4CC
100
AcDbEntity
  8
RUNDUNGEN
100
AcDbLine
 62
7
  6
CONTINUOUS
 10
106.9078536244
 20
19.1804360465
 11
99.0524003594
 21
19.1804360465
  0
LINE
  5
4CD
100
AcDbEntity
  8
0
100
AcDbLine
 62
7
  6
CONTINUOUS
 10
95.0401511221
 20
66.1797978095
 11
94.5428900795
 21
66.5627764873
  0
LINE
  5
4CE
100
AcDbEntity
  8
0
100
AcDbLine
 62
7
  6
CONTINUOUS
 10
95.071509661
 20
66.1797978095
 11
94.5742486185
 21
66.5627764873
  0
LINE
  5
4CF
100
AcDbEntity
  8
0
100
AcDbLine
 62
7
  6
CONTINUOUS
 10
96.9137416018
 20
75.2270318893
 11
97.157501583
 21
74.952563837
  0
LINE
  5
4D0
100
AcDbEntity
  8
0
100
AcDbLine
 62
7
  6
CONTINUOUS
 10
102.5202267488
 20
72.3451169548
 11
102.7639860326
 21
72.0706489024
  0
LINE
  5
4D1
100
AcDbEntity
  8
0
100
AcDbLine
 62
7
  6
CONTINUOUS
 10
105.8109896334
 20
70.561074326
 11
105.4453493129
 21
70.9727765007
  0
LINE
  5
4D2
100
AcDbEntity
  8
0
100
AcDbLine
 62
7
  6
CONTINUOUS
 10
105.8423481724
 20
70.561074326
 11
105.4767078519
 21
70.9727765007
  0
LINE
  5
4D3
100
AcDbEntity
  8
0
100
AcDbLine
 62
7
  6
CONTINUOUS
 10
102.5202267488
 20
75.0897978632
 11
102.7639860326
 21
74.8153298108
  0
LINE
  5
4D4
100
AcDbEntity
  8
0
100
AcDbLine
 62
7
  6
CONTINUOUS
 10
105.0797089924
 20
73.4429891644
 11
105.5672289548
 21
72.8940530596
  0
LINE
  5
4D5
100
AcDbEntity
  8
0
100
AcDbLine
 62
7
  6
CONTINUOUS
 10
108.6142311608
 20
74.952563837
 11
108.2485908403
 21
75.5014999417
  0
LINE
  5
4D6
100
AcDbEntity
  8
0
100
AcDbLine
 62
7
  6
CONTINUOUS
 10
108.6455896997
 20
74.952563837
 11
108.2799493792
 21
75.5014999417
  0
LINE
  5
4D7
100
AcDbEntity
  8
0
100
AcDbLine
 62
7
  6
CONTINUOUS
 10
126.0386918605
 20
54.1804360465
 11
126.0386918605
 21
54.7113248724
  0
LINE
  5
4D8
100
AcDbEntity
  8
0
100
AcDbLine
 62
7
  6
CONTINUOUS
 10
126.7886918605
 20
54.1804360465
 11
126.7886918605
 21
54.1889999928
  0
LINE
  5
4D9
100
AcDbEntity
  8
0
100
AcDbLine
 62
7
  6
CONTINUOUS
 10
127.6186918605
 20
83.6804360465
 11
127.6186918605
 21
84.1804360465
  0
LINE
  5
4DA
100
AcDbEntity
  8
0
100
AcDbLine
 62
7
  6
CONTINUOUS
 10
129.0386918605
 20
54.7113248724
 11
129.0386918605
 21
54.2108179891
  0
LINE
  5
4DB
100
AcDbEntity
  8
0
100
AcDbLine
 62
7
  6
CONTINUOUS
 10
129.6636919797
 20
54.7057997346
 11
129.6636919797
 21
54.2053835932
  0
LINE
  5
4DC
100
AcDbEntity
  8
0
100
AcDbLine
 62
7
  6
CONTINUOUS
 10
130.1636918605
 20
54.6924909542
 11
130.1636918605
 21
54.1922932552
  0
LINE
  5
4DD
100
AcDbEntity
  8
0
100
AcDbLine
 62
7
  6
CONTINUOUS
 10
130.5386918605
 20
54.6823598692
 11
130.5386918605
 21
54.1823283292
  0
LINE
  5
4DE
100
AcDbEntity
  8
0
100
AcDbLine
 62
7
  6
CONTINUOUS
 10
130.6636917413
 20
54.6804360465
 11
130.6636917413
 21
54.1804360465
  0
LINE
  5
4DF
100
AcDbEntity
  8
0
100
AcDbLine
 62
7
  6
CONTINUOUS
 10
130.7886919797
 20
54.6804360465
 11
130.7886919797
 21
54.1804360465
  0
LINE
  5
4E0
100
AcDbEntity
  8
0
100
AcDbLine
 62
7
  6
CONTINUOUS
 10
131.2586918605
 20
83.6804360465
 11
131.2586918605
 21
84.1804360465
  0
LINE
  5
4E1
100
AcDbEntity
  8
0
100
AcDbLine
 62
7
  6
CONTINUOUS
 10
131.7886917413
 20
54.1804360465
 11
131.7886917413
 21
54.7113248724
  0
LINE
  5
4E2
100
AcDbEntity
  8
0
100
AcDbLine
 62
7
  6
CONTINUOUS
 10
132.5386920989
 20
54.1804360465
 11
132.5386920989
 21
54.7113248724
  0
LINE
  5
4E3
100
AcDbEntity
  8
0
100
AcDbLine
 62
7
  6
CONTINUOUS
 10
132.663691622
 20
54.6804360465
 11
132.663691622
 21
54.1804360465
  0
LINE
  5
4E4
100
AcDbEntity
  8
0
100
AcDbLine
 62
7
  6
CONTINUOUS
 10
94.7417942689
 20
61.7117126099
 11
94.4434377003
 21
61.4563934914
  0
LINE
  5
4E5
100
AcDbEntity
  8
0
100
AcDbLine
 62
7
  6
CONTINUOUS
 10
102.6421063907
 20
69.7376700847
 11
103.1296263531
 21
70.1493721993
  0
LINE
  5
4E6
100
AcDbEntity
  8
0
100
AcDbLine
 62
7
  6
CONTINUOUS
 10
102.6734649297
 20
69.7376700847
 11
103.1609848921
 21
70.1493721993
  0
LINE
  5
4E7
100
AcDbEntity
  8
0
100
AcDbLine
 62
7
  6
CONTINUOUS
 10
94.5428900795
 20
60.8180956169
 11
95.0401511221
 21
61.2010743282
  0
LINE
  5
4E8
100
AcDbEntity
  8
0
100
AcDbLine
 62
7
  6
CONTINUOUS
 10
94.5742486185
 20
60.8180956169
 11
95.071509661
 21
61.2010743282
  0
LINE
  5
4E9
100
AcDbEntity
  8
0
100
AcDbLine
 62
7
  6
CONTINUOUS
 10
105.8109896334
 20
74.8153298108
 11
106.1766299539
 21
75.0897978632
  0
LINE
  5
4EA
100
AcDbEntity
  8
0
100
AcDbLine
 62
7
  6
CONTINUOUS
 10
105.8423481724
 20
74.8153298108
 11
106.2079884929
 21
75.0897978632
  0
LINE
  5
4EB
100
AcDbEntity
  8
0
100
AcDbLine
 62
7
  6
CONTINUOUS
 10
108.1267111984
 20
70.8355424745
 11
107.7610708778
 21
70.561074326
  0
LINE
  5
4EC
100
AcDbEntity
  8
0
100
AcDbLine
 62
7
  6
CONTINUOUS
 10
97.0356212437
 20
72.7568190334
 11
97.5231419036
 21
73.0312870858
  0
LINE
  5
4ED
100
AcDbEntity
  8
0
100
AcDbLine
 62
7
  6
CONTINUOUS
 10
97.0669797827
 20
72.7568190334
 11
97.5545004425
 21
73.0312870858
  0
LINE
  5
4EE
100
AcDbEntity
  8
0
100
AcDbLine
 62
7
  6
CONTINUOUS
 10
106.0547489172
 20
75.9132020203
 11
105.5672289548
 21
75.6387339679
  0
LINE
  5
4EF
100
AcDbEntity
  8
0
100
AcDbLine
 62
7
  6
CONTINUOUS
 10
97.5231419036
 20
75.5014999417
 11
97.0356212437
 21
75.9132020203
  0
LINE
  5
4F0
100
AcDbEntity
  8
0
100
AcDbLine
 62
7
  6
CONTINUOUS
 10
97.5545004425
 20
75.5014999417
 11
97.0669797827
 21
75.9132020203
  0
LINE
  5
4F1
100
AcDbEntity
  8
0
100
AcDbLine
 62
7
  6
CONTINUOUS
 10
103.1296263531
 20
75.5014999417
 11
102.6421063907
 21
75.9132020203
  0
LINE
  5
4F2
100
AcDbEntity
  8
0
100
AcDbLine
 62
7
  6
CONTINUOUS
 10
103.1609848921
 20
75.5014999417
 11
102.6734649297
 21
75.9132020203
  0
LINE
  5
4F3
100
AcDbEntity
  8
0
100
AcDbLine
 62
7
  6
CONTINUOUS
 10
108.8579918394
 20
72.3451169548
 11
108.370471877
 21
72.8940530596
  0
LINE
  5
4F4
100
AcDbEntity
  8
0
100
AcDbLine
 62
7
  6
CONTINUOUS
 10
108.8893503784
 20
72.3451169548
 11
108.4018304159
 21
72.8940530596
  0
LINE
  5
4F5
100
AcDbEntity
  8
0
100
AcDbLine
 62
7
  6
CONTINUOUS
 10
107.6391912359
 20
75.0897978632
 11
107.8829505197
 21
74.8153298108
  0
LINE
  5
4F6
100
AcDbEntity
  8
0
100
AcDbLine
 62
7
  6
CONTINUOUS
 10
132.9136920989
 20
54.6804360465
 11
132.9136920989
 21
54.1804360465
  0
LINE
  5
4F7
100
AcDbEntity
  8
0
100
AcDbLine
 62
7
  6
CONTINUOUS
 10
133.2386918605
 20
83.6804360465
 11
133.2386918605
 21
84.1804360465
  0
LINE
  5
4F8
100
AcDbEntity
  8
0
100
AcDbLine
 62
7
  6
CONTINUOUS
 10
133.2886920989
 20
54.6804360465
 11
133.2886920989
 21
54.1804360465
  0
LINE
  5
4F9
100
AcDbEntity
  8
0
100
AcDbLine
 62
7
  6
CONTINUOUS
 10
133.788691622
 20
54.6804360465
 11
133.788691622
 21
54.1804360465
  0
LINE
  5
4FA
100
AcDbEntity
  8
0
100
AcDbLine
 62
7
  6
CONTINUOUS
 10
134.2886918605
 20
54.6804360465
 11
134.2886918605
 21
54.1804360465
  0
LINE
  5
4FB
100
AcDbEntity
  8
0
100
AcDbLine
 62
7
  6
CONTINUOUS
 10
134.7886920989
 20
54.6804360465
 11
134.7886920989
 21
54.1804360465
  0
LINE
  5
4FC
100
AcDbEntity
  8
0
100
AcDbLine
 62
7
  6
CONTINUOUS
 10
135.1636920989
 20
54.6804360465
 11
135.1636920989
 21
54.1804360465
  0
LINE
  5
4FD
100
AcDbEntity
  8
0
100
AcDbLine
 62
7
  6
CONTINUOUS
 10
135.4136918605
 20
54.6804360465
 11
135.4136918605
 21
54.1804360465
  0
LINE
  5
4FE
100
AcDbEntity
  8
0
100
AcDbLine
 62
7
  6
CONTINUOUS
 10
135.5386920989
 20
54.1804360465
 11
135.5386920989
 21
54.7113248724
  0
LINE
  5
4FF
100
AcDbEntity
  8
0
100
AcDbLine
 62
7
  6
CONTINUOUS
 10
136.2886920989
 20
54.1804360465
 11
136.2886920989
 21
54.7113248724
  0
LINE
  5
500
100
AcDbEntity
  8
0
100
AcDbLine
 62
7
  6
CONTINUOUS
 10
136.8786918605
 20
83.6804360465
 11
136.8786918605
 21
84.1804360465
  0
LINE
  5
501
100
AcDbEntity
  8
0
100
AcDbLine
 62
7
  6
CONTINUOUS
 10
137.2886918605
 20
54.1804360465
 11
137.2886918605
 21
54.7113248724
  0
LINE
  5
502
100
AcDbEntity
  8
0
100
AcDbLine
 62
7
  6
CONTINUOUS
 10
138.0386918605
 20
54.1804360465
 11
138.0386918605
 21
54.1862415097
  0
LINE
  5
503
100
AcDbEntity
  8
0
100
AcDbLine
 62
7
  6
CONTINUOUS
 10
102.8858670693
 20
72.8940530596
 11
103.1296263531
 21
73.0312870858
  0
LINE
  5
504
100
AcDbEntity
  8
0
100
AcDbLine
 62
7
  6
CONTINUOUS
 10
102.9172256083
 20
72.8940530596
 11
103.1609848921
 21
73.0312870858
  0
LINE
  5
505
100
AcDbEntity
  8
0
100
AcDbLine
 62
7
  6
CONTINUOUS
 10
107.8829505197
 20
69.7376700847
 11
108.370471877
 21
70.0121381731
  0
LINE
  5
506
100
AcDbEntity
  8
0
100
AcDbLine
 62
7
  6
CONTINUOUS
 10
107.9143090587
 20
69.7376700847
 11
108.4018304159
 21
70.0121381731
  0
LINE
  5
507
100
AcDbEntity
  8
0
100
AcDbLine
 62
7
  6
CONTINUOUS
 10
96.9137416018
 20
73.4429891644
 11
96.5481012813
 21
73.3057551382
  0
LINE
  5
508
100
AcDbEntity
  8
BEZUGSACHSEN
100
AcDbLine
 62
7
  6
CONTINUOUS
 10
120.2875196173
 20
83.4451023755
 11
120.0631833699
 21
83.371248989
  0
LINE
  5
509
100
AcDbEntity
  8
0
100
AcDbLine
 62
7
  6
CONTINUOUS
 10
97.8248120497
 20
60.9457551874
 11
98.1231686183
 21
60.8180956169
  0
LINE
  5
50A
100
AcDbEntity
  8
0
100
AcDbLine
 62
7
  6
CONTINUOUS
 10
103.1296263531
 20
72.7568190334
 11
102.8858670693
 21
72.8940530596
  0
LINE
  5
50B
100
AcDbEntity
  8
0
100
AcDbLine
 62
7
  6
CONTINUOUS
 10
103.1609848921
 20
72.7568190334
 11
102.9172256083
 21
72.8940530596
  0
LINE
  5
50C
100
AcDbEntity
  8
0
100
AcDbLine
 62
7
  6
CONTINUOUS
 10
105.0797089924
 20
70.1493721993
 11
105.6891085967
 21
69.7376700847
  0
LINE
  5
50D
100
AcDbEntity
  8
0
100
AcDbLine
 62
7
  6
CONTINUOUS
 10
106.1766299539
 20
73.4429891644
 11
105.8109896334
 21
73.7174572168
  0
LINE
  5
50E
100
AcDbEntity
  8
0
100
AcDbLine
 62
7
  6
CONTINUOUS
 10
106.2079884929
 20
73.4429891644
 11
105.8423481724
 21
73.7174572168
  0
LINE
  5
50F
100
AcDbEntity
  8
0
100
AcDbLine
 62
7
  6
CONTINUOUS
 10
107.7610708778
 20
72.3451169548
 11
108.1267111984
 21
72.0706489024
  0
LINE
  5
510
100
AcDbEntity
  8
0
100
AcDbLine
 62
7
  6
CONTINUOUS
 10
108.2485908403
 20
75.5014999417
 11
107.7610708778
 21
75.9132020203
  0
LINE
  5
511
100
AcDbEntity
  8
0
100
AcDbLine
 62
7
  6
CONTINUOUS
 10
108.2799493792
 20
75.5014999417
 11
107.7924294168
 21
75.9132020203
  0
LINE
  5
512
100
AcDbEntity
  8
0
100
AcDbLine
 62
7
  6
CONTINUOUS
 10
140.2886918605
 20
54.7113248724
 11
140.2886918605
 21
54.2108179891
  0
LINE
  5
513
100
AcDbEntity
  8
0
100
AcDbLine
 62
7
  6
CONTINUOUS
 10
140.9136923373
 20
54.7057997346
 11
140.9136923373
 21
54.2053835932
  0
LINE
  5
514
100
AcDbEntity
  8
0
100
AcDbLine
 62
7
  6
CONTINUOUS
 10
141.4136918605
 20
54.696383032
 11
141.4136918605
 21
54.1961214704
  0
LINE
  5
515
100
AcDbEntity
  8
0
100
AcDbLine
 62
7
  6
CONTINUOUS
 10
141.9136913836
 20
54.6840773615
 11
141.9136913836
 21
54.1840176608
  0
LINE
  5
516
100
AcDbEntity
  8
0
100
AcDbLine
 62
7
  6
CONTINUOUS
 10
142.1636918605
 20
54.6804360465
 11
142.1636918605
 21
54.1804360465
  0
LINE
  5
517
100
AcDbEntity
  8
0
100
AcDbLine
 62
7
  6
CONTINUOUS
 10
142.2886913836
 20
54.6804360465
 11
142.2886913836
 21
54.1804360465
  0
LINE
  5
518
100
AcDbEntity
  8
BEZUGSACHSEN
100
AcDbLine
 62
7
  6
CONTINUOUS
 10
146.2386918605
 20
83.6804360465
 11
146.2386918605
 21
81.6804360465
  0
LINE
  5
519
100
AcDbEntity
  8
0
100
AcDbLine
 62
7
  6
CONTINUOUS
 10
146.2386918605
 20
54.6804360465
 11
146.2386918605
 21
56.6804360465
  0
LINE
  5
51A
100
AcDbEntity
  8
0
100
AcDbLine
 62
7
  6
CONTINUOUS
 10
106.1766299539
 20
75.0897978632
 11
106.5422702744
 21
75.2270318893
  0
LINE
  5
51B
100
AcDbEntity
  8
0
100
AcDbLine
 62
7
  6
CONTINUOUS
 10
106.2079884929
 20
75.0897978632
 11
106.5461422756
 21
75.2167154991
  0
LINE
  5
51C
100
AcDbEntity
  8
0
100
AcDbLine
 62
7
  6
CONTINUOUS
 10
102.5202267488
 20
73.4429891644
 11
102.1545864283
 21
73.3057551382
  0
LINE
  5
51D
100
AcDbEntity
  8
0
100
AcDbLine
 62
7
  6
CONTINUOUS
 10
102.5202267488
 20
70.561074326
 11
102.1545864283
 21
70.4238402998
  0
LINE
  5
51E
100
AcDbEntity
  8
0
100
AcDbLine
 62
7
  6
CONTINUOUS
 10
229.9351134465
 20
62.3104360465
 11
230.4226348037
 21
62.4476700727
  0
LWPOLYLINE
  5
51F
100
AcDbEntity
  8
RUNDUNGEN
100
AcDbPolyline
 62
7
  6
CONTINUOUS
 90
6
 70
0
 10
216.4269080988
 20
54.9936801077
 10
216.6942727879
 20
55.0682887601
 10
216.9661798288
 20
55.1241728057
 10
217.2413154213
 20
55.1610604529
 10
217.5183499395
 20
55.178772492
 10
217.6348439968
 20
55.1804694843
  0
LINE
  5
520
100
AcDbEntity
  8
0
100
AcDbLine
 62
7
  6
CONTINUOUS
 10
93.3494638051
 20
60.8180956169
 11
93.9461769423
 21
60.6904360465
  0
LINE
  5
521
100
AcDbEntity
  8
0
100
AcDbLine
 62
7
  6
CONTINUOUS
 10
98.1231686183
 20
60.8180956169
 11
98.7198817555
 21
60.6904360465
  0
LINE
  5
522
100
AcDbEntity
  8
0
100
AcDbLine
 62
7
  6
CONTINUOUS
 10
93.9461769423
 20
61.3287339322
 11
93.4489158998
 21
61.4563934914
  0
LINE
  5
523
100
AcDbEntity
  8
0
100
AcDbLine
 62
7
  6
CONTINUOUS
 10
93.948115925
 20
61.3362866807
 11
93.4802744388
 21
61.4563934914
  0
LINE
  5
524
100
AcDbEntity
  8
0
100
AcDbLine
 62
7
  6
CONTINUOUS
 10
98.7198817555
 20
61.2010743282
 11
98.2226209975
 21
61.3287339322
  0
LINE
  5
525
100
AcDbEntity
  8
0
100
AcDbLine
 62
7
  6
CONTINUOUS
 10
98.7512402945
 20
61.2010743282
 11
98.2539795365
 21
61.3287339322
  0
LINE
  5
526
100
AcDbEntity
  8
0
100
AcDbLine
 62
7
  6
CONTINUOUS
 10
93.9461769423
 20
66.0521382503
 11
94.4434377003
 21
65.924478691
  0
LWPOLYLINE
  5
527
100
AcDbEntity
  8
RUNDUNGEN
100
AcDbPolyline
 62
7
  6
CONTINUOUS
 90
5
 70
0
 10
120.2762799415
 20
54.9192847036
 10
120.652787104
 20
54.8163931909
 10
121.0365524867
 20
54.7419192938
 10
121.424976306
 20
54.6965044807
 10
121.8295194672
 20
54.6804412931
  0
LINE
  5
528
100
AcDbEntity
  8
0
100
AcDbLine
 62
7
  6
CONTINUOUS
 10
105.5672289548
 20
72.8940530596
 11
106.0547489172
 21
72.6195850072
  0
LINE
  5
529
100
AcDbEntity
  8
0
100
AcDbLine
 62
7
  6
CONTINUOUS
 10
108.370471877
 20
72.8940530596
 11
107.8829505197
 21
73.168521112
  0
LINE
  5
52A
100
AcDbEntity
  8
0
100
AcDbLine
 62
7
  6
CONTINUOUS
 10
108.4018304159
 20
72.8940530596
 11
107.9143090587
 21
73.168521112
  0
LINE
  5
52B
100
AcDbEntity
  8
0
100
AcDbLine
 62
7
  6
CONTINUOUS
 10
228.7163128431
 20
67.799797767
 11
229.2038328055
 21
67.9370317932
  0
LINE
  5
52C
100
AcDbEntity
  8
0
100
AcDbLine
 62
7
  6
CONTINUOUS
 10
243.0284678212
 20
72.436393402
 11
242.5312067786
 21
72.3087338428
  0
LINE
  5
52D
100
AcDbEntity
  8
0
100
AcDbLine
 62
7
  6
CONTINUOUS
 10
242.9971092822
 20
72.436393402
 11
242.529267796
 21
72.3162865913
  0
LINE
  5
52E
100
AcDbEntity
  8
0
100
AcDbLine
 62
7
  6
CONTINUOUS
 10
234.4446783293
 20
68.7604360465
 11
233.8352773302
 21
68.6232020083
  0
LINE
  5
52F
100
AcDbEntity
  8
0
100
AcDbLine
 62
7
  6
CONTINUOUS
 10
234.4133197904
 20
68.7604360465
 11
233.8039187912
 21
68.6232020083
  0
LINE
  5
530
100
AcDbEntity
  8
0
100
AcDbLine
 62
7
  6
CONTINUOUS
 10
229.2038328055
 20
68.7604360465
 11
228.5944332012
 21
68.6232020083
  0
LINE
  5
531
100
AcDbEntity
  8
0
100
AcDbLine
 62
7
  6
CONTINUOUS
 10
229.1724742665
 20
68.7604360465
 11
228.5630746622
 21
68.6232020083
  0
LWPOLYLINE
  5
532
100
AcDbEntity
  8
RUNDUNGEN
100
AcDbPolyline
 62
7
  6
CONTINUOUS
 90
5
 70
0
 10
214.6479024719
 20
54.6804413198
 10
215.0300252117
 20
54.6947877679
 10
215.4242034951
 20
54.7393647482
 10
215.8136878678
 20
54.8138596741
 10
216.1957652828
 20
54.9176117237
  0
LINE
  5
533
100
AcDbEntity
  8
0
100
AcDbLine
 62
7
  6
CONTINUOUS
 10
142.2886913836
 20
54.1804360465
 11
142.1425246067
 21
54.1804360465
  0
LINE
  5
534
100
AcDbEntity
  8
0
100
AcDbLine
 62
7
  6
CONTINUOUS
 10
141.9136913836
 20
54.1804360465
 11
137.2886918605
 21
54.1804360465
  0
LINE
  5
535
100
AcDbEntity
  8
0
100
AcDbLine
 62
7
  6
CONTINUOUS
 10
136.2886920989
 20
54.1804360465
 11
131.7886917413
 21
54.1804360465
  0
LINE
  5
536
100
AcDbEntity
  8
0
100
AcDbLine
 62
7
  6
CONTINUOUS
 10
130.7886919797
 20
54.1804360465
 11
130.6495802791
 21
54.1804360465
  0
LINE
  5
537
100
AcDbEntity
  8
0
100
AcDbLine
 62
7
  6
CONTINUOUS
 10
130.5386918605
 20
54.1804360465
 11
126.0386918605
 21
54.1804360465
  0
LINE
  5
538
100
AcDbEntity
  8
0
100
AcDbLine
 62
7
  6
CONTINUOUS
 10
140.2886918605
 20
54.1862415097
 11
138.0386918605
 21
54.1862415097
  0
LINE
  5
539
100
AcDbEntity
  8
0
100
AcDbLine
 62
7
  6
CONTINUOUS
 10
129.1636917413
 20
54.1889999928
 11
126.7886918605
 21
54.1889999928
  0
LINE
  5
53A
100
AcDbEntity
  8
0
100
AcDbLine
 62
7
  6
CONTINUOUS
 10
140.2886918605
 20
54.2108179891
 11
137.2886918605
 21
54.2108179891
  0
LINE
  5
53B
100
AcDbEntity
  8
0
100
AcDbLine
 62
7
  6
CONTINUOUS
 10
136.2886920989
 20
54.2108179891
 11
135.5386920989
 21
54.2108179891
  0
LINE
  5
53C
100
AcDbEntity
  8
0
100
AcDbLine
 62
7
  6
CONTINUOUS
 10
132.5386920989
 20
54.2108179891
 11
131.7886917413
 21
54.2108179891
  0
LINE
  5
53D
100
AcDbEntity
  8
0
100
AcDbLine
 62
7
  6
CONTINUOUS
 10
129.0386918605
 20
54.2108179891
 11
126.0386918605
 21
54.2108179891
  0
LINE
  5
53E
100
AcDbEntity
  8
0
100
AcDbLine
 62
7
  6
CONTINUOUS
 10
213.391061513
 20
54.6804360465
 11
190.2386918605
 21
54.6804360465
  0
LINE
  5
53F
100
AcDbEntity
  8
0
100
AcDbLine
 62
7
  6
CONTINUOUS
 10
146.2386918605
 20
54.6804360465
 11
142.1425246067
 21
54.6804360465
  0
LINE
  5
540
100
AcDbEntity
  8
RUNDUNGEN
100
AcDbLine
 62
7
  6
CONTINUOUS
 10
146.2386918605
 20
54.6804360465
 11
142.1425246067
 21
54.6804360465
  0
LINE
  5
541
100
AcDbEntity
  8
0
100
AcDbLine
 62
7
  6
CONTINUOUS
 10
137.2886918605
 20
54.6804360465
 11
136.2886920989
 21
54.6804360465
  0
LINE
  5
542
100
AcDbEntity
  8
RUNDUNGEN
100
AcDbLine
 62
7
  6
CONTINUOUS
 10
137.2886918605
 20
54.6804360465
 11
136.2886920989
 21
54.6804360465
  0
LINE
  5
543
100
AcDbEntity
  8
0
100
AcDbLine
 62
7
  6
CONTINUOUS
 10
135.5386920989
 20
54.6804360465
 11
132.5386920989
 21
54.6804360465
  0
LINE
  5
544
100
AcDbEntity
  8
RUNDUNGEN
100
AcDbLine
 62
7
  6
CONTINUOUS
 10
135.5386920989
 20
54.6804360465
 11
132.5386920989
 21
54.6804360465
  0
LINE
  5
545
100
AcDbEntity
  8
0
100
AcDbLine
 62
7
  6
CONTINUOUS
 10
131.7886917413
 20
54.6804360465
 11
130.6495802791
 21
54.6804360465
  0
LINE
  5
546
100
AcDbEntity
  8
RUNDUNGEN
100
AcDbLine
 62
7
  6
CONTINUOUS
 10
131.7886917413
 20
54.6804360465
 11
130.6495802791
 21
54.6804360465
  0
LINE
  5
547
100
AcDbEntity
  8
0
100
AcDbLine
 62
7
  6
CONTINUOUS
 10
126.0386918605
 20
54.6804360465
 11
123.0863251547
 21
54.6804360465
  0
LINE
  5
548
100
AcDbEntity
  8
RUNDUNGEN
100
AcDbLine
 62
7
  6
CONTINUOUS
 10
190.2386918605
 20
54.6804360465
 11
214.6479024747
 21
54.6804371998
  0
LINE
  5
549
100
AcDbEntity
  8
0
100
AcDbLine
 62
7
  6
CONTINUOUS
 10
140.2886918605
 20
54.7113248724
 11
137.2886918605
 21
54.7113248724
  0
LINE
  5
54A
100
AcDbEntity
  8
0
100
AcDbLine
 62
7
  6
CONTINUOUS
 10
136.2886920989
 20
54.7113248724
 11
135.5386920989
 21
54.7113248724
  0
LINE
  5
54B
100
AcDbEntity
  8
0
100
AcDbLine
 62
7
  6
CONTINUOUS
 10
132.5386920989
 20
54.7113248724
 11
131.7886917413
 21
54.7113248724
  0
LINE
  5
54C
100
AcDbEntity
  8
0
100
AcDbLine
 62
7
  6
CONTINUOUS
 10
129.0386918605
 20
54.7113248724
 11
126.0386918605
 21
54.7113248724
  0
LINE
  5
54D
100
AcDbEntity
  8
BEZUGSACHSEN
100
AcDbLine
 62
7
  6
CONTINUOUS
 10
116.7386918605
 20
55.1804360465
 11
118.8443961563
 21
55.1804360465
  0
LINE
  5
54E
100
AcDbEntity
  8
BEZUGSACHSEN
100
AcDbLine
 62
7
  6
CONTINUOUS
 10
217.63270931
 20
55.1804360465
 11
219.7386918605
 21
55.1804360465
  0
LINE
  5
54F
100
AcDbEntity
  8
RUNDUNGEN
100
AcDbLine
 62
7
  6
CONTINUOUS
 10
121.8295194645
 20
54.6804371738
 11
126.0386918605
 21
54.6804360465
  0
LWPOLYLINE
  5
550
100
AcDbEntity
  8
RUNDUNGEN
100
AcDbPolyline
 62
7
  6
CONTINUOUS
 90
7
 70
0
 10
118.8425465315
 20
55.1804604283
 10
118.9590397568
 20
55.1787634076
 10
119.2360748982
 20
55.1610512565
 10
119.5112110481
 20
55.1241634432
 10
119.7831185677
 20
55.0682791902
 10
120.0504836456
 20
54.9936703042
 10
120.2762799415
 20
54.9192847036
  0
LINE
  5
551
100
AcDbEntity
  8
0
100
AcDbLine
 62
7
  6
CONTINUOUS
 10
94.5428900795
 20
66.5627764873
 11
93.9461769423
 21
66.6904360465
  0
LINE
  5
552
100
AcDbEntity
  8
0
100
AcDbLine
 62
7
  6
CONTINUOUS
 10
94.5742486185
 20
66.5627764873
 11
93.9775354813
 21
66.6904360465
  0
LINE
  5
553
100
AcDbEntity
  8
0
100
AcDbLine
 62
7
  6
CONTINUOUS
 10
106.2985095958
 20
70.4238402998
 11
105.8109896334
 21
70.561074326
  0
LINE
  5
554
100
AcDbEntity
  8
0
100
AcDbLine
 62
7
  6
CONTINUOUS
 10
106.3008119758
 20
70.4320194391
 11
105.8423481724
 21
70.561074326
  0
LINE
  5
555
100
AcDbEntity
  8
0
100
AcDbLine
 62
7
  6
CONTINUOUS
 10
102.1545864283
 20
72.482350981
 11
102.5202267488
 21
72.3451169548
  0
LINE
  5
556
100
AcDbEntity
  8
0
100
AcDbLine
 62
7
  6
CONTINUOUS
 10
96.5481012813
 20
75.3642659155
 11
96.9137416018
 21
75.2270318893
  0
LINE
  5
557
100
AcDbEntity
  8
0
100
AcDbLine
 62
7
  6
CONTINUOUS
 10
106.5422702744
 20
73.3057551382
 11
106.1766299539
 21
73.4429891644
  0
LINE
  5
558
100
AcDbEntity
  8
0
100
AcDbLine
 62
7
  6
CONTINUOUS
 10
102.1545864283
 20
75.2270318893
 11
102.5202267488
 21
75.0897978632
  0
LINE
  5
559
100
AcDbEntity
  8
0
100
AcDbLine
 62
7
  6
CONTINUOUS
 10
107.2735509154
 20
75.2270318893
 11
107.6391912359
 21
75.0897978632
  0
LINE
  5
55A
100
AcDbEntity
  8
0
100
AcDbLine
 62
7
  6
CONTINUOUS
 10
158.7207007945
 20
81.6804360465
 11
158.7207007945
 21
82.1804360465
  0
LINE
  5
55B
100
AcDbEntity
  8
0
100
AcDbLine
 62
7
  6
CONTINUOUS
 10
158.720701778
 20
56.6804360465
 11
158.720701778
 21
56.1804360465
  0
LINE
  5
55C
100
AcDbEntity
  8
0
100
AcDbLine
 62
7
  6
CONTINUOUS
 10
159.9291194022
 20
81.6804360465
 11
159.9291194022
 21
82.1804360465
  0
LINE
  5
55D
100
AcDbEntity
  8
0
100
AcDbLine
 62
7
  6
CONTINUOUS
 10
161.3819372595
 20
56.6804360465
 11
161.3819372595
 21
56.1804360465
  0
LINE
  5
55E
100
AcDbEntity
  8
0
100
AcDbLine
 62
7
  6
CONTINUOUS
 10
161.8707347453
 20
81.6804360465
 11
161.8707347453
 21
82.1804360465
  0
LINE
  5
55F
100
AcDbEntity
  8
0
100
AcDbLine
 62
7
  6
CONTINUOUS
 10
242.0339460206
 20
76.9044786016
 11
242.5312067786
 21
77.0321381609
  0
LINE
  5
560
100
AcDbEntity
  8
0
100
AcDbLine
 62
7
  6
CONTINUOUS
 10
242.5312067786
 20
71.6704360465
 11
243.1279199158
 21
71.7980956058
  0
LINE
  5
561
100
AcDbEntity
  8
0
100
AcDbLine
 62
7
  6
CONTINUOUS
 10
242.5312067786
 20
77.6704360465
 11
241.9344936414
 21
77.5427764761
  0
LINE
  5
562
100
AcDbEntity
  8
0
100
AcDbLine
 62
7
  6
CONTINUOUS
 10
242.4998482396
 20
77.6704360465
 11
241.9031351024
 21
77.5427764761
  0
LINE
  5
563
100
AcDbEntity
  8
0
100
AcDbLine
 62
7
  6
CONTINUOUS
 10
177.7566829264
 20
56.1804360465
 11
173.5951080859
 21
56.1804360465
  0
LINE
  5
564
100
AcDbEntity
  8
0
100
AcDbLine
 62
7
  6
CONTINUOUS
 10
172.6853993476
 20
56.1804360465
 11
165.9779998601
 21
56.1804360465
  0
LINE
  5
565
100
AcDbEntity
  8
0
100
AcDbLine
 62
7
  6
CONTINUOUS
 10
162.8822770655
 20
56.1804360465
 11
158.720701778
 21
56.1804360465
  0
LINE
  5
566
100
AcDbEntity
  8
RUNDUNGEN
100
AcDbLine
 62
7
  6
CONTINUOUS
 10
120.8866490085
 20
56.6804360465
 11
215.5912110765
 21
56.6804360465
  0
LINE
  5
567
100
AcDbEntity
  8
0
100
AcDbLine
 62
7
  6
CONTINUOUS
 10
98.7512402945
 20
60.6904360465
 11
98.7198817555
 21
60.6904360465
  0
LINE
  5
568
100
AcDbEntity
  8
0
100
AcDbLine
 62
7
  6
CONTINUOUS
 10
90.7637067823
 20
60.6904360465
 11
91.3917784585
 21
60.6904360465
  0
LINE
  5
569
100
AcDbEntity
  8
0
100
AcDbLine
 62
7
  6
CONTINUOUS
 10
94.5742486185
 20
60.8180956169
 11
94.5428900795
 21
60.8180956169
  0
LINE
  5
56A
100
AcDbEntity
  8
0
100
AcDbLine
 62
7
  6
CONTINUOUS
 10
98.7512402945
 20
61.2010743282
 11
98.7198817555
 21
61.2010743282
  0
LINE
  5
56B
100
AcDbEntity
  8
0
100
AcDbLine
 62
7
  6
CONTINUOUS
 10
95.071509661
 20
61.2010743282
 11
95.0401511221
 21
61.2010743282
  0
LINE
  5
56C
100
AcDbEntity
  8
0
100
AcDbLine
 62
7
  6
CONTINUOUS
 10
98.2539795365
 20
61.3287339322
 11
98.2226209975
 21
61.3287339322
  0
LINE
  5
56D
100
AcDbEntity
  8
0
100
AcDbLine
 62
7
  6
CONTINUOUS
 10
93.4802744388
 20
61.4563934914
 11
93.4489158998
 21
61.4563934914
  0
LINE
  5
56E
100
AcDbEntity
  8
0
100
AcDbLine
 62
7
  6
CONTINUOUS
 10
97.9556229679
 20
61.5840530507
 11
97.9242644289
 21
61.5840530507
  0
LINE
  5
56F
100
AcDbEntity
  8
0
100
AcDbLine
 62
7
  6
CONTINUOUS
 10
95.3698662296
 20
61.5840530507
 11
95.3385076907
 21
61.5840530507
  0
LINE
  5
570
100
AcDbEntity
  8
0
100
AcDbLine
 62
7
  6
CONTINUOUS
 10
93.1819178701
 20
61.7117126099
 11
93.1505593312
 21
61.7117126099
  0
LINE
  5
571
100
AcDbEntity
  8
0
100
AcDbLine
 62
7
  6
CONTINUOUS
 10
97.8561705887
 20
61.9670318178
 11
97.8248120497
 21
61.9670318178
  0
LINE
  5
572
100
AcDbEntity
  8
0
100
AcDbLine
 62
7
  6
CONTINUOUS
 10
95.568770419
 20
62.0946913771
 11
95.53741188
 21
62.0946913771
  0
LINE
  5
573
100
AcDbEntity
  8
0
100
AcDbLine
 62
7
  6
CONTINUOUS
 10
229.3257138422
 20
62.3104360465
 11
229.9351134465
 21
62.3104360465
  0
LINE
  5
574
100
AcDbEntity
  8
0
100
AcDbLine
 62
7
  6
CONTINUOUS
 10
234.4446783293
 20
62.3104360465
 11
237.369800196
 21
62.3104360465
  0
LINE
  5
575
100
AcDbEntity
  8
0
100
AcDbLine
 62
7
  6
CONTINUOUS
 10
240.0511627789
 20
62.3104360465
 11
242.976285343
 21
62.3104360465
  0
LINE
  5
576
100
AcDbEntity
  8
0
100
AcDbLine
 62
7
  6
CONTINUOUS
 10
243.9199677749
 20
62.3104360465
 11
244.6826069549
 21
62.3104360465
  0
LINE
  5
577
100
AcDbEntity
  8
0
100
AcDbLine
 62
7
  6
CONTINUOUS
 10
248.0638912912
 20
62.3104360465
 11
248.8265304712
 21
62.3104360465
  0
LINE
  5
578
100
AcDbEntity
  8
0
100
AcDbLine
 62
7
  6
CONTINUOUS
 10
228.6849543041
 20
62.4476700727
 11
228.7163128431
 21
62.4476700727
  0
LINE
  5
579
100
AcDbEntity
  8
0
100
AcDbLine
 62
7
  6
CONTINUOUS
 10
233.8039187912
 20
62.4476700727
 11
233.8352773302
 21
62.4476700727
  0
LINE
  5
57A
100
AcDbEntity
  8
0
100
AcDbLine
 62
7
  6
CONTINUOUS
 10
239.4104039382
 20
62.4476700727
 11
239.4417624772
 21
62.4476700727
  0
LINE
  5
57B
100
AcDbEntity
  8
0
100
AcDbLine
 62
7
  6
CONTINUOUS
 10
95.6682227983
 20
62.4776700548
 11
95.6368642593
 21
62.4776700548
  0
LINE
  5
57C
100
AcDbEntity
  8
0
100
AcDbLine
 62
7
  6
CONTINUOUS
 10
92.7841092068
 20
62.4776700548
 11
92.7527506679
 21
62.4776700548
  0
LINE
  5
57D
100
AcDbEntity
  8
0
100
AcDbLine
 62
7
  6
CONTINUOUS
 10
105.6891085967
 20
69.7376700847
 11
106.2985095958
 21
69.6004360465
  0
LINE
  5
57E
100
AcDbEntity
  8
0
100
AcDbLine
 62
7
  6
CONTINUOUS
 10
107.8829505197
 20
73.168521112
 11
107.2735509154
 21
73.3057551382
  0
LINE
  5
57F
100
AcDbEntity
  8
0
100
AcDbLine
 62
7
  6
CONTINUOUS
 10
107.9143090587
 20
73.168521112
 11
107.3049094544
 21
73.3057551382
  0
LINE
  5
580
100
AcDbEntity
  8
0
100
AcDbLine
 62
7
  6
CONTINUOUS
 10
97.0356212437
 20
75.9132020203
 11
96.426220942
 21
76.0504360465
  0
LINE
  5
581
100
AcDbEntity
  8
0
100
AcDbLine
 62
7
  6
CONTINUOUS
 10
97.0669797827
 20
75.9132020203
 11
96.457579481
 21
76.0504360465
  0
LINE
  5
582
100
AcDbEntity
  8
0
100
AcDbLine
 62
7
  6
CONTINUOUS
 10
102.6421063907
 20
75.9132020203
 11
102.0327053916
 21
76.0504360465
  0
LINE
  5
583
100
AcDbEntity
  8
0
100
AcDbLine
 62
7
  6
CONTINUOUS
 10
102.6734649297
 20
75.9132020203
 11
102.0640639306
 21
76.0504360465
  0
LINE
  5
584
100
AcDbEntity
  8
0
100
AcDbLine
 62
7
  6
CONTINUOUS
 10
107.7610708778
 20
75.9132020203
 11
107.1516698787
 21
76.0504360465
  0
LINE
  5
585
100
AcDbEntity
  8
0
100
AcDbLine
 62
7
  6
CONTINUOUS
 10
107.7924294168
 20
75.9132020203
 11
107.1830284177
 21
76.0504360465
  0
LINE
  5
586
100
AcDbEntity
  8
0
100
AcDbLine
 62
7
  6
CONTINUOUS
 10
106.0547489172
 20
72.6195850072
 11
106.5422702744
 21
72.482350981
  0
LINE
  5
587
100
AcDbEntity
  8
0
100
AcDbLine
 62
7
  6
CONTINUOUS
 10
107.2735509154
 20
72.482350981
 11
107.7610708778
 21
72.3451169548
  0
LINE
  5
588
100
AcDbEntity
  8
0
100
AcDbLine
 62
7
  6
CONTINUOUS
 10
162.882275635
 20
81.6804360465
 11
162.882275635
 21
82.1804360465
  0
LINE
  5
589
100
AcDbEntity
  8
0
100
AcDbLine
 62
7
  6
CONTINUOUS
 10
162.8822770655
 20
56.6804360465
 11
162.8822770655
 21
56.1804360465
  0
LINE
  5
58A
100
AcDbEntity
  8
0
100
AcDbLine
 62
7
  6
CONTINUOUS
 10
163.7919843734
 20
81.6804360465
 11
163.7919843734
 21
82.1804360465
  0
LINE
  5
58B
100
AcDbEntity
  8
0
100
AcDbLine
 62
7
  6
CONTINUOUS
 10
165.9779998601
 20
56.6804360465
 11
165.9779998601
 21
56.1804360465
  0
LINE
  5
58C
100
AcDbEntity
  8
0
100
AcDbLine
 62
7
  6
CONTINUOUS
 10
228.1974343417
 20
62.8593721513
 11
228.2287928807
 21
62.8593721513
  0
LINE
  5
58D
100
AcDbEntity
  8
0
100
AcDbLine
 62
7
  6
CONTINUOUS
 10
233.3163988288
 20
62.8593721513
 11
233.3477573678
 21
62.8593721513
  0
LINE
  5
58E
100
AcDbEntity
  8
0
100
AcDbLine
 62
7
  6
CONTINUOUS
 10
238.9228832784
 20
62.8593721513
 11
238.9542418174
 21
62.8593721513
  0
LINE
  5
58F
100
AcDbEntity
  8
0
100
AcDbLine
 62
7
  6
CONTINUOUS
 10
242.245004702
 20
62.9966061775
 11
239.9292824396
 21
62.9966061775
  0
LINE
  5
590
100
AcDbEntity
  8
0
100
AcDbLine
 62
7
  6
CONTINUOUS
 10
95.7676746084
 20
63.1159680299
 11
95.7363160694
 21
63.1159680299
  0
LINE
  5
591
100
AcDbEntity
  8
0
100
AcDbLine
 62
7
  6
CONTINUOUS
 10
236.6385202524
 20
63.1338402037
 11
234.3227972926
 21
63.1338402037
  0
LINE
  5
592
100
AcDbEntity
  8
0
100
AcDbLine
 62
7
  6
CONTINUOUS
 10
229.9351134465
 20
63.1338402037
 11
229.2038328055
 21
63.1338402037
  0
LINE
  5
593
100
AcDbEntity
  8
0
100
AcDbLine
 62
7
  6
CONTINUOUS
 10
92.6846568276
 20
63.2436275891
 11
92.6532982886
 21
63.2436275891
  0
LINE
  5
594
100
AcDbEntity
  8
0
100
AcDbLine
 62
7
  6
CONTINUOUS
 10
230.269395228
 20
63.2710742299
 11
230.300753767
 21
63.2710742299
  0
LINE
  5
595
100
AcDbEntity
  8
0
100
AcDbLine
 62
7
  6
CONTINUOUS
 10
227.8317940212
 20
63.4083082561
 11
227.8631525602
 21
63.4083082561
  0
LINE
  5
596
100
AcDbEntity
  8
0
100
AcDbLine
 62
7
  6
CONTINUOUS
 10
232.9507585083
 20
63.4083082561
 11
232.9821170473
 21
63.4083082561
  0
LINE
  5
597
100
AcDbEntity
  8
0
100
AcDbLine
 62
7
  6
CONTINUOUS
 10
238.5572429579
 20
63.4083082561
 11
238.5886014969
 21
63.4083082561
  0
LINE
  5
598
100
AcDbEntity
  8
0
100
AcDbLine
 62
7
  6
CONTINUOUS
 10
230.6350355486
 20
63.5455422823
 11
230.6663940875
 21
63.5455422823
  0
LINE
  5
599
100
AcDbEntity
  8
0
100
AcDbLine
 62
7
  6
CONTINUOUS
 10
227.7099129845
 20
63.8200103346
 11
228.4725521645
 21
63.8200103346
  0
LINE
  5
59A
100
AcDbEntity
  8
0
100
AcDbLine
 62
7
  6
CONTINUOUS
 10
232.8288774716
 20
63.8200103346
 11
232.8602360106
 21
63.8200103346
  0
LINE
  5
59B
100
AcDbEntity
  8
0
100
AcDbLine
 62
7
  6
CONTINUOUS
 10
238.4353626186
 20
63.8200103346
 11
238.4667211576
 21
63.8200103346
  0
LINE
  5
59C
100
AcDbEntity
  8
0
100
AcDbLine
 62
7
  6
CONTINUOUS
 10
230.7569165853
 20
63.9572447453
 11
230.7882751242
 21
63.9572447453
  0
LINE
  5
59D
100
AcDbEntity
  8
0
100
AcDbLine
 62
7
  6
CONTINUOUS
 10
92.6846568276
 20
64.1372445039
 11
92.6532982886
 21
64.1372445039
  0
LINE
  5
59E
100
AcDbEntity
  8
0
100
AcDbLine
 62
7
  6
CONTINUOUS
 10
230.7569165853
 20
64.2317127977
 11
230.7882751242
 21
64.2317127977
  0
LINE
  5
59F
100
AcDbEntity
  8
0
100
AcDbLine
 62
7
  6
CONTINUOUS
 10
95.7676746084
 20
64.2649040631
 11
95.7363160694
 21
64.2649040631
  0
LINE
  5
5A0
100
AcDbEntity
  8
0
100
AcDbLine
 62
7
  6
CONTINUOUS
 10
96.5319339651
 20
64.2649040631
 11
97.3275512917
 21
64.2649040631
  0
LINE
  5
5A1
100
AcDbEntity
  8
0
100
AcDbLine
 62
7
  6
CONTINUOUS
 10
97.8248120497
 20
64.2649040631
 11
98.950145053
 21
64.2649040631
  0
LINE
  5
5A2
100
AcDbEntity
  8
0
100
AcDbLine
 62
7
  6
CONTINUOUS
 10
232.8288774716
 20
64.3689468239
 11
232.8602360106
 21
64.3689468239
  0
LINE
  5
5A3
100
AcDbEntity
  8
0
100
AcDbLine
 62
7
  6
CONTINUOUS
 10
238.4353626186
 20
64.3689468239
 11
238.4667211576
 21
64.3689468239
  0
LINE
  5
5A4
100
AcDbEntity
  8
0
100
AcDbLine
 62
7
  6
CONTINUOUS
 10
230.6350355486
 20
64.6434148763
 11
230.6663940875
 21
64.6434148763
  0
LINE
  5
5A5
100
AcDbEntity
  8
0
100
AcDbLine
 62
7
  6
CONTINUOUS
 10
98.950145053
 20
64.7755423001
 11
97.8248120497
 21
64.7755423001
  0
LINE
  5
5A6
100
AcDbEntity
  8
0
100
AcDbLine
 62
7
  6
CONTINUOUS
 10
97.3275512917
 20
64.7755423001
 11
96.5319339651
 21
64.7755423001
  0
LINE
  5
5A7
100
AcDbEntity
  8
0
100
AcDbLine
 62
7
  6
CONTINUOUS
 10
90.198352184
 20
64.7755423001
 11
90.1669936451
 21
64.7755423001
  0
LINE
  5
5A8
100
AcDbEntity
  8
0
100
AcDbLine
 62
7
  6
CONTINUOUS
 10
232.9507585083
 20
64.7806489024
 11
232.9821170473
 21
64.7806489024
  0
LINE
  5
5A9
100
AcDbEntity
  8
0
100
AcDbLine
 62
7
  6
CONTINUOUS
 10
238.5572429579
 20
64.7806489024
 11
238.5886014969
 21
64.7806489024
  0
LINE
  5
5AA
100
AcDbEntity
  8
0
100
AcDbLine
 62
7
  6
CONTINUOUS
 10
95.6682227983
 20
64.9032018594
 11
95.6368642593
 21
64.9032018594
  0
LINE
  5
5AB
100
AcDbEntity
  8
0
100
AcDbLine
 62
7
  6
CONTINUOUS
 10
92.7841092068
 20
64.9032018594
 11
92.7527506679
 21
64.9032018594
  0
LINE
  5
5AC
100
AcDbEntity
  8
0
100
AcDbLine
 62
7
  6
CONTINUOUS
 10
230.269395228
 20
64.9178829286
 11
230.300753767
 21
64.9178829286
  0
LINE
  5
5AD
100
AcDbEntity
  8
0
100
AcDbLine
 62
7
  6
CONTINUOUS
 10
229.2038328055
 20
65.0551169548
 11
229.9351134465
 21
65.0551169548
  0
LINE
  5
5AE
100
AcDbEntity
  8
0
100
AcDbLine
 62
7
  6
CONTINUOUS
 10
234.3227972926
 20
65.0551169548
 11
236.6385202524
 21
65.0551169548
  0
LINE
  5
5AF
100
AcDbEntity
  8
0
100
AcDbLine
 62
7
  6
CONTINUOUS
 10
239.9292824396
 20
65.0551169548
 11
242.245004702
 21
65.0551169548
  0
LINE
  5
5B0
100
AcDbEntity
  8
0
100
AcDbLine
 62
7
  6
CONTINUOUS
 10
228.5630746622
 20
65.192350981
 11
228.5944332012
 21
65.192350981
  0
LINE
  5
5B1
100
AcDbEntity
  8
0
100
AcDbLine
 62
7
  6
CONTINUOUS
 10
95.568770419
 20
65.2861808948
 11
95.53741188
 21
65.2861808948
  0
LINE
  5
5B2
100
AcDbEntity
  8
0
100
AcDbLine
 62
7
  6
CONTINUOUS
 10
233.3163988288
 20
65.3295850072
 11
233.3477573678
 21
65.3295850072
  0
LINE
  5
5B3
100
AcDbEntity
  8
0
100
AcDbLine
 62
7
  6
CONTINUOUS
 10
238.9228832784
 20
65.3295850072
 11
238.9542418174
 21
65.3295850072
  0
LINE
  5
5B4
100
AcDbEntity
  8
0
100
AcDbLine
 62
7
  6
CONTINUOUS
 10
228.075553305
 20
65.4668190334
 11
228.106911844
 21
65.4668190334
  0
LINE
  5
5B5
100
AcDbEntity
  8
0
100
AcDbLine
 62
7
  6
CONTINUOUS
 10
233.5601581126
 20
65.4668190334
 11
233.5915166516
 21
65.4668190334
  0
LINE
  5
5B6
100
AcDbEntity
  8
0
100
AcDbLine
 62
7
  6
CONTINUOUS
 10
233.3163988288
 20
65.6040530596
 11
233.3477573678
 21
65.6040530596
  0
LINE
  5
5B7
100
AcDbEntity
  8
0
100
AcDbLine
 62
7
  6
CONTINUOUS
 10
239.4104039382
 20
65.6040530596
 11
239.4417624772
 21
65.6040530596
  0
LINE
  5
5B8
100
AcDbEntity
  8
0
100
AcDbLine
 62
7
  6
CONTINUOUS
 10
93.1819178701
 20
65.6691595725
 11
93.1505593312
 21
65.6691595725
  0
LINE
  5
5B9
100
AcDbEntity
  8
0
100
AcDbLine
 62
7
  6
CONTINUOUS
 10
97.8561705887
 20
65.7968191318
 11
97.3275512917
 21
65.7968191318
  0
LINE
  5
5BA
100
AcDbEntity
  8
0
100
AcDbLine
 62
7
  6
CONTINUOUS
 10
95.3698662296
 20
65.7968191318
 11
95.3385076907
 21
65.7968191318
  0
LINE
  5
5BB
100
AcDbEntity
  8
0
100
AcDbLine
 62
7
  6
CONTINUOUS
 10
242.245004702
 20
65.878521112
 11
240.1730431182
 21
65.878521112
  0
LINE
  5
5BC
100
AcDbEntity
  8
0
100
AcDbLine
 62
7
  6
CONTINUOUS
 10
236.6385202524
 20
65.878521112
 11
234.3227972926
 21
65.878521112
  0
LINE
  5
5BD
100
AcDbEntity
  8
0
100
AcDbLine
 62
7
  6
CONTINUOUS
 10
229.9351134465
 20
65.878521112
 11
229.2038328055
 21
65.878521112
  0
LINE
  5
5BE
100
AcDbEntity
  8
0
100
AcDbLine
 62
7
  6
CONTINUOUS
 10
93.4802744388
 20
65.924478691
 11
93.4489158998
 21
65.924478691
  0
LINE
  5
5BF
100
AcDbEntity
  8
0
100
AcDbLine
 62
7
  6
CONTINUOUS
 10
227.5880333426
 20
66.0157551382
 11
227.6193918816
 21
66.0157551382
  0
LINE
  5
5C0
100
AcDbEntity
  8
0
100
AcDbLine
 62
7
  6
CONTINUOUS
 10
232.9507585083
 20
66.1529891644
 11
232.9821170473
 21
66.1529891644
  0
LINE
  5
5C1
100
AcDbEntity
  8
0
100
AcDbLine
 62
7
  6
CONTINUOUS
 10
95.071509661
 20
66.1797978095
 11
95.0401511221
 21
66.1797978095
  0
LINE
  5
5C2
100
AcDbEntity
  8
0
100
AcDbLine
 62
7
  6
CONTINUOUS
 10
94.5742486185
 20
66.5627764873
 11
94.5428900795
 21
66.5627764873
  0
LINE
  5
5C3
100
AcDbEntity
  8
0
100
AcDbLine
 62
7
  6
CONTINUOUS
 10
227.344272664
 20
66.5646914352
 11
227.3756312029
 21
66.5646914352
  0
LINE
  5
5C4
100
AcDbEntity
  8
0
100
AcDbLine
 62
7
  6
CONTINUOUS
 10
232.8288774716
 20
66.5646914352
 11
232.8602360106
 21
66.5646914352
  0
LINE
  5
5C5
100
AcDbEntity
  8
0
100
AcDbLine
 62
7
  6
CONTINUOUS
 10
91.3917784585
 20
66.6904360465
 11
90.7637067823
 21
66.6904360465
  0
LINE
  5
5C6
100
AcDbEntity
  8
0
100
AcDbLine
 62
7
  6
CONTINUOUS
 10
231.1225569058
 20
66.9763935138
 11
231.8851960858
 21
66.9763935138
  0
LINE
  5
5C7
100
AcDbEntity
  8
0
100
AcDbLine
 62
7
  6
CONTINUOUS
 10
227.344272664
 20
67.2508615662
 11
227.3756312029
 21
67.2508615662
  0
LINE
  5
5C8
100
AcDbEntity
  8
0
100
AcDbLine
 62
7
  6
CONTINUOUS
 10
232.8288774716
 20
67.2508615662
 11
232.8602360106
 21
67.2508615662
  0
LINE
  5
5C9
100
AcDbEntity
  8
0
100
AcDbLine
 62
7
  6
CONTINUOUS
 10
231.0006758691
 20
67.3880955924
 11
231.032034408
 21
67.3880955924
  0
LINE
  5
5CA
100
AcDbEntity
  8
0
100
AcDbLine
 62
7
  6
CONTINUOUS
 10
232.9507585083
 20
67.6625637409
 11
232.9821170473
 21
67.6625637409
  0
LINE
  5
5CB
100
AcDbEntity
  8
0
100
AcDbLine
 62
7
  6
CONTINUOUS
 10
227.5880333426
 20
67.799797767
 11
227.6193918816
 21
67.799797767
  0
LINE
  5
5CC
100
AcDbEntity
  8
0
100
AcDbLine
 62
7
  6
CONTINUOUS
 10
229.2038328055
 20
67.9370317932
 11
230.1788741251
 21
67.9370317932
  0
LINE
  5
5CD
100
AcDbEntity
  8
0
100
AcDbLine
 62
7
  6
CONTINUOUS
 10
234.3227972926
 20
67.9370317932
 11
236.6385202524
 21
67.9370317932
  0
LINE
  5
5CE
100
AcDbEntity
  8
0
100
AcDbLine
 62
7
  6
CONTINUOUS
 10
233.3163988288
 20
68.2114998937
 11
233.3477573678
 21
68.2114998937
  0
LINE
  5
5CF
100
AcDbEntity
  8
0
100
AcDbLine
 62
7
  6
CONTINUOUS
 10
228.075553305
 20
68.3487339199
 11
228.106911844
 21
68.3487339199
  0
LINE
  5
5D0
100
AcDbEntity
  8
0
100
AcDbLine
 62
7
  6
CONTINUOUS
 10
228.5630746622
 20
68.6232020083
 11
228.5944332012
 21
68.6232020083
  0
LINE
  5
5D1
100
AcDbEntity
  8
0
100
AcDbLine
 62
7
  6
CONTINUOUS
 10
233.8039187912
 20
68.6232020083
 11
233.8352773302
 21
68.6232020083
  0
LINE
  5
5D2
100
AcDbEntity
  8
0
100
AcDbLine
 62
7
  6
CONTINUOUS
 10
237.369800196
 20
68.7604360465
 11
234.4446783293
 21
68.7604360465
  0
LINE
  5
5D3
100
AcDbEntity
  8
0
100
AcDbLine
 62
7
  6
CONTINUOUS
 10
230.1788741251
 20
68.7604360465
 11
229.2038328055
 21
68.7604360465
  0
LINE
  5
5D4
100
AcDbEntity
  8
0
100
AcDbLine
 62
7
  6
CONTINUOUS
 10
238.3134829767
 20
68.7604360465
 11
239.1980017986
 21
68.7604360465
  0
LINE
  5
5D5
100
AcDbEntity
  8
0
100
AcDbLine
 62
7
  6
CONTINUOUS
 10
242.213646163
 20
68.7604360465
 11
242.976285343
 21
68.7604360465
  0
LINE
  5
5D6
100
AcDbEntity
  8
0
100
AcDbLine
 62
7
  6
CONTINUOUS
 10
245.8700493681
 20
68.7604360465
 11
246.8764487036
 21
68.7604360465
  0
LINE
  5
5D7
100
AcDbEntity
  8
0
100
AcDbLine
 62
7
  6
CONTINUOUS
 10
89.6009350173
 20
69.6004360465
 11
90.6073343528
 21
69.6004360465
  0
LINE
  5
5D8
100
AcDbEntity
  8
0
100
AcDbLine
 62
7
  6
CONTINUOUS
 10
93.5010983779
 20
69.6004360465
 11
94.2637375579
 21
69.6004360465
  0
LINE
  5
5D9
100
AcDbEntity
  8
0
100
AcDbLine
 62
7
  6
CONTINUOUS
 10
97.2793819224
 20
69.6004360465
 11
98.1639007443
 21
69.6004360465
  0
LINE
  5
5DA
100
AcDbEntity
  8
0
100
AcDbLine
 62
7
  6
CONTINUOUS
 10
99.1075835249
 20
69.6004360465
 11
102.0327053916
 21
69.6004360465
  0
LINE
  5
5DB
100
AcDbEntity
  8
0
100
AcDbLine
 62
7
  6
CONTINUOUS
 10
106.2985095958
 20
69.6004360465
 11
107.2735509154
 21
69.6004360465
  0
LINE
  5
5DC
100
AcDbEntity
  8
0
100
AcDbLine
 62
7
  6
CONTINUOUS
 10
107.9143090587
 20
69.7376700847
 11
107.8829505197
 21
69.7376700847
  0
LINE
  5
5DD
100
AcDbEntity
  8
0
100
AcDbLine
 62
7
  6
CONTINUOUS
 10
102.6734649297
 20
69.7376700847
 11
102.6421063907
 21
69.7376700847
  0
LINE
  5
5DE
100
AcDbEntity
  8
0
100
AcDbLine
 62
7
  6
CONTINUOUS
 10
108.4018304159
 20
70.0121381731
 11
108.370471877
 21
70.0121381731
  0
LINE
  5
5DF
100
AcDbEntity
  8
0
100
AcDbLine
 62
7
  6
CONTINUOUS
 10
103.1609848921
 20
70.1493721993
 11
103.1296263531
 21
70.1493721993
  0
LINE
  5
5E0
100
AcDbEntity
  8
0
100
AcDbLine
 62
7
  6
CONTINUOUS
 10
170.4993838609
 20
81.6804360465
 11
170.4993838609
 21
82.1804360465
  0
LINE
  5
5E1
100
AcDbEntity
  8
0
100
AcDbLine
 62
7
  6
CONTINUOUS
 10
172.6853993476
 20
56.6804360465
 11
172.6853993476
 21
56.1804360465
  0
LINE
  5
5E2
100
AcDbEntity
  8
0
100
AcDbLine
 62
7
  6
CONTINUOUS
 10
173.5951066554
 20
81.6804360465
 11
173.5951066554
 21
82.1804360465
  0
LINE
  5
5E3
100
AcDbEntity
  8
0
100
AcDbLine
 62
7
  6
CONTINUOUS
 10
173.5951080859
 20
56.6804360465
 11
173.5951080859
 21
56.1804360465
  0
LINE
  5
5E4
100
AcDbEntity
  8
0
100
AcDbLine
 62
7
  6
CONTINUOUS
 10
174.6066489756
 20
56.6804360465
 11
174.6066489756
 21
56.1804360465
  0
LINE
  5
5E5
100
AcDbEntity
  8
0
100
AcDbLine
 62
7
  6
CONTINUOUS
 10
175.0954464615
 20
81.6804360465
 11
175.0954464615
 21
82.1804360465
  0
LINE
  5
5E6
100
AcDbEntity
  8
0
100
AcDbLine
 62
7
  6
CONTINUOUS
 10
93.9775354813
 20
60.6904360465
 11
94.5742486185
 21
60.8180956169
  0
LINE
  5
5E7
100
AcDbEntity
  8
0
100
AcDbLine
 62
7
  6
CONTINUOUS
 10
93.9461769423
 20
60.6904360465
 11
94.5428900795
 21
60.8180956169
  0
LINE
  5
5E8
100
AcDbEntity
  8
0
100
AcDbLine
 62
7
  6
CONTINUOUS
 10
107.2735509154
 20
70.4238402998
 11
106.2985095958
 21
70.4238402998
  0
LINE
  5
5E9
100
AcDbEntity
  8
0
100
AcDbLine
 62
7
  6
CONTINUOUS
 10
102.1545864283
 20
70.4238402998
 11
99.8388634685
 21
70.4238402998
  0
LINE
  5
5EA
100
AcDbEntity
  8
0
100
AcDbLine
 62
7
  6
CONTINUOUS
 10
108.8893503784
 20
70.561074326
 11
108.8579918394
 21
70.561074326
  0
LINE
  5
5EB
100
AcDbEntity
  8
0
100
AcDbLine
 62
7
  6
CONTINUOUS
 10
103.5266252126
 20
70.6983083522
 11
103.4952666736
 21
70.6983083522
  0
LINE
  5
5EC
100
AcDbEntity
  8
0
100
AcDbLine
 62
7
  6
CONTINUOUS
 10
105.4767078519
 20
70.9727765007
 11
105.4453493129
 21
70.9727765007
  0
LINE
  5
5ED
100
AcDbEntity
  8
0
100
AcDbLine
 62
7
  6
CONTINUOUS
 10
109.133111057
 20
71.1100105269
 11
109.101752518
 21
71.1100105269
  0
LINE
  5
5EE
100
AcDbEntity
  8
0
100
AcDbLine
 62
7
  6
CONTINUOUS
 10
103.6485062493
 20
71.1100105269
 11
103.6171477103
 21
71.1100105269
  0
LINE
  5
5EF
100
AcDbEntity
  8
0
100
AcDbLine
 62
7
  6
CONTINUOUS
 10
105.3548268152
 20
71.3844785793
 11
104.5921876352
 21
71.3844785793
  0
LINE
  5
5F0
100
AcDbEntity
  8
0
100
AcDbLine
 62
7
  6
CONTINUOUS
 10
245.0856052624
 20
71.6704360465
 11
245.7136769386
 21
71.6704360465
  0
LINE
  5
5F1
100
AcDbEntity
  8
0
100
AcDbLine
 62
7
  6
CONTINUOUS
 10
109.133111057
 20
71.7961806578
 11
109.101752518
 21
71.7961806578
  0
LINE
  5
5F2
100
AcDbEntity
  8
0
100
AcDbLine
 62
7
  6
CONTINUOUS
 10
103.6485062493
 20
71.7961806578
 11
103.6171477103
 21
71.7961806578
  0
LINE
  5
5F3
100
AcDbEntity
  8
0
100
AcDbLine
 62
7
  6
CONTINUOUS
 10
241.9031351024
 20
71.7980956058
 11
241.9344936414
 21
71.7980956058
  0
LINE
  5
5F4
100
AcDbEntity
  8
0
100
AcDbLine
 62
7
  6
CONTINUOUS
 10
241.4058740599
 20
72.1810742835
 11
241.4372325989
 21
72.1810742835
  0
LINE
  5
5F5
100
AcDbEntity
  8
0
100
AcDbLine
 62
7
  6
CONTINUOUS
 10
103.5266252126
 20
72.2078829286
 11
103.4952666736
 21
72.2078829286
  0
LINE
  5
5F6
100
AcDbEntity
  8
0
100
AcDbLine
 62
7
  6
CONTINUOUS
 10
108.8893503784
 20
72.3451169548
 11
108.8579918394
 21
72.3451169548
  0
LINE
  5
5F7
100
AcDbEntity
  8
0
100
AcDbLine
 62
7
  6
CONTINUOUS
 10
242.9971092822
 20
72.436393402
 11
243.0284678212
 21
72.436393402
  0
LINE
  5
5F8
100
AcDbEntity
  8
0
100
AcDbLine
 62
7
  6
CONTINUOUS
 10
94.232379019
 20
72.482350981
 11
96.3043406027
 21
72.482350981
  0
LINE
  5
5F9
100
AcDbEntity
  8
0
100
AcDbLine
 62
7
  6
CONTINUOUS
 10
99.8388634685
 20
72.482350981
 11
102.1545864283
 21
72.482350981
  0
LINE
  5
5FA
100
AcDbEntity
  8
0
100
AcDbLine
 62
7
  6
CONTINUOUS
 10
106.5422702744
 20
72.482350981
 11
107.2735509154
 21
72.482350981
  0
LINE
  5
5FB
100
AcDbEntity
  8
0
100
AcDbLine
 62
7
  6
CONTINUOUS
 10
238.6212131322
 20
72.5640529613
 11
239.1498324292
 21
72.5640529613
  0
LINE
  5
5FC
100
AcDbEntity
  8
0
100
AcDbLine
 62
7
  6
CONTINUOUS
 10
241.1075174913
 20
72.5640529613
 11
241.1388760303
 21
72.5640529613
  0
LINE
  5
5FD
100
AcDbEntity
  8
0
100
AcDbLine
 62
7
  6
CONTINUOUS
 10
243.2954658508
 20
72.6917125205
 11
243.3268243898
 21
72.6917125205
  0
LINE
  5
5FE
100
AcDbEntity
  8
0
100
AcDbLine
 62
7
  6
CONTINUOUS
 10
103.1609848921
 20
72.7568190334
 11
103.1296263531
 21
72.7568190334
  0
LINE
  5
5FF
100
AcDbEntity
  8
0
100
AcDbLine
 62
7
  6
CONTINUOUS
 10
97.0669797827
 20
72.7568190334
 11
97.0356212437
 21
72.7568190334
  0
LINE
  5
600
100
AcDbEntity
  8
0
100
AcDbLine
 62
7
  6
CONTINUOUS
 10
108.4018304159
 20
72.8940530596
 11
108.370471877
 21
72.8940530596
  0
LINE
  5
601
100
AcDbEntity
  8
0
100
AcDbLine
 62
7
  6
CONTINUOUS
 10
102.9172256083
 20
72.8940530596
 11
102.8858670693
 21
72.8940530596
  0
LINE
  5
602
100
AcDbEntity
  8
0
100
AcDbLine
 62
7
  6
CONTINUOUS
 10
103.1609848921
 20
73.0312870858
 11
103.1296263531
 21
73.0312870858
  0
LINE
  5
603
100
AcDbEntity
  8
0
100
AcDbLine
 62
7
  6
CONTINUOUS
 10
97.5545004425
 20
73.0312870858
 11
97.5231419036
 21
73.0312870858
  0
LINE
  5
604
100
AcDbEntity
  8
0
100
AcDbLine
 62
7
  6
CONTINUOUS
 10
240.9086133019
 20
73.0746911983
 11
240.9399718409
 21
73.0746911983
  0
LINE
  5
605
100
AcDbEntity
  8
0
100
AcDbLine
 62
7
  6
CONTINUOUS
 10
107.9143090587
 20
73.168521112
 11
107.8829505197
 21
73.168521112
  0
LINE
  5
606
100
AcDbEntity
  8
0
100
AcDbLine
 62
7
  6
CONTINUOUS
 10
107.2735509154
 20
73.3057551382
 11
106.5422702744
 21
73.3057551382
  0
LINE
  5
607
100
AcDbEntity
  8
0
100
AcDbLine
 62
7
  6
CONTINUOUS
 10
102.1545864283
 20
73.3057551382
 11
99.8388634685
 21
73.3057551382
  0
LINE
  5
608
100
AcDbEntity
  8
0
100
AcDbLine
 62
7
  6
CONTINUOUS
 10
96.5481012813
 20
73.3057551382
 11
94.232379019
 21
73.3057551382
  0
LINE
  5
609
100
AcDbEntity
  8
0
100
AcDbLine
 62
7
  6
CONTINUOUS
 10
106.2079884929
 20
73.4429891644
 11
106.1766299539
 21
73.4429891644
  0
LINE
  5
60A
100
AcDbEntity
  8
0
100
AcDbLine
 62
7
  6
CONTINUOUS
 10
240.8091609227
 20
73.4576702336
 11
240.8405194617
 21
73.4576702336
  0
LINE
  5
60B
100
AcDbEntity
  8
0
100
AcDbLine
 62
7
  6
CONTINUOUS
 10
243.6932745141
 20
73.4576702336
 11
243.7246330531
 21
73.4576702336
  0
LINE
  5
60C
100
AcDbEntity
  8
0
100
AcDbLine
 62
7
  6
CONTINUOUS
 10
103.5266252126
 20
73.5802231906
 11
103.4952666736
 21
73.5802231906
  0
LINE
  5
60D
100
AcDbEntity
  8
0
100
AcDbLine
 62
7
  6
CONTINUOUS
 10
97.920140763
 20
73.5802231906
 11
97.8887822241
 21
73.5802231906
  0
LINE
  5
60E
100
AcDbEntity
  8
0
100
AcDbLine
 62
7
  6
CONTINUOUS
 10
237.527238668
 20
73.5853297929
 11
238.6525716712
 21
73.5853297929
  0
LINE
  5
60F
100
AcDbEntity
  8
0
100
AcDbLine
 62
7
  6
CONTINUOUS
 10
239.1498324292
 20
73.5853297929
 11
239.9454497558
 21
73.5853297929
  0
LINE
  5
610
100
AcDbEntity
  8
0
100
AcDbLine
 62
7
  6
CONTINUOUS
 10
246.2790315369
 20
73.5853297929
 11
246.3103900759
 21
73.5853297929
  0
LINE
  5
611
100
AcDbEntity
  8
0
100
AcDbLine
 62
7
  6
CONTINUOUS
 10
105.8423481724
 20
73.7174572168
 11
105.8109896334
 21
73.7174572168
  0
LINE
  5
612
100
AcDbEntity
  8
0
100
AcDbLine
 62
7
  6
CONTINUOUS
 10
103.6485062493
 20
73.9919252692
 11
103.6171477103
 21
73.9919252692
  0
LINE
  5
613
100
AcDbEntity
  8
0
100
AcDbLine
 62
7
  6
CONTINUOUS
 10
98.0420211024
 20
73.9919252692
 11
98.0106625634
 21
73.9919252692
  0
LINE
  5
614
100
AcDbEntity
  8
0
100
AcDbLine
 62
7
  6
CONTINUOUS
 10
239.9454497558
 20
74.0959680299
 11
239.1498324292
 21
74.0959680299
  0
LINE
  5
615
100
AcDbEntity
  8
0
100
AcDbLine
 62
7
  6
CONTINUOUS
 10
237.527238668
 20
74.0959680299
 11
238.6525716712
 21
74.0959680299
  0
LINE
  5
616
100
AcDbEntity
  8
0
100
AcDbLine
 62
7
  6
CONTINUOUS
 10
240.7097091125
 20
74.0959680299
 11
240.7410676515
 21
74.0959680299
  0
LINE
  5
617
100
AcDbEntity
  8
0
100
AcDbLine
 62
7
  6
CONTINUOUS
 10
105.7204671357
 20
74.1291592954
 11
105.6891085967
 21
74.1291592954
  0
LINE
  5
618
100
AcDbEntity
  8
0
100
AcDbLine
 62
7
  6
CONTINUOUS
 10
243.7927268933
 20
74.2236275891
 11
243.8240854323
 21
74.2236275891
  0
LINE
  5
619
100
AcDbEntity
  8
0
100
AcDbLine
 62
7
  6
CONTINUOUS
 10
105.7204671357
 20
74.4036273477
 11
105.6891085967
 21
74.4036273477
  0
LINE
  5
61A
100
AcDbEntity
  8
0
100
AcDbLine
 62
7
  6
CONTINUOUS
 10
103.6485062493
 20
74.5408617584
 11
103.6171477103
 21
74.5408617584
  0
LINE
  5
61B
100
AcDbEntity
  8
0
100
AcDbLine
 62
7
  6
CONTINUOUS
 10
98.0420211024
 20
74.5408617584
 11
98.0106625634
 21
74.5408617584
  0
LINE
  5
61C
100
AcDbEntity
  8
0
100
AcDbLine
 62
7
  6
CONTINUOUS
 10
108.0048315565
 20
74.5408617584
 11
108.7674707365
 21
74.5408617584
  0
LINE
  5
61D
100
AcDbEntity
  8
0
100
AcDbLine
 62
7
  6
CONTINUOUS
 10
105.8423481724
 20
74.8153298108
 11
105.8109896334
 21
74.8153298108
  0
LINE
  5
61E
100
AcDbEntity
  8
0
100
AcDbLine
 62
7
  6
CONTINUOUS
 10
108.6455896997
 20
74.952563837
 11
108.6142311608
 21
74.952563837
  0
LINE
  5
61F
100
AcDbEntity
  8
0
100
AcDbLine
 62
7
  6
CONTINUOUS
 10
103.5266252126
 20
74.952563837
 11
103.4952666736
 21
74.952563837
  0
LINE
  5
620
100
AcDbEntity
  8
0
100
AcDbLine
 62
7
  6
CONTINUOUS
 10
97.920140763
 20
74.952563837
 11
97.8887822241
 21
74.952563837
  0
LINE
  5
621
100
AcDbEntity
  8
0
100
AcDbLine
 62
7
  6
CONTINUOUS
 10
106.2079884929
 20
75.0897978632
 11
106.1766299539
 21
75.0897978632
  0
LINE
  5
622
100
AcDbEntity
  8
0
100
AcDbLine
 62
7
  6
CONTINUOUS
 10
243.7927268933
 20
75.1172445039
 11
243.8240854323
 21
75.1172445039
  0
LINE
  5
623
100
AcDbEntity
  8
0
100
AcDbLine
 62
7
  6
CONTINUOUS
 10
99.8388634685
 20
75.2270318893
 11
102.1545864283
 21
75.2270318893
  0
LINE
  5
624
100
AcDbEntity
  8
0
100
AcDbLine
 62
7
  6
CONTINUOUS
 10
106.5422702744
 20
75.2270318893
 11
107.2735509154
 21
75.2270318893
  0
LINE
  5
625
100
AcDbEntity
  8
0
100
AcDbLine
 62
7
  6
CONTINUOUS
 10
240.7097091125
 20
75.2449040631
 11
240.7410676515
 21
75.2449040631
  0
LINE
  5
626
100
AcDbEntity
  8
0
100
AcDbLine
 62
7
  6
CONTINUOUS
 10
94.232379019
 20
75.3642659155
 11
96.5481012813
 21
75.3642659155
  0
LINE
  5
627
100
AcDbEntity
  8
0
100
AcDbLine
 62
7
  6
CONTINUOUS
 10
108.2799493792
 20
75.5014999417
 11
108.2485908403
 21
75.5014999417
  0
LINE
  5
628
100
AcDbEntity
  8
0
100
AcDbLine
 62
7
  6
CONTINUOUS
 10
103.1609848921
 20
75.5014999417
 11
103.1296263531
 21
75.5014999417
  0
LINE
  5
629
100
AcDbEntity
  8
0
100
AcDbLine
 62
7
  6
CONTINUOUS
 10
97.5545004425
 20
75.5014999417
 11
97.5231419036
 21
75.5014999417
  0
LINE
  5
62A
100
AcDbEntity
  8
0
100
AcDbLine
 62
7
  6
CONTINUOUS
 10
240.8091609227
 20
75.8832020382
 11
240.8405194617
 21
75.8832020382
  0
LINE
  5
62B
100
AcDbEntity
  8
0
100
AcDbLine
 62
7
  6
CONTINUOUS
 10
243.6932745141
 20
75.8832020382
 11
243.7246330531
 21
75.8832020382
  0
LINE
  5
62C
100
AcDbEntity
  8
0
100
AcDbLine
 62
7
  6
CONTINUOUS
 10
107.7924294168
 20
75.9132020203
 11
107.7610708778
 21
75.9132020203
  0
LINE
  5
62D
100
AcDbEntity
  8
0
100
AcDbLine
 62
7
  6
CONTINUOUS
 10
102.6734649297
 20
75.9132020203
 11
102.6421063907
 21
75.9132020203
  0
LINE
  5
62E
100
AcDbEntity
  8
0
100
AcDbLine
 62
7
  6
CONTINUOUS
 10
97.0669797827
 20
75.9132020203
 11
97.0356212437
 21
75.9132020203
  0
LINE
  5
62F
100
AcDbEntity
  8
0
100
AcDbLine
 62
7
  6
CONTINUOUS
 10
107.1516698787
 20
76.0504360465
 11
106.5422702744
 21
76.0504360465
  0
LINE
  5
630
100
AcDbEntity
  8
0
100
AcDbLine
 62
7
  6
CONTINUOUS
 10
102.0327053916
 20
76.0504360465
 11
99.1075835249
 21
76.0504360465
  0
LINE
  5
631
100
AcDbEntity
  8
0
100
AcDbLine
 62
7
  6
CONTINUOUS
 10
96.426220942
 20
76.0504360465
 11
93.5010983779
 21
76.0504360465
  0
LINE
  5
632
100
AcDbEntity
  8
0
100
AcDbLine
 62
7
  6
CONTINUOUS
 10
92.557415946
 20
76.0504360465
 11
91.794776766
 21
76.0504360465
  0
LINE
  5
633
100
AcDbEntity
  8
0
100
AcDbLine
 62
7
  6
CONTINUOUS
 10
88.4134924298
 20
76.0504360465
 11
87.6508532498
 21
76.0504360465
  0
LINE
  5
634
100
AcDbEntity
  8
0
100
AcDbLine
 62
7
  6
CONTINUOUS
 10
240.9086133019
 20
76.2661807159
 11
240.9399718409
 21
76.2661807159
  0
LINE
  5
635
100
AcDbEntity
  8
0
100
AcDbLine
 62
7
  6
CONTINUOUS
 10
238.6212131322
 20
76.3938402752
 11
238.6525716712
 21
76.3938402752
  0
LINE
  5
636
100
AcDbEntity
  8
0
100
AcDbLine
 62
7
  6
CONTINUOUS
 10
243.2954658508
 20
76.6491594831
 11
243.3268243898
 21
76.6491594831
  0
LINE
  5
637
100
AcDbEntity
  8
0
100
AcDbLine
 62
7
  6
CONTINUOUS
 10
238.521760753
 20
76.7768190424
 11
238.553119292
 21
76.7768190424
  0
LINE
  5
638
100
AcDbEntity
  8
0
100
AcDbLine
 62
7
  6
CONTINUOUS
 10
241.1075174913
 20
76.7768190424
 11
241.1388760303
 21
76.7768190424
  0
LINE
  5
639
100
AcDbEntity
  8
0
100
AcDbLine
 62
7
  6
CONTINUOUS
 10
242.9971092822
 20
76.9044786016
 11
243.0284678212
 21
76.9044786016
  0
LINE
  5
63A
100
AcDbEntity
  8
0
100
AcDbLine
 62
7
  6
CONTINUOUS
 10
238.2234041844
 20
77.0321381609
 11
238.2547627234
 21
77.0321381609
  0
LINE
  5
63B
100
AcDbEntity
  8
0
100
AcDbLine
 62
7
  6
CONTINUOUS
 10
237.7261434264
 20
77.1597977648
 11
237.7575019654
 21
77.1597977648
  0
LINE
  5
63C
100
AcDbEntity
  8
0
100
AcDbLine
 62
7
  6
CONTINUOUS
 10
241.4058740599
 20
77.1597977648
 11
241.4372325989
 21
77.1597977648
  0
LINE
  5
63D
100
AcDbEntity
  8
0
100
AcDbLine
 62
7
  6
CONTINUOUS
 10
228.6849543041
 20
62.4476700727
 11
229.2943553032
 21
62.3104360465
  0
LINE
  5
63E
100
AcDbEntity
  8
0
100
AcDbLine
 62
7
  6
CONTINUOUS
 10
228.7163128431
 20
62.4476700727
 11
229.3257138422
 21
62.3104360465
  0
LINE
  5
63F
100
AcDbEntity
  8
0
100
AcDbLine
 62
7
  6
CONTINUOUS
 10
233.8039187912
 20
62.4476700727
 11
234.4133197904
 21
62.3104360465
  0
LINE
  5
640
100
AcDbEntity
  8
0
100
AcDbLine
 62
7
  6
CONTINUOUS
 10
233.8352773302
 20
62.4476700727
 11
234.4446783293
 21
62.3104360465
  0
LINE
  5
641
100
AcDbEntity
  8
0
100
AcDbLine
 62
7
  6
CONTINUOUS
 10
176.5482643187
 20
56.6804360465
 11
176.5482643187
 21
56.1804360465
  0
LINE
  5
642
100
AcDbEntity
  8
0
100
AcDbLine
 62
7
  6
CONTINUOUS
 10
177.756681943
 20
81.6804360465
 11
177.756681943
 21
82.1804360465
  0
LINE
  5
643
100
AcDbEntity
  8
0
100
AcDbLine
 62
7
  6
CONTINUOUS
 10
177.7566829264
 20
56.6804360465
 11
177.7566829264
 21
56.1804360465
  0
LINE
  5
644
100
AcDbEntity
  8
0
100
AcDbLine
 62
7
  6
CONTINUOUS
 10
94.4434377003
 20
61.4563934914
 11
93.9461769423
 21
61.3287339322
  0
LINE
  5
645
100
AcDbEntity
  8
0
100
AcDbLine
 62
7
  6
CONTINUOUS
 10
93.4802744388
 20
65.924478691
 11
93.948115925
 21
66.0445855018
  0
LINE
  5
646
100
AcDbEntity
  8
0
100
AcDbLine
 62
7
  6
CONTINUOUS
 10
93.4489158998
 20
65.924478691
 11
93.9461769423
 21
66.0521382503
  0
LINE
  5
647
100
AcDbEntity
  8
0
100
AcDbLine
 62
7
  6
CONTINUOUS
 10
107.3049094544
 20
69.6004360465
 11
107.9143090587
 21
69.7376700847
  0
LINE
  5
648
100
AcDbEntity
  8
0
100
AcDbLine
 62
7
  6
CONTINUOUS
 10
107.2735509154
 20
69.6004360465
 11
107.8829505197
 21
69.7376700847
  0
LINE
  5
649
100
AcDbEntity
  8
0
100
AcDbLine
 62
7
  6
CONTINUOUS
 10
102.0640639306
 20
69.6004360465
 11
102.6734649297
 21
69.7376700847
  0
LINE
  5
64A
100
AcDbEntity
  8
0
100
AcDbLine
 62
7
  6
CONTINUOUS
 10
102.0327053916
 20
69.6004360465
 11
102.6421063907
 21
69.7376700847
  0
LINE
  5
64B
100
AcDbEntity
  8
0
100
AcDbLine
 62
7
  6
CONTINUOUS
 10
93.9461769423
 20
66.6904360465
 11
93.3494638051
 21
66.5627764873
  0
LINE
  5
64C
100
AcDbEntity
  8
0
100
AcDbLine
 62
7
  6
CONTINUOUS
 10
241.9031351024
 20
77.5427764761
 11
241.9344936414
 21
77.5427764761
  0
LINE
  5
64D
100
AcDbEntity
  8
0
100
AcDbLine
 62
7
  6
CONTINUOUS
 10
237.7261434264
 20
77.6704360465
 11
237.7575019654
 21
77.6704360465
  0
LINE
  5
64E
100
AcDbEntity
  8
0
100
AcDbLine
 62
7
  6
CONTINUOUS
 10
245.0856052624
 20
77.6704360465
 11
245.7136769386
 21
77.6704360465
  0
LINE
  5
64F
100
AcDbEntity
  8
BEZUGSACHSEN
100
AcDbLine
 62
7
  6
CONTINUOUS
 10
120.8866490085
 20
81.6804360465
 11
215.5912110765
 21
81.6804360465
  0
LINE
  5
650
100
AcDbEntity
  8
0
100
AcDbLine
 62
7
  6
CONTINUOUS
 10
158.7207007945
 20
82.1804360465
 11
162.882275635
 21
82.1804360465
  0
LINE
  5
651
100
AcDbEntity
  8
0
100
AcDbLine
 62
7
  6
CONTINUOUS
 10
163.7919843734
 20
82.1804360465
 11
170.4993838609
 21
82.1804360465
  0
LINE
  5
652
100
AcDbEntity
  8
0
100
AcDbLine
 62
7
  6
CONTINUOUS
 10
173.5951066554
 20
82.1804360465
 11
177.756681943
 21
82.1804360465
  0
LINE
  5
653
100
AcDbEntity
  8
BEZUGSACHSEN
100
AcDbLine
 62
7
  6
CONTINUOUS
 10
219.7386918605
 20
83.1804360465
 11
217.63270931
 21
83.1804360465
  0
LINE
  5
654
100
AcDbEntity
  8
BEZUGSACHSEN
100
AcDbLine
 62
7
  6
CONTINUOUS
 10
118.8443961563
 20
83.1804360465
 11
116.7386918605
 21
83.1804360465
  0
LINE
  5
655
100
AcDbEntity
  8
0
100
AcDbLine
 62
7
  6
CONTINUOUS
 10
196.1886918605
 20
83.6495472206
 11
199.1886918605
 21
83.6495472206
  0
LINE
  5
656
100
AcDbEntity
  8
0
100
AcDbLine
 62
7
  6
CONTINUOUS
 10
200.188691622
 20
83.6495472206
 11
200.938691622
 21
83.6495472206
  0
LINE
  5
657
100
AcDbEntity
  8
0
100
AcDbLine
 62
7
  6
CONTINUOUS
 10
203.938691622
 20
83.6495472206
 11
204.6886919797
 21
83.6495472206
  0
LINE
  5
658
100
AcDbEntity
  8
0
100
AcDbLine
 62
7
  6
CONTINUOUS
 10
207.4386918605
 20
83.6495472206
 11
210.4386918605
 21
83.6495472206
  0
LINE
  5
659
100
AcDbEntity
  8
0
100
AcDbLine
 62
7
  6
CONTINUOUS
 10
213.391061513
 20
83.6804360465
 11
210.4386918605
 21
83.6804360465
  0
LINE
  5
65A
100
AcDbEntity
  8
0
100
AcDbLine
 62
7
  6
CONTINUOUS
 10
205.8278034418
 20
83.6804360465
 11
204.6886919797
 21
83.6804360465
  0
LINE
  5
65B
100
AcDbEntity
  8
0
100
AcDbLine
 62
7
  6
CONTINUOUS
 10
203.938691622
 20
83.6804360465
 11
200.938691622
 21
83.6804360465
  0
LINE
  5
65C
100
AcDbEntity
  8
0
100
AcDbLine
 62
7
  6
CONTINUOUS
 10
200.188691622
 20
83.6804360465
 11
199.1886918605
 21
83.6804360465
  0
LINE
  5
65D
100
AcDbEntity
  8
0
100
AcDbLine
 62
7
  6
CONTINUOUS
 10
194.3348591142
 20
83.6804360465
 11
190.2386918605
 21
83.6804360465
  0
LINE
  5
65E
100
AcDbEntity
  8
BEZUGSACHSEN
100
AcDbLine
 62
7
  6
CONTINUOUS
 10
146.2386918605
 20
83.6804360465
 11
121.8328442605
 21
83.6804360465
  0
LINE
  5
65F
100
AcDbEntity
  8
BEZUGSACHSEN
100
AcDbLine
 62
7
  6
CONTINUOUS
 10
190.2386918605
 20
83.6804360465
 11
194.3348591142
 21
83.6804360465
  0
LINE
  5
660
100
AcDbEntity
  8
BEZUGSACHSEN
100
AcDbLine
 62
7
  6
CONTINUOUS
 10
199.1886918605
 20
83.6804360465
 11
200.188691622
 21
83.6804360465
  0
LINE
  5
661
100
AcDbEntity
  8
BEZUGSACHSEN
100
AcDbLine
 62
7
  6
CONTINUOUS
 10
200.938691622
 20
83.6804360465
 11
203.938691622
 21
83.6804360465
  0
LINE
  5
662
100
AcDbEntity
  8
BEZUGSACHSEN
100
AcDbLine
 62
7
  6
CONTINUOUS
 10
204.6886919797
 20
83.6804360465
 11
205.8278034418
 21
83.6804360465
  0
LINE
  5
663
100
AcDbEntity
  8
BEZUGSACHSEN
100
AcDbLine
 62
7
  6
CONTINUOUS
 10
210.4386918605
 20
83.6804360465
 11
214.6445394604
 21
83.6804360465
  0
LINE
  5
664
100
AcDbEntity
  8
0
100
AcDbLine
 62
7
  6
CONTINUOUS
 10
196.1886918605
 20
84.1500541039
 11
199.1886918605
 21
84.1500541039
  0
LINE
  5
665
100
AcDbEntity
  8
0
100
AcDbLine
 62
7
  6
CONTINUOUS
 10
200.188691622
 20
84.1500541039
 11
200.938691622
 21
84.1500541039
  0
LINE
  5
666
100
AcDbEntity
  8
0
100
AcDbLine
 62
7
  6
CONTINUOUS
 10
203.938691622
 20
84.1500541039
 11
204.6886919797
 21
84.1500541039
  0
LINE
  5
667
100
AcDbEntity
  8
0
100
AcDbLine
 62
7
  6
CONTINUOUS
 10
207.4386918605
 20
84.1500541039
 11
210.4386918605
 21
84.1500541039
  0
LINE
  5
668
100
AcDbEntity
  8
0
100
AcDbLine
 62
7
  6
CONTINUOUS
 10
207.3136919797
 20
84.1718721003
 11
209.6886918605
 21
84.1718721003
  0
LINE
  5
669
100
AcDbEntity
  8
0
100
AcDbLine
 62
7
  6
CONTINUOUS
 10
196.1886918605
 20
84.1746305834
 11
198.4386918605
 21
84.1746305834
  0
LINE
  5
66A
100
AcDbEntity
  8
0
100
AcDbLine
 62
7
  6
CONTINUOUS
 10
127.6186918605
 20
84.1804360465
 11
131.2586918605
 21
84.1804360465
  0
LINE
  5
66B
100
AcDbEntity
  8
0
100
AcDbLine
 62
7
  6
CONTINUOUS
 10
133.2386918605
 20
84.1804360465
 11
136.8786918605
 21
84.1804360465
  0
LINE
  5
66C
100
AcDbEntity
  8
0
100
AcDbLine
 62
7
  6
CONTINUOUS
 10
194.1886923373
 20
84.1804360465
 11
194.3348591142
 21
84.1804360465
  0
LINE
  5
66D
100
AcDbEntity
  8
0
100
AcDbLine
 62
7
  6
CONTINUOUS
 10
194.5636923373
 20
84.1804360465
 11
199.1886918605
 21
84.1804360465
  0
LINE
  5
66E
100
AcDbEntity
  8
0
100
AcDbLine
 62
7
  6
CONTINUOUS
 10
200.188691622
 20
84.1804360465
 11
204.6886919797
 21
84.1804360465
  0
LINE
  5
66F
100
AcDbEntity
  8
0
100
AcDbLine
 62
7
  6
CONTINUOUS
 10
205.6886917413
 20
84.1804360465
 11
210.4386918605
 21
84.1804360465
  0
LWPOLYLINE
  5
670
100
AcDbEntity
  8
BEZUGSACHSEN
100
AcDbPolyline
 62
7
  6
CONTINUOUS
 90
7
 70
0
 10
217.6348440051
 20
83.1804026087
 10
217.5050269267
 20
83.1825100747
 10
217.2280527227
 20
83.2011454095
 10
216.9530415547
 20
83.2389499196
 10
216.6813224618
 20
83.2957399193
 10
216.4142083436
 20
83.371239189
 10
216.3345924558
 20
83.3976817423
  0
LINE
  5
671
100
AcDbEntity
  8
0
100
AcDbLine
 62
7
  6
CONTINUOUS
 10
239.4104039382
 20
62.4476700727
 11
240.0198042399
 21
62.3104360465
  0
LINE
  5
672
100
AcDbEntity
  8
0
100
AcDbLine
 62
7
  6
CONTINUOUS
 10
239.4417624772
 20
62.4476700727
 11
240.0511627789
 21
62.3104360465
  0
LINE
  5
673
100
AcDbEntity
  8
0
100
AcDbLine
 62
7
  6
CONTINUOUS
 10
228.5630746622
 20
65.192350981
 11
229.1724742665
 21
65.0551169548
  0
LINE
  5
674
100
AcDbEntity
  8
0
100
AcDbLine
 62
7
  6
CONTINUOUS
 10
228.5944332012
 20
65.192350981
 11
229.2038328055
 21
65.0551169548
  0
LINE
  5
675
100
AcDbEntity
  8
0
100
AcDbLine
 62
7
  6
CONTINUOUS
 10
230.7882751242
 20
68.6232020083
 11
230.1788741251
 21
68.7604360465
  0
LINE
  5
676
100
AcDbEntity
  8
0
100
AcDbLine
 62
7
  6
CONTINUOUS
 10
229.2038328055
 20
65.878521112
 11
228.7163128431
 21
66.0157551382
  0
LINE
  5
677
100
AcDbEntity
  8
0
100
AcDbLine
 62
7
  6
CONTINUOUS
 10
230.4226348037
 20
65.7412870858
 11
229.9351134465
 21
65.878521112
  0
LINE
  5
678
100
AcDbEntity
  8
0
100
AcDbLine
 62
7
  6
CONTINUOUS
 10
230.1765717451
 20
67.9288526539
 11
230.6350355486
 21
67.799797767
  0
LINE
  5
679
100
AcDbEntity
  8
0
100
AcDbLine
 62
7
  6
CONTINUOUS
 10
230.1788741251
 20
67.9370317932
 11
230.6663940875
 21
67.799797767
  0
LINE
  5
67A
100
AcDbEntity
  8
0
100
AcDbLine
 62
7
  6
CONTINUOUS
 10
190.2386918605
 20
54.6804360465
 11
190.2386918605
 21
56.6804360465
  0
LINE
  5
67B
100
AcDbEntity
  8
BEZUGSACHSEN
100
AcDbLine
 62
7
  6
CONTINUOUS
 10
190.2386918605
 20
81.6804360465
 11
190.2386918605
 21
83.6804360465
  0
LINE
  5
67C
100
AcDbEntity
  8
0
100
AcDbLine
 62
7
  6
CONTINUOUS
 10
107.7610708778
 20
70.561074326
 11
107.2735509154
 21
70.4238402998
  0
LWPOLYLINE
  5
67D
100
AcDbEntity
  8
BEZUGSACHSEN
100
AcDbPolyline
 62
7
  6
CONTINUOUS
 90
5
 70
0
 10
121.8295616007
 20
83.6804308283
 10
121.4296740421
 20
83.6647360048
 10
121.043543936
 20
83.6200336231
 10
120.6619746434
 20
83.5466143183
 10
120.2875196173
 20
83.4451023755
  0
LINE
  5
67E
100
AcDbEntity
  8
0
100
AcDbLine
 62
7
  6
CONTINUOUS
 10
241.9031351024
 20
71.7980956058
 11
242.4998482396
 21
71.6704360465
  0
LINE
  5
67F
100
AcDbEntity
  8
0
100
AcDbLine
 62
7
  6
CONTINUOUS
 10
241.9344936414
 20
71.7980956058
 11
242.5312067786
 21
71.6704360465
  0
LINE
  5
680
100
AcDbEntity
  8
0
100
AcDbLine
 62
7
  6
CONTINUOUS
 10
238.3542151026
 20
77.5427764761
 11
237.7575019654
 21
77.6704360465
  0
LINE
  5
681
100
AcDbEntity
  8
0
100
AcDbLine
 62
7
  6
CONTINUOUS
 10
242.5312067786
 20
72.3087338428
 11
242.0339460206
 21
72.436393402
  0
LINE
  5
682
100
AcDbEntity
  8
0
100
AcDbLine
 62
7
  6
CONTINUOUS
 10
229.2038328055
 20
63.1338402037
 11
228.838192485
 21
63.2710742299
  0
LINE
  5
683
100
AcDbEntity
  8
0
100
AcDbLine
 62
7
  6
CONTINUOUS
 10
234.3227972926
 20
63.1338402037
 11
233.9571569721
 21
63.2710742299
  0
LINE
  5
684
100
AcDbEntity
  8
0
100
AcDbLine
 62
7
  6
CONTINUOUS
 10
229.9351134465
 20
65.0551169548
 11
230.300753767
 21
64.9178829286
  0
LINE
  5
685
100
AcDbEntity
  8
0
100
AcDbLine
 62
7
  6
CONTINUOUS
 10
239.9292824396
 20
62.9966061775
 11
239.5636421191
 21
63.1338402037
  0
LINE
  5
686
100
AcDbEntity
  8
0
100
AcDbLine
 62
7
  6
CONTINUOUS
 10
234.3227972926
 20
65.878521112
 11
233.9571569721
 21
66.0157551382
  0
LINE
  5
687
100
AcDbEntity
  8
0
100
AcDbLine
 62
7
  6
CONTINUOUS
 10
194.1886923373
 20
83.6804360465
 11
194.1886923373
 21
84.1804360465
  0
LINE
  5
688
100
AcDbEntity
  8
0
100
AcDbLine
 62
7
  6
CONTINUOUS
 10
194.3136918605
 20
83.6804360465
 11
194.3136918605
 21
84.1804360465
  0
LINE
  5
689
100
AcDbEntity
  8
0
100
AcDbLine
 62
7
  6
CONTINUOUS
 10
194.5636923373
 20
83.6767947315
 11
194.5636923373
 21
84.1768544323
  0
LINE
  5
68A
100
AcDbEntity
  8
0
100
AcDbLine
 62
7
  6
CONTINUOUS
 10
195.0636918605
 20
83.664489061
 11
195.0636918605
 21
84.1647506226
  0
LINE
  5
68B
100
AcDbEntity
  8
0
100
AcDbLine
 62
7
  6
CONTINUOUS
 10
195.5636913836
 20
83.6550723584
 11
195.5636913836
 21
84.1554884998
  0
LINE
  5
68C
100
AcDbEntity
  8
0
100
AcDbLine
 62
7
  6
CONTINUOUS
 10
196.1886918605
 20
83.6495472206
 11
196.1886918605
 21
84.1500541039
  0
LINE
  5
68D
100
AcDbEntity
  8
0
100
AcDbLine
 62
7
  6
CONTINUOUS
 10
228.5630746622
 20
68.6232020083
 11
228.075553305
 21
68.3487339199
  0
LINE
  5
68E
100
AcDbEntity
  8
0
100
AcDbLine
 62
7
  6
CONTINUOUS
 10
228.5944332012
 20
68.6232020083
 11
228.106911844
 21
68.3487339199
  0
LINE
  5
68F
100
AcDbEntity
  8
0
100
AcDbLine
 62
7
  6
CONTINUOUS
 10
233.9571569721
 20
67.799797767
 11
234.3227972926
 21
67.9370317932
  0
LINE
  5
690
100
AcDbEntity
  8
0
100
AcDbLine
 62
7
  6
CONTINUOUS
 10
233.9571569721
 20
64.9178829286
 11
234.3227972926
 21
65.0551169548
  0
LINE
  5
691
100
AcDbEntity
  8
0
100
AcDbLine
 62
7
  6
CONTINUOUS
 10
230.269395228
 20
63.2710742299
 11
229.9312414453
 21
63.1441565939
  0
LINE
  5
692
100
AcDbEntity
  8
0
100
AcDbLine
 62
7
  6
CONTINUOUS
 10
230.300753767
 20
63.2710742299
 11
229.9351134465
 21
63.1338402037
  0
LINE
  5
693
100
AcDbEntity
  8
0
100
AcDbLine
 62
7
  6
CONTINUOUS
 10
239.5636421191
 20
64.9178829286
 11
239.9292824396
 21
65.0551169548
  0
LINE
  5
694
100
AcDbEntity
  8
RUNDUNGEN
100
AcDbLine
 62
7
  6
CONTINUOUS
 10
216.3344612208
 20
54.9631342969
 11
216.3344205153
 21
54.9631202628
  0
LINE
  5
695
100
AcDbEntity
  8
RUNDUNGEN
100
AcDbLine
 62
7
  6
CONTINUOUS
 10
216.1957652828
 20
54.9176117237
 11
216.4269080988
 21
54.9936801077
  0
LWPOLYLINE
  5
696
100
AcDbEntity
  8
BEZUGSACHSEN
100
AcDbPolyline
 62
7
  6
CONTINUOUS
 90
6
 70
0
 10
120.0631833699
 20
83.371248989
 10
119.7960688652
 20
83.2957494878
 10
119.524349295
 20
83.2389592822
 10
119.2493375702
 20
83.2011546072
 10
118.972362743
 20
83.1825191612
 10
118.8425465222
 20
83.1804116648
  0
LINE
  5
697
100
AcDbEntity
  8
0
100
AcDbLine
 62
7
  6
CONTINUOUS
 10
106.5422702744
 20
76.0504360465
 11
106.0547489172
 21
75.9132020203
  0
LINE
  5
698
100
AcDbEntity
  8
0
100
AcDbLine
 62
7
  6
CONTINUOUS
 10
243.1279199158
 20
77.5427764761
 11
242.5312067786
 21
77.6704360465
  0
LINE
  5
699
100
AcDbEntity
  8
0
100
AcDbLine
 62
7
  6
CONTINUOUS
 10
237.7261434264
 20
77.1597977648
 11
238.2234041844
 21
77.0321381609
  0
LINE
  5
69A
100
AcDbEntity
  8
0
100
AcDbLine
 62
7
  6
CONTINUOUS
 10
237.7575019654
 20
77.1597977648
 11
238.2547627234
 21
77.0321381609
  0
LINE
  5
69B
100
AcDbEntity
  8
0
100
AcDbLine
 62
7
  6
CONTINUOUS
 10
242.529267796
 20
77.0245854124
 11
242.9971092822
 21
76.9044786016
  0
LINE
  5
69C
100
AcDbEntity
  8
0
100
AcDbLine
 62
7
  6
CONTINUOUS
 10
242.5312067786
 20
77.0321381609
 11
243.0284678212
 21
76.9044786016
  0
LWPOLYLINE
  5
69D
100
AcDbEntity
  8
BEZUGSACHSEN
100
AcDbPolyline
 62
7
  6
CONTINUOUS
 90
6
 70
0
 10
216.33463772
 20
83.3976771227
 10
216.1845216287
 20
83.4467633636
 10
215.8044954477
 20
83.5491281241
 10
215.4172084447
 20
83.62256554
 10
215.0253260007
 20
83.6664323863
 10
214.6478580205
 20
83.6804308036
  0
LINE
  5
69E
100
AcDbEntity
  8
0
100
AcDbLine
 62
7
  6
CONTINUOUS
 10
228.075553305
 20
65.4668190334
 11
228.5630746622
 21
65.192350981
  0
LINE
  5
69F
100
AcDbEntity
  8
0
100
AcDbLine
 62
7
  6
CONTINUOUS
 10
228.106911844
 20
65.4668190334
 11
228.5944332012
 21
65.192350981
  0
LINE
  5
6A0
100
AcDbEntity
  8
0
100
AcDbLine
 62
7
  6
CONTINUOUS
 10
230.9101547661
 20
65.4668190334
 11
230.4226348037
 21
65.7412870858
  0
LINE
  5
6A1
100
AcDbEntity
  8
0
100
AcDbLine
 62
7
  6
CONTINUOUS
 10
233.3163988288
 20
65.6040530596
 11
233.5601581126
 21
65.4668190334
  0
LINE
  5
6A2
100
AcDbEntity
  8
0
100
AcDbLine
 62
7
  6
CONTINUOUS
 10
233.3477573678
 20
65.6040530596
 11
233.5915166516
 21
65.4668190334
  0
LINE
  5
6A3
100
AcDbEntity
  8
0
100
AcDbLine
 62
7
  6
CONTINUOUS
 10
198.4386918605
 20
84.1804360465
 11
198.4386918605
 21
84.1746305834
  0
LINE
  5
6A4
100
AcDbEntity
  8
0
100
AcDbLine
 62
7
  6
CONTINUOUS
 10
199.1886918605
 20
83.6495472206
 11
199.1886918605
 21
84.1804360465
  0
LINE
  5
6A5
100
AcDbEntity
  8
0
100
AcDbLine
 62
7
  6
CONTINUOUS
 10
200.188691622
 20
83.6495472206
 11
200.188691622
 21
84.1804360465
  0
LINE
  5
6A6
100
AcDbEntity
  8
0
100
AcDbLine
 62
7
  6
CONTINUOUS
 10
200.938691622
 20
83.6495472206
 11
200.938691622
 21
84.1804360465
  0
LINE
  5
6A7
100
AcDbEntity
  8
0
100
AcDbLine
 62
7
  6
CONTINUOUS
 10
201.0636918605
 20
83.6804360465
 11
201.0636918605
 21
84.1804360465
  0
LINE
  5
6A8
100
AcDbEntity
  8
0
100
AcDbLine
 62
7
  6
CONTINUOUS
 10
201.313691622
 20
83.6804360465
 11
201.313691622
 21
84.1804360465
  0
LINE
  5
6A9
100
AcDbEntity
  8
0
100
AcDbLine
 62
7
  6
CONTINUOUS
 10
201.688691622
 20
83.6804360465
 11
201.688691622
 21
84.1804360465
  0
LINE
  5
6AA
100
AcDbEntity
  8
0
100
AcDbLine
 62
7
  6
CONTINUOUS
 10
202.1886918605
 20
83.6804360465
 11
202.1886918605
 21
84.1804360465
  0
LINE
  5
6AB
100
AcDbEntity
  8
0
100
AcDbLine
 62
7
  6
CONTINUOUS
 10
202.6886920989
 20
83.6804360465
 11
202.6886920989
 21
84.1804360465
  0
LINE
  5
6AC
100
AcDbEntity
  8
0
100
AcDbLine
 62
7
  6
CONTINUOUS
 10
203.188691622
 20
83.6804360465
 11
203.188691622
 21
84.1804360465
  0
LINE
  5
6AD
100
AcDbEntity
  8
0
100
AcDbLine
 62
7
  6
CONTINUOUS
 10
203.563691622
 20
83.6804360465
 11
203.563691622
 21
84.1804360465
  0
LINE
  5
6AE
100
AcDbEntity
  8
0
100
AcDbLine
 62
7
  6
CONTINUOUS
 10
203.8136920989
 20
83.6804360465
 11
203.8136920989
 21
84.1804360465
  0
LINE
  5
6AF
100
AcDbEntity
  8
0
100
AcDbLine
 62
7
  6
CONTINUOUS
 10
203.938691622
 20
83.6495472206
 11
203.938691622
 21
84.1804360465
  0
LINE
  5
6B0
100
AcDbEntity
  8
0
100
AcDbLine
 62
7
  6
CONTINUOUS
 10
204.6886919797
 20
83.6495472206
 11
204.6886919797
 21
84.1804360465
  0
LINE
  5
6B1
100
AcDbEntity
  8
0
100
AcDbLine
 62
7
  6
CONTINUOUS
 10
205.6886917413
 20
83.6804360465
 11
205.6886917413
 21
84.1804360465
  0
LINE
  5
6B2
100
AcDbEntity
  8
0
100
AcDbLine
 62
7
  6
CONTINUOUS
 10
228.3506725226
 20
67.5253296185
 11
228.7163128431
 21
67.799797767
  0
LINE
  5
6B3
100
AcDbEntity
  8
0
100
AcDbLine
 62
7
  6
CONTINUOUS
 10
233.5601581126
 20
65.4668190334
 11
233.3163988288
 21
65.3295850072
  0
LINE
  5
6B4
100
AcDbEntity
  8
0
100
AcDbLine
 62
7
  6
CONTINUOUS
 10
233.5915166516
 20
65.4668190334
 11
233.3477573678
 21
65.3295850072
  0
LINE
  5
6B5
100
AcDbEntity
  8
0
100
AcDbLine
 62
7
  6
CONTINUOUS
 10
230.4226348037
 20
62.4476700727
 11
230.9101547661
 21
62.7221381251
  0
LINE
  5
6B6
100
AcDbEntity
  8
0
100
AcDbLine
 62
7
  6
CONTINUOUS
 10
238.6525716712
 20
77.4151169057
 11
238.3542151026
 21
77.5427764761
  0
LINE
  5
6B7
100
AcDbEntity
  8
0
100
AcDbLine
 62
7
  6
CONTINUOUS
 10
231.3976747286
 20
68.2114998937
 11
230.7882751242
 21
68.6232020083
  0
LINE
  5
6B8
100
AcDbEntity
  8
0
100
AcDbLine
 62
7
  6
CONTINUOUS
 10
228.7163128431
 20
66.0157551382
 11
228.3506725226
 21
66.2902231906
  0
LINE
  5
6B9
100
AcDbEntity
  8
0
100
AcDbLine
 62
7
  6
CONTINUOUS
 10
230.269395228
 20
64.9178829286
 11
230.6350355486
 21
64.6434148763
  0
LINE
  5
6BA
100
AcDbEntity
  8
0
100
AcDbLine
 62
7
  6
CONTINUOUS
 10
230.300753767
 20
64.9178829286
 11
230.6663940875
 21
64.6434148763
  0
LINE
  5
6BB
100
AcDbEntity
  8
0
100
AcDbLine
 62
7
  6
CONTINUOUS
 10
228.1974343417
 20
62.8593721513
 11
228.6849543041
 21
62.4476700727
  0
LINE
  5
6BC
100
AcDbEntity
  8
0
100
AcDbLine
 62
7
  6
CONTINUOUS
 10
228.2287928807
 20
62.8593721513
 11
228.7163128431
 21
62.4476700727
  0
LINE
  5
6BD
100
AcDbEntity
  8
0
100
AcDbLine
 62
7
  6
CONTINUOUS
 10
233.3163988288
 20
62.8593721513
 11
233.8039187912
 21
62.4476700727
  0
LINE
  5
6BE
100
AcDbEntity
  8
0
100
AcDbLine
 62
7
  6
CONTINUOUS
 10
233.3477573678
 20
62.8593721513
 11
233.8352773302
 21
62.4476700727
  0
LINE
  5
6BF
100
AcDbEntity
  8
0
100
AcDbLine
 62
7
  6
CONTINUOUS
 10
205.8136919797
 20
83.6804360465
 11
205.8136919797
 21
84.1804360465
  0
LINE
  5
6C0
100
AcDbEntity
  8
0
100
AcDbLine
 62
7
  6
CONTINUOUS
 10
205.9386918605
 20
83.6785122238
 11
205.9386918605
 21
84.1785437638
  0
LINE
  5
6C1
100
AcDbEntity
  8
0
100
AcDbLine
 62
7
  6
CONTINUOUS
 10
206.3136918605
 20
83.6683811389
 11
206.3136918605
 21
84.1685788378
  0
LINE
  5
6C2
100
AcDbEntity
  8
0
100
AcDbLine
 62
7
  6
CONTINUOUS
 10
206.8136917413
 20
83.6550723584
 11
206.8136917413
 21
84.1554884998
  0
LINE
  5
6C3
100
AcDbEntity
  8
0
100
AcDbLine
 62
7
  6
CONTINUOUS
 10
207.4386918605
 20
83.6495472206
 11
207.4386918605
 21
84.1500541039
  0
LINE
  5
6C4
100
AcDbEntity
  8
0
100
AcDbLine
 62
7
  6
CONTINUOUS
 10
209.6886918605
 20
84.1804360465
 11
209.6886918605
 21
84.1718721003
  0
LINE
  5
6C5
100
AcDbEntity
  8
0
100
AcDbLine
 62
7
  6
CONTINUOUS
 10
210.4386918605
 20
83.6495472206
 11
210.4386918605
 21
84.1804360465
  0
LINE
  5
6C6
100
AcDbEntity
  8
0
100
AcDbLine
 62
7
  6
CONTINUOUS
 10
241.735589452
 20
76.6491594831
 11
242.0339460206
 21
76.9044786016
  0
LINE
  5
6C7
100
AcDbEntity
  8
0
100
AcDbLine
 62
7
  6
CONTINUOUS
 10
233.8039187912
 20
68.6232020083
 11
233.3163988288
 21
68.2114998937
  0
LINE
  5
6C8
100
AcDbEntity
  8
0
100
AcDbLine
 62
7
  6
CONTINUOUS
 10
233.8352773302
 20
68.6232020083
 11
233.3477573678
 21
68.2114998937
  0
LINE
  5
6C9
100
AcDbEntity
  8
0
100
AcDbLine
 62
7
  6
CONTINUOUS
 10
241.9031351024
 20
77.5427764761
 11
241.4058740599
 21
77.1597977648
  0
LINE
  5
6CA
100
AcDbEntity
  8
0
100
AcDbLine
 62
7
  6
CONTINUOUS
 10
241.9344936414
 20
77.5427764761
 11
241.4372325989
 21
77.1597977648
  0
LINE
  5
6CB
100
AcDbEntity
  8
0
100
AcDbLine
 62
7
  6
CONTINUOUS
 10
243.1279199158
 20
71.7980956058
 11
243.6251809584
 21
72.1810742835
  0
LINE
  5
6CC
100
AcDbEntity
  8
0
100
AcDbLine
 62
7
  6
CONTINUOUS
 10
230.6350355486
 20
63.5455422823
 11
230.269395228
 21
63.2710742299
  0
LINE
  5
6CD
100
AcDbEntity
  8
0
100
AcDbLine
 62
7
  6
CONTINUOUS
 10
230.6663940875
 20
63.5455422823
 11
230.300753767
 21
63.2710742299
  0
LINE
  5
6CE
100
AcDbEntity
  8
0
100
AcDbLine
 62
7
  6
CONTINUOUS
 10
239.4104039382
 20
65.6040530596
 11
238.9228832784
 21
65.3295850072
  0
LINE
  5
6CF
100
AcDbEntity
  8
0
100
AcDbLine
 62
7
  6
CONTINUOUS
 10
239.4417624772
 20
65.6040530596
 11
238.9542418174
 21
65.3295850072
  0
LINE
  5
6D0
100
AcDbEntity
  8
0
100
AcDbLine
 62
7
  6
CONTINUOUS
 10
238.9228832784
 20
62.8593721513
 11
239.4104039382
 21
62.4476700727
  0
LINE
  5
6D1
100
AcDbEntity
  8
0
100
AcDbLine
 62
7
  6
CONTINUOUS
 10
238.9542418174
 20
62.8593721513
 11
239.4417624772
 21
62.4476700727
  0
LINE
  5
6D2
100
AcDbEntity
  8
0
100
AcDbLine
 62
7
  6
CONTINUOUS
 10
228.838192485
 20
63.2710742299
 11
228.5944332012
 21
63.5455422823
  0
LINE
  5
6D3
100
AcDbEntity
  8
0
100
AcDbLine
 62
7
  6
CONTINUOUS
 10
227.5880333426
 20
66.0157551382
 11
228.075553305
 21
65.4668190334
  0
LINE
  5
6D4
100
AcDbEntity
  8
0
100
AcDbLine
 62
7
  6
CONTINUOUS
 10
227.6193918816
 20
66.0157551382
 11
228.106911844
 21
65.4668190334
  0
LINE
  5
6D5
100
AcDbEntity
  8
0
100
AcDbLine
 62
7
  6
CONTINUOUS
 10
231.3976747286
 20
64.9178829286
 11
230.9101547661
 21
65.4668190334
  0
LINE
  5
6D6
100
AcDbEntity
  8
RUNDUNGEN
100
AcDbLine
 62
7
  6
CONTINUOUS
 10
221.6133549335
 20
26.3442083404
 11
219.752387122
 21
44.0501343366
  0
LINE
  5
6D7
100
AcDbEntity
  8
RUNDUNGEN
100
AcDbLine
 62
7
  6
CONTINUOUS
 10
219.7386918605
 20
44.3114400224
 11
219.7386918605
 21
58.8937395423
  0
LINE
  5
6D8
100
AcDbEntity
  8
RUNDUNGEN
100
AcDbLine
 62
7
  6
CONTINUOUS
 10
219.7386918605
 20
79.4671325507
 11
219.7386918605
 21
94.0494321188
  0
LINE
  5
6D9
100
AcDbEntity
  8
RUNDUNGEN
100
AcDbLine
 62
7
  6
CONTINUOUS
 10
219.752387122
 20
94.3107377565
 11
221.6133549335
 21
112.0166637527
  0
LINE
  5
6DA
100
AcDbEntity
  8
0
100
AcDbLine
 62
7
  6
CONTINUOUS
 10
228.075553305
 20
68.3487339199
 11
227.5880333426
 21
67.799797767
  0
LINE
  5
6DB
100
AcDbEntity
  8
0
100
AcDbLine
 62
7
  6
CONTINUOUS
 10
228.106911844
 20
68.3487339199
 11
227.6193918816
 21
67.799797767
  0
LINE
  5
6DC
100
AcDbEntity
  8
0
100
AcDbLine
 62
7
  6
CONTINUOUS
 10
233.7133976883
 20
67.5253296185
 11
233.9571569721
 21
67.799797767
  0
LINE
  5
6DD
100
AcDbEntity
  8
0
100
AcDbLine
 62
7
  6
CONTINUOUS
 10
230.9101547661
 20
62.7221381251
 11
231.3976747286
 21
63.2710742299
  0
LINE
  5
6DE
100
AcDbEntity
  8
0
100
AcDbLine
 62
7
  6
CONTINUOUS
 10
233.7133976883
 20
64.6434148763
 11
233.9571569721
 21
64.9178829286
  0
LINE
  5
6DF
100
AcDbEntity
  8
0
100
AcDbLine
 62
7
  6
CONTINUOUS
 10
243.2954658508
 20
72.6917125205
 11
242.9971092822
 21
72.436393402
  0
LINE
  5
6E0
100
AcDbEntity
  8
0
100
AcDbLine
 62
7
  6
CONTINUOUS
 10
243.3268243898
 20
72.6917125205
 11
243.0284678212
 21
72.436393402
  0
LINE
  5
6E1
100
AcDbEntity
  8
RUNDUNGEN
100
AcDbLine
 62
7
  6
CONTINUOUS
 10
99.0524003594
 20
119.1804360465
 11
106.9078536244
 21
119.1804360465
  0
LINE
  5
6E2
100
AcDbEntity
  8
RUNDUNGEN
100
AcDbLine
 62
7
  6
CONTINUOUS
 10
229.5695300965
 20
119.1804360465
 11
237.4249833615
 21
119.1804360465
  0
LINE
  5
6E3
100
AcDbEntity
  8
0
100
AcDbLine
 62
7
  6
CONTINUOUS
 10
241.4058740599
 20
72.1810742835
 11
241.9031351024
 21
71.7980956058
  0
LINE
  5
6E4
100
AcDbEntity
  8
0
100
AcDbLine
 62
7
  6
CONTINUOUS
 10
241.4372325989
 20
72.1810742835
 11
241.9344936414
 21
71.7980956058
  0
LINE
  5
6E5
100
AcDbEntity
  8
0
100
AcDbLine
 62
7
  6
CONTINUOUS
 10
242.0339460206
 20
72.436393402
 11
241.735589452
 21
72.6917125205
  0
LINE
  5
6E6
100
AcDbEntity
  8
0
100
AcDbLine
 62
7
  6
CONTINUOUS
 10
238.2234041844
 20
77.0321381609
 11
238.521760753
 21
76.7768190424
  0
LINE
  5
6E7
100
AcDbEntity
  8
0
100
AcDbLine
 62
7
  6
CONTINUOUS
 10
238.2547627234
 20
77.0321381609
 11
238.553119292
 21
76.7768190424
  0
LINE
  5
6E8
100
AcDbEntity
  8
0
100
AcDbLine
 62
7
  6
CONTINUOUS
 10
238.9509282398
 20
77.1597977648
 11
238.6525716712
 21
77.4151169057
  0
LINE
  5
6E9
100
AcDbEntity
  8
0
100
AcDbLine
 62
7
  6
CONTINUOUS
 10
233.9571569721
 20
63.2710742299
 11
233.7133976883
 21
63.5455422823
  0
LINE
  5
6EA
100
AcDbEntity
  8
0
100
AcDbLine
 62
7
  6
CONTINUOUS
 10
230.6350355486
 20
67.799797767
 11
231.0006758691
 21
67.3880955924
  0
LINE
  5
6EB
100
AcDbEntity
  8
0
100
AcDbLine
 62
7
  6
CONTINUOUS
 10
230.6663940875
 20
67.799797767
 11
231.032034408
 21
67.3880955924
  0
LINE
  5
6EC
100
AcDbEntity
  8
0
100
AcDbLine
 62
7
  6
CONTINUOUS
 10
233.9571569721
 20
66.0157551382
 11
233.7133976883
 21
66.2902231906
  0
LINE
  5
6ED
100
AcDbEntity
  8
0
100
AcDbLine
 62
7
  6
CONTINUOUS
 10
239.5636421191
 20
63.1338402037
 11
239.3198821379
 21
63.4083082561
  0
LINE
  5
6EE
100
AcDbEntity
  8
0
100
AcDbLine
 62
7
  6
CONTINUOUS
 10
227.8317940212
 20
63.4083082561
 11
228.1974343417
 21
62.8593721513
  0
LINE
  5
6EF
100
AcDbEntity
  8
0
100
AcDbLine
 62
7
  6
CONTINUOUS
 10
227.8631525602
 20
63.4083082561
 11
228.2287928807
 21
62.8593721513
  0
LINE
  5
6F0
100
AcDbEntity
  8
0
100
AcDbLine
 62
7
  6
CONTINUOUS
 10
232.9507585083
 20
63.4083082561
 11
233.3163988288
 21
62.8593721513
  0
LINE
  5
6F1
100
AcDbEntity
  8
0
100
AcDbLine
 62
7
  6
CONTINUOUS
 10
232.9821170473
 20
63.4083082561
 11
233.3477573678
 21
62.8593721513
  0
LINE
  5
6F2
100
AcDbEntity
  8
0
100
AcDbLine
 62
7
  6
CONTINUOUS
 10
228.3506725226
 20
66.2902231906
 11
228.106911844
 21
66.7019254614
  0
LINE
  5
6F3
100
AcDbEntity
  8
RUNDUNGEN
100
AcDbLine
 62
7
  6
CONTINUOUS
 10
220.5912106582
 20
61.6804360465
 11
220.5912106582
 21
76.6804360465
  0
LINE
  5
6F4
100
AcDbEntity
  8
0
100
AcDbLine
 62
7
  6
CONTINUOUS
 10
227.344272664
 20
67.2508615662
 11
227.344272664
 21
66.5646914352
  0
LINE
  5
6F5
100
AcDbEntity
  8
0
100
AcDbLine
 62
7
  6
CONTINUOUS
 10
227.3756312029
 20
67.2508615662
 11
227.3756312029
 21
66.5646914352
  0
LINE
  5
6F6
100
AcDbEntity
  8
0
100
AcDbLine
 62
7
  6
CONTINUOUS
 10
227.5880333426
 20
67.799797767
 11
227.344272664
 21
67.2508615662
  0
LINE
  5
6F7
100
AcDbEntity
  8
0
100
AcDbLine
 62
7
  6
CONTINUOUS
 10
227.6193918816
 20
67.799797767
 11
227.3756312029
 21
67.2508615662
  0
LINE
  5
6F8
100
AcDbEntity
  8
0
100
AcDbLine
 62
7
  6
CONTINUOUS
 10
228.106911844
 20
67.11362754
 11
228.3506725226
 21
67.5253296185
  0
LINE
  5
6F9
100
AcDbEntity
  8
0
100
AcDbLine
 62
7
  6
CONTINUOUS
 10
233.3163988288
 20
68.2114998937
 11
232.9507585083
 21
67.6625637409
  0
LINE
  5
6FA
100
AcDbEntity
  8
0
100
AcDbLine
 62
7
  6
CONTINUOUS
 10
233.3477573678
 20
68.2114998937
 11
232.9821170473
 21
67.6625637409
  0
LINE
  5
6FB
100
AcDbEntity
  8
0
100
AcDbLine
 62
7
  6
CONTINUOUS
 10
233.3163988288
 20
65.3295850072
 11
232.9507585083
 21
64.7806489024
  0
LINE
  5
6FC
100
AcDbEntity
  8
0
100
AcDbLine
 62
7
  6
CONTINUOUS
 10
233.3477573678
 20
65.3295850072
 11
232.9821170473
 21
64.7806489024
  0
LINE
  5
6FD
100
AcDbEntity
  8
0
100
AcDbLine
 62
7
  6
CONTINUOUS
 10
241.4058740599
 20
77.1597977648
 11
241.1075174913
 21
76.7768190424
  0
LINE
  5
6FE
100
AcDbEntity
  8
0
100
AcDbLine
 62
7
  6
CONTINUOUS
 10
241.4372325989
 20
77.1597977648
 11
241.1388760303
 21
76.7768190424
  0
LINE
  5
6FF
100
AcDbEntity
  8
0
100
AcDbLine
 62
7
  6
CONTINUOUS
 10
243.6251809584
 20
72.1810742835
 11
243.923537527
 21
72.5640529613
  0
LINE
  5
700
100
AcDbEntity
  8
0
100
AcDbLine
 62
7
  6
CONTINUOUS
 10
239.3198821379
 20
64.6434148763
 11
239.5636421191
 21
64.9178829286
  0
LINE
  5
701
100
AcDbEntity
  8
0
100
AcDbLine
 62
7
  6
CONTINUOUS
 10
243.6251809584
 20
77.1597977648
 11
243.1279199158
 21
77.5427764761
  0
LINE
  5
702
100
AcDbEntity
  8
0
100
AcDbLine
 62
7
  6
CONTINUOUS
 10
242.9971092822
 20
76.9044786016
 11
243.2954658508
 21
76.6491594831
  0
LINE
  5
703
100
AcDbEntity
  8
0
100
AcDbLine
 62
7
  6
CONTINUOUS
 10
243.0284678212
 20
76.9044786016
 11
243.3268243898
 21
76.6491594831
  0
LINE
  5
704
100
AcDbEntity
  8
0
100
AcDbLine
 62
7
  6
CONTINUOUS
 10
232.9507585083
 20
66.1529891644
 11
233.3163988288
 21
65.6040530596
  0
LINE
  5
705
100
AcDbEntity
  8
0
100
AcDbLine
 62
7
  6
CONTINUOUS
 10
232.9821170473
 20
66.1529891644
 11
233.3477573678
 21
65.6040530596
  0
LINE
  5
706
100
AcDbEntity
  8
0
100
AcDbLine
 62
7
  6
CONTINUOUS
 10
238.5572429579
 20
63.4083082561
 11
238.9228832784
 21
62.8593721513
  0
LINE
  5
707
100
AcDbEntity
  8
0
100
AcDbLine
 62
7
  6
CONTINUOUS
 10
238.5886014969
 20
63.4083082561
 11
238.9542418174
 21
62.8593721513
  0
LINE
  5
708
100
AcDbEntity
  8
0
100
AcDbLine
 62
7
  6
CONTINUOUS
 10
231.7633150491
 20
67.5253296185
 11
231.3976747286
 21
68.2114998937
  0
LINE
  5
709
100
AcDbEntity
  8
0
100
AcDbLine
 62
7
  6
CONTINUOUS
 10
228.5944332012
 20
63.5455422823
 11
228.4725521645
 21
63.8200103346
  0
LINE
  5
70A
100
AcDbEntity
  8
0
100
AcDbLine
 62
7
  6
CONTINUOUS
 10
227.344272664
 20
66.5646914352
 11
227.5880333426
 21
66.0157551382
  0
LINE
  5
70B
100
AcDbEntity
  8
0
100
AcDbLine
 62
7
  6
CONTINUOUS
 10
227.3756312029
 20
66.5646914352
 11
227.6193918816
 21
66.0157551382
  0
LINE
  5
70C
100
AcDbEntity
  8
0
100
AcDbLine
 62
7
  6
CONTINUOUS
 10
227.7099129845
 20
63.8200103346
 11
227.8317940212
 21
63.4083082561
  0
LINE
  5
70D
100
AcDbEntity
  8
0
100
AcDbLine
 62
7
  6
CONTINUOUS
 10
227.7412715235
 20
63.8200103346
 11
227.8631525602
 21
63.4083082561
  0
LINE
  5
70E
100
AcDbEntity
  8
0
100
AcDbLine
 62
7
  6
CONTINUOUS
 10
230.6350355486
 20
64.6434148763
 11
230.7569165853
 21
64.2317127977
  0
LINE
  5
70F
100
AcDbEntity
  8
0
100
AcDbLine
 62
7
  6
CONTINUOUS
 10
230.6663940875
 20
64.6434148763
 11
230.7882751242
 21
64.2317127977
  0
LINE
  5
710
100
AcDbEntity
  8
0
100
AcDbLine
 62
7
  6
CONTINUOUS
 10
228.106911844
 20
66.7019254614
 11
228.106911844
 21
67.11362754
  0
LINE
  5
711
100
AcDbEntity
  8
0
100
AcDbLine
 62
7
  6
CONTINUOUS
 10
230.7569165853
 20
64.2317127977
 11
230.7569165853
 21
63.9572447453
  0
LINE
  5
712
100
AcDbEntity
  8
0
100
AcDbLine
 62
7
  6
CONTINUOUS
 10
230.7882751242
 20
64.2317127977
 11
230.7882751242
 21
63.9572447453
  0
LINE
  5
713
100
AcDbEntity
  8
0
100
AcDbLine
 62
7
  6
CONTINUOUS
 10
231.5195557653
 20
63.8200103346
 11
231.5195557653
 21
64.3689468239
  0
LINE
  5
714
100
AcDbEntity
  8
0
100
AcDbLine
 62
7
  6
CONTINUOUS
 10
232.8288774716
 20
67.2508615662
 11
232.8288774716
 21
66.5646914352
  0
LINE
  5
715
100
AcDbEntity
  8
0
100
AcDbLine
 62
7
  6
CONTINUOUS
 10
232.8288774716
 20
64.3689468239
 11
232.8288774716
 21
63.8200103346
  0
LINE
  5
716
100
AcDbEntity
  8
0
100
AcDbLine
 62
7
  6
CONTINUOUS
 10
232.8602360106
 20
67.2508615662
 11
232.8602360106
 21
66.5646914352
  0
LINE
  5
717
100
AcDbEntity
  8
0
100
AcDbLine
 62
7
  6
CONTINUOUS
 10
232.8602360106
 20
64.3689468239
 11
232.8602360106
 21
63.8200103346
  0
LINE
  5
718
100
AcDbEntity
  8
0
100
AcDbLine
 62
7
  6
CONTINUOUS
 10
233.5915166516
 20
63.9572447453
 11
233.5915166516
 21
64.2317127977
  0
LINE
  5
719
100
AcDbEntity
  8
0
100
AcDbLine
 62
7
  6
CONTINUOUS
 10
233.5915166516
 20
66.7019254614
 11
233.5915166516
 21
67.11362754
  0
LINE
  5
71A
100
AcDbEntity
  8
0
100
AcDbLine
 62
7
  6
CONTINUOUS
 10
231.3976747286
 20
63.2710742299
 11
231.5195557653
 21
63.8200103346
  0
LINE
  5
71B
100
AcDbEntity
  8
0
100
AcDbLine
 62
7
  6
CONTINUOUS
 10
230.7569165853
 20
63.9572447453
 11
230.6350355486
 21
63.5455422823
  0
LINE
  5
71C
100
AcDbEntity
  8
0
100
AcDbLine
 62
7
  6
CONTINUOUS
 10
230.7882751242
 20
63.9572447453
 11
230.6663940875
 21
63.5455422823
  0
LINE
  5
71D
100
AcDbEntity
  8
0
100
AcDbLine
 62
7
  6
CONTINUOUS
 10
232.9507585083
 20
67.6625637409
 11
232.8288774716
 21
67.2508615662
  0
LINE
  5
71E
100
AcDbEntity
  8
0
100
AcDbLine
 62
7
  6
CONTINUOUS
 10
232.9821170473
 20
67.6625637409
 11
232.8602360106
 21
67.2508615662
  0
LINE
  5
71F
100
AcDbEntity
  8
0
100
AcDbLine
 62
7
  6
CONTINUOUS
 10
233.5915166516
 20
67.11362754
 11
233.7133976883
 21
67.5253296185
  0
LINE
  5
720
100
AcDbEntity
  8
0
100
AcDbLine
 62
7
  6
CONTINUOUS
 10
232.9507585083
 20
64.7806489024
 11
232.8288774716
 21
64.3689468239
  0
LINE
  5
721
100
AcDbEntity
  8
0
100
AcDbLine
 62
7
  6
CONTINUOUS
 10
232.9821170473
 20
64.7806489024
 11
232.8602360106
 21
64.3689468239
  0
LINE
  5
722
100
AcDbEntity
  8
0
100
AcDbLine
 62
7
  6
CONTINUOUS
 10
233.5915166516
 20
64.2317127977
 11
233.7133976883
 21
64.6434148763
  0
LINE
  5
723
100
AcDbEntity
  8
0
100
AcDbLine
 62
7
  6
CONTINUOUS
 10
241.1075174913
 20
76.7768190424
 11
240.9086133019
 21
76.2661807159
  0
LINE
  5
724
100
AcDbEntity
  8
0
100
AcDbLine
 62
7
  6
CONTINUOUS
 10
241.1388760303
 20
76.7768190424
 11
240.9399718409
 21
76.2661807159
  0
LINE
  5
725
100
AcDbEntity
  8
0
100
AcDbLine
 62
7
  6
CONTINUOUS
 10
241.3377807887
 20
75.8832020382
 11
241.735589452
 21
76.6491594831
  0
LINE
  5
726
100
AcDbEntity
  8
0
100
AcDbLine
 62
7
  6
CONTINUOUS
 10
243.6932745141
 20
73.4576702336
 11
243.2954658508
 21
72.6917125205
  0
LINE
  5
727
100
AcDbEntity
  8
0
100
AcDbLine
 62
7
  6
CONTINUOUS
 10
243.7246330531
 20
73.4576702336
 11
243.3268243898
 21
72.6917125205
  0
LINE
  5
728
100
AcDbEntity
  8
0
100
AcDbLine
 62
7
  6
CONTINUOUS
 10
238.9228832784
 20
65.3295850072
 11
238.5572429579
 21
64.7806489024
  0
LINE
  5
729
100
AcDbEntity
  8
0
100
AcDbLine
 62
7
  6
CONTINUOUS
 10
238.9542418174
 20
65.3295850072
 11
238.5886014969
 21
64.7806489024
  0
LINE
  5
72A
100
AcDbEntity
  8
0
100
AcDbLine
 62
7
  6
CONTINUOUS
 10
246.2790315369
 20
73.5853297929
 11
245.7136769386
 21
72.7386740005
  0
LINE
  5
72B
100
AcDbEntity
  8
0
100
AcDbLine
 62
7
  6
CONTINUOUS
 10
246.3103900759
 20
73.5853297929
 11
245.7136769386
 21
72.6917125205
  0
LINE
  5
72C
100
AcDbEntity
  8
0
100
AcDbLine
 62
7
  6
CONTINUOUS
 10
245.7136769386
 20
71.6704360465
 11
246.3103900759
 21
72.5640529613
  0
LINE
  5
72D
100
AcDbEntity
  8
0
100
AcDbLine
 62
7
  6
CONTINUOUS
 10
241.1075174913
 20
72.5640529613
 11
241.4058740599
 21
72.1810742835
  0
LINE
  5
72E
100
AcDbEntity
  8
0
100
AcDbLine
 62
7
  6
CONTINUOUS
 10
241.1388760303
 20
72.5640529613
 11
241.4372325989
 21
72.1810742835
  0
LINE
  5
72F
100
AcDbEntity
  8
0
100
AcDbLine
 62
7
  6
CONTINUOUS
 10
243.923537527
 20
76.7768190424
 11
243.6251809584
 21
77.1597977648
  0
LINE
  5
730
100
AcDbEntity
  8
0
100
AcDbLine
 62
7
  6
CONTINUOUS
 10
238.3134829767
 20
68.7604360465
 11
239.4104039382
 21
65.6040530596
  0
LINE
  5
731
100
AcDbEntity
  8
0
100
AcDbLine
 62
7
  6
CONTINUOUS
 10
238.3448415157
 20
68.7604360465
 11
239.4417624772
 21
65.6040530596
  0
LINE
  5
732
100
AcDbEntity
  8
0
100
AcDbLine
 62
7
  6
CONTINUOUS
 10
231.0006758691
 20
67.3880955924
 11
231.1225569058
 21
66.9763935138
  0
LINE
  5
733
100
AcDbEntity
  8
0
100
AcDbLine
 62
7
  6
CONTINUOUS
 10
231.032034408
 20
67.3880955924
 11
231.1539154448
 21
66.9763935138
  0
LINE
  5
734
100
AcDbEntity
  8
0
100
AcDbLine
 62
7
  6
CONTINUOUS
 10
232.8288774716
 20
63.8200103346
 11
232.9507585083
 21
63.4083082561
  0
LINE
  5
735
100
AcDbEntity
  8
0
100
AcDbLine
 62
7
  6
CONTINUOUS
 10
232.8602360106
 20
63.8200103346
 11
232.9821170473
 21
63.4083082561
  0
LINE
  5
736
100
AcDbEntity
  8
0
100
AcDbLine
 62
7
  6
CONTINUOUS
 10
233.7133976883
 20
63.5455422823
 11
233.5915166516
 21
63.9572447453
  0
LINE
  5
737
100
AcDbEntity
  8
0
100
AcDbLine
 62
7
  6
CONTINUOUS
 10
232.8288774716
 20
66.5646914352
 11
232.9507585083
 21
66.1529891644
  0
LINE
  5
738
100
AcDbEntity
  8
0
100
AcDbLine
 62
7
  6
CONTINUOUS
 10
232.8602360106
 20
66.5646914352
 11
232.9821170473
 21
66.1529891644
  0
LINE
  5
739
100
AcDbEntity
  8
0
100
AcDbLine
 62
7
  6
CONTINUOUS
 10
233.7133976883
 20
66.2902231906
 11
233.5915166516
 21
66.7019254614
  0
LINE
  5
73A
100
AcDbEntity
  8
0
100
AcDbLine
 62
7
  6
CONTINUOUS
 10
238.4353626186
 20
63.8200103346
 11
238.5572429579
 21
63.4083082561
  0
LINE
  5
73B
100
AcDbEntity
  8
0
100
AcDbLine
 62
7
  6
CONTINUOUS
 10
238.4667211576
 20
63.8200103346
 11
238.5886014969
 21
63.4083082561
  0
LINE
  5
73C
100
AcDbEntity
  8
0
100
AcDbLine
 62
7
  6
CONTINUOUS
 10
239.3198821379
 20
63.4083082561
 11
239.1980017986
 21
63.8200103346
  0
LINE
  5
73D
100
AcDbEntity
  8
0
100
AcDbLine
 62
7
  6
CONTINUOUS
 10
231.5195557653
 20
64.3689468239
 11
231.3976747286
 21
64.9178829286
  0
LINE
  5
73E
100
AcDbEntity
  8
0
100
AcDbLine
 62
7
  6
CONTINUOUS
 10
231.8851960858
 20
66.9763935138
 11
231.7633150491
 21
67.5253296185
  0
LINE
  5
73F
100
AcDbEntity
  8
0
100
AcDbLine
 62
7
  6
CONTINUOUS
 10
236.6071617134
 20
67.9370317932
 11
236.6071617134
 21
65.878521112
  0
LINE
  5
740
100
AcDbEntity
  8
0
100
AcDbLine
 62
7
  6
CONTINUOUS
 10
236.6071617134
 20
65.0551169548
 11
236.6071617134
 21
63.1338402037
  0
LINE
  5
741
100
AcDbEntity
  8
0
100
AcDbLine
 62
7
  6
CONTINUOUS
 10
236.6385202524
 20
67.9370317932
 11
236.6385202524
 21
65.878521112
  0
LINE
  5
742
100
AcDbEntity
  8
0
100
AcDbLine
 62
7
  6
CONTINUOUS
 10
236.6385202524
 20
65.0551169548
 11
236.6385202524
 21
63.1338402037
  0
LINE
  5
743
100
AcDbEntity
  8
0
100
AcDbLine
 62
7
  6
CONTINUOUS
 10
237.369800196
 20
62.3104360465
 11
237.369800196
 21
68.7604360465
  0
LINE
  5
744
100
AcDbEntity
  8
0
100
AcDbLine
 62
7
  6
CONTINUOUS
 10
237.527238668
 20
74.0959680299
 11
237.527238668
 21
73.5853297929
  0
LINE
  5
745
100
AcDbEntity
  8
0
100
AcDbLine
 62
7
  6
CONTINUOUS
 10
237.5585972069
 20
74.0959680299
 11
237.5585972069
 21
73.5853297929
  0
LINE
  5
746
100
AcDbEntity
  8
0
100
AcDbLine
 62
7
  6
CONTINUOUS
 10
237.7261434264
 20
77.6704360465
 11
237.7261434264
 21
77.1597977648
  0
LINE
  5
747
100
AcDbEntity
  8
0
100
AcDbLine
 62
7
  6
CONTINUOUS
 10
237.7575019654
 20
77.6704360465
 11
237.7575019654
 21
77.1597977648
  0
LINE
  5
748
100
AcDbEntity
  8
0
100
AcDbLine
 62
7
  6
CONTINUOUS
 10
238.4353626186
 20
64.3689468239
 11
238.4353626186
 21
63.8200103346
  0
LINE
  5
749
100
AcDbEntity
  8
0
100
AcDbLine
 62
7
  6
CONTINUOUS
 10
238.4667211576
 20
64.3689468239
 11
238.4667211576
 21
63.8200103346
  0
LINE
  5
74A
100
AcDbEntity
  8
0
100
AcDbLine
 62
7
  6
CONTINUOUS
 10
238.6212131322
 20
76.3938402752
 11
238.6212131322
 21
74.0959680299
  0
LINE
  5
74B
100
AcDbEntity
  8
0
100
AcDbLine
 62
7
  6
CONTINUOUS
 10
238.6212131322
 20
73.5853297929
 11
238.6212131322
 21
72.5640529613
  0
LINE
  5
74C
100
AcDbEntity
  8
0
100
AcDbLine
 62
7
  6
CONTINUOUS
 10
238.6525716712
 20
76.3938402752
 11
238.6525716712
 21
74.0959680299
  0
LINE
  5
74D
100
AcDbEntity
  8
0
100
AcDbLine
 62
7
  6
CONTINUOUS
 10
238.6525716712
 20
73.5853297929
 11
238.6525716712
 21
72.5640529613
  0
LINE
  5
74E
100
AcDbEntity
  8
0
100
AcDbLine
 62
7
  6
CONTINUOUS
 10
239.1498324292
 20
72.5640529613
 11
239.1498324292
 21
73.5853297929
  0
LINE
  5
74F
100
AcDbEntity
  8
0
100
AcDbLine
 62
7
  6
CONTINUOUS
 10
239.1498324292
 20
74.0959680299
 11
239.1498324292
 21
76.6491594831
  0
LINE
  5
750
100
AcDbEntity
  8
0
100
AcDbLine
 62
7
  6
CONTINUOUS
 10
239.1980017986
 20
63.8200103346
 11
239.1980017986
 21
64.2317127977
  0
LINE
  5
751
100
AcDbEntity
  8
0
100
AcDbLine
 62
7
  6
CONTINUOUS
 10
239.9454497558
 20
73.5853297929
 11
239.9454497558
 21
74.0959680299
  0
LINE
  5
752
100
AcDbEntity
  8
0
100
AcDbLine
 62
7
  6
CONTINUOUS
 10
240.7097091125
 20
75.2449040631
 11
240.7097091125
 21
74.0959680299
  0
LINE
  5
753
100
AcDbEntity
  8
0
100
AcDbLine
 62
7
  6
CONTINUOUS
 10
240.7410676515
 20
75.2449040631
 11
240.7410676515
 21
74.0959680299
  0
LINE
  5
754
100
AcDbEntity
  8
0
100
AcDbLine
 62
7
  6
CONTINUOUS
 10
241.2383284095
 20
74.2236275891
 11
241.2383284095
 21
75.1172445039
  0
LINE
  5
755
100
AcDbEntity
  8
0
100
AcDbLine
 62
7
  6
CONTINUOUS
 10
242.213646163
 20
68.7604360465
 11
242.213646163
 21
65.878521112
  0
LINE
  5
756
100
AcDbEntity
  8
0
100
AcDbLine
 62
7
  6
CONTINUOUS
 10
242.213646163
 20
65.0551169548
 11
242.213646163
 21
62.9966061775
  0
LINE
  5
757
100
AcDbEntity
  8
0
100
AcDbLine
 62
7
  6
CONTINUOUS
 10
242.245004702
 20
68.7604360465
 11
242.245004702
 21
65.878521112
  0
LINE
  5
758
100
AcDbEntity
  8
0
100
AcDbLine
 62
7
  6
CONTINUOUS
 10
242.245004702
 20
65.0551169548
 11
242.245004702
 21
62.9966061775
  0
LINE
  5
759
100
AcDbEntity
  8
0
100
AcDbLine
 62
7
  6
CONTINUOUS
 10
241.2383284095
 20
75.1172445039
 11
241.3377807887
 21
75.8832020382
  0
LINE
  5
75A
100
AcDbEntity
  8
0
100
AcDbLine
 62
7
  6
CONTINUOUS
 10
240.8091609227
 20
75.8832020382
 11
240.7097091125
 21
75.2449040631
  0
LINE
  5
75B
100
AcDbEntity
  8
0
100
AcDbLine
 62
7
  6
CONTINUOUS
 10
240.8405194617
 20
75.8832020382
 11
240.7410676515
 21
75.2449040631
  0
LINE
  5
75C
100
AcDbEntity
  8
0
100
AcDbLine
 62
7
  6
CONTINUOUS
 10
240.9086133019
 20
76.2661807159
 11
240.8091609227
 21
75.8832020382
  0
LINE
  5
75D
100
AcDbEntity
  8
0
100
AcDbLine
 62
7
  6
CONTINUOUS
 10
240.9399718409
 20
76.2661807159
 11
240.8405194617
 21
75.8832020382
  0
LINE
  5
75E
100
AcDbEntity
  8
0
100
AcDbLine
 62
7
  6
CONTINUOUS
 10
244.1224418586
 20
73.0746911983
 11
244.2218940956
 21
73.4576702336
  0
LINE
  5
75F
100
AcDbEntity
  8
0
100
AcDbLine
 62
7
  6
CONTINUOUS
 10
238.5572429579
 20
64.7806489024
 11
238.4353626186
 21
64.3689468239
  0
LINE
  5
760
100
AcDbEntity
  8
0
100
AcDbLine
 62
7
  6
CONTINUOUS
 10
238.5886014969
 20
64.7806489024
 11
238.4667211576
 21
64.3689468239
  0
LINE
  5
761
100
AcDbEntity
  8
0
100
AcDbLine
 62
7
  6
CONTINUOUS
 10
239.1980017986
 20
64.2317127977
 11
239.3198821379
 21
64.6434148763
  0
LINE
  5
762
100
AcDbEntity
  8
0
100
AcDbLine
 62
7
  6
CONTINUOUS
 10
243.923537527
 20
72.5640529613
 11
244.1224418586
 21
73.0746911983
  0
LINE
  5
763
100
AcDbEntity
  8
0
100
AcDbLine
 62
7
  6
CONTINUOUS
 10
241.735589452
 20
72.6917125205
 11
241.3377807887
 21
73.4576702336
  0
LINE
  5
764
100
AcDbEntity
  8
0
100
AcDbLine
 62
7
  6
CONTINUOUS
 10
243.2954658508
 20
76.6491594831
 11
243.6932745141
 21
75.8832020382
  0
LINE
  5
765
100
AcDbEntity
  8
0
100
AcDbLine
 62
7
  6
CONTINUOUS
 10
243.3268243898
 20
76.6491594831
 11
243.7246330531
 21
75.8832020382
  0
LINE
  5
766
100
AcDbEntity
  8
0
100
AcDbLine
 62
7
  6
CONTINUOUS
 10
239.1498324292
 20
76.6491594831
 11
238.9509282398
 21
77.1597977648
  0
LINE
  5
767
100
AcDbEntity
  8
0
100
AcDbLine
 62
7
  6
CONTINUOUS
 10
240.9086133019
 20
73.0746911983
 11
241.1075174913
 21
72.5640529613
  0
LINE
  5
768
100
AcDbEntity
  8
0
100
AcDbLine
 62
7
  6
CONTINUOUS
 10
240.9399718409
 20
73.0746911983
 11
241.1388760303
 21
72.5640529613
  0
LINE
  5
769
100
AcDbEntity
  8
0
100
AcDbLine
 62
7
  6
CONTINUOUS
 10
244.1224418586
 20
76.2661807159
 11
243.923537527
 21
76.7768190424
  0
LINE
  5
76A
100
AcDbEntity
  8
0
100
AcDbLine
 62
7
  6
CONTINUOUS
 10
240.1730431182
 20
65.878521112
 11
239.1980017986
 21
68.7604360465
  0
LINE
  5
76B
100
AcDbEntity
  8
0
100
AcDbLine
 62
7
  6
CONTINUOUS
 10
238.521760753
 20
76.7768190424
 11
238.6212131322
 21
76.3938402752
  0
LINE
  5
76C
100
AcDbEntity
  8
0
100
AcDbLine
 62
7
  6
CONTINUOUS
 10
238.553119292
 20
76.7768190424
 11
238.6525716712
 21
76.3938402752
  0
LINE
  5
76D
100
AcDbEntity
  8
0
100
AcDbLine
 62
7
  6
CONTINUOUS
 10
240.8091609227
 20
73.4576702336
 11
240.9086133019
 21
73.0746911983
  0
LINE
  5
76E
100
AcDbEntity
  8
0
100
AcDbLine
 62
7
  6
CONTINUOUS
 10
240.8405194617
 20
73.4576702336
 11
240.9399718409
 21
73.0746911983
  0
LINE
  5
76F
100
AcDbEntity
  8
0
100
AcDbLine
 62
7
  6
CONTINUOUS
 10
240.7097091125
 20
74.0959680299
 11
240.8091609227
 21
73.4576702336
  0
LINE
  5
770
100
AcDbEntity
  8
0
100
AcDbLine
 62
7
  6
CONTINUOUS
 10
240.7410676515
 20
74.0959680299
 11
240.8405194617
 21
73.4576702336
  0
LINE
  5
771
100
AcDbEntity
  8
0
100
AcDbLine
 62
7
  6
CONTINUOUS
 10
241.3377807887
 20
73.4576702336
 11
241.2383284095
 21
74.2236275891
  0
LINE
  5
772
100
AcDbEntity
  8
0
100
AcDbLine
 62
7
  6
CONTINUOUS
 10
242.976285343
 20
62.3104360465
 11
242.976285343
 21
68.7604360465
  0
LINE
  5
773
100
AcDbEntity
  8
0
100
AcDbLine
 62
7
  6
CONTINUOUS
 10
243.7927268933
 20
75.1172445039
 11
243.7927268933
 21
74.2236275891
  0
LINE
  5
774
100
AcDbEntity
  8
0
100
AcDbLine
 62
7
  6
CONTINUOUS
 10
243.8240854323
 20
75.1172445039
 11
243.8240854323
 21
74.2236275891
  0
LINE
  5
775
100
AcDbEntity
  8
0
100
AcDbLine
 62
7
  6
CONTINUOUS
 10
244.3213463326
 20
74.0959680299
 11
244.3213463326
 21
75.2449040631
  0
LINE
  5
776
100
AcDbEntity
  8
0
100
AcDbLine
 62
7
  6
CONTINUOUS
 10
245.0856052624
 20
77.6704360465
 11
245.0856052624
 21
71.6704360465
  0
LINE
  5
777
100
AcDbEntity
  8
0
100
AcDbLine
 62
7
  6
CONTINUOUS
 10
245.1169638014
 20
77.6704360465
 11
245.1169638014
 21
71.6704360465
  0
LINE
  5
778
100
AcDbEntity
  8
0
100
AcDbLine
 62
7
  6
CONTINUOUS
 10
245.7136769386
 20
72.6917125205
 11
245.7136769386
 21
77.6704360465
  0
LINE
  5
779
100
AcDbEntity
  8
0
100
AcDbLine
 62
7
  6
CONTINUOUS
 10
246.3103900759
 20
72.5640529613
 11
246.3103900759
 21
73.5853297929
  0
LINE
  5
77A
100
AcDbEntity
  8
0
100
AcDbLine
 62
7
  6
CONTINUOUS
 10
243.7927268933
 20
74.2236275891
 11
243.6932745141
 21
73.4576702336
  0
LINE
  5
77B
100
AcDbEntity
  8
0
100
AcDbLine
 62
7
  6
CONTINUOUS
 10
243.8240854323
 20
74.2236275891
 11
243.7246330531
 21
73.4576702336
  0
LINE
  5
77C
100
AcDbEntity
  8
0
100
AcDbLine
 62
7
  6
CONTINUOUS
 10
244.2218940956
 20
73.4576702336
 11
244.3213463326
 21
74.0959680299
  0
LINE
  5
77D
100
AcDbEntity
  8
0
100
AcDbLine
 62
7
  6
CONTINUOUS
 10
245.8700493681
 20
68.7604360465
 11
243.9199677749
 21
62.3104360465
  0
LINE
  5
77E
100
AcDbEntity
  8
0
100
AcDbLine
 62
7
  6
CONTINUOUS
 10
245.9014079071
 20
68.7604360465
 11
243.9513263139
 21
62.3104360465
  0
LINE
  5
77F
100
AcDbEntity
  8
0
100
AcDbLine
 62
7
  6
CONTINUOUS
 10
244.6826069549
 20
62.3104360465
 11
246.3889283925
 21
67.9370317932
  0
LINE
  5
780
100
AcDbEntity
  8
0
100
AcDbLine
 62
7
  6
CONTINUOUS
 10
246.373249123
 20
67.8853293947
 11
248.0638912912
 21
62.3104360465
  0
LINE
  5
781
100
AcDbEntity
  8
0
100
AcDbLine
 62
7
  6
CONTINUOUS
 10
246.3889283925
 20
67.9370317932
 11
248.0952498301
 21
62.3104360465
  0
LINE
  5
782
100
AcDbEntity
  8
0
100
AcDbLine
 62
7
  6
CONTINUOUS
 10
248.8265304712
 20
62.3104360465
 11
246.8764487036
 21
68.7604360465
  0
LINE
  5
783
100
AcDbEntity
  8
0
100
AcDbLine
 62
7
  6
CONTINUOUS
 10
244.2218940956
 20
75.8832020382
 11
244.1224418586
 21
76.2661807159
  0
LINE
  5
784
100
AcDbEntity
  8
0
100
AcDbLine
 62
7
  6
CONTINUOUS
 10
244.3213463326
 20
75.2449040631
 11
244.2218940956
 21
75.8832020382
  0
LINE
  5
785
100
AcDbEntity
  8
0
100
AcDbLine
 62
7
  6
CONTINUOUS
 10
243.6932745141
 20
75.8832020382
 11
243.7927268933
 21
75.1172445039
  0
LINE
  5
786
100
AcDbEntity
  8
0
100
AcDbLine
 62
7
  6
CONTINUOUS
 10
243.7246330531
 20
75.8832020382
 11
243.8240854323
 21
75.1172445039
  0
LINE
  5
787
100
AcDbEntity
  8
RUNDUNGEN
100
AcDbLine
 62
7
  6
CONTINUOUS
 10
243.081837611
 20
21.523581797
 11
265.7386918605
 21
44.1804360465
  0
LINE
  5
788
100
AcDbEntity
  8
RUNDUNGEN
100
AcDbLine
 62
7
  6
CONTINUOUS
 10
243.081837611
 20
116.837290296
 11
265.7386918605
 21
94.1804360465
  0
LINE
  5
789
100
AcDbEntity
  8
RUNDUNGEN
100
AcDbLine
 62
7
  6
CONTINUOUS
 10
265.7386918605
 20
44.1804360465
 11
265.7386918605
 21
94.1804360465
  0
ARC
  5
78A
100
AcDbEntity
  8
RUNDUNGEN
100
AcDbCircle
 62
7
  6
CONTINUOUS
 10
87.6990225106
 20
187.2153339735
 40
15.0
100
AcDbArc
 50
96.0
 51
174.0009321293
  0
ARC
  5
78B
100
AcDbEntity
  8
RUNDUNGEN
100
AcDbCircle
 62
7
  6
CONTINUOUS
 10
103.7814732659
 20
192.1139024708
 40
15.0
100
AcDbArc
 50
359.986908876
 51
5.999968827
  0
ARC
  5
78C
100
AcDbEntity
  8
BEZUGSACHSEN
100
AcDbCircle
 62
7
  6
CONTINUOUS
 10
114.6070254137
 20
194.3501484872
 40
3.9999995735
100
AcDbArc
 50
302.2270569967
 51
6.0000276404
  0
ARC
  5
78D
100
AcDbEntity
  8
RUNDUNGEN
100
AcDbCircle
 62
7
  6
CONTINUOUS
 10
114.2386918605
 20
202.5736191192
 40
2.5
100
AcDbArc
 50
0.0
 51
96.0
  0
ARC
  5
78E
100
AcDbEntity
  8
BEZUGSACHSEN
100
AcDbCircle
 62
7
  6
CONTINUOUS
 10
122.8861730627
 20
220.8138149532
 40
7.0
100
AcDbArc
 50
157.5
 51
186.0
  0
ARC
  5
78F
100
AcDbEntity
  8
RUNDUNGEN
100
AcDbCircle
 62
7
  6
CONTINUOUS
 10
122.8861730627
 20
220.8138149532
 40
7.0
100
AcDbArc
 50
157.5
 51
186.0
  0
ARC
  5
790
100
AcDbEntity
  8
BEZUGSACHSEN
100
AcDbCircle
 62
7
  6
CONTINUOUS
 10
136.4731539013
 20
253.6156883655
 40
7.0
100
AcDbArc
 50
112.5
 51
157.5
  0
ARC
  5
791
100
AcDbEntity
  8
RUNDUNGEN
100
AcDbCircle
 62
7
  6
CONTINUOUS
 10
136.4731539013
 20
253.6156883655
 40
7.0
100
AcDbArc
 50
112.5
 51
157.5
  0
ARC
  5
792
100
AcDbEntity
  8
0
100
AcDbCircle
 62
7
  6
CONTINUOUS
 10
122.6890502281
 20
323.3266432284
 40
145.1630627718
100
AcDbArc
 50
297.5030175923
 51
297.7319885782
  0
ARC
  5
793
100
AcDbEntity
  8
0
100
AcDbCircle
 62
7
  6
CONTINUOUS
 10
168.2386918605
 20
221.8501504063
 40
34.027864045
100
AcDbArc
 50
249.5814932591
 51
290.4185071629
  0
ARC
  5
794
100
AcDbEntity
  8
BEZUGSACHSEN
100
AcDbCircle
 62
7
  6
CONTINUOUS
 10
168.2386918605
 20
221.8501504063
 40
32.5
100
AcDbArc
 50
311.8460996254
 51
327.6835078148
  0
ARC
  5
795
100
AcDbEntity
  8
BEZUGSACHSEN
100
AcDbCircle
 62
7
  6
CONTINUOUS
 10
168.2386918605
 20
221.8501504063
 40
32.5
100
AcDbArc
 50
212.3164921852
 51
228.1539003746
  0
CIRCLE
  5
796
100
AcDbEntity
  8
RUNDUNGEN
100
AcDbCircle
 62
7
  6
CONTINUOUS
 10
168.2386918605
 20
221.8501504063
 40
32.5
  0
ARC
  5
797
100
AcDbEntity
  8
RUNDUNGEN
100
AcDbCircle
 62
7
  6
CONTINUOUS
 10
248.7783612103
 20
187.2153339735
 40
15.0
100
AcDbArc
 50
5.9990678707
 51
84.0
  0
ARC
  5
798
100
AcDbEntity
  8
RUNDUNGEN
100
AcDbCircle
 62
7
  6
CONTINUOUS
 10
232.695910455
 20
192.1139024708
 40
15.0
100
AcDbArc
 50
174.0000312835
 51
180.0131207958
  0
ARC
  5
799
100
AcDbEntity
  8
BEZUGSACHSEN
100
AcDbCircle
 62
7
  6
CONTINUOUS
 10
200.0042298196
 20
253.6156883655
 40
7.0
100
AcDbArc
 50
51.8587104686
 51
54.0000001195
  0
ARC
  5
79A
100
AcDbEntity
  8
BEZUGSACHSEN
100
AcDbCircle
 62
7
  6
CONTINUOUS
 10
200.0042298196
 20
253.6156883655
 40
7.0
100
AcDbArc
 50
38.138691174
 51
40.4999998676
  0
ARC
  5
79B
100
AcDbEntity
  8
BEZUGSACHSEN
100
AcDbCircle
 62
7
  6
CONTINUOUS
 10
200.0042298196
 20
253.6156883655
 40
7.0
100
AcDbArc
 50
28.4874778816
 51
31.4999999327
  0
ARC
  5
79C
100
AcDbEntity
  8
BEZUGSACHSEN
100
AcDbCircle
 62
7
  6
CONTINUOUS
 10
213.5912106582
 20
220.8138149532
 40
7.0
100
AcDbArc
 50
354.0
 51
22.5
  0
ARC
  5
79D
100
AcDbEntity
  8
RUNDUNGEN
100
AcDbCircle
 62
7
  6
CONTINUOUS
 10
213.5912106582
 20
220.8138149532
 40
7.0
100
AcDbArc
 50
354.0
 51
22.5
  0
ARC
  5
79E
100
AcDbEntity
  8
RUNDUNGEN
100
AcDbCircle
 62
7
  6
CONTINUOUS
 10
200.0042298196
 20
253.6156883655
 40
7.0
100
AcDbArc
 50
22.5
 51
67.5
  0
ARC
  5
79F
100
AcDbEntity
  8
BEZUGSACHSEN
100
AcDbCircle
 62
7
  6
CONTINUOUS
 10
221.8703583694
 20
194.3501490785
 40
3.9999997049
100
AcDbArc
 50
173.9999808755
 51
237.7631240427
  0
ARC
  5
7A0
100
AcDbEntity
  8
RUNDUNGEN
100
AcDbCircle
 62
7
  6
CONTINUOUS
 10
222.2386918605
 20
202.5736191192
 40
2.5
100
AcDbArc
 50
84.0
 51
180.0
  0
ARC
  5
7A1
100
AcDbEntity
  8
0
100
AcDbCircle
 62
7
  6
CONTINUOUS
 10
213.7883392079
 20
323.3266517222
 40
145.1630729495
100
AcDbArc
 50
242.2680109852
 51
242.4969818414
  0
ARC
  5
7A2
100
AcDbEntity
  8
BEZUGSACHSEN
100
AcDbCircle
 62
7
  6
CONTINUOUS
 10
168.2386918605
 20
266.7734050043
 40
7.0
100
AcDbArc
 50
67.5
 51
71.9999999337
  0
ARC
  5
7A3
100
AcDbEntity
  8
RUNDUNGEN
100
AcDbCircle
 62
7
  6
CONTINUOUS
 10
168.2386918605
 20
266.7734050043
 40
7.0
100
AcDbArc
 50
67.5
 51
112.5
  0
ARC
  5
7A4
100
AcDbEntity
  8
RUNDUNGEN
100
AcDbCircle
 62
7
  6
CONTINUOUS
 10
293.6679088236
 20
169.906779014
 40
2.5
100
AcDbArc
 50
120.000196213
 51
180.0000981062
  0
ARC
  5
7A5
100
AcDbEntity
  8
RUNDUNGEN
100
AcDbCircle
 62
7
  6
CONTINUOUS
 10
310.2054492773
 20
185.2282351386
 40
2.5
100
AcDbArc
 50
300.0
 51
342.3055325905
  0
ARC
  5
7A6
100
AcDbEntity
  8
BEZUGSACHSEN
100
AcDbCircle
 62
7
  6
CONTINUOUS
 10
333.6679014092
 20
268.7734050043
 40
5.0
100
AcDbArc
 50
90.0
 51
180.0
  0
ARC
  5
7A7
100
AcDbEntity
  8
RUNDUNGEN
100
AcDbCircle
 62
7
  6
CONTINUOUS
 10
341.1679014092
 20
175.3501504063
 40
30.0
100
AcDbArc
 50
98.1321994375
 51
100.999978002
  0
ARC
  5
7A8
100
AcDbEntity
  8
RUNDUNGEN
100
AcDbCircle
 62
7
  6
CONTINUOUS
 10
341.1679014092
 20
175.3501504063
 40
30.0
100
AcDbArc
 50
17.6944674095
 51
81.8678005625
  0
ARC
  5
7A9
100
AcDbEntity
  8
RUNDUNGEN
100
AcDbCircle
 62
7
  6
CONTINUOUS
 10
341.1679014092
 20
175.3501504063
 40
30.0
100
AcDbArc
 50
103.2403875336
 51
162.3055325905
  0
ARC
  5
7AA
100
AcDbEntity
  8
BEZUGSACHSEN
100
AcDbCircle
 62
7
  6
CONTINUOUS
 10
341.1679014092
 20
176.8501504063
 40
14.5
100
AcDbArc
 50
232.5046451775
 51
307.4953548225
  0
ARC
  5
7AB
100
AcDbEntity
  8
BEZUGSACHSEN
100
AcDbCircle
 62
7
  6
CONTINUOUS
 10
341.1679014092
 20
176.3501504063
 40
14.0
100
AcDbArc
 50
277.7752661942
 51
308.1931429378
  0
ARC
  5
7AC
100
AcDbEntity
  8
BEZUGSACHSEN
100
AcDbCircle
 62
7
  6
CONTINUOUS
 10
341.1679014092
 20
176.3501504063
 40
14.0
100
AcDbArc
 50
270.0
 51
277.0620974339
  0
ARC
  5
7AD
100
AcDbEntity
  8
RUNDUNGEN
100
AcDbCircle
 62
7
  6
CONTINUOUS
 10
341.1679014092
 20
176.3501504063
 40
14.0
100
AcDbArc
 50
231.827643768
 51
308.1723562319
  0
ARC
  5
7AE
100
AcDbEntity
  8
BEZUGSACHSEN
100
AcDbCircle
 62
7
  6
CONTINUOUS
 10
341.1679014092
 20
176.3501504063
 40
14.0
100
AcDbArc
 50
231.8068570622
 51
266.0295520982
  0
ARC
  5
7AF
100
AcDbEntity
  8
RUNDUNGEN
100
AcDbCircle
 62
7
  6
CONTINUOUS
 10
388.6678910268
 20
169.9067807276
 40
2.5
100
AcDbArc
 50
359.9998626221
 51
59.9997252431
  0
ARC
  5
7B0
100
AcDbEntity
  8
RUNDUNGEN
100
AcDbCircle
 62
7
  6
CONTINUOUS
 10
372.1303535411
 20
185.2282351386
 40
2.5
100
AcDbArc
 50
197.6944674095
 51
240.0
  0
ARC
  5
7B1
100
AcDbEntity
  8
RUNDUNGEN
100
AcDbCircle
 62
7
  6
CONTINUOUS
 10
348.6679014092
 20
268.7734050043
 40
5.0
100
AcDbArc
 50
0.0
 51
90.0
  0
ARC
  5
7B2
100
AcDbEntity
  8
0
100
AcDbCircle
 62
7
  6
CONTINUOUS
 10
141.4751505599
 20
119.969117093
 40
65.7886809283
100
AcDbArc
 50
269.4021475004
 51
269.7287472146
  0
ARC
  5
7B3
100
AcDbEntity
  8
0
100
AcDbCircle
 62
7
  6
CONTINUOUS
 10
195.0022331611
 20
18.391755003
 40
65.7886809254
100
AcDbArc
 50
89.4021475004
 51
89.7287472146
  0
ARC
  5
7B4
100
AcDbEntity
  8
0
100
AcDbCircle
 62
7
  6
CONTINUOUS
 10
130.1213475076
 20
83.4234628726
 40
29.2430266534
100
AcDbArc
 50
268.8583286557
 51
269.3482146725
  0
ARC
  5
7B5
100
AcDbEntity
  8
0
100
AcDbCircle
 62
7
  6
CONTINUOUS
 10
206.3560362133
 20
54.9374092211
 40
29.2430266527
100
AcDbArc
 50
88.8583286557
 51
89.3482146725
  0
ARC
  5
7B6
100
AcDbEntity
  8
RUNDUNGEN
100
AcDbCircle
 62
7
  6
CONTINUOUS
 10
229.5695300965
 20
111.1804360465
 40
8.0
100
AcDbArc
 50
90.0
 51
174.0
  0
ARC
  5
7B7
100
AcDbEntity
  8
RUNDUNGEN
100
AcDbCircle
 62
7
  6
CONTINUOUS
 10
237.4249833615
 20
111.1804360465
 40
8.0
100
AcDbArc
 50
45.0
 51
90.0
  0
ARC
  5
7B8
100
AcDbEntity
  8
RUNDUNGEN
100
AcDbCircle
 62
7
  6
CONTINUOUS
 10
237.4249833615
 20
27.1804360465
 40
8.0
100
AcDbArc
 50
270.0
 51
315.0
  0
ARC
  5
7B9
100
AcDbEntity
  8
RUNDUNGEN
100
AcDbCircle
 62
7
  6
CONTINUOUS
 10
229.5695300965
 20
27.1804360465
 40
8.0
100
AcDbArc
 50
186.0
 51
270.0
  0
ARC
  5
7BA
100
AcDbEntity
  8
RUNDUNGEN
100
AcDbCircle
 62
7
  6
CONTINUOUS
 10
106.9078536244
 20
27.1804360465
 40
8.0
100
AcDbArc
 50
270.0
 51
354.0
  0
ARC
  5
7BB
100
AcDbEntity
  8
RUNDUNGEN
100
AcDbCircle
 62
7
  6
CONTINUOUS
 10
99.0524003594
 20
27.1804360465
 40
8.0
100
AcDbArc
 50
225.0
 51
270.0
  0
ARC
  5
7BC
100
AcDbEntity
  8
RUNDUNGEN
100
AcDbCircle
 62
7
  6
CONTINUOUS
 10
99.0524003594
 20
111.1804360465
 40
8.0
100
AcDbArc
 50
90.0
 51
135.0
  0
ARC
  5
7BD
100
AcDbEntity
  8
RUNDUNGEN
100
AcDbCircle
 62
7
  6
CONTINUOUS
 10
106.9078536244
 20
111.1804360465
 40
8.0
100
AcDbArc
 50
6.0
 51
90.0
  0
ARC
  5
7BE
100
AcDbEntity
  8
0
100
AcDbCircle
 62
7
  6
CONTINUOUS
 10
194.3348187937
 20
76.8658933759
 40
7.3145428529
100
AcDbArc
 50
88.2069106502
 51
89.5515690244
  0
ARC
  5
7BF
100
AcDbEntity
  8
0
100
AcDbCircle
 62
7
  6
CONTINUOUS
 10
142.1425649273
 20
61.4949787172
 40
7.314542853
100
AcDbArc
 50
268.2069106502
 51
269.5515690244
  0
ARC
  5
7C0
100
AcDbEntity
  8
0
100
AcDbCircle
 62
7
  6
CONTINUOUS
 10
194.3348576339
 20
76.8698667863
 40
7.3105692602
100
AcDbArc
 50
89.5516296943
 51
89.999988398
  0
ARC
  5
7C1
100
AcDbEntity
  8
0
100
AcDbCircle
 62
7
  6
CONTINUOUS
 10
142.142526087
 20
61.4910053043
 40
7.3105692578
100
AcDbArc
 50
269.5516296942
 51
269.9999883981
  0
ARC
  5
7C2
100
AcDbEntity
  8
BEZUGSACHSEN
100
AcDbCircle
 62
7
  6
CONTINUOUS
 10
120.8861730627
 20
76.6804360465
 40
5.0
100
AcDbArc
 50
90.0
 51
180.0
  0
ARC
  5
7C3
100
AcDbEntity
  8
BEZUGSACHSEN
100
AcDbCircle
 62
7
  6
CONTINUOUS
 10
215.5912106582
 20
76.6804360465
 40
5.0
100
AcDbArc
 50
0.0
 51
90.0
  0
ARC
  5
7C4
100
AcDbEntity
  8
RUNDUNGEN
100
AcDbCircle
 62
7
  6
CONTINUOUS
 10
120.8861730627
 20
61.6804360465
 40
5.0
100
AcDbArc
 50
180.0
 51
270.0
  0
ARC
  5
7C5
100
AcDbEntity
  8
RUNDUNGEN
100
AcDbCircle
 62
7
  6
CONTINUOUS
 10
215.5912106582
 20
61.6804360465
 40
5.0
100
AcDbArc
 50
270.0
 51
360.0
  0
ARC
  5
7C6
100
AcDbEntity
  8
0
100
AcDbCircle
 62
7
  6
CONTINUOUS
 10
205.8277865398
 20
80.9293585158
 40
3.2510775307
100
AcDbArc
 50
88.0450666446
 51
89.999702126
  0
ARC
  5
7C7
100
AcDbEntity
  8
0
100
AcDbCircle
 62
7
  6
CONTINUOUS
 10
130.6495971811
 20
57.4315135772
 40
3.2510775308
100
AcDbArc
 50
268.0450666447
 51
269.999702126
  0
ARC
  5
7C8
100
AcDbEntity
  8
0
100
AcDbCircle
 62
7
  6
CONTINUOUS
 10
129.899597181
 20
57.4315135746
 40
3.2510775281
100
AcDbArc
 50
268.0450666439
 51
269.9997021268
  0
ARC
  5
7C9
100
AcDbEntity
  8
0
100
AcDbCircle
 62
7
  6
CONTINUOUS
 10
206.5777865399
 20
80.9293585184
 40
3.2510775281
100
AcDbArc
 50
88.0450666439
 51
89.9997021268
  0
ARC
  5
7CA
100
AcDbEntity
  8
RUNDUNGEN
100
AcDbCircle
 62
7
  6
CONTINUOUS
 10
222.2386918605
 20
44.3114554947
 40
2.5
100
AcDbArc
 50
180.0003545998
 51
186.0
  0
ARC
  5
7CB
100
AcDbEntity
  8
RUNDUNGEN
100
AcDbCircle
 62
7
  6
CONTINUOUS
 10
222.2386918605
 20
94.0494165983
 40
2.5
100
AcDbArc
 50
174.0
 51
179.999644297
  0
ARC
  5
7CC
100
AcDbEntity
  8
RUNDUNGEN
100
AcDbCircle
 62
7
  6
CONTINUOUS
 10
114.2386918605
 20
94.0494165983
 40
2.5
100
AcDbArc
 50
0.0003545998
 51
6.0
  0
ARC
  5
7CD
100
AcDbEntity
  8
RUNDUNGEN
100
AcDbCircle
 62
7
  6
CONTINUOUS
 10
114.2386918605
 20
44.3114554947
 40
2.5
100
AcDbArc
 50
354.0
 51
359.999644297
  0
SPLINE
  5
7CE
100
AcDbEntity
  8
0
100
AcDbSpline
 62
7
  6
CONTINUOUS
 70
0
 71
3
 72
8
 73
4
 74
0
 42
0.0000001
 43
0.0000001
 44
0.0000000001
 40
0.0
 40
0.0
 40
0.0
 40
0.0
 40
1.0
 40
1.0
 40
1.0
 40
1.0
 10
174.6066489756
 20
175.4682767093
 30
0.0
 10
174.6066489756
 20
174.7215014398
 30
0.0
 10
174.6609595359
 20
174.2191252559
 30
0.0
 10
174.7803035739
 20
173.9463389314
 30
0.0
  0
SPLINE
  5
7CF
100
AcDbEntity
  8
0
100
AcDbSpline
 62
7
  6
CONTINUOUS
 70
0
 71
3
 72
8
 73
4
 74
0
 42
0.0000001
 43
0.0000001
 44
0.0000000001
 40
0.0
 40
0.0
 40
0.0
 40
0.0
 40
1.0
 40
1.0
 40
1.0
 40
1.0
 10
174.7803035739
 20
173.9463389314
 30
0.0
 10
174.898569876
 20
173.6760160028
 30
0.0
 10
175.1293912471
 20
173.4723499957
 30
0.0
 10
175.4744788658
 20
173.3404046857
 30
0.0
  0
SPLINE
  5
7D0
100
AcDbEntity
  8
0
100
AcDbSpline
 62
7
  6
CONTINUOUS
 70
0
 71
3
 72
8
 73
4
 74
0
 42
0.0000001
 43
0.0000001
 44
0.0000000001
 40
0.0
 40
0.0
 40
0.0
 40
0.0
 40
1.0
 40
1.0
 40
1.0
 40
1.0
 10
175.4744788658
 20
173.3404046857
 30
0.0
 10
175.8218553603
 20
173.2075842171
 30
0.0
 10
176.2156096041
 20
173.1396955512
 30
0.0
 10
176.6500976622
 20
173.1396955512
 30
0.0
  0
SPLINE
  5
7D1
100
AcDbEntity
  8
0
100
AcDbSpline
 62
7
  6
CONTINUOUS
 70
0
 71
3
 72
8
 73
4
 74
0
 42
0.0000001
 43
0.0000001
 44
0.0000000001
 40
0.0
 40
0.0
 40
0.0
 40
0.0
 40
1.0
 40
1.0
 40
1.0
 40
1.0
 10
176.6500976622
 20
173.1396955512
 30
0.0
 10
176.9216516555
 20
173.1396955512
 30
0.0
 10
177.2882512152
 20
173.1600621603
 30
0.0
 10
177.7566829264
 20
173.2007953505
 30
0.0
  0
SPLINE
  5
7D2
100
AcDbEntity
  8
0
100
AcDbSpline
 62
7
  6
CONTINUOUS
 70
0
 71
3
 72
8
 73
4
 74
0
 42
0.0000001
 43
0.0000001
 44
0.0000000001
 40
0.0
 40
0.0
 40
0.0
 40
0.0
 40
1.0
 40
1.0
 40
1.0
 40
1.0
 10
177.7566829264
 20
174.6604016125
 30
0.0
 10
177.5258603633
 20
174.7418680488
 30
0.0
 10
177.3561397136
 20
174.7893900871
 30
0.0
 10
177.2406081205
 20
174.8018319575
 30
0.0
  0
SPLINE
  5
7D3
100
AcDbEntity
  8
0
100
AcDbSpline
 62
7
  6
CONTINUOUS
 70
0
 71
3
 72
8
 73
4
 74
0
 42
0.0000001
 43
0.0000001
 44
0.0000000001
 40
0.0
 40
0.0
 40
0.0
 40
0.0
 40
1.0
 40
1.0
 40
1.0
 40
1.0
 10
177.2406081205
 20
174.8018319575
 30
0.0
 10
176.9148638785
 20
174.8369121253
 30
0.0
 10
176.7179861605
 20
174.8980119526
 30
0.0
 10
176.6500976989
 20
174.9794782705
 30
0.0
  0
SPLINE
  5
7D4
100
AcDbEntity
  8
0
100
AcDbSpline
 62
7
  6
CONTINUOUS
 70
0
 71
3
 72
8
 73
4
 74
0
 42
0.0000001
 43
0.0000001
 44
0.0000000001
 40
0.0
 40
0.0
 40
0.0
 40
0.0
 40
1.0
 40
1.0
 40
1.0
 40
1.0
 10
176.6500976989
 20
174.9794782705
 30
0.0
 10
176.5822091639
 20
175.0609446763
 30
0.0
 10
176.5482643187
 20
175.2238775491
 30
0.0
 10
176.5482643187
 20
175.4818543493
 30
0.0
  0
SPLINE
  5
7D5
100
AcDbEntity
  8
0
100
AcDbSpline
 62
7
  6
CONTINUOUS
 70
0
 71
3
 72
8
 73
4
 74
0
 42
0.0000001
 43
0.0000001
 44
0.0000000001
 40
0.0
 40
0.0
 40
0.0
 40
0.0
 40
1.0
 40
1.0
 40
1.0
 40
1.0
 10
168.2658478681
 20
180.8790029563
 30
0.0
 10
168.4830918849
 20
181.367801249
 30
0.0
 10
168.8429012835
 20
181.6122005581
 30
0.0
 10
169.358855778
 20
181.6122005581
 30
0.0
  0
SPLINE
  5
7D6
100
AcDbEntity
  8
0
100
AcDbSpline
 62
7
  6
CONTINUOUS
 70
0
 71
3
 72
8
 73
4
 74
0
 42
0.0000001
 43
0.0000001
 44
0.0000000001
 40
0.0
 40
0.0
 40
0.0
 40
0.0
 40
1.0
 40
1.0
 40
1.0
 40
1.0
 10
169.358855778
 20
181.6122005581
 30
0.0
 10
169.8340752662
 20
181.6122005581
 30
0.0
 10
170.1803079188
 20
181.3881681561
 30
0.0
 10
170.3934601548
 20
180.9449471984
 30
0.0
  0
SPLINE
  5
7D7
100
AcDbEntity
  8
0
100
AcDbSpline
 62
7
  6
CONTINUOUS
 70
0
 71
3
 72
8
 73
4
 74
0
 42
0.0000001
 43
0.0000001
 44
0.0000000001
 40
0.0
 40
0.0
 40
0.0
 40
0.0
 40
1.0
 40
1.0
 40
1.0
 40
1.0
 10
170.3934601548
 20
180.9449471984
 30
0.0
 10
170.6080070079
 20
180.4988263249
 30
0.0
 10
170.7166281283
 20
179.670584619
 30
0.0
 10
170.7166281283
 20
178.4553776383
 30
0.0
  0
SPLINE
  5
7D8
100
AcDbEntity
  8
0
100
AcDbSpline
 62
7
  6
CONTINUOUS
 70
0
 71
3
 72
8
 73
4
 74
0
 42
0.0000001
 43
0.0000001
 44
0.0000000001
 40
0.0
 40
0.0
 40
0.0
 40
0.0
 40
1.0
 40
1.0
 40
1.0
 40
1.0
 10
170.7166281283
 20
178.4553776383
 30
0.0
 10
170.7166281283
 20
177.0161382555
 30
0.0
 10
170.6147959769
 20
176.0385413169
 30
0.0
 10
170.4149720266
 20
175.5237408505
 30
0.0
  0
SPLINE
  5
7D9
100
AcDbEntity
  8
0
100
AcDbSpline
 62
7
  6
CONTINUOUS
 70
0
 71
3
 72
8
 73
4
 74
0
 42
0.0000001
 43
0.0000001
 44
0.0000000001
 40
0.0
 40
0.0
 40
0.0
 40
0.0
 40
1.0
 40
1.0
 40
1.0
 40
1.0
 10
170.4149720266
 20
175.5237408505
 30
0.0
 10
170.214252764
 20
175.0066338181
 30
0.0
 10
169.8544421733
 20
174.7554456889
 30
0.0
 10
169.3249109328
 20
174.7554456889
 30
0.0
  0
SPLINE
  5
7DA
100
AcDbEntity
  8
0
100
AcDbSpline
 62
7
  6
CONTINUOUS
 70
0
 71
3
 72
8
 73
4
 74
0
 42
0.0000001
 43
0.0000001
 44
0.0000000001
 40
0.0
 40
0.0
 40
0.0
 40
0.0
 40
1.0
 40
1.0
 40
1.0
 40
1.0
 10
169.3249109328
 20
174.7554456889
 30
0.0
 10
168.8768461287
 20
174.7554456889
 30
0.0
 10
168.5374024451
 20
174.9455339908
 30
0.0
 10
168.2982863021
 20
175.3383676437
 30
0.0
  0
SPLINE
  5
7DB
100
AcDbEntity
  8
0
100
AcDbSpline
 62
7
  6
CONTINUOUS
 70
0
 71
3
 72
8
 73
4
 74
0
 42
0.0000001
 43
0.0000001
 44
0.0000000001
 40
0.0
 40
0.0
 40
0.0
 40
0.0
 40
1.0
 40
1.0
 40
1.0
 40
1.0
 10
168.2982863021
 20
175.3383676437
 30
0.0
 10
168.0621817649
 20
175.7262536585
 30
0.0
 10
167.9467704833
 20
176.6088060736
 30
0.0
 10
167.9467704833
 20
177.9937348961
 30
0.0
  0
SPLINE
  5
7DC
100
AcDbEntity
  8
0
100
AcDbSpline
 62
7
  6
CONTINUOUS
 70
0
 71
3
 72
8
 73
4
 74
0
 42
0.0000001
 43
0.0000001
 44
0.0000000001
 40
0.0
 40
0.0
 40
0.0
 40
0.0
 40
1.0
 40
1.0
 40
1.0
 40
1.0
 10
167.9467704833
 20
177.9937348961
 30
0.0
 10
167.9467704833
 20
179.4329742789
 30
0.0
 10
168.0486038268
 20
180.3902046084
 30
0.0
 10
168.2658478681
 20
180.8790029563
 30
0.0
  0
SPLINE
  5
7DD
100
AcDbEntity
  8
0
100
AcDbSpline
 62
7
  6
CONTINUOUS
 70
0
 71
3
 72
8
 73
4
 74
0
 42
0.0000001
 43
0.0000001
 44
0.0000000001
 40
0.0
 40
0.0
 40
0.0
 40
0.0
 40
1.0
 40
1.0
 40
1.0
 40
1.0
 10
166.8567926547
 20
174.2637195569
 30
0.0
 10
167.444395119
 20
173.5130832046
 30
0.0
 10
168.2590582907
 20
173.1396955512
 30
0.0
 10
169.3045440257
 20
173.1396955512
 30
0.0
  0
SPLINE
  5
7DE
100
AcDbEntity
  8
0
100
AcDbSpline
 62
7
  6
CONTINUOUS
 70
0
 71
3
 72
8
 73
4
 74
0
 42
0.0000001
 43
0.0000001
 44
0.0000000001
 40
0.0
 40
0.0
 40
0.0
 40
0.0
 40
1.0
 40
1.0
 40
1.0
 40
1.0
 10
169.3045440257
 20
173.1396955512
 30
0.0
 10
170.3568187297
 20
173.1396955512
 30
0.0
 10
171.1850598395
 20
173.5266609378
 30
0.0
 10
171.7824803876
 20
174.3141696972
 30
0.0
  0
SPLINE
  5
7DF
100
AcDbEntity
  8
0
100
AcDbSpline
 62
7
  6
CONTINUOUS
 70
0
 71
3
 72
8
 73
4
 74
0
 42
0.0000001
 43
0.0000001
 44
0.0000000001
 40
0.0
 40
0.0
 40
0.0
 40
0.0
 40
1.0
 40
1.0
 40
1.0
 40
1.0
 10
171.7824803876
 20
174.3141696972
 30
0.0
 10
172.3799005091
 20
175.1016778945
 30
0.0
 10
172.6853993476
 20
176.5001843571
 30
0.0
 10
172.6853993476
 20
178.5164777636
 30
0.0
  0
SPLINE
  5
7E0
100
AcDbEntity
  8
0
100
AcDbSpline
 62
7
  6
CONTINUOUS
 70
0
 71
3
 72
8
 73
4
 74
0
 42
0.0000001
 43
0.0000001
 44
0.0000000001
 40
0.0
 40
0.0
 40
0.0
 40
0.0
 40
1.0
 40
1.0
 40
1.0
 40
1.0
 10
172.6853993476
 20
178.5164777636
 30
0.0
 10
172.6853993476
 20
181.6529337763
 30
0.0
 10
171.5788140834
 20
183.2279507517
 30
0.0
 10
169.379221493
 20
183.2279507517
 30
0.0
  0
SPLINE
  5
7E1
100
AcDbEntity
  8
0
100
AcDbSpline
 62
7
  6
CONTINUOUS
 70
0
 71
3
 72
8
 73
4
 74
0
 42
0.0000001
 43
0.0000001
 44
0.0000000001
 40
0.0
 40
0.0
 40
0.0
 40
0.0
 40
1.0
 40
1.0
 40
1.0
 40
1.0
 10
169.379221493
 20
183.2279507517
 30
0.0
 10
168.2658472598
 20
183.2279507517
 30
0.0
 10
167.4240282119
 20
182.8274075388
 30
0.0
 10
166.8447775038
 20
182.0415233286
 30
0.0
  0
SPLINE
  5
7E2
100
AcDbEntity
  8
0
100
AcDbSpline
 62
7
  6
CONTINUOUS
 70
0
 71
3
 72
8
 73
4
 74
0
 42
0.0000001
 43
0.0000001
 44
0.0000000001
 40
0.0
 40
0.0
 40
0.0
 40
0.0
 40
1.0
 40
1.0
 40
1.0
 40
1.0
 10
166.8447775038
 20
182.0415233286
 30
0.0
 10
166.2631323874
 20
181.2523905634
 30
0.0
 10
165.9779998601
 20
179.9421398043
 30
0.0
 10
165.9779998601
 20
178.1091455817
 30
0.0
  0
SPLINE
  5
7E3
100
AcDbEntity
  8
0
100
AcDbSpline
 62
7
  6
CONTINUOUS
 70
0
 71
3
 72
8
 73
4
 74
0
 42
0.0000001
 43
0.0000001
 44
0.0000000001
 40
0.0
 40
0.0
 40
0.0
 40
0.0
 40
1.0
 40
1.0
 40
1.0
 40
1.0
 10
165.9779998601
 20
178.1091455817
 30
0.0
 10
165.9779998601
 20
176.2965182661
 30
0.0
 10
166.2699207604
 20
175.0134226381
 30
0.0
 10
166.8567926547
 20
174.2637195569
 30
0.0
  0
SPLINE
  5
7E4
100
AcDbEntity
  8
0
100
AcDbSpline
 62
7
  6
CONTINUOUS
 70
0
 71
3
 72
8
 73
4
 74
0
 42
0.0000001
 43
0.0000001
 44
0.0000000001
 40
0.0
 40
0.0
 40
0.0
 40
0.0
 40
1.0
 40
1.0
 40
1.0
 40
1.0
 10
161.3819372595
 20
183.0107073187
 30
0.0
 10
161.273315543
 20
182.5422756075
 30
0.0
 10
161.1307492793
 20
182.2096208929
 30
0.0
 10
160.9406610468
 20
182.0059548763
 30
0.0
  0
SPLINE
  5
7E5
100
AcDbEntity
  8
0
100
AcDbSpline
 62
7
  6
CONTINUOUS
 70
0
 71
3
 72
8
 73
4
 74
0
 42
0.0000001
 43
0.0000001
 44
0.0000000001
 40
0.0
 40
0.0
 40
0.0
 40
0.0
 40
1.0
 40
1.0
 40
1.0
 40
1.0
 10
160.9406610468
 20
182.0059548763
 30
0.0
 10
160.7505726755
 20
181.802288711
 30
0.0
 10
160.5061736644
 20
181.6393558382
 30
0.0
 10
160.2086435022
 20
181.5210199884
 30
0.0
  0
SPLINE
  5
7E6
100
AcDbEntity
  8
0
100
AcDbSpline
 62
7
  6
CONTINUOUS
 70
0
 71
3
 72
8
 73
4
 74
0
 42
0.0000001
 43
0.0000001
 44
0.0000000001
 40
0.0
 40
0.0
 40
0.0
 40
0.0
 40
1.0
 40
1.0
 40
1.0
 40
1.0
 10
160.2086435022
 20
181.5210199884
 30
0.0
 10
159.9087533295
 20
181.4017454981
 30
0.0
 10
159.4131661892
 20
181.3474349379
 30
0.0
 10
158.720701778
 20
181.3474349379
 30
0.0
  0
SPLINE
  5
7E7
100
AcDbEntity
  8
0
100
AcDbSpline
 62
7
  6
CONTINUOUS
 70
0
 71
3
 72
11
 73
7
 74
0
 42
0.0000001
 43
0.0000001
 44
0.0000000001
 40
0.0
 40
0.0
 40
0.0
 40
0.0
 40
0.2500120606
 40
0.5000188251
 40
0.7500145493
 40
1.0
 40
1.0
 40
1.0
 40
1.0
 10
146.7527089439
 20
194.5689644828
 30
0.0
 10
147.5414894138
 20
194.1584047603
 30
0.0
 10
149.1068929397
 20
193.3143169462
 30
0.0
 10
151.4738806405
 20
192.0833899662
 30
0.0
 10
153.8867496924
 20
190.9438893041
 30
0.0
 10
155.5339632665
 20
190.2704963614
 30
0.0
 10
156.3672292198
 20
189.9602811899
 30
0.0
  0
SPLINE
  5
7E8
100
AcDbEntity
  8
0
100
AcDbSpline
 62
7
  6
CONTINUOUS
 70
0
 71
3
 72
11
 73
7
 74
0
 42
0.0000001
 43
0.0000001
 44
0.0000000001
 40
0.0
 40
0.0
 40
0.0
 40
0.0
 40
0.2499855661
 40
0.4999813324
 40
0.7499880061
 40
1.0
 40
1.0
 40
1.0
 40
1.0
 10
180.1101547354
 20
189.960281279
 30
0.0
 10
180.9434210295
 20
190.2704965892
 30
0.0
 10
182.5906348907
 20
190.9438900586
 30
0.0
 10
185.0035044936
 20
192.0833897835
 30
0.0
 10
187.3704917881
 20
193.3143164147
 30
0.0
 10
188.935894285
 20
194.1584047853
 30
0.0
 10
189.7246745195
 20
194.5689643538
 30
0.0
  0
ELLIPSE
  5
7E9
100
AcDbEntity
  8
RUNDUNGEN
100
AcDbEllipse
 62
7
  6
CONTINUOUS
 10
362.6323675033
 20
145.4332198225
 30
0.0
 11
2.5136206451
 21
23.9155029176
 31
0.0
 40
0.1039620512
 41
-0.7799349549
 42
0.010926417
  0
ELLIPSE
  5
7EA
100
AcDbEntity
  8
RUNDUNGEN
100
AcDbEllipse
 62
7
  6
CONTINUOUS
 10
319.7034353151
 20
145.4332198225
 30
0.0
 11
2.5136206451
 21
-23.9155029176
 31
0.0
 40
0.1039620512
 41
3.1306662365
 42
3.9215276085
  0
ELLIPSE
  5
7EB
100
AcDbEntity
  8
0
100
AcDbEllipse
 62
7
  6
CONTINUOUS
 10
195.1752484871
 20
53.6804360465
 30
0.0
 11
-0.0
 21
30.5
 31
0.0
 40
0.6527784911
 41
-0.0069536286
 42
0.0
  0
ELLIPSE
  5
7EC
100
AcDbEntity
  8
0
100
AcDbEllipse
 62
7
  6
CONTINUOUS
 10
141.3021352339
 20
84.6804360465
 30
0.0
 11
0.0
 21
30.5
 31
0.0
 40
0.6527784911
 41
-3.1485462822
 42
-3.1415926536
  0
ELLIPSE
  5
7ED
100
AcDbEntity
  8
0
100
AcDbEllipse
 62
7
  6
CONTINUOUS
 10
193.8580317904
 20
53.6804360465
 30
0.0
 11
119.4582336495
 21
0.0
 31
0.0
 40
0.255319362
 41
1.5512848383
 42
1.5554710357
  0
ELLIPSE
  5
7EE
100
AcDbEntity
  8
0
100
AcDbEllipse
 62
7
  6
CONTINUOUS
 10
205.1906952601
 20
53.6804360465
 30
0.0
 11
89.5937606804
 21
0.0
 31
0.0
 40
0.3404254913
 41
1.5470982989
 42
1.5512848383
  0
ELLIPSE
  5
7EF
100
AcDbEntity
  8
0
100
AcDbEllipse
 62
7
  6
CONTINUOUS
 10
142.6193519306
 20
84.6804360465
 30
0.0
 11
119.4582336495
 21
-0.0
 31
0.0
 40
0.255319362
 41
-1.5903078153
 42
-1.5861216179
  0
ELLIPSE
  5
7F0
100
AcDbEntity
  8
0
100
AcDbEllipse
 62
7
  6
CONTINUOUS
 10
131.2866884609
 20
84.6804360465
 30
0.0
 11
89.5937606804
 21
-0.0
 31
0.0
 40
0.3404254913
 41
-1.5944943547
 42
-1.5903078153
  0
ELLIPSE
  5
7F1
100
AcDbEntity
  8
0
100
AcDbEllipse
 62
7
  6
CONTINUOUS
 10
146.9520248102
 20
84.6804360465
 30
0.0
 11
146.8751295656
 21
-0.0
 31
0.0
 40
0.204255139
 41
-1.6161792369
 42
-1.6119199315
  0
ELLIPSE
  5
7F2
100
AcDbEntity
  8
0
100
AcDbEllipse
 62
7
  6
CONTINUOUS
 10
189.5253589107
 20
53.6804360465
 30
0.0
 11
149.3230483917
 21
-0.0
 31
0.0
 40
0.204255139
 41
1.5261578974
 42
1.5303472506
  0
ELLIPSE
  5
7F3
100
AcDbEntity
  8
0
100
AcDbEllipse
 62
7
  6
CONTINUOUS
 10
193.1483625407
 20
53.6804360465
 30
0.0
 11
59.7291168248
 21
0.0
 31
0.0
 40
0.510638724
 41
1.5303472506
 42
1.5387239001
  0
ELLIPSE
  5
7F4
100
AcDbEntity
  8
0
100
AcDbEllipse
 62
7
  6
CONTINUOUS
 10
194.1060272006
 20
53.6804360465
 30
0.0
 11
-0.0
 21
30.5
 31
0.0
 40
0.9791658496
 41
-0.0320724267
 42
-0.0153252911
  0
ELLIPSE
  5
7F5
100
AcDbEntity
  8
0
100
AcDbEllipse
 62
7
  6
CONTINUOUS
 10
200.7753627235
 20
53.6804360465
 30
0.0
 11
149.3229629484
 21
-0.0
 31
0.0
 40
0.2042552558
 41
1.5261578974
 42
1.5303472506
  0
ELLIPSE
  5
7F6
100
AcDbEntity
  8
0
100
AcDbEllipse
 62
7
  6
CONTINUOUS
 10
205.2034713609
 20
53.6804360465
 30
0.0
 11
39.8194396976
 21
-0.0
 31
0.0
 40
0.7659575381
 41
1.5303472506
 42
1.542911344
  0
ELLIPSE
  5
7F7
100
AcDbEntity
  8
0
100
AcDbEllipse
 62
7
  6
CONTINUOUS
 10
205.6891926806
 20
53.6804360465
 30
0.0
 11
-0.0
 21
30.5
 31
0.0
 40
0.7343750875
 41
-0.0278849828
 42
-0.0111393623
  0
ELLIPSE
  5
7F8
100
AcDbEntity
  8
0
100
AcDbEllipse
 62
7
  6
CONTINUOUS
 10
205.6891926806
 20
53.6804360465
 30
0.0
 11
-0.0
 21
30.0
 31
0.0
 40
0.7343750875
 41
-0.0283498561
 42
-0.0113250262
  0
ELLIPSE
  5
7F9
100
AcDbEntity
  8
0
100
AcDbEllipse
 62
7
  6
CONTINUOUS
 10
205.2034713609
 20
53.6804360465
 30
0.0
 11
39.1666619976
 21
0.0
 31
0.0
 40
0.7659575381
 41
1.5296727221
 42
1.5424464707
  0
ELLIPSE
  5
7FA
100
AcDbEntity
  8
0
100
AcDbEllipse
 62
7
  6
CONTINUOUS
 10
200.7753627235
 20
53.6804360465
 30
0.0
 11
146.8750455231
 21
-0.0
 31
0.0
 40
0.2042552558
 41
1.5254134166
 42
1.5296727221
  0
ELLIPSE
  5
7FB
100
AcDbEntity
  8
0
100
AcDbEllipse
 62
7
  6
CONTINUOUS
 10
194.1060272006
 20
53.6804360465
 30
0.0
 11
0.0
 21
30.0
 31
0.0
 40
0.9791658496
 41
-0.0326071552
 42
-0.0155807331
  0
ELLIPSE
  5
7FC
100
AcDbEntity
  8
0
100
AcDbEllipse
 62
7
  6
CONTINUOUS
 10
193.1483625407
 20
53.6804360465
 30
0.0
 11
58.7499509752
 21
0.0
 31
0.0
 40
0.510638724
 41
1.5296727221
 42
1.5381891716
  0
ELLIPSE
  5
7FD
100
AcDbEntity
  8
0
100
AcDbEllipse
 62
7
  6
CONTINUOUS
 10
189.5253589107
 20
53.6804360465
 30
0.0
 11
146.8751295656
 21
0.0
 31
0.0
 40
0.204255139
 41
1.5254134166
 42
1.5296727221
  0
ELLIPSE
  5
7FE
100
AcDbEntity
  8
0
100
AcDbEllipse
 62
7
  6
CONTINUOUS
 10
146.9520248102
 20
84.6804360465
 30
0.0
 11
149.3230483917
 21
-0.0
 31
0.0
 40
0.204255139
 41
-1.6154347561
 42
-1.611245403
  0
ELLIPSE
  5
7FF
100
AcDbEntity
  8
0
100
AcDbEllipse
 62
7
  6
CONTINUOUS
 10
143.3290211803
 20
84.6804360465
 30
0.0
 11
59.7291168248
 21
0.0
 31
0.0
 40
0.510638724
 41
-1.611245403
 42
-1.6028687535
  0
ELLIPSE
  5
800
100
AcDbEntity
  8
0
100
AcDbEllipse
 62
7
  6
CONTINUOUS
 10
142.3713565204
 20
84.6804360465
 30
0.0
 11
0.0
 21
30.5
 31
0.0
 40
0.9791658496
 41
-3.1736650803
 42
-3.1569179447
  0
ELLIPSE
  5
801
100
AcDbEntity
  8
0
100
AcDbEllipse
 62
7
  6
CONTINUOUS
 10
135.7020209974
 20
84.6804360465
 30
0.0
 11
149.3229629484
 21
-0.0
 31
0.0
 40
0.2042552558
 41
-1.6154347561
 42
-1.611245403
  0
ELLIPSE
  5
802
100
AcDbEntity
  8
0
100
AcDbEllipse
 62
7
  6
CONTINUOUS
 10
131.27391236
 20
84.6804360465
 30
0.0
 11
39.8194396976
 21
-0.0
 31
0.0
 40
0.7659575381
 41
-1.611245403
 42
-1.5986813096
  0
ELLIPSE
  5
803
100
AcDbEntity
  8
0
100
AcDbEllipse
 62
7
  6
CONTINUOUS
 10
130.7881910404
 20
84.6804360465
 30
0.0
 11
-0.0
 21
30.5
 31
0.0
 40
0.7343750875
 41
-3.1694776364
 42
-3.1527320159
  0
ELLIPSE
  5
804
100
AcDbEntity
  8
0
100
AcDbEllipse
 62
7
  6
CONTINUOUS
 10
205.8278034418
 20
53.6804360465
 30
0.0
 11
-0.0
 21
30.0
 31
0.0
 40
0.3263886165
 41
-0.0113250262
 42
0.0
  0
ELLIPSE
  5
805
100
AcDbEntity
  8
0
100
AcDbEllipse
 62
7
  6
CONTINUOUS
 10
194.3348591142
 20
53.6804360465
 30
0.0
 11
-0.0
 21
30.0
 31
0.0
 40
0.4895843255
 41
-0.0155807331
 42
-0.0
  0
ELLIPSE
  5
806
100
AcDbEntity
  8
0
100
AcDbEllipse
 62
7
  6
CONTINUOUS
 10
130.6495802791
 20
84.6804360465
 30
0.0
 11
0.0
 21
30.0
 31
0.0
 40
0.3263886165
 41
-3.1529176798
 42
-3.1415926536
  0
ELLIPSE
  5
807
100
AcDbEntity
  8
0
100
AcDbEllipse
 62
7
  6
CONTINUOUS
 10
142.1425246067
 20
84.6804360465
 30
0.0
 11
-0.0
 21
30.0
 31
0.0
 40
0.4895843255
 41
-3.1571733867
 42
-3.1415926536
  0
ELLIPSE
  5
808
100
AcDbEntity
  8
0
100
AcDbEllipse
 62
7
  6
CONTINUOUS
 10
130.7881910404
 20
84.6804360465
 30
0.0
 11
0.0
 21
30.0
 31
0.0
 40
0.7343750875
 41
-3.1699425097
 42
-3.1529176798
  0
ELLIPSE
  5
809
100
AcDbEntity
  8
0
100
AcDbEllipse
 62
7
  6
CONTINUOUS
 10
131.27391236
 20
84.6804360465
 30
0.0
 11
39.1666619976
 21
0.0
 31
0.0
 40
0.7659575381
 41
-1.6119199315
 42
-1.5991461829
  0
ELLIPSE
  5
80A
100
AcDbEntity
  8
0
100
AcDbEllipse
 62
7
  6
CONTINUOUS
 10
135.7020209974
 20
84.6804360465
 30
0.0
 11
146.8750455231
 21
-0.0
 31
0.0
 40
0.2042552558
 41
-1.6161792369
 42
-1.6119199315
  0
ELLIPSE
  5
80B
100
AcDbEntity
  8
0
100
AcDbEllipse
 62
7
  6
CONTINUOUS
 10
142.3713565204
 20
84.6804360465
 30
0.0
 11
0.0
 21
30.0
 31
0.0
 40
0.9791658496
 41
-3.1741998087
 42
-3.1571733867
  0
ELLIPSE
  5
80C
100
AcDbEntity
  8
0
100
AcDbEllipse
 62
7
  6
CONTINUOUS
 10
143.3290211803
 20
84.6804360465
 30
0.0
 11
58.7499509752
 21
0.0
 31
0.0
 40
0.510638724
 41
-1.6119199315
 42
-1.6034034819
  0
ENDSEC
  0
SECTION
  2
OBJECTS
  0
DICTIONARY
  5
C
100
AcDbDictionary
280
0
281
1
  3
ACAD_GROUP
350
D
  3
ACAD_MLINESTYLE
350
17
  3
ACAD_LAYOUT
350
1A
  3
ACAD_PLOTSETTINGS
350
19
  3
ACAD_PLOTSTYLENAME
350
E
  0
DICTIONARY
  5
D
102
{ACAD_REACTORS
330
C
102
}
100
AcDbDictionary
280
0
281
1
  0
ACDBDICTIONARYWDFLT
  5
E
102
{ACAD_REACTORS
330
C
102
}
100
AcDbDictionary
281
1
  3
Normal
350
F
100
AcDbDictionaryWithDefault
340
F
  0
DICTIONARY
  5
17
102
{ACAD_REACTORS
330
C
102
}
100
AcDbDictionary
280
0
281
1
  3
Standard
350
18
  0
DICTIONARY
  5
19
102
{ACAD_REACTORS
330
C
102
}
100
AcDbDictionary
281
1
  0
DICTIONARY
  5
1A
102
{ACAD_REACTORS
330
C
102
}
100
AcDbDictionary
281
1
  3
Model
350
80D
  3
Layout1
350
80E
  0
ACDBPLACEHOLDER
  5
F
102
{ACAD_REACTORS
330
E
102
}
  0
MLINESTYLE
  5
18
102
{ACAD_REACTORS
330
17
102
}
100
AcDbMlineStyle
  2
STANDARD
 70
0
  3

 62
256
 51
90.0
 52
90.0
 71
2
 49
0.5
 62
256
  6
BYLAYER
 49
-0.5
 62
256
  6
BYLAYER
  0
LAYOUT
  5
80D
102
{ACAD_REACTORS
330
1A
102
}
100
AcDbPlotSettings
  1

  2
none_device
  4
ISO_A3_(420.00_x_297.00_MM)
  6

 40
0.0
 41
0.0
 42
0.0
 43
0.0
 44
420.0
 45
297.0
 46
0.0
 47
0.0
 48
0.0
 49
0.0
140
0.0
141
0.0
142
1.0
143
1.0
 70
1024
 72
1
 73
0
 74
0
  7

 75
0
147
1.0
148
0.0
149
0.0
100
AcDbLayout
  1
Model
 70
0
 71
0
 10
0.0
 20
0.0
 11
420.0
 21
297.0
 12
0.0
 22
0.0
 32
0.0
 14
0.0
 24
0.0
 34
0.0
 15
0.0
 25
0.0
 35
0.0
146
0.0
 13
0.0
 23
0.0
 33
0.0
 16
1.0
 26
0.0
 36
0.0
 17
0.0
 27
1.0
 37
0.0
 76
0
330
213
345
0
346
0
  0
LAYOUT
  5
80E
102
{ACAD_REACTORS
330
1A
102
}
100
AcDbPlotSettings
  1

  2
none_device
  4
ISO_A3_(420.00_x_297.00_MM)
  6

 40
0.0
 41
0.0
 42
0.0
 43
0.0
 44
420.0
 45
297.0
 46
0.0
 47
0.0
 48
0.0
 49
0.0
140
0.0
141
0.0
142
1.0
143
1.0
 70
0
 72
1
 73
0
 74
0
  7

 75
0
147
1.0
148
0.0
149
0.0
100
AcDbLayout
  1
Layout1
 70
0
 71
1
 10
0.0
 20
0.0
 11
420.0
 21
297.0
 12
0.0
 22
0.0
 32
0.0
 14
0.0
 24
0.0
 34
0.0
 15
0.0
 25
0.0
 35
0.0
146
0.0
 13
0.0
 23
0.0
 33
0.0
 16
1.0
 26
0.0
 36
0.0
 17
0.0
 27
1.0
 37
0.0
 76
0
330
214
345
0
346
0
  0
ENDSEC
  0
EOF
