999
DXF file: 001-m34420-p-1.dxf
999
Pro/ENGINEER 2011490 by Parametric Technology Corporation
  0
SECTION
  2
HEADER
  9
$ACADVER
  1
AC1015
  9
$DWGCODEPAGE
  3
ANSI_1252
  9
$EXTMAX
 10
420.0
 20
297.0
 30
0.0
  9
$EXTMIN
 10
0.0
 20
0.0
 30
0.0
  9
$LIMMIN
 10
0.0
 20
0.0
  9
$LIMMAX
 10
420.0
 20
297.0
  9
$VIEWCTR
 10
210.0
 20
148.5
  9
$VIEWSIZE
 40
297.0
  9
$CLAYER
  8
0
  9
$LTSCALE
 40
23.1
  9
$CELTYPE
  6
BYLAYER
  9
$DIMSCALE
 40
1.0
  9
$DIMASZ
 40
3.5
  9
$DIMEXO
 40
2.625
  9
$DIMDLI
 40
15.96
  9
$DIMEXE
 40
7.56
  9
$DIMCEN
 40
3.78
  9
$DIMLFAC
 40
1.0
  9
$DIMBLK
  1
_FILLED
  9
$DIMTXT
 40
3.5
  9
$DIMTOL
 70
1
  9
$DIMLIM
 70
0
  9
$DIMTFAC
 40
1.0
  9
$DIMTP
 40
0.005
  9
$DIMTM
 40
0.005
  9
$PDMODE
 70
3
  9
$PDSIZE
 40
0.3125
  9
$HANDSEED
  5
73D
  9
$TILEMODE
 70
1
  9
$MEASUREMENT
 70
1
  9
$INSUNITS
 70
4
  0
ENDSEC
  0
SECTION
  2
CLASSES
  0
CLASS
  1
ACDBDICTIONARYWDFLT
  2
AcDbDictionaryWithDefault
  3
AutoCAD 2000
 90
0
280
0
281
0
  0
CLASS
  1
ACDBPLACEHOLDER
  2
AcDbPlaceHolder
  3
AutoCAD 2000
 90
0
280
0
281
0
  0
CLASS
  1
LAYOUT
  2
AcDbLayout
  3
AutoCAD 2000
 90
0
280
0
281
0
  0
ENDSEC
  0
SECTION
  2
TABLES
  0
TABLE
  2
VPORT
  5
8
100
AcDbSymbolTable
 70
2
  0
VPORT
  5
1F4
100
AcDbSymbolTableRecord
100
AcDbViewportTableRecord
  2
*ACTIVE
 70
0
 10
0.0
 20
0.0
 11
1.0
 21
1.0
 12
210.0
 22
148.5
 13
0.0
 23
0.0
 14
1.0
 24
1.0
 15
0.0
 25
0.0
 16
0.0
 26
0.0
 36
1.0
 17
0.0
 27
0.0
 37
0.0
 40
297.0
 41
1.4141414141
 42
50.0
 43
0.0
 44
0.0
 50
0.0
 51
0.0
 71
0
 72
100
 73
1
 74
1
 75
0
 76
0
 77
0
 78
0
  0
ENDTAB
  0
TABLE
  2
LTYPE
  5
5
100
AcDbSymbolTable
 70
6
  0
LTYPE
  5
14
100
AcDbSymbolTableRecord
100
AcDbLinetypeTableRecord
  2
BYBLOCK
 70
0
  3

 72
65
 73
0
 40
0.0
  0
LTYPE
  5
15
100
AcDbSymbolTableRecord
100
AcDbLinetypeTableRecord
  2
BYLAYER
 70
0
  3

 72
65
 73
0
 40
0.0
  0
LTYPE
  5
16
100
AcDbSymbolTableRecord
100
AcDbLinetypeTableRecord
  2
CONTINUOUS
 70
64
  3
Solid line
 72
65
 73
0
 40
0.0
  0
LTYPE
  5
1F5
100
AcDbSymbolTableRecord
100
AcDbLinetypeTableRecord
  2
CENTER
 70
64
  3
____ _ ____ _ ____ _ ____ _ ____ _ ____ _ ____
 72
65
 73
4
 40
0.6
 49
0.375
 74
0
 49
-0.075
 74
0
 49
0.075
 74
0
 49
-0.075
 74
0
  0
LTYPE
  5
1F6
100
AcDbSymbolTableRecord
100
AcDbLinetypeTableRecord
  2
HIDDEN
 70
64
  3
- - - - - - - - - - - - - - - - - - - -
 72
65
 73
2
 40
0.2
 49
0.1
 74
0
 49
-0.1
 74
0
  0
LTYPE
  5
1F7
100
AcDbSymbolTableRecord
100
AcDbLinetypeTableRecord
  2
PHANTOM
 70
64
  3
_____ _ _ _____ _ _ _____ _ _ _____
 72
65
 73
6
 40
0.8
 49
0.45
 74
0
 49
-0.05
 74
0
 49
0.1
 74
0
 49
-0.05
 74
0
 49
0.1
 74
0
 49
-0.05
 74
0
  0
LTYPE
  5
1F8
100
AcDbSymbolTableRecord
100
AcDbLinetypeTableRecord
  2
DOT
 70
64
  3
. . . . . . . . . . . . . . . . . . . .
 72
65
 73
2
 40
0.2
 49
0.1
 74
0
 49
-0.1
 74
0
  0
LTYPE
  5
1F9
100
AcDbSymbolTableRecord
100
AcDbLinetypeTableRecord
  2
DASHED
 70
64
  3
- - - - - - - - - - - - - - - - - - - -
 72
65
 73
2
 40
0.2
 49
0.1
 74
0
 49
-0.1
 74
0
  0
ENDTAB
  0
TABLE
  2
LAYER
  5
2
100
AcDbSymbolTable
 70
36
  0
LAYER
  5
10
100
AcDbSymbolTableRecord
100
AcDbLayerTableRecord
  2
0
 70
0
 62
7
  6
CONTINUOUS
370
-3
390
F
  0
LAYER
  5
1FA
100
AcDbSymbolTableRecord
100
AcDbLayerTableRecord
  2
DEFAULT_1
 70
0
 62
7
  6
CENTER
370
-3
390
F
  0
LAYER
  5
1FB
100
AcDbSymbolTableRecord
100
AcDbLayerTableRecord
  2
DEFAULT_2
 70
0
 62
8
  6
HIDDEN
370
-3
390
F
  0
LAYER
  5
1FC
100
AcDbSymbolTableRecord
100
AcDbLayerTableRecord
  2
DEFAULT_3
 70
0
 62
7
  6
PHANTOM
370
-3
390
F
  0
LAYER
  5
1FD
100
AcDbSymbolTableRecord
100
AcDbLayerTableRecord
  2
AUSFORMSCHRAEGEN
 70
0
 62
7
  6
CONTINUOUS
370
-3
390
F
  0
LAYER
  5
1FE
100
AcDbSymbolTableRecord
100
AcDbLayerTableRecord
  2
BEZUGSACHSEN
 70
0
 62
7
  6
CONTINUOUS
370
-3
390
F
  0
LAYER
  5
1FF
100
AcDbSymbolTableRecord
100
AcDbLayerTableRecord
  2
BEZUGSEBENEN
 70
0
 62
7
  6
CONTINUOUS
370
-3
390
F
  0
LAYER
  5
200
100
AcDbSymbolTableRecord
100
AcDbLayerTableRecord
  2
BG_STARTBEZUEGE
 70
0
 62
7
  6
CONTINUOUS
370
-3
390
F
  0
LAYER
  5
201
100
AcDbSymbolTableRecord
100
AcDbLayerTableRecord
  2
BOHRUNGEN
 70
0
 62
7
  6
CONTINUOUS
370
-3
390
F
  0
LAYER
  5
202
100
AcDbSymbolTableRecord
100
AcDbLayerTableRecord
  2
FASEN
 70
0
 62
7
  6
CONTINUOUS
370
-3
390
F
  0
LAYER
  5
203
100
AcDbSymbolTableRecord
100
AcDbLayerTableRecord
  2
FLAECHEN
 70
0
 62
7
  6
CONTINUOUS
370
-3
390
F
  0
LAYER
  5
204
100
AcDbSymbolTableRecord
100
AcDbLayerTableRecord
  2
HILFEN
 70
0
 62
7
  6
CONTINUOUS
370
-3
390
F
  0
LAYER
  5
205
100
AcDbSymbolTableRecord
100
AcDbLayerTableRecord
  2
KONSTRUKTIONSELEMENTE
 70
0
 62
7
  6
CONTINUOUS
370
-3
390
F
  0
LAYER
  5
206
100
AcDbSymbolTableRecord
100
AcDbLayerTableRecord
  2
KURVEN
 70
0
 62
7
  6
CONTINUOUS
370
-3
390
F
  0
LAYER
  5
207
100
AcDbSymbolTableRecord
100
AcDbLayerTableRecord
  2
NORM
 70
0
 62
7
  6
CONTINUOUS
370
-3
390
F
  0
LAYER
  5
208
100
AcDbSymbolTableRecord
100
AcDbLayerTableRecord
  2
PLATZIERUNG
 70
0
 62
7
  6
CONTINUOUS
370
-3
390
F
  0
LAYER
  5
209
100
AcDbSymbolTableRecord
100
AcDbLayerTableRecord
  2
RUNDUNGEN
 70
0
 62
7
  6
CONTINUOUS
370
-3
390
F
  0
LAYER
  5
20A
100
AcDbSymbolTableRecord
100
AcDbLayerTableRecord
  2
TEIL_STARTBEZUEGE
 70
0
 62
7
  6
CONTINUOUS
370
-3
390
F
  0
LAYER
  5
20B
100
AcDbSymbolTableRecord
100
AcDbLayerTableRecord
  2
T_STARTBEZUEGE
 70
0
 62
7
  6
CONTINUOUS
370
-3
390
F
  0
LAYER
  5
20C
100
AcDbSymbolTableRecord
100
AcDbLayerTableRecord
  2
XSEC_DATUMS
 70
0
 62
7
  6
CONTINUOUS
370
-3
390
F
  0
ENDTAB
  0
TABLE
  2
STYLE
  5
3
100
AcDbSymbolTable
 70
1
  0
STYLE
  5
11
100
AcDbSymbolTableRecord
100
AcDbTextStyleTableRecord
  2
STANDARD
 70
0
 40
0.0
 41
0.7
 50
0.0
 71
0
 42
0.2
  3
txt
  4

  0
STYLE
  5
20D
100
AcDbSymbolTableRecord
100
AcDbTextStyleTableRecord
  2
TEXTSTYLE_1
 70
0
 40
0.0
 41
0.8
 50
0.0
 71
0
 42
0.2
  3
gdt
  4

  0
ENDTAB
  0
TABLE
  2
VIEW
  5
6
100
AcDbSymbolTable
 70
0
  0
ENDTAB
  0
TABLE
  2
UCS
  5
7
100
AcDbSymbolTable
 70
0
  0
ENDTAB
  0
TABLE
  2
APPID
  5
9
100
AcDbSymbolTable
 70
1
  0
APPID
  5
20E
100
AcDbSymbolTableRecord
100
AcDbRegAppTableRecord
  2
ACAD
 70
0
  0
ENDTAB
  0
TABLE
  2
BLOCK_RECORD
  5
1
100
AcDbSymbolTable
 70
0
  0
BLOCK_RECORD
  5
20F
100
AcDbSymbolTableRecord
100
AcDbBlockTableRecord
  2
*Model_Space
  0
BLOCK_RECORD
  5
210
100
AcDbSymbolTableRecord
100
AcDbBlockTableRecord
  2
*Paper_Space
  0
ENDTAB
  0
TABLE
  2
DIMSTYLE
  5
A
100
AcDbSymbolTable
 70
1
100
AcDbDimStyleTable
 71
0
  0
DIMSTYLE
105
211
100
AcDbSymbolTableRecord
100
AcDbDimStyleTableRecord
  2
STANDARD
 70
0
  3

  4

 40
1.0
 41
3.5
 42
0.0625
 43
0.38
 44
0.18
 45
0.0
 46
0.0
 47
0.005
 48
0.005
140
3.5
141
0.09
142
0.0
143
25.4
144
1.0
145
0.0
146
1.0
147
0.09
 71
1.0
 72
0.0
 73
0
 74
0
 75
0
 76
0
 77
1
 78
8
170
0
171
2
172
0
173
0
174
0
175
0
176
0
177
0
178
5
270
2
271
3
272
3
273
2
274
2
275
0
280
0
281
0
282
0
283
1
284
8
285
0
286
0
287
3
288
0
340
11
  0
ENDTAB
  0
ENDSEC
  0
SECTION
  2
BLOCKS
  0
BLOCK
  5
20
100
AcDbEntity
  8
0
100
AcDbBlockBegin
  2
*Model_Space
 70
0
 10
0.0
 20
0.0
 30
0.0
  3
*Model_Space
  1

  0
ENDBLK
  5
21
100
AcDbEntity
  8
0
100
AcDbBlockEnd
  0
BLOCK
  5
1C
100
AcDbEntity
  8
0
100
AcDbBlockBegin
  2
*Paper_Space
 70
0
 10
0.0
 20
0.0
 30
0.0
  3
*Paper_Space
  1

  0
ENDBLK
  5
1D
100
AcDbEntity
  8
0
100
AcDbBlockEnd
  0
ENDSEC
  0
SECTION
  2
ENTITIES
  0
MTEXT
  5
212
100
AcDbEntity
  8
0
100
AcDbMText
 62
5
  6
CONTINUOUS
  7
STANDARD
 71
2
 72
1
 10
126.4052279799
 20
258.8010093438
 30
0.0
 11
0.906307787
 21
0.4226182617
 31
0.0
 44
0.9
  1
VRBK
 40
5.0
 41
16.9047619048
  0
MTEXT
  5
213
100
AcDbEntity
  8
0
100
AcDbMText
 62
5
  6
CONTINUOUS
  7
STANDARD
 71
1
 72
1
 10
137.6263087044
 20
262.9944990129
 30
0.0
 11
1.0
 21
0.0
 31
0.0
 44
0.9
  1
-FIX
 40
5.0
 41
15.5952380952
  0
MTEXT
  5
214
100
AcDbEntity
  8
0
100
AcDbMText
 62
5
  6
CONTINUOUS
  7
STANDARD
 71
1
 72
1
 10
159.2324835815
 20
261.8379900645
 30
0.0
 11
0.906307787
 21
-0.4226182617
 31
0.0
 44
0.9
  1
6,7t
 40
5.0
 41
14.5238095238
  0
MTEXT
  5
215
100
AcDbEntity
  8
0
100
AcDbMText
 62
5
  6
CONTINUOUS
  7
STANDARD
 71
1
 72
1
 10
317.5656281388
 20
209.3892553601
 30
0.0
 11
0.0
 21
1.0
 31
0.0
 44
0.9
  1
RUD VRBK-FIX 6,7t
 40
4.0
 41
52.2857142857
  0
MTEXT
  5
216
100
AcDbEntity
  8
0
100
AcDbMText
 62
5
  6
CONTINUOUS
  7
STANDARD
 71
1
 72
1
 10
114.8373378737
 20
55.7186146865
 30
0.0
 11
1.0
 21
0.0
 31
0.0
 44
0.9
  1
RUD VRBK-FIX 6,7t
 40
5.0
 41
65.3571428571
  0
LINE
  5
217
100
AcDbEntity
  8
0
100
AcDbLine
 62
7
  6
CONTINUOUS
 10
0.0
 20
0.0
 11
0.0
 21
297.0
  0
LINE
  5
218
100
AcDbEntity
  8
0
100
AcDbLine
 62
7
  6
CONTINUOUS
 10
0.0
 20
0.0
 11
420.0
 21
0.0
  0
LINE
  5
219
100
AcDbEntity
  8
0
100
AcDbLine
 62
7
  6
CONTINUOUS
 10
0.0
 20
297.0
 11
420.0
 21
297.0
  0
LINE
  5
21A
100
AcDbEntity
  8
0
100
AcDbLine
 62
7
  6
CONTINUOUS
 10
420.0
 20
0.0
 11
420.0
 21
297.0
  0
LWPOLYLINE
  5
21B
100
AcDbEntity
  8
KONSTRUKTIONSELEMENTE
100
AcDbPolyline
 62
7
  6
CONTINUOUS
 90
6
 70
0
 10
58.4579897706
 20
172.4822520039
 10
58.4622330102
 20
172.4387879644
 10
58.4667502747
 20
172.3781691367
 10
58.4709922993
 20
172.3000668797
 10
58.4744391948
 20
172.2046990081
 10
58.4766146714
 20
172.0899880755
  0
LWPOLYLINE
  5
21C
100
AcDbEntity
  8
KONSTRUKTIONSELEMENTE
100
AcDbPolyline
 62
7
  6
CONTINUOUS
 90
14
 70
0
 10
55.6841109032
 20
173.1667823587
 10
55.6857486922
 20
173.0858278177
 10
55.7122683726
 20
172.8323300746
 10
55.7708129628
 20
172.5842636734
 10
55.8604316374
 20
172.3456574905
 10
55.9796688932
 20
172.1203867553
 10
56.1265881864
 20
171.9121101168
 10
56.2988033881
 20
171.7242102181
 10
56.4935175344
 20
171.5597387632
 10
56.7075682558
 20
171.4213669509
 10
56.9374791348
 20
171.3113420949
 10
57.1795161678
 20
171.2314511236
 10
57.4297484093
 20
171.1829915594
 10
57.6841118092
 20
171.1667504455
  0
LINE
  5
21D
100
AcDbEntity
  8
KONSTRUKTIONSELEMENTE
100
AcDbLine
 62
7
  6
CONTINUOUS
 10
55.6841098387
 20
175.6419045085
 11
55.6841098387
 21
173.1670273879
  0
LINE
  5
21E
100
AcDbEntity
  8
KONSTRUKTIONSELEMENTE
100
AcDbLine
 62
7
  6
CONTINUOUS
 10
55.6841098387
 20
148.299036143
 11
55.6841098387
 21
145.8241590225
  0
LWPOLYLINE
  5
21F
100
AcDbEntity
  8
KONSTRUKTIONSELEMENTE
100
AcDbPolyline
 62
7
  6
CONTINUOUS
 90
4
 70
0
 10
58.4539447623
 20
172.5139062752
 10
58.4536976221
 20
172.5153015411
 10
58.4548414113
 20
172.5076963604
 10
58.4579897706
 20
172.4822520039
  0
LINE
  5
220
100
AcDbEntity
  8
KONSTRUKTIONSELEMENTE
100
AcDbLine
 62
7
  6
CONTINUOUS
 10
58.4766146714
 20
172.0899880755
 11
58.4771030469
 21
171.9952056718
  0
LINE
  5
221
100
AcDbEntity
  8
0
100
AcDbLine
 62
7
  6
CONTINUOUS
 10
58.4771030469
 20
171.9952056718
 11
58.4771031088
 21
171.9947732621
  0
LWPOLYLINE
  5
222
100
AcDbEntity
  8
KONSTRUKTIONSELEMENTE
100
AcDbPolyline
 62
7
  6
CONTINUOUS
 90
9
 70
0
 10
58.4771031088
 20
171.9947732621
 10
58.4743377407
 20
171.7547522332
 10
58.4664109561
 20
171.5013425038
 10
58.4530670005
 20
171.2210323439
 10
58.4339456316
 20
170.916727338
 10
58.4089608647
 20
170.5910592687
 10
58.378042888
 20
170.2471417811
 10
58.3411906563
 20
169.8880884316
 10
58.2985889549
 20
169.5173789907
  0
LINE
  5
223
100
AcDbEntity
  8
KONSTRUKTIONSELEMENTE
100
AcDbLine
 62
7
  6
CONTINUOUS
 10
55.6924663631
 20
148.5580672546
 11
55.684110905
 21
148.2995075279
  0
LINE
  5
224
100
AcDbEntity
  8
KONSTRUKTIONSELEMENTE
100
AcDbLine
 62
7
  6
CONTINUOUS
 10
55.7146525388
 20
148.7923387132
 11
55.6924663631
 21
148.5580672546
  0
LINE
  5
225
100
AcDbEntity
  8
KONSTRUKTIONSELEMENTE
100
AcDbLine
 62
7
  6
CONTINUOUS
 10
55.7146687478
 20
148.7923366967
 11
58.2985889549
 21
169.5173789907
  0
LWPOLYLINE
  5
226
100
AcDbEntity
  8
KONSTRUKTIONSELEMENTE
100
AcDbPolyline
 62
7
  6
CONTINUOUS
 90
4
 70
0
 10
57.7264641042
 20
138.7903963424
 10
57.846229563
 20
138.7632119327
 10
58.0468805186
 20
138.7264866026
 10
58.2597045113
 20
138.6989366417
  0
LINE
  5
227
100
AcDbEntity
  8
KONSTRUKTIONSELEMENTE
100
AcDbLine
 62
7
  6
CONTINUOUS
 10
74.5005430956
 20
146.5889463331
 11
89.6010501043
 21
135.954860067
  0
LINE
  5
228
100
AcDbEntity
  8
KONSTRUKTIONSELEMENTE
100
AcDbLine
 62
7
  6
CONTINUOUS
 10
62.3892685023
 20
194.6325207647
 11
55.8807497783
 21
176.7445588498
  0
LWPOLYLINE
  5
229
100
AcDbEntity
  8
KONSTRUKTIONSELEMENTE
100
AcDbPolyline
 62
7
  6
CONTINUOUS
 90
4
 70
0
 10
234.1836971084
 20
138.70168392
 10
234.383821046
 20
138.7285778372
 10
234.5830761787
 20
138.7657159439
 10
234.691018135
 20
138.7903958968
  0
LINE
  5
22A
100
AcDbEntity
  8
KONSTRUKTIONSELEMENTE
100
AcDbLine
 62
7
  6
CONTINUOUS
 10
77.4783256581
 20
195.7224350715
 11
77.4783256581
 21
196.0766905123
  0
LINE
  5
22B
100
AcDbEntity
  8
KONSTRUKTIONSELEMENTE
100
AcDbLine
 62
7
  6
CONTINUOUS
 10
77.4783256581
 20
198.1578055909
 11
77.4783256581
 21
198.5129445051
  0
LINE
  5
22C
100
AcDbEntity
  8
KONSTRUKTIONSELEMENTE
100
AcDbLine
 62
7
  6
CONTINUOUS
 10
78.0616584352
 20
195.7224350715
 11
78.0616584352
 21
196.0766905123
  0
LINE
  5
22D
100
AcDbEntity
  8
KONSTRUKTIONSELEMENTE
100
AcDbLine
 62
7
  6
CONTINUOUS
 10
234.1836971084
 20
138.70168392
 11
203.1862451372
 21
135.5182351595
  0
LINE
  5
22E
100
AcDbEntity
  8
KONSTRUKTIONSELEMENTE
100
AcDbLine
 62
7
  6
CONTINUOUS
 10
203.1862449391
 20
135.5182351391
 11
203.1861764207
 21
135.5182281874
  0
LINE
  5
22F
100
AcDbEntity
  8
KONSTRUKTIONSELEMENTE
100
AcDbLine
 62
7
  6
CONTINUOUS
 10
90.4149451449
 20
135.3966718453
 11
58.2596745903
 21
138.6989281767
  0
LINE
  5
230
100
AcDbEntity
  8
KONSTRUKTIONSELEMENTE
100
AcDbLine
 62
7
  6
CONTINUOUS
 10
79.6658256581
 20
195.7224350715
 11
79.6658256581
 21
197.3170900276
  0
LINE
  5
231
100
AcDbEntity
  8
KONSTRUKTIONSELEMENTE
100
AcDbLine
 62
7
  6
CONTINUOUS
 10
79.6658256581
 20
197.7269072928
 11
79.6658256581
 21
198.5129445051
  0
LINE
  5
232
100
AcDbEntity
  8
KONSTRUKTIONSELEMENTE
100
AcDbLine
 62
7
  6
CONTINUOUS
 10
80.1033256581
 20
195.7224350715
 11
80.1033256581
 21
198.5129445051
  0
LINE
  5
233
100
AcDbEntity
  8
KONSTRUKTIONSELEMENTE
100
AcDbLine
 62
7
  6
CONTINUOUS
 10
80.6866584352
 20
196.3277681397
 11
80.6866584352
 21
196.8961138443
  0
LINE
  5
234
100
AcDbEntity
  8
KONSTRUKTIONSELEMENTE
100
AcDbLine
 62
7
  6
CONTINUOUS
 10
80.6866584352
 20
197.3730587653
 11
80.6866584352
 21
197.9773666326
  0
LINE
  5
235
100
AcDbEntity
  8
KONSTRUKTIONSELEMENTE
100
AcDbLine
 62
7
  6
CONTINUOUS
 10
80.7595756581
 20
196.1648220969
 11
80.7595756581
 21
196.518606712
  0
LINE
  5
236
100
AcDbEntity
  8
KONSTRUKTIONSELEMENTE
100
AcDbLine
 62
7
  6
CONTINUOUS
 10
80.7595756581
 20
197.2208133502
 11
80.7595756581
 21
197.574534484
  0
LINE
  5
237
100
AcDbEntity
  8
KONSTRUKTIONSELEMENTE
100
AcDbLine
 62
7
  6
CONTINUOUS
 10
80.9783256581
 20
195.9450599471
 11
80.9783256581
 21
196.2990479319
  0
LINE
  5
238
100
AcDbEntity
  8
KONSTRUKTIONSELEMENTE
100
AcDbLine
 62
7
  6
CONTINUOUS
 10
80.9783256581
 20
197.2650780241
 11
80.9783256581
 21
197.368927702
  0
LINE
  5
239
100
AcDbEntity
  8
KONSTRUKTIONSELEMENTE
100
AcDbLine
 62
7
  6
CONTINUOUS
 10
81.1241584352
 20
196.7353717176
 11
81.1241584352
 21
196.8427074901
  0
LINE
  5
23A
100
AcDbEntity
  8
KONSTRUKTIONSELEMENTE
100
AcDbLine
 62
7
  6
CONTINUOUS
 10
81.1241584352
 20
197.7773488818
 11
81.1241584352
 21
197.927624655
  0
LINE
  5
23B
100
AcDbEntity
  8
KONSTRUKTIONSELEMENTE
100
AcDbLine
 62
7
  6
CONTINUOUS
 10
81.1970756581
 20
196.6488438046
 11
81.1970756581
 21
197.002403612
  0
LINE
  5
23C
100
AcDbEntity
  8
KONSTRUKTIONSELEMENTE
100
AcDbLine
 62
7
  6
CONTINUOUS
 10
81.1970756581
 20
197.7220393711
 11
81.1970756581
 21
198.076325098
  0
LINE
  5
23D
100
AcDbEntity
  8
KONSTRUKTIONSELEMENTE
100
AcDbLine
 62
7
  6
CONTINUOUS
 10
81.2699920467
 20
195.7783600067
 11
81.2699920467
 21
196.1325425535
  0
LINE
  5
23E
100
AcDbEntity
  8
KONSTRUKTIONSELEMENTE
100
AcDbLine
 62
7
  6
CONTINUOUS
 10
81.3429084352
 20
196.7544427528
 11
81.3429084352
 21
197.1079962226
  0
LINE
  5
23F
100
AcDbEntity
  8
KONSTRUKTIONSELEMENTE
100
AcDbLine
 62
7
  6
CONTINUOUS
 10
81.3429084352
 20
197.8201353812
 11
81.3429084352
 21
198.1745822336
  0
LINE
  5
240
100
AcDbEntity
  8
KONSTRUKTIONSELEMENTE
100
AcDbLine
 62
7
  6
CONTINUOUS
 10
81.5616584352
 20
196.8069748666
 11
81.5616584352
 21
197.160531109
  0
LINE
  5
241
100
AcDbEntity
  8
KONSTRUKTIONSELEMENTE
100
AcDbLine
 62
7
  6
CONTINUOUS
 10
81.5616584352
 20
197.8689139955
 11
81.5616584352
 21
198.2234474838
  0
LINE
  5
242
100
AcDbEntity
  8
KONSTRUKTIONSELEMENTE
100
AcDbLine
 62
7
  6
CONTINUOUS
 10
81.6345756581
 20
195.7224350715
 11
81.6345756581
 21
196.0766905123
  0
LINE
  5
243
100
AcDbEntity
  8
KONSTRUKTIONSELEMENTE
100
AcDbLine
 62
7
  6
CONTINUOUS
 10
82.9470756581
 20
196.4091768224
 11
82.9470756581
 21
197.160531109
  0
LINE
  5
244
100
AcDbEntity
  8
KONSTRUKTIONSELEMENTE
100
AcDbLine
 62
7
  6
CONTINUOUS
 10
82.9470756581
 20
197.4720799501
 11
82.9470756581
 21
198.2234474838
  0
LINE
  5
245
100
AcDbEntity
  8
KONSTRUKTIONSELEMENTE
100
AcDbLine
 62
7
  6
CONTINUOUS
 10
83.3845752409
 20
195.7224350715
 11
83.3845752409
 21
198.5129445051
  0
LINE
  5
246
100
AcDbEntity
  8
KONSTRUKTIONSELEMENTE
100
AcDbLine
 62
7
  6
CONTINUOUS
 10
83.9679088524
 20
198.1578055909
 11
83.9679088524
 21
198.5129445051
  0
LINE
  5
247
100
AcDbEntity
  8
KONSTRUKTIONSELEMENTE
100
AcDbLine
 62
7
  6
CONTINUOUS
 10
84.0408252409
 20
196.3277681397
 11
84.0408252409
 21
196.8961138443
  0
LINE
  5
248
100
AcDbEntity
  8
KONSTRUKTIONSELEMENTE
100
AcDbLine
 62
7
  6
CONTINUOUS
 10
84.1137420467
 20
196.1648220969
 11
84.1137420467
 21
196.518606712
  0
LINE
  5
249
100
AcDbEntity
  8
KONSTRUKTIONSELEMENTE
100
AcDbLine
 62
7
  6
CONTINUOUS
 10
84.3324920467
 20
195.9450599471
 11
84.3324920467
 21
196.2990479319
  0
LINE
  5
24A
100
AcDbEntity
  8
KONSTRUKTIONSELEMENTE
100
AcDbLine
 62
7
  6
CONTINUOUS
 10
84.4783252409
 20
196.6814420815
 11
84.4783252409
 21
196.8427074901
  0
LINE
  5
24B
100
AcDbEntity
  8
KONSTRUKTIONSELEMENTE
100
AcDbLine
 62
7
  6
CONTINUOUS
 10
84.5512420467
 20
196.6488438046
 11
84.5512420467
 21
197.002403612
  0
LINE
  5
24C
100
AcDbEntity
  8
KONSTRUKTIONSELEMENTE
100
AcDbLine
 62
7
  6
CONTINUOUS
 10
84.6241588524
 20
195.7783600067
 11
84.6241588524
 21
196.1325425535
  0
LINE
  5
24D
100
AcDbEntity
  8
KONSTRUKTIONSELEMENTE
100
AcDbLine
 62
7
  6
CONTINUOUS
 10
84.6970752409
 20
196.7544427528
 11
84.6970752409
 21
197.1079962226
  0
LINE
  5
24E
100
AcDbEntity
  8
KONSTRUKTIONSELEMENTE
100
AcDbLine
 62
7
  6
CONTINUOUS
 10
84.9158252409
 20
196.8069748666
 11
84.9158252409
 21
197.160531109
  0
LINE
  5
24F
100
AcDbEntity
  8
KONSTRUKTIONSELEMENTE
100
AcDbLine
 62
7
  6
CONTINUOUS
 10
84.9887420467
 20
195.7224350715
 11
84.9887420467
 21
196.0766905123
  0
LINE
  5
250
100
AcDbEntity
  8
KONSTRUKTIONSELEMENTE
100
AcDbLine
 62
7
  6
CONTINUOUS
 10
86.3012420467
 20
196.3541997898
 11
86.3012420467
 21
197.160531109
  0
LINE
  5
251
100
AcDbEntity
  8
KONSTRUKTIONSELEMENTE
100
AcDbLine
 62
7
  6
CONTINUOUS
 10
86.3012420467
 20
197.4720799501
 11
86.3012420467
 21
198.5129445051
  0
LINE
  5
252
100
AcDbEntity
  8
KONSTRUKTIONSELEMENTE
100
AcDbLine
 62
7
  6
CONTINUOUS
 10
86.7387420467
 20
195.7224350715
 11
86.7387420467
 21
198.5129445051
  0
LINE
  5
253
100
AcDbEntity
  8
RUNDUNGEN
100
AcDbLine
 62
7
  6
CONTINUOUS
 10
144.486666601
 20
270.9742587206
 11
112.9290318236
 21
257.9026583994
  0
LINE
  5
254
100
AcDbEntity
  8
KONSTRUKTIONSELEMENTE
100
AcDbLine
 62
7
  6
CONTINUOUS
 10
87.3220754495
 20
195.7224350715
 11
87.3220754495
 21
196.0766905123
  0
LINE
  5
255
100
AcDbEntity
  8
KONSTRUKTIONSELEMENTE
100
AcDbLine
 62
7
  6
CONTINUOUS
 10
87.7595754495
 20
195.7224350715
 11
87.7595754495
 21
196.0766905123
  0
LINE
  5
256
100
AcDbEntity
  8
KONSTRUKTIONSELEMENTE
100
AcDbLine
 62
7
  6
CONTINUOUS
 10
88.7804087481
 20
197.8689139955
 11
88.7804087481
 21
198.2234474838
  0
LINE
  5
257
100
AcDbEntity
  8
KONSTRUKTIONSELEMENTE
100
AcDbLine
 62
7
  6
CONTINUOUS
 10
89.8012420467
 20
195.7224350715
 11
89.8012420467
 21
196.0766905123
  0
LINE
  5
258
100
AcDbEntity
  8
KONSTRUKTIONSELEMENTE
100
AcDbLine
 62
7
  6
CONTINUOUS
 10
90.2387420467
 20
195.7224350715
 11
90.2387420467
 21
196.0766905123
  0
LINE
  5
259
100
AcDbEntity
  8
RUNDUNGEN
100
AcDbLine
 62
7
  6
CONTINUOUS
 10
110.4936493729
 20
255.4672759487
 11
97.1460934946
 21
223.2434255229
  0
LINE
  5
25A
100
AcDbEntity
  8
RUNDUNGEN
100
AcDbLine
 62
7
  6
CONTINUOUS
 10
96.8282028618
 20
221.0509719925
 11
99.5746537453
 21
194.920237331
  0
LINE
  5
25B
100
AcDbEntity
  8
0
100
AcDbLine
 62
7
  6
CONTINUOUS
 10
95.4641117376
 20
181.1875065966
 11
95.4641117376
 21
202.2462149693
  0
LINE
  5
25C
100
AcDbEntity
  8
0
100
AcDbLine
 62
7
  6
CONTINUOUS
 10
96.7087420467
 20
167.1877802902
 11
96.7087420467
 21
195.187351161
  0
LINE
  5
25D
100
AcDbEntity
  8
RUNDUNGEN
100
AcDbLine
 62
7
  6
CONTINUOUS
 10
99.5491307856
 20
193.4580279456
 11
99.3994332545
 21
192.392874666
  0
LINE
  5
25E
100
AcDbEntity
  8
0
100
AcDbLine
 62
7
  6
CONTINUOUS
 10
96.7087420467
 20
195.1875657256
 11
95.4641117376
 21
202.2462149693
  0
LINE
  5
25F
100
AcDbEntity
  8
0
100
AcDbLine
 62
7
  6
CONTINUOUS
 10
106.7387420467
 20
185.2075657256
 11
106.7387420467
 21
190.2075657256
  0
LINE
  5
260
100
AcDbEntity
  8
0
100
AcDbLine
 62
7
  6
CONTINUOUS
 10
107.3637420467
 20
185.2075657256
 11
107.3637420467
 21
187.4416083105
  0
LINE
  5
261
100
AcDbEntity
  8
0
100
AcDbLine
 62
7
  6
CONTINUOUS
 10
107.3637420467
 20
188.0799061068
 11
107.3637420467
 21
189.6756508954
  0
LINE
  5
262
100
AcDbEntity
  8
0
100
AcDbLine
 62
7
  6
CONTINUOUS
 10
96.7087420467
 20
167.1875657256
 11
92.1704415932
 21
141.4495848718
  0
LWPOLYLINE
  5
263
100
AcDbEntity
  8
KONSTRUKTIONSELEMENTE
100
AcDbPolyline
 62
7
  6
CONTINUOUS
 90
14
 70
0
 10
234.7333722841
 20
171.1667504455
 10
234.9889045102
 20
171.1831417796
 10
235.2402482078
 20
171.2320471022
 10
235.4832835184
 20
171.3126647832
 10
235.7140267754
 20
171.4236733873
 10
235.9286957947
 20
171.5632533331
 10
236.1237718694
 20
171.7291167177
 10
236.2960574479
 20
171.9185448201
 10
236.4427285427
 20
172.1284326604
 10
236.5613810229
 20
172.3553398988
 10
236.6500700184
 20
172.5955472219
 10
236.7073418021
 20
172.8451173121
 10
236.7322576172
 20
173.0999593813
 10
236.7333731901
 20
173.1667823577
  0
LINE
  5
264
100
AcDbEntity
  8
0
100
AcDbLine
 62
7
  6
CONTINUOUS
 10
111.842908912
 20
185.9522465624
 11
112.2595751813
 21
185.526714661
  0
LINE
  5
265
100
AcDbEntity
  8
0
100
AcDbLine
 62
7
  6
CONTINUOUS
 10
110.4887420467
 20
189.3565019973
 11
110.1762420467
 21
189.7820338615
  0
LINE
  5
266
100
AcDbEntity
  8
0
100
AcDbLine
 62
7
  6
CONTINUOUS
 10
112.467908912
 20
186.165012569
 11
112.2595751813
 21
186.4841614671
  0
LINE
  5
267
100
AcDbEntity
  8
0
100
AcDbLine
 62
7
  6
CONTINUOUS
 10
111.6345754793
 20
186.3777785011
 11
111.842908912
 21
185.9522465624
  0
LINE
  5
268
100
AcDbEntity
  8
0
100
AcDbLine
 62
7
  6
CONTINUOUS
 10
110.6970754793
 20
185.2075657256
 11
109.7595754793
 21
187.6543742426
  0
LINE
  5
269
100
AcDbEntity
  8
0
100
AcDbLine
 62
7
  6
CONTINUOUS
 10
109.1345753303
 20
187.4416083105
 11
109.967908614
 21
185.2075657256
  0
LINE
  5
26A
100
AcDbEntity
  8
0
100
AcDbLine
 62
7
  6
CONTINUOUS
 10
109.967908614
 20
189.0373530992
 11
109.8637420467
 21
189.3565019973
  0
LINE
  5
26B
100
AcDbEntity
  8
0
100
AcDbLine
 62
7
  6
CONTINUOUS
 10
110.592908614
 20
189.0373530992
 11
110.4887420467
 21
189.3565019973
  0
LINE
  5
26C
100
AcDbEntity
  8
0
100
AcDbLine
 62
7
  6
CONTINUOUS
 10
112.2595751813
 20
186.4841614671
 11
112.155408912
 21
186.9096933313
  0
LINE
  5
26D
100
AcDbEntity
  8
0
100
AcDbLine
 62
7
  6
CONTINUOUS
 10
111.530408614
 20
186.9096933313
 11
111.6345754793
 21
186.3777785011
  0
LINE
  5
26E
100
AcDbEntity
  8
0
100
AcDbLine
 62
7
  6
CONTINUOUS
 10
109.967908614
 20
188.718203903
 11
109.967908614
 21
189.0373530992
  0
LINE
  5
26F
100
AcDbEntity
  8
0
100
AcDbLine
 62
7
  6
CONTINUOUS
 10
110.592908614
 20
188.611820937
 11
110.592908614
 21
189.0373530992
  0
LINE
  5
270
100
AcDbEntity
  8
0
100
AcDbLine
 62
7
  6
CONTINUOUS
 10
111.530408614
 20
186.9096933313
 11
111.530408614
 21
190.2075657256
  0
LINE
  5
271
100
AcDbEntity
  8
0
100
AcDbLine
 62
7
  6
CONTINUOUS
 10
112.155408912
 20
186.9096933313
 11
112.155408912
 21
190.2075657256
  0
LINE
  5
272
100
AcDbEntity
  8
0
100
AcDbLine
 62
7
  6
CONTINUOUS
 10
114.655408912
 20
186.9096933313
 11
114.655408912
 21
190.2075657256
  0
LINE
  5
273
100
AcDbEntity
  8
0
100
AcDbLine
 62
7
  6
CONTINUOUS
 10
115.280408912
 20
186.9096933313
 11
115.280408912
 21
190.2075657256
  0
LINE
  5
274
100
AcDbEntity
  8
0
100
AcDbLine
 62
7
  6
CONTINUOUS
 10
116.1137420467
 20
185.2075657256
 11
116.1137420467
 21
190.2075657256
  0
LINE
  5
275
100
AcDbEntity
  8
0
100
AcDbLine
 62
7
  6
CONTINUOUS
 10
116.7387420467
 20
185.8458635964
 11
116.7387420467
 21
189.5692679294
  0
LINE
  5
276
100
AcDbEntity
  8
0
100
AcDbLine
 62
7
  6
CONTINUOUS
 10
109.8637420467
 20
188.3990550049
 11
109.967908614
 21
188.718203903
  0
LINE
  5
277
100
AcDbEntity
  8
0
100
AcDbLine
 62
7
  6
CONTINUOUS
 10
110.4887420467
 20
188.2926720389
 11
110.592908614
 21
188.611820937
  0
LINE
  5
278
100
AcDbEntity
  8
KONSTRUKTIONSELEMENTE
100
AcDbLine
 62
7
  6
CONTINUOUS
 10
91.8840010189
 20
154.0348382354
 11
88.839145625
 21
153.2895083133
  0
LINE
  5
279
100
AcDbEntity
  8
BEZUGSACHSEN
100
AcDbLine
 62
7
  6
CONTINUOUS
 10
195.7087420467
 20
169.6875657256
 11
192.7579686878
 21
169.6875657256
  0
LINE
  5
27A
100
AcDbEntity
  8
BEZUGSACHSEN
100
AcDbLine
 62
7
  6
CONTINUOUS
 10
99.6595154056
 20
169.6875657256
 11
96.7087420467
 21
169.6875657256
  0
LINE
  5
27B
100
AcDbEntity
  8
RUNDUNGEN
100
AcDbLine
 62
7
  6
CONTINUOUS
 10
99.6595154056
 20
169.6875657256
 11
192.7579686878
 21
169.6875657256
  0
LINE
  5
27C
100
AcDbEntity
  8
KONSTRUKTIONSELEMENTE
100
AcDbLine
 62
7
  6
CONTINUOUS
 10
58.4496561325
 20
171.1667504455
 11
57.6841075245
 21
171.1667504455
  0
LINE
  5
27D
100
AcDbEntity
  8
KONSTRUKTIONSELEMENTE
100
AcDbLine
 62
7
  6
CONTINUOUS
 10
233.9678279608
 20
171.1667504455
 11
234.7333765686
 21
171.1667504455
  0
LINE
  5
27E
100
AcDbEntity
  8
KONSTRUKTIONSELEMENTE
100
AcDbLine
 62
7
  6
CONTINUOUS
 10
200.5334830744
 20
154.0348382354
 11
203.5783384683
 21
153.2895083133
  0
LINE
  5
27F
100
AcDbEntity
  8
KONSTRUKTIONSELEMENTE
100
AcDbLine
 62
7
  6
CONTINUOUS
 10
217.9169409978
 20
146.5889463331
 11
226.9233964704
 21
143.5837786526
  0
LINE
  5
280
100
AcDbEntity
  8
0
100
AcDbLine
 62
7
  6
CONTINUOUS
 10
112.2595751813
 20
185.526714661
 11
112.6762420467
 21
185.313948701
  0
LWPOLYLINE
  5
281
100
AcDbEntity
  8
KONSTRUKTIONSELEMENTE
100
AcDbPolyline
 62
7
  6
CONTINUOUS
 90
8
 70
0
 10
201.7284739682
 20
135.8417125346
 10
201.901834533
 20
135.7425460613
 10
202.1299188462
 20
135.6437845736
 10
202.372090869
 20
135.5710290246
 10
202.6237777966
 20
135.5249832562
 10
202.8783769369
 20
135.5059646969
 10
203.1264415042
 20
135.5128607284
 10
203.1861739538
 20
135.5182521735
  0
LINE
  5
282
100
AcDbEntity
  8
0
100
AcDbLine
 62
7
  6
CONTINUOUS
 10
112.780408912
 20
185.9522465624
 11
112.467908912
 21
186.165012569
  0
LINE
  5
283
100
AcDbEntity
  8
0
100
AcDbLine
 62
7
  6
CONTINUOUS
 10
110.1762420467
 20
189.7820338615
 11
109.7595754793
 21
190.1011827596
  0
LINE
  5
284
100
AcDbEntity
  8
0
100
AcDbLine
 62
7
  6
CONTINUOUS
 10
109.8637420467
 20
189.3565019973
 11
109.655408614
 21
189.5692679294
  0
LINE
  5
285
100
AcDbEntity
  8
0
100
AcDbLine
 62
7
  6
CONTINUOUS
 10
119.5512420467
 20
188.9309698351
 11
119.342908316
 21
189.2501190313
  0
LINE
  5
286
100
AcDbEntity
  8
0
100
AcDbLine
 62
7
  6
CONTINUOUS
 10
120.1762420467
 20
189.0373530992
 11
119.967908316
 21
189.4628849633
  0
LINE
  5
287
100
AcDbEntity
  8
0
100
AcDbLine
 62
7
  6
CONTINUOUS
 10
119.655408316
 20
188.5054379709
 11
119.5512420467
 21
188.9309698351
  0
LINE
  5
288
100
AcDbEntity
  8
0
100
AcDbLine
 62
7
  6
CONTINUOUS
 10
119.655408316
 20
186.9096933313
 11
119.655408316
 21
188.5054379709
  0
LINE
  5
289
100
AcDbEntity
  8
0
100
AcDbLine
 62
7
  6
CONTINUOUS
 10
120.280408316
 20
186.9096933313
 11
120.280408316
 21
188.5054379709
  0
LINE
  5
28A
100
AcDbEntity
  8
0
100
AcDbLine
 62
7
  6
CONTINUOUS
 10
115.1762420467
 20
186.3777785011
 11
115.280408912
 21
186.9096933313
  0
LINE
  5
28B
100
AcDbEntity
  8
0
100
AcDbLine
 62
7
  6
CONTINUOUS
 10
120.1762420467
 20
186.3777785011
 11
120.280408316
 21
186.9096933313
  0
LINE
  5
28C
100
AcDbEntity
  8
0
100
AcDbLine
 62
7
  6
CONTINUOUS
 10
114.655408912
 20
186.9096933313
 11
114.5512420467
 21
186.4841614671
  0
LINE
  5
28D
100
AcDbEntity
  8
0
100
AcDbLine
 62
7
  6
CONTINUOUS
 10
119.655408316
 20
186.9096933313
 11
119.5512420467
 21
186.4841614671
  0
LINE
  5
28E
100
AcDbEntity
  8
0
100
AcDbLine
 62
7
  6
CONTINUOUS
 10
127.4587420467
 20
174.7068250272
 11
164.9587420467
 21
174.7068250272
  0
LINE
  5
28F
100
AcDbEntity
  8
0
100
AcDbLine
 62
7
  6
CONTINUOUS
 10
143.400866473
 20
178.6875657256
 11
144.2861346844
 21
178.6875657256
  0
LINE
  5
290
100
AcDbEntity
  8
0
100
AcDbLine
 62
7
  6
CONTINUOUS
 10
147.6534127834
 20
178.6875657256
 11
149.2664470318
 21
178.6875657256
  0
LINE
  5
291
100
AcDbEntity
  8
0
100
AcDbLine
 62
7
  6
CONTINUOUS
 10
145.0301942471
 20
180.3168936189
 11
143.400866473
 21
180.3168936189
  0
LINE
  5
292
100
AcDbEntity
  8
0
100
AcDbLine
 62
7
  6
CONTINUOUS
 10
112.6762420467
 20
185.313948701
 11
113.1970751813
 21
185.2075657256
  0
LINE
  5
293
100
AcDbEntity
  8
0
100
AcDbLine
 62
7
  6
CONTINUOUS
 10
113.1970751813
 20
185.8458635964
 11
112.780408912
 21
185.9522465624
  0
LINE
  5
294
100
AcDbEntity
  8
0
100
AcDbLine
 62
7
  6
CONTINUOUS
 10
109.655408614
 20
189.5692679294
 11
109.342908614
 21
189.6756508954
  0
LINE
  5
295
100
AcDbEntity
  8
0
100
AcDbLine
 62
7
  6
CONTINUOUS
 10
119.5512420467
 20
189.8884168275
 11
119.1345757774
 21
190.1011827596
  0
LINE
  5
296
100
AcDbEntity
  8
0
100
AcDbLine
 62
7
  6
CONTINUOUS
 10
119.342908316
 20
189.2501190313
 11
119.030408316
 21
189.4628849633
  0
LINE
  5
297
100
AcDbEntity
  8
0
100
AcDbLine
 62
7
  6
CONTINUOUS
 10
119.967908316
 20
189.4628849633
 11
119.5512420467
 21
189.8884168275
  0
LINE
  5
298
100
AcDbEntity
  8
0
100
AcDbLine
 62
7
  6
CONTINUOUS
 10
120.280408316
 20
188.5054379709
 11
120.1762420467
 21
189.0373530992
  0
LINE
  5
299
100
AcDbEntity
  8
0
100
AcDbLine
 62
7
  6
CONTINUOUS
 10
127.4587420467
 20
174.7068250272
 11
127.4587420467
 21
196.6063562336
  0
LINE
  5
29A
100
AcDbEntity
  8
0
100
AcDbLine
 62
7
  6
CONTINUOUS
 10
114.967908912
 20
185.9522465624
 11
115.1762420467
 21
186.3777785011
  0
LINE
  5
29B
100
AcDbEntity
  8
0
100
AcDbLine
 62
7
  6
CONTINUOUS
 10
119.967908316
 20
185.9522465624
 11
120.1762420467
 21
186.3777785011
  0
LINE
  5
29C
100
AcDbEntity
  8
0
100
AcDbLine
 62
7
  6
CONTINUOUS
 10
114.5512420467
 20
186.4841614671
 11
114.342908912
 21
186.165012569
  0
LINE
  5
29D
100
AcDbEntity
  8
0
100
AcDbLine
 62
7
  6
CONTINUOUS
 10
110.1762420467
 20
187.8671401747
 11
110.4887420467
 21
188.2926720389
  0
LINE
  5
29E
100
AcDbEntity
  8
0
100
AcDbLine
 62
7
  6
CONTINUOUS
 10
109.655408614
 20
188.1862890728
 11
109.8637420467
 21
188.3990550049
  0
LINE
  5
29F
100
AcDbEntity
  8
0
100
AcDbLine
 62
7
  6
CONTINUOUS
 10
152.6011390331
 20
183.3637370284
 11
153.4103717449
 21
183.3637370284
  0
LINE
  5
2A0
100
AcDbEntity
  8
0
100
AcDbLine
 62
7
  6
CONTINUOUS
 10
154.9636630657
 20
183.3637370284
 11
155.9303989056
 21
183.3637370284
  0
LINE
  5
2A1
100
AcDbEntity
  8
0
100
AcDbLine
 62
7
  6
CONTINUOUS
 10
155.9303989056
 20
184.5259908851
 11
154.9636630657
 21
184.5259908851
  0
LINE
  5
2A2
100
AcDbEntity
  8
0
100
AcDbLine
 62
7
  6
CONTINUOUS
 10
153.4103717449
 20
184.5259908851
 11
152.6011390331
 21
184.5259908851
  0
LINE
  5
2A3
100
AcDbEntity
  8
0
100
AcDbLine
 62
7
  6
CONTINUOUS
 10
140.1313485745
 20
184.5477151092
 11
141.7063655499
 21
184.5477151092
  0
LINE
  5
2A4
100
AcDbEntity
  8
0
100
AcDbLine
 62
7
  6
CONTINUOUS
 10
146.5780563
 20
185.0582379516
 11
150.4504251126
 21
185.0582379516
  0
LINE
  5
2A5
100
AcDbEntity
  8
0
100
AcDbLine
 62
7
  6
CONTINUOUS
 10
106.7387420467
 20
185.2075657256
 11
107.3637420467
 21
185.2075657256
  0
LINE
  5
2A6
100
AcDbEntity
  8
0
100
AcDbLine
 62
7
  6
CONTINUOUS
 10
109.967908614
 20
185.2075657256
 11
110.6970754793
 21
185.2075657256
  0
LINE
  5
2A7
100
AcDbEntity
  8
0
100
AcDbLine
 62
7
  6
CONTINUOUS
 10
113.1970751813
 20
185.2075657256
 11
113.6137420467
 21
185.2075657256
  0
LINE
  5
2A8
100
AcDbEntity
  8
0
100
AcDbLine
 62
7
  6
CONTINUOUS
 10
116.1137420467
 20
185.2075657256
 11
118.6137420467
 21
185.2075657256
  0
LINE
  5
2A9
100
AcDbEntity
  8
0
100
AcDbLine
 62
7
  6
CONTINUOUS
 10
118.6137420467
 20
185.8458635964
 11
116.7387420467
 21
185.8458635964
  0
LINE
  5
2AA
100
AcDbEntity
  8
0
100
AcDbLine
 62
7
  6
CONTINUOUS
 10
113.6137420467
 20
185.8458635964
 11
113.1970751813
 21
185.8458635964
  0
LINE
  5
2AB
100
AcDbEntity
  8
0
100
AcDbLine
 62
7
  6
CONTINUOUS
 10
154.9636630657
 20
186.0955766853
 11
153.4103717449
 21
186.0955766853
  0
LINE
  5
2AC
100
AcDbEntity
  8
0
100
AcDbLine
 62
7
  6
CONTINUOUS
 10
152.1014785412
 20
186.4160112556
 11
146.5780563
 21
186.4160112556
  0
LINE
  5
2AD
100
AcDbEntity
  8
0
100
AcDbLine
 62
7
  6
CONTINUOUS
 10
107.3637420467
 20
187.4416083105
 11
109.1345753303
 21
187.4416083105
  0
LINE
  5
2AE
100
AcDbEntity
  8
0
100
AcDbLine
 62
7
  6
CONTINUOUS
 10
109.342908614
 20
188.0799061068
 11
107.3637420467
 21
188.0799061068
  0
LINE
  5
2AF
100
AcDbEntity
  8
0
100
AcDbLine
 62
7
  6
CONTINUOUS
 10
109.7595754793
 20
190.1011827596
 11
109.2387420467
 21
190.2075657256
  0
LINE
  5
2B0
100
AcDbEntity
  8
0
100
AcDbLine
 62
7
  6
CONTINUOUS
 10
119.1345757774
 20
190.1011827596
 11
118.6137420467
 21
190.2075657256
  0
LINE
  5
2B1
100
AcDbEntity
  8
0
100
AcDbLine
 62
7
  6
CONTINUOUS
 10
119.030408316
 20
189.4628849633
 11
118.6137420467
 21
189.5692679294
  0
LINE
  5
2B2
100
AcDbEntity
  8
KONSTRUKTIONSELEMENTE
100
AcDbLine
 62
7
  6
CONTINUOUS
 10
217.9169409978
 20
146.5889463331
 11
203.5783384683
 21
153.2895083133
  0
LINE
  5
2B3
100
AcDbEntity
  8
0
100
AcDbLine
 62
7
  6
CONTINUOUS
 10
119.5512420467
 20
186.4841614671
 11
119.342908316
 21
186.165012569
  0
LINE
  5
2B4
100
AcDbEntity
  8
0
100
AcDbLine
 62
7
  6
CONTINUOUS
 10
114.5512420467
 20
185.526714661
 11
114.967908912
 21
185.9522465624
  0
LINE
  5
2B5
100
AcDbEntity
  8
0
100
AcDbLine
 62
7
  6
CONTINUOUS
 10
119.5512420467
 20
185.526714661
 11
119.967908316
 21
185.9522465624
  0
LINE
  5
2B6
100
AcDbEntity
  8
0
100
AcDbLine
 62
7
  6
CONTINUOUS
 10
119.030408316
 20
185.9522465624
 11
118.6137420467
 21
185.8458635964
  0
LINE
  5
2B7
100
AcDbEntity
  8
0
100
AcDbLine
 62
7
  6
CONTINUOUS
 10
114.030408912
 20
185.9522465624
 11
113.6137420467
 21
185.8458635964
  0
LINE
  5
2B8
100
AcDbEntity
  8
0
100
AcDbLine
 62
7
  6
CONTINUOUS
 10
118.6137420467
 20
185.2075657256
 11
119.1345757774
 21
185.313948701
  0
LINE
  5
2B9
100
AcDbEntity
  8
0
100
AcDbLine
 62
7
  6
CONTINUOUS
 10
113.6137420467
 20
185.2075657256
 11
114.1345751813
 21
185.313948701
  0
LINE
  5
2BA
100
AcDbEntity
  8
0
100
AcDbLine
 62
7
  6
CONTINUOUS
 10
118.6137420467
 20
189.5692679294
 11
116.7387420467
 21
189.5692679294
  0
LINE
  5
2BB
100
AcDbEntity
  8
0
100
AcDbLine
 62
7
  6
CONTINUOUS
 10
109.342908614
 20
189.6756508954
 11
107.3637420467
 21
189.6756508954
  0
LINE
  5
2BC
100
AcDbEntity
  8
0
100
AcDbLine
 62
7
  6
CONTINUOUS
 10
118.6137420467
 20
190.2075657256
 11
116.1137420467
 21
190.2075657256
  0
LINE
  5
2BD
100
AcDbEntity
  8
0
100
AcDbLine
 62
7
  6
CONTINUOUS
 10
115.280408912
 20
190.2075657256
 11
114.655408912
 21
190.2075657256
  0
LINE
  5
2BE
100
AcDbEntity
  8
0
100
AcDbLine
 62
7
  6
CONTINUOUS
 10
112.155408912
 20
190.2075657256
 11
111.530408614
 21
190.2075657256
  0
LINE
  5
2BF
100
AcDbEntity
  8
0
100
AcDbLine
 62
7
  6
CONTINUOUS
 10
109.2387420467
 20
190.2075657256
 11
106.7387420467
 21
190.2075657256
  0
LINE
  5
2C0
100
AcDbEntity
  8
KONSTRUKTIONSELEMENTE
100
AcDbLine
 62
7
  6
CONTINUOUS
 10
214.9391584352
 20
195.1879571099
 11
214.3558256581
 21
195.1879571099
  0
LINE
  5
2C1
100
AcDbEntity
  8
KONSTRUKTIONSELEMENTE
100
AcDbLine
 62
7
  6
CONTINUOUS
 10
212.7516584352
 20
195.1879571099
 11
212.3141584352
 21
195.1879571099
  0
LINE
  5
2C2
100
AcDbEntity
  8
KONSTRUKTIONSELEMENTE
100
AcDbLine
 62
7
  6
CONTINUOUS
 10
210.7829084352
 20
195.1879571099
 11
209.0329088524
 21
195.1879571099
  0
LINE
  5
2C3
100
AcDbEntity
  8
KONSTRUKTIONSELEMENTE
100
AcDbLine
 62
7
  6
CONTINUOUS
 10
208.4495752409
 20
195.1879571099
 11
207.9391588524
 21
195.1879571099
  0
LINE
  5
2C4
100
AcDbEntity
  8
KONSTRUKTIONSELEMENTE
100
AcDbLine
 62
7
  6
CONTINUOUS
 10
206.1162420467
 20
195.1879571099
 11
205.6787420467
 21
195.1879571099
  0
LINE
  5
2C5
100
AcDbEntity
  8
KONSTRUKTIONSELEMENTE
100
AcDbLine
 62
7
  6
CONTINUOUS
 10
203.9287420467
 20
195.1879571099
 11
203.3454087481
 21
195.1879571099
  0
LINE
  5
2C6
100
AcDbEntity
  8
KONSTRUKTIONSELEMENTE
100
AcDbLine
 62
7
  6
CONTINUOUS
 10
203.3454087481
 20
195.5430960241
 11
203.9287420467
 21
195.5430960241
  0
LINE
  5
2C7
100
AcDbEntity
  8
KONSTRUKTIONSELEMENTE
100
AcDbLine
 62
7
  6
CONTINUOUS
 10
205.6787420467
 20
195.5430960241
 11
206.1162420467
 21
195.5430960241
  0
LINE
  5
2C8
100
AcDbEntity
  8
KONSTRUKTIONSELEMENTE
100
AcDbLine
 62
7
  6
CONTINUOUS
 10
207.9391588524
 20
195.5430960241
 11
208.4495752409
 21
195.5430960241
  0
LINE
  5
2C9
100
AcDbEntity
  8
KONSTRUKTIONSELEMENTE
100
AcDbLine
 62
7
  6
CONTINUOUS
 10
209.0329088524
 20
195.5430960241
 11
210.7829084352
 21
195.5430960241
  0
LINE
  5
2CA
100
AcDbEntity
  8
KONSTRUKTIONSELEMENTE
100
AcDbLine
 62
7
  6
CONTINUOUS
 10
212.3141584352
 20
195.5430960241
 11
212.7516584352
 21
195.5430960241
  0
LINE
  5
2CB
100
AcDbEntity
  8
KONSTRUKTIONSELEMENTE
100
AcDbLine
 62
7
  6
CONTINUOUS
 10
214.3558256581
 20
195.5430960241
 11
214.9391584352
 21
195.5430960241
  0
LINE
  5
2CC
100
AcDbEntity
  8
KONSTRUKTIONSELEMENTE
100
AcDbLine
 62
7
  6
CONTINUOUS
 10
77.4783256581
 20
195.7224350715
 11
78.0616584352
 21
195.7224350715
  0
LINE
  5
2CD
100
AcDbEntity
  8
KONSTRUKTIONSELEMENTE
100
AcDbLine
 62
7
  6
CONTINUOUS
 10
79.6658256581
 20
195.7224350715
 11
80.1033256581
 21
195.7224350715
  0
LINE
  5
2CE
100
AcDbEntity
  8
KONSTRUKTIONSELEMENTE
100
AcDbLine
 62
7
  6
CONTINUOUS
 10
81.6345756581
 20
195.7224350715
 11
83.3845752409
 21
195.7224350715
  0
LINE
  5
2CF
100
AcDbEntity
  8
KONSTRUKTIONSELEMENTE
100
AcDbLine
 62
7
  6
CONTINUOUS
 10
84.9887420467
 20
195.7224350715
 11
86.7387420467
 21
195.7224350715
  0
LINE
  5
2D0
100
AcDbEntity
  8
KONSTRUKTIONSELEMENTE
100
AcDbLine
 62
7
  6
CONTINUOUS
 10
87.3220754495
 20
195.7224350715
 11
87.7595754495
 21
195.7224350715
  0
LINE
  5
2D1
100
AcDbEntity
  8
KONSTRUKTIONSELEMENTE
100
AcDbLine
 62
7
  6
CONTINUOUS
 10
89.8012420467
 20
195.7224350715
 11
90.2387420467
 21
195.7224350715
  0
LINE
  5
2D2
100
AcDbEntity
  8
KONSTRUKTIONSELEMENTE
100
AcDbLine
 62
7
  6
CONTINUOUS
 10
209.4704084352
 20
195.8854816568
 11
210.8558256581
 21
195.8854816568
  0
LINE
  5
2D3
100
AcDbEntity
  8
KONSTRUKTIONSELEMENTE
100
AcDbLine
 62
7
  6
CONTINUOUS
 10
90.2387420467
 20
196.0766905123
 11
89.8012420467
 21
196.0766905123
  0
LINE
  5
2D4
100
AcDbEntity
  8
KONSTRUKTIONSELEMENTE
100
AcDbLine
 62
7
  6
CONTINUOUS
 10
87.7595754495
 20
196.0766905123
 11
87.3220754495
 21
196.0766905123
  0
LINE
  5
2D5
100
AcDbEntity
  8
KONSTRUKTIONSELEMENTE
100
AcDbLine
 62
7
  6
CONTINUOUS
 10
86.7387420467
 20
196.0766905123
 11
84.9887420467
 21
196.0766905123
  0
LINE
  5
2D6
100
AcDbEntity
  8
KONSTRUKTIONSELEMENTE
100
AcDbLine
 62
7
  6
CONTINUOUS
 10
83.3845752409
 20
196.0766905123
 11
81.6345756581
 21
196.0766905123
  0
LINE
  5
2D7
100
AcDbEntity
  8
KONSTRUKTIONSELEMENTE
100
AcDbLine
 62
7
  6
CONTINUOUS
 10
80.1033256581
 20
196.0766905123
 11
79.6658256581
 21
196.0766905123
  0
LINE
  5
2D8
100
AcDbEntity
  8
KONSTRUKTIONSELEMENTE
100
AcDbLine
 62
7
  6
CONTINUOUS
 10
78.0616584352
 20
196.0766905123
 11
77.4783256581
 21
196.0766905123
  0
LINE
  5
2D9
100
AcDbEntity
  8
KONSTRUKTIONSELEMENTE
100
AcDbLine
 62
7
  6
CONTINUOUS
 10
86.3012420467
 20
196.3541997898
 11
84.9158252409
 21
196.3541997898
  0
LINE
  5
2DA
100
AcDbEntity
  8
KONSTRUKTIONSELEMENTE
100
AcDbLine
 62
7
  6
CONTINUOUS
 10
210.8558256581
 20
196.3601646938
 11
209.4704084352
 21
196.3601646938
  0
LINE
  5
2DB
100
AcDbEntity
  8
KONSTRUKTIONSELEMENTE
100
AcDbLine
 62
7
  6
CONTINUOUS
 10
207.3558252409
 20
196.3601646938
 11
206.1162420467
 21
196.3601646938
  0
LINE
  5
2DC
100
AcDbEntity
  8
KONSTRUKTIONSELEMENTE
100
AcDbLine
 62
7
  6
CONTINUOUS
 10
82.9470756581
 20
196.4091768224
 11
81.5616584352
 21
196.4091768224
  0
LINE
  5
2DD
100
AcDbEntity
  8
KONSTRUKTIONSELEMENTE
100
AcDbLine
 62
7
  6
CONTINUOUS
 10
206.1162420467
 20
196.7138207948
 11
207.3558252409
 21
196.7138207948
  0
LINE
  5
2DE
100
AcDbEntity
  8
KONSTRUKTIONSELEMENTE
100
AcDbLine
 62
7
  6
CONTINUOUS
 10
209.4704084352
 20
196.7138207948
 11
210.8558256581
 21
196.7138207948
  0
LINE
  5
2DF
100
AcDbEntity
  8
KONSTRUKTIONSELEMENTE
100
AcDbLine
 62
7
  6
CONTINUOUS
 10
81.5616584352
 20
196.8069748666
 11
82.9470756581
 21
196.8069748666
  0
LINE
  5
2E0
100
AcDbEntity
  8
KONSTRUKTIONSELEMENTE
100
AcDbLine
 62
7
  6
CONTINUOUS
 10
84.9158252409
 20
196.8069748666
 11
86.3012420467
 21
196.8069748666
  0
LINE
  5
2E1
100
AcDbEntity
  8
KONSTRUKTIONSELEMENTE
100
AcDbLine
 62
7
  6
CONTINUOUS
 10
203.5783384683
 20
153.2895083133
 11
201.1172906412
 21
154.7618180383
  0
LINE
  5
2E2
100
AcDbEntity
  8
0
100
AcDbLine
 62
7
  6
CONTINUOUS
 10
143.400866473
 20
180.3168936189
 11
143.400866473
 21
178.6875657256
  0
LINE
  5
2E3
100
AcDbEntity
  8
0
100
AcDbLine
 62
7
  6
CONTINUOUS
 10
143.400866473
 20
177.4275521453
 11
143.400866473
 21
176.8084075864
  0
LINE
  5
2E4
100
AcDbEntity
  8
0
100
AcDbLine
 62
7
  6
CONTINUOUS
 10
144.2861346844
 20
178.6875657256
 11
144.2861346844
 21
178.568081681
  0
LINE
  5
2E5
100
AcDbEntity
  8
0
100
AcDbLine
 62
7
  6
CONTINUOUS
 10
145.0301942471
 20
178.8287741508
 11
145.0301942471
 21
180.3168936189
  0
LINE
  5
2E6
100
AcDbEntity
  8
0
100
AcDbLine
 62
7
  6
CONTINUOUS
 10
146.5780563
 20
186.4160112556
 11
146.5780563
 21
185.0582379516
  0
LINE
  5
2E7
100
AcDbEntity
  8
0
100
AcDbLine
 62
7
  6
CONTINUOUS
 10
114.342908912
 20
186.165012569
 11
114.030408912
 21
185.9522465624
  0
LINE
  5
2E8
100
AcDbEntity
  8
0
100
AcDbLine
 62
7
  6
CONTINUOUS
 10
119.342908316
 20
186.165012569
 11
119.030408316
 21
185.9522465624
  0
LINE
  5
2E9
100
AcDbEntity
  8
0
100
AcDbLine
 62
7
  6
CONTINUOUS
 10
109.7595754793
 20
187.6543742426
 11
110.1762420467
 21
187.8671401747
  0
LWPOLYLINE
  5
2EA
100
AcDbEntity
  8
KONSTRUKTIONSELEMENTE
100
AcDbPolyline
 62
7
  6
CONTINUOUS
 90
3
 70
0
 10
74.5207310107
 20
203.1874187345
 10
74.4601479869
 20
203.1869648618
 10
74.3998865202
 20
203.186209574
  0
LINE
  5
2EB
100
AcDbEntity
  8
KONSTRUKTIONSELEMENTE
100
AcDbLine
 62
7
  6
CONTINUOUS
 10
206.1162420467
 20
197.034154534
 11
207.5016588524
 21
197.034154534
  0
LINE
  5
2EC
100
AcDbEntity
  8
KONSTRUKTIONSELEMENTE
100
AcDbLine
 62
7
  6
CONTINUOUS
 10
209.4704084352
 20
197.034154534
 11
210.8558256581
 21
197.034154534
  0
LINE
  5
2ED
100
AcDbEntity
  8
KONSTRUKTIONSELEMENTE
100
AcDbLine
 62
7
  6
CONTINUOUS
 10
86.3012420467
 20
197.160531109
 11
84.9158252409
 21
197.160531109
  0
LINE
  5
2EE
100
AcDbEntity
  8
KONSTRUKTIONSELEMENTE
100
AcDbLine
 62
7
  6
CONTINUOUS
 10
82.9470756581
 20
197.160531109
 11
81.5616584352
 21
197.160531109
  0
LINE
  5
2EF
100
AcDbEntity
  8
KONSTRUKTIONSELEMENTE
100
AcDbLine
 62
7
  6
CONTINUOUS
 10
210.8558256581
 20
197.4033149173
 11
209.4704084352
 21
197.4033149173
  0
LINE
  5
2F0
100
AcDbEntity
  8
KONSTRUKTIONSELEMENTE
100
AcDbLine
 62
7
  6
CONTINUOUS
 10
207.5016588524
 20
197.4535988113
 11
206.1162420467
 21
197.4535988113
  0
LINE
  5
2F1
100
AcDbEntity
  8
KONSTRUKTIONSELEMENTE
100
AcDbLine
 62
7
  6
CONTINUOUS
 10
86.3012420467
 20
197.4720799501
 11
85.0616588524
 21
197.4720799501
  0
LINE
  5
2F2
100
AcDbEntity
  8
KONSTRUKTIONSELEMENTE
100
AcDbLine
 62
7
  6
CONTINUOUS
 10
82.9470756581
 20
197.4720799501
 11
81.5616584352
 21
197.4720799501
  0
LINE
  5
2F3
100
AcDbEntity
  8
KONSTRUKTIONSELEMENTE
100
AcDbLine
 62
7
  6
CONTINUOUS
 10
209.4704084352
 20
197.7571932295
 11
210.8558256581
 21
197.7571932295
  0
LINE
  5
2F4
100
AcDbEntity
  8
KONSTRUKTIONSELEMENTE
100
AcDbLine
 62
7
  6
CONTINUOUS
 10
206.1162420467
 20
197.8075299603
 11
207.5016588524
 21
197.8075299603
  0
LINE
  5
2F5
100
AcDbEntity
  8
KONSTRUKTIONSELEMENTE
100
AcDbLine
 62
7
  6
CONTINUOUS
 10
81.5616584352
 20
197.8689139955
 11
82.9470756581
 21
197.8689139955
  0
LINE
  5
2F6
100
AcDbEntity
  8
KONSTRUKTIONSELEMENTE
100
AcDbLine
 62
7
  6
CONTINUOUS
 10
202.1787420467
 20
198.0565894996
 11
202.6162420467
 21
198.0565894996
  0
LINE
  5
2F7
100
AcDbEntity
  8
KONSTRUKTIONSELEMENTE
100
AcDbLine
 62
7
  6
CONTINUOUS
 10
204.6579086438
 20
198.0565894996
 11
205.0954086438
 21
198.0565894996
  0
LINE
  5
2F8
100
AcDbEntity
  8
KONSTRUKTIONSELEMENTE
100
AcDbLine
 62
7
  6
CONTINUOUS
 10
205.6787420467
 20
198.0565894996
 11
207.4287420467
 21
198.0565894996
  0
LINE
  5
2F9
100
AcDbEntity
  8
KONSTRUKTIONSELEMENTE
100
AcDbLine
 62
7
  6
CONTINUOUS
 10
209.0329088524
 20
198.0565894996
 11
210.7829084352
 21
198.0565894996
  0
LINE
  5
2FA
100
AcDbEntity
  8
KONSTRUKTIONSELEMENTE
100
AcDbLine
 62
7
  6
CONTINUOUS
 10
212.3141584352
 20
198.0565894996
 11
212.7516584352
 21
198.0565894996
  0
LINE
  5
2FB
100
AcDbEntity
  8
KONSTRUKTIONSELEMENTE
100
AcDbLine
 62
7
  6
CONTINUOUS
 10
214.3558256581
 20
198.0565894996
 11
214.9391584352
 21
198.0565894996
  0
LINE
  5
2FC
100
AcDbEntity
  8
KONSTRUKTIONSELEMENTE
100
AcDbLine
 62
7
  6
CONTINUOUS
 10
82.9470756581
 20
198.2234474838
 11
81.5616584352
 21
198.2234474838
  0
LINE
  5
2FD
100
AcDbEntity
  8
KONSTRUKTIONSELEMENTE
100
AcDbLine
 62
7
  6
CONTINUOUS
 10
89.0720753452
 20
198.5129445051
 11
88.4887420467
 21
198.5129445051
  0
LINE
  5
2FE
100
AcDbEntity
  8
KONSTRUKTIONSELEMENTE
100
AcDbLine
 62
7
  6
CONTINUOUS
 10
86.7387420467
 20
198.5129445051
 11
86.3012420467
 21
198.5129445051
  0
LINE
  5
2FF
100
AcDbEntity
  8
KONSTRUKTIONSELEMENTE
100
AcDbLine
 62
7
  6
CONTINUOUS
 10
84.4783252409
 20
198.5129445051
 11
83.9679088524
 21
198.5129445051
  0
LINE
  5
300
100
AcDbEntity
  8
KONSTRUKTIONSELEMENTE
100
AcDbLine
 62
7
  6
CONTINUOUS
 10
83.3845752409
 20
198.5129445051
 11
81.6345756581
 21
198.5129445051
  0
LINE
  5
301
100
AcDbEntity
  8
KONSTRUKTIONSELEMENTE
100
AcDbLine
 62
7
  6
CONTINUOUS
 10
80.1033256581
 20
198.5129445051
 11
79.6658256581
 21
198.5129445051
  0
LINE
  5
302
100
AcDbEntity
  8
KONSTRUKTIONSELEMENTE
100
AcDbLine
 62
7
  6
CONTINUOUS
 10
78.0616584352
 20
198.5129445051
 11
77.4783256581
 21
198.5129445051
  0
LINE
  5
303
100
AcDbEntity
  8
KONSTRUKTIONSELEMENTE
100
AcDbLine
 62
7
  6
CONTINUOUS
 10
74.5207310107
 20
203.1874187345
 11
93.7672729772
 21
203.1875657256
  0
LWPOLYLINE
  5
304
100
AcDbEntity
  8
KONSTRUKTIONSELEMENTE
100
AcDbPolyline
 62
7
  6
CONTINUOUS
 90
4
 70
0
 10
218.0175976816
 20
203.1862095724
 10
217.9573362
 20
203.1869648608
 10
217.8967531385
 20
203.1874187342
 10
198.6502111161
 20
203.1875657256
  0
LINE
  5
305
100
AcDbEntity
  8
0
100
AcDbLine
 62
7
  6
CONTINUOUS
 10
152.1014785412
 20
185.1505665
 11
152.1014785412
 21
186.4160112556
  0
LINE
  5
306
100
AcDbEntity
  8
0
100
AcDbLine
 62
7
  6
CONTINUOUS
 10
152.6011390331
 20
184.5259908851
 11
152.6011390331
 21
183.3637370284
  0
LINE
  5
307
100
AcDbEntity
  8
0
100
AcDbLine
 62
7
  6
CONTINUOUS
 10
153.4103717449
 20
186.0955766853
 11
153.4103717449
 21
184.5259908851
  0
LINE
  5
308
100
AcDbEntity
  8
0
100
AcDbLine
 62
7
  6
CONTINUOUS
 10
153.4103717449
 20
183.3637370284
 11
153.4103717449
 21
180.382066768
  0
LINE
  5
309
100
AcDbEntity
  8
0
100
AcDbLine
 62
7
  6
CONTINUOUS
 10
114.1345751813
 20
185.313948701
 11
114.5512420467
 21
185.526714661
  0
LINE
  5
30A
100
AcDbEntity
  8
0
100
AcDbLine
 62
7
  6
CONTINUOUS
 10
119.1345757774
 20
185.313948701
 11
119.5512420467
 21
185.526714661
  0
LINE
  5
30B
100
AcDbEntity
  8
0
100
AcDbLine
 62
7
  6
CONTINUOUS
 10
109.342908614
 20
188.0799061068
 11
109.655408614
 21
188.1862890728
  0
LINE
  5
30C
100
AcDbEntity
  8
KONSTRUKTIONSELEMENTE
100
AcDbLine
 62
7
  6
CONTINUOUS
 10
73.8809502382
 20
203.1674231319
 11
73.8002504532
 21
203.1626190604
  0
LINE
  5
30D
100
AcDbEntity
  8
KONSTRUKTIONSELEMENTE
100
AcDbLine
 62
7
  6
CONTINUOUS
 10
73.9670825085
 20
203.1720213588
 11
73.8809502382
 21
203.1674231319
  0
LINE
  5
30E
100
AcDbEntity
  8
KONSTRUKTIONSELEMENTE
100
AcDbLine
 62
7
  6
CONTINUOUS
 10
74.0644761905
 20
203.1765311043
 11
73.9670825085
 21
203.1720213588
  0
LWPOLYLINE
  5
30F
100
AcDbEntity
  8
KONSTRUKTIONSELEMENTE
100
AcDbPolyline
 62
7
  6
CONTINUOUS
 90
6
 70
0
 10
74.3998865202
 20
203.186209574
 10
74.3404533936
 20
203.1851687619
 10
74.2823151202
 20
203.1838674403
 10
74.225516857
 20
203.1823270649
 10
74.1701696279
 20
203.1805719141
 10
74.0644761905
 20
203.1765311043
  0
LWPOLYLINE
  5
310
100
AcDbEntity
  8
KONSTRUKTIONSELEMENTE
100
AcDbPolyline
 62
7
  6
CONTINUOUS
 90
5
 70
0
 10
218.2473145132
 20
203.1805719125
 10
218.1919673085
 20
203.1823270628
 10
218.1351690666
 20
203.183867438
 10
218.0770308066
 20
203.1851687597
 10
218.0175976816
 20
203.1862095724
  0
LINE
  5
311
100
AcDbEntity
  8
KONSTRUKTIONSELEMENTE
100
AcDbLine
 62
7
  6
CONTINUOUS
 10
218.3530079139
 20
203.1765311038
 11
218.2473145132
 21
203.1805719125
  0
LINE
  5
312
100
AcDbEntity
  8
KONSTRUKTIONSELEMENTE
100
AcDbLine
 62
7
  6
CONTINUOUS
 10
218.4504015861
 20
203.1720213587
 11
218.3530079139
 21
203.1765311038
  0
LINE
  5
313
100
AcDbEntity
  8
KONSTRUKTIONSELEMENTE
100
AcDbLine
 62
7
  6
CONTINUOUS
 10
218.5365338568
 20
203.1674231318
 11
218.4504015861
 21
203.1720213587
  0
LINE
  5
314
100
AcDbEntity
  8
KONSTRUKTIONSELEMENTE
100
AcDbLine
 62
7
  6
CONTINUOUS
 10
218.6172336401
 20
203.1626190604
 11
218.5365338568
 21
203.1674231318
  0
LINE
  5
315
100
AcDbEntity
  8
0
100
AcDbLine
 62
7
  6
CONTINUOUS
 10
154.9636630657
 20
180.39292888
 11
154.9636630657
 21
183.3637370284
  0
LINE
  5
316
100
AcDbEntity
  8
0
100
AcDbLine
 62
7
  6
CONTINUOUS
 10
154.9636630657
 20
184.5259908851
 11
154.9636630657
 21
186.0955766853
  0
LINE
  5
317
100
AcDbEntity
  8
0
100
AcDbLine
 62
7
  6
CONTINUOUS
 10
155.9303989056
 20
178.568081681
 11
155.9303989056
 21
179.7357666906
  0
LINE
  5
318
100
AcDbEntity
  8
0
100
AcDbLine
 62
7
  6
CONTINUOUS
 10
155.9303989056
 20
183.3637370284
 11
155.9303989056
 21
184.5259908851
  0
LINE
  5
319
100
AcDbEntity
  8
KONSTRUKTIONSELEMENTE
100
AcDbLine
 62
7
  6
CONTINUOUS
 10
88.839145625
 20
153.2895083133
 11
91.3001934522
 21
154.7618180383
  0
LINE
  5
31A
100
AcDbEntity
  8
0
100
AcDbLine
 62
7
  6
CONTINUOUS
 10
164.9587420467
 20
174.7068250272
 11
164.9587420467
 21
196.6063562336
  0
LINE
  5
31B
100
AcDbEntity
  8
0
100
AcDbLine
 62
7
  6
CONTINUOUS
 10
151.8896646145
 20
184.9061674293
 11
152.1014785412
 21
185.1505665
  0
LINE
  5
31C
100
AcDbEntity
  8
KONSTRUKTIONSELEMENTE
100
AcDbLine
 62
7
  6
CONTINUOUS
 10
74.5005430956
 20
146.5889463331
 11
88.839145625
 21
153.2895083133
  0
LINE
  5
31D
100
AcDbEntity
  8
KONSTRUKTIONSELEMENTE
100
AcDbLine
 62
7
  6
CONTINUOUS
 10
74.5005430956
 20
146.5889463331
 11
65.4940876229
 21
143.5837786526
  0
LINE
  5
31E
100
AcDbEntity
  8
0
100
AcDbLine
 62
7
  6
CONTINUOUS
 10
195.7087420467
 20
167.1875657256
 11
200.2467132577
 21
141.4514520983
  0
LINE
  5
31F
100
AcDbEntity
  8
RUNDUNGEN
100
AcDbLine
 62
7
  6
CONTINUOUS
 10
193.0180509125
 20
192.3928741415
 11
192.8683533078
 21
193.4580279456
  0
LINE
  5
320
100
AcDbEntity
  8
0
100
AcDbLine
 62
7
  6
CONTINUOUS
 10
195.7087420467
 20
167.1877802902
 11
195.7087420467
 21
195.187351161
  0
LINE
  5
321
100
AcDbEntity
  8
0
100
AcDbLine
 62
7
  6
CONTINUOUS
 10
196.9533723557
 20
202.2462149693
 11
196.9533723557
 21
181.1875071934
  0
LINE
  5
322
100
AcDbEntity
  8
RUNDUNGEN
100
AcDbLine
 62
7
  6
CONTINUOUS
 10
192.8428329351
 20
194.9202619455
 11
195.5892812313
 21
221.0509719905
  0
LINE
  5
323
100
AcDbEntity
  8
0
100
AcDbLine
 62
7
  6
CONTINUOUS
 10
195.7087420467
 20
195.1875657256
 11
196.9533723557
 21
202.2462149693
  0
LINE
  5
324
100
AcDbEntity
  8
RUNDUNGEN
100
AcDbLine
 62
7
  6
CONTINUOUS
 10
195.2713905987
 20
223.2434255229
 11
181.9238347204
 21
255.4672759487
  0
LINE
  5
325
100
AcDbEntity
  8
KONSTRUKTIONSELEMENTE
100
AcDbLine
 62
7
  6
CONTINUOUS
 10
202.1787420467
 20
197.7023340588
 11
202.1787420467
 21
198.0565894996
  0
LINE
  5
326
100
AcDbEntity
  8
KONSTRUKTIONSELEMENTE
100
AcDbLine
 62
7
  6
CONTINUOUS
 10
203.3454087481
 20
195.1879571099
 11
203.3454087481
 21
195.5430960241
  0
LINE
  5
327
100
AcDbEntity
  8
KONSTRUKTIONSELEMENTE
100
AcDbLine
 62
7
  6
CONTINUOUS
 10
203.9287420467
 20
195.1879571099
 11
203.9287420467
 21
195.5430960241
  0
LINE
  5
328
100
AcDbEntity
  8
KONSTRUKTIONSELEMENTE
100
AcDbLine
 62
7
  6
CONTINUOUS
 10
205.0954086438
 20
197.7023340588
 11
205.0954086438
 21
198.0565894996
  0
LINE
  5
329
100
AcDbEntity
  8
KONSTRUKTIONSELEMENTE
100
AcDbLine
 62
7
  6
CONTINUOUS
 10
205.6787420467
 20
195.1879571099
 11
205.6787420467
 21
198.0565894996
  0
LINE
  5
32A
100
AcDbEntity
  8
KONSTRUKTIONSELEMENTE
100
AcDbLine
 62
7
  6
CONTINUOUS
 10
206.1162420467
 20
197.8075299603
 11
206.1162420467
 21
197.034154534
  0
LINE
  5
32B
100
AcDbEntity
  8
KONSTRUKTIONSELEMENTE
100
AcDbLine
 62
7
  6
CONTINUOUS
 10
206.1162420467
 20
195.1879571099
 11
206.1162420467
 21
196.7138207948
  0
LINE
  5
32C
100
AcDbEntity
  8
KONSTRUKTIONSELEMENTE
100
AcDbLine
 62
7
  6
CONTINUOUS
 10
207.3558252409
 20
196.3601646938
 11
207.3558252409
 21
196.7138207948
  0
LINE
  5
32D
100
AcDbEntity
  8
KONSTRUKTIONSELEMENTE
100
AcDbLine
 62
7
  6
CONTINUOUS
 10
207.5016588524
 20
197.4535988113
 11
207.5016588524
 21
197.8075299603
  0
LINE
  5
32E
100
AcDbEntity
  8
KONSTRUKTIONSELEMENTE
100
AcDbLine
 62
7
  6
CONTINUOUS
 10
207.7204088524
 20
197.4033149173
 11
207.7204088524
 21
197.7571932295
  0
LINE
  5
32F
100
AcDbEntity
  8
KONSTRUKTIONSELEMENTE
100
AcDbLine
 62
7
  6
CONTINUOUS
 10
207.8662420467
 20
197.3022109773
 11
207.8662420467
 21
197.6559955924
  0
LINE
  5
330
100
AcDbEntity
  8
KONSTRUKTIONSELEMENTE
100
AcDbLine
 62
7
  6
CONTINUOUS
 10
207.9391588524
 20
197.5028896718
 11
207.9391588524
 21
197.3482134953
  0
LINE
  5
331
100
AcDbEntity
  8
KONSTRUKTIONSELEMENTE
100
AcDbLine
 62
7
  6
CONTINUOUS
 10
207.9391588524
 20
195.1879571099
 11
207.9391588524
 21
195.5430960241
  0
LINE
  5
332
100
AcDbEntity
  8
KONSTRUKTIONSELEMENTE
100
AcDbLine
 62
7
  6
CONTINUOUS
 10
208.0849920467
 20
196.5745002504
 11
208.0849920467
 21
196.9280739224
  0
LINE
  5
333
100
AcDbEntity
  8
KONSTRUKTIONSELEMENTE
100
AcDbLine
 62
7
  6
CONTINUOUS
 10
208.3037420467
 20
196.7859833511
 11
208.3037420467
 21
197.1395380092
  0
LINE
  5
334
100
AcDbEntity
  8
KONSTRUKTIONSELEMENTE
100
AcDbLine
 62
7
  6
CONTINUOUS
 10
208.3766588524
 20
196.9427240946
 11
208.3766588524
 21
197.5028896718
  0
LINE
  5
335
100
AcDbEntity
  8
KONSTRUKTIONSELEMENTE
100
AcDbLine
 62
7
  6
CONTINUOUS
 10
208.4495752409
 20
195.1879571099
 11
208.4495752409
 21
195.5430960241
  0
LINE
  5
336
100
AcDbEntity
  8
KONSTRUKTIONSELEMENTE
100
AcDbLine
 62
7
  6
CONTINUOUS
 10
209.0329088524
 20
195.1879571099
 11
209.0329088524
 21
198.0565894996
  0
LINE
  5
337
100
AcDbEntity
  8
KONSTRUKTIONSELEMENTE
100
AcDbLine
 62
7
  6
CONTINUOUS
 10
209.4704084352
 20
197.7571932295
 11
209.4704084352
 21
197.034154534
  0
LINE
  5
338
100
AcDbEntity
  8
KONSTRUKTIONSELEMENTE
100
AcDbLine
 62
7
  6
CONTINUOUS
 10
209.4704084352
 20
196.7138207948
 11
209.4704084352
 21
195.8854816568
  0
LINE
  5
339
100
AcDbEntity
  8
KONSTRUKTIONSELEMENTE
100
AcDbLine
 62
7
  6
CONTINUOUS
 10
210.7829084352
 20
195.1879571099
 11
210.7829084352
 21
195.5430960241
  0
LINE
  5
33A
100
AcDbEntity
  8
KONSTRUKTIONSELEMENTE
100
AcDbLine
 62
7
  6
CONTINUOUS
 10
210.8558256581
 20
196.3601646938
 11
210.8558256581
 21
196.7138207948
  0
LINE
  5
33B
100
AcDbEntity
  8
KONSTRUKTIONSELEMENTE
100
AcDbLine
 62
7
  6
CONTINUOUS
 10
210.8558256581
 20
197.4033149173
 11
210.8558256581
 21
197.7571932295
  0
LINE
  5
33C
100
AcDbEntity
  8
KONSTRUKTIONSELEMENTE
100
AcDbLine
 62
7
  6
CONTINUOUS
 10
211.0745756581
 20
196.3061349038
 11
211.0745756581
 21
196.659821534
  0
LINE
  5
33D
100
AcDbEntity
  8
KONSTRUKTIONSELEMENTE
100
AcDbLine
 62
7
  6
CONTINUOUS
 10
211.0745756581
 20
197.3528522807
 11
211.0745756581
 21
197.70668175
  0
LINE
  5
33E
100
AcDbEntity
  8
KONSTRUKTIONSELEMENTE
100
AcDbLine
 62
7
  6
CONTINUOUS
 10
211.1474920467
 20
195.2455730696
 11
211.1474920467
 21
195.600600837
  0
LINE
  5
33F
100
AcDbEntity
  8
KONSTRUKTIONSELEMENTE
100
AcDbLine
 62
7
  6
CONTINUOUS
 10
211.2204084352
 20
196.1975399336
 11
211.2204084352
 21
196.5512995487
  0
LINE
  5
340
100
AcDbEntity
  8
KONSTRUKTIONSELEMENTE
100
AcDbLine
 62
7
  6
CONTINUOUS
 10
211.2204084352
 20
197.2513910766
 11
211.2204084352
 21
197.6051348216
  0
LINE
  5
341
100
AcDbEntity
  8
KONSTRUKTIONSELEMENTE
100
AcDbLine
 62
7
  6
CONTINUOUS
 10
211.2933256581
 20
197.4515052495
 11
211.2933256581
 21
197.3482134953
  0
LINE
  5
342
100
AcDbEntity
  8
KONSTRUKTIONSELEMENTE
100
AcDbLine
 62
7
  6
CONTINUOUS
 10
211.2933256581
 20
196.3872069988
 11
211.2933256581
 21
196.2215414819
  0
LINE
  5
343
100
AcDbEntity
  8
KONSTRUKTIONSELEMENTE
100
AcDbLine
 62
7
  6
CONTINUOUS
 10
211.4391584352
 20
195.4173384294
 11
211.4391584352
 21
195.7720573804
  0
LINE
  5
344
100
AcDbEntity
  8
KONSTRUKTIONSELEMENTE
100
AcDbLine
 62
7
  6
CONTINUOUS
 10
211.4391584352
 20
196.8212960735
 11
211.4391584352
 21
196.9280739224
  0
LINE
  5
345
100
AcDbEntity
  8
KONSTRUKTIONSELEMENTE
100
AcDbLine
 62
7
  6
CONTINUOUS
 10
211.6579084352
 20
195.6438388415
 11
211.6579084352
 21
195.9982031096
  0
LINE
  5
346
100
AcDbEntity
  8
KONSTRUKTIONSELEMENTE
100
AcDbLine
 62
7
  6
CONTINUOUS
 10
211.6579084352
 20
196.7859833511
 11
211.6579084352
 21
197.1395380092
  0
LINE
  5
347
100
AcDbEntity
  8
KONSTRUKTIONSELEMENTE
100
AcDbLine
 62
7
  6
CONTINUOUS
 10
211.7308256581
 20
195.8118289536
 11
211.7308256581
 21
196.4420791732
  0
LINE
  5
348
100
AcDbEntity
  8
KONSTRUKTIONSELEMENTE
100
AcDbLine
 62
7
  6
CONTINUOUS
 10
211.7308256581
 20
196.9427240946
 11
211.7308256581
 21
197.5028896718
  0
LINE
  5
349
100
AcDbEntity
  8
KONSTRUKTIONSELEMENTE
100
AcDbLine
 62
7
  6
CONTINUOUS
 10
212.3141584352
 20
195.1879571099
 11
212.3141584352
 21
198.0565894996
  0
LINE
  5
34A
100
AcDbEntity
  8
KONSTRUKTIONSELEMENTE
100
AcDbLine
 62
7
  6
CONTINUOUS
 10
212.7516584352
 20
198.0565894996
 11
212.7516584352
 21
196.8747721625
  0
LINE
  5
34B
100
AcDbEntity
  8
KONSTRUKTIONSELEMENTE
100
AcDbLine
 62
7
  6
CONTINUOUS
 10
212.7516584352
 20
195.1879571099
 11
212.7516584352
 21
196.4420791732
  0
LINE
  5
34C
100
AcDbEntity
  8
KONSTRUKTIONSELEMENTE
100
AcDbLine
 62
7
  6
CONTINUOUS
 10
213.2620756581
 20
196.4676891198
 11
213.2620756581
 21
196.8212960735
  0
LINE
  5
34D
100
AcDbEntity
  8
KONSTRUKTIONSELEMENTE
100
AcDbLine
 62
7
  6
CONTINUOUS
 10
214.3558256581
 20
195.1879571099
 11
214.3558256581
 21
195.5430960241
  0
LINE
  5
34E
100
AcDbEntity
  8
KONSTRUKTIONSELEMENTE
100
AcDbLine
 62
7
  6
CONTINUOUS
 10
214.9391584352
 20
195.1879571099
 11
214.9391584352
 21
195.5430960241
  0
LINE
  5
34F
100
AcDbEntity
  8
KONSTRUKTIONSELEMENTE
100
AcDbLine
 62
7
  6
CONTINUOUS
 10
214.9391584352
 20
197.7023340588
 11
214.9391584352
 21
198.0565894996
  0
LINE
  5
350
100
AcDbEntity
  8
RUNDUNGEN
100
AcDbLine
 62
7
  6
CONTINUOUS
 10
179.4884522698
 20
257.9026583994
 11
147.9308174923
 21
270.9742587206
  0
LINE
  5
351
100
AcDbEntity
  8
KONSTRUKTIONSELEMENTE
100
AcDbLine
 62
7
  6
CONTINUOUS
 10
236.5367343149
 20
176.74455885
 11
230.028215591
 21
194.6325207647
  0
LINE
  5
352
100
AcDbEntity
  8
KONSTRUKTIONSELEMENTE
100
AcDbLine
 62
7
  6
CONTINUOUS
 10
236.7028153455
 20
148.7923366967
 11
234.1188951384
 21
169.5173789907
  0
LWPOLYLINE
  5
353
100
AcDbEntity
  8
KONSTRUKTIONSELEMENTE
100
AcDbPolyline
 62
7
  6
CONTINUOUS
 90
9
 70
0
 10
234.1188951384
 20
169.5173789907
 10
234.076293437
 20
169.8880884316
 10
234.0394412053
 20
170.2471417811
 10
234.0085232286
 20
170.5910592687
 10
233.9835384617
 20
170.916727338
 10
233.9644170928
 20
171.2210323439
 10
233.9510731372
 20
171.5013425038
 10
233.9431463526
 20
171.7547522332
 10
233.9403809845
 20
171.9947732621
  0
LINE
  5
354
100
AcDbEntity
  8
KONSTRUKTIONSELEMENTE
100
AcDbLine
 62
7
  6
CONTINUOUS
 10
236.7250177303
 20
148.5580672546
 11
236.7028315545
 21
148.7923387132
  0
LINE
  5
355
100
AcDbEntity
  8
KONSTRUKTIONSELEMENTE
100
AcDbLine
 62
7
  6
CONTINUOUS
 10
236.7333731883
 20
148.2995075279
 11
236.7250177303
 21
148.5580672546
  0
LINE
  5
356
100
AcDbEntity
  8
KONSTRUKTIONSELEMENTE
100
AcDbLine
 62
7
  6
CONTINUOUS
 10
236.7333742546
 20
145.8241590225
 11
236.7333742546
 21
148.299036143
  0
LINE
  5
357
100
AcDbEntity
  8
KONSTRUKTIONSELEMENTE
100
AcDbLine
 62
7
  6
CONTINUOUS
 10
236.7333742529
 20
173.1671853964
 11
236.7333742546
 21
175.6419045085
  0
LINE
  5
358
100
AcDbEntity
  8
0
100
AcDbLine
 62
7
  6
CONTINUOUS
 10
233.9403810465
 20
171.9952048615
 11
233.9403809845
 21
171.9947732621
  0
LWPOLYLINE
  5
359
100
AcDbEntity
  8
KONSTRUKTIONSELEMENTE
100
AcDbPolyline
 62
7
  6
CONTINUOUS
 90
4
 70
0
 10
233.9403810465
 20
171.9952048614
 10
233.9408631163
 20
172.0894094197
 10
233.9430219038
 20
172.2038656742
 10
233.9464456288
 20
172.2990460512
  0
LWPOLYLINE
  5
35A
100
AcDbEntity
  8
KONSTRUKTIONSELEMENTE
100
AcDbPolyline
 62
7
  6
CONTINUOUS
 90
4
 70
0
 10
233.9464456288
 20
172.2990460512
 10
233.9506623918
 20
172.3770571041
 10
233.9551585892
 20
172.4377117123
 10
233.9593950546
 20
172.4813578462
  0
LINE
  5
35B
100
AcDbEntity
  8
KONSTRUKTIONSELEMENTE
100
AcDbLine
 62
7
  6
CONTINUOUS
 10
233.9593950546
 20
172.4813578462
 11
233.9609540752
 21
172.4947603794
  0
LINE
  5
35C
100
AcDbEntity
  8
KONSTRUKTIONSELEMENTE
100
AcDbLine
 62
7
  6
CONTINUOUS
 10
217.9169409978
 20
146.5889463331
 11
202.816433989
 21
135.954860067
  0
LINE
  5
35D
100
AcDbEntity
  8
RUNDUNGEN
100
AcDbLine
 62
7
  6
CONTINUOUS
 10
309.5191898565
 20
140.6414465172
 11
306.8191898565
 21
140.6414465172
  0
LINE
  5
35E
100
AcDbEntity
  8
KONSTRUKTIONSELEMENTE
100
AcDbLine
 62
7
  6
CONTINUOUS
 10
274.2359343712
 20
173.6383388165
 11
276.0328369934
 21
171.7768288899
  0
LINE
  5
35F
100
AcDbEntity
  8
RUNDUNGEN
100
AcDbLine
 62
7
  6
CONTINUOUS
 10
309.5191898565
 20
167.1667504455
 11
306.8191898565
 21
167.1667504455
  0
LINE
  5
360
100
AcDbEntity
  8
RUNDUNGEN
100
AcDbLine
 62
7
  6
CONTINUOUS
 10
305.5191898565
 20
168.4667504455
 11
278.9938915569
 21
168.4667504455
  0
LINE
  5
361
100
AcDbEntity
  8
KONSTRUKTIONSELEMENTE
100
AcDbLine
 62
7
  6
CONTINUOUS
 10
307.5191898565
 20
171.1667504455
 11
277.4709324299
 21
171.1667504455
  0
LINE
  5
362
100
AcDbEntity
  8
RUNDUNGEN
100
AcDbLine
 62
7
  6
CONTINUOUS
 10
277.4709297894
 20
171.1667504455
 11
285.259024016
 21
171.1667504455
  0
LINE
  5
363
100
AcDbEntity
  8
RUNDUNGEN
100
AcDbLine
 62
7
  6
CONTINUOUS
 10
278.9938859283
 20
168.4667504455
 11
278.9938859283
 21
171.1667504455
  0
LINE
  5
364
100
AcDbEntity
  8
KONSTRUKTIONSELEMENTE
100
AcDbLine
 62
7
  6
CONTINUOUS
 10
274.0996314999
 20
175.3464212149
 11
274.069536813
 21
175.3034415478
  0
LINE
  5
365
100
AcDbEntity
  8
KONSTRUKTIONSELEMENTE
100
AcDbLine
 62
7
  6
CONTINUOUS
 10
277.2884491263
 20
179.9005247519
 11
274.1019248298
 21
175.3496964294
  0
LINE
  5
366
100
AcDbEntity
  8
KONSTRUKTIONSELEMENTE
100
AcDbLine
 62
7
  6
CONTINUOUS
 10
277.3021320828
 20
179.9200660389
 11
284.9413857442
 21
190.8300509285
  0
LINE
  5
367
100
AcDbEntity
  8
KONSTRUKTIONSELEMENTE
100
AcDbLine
 62
7
  6
CONTINUOUS
 10
284.9413857442
 20
190.8300509285
 11
291.6419477244
 21
198.5443423092
  0
LINE
  5
368
100
AcDbEntity
  8
KONSTRUKTIONSELEMENTE
100
AcDbLine
 62
7
  6
CONTINUOUS
 10
291.6419477244
 20
198.5443423092
 11
293.293140003
 21
200.1955345879
  0
LINE
  5
369
100
AcDbEntity
  8
RUNDUNGEN
100
AcDbLine
 62
7
  6
CONTINUOUS
 10
305.5191898565
 20
168.4667504455
 11
305.5191898565
 21
171.1667504455
  0
LINE
  5
36A
100
AcDbEntity
  8
RUNDUNGEN
100
AcDbLine
 62
7
  6
CONTINUOUS
 10
306.8191898565
 20
140.6414521458
 11
306.8191898565
 21
167.1667504455
  0
LINE
  5
36B
100
AcDbEntity
  8
KONSTRUKTIONSELEMENTE
100
AcDbLine
 62
7
  6
CONTINUOUS
 10
295.6637876629
 20
201.3556514719
 11
293.2930641936
 21
200.1954587785
  0
LINE
  5
36C
100
AcDbEntity
  8
KONSTRUKTIONSELEMENTE
100
AcDbLine
 62
7
  6
CONTINUOUS
 10
298.1422144535
 20
202.5572341967
 11
295.6637876629
 21
201.3556514719
  0
LWPOLYLINE
  5
36D
100
AcDbEntity
  8
KONSTRUKTIONSELEMENTE
100
AcDbPolyline
 62
7
  6
CONTINUOUS
 90
7
 70
0
 10
300.9570533634
 20
203.1875656615
 10
300.5700823302
 20
203.1765168946
 10
300.0081355358
 20
203.1205482031
 10
299.4617333853
 20
203.0189571168
 10
298.9347798159
 20
202.8737993866
 10
298.4311407126
 20
202.6874457956
 10
298.1422161673
 20
202.557234922
  0
LINE
  5
36E
100
AcDbEntity
  8
KONSTRUKTIONSELEMENTE
100
AcDbLine
 62
7
  6
CONTINUOUS
 10
300.9571131564
 20
203.1875657256
 11
319.5400051367
 21
203.1875657256
  0
LINE
  5
36F
100
AcDbEntity
  8
RUNDUNGEN
100
AcDbLine
 62
7
  6
CONTINUOUS
 10
309.5191898565
 20
146.9065846049
 11
309.5191898565
 21
139.1184903783
  0
LINE
  5
370
100
AcDbEntity
  8
KONSTRUKTIONSELEMENTE
100
AcDbLine
 62
7
  6
CONTINUOUS
 10
309.5191898565
 20
139.1184926626
 11
309.5191898565
 21
169.1667504455
  0
LINE
  5
371
100
AcDbEntity
  8
BEZUGSACHSEN
100
AcDbLine
 62
7
  6
CONTINUOUS
 10
309.5400051367
 20
268.3165842921
 11
309.5400051367
 21
203.1875657256
  0
LINE
  5
372
100
AcDbEntity
  8
RUNDUNGEN
100
AcDbLine
 62
7
  6
CONTINUOUS
 10
329.5400051367
 20
268.3165842921
 11
329.5400051367
 21
202.5359559332
  0
LINE
  5
373
100
AcDbEntity
  8
KONSTRUKTIONSELEMENTE
100
AcDbLine
 62
7
  6
CONTINUOUS
 10
333.540396521
 20
198.1578055909
 11
333.8955354352
 21
198.5129445051
  0
LINE
  5
374
100
AcDbEntity
  8
KONSTRUKTIONSELEMENTE
100
AcDbLine
 62
7
  6
CONTINUOUS
 10
335.0858193522
 20
196.7544427528
 11
335.439372822
 21
197.1079962226
  0
LINE
  5
375
100
AcDbEntity
  8
KONSTRUKTIONSELEMENTE
100
AcDbLine
 62
7
  6
CONTINUOUS
 10
336.0547734699
 20
195.7224350715
 11
336.4090289107
 21
196.0766905123
  0
LINE
  5
376
100
AcDbEntity
  8
KONSTRUKTIONSELEMENTE
100
AcDbLine
 62
7
  6
CONTINUOUS
 10
336.510245002
 20
195.1879571099
 11
336.8653839161
 21
195.5430960241
  0
LINE
  5
377
100
AcDbEntity
  8
KONSTRUKTIONSELEMENTE
100
AcDbLine
 62
7
  6
CONTINUOUS
 10
341.5400051367
 20
181.1875657256
 11
341.5400051367
 21
162.6046737454
  0
LWPOLYLINE
  5
378
100
AcDbEntity
  8
KONSTRUKTIONSELEMENTE
100
AcDbPolyline
 62
7
  6
CONTINUOUS
 90
7
 70
0
 10
340.9096743331
 20
159.7897767562
 10
341.0398852067
 20
160.0787013015
 10
341.2262387977
 20
160.5823404048
 10
341.3713965279
 20
161.1092939742
 10
341.4729876142
 20
161.6556961247
 10
341.5289563057
 20
162.2176429191
 10
341.5400050725
 20
162.6046139523
  0
LINE
  5
379
100
AcDbEntity
  8
KONSTRUKTIONSELEMENTE
100
AcDbLine
 62
7
  6
CONTINUOUS
 10
339.708090883
 20
157.3113482518
 11
340.9096736078
 21
159.7897750425
  0
LINE
  5
37A
100
AcDbEntity
  8
KONSTRUKTIONSELEMENTE
100
AcDbLine
 62
7
  6
CONTINUOUS
 10
338.5478981896
 20
154.9406247826
 11
339.708090883
 21
157.3113482518
  0
LINE
  5
37B
100
AcDbEntity
  8
KONSTRUKTIONSELEMENTE
100
AcDbLine
 62
7
  6
CONTINUOUS
 10
336.8967817203
 20
153.2895083133
 11
338.5479739989
 21
154.9407005919
  0
LINE
  5
37C
100
AcDbEntity
  8
KONSTRUKTIONSELEMENTE
100
AcDbLine
 62
7
  6
CONTINUOUS
 10
329.1824903396
 20
146.5889463331
 11
336.8967817203
 21
153.2895083133
  0
LINE
  5
37D
100
AcDbEntity
  8
KONSTRUKTIONSELEMENTE
100
AcDbLine
 62
7
  6
CONTINUOUS
 10
313.6558809589
 20
135.7170974019
 11
318.252964163
 21
138.9360097153
  0
LINE
  5
37E
100
AcDbEntity
  8
KONSTRUKTIONSELEMENTE
100
AcDbLine
 62
7
  6
CONTINUOUS
 10
318.2725054481
 20
138.9496926704
 11
329.1824903396
 21
146.5889463331
  0
LINE
  5
37F
100
AcDbEntity
  8
BEZUGSACHSEN
100
AcDbLine
 62
7
  6
CONTINUOUS
 10
312.5400051367
 20
271.3168008243
 11
326.5400051367
 21
271.3168008243
  0
LINE
  5
380
100
AcDbEntity
  8
KONSTRUKTIONSELEMENTE
100
AcDbLine
 62
7
  6
CONTINUOUS
 10
55.684110905
 20
86.0636859316
 11
55.6924663631
 21
85.8051262048
  0
LINE
  5
381
100
AcDbEntity
  8
KONSTRUKTIONSELEMENTE
100
AcDbLine
 62
7
  6
CONTINUOUS
 10
55.6841098387
 20
88.5390344369
 11
55.6841098387
 21
86.0641573164
  0
LINE
  5
382
100
AcDbEntity
  8
KONSTRUKTIONSELEMENTE
100
AcDbLine
 62
7
  6
CONTINUOUS
 10
55.6841098404
 20
61.196008063
 11
55.6841098387
 21
58.721288951
  0
LINE
  5
383
100
AcDbEntity
  8
KONSTRUKTIONSELEMENTE
100
AcDbLine
 62
7
  6
CONTINUOUS
 10
55.6924663631
 20
85.8051262048
 11
55.7146525388
 21
85.5708547462
  0
LINE
  5
384
100
AcDbEntity
  8
0
100
AcDbLine
 62
7
  6
CONTINUOUS
 10
58.4771030468
 20
62.3679885979
 11
58.4771031088
 21
62.3684201973
  0
LWPOLYLINE
  5
385
100
AcDbEntity
  8
KONSTRUKTIONSELEMENTE
100
AcDbPolyline
 62
7
  6
CONTINUOUS
 90
4
 70
0
 10
58.4771030468
 20
62.367988598
 10
58.476620977
 20
62.2737840397
 10
58.4744621895
 20
62.1593277852
 10
58.4710384646
 20
62.0641474082
  0
LWPOLYLINE
  5
386
100
AcDbEntity
  8
KONSTRUKTIONSELEMENTE
100
AcDbPolyline
 62
7
  6
CONTINUOUS
 90
4
 70
0
 10
58.4710384646
 20
62.0641474082
 10
58.4668217015
 20
61.9861363553
 10
58.4623255041
 20
61.9254817471
 10
58.4580890387
 20
61.8818356132
  0
LINE
  5
387
100
AcDbEntity
  8
KONSTRUKTIONSELEMENTE
100
AcDbLine
 62
7
  6
CONTINUOUS
 10
58.4580890387
 20
61.8818356132
 11
58.4565300181
 21
61.86843308
  0
LINE
  5
388
100
AcDbEntity
  8
KONSTRUKTIONSELEMENTE
100
AcDbLine
 62
7
  6
CONTINUOUS
 10
55.8807497784
 20
57.6186346094
 11
62.3892685023
 21
39.7306726947
  0
LINE
  5
389
100
AcDbEntity
  8
KONSTRUKTIONSELEMENTE
100
AcDbLine
 62
7
  6
CONTINUOUS
 10
55.7146687478
 20
85.5708567627
 11
58.2985889549
 21
64.8458144687
  0
LWPOLYLINE
  5
38A
100
AcDbEntity
  8
KONSTRUKTIONSELEMENTE
100
AcDbPolyline
 62
7
  6
CONTINUOUS
 90
9
 70
0
 10
58.2985889549
 20
64.8458144687
 10
58.3411906563
 20
64.4751050278
 10
58.378042888
 20
64.1160516784
 10
58.4089608647
 20
63.7721341907
 10
58.4339456316
 20
63.4464661214
 10
58.4530670005
 20
63.1421611155
 10
58.4664109561
 20
62.8618509557
 10
58.4743377407
 20
62.6084412262
 10
58.4771031088
 20
62.3684201973
  0
LINE
  5
38B
100
AcDbEntity
  8
KONSTRUKTIONSELEMENTE
100
AcDbLine
 62
7
  6
CONTINUOUS
 10
77.4783256581
 20
39.1752363495
 11
77.4783256581
 21
38.8200974353
  0
LINE
  5
38C
100
AcDbEntity
  8
KONSTRUKTIONSELEMENTE
100
AcDbLine
 62
7
  6
CONTINUOUS
 10
77.4783256581
 20
36.6608594006
 11
77.4783256581
 21
36.3066039598
  0
LINE
  5
38D
100
AcDbEntity
  8
KONSTRUKTIONSELEMENTE
100
AcDbLine
 62
7
  6
CONTINUOUS
 10
78.0616584352
 20
39.1752363495
 11
78.0616584352
 21
38.8200974353
  0
LINE
  5
38E
100
AcDbEntity
  8
KONSTRUKTIONSELEMENTE
100
AcDbLine
 62
7
  6
CONTINUOUS
 10
79.1554084352
 20
37.8955043396
 11
79.1554084352
 21
37.5418973859
  0
LINE
  5
38F
100
AcDbEntity
  8
KONSTRUKTIONSELEMENTE
100
AcDbLine
 62
7
  6
CONTINUOUS
 10
79.6658256581
 20
36.3066039598
 11
79.6658256581
 21
37.4884212969
  0
LINE
  5
390
100
AcDbEntity
  8
KONSTRUKTIONSELEMENTE
100
AcDbLine
 62
7
  6
CONTINUOUS
 10
79.6658256581
 20
37.9211142862
 11
79.6658256581
 21
39.1752363495
  0
LINE
  5
391
100
AcDbEntity
  8
KONSTRUKTIONSELEMENTE
100
AcDbLine
 62
7
  6
CONTINUOUS
 10
80.1033256581
 20
36.3066039598
 11
80.1033256581
 21
39.1752363495
  0
LINE
  5
392
100
AcDbEntity
  8
KONSTRUKTIONSELEMENTE
100
AcDbLine
 62
7
  6
CONTINUOUS
 10
80.6866584352
 20
36.8603037876
 11
80.6866584352
 21
37.4204693648
  0
LINE
  5
393
100
AcDbEntity
  8
KONSTRUKTIONSELEMENTE
100
AcDbLine
 62
7
  6
CONTINUOUS
 10
80.6866584352
 20
37.9211142862
 11
80.6866584352
 21
38.5513645058
  0
LINE
  5
394
100
AcDbEntity
  8
KONSTRUKTIONSELEMENTE
100
AcDbLine
 62
7
  6
CONTINUOUS
 10
80.7595756581
 20
38.719354618
 11
80.7595756581
 21
38.3649903498
  0
LINE
  5
395
100
AcDbEntity
  8
KONSTRUKTIONSELEMENTE
100
AcDbLine
 62
7
  6
CONTINUOUS
 10
80.7595756581
 20
37.5772101083
 11
80.7595756581
 21
37.2236554502
  0
LINE
  5
396
100
AcDbEntity
  8
KONSTRUKTIONSELEMENTE
100
AcDbLine
 62
7
  6
CONTINUOUS
 10
80.9783256581
 20
38.94585503
 11
80.9783256581
 21
38.591136079
  0
LINE
  5
397
100
AcDbEntity
  8
KONSTRUKTIONSELEMENTE
100
AcDbLine
 62
7
  6
CONTINUOUS
 10
80.9783256581
 20
37.5418973859
 11
80.9783256581
 21
37.4351195371
  0
LINE
  5
398
100
AcDbEntity
  8
KONSTRUKTIONSELEMENTE
100
AcDbLine
 62
7
  6
CONTINUOUS
 10
81.1241584352
 20
36.9116882099
 11
81.1241584352
 21
37.0149799641
  0
LINE
  5
399
100
AcDbEntity
  8
KONSTRUKTIONSELEMENTE
100
AcDbLine
 62
7
  6
CONTINUOUS
 10
81.1241584352
 20
37.9759864606
 11
81.1241584352
 21
38.1416519775
  0
LINE
  5
39A
100
AcDbEntity
  8
KONSTRUKTIONSELEMENTE
100
AcDbLine
 62
7
  6
CONTINUOUS
 10
81.1970756581
 20
38.1656535258
 11
81.1970756581
 21
37.8118939107
  0
LINE
  5
39B
100
AcDbEntity
  8
KONSTRUKTIONSELEMENTE
100
AcDbLine
 62
7
  6
CONTINUOUS
 10
81.1970756581
 20
37.1118023828
 11
81.1970756581
 21
36.7580586378
  0
LINE
  5
39C
100
AcDbEntity
  8
KONSTRUKTIONSELEMENTE
100
AcDbLine
 62
7
  6
CONTINUOUS
 10
81.2699920467
 20
39.1176203898
 11
81.2699920467
 21
38.7625926224
  0
LINE
  5
39D
100
AcDbEntity
  8
KONSTRUKTIONSELEMENTE
100
AcDbLine
 62
7
  6
CONTINUOUS
 10
81.3429084352
 20
38.0570585556
 11
81.3429084352
 21
37.7033719254
  0
LINE
  5
39E
100
AcDbEntity
  8
KONSTRUKTIONSELEMENTE
100
AcDbLine
 62
7
  6
CONTINUOUS
 10
81.3429084352
 20
37.0103411787
 11
81.3429084352
 21
36.6565117094
  0
LINE
  5
39F
100
AcDbEntity
  8
KONSTRUKTIONSELEMENTE
100
AcDbLine
 62
7
  6
CONTINUOUS
 10
81.5616584352
 20
38.0030287656
 11
81.5616584352
 21
37.6493726646
  0
LINE
  5
3A0
100
AcDbEntity
  8
KONSTRUKTIONSELEMENTE
100
AcDbLine
 62
7
  6
CONTINUOUS
 10
81.5616584352
 20
36.9598785421
 11
81.5616584352
 21
36.6060002299
  0
LINE
  5
3A1
100
AcDbEntity
  8
KONSTRUKTIONSELEMENTE
100
AcDbLine
 62
7
  6
CONTINUOUS
 10
81.6345756581
 20
39.1752363495
 11
81.6345756581
 21
38.8200974353
  0
LINE
  5
3A2
100
AcDbEntity
  8
KONSTRUKTIONSELEMENTE
100
AcDbLine
 62
7
  6
CONTINUOUS
 10
82.9470756581
 20
36.6060002299
 11
82.9470756581
 21
37.3290389254
  0
LINE
  5
3A3
100
AcDbEntity
  8
KONSTRUKTIONSELEMENTE
100
AcDbLine
 62
7
  6
CONTINUOUS
 10
82.9470756581
 20
37.6493726646
 11
82.9470756581
 21
38.4777118026
  0
LINE
  5
3A4
100
AcDbEntity
  8
KONSTRUKTIONSELEMENTE
100
AcDbLine
 62
7
  6
CONTINUOUS
 10
83.3845752409
 20
36.3066039598
 11
83.3845752409
 21
39.1752363495
  0
LINE
  5
3A5
100
AcDbEntity
  8
KONSTRUKTIONSELEMENTE
100
AcDbLine
 62
7
  6
CONTINUOUS
 10
83.9679088524
 20
39.1752363495
 11
83.9679088524
 21
38.8200974353
  0
LINE
  5
3A6
100
AcDbEntity
  8
KONSTRUKTIONSELEMENTE
100
AcDbLine
 62
7
  6
CONTINUOUS
 10
84.0408252409
 20
36.8603037876
 11
84.0408252409
 21
37.4204693648
  0
LINE
  5
3A7
100
AcDbEntity
  8
KONSTRUKTIONSELEMENTE
100
AcDbLine
 62
7
  6
CONTINUOUS
 10
84.1137420467
 20
37.5772101083
 11
84.1137420467
 21
37.2236554502
  0
LINE
  5
3A8
100
AcDbEntity
  8
KONSTRUKTIONSELEMENTE
100
AcDbLine
 62
7
  6
CONTINUOUS
 10
84.3324920467
 20
37.788693209
 11
84.3324920467
 21
37.4351195371
  0
LINE
  5
3A9
100
AcDbEntity
  8
KONSTRUKTIONSELEMENTE
100
AcDbLine
 62
7
  6
CONTINUOUS
 10
84.4783252409
 20
39.1752363495
 11
84.4783252409
 21
38.8200974353
  0
LINE
  5
3AA
100
AcDbEntity
  8
KONSTRUKTIONSELEMENTE
100
AcDbLine
 62
7
  6
CONTINUOUS
 10
84.4783252409
 20
36.8603037876
 11
84.4783252409
 21
37.0149799641
  0
LINE
  5
3AB
100
AcDbEntity
  8
KONSTRUKTIONSELEMENTE
100
AcDbLine
 62
7
  6
CONTINUOUS
 10
84.5512420467
 20
37.0609824821
 11
84.5512420467
 21
36.7071978671
  0
LINE
  5
3AC
100
AcDbEntity
  8
KONSTRUKTIONSELEMENTE
100
AcDbLine
 62
7
  6
CONTINUOUS
 10
84.6970752409
 20
36.9598785421
 11
84.6970752409
 21
36.6060002299
  0
LINE
  5
3AD
100
AcDbEntity
  8
KONSTRUKTIONSELEMENTE
100
AcDbLine
 62
7
  6
CONTINUOUS
 10
84.9158252409
 20
36.9095946481
 11
84.9158252409
 21
36.5556634991
  0
LINE
  5
3AE
100
AcDbEntity
  8
KONSTRUKTIONSELEMENTE
100
AcDbLine
 62
7
  6
CONTINUOUS
 10
85.0616588524
 20
38.0030287656
 11
85.0616588524
 21
37.6493726646
  0
LINE
  5
3AF
100
AcDbEntity
  8
KONSTRUKTIONSELEMENTE
100
AcDbLine
 62
7
  6
CONTINUOUS
 10
86.3012420467
 20
36.5556634991
 11
86.3012420467
 21
37.3290389254
  0
LINE
  5
3B0
100
AcDbEntity
  8
KONSTRUKTIONSELEMENTE
100
AcDbLine
 62
7
  6
CONTINUOUS
 10
86.3012420467
 20
37.6493726646
 11
86.3012420467
 21
39.1752363495
  0
LINE
  5
3B1
100
AcDbEntity
  8
KONSTRUKTIONSELEMENTE
100
AcDbLine
 62
7
  6
CONTINUOUS
 10
86.7387420467
 20
36.3066039598
 11
86.7387420467
 21
39.1752363495
  0
LINE
  5
3B2
100
AcDbEntity
  8
KONSTRUKTIONSELEMENTE
100
AcDbLine
 62
7
  6
CONTINUOUS
 10
87.3220754495
 20
36.6608594006
 11
87.3220754495
 21
36.3066039598
  0
LINE
  5
3B3
100
AcDbEntity
  8
KONSTRUKTIONSELEMENTE
100
AcDbLine
 62
7
  6
CONTINUOUS
 10
88.4887420467
 20
39.1752363495
 11
88.4887420467
 21
38.8200974353
  0
LINE
  5
3B4
100
AcDbEntity
  8
KONSTRUKTIONSELEMENTE
100
AcDbLine
 62
7
  6
CONTINUOUS
 10
89.0720753452
 20
39.1752363495
 11
89.0720753452
 21
38.8200974353
  0
LINE
  5
3B5
100
AcDbEntity
  8
KONSTRUKTIONSELEMENTE
100
AcDbLine
 62
7
  6
CONTINUOUS
 10
74.5005430956
 20
87.7742471263
 11
89.6010501043
 21
98.4083333924
  0
LINE
  5
3B6
100
AcDbEntity
  8
KONSTRUKTIONSELEMENTE
100
AcDbLine
 62
7
  6
CONTINUOUS
 10
90.2387420467
 20
36.6608594006
 11
90.2387420467
 21
36.3066039598
  0
LINE
  5
3B7
100
AcDbEntity
  8
0
100
AcDbLine
 62
7
  6
CONTINUOUS
 10
95.4641117376
 20
32.1169784901
 11
95.4641117376
 21
53.175686266
  0
LINE
  5
3B8
100
AcDbEntity
  8
0
100
AcDbLine
 62
7
  6
CONTINUOUS
 10
96.7087420467
 20
39.1758422984
 11
96.7087420467
 21
67.1754131692
  0
LINE
  5
3B9
100
AcDbEntity
  8
BEZUGSACHSEN
100
AcDbLine
 62
7
  6
CONTINUOUS
 10
96.8035513909
 20
60.1756277338
 11
96.8035513909
 21
46.1756277338
  0
LINE
  5
3BA
100
AcDbEntity
  8
0
100
AcDbLine
 62
7
  6
CONTINUOUS
 10
96.7087420467
 20
39.1756277338
 11
95.4641117376
 21
32.1169784901
  0
LINE
  5
3BB
100
AcDbEntity
  8
0
100
AcDbLine
 62
7
  6
CONTINUOUS
 10
96.7087420467
 20
67.1756277338
 11
92.1707708356
 21
92.9117413611
  0
LINE
  5
3BC
100
AcDbEntity
  8
0
100
AcDbLine
 62
7
  6
CONTINUOUS
 10
106.7387420467
 20
40.6756277338
 11
106.7387420467
 21
41.2582914023
  0
LINE
  5
3BD
100
AcDbEntity
  8
0
100
AcDbLine
 62
7
  6
CONTINUOUS
 10
107.3637420467
 20
40.6756277338
 11
107.3637420467
 21
40.7197498606
  0
LINE
  5
3BE
100
AcDbEntity
  8
0
100
AcDbLine
 62
7
  6
CONTINUOUS
 10
108.1487420467
 20
65.170046706
 11
108.1487420467
 21
65.6701561616
  0
LWPOLYLINE
  5
3BF
100
AcDbEntity
  8
KONSTRUKTIONSELEMENTE
100
AcDbPolyline
 62
7
  6
CONTINUOUS
 90
3
 70
0
 10
218.4950367315
 20
31.1934848945
 10
218.5365338569
 20
31.1957703277
 10
218.6172336401
 20
31.2005743991
  0
LINE
  5
3C0
100
AcDbEntity
  8
KONSTRUKTIONSELEMENTE
100
AcDbLine
 62
7
  6
CONTINUOUS
 10
73.8437433823
 20
31.1979276362
 11
73.9224473678
 21
31.1934848942
  0
LINE
  5
3C1
100
AcDbEntity
  8
KONSTRUKTIONSELEMENTE
100
AcDbLine
 62
7
  6
CONTINUOUS
 10
73.8004372823
 20
31.2005950043
 11
73.8437433823
 21
31.1979276362
  0
LINE
  5
3C2
100
AcDbEntity
  8
RUNDUNGEN
100
AcDbLine
 62
7
  6
CONTINUOUS
 10
99.4974417014
 20
41.4763188147
 11
99.691224639
 21
41.3963677068
  0
LINE
  5
3C3
100
AcDbEntity
  8
RUNDUNGEN
100
AcDbLine
 62
7
  6
CONTINUOUS
 10
99.5901509777
 20
41.4380797984
 11
99.5900344878
 21
41.4381303184
  0
LINE
  5
3C4
100
AcDbEntity
  8
0
100
AcDbLine
 62
7
  6
CONTINUOUS
 10
109.2387420467
 20
41.2582914023
 11
109.2387420467
 21
40.7566653266
  0
LINE
  5
3C5
100
AcDbEntity
  8
0
100
AcDbLine
 62
7
  6
CONTINUOUS
 10
109.342908614
 20
40.7197498606
 11
109.342908614
 21
40.6756277338
  0
LINE
  5
3C6
100
AcDbEntity
  8
0
100
AcDbLine
 62
7
  6
CONTINUOUS
 10
109.655408614
 20
40.7137065971
 11
109.655408614
 21
40.6756297203
  0
LINE
  5
3C7
100
AcDbEntity
  8
0
100
AcDbLine
 62
7
  6
CONTINUOUS
 10
109.7595754793
 20
41.2498472468
 11
109.7595754793
 21
40.748387756
  0
LINE
  5
3C8
100
AcDbEntity
  8
0
100
AcDbLine
 62
7
  6
CONTINUOUS
 10
109.8637420467
 20
40.702957216
 11
109.8637420467
 21
40.6766013464
  0
LINE
  5
3C9
100
AcDbEntity
  8
0
100
AcDbLine
 62
7
  6
CONTINUOUS
 10
109.967908614
 20
40.6813880406
 11
109.967908614
 21
40.6901719545
  0
LINE
  5
3CA
100
AcDbEntity
  8
0
100
AcDbLine
 62
7
  6
CONTINUOUS
 10
110.1762420467
 20
41.2272535593
 11
110.1762420467
 21
40.7262392549
  0
LINE
  5
3CB
100
AcDbEntity
  8
0
100
AcDbLine
 62
7
  6
CONTINUOUS
 10
110.4887420467
 20
41.2035044099
 11
110.4887420467
 21
40.702957216
  0
LINE
  5
3CC
100
AcDbEntity
  8
0
100
AcDbLine
 62
7
  6
CONTINUOUS
 10
110.592908614
 20
41.1904630099
 11
110.592908614
 21
40.6901719545
  0
LINE
  5
3CD
100
AcDbEntity
  8
0
100
AcDbLine
 62
7
  6
CONTINUOUS
 10
110.6970754793
 20
41.1756277338
 11
110.6970754793
 21
40.6756277338
  0
LINE
  5
3CE
100
AcDbEntity
  8
0
100
AcDbLine
 62
7
  6
CONTINUOUS
 10
111.4287420467
 20
65.1756277338
 11
111.4287420467
 21
65.6756277338
  0
LINE
  5
3CF
100
AcDbEntity
  8
0
100
AcDbLine
 62
7
  6
CONTINUOUS
 10
111.530408614
 20
40.6756277338
 11
111.530408614
 21
41.2582914023
  0
LINE
  5
3D0
100
AcDbEntity
  8
0
100
AcDbLine
 62
7
  6
CONTINUOUS
 10
112.155408912
 20
40.6756277338
 11
112.155408912
 21
41.2582914023
  0
LINE
  5
3D1
100
AcDbEntity
  8
0
100
AcDbLine
 62
7
  6
CONTINUOUS
 10
112.2595751813
 20
41.1756277338
 11
112.2595751813
 21
40.6756277338
  0
LINE
  5
3D2
100
AcDbEntity
  8
0
100
AcDbLine
 62
7
  6
CONTINUOUS
 10
112.467908912
 20
41.1756277338
 11
112.467908912
 21
40.6756277338
  0
LINE
  5
3D3
100
AcDbEntity
  8
0
100
AcDbLine
 62
7
  6
CONTINUOUS
 10
112.780408912
 20
41.1756277338
 11
112.780408912
 21
40.6756277338
  0
LINE
  5
3D4
100
AcDbEntity
  8
0
100
AcDbLine
 62
7
  6
CONTINUOUS
 10
113.1970751813
 20
41.1756277338
 11
113.1970751813
 21
40.6756277338
  0
LINE
  5
3D5
100
AcDbEntity
  8
0
100
AcDbLine
 62
7
  6
CONTINUOUS
 10
113.2087420467
 20
65.170046706
 11
113.2087420467
 21
65.6701561616
  0
LINE
  5
3D6
100
AcDbEntity
  8
0
100
AcDbLine
 62
7
  6
CONTINUOUS
 10
113.6137420467
 20
41.1756277338
 11
113.6137420467
 21
40.6756277338
  0
LINE
  5
3D7
100
AcDbEntity
  8
0
100
AcDbLine
 62
7
  6
CONTINUOUS
 10
114.030408912
 20
41.1756277338
 11
114.030408912
 21
40.6756277338
  0
LINE
  5
3D8
100
AcDbEntity
  8
0
100
AcDbLine
 62
7
  6
CONTINUOUS
 10
114.342908912
 20
41.1756277338
 11
114.342908912
 21
40.6756277338
  0
LINE
  5
3D9
100
AcDbEntity
  8
0
100
AcDbLine
 62
7
  6
CONTINUOUS
 10
114.5512420467
 20
41.1756277338
 11
114.5512420467
 21
40.6756277338
  0
LINE
  5
3DA
100
AcDbEntity
  8
0
100
AcDbLine
 62
7
  6
CONTINUOUS
 10
114.655408912
 20
40.6756277338
 11
114.655408912
 21
41.2582914023
  0
LINE
  5
3DB
100
AcDbEntity
  8
KONSTRUKTIONSELEMENTE
100
AcDbLine
 62
7
  6
CONTINUOUS
 10
218.4028861404
 20
31.1888789964
 11
218.4950367315
 21
31.1934848945
  0
LWPOLYLINE
  5
3DC
100
AcDbEntity
  8
KONSTRUKTIONSELEMENTE
100
AcDbPolyline
 62
7
  6
CONTINUOUS
 90
7
 70
0
 10
218.0175976931
 20
31.1769838872
 10
218.0770308179
 20
31.1780246999
 10
218.1351690765
 20
31.1793260217
 10
218.1919673161
 20
31.1808663969
 10
218.2473145183
 20
31.1826215471
 10
218.3010232866
 20
31.1845626182
 10
218.4028861404
 20
31.1888789964
  0
LWPOLYLINE
  5
3DD
100
AcDbEntity
  8
KONSTRUKTIONSELEMENTE
100
AcDbPolyline
 62
7
  6
CONTINUOUS
 90
3
 70
0
 10
217.8967531444
 20
31.1757747252
 10
217.9573362099
 20
31.1762285987
 10
218.0175976931
 20
31.1769838872
  0
LINE
  5
3DE
100
AcDbEntity
  8
KONSTRUKTIONSELEMENTE
100
AcDbLine
 62
7
  6
CONTINUOUS
 10
198.6502111161
 20
31.1756277338
 11
217.8967531444
 21
31.1757747252
  0
LWPOLYLINE
  5
3DF
100
AcDbEntity
  8
KONSTRUKTIONSELEMENTE
100
AcDbPolyline
 62
7
  6
CONTINUOUS
 90
4
 70
0
 10
74.3998866996
 20
31.1769838827
 10
74.4601481418
 20
31.1762285961
 10
74.5207311033
 20
31.1757747245
 10
93.7672729772
 20
31.1756277338
  0
LWPOLYLINE
  5
3E0
100
AcDbEntity
  8
KONSTRUKTIONSELEMENTE
100
AcDbPolyline
 62
7
  6
CONTINUOUS
 90
5
 70
0
 10
74.1701697069
 20
31.1826215426
 10
74.2255169763
 20
31.180866391
 10
74.2823152748
 20
31.1793260153
 10
74.3404535703
 20
31.178024694
 10
74.3998866996
 20
31.1769838827
  0
LINE
  5
3E1
100
AcDbEntity
  8
KONSTRUKTIONSELEMENTE
100
AcDbLine
 62
7
  6
CONTINUOUS
 10
74.0644762088
 20
31.1866623543
 11
74.1701697069
 21
31.1826215426
  0
LWPOLYLINE
  5
3E2
100
AcDbEntity
  8
KONSTRUKTIONSELEMENTE
100
AcDbPolyline
 62
7
  6
CONTINUOUS
 90
3
 70
0
 10
73.9224473678
 20
31.1934848942
 10
73.9670825108
 20
31.1911721005
 10
74.0644762088
 20
31.1866623543
  0
LWPOLYLINE
  5
3E3
100
AcDbEntity
  8
RUNDUNGEN
100
AcDbPolyline
 62
7
  6
CONTINUOUS
 90
5
 70
0
 10
99.691224639
 20
41.3963677068
 10
99.9744107527
 20
41.3001176897
 10
100.2670791547
 20
41.2304930587
 10
100.5655934404
 20
41.1888074845
 10
100.8505280698
 20
41.1756365465
  0
LINE
  5
3E4
100
AcDbEntity
  8
0
100
AcDbLine
 62
7
  6
CONTINUOUS
 10
115.280408912
 20
40.6756277338
 11
115.280408912
 21
41.2582914023
  0
LINE
  5
3E5
100
AcDbEntity
  8
0
100
AcDbLine
 62
7
  6
CONTINUOUS
 10
116.1137420467
 20
40.6756277338
 11
116.1137420467
 21
41.2582914023
  0
LINE
  5
3E6
100
AcDbEntity
  8
0
100
AcDbLine
 62
7
  6
CONTINUOUS
 10
116.4887420467
 20
65.1756277338
 11
116.4887420467
 21
65.6756277338
  0
LINE
  5
3E7
100
AcDbEntity
  8
0
100
AcDbLine
 62
7
  6
CONTINUOUS
 10
116.7387420467
 20
40.6756277338
 11
116.7387420467
 21
40.7137065971
  0
LINE
  5
3E8
100
AcDbEntity
  8
0
100
AcDbLine
 62
7
  6
CONTINUOUS
 10
118.6137420467
 20
41.2582914023
 11
118.6137420467
 21
40.7566653266
  0
LINE
  5
3E9
100
AcDbEntity
  8
0
100
AcDbLine
 62
7
  6
CONTINUOUS
 10
118.6137420467
 20
40.7137065971
 11
118.6137420467
 21
40.6756277338
  0
LINE
  5
3EA
100
AcDbEntity
  8
0
100
AcDbLine
 62
7
  6
CONTINUOUS
 10
119.030408316
 20
40.7081091469
 11
119.030408316
 21
40.6756277338
  0
LINE
  5
3EB
100
AcDbEntity
  8
0
100
AcDbLine
 62
7
  6
CONTINUOUS
 10
119.1345757774
 20
41.2498472468
 11
119.1345757774
 21
40.748387756
  0
LINE
  5
3EC
100
AcDbEntity
  8
0
100
AcDbLine
 62
7
  6
CONTINUOUS
 10
119.342908316
 20
40.6982505343
 11
119.342908316
 21
40.6756277338
  0
LINE
  5
3ED
100
AcDbEntity
  8
0
100
AcDbLine
 62
7
  6
CONTINUOUS
 10
119.5512420467
 20
41.2343287513
 11
119.5512420467
 21
40.7331751214
  0
LINE
  5
3EE
100
AcDbEntity
  8
0
100
AcDbLine
 62
7
  6
CONTINUOUS
 10
119.5512420467
 20
40.6867996247
 11
119.5512420467
 21
40.6756277338
  0
LINE
  5
3EF
100
AcDbEntity
  8
0
100
AcDbLine
 62
7
  6
CONTINUOUS
 10
119.655408316
 20
40.6756277338
 11
119.655408316
 21
40.6777528709
  0
LINE
  5
3F0
100
AcDbEntity
  8
0
100
AcDbLine
 62
7
  6
CONTINUOUS
 10
119.967908316
 20
41.2087596288
 11
119.967908316
 21
40.7081091469
  0
LINE
  5
3F1
100
AcDbEntity
  8
0
100
AcDbLine
 62
7
  6
CONTINUOUS
 10
120.1762420467
 20
41.1904630099
 11
120.1762420467
 21
40.6901719545
  0
LINE
  5
3F2
100
AcDbEntity
  8
0
100
AcDbLine
 62
7
  6
CONTINUOUS
 10
120.280408316
 20
41.1777954676
 11
120.280408316
 21
40.6777529594
  0
LWPOLYLINE
  5
3F3
100
AcDbEntity
  8
RUNDUNGEN
100
AcDbPolyline
 62
7
  6
CONTINUOUS
 90
5
 70
0
 10
191.5669181286
 20
41.1756364996
 10
191.8690600081
 20
41.1904250417
 10
192.1630775755
 20
41.2329075754
 10
192.4512957209
 20
41.3025012008
 10
192.7302307349
 20
41.3979310602
  0
LINE
  5
3F4
100
AcDbEntity
  8
KONSTRUKTIONSELEMENTE
100
AcDbLine
 62
7
  6
CONTINUOUS
 10
203.3454087481
 20
35.8502489544
 11
203.9287420467
 21
35.8502489544
  0
LINE
  5
3F5
100
AcDbEntity
  8
KONSTRUKTIONSELEMENTE
100
AcDbLine
 62
7
  6
CONTINUOUS
 10
205.6787420467
 20
35.8502489544
 11
206.1162420467
 21
35.8502489544
  0
LINE
  5
3F6
100
AcDbEntity
  8
KONSTRUKTIONSELEMENTE
100
AcDbLine
 62
7
  6
CONTINUOUS
 10
207.9391588524
 20
35.8502489544
 11
208.4495752409
 21
35.8502489544
  0
LINE
  5
3F7
100
AcDbEntity
  8
KONSTRUKTIONSELEMENTE
100
AcDbLine
 62
7
  6
CONTINUOUS
 10
209.0329088524
 20
35.8502489544
 11
210.7829084352
 21
35.8502489544
  0
LINE
  5
3F8
100
AcDbEntity
  8
KONSTRUKTIONSELEMENTE
100
AcDbLine
 62
7
  6
CONTINUOUS
 10
212.3141584352
 20
35.8502489544
 11
212.7516584352
 21
35.8502489544
  0
LINE
  5
3F9
100
AcDbEntity
  8
KONSTRUKTIONSELEMENTE
100
AcDbLine
 62
7
  6
CONTINUOUS
 10
214.3558256581
 20
35.8502489544
 11
214.9391584352
 21
35.8502489544
  0
LINE
  5
3FA
100
AcDbEntity
  8
KONSTRUKTIONSELEMENTE
100
AcDbLine
 62
7
  6
CONTINUOUS
 10
209.4704084352
 20
36.1397459756
 11
210.8558256581
 21
36.1397459756
  0
LINE
  5
3FB
100
AcDbEntity
  8
KONSTRUKTIONSELEMENTE
100
AcDbLine
 62
7
  6
CONTINUOUS
 10
90.2387420467
 20
36.3066039598
 11
89.8012420467
 21
36.3066039598
  0
LINE
  5
3FC
100
AcDbEntity
  8
KONSTRUKTIONSELEMENTE
100
AcDbLine
 62
7
  6
CONTINUOUS
 10
87.7595754495
 20
36.3066039598
 11
87.3220754495
 21
36.3066039598
  0
LINE
  5
3FD
100
AcDbEntity
  8
KONSTRUKTIONSELEMENTE
100
AcDbLine
 62
7
  6
CONTINUOUS
 10
86.7387420467
 20
36.3066039598
 11
84.9887420467
 21
36.3066039598
  0
LINE
  5
3FE
100
AcDbEntity
  8
KONSTRUKTIONSELEMENTE
100
AcDbLine
 62
7
  6
CONTINUOUS
 10
83.3845752409
 20
36.3066039598
 11
81.6345756581
 21
36.3066039598
  0
LINE
  5
3FF
100
AcDbEntity
  8
KONSTRUKTIONSELEMENTE
100
AcDbLine
 62
7
  6
CONTINUOUS
 10
80.1033256581
 20
36.3066039598
 11
79.6658256581
 21
36.3066039598
  0
LINE
  5
400
100
AcDbEntity
  8
KONSTRUKTIONSELEMENTE
100
AcDbLine
 62
7
  6
CONTINUOUS
 10
78.0616584352
 20
36.3066039598
 11
77.4783256581
 21
36.3066039598
  0
LINE
  5
401
100
AcDbEntity
  8
KONSTRUKTIONSELEMENTE
100
AcDbLine
 62
7
  6
CONTINUOUS
 10
210.8558256581
 20
36.4942794639
 11
209.4704084352
 21
36.4942794639
  0
LINE
  5
402
100
AcDbEntity
  8
KONSTRUKTIONSELEMENTE
100
AcDbLine
 62
7
  6
CONTINUOUS
 10
86.3012420467
 20
36.5556634991
 11
84.9158252409
 21
36.5556634991
  0
LINE
  5
403
100
AcDbEntity
  8
KONSTRUKTIONSELEMENTE
100
AcDbLine
 62
7
  6
CONTINUOUS
 10
82.9470756581
 20
36.6060002299
 11
81.5616584352
 21
36.6060002299
  0
LINE
  5
404
100
AcDbEntity
  8
KONSTRUKTIONSELEMENTE
100
AcDbLine
 62
7
  6
CONTINUOUS
 10
206.1162420467
 20
36.8911135093
 11
207.3558252409
 21
36.8911135093
  0
LINE
  5
405
100
AcDbEntity
  8
KONSTRUKTIONSELEMENTE
100
AcDbLine
 62
7
  6
CONTINUOUS
 10
209.4704084352
 20
36.8911135093
 11
210.8558256581
 21
36.8911135093
  0
LINE
  5
406
100
AcDbEntity
  8
KONSTRUKTIONSELEMENTE
100
AcDbLine
 62
7
  6
CONTINUOUS
 10
84.9158252409
 20
36.9095946481
 11
86.3012420467
 21
36.9095946481
  0
LINE
  5
407
100
AcDbEntity
  8
KONSTRUKTIONSELEMENTE
100
AcDbLine
 62
7
  6
CONTINUOUS
 10
81.5616584352
 20
36.9598785421
 11
82.9470756581
 21
36.9598785421
  0
LINE
  5
408
100
AcDbEntity
  8
KONSTRUKTIONSELEMENTE
100
AcDbLine
 62
7
  6
CONTINUOUS
 10
206.1162420467
 20
37.2026623504
 11
207.5016588524
 21
37.2026623504
  0
LINE
  5
409
100
AcDbEntity
  8
KONSTRUKTIONSELEMENTE
100
AcDbLine
 62
7
  6
CONTINUOUS
 10
209.4704084352
 20
37.2026623504
 11
210.8558256581
 21
37.2026623504
  0
LINE
  5
40A
100
AcDbEntity
  8
KONSTRUKTIONSELEMENTE
100
AcDbLine
 62
7
  6
CONTINUOUS
 10
86.3012420467
 20
37.3290389254
 11
84.9158252409
 21
37.3290389254
  0
LINE
  5
40B
100
AcDbEntity
  8
KONSTRUKTIONSELEMENTE
100
AcDbLine
 62
7
  6
CONTINUOUS
 10
82.9470756581
 20
37.3290389254
 11
81.5616584352
 21
37.3290389254
  0
LINE
  5
40C
100
AcDbEntity
  8
KONSTRUKTIONSELEMENTE
100
AcDbLine
 62
7
  6
CONTINUOUS
 10
210.8558256581
 20
37.5562185928
 11
209.4704084352
 21
37.5562185928
  0
LINE
  5
40D
100
AcDbEntity
  8
KONSTRUKTIONSELEMENTE
100
AcDbLine
 62
7
  6
CONTINUOUS
 10
207.5016588524
 20
37.5562185928
 11
206.1162420467
 21
37.5562185928
  0
LINE
  5
40E
100
AcDbEntity
  8
KONSTRUKTIONSELEMENTE
100
AcDbLine
 62
7
  6
CONTINUOUS
 10
86.3012420467
 20
37.6493726646
 11
85.0616588524
 21
37.6493726646
  0
LINE
  5
40F
100
AcDbEntity
  8
KONSTRUKTIONSELEMENTE
100
AcDbLine
 62
7
  6
CONTINUOUS
 10
82.9470756581
 20
37.6493726646
 11
81.5616584352
 21
37.6493726646
  0
LINE
  5
410
100
AcDbEntity
  8
KONSTRUKTIONSELEMENTE
100
AcDbLine
 62
7
  6
CONTINUOUS
 10
209.4704084352
 20
37.954016637
 11
210.8558256581
 21
37.954016637
  0
LINE
  5
411
100
AcDbEntity
  8
KONSTRUKTIONSELEMENTE
100
AcDbLine
 62
7
  6
CONTINUOUS
 10
81.5616584352
 20
38.0030287656
 11
82.9470756581
 21
38.0030287656
  0
LINE
  5
412
100
AcDbEntity
  8
KONSTRUKTIONSELEMENTE
100
AcDbLine
 62
7
  6
CONTINUOUS
 10
85.0616588524
 20
38.0030287656
 11
86.3012420467
 21
38.0030287656
  0
LINE
  5
413
100
AcDbEntity
  8
KONSTRUKTIONSELEMENTE
100
AcDbLine
 62
7
  6
CONTINUOUS
 10
206.1162420467
 20
38.0089936696
 11
207.5016588524
 21
38.0089936696
  0
LINE
  5
414
100
AcDbEntity
  8
KONSTRUKTIONSELEMENTE
100
AcDbLine
 62
7
  6
CONTINUOUS
 10
202.1787420467
 20
38.2865029471
 11
202.6162420467
 21
38.2865029471
  0
LINE
  5
415
100
AcDbEntity
  8
KONSTRUKTIONSELEMENTE
100
AcDbLine
 62
7
  6
CONTINUOUS
 10
204.6579086438
 20
38.2865029471
 11
205.0954086438
 21
38.2865029471
  0
LINE
  5
416
100
AcDbEntity
  8
KONSTRUKTIONSELEMENTE
100
AcDbLine
 62
7
  6
CONTINUOUS
 10
205.6787420467
 20
38.2865029471
 11
207.4287420467
 21
38.2865029471
  0
LINE
  5
417
100
AcDbEntity
  8
KONSTRUKTIONSELEMENTE
100
AcDbLine
 62
7
  6
CONTINUOUS
 10
209.0329088524
 20
38.2865029471
 11
210.7829084352
 21
38.2865029471
  0
LINE
  5
418
100
AcDbEntity
  8
KONSTRUKTIONSELEMENTE
100
AcDbLine
 62
7
  6
CONTINUOUS
 10
212.3141584352
 20
38.2865029471
 11
212.7516584352
 21
38.2865029471
  0
LINE
  5
419
100
AcDbEntity
  8
KONSTRUKTIONSELEMENTE
100
AcDbLine
 62
7
  6
CONTINUOUS
 10
214.3558256581
 20
38.2865029471
 11
214.9391584352
 21
38.2865029471
  0
LINE
  5
41A
100
AcDbEntity
  8
KONSTRUKTIONSELEMENTE
100
AcDbLine
 62
7
  6
CONTINUOUS
 10
82.9470756581
 20
38.4777118026
 11
81.5616584352
 21
38.4777118026
  0
LINE
  5
41B
100
AcDbEntity
  8
KONSTRUKTIONSELEMENTE
100
AcDbLine
 62
7
  6
CONTINUOUS
 10
214.9391584352
 20
38.6407583879
 11
214.3558256581
 21
38.6407583879
  0
LINE
  5
41C
100
AcDbEntity
  8
KONSTRUKTIONSELEMENTE
100
AcDbLine
 62
7
  6
CONTINUOUS
 10
212.7516584352
 20
38.6407583879
 11
212.3141584352
 21
38.6407583879
  0
LINE
  5
41D
100
AcDbEntity
  8
KONSTRUKTIONSELEMENTE
100
AcDbLine
 62
7
  6
CONTINUOUS
 10
210.7829084352
 20
38.6407583879
 11
209.0329088524
 21
38.6407583879
  0
LINE
  5
41E
100
AcDbEntity
  8
KONSTRUKTIONSELEMENTE
100
AcDbLine
 62
7
  6
CONTINUOUS
 10
207.4287420467
 20
38.6407583879
 11
205.6787420467
 21
38.6407583879
  0
LINE
  5
41F
100
AcDbEntity
  8
KONSTRUKTIONSELEMENTE
100
AcDbLine
 62
7
  6
CONTINUOUS
 10
205.0954086438
 20
38.6407583879
 11
204.6579086438
 21
38.6407583879
  0
LINE
  5
420
100
AcDbEntity
  8
KONSTRUKTIONSELEMENTE
100
AcDbLine
 62
7
  6
CONTINUOUS
 10
202.6162420467
 20
38.6407583879
 11
202.1787420467
 21
38.6407583879
  0
LINE
  5
421
100
AcDbEntity
  8
KONSTRUKTIONSELEMENTE
100
AcDbLine
 62
7
  6
CONTINUOUS
 10
89.0720753452
 20
38.8200974353
 11
88.4887420467
 21
38.8200974353
  0
LINE
  5
422
100
AcDbEntity
  8
KONSTRUKTIONSELEMENTE
100
AcDbLine
 62
7
  6
CONTINUOUS
 10
86.7387420467
 20
38.8200974353
 11
86.3012420467
 21
38.8200974353
  0
LINE
  5
423
100
AcDbEntity
  8
KONSTRUKTIONSELEMENTE
100
AcDbLine
 62
7
  6
CONTINUOUS
 10
84.4783252409
 20
38.8200974353
 11
83.9679088524
 21
38.8200974353
  0
LINE
  5
424
100
AcDbEntity
  8
KONSTRUKTIONSELEMENTE
100
AcDbLine
 62
7
  6
CONTINUOUS
 10
83.3845752409
 20
38.8200974353
 11
81.6345756581
 21
38.8200974353
  0
LINE
  5
425
100
AcDbEntity
  8
KONSTRUKTIONSELEMENTE
100
AcDbLine
 62
7
  6
CONTINUOUS
 10
80.1033256581
 20
38.8200974353
 11
79.6658256581
 21
38.8200974353
  0
LINE
  5
426
100
AcDbEntity
  8
KONSTRUKTIONSELEMENTE
100
AcDbLine
 62
7
  6
CONTINUOUS
 10
78.0616584352
 20
38.8200974353
 11
77.4783256581
 21
38.8200974353
  0
LINE
  5
427
100
AcDbEntity
  8
KONSTRUKTIONSELEMENTE
100
AcDbLine
 62
7
  6
CONTINUOUS
 10
77.4783256581
 20
39.1752363495
 11
78.0616584352
 21
39.1752363495
  0
LINE
  5
428
100
AcDbEntity
  8
KONSTRUKTIONSELEMENTE
100
AcDbLine
 62
7
  6
CONTINUOUS
 10
79.6658256581
 20
39.1752363495
 11
80.1033256581
 21
39.1752363495
  0
LINE
  5
429
100
AcDbEntity
  8
KONSTRUKTIONSELEMENTE
100
AcDbLine
 62
7
  6
CONTINUOUS
 10
81.6345756581
 20
39.1752363495
 11
83.3845752409
 21
39.1752363495
  0
LINE
  5
42A
100
AcDbEntity
  8
KONSTRUKTIONSELEMENTE
100
AcDbLine
 62
7
  6
CONTINUOUS
 10
83.9679088524
 20
39.1752363495
 11
84.4783252409
 21
39.1752363495
  0
LINE
  5
42B
100
AcDbEntity
  8
KONSTRUKTIONSELEMENTE
100
AcDbLine
 62
7
  6
CONTINUOUS
 10
86.3012420467
 20
39.1752363495
 11
86.7387420467
 21
39.1752363495
  0
LINE
  5
42C
100
AcDbEntity
  8
KONSTRUKTIONSELEMENTE
100
AcDbLine
 62
7
  6
CONTINUOUS
 10
88.4887420467
 20
39.1752363495
 11
89.0720753452
 21
39.1752363495
  0
LWPOLYLINE
  5
42D
100
AcDbEntity
  8
RUNDUNGEN
100
AcDbPolyline
 62
7
  6
CONTINUOUS
 90
5
 70
0
 10
98.5358937822
 20
41.6741247142
 10
98.7833151049
 20
41.6554561806
 10
99.0277936102
 20
41.615761287
 10
99.2666770404
 20
41.5556888548
 10
99.4974417014
 20
41.4763188147
  0
LINE
  5
42E
100
AcDbEntity
  8
BEZUGSACHSEN
100
AcDbLine
 62
7
  6
CONTINUOUS
 10
127.4587420467
 20
65.1756277338
 11
127.4587420467
 21
63.1756277338
  0
LINE
  5
42F
100
AcDbEntity
  8
0
100
AcDbLine
 62
7
  6
CONTINUOUS
 10
127.4587420467
 20
41.1756277338
 11
127.4587420467
 21
43.1756277338
  0
LINE
  5
430
100
AcDbEntity
  8
RUNDUNGEN
100
AcDbLine
 62
7
  6
CONTINUOUS
 10
193.8816531728
 20
41.6741303336
 11
193.9753567286
 21
41.675652407
  0
LINE
  5
431
100
AcDbEntity
  8
RUNDUNGEN
100
AcDbLine
 62
7
  6
CONTINUOUS
 10
98.4418335658
 20
41.6756278268
 11
98.441688413
 21
41.6756277344
  0
LINE
  5
432
100
AcDbEntity
  8
0
100
AcDbLine
 62
7
  6
CONTINUOUS
 10
120.280408316
 20
40.6756277338
 11
116.1137420467
 21
40.6756277338
  0
LINE
  5
433
100
AcDbEntity
  8
0
100
AcDbLine
 62
7
  6
CONTINUOUS
 10
115.280408912
 20
40.6756277338
 11
111.530408614
 21
40.6756277338
  0
LINE
  5
434
100
AcDbEntity
  8
0
100
AcDbLine
 62
7
  6
CONTINUOUS
 10
110.6970754793
 20
40.6756277338
 11
109.967908614
 21
40.6756277338
  0
LINE
  5
435
100
AcDbEntity
  8
0
100
AcDbLine
 62
7
  6
CONTINUOUS
 10
109.655408614
 20
40.6756277338
 11
106.7387420467
 21
40.6756277338
  0
LINE
  5
436
100
AcDbEntity
  8
0
100
AcDbLine
 62
7
  6
CONTINUOUS
 10
118.6137420467
 20
40.7137065971
 11
116.7387420467
 21
40.7137065971
  0
LINE
  5
437
100
AcDbEntity
  8
0
100
AcDbLine
 62
7
  6
CONTINUOUS
 10
109.342908614
 20
40.7197498606
 11
107.3637420467
 21
40.7197498606
  0
LINE
  5
438
100
AcDbEntity
  8
0
100
AcDbLine
 62
7
  6
CONTINUOUS
 10
118.6137420467
 20
40.7566653266
 11
116.1137420467
 21
40.7566653266
  0
LINE
  5
439
100
AcDbEntity
  8
0
100
AcDbLine
 62
7
  6
CONTINUOUS
 10
115.280408912
 20
40.7566653266
 11
114.655408912
 21
40.7566653266
  0
LINE
  5
43A
100
AcDbEntity
  8
0
100
AcDbLine
 62
7
  6
CONTINUOUS
 10
112.155408912
 20
40.7566653266
 11
111.530408614
 21
40.7566653266
  0
LINE
  5
43B
100
AcDbEntity
  8
0
100
AcDbLine
 62
7
  6
CONTINUOUS
 10
109.2387420467
 20
40.7566653266
 11
106.7387420467
 21
40.7566653266
  0
LINE
  5
43C
100
AcDbEntity
  8
0
100
AcDbLine
 62
7
  6
CONTINUOUS
 10
190.5811891447
 20
41.1756277338
 11
164.9587420467
 21
41.1756277338
  0
LINE
  5
43D
100
AcDbEntity
  8
RUNDUNGEN
100
AcDbLine
 62
7
  6
CONTINUOUS
 10
191.5669181365
 20
41.1756298715
 11
164.9587420467
 21
41.1756277338
  0
LINE
  5
43E
100
AcDbEntity
  8
0
100
AcDbLine
 62
7
  6
CONTINUOUS
 10
127.4587420467
 20
41.1756277338
 11
120.280408316
 21
41.1756277338
  0
LINE
  5
43F
100
AcDbEntity
  8
RUNDUNGEN
100
AcDbLine
 62
7
  6
CONTINUOUS
 10
127.4587420467
 20
41.1756277338
 11
120.280408316
 21
41.1756277338
  0
LINE
  5
440
100
AcDbEntity
  8
0
100
AcDbLine
 62
7
  6
CONTINUOUS
 10
116.1137420467
 20
41.1756277338
 11
115.280408912
 21
41.1756277338
  0
LINE
  5
441
100
AcDbEntity
  8
RUNDUNGEN
100
AcDbLine
 62
7
  6
CONTINUOUS
 10
116.1137420467
 20
41.1756277338
 11
115.280408912
 21
41.1756277338
  0
LINE
  5
442
100
AcDbEntity
  8
0
100
AcDbLine
 62
7
  6
CONTINUOUS
 10
114.655408912
 20
41.1756277338
 11
112.155408912
 21
41.1756277338
  0
LINE
  5
443
100
AcDbEntity
  8
RUNDUNGEN
100
AcDbLine
 62
7
  6
CONTINUOUS
 10
114.655408912
 20
41.1756277338
 11
112.155408912
 21
41.1756277338
  0
LINE
  5
444
100
AcDbEntity
  8
0
100
AcDbLine
 62
7
  6
CONTINUOUS
 10
111.530408614
 20
41.1756277338
 11
110.592908614
 21
41.1756277338
  0
LINE
  5
445
100
AcDbEntity
  8
RUNDUNGEN
100
AcDbLine
 62
7
  6
CONTINUOUS
 10
111.530408614
 20
41.1756277338
 11
110.592908614
 21
41.1756277338
  0
LINE
  5
446
100
AcDbEntity
  8
0
100
AcDbLine
 62
7
  6
CONTINUOUS
 10
106.7387420467
 20
41.1756277338
 11
101.8362949611
 21
41.1756277338
  0
LINE
  5
447
100
AcDbEntity
  8
0
100
AcDbLine
 62
7
  6
CONTINUOUS
 10
118.6137420467
 20
41.2582914023
 11
116.1137420467
 21
41.2582914023
  0
LINE
  5
448
100
AcDbEntity
  8
0
100
AcDbLine
 62
7
  6
CONTINUOUS
 10
115.280408912
 20
41.2582914023
 11
114.655408912
 21
41.2582914023
  0
LINE
  5
449
100
AcDbEntity
  8
0
100
AcDbLine
 62
7
  6
CONTINUOUS
 10
112.155408912
 20
41.2582914023
 11
111.530408614
 21
41.2582914023
  0
LINE
  5
44A
100
AcDbEntity
  8
0
100
AcDbLine
 62
7
  6
CONTINUOUS
 10
109.2387420467
 20
41.2582914023
 11
106.7387420467
 21
41.2582914023
  0
LINE
  5
44B
100
AcDbEntity
  8
BEZUGSACHSEN
100
AcDbLine
 62
7
  6
CONTINUOUS
 10
96.7087420467
 20
41.6756277338
 11
98.4437151222
 21
41.6756277338
  0
LINE
  5
44C
100
AcDbEntity
  8
BEZUGSACHSEN
100
AcDbLine
 62
7
  6
CONTINUOUS
 10
193.9737299619
 20
41.6756277338
 11
195.7087420467
 21
41.6756277338
  0
LINE
  5
44D
100
AcDbEntity
  8
0
100
AcDbLine
 62
7
  6
CONTINUOUS
 10
155.9303989056
 20
42.6756277338
 11
152.6011390331
 21
42.6756277338
  0
LINE
  5
44E
100
AcDbEntity
  8
0
100
AcDbLine
 62
7
  6
CONTINUOUS
 10
152.1014785412
 20
42.6756277338
 11
146.5780563
 21
42.6756277338
  0
LINE
  5
44F
100
AcDbEntity
  8
0
100
AcDbLine
 62
7
  6
CONTINUOUS
 10
145.0301942471
 20
42.6756277338
 11
143.400866473
 21
42.6756277338
  0
LINE
  5
450
100
AcDbEntity
  8
0
100
AcDbLine
 62
7
  6
CONTINUOUS
 10
141.8584360722
 20
42.6756277338
 11
136.4870851877
 21
42.6756277338
  0
LINE
  5
451
100
AcDbEntity
  8
RUNDUNGEN
100
AcDbLine
 62
7
  6
CONTINUOUS
 10
192.6139762866
 20
43.1756277338
 11
99.803507807
 21
43.1756277338
  0
LINE
  5
452
100
AcDbEntity
  8
RUNDUNGEN
100
AcDbLine
 62
7
  6
CONTINUOUS
 10
106.7387420467
 20
41.1756277338
 11
100.8505280618
 21
41.1756299174
  0
LINE
  5
453
100
AcDbEntity
  8
RUNDUNGEN
100
AcDbLine
 62
7
  6
CONTINUOUS
 10
193.9758041609
 20
41.6756277342
 11
193.97565363
 21
41.6756278311
  0
LINE
  5
454
100
AcDbEntity
  8
RUNDUNGEN
100
AcDbLine
 62
7
  6
CONTINUOUS
 10
98.4421251689
 20
41.6756487639
 11
98.5358937822
 21
41.6741247142
  0
LINE
  5
455
100
AcDbEntity
  8
BEZUGSACHSEN
100
AcDbLine
 62
7
  6
CONTINUOUS
 10
99.5901484731
 20
64.9131745841
 11
99.5900260309
 21
64.9131214772
  0
LINE
  5
456
100
AcDbEntity
  8
BEZUGSACHSEN
100
AcDbLine
 62
7
  6
CONTINUOUS
 10
99.6798736358
 20
64.9504030155
 11
99.5094039506
 21
64.8796566493
  0
LWPOLYLINE
  5
457
100
AcDbEntity
  8
BEZUGSACHSEN
100
AcDbPolyline
 62
7
  6
CONTINUOUS
 90
5
 70
0
 10
99.5094039506
 20
64.8796566493
 10
99.2790956964
 20
64.799289137
 10
99.0405254441
 20
64.7381548278
 10
98.796213267
 20
64.6973599376
 10
98.5488117617
 20
64.6775789509
  0
LINE
  5
458
100
AcDbEntity
  8
KONSTRUKTIONSELEMENTE
100
AcDbLine
 62
7
  6
CONTINUOUS
 10
88.839145625
 20
81.0736851461
 11
91.3001934522
 21
79.6013754211
  0
LINE
  5
459
100
AcDbEntity
  8
0
100
AcDbLine
 62
7
  6
CONTINUOUS
 10
136.4870851877
 20
43.1756277338
 11
136.4870851877
 21
42.6756277338
  0
LINE
  5
45A
100
AcDbEntity
  8
0
100
AcDbLine
 62
7
  6
CONTINUOUS
 10
136.4870851877
 20
63.1756277338
 11
136.4870851877
 21
63.6756277338
  0
LINE
  5
45B
100
AcDbEntity
  8
0
100
AcDbLine
 62
7
  6
CONTINUOUS
 10
137.4538210276
 20
63.1756277338
 11
137.4538210276
 21
63.6756277338
  0
LINE
  5
45C
100
AcDbEntity
  8
0
100
AcDbLine
 62
7
  6
CONTINUOUS
 10
139.0071123484
 20
63.1756277338
 11
139.0071123484
 21
63.6756277338
  0
LINE
  5
45D
100
AcDbEntity
  8
0
100
AcDbLine
 62
7
  6
CONTINUOUS
 10
139.8163450602
 20
63.1756277338
 11
139.8163450602
 21
63.6756277338
  0
LINE
  5
45E
100
AcDbEntity
  8
0
100
AcDbLine
 62
7
  6
CONTINUOUS
 10
140.3160055521
 20
63.1756277338
 11
140.3160055521
 21
63.6756277338
  0
LINE
  5
45F
100
AcDbEntity
  8
KONSTRUKTIONSELEMENTE
100
AcDbLine
 62
7
  6
CONTINUOUS
 10
74.5005430956
 20
87.7742471263
 11
88.839145625
 21
81.0736851461
  0
LINE
  5
460
100
AcDbEntity
  8
0
100
AcDbLine
 62
7
  6
CONTINUOUS
 10
141.7063655499
 20
43.1756277338
 11
141.7063655499
 21
42.6756277338
  0
LINE
  5
461
100
AcDbEntity
  8
0
100
AcDbLine
 62
7
  6
CONTINUOUS
 10
141.8584360722
 20
43.1756277338
 11
141.8584360722
 21
42.6756277338
  0
LINE
  5
462
100
AcDbEntity
  8
0
100
AcDbLine
 62
7
  6
CONTINUOUS
 10
143.400866473
 20
43.1756277338
 11
143.400866473
 21
42.6756277338
  0
LINE
  5
463
100
AcDbEntity
  8
0
100
AcDbLine
 62
7
  6
CONTINUOUS
 10
145.0301942471
 20
43.1756277338
 11
145.0301942471
 21
42.6756277338
  0
LINE
  5
464
100
AcDbEntity
  8
0
100
AcDbLine
 62
7
  6
CONTINUOUS
 10
145.8394277933
 20
63.1756277338
 11
145.8394277933
 21
63.6756277338
  0
LINE
  5
465
100
AcDbEntity
  8
0
100
AcDbLine
 62
7
  6
CONTINUOUS
 10
146.5780563
 20
43.1756277338
 11
146.5780563
 21
42.6756277338
  0
LINE
  5
466
100
AcDbEntity
  8
BEZUGSACHSEN
100
AcDbLine
 62
7
  6
CONTINUOUS
 10
98.5488117617
 20
64.6775789509
 11
98.4421229964
 21
64.6756067046
  0
LINE
  5
467
100
AcDbEntity
  8
BEZUGSACHSEN
100
AcDbLine
 62
7
  6
CONTINUOUS
 10
192.6139762866
 20
63.1756277338
 11
99.803507807
 21
63.1756277338
  0
LINE
  5
468
100
AcDbEntity
  8
KONSTRUKTIONSELEMENTE
100
AcDbLine
 62
7
  6
CONTINUOUS
 10
58.4496561325
 20
63.196443014
 11
57.6841075247
 21
63.196443014
  0
LINE
  5
469
100
AcDbEntity
  8
KONSTRUKTIONSELEMENTE
100
AcDbLine
 62
7
  6
CONTINUOUS
 10
233.9678279608
 20
63.196443014
 11
234.7333765688
 21
63.196443014
  0
LINE
  5
46A
100
AcDbEntity
  8
0
100
AcDbLine
 62
7
  6
CONTINUOUS
 10
136.4870851877
 20
63.6756277338
 11
139.8163450602
 21
63.6756277338
  0
LINE
  5
46B
100
AcDbEntity
  8
0
100
AcDbLine
 62
7
  6
CONTINUOUS
 10
140.3160055521
 20
63.6756277338
 11
145.8394277933
 21
63.6756277338
  0
LINE
  5
46C
100
AcDbEntity
  8
0
100
AcDbLine
 62
7
  6
CONTINUOUS
 10
147.3872898462
 20
63.6756277338
 11
149.0166176203
 21
63.6756277338
  0
LINE
  5
46D
100
AcDbEntity
  8
0
100
AcDbLine
 62
7
  6
CONTINUOUS
 10
150.5590480211
 20
63.6756277338
 11
155.9303989056
 21
63.6756277338
  0
LINE
  5
46E
100
AcDbEntity
  8
BEZUGSACHSEN
100
AcDbLine
 62
7
  6
CONTINUOUS
 10
195.7087420467
 20
64.6756277338
 11
193.9737299619
 21
64.6756277338
  0
LINE
  5
46F
100
AcDbEntity
  8
BEZUGSACHSEN
100
AcDbLine
 62
7
  6
CONTINUOUS
 10
98.4437151222
 20
64.6756277338
 11
96.7087420467
 21
64.6756277338
  0
LINE
  5
470
100
AcDbEntity
  8
0
100
AcDbLine
 62
7
  6
CONTINUOUS
 10
173.8037420467
 20
65.0929640653
 11
176.3037420467
 21
65.0929640653
  0
LINE
  5
471
100
AcDbEntity
  8
0
100
AcDbLine
 62
7
  6
CONTINUOUS
 10
177.1370751813
 20
65.0929640653
 11
177.7620751813
 21
65.0929640653
  0
LINE
  5
472
100
AcDbEntity
  8
0
100
AcDbLine
 62
7
  6
CONTINUOUS
 10
180.2620751813
 20
65.0929640653
 11
180.8870754793
 21
65.0929640653
  0
LINE
  5
473
100
AcDbEntity
  8
0
100
AcDbLine
 62
7
  6
CONTINUOUS
 10
183.1787420467
 20
65.0929640653
 11
185.6787420467
 21
65.0929640653
  0
LINE
  5
474
100
AcDbEntity
  8
0
100
AcDbLine
 62
7
  6
CONTINUOUS
 10
190.5811891447
 20
65.1756277338
 11
185.6787420467
 21
65.1756277338
  0
LINE
  5
475
100
AcDbEntity
  8
0
100
AcDbLine
 62
7
  6
CONTINUOUS
 10
181.8245754793
 20
65.1756277338
 11
180.8870754793
 21
65.1756277338
  0
LINE
  5
476
100
AcDbEntity
  8
0
100
AcDbLine
 62
7
  6
CONTINUOUS
 10
180.2620751813
 20
65.1756277338
 11
177.7620751813
 21
65.1756277338
  0
LINE
  5
477
100
AcDbEntity
  8
0
100
AcDbLine
 62
7
  6
CONTINUOUS
 10
177.1370751813
 20
65.1756277338
 11
176.3037420467
 21
65.1756277338
  0
LINE
  5
478
100
AcDbEntity
  8
0
100
AcDbLine
 62
7
  6
CONTINUOUS
 10
172.1370757774
 20
65.1756277338
 11
164.9587420467
 21
65.1756277338
  0
LINE
  5
479
100
AcDbEntity
  8
0
100
AcDbLine
 62
7
  6
CONTINUOUS
 10
127.4587420467
 20
65.1756277338
 11
115.2326819065
 21
65.1756277338
  0
LINE
  5
47A
100
AcDbEntity
  8
0
100
AcDbLine
 62
7
  6
CONTINUOUS
 10
113.2087420467
 20
65.1756277338
 11
110.1726819065
 21
65.1756277338
  0
LINE
  5
47B
100
AcDbEntity
  8
0
100
AcDbLine
 62
7
  6
CONTINUOUS
 10
108.1487420467
 20
65.1756277338
 11
101.8362949611
 21
65.1756277338
  0
LINE
  5
47C
100
AcDbEntity
  8
BEZUGSACHSEN
100
AcDbLine
 62
7
  6
CONTINUOUS
 10
100.850455498
 20
65.1756254608
 11
108.1487420467
 21
65.1756277338
  0
LINE
  5
47D
100
AcDbEntity
  8
BEZUGSACHSEN
100
AcDbLine
 62
7
  6
CONTINUOUS
 10
110.1726819065
 20
65.1756277338
 11
113.2087420467
 21
65.1756277338
  0
LINE
  5
47E
100
AcDbEntity
  8
BEZUGSACHSEN
100
AcDbLine
 62
7
  6
CONTINUOUS
 10
115.2326819065
 20
65.1756277338
 11
127.4587420467
 21
65.1756277338
  0
LINE
  5
47F
100
AcDbEntity
  8
BEZUGSACHSEN
100
AcDbLine
 62
7
  6
CONTINUOUS
 10
164.9587420467
 20
65.1756277338
 11
172.1370757774
 21
65.1756277338
  0
LINE
  5
480
100
AcDbEntity
  8
BEZUGSACHSEN
100
AcDbLine
 62
7
  6
CONTINUOUS
 10
176.3037420467
 20
65.1756277338
 11
177.1370751813
 21
65.1756277338
  0
LINE
  5
481
100
AcDbEntity
  8
BEZUGSACHSEN
100
AcDbLine
 62
7
  6
CONTINUOUS
 10
177.7620751813
 20
65.1756277338
 11
180.2620751813
 21
65.1756277338
  0
LINE
  5
482
100
AcDbEntity
  8
BEZUGSACHSEN
100
AcDbLine
 62
7
  6
CONTINUOUS
 10
180.8870754793
 20
65.1756277338
 11
181.8245754793
 21
65.1756277338
  0
LINE
  5
483
100
AcDbEntity
  8
0
100
AcDbLine
 62
7
  6
CONTINUOUS
 10
173.8037420467
 20
65.594590141
 11
176.3037420467
 21
65.594590141
  0
LINE
  5
484
100
AcDbEntity
  8
0
100
AcDbLine
 62
7
  6
CONTINUOUS
 10
177.1370751813
 20
65.594590141
 11
177.7620751813
 21
65.594590141
  0
LINE
  5
485
100
AcDbEntity
  8
0
100
AcDbLine
 62
7
  6
CONTINUOUS
 10
180.2620751813
 20
65.594590141
 11
180.8870754793
 21
65.594590141
  0
LINE
  5
486
100
AcDbEntity
  8
0
100
AcDbLine
 62
7
  6
CONTINUOUS
 10
183.1787420467
 20
65.594590141
 11
185.6787420467
 21
65.594590141
  0
LINE
  5
487
100
AcDbEntity
  8
0
100
AcDbLine
 62
7
  6
CONTINUOUS
 10
183.0745754793
 20
65.631505607
 11
185.0537420467
 21
65.631505607
  0
LINE
  5
488
100
AcDbEntity
  8
0
100
AcDbLine
 62
7
  6
CONTINUOUS
 10
173.8037420467
 20
65.6375488704
 11
175.6787420467
 21
65.6375488704
  0
LINE
  5
489
100
AcDbEntity
  8
0
100
AcDbLine
 62
7
  6
CONTINUOUS
 10
110.1726819065
 20
65.6756277338
 11
111.4284398349
 21
65.6756277338
  0
LINE
  5
48A
100
AcDbEntity
  8
0
100
AcDbLine
 62
7
  6
CONTINUOUS
 10
115.2326819065
 20
65.6756277338
 11
116.4884398349
 21
65.6756277338
  0
LINE
  5
48B
100
AcDbEntity
  8
0
100
AcDbLine
 62
7
  6
CONTINUOUS
 10
172.1370757774
 20
65.6756277338
 11
176.3037420467
 21
65.6756277338
  0
LINE
  5
48C
100
AcDbEntity
  8
0
100
AcDbLine
 62
7
  6
CONTINUOUS
 10
177.1370751813
 20
65.6756277338
 11
180.8870754793
 21
65.6756277338
  0
LINE
  5
48D
100
AcDbEntity
  8
0
100
AcDbLine
 62
7
  6
CONTINUOUS
 10
181.720408614
 20
65.6756277338
 11
182.4495754793
 21
65.6756277338
  0
LINE
  5
48E
100
AcDbEntity
  8
0
100
AcDbLine
 62
7
  6
CONTINUOUS
 10
182.7620754793
 20
65.6756277338
 11
185.6787420467
 21
65.6756277338
  0
LINE
  5
48F
100
AcDbEntity
  8
BEZUGSACHSEN
100
AcDbLine
 62
7
  6
CONTINUOUS
 10
191.5669870425
 20
65.1756255122
 11
185.6787420467
 21
65.1756277338
  0
LINE
  5
490
100
AcDbEntity
  8
BEZUGSACHSEN
100
AcDbLine
 62
7
  6
CONTINUOUS
 10
193.9753589031
 20
64.6756030614
 11
193.8687354113
 21
64.677573054
  0
LINE
  5
491
100
AcDbEntity
  8
KONSTRUKTIONSELEMENTE
100
AcDbLine
 62
7
  6
CONTINUOUS
 10
74.5005430956
 20
87.7742471263
 11
65.4940876229
 21
90.7794148068
  0
LINE
  5
492
100
AcDbEntity
  8
0
100
AcDbLine
 62
7
  6
CONTINUOUS
 10
147.3872898462
 20
63.1756277338
 11
147.3872898462
 21
63.6756277338
  0
LINE
  5
493
100
AcDbEntity
  8
0
100
AcDbLine
 62
7
  6
CONTINUOUS
 10
149.0166176203
 20
63.1756277338
 11
149.0166176203
 21
63.6756277338
  0
LINE
  5
494
100
AcDbEntity
  8
0
100
AcDbLine
 62
7
  6
CONTINUOUS
 10
150.5590480211
 20
63.1756277338
 11
150.5590480211
 21
63.6756277338
  0
LINE
  5
495
100
AcDbEntity
  8
0
100
AcDbLine
 62
7
  6
CONTINUOUS
 10
150.7111185435
 20
63.1756277338
 11
150.7111185435
 21
63.6756277338
  0
LINE
  5
496
100
AcDbEntity
  8
0
100
AcDbLine
 62
7
  6
CONTINUOUS
 10
152.1014785412
 20
43.1756277338
 11
152.1014785412
 21
42.6756277338
  0
LINE
  5
497
100
AcDbEntity
  8
0
100
AcDbLine
 62
7
  6
CONTINUOUS
 10
152.6011390331
 20
43.1756277338
 11
152.6011390331
 21
42.6756277338
  0
LINE
  5
498
100
AcDbEntity
  8
0
100
AcDbLine
 62
7
  6
CONTINUOUS
 10
153.4103717449
 20
43.1756277338
 11
153.4103717449
 21
42.6756277338
  0
LINE
  5
499
100
AcDbEntity
  8
KONSTRUKTIONSELEMENTE
100
AcDbLine
 62
7
  6
CONTINUOUS
 10
217.9169409978
 20
87.7742471263
 11
226.9233964704
 21
90.7794148068
  0
LINE
  5
49A
100
AcDbEntity
  8
KONSTRUKTIONSELEMENTE
100
AcDbLine
 62
7
  6
CONTINUOUS
 10
200.5334830744
 20
80.328355224
 11
203.5783384683
 21
81.0736851461
  0
LWPOLYLINE
  5
49B
100
AcDbEntity
  8
KONSTRUKTIONSELEMENTE
100
AcDbPolyline
 62
7
  6
CONTINUOUS
 90
14
 70
0
 10
57.6841118092
 20
63.196443014
 10
57.4285795831
 20
63.1800516798
 10
57.1772358855
 20
63.1311463572
 10
56.9342005748
 20
63.0505286762
 10
56.7034573178
 20
62.9395200721
 10
56.4887882985
 20
62.7999401263
 10
56.2937122238
 20
62.6340767417
 10
56.1214266454
 20
62.4446486393
 10
55.9747555506
 20
62.234760799
 10
55.8561030705
 20
62.0078535605
 10
55.7674140749
 20
61.7676462375
 10
55.7101422912
 20
61.5180761473
 10
55.6852264761
 20
61.2632340781
 10
55.6841109032
 20
61.1964111017
  0
LWPOLYLINE
  5
49C
100
AcDbEntity
  8
BEZUGSACHSEN
100
AcDbPolyline
 62
7
  6
CONTINUOUS
 90
5
 70
0
 10
100.8504555061
 20
65.1756188318
 10
100.5607060139
 20
65.1619971224
 10
100.2598341735
 20
65.1193885517
 10
99.9649820198
 20
65.048402555
 10
99.6798736358
 20
64.9504030155
  0
LWPOLYLINE
  5
49D
100
AcDbEntity
  8
BEZUGSACHSEN
100
AcDbPolyline
 62
7
  6
CONTINUOUS
 90
5
 70
0
 10
193.8687354113
 20
64.677573054
 10
193.6213966951
 20
64.6973411951
 10
193.3771413605
 20
64.7381135176
 10
193.1386204994
 20
64.7992169605
 10
192.9083529268
 20
64.8795470341
  0
LINE
  5
49E
100
AcDbEntity
  8
KONSTRUKTIONSELEMENTE
100
AcDbLine
 62
7
  6
CONTINUOUS
 10
91.8840010189
 20
80.328355224
 11
88.839145625
 21
81.0736851461
  0
LWPOLYLINE
  5
49F
100
AcDbEntity
  8
KONSTRUKTIONSELEMENTE
100
AcDbPolyline
 62
7
  6
CONTINUOUS
 90
8
 70
0
 10
90.6890101251
 20
98.5214809248
 10
90.5156495604
 20
98.6206473981
 10
90.2875652472
 20
98.7194088858
 10
90.0453932243
 20
98.7921644348
 10
89.7937062968
 20
98.8382102032
 10
89.5391071564
 20
98.8572287625
 10
89.2910425891
 20
98.850332731
 10
89.2313101395
 20
98.8449412859
  0
LINE
  5
4A0
100
AcDbEntity
  8
0
100
AcDbLine
 62
7
  6
CONTINUOUS
 10
154.9636630657
 20
43.1756277338
 11
154.9636630657
 21
42.6756277338
  0
LINE
  5
4A1
100
AcDbEntity
  8
0
100
AcDbLine
 62
7
  6
CONTINUOUS
 10
155.9303989056
 20
43.1756277338
 11
155.9303989056
 21
42.6756277338
  0
LINE
  5
4A2
100
AcDbEntity
  8
0
100
AcDbLine
 62
7
  6
CONTINUOUS
 10
155.9303989056
 20
63.1756277338
 11
155.9303989056
 21
63.6756277338
  0
LINE
  5
4A3
100
AcDbEntity
  8
KONSTRUKTIONSELEMENTE
100
AcDbLine
 62
7
  6
CONTINUOUS
 10
217.9169409978
 20
87.7742471263
 11
203.5783384683
 21
81.0736851461
  0
LINE
  5
4A4
100
AcDbEntity
  8
0
100
AcDbLine
 62
7
  6
CONTINUOUS
 10
164.9587420467
 20
41.1756277338
 11
164.9587420467
 21
43.1756277338
  0
LINE
  5
4A5
100
AcDbEntity
  8
BEZUGSACHSEN
100
AcDbLine
 62
7
  6
CONTINUOUS
 10
164.9587420467
 20
63.1756277338
 11
164.9587420467
 21
65.1756277338
  0
LINE
  5
4A6
100
AcDbEntity
  8
KONSTRUKTIONSELEMENTE
100
AcDbLine
 62
7
  6
CONTINUOUS
 10
203.5783384683
 20
81.0736851461
 11
201.1172906412
 21
79.6013754211
  0
LWPOLYLINE
  5
4A7
100
AcDbEntity
  8
BEZUGSACHSEN
100
AcDbPolyline
 62
7
  6
CONTINUOUS
 90
5
 70
0
 10
192.7415749432
 20
64.9488248936
 10
192.4607158581
 20
65.0459941069
 10
192.1703162027
 20
65.1169447688
 10
191.8739449174
 20
65.1603529833
 10
191.5669870345
 20
65.1756188841
  0
LINE
  5
4A8
100
AcDbEntity
  8
BEZUGSACHSEN
100
AcDbLine
 62
7
  6
CONTINUOUS
 10
192.9083529268
 20
64.8795470341
 11
192.7415749432
 21
64.9488248936
  0
LINE
  5
4A9
100
AcDbEntity
  8
BEZUGSACHSEN
100
AcDbLine
 62
7
  6
CONTINUOUS
 10
192.8274470036
 20
64.9131262706
 11
192.8273346016
 21
64.9131750217
  0
LINE
  5
4AA
100
AcDbEntity
  8
0
100
AcDbLine
 62
7
  6
CONTINUOUS
 10
172.1370757774
 20
65.17346
 11
172.1370757774
 21
65.6735025082
  0
LINE
  5
4AB
100
AcDbEntity
  8
0
100
AcDbLine
 62
7
  6
CONTINUOUS
 10
172.2412420467
 20
65.1607924576
 11
172.2412420467
 21
65.6610835131
  0
LINE
  5
4AC
100
AcDbEntity
  8
0
100
AcDbLine
 62
7
  6
CONTINUOUS
 10
172.4495757774
 20
65.1424958388
 11
172.4495757774
 21
65.6431463206
  0
LINE
  5
4AD
100
AcDbEntity
  8
0
100
AcDbLine
 62
7
  6
CONTINUOUS
 10
172.7620757774
 20
65.6756277338
 11
172.7620757774
 21
65.6735025967
  0
LINE
  5
4AE
100
AcDbEntity
  8
0
100
AcDbLine
 62
7
  6
CONTINUOUS
 10
172.8662420467
 20
65.6644558429
 11
172.8662420467
 21
65.6756277338
  0
LINE
  5
4AF
100
AcDbEntity
  8
0
100
AcDbLine
 62
7
  6
CONTINUOUS
 10
172.8662420467
 20
65.1169267162
 11
172.8662420467
 21
65.6180803461
  0
LINE
  5
4B0
100
AcDbEntity
  8
0
100
AcDbLine
 62
7
  6
CONTINUOUS
 10
173.0745757774
 20
65.6530049333
 11
173.0745757774
 21
65.6756277338
  0
LINE
  5
4B1
100
AcDbEntity
  8
0
100
AcDbLine
 62
7
  6
CONTINUOUS
 10
173.282908316
 20
65.1014082208
 11
173.282908316
 21
65.6028677115
  0
LINE
  5
4B2
100
AcDbEntity
  8
0
100
AcDbLine
 62
7
  6
CONTINUOUS
 10
173.3870757774
 20
65.6431463206
 11
173.3870757774
 21
65.6756277338
  0
LINE
  5
4B3
100
AcDbEntity
  8
0
100
AcDbLine
 62
7
  6
CONTINUOUS
 10
173.8037420467
 20
65.0929640653
 11
173.8037420467
 21
65.594590141
  0
LINE
  5
4B4
100
AcDbEntity
  8
0
100
AcDbLine
 62
7
  6
CONTINUOUS
 10
173.8037420467
 20
65.6375488704
 11
173.8037420467
 21
65.6756277338
  0
LINE
  5
4B5
100
AcDbEntity
  8
0
100
AcDbLine
 62
7
  6
CONTINUOUS
 10
175.6787420467
 20
65.6756277338
 11
175.6787420467
 21
65.6375488704
  0
LINE
  5
4B6
100
AcDbEntity
  8
0
100
AcDbLine
 62
7
  6
CONTINUOUS
 10
176.3037420467
 20
65.0929640653
 11
176.3037420467
 21
65.6756277338
  0
LINE
  5
4B7
100
AcDbEntity
  8
0
100
AcDbLine
 62
7
  6
CONTINUOUS
 10
177.1370751813
 20
65.0929640653
 11
177.1370751813
 21
65.6756277338
  0
LINE
  5
4B8
100
AcDbEntity
  8
0
100
AcDbLine
 62
7
  6
CONTINUOUS
 10
177.7620751813
 20
65.0929640653
 11
177.7620751813
 21
65.6756277338
  0
LINE
  5
4B9
100
AcDbEntity
  8
0
100
AcDbLine
 62
7
  6
CONTINUOUS
 10
177.8662420467
 20
65.1756277338
 11
177.8662420467
 21
65.6756277338
  0
LINE
  5
4BA
100
AcDbEntity
  8
0
100
AcDbLine
 62
7
  6
CONTINUOUS
 10
178.0745751813
 20
65.1756277338
 11
178.0745751813
 21
65.6756277338
  0
LINE
  5
4BB
100
AcDbEntity
  8
0
100
AcDbLine
 62
7
  6
CONTINUOUS
 10
178.3870751813
 20
65.1756277338
 11
178.3870751813
 21
65.6756277338
  0
LINE
  5
4BC
100
AcDbEntity
  8
0
100
AcDbLine
 62
7
  6
CONTINUOUS
 10
178.8037420467
 20
65.1756277338
 11
178.8037420467
 21
65.6756277338
  0
LINE
  5
4BD
100
AcDbEntity
  8
0
100
AcDbLine
 62
7
  6
CONTINUOUS
 10
179.220408912
 20
65.1756277338
 11
179.220408912
 21
65.6756277338
  0
LINE
  5
4BE
100
AcDbEntity
  8
0
100
AcDbLine
 62
7
  6
CONTINUOUS
 10
179.6370751813
 20
65.1756277338
 11
179.6370751813
 21
65.6756277338
  0
LINE
  5
4BF
100
AcDbEntity
  8
0
100
AcDbLine
 62
7
  6
CONTINUOUS
 10
179.9495751813
 20
65.1756277338
 11
179.9495751813
 21
65.6756277338
  0
LINE
  5
4C0
100
AcDbEntity
  8
0
100
AcDbLine
 62
7
  6
CONTINUOUS
 10
180.157908912
 20
65.1756277338
 11
180.157908912
 21
65.6756277338
  0
LINE
  5
4C1
100
AcDbEntity
  8
0
100
AcDbLine
 62
7
  6
CONTINUOUS
 10
180.2620751813
 20
65.0929640653
 11
180.2620751813
 21
65.6756277338
  0
LINE
  5
4C2
100
AcDbEntity
  8
0
100
AcDbLine
 62
7
  6
CONTINUOUS
 10
180.8870754793
 20
65.0929640653
 11
180.8870754793
 21
65.6756277338
  0
LINE
  5
4C3
100
AcDbEntity
  8
0
100
AcDbLine
 62
7
  6
CONTINUOUS
 10
181.720408614
 20
65.1756277338
 11
181.720408614
 21
65.6756277338
  0
LINE
  5
4C4
100
AcDbEntity
  8
0
100
AcDbLine
 62
7
  6
CONTINUOUS
 10
181.8245754793
 20
65.1607924576
 11
181.8245754793
 21
65.6610835131
  0
LINE
  5
4C5
100
AcDbEntity
  8
0
100
AcDbLine
 62
7
  6
CONTINUOUS
 10
181.9287420467
 20
65.1477510577
 11
181.9287420467
 21
65.6482982515
  0
LINE
  5
4C6
100
AcDbEntity
  8
0
100
AcDbLine
 62
7
  6
CONTINUOUS
 10
182.2412420467
 20
65.1240019082
 11
182.2412420467
 21
65.6250162127
  0
LINE
  5
4C7
100
AcDbEntity
  8
0
100
AcDbLine
 62
7
  6
CONTINUOUS
 10
182.4495754793
 20
65.669867427
 11
182.4495754793
 21
65.6610835131
  0
LINE
  5
4C8
100
AcDbEntity
  8
0
100
AcDbLine
 62
7
  6
CONTINUOUS
 10
182.5537420467
 20
65.6482982515
 11
182.5537420467
 21
65.6746541211
  0
LINE
  5
4C9
100
AcDbEntity
  8
0
100
AcDbLine
 62
7
  6
CONTINUOUS
 10
182.657908614
 20
65.1014082208
 11
182.657908614
 21
65.6028677115
  0
LINE
  5
4CA
100
AcDbEntity
  8
0
100
AcDbLine
 62
7
  6
CONTINUOUS
 10
182.7620754793
 20
65.6375488704
 11
182.7620754793
 21
65.6756257473
  0
LINE
  5
4CB
100
AcDbEntity
  8
0
100
AcDbLine
 62
7
  6
CONTINUOUS
 10
183.0745754793
 20
65.631505607
 11
183.0745754793
 21
65.6756277338
  0
LINE
  5
4CC
100
AcDbEntity
  8
0
100
AcDbLine
 62
7
  6
CONTINUOUS
 10
183.1787420467
 20
65.0929640653
 11
183.1787420467
 21
65.594590141
  0
LINE
  5
4CD
100
AcDbEntity
  8
0
100
AcDbLine
 62
7
  6
CONTINUOUS
 10
185.0537420467
 20
65.6756277338
 11
185.0537420467
 21
65.631505607
  0
LINE
  5
4CE
100
AcDbEntity
  8
0
100
AcDbLine
 62
7
  6
CONTINUOUS
 10
185.6787420467
 20
65.0929640653
 11
185.6787420467
 21
65.6756277338
  0
LWPOLYLINE
  5
4CF
100
AcDbEntity
  8
RUNDUNGEN
100
AcDbPolyline
 62
7
  6
CONTINUOUS
 90
5
 70
0
 10
192.9203155999
 20
41.4764272305
 10
193.151039324
 20
41.5557599837
 10
193.3898731735
 20
41.615801767
 10
193.6342947097
 20
41.6554743553
 10
193.8816531728
 20
41.6741303336
  0
LINE
  5
4D0
100
AcDbEntity
  8
KONSTRUKTIONSELEMENTE
100
AcDbLine
 62
7
  6
CONTINUOUS
 10
58.2596744948
 20
95.6642652729
 11
89.2312389561
 21
98.8449582999
  0
LINE
  5
4D1
100
AcDbEntity
  8
KONSTRUKTIONSELEMENTE
100
AcDbLine
 62
7
  6
CONTINUOUS
 10
202.0025389484
 20
98.9665216141
 11
234.157809503
 21
95.6642652827
  0
LINE
  5
4D2
100
AcDbEntity
  8
RUNDUNGEN
100
AcDbLine
 62
7
  6
CONTINUOUS
 10
192.8274389482
 20
41.4381256997
 11
192.8273320847
 21
41.4380793554
  0
LINE
  5
4D3
100
AcDbEntity
  8
RUNDUNGEN
100
AcDbLine
 62
7
  6
CONTINUOUS
 10
192.7302307349
 20
41.3979310602
 11
192.9203155999
 21
41.4764272305
  0
LWPOLYLINE
  5
4D4
100
AcDbEntity
  8
KONSTRUKTIONSELEMENTE
100
AcDbPolyline
 62
7
  6
CONTINUOUS
 90
5
 70
0
 10
58.2597041461
 20
95.6642567835
 10
58.2337869849
 20
95.6615095394
 10
58.0336630473
 20
95.6346156222
 10
57.8344079146
 20
95.5974775156
 10
57.7264659584
 20
95.5727975626
  0
LINE
  5
4D5
100
AcDbEntity
  8
0
100
AcDbLine
 62
7
  6
CONTINUOUS
 10
195.7087420467
 20
39.1756277338
 11
196.9533723557
 21
32.1169784901
  0
LINE
  5
4D6
100
AcDbEntity
  8
RUNDUNGEN
100
AcDbLine
 62
7
  6
CONTINUOUS
 10
195.6139327024
 20
46.1756277338
 11
195.6139327024
 21
60.1756277338
  0
LINE
  5
4D7
100
AcDbEntity
  8
0
100
AcDbLine
 62
7
  6
CONTINUOUS
 10
195.7087420467
 20
39.1758422984
 11
195.7087420467
 21
67.1754131692
  0
LINE
  5
4D8
100
AcDbEntity
  8
0
100
AcDbLine
 62
7
  6
CONTINUOUS
 10
196.9533723557
 20
53.1756868628
 11
196.9533723557
 21
32.1169784901
  0
LINE
  5
4D9
100
AcDbEntity
  8
0
100
AcDbLine
 62
7
  6
CONTINUOUS
 10
195.7087420467
 20
67.1756277338
 11
200.2470425002
 21
92.9136085876
  0
LWPOLYLINE
  5
4DA
100
AcDbEntity
  8
KONSTRUKTIONSELEMENTE
100
AcDbPolyline
 62
7
  6
CONTINUOUS
 90
4
 70
0
 10
234.6910199891
 20
95.572797117
 10
234.5712545304
 20
95.5999815267
 10
234.3706035747
 20
95.6367068568
 10
234.157779582
 20
95.6642568177
  0
LINE
  5
4DB
100
AcDbEntity
  8
KONSTRUKTIONSELEMENTE
100
AcDbLine
 62
7
  6
CONTINUOUS
 10
202.1787420467
 20
38.6407583879
 11
202.1787420467
 21
38.2865029471
  0
LINE
  5
4DC
100
AcDbEntity
  8
KONSTRUKTIONSELEMENTE
100
AcDbLine
 62
7
  6
CONTINUOUS
 10
202.6162420467
 20
38.6407583879
 11
202.6162420467
 21
38.2865029471
  0
LINE
  5
4DD
100
AcDbEntity
  8
KONSTRUKTIONSELEMENTE
100
AcDbLine
 62
7
  6
CONTINUOUS
 10
203.6370753452
 20
36.4942794639
 11
203.6370753452
 21
36.1397459756
  0
LINE
  5
4DE
100
AcDbEntity
  8
KONSTRUKTIONSELEMENTE
100
AcDbLine
 62
7
  6
CONTINUOUS
 10
204.6579086438
 20
38.6407583879
 11
204.6579086438
 21
38.2865029471
  0
LINE
  5
4DF
100
AcDbEntity
  8
KONSTRUKTIONSELEMENTE
100
AcDbLine
 62
7
  6
CONTINUOUS
 10
205.0954086438
 20
38.6407583879
 11
205.0954086438
 21
38.2865029471
  0
LINE
  5
4E0
100
AcDbEntity
  8
KONSTRUKTIONSELEMENTE
100
AcDbLine
 62
7
  6
CONTINUOUS
 10
205.6787420467
 20
38.6407583879
 11
205.6787420467
 21
35.8502489544
  0
LINE
  5
4E1
100
AcDbEntity
  8
KONSTRUKTIONSELEMENTE
100
AcDbLine
 62
7
  6
CONTINUOUS
 10
206.1162420467
 20
38.0089936696
 11
206.1162420467
 21
37.2026623504
  0
LINE
  5
4E2
100
AcDbEntity
  8
KONSTRUKTIONSELEMENTE
100
AcDbLine
 62
7
  6
CONTINUOUS
 10
206.1162420467
 20
36.8911135093
 11
206.1162420467
 21
35.8502489544
  0
LINE
  5
4E3
100
AcDbEntity
  8
KONSTRUKTIONSELEMENTE
100
AcDbLine
 62
7
  6
CONTINUOUS
 10
207.4287420467
 20
38.6407583879
 11
207.4287420467
 21
38.2865029471
  0
LINE
  5
4E4
100
AcDbEntity
  8
KONSTRUKTIONSELEMENTE
100
AcDbLine
 62
7
  6
CONTINUOUS
 10
207.5016588524
 20
37.5562185928
 11
207.5016588524
 21
37.2026623504
  0
LINE
  5
4E5
100
AcDbEntity
  8
KONSTRUKTIONSELEMENTE
100
AcDbLine
 62
7
  6
CONTINUOUS
 10
207.7204088524
 20
37.6087507066
 11
207.7204088524
 21
37.2551972368
  0
LINE
  5
4E6
100
AcDbEntity
  8
KONSTRUKTIONSELEMENTE
100
AcDbLine
 62
7
  6
CONTINUOUS
 10
207.7933252409
 20
38.5848334527
 11
207.7933252409
 21
38.2306509059
  0
LINE
  5
4E7
100
AcDbEntity
  8
KONSTRUKTIONSELEMENTE
100
AcDbLine
 62
7
  6
CONTINUOUS
 10
207.8662420467
 20
37.7143496548
 11
207.8662420467
 21
37.3607898474
  0
LINE
  5
4E8
100
AcDbEntity
  8
KONSTRUKTIONSELEMENTE
100
AcDbLine
 62
7
  6
CONTINUOUS
 10
207.9391588524
 20
37.6817513779
 11
207.9391588524
 21
37.5204859693
  0
LINE
  5
4E9
100
AcDbEntity
  8
KONSTRUKTIONSELEMENTE
100
AcDbLine
 62
7
  6
CONTINUOUS
 10
208.0849920467
 20
38.4181335123
 11
208.0849920467
 21
38.0641455275
  0
LINE
  5
4EA
100
AcDbEntity
  8
KONSTRUKTIONSELEMENTE
100
AcDbLine
 62
7
  6
CONTINUOUS
 10
208.3037420467
 20
38.1983713625
 11
208.3037420467
 21
37.8445867474
  0
LINE
  5
4EB
100
AcDbEntity
  8
KONSTRUKTIONSELEMENTE
100
AcDbLine
 62
7
  6
CONTINUOUS
 10
208.3766588524
 20
38.0354253197
 11
208.3766588524
 21
37.4670796151
  0
LINE
  5
4EC
100
AcDbEntity
  8
KONSTRUKTIONSELEMENTE
100
AcDbLine
 62
7
  6
CONTINUOUS
 10
208.4495752409
 20
36.2053878685
 11
208.4495752409
 21
35.8502489544
  0
LINE
  5
4ED
100
AcDbEntity
  8
KONSTRUKTIONSELEMENTE
100
AcDbLine
 62
7
  6
CONTINUOUS
 10
209.0329088524
 20
38.6407583879
 11
209.0329088524
 21
35.8502489544
  0
LINE
  5
4EE
100
AcDbEntity
  8
KONSTRUKTIONSELEMENTE
100
AcDbLine
 62
7
  6
CONTINUOUS
 10
209.4704084352
 20
37.954016637
 11
209.4704084352
 21
37.2026623504
  0
LINE
  5
4EF
100
AcDbEntity
  8
KONSTRUKTIONSELEMENTE
100
AcDbLine
 62
7
  6
CONTINUOUS
 10
209.4704084352
 20
36.8911135093
 11
209.4704084352
 21
36.1397459756
  0
LINE
  5
4F0
100
AcDbEntity
  8
KONSTRUKTIONSELEMENTE
100
AcDbLine
 62
7
  6
CONTINUOUS
 10
210.7829084352
 20
38.6407583879
 11
210.7829084352
 21
38.2865029471
  0
LINE
  5
4F1
100
AcDbEntity
  8
KONSTRUKTIONSELEMENTE
100
AcDbLine
 62
7
  6
CONTINUOUS
 10
210.8558256581
 20
37.5562185928
 11
210.8558256581
 21
37.2026623504
  0
LINE
  5
4F2
100
AcDbEntity
  8
KONSTRUKTIONSELEMENTE
100
AcDbLine
 62
7
  6
CONTINUOUS
 10
210.8558256581
 20
36.4942794639
 11
210.8558256581
 21
36.1397459756
  0
LINE
  5
4F3
100
AcDbEntity
  8
KONSTRUKTIONSELEMENTE
100
AcDbLine
 62
7
  6
CONTINUOUS
 10
211.0745756581
 20
37.6087507066
 11
211.0745756581
 21
37.2551972368
  0
LINE
  5
4F4
100
AcDbEntity
  8
KONSTRUKTIONSELEMENTE
100
AcDbLine
 62
7
  6
CONTINUOUS
 10
211.0745756581
 20
36.5430580782
 11
211.0745756581
 21
36.1886112258
  0
LINE
  5
4F5
100
AcDbEntity
  8
KONSTRUKTIONSELEMENTE
100
AcDbLine
 62
7
  6
CONTINUOUS
 10
211.1474920467
 20
38.5848334527
 11
211.1474920467
 21
38.2306509059
  0
LINE
  5
4F6
100
AcDbEntity
  8
KONSTRUKTIONSELEMENTE
100
AcDbLine
 62
7
  6
CONTINUOUS
 10
211.2204084352
 20
37.7143496548
 11
211.2204084352
 21
37.3607898474
  0
LINE
  5
4F7
100
AcDbEntity
  8
KONSTRUKTIONSELEMENTE
100
AcDbLine
 62
7
  6
CONTINUOUS
 10
211.2204084352
 20
36.6411540883
 11
211.2204084352
 21
36.2868683614
  0
LINE
  5
4F8
100
AcDbEntity
  8
KONSTRUKTIONSELEMENTE
100
AcDbLine
 62
7
  6
CONTINUOUS
 10
211.2933256581
 20
37.6278217418
 11
211.2933256581
 21
37.5204859693
  0
LINE
  5
4F9
100
AcDbEntity
  8
KONSTRUKTIONSELEMENTE
100
AcDbLine
 62
7
  6
CONTINUOUS
 10
211.2933256581
 20
36.5858445777
 11
211.2933256581
 21
36.4355688044
  0
LINE
  5
4FA
100
AcDbEntity
  8
KONSTRUKTIONSELEMENTE
100
AcDbLine
 62
7
  6
CONTINUOUS
 10
211.4391584352
 20
38.4181335123
 11
211.4391584352
 21
38.0641455275
  0
LINE
  5
4FB
100
AcDbEntity
  8
KONSTRUKTIONSELEMENTE
100
AcDbLine
 62
7
  6
CONTINUOUS
 10
211.4391584352
 20
37.0981154353
 11
211.4391584352
 21
36.9942657574
  0
LINE
  5
4FC
100
AcDbEntity
  8
KONSTRUKTIONSELEMENTE
100
AcDbLine
 62
7
  6
CONTINUOUS
 10
217.9169409978
 20
87.7742471263
 11
202.816433989
 21
98.4083333924
  0
LINE
  5
4FD
100
AcDbEntity
  8
KONSTRUKTIONSELEMENTE
100
AcDbLine
 62
7
  6
CONTINUOUS
 10
211.6579084352
 20
38.1983713625
 11
211.6579084352
 21
37.8445867474
  0
LINE
  5
4FE
100
AcDbEntity
  8
KONSTRUKTIONSELEMENTE
100
AcDbLine
 62
7
  6
CONTINUOUS
 10
211.6579084352
 20
37.1423801092
 11
211.6579084352
 21
36.7886589754
  0
LINE
  5
4FF
100
AcDbEntity
  8
KONSTRUKTIONSELEMENTE
100
AcDbLine
 62
7
  6
CONTINUOUS
 10
211.7308256581
 20
38.0354253197
 11
211.7308256581
 21
37.4670796151
  0
LINE
  5
500
100
AcDbEntity
  8
KONSTRUKTIONSELEMENTE
100
AcDbLine
 62
7
  6
CONTINUOUS
 10
211.7308256581
 20
36.9901346941
 11
211.7308256581
 21
36.3858268268
  0
LINE
  5
501
100
AcDbEntity
  8
KONSTRUKTIONSELEMENTE
100
AcDbLine
 62
7
  6
CONTINUOUS
 10
212.3141584352
 20
38.6407583879
 11
212.3141584352
 21
35.8502489544
  0
LINE
  5
502
100
AcDbEntity
  8
KONSTRUKTIONSELEMENTE
100
AcDbLine
 62
7
  6
CONTINUOUS
 10
212.7516584352
 20
38.6407583879
 11
212.7516584352
 21
37.0461034318
  0
LINE
  5
503
100
AcDbEntity
  8
KONSTRUKTIONSELEMENTE
100
AcDbLine
 62
7
  6
CONTINUOUS
 10
212.7516584352
 20
36.6362861666
 11
212.7516584352
 21
35.8502489544
  0
LINE
  5
504
100
AcDbEntity
  8
KONSTRUKTIONSELEMENTE
100
AcDbLine
 62
7
  6
CONTINUOUS
 10
214.3558256581
 20
38.6407583879
 11
214.3558256581
 21
38.2865029471
  0
LINE
  5
505
100
AcDbEntity
  8
KONSTRUKTIONSELEMENTE
100
AcDbLine
 62
7
  6
CONTINUOUS
 10
214.9391584352
 20
38.6407583879
 11
214.9391584352
 21
38.2865029471
  0
LINE
  5
506
100
AcDbEntity
  8
KONSTRUKTIONSELEMENTE
100
AcDbLine
 62
7
  6
CONTINUOUS
 10
214.9391584352
 20
36.2053878685
 11
214.9391584352
 21
35.8502489544
  0
LWPOLYLINE
  5
507
100
AcDbEntity
  8
KONSTRUKTIONSELEMENTE
100
AcDbPolyline
 62
7
  6
CONTINUOUS
 90
6
 70
0
 10
233.9594943228
 20
61.8809414555
 10
233.9552510831
 20
61.924405495
 10
233.9507338186
 20
61.9850243227
 10
233.946491794
 20
62.0631265797
 10
233.9430448985
 20
62.1584944513
 10
233.9408694219
 20
62.2732053839
  0
LWPOLYLINE
  5
508
100
AcDbEntity
  8
KONSTRUKTIONSELEMENTE
100
AcDbPolyline
 62
7
  6
CONTINUOUS
 90
14
 70
0
 10
236.7333731901
 20
61.1964111007
 10
236.7317354011
 20
61.2773656417
 10
236.7052157207
 20
61.5308633849
 10
236.6466711305
 20
61.778929786
 10
236.5570524559
 20
62.017535969
 10
236.4378152001
 20
62.2428067041
 10
236.2908959069
 20
62.4510833426
 10
236.1186807052
 20
62.6389832414
 10
235.9239665589
 20
62.8034546963
 10
235.7099158375
 20
62.9418265085
 10
235.4800049585
 20
63.0518513645
 10
235.2379679255
 20
63.1317423358
 10
234.987735684
 20
63.1802019
 10
234.7333722841
 20
63.196443014
  0
LINE
  5
509
100
AcDbEntity
  8
KONSTRUKTIONSELEMENTE
100
AcDbLine
 62
7
  6
CONTINUOUS
 10
233.9408694219
 20
62.2732053839
 11
233.9403810464
 21
62.3679877876
  0
LINE
  5
50A
100
AcDbEntity
  8
0
100
AcDbLine
 62
7
  6
CONTINUOUS
 10
233.9403810464
 20
62.3679877876
 11
233.9403809845
 21
62.3684201973
  0
LINE
  5
50B
100
AcDbEntity
  8
KONSTRUKTIONSELEMENTE
100
AcDbLine
 62
7
  6
CONTINUOUS
 10
236.7333742546
 20
58.7212889509
 11
236.7333742546
 21
61.1961660715
  0
LINE
  5
50C
100
AcDbEntity
  8
KONSTRUKTIONSELEMENTE
100
AcDbLine
 62
7
  6
CONTINUOUS
 10
236.7333742546
 20
86.0641573164
 11
236.7333742546
 21
88.5390344369
  0
LWPOLYLINE
  5
50D
100
AcDbEntity
  8
KONSTRUKTIONSELEMENTE
100
AcDbPolyline
 62
7
  6
CONTINUOUS
 90
9
 70
0
 10
233.9403809845
 20
62.3684201973
 10
233.9431463526
 20
62.6084412262
 10
233.9510731372
 20
62.8618509557
 10
233.9644170928
 20
63.1421611155
 10
233.9835384617
 20
63.4464661214
 10
234.0085232286
 20
63.7721341907
 10
234.0394412053
 20
64.1160516784
 10
234.076293437
 20
64.4751050278
 10
234.1188951384
 20
64.8458144687
  0
LINE
  5
50E
100
AcDbEntity
  8
KONSTRUKTIONSELEMENTE
100
AcDbLine
 62
7
  6
CONTINUOUS
 10
236.7250177303
 20
85.8051262048
 11
236.7333731883
 21
86.0636859316
  0
LINE
  5
50F
100
AcDbEntity
  8
KONSTRUKTIONSELEMENTE
100
AcDbLine
 62
7
  6
CONTINUOUS
 10
236.7028315545
 20
85.5708547462
 11
236.7250177303
 21
85.8051262048
  0
LINE
  5
510
100
AcDbEntity
  8
KONSTRUKTIONSELEMENTE
100
AcDbLine
 62
7
  6
CONTINUOUS
 10
236.7028153455
 20
85.5708567627
 11
234.1188951384
 21
64.8458144687
  0
LINE
  5
511
100
AcDbEntity
  8
KONSTRUKTIONSELEMENTE
100
AcDbLine
 62
7
  6
CONTINUOUS
 10
230.028215591
 20
39.7306726947
 11
236.536734315
 21
57.6186346096
  0
LWPOLYLINE
  5
512
100
AcDbEntity
  8
KONSTRUKTIONSELEMENTE
100
AcDbPolyline
 62
7
  6
CONTINUOUS
 90
4
 70
0
 10
233.963539331
 20
61.8492871843
 10
233.9637864712
 20
61.8478919183
 10
233.962642682
 20
61.855497099
 10
233.9594943228
 20
61.8809414555
  0
ARC
  5
513
100
AcDbEntity
  8
0
100
AcDbCircle
 62
7
  6
CONTINUOUS
 10
-83.9745171652
 20
172.1095747293
 40
178.376570399
100
AcDbArc
 50
354.6332262126
 51
356.1432493051
  0
ARC
  5
514
100
AcDbEntity
  8
0
100
AcDbCircle
 62
7
  6
CONTINUOUS
 10
0.2304479934
 20
159.3701901202
 40
93.4729269824
100
AcDbArc
 50
357.1575179273
 51
357.5815284029
  0
ARC
  5
515
100
AcDbEntity
  8
KONSTRUKTIONSELEMENTE
100
AcDbCircle
 62
7
  6
CONTINUOUS
 10
73.9509913879
 20
145.821930576
 40
18.2668816209
100
AcDbArc
 50
175.9517461458
 51
179.9860851045
  0
ARC
  5
516
100
AcDbEntity
  8
KONSTRUKTIONSELEMENTE
100
AcDbCircle
 62
7
  6
CONTINUOUS
 10
74.6056670022
 20
190.1876579777
 40
12.9998769096
100
AcDbArc
 50
93.5442081478
 51
160.0039951437
  0
ARC
  5
517
100
AcDbEntity
  8
RUNDUNGEN
100
AcDbCircle
 62
7
  6
CONTINUOUS
 10
93.6075223731
 20
194.2930665514
 40
6.0
100
AcDbArc
 50
352.0
 51
6.0002394259
  0
ARC
  5
518
100
AcDbEntity
  8
BEZUGSACHSEN
100
AcDbCircle
 62
7
  6
CONTINUOUS
 10
93.6075223731
 20
194.2930665514
 40
6.0
100
AcDbArc
 50
1.6219805686
 51
3.0597351824
  0
ARC
  5
519
100
AcDbEntity
  8
RUNDUNGEN
100
AcDbCircle
 62
7
  6
CONTINUOUS
 10
99.6595154056
 20
172.6875657256
 40
3.0
100
AcDbArc
 50
266.9281416369
 51
270.0
  0
ARC
  5
51A
100
AcDbEntity
  8
BEZUGSACHSEN
100
AcDbCircle
 62
7
  6
CONTINUOUS
 10
96.4774795648
 20
195.6875645624
 40
2.9999997593
100
AcDbArc
 50
274.4247455496
 51
1.9061392466
  0
ARC
  5
51B
100
AcDbEntity
  8
BEZUGSACHSEN
100
AcDbCircle
 62
7
  6
CONTINUOUS
 10
96.4774795648
 20
195.6875645624
 40
2.9999997593
100
AcDbArc
 50
4.5140574443
 51
6.000022339
  0
ARC
  5
51C
100
AcDbEntity
  8
0
100
AcDbCircle
 62
7
  6
CONTINUOUS
 10
93.7672729772
 20
201.1875657256
 40
2.0
100
AcDbArc
 50
31.9598335969
 51
90.0
  0
ARC
  5
51D
100
AcDbEntity
  8
KONSTRUKTIONSELEMENTE
100
AcDbCircle
 62
7
  6
CONTINUOUS
 10
93.7672729772
 20
201.1875657256
 40
2.0
100
AcDbArc
 50
31.9598335969
 51
90.0
  0
ARC
  5
51E
100
AcDbEntity
  8
0
100
AcDbCircle
 62
7
  6
CONTINUOUS
 10
130.7331211115
 20
264.5144841231
 40
76.0454269621
100
AcDbArc
 50
295.5182197636
 51
296.7480533509
  0
ARC
  5
51F
100
AcDbEntity
  8
BEZUGSACHSEN
100
AcDbCircle
 62
7
  6
CONTINUOUS
 10
101.3035513909
 20
221.5213500772
 40
4.5
100
AcDbArc
 50
157.5
 51
186.0
  0
ARC
  5
520
100
AcDbEntity
  8
RUNDUNGEN
100
AcDbCircle
 62
7
  6
CONTINUOUS
 10
101.3035513909
 20
221.5213500772
 40
4.5
100
AcDbArc
 50
157.5
 51
186.0
  0
ARC
  5
521
100
AcDbEntity
  8
BEZUGSACHSEN
100
AcDbCircle
 62
7
  6
CONTINUOUS
 10
114.6511072692
 20
253.7452005031
 40
4.5
100
AcDbArc
 50
112.5
 51
127.118521997
  0
ARC
  5
522
100
AcDbEntity
  8
BEZUGSACHSEN
100
AcDbCircle
 62
7
  6
CONTINUOUS
 10
114.6511072692
 20
253.7452005031
 40
4.5
100
AcDbArc
 50
129.3749998835
 51
134.9999999713
  0
ARC
  5
523
100
AcDbEntity
  8
BEZUGSACHSEN
100
AcDbCircle
 62
7
  6
CONTINUOUS
 10
114.6511072692
 20
253.7452005031
 40
4.5
100
AcDbArc
 50
140.6250000946
 51
142.6872386981
  0
ARC
  5
524
100
AcDbEntity
  8
BEZUGSACHSEN
100
AcDbCircle
 62
7
  6
CONTINUOUS
 10
114.6511072692
 20
253.7452005031
 40
4.5
100
AcDbArc
 50
149.4683740086
 51
157.5
  0
ARC
  5
525
100
AcDbEntity
  8
RUNDUNGEN
100
AcDbCircle
 62
7
  6
CONTINUOUS
 10
114.6511072692
 20
253.7452005031
 40
4.5
100
AcDbArc
 50
112.5
 51
157.5
  0
ARC
  5
526
100
AcDbEntity
  8
0
100
AcDbCircle
 62
7
  6
CONTINUOUS
 10
370.7472227235
 20
171.6542402945
 40
172.7139647296
100
AcDbArc
 50
183.8319953594
 51
185.3915291243
  0
ARC
  5
527
100
AcDbEntity
  8
0
100
AcDbCircle
 62
7
  6
CONTINUOUS
 10
292.1870361053
 20
159.3701901205
 40
93.4729269877
100
AcDbArc
 50
182.4184715972
 51
182.8424820727
  0
ARC
  5
528
100
AcDbEntity
  8
KONSTRUKTIONSELEMENTE
100
AcDbCircle
 62
7
  6
CONTINUOUS
 10
218.4664927047
 20
145.8219305759
 40
18.2668816216
100
AcDbArc
 50
0.0139148946
 51
4.0482538541
  0
ARC
  5
529
100
AcDbEntity
  8
KONSTRUKTIONSELEMENTE
100
AcDbCircle
 62
7
  6
CONTINUOUS
 10
217.8118170911
 20
190.1876579777
 40
12.9998769096
100
AcDbArc
 50
19.9960048563
 51
86.4557918522
  0
ARC
  5
52A
100
AcDbEntity
  8
RUNDUNGEN
100
AcDbCircle
 62
7
  6
CONTINUOUS
 10
198.8099617202
 20
194.2930665514
 40
6.0
100
AcDbArc
 50
173.9997636547
 51
188.0
  0
ARC
  5
52B
100
AcDbEntity
  8
BEZUGSACHSEN
100
AcDbCircle
 62
7
  6
CONTINUOUS
 10
198.8099617202
 20
194.2930665514
 40
6.0
100
AcDbArc
 50
176.9403952417
 51
178.3780163537
  0
ARC
  5
52C
100
AcDbEntity
  8
RUNDUNGEN
100
AcDbCircle
 62
7
  6
CONTINUOUS
 10
192.7579679074
 20
172.6875712782
 40
3.0
100
AcDbArc
 50
270.0000149037
 51
273.0718676018
  0
ARC
  5
52D
100
AcDbEntity
  8
BEZUGSACHSEN
100
AcDbCircle
 62
7
  6
CONTINUOUS
 10
195.940004439
 20
195.6875637103
 40
2.999999583
100
AcDbArc
 50
173.9999612975
 51
175.4857140161
  0
ARC
  5
52E
100
AcDbEntity
  8
BEZUGSACHSEN
100
AcDbCircle
 62
7
  6
CONTINUOUS
 10
195.940004439
 20
195.6875637103
 40
2.999999583
100
AcDbArc
 50
178.6272980306
 51
265.5759544514
  0
ARC
  5
52F
100
AcDbEntity
  8
0
100
AcDbCircle
 62
7
  6
CONTINUOUS
 10
198.6502111161
 20
201.1875657256
 40
2.0
100
AcDbArc
 50
90.0
 51
148.0401664031
  0
ARC
  5
530
100
AcDbEntity
  8
KONSTRUKTIONSELEMENTE
100
AcDbCircle
 62
7
  6
CONTINUOUS
 10
198.6502111161
 20
201.1875657256
 40
2.0
100
AcDbArc
 50
90.0
 51
148.0401664031
  0
ARC
  5
531
100
AcDbEntity
  8
0
100
AcDbCircle
 62
7
  6
CONTINUOUS
 10
146.2087420467
 20
222.1875657256
 40
31.0
100
AcDbArc
 50
256.3493194826
 51
283.6506815209
  0
ARC
  5
532
100
AcDbEntity
  8
BEZUGSACHSEN
100
AcDbCircle
 62
7
  6
CONTINUOUS
 10
146.2087420467
 20
222.1875657256
 40
30.0
100
AcDbArc
 50
302.5194323387
 51
325.8421647684
  0
ARC
  5
533
100
AcDbEntity
  8
BEZUGSACHSEN
100
AcDbCircle
 62
7
  6
CONTINUOUS
 10
146.2087420467
 20
222.1875657256
 40
30.0
100
AcDbArc
 50
214.1578352316
 51
228.9633487683
  0
CIRCLE
  5
534
100
AcDbEntity
  8
RUNDUNGEN
100
AcDbCircle
 62
7
  6
CONTINUOUS
 10
146.2087420467
 20
222.1875657256
 40
30.0
  0
ARC
  5
535
100
AcDbEntity
  8
0
100
AcDbCircle
 62
7
  6
CONTINUOUS
 10
161.6843638418
 20
264.5144849937
 40
76.0454281266
100
AcDbArc
 50
243.2519463657
 51
244.481779661
  0
ARC
  5
536
100
AcDbEntity
  8
BEZUGSACHSEN
100
AcDbCircle
 62
7
  6
CONTINUOUS
 10
146.2087420467
 20
266.8168008243
 40
4.5
100
AcDbArc
 50
73.124999868
 51
75.4996827745
  0
ARC
  5
537
100
AcDbEntity
  8
BEZUGSACHSEN
100
AcDbCircle
 62
7
  6
CONTINUOUS
 10
146.2087420467
 20
266.8168008243
 40
4.5
100
AcDbArc
 50
82.1184789648
 51
97.6872689594
  0
ARC
  5
538
100
AcDbEntity
  8
BEZUGSACHSEN
100
AcDbCircle
 62
7
  6
CONTINUOUS
 10
146.2087420467
 20
266.8168008243
 40
4.5
100
AcDbArc
 50
101.2500001625
 51
112.5
  0
ARC
  5
539
100
AcDbEntity
  8
RUNDUNGEN
100
AcDbCircle
 62
7
  6
CONTINUOUS
 10
146.2087420467
 20
266.8168008243
 40
4.5
100
AcDbArc
 50
67.5
 51
112.5
  0
ARC
  5
53A
100
AcDbEntity
  8
RUNDUNGEN
100
AcDbCircle
 62
7
  6
CONTINUOUS
 10
191.1139327024
 20
221.5213500772
 40
4.5
100
AcDbArc
 50
354.0
 51
22.5
  0
ARC
  5
53B
100
AcDbEntity
  8
BEZUGSACHSEN
100
AcDbCircle
 62
7
  6
CONTINUOUS
 10
177.7663768241
 20
253.7452005031
 40
4.5
100
AcDbArc
 50
50.6250001169
 51
52.881492258
  0
ARC
  5
53C
100
AcDbEntity
  8
BEZUGSACHSEN
100
AcDbCircle
 62
7
  6
CONTINUOUS
 10
177.7663768241
 20
253.7452005031
 40
4.5
100
AcDbArc
 50
22.4999999878
 51
28.1249998738
  0
ARC
  5
53D
100
AcDbEntity
  8
RUNDUNGEN
100
AcDbCircle
 62
7
  6
CONTINUOUS
 10
177.7663768241
 20
253.7452005031
 40
4.5
100
AcDbArc
 50
22.5
 51
67.5
  0
ARC
  5
53E
100
AcDbEntity
  8
RUNDUNGEN
100
AcDbCircle
 62
7
  6
CONTINUOUS
 10
354.5400051367
 20
202.5359559332
 40
25.0
100
AcDbArc
 50
179.9999042641
 51
184.1009907828
  0
ARC
  5
53F
100
AcDbEntity
  8
KONSTRUKTIONSELEMENTE
100
AcDbCircle
 62
7
  6
CONTINUOUS
 10
319.5400051367
 20
181.1875657256
 40
22.5
100
AcDbArc
 50
39.6445993869
 51
50.3554006131
  0
ARC
  5
540
100
AcDbEntity
  8
0
100
AcDbCircle
 62
7
  6
CONTINUOUS
 10
319.5400051367
 20
181.1875657256
 40
22.0
100
AcDbArc
 50
0.0
 51
90.0
  0
ARC
  5
541
100
AcDbEntity
  8
BEZUGSACHSEN
100
AcDbCircle
 62
7
  6
CONTINUOUS
 10
312.5400051367
 20
268.3168008243
 40
3.0
100
AcDbArc
 50
90.0
 51
180.0
  0
ARC
  5
542
100
AcDbEntity
  8
RUNDUNGEN
100
AcDbCircle
 62
7
  6
CONTINUOUS
 10
326.5400051367
 20
268.3168008243
 40
3.0
100
AcDbArc
 50
0.0
 51
90.0
  0
ARC
  5
543
100
AcDbEntity
  8
KONSTRUKTIONSELEMENTE
100
AcDbCircle
 62
7
  6
CONTINUOUS
 10
277.2676974605
 20
173.6572458542
 40
2.4478113205
100
AcDbArc
 50
236.5449759976
 51
238.0100586575
  0
ARC
  5
544
100
AcDbEntity
  8
KONSTRUKTIONSELEMENTE
100
AcDbCircle
 62
7
  6
CONTINUOUS
 10
277.2147689333
 20
173.5792868075
 40
2.3535903604
100
AcDbArc
 50
230.0875662875
 51
236.5737464392
  0
ARC
  5
545
100
AcDbEntity
  8
KONSTRUKTIONSELEMENTE
100
AcDbCircle
 62
7
  6
CONTINUOUS
 10
277.474830625
 20
173.1720103482
 40
2.0064613546
100
AcDbArc
 50
225.0618826099
 51
230.7943009823
  0
ARC
  5
546
100
AcDbEntity
  8
0
100
AcDbCircle
 62
7
  6
CONTINUOUS
 10
307.5191898565
 20
169.1667504455
 40
2.0
100
AcDbArc
 50
0.0
 51
90.0
  0
ARC
  5
547
100
AcDbEntity
  8
KONSTRUKTIONSELEMENTE
100
AcDbCircle
 62
7
  6
CONTINUOUS
 10
277.4706748625
 20
173.165679031
 40
1.9989286022
100
AcDbArc
 50
230.7718908518
 51
270.0073827181
  0
ARC
  5
548
100
AcDbEntity
  8
KONSTRUKTIONSELEMENTE
100
AcDbCircle
 62
7
  6
CONTINUOUS
 10
277.4609117796
 20
173.1577099961
 40
1.9865071044
100
AcDbArc
 50
224.043133189
 51
225.0547234907
  0
ARC
  5
549
100
AcDbEntity
  8
0
100
AcDbCircle
 62
7
  6
CONTINUOUS
 10
275.5161795944
 20
174.2990961475
 40
1.7612044243
100
AcDbArc
 50
146.7700884045
 51
151.3195734974
  0
ARC
  5
54A
100
AcDbEntity
  8
0
100
AcDbCircle
 62
7
  6
CONTINUOUS
 10
275.3512721249
 20
174.4063013863
 40
1.5645145826
100
AcDbArc
 50
145.0102166546
 51
146.7446569057
  0
ARC
  5
54B
100
AcDbEntity
  8
0
100
AcDbCircle
 62
7
  6
CONTINUOUS
 10
275.069328494
 20
174.321150477
 40
1.3785508246
100
AcDbArc
 50
216.7837144446
 51
223.9905109786
  0
ARC
  5
54C
100
AcDbEntity
  8
0
100
AcDbCircle
 62
7
  6
CONTINUOUS
 10
312.6735898881
 20
136.7168890829
 40
1.3785508246
100
AcDbArc
 50
226.0094890214
 51
233.2162855554
  0
ARC
  5
54D
100
AcDbEntity
  8
KONSTRUKTIONSELEMENTE
100
AcDbCircle
 62
7
  6
CONTINUOUS
 10
275.2077790911
 20
174.5753668144
 40
1.35
100
AcDbArc
 50
145.0000000429
 51
223.9526985338
  0
ARC
  5
54E
100
AcDbEntity
  8
0
100
AcDbCircle
 62
7
  6
CONTINUOUS
 10
376.3920012583
 20
62.2536187302
 40
178.3765703988
100
AcDbArc
 50
174.6332262126
 51
176.1432493051
  0
ARC
  5
54F
100
AcDbEntity
  8
0
100
AcDbCircle
 62
7
  6
CONTINUOUS
 10
-78.3297386299
 20
62.7089531649
 40
172.7139647294
100
AcDbArc
 50
3.8319953594
 51
5.3915291243
  0
ARC
  5
550
100
AcDbEntity
  8
0
100
AcDbCircle
 62
7
  6
CONTINUOUS
 10
292.1870361053
 20
74.9930033389
 40
93.4729269878
100
AcDbArc
 50
177.1575179273
 51
177.5815284028
  0
ARC
  5
551
100
AcDbEntity
  8
0
100
AcDbCircle
 62
7
  6
CONTINUOUS
 10
0.2304479942
 20
74.9930033392
 40
93.4729269816
100
AcDbArc
 50
2.4184715971
 51
2.8424820727
  0
ARC
  5
552
100
AcDbEntity
  8
KONSTRUKTIONSELEMENTE
100
AcDbCircle
 62
7
  6
CONTINUOUS
 10
73.9509913887
 20
88.5412628835
 40
18.2668816216
100
AcDbArc
 50
180.0139148946
 51
184.0482538541
  0
ARC
  5
553
100
AcDbEntity
  8
KONSTRUKTIONSELEMENTE
100
AcDbCircle
 62
7
  6
CONTINUOUS
 10
218.4664927054
 20
88.5412628835
 40
18.2668816208
100
AcDbArc
 50
355.9517461458
 51
359.9860851045
  0
ARC
  5
554
100
AcDbEntity
  8
KONSTRUKTIONSELEMENTE
100
AcDbCircle
 62
7
  6
CONTINUOUS
 10
74.6056670022
 20
44.1755354817
 40
12.9998769096
100
AcDbArc
 50
199.9960048563
 51
266.4557918522
  0
ARC
  5
555
100
AcDbEntity
  8
KONSTRUKTIONSELEMENTE
100
AcDbCircle
 62
7
  6
CONTINUOUS
 10
217.8118170911
 20
44.1755354817
 40
12.9998769096
100
AcDbArc
 50
273.5442081478
 51
340.0039951437
  0
ARC
  5
556
100
AcDbEntity
  8
BEZUGSACHSEN
100
AcDbCircle
 62
7
  6
CONTINUOUS
 10
99.8035513909
 20
60.1756277338
 40
3.0
100
AcDbArc
 50
90.0
 51
180.0
  0
ARC
  5
557
100
AcDbEntity
  8
BEZUGSACHSEN
100
AcDbCircle
 62
7
  6
CONTINUOUS
 10
192.6139327024
 20
60.1756277338
 40
3.0
100
AcDbArc
 50
0.0
 51
90.0
  0
ARC
  5
558
100
AcDbEntity
  8
RUNDUNGEN
100
AcDbCircle
 62
7
  6
CONTINUOUS
 10
99.8035513909
 20
46.1756277338
 40
3.0
100
AcDbArc
 50
180.0
 51
270.0
  0
ARC
  5
559
100
AcDbEntity
  8
RUNDUNGEN
100
AcDbCircle
 62
7
  6
CONTINUOUS
 10
192.6139327024
 20
46.1756277338
 40
3.0
100
AcDbArc
 50
270.0
 51
360.0
  0
ARC
  5
55A
100
AcDbEntity
  8
0
100
AcDbCircle
 62
7
  6
CONTINUOUS
 10
109.7906411809
 20
43.4029686457
 40
2.7273479093
100
AcDbArc
 50
273.1783212345
 51
273.7266388077
  0
ARC
  5
55B
100
AcDbEntity
  8
0
100
AcDbCircle
 62
7
  6
CONTINUOUS
 10
182.6268429124
 20
62.9482868229
 40
2.7273479083
100
AcDbArc
 50
93.1783212344
 51
93.7266388079
  0
ARC
  5
55C
100
AcDbEntity
  8
0
100
AcDbCircle
 62
7
  6
CONTINUOUS
 10
182.6266720203
 20
62.9517533097
 40
2.7238772787
100
AcDbArc
 50
91.5342391263
 51
93.178774862
  0
ARC
  5
55D
100
AcDbEntity
  8
0
100
AcDbCircle
 62
7
  6
CONTINUOUS
 10
109.790812073
 20
43.3995021578
 40
2.7238772787
100
AcDbArc
 50
271.5342391263
 51
273.178774862
  0
ARC
  5
55E
100
AcDbEntity
  8
0
100
AcDbCircle
 62
7
  6
CONTINUOUS
 10
181.9668414337
 20
62.9544258935
 40
2.7212026759
100
AcDbArc
 50
90.802220807
 51
92.9968207215
  0
ARC
  5
55F
100
AcDbEntity
  8
0
100
AcDbCircle
 62
7
  6
CONTINUOUS
 10
110.4506426596
 20
43.3968295741
 40
2.7212026759
100
AcDbArc
 50
270.802220807
 51
272.9968207215
  0
ARC
  5
560
100
AcDbEntity
  8
0
100
AcDbCircle
 62
7
  6
CONTINUOUS
 10
93.7672729772
 20
33.1756277338
 40
2.0
100
AcDbArc
 50
270.0
 51
328.0401664031
  0
ARC
  5
561
100
AcDbEntity
  8
KONSTRUKTIONSELEMENTE
100
AcDbCircle
 62
7
  6
CONTINUOUS
 10
93.7672729772
 20
33.1756277338
 40
2.0
100
AcDbArc
 50
270.0
 51
328.0401664031
  0
ARC
  5
562
100
AcDbEntity
  8
0
100
AcDbCircle
 62
7
  6
CONTINUOUS
 10
198.6502111161
 20
33.1756277338
 40
2.0
100
AcDbArc
 50
211.9598335969
 51
270.0
  0
ARC
  5
563
100
AcDbEntity
  8
KONSTRUKTIONSELEMENTE
100
AcDbCircle
 62
7
  6
CONTINUOUS
 10
198.6502111161
 20
33.1756277338
 40
2.0
100
AcDbArc
 50
211.9598335969
 51
270.0
  0
SPLINE
  5
564
100
AcDbEntity
  8
0
100
AcDbSpline
 62
7
  6
CONTINUOUS
 70
0
 71
3
 72
9
 73
5
 74
0
 42
0.0000001
 43
0.0000001
 44
0.0000000001
 40
0.0
 40
0.0
 40
0.0
 40
0.0
 40
0.2494973901
 40
1.0
 40
1.0
 40
1.0
 40
1.0
 10
200.2437146367
 20
141.4684573075
 30
0.0
 10
200.3181163486
 20
141.0466357207
 30
0.0
 10
200.6242805337
 20
139.3573545316
 30
0.0
 10
200.9589845418
 20
137.6733190967
 30
0.0
 10
201.2217761778
 20
136.4119530206
 30
0.0
  0
SPLINE
  5
565
100
AcDbEntity
  8
KONSTRUKTIONSELEMENTE
100
AcDbSpline
 62
7
  6
CONTINUOUS
 70
0
 71
3
 72
10
 73
6
 74
0
 42
0.0000001
 43
0.0000001
 44
0.0000000001
 40
0.0
 40
0.0
 40
0.0
 40
0.0
 40
0.2482551275
 40
0.4985582549
 40
1.0
 40
1.0
 40
1.0
 40
1.0
 10
235.3293907052
 20
139.3661777485
 30
0.0
 10
235.5879896007
 20
139.8533479235
 30
0.0
 10
236.0161142787
 20
140.8814093543
 30
0.0
 10
236.5818964353
 20
143.0337499729
 30
0.0
 10
236.7335275255
 20
144.7123091698
 30
0.0
 10
236.7333737875
 20
145.826366884
 30
0.0
  0
SPLINE
  5
566
100
AcDbEntity
  8
KONSTRUKTIONSELEMENTE
100
AcDbSpline
 62
7
  6
CONTINUOUS
 70
0
 71
3
 72
9
 73
5
 74
0
 42
0.0000001
 43
0.0000001
 44
0.0000000001
 40
0.0
 40
0.0
 40
0.0
 40
0.0
 40
0.456862064
 40
1.0
 40
1.0
 40
1.0
 40
1.0
 10
234.6910113737
 20
138.7904303405
 30
0.0
 10
234.8209725181
 20
138.8221712506
 30
0.0
 10
235.0834148309
 20
138.9815190658
 30
0.0
 10
235.2548285069
 20
139.2256937009
 30
0.0
 10
235.3293907052
 20
139.3661777485
 30
0.0
  0
SPLINE
  5
567
100
AcDbEntity
  8
KONSTRUKTIONSELEMENTE
100
AcDbSpline
 62
7
  6
CONTINUOUS
 70
0
 71
3
 72
9
 73
5
 74
0
 42
0.0000001
 43
0.0000001
 44
0.0000000001
 40
0.0
 40
0.0
 40
0.0
 40
0.0
 40
0.5068079903
 40
1.0
 40
1.0
 40
1.0
 40
1.0
 10
236.5373099528
 20
176.7429949324
 30
0.0
 10
236.6022784479
 20
176.5646560003
 30
0.0
 10
236.7011491818
 20
176.2011586164
 30
0.0
 10
236.7334339431
 20
175.8258455966
 30
0.0
 10
236.7333737875
 20
175.6411405977
 30
0.0
  0
SPLINE
  5
568
100
AcDbEntity
  8
0
100
AcDbSpline
 62
7
  6
CONTINUOUS
 70
0
 71
3
 72
9
 73
5
 74
0
 42
0.0000001
 43
0.0000001
 44
0.0000000001
 40
0.0
 40
0.0
 40
0.0
 40
0.0
 40
0.5113333209
 40
1.0
 40
1.0
 40
1.0
 40
1.0
 10
201.2217761778
 20
136.4119530206
 30
0.0
 10
201.2836128883
 20
136.2963663519
 30
0.0
 10
201.4276759277
 20
136.0813413532
 30
0.0
 10
201.6230963123
 20
135.9094610687
 30
0.0
 10
201.7284740658
 20
135.8417125212
 30
0.0
  0
SPLINE
  5
569
100
AcDbEntity
  8
KONSTRUKTIONSELEMENTE
100
AcDbSpline
 62
7
  6
CONTINUOUS
 70
0
 71
3
 72
9
 73
5
 74
0
 42
0.0000001
 43
0.0000001
 44
0.0000000001
 40
0.0
 40
0.0
 40
0.0
 40
0.0
 40
0.5163634039
 40
1.0
 40
1.0
 40
1.0
 40
1.0
 10
200.4901260868
 20
154.9397913139
 30
0.0
 10
200.6034312363
 20
154.944607865
 30
0.0
 10
200.8258254477
 20
154.9112087773
 30
0.0
 10
201.0261374394
 20
154.8163500039
 30
0.0
 10
201.1172906412
 20
154.7618180383
 30
0.0
  0
SPLINE
  5
56A
100
AcDbEntity
  8
0
100
AcDbSpline
 62
7
  6
CONTINUOUS
 70
0
 71
3
 72
11
 73
7
 74
0
 42
0.0000001
 43
0.0000001
 44
0.0000000001
 40
0.0
 40
0.0
 40
0.0
 40
0.0
 40
0.2127001483
 40
0.4544565348
 40
0.7200510425
 40
1.0
 40
1.0
 40
1.0
 40
1.0
 10
198.7973675215
 20
155.4258420796
 30
0.0
 10
198.8913913521
 20
155.3395451083
 30
0.0
 10
199.1214487168
 20
155.1864711629
 30
0.0
 10
199.5272652592
 20
155.031256107
 30
0.0
 10
199.9935095442
 20
154.9428588073
 30
0.0
 10
200.3221460243
 20
154.9326681519
 30
0.0
 10
200.4899677585
 20
154.9398021785
 30
0.0
  0
SPLINE
  5
56B
100
AcDbEntity
  8
0
100
AcDbSpline
 62
7
  6
CONTINUOUS
 70
0
 71
3
 72
9
 73
5
 74
0
 42
0.0000001
 43
0.0000001
 44
0.0000000001
 40
0.0
 40
0.0
 40
0.0
 40
0.0
 40
0.4738283354
 40
1.0
 40
1.0
 40
1.0
 40
1.0
 10
198.8291141842
 20
154.7348374654
 30
0.0
 10
199.0093892711
 20
154.5187589398
 30
0.0
 10
199.5214648181
 20
154.1704956647
 30
0.0
 10
200.1189248793
 20
154.0551206175
 30
0.0
 10
200.4313488598
 20
154.0485990765
 30
0.0
  0
SPLINE
  5
56C
100
AcDbEntity
  8
KONSTRUKTIONSELEMENTE
100
AcDbSpline
 62
7
  6
CONTINUOUS
 70
0
 71
3
 72
8
 73
4
 74
0
 42
0.0000001
 43
0.0000001
 44
0.0000000001
 40
0.0
 40
0.0
 40
0.0
 40
0.0
 40
1.0
 40
1.0
 40
1.0
 40
1.0
 10
200.4313643524
 20
154.0485981731
 30
0.0
 10
200.4653672358
 20
154.0478883966
 30
0.0
 10
200.4994607521
 20
154.0431663336
 30
0.0
 10
200.5324957303
 20
154.0350799208
 30
0.0
  0
SPLINE
  5
56D
100
AcDbEntity
  8
0
100
AcDbSpline
 62
7
  6
CONTINUOUS
 70
0
 71
3
 72
13
 73
9
 74
0
 42
0.0000001
 43
0.0000001
 44
0.0000000001
 40
0.0
 40
0.0
 40
0.0
 40
0.0
 40
0.2682474857
 40
0.5293369793
 40
0.6572378755
 40
0.7820816132
 40
0.9005471495
 40
1.0
 40
1.0
 40
1.0
 40
1.0
 10
201.7284740658
 20
135.8417125212
 30
0.0
 10
201.8063428673
 20
135.7916497896
 30
0.0
 10
201.9715544583
 20
135.7095472666
 30
0.0
 10
202.1952388446
 20
135.6588073497
 30
0.0
 10
202.3726441712
 20
135.6530243276
 30
0.0
 10
202.5013353496
 20
135.6674725706
 30
0.0
 10
202.6129324445
 20
135.6985098746
 30
0.0
 10
202.6842130083
 20
135.7436536083
 30
0.0
 10
202.6966086912
 20
135.7756586039
 30
0.0
  0
SPLINE
  5
56E
100
AcDbEntity
  8
KONSTRUKTIONSELEMENTE
100
AcDbSpline
 62
7
  6
CONTINUOUS
 70
0
 71
3
 72
9
 73
5
 74
0
 42
0.0000001
 43
0.0000001
 44
0.0000000001
 40
0.0
 40
0.0
 40
0.0
 40
0.0
 40
0.5083436703
 40
1.0
 40
1.0
 40
1.0
 40
1.0
 10
234.130668962
 20
138.9496964767
 30
0.0
 10
234.2029464318
 20
138.87738907
 30
0.0
 10
234.3832653765
 20
138.7658143762
 30
0.0
 10
234.5949539713
 20
138.7669698717
 30
0.0
 10
234.6910113737
 20
138.7904303405
 30
0.0
  0
SPLINE
  5
56F
100
AcDbEntity
  8
KONSTRUKTIONSELEMENTE
100
AcDbSpline
 62
7
  6
CONTINUOUS
 70
0
 71
3
 72
9
 73
5
 74
0
 42
0.0000001
 43
0.0000001
 44
0.0000000001
 40
0.0
 40
0.0
 40
0.0
 40
0.0
 40
0.4680708342
 40
1.0
 40
1.0
 40
1.0
 40
1.0
 10
234.1306730787
 20
138.9496926717
 30
0.0
 10
233.1794123775
 20
139.9013632921
 30
0.0
 10
230.9654872943
 20
141.7595200944
 30
0.0
 10
228.3739306236
 20
143.0997815496
 30
0.0
 10
226.9233964704
 20
143.5837786526
 30
0.0
  0
SPLINE
  5
570
100
AcDbEntity
  8
KONSTRUKTIONSELEMENTE
100
AcDbSpline
 62
7
  6
CONTINUOUS
 70
0
 71
3
 72
9
 73
5
 74
0
 42
0.0000001
 43
0.0000001
 44
0.0000000001
 40
0.0
 40
0.0
 40
0.0
 40
0.0
 40
0.2476064982
 40
1.0
 40
1.0
 40
1.0
 40
1.0
 10
236.7333737875
 20
175.6411405977
 30
0.0
 10
236.7333589471
 20
175.5955736663
 30
0.0
 10
236.7294348709
 20
175.4115576574
 30
0.0
 10
236.7101049934
 20
175.2279342282
 30
0.0
 10
236.6877975137
 20
175.0912802994
 30
0.0
  0
SPLINE
  5
571
100
AcDbEntity
  8
0
100
AcDbSpline
 62
7
  6
CONTINUOUS
 70
0
 71
3
 72
10
 73
6
 74
0
 42
0.0000001
 43
0.0000001
 44
0.0000000001
 40
0.0
 40
0.0
 40
0.0
 40
0.0
 40
0.2489855882
 40
0.4984826353
 40
1.0
 40
1.0
 40
1.0
 40
1.0
 10
198.8291141842
 20
154.7348374654
 30
0.0
 10
198.8503161831
 20
153.6267544235
 30
0.0
 10
198.9490191758
 20
151.409016157
 30
0.0
 10
199.3544906055
 20
146.9751389956
 30
0.0
 10
199.8559528021
 20
143.6668786642
 30
0.0
 10
200.2437146367
 20
141.4684573075
 30
0.0
  0
SPLINE
  5
572
100
AcDbEntity
  8
KONSTRUKTIONSELEMENTE
100
AcDbSpline
 62
7
  6
CONTINUOUS
 70
0
 71
3
 72
9
 73
5
 74
0
 42
0.0000001
 43
0.0000001
 44
0.0000000001
 40
0.0
 40
0.0
 40
0.0
 40
0.0
 40
0.5253478617
 40
1.0
 40
1.0
 40
1.0
 40
1.0
 10
202.816433989
 20
135.954860067
 30
0.0
 10
202.7852812293
 20
135.9329216556
 30
0.0
 10
202.7390239512
 20
135.8736675717
 30
0.0
 10
202.70904237
 20
135.807761598
 30
0.0
 10
202.6966091687
 20
135.7756597316
 30
0.0
  0
SPLINE
  5
573
100
AcDbEntity
  8
0
100
AcDbSpline
 62
7
  6
CONTINUOUS
 70
0
 71
3
 72
11
 73
7
 74
0
 42
0.0000001
 43
0.0000001
 44
0.0000000001
 40
0.0
 40
0.0
 40
0.0
 40
0.0
 40
0.2499969064
 40
0.4999952941
 40
0.7499963227
 40
1.0
 40
1.0
 40
1.0
 40
1.0
 10
196.9533723557
 20
181.1875071934
 30
0.0
 10
196.9533700794
 20
179.6173083106
 30
0.0
 10
197.0151654619
 20
176.4765904503
 30
0.0
 10
197.2797758524
 20
171.7725674836
 30
0.0
 10
197.6843764201
 20
167.078772733
 30
0.0
 10
198.0239694747
 20
163.9565110956
 30
0.0
 10
198.206321112
 20
162.3968938454
 30
0.0
  0
SPLINE
  5
574
100
AcDbEntity
  8
0
100
AcDbSpline
 62
7
  6
CONTINUOUS
 70
0
 71
3
 72
9
 73
5
 74
0
 42
0.0000001
 43
0.0000001
 44
0.0000000001
 40
0.0
 40
0.0
 40
0.0
 40
0.0
 40
0.2579036713
 40
1.0
 40
1.0
 40
1.0
 40
1.0
 10
198.206321112
 20
162.3968938454
 30
0.0
 10
198.2292367391
 20
162.2009024728
 30
0.0
 10
198.3136072893
 20
161.440455058
 30
0.0
 10
198.3815664683
 20
160.6781074064
 30
0.0
 10
198.419393956
 20
160.1115783449
 30
0.0
  0
SPLINE
  5
575
100
AcDbEntity
  8
0
100
AcDbSpline
 62
7
  6
CONTINUOUS
 70
0
 71
3
 72
10
 73
6
 74
0
 42
0.0000001
 43
0.0000001
 44
0.0000000001
 40
0.0
 40
0.0
 40
0.0
 40
0.0
 40
0.4925798221
 40
0.7383299849
 40
1.0
 40
1.0
 40
1.0
 40
1.0
 10
90.4140216928
 20
135.3967676871
 30
0.0
 10
90.5241171509
 20
135.3852669977
 30
0.0
 10
90.6963595435
 20
135.3953944162
 30
0.0
 10
90.9018626031
 20
135.4921097839
 30
0.0
 10
90.9888277771
 20
135.5686035919
 30
0.0
 10
91.0276098046
 20
135.6128055176
 30
0.0
  0
SPLINE
  5
576
100
AcDbEntity
  8
KONSTRUKTIONSELEMENTE
100
AcDbSpline
 62
7
  6
CONTINUOUS
 70
0
 71
3
 72
9
 73
5
 74
0
 42
0.0000001
 43
0.0000001
 44
0.0000000001
 40
0.0
 40
0.0
 40
0.0
 40
0.0
 40
0.5068079903
 40
1.0
 40
1.0
 40
1.0
 40
1.0
 10
55.8801741405
 20
176.7429949323
 30
0.0
 10
55.8152056454
 20
176.5646560002
 30
0.0
 10
55.7163349115
 20
176.2011586165
 30
0.0
 10
55.6840501503
 20
175.8258455967
 30
0.0
 10
55.6841103058
 20
175.6411405978
 30
0.0
  0
SPLINE
  5
577
100
AcDbEntity
  8
KONSTRUKTIONSELEMENTE
100
AcDbSpline
 62
7
  6
CONTINUOUS
 70
0
 71
3
 72
10
 73
6
 74
0
 42
0.0000001
 43
0.0000001
 44
0.0000000001
 40
0.0
 40
0.0
 40
0.0
 40
0.0
 40
0.2482551275
 40
0.4985582548
 40
1.0
 40
1.0
 40
1.0
 40
1.0
 10
57.08809341
 20
139.3661777073
 30
0.0
 10
56.8294945116
 20
139.8533478849
 30
0.0
 10
56.4013698243
 20
140.8814093201
 30
0.0
 10
55.8355876607
 20
143.0337499534
 30
0.0
 10
55.6839565678
 20
144.7123091622
 30
0.0
 10
55.6841103058
 20
145.8263668843
 30
0.0
  0
SPLINE
  5
578
100
AcDbEntity
  8
0
100
AcDbSpline
 62
7
  6
CONTINUOUS
 70
0
 71
3
 72
9
 73
5
 74
0
 42
0.0000001
 43
0.0000001
 44
0.0000000001
 40
0.0
 40
0.0
 40
0.0
 40
0.0
 40
0.2505634779
 40
1.0
 40
1.0
 40
1.0
 40
1.0
 10
91.0276098046
 20
135.6128055176
 30
0.0
 10
91.1311294857
 20
136.1003876745
 30
0.0
 10
91.5376931735
 20
138.0477057668
 30
0.0
 10
91.9149965468
 20
140.0012648309
 30
0.0
 10
92.1739483474
 20
141.4694707698
 30
0.0
  0
SPLINE
  5
579
100
AcDbEntity
  8
KONSTRUKTIONSELEMENTE
100
AcDbSpline
 62
7
  6
CONTINUOUS
 70
0
 71
3
 72
9
 73
5
 74
0
 42
0.0000001
 43
0.0000001
 44
0.0000000001
 40
0.0
 40
0.0
 40
0.0
 40
0.0
 40
0.5431378298
 40
1.0
 40
1.0
 40
1.0
 40
1.0
 10
57.08809341
 20
139.3661777073
 30
0.0
 10
57.1626554306
 20
139.2256939877
 30
0.0
 10
57.3340686775
 20
138.9815198764
 30
0.0
 10
57.5965100622
 20
138.8221720111
 30
0.0
 10
57.7264708656
 20
138.7904307864
 30
0.0
  0
SPLINE
  5
57A
100
AcDbEntity
  8
KONSTRUKTIONSELEMENTE
100
AcDbSpline
 62
7
  6
CONTINUOUS
 70
0
 71
3
 72
9
 73
5
 74
0
 42
0.0000001
 43
0.0000001
 44
0.0000000001
 40
0.0
 40
0.0
 40
0.0
 40
0.0
 40
0.4680708342
 40
1.0
 40
1.0
 40
1.0
 40
1.0
 10
58.2868110129
 20
138.9496926704
 30
0.0
 10
59.2380717145
 20
139.9013632909
 30
0.0
 10
61.451996798
 20
141.7595200939
 30
0.0
 10
64.0435534693
 20
143.0997815495
 30
0.0
 10
65.4940876229
 20
143.5837786526
 30
0.0
  0
SPLINE
  5
57B
100
AcDbEntity
  8
KONSTRUKTIONSELEMENTE
100
AcDbSpline
 62
7
  6
CONTINUOUS
 70
0
 71
3
 72
9
 73
5
 74
0
 42
0.0000001
 43
0.0000001
 44
0.0000000001
 40
0.0
 40
0.0
 40
0.0
 40
0.0
 40
0.5243514278
 40
1.0
 40
1.0
 40
1.0
 40
1.0
 10
89.6010501043
 20
135.954860067
 30
0.0
 10
89.6409222952
 20
135.9267812536
 30
0.0
 10
89.6955349933
 20
135.8458335024
 30
0.0
 10
89.7280183752
 20
135.7592907362
 30
0.0
 10
89.7413098938
 20
135.7170974019
 30
0.0
  0
SPLINE
  5
57C
100
AcDbEntity
  8
0
100
AcDbSpline
 62
7
  6
CONTINUOUS
 70
0
 71
3
 72
9
 73
5
 74
0
 42
0.0000001
 43
0.0000001
 44
0.0000000001
 40
0.0
 40
0.0
 40
0.0
 40
0.0
 40
0.5261716646
 40
1.0
 40
1.0
 40
1.0
 40
1.0
 10
91.9861352335
 20
154.0485990765
 30
0.0
 10
92.298559214
 20
154.0551206175
 30
0.0
 10
92.8960192752
 20
154.1704956647
 30
0.0
 10
93.4080948222
 20
154.5187589398
 30
0.0
 10
93.5883699091
 20
154.7348374654
 30
0.0
  0
SPLINE
  5
57D
100
AcDbEntity
  8
0
100
AcDbSpline
 62
7
  6
CONTINUOUS
 70
0
 71
3
 72
11
 73
7
 74
0
 42
0.0000001
 43
0.0000001
 44
0.0000000001
 40
0.0
 40
0.0
 40
0.0
 40
0.0
 40
0.2799489575
 40
0.5455434652
 40
0.7872998517
 40
1.0
 40
1.0
 40
1.0
 40
1.0
 10
91.9275163348
 20
154.9398021785
 30
0.0
 10
92.095338069
 20
154.9326681519
 30
0.0
 10
92.4239745491
 20
154.9428588073
 30
0.0
 10
92.8902188341
 20
155.031256107
 30
0.0
 10
93.2960353766
 20
155.1864711629
 30
0.0
 10
93.5260927412
 20
155.3395451083
 30
0.0
 10
93.6201165718
 20
155.4258420796
 30
0.0
  0
SPLINE
  5
57E
100
AcDbEntity
  8
0
100
AcDbSpline
 62
7
  6
CONTINUOUS
 70
0
 71
3
 72
11
 73
7
 74
0
 42
0.0000001
 43
0.0000001
 44
0.0000000001
 40
0.0
 40
0.0
 40
0.0
 40
0.0
 40
0.2500036788
 40
0.5000047289
 40
0.7500031293
 40
1.0
 40
1.0
 40
1.0
 40
1.0
 10
94.2111629813
 20
162.3968938454
 30
0.0
 10
94.393514614
 20
163.9565110557
 30
0.0
 10
94.7331077053
 20
167.0787727365
 30
0.0
 10
95.1377081103
 20
171.7725675733
 30
0.0
 10
95.4023188608
 20
176.4765903641
 30
0.0
 10
95.464114003
 20
179.6173079876
 30
0.0
 10
95.4641117376
 20
181.1875065966
 30
0.0
  0
SPLINE
  5
57F
100
AcDbEntity
  8
0
100
AcDbSpline
 62
7
  6
CONTINUOUS
 70
0
 71
3
 72
9
 73
5
 74
0
 42
0.0000001
 43
0.0000001
 44
0.0000000001
 40
0.0
 40
0.0
 40
0.0
 40
0.0
 40
0.2387100879
 40
1.0
 40
1.0
 40
1.0
 40
1.0
 10
93.9980901378
 20
160.1115783513
 30
0.0
 10
94.010258146
 20
160.2938143573
 30
0.0
 10
94.0670576708
 20
161.0568389976
 30
0.0
 10
94.143519523
 20
161.8183570161
 30
0.0
 10
94.2111629813
 20
162.3968938454
 30
0.0
  0
SPLINE
  5
580
100
AcDbEntity
  8
KONSTRUKTIONSELEMENTE
100
AcDbSpline
 62
7
  6
CONTINUOUS
 70
0
 71
3
 72
9
 73
5
 74
0
 42
0.0000001
 43
0.0000001
 44
0.0000000001
 40
0.0
 40
0.0
 40
0.0
 40
0.0
 40
0.5163634039
 40
1.0
 40
1.0
 40
1.0
 40
1.0
 10
91.9273580065
 20
154.9397913139
 30
0.0
 10
91.814052857
 20
154.944607865
 30
0.0
 10
91.5916586457
 20
154.9112087773
 30
0.0
 10
91.3913466539
 20
154.8163500039
 30
0.0
 10
91.3001934522
 20
154.7618180383
 30
0.0
  0
SPLINE
  5
581
100
AcDbEntity
  8
KONSTRUKTIONSELEMENTE
100
AcDbSpline
 62
7
  6
CONTINUOUS
 70
0
 71
3
 72
9
 73
5
 74
0
 42
0.0000001
 43
0.0000001
 44
0.0000000001
 40
0.0
 40
0.0
 40
0.0
 40
0.0
 40
0.4916564118
 40
1.0
 40
1.0
 40
1.0
 40
1.0
 10
57.7264708656
 20
138.7904307864
 30
0.0
 10
57.8225285112
 20
138.7669699641
 30
0.0
 10
58.0342178102
 20
138.7658139194
 30
0.0
 10
58.214537454
 20
138.8773888625
 30
0.0
 10
58.2868151341
 20
138.9496964795
 30
0.0
  0
SPLINE
  5
582
100
AcDbEntity
  8
0
100
AcDbSpline
 62
7
  6
CONTINUOUS
 70
0
 71
3
 72
13
 73
9
 74
0
 42
0.0000001
 43
0.0000001
 44
0.0000000001
 40
0.0
 40
0.0
 40
0.0
 40
0.0
 40
0.1197098149
 40
0.2490524533
 40
0.37991079
 40
0.5094459009
 40
0.7606984609
 40
1.0
 40
1.0
 40
1.0
 40
1.0
 10
89.7413098938
 20
135.7170974019
 30
0.0
 10
89.7504800634
 20
135.6879871065
 30
0.0
 10
89.7969691918
 20
135.639049734
 30
0.0
 10
89.8750554479
 20
135.5836353455
 30
0.0
 10
89.9620269813
 20
135.5345585917
 30
0.0
 10
90.0802230575
 20
135.479433129
 30
0.0
 10
90.2299989878
 20
135.4271489638
 30
0.0
 10
90.3533409669
 20
135.4031064607
 30
0.0
 10
90.4140216928
 20
135.3967676871
 30
0.0
  0
SPLINE
  5
583
100
AcDbEntity
  8
0
100
AcDbSpline
 62
7
  6
CONTINUOUS
 70
0
 71
3
 72
10
 73
6
 74
0
 42
0.0000001
 43
0.0000001
 44
0.0000000001
 40
0.0
 40
0.0
 40
0.0
 40
0.0
 40
0.5015174229
 40
0.7510144732
 40
1.0
 40
1.0
 40
1.0
 40
1.0
 10
92.1739483474
 20
141.4694707698
 30
0.0
 10
92.5616611568
 20
143.6677263841
 30
0.0
 10
93.0630617607
 20
146.9757353255
 30
0.0
 10
93.4684786486
 20
151.4092729079
 30
0.0
 10
93.5671695491
 20
153.6268400716
 30
0.0
 10
93.5883699091
 20
154.7348374654
 30
0.0
  0
SPLINE
  5
584
100
AcDbEntity
  8
KONSTRUKTIONSELEMENTE
100
AcDbSpline
 62
7
  6
CONTINUOUS
 70
0
 71
3
 72
9
 73
5
 74
0
 42
0.0000001
 43
0.0000001
 44
0.0000000001
 40
0.0
 40
0.0
 40
0.0
 40
0.0
 40
0.2476064982
 40
1.0
 40
1.0
 40
1.0
 40
1.0
 10
55.6841103058
 20
175.6411405978
 30
0.0
 10
55.6841251462
 20
175.5955736665
 30
0.0
 10
55.6880492224
 20
175.4115576575
 30
0.0
 10
55.7073790999
 20
175.2279342283
 30
0.0
 10
55.7296865797
 20
175.0912802994
 30
0.0
  0
SPLINE
  5
585
100
AcDbEntity
  8
KONSTRUKTIONSELEMENTE
100
AcDbSpline
 62
7
  6
CONTINUOUS
 70
0
 71
3
 72
8
 73
4
 74
0
 42
0.0000001
 43
0.0000001
 44
0.0000000001
 40
0.0
 40
0.0
 40
0.0
 40
0.0
 40
1.0
 40
1.0
 40
1.0
 40
1.0
 10
91.9861197409
 20
154.0485981731
 30
0.0
 10
91.9521168575
 20
154.0478883966
 30
0.0
 10
91.9180233412
 20
154.0431663336
 30
0.0
 10
91.884988363
 20
154.0350799208
 30
0.0
  0
SPLINE
  5
586
100
AcDbEntity
  8
0
100
AcDbSpline
 62
7
  6
CONTINUOUS
 70
0
 71
3
 72
8
 73
4
 74
0
 42
0.0000001
 43
0.0000001
 44
0.0000000001
 40
0.0
 40
0.0
 40
0.0
 40
0.0
 40
1.0
 40
1.0
 40
1.0
 40
1.0
 10
153.4103717449
 20
180.382066768
 30
0.0
 10
153.4103717449
 20
179.7846465524
 30
0.0
 10
153.4538192394
 20
179.3827456053
 30
0.0
 10
153.5492943203
 20
179.1645168875
 30
0.0
  0
SPLINE
  5
587
100
AcDbEntity
  8
0
100
AcDbSpline
 62
7
  6
CONTINUOUS
 70
0
 71
3
 72
8
 73
4
 74
0
 42
0.0000001
 43
0.0000001
 44
0.0000000001
 40
0.0
 40
0.0
 40
0.0
 40
0.0
 40
1.0
 40
1.0
 40
1.0
 40
1.0
 10
153.5492943203
 20
179.1645168875
 30
0.0
 10
153.6439075115
 20
178.9482582029
 30
0.0
 10
153.8285655621
 20
178.7853253971
 30
0.0
 10
154.1046347645
 20
178.6797693088
 30
0.0
  0
SPLINE
  5
588
100
AcDbEntity
  8
0
100
AcDbSpline
 62
7
  6
CONTINUOUS
 70
0
 71
3
 72
8
 73
4
 74
0
 42
0.0000001
 43
0.0000001
 44
0.0000000001
 40
0.0
 40
0.0
 40
0.0
 40
0.0
 40
1.0
 40
1.0
 40
1.0
 40
1.0
 10
154.1046347645
 20
178.6797693088
 30
0.0
 10
154.382535899
 20
178.5735127743
 30
0.0
 10
154.6975402477
 20
178.5192018415
 30
0.0
 10
155.0451297405
 20
178.5192018415
 30
0.0
  0
SPLINE
  5
589
100
AcDbEntity
  8
0
100
AcDbSpline
 62
7
  6
CONTINUOUS
 70
0
 71
3
 72
8
 73
4
 74
0
 42
0.0000001
 43
0.0000001
 44
0.0000000001
 40
0.0
 40
0.0
 40
0.0
 40
0.0
 40
1.0
 40
1.0
 40
1.0
 40
1.0
 10
155.0451297405
 20
178.5192018415
 30
0.0
 10
155.2623729351
 20
178.5192018415
 30
0.0
 10
155.5556525829
 20
178.5354951288
 30
0.0
 10
155.9303989056
 20
178.568081681
 30
0.0
  0
SPLINE
  5
58A
100
AcDbEntity
  8
0
100
AcDbSpline
 62
7
  6
CONTINUOUS
 70
0
 71
3
 72
8
 73
4
 74
0
 42
0.0000001
 43
0.0000001
 44
0.0000000001
 40
0.0
 40
0.0
 40
0.0
 40
0.0
 40
1.0
 40
1.0
 40
1.0
 40
1.0
 10
155.9303989056
 20
179.7357666906
 30
0.0
 10
155.745740855
 20
179.8009398397
 30
0.0
 10
155.6099643353
 20
179.8389574702
 30
0.0
 10
155.5175390583
 20
179.84891094
 30
0.0
  0
SPLINE
  5
58B
100
AcDbEntity
  8
0
100
AcDbSpline
 62
7
  6
CONTINUOUS
 70
0
 71
3
 72
8
 73
4
 74
0
 42
0.0000001
 43
0.0000001
 44
0.0000000001
 40
0.0
 40
0.0
 40
0.0
 40
0.0
 40
1.0
 40
1.0
 40
1.0
 40
1.0
 10
155.5175390583
 20
179.84891094
 30
0.0
 10
155.2569427136
 20
179.8769751008
 30
0.0
 10
155.0994414929
 20
179.9258549626
 30
0.0
 10
155.0451303327
 20
179.991028486
 30
0.0
  0
SPLINE
  5
58C
100
AcDbEntity
  8
0
100
AcDbSpline
 62
7
  6
CONTINUOUS
 70
0
 71
3
 72
8
 73
4
 74
0
 42
0.0000001
 43
0.0000001
 44
0.0000000001
 40
0.0
 40
0.0
 40
0.0
 40
0.0
 40
1.0
 40
1.0
 40
1.0
 40
1.0
 10
155.0451303327
 20
179.991028486
 30
0.0
 10
154.9908198956
 20
180.0562011417
 30
0.0
 10
154.9636630657
 20
180.1865474399
 30
0.0
 10
154.9636630657
 20
180.39292888
 30
0.0
  0
SPLINE
  5
58D
100
AcDbEntity
  8
0
100
AcDbSpline
 62
7
  6
CONTINUOUS
 70
0
 71
3
 72
8
 73
4
 74
0
 42
0.0000001
 43
0.0000001
 44
0.0000000001
 40
0.0
 40
0.0
 40
0.0
 40
0.0
 40
1.0
 40
1.0
 40
1.0
 40
1.0
 10
150.4504251126
 20
185.0582379516
 30
0.0
 10
149.7552451733
 20
184.21098749
 30
0.0
 10
149.2392911556
 20
183.4832209762
 30
0.0
 10
148.8971324236
 20
182.8695074659
 30
0.0
  0
SPLINE
  5
58E
100
AcDbEntity
  8
0
100
AcDbSpline
 62
7
  6
CONTINUOUS
 70
0
 71
3
 72
8
 73
4
 74
0
 42
0.0000001
 43
0.0000001
 44
0.0000000001
 40
0.0
 40
0.0
 40
0.0
 40
0.0
 40
1.0
 40
1.0
 40
1.0
 40
1.0
 10
148.8971324236
 20
182.8695074659
 30
0.0
 10
148.5549735668
 20
182.255793732
 30
0.0
 10
148.2834195736
 20
181.6420802291
 30
0.0
 10
148.0854468906
 20
181.0346028664
 30
0.0
  0
SPLINE
  5
58F
100
AcDbEntity
  8
0
100
AcDbSpline
 62
7
  6
CONTINUOUS
 70
0
 71
3
 72
8
 73
4
 74
0
 42
0.0000001
 43
0.0000001
 44
0.0000000001
 40
0.0
 40
0.0
 40
0.0
 40
0.0
 40
1.0
 40
1.0
 40
1.0
 40
1.0
 10
148.0854468906
 20
181.0346028664
 30
0.0
 10
147.8869495037
 20
180.4255154546
 30
0.0
 10
147.7403096798
 20
179.6434380825
 30
0.0
 10
147.6534127834
 20
178.6875657256
 30
0.0
  0
SPLINE
  5
590
100
AcDbEntity
  8
0
100
AcDbSpline
 62
7
  6
CONTINUOUS
 70
0
 71
3
 72
8
 73
4
 74
0
 42
0.0000001
 43
0.0000001
 44
0.0000000001
 40
0.0
 40
0.0
 40
0.0
 40
0.0
 40
1.0
 40
1.0
 40
1.0
 40
1.0
 10
149.2664470318
 20
178.6875657256
 30
0.0
 10
149.3642062786
 20
179.9204237874
 30
0.0
 10
149.6248988751
 20
181.0283667262
 30
0.0
 10
150.044073168
 20
182.010976224
 30
0.0
  0
SPLINE
  5
591
100
AcDbEntity
  8
0
100
AcDbSpline
 62
7
  6
CONTINUOUS
 70
0
 71
3
 72
8
 73
4
 74
0
 42
0.0000001
 43
0.0000001
 44
0.0000000001
 40
0.0
 40
0.0
 40
0.0
 40
0.0
 40
1.0
 40
1.0
 40
1.0
 40
1.0
 10
150.044073168
 20
182.010976224
 30
0.0
 10
150.461287463
 20
182.9889911826
 30
0.0
 10
151.0698161294
 20
183.9601946548
 30
0.0
 10
151.8896646145
 20
184.9061674293
 30
0.0
  0
SPLINE
  5
592
100
AcDbEntity
  8
0
100
AcDbSpline
 62
7
  6
CONTINUOUS
 70
0
 71
3
 72
8
 73
4
 74
0
 42
0.0000001
 43
0.0000001
 44
0.0000000001
 40
0.0
 40
0.0
 40
0.0
 40
0.0
 40
1.0
 40
1.0
 40
1.0
 40
1.0
 10
144.2861346844
 20
178.568081681
 30
0.0
 10
144.2644099835
 20
178.0249723609
 30
0.0
 10
143.9711312893
 20
177.6447958167
 30
0.0
 10
143.400866473
 20
177.4275521453
 30
0.0
  0
SPLINE
  5
593
100
AcDbEntity
  8
0
100
AcDbSpline
 62
7
  6
CONTINUOUS
 70
0
 71
3
 72
8
 73
4
 74
0
 42
0.0000001
 43
0.0000001
 44
0.0000000001
 40
0.0
 40
0.0
 40
0.0
 40
0.0
 40
1.0
 40
1.0
 40
1.0
 40
1.0
 10
143.400866473
 20
176.8084075864
 30
0.0
 10
144.4870853069
 20
177.0365134891
 30
0.0
 10
145.0301942471
 20
177.7099689658
 30
0.0
 10
145.0301942471
 20
178.8287741508
 30
0.0
  0
SPLINE
  5
594
100
AcDbEntity
  8
0
100
AcDbSpline
 62
7
  6
CONTINUOUS
 70
0
 71
3
 72
8
 73
4
 74
0
 42
0.0000001
 43
0.0000001
 44
0.0000000001
 40
0.0
 40
0.0
 40
0.0
 40
0.0
 40
1.0
 40
1.0
 40
1.0
 40
1.0
 10
138.3825710324
 20
182.1851543281
 30
0.0
 10
138.5943493488
 20
182.3915712054
 30
0.0
 10
138.8604728821
 20
182.5001930411
 30
0.0
 10
139.1863383892
 20
182.5001930411
 30
0.0
  0
SPLINE
  5
595
100
AcDbEntity
  8
0
100
AcDbSpline
 62
7
  6
CONTINUOUS
 70
0
 71
3
 72
8
 73
4
 74
0
 42
0.0000001
 43
0.0000001
 44
0.0000000001
 40
0.0
 40
0.0
 40
0.0
 40
0.0
 40
1.0
 40
1.0
 40
1.0
 40
1.0
 10
139.1863383892
 20
182.5001930411
 30
0.0
 10
139.5176350716
 20
182.5001930411
 30
0.0
 10
139.7837586048
 20
182.380708855
 30
0.0
 10
139.9830960317
 20
182.1404119308
 30
0.0
  0
SPLINE
  5
596
100
AcDbEntity
  8
0
100
AcDbSpline
 62
7
  6
CONTINUOUS
 70
0
 71
3
 72
8
 73
4
 74
0
 42
0.0000001
 43
0.0000001
 44
0.0000000001
 40
0.0
 40
0.0
 40
0.0
 40
0.0
 40
1.0
 40
1.0
 40
1.0
 40
1.0
 10
139.9830960317
 20
182.1404119308
 30
0.0
 10
140.1802286747
 20
181.9027728255
 30
0.0
 10
140.2834190968
 20
181.5769073184
 30
0.0
 10
140.2834190968
 20
181.1750063117
 30
0.0
  0
SPLINE
  5
597
100
AcDbEntity
  8
0
100
AcDbSpline
 62
7
  6
CONTINUOUS
 70
0
 71
3
 72
8
 73
4
 74
0
 42
0.0000001
 43
0.0000001
 44
0.0000000001
 40
0.0
 40
0.0
 40
0.0
 40
0.0
 40
1.0
 40
1.0
 40
1.0
 40
1.0
 10
140.2834190968
 20
181.1750063117
 30
0.0
 10
140.2834190968
 20
180.7839676555
 30
0.0
 10
140.1910905483
 20
180.4581020291
 30
0.0
 10
140.0118645458
 20
180.1974096076
 30
0.0
  0
SPLINE
  5
598
100
AcDbEntity
  8
0
100
AcDbSpline
 62
7
  6
CONTINUOUS
 70
0
 71
3
 72
8
 73
4
 74
0
 42
0.0000001
 43
0.0000001
 44
0.0000000001
 40
0.0
 40
0.0
 40
0.0
 40
0.0
 40
1.0
 40
1.0
 40
1.0
 40
1.0
 10
140.0118645458
 20
180.1974096076
 30
0.0
 10
139.8326384667
 20
179.9367170747
 30
0.0
 10
139.5610837582
 20
179.8118019517
 30
0.0
 10
139.2026316765
 20
179.8118019517
 30
0.0
  0
SPLINE
  5
599
100
AcDbEntity
  8
0
100
AcDbSpline
 62
7
  6
CONTINUOUS
 70
0
 71
3
 72
8
 73
4
 74
0
 42
0.0000001
 43
0.0000001
 44
0.0000000001
 40
0.0
 40
0.0
 40
0.0
 40
0.0
 40
1.0
 40
1.0
 40
1.0
 40
1.0
 10
139.2026316765
 20
179.8118019517
 30
0.0
 10
138.8604728821
 20
179.8118019517
 30
0.0
 10
138.5834869984
 20
179.9312860187
 30
0.0
 10
138.3755718553
 20
180.1689033674
 30
0.0
  0
SPLINE
  5
59A
100
AcDbEntity
  8
0
100
AcDbSpline
 62
7
  6
CONTINUOUS
 70
0
 71
3
 72
8
 73
4
 74
0
 42
0.0000001
 43
0.0000001
 44
0.0000000001
 40
0.0
 40
0.0
 40
0.0
 40
0.0
 40
1.0
 40
1.0
 40
1.0
 40
1.0
 10
138.3755718553
 20
180.1689033674
 30
0.0
 10
138.1652929428
 20
180.4092221673
 30
0.0
 10
138.0621022824
 20
180.7513810809
 30
0.0
 10
138.0621022824
 20
181.202161711
 30
0.0
  0
SPLINE
  5
59B
100
AcDbEntity
  8
0
100
AcDbSpline
 62
7
  6
CONTINUOUS
 70
0
 71
3
 72
8
 73
4
 74
0
 42
0.0000001
 43
0.0000001
 44
0.0000000001
 40
0.0
 40
0.0
 40
0.0
 40
0.0
 40
1.0
 40
1.0
 40
1.0
 40
1.0
 10
138.0621022824
 20
181.202161711
 30
0.0
 10
138.0621022824
 20
181.6475114043
 30
0.0
 10
138.1652929428
 20
181.9733769115
 30
0.0
 10
138.3825710324
 20
182.1851543281
 30
0.0
  0
SPLINE
  5
59C
100
AcDbEntity
  8
0
100
AcDbSpline
 62
7
  6
CONTINUOUS
 70
0
 71
3
 72
8
 73
4
 74
0
 42
0.0000001
 43
0.0000001
 44
0.0000000001
 40
0.0
 40
0.0
 40
0.0
 40
0.0
 40
1.0
 40
1.0
 40
1.0
 40
1.0
 10
139.3275467995
 20
186.589806002
 30
0.0
 10
137.432095373
 20
186.589806002
 30
0.0
 10
136.4870851877
 20
185.1559976752
 30
0.0
 10
136.4870851877
 20
182.2938114818
 30
0.0
  0
SPLINE
  5
59D
100
AcDbEntity
  8
0
100
AcDbSpline
 62
7
  6
CONTINUOUS
 70
0
 71
3
 72
8
 73
4
 74
0
 42
0.0000001
 43
0.0000001
 44
0.0000000001
 40
0.0
 40
0.0
 40
0.0
 40
0.0
 40
1.0
 40
1.0
 40
1.0
 40
1.0
 10
136.4870851877
 20
182.2938114818
 30
0.0
 10
136.4870851877
 20
181.0175046142
 30
0.0
 10
136.7260533217
 20
180.0670633729
 30
0.0
 10
137.2148517052
 20
179.4479187573
 30
0.0
  0
SPLINE
  5
59E
100
AcDbEntity
  8
0
100
AcDbSpline
 62
7
  6
CONTINUOUS
 70
0
 71
3
 72
8
 73
4
 74
0
 42
0.0000001
 43
0.0000001
 44
0.0000000001
 40
0.0
 40
0.0
 40
0.0
 40
0.0
 40
1.0
 40
1.0
 40
1.0
 40
1.0
 10
137.2148517052
 20
179.4479187573
 30
0.0
 10
137.7036500815
 20
178.8287741508
 30
0.0
 10
138.3825366142
 20
178.5192018415
 30
0.0
 10
139.2515115383
 20
178.5192018415
 30
0.0
  0
SPLINE
  5
59F
100
AcDbEntity
  8
0
100
AcDbSpline
 62
7
  6
CONTINUOUS
 70
0
 71
3
 72
8
 73
4
 74
0
 42
0.0000001
 43
0.0000001
 44
0.0000000001
 40
0.0
 40
0.0
 40
0.0
 40
0.0
 40
1.0
 40
1.0
 40
1.0
 40
1.0
 10
139.2515115383
 20
178.5192018415
 30
0.0
 10
140.0498823765
 20
178.5192018415
 30
0.0
 10
140.6853198651
 20
178.7744632106
 30
0.0
 10
141.1523941313
 20
179.2849860583
 30
0.0
  0
SPLINE
  5
5A0
100
AcDbEntity
  8
0
100
AcDbSpline
 62
7
  6
CONTINUOUS
 70
0
 71
3
 72
8
 73
4
 74
0
 42
0.0000001
 43
0.0000001
 44
0.0000000001
 40
0.0
 40
0.0
 40
0.0
 40
0.0
 40
1.0
 40
1.0
 40
1.0
 40
1.0
 10
141.1523941313
 20
179.2849860583
 30
0.0
 10
141.6194681767
 20
179.7955086644
 30
0.0
 10
141.8584360722
 20
180.4689642604
 30
0.0
 10
141.8584360722
 20
181.3053526099
 30
0.0
  0
SPLINE
  5
5A1
100
AcDbEntity
  8
0
100
AcDbSpline
 62
7
  6
CONTINUOUS
 70
0
 71
3
 72
8
 73
4
 74
0
 42
0.0000001
 43
0.0000001
 44
0.0000000001
 40
0.0
 40
0.0
 40
0.0
 40
0.0
 40
1.0
 40
1.0
 40
1.0
 40
1.0
 10
141.8584360722
 20
181.3053526099
 30
0.0
 10
141.8584360722
 20
182.0765678104
 30
0.0
 10
141.6357612255
 20
182.6794192012
 30
0.0
 10
141.190411711
 20
183.1247688349
 30
0.0
  0
SPLINE
  5
5A2
100
AcDbEntity
  8
0
100
AcDbSpline
 62
7
  6
CONTINUOUS
 70
0
 71
3
 72
8
 73
4
 74
0
 42
0.0000001
 43
0.0000001
 44
0.0000000001
 40
0.0
 40
0.0
 40
0.0
 40
0.0
 40
1.0
 40
1.0
 40
1.0
 40
1.0
 10
141.190411711
 20
183.1247688349
 30
0.0
 10
140.7450623158
 20
183.5701183494
 30
0.0
 10
140.207384074
 20
183.792793196
 30
0.0
 10
139.5665149334
 20
183.792793196
 30
0.0
  0
SPLINE
  5
5A3
100
AcDbEntity
  8
0
100
AcDbSpline
 62
7
  6
CONTINUOUS
 70
0
 71
3
 72
8
 73
4
 74
0
 42
0.0000001
 43
0.0000001
 44
0.0000000001
 40
0.0
 40
0.0
 40
0.0
 40
0.0
 40
1.0
 40
1.0
 40
1.0
 40
1.0
 10
139.5665149334
 20
183.792793196
 30
0.0
 10
139.0125434044
 20
183.792793196
 30
0.0
 10
138.4802963379
 20
183.5701183494
 30
0.0
 10
137.9752046707
 20
183.1247686561
 30
0.0
  0
SPLINE
  5
5A4
100
AcDbEntity
  8
0
100
AcDbSpline
 62
7
  6
CONTINUOUS
 70
0
 71
3
 72
8
 73
4
 74
0
 42
0.0000001
 43
0.0000001
 44
0.0000000001
 40
0.0
 40
0.0
 40
0.0
 40
0.0
 40
1.0
 40
1.0
 40
1.0
 40
1.0
 10
137.9752046707
 20
183.1247686561
 30
0.0
 10
138.0621022824
 20
183.9774502929
 30
0.0
 10
138.2141728047
 20
184.5531462844
 30
0.0
 10
138.4309261338
 20
184.8522109144
 30
0.0
  0
SPLINE
  5
5A5
100
AcDbEntity
  8
0
100
AcDbSpline
 62
7
  6
CONTINUOUS
 70
0
 71
3
 72
8
 73
4
 74
0
 42
0.0000001
 43
0.0000001
 44
0.0000000001
 40
0.0
 40
0.0
 40
0.0
 40
0.0
 40
1.0
 40
1.0
 40
1.0
 40
1.0
 10
138.4309261338
 20
184.8522109144
 30
0.0
 10
138.6432292107
 20
185.1451353248
 30
0.0
 10
138.920214856
 20
185.2972058471
 30
0.0
 10
139.2678048256
 20
185.2972058471
 30
0.0
  0
SPLINE
  5
5A6
100
AcDbEntity
  8
0
100
AcDbSpline
 62
7
  6
CONTINUOUS
 70
0
 71
3
 72
8
 73
4
 74
0
 42
0.0000001
 43
0.0000001
 44
0.0000000001
 40
0.0
 40
0.0
 40
0.0
 40
0.0
 40
1.0
 40
1.0
 40
1.0
 40
1.0
 10
139.2678048256
 20
185.2972058471
 30
0.0
 10
139.6968612316
 20
185.2972058471
 30
0.0
 10
139.9847092274
 20
185.0473756011
 30
0.0
 10
140.1313485745
 20
184.5477151092
 30
0.0
  0
SPLINE
  5
5A7
100
AcDbEntity
  8
0
100
AcDbSpline
 62
7
  6
CONTINUOUS
 70
0
 71
3
 72
8
 73
4
 74
0
 42
0.0000001
 43
0.0000001
 44
0.0000000001
 40
0.0
 40
0.0
 40
0.0
 40
0.0
 40
1.0
 40
1.0
 40
1.0
 40
1.0
 10
141.7063655499
 20
184.5477151092
 30
0.0
 10
141.5162772778
 20
185.9054884132
 30
0.0
 10
140.7233376148
 20
186.589806002
 30
0.0
 10
139.3275467995
 20
186.589806002
 30
0.0
  0
SPLINE
  5
5A8
100
AcDbEntity
  8
0
100
AcDbSpline
 62
7
  6
CONTINUOUS
 70
0
 71
3
 72
11
 73
7
 74
0
 42
0.0000001
 43
0.0000001
 44
0.0000000001
 40
0.0
 40
0.0
 40
0.0
 40
0.0
 40
0.250021633
 40
0.5000281157
 40
0.7500198821
 40
1.0
 40
1.0
 40
1.0
 40
1.0
 10
128.9241377707
 20
195.887415067
 30
0.0
 10
129.728917686
 20
195.5038884333
 30
0.0
 10
131.338384097
 20
194.7365081663
 30
0.0
 10
133.7954043138
 20
193.6777354866
 30
0.0
 10
136.3102519995
 20
192.7633092796
 30
0.0
 10
138.0265280656
 20
192.2736324764
 30
0.0
 10
138.8926889297
 20
192.0632403772
 30
0.0
  0
SPLINE
  5
5A9
100
AcDbEntity
  8
0
100
AcDbSpline
 62
7
  6
CONTINUOUS
 70
0
 71
3
 72
11
 73
7
 74
0
 42
0.0000001
 43
0.0000001
 44
0.0000000001
 40
0.0
 40
0.0
 40
0.0
 40
0.0
 40
0.2499802757
 40
0.4999721243
 40
0.7499784579
 40
1.0
 40
1.0
 40
1.0
 40
1.0
 10
153.5247956913
 20
192.0632405049
 30
0.0
 10
154.3909570256
 20
192.2736327338
 30
0.0
 10
156.1072336096
 20
192.7633102978
 30
0.0
 10
158.6220814971
 20
193.6777361408
 30
0.0
 10
161.0791013023
 20
194.7365078389
 30
0.0
 10
162.6885664205
 20
195.5038884914
 30
0.0
 10
163.4933459918
 20
195.8874149183
 30
0.0
  0
SPLINE
  5
5AA
100
AcDbEntity
  8
0
100
AcDbSpline
 62
7
  6
CONTINUOUS
 70
0
 71
3
 72
8
 73
4
 74
0
 42
0.0000001
 43
0.0000001
 44
0.0000000001
 40
0.0
 40
0.0
 40
0.0
 40
0.0
 40
1.0
 40
1.0
 40
1.0
 40
1.0
 10
275.0481891261
 20
172.3591035531
 30
0.0
 10
274.7245253209
 20
172.6938617098
 30
0.0
 10
274.4009718282
 20
173.028726555
 30
0.0
 10
274.0775234364
 20
173.363692852
 30
0.0
  0
SPLINE
  5
5AB
100
AcDbEntity
  8
0
100
AcDbSpline
 62
7
  6
CONTINUOUS
 70
0
 71
3
 72
9
 73
5
 74
0
 42
0.0000001
 43
0.0000001
 44
0.0000000001
 40
0.0
 40
0.0
 40
0.0
 40
0.0
 40
0.24037046
 40
1.0
 40
1.0
 40
1.0
 40
1.0
 10
275.7046674691
 20
171.7740219648
 30
0.0
 10
275.6506486695
 20
171.8192662739
 30
0.0
 10
275.4276477648
 20
172.0095582034
 30
0.0
 10
275.2105685371
 20
172.2067227819
 30
0.0
 10
275.0481891261
 20
172.3591035531
 30
0.0
  0
SPLINE
  5
5AC
100
AcDbEntity
  8
KONSTRUKTIONSELEMENTE
100
AcDbSpline
 62
7
  6
CONTINUOUS
 70
0
 71
3
 72
9
 73
5
 74
0
 42
0.0000001
 43
0.0000001
 44
0.0000000001
 40
0.0
 40
0.0
 40
0.0
 40
0.0
 40
0.5053996799
 40
1.0
 40
1.0
 40
1.0
 40
1.0
 10
275.970919538
 20
171.5811564341
 30
0.0
 10
276.1954149603
 20
171.4409204214
 30
0.0
 10
276.6860432618
 20
171.2336471591
 30
0.0
 10
277.2118914188
 20
171.1667504455
 30
0.0
 10
277.4709320737
 20
171.1667504455
 30
0.0
  0
SPLINE
  5
5AD
100
AcDbEntity
  8
0
100
AcDbSpline
 62
7
  6
CONTINUOUS
 70
0
 71
3
 72
11
 73
7
 74
0
 42
0.0000001
 43
0.0000001
 44
0.0000000001
 40
0.0
 40
0.0
 40
0.0
 40
0.0
 40
0.2442534451
 40
0.485454555
 40
0.7349937101
 40
1.0
 40
1.0
 40
1.0
 40
1.0
 10
273.971057046
 20
175.1443400974
 30
0.0
 10
273.903596247
 20
175.0212623756
 30
0.0
 10
273.7963502939
 20
174.7607870925
 30
0.0
 10
273.7270834015
 20
174.3403301318
 30
0.0
 10
273.7661776738
 20
173.902719383
 30
0.0
 10
273.8825249309
 20
173.6235317935
 30
0.0
 10
273.9652449287
 20
173.4956797889
 30
0.0
  0
LINE
  5
5AE
100
AcDbEntity
  8
0
100
AcDbLine
 62
7
  6
CONTINUOUS
 10
275.4707279795
 20
172.3585506128
 11
275.0481891261
 21
172.3591035531
  0
LINE
  5
5AF
100
AcDbEntity
  8
0
100
AcDbLine
 62
7
  6
CONTINUOUS
 10
273.9652449287
 20
173.4956797889
 11
274.1337981091
 21
173.7165081932
  0
LINE
  5
5B0
100
AcDbEntity
  8
0
100
AcDbLine
 62
7
  6
CONTINUOUS
 10
274.1337981091
 20
173.7165081932
 11
274.1512360894
 21
173.7393552842
  0
SPLINE
  5
5B1
100
AcDbEntity
  8
0
100
AcDbSpline
 62
7
  6
CONTINUOUS
 70
0
 71
3
 72
8
 73
4
 74
0
 42
0.0000001
 43
0.0000001
 44
0.0000000001
 40
0.0
 40
0.0
 40
0.0
 40
0.0
 40
1.0
 40
1.0
 40
1.0
 40
1.0
 10
310.7115429642
 20
136.695749715
 30
0.0
 10
311.0463011209
 20
136.3720859098
 30
0.0
 10
311.381165966
 20
136.0485324171
 30
0.0
 10
311.716132263
 20
135.7250840253
 30
0.0
  0
SPLINE
  5
5B2
100
AcDbEntity
  8
0
100
AcDbSpline
 62
7
  6
CONTINUOUS
 70
0
 71
3
 72
9
 73
5
 74
0
 42
0.0000001
 43
0.0000001
 44
0.0000000001
 40
0.0
 40
0.0
 40
0.0
 40
0.0
 40
0.24037046
 40
1.0
 40
1.0
 40
1.0
 40
1.0
 10
310.1264613759
 20
137.352228058
 30
0.0
 10
310.1717056849
 20
137.2982092585
 30
0.0
 10
310.3619976145
 20
137.0752083537
 30
0.0
 10
310.559162193
 20
136.858129126
 30
0.0
 10
310.7115429642
 20
136.695749715
 30
0.0
  0
SPLINE
  5
5B3
100
AcDbEntity
  8
KONSTRUKTIONSELEMENTE
100
AcDbSpline
 62
7
  6
CONTINUOUS
 70
0
 71
3
 72
9
 73
5
 74
0
 42
0.0000001
 43
0.0000001
 44
0.0000000001
 40
0.0
 40
0.0
 40
0.0
 40
0.0
 40
0.5077421251
 40
1.0
 40
1.0
 40
1.0
 40
1.0
 10
310.1264613759
 20
137.352228058
 30
0.0
 10
309.9204510919
 20
137.5981911075
 30
0.0
 10
309.6157201247
 20
138.1719299247
 30
0.0
 10
309.5191898565
 20
138.8074374645
 30
0.0
 10
309.5191898565
 20
139.1184926626
 30
0.0
  0
SPLINE
  5
5B4
100
AcDbEntity
  8
0
100
AcDbSpline
 62
7
  6
CONTINUOUS
 70
0
 71
3
 72
11
 73
7
 74
0
 42
0.0000001
 43
0.0000001
 44
0.0000000001
 40
0.0
 40
0.0
 40
0.0
 40
0.0
 40
0.2543764698
 40
0.4927096053
 40
0.738361945
 40
1.0
 40
1.0
 40
1.0
 40
1.0
 10
313.6558809589
 20
135.7170974019
 30
0.0
 10
313.5232646937
 20
135.6242384934
 30
0.0
 10
313.2393408222
 20
135.4809977869
 30
0.0
 10
312.7765571169
 20
135.3766860628
 30
0.0
 10
312.296133807
 20
135.4000069451
 30
0.0
 10
311.9879250293
 20
135.5223514185
 30
0.0
 10
311.8481192
 20
135.6128055176
 30
0.0
  0
SPLINE
  5
5B5
100
AcDbEntity
  8
0
100
AcDbSpline
 62
7
  6
CONTINUOUS
 70
0
 71
3
 72
9
 73
5
 74
0
 42
0.0000001
 43
0.0000001
 44
0.0000000001
 40
0.0
 40
0.0
 40
0.0
 40
0.0
 40
0.2494973901
 40
1.0
 40
1.0
 40
1.0
 40
1.0
 10
92.1737694566
 20
92.8947361519
 30
0.0
 10
92.0993677447
 20
93.3165577387
 30
0.0
 10
91.7932035597
 20
95.0058389278
 30
0.0
 10
91.4584995515
 20
96.6898743627
 30
0.0
 10
91.1957079156
 20
97.9512404388
 30
0.0
  0
SPLINE
  5
5B6
100
AcDbEntity
  8
KONSTRUKTIONSELEMENTE
100
AcDbSpline
 62
7
  6
CONTINUOUS
 70
0
 71
3
 72
10
 73
6
 74
0
 42
0.0000001
 43
0.0000001
 44
0.0000000001
 40
0.0
 40
0.0
 40
0.0
 40
0.0
 40
0.2482551275
 40
0.4985582549
 40
1.0
 40
1.0
 40
1.0
 40
1.0
 10
57.0880933881
 20
94.9970157109
 30
0.0
 10
56.8294944926
 20
94.5098455359
 30
0.0
 10
56.4013698146
 20
93.4817841051
 30
0.0
 10
55.835587658
 20
91.3294434866
 30
0.0
 10
55.6839565678
 20
89.6508842896
 30
0.0
 10
55.6841103058
 20
88.5368265754
 30
0.0
  0
SPLINE
  5
5B7
100
AcDbEntity
  8
KONSTRUKTIONSELEMENTE
100
AcDbSpline
 62
7
  6
CONTINUOUS
 70
0
 71
3
 72
9
 73
5
 74
0
 42
0.0000001
 43
0.0000001
 44
0.0000000001
 40
0.0
 40
0.0
 40
0.0
 40
0.0
 40
0.456862064
 40
1.0
 40
1.0
 40
1.0
 40
1.0
 10
57.7264727196
 20
95.5727631189
 30
0.0
 10
57.5965115752
 20
95.5410222088
 30
0.0
 10
57.3340692624
 20
95.3816743936
 30
0.0
 10
57.1626555865
 20
95.1374997585
 30
0.0
 10
57.0880933881
 20
94.9970157109
 30
0.0
  0
SPLINE
  5
5B8
100
AcDbEntity
  8
KONSTRUKTIONSELEMENTE
100
AcDbSpline
 62
7
  6
CONTINUOUS
 70
0
 71
3
 72
9
 73
5
 74
0
 42
0.0000001
 43
0.0000001
 44
0.0000000001
 40
0.0
 40
0.0
 40
0.0
 40
0.0
 40
0.5068079903
 40
1.0
 40
1.0
 40
1.0
 40
1.0
 10
55.8801741406
 20
57.620198527
 30
0.0
 10
55.8152056454
 20
57.7985374591
 30
0.0
 10
55.7163349115
 20
58.162034843
 30
0.0
 10
55.6840501503
 20
58.5373478628
 30
0.0
 10
55.6841103058
 20
58.7220528617
 30
0.0
  0
SPLINE
  5
5B9
100
AcDbEntity
  8
0
100
AcDbSpline
 62
7
  6
CONTINUOUS
 70
0
 71
3
 72
9
 73
5
 74
0
 42
0.0000001
 43
0.0000001
 44
0.0000000001
 40
0.0
 40
0.0
 40
0.0
 40
0.0
 40
0.5113333209
 40
1.0
 40
1.0
 40
1.0
 40
1.0
 10
91.1957079156
 20
97.9512404388
 30
0.0
 10
91.133871205
 20
98.0668271075
 30
0.0
 10
90.9898081656
 20
98.2818521062
 30
0.0
 10
90.794387781
 20
98.4537323907
 30
0.0
 10
90.6890100276
 20
98.5214809382
 30
0.0
  0
SPLINE
  5
5BA
100
AcDbEntity
  8
KONSTRUKTIONSELEMENTE
100
AcDbSpline
 62
7
  6
CONTINUOUS
 70
0
 71
3
 72
9
 73
5
 74
0
 42
0.0000001
 43
0.0000001
 44
0.0000000001
 40
0.0
 40
0.0
 40
0.0
 40
0.0
 40
0.5163634039
 40
1.0
 40
1.0
 40
1.0
 40
1.0
 10
91.9273580065
 20
79.4234021455
 30
0.0
 10
91.814052857
 20
79.4185855944
 30
0.0
 10
91.5916586457
 20
79.4519846821
 30
0.0
 10
91.3913466539
 20
79.5468434555
 30
0.0
 10
91.3001934522
 20
79.6013754211
 30
0.0
  0
SPLINE
  5
5BB
100
AcDbEntity
  8
0
100
AcDbSpline
 62
7
  6
CONTINUOUS
 70
0
 71
3
 72
11
 73
7
 74
0
 42
0.0000001
 43
0.0000001
 44
0.0000000001
 40
0.0
 40
0.0
 40
0.0
 40
0.0
 40
0.2127001483
 40
0.4544565348
 40
0.7200510425
 40
1.0
 40
1.0
 40
1.0
 40
1.0
 10
93.6201165718
 20
78.9373513798
 30
0.0
 10
93.5260927412
 20
79.0236483511
 30
0.0
 10
93.2960353766
 20
79.1767222965
 30
0.0
 10
92.8902188341
 20
79.3319373524
 30
0.0
 10
92.4239745491
 20
79.4203346521
 30
0.0
 10
92.095338069
 20
79.4305253075
 30
0.0
 10
91.9275163348
 20
79.4233912809
 30
0.0
  0
SPLINE
  5
5BC
100
AcDbEntity
  8
0
100
AcDbSpline
 62
7
  6
CONTINUOUS
 70
0
 71
3
 72
9
 73
5
 74
0
 42
0.0000001
 43
0.0000001
 44
0.0000000001
 40
0.0
 40
0.0
 40
0.0
 40
0.0
 40
0.4738283354
 40
1.0
 40
1.0
 40
1.0
 40
1.0
 10
93.5883699091
 20
79.628355994
 30
0.0
 10
93.4080948222
 20
79.8444345196
 30
0.0
 10
92.8960192752
 20
80.1926977947
 30
0.0
 10
92.298559214
 20
80.3080728419
 30
0.0
 10
91.9861352335
 20
80.3145943829
 30
0.0
  0
SPLINE
  5
5BD
100
AcDbEntity
  8
KONSTRUKTIONSELEMENTE
100
AcDbSpline
 62
7
  6
CONTINUOUS
 70
0
 71
3
 72
8
 73
4
 74
0
 42
0.0000001
 43
0.0000001
 44
0.0000000001
 40
0.0
 40
0.0
 40
0.0
 40
0.0
 40
1.0
 40
1.0
 40
1.0
 40
1.0
 10
91.9861197409
 20
80.3145952863
 30
0.0
 10
91.9521168575
 20
80.3153050628
 30
0.0
 10
91.9180233412
 20
80.3200271258
 30
0.0
 10
91.884988363
 20
80.3281135386
 30
0.0
  0
SPLINE
  5
5BE
100
AcDbEntity
  8
0
100
AcDbSpline
 62
7
  6
CONTINUOUS
 70
0
 71
3
 72
13
 73
9
 74
0
 42
0.0000001
 43
0.0000001
 44
0.0000000001
 40
0.0
 40
0.0
 40
0.0
 40
0.0
 40
0.2682474857
 40
0.5293369793
 40
0.6572378755
 40
0.7820816132
 40
0.9005471495
 40
1.0
 40
1.0
 40
1.0
 40
1.0
 10
90.6890100276
 20
98.5214809382
 30
0.0
 10
90.6111412261
 20
98.5715436699
 30
0.0
 10
90.4459296351
 20
98.6536461928
 30
0.0
 10
90.2222452487
 20
98.7043861098
 30
0.0
 10
90.0448399222
 20
98.7101691318
 30
0.0
 10
89.9161487438
 20
98.6957208888
 30
0.0
 10
89.8045516488
 20
98.6646835848
 30
0.0
 10
89.733271085
 20
98.6195398511
 30
0.0
 10
89.7208754022
 20
98.5875348555
 30
0.0
  0
SPLINE
  5
5BF
100
AcDbEntity
  8
KONSTRUKTIONSELEMENTE
100
AcDbSpline
 62
7
  6
CONTINUOUS
 70
0
 71
3
 72
9
 73
5
 74
0
 42
0.0000001
 43
0.0000001
 44
0.0000000001
 40
0.0
 40
0.0
 40
0.0
 40
0.0
 40
0.5083436703
 40
1.0
 40
1.0
 40
1.0
 40
1.0
 10
58.2868151313
 20
95.4134969827
 30
0.0
 10
58.2145376616
 20
95.4858043894
 30
0.0
 10
58.0342187168
 20
95.5973790832
 30
0.0
 10
57.822530122
 20
95.5962235877
 30
0.0
 10
57.7264727196
 20
95.5727631189
 30
0.0
  0
SPLINE
  5
5C0
100
AcDbEntity
  8
KONSTRUKTIONSELEMENTE
100
AcDbSpline
 62
7
  6
CONTINUOUS
 70
0
 71
3
 72
9
 73
5
 74
0
 42
0.0000001
 43
0.0000001
 44
0.0000000001
 40
0.0
 40
0.0
 40
0.0
 40
0.0
 40
0.4680708342
 40
1.0
 40
1.0
 40
1.0
 40
1.0
 10
58.2868110146
 20
95.4135007877
 30
0.0
 10
59.2380717158
 20
94.4618301673
 30
0.0
 10
61.451996799
 20
92.603673365
 30
0.0
 10
64.0435534697
 20
91.2634119098
 30
0.0
 10
65.4940876229
 20
90.7794148068
 30
0.0
  0
SPLINE
  5
5C1
100
AcDbEntity
  8
KONSTRUKTIONSELEMENTE
100
AcDbSpline
 62
7
  6
CONTINUOUS
 70
0
 71
3
 72
9
 73
5
 74
0
 42
0.0000001
 43
0.0000001
 44
0.0000000001
 40
0.0
 40
0.0
 40
0.0
 40
0.0
 40
0.2476064982
 40
1.0
 40
1.0
 40
1.0
 40
1.0
 10
55.6841103058
 20
58.7220528617
 30
0.0
 10
55.6841251462
 20
58.7676197931
 30
0.0
 10
55.6880492224
 20
58.951635802
 30
0.0
 10
55.7073790999
 20
59.1352592312
 30
0.0
 10
55.7296865797
 20
59.27191316
 30
0.0
  0
SPLINE
  5
5C2
100
AcDbEntity
  8
0
100
AcDbSpline
 62
7
  6
CONTINUOUS
 70
0
 71
3
 72
10
 73
6
 74
0
 42
0.0000001
 43
0.0000001
 44
0.0000000001
 40
0.0
 40
0.0
 40
0.0
 40
0.0
 40
0.2489855882
 40
0.4984826353
 40
1.0
 40
1.0
 40
1.0
 40
1.0
 10
93.5883699091
 20
79.628355994
 30
0.0
 10
93.5671679103
 20
80.7364390359
 30
0.0
 10
93.4684649176
 20
82.9541773025
 30
0.0
 10
93.0629934878
 20
87.3880544638
 30
0.0
 10
92.5615312912
 20
90.6963147952
 30
0.0
 10
92.1737694566
 20
92.8947361519
 30
0.0
  0
SPLINE
  5
5C3
100
AcDbEntity
  8
KONSTRUKTIONSELEMENTE
100
AcDbSpline
 62
7
  6
CONTINUOUS
 70
0
 71
3
 72
9
 73
5
 74
0
 42
0.0000001
 43
0.0000001
 44
0.0000000001
 40
0.0
 40
0.0
 40
0.0
 40
0.0
 40
0.5253478617
 40
1.0
 40
1.0
 40
1.0
 40
1.0
 10
89.6010501043
 20
98.4083333924
 30
0.0
 10
89.632202864
 20
98.4302718038
 30
0.0
 10
89.6784601421
 20
98.4895258877
 30
0.0
 10
89.7084417233
 20
98.5554318614
 30
0.0
 10
89.7208749247
 20
98.5875337278
 30
0.0
  0
SPLINE
  5
5C4
100
AcDbEntity
  8
0
100
AcDbSpline
 62
7
  6
CONTINUOUS
 70
0
 71
3
 72
11
 73
7
 74
0
 42
0.0000001
 43
0.0000001
 44
0.0000000001
 40
0.0
 40
0.0
 40
0.0
 40
0.0
 40
0.2499969064
 40
0.4999952941
 40
0.7499963227
 40
1.0
 40
1.0
 40
1.0
 40
1.0
 10
95.4641117376
 20
53.175686266
 30
0.0
 10
95.464114014
 20
54.7458851488
 30
0.0
 10
95.4023186314
 20
57.8866030091
 30
0.0
 10
95.1377082409
 20
62.5906259758
 30
0.0
 10
94.7331076733
 20
67.2844207264
 30
0.0
 10
94.3935146187
 20
70.4066823638
 30
0.0
 10
94.2111629813
 20
71.9662996141
 30
0.0
  0
SPLINE
  5
5C5
100
AcDbEntity
  8
0
100
AcDbSpline
 62
7
  6
CONTINUOUS
 70
0
 71
3
 72
9
 73
5
 74
0
 42
0.0000001
 43
0.0000001
 44
0.0000000001
 40
0.0
 40
0.0
 40
0.0
 40
0.0
 40
0.2579036713
 40
1.0
 40
1.0
 40
1.0
 40
1.0
 10
94.2111629813
 20
71.9662996141
 30
0.0
 10
94.1882473542
 20
72.1622909866
 30
0.0
 10
94.103876804
 20
72.9227384014
 30
0.0
 10
94.035917625
 20
73.685086053
 30
0.0
 10
93.9980901374
 20
74.2516151145
 30
0.0
  0
SPLINE
  5
5C6
100
AcDbEntity
  8
0
100
AcDbSpline
 62
7
  6
CONTINUOUS
 70
0
 71
3
 72
10
 73
6
 74
0
 42
0.0000001
 43
0.0000001
 44
0.0000000001
 40
0.0
 40
0.0
 40
0.0
 40
0.0
 40
0.4925798221
 40
0.7383299849
 40
1.0
 40
1.0
 40
1.0
 40
1.0
 10
202.0034624005
 20
98.9664257723
 30
0.0
 10
201.8933669424
 20
98.9779264617
 30
0.0
 10
201.7211245499
 20
98.9677990432
 30
0.0
 10
201.5156214902
 20
98.8710836755
 30
0.0
 10
201.4286563162
 20
98.7945898675
 30
0.0
 10
201.3898742887
 20
98.7503879418
 30
0.0
  0
SPLINE
  5
5C7
100
AcDbEntity
  8
KONSTRUKTIONSELEMENTE
100
AcDbSpline
 62
7
  6
CONTINUOUS
 70
0
 71
3
 72
9
 73
5
 74
0
 42
0.0000001
 43
0.0000001
 44
0.0000000001
 40
0.0
 40
0.0
 40
0.0
 40
0.0
 40
0.5068079903
 40
1.0
 40
1.0
 40
1.0
 40
1.0
 10
236.5373099528
 20
57.6201985271
 30
0.0
 10
236.6022784479
 20
57.7985374592
 30
0.0
 10
236.7011491818
 20
58.1620348429
 30
0.0
 10
236.7334339431
 20
58.5373478627
 30
0.0
 10
236.7333737875
 20
58.7220528616
 30
0.0
  0
SPLINE
  5
5C8
100
AcDbEntity
  8
KONSTRUKTIONSELEMENTE
100
AcDbSpline
 62
7
  6
CONTINUOUS
 70
0
 71
3
 72
10
 73
6
 74
0
 42
0.0000001
 43
0.0000001
 44
0.0000000001
 40
0.0
 40
0.0
 40
0.0
 40
0.0
 40
0.2482551275
 40
0.4985582548
 40
1.0
 40
1.0
 40
1.0
 40
1.0
 10
235.3293906833
 20
94.9970157521
 30
0.0
 10
235.5879895817
 20
94.5098455745
 30
0.0
 10
236.016114269
 20
93.4817841393
 30
0.0
 10
236.5818964326
 20
91.329443506
 30
0.0
 10
236.7335275255
 20
89.6508842972
 30
0.0
 10
236.7333737875
 20
88.5368265751
 30
0.0
  0
SPLINE
  5
5C9
100
AcDbEntity
  8
0
100
AcDbSpline
 62
7
  6
CONTINUOUS
 70
0
 71
3
 72
9
 73
5
 74
0
 42
0.0000001
 43
0.0000001
 44
0.0000000001
 40
0.0
 40
0.0
 40
0.0
 40
0.0
 40
0.2505634779
 40
1.0
 40
1.0
 40
1.0
 40
1.0
 10
201.3898742887
 20
98.7503879418
 30
0.0
 10
201.2863546076
 20
98.262805785
 30
0.0
 10
200.8797909198
 20
96.3154876926
 30
0.0
 10
200.5024875465
 20
94.3619286285
 30
0.0
 10
200.2435357459
 20
92.8937226896
 30
0.0
  0
SPLINE
  5
5CA
100
AcDbEntity
  8
KONSTRUKTIONSELEMENTE
100
AcDbSpline
 62
7
  6
CONTINUOUS
 70
0
 71
3
 72
9
 73
5
 74
0
 42
0.0000001
 43
0.0000001
 44
0.0000000001
 40
0.0
 40
0.0
 40
0.0
 40
0.0
 40
0.5431378298
 40
1.0
 40
1.0
 40
1.0
 40
1.0
 10
235.3293906833
 20
94.9970157521
 30
0.0
 10
235.2548286627
 20
95.1374994717
 30
0.0
 10
235.0834154159
 20
95.3816735831
 30
0.0
 10
234.8209740311
 20
95.5410214483
 30
0.0
 10
234.6910132277
 20
95.572762673
 30
0.0
  0
SPLINE
  5
5CB
100
AcDbEntity
  8
KONSTRUKTIONSELEMENTE
100
AcDbSpline
 62
7
  6
CONTINUOUS
 70
0
 71
3
 72
9
 73
5
 74
0
 42
0.0000001
 43
0.0000001
 44
0.0000000001
 40
0.0
 40
0.0
 40
0.0
 40
0.0
 40
0.2476064982
 40
1.0
 40
1.0
 40
1.0
 40
1.0
 10
236.7333737875
 20
58.7220528616
 30
0.0
 10
236.7333589471
 20
58.7676197929
 30
0.0
 10
236.7294348709
 20
58.9516358019
 30
0.0
 10
236.7101049934
 20
59.1352592311
 30
0.0
 10
236.6877975137
 20
59.27191316
 30
0.0
  0
SPLINE
  5
5CC
100
AcDbEntity
  8
KONSTRUKTIONSELEMENTE
100
AcDbSpline
 62
7
  6
CONTINUOUS
 70
0
 71
3
 72
9
 73
5
 74
0
 42
0.0000001
 43
0.0000001
 44
0.0000000001
 40
0.0
 40
0.0
 40
0.0
 40
0.0
 40
0.4680708342
 40
1.0
 40
1.0
 40
1.0
 40
1.0
 10
234.1306730804
 20
95.4135007891
 30
0.0
 10
233.1794123788
 20
94.4618301685
 30
0.0
 10
230.9654872953
 20
92.6036733655
 30
0.0
 10
228.373930624
 20
91.2634119099
 30
0.0
 10
226.9233964704
 20
90.7794148068
 30
0.0
  0
SPLINE
  5
5CD
100
AcDbEntity
  8
KONSTRUKTIONSELEMENTE
100
AcDbSpline
 62
7
  6
CONTINUOUS
 70
0
 71
3
 72
9
 73
5
 74
0
 42
0.0000001
 43
0.0000001
 44
0.0000000001
 40
0.0
 40
0.0
 40
0.0
 40
0.0
 40
0.5243514278
 40
1.0
 40
1.0
 40
1.0
 40
1.0
 10
202.816433989
 20
98.4083333924
 30
0.0
 10
202.7765617981
 20
98.4364122058
 30
0.0
 10
202.7219491001
 20
98.5173599571
 30
0.0
 10
202.6894657181
 20
98.6039027232
 30
0.0
 10
202.6761741996
 20
98.6460960575
 30
0.0
  0
SPLINE
  5
5CE
100
AcDbEntity
  8
0
100
AcDbSpline
 62
7
  6
CONTINUOUS
 70
0
 71
3
 72
9
 73
5
 74
0
 42
0.0000001
 43
0.0000001
 44
0.0000000001
 40
0.0
 40
0.0
 40
0.0
 40
0.0
 40
0.5261716646
 40
1.0
 40
1.0
 40
1.0
 40
1.0
 10
200.4313488598
 20
80.3145943829
 30
0.0
 10
200.1189248793
 20
80.3080728419
 30
0.0
 10
199.5214648181
 20
80.1926977947
 30
0.0
 10
199.0093892711
 20
79.8444345196
 30
0.0
 10
198.8291141842
 20
79.628355994
 30
0.0
  0
SPLINE
  5
5CF
100
AcDbEntity
  8
0
100
AcDbSpline
 62
7
  6
CONTINUOUS
 70
0
 71
3
 72
11
 73
7
 74
0
 42
0.0000001
 43
0.0000001
 44
0.0000000001
 40
0.0
 40
0.0
 40
0.0
 40
0.0
 40
0.2799489575
 40
0.5455434652
 40
0.7872998517
 40
1.0
 40
1.0
 40
1.0
 40
1.0
 10
200.4899677585
 20
79.4233912809
 30
0.0
 10
200.3221460243
 20
79.4305253075
 30
0.0
 10
199.9935095442
 20
79.4203346521
 30
0.0
 10
199.5272652592
 20
79.3319373524
 30
0.0
 10
199.1214487168
 20
79.1767222965
 30
0.0
 10
198.8913913521
 20
79.0236483511
 30
0.0
 10
198.7973675215
 20
78.9373513798
 30
0.0
  0
SPLINE
  5
5D0
100
AcDbEntity
  8
0
100
AcDbSpline
 62
7
  6
CONTINUOUS
 70
0
 71
3
 72
11
 73
7
 74
0
 42
0.0000001
 43
0.0000001
 44
0.0000000001
 40
0.0
 40
0.0
 40
0.0
 40
0.0
 40
0.2500036788
 40
0.5000047289
 40
0.7500031293
 40
1.0
 40
1.0
 40
1.0
 40
1.0
 10
198.206321112
 20
71.9662996141
 30
0.0
 10
198.0239694793
 20
70.4066824038
 30
0.0
 10
197.684376388
 20
67.2844207229
 30
0.0
 10
197.279775983
 20
62.5906258861
 30
0.0
 10
197.0151652325
 20
57.8866030953
 30
0.0
 10
196.9533700903
 20
54.7458854718
 30
0.0
 10
196.9533723557
 20
53.1756868628
 30
0.0
  0
SPLINE
  5
5D1
100
AcDbEntity
  8
0
100
AcDbSpline
 62
7
  6
CONTINUOUS
 70
0
 71
3
 72
9
 73
5
 74
0
 42
0.0000001
 43
0.0000001
 44
0.0000000001
 40
0.0
 40
0.0
 40
0.0
 40
0.0
 40
0.2387100879
 40
1.0
 40
1.0
 40
1.0
 40
1.0
 10
198.4193939555
 20
74.2516151082
 30
0.0
 10
198.4072259473
 20
74.0693791021
 30
0.0
 10
198.3504264225
 20
73.3063544618
 30
0.0
 10
198.2739645703
 20
72.5448364433
 30
0.0
 10
198.206321112
 20
71.9662996141
 30
0.0
  0
SPLINE
  5
5D2
100
AcDbEntity
  8
KONSTRUKTIONSELEMENTE
100
AcDbSpline
 62
7
  6
CONTINUOUS
 70
0
 71
3
 72
9
 73
5
 74
0
 42
0.0000001
 43
0.0000001
 44
0.0000000001
 40
0.0
 40
0.0
 40
0.0
 40
0.0
 40
0.5163634039
 40
1.0
 40
1.0
 40
1.0
 40
1.0
 10
200.4901260868
 20
79.4234021455
 30
0.0
 10
200.6034312363
 20
79.4185855944
 30
0.0
 10
200.8258254477
 20
79.4519846821
 30
0.0
 10
201.0261374394
 20
79.5468434555
 30
0.0
 10
201.1172906412
 20
79.6013754211
 30
0.0
  0
SPLINE
  5
5D3
100
AcDbEntity
  8
KONSTRUKTIONSELEMENTE
100
AcDbSpline
 62
7
  6
CONTINUOUS
 70
0
 71
3
 72
9
 73
5
 74
0
 42
0.0000001
 43
0.0000001
 44
0.0000000001
 40
0.0
 40
0.0
 40
0.0
 40
0.0
 40
0.4916564118
 40
1.0
 40
1.0
 40
1.0
 40
1.0
 10
234.6910132277
 20
95.572762673
 30
0.0
 10
234.5949555821
 20
95.5962234953
 30
0.0
 10
234.3832662831
 20
95.59737954
 30
0.0
 10
234.2029466394
 20
95.4858045969
 30
0.0
 10
234.1306689592
 20
95.4134969799
 30
0.0
  0
SPLINE
  5
5D4
100
AcDbEntity
  8
0
100
AcDbSpline
 62
7
  6
CONTINUOUS
 70
0
 71
3
 72
13
 73
9
 74
0
 42
0.0000001
 43
0.0000001
 44
0.0000000001
 40
0.0
 40
0.0
 40
0.0
 40
0.0
 40
0.1197098149
 40
0.2490524533
 40
0.37991079
 40
0.5094459009
 40
0.7606984609
 40
1.0
 40
1.0
 40
1.0
 40
1.0
 10
202.6761741996
 20
98.6460960575
 30
0.0
 10
202.6670040299
 20
98.6752063529
 30
0.0
 10
202.6205149016
 20
98.7241437254
 30
0.0
 10
202.5424286455
 20
98.7795581139
 30
0.0
 10
202.4554571121
 20
98.8286348678
 30
0.0
 10
202.3372610358
 20
98.8837603304
 30
0.0
 10
202.1874851055
 20
98.9360444956
 30
0.0
 10
202.0641431264
 20
98.9600869987
 30
0.0
 10
202.0034624005
 20
98.9664257723
 30
0.0
  0
SPLINE
  5
5D5
100
AcDbEntity
  8
0
100
AcDbSpline
 62
7
  6
CONTINUOUS
 70
0
 71
3
 72
10
 73
6
 74
0
 42
0.0000001
 43
0.0000001
 44
0.0000000001
 40
0.0
 40
0.0
 40
0.0
 40
0.0
 40
0.5015174229
 40
0.7510144732
 40
1.0
 40
1.0
 40
1.0
 40
1.0
 10
200.2435357459
 20
92.8937226896
 30
0.0
 10
199.8558229365
 20
90.6954670753
 30
0.0
 10
199.3544223326
 20
87.387458134
 30
0.0
 10
198.9490054448
 20
82.9539205515
 30
0.0
 10
198.8503145443
 20
80.7363533878
 30
0.0
 10
198.8291141842
 20
79.628355994
 30
0.0
  0
SPLINE
  5
5D6
100
AcDbEntity
  8
KONSTRUKTIONSELEMENTE
100
AcDbSpline
 62
7
  6
CONTINUOUS
 70
0
 71
3
 72
8
 73
4
 74
0
 42
0.0000001
 43
0.0000001
 44
0.0000000001
 40
0.0
 40
0.0
 40
0.0
 40
0.0
 40
1.0
 40
1.0
 40
1.0
 40
1.0
 10
200.4313643524
 20
80.3145952863
 30
0.0
 10
200.4653672358
 20
80.3153050628
 30
0.0
 10
200.4994607521
 20
80.3200271258
 30
0.0
 10
200.5324957303
 20
80.3281135386
 30
0.0
  0
SPLINE
  5
5D7
100
AcDbEntity
  8
0
100
AcDbSpline
 62
7
  6
CONTINUOUS
 70
0
 71
3
 72
9
 73
5
 74
0
 42
0.0000001
 43
0.0000001
 44
0.0000000001
 40
0.0
 40
0.0
 40
0.0
 40
0.0
 40
0.5237358372
 40
1.0
 40
1.0
 40
1.0
 40
1.0
 10
113.2087420467
 20
65.170046706
 30
0.0
 10
113.5620794528
 20
65.1692630087
 30
0.0
 10
114.2367334377
 20
65.1704685844
 30
0.0
 10
114.9113703867
 20
65.1756277338
 30
0.0
 10
115.2326819065
 20
65.1756277338
 30
0.0
  0
SPLINE
  5
5D8
100
AcDbEntity
  8
0
100
AcDbSpline
 62
7
  6
CONTINUOUS
 70
0
 71
3
 72
9
 73
5
 74
0
 42
0.0000001
 43
0.0000001
 44
0.0000000001
 40
0.0
 40
0.0
 40
0.0
 40
0.0
 40
0.5237358372
 40
1.0
 40
1.0
 40
1.0
 40
1.0
 10
108.1487420467
 20
65.170046706
 30
0.0
 10
108.5020794528
 20
65.1692630087
 30
0.0
 10
109.1767334377
 20
65.1704685844
 30
0.0
 10
109.8513703867
 20
65.1756277338
 30
0.0
 10
110.1726819065
 20
65.1756277338
 30
0.0
  0
SPLINE
  5
5D9
100
AcDbEntity
  8
0
100
AcDbSpline
 62
7
  6
CONTINUOUS
 70
0
 71
3
 72
9
 73
5
 74
0
 42
0.0000001
 43
0.0000001
 44
0.0000000001
 40
0.0
 40
0.0
 40
0.0
 40
0.0
 40
0.4762642121
 40
1.0
 40
1.0
 40
1.0
 40
1.0
 10
110.1726819065
 20
65.6756277338
 30
0.0
 10
109.8513704121
 20
65.6756277338
 30
0.0
 10
109.1767330876
 20
65.670569753
 30
0.0
 10
108.5020793886
 20
65.6693878377
 30
0.0
 10
108.1487420467
 20
65.6701561616
 30
0.0
  0
SPLINE
  5
5DA
100
AcDbEntity
  8
0
100
AcDbSpline
 62
7
  6
CONTINUOUS
 70
0
 71
3
 72
9
 73
5
 74
0
 42
0.0000001
 43
0.0000001
 44
0.0000000001
 40
0.0
 40
0.0
 40
0.0
 40
0.0
 40
0.4762642121
 40
1.0
 40
1.0
 40
1.0
 40
1.0
 10
115.2326819065
 20
65.6756277338
 30
0.0
 10
114.9113704121
 20
65.6756277338
 30
0.0
 10
114.2367330876
 20
65.670569753
 30
0.0
 10
113.5620793886
 20
65.6693878377
 30
0.0
 10
113.2087420467
 20
65.6701561616
 30
0.0
  0
ELLIPSE
  5
5DB
100
AcDbEntity
  8
KONSTRUKTIONSELEMENTE
100
AcDbEllipse
 62
7
  6
CONTINUOUS
 10
213.0445933228
 20
181.1875657256
 30
0.0
 11
19.19554885
 21
21.0573617936
 31
0.0
 40
0.4129609291
 41
1.0831756801
 42
1.1593392796
  0
ELLIPSE
  5
5DC
100
AcDbEntity
  8
KONSTRUKTIONSELEMENTE
100
AcDbEllipse
 62
7
  6
CONTINUOUS
 10
213.6172834098
 20
181.1875657256
 30
0.0
 11
-11.7149208682
 21
22.1009212364
 31
0.0
 40
0.3601321255
 41
-1.0674915857
 42
-0.9746841526
  0
ELLIPSE
  5
5DD
100
AcDbEntity
  8
KONSTRUKTIONSELEMENTE
100
AcDbEllipse
 62
7
  6
CONTINUOUS
 10
215.7120762403
 20
181.1875657256
 30
0.0
 11
65.9838136949
 21
16.8007294133
 31
0.0
 40
0.226815396
 41
1.5833320915
 42
1.5866503544
  0
ELLIPSE
  5
5DE
100
AcDbEntity
  8
KONSTRUKTIONSELEMENTE
100
AcDbEllipse
 62
7
  6
CONTINUOUS
 10
212.6204027473
 20
181.1875657256
 30
0.0
 11
20.2642716964
 21
20.8767658492
 31
0.0
 40
0.4140837331
 41
1.2311605724
 42
1.2377948148
  0
ELLIPSE
  5
5DF
100
AcDbEntity
  8
KONSTRUKTIONSELEMENTE
100
AcDbEllipse
 62
7
  6
CONTINUOUS
 10
211.6870787099
 20
181.1875657256
 30
0.0
 11
5.4609783278
 21
22.468327982
 31
0.0
 40
0.2185348906
 41
0.8921064447
 42
0.9020526443
  0
ELLIPSE
  5
5E0
100
AcDbEntity
  8
KONSTRUKTIONSELEMENTE
100
AcDbEllipse
 62
7
  6
CONTINUOUS
 10
211.1183257807
 20
181.1875657256
 30
0.0
 11
65.9838136949
 21
16.8007294133
 31
0.0
 40
0.226815396
 41
1.5137708458
 42
1.5170805484
  0
ELLIPSE
  5
5E1
100
AcDbEntity
  8
KONSTRUKTIONSELEMENTE
100
AcDbEllipse
 62
7
  6
CONTINUOUS
 10
211.0891589767
 20
181.1875657256
 30
0.0
 11
20.2642803047
 21
20.8767643813
 31
0.0
 40
0.4140837374
 41
1.1616143241
 42
1.168233744
  0
ELLIPSE
  5
5E2
100
AcDbEntity
  8
KONSTRUKTIONSELEMENTE
100
AcDbEllipse
 62
7
  6
CONTINUOUS
 10
211.176658115
 20
181.1875657256
 30
0.0
 11
5.4609783278
 21
22.468327982
 31
0.0
 40
0.2185348906
 41
0.8225765111
 42
0.832506221
  0
ELLIPSE
  5
5E3
100
AcDbEntity
  8
KONSTRUKTIONSELEMENTE
100
AcDbEllipse
 62
7
  6
CONTINUOUS
 10
210.6808279129
 20
181.1875657256
 30
0.0
 11
43.7044716202
 21
-17.8042874607
 31
0.0
 40
0.3147751946
 41
1.6811218867
 42
1.6844319809
  0
ELLIPSE
  5
5E4
100
AcDbEntity
  8
KONSTRUKTIONSELEMENTE
100
AcDbEllipse
 62
7
  6
CONTINUOUS
 10
211.1547834045
 20
181.1875657256
 30
0.0
 11
-14.188413197
 21
21.8154897519
 31
0.0
 40
0.3881806888
 41
-1.063150234
 42
-1.0499076075
  0
ELLIPSE
  5
5E5
100
AcDbEntity
  8
KONSTRUKTIONSELEMENTE
100
AcDbEllipse
 62
7
  6
CONTINUOUS
 10
211.4342957088
 20
181.1875657256
 30
0.0
 11
-5.4609755366
 21
22.4683280407
 31
0.0
 40
0.2185348
 41
-0.8788528838
 42
-0.8689175293
  0
ELLIPSE
  5
5E6
100
AcDbEntity
  8
KONSTRUKTIONSELEMENTE
100
AcDbEllipse
 62
7
  6
CONTINUOUS
 10
204.189819229
 20
181.1875657256
 30
0.0
 11
5.6071788829
 21
22.4651514474
 31
0.0
 40
0.2232471849
 41
0.7787994352
 42
0.9146033265
  0
ELLIPSE
  5
5E7
100
AcDbEntity
  8
KONSTRUKTIONSELEMENTE
100
AcDbEllipse
 62
7
  6
CONTINUOUS
 10
203.0843314614
 20
181.1875657256
 30
0.0
 11
-5.6071788829
 21
22.4651514474
 31
0.0
 40
0.2232471849
 41
-0.9146033265
 42
-0.7787994352
  0
ELLIPSE
  5
5E8
100
AcDbEntity
  8
KONSTRUKTIONSELEMENTE
100
AcDbEllipse
 62
7
  6
CONTINUOUS
 10
217.6370811482
 20
181.1875657256
 30
0.0
 11
110.1324089346
 21
-16.238110646
 31
0.0
 40
0.1414186782
 41
1.6505909786
 42
1.6539067598
  0
ELLIPSE
  5
5E9
100
AcDbEntity
  8
KONSTRUKTIONSELEMENTE
100
AcDbEllipse
 62
7
  6
CONTINUOUS
 10
207.6449556778
 20
181.1875657256
 30
0.0
 11
-6.523621034
 21
22.4402685494
 31
0.0
 40
0.2511485286
 41
-0.9517497236
 42
-0.8754916015
  0
ELLIPSE
  5
5EA
100
AcDbEntity
  8
KONSTRUKTIONSELEMENTE
100
AcDbEllipse
 62
7
  6
CONTINUOUS
 10
212.8780461697
 20
181.1875657256
 30
0.0
 11
28.3473494088
 21
-19.5247030447
 31
0.0
 40
0.3944618695
 41
1.8850876779
 42
1.8950312763
  0
ELLIPSE
  5
5EB
100
AcDbEntity
  8
KONSTRUKTIONSELEMENTE
100
AcDbEllipse
 62
7
  6
CONTINUOUS
 10
212.2485335577
 20
181.1875657256
 30
0.0
 11
-14.188413197
 21
21.8154897519
 31
0.0
 40
0.3881806888
 41
-0.996944056
 42
-0.9836932935
  0
ELLIPSE
  5
5EC
100
AcDbEntity
  8
KONSTRUKTIONSELEMENTE
100
AcDbEllipse
 62
7
  6
CONTINUOUS
 10
211.9204104924
 20
181.1875657256
 30
0.0
 11
-5.4609783278
 21
22.468327982
 31
0.0
 40
0.2185348906
 41
-0.812645225
 42
-0.8027114004
  0
ELLIPSE
  5
5ED
100
AcDbEntity
  8
KONSTRUKTIONSELEMENTE
100
AcDbEllipse
 62
7
  6
CONTINUOUS
 10
208.5662426018
 20
181.1875657256
 30
0.0
 11
-5.4609441206
 21
22.4683287013
 31
0.0
 40
0.2185337797
 41
-0.8126446223
 42
-0.8027107977
  0
ELLIPSE
  5
5EE
100
AcDbEntity
  8
KONSTRUKTIONSELEMENTE
100
AcDbEllipse
 62
7
  6
CONTINUOUS
 10
208.8943671692
 20
181.1875657256
 30
0.0
 11
-14.188413197
 21
21.8154897519
 31
0.0
 40
0.3881806888
 41
-0.996944056
 42
-0.9836932935
  0
ELLIPSE
  5
5EF
100
AcDbEntity
  8
KONSTRUKTIONSELEMENTE
100
AcDbEllipse
 62
7
  6
CONTINUOUS
 10
209.5238818396
 20
181.1875657256
 30
0.0
 11
28.3473947687
 21
-19.5246960631
 31
0.0
 40
0.3944616684
 41
1.8850870535
 42
1.895030652
  0
ELLIPSE
  5
5F0
100
AcDbEntity
  8
KONSTRUKTIONSELEMENTE
100
AcDbEllipse
 62
7
  6
CONTINUOUS
 10
214.2829069157
 20
181.1875657256
 30
0.0
 11
110.1322827887
 21
-16.2381113884
 31
0.0
 40
0.1414188332
 41
1.6505910263
 42
1.6539068075
  0
ELLIPSE
  5
5F1
100
AcDbEntity
  8
KONSTRUKTIONSELEMENTE
100
AcDbEllipse
 62
7
  6
CONTINUOUS
 10
207.764158975
 20
181.1875657256
 30
0.0
 11
65.9838136949
 21
16.8007294133
 31
0.0
 40
0.226815396
 41
1.5137708458
 42
1.5170805484
  0
ELLIPSE
  5
5F2
100
AcDbEntity
  8
KONSTRUKTIONSELEMENTE
100
AcDbEllipse
 62
7
  6
CONTINUOUS
 10
207.7349922127
 20
181.1875657256
 30
0.0
 11
20.264350637
 21
20.8767523883
 31
0.0
 40
0.4140837726
 41
1.1616157534
 42
1.1682351732
  0
ELLIPSE
  5
5F3
100
AcDbEntity
  8
KONSTRUKTIONSELEMENTE
100
AcDbEllipse
 62
7
  6
CONTINUOUS
 10
207.8224919768
 20
181.1875657256
 30
0.0
 11
5.4609441206
 21
22.4683287013
 31
0.0
 40
0.2185337797
 41
0.8225759084
 42
0.8325056183
  0
ELLIPSE
  5
5F4
100
AcDbEntity
  8
KONSTRUKTIONSELEMENTE
100
AcDbEllipse
 62
7
  6
CONTINUOUS
 10
213.0147930529
 20
181.1875657256
 30
0.0
 11
-11.9247601812
 21
22.0796402224
 31
0.0
 40
0.3630188717
 41
-1.0724708528
 42
-0.9962127307
  0
ELLIPSE
  5
5F5
100
AcDbEntity
  8
KONSTRUKTIONSELEMENTE
100
AcDbEllipse
 62
7
  6
CONTINUOUS
 10
213.6412427031
 20
181.1875657256
 30
0.0
 11
19.8140760451
 21
20.4128170015
 31
0.0
 40
0.4140837954
 41
1.18517661
 42
1.20888184
  0
ELLIPSE
  5
5F6
100
AcDbEntity
  8
KONSTRUKTIONSELEMENTE
100
AcDbEllipse
 62
7
  6
CONTINUOUS
 10
213.6412427031
 20
181.1875657256
 30
0.0
 11
20.2643959552
 21
20.8767446607
 31
0.0
 40
0.4140837954
 41
1.1847854052
 42
1.2079633863
  0
ELLIPSE
  5
5F7
100
AcDbEntity
  8
KONSTRUKTIONSELEMENTE
100
AcDbEllipse
 62
7
  6
CONTINUOUS
 10
210.9724899792
 20
181.1875657256
 30
0.0
 11
-5.3396205246
 21
21.969031862
 31
0.0
 40
0.2185348
 41
5.4057974159
 42
5.4101886827
  0
ELLIPSE
  5
5F8
100
AcDbEntity
  8
KONSTRUKTIONSELEMENTE
100
AcDbEllipse
 62
7
  6
CONTINUOUS
 10
210.9724899792
 20
181.1875657256
 30
0.0
 11
-5.4609755366
 21
22.4683280407
 31
0.0
 40
0.2185348
 41
-0.8821655052
 42
-0.87222893
  0
ELLIPSE
  5
5F9
100
AcDbEntity
  8
KONSTRUKTIONSELEMENTE
100
AcDbEllipse
 62
7
  6
CONTINUOUS
 10
210.4766612315
 20
181.1875657256
 30
0.0
 11
19.8139629646
 21
-20.4128362839
 31
0.0
 40
0.4140837374
 41
8.222673184
 42
8.2294463071
  0
ELLIPSE
  5
5FA
100
AcDbEntity
  8
KONSTRUKTIONSELEMENTE
100
AcDbEllipse
 62
7
  6
CONTINUOUS
 10
210.4766612315
 20
181.1875657256
 30
0.0
 11
20.2642803047
 21
-20.8767643813
 31
0.0
 40
0.4140837374
 41
1.9402555713
 42
1.9468780387
  0
ELLIPSE
  5
5FB
100
AcDbEntity
  8
KONSTRUKTIONSELEMENTE
100
AcDbEllipse
 62
7
  6
CONTINUOUS
 10
209.2808255356
 20
181.1875657256
 30
0.0
 11
64.5175067239
 21
-16.4273798708
 31
0.0
 40
0.226815396
 41
1.6007238981
 42
1.6041099626
  0
ELLIPSE
  5
5FC
100
AcDbEntity
  8
KONSTRUKTIONSELEMENTE
100
AcDbEllipse
 62
7
  6
CONTINUOUS
 10
209.2808255356
 20
181.1875657256
 30
0.0
 11
65.9838136949
 21
-16.8007294133
 31
0.0
 40
0.226815396
 41
1.601340937
 42
1.604651706
  0
ELLIPSE
  5
5FD
100
AcDbEntity
  8
KONSTRUKTIONSELEMENTE
100
AcDbEllipse
 62
7
  6
CONTINUOUS
 10
211.4586045289
 20
181.1875657256
 30
0.0
 11
-5.3396177954
 21
21.9690319194
 31
0.0
 40
0.2185347093
 41
-0.8072343813
 42
-0.8052853648
  0
ELLIPSE
  5
5FE
100
AcDbEntity
  8
KONSTRUKTIONSELEMENTE
100
AcDbEllipse
 62
7
  6
CONTINUOUS
 10
211.4586045289
 20
181.1875657256
 30
0.0
 11
-5.4609727453
 21
22.4683280993
 31
0.0
 40
0.2185347093
 41
-0.8159557962
 42
-0.8060229206
  0
ELLIPSE
  5
5FF
100
AcDbEntity
  8
KONSTRUKTIONSELEMENTE
100
AcDbEllipse
 62
7
  6
CONTINUOUS
 10
211.934989206
 20
181.1875657256
 30
0.0
 11
19.8139629646
 21
-20.4128362839
 31
0.0
 40
0.4140837374
 41
8.2903843945
 42
8.2971587608
  0
ELLIPSE
  5
600
100
AcDbEntity
  8
KONSTRUKTIONSELEMENTE
100
AcDbEllipse
 62
7
  6
CONTINUOUS
 10
211.934989206
 20
181.1875657256
 30
0.0
 11
20.2642803047
 21
-20.8767643813
 31
0.0
 40
0.4140837374
 41
2.0064615315
 42
2.013085161
  0
ELLIPSE
  5
601
100
AcDbEntity
  8
KONSTRUKTIONSELEMENTE
100
AcDbEllipse
 62
7
  6
CONTINUOUS
 10
213.6558261484
 20
181.1875657256
 30
0.0
 11
64.5175067239
 21
-16.4273798708
 31
0.0
 40
0.226815396
 41
1.6684363519
 42
1.6718242036
  0
ELLIPSE
  5
602
100
AcDbEntity
  8
KONSTRUKTIONSELEMENTE
100
AcDbEllipse
 62
7
  6
CONTINUOUS
 10
213.6558261484
 20
181.1875657256
 30
0.0
 11
65.9838136949
 21
-16.8007294133
 31
0.0
 40
0.226815396
 41
1.6675480592
 42
1.6708604989
  0
ELLIPSE
  5
603
100
AcDbEntity
  8
KONSTRUKTIONSELEMENTE
100
AcDbEllipse
 62
7
  6
CONTINUOUS
 10
212.1488843533
 20
181.1875657256
 30
0.0
 11
5.3396218893
 21
21.9690318333
 31
0.0
 40
0.2185348453
 41
0.8967171198
 42
0.9068923086
  0
ELLIPSE
  5
604
100
AcDbEntity
  8
KONSTRUKTIONSELEMENTE
100
AcDbEllipse
 62
7
  6
CONTINUOUS
 10
212.1488843533
 20
181.1875657256
 30
0.0
 11
5.4609769322
 21
22.4683280113
 31
0.0
 40
0.2185348453
 41
0.8954211811
 42
0.9053693733
  0
ELLIPSE
  5
605
100
AcDbEntity
  8
KONSTRUKTIONSELEMENTE
100
AcDbEllipse
 62
7
  6
CONTINUOUS
 10
212.762595984
 20
181.1875657256
 30
0.0
 11
13.8731136086
 21
21.3307012877
 31
0.0
 40
0.388180675
 41
1.1011249523
 42
1.1147031001
  0
ELLIPSE
  5
606
100
AcDbEntity
  8
KONSTRUKTIONSELEMENTE
100
AcDbEllipse
 62
7
  6
CONTINUOUS
 10
212.762595984
 20
181.1875657256
 30
0.0
 11
14.1884116452
 21
21.8154899533
 31
0.0
 40
0.388180675
 41
7.3827873241
 42
7.3960620742
  0
ELLIPSE
  5
607
100
AcDbEntity
  8
KONSTRUKTIONSELEMENTE
100
AcDbEllipse
 62
7
  6
CONTINUOUS
 10
213.791934056
 20
181.1875657256
 30
0.0
 11
27.7174055966
 21
19.0908211726
 31
0.0
 40
0.3944618819
 41
1.3875147807
 42
1.3977082077
  0
ELLIPSE
  5
608
100
AcDbEntity
  8
KONSTRUKTIONSELEMENTE
100
AcDbEllipse
 62
7
  6
CONTINUOUS
 10
213.791934056
 20
181.1875657256
 30
0.0
 11
28.3473466329
 21
19.5247034719
 31
0.0
 40
0.3944618819
 41
1.3856884477
 42
1.3956536823
  0
ELLIPSE
  5
609
100
AcDbEntity
  8
KONSTRUKTIONSELEMENTE
100
AcDbEllipse
 62
7
  6
CONTINUOUS
 10
204.6287420049
 20
181.1875657256
 30
0.0
 11
5.5884597683
 21
22.4655696724
 31
0.0
 40
0.2226478464
 41
0.7784643251
 42
0.9341961409
  0
ELLIPSE
  5
60A
100
AcDbEntity
  8
KONSTRUKTIONSELEMENTE
100
AcDbEllipse
 62
7
  6
CONTINUOUS
 10
204.6287420049
 20
181.1875657256
 30
0.0
 11
5.4642717735
 21
21.9663347908
 31
0.0
 40
0.2226478464
 41
0.7770473752
 42
0.9363268673
  0
ELLIPSE
  5
60B
100
AcDbEntity
  8
KONSTRUKTIONSELEMENTE
100
AcDbEllipse
 62
7
  6
CONTINUOUS
 10
221.0641666047
 20
181.1875657256
 30
0.0
 11
107.685012634
 21
15.8772637983
 31
0.0
 40
0.1414186901
 41
1.64214854
 42
1.6455484323
  0
ELLIPSE
  5
60C
100
AcDbEntity
  8
KONSTRUKTIONSELEMENTE
100
AcDbEllipse
 62
7
  6
CONTINUOUS
 10
221.0641666047
 20
181.1875657256
 30
0.0
 11
110.1323992848
 21
16.2381107028
 31
0.0
 40
0.1414186901
 41
1.6400940146
 42
1.6434177059
  0
ELLIPSE
  5
60D
100
AcDbEntity
  8
KONSTRUKTIONSELEMENTE
100
AcDbEllipse
 62
7
  6
CONTINUOUS
 10
202.6454087272
 20
181.1875657256
 30
0.0
 11
-5.588460317
 21
22.4655696602
 31
0.0
 40
0.222647864
 41
-0.9341961507
 42
-0.7784643349
  0
ELLIPSE
  5
60E
100
AcDbEntity
  8
KONSTRUKTIONSELEMENTE
100
AcDbEllipse
 62
7
  6
CONTINUOUS
 10
202.6454087272
 20
181.1875657256
 30
0.0
 11
-5.46427231
 21
21.9663347788
 31
0.0
 40
0.222647864
 41
-0.9363268771
 42
-0.777047385
  0
ELLIPSE
  5
60F
100
AcDbEntity
  8
KONSTRUKTIONSELEMENTE
100
AcDbEllipse
 62
7
  6
CONTINUOUS
 10
207.1558251567
 20
181.1875657256
 30
0.0
 11
-6.3303910753
 21
22.4462633288
 31
0.0
 40
0.2455000786
 41
-0.9479941998
 42
-0.8783568685
  0
ELLIPSE
  5
610
100
AcDbEntity
  8
KONSTRUKTIONSELEMENTE
100
AcDbEllipse
 62
7
  6
CONTINUOUS
 10
207.1558251567
 20
181.1875657256
 30
0.0
 11
-6.1897157181
 21
21.947457477
 31
0.0
 40
0.2455000786
 41
-0.9501249262
 42
-0.8788986119
  0
ELLIPSE
  5
611
100
AcDbEntity
  8
KONSTRUKTIONSELEMENTE
100
AcDbEllipse
 62
7
  6
CONTINUOUS
 10
208.5516590176
 20
181.1875657256
 30
0.0
 11
43.7046650524
 21
17.8042730461
 31
0.0
 40
0.3147742283
 41
1.4538517784
 42
1.4604718147
  0
ELLIPSE
  5
612
100
AcDbEntity
  8
KONSTRUKTIONSELEMENTE
100
AcDbEllipse
 62
7
  6
CONTINUOUS
 10
208.5516590176
 20
181.1875657256
 30
0.0
 11
42.7334502734
 21
17.408622534
 31
0.0
 40
0.3147742283
 41
1.4540924972
 42
1.457233567
  0
ELLIPSE
  5
613
100
AcDbEntity
  8
KONSTRUKTIONSELEMENTE
100
AcDbEllipse
 62
7
  6
CONTINUOUS
 10
208.2599920773
 20
181.1875657256
 30
0.0
 11
14.188413197
 21
21.8154897519
 31
0.0
 40
0.3881806888
 41
7.3132339082
 42
7.3264728784
  0
ELLIPSE
  5
614
100
AcDbEntity
  8
KONSTRUKTIONSELEMENTE
100
AcDbEllipse
 62
7
  6
CONTINUOUS
 10
208.2599920773
 20
181.1875657256
 30
0.0
 11
13.873115126
 21
21.3307010907
 31
0.0
 40
0.3881806888
 41
1.0299884246
 42
1.04352829
  0
ELLIPSE
  5
615
100
AcDbEntity
  8
KONSTRUKTIONSELEMENTE
100
AcDbEllipse
 62
7
  6
CONTINUOUS
 10
208.2842975787
 20
181.1875657256
 30
0.0
 11
5.4609441206
 21
22.4683287013
 31
0.0
 40
0.2185337797
 41
0.8258859374
 42
0.8358153427
  0
ELLIPSE
  5
616
100
AcDbEntity
  8
KONSTRUKTIONSELEMENTE
100
AcDbEllipse
 62
7
  6
CONTINUOUS
 10
208.2842975787
 20
181.1875657256
 30
0.0
 11
5.3395898068
 21
21.9690325079
 31
0.0
 40
0.2185337797
 41
0.8256000773
 42
0.8357551663
  0
ELLIPSE
  5
617
100
AcDbEntity
  8
KONSTRUKTIONSELEMENTE
100
AcDbEllipse
 62
7
  6
CONTINUOUS
 10
211.638463856
 20
181.1875657256
 30
0.0
 11
5.3396232539
 21
21.9690318046
 31
0.0
 40
0.2185348906
 41
0.82560068
 42
0.8357557691
  0
ELLIPSE
  5
618
100
AcDbEntity
  8
KONSTRUKTIONSELEMENTE
100
AcDbEllipse
 62
7
  6
CONTINUOUS
 10
211.638463856
 20
181.1875657256
 30
0.0
 11
5.4609783278
 21
22.468327982
 31
0.0
 40
0.2185348906
 41
0.8258865401
 42
0.8358159454
  0
ELLIPSE
  5
619
100
AcDbEntity
  8
KONSTRUKTIONSELEMENTE
100
AcDbEllipse
 62
7
  6
CONTINUOUS
 10
211.6141584658
 20
181.1875657256
 30
0.0
 11
13.873115126
 21
21.3307010907
 31
0.0
 40
0.3881806888
 41
1.0299884246
 42
1.0357051194
  0
ELLIPSE
  5
61A
100
AcDbEntity
  8
KONSTRUKTIONSELEMENTE
100
AcDbEllipse
 62
7
  6
CONTINUOUS
 10
211.6141584658
 20
181.1875657256
 30
0.0
 11
14.188413197
 21
21.8154897519
 31
0.0
 40
0.3881806888
 41
7.3132339082
 42
7.3264728784
  0
ELLIPSE
  5
61B
100
AcDbEntity
  8
KONSTRUKTIONSELEMENTE
100
AcDbEllipse
 62
7
  6
CONTINUOUS
 10
211.9058234034
 20
181.1875657256
 30
0.0
 11
43.7044716202
 21
17.8042874607
 31
0.0
 40
0.3147751946
 41
7.7370360378
 42
7.7403459798
  0
ELLIPSE
  5
61C
100
AcDbEntity
  8
KONSTRUKTIONSELEMENTE
100
AcDbEllipse
 62
7
  6
CONTINUOUS
 10
213.6404742613
 20
181.1875657256
 30
0.0
 11
18.5490651606
 21
20.626086414
 31
0.0
 40
0.4125678793
 41
1.0769980361
 42
1.1322062318
  0
ELLIPSE
  5
61D
100
AcDbEntity
  8
KONSTRUKTIONSELEMENTE
100
AcDbEllipse
 62
7
  6
CONTINUOUS
 10
213.6404742613
 20
181.1875657256
 30
0.0
 11
18.9706348233
 21
21.0948611053
 31
0.0
 40
0.4125678793
 41
7.3616002932
 42
7.4245246759
  0
ELLIPSE
  5
61E
100
AcDbEntity
  8
KONSTRUKTIONSELEMENTE
100
AcDbEllipse
 62
7
  6
CONTINUOUS
 10
213.0147930529
 20
181.1875657256
 30
0.0
 11
-11.6597655105
 21
21.5889815508
 31
0.0
 40
0.3630188717
 41
-1.0746015792
 42
-0.9966039355
  0
ELLIPSE
  5
61F
100
AcDbEntity
  8
KONSTRUKTIONSELEMENTE
100
AcDbEllipse
 62
7
  6
CONTINUOUS
 10
208.1287426018
 20
181.1875657256
 30
0.0
 11
-5.3395898068
 21
21.9690325079
 31
0.0
 40
0.2185337797
 41
-0.804437815
 42
-0.8018978871
  0
ELLIPSE
  5
620
100
AcDbEntity
  8
KONSTRUKTIONSELEMENTE
100
AcDbEllipse
 62
7
  6
CONTINUOUS
 10
208.1287426018
 20
181.1875657256
 30
0.0
 11
-5.4609441206
 21
22.4683287013
 31
0.0
 40
0.2185337797
 41
-0.8126446223
 42
-0.8027107977
  0
ELLIPSE
  5
621
100
AcDbEntity
  8
KONSTRUKTIONSELEMENTE
100
AcDbEllipse
 62
7
  6
CONTINUOUS
 10
210.5204093427
 20
181.1875657256
 30
0.0
 11
65.9838136949
 21
-16.8007294133
 31
0.0
 40
0.226815396
 41
1.6708604989
 42
1.6741734039
  0
ELLIPSE
  5
622
100
AcDbEntity
  8
KONSTRUKTIONSELEMENTE
100
AcDbEllipse
 62
7
  6
CONTINUOUS
 10
210.5204093427
 20
181.1875657256
 30
0.0
 11
64.5175067239
 21
-16.4273798708
 31
0.0
 40
0.226815396
 41
1.6718242036
 42
1.6752125532
  0
ELLIPSE
  5
623
100
AcDbEntity
  8
KONSTRUKTIONSELEMENTE
100
AcDbEllipse
 62
7
  6
CONTINUOUS
 10
208.6537414591
 20
181.1875657256
 30
0.0
 11
20.264350637
 21
-20.8767523883
 31
0.0
 40
0.4140837726
 41
2.0097717208
 42
2.0163961714
  0
ELLIPSE
  5
624
100
AcDbEntity
  8
KONSTRUKTIONSELEMENTE
100
AcDbEllipse
 62
7
  6
CONTINUOUS
 10
208.6537414591
 20
181.1875657256
 30
0.0
 11
19.8140317339
 21
-20.4128245574
 31
0.0
 40
0.4140837726
 41
8.2937699386
 42
8.3005451833
  0
ELLIPSE
  5
625
100
AcDbEntity
  8
KONSTRUKTIONSELEMENTE
100
AcDbEllipse
 62
7
  6
CONTINUOUS
 10
78.777009832
 20
181.1875657256
 30
0.0
 11
18.9706348233
 21
21.0948611053
 31
0.0
 40
0.4125678793
 41
1.140015488
 42
1.2029398706
  0
ELLIPSE
  5
626
100
AcDbEntity
  8
KONSTRUKTIONSELEMENTE
100
AcDbEllipse
 62
7
  6
CONTINUOUS
 10
79.4026910404
 20
181.1875657256
 30
0.0
 11
-11.9247601812
 21
22.0796402224
 31
0.0
 40
0.3630188717
 41
-0.9617902279
 42
-0.8855321058
  0
ELLIPSE
  5
627
100
AcDbEntity
  8
KONSTRUKTIONSELEMENTE
100
AcDbEllipse
 62
7
  6
CONTINUOUS
 10
78.7762413903
 20
181.1875657256
 30
0.0
 11
20.2643959552
 21
20.8767446607
 31
0.0
 40
0.4140837954
 41
1.1271849213
 42
1.1503629024
  0
ELLIPSE
  5
628
100
AcDbEntity
  8
KONSTRUKTIONSELEMENTE
100
AcDbEllipse
 62
7
  6
CONTINUOUS
 10
81.4449941141
 20
181.1875657256
 30
0.0
 11
-5.4609755366
 21
22.4683280407
 31
0.0
 40
0.2185348
 41
-0.8046983727
 42
-0.7947617974
  0
ELLIPSE
  5
629
100
AcDbEntity
  8
KONSTRUKTIONSELEMENTE
100
AcDbEllipse
 62
7
  6
CONTINUOUS
 10
81.9408228618
 20
181.1875657256
 30
0.0
 11
20.2642803047
 21
-20.8767643813
 31
0.0
 40
0.4140837374
 41
2.0011636612
 42
2.0077861286
  0
ELLIPSE
  5
62A
100
AcDbEntity
  8
KONSTRUKTIONSELEMENTE
100
AcDbEllipse
 62
7
  6
CONTINUOUS
 10
83.1366585577
 20
181.1875657256
 30
0.0
 11
65.9838136949
 21
-16.8007294133
 31
0.0
 40
0.226815396
 41
1.6523157903
 42
1.6556265594
  0
ELLIPSE
  5
62B
100
AcDbEntity
  8
KONSTRUKTIONSELEMENTE
100
AcDbEllipse
 62
7
  6
CONTINUOUS
 10
80.9588795644
 20
181.1875657256
 30
0.0
 11
-5.4609727453
 21
22.4683280993
 31
0.0
 40
0.2185347093
 41
-0.8709042837
 42
-0.8609714081
  0
ELLIPSE
  5
62C
100
AcDbEntity
  8
KONSTRUKTIONSELEMENTE
100
AcDbEllipse
 62
7
  6
CONTINUOUS
 10
80.4824948873
 20
181.1875657256
 30
0.0
 11
20.2642803047
 21
-20.8767643813
 31
0.0
 40
0.4140837374
 41
1.934956539
 42
1.9415801685
  0
ELLIPSE
  5
62D
100
AcDbEntity
  8
KONSTRUKTIONSELEMENTE
100
AcDbEllipse
 62
7
  6
CONTINUOUS
 10
78.7616579449
 20
181.1875657256
 30
0.0
 11
65.9838136949
 21
-16.8007294133
 31
0.0
 40
0.226815396
 41
1.5861069975
 42
1.5894194372
  0
ELLIPSE
  5
62E
100
AcDbEntity
  8
KONSTRUKTIONSELEMENTE
100
AcDbEllipse
 62
7
  6
CONTINUOUS
 10
80.26859974
 20
181.1875657256
 30
0.0
 11
5.4609769322
 21
22.4683280113
 31
0.0
 40
0.2185348453
 41
0.7715579785
 42
0.7815061707
  0
ELLIPSE
  5
62F
100
AcDbEntity
  8
KONSTRUKTIONSELEMENTE
100
AcDbEllipse
 62
7
  6
CONTINUOUS
 10
79.6548881093
 20
181.1875657256
 30
0.0
 11
14.1884116452
 21
21.8154899533
 31
0.0
 40
0.388180675
 41
0.952515872
 42
0.9657906221
  0
ELLIPSE
  5
630
100
AcDbEntity
  8
KONSTRUKTIONSELEMENTE
100
AcDbEllipse
 62
7
  6
CONTINUOUS
 10
78.6255500373
 20
181.1875657256
 30
0.0
 11
28.3473466329
 21
19.5247034719
 31
0.0
 40
0.3944618819
 41
1.215362318
 42
1.2253275526
  0
ELLIPSE
  5
631
100
AcDbEntity
  8
KONSTRUKTIONSELEMENTE
100
AcDbEllipse
 62
7
  6
CONTINUOUS
 10
71.3533174886
 20
181.1875657256
 30
0.0
 11
110.1323992848
 21
16.2381107028
 31
0.0
 40
0.1414186901
 41
1.456478959
 42
1.4598026503
  0
ELLIPSE
  5
632
100
AcDbEntity
  8
KONSTRUKTIONSELEMENTE
100
AcDbEllipse
 62
7
  6
CONTINUOUS
 10
87.7887420884
 20
181.1875657256
 30
0.0
 11
5.5884597683
 21
22.4655696724
 31
0.0
 40
0.2226478464
 41
0.747257394
 42
0.9029892098
  0
ELLIPSE
  5
633
100
AcDbEntity
  8
KONSTRUKTIONSELEMENTE
100
AcDbEllipse
 62
7
  6
CONTINUOUS
 10
89.7720753661
 20
181.1875657256
 30
0.0
 11
-5.588460317
 21
22.4655696602
 31
0.0
 40
0.222647864
 41
-0.9029892196
 42
-0.7472574038
  0
ELLIPSE
  5
634
100
AcDbEntity
  8
KONSTRUKTIONSELEMENTE
100
AcDbEllipse
 62
7
  6
CONTINUOUS
 10
85.2616589367
 20
181.1875657256
 30
0.0
 11
-6.3303910753
 21
22.4462633288
 31
0.0
 40
0.2455000786
 41
-0.8306927842
 42
-0.7610554529
  0
ELLIPSE
  5
635
100
AcDbEntity
  8
KONSTRUKTIONSELEMENTE
100
AcDbEllipse
 62
7
  6
CONTINUOUS
 10
83.8658250758
 20
181.1875657256
 30
0.0
 11
43.7046650524
 21
17.8042730461
 31
0.0
 40
0.3147742283
 41
1.4260493119
 42
1.4326693482
  0
ELLIPSE
  5
636
100
AcDbEntity
  8
KONSTRUKTIONSELEMENTE
100
AcDbEllipse
 62
7
  6
CONTINUOUS
 10
84.157492016
 20
181.1875657256
 30
0.0
 11
14.188413197
 21
21.8154897519
 31
0.0
 40
0.3881806888
 41
1.022105141
 42
1.0353441112
  0
ELLIPSE
  5
637
100
AcDbEntity
  8
KONSTRUKTIONSELEMENTE
100
AcDbEllipse
 62
7
  6
CONTINUOUS
 10
80.7790202373
 20
181.1875657256
 30
0.0
 11
5.4609783278
 21
22.468327982
 31
0.0
 40
0.2185348906
 41
0.8411114556
 42
0.8510408609
  0
ELLIPSE
  5
638
100
AcDbEntity
  8
KONSTRUKTIONSELEMENTE
100
AcDbEllipse
 62
7
  6
CONTINUOUS
 10
84.1331865146
 20
181.1875657256
 30
0.0
 11
5.4609441206
 21
22.4683287013
 31
0.0
 40
0.2185337797
 41
0.8411108528
 42
0.8510402582
  0
ELLIPSE
  5
639
100
AcDbEntity
  8
KONSTRUKTIONSELEMENTE
100
AcDbEllipse
 62
7
  6
CONTINUOUS
 10
80.8033256275
 20
181.1875657256
 30
0.0
 11
14.188413197
 21
21.8154897519
 31
0.0
 40
0.3881806888
 41
1.022105141
 42
1.0353441112
  0
ELLIPSE
  5
63A
100
AcDbEntity
  8
KONSTRUKTIONSELEMENTE
100
AcDbEllipse
 62
7
  6
CONTINUOUS
 10
80.51166069
 20
181.1875657256
 30
0.0
 11
43.7044716202
 21
17.8042874607
 31
0.0
 40
0.3147751946
 41
1.4293583584
 42
1.4326683004
  0
ELLIPSE
  5
63B
100
AcDbEntity
  8
KONSTRUKTIONSELEMENTE
100
AcDbEllipse
 62
7
  6
CONTINUOUS
 10
84.2887414915
 20
181.1875657256
 30
0.0
 11
-5.4609441206
 21
22.4683287013
 31
0.0
 40
0.2185337797
 41
-0.8742153979
 42
-0.8642815733
  0
ELLIPSE
  5
63C
100
AcDbEntity
  8
KONSTRUKTIONSELEMENTE
100
AcDbEllipse
 62
7
  6
CONTINUOUS
 10
83.7637426343
 20
181.1875657256
 30
0.0
 11
20.264350637
 21
-20.8767523883
 31
0.0
 40
0.4140837726
 41
1.93164267
 42
1.9382671206
  0
ELLIPSE
  5
63D
100
AcDbEntity
  8
KONSTRUKTIONSELEMENTE
100
AcDbEllipse
 62
7
  6
CONTINUOUS
 10
81.8970747507
 20
181.1875657256
 30
0.0
 11
65.9838136949
 21
-16.8007294133
 31
0.0
 40
0.226815396
 41
1.5827940925
 42
1.5861069975
  0
ELLIPSE
  5
63E
100
AcDbEntity
  8
KONSTRUKTIONSELEMENTE
100
AcDbEllipse
 62
7
  6
CONTINUOUS
 10
76.705407853
 20
181.1875657256
 30
0.0
 11
64.5175067239
 21
16.4273798708
 31
0.0
 40
0.226815396
 41
1.4378929361
 42
1.4412870187
  0
ELLIPSE
  5
63F
100
AcDbEntity
  8
KONSTRUKTIONSELEMENTE
100
AcDbEllipse
 62
7
  6
CONTINUOUS
 10
76.705407853
 20
181.1875657256
 30
0.0
 11
65.9838136949
 21
16.8007294133
 31
0.0
 40
0.226815396
 41
1.4395674564
 42
1.4428857193
  0
ELLIPSE
  5
640
100
AcDbEntity
  8
KONSTRUKTIONSELEMENTE
100
AcDbEllipse
 62
7
  6
CONTINUOUS
 10
79.797081346
 20
181.1875657256
 30
0.0
 11
19.8139545476
 21
20.4128377192
 31
0.0
 40
0.4140837331
 41
7.3789350491
 42
7.3857207706
  0
ELLIPSE
  5
641
100
AcDbEntity
  8
KONSTRUKTIONSELEMENTE
100
AcDbEllipse
 62
7
  6
CONTINUOUS
 10
79.797081346
 20
181.1875657256
 30
0.0
 11
20.2642716964
 21
20.8767658492
 31
0.0
 40
0.4140837331
 41
1.0973484426
 42
1.1039826849
  0
ELLIPSE
  5
642
100
AcDbEntity
  8
KONSTRUKTIONSELEMENTE
100
AcDbEllipse
 62
7
  6
CONTINUOUS
 10
80.7304053834
 20
181.1875657256
 30
0.0
 11
5.3396232539
 21
21.9690318046
 31
0.0
 40
0.2185348906
 41
0.7734275352
 42
0.7759707418
  0
ELLIPSE
  5
643
100
AcDbEntity
  8
KONSTRUKTIONSELEMENTE
100
AcDbEllipse
 62
7
  6
CONTINUOUS
 10
80.7304053834
 20
181.1875657256
 30
0.0
 11
5.4609783278
 21
22.468327982
 31
0.0
 40
0.2185348906
 41
0.7748747567
 42
0.7848209563
  0
ELLIPSE
  5
644
100
AcDbEntity
  8
KONSTRUKTIONSELEMENTE
100
AcDbEllipse
 62
7
  6
CONTINUOUS
 10
81.2991583126
 20
181.1875657256
 30
0.0
 11
64.5175067239
 21
16.4273798708
 31
0.0
 40
0.226815396
 41
1.5090469973
 42
1.5124319209
  0
ELLIPSE
  5
645
100
AcDbEntity
  8
KONSTRUKTIONSELEMENTE
100
AcDbEllipse
 62
7
  6
CONTINUOUS
 10
81.2991583126
 20
181.1875657256
 30
0.0
 11
65.9838136949
 21
16.8007294133
 31
0.0
 40
0.226815396
 41
1.5091372624
 42
1.512446965
  0
ELLIPSE
  5
646
100
AcDbEntity
  8
KONSTRUKTIONSELEMENTE
100
AcDbEllipse
 62
7
  6
CONTINUOUS
 10
81.3283251166
 20
181.1875657256
 30
0.0
 11
19.8139629646
 21
20.4128362839
 31
0.0
 40
0.4140837374
 41
7.4500801263
 42
7.4568499892
  0
ELLIPSE
  5
647
100
AcDbEntity
  8
KONSTRUKTIONSELEMENTE
100
AcDbEllipse
 62
7
  6
CONTINUOUS
 10
81.3283251166
 20
181.1875657256
 30
0.0
 11
20.2642803047
 21
20.8767643813
 31
0.0
 40
0.4140837374
 41
1.1669098633
 42
1.1735292831
  0
ELLIPSE
  5
648
100
AcDbEntity
  8
KONSTRUKTIONSELEMENTE
100
AcDbEllipse
 62
7
  6
CONTINUOUS
 10
81.2408259783
 20
181.1875657256
 30
0.0
 11
5.3396232539
 21
21.9690318046
 31
0.0
 40
0.2185348906
 41
0.8445565789
 42
0.8469463489
  0
ELLIPSE
  5
649
100
AcDbEntity
  8
KONSTRUKTIONSELEMENTE
100
AcDbEllipse
 62
7
  6
CONTINUOUS
 10
81.2408259783
 20
181.1875657256
 30
0.0
 11
5.4609783278
 21
22.468327982
 31
0.0
 40
0.2185348906
 41
0.84442118
 42
0.8543508899
  0
ELLIPSE
  5
64A
100
AcDbEntity
  8
KONSTRUKTIONSELEMENTE
100
AcDbEllipse
 62
7
  6
CONTINUOUS
 10
81.7366561804
 20
181.1875657256
 30
0.0
 11
43.7044716202
 21
-17.8042874607
 31
0.0
 40
0.3147751946
 41
7.9954196024
 42
7.9987296967
  0
ELLIPSE
  5
64B
100
AcDbEntity
  8
KONSTRUKTIONSELEMENTE
100
AcDbEllipse
 62
7
  6
CONTINUOUS
 10
81.2627006888
 20
181.1875657256
 30
0.0
 11
-13.873115126
 21
21.3307010907
 31
0.0
 40
0.3881806888
 41
-1.0069492504
 42
-1.0015501232
  0
ELLIPSE
  5
64C
100
AcDbEntity
  8
KONSTRUKTIONSELEMENTE
100
AcDbEllipse
 62
7
  6
CONTINUOUS
 10
81.2627006888
 20
181.1875657256
 30
0.0
 11
-14.188413197
 21
21.8154897519
 31
0.0
 40
0.3881806888
 41
5.2677002025
 42
5.280942829
  0
ELLIPSE
  5
64D
100
AcDbEntity
  8
KONSTRUKTIONSELEMENTE
100
AcDbEllipse
 62
7
  6
CONTINUOUS
 10
80.9831883845
 20
181.1875657256
 30
0.0
 11
-5.3396205246
 21
21.969031862
 31
0.0
 40
0.2185348
 41
-0.8073174184
 42
-0.7971559651
  0
ELLIPSE
  5
64E
100
AcDbEntity
  8
KONSTRUKTIONSELEMENTE
100
AcDbEllipse
 62
7
  6
CONTINUOUS
 10
80.9831883845
 20
181.1875657256
 30
0.0
 11
-5.4609755366
 21
22.4683280407
 31
0.0
 40
0.2185348
 41
-0.8080097734
 42
-0.7980744189
  0
ELLIPSE
  5
64F
100
AcDbEntity
  8
KONSTRUKTIONSELEMENTE
100
AcDbEllipse
 62
7
  6
CONTINUOUS
 10
79.3728907706
 20
181.1875657256
 30
0.0
 11
18.7689810978
 21
20.5894204204
 31
0.0
 40
0.4129609291
 41
1.1312210089
 42
1.2091175147
  0
ELLIPSE
  5
650
100
AcDbEntity
  8
KONSTRUKTIONSELEMENTE
100
AcDbEllipse
 62
7
  6
CONTINUOUS
 10
79.3728907706
 20
181.1875657256
 30
0.0
 11
19.19554885
 21
21.0573617936
 31
0.0
 40
0.4129609291
 41
1.1315369653
 42
1.2077005648
  0
ELLIPSE
  5
651
100
AcDbEntity
  8
KONSTRUKTIONSELEMENTE
100
AcDbEllipse
 62
7
  6
CONTINUOUS
 10
88.2276648643
 20
181.1875657256
 30
0.0
 11
5.6071788829
 21
22.4651514474
 31
0.0
 40
0.2232471849
 41
0.7675204285
 42
0.9033243198
  0
ELLIPSE
  5
652
100
AcDbEntity
  8
KONSTRUKTIONSELEMENTE
100
AcDbEllipse
 62
7
  6
CONTINUOUS
 10
88.2276648643
 20
181.1875657256
 30
0.0
 11
5.4825749077
 21
21.9659258597
 31
0.0
 40
0.2232471849
 41
0.7658459082
 42
0.9047412698
  0
ELLIPSE
  5
653
100
AcDbEntity
  8
KONSTRUKTIONSELEMENTE
100
AcDbEllipse
 62
7
  6
CONTINUOUS
 10
89.3331526319
 20
181.1875657256
 30
0.0
 11
-5.6071788829
 21
22.4651514474
 31
0.0
 40
0.2232471849
 41
-0.9033243198
 42
-0.7675204285
  0
ELLIPSE
  5
654
100
AcDbEntity
  8
KONSTRUKTIONSELEMENTE
100
AcDbEllipse
 62
7
  6
CONTINUOUS
 10
89.3331526319
 20
181.1875657256
 30
0.0
 11
-5.4825749077
 21
21.9659258597
 31
0.0
 40
0.2232471849
 41
-0.9047412698
 42
-0.7658459082
  0
ELLIPSE
  5
655
100
AcDbEntity
  8
KONSTRUKTIONSELEMENTE
100
AcDbEllipse
 62
7
  6
CONTINUOUS
 10
74.7804029451
 20
181.1875657256
 30
0.0
 11
107.6850220694
 21
-15.8772637428
 31
0.0
 40
0.1414186782
 41
1.5279649252
 42
1.5313563522
  0
ELLIPSE
  5
656
100
AcDbEntity
  8
KONSTRUKTIONSELEMENTE
100
AcDbEllipse
 62
7
  6
CONTINUOUS
 10
74.7804029451
 20
181.1875657256
 30
0.0
 11
110.1324089346
 21
-16.238110646
 31
0.0
 40
0.1414186782
 41
1.5293818752
 42
1.5326976564
  0
ELLIPSE
  5
657
100
AcDbEntity
  8
KONSTRUKTIONSELEMENTE
100
AcDbEllipse
 62
7
  6
CONTINUOUS
 10
79.5394379236
 20
181.1875657256
 30
0.0
 11
27.7174083108
 21
-19.0908207548
 31
0.0
 40
0.3944618695
 41
1.77579665
 42
1.7859669237
  0
ELLIPSE
  5
658
100
AcDbEntity
  8
KONSTRUKTIONSELEMENTE
100
AcDbEllipse
 62
7
  6
CONTINUOUS
 10
79.5394379236
 20
181.1875657256
 30
0.0
 11
28.3473494088
 21
-19.5247030447
 31
0.0
 40
0.3944618695
 41
1.7771379542
 42
1.7870815526
  0
ELLIPSE
  5
659
100
AcDbEntity
  8
KONSTRUKTIONSELEMENTE
100
AcDbEllipse
 62
7
  6
CONTINUOUS
 10
80.1689505356
 20
181.1875657256
 30
0.0
 11
-13.873115126
 21
21.3307010907
 31
0.0
 40
0.3881806888
 41
-1.0828140477
 42
-1.0692615668
  0
ELLIPSE
  5
65A
100
AcDbEntity
  8
KONSTRUKTIONSELEMENTE
100
AcDbEllipse
 62
7
  6
CONTINUOUS
 10
78.8002006835
 20
181.1875657256
 30
0.0
 11
-11.4545892933
 21
21.6097896533
 31
0.0
 40
0.3601321255
 41
-0.9597421805
 42
-0.8784221124
  0
ELLIPSE
  5
65B
100
AcDbEntity
  8
KONSTRUKTIONSELEMENTE
100
AcDbEllipse
 62
7
  6
CONTINUOUS
 10
80.1689505356
 20
181.1875657256
 30
0.0
 11
-14.188413197
 21
21.8154897519
 31
0.0
 40
0.3881806888
 41
5.2014858885
 42
5.214736651
  0
ELLIPSE
  5
65C
100
AcDbEntity
  8
KONSTRUKTIONSELEMENTE
100
AcDbEllipse
 62
7
  6
CONTINUOUS
 10
84.7725284155
 20
181.1875657256
 30
0.0
 11
-6.523621034
 21
22.4402685494
 31
0.0
 40
0.2511485286
 41
-0.8410690987
 42
-0.7648109766
  0
ELLIPSE
  5
65D
100
AcDbEntity
  8
KONSTRUKTIONSELEMENTE
100
AcDbEllipse
 62
7
  6
CONTINUOUS
 10
84.7725284155
 20
181.1875657256
 30
0.0
 11
-6.3786516777
 21
21.941595915
 31
0.0
 40
0.2511485286
 41
-0.821169975
 42
-0.7626802502
  0
ELLIPSE
  5
65E
100
AcDbEntity
  8
KONSTRUKTIONSELEMENTE
100
AcDbEllipse
 62
7
  6
CONTINUOUS
 10
78.8002006835
 20
181.1875657256
 30
0.0
 11
-11.7149208682
 21
22.1009212364
 31
0.0
 40
0.3601321255
 41
-0.9733602719
 42
-0.8805528388
  0
ELLIPSE
  5
65F
100
AcDbEntity
  8
KONSTRUKTIONSELEMENTE
100
AcDbEllipse
 62
7
  6
CONTINUOUS
 10
80.497073601
 20
181.1875657256
 30
0.0
 11
-5.3396232539
 21
21.9690318046
 31
0.0
 40
0.2185348906
 41
-0.8750289112
 42
-0.8648690944
  0
ELLIPSE
  5
660
100
AcDbEntity
  8
KONSTRUKTIONSELEMENTE
100
AcDbEllipse
 62
7
  6
CONTINUOUS
 10
80.497073601
 20
181.1875657256
 30
0.0
 11
-5.4609783278
 21
22.468327982
 31
0.0
 40
0.2185348906
 41
-0.8742160006
 42
-0.864282176
  0
ELLIPSE
  5
661
100
AcDbEntity
  8
KONSTRUKTIONSELEMENTE
100
AcDbEllipse
 62
7
  6
CONTINUOUS
 10
84.6533251184
 20
181.1875657256
 30
0.0
 11
64.5175067239
 21
16.4273798708
 31
0.0
 40
0.226815396
 41
1.5090469973
 42
1.5124319209
  0
ELLIPSE
  5
662
100
AcDbEntity
  8
KONSTRUKTIONSELEMENTE
100
AcDbEllipse
 62
7
  6
CONTINUOUS
 10
83.8512414915
 20
181.1875657256
 30
0.0
 11
-5.4609441206
 21
22.4683287013
 31
0.0
 40
0.2185337797
 41
-0.8742153979
 42
-0.8642815733
  0
ELLIPSE
  5
663
100
AcDbEntity
  8
KONSTRUKTIONSELEMENTE
100
AcDbEllipse
 62
7
  6
CONTINUOUS
 10
83.8512414915
 20
181.1875657256
 30
0.0
 11
-5.3395898068
 21
21.9690325079
 31
0.0
 40
0.2185337797
 41
-0.8750283085
 42
-0.8648684917
  0
ELLIPSE
  5
664
100
AcDbEntity
  8
KONSTRUKTIONSELEMENTE
100
AcDbEllipse
 62
7
  6
CONTINUOUS
 10
83.5231169241
 20
181.1875657256
 30
0.0
 11
-14.188413197
 21
21.8154897519
 31
0.0
 40
0.3881806888
 41
5.2014858885
 42
5.214736651
  0
ELLIPSE
  5
665
100
AcDbEntity
  8
KONSTRUKTIONSELEMENTE
100
AcDbEllipse
 62
7
  6
CONTINUOUS
 10
83.5231169241
 20
181.1875657256
 30
0.0
 11
-13.873115126
 21
21.3307010907
 31
0.0
 40
0.3881806888
 41
-1.0828140477
 42
-1.0692615668
  0
ELLIPSE
  5
666
100
AcDbEntity
  8
KONSTRUKTIONSELEMENTE
100
AcDbEllipse
 62
7
  6
CONTINUOUS
 10
82.8936022538
 20
181.1875657256
 30
0.0
 11
28.3473947687
 21
-19.5246960631
 31
0.0
 40
0.3944616684
 41
1.7771373298
 42
1.7870809283
  0
ELLIPSE
  5
667
100
AcDbEntity
  8
KONSTRUKTIONSELEMENTE
100
AcDbEllipse
 62
7
  6
CONTINUOUS
 10
82.8936022538
 20
181.1875657256
 30
0.0
 11
27.7174526627
 21
-19.0908139284
 31
0.0
 40
0.3944616684
 41
1.7757960256
 42
1.7859662993
  0
ELLIPSE
  5
668
100
AcDbEntity
  8
KONSTRUKTIONSELEMENTE
100
AcDbEllipse
 62
7
  6
CONTINUOUS
 10
78.1345771776
 20
181.1875657256
 30
0.0
 11
110.1322827887
 21
-16.2381113884
 31
0.0
 40
0.1414188332
 41
1.5293819228
 42
1.5326977041
  0
ELLIPSE
  5
669
100
AcDbEntity
  8
KONSTRUKTIONSELEMENTE
100
AcDbEllipse
 62
7
  6
CONTINUOUS
 10
78.1345771776
 20
181.1875657256
 30
0.0
 11
107.6848987267
 21
-15.8772644686
 31
0.0
 40
0.1414188332
 41
1.5279649729
 42
1.5313563999
  0
ELLIPSE
  5
66A
100
AcDbEntity
  8
KONSTRUKTIONSELEMENTE
100
AcDbEllipse
 62
7
  6
CONTINUOUS
 10
84.6533251184
 20
181.1875657256
 30
0.0
 11
65.9838136949
 21
16.8007294133
 31
0.0
 40
0.226815396
 41
1.5091372624
 42
1.512446965
  0
ELLIPSE
  5
66B
100
AcDbEntity
  8
KONSTRUKTIONSELEMENTE
100
AcDbEllipse
 62
7
  6
CONTINUOUS
 10
84.6824918806
 20
181.1875657256
 30
0.0
 11
19.8140317339
 21
20.4128245574
 31
0.0
 40
0.4140837726
 41
7.4500815556
 42
7.4568514185
  0
ELLIPSE
  5
66C
100
AcDbEntity
  8
KONSTRUKTIONSELEMENTE
100
AcDbEllipse
 62
7
  6
CONTINUOUS
 10
84.6824918806
 20
181.1875657256
 30
0.0
 11
20.264350637
 21
20.8767523883
 31
0.0
 40
0.4140837726
 41
1.1669112925
 42
1.1735307124
  0
ELLIPSE
  5
66D
100
AcDbEntity
  8
KONSTRUKTIONSELEMENTE
100
AcDbEllipse
 62
7
  6
CONTINUOUS
 10
84.5949921165
 20
181.1875657256
 30
0.0
 11
5.3395898068
 21
21.9690325079
 31
0.0
 40
0.2185337797
 41
0.8445559762
 42
0.8486561907
  0
ELLIPSE
  5
66E
100
AcDbEntity
  8
KONSTRUKTIONSELEMENTE
100
AcDbEllipse
 62
7
  6
CONTINUOUS
 10
84.5949921165
 20
181.1875657256
 30
0.0
 11
5.4609441206
 21
22.4683287013
 31
0.0
 40
0.2185337797
 41
0.8444205773
 42
0.8543502872
  0
ELLIPSE
  5
66F
100
AcDbEntity
  8
KONSTRUKTIONSELEMENTE
100
AcDbEllipse
 62
7
  6
CONTINUOUS
 10
79.3728907706
 20
53.1756277338
 30
0.0
 11
19.19554885
 21
21.0573617936
 31
0.0
 40
0.4129609291
 41
-2.0584169734
 42
-1.982253374
  0
ELLIPSE
  5
670
100
AcDbEntity
  8
KONSTRUKTIONSELEMENTE
100
AcDbEllipse
 62
7
  6
CONTINUOUS
 10
78.8002006835
 20
53.1756277338
 30
0.0
 11
-11.7149208682
 21
22.1009212364
 31
0.0
 40
0.3601321255
 41
-4.2090842393
 42
-4.1162768062
  0
ELLIPSE
  5
671
100
AcDbEntity
  8
KONSTRUKTIONSELEMENTE
100
AcDbEllipse
 62
7
  6
CONTINUOUS
 10
76.705407853
 20
53.1756277338
 30
0.0
 11
65.9838136949
 21
16.8007294133
 31
0.0
 40
0.226815396
 41
-1.5582605621
 42
-1.5549422992
  0
ELLIPSE
  5
672
100
AcDbEntity
  8
KONSTRUKTIONSELEMENTE
100
AcDbEllipse
 62
7
  6
CONTINUOUS
 10
79.797081346
 20
53.1756277338
 30
0.0
 11
20.2642716964
 21
20.8767658492
 31
0.0
 40
0.4140837331
 41
-1.9104320811
 42
-1.9037978388
  0
ELLIPSE
  5
673
100
AcDbEntity
  8
KONSTRUKTIONSELEMENTE
100
AcDbEllipse
 62
7
  6
CONTINUOUS
 10
80.7304053834
 20
53.1756277338
 30
0.0
 11
5.4609783278
 21
22.468327982
 31
0.0
 40
0.2185348906
 41
-2.2494862088
 42
-2.2395400093
  0
ELLIPSE
  5
674
100
AcDbEntity
  8
KONSTRUKTIONSELEMENTE
100
AcDbEllipse
 62
7
  6
CONTINUOUS
 10
81.2991583126
 20
53.1756277338
 30
0.0
 11
65.9838136949
 21
16.8007294133
 31
0.0
 40
0.226815396
 41
-1.6278218078
 42
-1.6245121052
  0
ELLIPSE
  5
675
100
AcDbEntity
  8
KONSTRUKTIONSELEMENTE
100
AcDbEllipse
 62
7
  6
CONTINUOUS
 10
81.3283251166
 20
53.1756277338
 30
0.0
 11
20.2642803047
 21
20.8767643813
 31
0.0
 40
0.4140837374
 41
-1.9799783295
 42
-1.9733589096
  0
ELLIPSE
  5
676
100
AcDbEntity
  8
KONSTRUKTIONSELEMENTE
100
AcDbEllipse
 62
7
  6
CONTINUOUS
 10
81.2408259783
 20
53.1756277338
 30
0.0
 11
5.4609783278
 21
22.468327982
 31
0.0
 40
0.2185348906
 41
-2.3190161425
 42
-2.3090864326
  0
ELLIPSE
  5
677
100
AcDbEntity
  8
KONSTRUKTIONSELEMENTE
100
AcDbEllipse
 62
7
  6
CONTINUOUS
 10
81.7366561804
 20
53.1756277338
 30
0.0
 11
43.7044716202
 21
-17.8042874607
 31
0.0
 40
0.3147751946
 41
-1.4604707669
 42
-1.4571606726
  0
ELLIPSE
  5
678
100
AcDbEntity
  8
KONSTRUKTIONSELEMENTE
100
AcDbEllipse
 62
7
  6
CONTINUOUS
 10
81.2627006888
 20
53.1756277338
 30
0.0
 11
-14.188413197
 21
21.8154897519
 31
0.0
 40
0.3881806888
 41
-4.2047428876
 42
-4.1915002611
  0
ELLIPSE
  5
679
100
AcDbEntity
  8
KONSTRUKTIONSELEMENTE
100
AcDbEllipse
 62
7
  6
CONTINUOUS
 10
80.9831883845
 20
53.1756277338
 30
0.0
 11
-5.4609755366
 21
22.4683280407
 31
0.0
 40
0.2185348
 41
-4.0204455374
 42
-4.0105101829
  0
ELLIPSE
  5
67A
100
AcDbEntity
  8
KONSTRUKTIONSELEMENTE
100
AcDbEllipse
 62
7
  6
CONTINUOUS
 10
88.2276648643
 20
53.1756277338
 30
0.0
 11
5.6071788829
 21
22.4651514474
 31
0.0
 40
0.2232471849
 41
-2.3627932184
 42
-2.2269893271
  0
ELLIPSE
  5
67B
100
AcDbEntity
  8
KONSTRUKTIONSELEMENTE
100
AcDbEllipse
 62
7
  6
CONTINUOUS
 10
89.3331526319
 20
53.1756277338
 30
0.0
 11
-5.6071788829
 21
22.4651514474
 31
0.0
 40
0.2232471849
 41
-4.0561959801
 42
-3.9203920888
  0
ELLIPSE
  5
67C
100
AcDbEntity
  8
KONSTRUKTIONSELEMENTE
100
AcDbEllipse
 62
7
  6
CONTINUOUS
 10
84.7725284155
 20
53.1756277338
 30
0.0
 11
-6.523621034
 21
22.4402685494
 31
0.0
 40
0.2511485286
 41
-4.0933423771
 42
-4.0170842551
  0
ELLIPSE
  5
67D
100
AcDbEntity
  8
KONSTRUKTIONSELEMENTE
100
AcDbEllipse
 62
7
  6
CONTINUOUS
 10
74.7804029451
 20
53.1756277338
 30
0.0
 11
110.1324089346
 21
-16.238110646
 31
0.0
 40
0.1414186782
 41
-1.491001675
 42
-1.4876858938
  0
ELLIPSE
  5
67E
100
AcDbEntity
  8
KONSTRUKTIONSELEMENTE
100
AcDbEllipse
 62
7
  6
CONTINUOUS
 10
79.5394379236
 20
53.1756277338
 30
0.0
 11
28.3473494088
 21
-19.5247030447
 31
0.0
 40
0.3944618695
 41
-1.2565049757
 42
-1.2465613772
  0
ELLIPSE
  5
67F
100
AcDbEntity
  8
KONSTRUKTIONSELEMENTE
100
AcDbEllipse
 62
7
  6
CONTINUOUS
 10
83.8512414915
 20
53.1756277338
 30
0.0
 11
-5.4609441206
 21
22.4683287013
 31
0.0
 40
0.2185337797
 41
-3.9542372759
 42
-3.9443034513
  0
ELLIPSE
  5
680
100
AcDbEntity
  8
KONSTRUKTIONSELEMENTE
100
AcDbEllipse
 62
7
  6
CONTINUOUS
 10
80.1689505356
 20
53.1756277338
 30
0.0
 11
-14.188413197
 21
21.8154897519
 31
0.0
 40
0.3881806888
 41
-4.1385367096
 42
-4.1252859471
  0
ELLIPSE
  5
681
100
AcDbEntity
  8
KONSTRUKTIONSELEMENTE
100
AcDbEllipse
 62
7
  6
CONTINUOUS
 10
80.497073601
 20
53.1756277338
 30
0.0
 11
-5.4609783278
 21
22.468327982
 31
0.0
 40
0.2185348906
 41
-3.9542378786
 42
-3.944304054
  0
ELLIPSE
  5
682
100
AcDbEntity
  8
KONSTRUKTIONSELEMENTE
100
AcDbEllipse
 62
7
  6
CONTINUOUS
 10
83.5231169241
 20
53.1756277338
 30
0.0
 11
-14.188413197
 21
21.8154897519
 31
0.0
 40
0.3881806888
 41
-4.1385367096
 42
-4.1252859471
  0
ELLIPSE
  5
683
100
AcDbEntity
  8
KONSTRUKTIONSELEMENTE
100
AcDbEllipse
 62
7
  6
CONTINUOUS
 10
82.8936022538
 20
53.1756277338
 30
0.0
 11
28.3473947687
 21
-19.5246960631
 31
0.0
 40
0.3944616684
 41
-1.2565056001
 42
-1.2465620016
  0
ELLIPSE
  5
684
100
AcDbEntity
  8
KONSTRUKTIONSELEMENTE
100
AcDbEllipse
 62
7
  6
CONTINUOUS
 10
78.1345771776
 20
53.1756277338
 30
0.0
 11
110.1322827887
 21
-16.2381113884
 31
0.0
 40
0.1414188332
 41
-1.4910016273
 42
-1.4876858461
  0
ELLIPSE
  5
685
100
AcDbEntity
  8
KONSTRUKTIONSELEMENTE
100
AcDbEllipse
 62
7
  6
CONTINUOUS
 10
84.6533251184
 20
53.1756277338
 30
0.0
 11
65.9838136949
 21
16.8007294133
 31
0.0
 40
0.226815396
 41
-1.6278218078
 42
-1.6245121052
  0
ELLIPSE
  5
686
100
AcDbEntity
  8
KONSTRUKTIONSELEMENTE
100
AcDbEllipse
 62
7
  6
CONTINUOUS
 10
84.6824918806
 20
53.1756277338
 30
0.0
 11
20.264350637
 21
20.8767523883
 31
0.0
 40
0.4140837726
 41
-1.9799769002
 42
-1.9733574804
  0
ELLIPSE
  5
687
100
AcDbEntity
  8
KONSTRUKTIONSELEMENTE
100
AcDbEllipse
 62
7
  6
CONTINUOUS
 10
84.5949921165
 20
53.1756277338
 30
0.0
 11
5.4609441206
 21
22.4683287013
 31
0.0
 40
0.2185337797
 41
-2.3190167452
 42
-2.3090870353
  0
ELLIPSE
  5
688
100
AcDbEntity
  8
KONSTRUKTIONSELEMENTE
100
AcDbEllipse
 62
7
  6
CONTINUOUS
 10
79.4026910404
 20
53.1756277338
 30
0.0
 11
-11.6597655105
 21
21.5889815508
 31
0.0
 40
0.3630188717
 41
-4.2161942328
 42
-4.1381965891
  0
ELLIPSE
  5
689
100
AcDbEntity
  8
KONSTRUKTIONSELEMENTE
100
AcDbEllipse
 62
7
  6
CONTINUOUS
 10
79.4026910404
 20
53.1756277338
 30
0.0
 11
-11.9247601812
 21
22.0796402224
 31
0.0
 40
0.3630188717
 41
-4.2140635064
 42
-4.1378053843
  0
ELLIPSE
  5
68A
100
AcDbEntity
  8
KONSTRUKTIONSELEMENTE
100
AcDbEllipse
 62
7
  6
CONTINUOUS
 10
78.7762413903
 20
53.1756277338
 30
0.0
 11
19.8140760451
 21
20.4128170015
 31
0.0
 40
0.4140837954
 41
-1.9564160436
 42
-1.9327108136
  0
ELLIPSE
  5
68B
100
AcDbEntity
  8
KONSTRUKTIONSELEMENTE
100
AcDbEllipse
 62
7
  6
CONTINUOUS
 10
78.7762413903
 20
53.1756277338
 30
0.0
 11
20.2643959552
 21
20.8767446607
 31
0.0
 40
0.4140837954
 41
-1.9568072484
 42
-1.9336292673
  0
ELLIPSE
  5
68C
100
AcDbEntity
  8
KONSTRUKTIONSELEMENTE
100
AcDbEllipse
 62
7
  6
CONTINUOUS
 10
81.4449941141
 20
53.1756277338
 30
0.0
 11
-5.3396205246
 21
21.969031862
 31
0.0
 40
0.2185348
 41
2.2642047623
 42
2.2685960291
  0
ELLIPSE
  5
68D
100
AcDbEntity
  8
KONSTRUKTIONSELEMENTE
100
AcDbEllipse
 62
7
  6
CONTINUOUS
 10
81.4449941141
 20
53.1756277338
 30
0.0
 11
-5.4609755366
 21
22.4683280407
 31
0.0
 40
0.2185348
 41
-4.0237581588
 42
-4.0138215836
  0
ELLIPSE
  5
68E
100
AcDbEntity
  8
KONSTRUKTIONSELEMENTE
100
AcDbEllipse
 62
7
  6
CONTINUOUS
 10
81.9408228618
 20
53.1756277338
 30
0.0
 11
19.8139629646
 21
-20.4128362839
 31
0.0
 40
0.4140837374
 41
5.0810805304
 42
5.0878536535
  0
ELLIPSE
  5
68F
100
AcDbEntity
  8
KONSTRUKTIONSELEMENTE
100
AcDbEllipse
 62
7
  6
CONTINUOUS
 10
81.9408228618
 20
53.1756277338
 30
0.0
 11
20.2642803047
 21
-20.8767643813
 31
0.0
 40
0.4140837374
 41
-1.2013370823
 42
-1.1947146149
  0
ELLIPSE
  5
690
100
AcDbEntity
  8
KONSTRUKTIONSELEMENTE
100
AcDbEllipse
 62
7
  6
CONTINUOUS
 10
83.1366585577
 20
53.1756277338
 30
0.0
 11
64.5175067239
 21
-16.4273798708
 31
0.0
 40
0.226815396
 41
-1.5408687555
 42
-1.537482691
  0
ELLIPSE
  5
691
100
AcDbEntity
  8
KONSTRUKTIONSELEMENTE
100
AcDbEllipse
 62
7
  6
CONTINUOUS
 10
83.1366585577
 20
53.1756277338
 30
0.0
 11
65.9838136949
 21
-16.8007294133
 31
0.0
 40
0.226815396
 41
-1.5402517166
 42
-1.5369409476
  0
ELLIPSE
  5
692
100
AcDbEntity
  8
KONSTRUKTIONSELEMENTE
100
AcDbEllipse
 62
7
  6
CONTINUOUS
 10
80.9588795644
 20
53.1756277338
 30
0.0
 11
-5.3396177954
 21
21.9690319194
 31
0.0
 40
0.2185347093
 41
-3.9488270349
 42
-3.9468780184
  0
ELLIPSE
  5
693
100
AcDbEntity
  8
KONSTRUKTIONSELEMENTE
100
AcDbEllipse
 62
7
  6
CONTINUOUS
 10
80.9588795644
 20
53.1756277338
 30
0.0
 11
-5.4609727453
 21
22.4683280993
 31
0.0
 40
0.2185347093
 41
-3.9575484497
 42
-3.9476155742
  0
ELLIPSE
  5
694
100
AcDbEntity
  8
KONSTRUKTIONSELEMENTE
100
AcDbEllipse
 62
7
  6
CONTINUOUS
 10
80.4824948873
 20
53.1756277338
 30
0.0
 11
19.8139629646
 21
-20.4128362839
 31
0.0
 40
0.4140837374
 41
5.1487917409
 42
5.1555661072
  0
ELLIPSE
  5
695
100
AcDbEntity
  8
KONSTRUKTIONSELEMENTE
100
AcDbEllipse
 62
7
  6
CONTINUOUS
 10
80.4824948873
 20
53.1756277338
 30
0.0
 11
20.2642803047
 21
-20.8767643813
 31
0.0
 40
0.4140837374
 41
-1.1351311221
 42
-1.1285074926
  0
ELLIPSE
  5
696
100
AcDbEntity
  8
KONSTRUKTIONSELEMENTE
100
AcDbEllipse
 62
7
  6
CONTINUOUS
 10
78.7616579449
 20
53.1756277338
 30
0.0
 11
64.5175067239
 21
-16.4273798708
 31
0.0
 40
0.226815396
 41
-1.4731563017
 42
-1.46976845
  0
ELLIPSE
  5
697
100
AcDbEntity
  8
KONSTRUKTIONSELEMENTE
100
AcDbEllipse
 62
7
  6
CONTINUOUS
 10
78.7616579449
 20
53.1756277338
 30
0.0
 11
65.9838136949
 21
-16.8007294133
 31
0.0
 40
0.226815396
 41
-1.4740445944
 42
-1.4707321547
  0
ELLIPSE
  5
698
100
AcDbEntity
  8
KONSTRUKTIONSELEMENTE
100
AcDbEllipse
 62
7
  6
CONTINUOUS
 10
80.26859974
 20
53.1756277338
 30
0.0
 11
5.3396218893
 21
21.9690318333
 31
0.0
 40
0.2185348453
 41
-2.2448755338
 42
-2.2347003449
  0
ELLIPSE
  5
699
100
AcDbEntity
  8
KONSTRUKTIONSELEMENTE
100
AcDbEllipse
 62
7
  6
CONTINUOUS
 10
80.26859974
 20
53.1756277338
 30
0.0
 11
5.4609769322
 21
22.4683280113
 31
0.0
 40
0.2185348453
 41
-2.2461714725
 42
-2.2362232802
  0
ELLIPSE
  5
69A
100
AcDbEntity
  8
KONSTRUKTIONSELEMENTE
100
AcDbEllipse
 62
7
  6
CONTINUOUS
 10
79.6548881093
 20
53.1756277338
 30
0.0
 11
13.8731136086
 21
21.3307012877
 31
0.0
 40
0.388180675
 41
-2.0404677013
 42
-2.0268895535
  0
ELLIPSE
  5
69B
100
AcDbEntity
  8
KONSTRUKTIONSELEMENTE
100
AcDbEllipse
 62
7
  6
CONTINUOUS
 10
79.6548881093
 20
53.1756277338
 30
0.0
 11
14.1884116452
 21
21.8154899533
 31
0.0
 40
0.388180675
 41
4.2411946705
 42
4.2544694206
  0
ELLIPSE
  5
69C
100
AcDbEntity
  8
KONSTRUKTIONSELEMENTE
100
AcDbEllipse
 62
7
  6
CONTINUOUS
 10
78.6255500373
 20
53.1756277338
 30
0.0
 11
27.7174055966
 21
19.0908211726
 31
0.0
 40
0.3944618819
 41
-1.7540778729
 42
-1.7438844459
  0
ELLIPSE
  5
69D
100
AcDbEntity
  8
KONSTRUKTIONSELEMENTE
100
AcDbEllipse
 62
7
  6
CONTINUOUS
 10
87.7887420884
 20
53.1756277338
 30
0.0
 11
5.5884597683
 21
22.4655696724
 31
0.0
 40
0.2226478464
 41
-2.3631283285
 42
-2.2073965127
  0
ELLIPSE
  5
69E
100
AcDbEntity
  8
KONSTRUKTIONSELEMENTE
100
AcDbEllipse
 62
7
  6
CONTINUOUS
 10
87.7887420884
 20
53.1756277338
 30
0.0
 11
5.4642717735
 21
21.9663347908
 31
0.0
 40
0.2226478464
 41
-2.3645452784
 42
-2.2052657863
  0
ELLIPSE
  5
69F
100
AcDbEntity
  8
KONSTRUKTIONSELEMENTE
100
AcDbEllipse
 62
7
  6
CONTINUOUS
 10
78.6255500373
 20
53.1756277338
 30
0.0
 11
28.3473466329
 21
19.5247034719
 31
0.0
 40
0.3944618819
 41
-1.7559042059
 42
-1.7459389713
  0
ELLIPSE
  5
6A0
100
AcDbEntity
  8
KONSTRUKTIONSELEMENTE
100
AcDbEllipse
 62
7
  6
CONTINUOUS
 10
71.3533174886
 20
53.1756277338
 30
0.0
 11
107.685012634
 21
15.8772637983
 31
0.0
 40
0.1414186901
 41
-1.4994441136
 42
-1.4960442213
  0
ELLIPSE
  5
6A1
100
AcDbEntity
  8
KONSTRUKTIONSELEMENTE
100
AcDbEllipse
 62
7
  6
CONTINUOUS
 10
71.3533174886
 20
53.1756277338
 30
0.0
 11
110.1323992848
 21
16.2381107028
 31
0.0
 40
0.1414186901
 41
-1.501498639
 42
-1.4981749477
  0
ELLIPSE
  5
6A2
100
AcDbEntity
  8
KONSTRUKTIONSELEMENTE
100
AcDbEllipse
 62
7
  6
CONTINUOUS
 10
89.7720753661
 20
53.1756277338
 30
0.0
 11
-5.588460317
 21
22.4655696602
 31
0.0
 40
0.222647864
 41
-4.0757888043
 42
-3.9200569885
  0
ELLIPSE
  5
6A3
100
AcDbEntity
  8
KONSTRUKTIONSELEMENTE
100
AcDbEllipse
 62
7
  6
CONTINUOUS
 10
89.7720753661
 20
53.1756277338
 30
0.0
 11
-5.46427231
 21
21.9663347788
 31
0.0
 40
0.222647864
 41
-4.0779195307
 42
-3.9186400386
  0
ELLIPSE
  5
6A4
100
AcDbEntity
  8
KONSTRUKTIONSELEMENTE
100
AcDbEllipse
 62
7
  6
CONTINUOUS
 10
85.2616589367
 20
53.1756277338
 30
0.0
 11
-6.3303910753
 21
22.4462633288
 31
0.0
 40
0.2455000786
 41
-4.0895868534
 42
-4.0199495221
  0
ELLIPSE
  5
6A5
100
AcDbEntity
  8
KONSTRUKTIONSELEMENTE
100
AcDbEllipse
 62
7
  6
CONTINUOUS
 10
85.2616589367
 20
53.1756277338
 30
0.0
 11
-6.1897157181
 21
21.947457477
 31
0.0
 40
0.2455000786
 41
-4.0917175798
 42
-4.0204912655
  0
ELLIPSE
  5
6A6
100
AcDbEntity
  8
KONSTRUKTIONSELEMENTE
100
AcDbEllipse
 62
7
  6
CONTINUOUS
 10
83.8658250758
 20
53.1756277338
 30
0.0
 11
43.7046650524
 21
17.8042730461
 31
0.0
 40
0.3147742283
 41
-1.6877408751
 42
-1.6811208389
  0
ELLIPSE
  5
6A7
100
AcDbEntity
  8
KONSTRUKTIONSELEMENTE
100
AcDbEllipse
 62
7
  6
CONTINUOUS
 10
83.8658250758
 20
53.1756277338
 30
0.0
 11
42.7334502734
 21
17.408622534
 31
0.0
 40
0.3147742283
 41
-1.6875001564
 42
-1.6843590866
  0
ELLIPSE
  5
6A8
100
AcDbEntity
  8
KONSTRUKTIONSELEMENTE
100
AcDbEllipse
 62
7
  6
CONTINUOUS
 10
84.157492016
 20
53.1756277338
 30
0.0
 11
14.188413197
 21
21.8154897519
 31
0.0
 40
0.3881806888
 41
4.1716412546
 42
4.1848802248
  0
ELLIPSE
  5
6A9
100
AcDbEntity
  8
KONSTRUKTIONSELEMENTE
100
AcDbEllipse
 62
7
  6
CONTINUOUS
 10
84.157492016
 20
53.1756277338
 30
0.0
 11
13.873115126
 21
21.3307010907
 31
0.0
 40
0.3881806888
 41
-2.1116042289
 42
-2.0980643636
  0
ELLIPSE
  5
6AA
100
AcDbEntity
  8
KONSTRUKTIONSELEMENTE
100
AcDbEllipse
 62
7
  6
CONTINUOUS
 10
84.1331865146
 20
53.1756277338
 30
0.0
 11
5.4609441206
 21
22.4683287013
 31
0.0
 40
0.2185337797
 41
-2.3157067162
 42
-2.3057773109
  0
ELLIPSE
  5
6AB
100
AcDbEntity
  8
KONSTRUKTIONSELEMENTE
100
AcDbEllipse
 62
7
  6
CONTINUOUS
 10
84.1331865146
 20
53.1756277338
 30
0.0
 11
5.3395898068
 21
21.9690325079
 31
0.0
 40
0.2185337797
 41
-2.3159925763
 42
-2.3058374873
  0
ELLIPSE
  5
6AC
100
AcDbEntity
  8
KONSTRUKTIONSELEMENTE
100
AcDbEllipse
 62
7
  6
CONTINUOUS
 10
80.7790202373
 20
53.1756277338
 30
0.0
 11
5.3396232539
 21
21.9690318046
 31
0.0
 40
0.2185348906
 41
-2.3159919736
 42
-2.3058368845
  0
ELLIPSE
  5
6AD
100
AcDbEntity
  8
KONSTRUKTIONSELEMENTE
100
AcDbEllipse
 62
7
  6
CONTINUOUS
 10
80.7790202373
 20
53.1756277338
 30
0.0
 11
5.4609783278
 21
22.468327982
 31
0.0
 40
0.2185348906
 41
-2.3157061135
 42
-2.3057767081
  0
ELLIPSE
  5
6AE
100
AcDbEntity
  8
KONSTRUKTIONSELEMENTE
100
AcDbEllipse
 62
7
  6
CONTINUOUS
 10
80.8033256275
 20
53.1756277338
 30
0.0
 11
13.873115126
 21
21.3307010907
 31
0.0
 40
0.3881806888
 41
-2.1116042289
 42
-2.1058875342
  0
ELLIPSE
  5
6AF
100
AcDbEntity
  8
KONSTRUKTIONSELEMENTE
100
AcDbEllipse
 62
7
  6
CONTINUOUS
 10
80.8033256275
 20
53.1756277338
 30
0.0
 11
14.188413197
 21
21.8154897519
 31
0.0
 40
0.3881806888
 41
4.1716412546
 42
4.1848802248
  0
ELLIPSE
  5
6B0
100
AcDbEntity
  8
KONSTRUKTIONSELEMENTE
100
AcDbEllipse
 62
7
  6
CONTINUOUS
 10
78.777009832
 20
53.1756277338
 30
0.0
 11
18.5490651606
 21
20.626086414
 31
0.0
 40
0.4125678793
 41
-2.0645946175
 42
-2.0093864218
  0
ELLIPSE
  5
6B1
100
AcDbEntity
  8
KONSTRUKTIONSELEMENTE
100
AcDbEllipse
 62
7
  6
CONTINUOUS
 10
80.51166069
 20
53.1756277338
 30
0.0
 11
43.7044716202
 21
17.8042874607
 31
0.0
 40
0.3147751946
 41
4.5954433843
 42
4.5987533262
  0
ELLIPSE
  5
6B2
100
AcDbEntity
  8
KONSTRUKTIONSELEMENTE
100
AcDbEllipse
 62
7
  6
CONTINUOUS
 10
78.777009832
 20
53.1756277338
 30
0.0
 11
18.9706348233
 21
21.0948611053
 31
0.0
 40
0.4125678793
 41
4.2200076396
 42
4.2829320223
  0
ELLIPSE
  5
6B3
100
AcDbEntity
  8
KONSTRUKTIONSELEMENTE
100
AcDbEllipse
 62
7
  6
CONTINUOUS
 10
84.2887414915
 20
53.1756277338
 30
0.0
 11
-5.3395898068
 21
21.9690325079
 31
0.0
 40
0.2185337797
 41
-3.9460304685
 42
-3.9434905407
  0
ELLIPSE
  5
6B4
100
AcDbEntity
  8
KONSTRUKTIONSELEMENTE
100
AcDbEllipse
 62
7
  6
CONTINUOUS
 10
81.8970747507
 20
53.1756277338
 30
0.0
 11
65.9838136949
 21
-16.8007294133
 31
0.0
 40
0.226815396
 41
-1.4707321547
 42
-1.4674192497
  0
ELLIPSE
  5
6B5
100
AcDbEntity
  8
KONSTRUKTIONSELEMENTE
100
AcDbEllipse
 62
7
  6
CONTINUOUS
 10
81.8970747507
 20
53.1756277338
 30
0.0
 11
64.5175067239
 21
-16.4273798708
 31
0.0
 40
0.226815396
 41
-1.46976845
 42
-1.4663801004
  0
ELLIPSE
  5
6B6
100
AcDbEntity
  8
KONSTRUKTIONSELEMENTE
100
AcDbEllipse
 62
7
  6
CONTINUOUS
 10
83.7637426343
 20
53.1756277338
 30
0.0
 11
20.264350637
 21
-20.8767523883
 31
0.0
 40
0.4140837726
 41
-1.1318209328
 42
-1.1251964822
  0
ELLIPSE
  5
6B7
100
AcDbEntity
  8
KONSTRUKTIONSELEMENTE
100
AcDbEllipse
 62
7
  6
CONTINUOUS
 10
83.7637426343
 20
53.1756277338
 30
0.0
 11
19.8140317339
 21
-20.4128245574
 31
0.0
 40
0.4140837726
 41
5.152177285
 42
5.1589525298
  0
ELLIPSE
  5
6B8
100
AcDbEntity
  8
KONSTRUKTIONSELEMENTE
100
AcDbEllipse
 62
7
  6
CONTINUOUS
 10
84.2887414915
 20
53.1756277338
 30
0.0
 11
-5.4609441206
 21
22.4683287013
 31
0.0
 40
0.2185337797
 41
-3.9542372759
 42
-3.9443034513
  0
ELLIPSE
  5
6B9
100
AcDbEntity
  8
KONSTRUKTIONSELEMENTE
100
AcDbEllipse
 62
7
  6
CONTINUOUS
 10
213.6404742613
 20
53.1756277338
 30
0.0
 11
18.9706348233
 21
21.0948611053
 31
0.0
 40
0.4125678793
 41
-2.0015771656
 42
-1.9386527829
  0
ELLIPSE
  5
6BA
100
AcDbEntity
  8
KONSTRUKTIONSELEMENTE
100
AcDbEllipse
 62
7
  6
CONTINUOUS
 10
213.0147930529
 20
53.1756277338
 30
0.0
 11
-11.9247601812
 21
22.0796402224
 31
0.0
 40
0.3630188717
 41
-4.1033828815
 42
-4.0271247594
  0
ELLIPSE
  5
6BB
100
AcDbEntity
  8
KONSTRUKTIONSELEMENTE
100
AcDbEllipse
 62
7
  6
CONTINUOUS
 10
213.6412427031
 20
53.1756277338
 30
0.0
 11
20.2643959552
 21
20.8767446607
 31
0.0
 40
0.4140837954
 41
-2.0144077323
 42
-1.9912297512
  0
ELLIPSE
  5
6BC
100
AcDbEntity
  8
KONSTRUKTIONSELEMENTE
100
AcDbEllipse
 62
7
  6
CONTINUOUS
 10
210.9724899792
 20
53.1756277338
 30
0.0
 11
-5.4609755366
 21
22.4683280407
 31
0.0
 40
0.2185348
 41
-3.9462910263
 42
-3.936354451
  0
ELLIPSE
  5
6BD
100
AcDbEntity
  8
KONSTRUKTIONSELEMENTE
100
AcDbEllipse
 62
7
  6
CONTINUOUS
 10
210.4766612315
 20
53.1756277338
 30
0.0
 11
20.2642803047
 21
-20.8767643813
 31
0.0
 40
0.4140837374
 41
-1.1404289924
 42
-1.133806525
  0
ELLIPSE
  5
6BE
100
AcDbEntity
  8
KONSTRUKTIONSELEMENTE
100
AcDbEllipse
 62
7
  6
CONTINUOUS
 10
209.2808255356
 20
53.1756277338
 30
0.0
 11
65.9838136949
 21
-16.8007294133
 31
0.0
 40
0.226815396
 41
-1.4892768633
 42
-1.4859660942
  0
ELLIPSE
  5
6BF
100
AcDbEntity
  8
KONSTRUKTIONSELEMENTE
100
AcDbEllipse
 62
7
  6
CONTINUOUS
 10
211.4586045289
 20
53.1756277338
 30
0.0
 11
-5.4609727453
 21
22.4683280993
 31
0.0
 40
0.2185347093
 41
-4.0124969372
 42
-4.0025640617
  0
ELLIPSE
  5
6C0
100
AcDbEntity
  8
KONSTRUKTIONSELEMENTE
100
AcDbEllipse
 62
7
  6
CONTINUOUS
 10
211.934989206
 20
53.1756277338
 30
0.0
 11
20.2642803047
 21
-20.8767643813
 31
0.0
 40
0.4140837374
 41
-1.2066361146
 42
-1.2000124851
  0
ELLIPSE
  5
6C1
100
AcDbEntity
  8
KONSTRUKTIONSELEMENTE
100
AcDbEllipse
 62
7
  6
CONTINUOUS
 10
213.6558261484
 20
53.1756277338
 30
0.0
 11
65.9838136949
 21
-16.8007294133
 31
0.0
 40
0.226815396
 41
-1.5554856561
 42
-1.5521732164
  0
ELLIPSE
  5
6C2
100
AcDbEntity
  8
KONSTRUKTIONSELEMENTE
100
AcDbEllipse
 62
7
  6
CONTINUOUS
 10
212.1488843533
 20
53.1756277338
 30
0.0
 11
5.4609769322
 21
22.4683280113
 31
0.0
 40
0.2185348453
 41
-2.3700346751
 42
-2.3600864828
  0
ELLIPSE
  5
6C3
100
AcDbEntity
  8
KONSTRUKTIONSELEMENTE
100
AcDbEllipse
 62
7
  6
CONTINUOUS
 10
212.762595984
 20
53.1756277338
 30
0.0
 11
14.1884116452
 21
21.8154899533
 31
0.0
 40
0.388180675
 41
-2.1890767816
 42
-2.1758020315
  0
ELLIPSE
  5
6C4
100
AcDbEntity
  8
KONSTRUKTIONSELEMENTE
100
AcDbEllipse
 62
7
  6
CONTINUOUS
 10
213.791934056
 20
53.1756277338
 30
0.0
 11
28.3473466329
 21
19.5247034719
 31
0.0
 40
0.3944618819
 41
-1.9262303356
 42
-1.916265101
  0
ELLIPSE
  5
6C5
100
AcDbEntity
  8
KONSTRUKTIONSELEMENTE
100
AcDbEllipse
 62
7
  6
CONTINUOUS
 10
221.0641666047
 20
53.1756277338
 30
0.0
 11
110.1323992848
 21
16.2381107028
 31
0.0
 40
0.1414186901
 41
-1.6851136946
 42
-1.6817900033
  0
ELLIPSE
  5
6C6
100
AcDbEntity
  8
KONSTRUKTIONSELEMENTE
100
AcDbEllipse
 62
7
  6
CONTINUOUS
 10
204.6287420049
 20
53.1756277338
 30
0.0
 11
5.5884597683
 21
22.4655696724
 31
0.0
 40
0.2226478464
 41
-2.3943352596
 42
-2.2386034438
  0
ELLIPSE
  5
6C7
100
AcDbEntity
  8
KONSTRUKTIONSELEMENTE
100
AcDbEllipse
 62
7
  6
CONTINUOUS
 10
202.6454087272
 20
53.1756277338
 30
0.0
 11
-5.588460317
 21
22.4655696602
 31
0.0
 40
0.222647864
 41
-4.0445818732
 42
-3.8888500574
  0
ELLIPSE
  5
6C8
100
AcDbEntity
  8
KONSTRUKTIONSELEMENTE
100
AcDbEllipse
 62
7
  6
CONTINUOUS
 10
207.1558251567
 20
53.1756277338
 30
0.0
 11
-6.3303910753
 21
22.4462633288
 31
0.0
 40
0.2455000786
 41
-3.9722854378
 42
-3.9026481065
  0
ELLIPSE
  5
6C9
100
AcDbEntity
  8
KONSTRUKTIONSELEMENTE
100
AcDbEllipse
 62
7
  6
CONTINUOUS
 10
208.5516590176
 20
53.1756277338
 30
0.0
 11
43.7046650524
 21
17.8042730461
 31
0.0
 40
0.3147742283
 41
-1.7155433417
 42
-1.7089233054
  0
ELLIPSE
  5
6CA
100
AcDbEntity
  8
KONSTRUKTIONSELEMENTE
100
AcDbEllipse
 62
7
  6
CONTINUOUS
 10
208.2599920773
 20
53.1756277338
 30
0.0
 11
14.188413197
 21
21.8154897519
 31
0.0
 40
0.3881806888
 41
-2.1194875126
 42
-2.1062485424
  0
ELLIPSE
  5
6CB
100
AcDbEntity
  8
KONSTRUKTIONSELEMENTE
100
AcDbEllipse
 62
7
  6
CONTINUOUS
 10
208.2842975787
 20
53.1756277338
 30
0.0
 11
5.4609441206
 21
22.4683287013
 31
0.0
 40
0.2185337797
 41
-2.3004818008
 42
-2.2905523954
  0
ELLIPSE
  5
6CC
100
AcDbEntity
  8
KONSTRUKTIONSELEMENTE
100
AcDbEllipse
 62
7
  6
CONTINUOUS
 10
211.638463856
 20
53.1756277338
 30
0.0
 11
5.4609783278
 21
22.468327982
 31
0.0
 40
0.2185348906
 41
-2.300481198
 42
-2.2905517927
  0
ELLIPSE
  5
6CD
100
AcDbEntity
  8
KONSTRUKTIONSELEMENTE
100
AcDbEllipse
 62
7
  6
CONTINUOUS
 10
211.6141584658
 20
53.1756277338
 30
0.0
 11
14.188413197
 21
21.8154897519
 31
0.0
 40
0.3881806888
 41
-2.1194875126
 42
-2.1062485424
  0
ELLIPSE
  5
6CE
100
AcDbEntity
  8
KONSTRUKTIONSELEMENTE
100
AcDbEllipse
 62
7
  6
CONTINUOUS
 10
211.9058234034
 20
53.1756277338
 30
0.0
 11
43.7044716202
 21
17.8042874607
 31
0.0
 40
0.3147751946
 41
-1.7122342952
 42
-1.7089243532
  0
ELLIPSE
  5
6CF
100
AcDbEntity
  8
KONSTRUKTIONSELEMENTE
100
AcDbEllipse
 62
7
  6
CONTINUOUS
 10
208.1287426018
 20
53.1756277338
 30
0.0
 11
-5.4609441206
 21
22.4683287013
 31
0.0
 40
0.2185337797
 41
-4.0158080515
 42
-4.0058742269
  0
ELLIPSE
  5
6D0
100
AcDbEntity
  8
KONSTRUKTIONSELEMENTE
100
AcDbEllipse
 62
7
  6
CONTINUOUS
 10
210.5204093427
 20
53.1756277338
 30
0.0
 11
65.9838136949
 21
-16.8007294133
 31
0.0
 40
0.226815396
 41
-1.5587985611
 42
-1.5554856561
  0
ELLIPSE
  5
6D1
100
AcDbEntity
  8
KONSTRUKTIONSELEMENTE
100
AcDbEllipse
 62
7
  6
CONTINUOUS
 10
208.6537414591
 20
53.1756277338
 30
0.0
 11
20.264350637
 21
-20.8767523883
 31
0.0
 40
0.4140837726
 41
-1.2099499836
 42
-1.203325533
  0
ELLIPSE
  5
6D2
100
AcDbEntity
  8
KONSTRUKTIONSELEMENTE
100
AcDbEllipse
 62
7
  6
CONTINUOUS
 10
215.7120762403
 20
53.1756277338
 30
0.0
 11
64.5175067239
 21
16.4273798708
 31
0.0
 40
0.226815396
 41
-1.7036997175
 42
-1.7003056349
  0
ELLIPSE
  5
6D3
100
AcDbEntity
  8
KONSTRUKTIONSELEMENTE
100
AcDbEllipse
 62
7
  6
CONTINUOUS
 10
215.7120762403
 20
53.1756277338
 30
0.0
 11
65.9838136949
 21
16.8007294133
 31
0.0
 40
0.226815396
 41
-1.7020251972
 42
-1.6987069342
  0
ELLIPSE
  5
6D4
100
AcDbEntity
  8
KONSTRUKTIONSELEMENTE
100
AcDbEllipse
 62
7
  6
CONTINUOUS
 10
212.6204027473
 20
53.1756277338
 30
0.0
 11
19.8139545476
 21
20.4128377192
 31
0.0
 40
0.4140837331
 41
4.2373423955
 42
4.244128117
  0
ELLIPSE
  5
6D5
100
AcDbEntity
  8
KONSTRUKTIONSELEMENTE
100
AcDbEllipse
 62
7
  6
CONTINUOUS
 10
212.6204027473
 20
53.1756277338
 30
0.0
 11
20.2642716964
 21
20.8767658492
 31
0.0
 40
0.4140837331
 41
-2.044244211
 42
-2.0376099687
  0
ELLIPSE
  5
6D6
100
AcDbEntity
  8
KONSTRUKTIONSELEMENTE
100
AcDbEllipse
 62
7
  6
CONTINUOUS
 10
211.6870787099
 20
53.1756277338
 30
0.0
 11
5.3396232539
 21
21.9690318046
 31
0.0
 40
0.2185348906
 41
-2.3681651184
 42
-2.3656219118
  0
ELLIPSE
  5
6D7
100
AcDbEntity
  8
KONSTRUKTIONSELEMENTE
100
AcDbEllipse
 62
7
  6
CONTINUOUS
 10
211.6870787099
 20
53.1756277338
 30
0.0
 11
5.4609783278
 21
22.468327982
 31
0.0
 40
0.2185348906
 41
-2.3667178968
 42
-2.3567716973
  0
ELLIPSE
  5
6D8
100
AcDbEntity
  8
KONSTRUKTIONSELEMENTE
100
AcDbEllipse
 62
7
  6
CONTINUOUS
 10
211.1183257807
 20
53.1756277338
 30
0.0
 11
64.5175067239
 21
16.4273798708
 31
0.0
 40
0.226815396
 41
-1.6325456563
 42
-1.6291607326
  0
ELLIPSE
  5
6D9
100
AcDbEntity
  8
KONSTRUKTIONSELEMENTE
100
AcDbEllipse
 62
7
  6
CONTINUOUS
 10
211.1183257807
 20
53.1756277338
 30
0.0
 11
65.9838136949
 21
16.8007294133
 31
0.0
 40
0.226815396
 41
-1.6324553912
 42
-1.6291456885
  0
ELLIPSE
  5
6DA
100
AcDbEntity
  8
KONSTRUKTIONSELEMENTE
100
AcDbEllipse
 62
7
  6
CONTINUOUS
 10
211.0891589767
 20
53.1756277338
 30
0.0
 11
19.8139629646
 21
20.4128362839
 31
0.0
 40
0.4140837374
 41
4.3084874728
 42
4.3152573356
  0
ELLIPSE
  5
6DB
100
AcDbEntity
  8
KONSTRUKTIONSELEMENTE
100
AcDbEllipse
 62
7
  6
CONTINUOUS
 10
211.0891589767
 20
53.1756277338
 30
0.0
 11
20.2642803047
 21
20.8767643813
 31
0.0
 40
0.4140837374
 41
-1.9746827903
 42
-1.9680633705
  0
ELLIPSE
  5
6DC
100
AcDbEntity
  8
KONSTRUKTIONSELEMENTE
100
AcDbEllipse
 62
7
  6
CONTINUOUS
 10
211.176658115
 20
53.1756277338
 30
0.0
 11
5.3396232539
 21
21.9690318046
 31
0.0
 40
0.2185348906
 41
-2.2970360747
 42
-2.2946463047
  0
ELLIPSE
  5
6DD
100
AcDbEntity
  8
KONSTRUKTIONSELEMENTE
100
AcDbEllipse
 62
7
  6
CONTINUOUS
 10
211.176658115
 20
53.1756277338
 30
0.0
 11
5.4609783278
 21
22.468327982
 31
0.0
 40
0.2185348906
 41
-2.2971714736
 42
-2.2872417637
  0
ELLIPSE
  5
6DE
100
AcDbEntity
  8
KONSTRUKTIONSELEMENTE
100
AcDbEllipse
 62
7
  6
CONTINUOUS
 10
210.6808279129
 20
53.1756277338
 30
0.0
 11
43.7044716202
 21
-17.8042874607
 31
0.0
 40
0.3147751946
 41
4.8538269488
 42
4.8571370431
  0
ELLIPSE
  5
6DF
100
AcDbEntity
  8
KONSTRUKTIONSELEMENTE
100
AcDbEllipse
 62
7
  6
CONTINUOUS
 10
211.1547834045
 20
53.1756277338
 30
0.0
 11
-13.873115126
 21
21.3307010907
 31
0.0
 40
0.3881806888
 41
-4.148541904
 42
-4.1431427768
  0
ELLIPSE
  5
6E0
100
AcDbEntity
  8
KONSTRUKTIONSELEMENTE
100
AcDbEllipse
 62
7
  6
CONTINUOUS
 10
211.1547834045
 20
53.1756277338
 30
0.0
 11
-14.188413197
 21
21.8154897519
 31
0.0
 40
0.3881806888
 41
2.1261075489
 42
2.1393501754
  0
ELLIPSE
  5
6E1
100
AcDbEntity
  8
KONSTRUKTIONSELEMENTE
100
AcDbEllipse
 62
7
  6
CONTINUOUS
 10
211.4342957088
 20
53.1756277338
 30
0.0
 11
-5.3396205246
 21
21.969031862
 31
0.0
 40
0.2185348
 41
-3.948910072
 42
-3.9387486187
  0
ELLIPSE
  5
6E2
100
AcDbEntity
  8
KONSTRUKTIONSELEMENTE
100
AcDbEllipse
 62
7
  6
CONTINUOUS
 10
211.4342957088
 20
53.1756277338
 30
0.0
 11
-5.4609755366
 21
22.4683280407
 31
0.0
 40
0.2185348
 41
-3.949602427
 42
-3.9396670725
  0
ELLIPSE
  5
6E3
100
AcDbEntity
  8
KONSTRUKTIONSELEMENTE
100
AcDbEllipse
 62
7
  6
CONTINUOUS
 10
213.0445933228
 20
53.1756277338
 30
0.0
 11
18.7689810978
 21
20.5894204204
 31
0.0
 40
0.4129609291
 41
-2.0103716447
 42
-1.9324751389
  0
ELLIPSE
  5
6E4
100
AcDbEntity
  8
KONSTRUKTIONSELEMENTE
100
AcDbEllipse
 62
7
  6
CONTINUOUS
 10
213.0445933228
 20
53.1756277338
 30
0.0
 11
19.19554885
 21
21.0573617936
 31
0.0
 40
0.4129609291
 41
-2.0100556883
 42
-1.9338920888
  0
ELLIPSE
  5
6E5
100
AcDbEntity
  8
KONSTRUKTIONSELEMENTE
100
AcDbEllipse
 62
7
  6
CONTINUOUS
 10
204.189819229
 20
53.1756277338
 30
0.0
 11
5.6071788829
 21
22.4651514474
 31
0.0
 40
0.2232471849
 41
-2.3740722251
 42
-2.2382683338
  0
ELLIPSE
  5
6E6
100
AcDbEntity
  8
KONSTRUKTIONSELEMENTE
100
AcDbEllipse
 62
7
  6
CONTINUOUS
 10
204.189819229
 20
53.1756277338
 30
0.0
 11
5.4825749077
 21
21.9659258597
 31
0.0
 40
0.2232471849
 41
-2.3757467454
 42
-2.2368513838
  0
ELLIPSE
  5
6E7
100
AcDbEntity
  8
KONSTRUKTIONSELEMENTE
100
AcDbEllipse
 62
7
  6
CONTINUOUS
 10
203.0843314614
 20
53.1756277338
 30
0.0
 11
-5.6071788829
 21
22.4651514474
 31
0.0
 40
0.2232471849
 41
-4.0449169734
 42
-3.9091130821
  0
ELLIPSE
  5
6E8
100
AcDbEntity
  8
KONSTRUKTIONSELEMENTE
100
AcDbEllipse
 62
7
  6
CONTINUOUS
 10
203.0843314614
 20
53.1756277338
 30
0.0
 11
-5.4825749077
 21
21.9659258597
 31
0.0
 40
0.2232471849
 41
-4.0463339234
 42
-3.9074385618
  0
ELLIPSE
  5
6E9
100
AcDbEntity
  8
KONSTRUKTIONSELEMENTE
100
AcDbEllipse
 62
7
  6
CONTINUOUS
 10
217.6370811482
 20
53.1756277338
 30
0.0
 11
107.6850220694
 21
-15.8772637428
 31
0.0
 40
0.1414186782
 41
-1.6136277284
 42
-1.6102363014
  0
ELLIPSE
  5
6EA
100
AcDbEntity
  8
KONSTRUKTIONSELEMENTE
100
AcDbEllipse
 62
7
  6
CONTINUOUS
 10
217.6370811482
 20
53.1756277338
 30
0.0
 11
110.1324089346
 21
-16.238110646
 31
0.0
 40
0.1414186782
 41
-1.6122107784
 42
-1.6088949972
  0
ELLIPSE
  5
6EB
100
AcDbEntity
  8
KONSTRUKTIONSELEMENTE
100
AcDbEllipse
 62
7
  6
CONTINUOUS
 10
212.8780461697
 20
53.1756277338
 30
0.0
 11
27.7174083108
 21
-19.0908207548
 31
0.0
 40
0.3944618695
 41
-1.3657960036
 42
-1.3556257299
  0
ELLIPSE
  5
6EC
100
AcDbEntity
  8
KONSTRUKTIONSELEMENTE
100
AcDbEllipse
 62
7
  6
CONTINUOUS
 10
212.8780461697
 20
53.1756277338
 30
0.0
 11
28.3473494088
 21
-19.5247030447
 31
0.0
 40
0.3944618695
 41
-1.3644546994
 42
-1.3545111009
  0
ELLIPSE
  5
6ED
100
AcDbEntity
  8
KONSTRUKTIONSELEMENTE
100
AcDbEllipse
 62
7
  6
CONTINUOUS
 10
212.2485335577
 20
53.1756277338
 30
0.0
 11
-13.873115126
 21
21.3307010907
 31
0.0
 40
0.3881806888
 41
-4.2244067013
 42
-4.2108542204
  0
ELLIPSE
  5
6EE
100
AcDbEntity
  8
KONSTRUKTIONSELEMENTE
100
AcDbEllipse
 62
7
  6
CONTINUOUS
 10
212.2485335577
 20
53.1756277338
 30
0.0
 11
-14.188413197
 21
21.8154897519
 31
0.0
 40
0.3881806888
 41
2.0598932349
 42
2.0731439974
  0
ELLIPSE
  5
6EF
100
AcDbEntity
  8
KONSTRUKTIONSELEMENTE
100
AcDbEllipse
 62
7
  6
CONTINUOUS
 10
207.6449556778
 20
53.1756277338
 30
0.0
 11
-6.523621034
 21
22.4402685494
 31
0.0
 40
0.2511485286
 41
-3.9826617523
 42
-3.9064036302
  0
ELLIPSE
  5
6F0
100
AcDbEntity
  8
KONSTRUKTIONSELEMENTE
100
AcDbEllipse
 62
7
  6
CONTINUOUS
 10
207.6449556778
 20
53.1756277338
 30
0.0
 11
-6.3786516777
 21
21.941595915
 31
0.0
 40
0.2511485286
 41
-3.9627626286
 42
-3.9042729038
  0
ELLIPSE
  5
6F1
100
AcDbEntity
  8
KONSTRUKTIONSELEMENTE
100
AcDbEllipse
 62
7
  6
CONTINUOUS
 10
213.6172834098
 20
53.1756277338
 30
0.0
 11
-11.4545892933
 21
21.6097896533
 31
0.0
 40
0.3601321255
 41
-4.1013348341
 42
-4.020014766
  0
ELLIPSE
  5
6F2
100
AcDbEntity
  8
KONSTRUKTIONSELEMENTE
100
AcDbEllipse
 62
7
  6
CONTINUOUS
 10
213.6172834098
 20
53.1756277338
 30
0.0
 11
-11.7149208682
 21
22.1009212364
 31
0.0
 40
0.3601321255
 41
-4.1149529255
 42
-4.0221454924
  0
ELLIPSE
  5
6F3
100
AcDbEntity
  8
KONSTRUKTIONSELEMENTE
100
AcDbEllipse
 62
7
  6
CONTINUOUS
 10
211.9204104924
 20
53.1756277338
 30
0.0
 11
-5.3396232539
 21
21.9690318046
 31
0.0
 40
0.2185348906
 41
-4.0166215648
 42
-4.006461748
  0
ELLIPSE
  5
6F4
100
AcDbEntity
  8
KONSTRUKTIONSELEMENTE
100
AcDbEllipse
 62
7
  6
CONTINUOUS
 10
211.9204104924
 20
53.1756277338
 30
0.0
 11
-5.4609783278
 21
22.468327982
 31
0.0
 40
0.2185348906
 41
-4.0158086542
 42
-4.0058748296
  0
ELLIPSE
  5
6F5
100
AcDbEntity
  8
KONSTRUKTIONSELEMENTE
100
AcDbEllipse
 62
7
  6
CONTINUOUS
 10
208.5662426018
 20
53.1756277338
 30
0.0
 11
-5.4609441206
 21
22.4683287013
 31
0.0
 40
0.2185337797
 41
-4.0158080515
 42
-4.0058742269
  0
ELLIPSE
  5
6F6
100
AcDbEntity
  8
KONSTRUKTIONSELEMENTE
100
AcDbEllipse
 62
7
  6
CONTINUOUS
 10
208.5662426018
 20
53.1756277338
 30
0.0
 11
-5.3395898068
 21
21.9690325079
 31
0.0
 40
0.2185337797
 41
-4.016620962
 42
-4.0064611453
  0
ELLIPSE
  5
6F7
100
AcDbEntity
  8
KONSTRUKTIONSELEMENTE
100
AcDbEllipse
 62
7
  6
CONTINUOUS
 10
208.8943671692
 20
53.1756277338
 30
0.0
 11
-14.188413197
 21
21.8154897519
 31
0.0
 40
0.3881806888
 41
2.0598932349
 42
2.0731439974
  0
ELLIPSE
  5
6F8
100
AcDbEntity
  8
KONSTRUKTIONSELEMENTE
100
AcDbEllipse
 62
7
  6
CONTINUOUS
 10
208.8943671692
 20
53.1756277338
 30
0.0
 11
-13.873115126
 21
21.3307010907
 31
0.0
 40
0.3881806888
 41
-4.2244067013
 42
-4.2108542204
  0
ELLIPSE
  5
6F9
100
AcDbEntity
  8
KONSTRUKTIONSELEMENTE
100
AcDbEllipse
 62
7
  6
CONTINUOUS
 10
209.5238818396
 20
53.1756277338
 30
0.0
 11
28.3473947687
 21
-19.5246960631
 31
0.0
 40
0.3944616684
 41
-1.3644553238
 42
-1.3545117253
  0
ELLIPSE
  5
6FA
100
AcDbEntity
  8
KONSTRUKTIONSELEMENTE
100
AcDbEllipse
 62
7
  6
CONTINUOUS
 10
209.5238818396
 20
53.1756277338
 30
0.0
 11
27.7174526627
 21
-19.0908139284
 31
0.0
 40
0.3944616684
 41
-1.365796628
 42
-1.3556263543
  0
ELLIPSE
  5
6FB
100
AcDbEntity
  8
KONSTRUKTIONSELEMENTE
100
AcDbEllipse
 62
7
  6
CONTINUOUS
 10
214.2829069157
 20
53.1756277338
 30
0.0
 11
110.1322827887
 21
-16.2381113884
 31
0.0
 40
0.1414188332
 41
-1.6122107307
 42
-1.6088949495
  0
ELLIPSE
  5
6FC
100
AcDbEntity
  8
KONSTRUKTIONSELEMENTE
100
AcDbEllipse
 62
7
  6
CONTINUOUS
 10
214.2829069157
 20
53.1756277338
 30
0.0
 11
107.6848987267
 21
-15.8772644686
 31
0.0
 40
0.1414188332
 41
-1.6136276807
 42
-1.6102362537
  0
ELLIPSE
  5
6FD
100
AcDbEntity
  8
KONSTRUKTIONSELEMENTE
100
AcDbEllipse
 62
7
  6
CONTINUOUS
 10
207.764158975
 20
53.1756277338
 30
0.0
 11
64.5175067239
 21
16.4273798708
 31
0.0
 40
0.226815396
 41
-1.6325456563
 42
-1.6291607326
  0
ELLIPSE
  5
6FE
100
AcDbEntity
  8
KONSTRUKTIONSELEMENTE
100
AcDbEllipse
 62
7
  6
CONTINUOUS
 10
207.764158975
 20
53.1756277338
 30
0.0
 11
65.9838136949
 21
16.8007294133
 31
0.0
 40
0.226815396
 41
-1.6324553912
 42
-1.6291456885
  0
ELLIPSE
  5
6FF
100
AcDbEntity
  8
KONSTRUKTIONSELEMENTE
100
AcDbEllipse
 62
7
  6
CONTINUOUS
 10
207.7349922127
 20
53.1756277338
 30
0.0
 11
19.8140317339
 21
20.4128245574
 31
0.0
 40
0.4140837726
 41
4.308488902
 42
4.3152587649
  0
ELLIPSE
  5
700
100
AcDbEntity
  8
KONSTRUKTIONSELEMENTE
100
AcDbEllipse
 62
7
  6
CONTINUOUS
 10
207.7349922127
 20
53.1756277338
 30
0.0
 11
20.264350637
 21
20.8767523883
 31
0.0
 40
0.4140837726
 41
-1.9746813611
 42
-1.9680619412
  0
ELLIPSE
  5
701
100
AcDbEntity
  8
KONSTRUKTIONSELEMENTE
100
AcDbEllipse
 62
7
  6
CONTINUOUS
 10
207.8224919768
 20
53.1756277338
 30
0.0
 11
5.3395898068
 21
21.9690325079
 31
0.0
 40
0.2185337797
 41
-2.2970366774
 42
-2.2929364629
  0
ELLIPSE
  5
702
100
AcDbEntity
  8
KONSTRUKTIONSELEMENTE
100
AcDbEllipse
 62
7
  6
CONTINUOUS
 10
207.8224919768
 20
53.1756277338
 30
0.0
 11
5.4609441206
 21
22.4683287013
 31
0.0
 40
0.2185337797
 41
-2.2971720763
 42
-2.2872423664
  0
ELLIPSE
  5
703
100
AcDbEntity
  8
0
100
AcDbEllipse
 62
7
  6
CONTINUOUS
 10
110.4032253387
 20
66.1756277338
 30
0.0
 11
-0.0
 21
25.5
 31
0.0
 40
0.7343750875
 41
-3.1415926536
 42
-3.1370260389
  0
ELLIPSE
  5
704
100
AcDbEntity
  8
0
100
AcDbEllipse
 62
7
  6
CONTINUOUS
 10
172.6814871821
 20
40.1756277338
 30
0.0
 11
-0.0
 21
25.5
 31
0.0
 40
0.244790762
 41
-0.0296022081
 42
-0.0129107195
  0
ELLIPSE
  5
705
100
AcDbEntity
  8
0
100
AcDbEllipse
 62
7
  6
CONTINUOUS
 10
172.3735600488
 20
40.1756277338
 30
0.0
 11
-0.0
 21
25.5
 31
0.0
 40
0.6527784911
 41
-0.042125998
 42
-0.0296022081
  0
ELLIPSE
  5
706
100
AcDbEntity
  8
0
100
AcDbEllipse
 62
7
  6
CONTINUOUS
 10
171.4972919237
 20
40.1756277338
 30
0.0
 11
37.4531294648
 21
-0.0
 31
0.0
 40
0.6808509827
 41
1.5203175903
 42
1.5286703288
  0
ELLIPSE
  5
707
100
AcDbEntity
  8
0
100
AcDbEllipse
 62
7
  6
CONTINUOUS
 10
168.3476569735
 20
40.1756277338
 30
0.0
 11
99.8749166578
 21
-0.0
 31
0.0
 40
0.255319362
 41
1.5161399354
 42
1.5203175903
  0
ELLIPSE
  5
708
100
AcDbEntity
  8
0
100
AcDbEllipse
 62
7
  6
CONTINUOUS
 10
182.1685126688
 20
40.1756277338
 30
0.0
 11
-0.0
 21
25.5
 31
0.0
 40
0.3263886165
 41
-0.0463019632
 42
-0.0337761994
  0
ELLIPSE
  5
709
100
AcDbEntity
  8
0
100
AcDbEllipse
 62
7
  6
CONTINUOUS
 10
181.3980522598
 20
40.1756277338
 30
0.0
 11
-0.0
 21
25.5
 31
0.0
 40
0.9791672503
 41
-0.0546563914
 42
-0.0463019632
  0
ELLIPSE
  5
70A
100
AcDbEntity
  8
0
100
AcDbEllipse
 62
7
  6
CONTINUOUS
 10
178.6700077719
 20
40.1756277338
 30
0.0
 11
74.9062589295
 21
-0.0
 31
0.0
 40
0.3404254913
 41
1.5119613255
 42
1.5161399354
  0
ELLIPSE
  5
70B
100
AcDbEntity
  8
0
100
AcDbEllipse
 62
7
  6
CONTINUOUS
 10
182.0142587546
 20
40.1756277338
 30
0.0
 11
-0.0
 21
25.5
 31
0.0
 40
0.7343750875
 41
-0.0
 42
0.0045666147
  0
ELLIPSE
  5
70C
100
AcDbEntity
  8
0
100
AcDbEllipse
 62
7
  6
CONTINUOUS
 10
119.7359969112
 20
66.1756277338
 30
0.0
 11
0.0
 21
25.5
 31
0.0
 40
0.244790762
 41
-3.1711948617
 42
-3.1545033731
  0
ELLIPSE
  5
70D
100
AcDbEntity
  8
0
100
AcDbEllipse
 62
7
  6
CONTINUOUS
 10
120.0439240445
 20
66.1756277338
 30
0.0
 11
-0.0
 21
25.5
 31
0.0
 40
0.6527784911
 41
-3.1837186516
 42
-3.1711948617
  0
ELLIPSE
  5
70E
100
AcDbEntity
  8
0
100
AcDbEllipse
 62
7
  6
CONTINUOUS
 10
120.9201921697
 20
66.1756277338
 30
0.0
 11
37.4531294648
 21
0.0
 31
0.0
 40
0.6808509827
 41
-1.6212750633
 42
-1.6129223248
  0
ELLIPSE
  5
70F
100
AcDbEntity
  8
0
100
AcDbEllipse
 62
7
  6
CONTINUOUS
 10
124.0698271199
 20
66.1756277338
 30
0.0
 11
99.8749166578
 21
-0.0
 31
0.0
 40
0.255319362
 41
-1.6254527182
 42
-1.6212750633
  0
ELLIPSE
  5
710
100
AcDbEntity
  8
0
100
AcDbEllipse
 62
7
  6
CONTINUOUS
 10
110.2489714245
 20
66.1756277338
 30
0.0
 11
0.0
 21
25.5
 31
0.0
 40
0.3263886165
 41
-3.1878946168
 42
-3.175368853
  0
ELLIPSE
  5
711
100
AcDbEntity
  8
0
100
AcDbEllipse
 62
7
  6
CONTINUOUS
 10
111.0194318335
 20
66.1756277338
 30
0.0
 11
0.0
 21
25.5
 31
0.0
 40
0.9791672503
 41
-3.196249045
 42
-3.1878946168
  0
ELLIPSE
  5
712
100
AcDbEntity
  8
0
100
AcDbEllipse
 62
7
  6
CONTINUOUS
 10
113.7474763214
 20
66.1756277338
 30
0.0
 11
74.9062589295
 21
-0.0
 31
0.0
 40
0.3404254913
 41
-1.6296313281
 42
-1.6254527182
  0
ELLIPSE
  5
713
100
AcDbEntity
  8
0
100
AcDbEllipse
 62
7
  6
CONTINUOUS
 10
172.0726049373
 20
40.1756277338
 30
0.0
 11
-0.0
 21
25.5
 31
0.0
 40
0.1958324999
 41
-0.0337761994
 42
-0.0129107195
  0
ELLIPSE
  5
714
100
AcDbEntity
  8
0
100
AcDbEllipse
 62
7
  6
CONTINUOUS
 10
110.8739714245
 20
66.1756277338
 30
0.0
 11
0.0
 21
25.0
 31
0.0
 40
0.3263886165
 41
-3.1888213384
 42
-3.1760446418
  0
ELLIPSE
  5
715
100
AcDbEntity
  8
0
100
AcDbEllipse
 62
7
  6
CONTINUOUS
 10
111.3555089735
 20
66.1756277338
 30
0.0
 11
0.0
 21
25.0
 31
0.0
 40
0.7343750875
 41
-3.2058693078
 42
-3.1888213384
  0
ELLIPSE
  5
716
100
AcDbEntity
  8
0
100
AcDbEllipse
 62
7
  6
CONTINUOUS
 10
112.2727160834
 20
66.1756277338
 30
0.0
 11
32.638884998
 21
0.0
 31
0.0
 40
0.7659575381
 41
-1.6478709741
 42
-1.635072981
  0
ELLIPSE
  5
717
100
AcDbEntity
  8
0
100
AcDbEllipse
 62
7
  6
CONTINUOUS
 10
119.1838567892
 20
66.1756277338
 30
0.0
 11
122.3958712692
 21
-0.0
 31
0.0
 40
0.2042552558
 41
-1.65213968
 42
-1.6478709741
  0
ELLIPSE
  5
718
100
AcDbEntity
  8
0
100
AcDbEllipse
 62
7
  6
CONTINUOUS
 10
182.7916423113
 20
40.1756277338
 30
0.0
 11
74.9062589295
 21
-0.0
 31
0.0
 40
0.3404254913
 41
1.5707963268
 42
1.5711910446
  0
ELLIPSE
  5
719
100
AcDbEntity
  8
0
100
AcDbEllipse
 62
7
  6
CONTINUOUS
 10
182.7719310947
 20
40.1756277338
 30
0.0
 11
0.0
 21
25.5
 31
0.0
 40
0.9791672503
 41
6.283580025
 42
6.2919238982
  0
ELLIPSE
  5
71A
100
AcDbEntity
  8
0
100
AcDbEllipse
 62
7
  6
CONTINUOUS
 10
173.2336273041
 20
40.1756277338
 30
0.0
 11
124.8437886946
 21
0.0
 31
0.0
 40
0.2042552558
 41
1.491051365
 42
1.4952358588
  0
ELLIPSE
  5
71B
100
AcDbEntity
  8
0
100
AcDbEllipse
 62
7
  6
CONTINUOUS
 10
180.1447680099
 20
40.1756277338
 30
0.0
 11
33.291662698
 21
-0.0
 31
0.0
 40
0.7659575381
 41
1.4952358588
 42
1.5077816867
  0
ELLIPSE
  5
71C
100
AcDbEntity
  8
0
100
AcDbEllipse
 62
7
  6
CONTINUOUS
 10
181.0619751198
 20
40.1756277338
 30
0.0
 11
-0.0
 21
25.5
 31
0.0
 40
0.7343750875
 41
-0.0630146401
 42
-0.0463019632
  0
ELLIPSE
  5
71D
100
AcDbEntity
  8
0
100
AcDbEllipse
 62
7
  6
CONTINUOUS
 10
181.5435126688
 20
40.1756277338
 30
0.0
 11
-0.0
 21
25.5
 31
0.0
 40
0.3263886165
 41
-0.0463019632
 42
-0.0337761994
  0
ELLIPSE
  5
71E
100
AcDbEntity
  8
0
100
AcDbEllipse
 62
7
  6
CONTINUOUS
 10
172.0726049373
 20
40.1756277338
 30
0.0
 11
-0.0
 21
25.0
 31
0.0
 40
0.1958324999
 41
-0.0344519882
 42
-0.0131689487
  0
ELLIPSE
  5
71F
100
AcDbEntity
  8
0
100
AcDbEllipse
 62
7
  6
CONTINUOUS
 10
171.8196466246
 20
40.1756277338
 30
0.0
 11
-0.0
 21
25.0
 31
0.0
 40
0.4895843255
 41
-0.0514891956
 42
-0.0344519882
  0
ELLIPSE
  5
720
100
AcDbEntity
  8
0
100
AcDbEllipse
 62
7
  6
CONTINUOUS
 10
171.1897210764
 20
40.1756277338
 30
0.0
 11
0.0
 21
25.0
 31
0.0
 40
0.9791658496
 41
-0.0685413767
 42
-0.0514891956
  0
ELLIPSE
  5
721
100
AcDbEntity
  8
0
100
AcDbEllipse
 62
7
  6
CONTINUOUS
 10
169.5132001061
 20
40.1756277338
 30
0.0
 11
48.9582924793
 21
0.0
 31
0.0
 40
0.510638724
 41
1.4937216795
 42
1.5022549501
  0
ELLIPSE
  5
722
100
AcDbEntity
  8
0
100
AcDbEllipse
 62
7
  6
CONTINUOUS
 10
163.8586216135
 20
40.1756277338
 30
0.0
 11
122.3959413047
 21
-0.0
 31
0.0
 40
0.204255139
 41
1.4894529736
 42
1.4937216795
  0
ELLIPSE
  5
723
100
AcDbEntity
  8
0
100
AcDbEllipse
 62
7
  6
CONTINUOUS
 10
181.5435126688
 20
40.1756277338
 30
0.0
 11
-0.0
 21
25.0
 31
0.0
 40
0.3263886165
 41
-0.0472286848
 42
-0.0344519882
  0
ELLIPSE
  5
724
100
AcDbEntity
  8
0
100
AcDbEllipse
 62
7
  6
CONTINUOUS
 10
181.0619751198
 20
40.1756277338
 30
0.0
 11
-0.0
 21
25.0
 31
0.0
 40
0.7343750875
 41
-0.0642766542
 42
-0.0472286848
  0
ELLIPSE
  5
725
100
AcDbEntity
  8
0
100
AcDbEllipse
 62
7
  6
CONTINUOUS
 10
180.1447680099
 20
40.1756277338
 30
0.0
 11
32.638884998
 21
0.0
 31
0.0
 40
0.7659575381
 41
1.4937216795
 42
1.5065196726
  0
ELLIPSE
  5
726
100
AcDbEntity
  8
0
100
AcDbEllipse
 62
7
  6
CONTINUOUS
 10
173.2336273041
 20
40.1756277338
 30
0.0
 11
122.3958712692
 21
-0.0
 31
0.0
 40
0.2042552558
 41
1.4894529736
 42
1.4937216795
  0
ELLIPSE
  5
727
100
AcDbEntity
  8
0
100
AcDbEllipse
 62
7
  6
CONTINUOUS
 10
128.5588624798
 20
66.1756277338
 30
0.0
 11
124.8438601308
 21
0.0
 31
0.0
 40
0.204255139
 41
-1.6505412886
 42
-1.6463567947
  0
ELLIPSE
  5
728
100
AcDbEntity
  8
0
100
AcDbEllipse
 62
7
  6
CONTINUOUS
 10
122.9042839872
 20
66.1756277338
 30
0.0
 11
49.9374583289
 21
-0.0
 31
0.0
 40
0.510638724
 41
-1.6463567947
 42
-1.6379917082
  0
ELLIPSE
  5
729
100
AcDbEntity
  8
0
100
AcDbEllipse
 62
7
  6
CONTINUOUS
 10
121.2277630169
 20
66.1756277338
 30
0.0
 11
-0.0
 21
25.5
 31
0.0
 40
0.9791658496
 41
-3.208788035
 42
-3.1920713901
  0
ELLIPSE
  5
72A
100
AcDbEntity
  8
0
100
AcDbEllipse
 62
7
  6
CONTINUOUS
 10
120.5978374687
 20
66.1756277338
 30
0.0
 11
-0.0
 21
25.5
 31
0.0
 40
0.4895843255
 41
-3.1920713901
 42
-3.175368853
  0
ELLIPSE
  5
72B
100
AcDbEntity
  8
0
100
AcDbEllipse
 62
7
  6
CONTINUOUS
 10
120.344879156
 20
66.1756277338
 30
0.0
 11
-0.0
 21
25.5
 31
0.0
 40
0.1958324999
 41
-3.175368853
 42
-3.1545033731
  0
ELLIPSE
  5
72C
100
AcDbEntity
  8
0
100
AcDbEllipse
 62
7
  6
CONTINUOUS
 10
109.6455529986
 20
66.1756277338
 30
0.0
 11
0.0
 21
25.5
 31
0.0
 40
0.9791672503
 41
3.1419873714
 42
3.1503312446
  0
ELLIPSE
  5
72D
100
AcDbEntity
  8
0
100
AcDbEllipse
 62
7
  6
CONTINUOUS
 10
119.1838567892
 20
66.1756277338
 30
0.0
 11
124.8437886946
 21
-0.0
 31
0.0
 40
0.2042552558
 41
-1.6505412886
 42
-1.6463567947
  0
ELLIPSE
  5
72E
100
AcDbEntity
  8
0
100
AcDbEllipse
 62
7
  6
CONTINUOUS
 10
112.2727160834
 20
66.1756277338
 30
0.0
 11
33.291662698
 21
0.0
 31
0.0
 40
0.7659575381
 41
-1.6463567947
 42
-1.6338109669
  0
ELLIPSE
  5
72F
100
AcDbEntity
  8
0
100
AcDbEllipse
 62
7
  6
CONTINUOUS
 10
111.3555089735
 20
66.1756277338
 30
0.0
 11
-0.0
 21
25.5
 31
0.0
 40
0.7343750875
 41
-3.2046072937
 42
-3.1878946168
  0
ELLIPSE
  5
730
100
AcDbEntity
  8
0
100
AcDbEllipse
 62
7
  6
CONTINUOUS
 10
110.8739714245
 20
66.1756277338
 30
0.0
 11
0.0
 21
25.5
 31
0.0
 40
0.3263886165
 41
-3.1878946168
 42
-3.175368853
  0
ELLIPSE
  5
731
100
AcDbEntity
  8
0
100
AcDbEllipse
 62
7
  6
CONTINUOUS
 10
109.625841782
 20
66.1756277338
 30
0.0
 11
74.9062589295
 21
0.0
 31
0.0
 40
0.3404254913
 41
-1.5706976472
 42
-1.570401609
  0
ELLIPSE
  5
732
100
AcDbEntity
  8
0
100
AcDbEllipse
 62
7
  6
CONTINUOUS
 10
120.344879156
 20
66.1756277338
 30
0.0
 11
0.0
 21
25.0
 31
0.0
 40
0.1958324999
 41
-3.1760446418
 42
-3.1547616023
  0
ELLIPSE
  5
733
100
AcDbEntity
  8
0
100
AcDbEllipse
 62
7
  6
CONTINUOUS
 10
120.5978374687
 20
66.1756277338
 30
0.0
 11
0.0
 21
25.0
 31
0.0
 40
0.4895843255
 41
-3.1930818491
 42
-3.1760446418
  0
ELLIPSE
  5
734
100
AcDbEntity
  8
0
100
AcDbEllipse
 62
7
  6
CONTINUOUS
 10
121.2277630169
 20
66.1756277338
 30
0.0
 11
0.0
 21
25.0
 31
0.0
 40
0.9791658496
 41
-3.2101340303
 42
-3.1930818491
  0
ELLIPSE
  5
735
100
AcDbEntity
  8
0
100
AcDbEllipse
 62
7
  6
CONTINUOUS
 10
122.9042839872
 20
66.1756277338
 30
0.0
 11
48.9582924793
 21
-0.0
 31
0.0
 40
0.510638724
 41
-1.6478709741
 42
-1.6393377035
  0
ELLIPSE
  5
736
100
AcDbEntity
  8
0
100
AcDbEllipse
 62
7
  6
CONTINUOUS
 10
128.5588624798
 20
66.1756277338
 30
0.0
 11
122.3959413047
 21
-0.0
 31
0.0
 40
0.204255139
 41
-1.65213968
 42
-1.6478709741
  0
ELLIPSE
  5
737
100
AcDbEntity
  8
0
100
AcDbEllipse
 62
7
  6
CONTINUOUS
 10
163.8586216135
 20
40.1756277338
 30
0.0
 11
124.8438601308
 21
-0.0
 31
0.0
 40
0.204255139
 41
1.491051365
 42
1.4952358588
  0
ELLIPSE
  5
738
100
AcDbEntity
  8
0
100
AcDbEllipse
 62
7
  6
CONTINUOUS
 10
169.5132001061
 20
40.1756277338
 30
0.0
 11
49.9374583289
 21
0.0
 31
0.0
 40
0.510638724
 41
1.4952358588
 42
1.5036009454
  0
ELLIPSE
  5
739
100
AcDbEntity
  8
0
100
AcDbEllipse
 62
7
  6
CONTINUOUS
 10
171.1897210764
 20
40.1756277338
 30
0.0
 11
-0.0
 21
25.5
 31
0.0
 40
0.9791658496
 41
-0.0671953814
 42
-0.0504787365
  0
ELLIPSE
  5
73A
100
AcDbEntity
  8
0
100
AcDbEllipse
 62
7
  6
CONTINUOUS
 10
171.8196466246
 20
40.1756277338
 30
0.0
 11
-0.0
 21
25.5
 31
0.0
 40
0.4895843255
 41
-0.0504787365
 42
-0.0337761994
  0
ENDSEC
  0
SECTION
  2
OBJECTS
  0
DICTIONARY
  5
C
100
AcDbDictionary
280
0
281
1
  3
ACAD_GROUP
350
D
  3
ACAD_MLINESTYLE
350
17
  3
ACAD_LAYOUT
350
1A
  3
ACAD_PLOTSETTINGS
350
19
  3
ACAD_PLOTSTYLENAME
350
E
  0
DICTIONARY
  5
D
102
{ACAD_REACTORS
330
C
102
}
100
AcDbDictionary
280
0
281
1
  0
ACDBDICTIONARYWDFLT
  5
E
102
{ACAD_REACTORS
330
C
102
}
100
AcDbDictionary
281
1
  3
Normal
350
F
100
AcDbDictionaryWithDefault
340
F
  0
DICTIONARY
  5
17
102
{ACAD_REACTORS
330
C
102
}
100
AcDbDictionary
280
0
281
1
  3
Standard
350
18
  0
DICTIONARY
  5
19
102
{ACAD_REACTORS
330
C
102
}
100
AcDbDictionary
281
1
  0
DICTIONARY
  5
1A
102
{ACAD_REACTORS
330
C
102
}
100
AcDbDictionary
281
1
  3
Model
350
73B
  3
Layout1
350
73C
  0
ACDBPLACEHOLDER
  5
F
102
{ACAD_REACTORS
330
E
102
}
  0
MLINESTYLE
  5
18
102
{ACAD_REACTORS
330
17
102
}
100
AcDbMlineStyle
  2
STANDARD
 70
0
  3

 62
256
 51
90.0
 52
90.0
 71
2
 49
0.5
 62
256
  6
BYLAYER
 49
-0.5
 62
256
  6
BYLAYER
  0
LAYOUT
  5
73B
102
{ACAD_REACTORS
330
1A
102
}
100
AcDbPlotSettings
  1

  2
none_device
  4
ISO_A3_(420.00_x_297.00_MM)
  6

 40
0.0
 41
0.0
 42
0.0
 43
0.0
 44
420.0
 45
297.0
 46
0.0
 47
0.0
 48
0.0
 49
0.0
140
0.0
141
0.0
142
1.0
143
1.0
 70
1024
 72
1
 73
0
 74
0
  7

 75
0
147
1.0
148
0.0
149
0.0
100
AcDbLayout
  1
Model
 70
0
 71
0
 10
0.0
 20
0.0
 11
420.0
 21
297.0
 12
0.0
 22
0.0
 32
0.0
 14
0.0
 24
0.0
 34
0.0
 15
0.0
 25
0.0
 35
0.0
146
0.0
 13
0.0
 23
0.0
 33
0.0
 16
1.0
 26
0.0
 36
0.0
 17
0.0
 27
1.0
 37
0.0
 76
0
330
20F
345
0
346
0
  0
LAYOUT
  5
73C
102
{ACAD_REACTORS
330
1A
102
}
100
AcDbPlotSettings
  1

  2
none_device
  4
ISO_A3_(420.00_x_297.00_MM)
  6

 40
0.0
 41
0.0
 42
0.0
 43
0.0
 44
420.0
 45
297.0
 46
0.0
 47
0.0
 48
0.0
 49
0.0
140
0.0
141
0.0
142
1.0
143
1.0
 70
0
 72
1
 73
0
 74
0
  7

 75
0
147
1.0
148
0.0
149
0.0
100
AcDbLayout
  1
Layout1
 70
0
 71
1
 10
0.0
 20
0.0
 11
420.0
 21
297.0
 12
0.0
 22
0.0
 32
0.0
 14
0.0
 24
0.0
 34
0.0
 15
0.0
 25
0.0
 35
0.0
146
0.0
 13
0.0
 23
0.0
 33
0.0
 16
1.0
 26
0.0
 36
0.0
 17
0.0
 27
1.0
 37
0.0
 76
0
330
210
345
0
346
0
  0
ENDSEC
  0
EOF
