999
DXF file: VRBK-FIX-50t-7904653-M34957-P-1.dxf
999
Pro/ENGINEER 2011490 by Parametric Technology Corporation
  0
SECTION
  2
HEADER
  9
$ACADVER
  1
AC1015
  9
$DWGCODEPAGE
  3
ANSI_1252
  9
$EXTMAX
 10
1189.0
 20
841.0
 30
0.0
  9
$EXTMIN
 10
0.0
 20
0.0
 30
0.0
  9
$LIMMIN
 10
0.0
 20
0.0
  9
$LIMMAX
 10
1189.0
 20
841.0
  9
$VIEWCTR
 10
594.5
 20
420.5
  9
$VIEWSIZE
 40
841.0
  9
$CLAYER
  8
0
  9
$LTSCALE
 40
65.395
  9
$CELTYPE
  6
BYLAYER
  9
$DIMSCALE
 40
1.0
  9
$DIMASZ
 40
3.5
  9
$DIMEXO
 40
7.43125
  9
$DIMDLI
 40
45.182
  9
$DIMEXE
 40
21.402
  9
$DIMCEN
 40
10.701
  9
$DIMLFAC
 40
1.0
  9
$DIMBLK
  1
_FILLED
  9
$DIMTXT
 40
3.5
  9
$DIMTOL
 70
1
  9
$DIMLIM
 70
0
  9
$DIMTFAC
 40
1.0
  9
$DIMTP
 40
0.005
  9
$DIMTM
 40
0.005
  9
$PDMODE
 70
3
  9
$PDSIZE
 40
0.3125
  9
$HANDSEED
  5
463
  9
$TILEMODE
 70
1
  9
$MEASUREMENT
 70
1
  9
$INSUNITS
 70
4
  0
ENDSEC
  0
SECTION
  2
CLASSES
  0
CLASS
  1
ACDBDICTIONARYWDFLT
  2
AcDbDictionaryWithDefault
  3
AutoCAD 2000
 90
0
280
0
281
0
  0
CLASS
  1
ACDBPLACEHOLDER
  2
AcDbPlaceHolder
  3
AutoCAD 2000
 90
0
280
0
281
0
  0
CLASS
  1
LAYOUT
  2
AcDbLayout
  3
AutoCAD 2000
 90
0
280
0
281
0
  0
ENDSEC
  0
SECTION
  2
TABLES
  0
TABLE
  2
VPORT
  5
8
100
AcDbSymbolTable
 70
2
  0
VPORT
  5
1F4
100
AcDbSymbolTableRecord
100
AcDbViewportTableRecord
  2
*ACTIVE
 70
0
 10
0.0
 20
0.0
 11
1.0
 21
1.0
 12
594.5
 22
420.5
 13
0.0
 23
0.0
 14
1.0
 24
1.0
 15
0.0
 25
0.0
 16
0.0
 26
0.0
 36
1.0
 17
0.0
 27
0.0
 37
0.0
 40
841.0
 41
1.4137931034
 42
50.0
 43
0.0
 44
0.0
 50
0.0
 51
0.0
 71
0
 72
100
 73
1
 74
1
 75
0
 76
0
 77
0
 78
0
  0
ENDTAB
  0
TABLE
  2
LTYPE
  5
5
100
AcDbSymbolTable
 70
6
  0
LTYPE
  5
14
100
AcDbSymbolTableRecord
100
AcDbLinetypeTableRecord
  2
BYBLOCK
 70
0
  3

 72
65
 73
0
 40
0.0
  0
LTYPE
  5
15
100
AcDbSymbolTableRecord
100
AcDbLinetypeTableRecord
  2
BYLAYER
 70
0
  3

 72
65
 73
0
 40
0.0
  0
LTYPE
  5
16
100
AcDbSymbolTableRecord
100
AcDbLinetypeTableRecord
  2
CONTINUOUS
 70
64
  3
Solid line
 72
65
 73
0
 40
0.0
  0
LTYPE
  5
1F5
100
AcDbSymbolTableRecord
100
AcDbLinetypeTableRecord
  2
CENTER
 70
64
  3
____ _ ____ _ ____ _ ____ _ ____ _ ____ _ ____
 72
65
 73
4
 40
0.6
 49
0.375
 74
0
 49
-0.075
 74
0
 49
0.075
 74
0
 49
-0.075
 74
0
  0
LTYPE
  5
1F6
100
AcDbSymbolTableRecord
100
AcDbLinetypeTableRecord
  2
HIDDEN
 70
64
  3
- - - - - - - - - - - - - - - - - - - -
 72
65
 73
2
 40
0.2
 49
0.1
 74
0
 49
-0.1
 74
0
  0
LTYPE
  5
1F7
100
AcDbSymbolTableRecord
100
AcDbLinetypeTableRecord
  2
PHANTOM
 70
64
  3
_____ _ _ _____ _ _ _____ _ _ _____
 72
65
 73
6
 40
0.8
 49
0.45
 74
0
 49
-0.05
 74
0
 49
0.1
 74
0
 49
-0.05
 74
0
 49
0.1
 74
0
 49
-0.05
 74
0
  0
LTYPE
  5
1F8
100
AcDbSymbolTableRecord
100
AcDbLinetypeTableRecord
  2
DOT
 70
64
  3
. . . . . . . . . . . . . . . . . . . .
 72
65
 73
2
 40
0.2
 49
0.1
 74
0
 49
-0.1
 74
0
  0
LTYPE
  5
1F9
100
AcDbSymbolTableRecord
100
AcDbLinetypeTableRecord
  2
DASHED
 70
64
  3
- - - - - - - - - - - - - - - - - - - -
 72
65
 73
2
 40
0.2
 49
0.1
 74
0
 49
-0.1
 74
0
  0
ENDTAB
  0
TABLE
  2
LAYER
  5
2
100
AcDbSymbolTable
 70
36
  0
LAYER
  5
10
100
AcDbSymbolTableRecord
100
AcDbLayerTableRecord
  2
0
 70
0
 62
7
  6
CONTINUOUS
370
-3
390
F
  0
LAYER
  5
1FA
100
AcDbSymbolTableRecord
100
AcDbLayerTableRecord
  2
DEFAULT_1
 70
0
 62
7
  6
CENTER
370
-3
390
F
  0
LAYER
  5
1FB
100
AcDbSymbolTableRecord
100
AcDbLayerTableRecord
  2
DEFAULT_2
 70
0
 62
8
  6
HIDDEN
370
-3
390
F
  0
LAYER
  5
1FC
100
AcDbSymbolTableRecord
100
AcDbLayerTableRecord
  2
DEFAULT_3
 70
0
 62
7
  6
PHANTOM
370
-3
390
F
  0
LAYER
  5
1FD
100
AcDbSymbolTableRecord
100
AcDbLayerTableRecord
  2
AUSFORMSCHRAEGEN
 70
0
 62
7
  6
CONTINUOUS
370
-3
390
F
  0
LAYER
  5
1FE
100
AcDbSymbolTableRecord
100
AcDbLayerTableRecord
  2
BEZUGSACHSEN
 70
0
 62
7
  6
CONTINUOUS
370
-3
390
F
  0
LAYER
  5
1FF
100
AcDbSymbolTableRecord
100
AcDbLayerTableRecord
  2
BEZUGSEBENEN
 70
0
 62
7
  6
CONTINUOUS
370
-3
390
F
  0
LAYER
  5
200
100
AcDbSymbolTableRecord
100
AcDbLayerTableRecord
  2
BG_STARTBEZUEGE
 70
0
 62
7
  6
CONTINUOUS
370
-3
390
F
  0
LAYER
  5
201
100
AcDbSymbolTableRecord
100
AcDbLayerTableRecord
  2
FASEN
 70
0
 62
7
  6
CONTINUOUS
370
-3
390
F
  0
LAYER
  5
202
100
AcDbSymbolTableRecord
100
AcDbLayerTableRecord
  2
HILFEN
 70
0
 62
7
  6
CONTINUOUS
370
-3
390
F
  0
LAYER
  5
203
100
AcDbSymbolTableRecord
100
AcDbLayerTableRecord
  2
KURVEN
 70
0
 62
7
  6
CONTINUOUS
370
-3
390
F
  0
LAYER
  5
204
100
AcDbSymbolTableRecord
100
AcDbLayerTableRecord
  2
NORM
 70
0
 62
7
  6
CONTINUOUS
370
-3
390
F
  0
LAYER
  5
205
100
AcDbSymbolTableRecord
100
AcDbLayerTableRecord
  2
PLATZIERUNG
 70
0
 62
7
  6
CONTINUOUS
370
-3
390
F
  0
LAYER
  5
206
100
AcDbSymbolTableRecord
100
AcDbLayerTableRecord
  2
RUNDUNGEN
 70
0
 62
7
  6
CONTINUOUS
370
-3
390
F
  0
LAYER
  5
207
100
AcDbSymbolTableRecord
100
AcDbLayerTableRecord
  2
T_STARTBEZUEGE
 70
0
 62
7
  6
CONTINUOUS
370
-3
390
F
  0
LAYER
  5
208
100
AcDbSymbolTableRecord
100
AcDbLayerTableRecord
  2
ZEICHNUNGSBEMASSUNGEN
 70
0
 62
7
  6
CONTINUOUS
370
-3
390
F
  0
ENDTAB
  0
TABLE
  2
STYLE
  5
3
100
AcDbSymbolTable
 70
1
  0
STYLE
  5
11
100
AcDbSymbolTableRecord
100
AcDbTextStyleTableRecord
  2
STANDARD
 70
0
 40
0.0
 41
0.7
 50
0.0
 71
0
 42
0.2
  3
txt
  4

  0
STYLE
  5
209
100
AcDbSymbolTableRecord
100
AcDbTextStyleTableRecord
  2
TEXTSTYLE_1
 70
0
 40
0.0
 41
0.8
 50
0.0
 71
0
 42
0.2
  3
gdt
  4

  0
ENDTAB
  0
TABLE
  2
VIEW
  5
6
100
AcDbSymbolTable
 70
0
  0
ENDTAB
  0
TABLE
  2
UCS
  5
7
100
AcDbSymbolTable
 70
0
  0
ENDTAB
  0
TABLE
  2
APPID
  5
9
100
AcDbSymbolTable
 70
1
  0
APPID
  5
20A
100
AcDbSymbolTableRecord
100
AcDbRegAppTableRecord
  2
ACAD
 70
0
  0
ENDTAB
  0
TABLE
  2
BLOCK_RECORD
  5
1
100
AcDbSymbolTable
 70
0
  0
BLOCK_RECORD
  5
20B
100
AcDbSymbolTableRecord
100
AcDbBlockTableRecord
  2
*Model_Space
  0
BLOCK_RECORD
  5
20C
100
AcDbSymbolTableRecord
100
AcDbBlockTableRecord
  2
*Paper_Space
  0
ENDTAB
  0
TABLE
  2
DIMSTYLE
  5
A
100
AcDbSymbolTable
 70
1
100
AcDbDimStyleTable
 71
0
  0
DIMSTYLE
105
20D
100
AcDbSymbolTableRecord
100
AcDbDimStyleTableRecord
  2
STANDARD
 70
0
  3

  4

 40
1.0
 41
3.5
 42
0.0625
 43
0.38
 44
0.18
 45
0.0
 46
0.0
 47
0.005
 48
0.005
140
3.5
141
0.09
142
0.0
143
25.4
144
1.0
145
0.0
146
1.0
147
0.09
 71
1.0
 72
0.0
 73
0
 74
0
 75
0
 76
0
 77
1
 78
8
170
0
171
2
172
0
173
0
174
0
175
0
176
0
177
0
178
5
270
2
271
3
272
3
273
2
274
2
275
0
280
0
281
0
282
0
283
1
284
8
285
0
286
0
287
3
288
0
340
11
  0
ENDTAB
  0
ENDSEC
  0
SECTION
  2
BLOCKS
  0
BLOCK
  5
20
100
AcDbEntity
  8
0
100
AcDbBlockBegin
  2
*Model_Space
 70
0
 10
0.0
 20
0.0
 30
0.0
  3
*Model_Space
  1

  0
ENDBLK
  5
21
100
AcDbEntity
  8
0
100
AcDbBlockEnd
  0
BLOCK
  5
1C
100
AcDbEntity
  8
0
100
AcDbBlockBegin
  2
*Paper_Space
 70
0
 10
0.0
 20
0.0
 30
0.0
  3
*Paper_Space
  1

  0
ENDBLK
  5
1D
100
AcDbEntity
  8
0
100
AcDbBlockEnd
  0
ENDSEC
  0
SECTION
  2
ENTITIES
  0
MTEXT
  5
20E
100
AcDbEntity
  8
0
100
AcDbMText
 62
5
  6
CONTINUOUS
  7
STANDARD
 71
1
 72
1
 10
1003.1478618421
 20
618.0771381579
 30
0.0
 11
0.0
 21
1.0
 31
0.0
 44
0.9
  1
VRBK 50t
 40
12.0
 41
74.8571428571
  0
MTEXT
  5
20F
100
AcDbEntity
  8
0
100
AcDbMText
 62
5
  6
CONTINUOUS
  7
STANDARD
 71
1
 72
1
 10
390.1250723815
 20
761.5382748647
 30
0.0
 11
1.0
 21
0.0
 31
0.0
 44
0.9
  1
VRBK 50t
 40
12.0
 41
74.8571428571
  0
MTEXT
  5
210
100
AcDbEntity
  8
0
100
AcDbMText
 62
5
  6
CONTINUOUS
  7
STANDARD
 71
1
 72
1
 10
373.210890865
 20
120.9998166386
 30
0.0
 11
1.0
 21
0.0
 31
0.0
 44
0.9
  1
RUD VRBK 50
 40
12.0
 41
107.1428571429
  0
LINE
  5
211
100
AcDbEntity
  8
0
100
AcDbLine
 62
7
  6
CONTINUOUS
 10
0.0
 20
0.0
 11
0.0
 21
841.0
  0
LINE
  5
212
100
AcDbEntity
  8
0
100
AcDbLine
 62
7
  6
CONTINUOUS
 10
0.0
 20
0.0
 11
1189.0
 21
0.0
  0
LINE
  5
213
100
AcDbEntity
  8
0
100
AcDbLine
 62
7
  6
CONTINUOUS
 10
0.0
 20
841.0
 11
1189.0
 21
841.0
  0
LINE
  5
214
100
AcDbEntity
  8
0
100
AcDbLine
 62
7
  6
CONTINUOUS
 10
1189.0
 20
0.0
 11
1189.0
 21
841.0
  0
LINE
  5
215
100
AcDbEntity
  8
RUNDUNGEN
100
AcDbLine
 62
7
  6
CONTINUOUS
 10
114.5137924051
 20
331.0432526239
 11
114.5137924051
 21
467.6409100625
  0
LINE
  5
216
100
AcDbEntity
  8
BEZUGSACHSEN
100
AcDbLine
 62
7
  6
CONTINUOUS
 10
114.5137924051
 20
467.6409100625
 11
114.5137924051
 21
547.6409100625
  0
LINE
  5
217
100
AcDbEntity
  8
BEZUGSACHSEN
100
AcDbLine
 62
7
  6
CONTINUOUS
 10
740.5137924051
 20
331.0431342636
 11
622.511589287
 21
331.0431342636
  0
LINE
  5
218
100
AcDbEntity
  8
RUNDUNGEN
100
AcDbLine
 62
7
  6
CONTINUOUS
 10
232.5159955232
 20
331.0431342636
 11
114.5137924051
 21
331.0431342636
  0
LINE
  5
219
100
AcDbEntity
  8
BEZUGSACHSEN
100
AcDbLine
 62
7
  6
CONTINUOUS
 10
301.610943157
 20
751.6617008128
 11
421.7735409196
 21
801.434678496
  0
LINE
  5
21A
100
AcDbEntity
  8
BEZUGSACHSEN
100
AcDbLine
 62
7
  6
CONTINUOUS
 10
244.5137924051
 20
547.6409100625
 11
244.5137924051
 21
467.6409100625
  0
LINE
  5
21B
100
AcDbEntity
  8
RUNDUNGEN
100
AcDbLine
 62
7
  6
CONTINUOUS
 10
244.5137924051
 20
467.6409100625
 11
244.5137924051
 21
417.3322521974
  0
LINE
  5
21C
100
AcDbEntity
  8
0
100
AcDbLine
 62
7
  6
CONTINUOUS
 10
244.5137924051
 20
417.3322521974
 11
244.5137924051
 21
399.098516099
  0
LINE
  5
21D
100
AcDbEntity
  8
BEZUGSACHSEN
100
AcDbLine
 62
7
  6
CONTINUOUS
 10
242.9612523071
 20
621.5493247049
 11
293.4930016548
 21
743.5437593106
  0
LINE
  5
21E
100
AcDbEntity
  8
0
100
AcDbLine
 62
7
  6
CONTINUOUS
 10
258.2237924051
 20
628.6659100625
 11
258.2237924051
 21
621.1659100625
  0
LINE
  5
21F
100
AcDbEntity
  8
0
100
AcDbLine
 62
7
  6
CONTINUOUS
 10
258.2237924051
 20
618.6659106585
 11
258.2237924051
 21
616.7909106585
  0
LINE
  5
220
100
AcDbEntity
  8
0
100
AcDbLine
 62
7
  6
CONTINUOUS
 10
258.2237924051
 20
609.2909106585
 11
258.2237924051
 21
607.4159097644
  0
LINE
  5
221
100
AcDbEntity
  8
0
100
AcDbLine
 62
7
  6
CONTINUOUS
 10
258.2237924051
 20
600.5409100625
 11
258.2237924051
 21
593.0409100625
  0
LINE
  5
222
100
AcDbEntity
  8
0
100
AcDbLine
 62
7
  6
CONTINUOUS
 10
259.8195368957
 20
594.9159100625
 11
259.8195368957
 21
600.8534097644
  0
LINE
  5
223
100
AcDbEntity
  8
0
100
AcDbLine
 62
7
  6
CONTINUOUS
 10
260.1386857939
 20
623.0409100625
 11
260.1386857939
 21
628.6659100625
  0
LINE
  5
224
100
AcDbEntity
  8
0
100
AcDbLine
 62
7
  6
CONTINUOUS
 10
264.6067712617
 20
600.8534097644
 11
264.6067712617
 21
594.9159100625
  0
LINE
  5
225
100
AcDbEntity
  8
0
100
AcDbLine
 62
7
  6
CONTINUOUS
 10
266.5216646504
 20
594.9159100625
 11
266.5216646504
 21
600.2284099134
  0
LINE
  5
226
100
AcDbEntity
  8
0
100
AcDbLine
 62
7
  6
CONTINUOUS
 10
271.3088987928
 20
628.6659100625
 11
271.3088987928
 21
623.0409100625
  0
LINE
  5
227
100
AcDbEntity
  8
0
100
AcDbLine
 62
7
  6
CONTINUOUS
 10
271.3088987928
 20
613.6659100625
 11
271.3088987928
 21
612.4159094664
  0
LINE
  5
228
100
AcDbEntity
  8
0
100
AcDbLine
 62
7
  6
CONTINUOUS
 10
273.2237924051
 20
593.0409100625
 11
273.2237924051
 21
594.9159100625
  0
LINE
  5
229
100
AcDbEntity
  8
0
100
AcDbLine
 62
7
  6
CONTINUOUS
 10
273.2237924051
 20
602.7284097644
 11
273.2237924051
 21
604.9159103605
  0
LINE
  5
22A
100
AcDbEntity
  8
0
100
AcDbLine
 62
7
  6
CONTINUOUS
 10
273.2237924051
 20
612.4159094664
 11
273.2237924051
 21
613.6659100625
  0
LINE
  5
22B
100
AcDbEntity
  8
0
100
AcDbLine
 62
7
  6
CONTINUOUS
 10
273.2237924051
 20
621.1659100625
 11
273.2237924051
 21
628.6659100625
  0
LINE
  5
22C
100
AcDbEntity
  8
0
100
AcDbLine
 62
7
  6
CONTINUOUS
 10
258.5429413032
 20
630.2284112546
 11
258.2237924051
 21
628.6659100625
  0
LINE
  5
22D
100
AcDbEntity
  8
0
100
AcDbLine
 62
7
  6
CONTINUOUS
 10
258.5429413032
 20
602.1034103605
 11
258.2237924051
 21
600.5409100625
  0
LINE
  5
22E
100
AcDbEntity
  8
0
100
AcDbLine
 62
7
  6
CONTINUOUS
 10
272.904643479
 20
610.8534100625
 11
273.2237924051
 21
612.4159094664
  0
LINE
  5
22F
100
AcDbEntity
  8
0
100
AcDbLine
 62
7
  6
CONTINUOUS
 10
260.1386857939
 20
628.6659100625
 11
260.457834692
 21
629.9159088704
  0
LINE
  5
230
100
AcDbEntity
  8
0
100
AcDbLine
 62
7
  6
CONTINUOUS
 10
271.3088987928
 20
612.4159094664
 11
270.9897498947
 21
611.1659106585
  0
LINE
  5
231
100
AcDbEntity
  8
0
100
AcDbLine
 62
7
  6
CONTINUOUS
 10
259.8195368957
 20
600.8534097644
 11
260.1386857939
 21
601.7909097644
  0
LINE
  5
232
100
AcDbEntity
  8
0
100
AcDbLine
 62
7
  6
CONTINUOUS
 10
259.1812390995
 20
631.4784100625
 11
258.5429413032
 21
630.2284112546
  0
LINE
  5
233
100
AcDbEntity
  8
0
100
AcDbLine
 62
7
  6
CONTINUOUS
 10
272.266345599
 20
609.6034094664
 11
272.904643479
 21
610.8534100625
  0
LINE
  5
234
100
AcDbEntity
  8
0
100
AcDbLine
 62
7
  6
CONTINUOUS
 10
260.457834692
 20
629.9159088704
 11
261.0961324882
 21
630.8534088704
  0
LINE
  5
235
100
AcDbEntity
  8
0
100
AcDbLine
 62
7
  6
CONTINUOUS
 10
270.9897498947
 20
611.1659106585
 11
270.351451875
 21
610.2284106585
  0
LINE
  5
236
100
AcDbEntity
  8
0
100
AcDbLine
 62
7
  6
CONTINUOUS
 10
259.5003879976
 20
603.3534100625
 11
258.5429413032
 21
602.1034103605
  0
LINE
  5
237
100
AcDbEntity
  8
0
100
AcDbLine
 62
7
  6
CONTINUOUS
 10
260.457834692
 20
632.7284088704
 11
259.1812390995
 21
631.4784100625
  0
LINE
  5
238
100
AcDbEntity
  8
BEZUGSACHSEN
100
AcDbLine
 62
7
  6
CONTINUOUS
 10
260.3632141337
 20
497.5477990227
 11
242.0041201859
 21
613.4625562439
  0
LINE
  5
239
100
AcDbEntity
  8
0
100
AcDbLine
 62
7
  6
CONTINUOUS
 10
232.5138101039
 20
331.0432346385
 11
244.5137924051
 21
399.098516099
  0
LINE
  5
23A
100
AcDbEntity
  8
0
100
AcDbLine
 62
7
  6
CONTINUOUS
 10
260.1386857939
 20
601.7909097644
 11
260.7769835901
 21
602.4159100625
  0
LINE
  5
23B
100
AcDbEntity
  8
0
100
AcDbLine
 62
7
  6
CONTINUOUS
 10
270.9897498947
 20
608.3534106585
 11
272.266345599
 21
609.6034094664
  0
LINE
  5
23C
100
AcDbEntity
  8
0
100
AcDbLine
 62
7
  6
CONTINUOUS
 10
260.7769835901
 20
604.2909100625
 11
259.5003879976
 21
603.3534100625
  0
LINE
  5
23D
100
AcDbEntity
  8
0
100
AcDbLine
 62
7
  6
CONTINUOUS
 10
261.0961324882
 20
630.8534088704
 11
262.0535800767
 21
631.4784100625
  0
LINE
  5
23E
100
AcDbEntity
  8
0
100
AcDbLine
 62
7
  6
CONTINUOUS
 10
261.7344302845
 20
633.3534100625
 11
260.457834692
 21
632.7284088704
  0
LINE
  5
23F
100
AcDbEntity
  8
BEZUGSACHSEN
100
AcDbLine
 62
7
  6
CONTINUOUS
 10
610.5137924051
 20
436.1409100625
 11
532.5137924051
 21
436.1409100625
  0
LINE
  5
240
100
AcDbEntity
  8
BEZUGSACHSEN
100
AcDbLine
 62
7
  6
CONTINUOUS
 10
322.5137924051
 20
436.1409100625
 11
244.5137924051
 21
436.1409100625
  0
LINE
  5
241
100
AcDbEntity
  8
0
100
AcDbLine
 62
7
  6
CONTINUOUS
 10
244.5137924051
 20
436.1409100625
 11
322.5137924051
 21
436.1409100625
  0
LINE
  5
242
100
AcDbEntity
  8
0
100
AcDbLine
 62
7
  6
CONTINUOUS
 10
265.8833668542
 20
602.1034103605
 11
265.2450690579
 21
603.3534100625
  0
LINE
  5
243
100
AcDbEntity
  8
0
100
AcDbLine
 62
7
  6
CONTINUOUS
 10
264.2876223636
 20
601.7909097644
 11
264.6067712617
 21
600.8534097644
  0
LINE
  5
244
100
AcDbEntity
  8
0
100
AcDbLine
 62
7
  6
CONTINUOUS
 10
270.9897498947
 20
614.9159106585
 11
271.3088987928
 21
613.6659100625
  0
LINE
  5
245
100
AcDbEntity
  8
0
100
AcDbLine
 62
7
  6
CONTINUOUS
 10
270.9897498947
 20
629.9159088704
 11
271.3088987928
 21
628.6659100625
  0
LINE
  5
246
100
AcDbEntity
  8
0
100
AcDbLine
 62
7
  6
CONTINUOUS
 10
273.2237924051
 20
613.6659100625
 11
272.904643479
 21
615.2284094664
  0
LINE
  5
247
100
AcDbEntity
  8
0
100
AcDbLine
 62
7
  6
CONTINUOUS
 10
273.2237924051
 20
628.6659100625
 11
272.904643479
 21
630.2284112546
  0
LINE
  5
248
100
AcDbEntity
  8
0
100
AcDbLine
 62
7
  6
CONTINUOUS
 10
270.351451875
 20
610.2284106585
 11
269.3940051806
 21
609.6034094664
  0
LINE
  5
249
100
AcDbEntity
  8
0
100
AcDbLine
 62
7
  6
CONTINUOUS
 10
269.7131540787
 20
607.7284103605
 11
270.9897498947
 21
608.3534106585
  0
LINE
  5
24A
100
AcDbEntity
  8
RUNDUNGEN
100
AcDbLine
 62
7
  6
CONTINUOUS
 10
522.8313340396
 20
443.6409100625
 11
332.1962507706
 21
443.6409100625
  0
LINE
  5
24B
100
AcDbEntity
  8
BEZUGSACHSEN
100
AcDbLine
 62
7
  6
CONTINUOUS
 10
380.0137924051
 20
460.4428710353
 11
475.0137924051
 21
460.4428710353
  0
LINE
  5
24C
100
AcDbEntity
  8
0
100
AcDbLine
 62
7
  6
CONTINUOUS
 10
270.351451875
 20
615.8534106585
 11
270.9897498947
 21
614.9159106585
  0
LINE
  5
24D
100
AcDbEntity
  8
0
100
AcDbLine
 62
7
  6
CONTINUOUS
 10
272.904643479
 20
615.2284094664
 11
272.266345599
 21
616.4784100625
  0
LINE
  5
24E
100
AcDbEntity
  8
0
100
AcDbLine
 62
7
  6
CONTINUOUS
 10
272.904643479
 20
630.2284112546
 11
272.266345599
 21
631.4784100625
  0
LINE
  5
24F
100
AcDbEntity
  8
0
100
AcDbLine
 62
7
  6
CONTINUOUS
 10
273.2237924051
 20
604.9159103605
 11
265.8833668542
 21
602.1034103605
  0
LINE
  5
250
100
AcDbEntity
  8
0
100
AcDbLine
 62
7
  6
CONTINUOUS
 10
266.5216646504
 20
600.2284099134
 11
273.2237924051
 21
602.7284097644
  0
LINE
  5
251
100
AcDbEntity
  8
0
100
AcDbLine
 62
7
  6
CONTINUOUS
 10
261.7344302845
 20
604.6034097644
 11
260.7769835901
 21
604.2909100625
  0
LINE
  5
252
100
AcDbEntity
  8
0
100
AcDbLine
 62
7
  6
CONTINUOUS
 10
260.7769835901
 20
602.4159100625
 11
261.7344302845
 21
602.7284097644
  0
LINE
  5
253
100
AcDbEntity
  8
0
100
AcDbLine
 62
7
  6
CONTINUOUS
 10
406.4057204532
 20
469.5321101934
 11
401.4837924982
 21
469.5321101934
  0
LINE
  5
254
100
AcDbEntity
  8
0
100
AcDbLine
 62
7
  6
CONTINUOUS
 10
440.5197742987
 20
477.5599453837
 11
443.048626523
 21
477.5599453837
  0
LINE
  5
255
100
AcDbEntity
  8
0
100
AcDbLine
 62
7
  6
CONTINUOUS
 10
447.9026648807
 20
477.5599453837
 11
450.9237114
 21
477.5599453837
  0
LINE
  5
256
100
AcDbEntity
  8
0
100
AcDbLine
 62
7
  6
CONTINUOUS
 10
450.9237114
 20
481.1919886858
 11
447.9026648807
 21
481.1919886858
  0
LINE
  5
257
100
AcDbEntity
  8
0
100
AcDbLine
 62
7
  6
CONTINUOUS
 10
443.048626523
 20
481.1919886858
 11
440.5197742987
 21
481.1919886858
  0
LINE
  5
258
100
AcDbEntity
  8
0
100
AcDbLine
 62
7
  6
CONTINUOUS
 10
407.2713005948
 20
482.8552607686
 11
417.4036834049
 21
482.8552607686
  0
LINE
  5
259
100
AcDbEntity
  8
0
100
AcDbLine
 62
7
  6
CONTINUOUS
 10
447.9026648807
 20
486.0969443113
 11
443.048626523
 21
486.0969443113
  0
LINE
  5
25A
100
AcDbEntity
  8
0
100
AcDbLine
 62
7
  6
CONTINUOUS
 10
417.4036834049
 20
487.0983023435
 11
404.0296174246
 21
487.0983023435
  0
LINE
  5
25B
100
AcDbEntity
  8
0
100
AcDbLine
 62
7
  6
CONTINUOUS
 10
402.2475398737
 20
473.6563463003
 11
406.5075534987
 21
473.4696526319
  0
LINE
  5
25C
100
AcDbEntity
  8
0
100
AcDbLine
 62
7
  6
CONTINUOUS
 10
263.6493245673
 20
602.4159100625
 11
264.2876223636
 21
601.7909097644
  0
LINE
  5
25D
100
AcDbEntity
  8
0
100
AcDbLine
 62
7
  6
CONTINUOUS
 10
270.351451875
 20
630.8534088704
 11
270.9897498947
 21
629.9159088704
  0
LINE
  5
25E
100
AcDbEntity
  8
BEZUGSACHSEN
100
AcDbLine
 62
7
  6
CONTINUOUS
 10
610.5137924051
 20
499.1409100625
 11
600.7709425075
 21
499.1409100625
  0
LINE
  5
25F
100
AcDbEntity
  8
BEZUGSACHSEN
100
AcDbLine
 62
7
  6
CONTINUOUS
 10
254.2566423027
 20
499.1409100625
 11
244.5137924051
 21
499.1409100625
  0
LINE
  5
260
100
AcDbEntity
  8
0
100
AcDbLine
 62
7
  6
CONTINUOUS
 10
265.2450690579
 20
603.3534100625
 11
263.9684734654
 21
604.2909100625
  0
LINE
  5
261
100
AcDbEntity
  8
0
100
AcDbLine
 62
7
  6
CONTINUOUS
 10
272.266345599
 20
616.4784100625
 11
270.9897498947
 21
617.7284106585
  0
LINE
  5
262
100
AcDbEntity
  8
0
100
AcDbLine
 62
7
  6
CONTINUOUS
 10
272.266345599
 20
631.4784100625
 11
270.9897498947
 21
632.7284088704
  0
LINE
  5
263
100
AcDbEntity
  8
BEZUGSACHSEN
100
AcDbLine
 62
7
  6
CONTINUOUS
 10
380.0137924051
 20
460.4428710353
 11
380.0137924051
 21
500.6326002273
  0
LINE
  5
264
100
AcDbEntity
  8
0
100
AcDbLine
 62
7
  6
CONTINUOUS
 10
270.9897498947
 20
617.7284106585
 11
269.7131540787
 21
618.3534100625
  0
LINE
  5
265
100
AcDbEntity
  8
0
100
AcDbLine
 62
7
  6
CONTINUOUS
 10
269.3940051806
 20
616.4784100625
 11
270.351451875
 21
615.8534106585
  0
LINE
  5
266
100
AcDbEntity
  8
0
100
AcDbLine
 62
7
  6
CONTINUOUS
 10
269.3940051806
 20
631.4784100625
 11
270.351451875
 21
630.8534088704
  0
LINE
  5
267
100
AcDbEntity
  8
0
100
AcDbLine
 62
7
  6
CONTINUOUS
 10
417.4036834049
 20
482.8552607686
 11
417.4036834049
 21
487.0983023435
  0
LINE
  5
268
100
AcDbEntity
  8
0
100
AcDbLine
 62
7
  6
CONTINUOUS
 10
404.0296174246
 20
487.0983023435
 11
402.2475398737
 21
473.6563463003
  0
LINE
  5
269
100
AcDbEntity
  8
0
100
AcDbLine
 62
7
  6
CONTINUOUS
 10
406.5924141216
 20
477.7296666295
 11
407.2713005948
 21
482.8552607686
  0
LINE
  5
26A
100
AcDbEntity
  8
0
100
AcDbLine
 62
7
  6
CONTINUOUS
 10
740.5137924051
 20
547.6409100625
 11
610.5137924051
 21
547.6409100625
  0
LINE
  5
26B
100
AcDbEntity
  8
0
100
AcDbLine
 62
7
  6
CONTINUOUS
 10
114.5137924051
 20
547.6409100625
 11
244.5137924051
 21
547.6409100625
  0
LINE
  5
26C
100
AcDbEntity
  8
BEZUGSACHSEN
100
AcDbLine
 62
7
  6
CONTINUOUS
 10
114.5137924051
 20
547.6409100625
 11
244.5137924051
 21
547.6409100625
  0
LINE
  5
26D
100
AcDbEntity
  8
0
100
AcDbLine
 62
7
  6
CONTINUOUS
 10
262.6918778729
 20
602.7284097644
 11
263.6493245673
 21
602.4159100625
  0
LINE
  5
26E
100
AcDbEntity
  8
0
100
AcDbLine
 62
7
  6
CONTINUOUS
 10
263.9684734654
 20
604.2909100625
 11
263.0110267711
 21
604.6034097644
  0
LINE
  5
26F
100
AcDbEntity
  8
0
100
AcDbLine
 62
7
  6
CONTINUOUS
 10
270.9897498947
 20
632.7284088704
 11
269.7131540787
 21
633.3534100625
  0
LINE
  5
270
100
AcDbEntity
  8
0
100
AcDbLine
 62
7
  6
CONTINUOUS
 10
440.5197742987
 20
481.1919886858
 11
440.5197742987
 21
477.5599453837
  0
LINE
  5
271
100
AcDbEntity
  8
0
100
AcDbLine
 62
7
  6
CONTINUOUS
 10
443.048626523
 20
486.0969443113
 11
443.048626523
 21
481.1919886858
  0
LINE
  5
272
100
AcDbEntity
  8
0
100
AcDbLine
 62
7
  6
CONTINUOUS
 10
443.048626523
 20
477.5599453837
 11
443.048626523
 21
468.2422258199
  0
LINE
  5
273
100
AcDbEntity
  8
0
100
AcDbLine
 62
7
  6
CONTINUOUS
 10
447.9026648807
 20
468.27616992
 11
447.9026648807
 21
477.5599453837
  0
LINE
  5
274
100
AcDbEntity
  8
0
100
AcDbLine
 62
7
  6
CONTINUOUS
 10
447.9026648807
 20
481.1919886858
 11
447.9026648807
 21
486.0969443113
  0
LINE
  5
275
100
AcDbEntity
  8
0
100
AcDbLine
 62
7
  6
CONTINUOUS
 10
450.9237114
 20
462.573522423
 11
450.9237114
 21
466.2225380779
  0
LINE
  5
276
100
AcDbEntity
  8
0
100
AcDbLine
 62
7
  6
CONTINUOUS
 10
450.9237114
 20
477.5599453837
 11
450.9237114
 21
481.1919886858
  0
LINE
  5
277
100
AcDbEntity
  8
0
100
AcDbLine
 62
7
  6
CONTINUOUS
 10
258.2237924051
 20
593.0409100625
 11
273.2237924051
 21
593.0409100625
  0
LINE
  5
278
100
AcDbEntity
  8
0
100
AcDbLine
 62
7
  6
CONTINUOUS
 10
273.2237924051
 20
594.9159100625
 11
266.5216646504
 21
594.9159100625
  0
LINE
  5
279
100
AcDbEntity
  8
0
100
AcDbLine
 62
7
  6
CONTINUOUS
 10
264.6067712617
 20
594.9159100625
 11
259.8195368957
 21
594.9159100625
  0
LINE
  5
27A
100
AcDbEntity
  8
0
100
AcDbLine
 62
7
  6
CONTINUOUS
 10
269.7131540787
 20
618.3534100625
 11
268.1174095881
 21
618.6659106585
  0
LINE
  5
27B
100
AcDbEntity
  8
0
100
AcDbLine
 62
7
  6
CONTINUOUS
 10
268.1174095881
 20
616.7909106585
 11
269.3940051806
 21
616.4784100625
  0
LINE
  5
27C
100
AcDbEntity
  8
0
100
AcDbLine
 62
7
  6
CONTINUOUS
 10
268.1174095881
 20
631.7909088704
 11
269.3940051806
 21
631.4784100625
  0
LINE
  5
27D
100
AcDbEntity
  8
BEZUGSACHSEN
100
AcDbLine
 62
7
  6
CONTINUOUS
 10
475.0137924051
 20
460.4428710353
 11
475.0137924051
 21
500.6326002273
  0
LINE
  5
27E
100
AcDbEntity
  8
0
100
AcDbLine
 62
7
  6
CONTINUOUS
 10
261.7344302845
 20
602.7284097644
 11
262.6918778729
 21
602.7284097644
  0
LINE
  5
27F
100
AcDbEntity
  8
0
100
AcDbLine
 62
7
  6
CONTINUOUS
 10
263.0110267711
 20
604.6034097644
 11
261.7344302845
 21
604.6034097644
  0
LINE
  5
280
100
AcDbEntity
  8
0
100
AcDbLine
 62
7
  6
CONTINUOUS
 10
258.2237924051
 20
607.4159097644
 11
268.1174095881
 21
607.4159097644
  0
LINE
  5
281
100
AcDbEntity
  8
0
100
AcDbLine
 62
7
  6
CONTINUOUS
 10
268.1174095881
 20
609.2909106585
 11
258.2237924051
 21
609.2909106585
  0
LINE
  5
282
100
AcDbEntity
  8
0
100
AcDbLine
 62
7
  6
CONTINUOUS
 10
258.2237924051
 20
616.7909106585
 11
268.1174095881
 21
616.7909106585
  0
LINE
  5
283
100
AcDbEntity
  8
0
100
AcDbLine
 62
7
  6
CONTINUOUS
 10
268.1174095881
 20
618.6659106585
 11
258.2237924051
 21
618.6659106585
  0
LINE
  5
284
100
AcDbEntity
  8
0
100
AcDbLine
 62
7
  6
CONTINUOUS
 10
258.2237924051
 20
621.1659100625
 11
273.2237924051
 21
621.1659100625
  0
LINE
  5
285
100
AcDbEntity
  8
0
100
AcDbLine
 62
7
  6
CONTINUOUS
 10
269.7131540787
 20
633.3534100625
 11
268.1174095881
 21
633.6659088704
  0
LINE
  5
286
100
AcDbEntity
  8
0
100
AcDbLine
 62
7
  6
CONTINUOUS
 10
269.3940051806
 20
609.6034094664
 11
268.1174095881
 21
609.2909106585
  0
LINE
  5
287
100
AcDbEntity
  8
0
100
AcDbLine
 62
7
  6
CONTINUOUS
 10
268.1174095881
 20
607.4159097644
 11
269.7131540787
 21
607.7284103605
  0
LINE
  5
288
100
AcDbEntity
  8
0
100
AcDbLine
 62
7
  6
CONTINUOUS
 10
271.3088987928
 20
623.0409100625
 11
260.1386857939
 21
623.0409100625
  0
LINE
  5
289
100
AcDbEntity
  8
0
100
AcDbLine
 62
7
  6
CONTINUOUS
 10
263.3301756692
 20
631.7909088704
 11
268.1174095881
 21
631.7909088704
  0
LINE
  5
28A
100
AcDbEntity
  8
0
100
AcDbLine
 62
7
  6
CONTINUOUS
 10
268.1174095881
 20
633.6659088704
 11
263.3301756692
 21
633.6659088704
  0
LINE
  5
28B
100
AcDbEntity
  8
0
100
AcDbLine
 62
7
  6
CONTINUOUS
 10
262.0535800767
 20
631.4784100625
 11
263.3301756692
 21
631.7909088704
  0
LINE
  5
28C
100
AcDbEntity
  8
0
100
AcDbLine
 62
7
  6
CONTINUOUS
 10
263.3301756692
 20
633.6659088704
 11
261.7344302845
 21
633.3534100625
  0
LINE
  5
28D
100
AcDbEntity
  8
BEZUGSACHSEN
100
AcDbLine
 62
7
  6
CONTINUOUS
 10
622.5137747063
 20
331.0432346385
 11
610.5137924051
 21
399.098516099
  0
LINE
  5
28E
100
AcDbEntity
  8
BEZUGSACHSEN
100
AcDbLine
 62
7
  6
CONTINUOUS
 10
610.5137924051
 20
399.098516099
 11
610.5137924051
 21
547.6409100625
  0
LINE
  5
28F
100
AcDbEntity
  8
BEZUGSACHSEN
100
AcDbLine
 62
7
  6
CONTINUOUS
 10
594.6643706765
 20
497.5477990227
 11
613.0234646244
 21
613.4625562439
  0
LINE
  5
290
100
AcDbEntity
  8
BEZUGSACHSEN
100
AcDbLine
 62
7
  6
CONTINUOUS
 10
612.0663325031
 20
621.5493247049
 11
561.5345831554
 21
743.5437593106
  0
LINE
  5
291
100
AcDbEntity
  8
BEZUGSACHSEN
100
AcDbLine
 62
7
  6
CONTINUOUS
 10
553.4166416532
 20
751.6617008128
 11
433.2540438906
 21
801.434678496
  0
LINE
  5
292
100
AcDbEntity
  8
BEZUGSACHSEN
100
AcDbLine
 62
7
  6
CONTINUOUS
 10
740.5137924051
 20
331.0432526239
 11
740.5137924051
 21
547.6409100625
  0
LINE
  5
293
100
AcDbEntity
  8
RUNDUNGEN
100
AcDbLine
 62
7
  6
CONTINUOUS
 10
994.1125243472
 20
331.6289207012
 11
970.778000568
 21
354.9634444804
  0
LINE
  5
294
100
AcDbEntity
  8
BEZUGSACHSEN
100
AcDbLine
 62
7
  6
CONTINUOUS
 10
872.4901579831
 20
453.2512870653
 11
895.8246817623
 21
429.9167632862
  0
LINE
  5
295
100
AcDbEntity
  8
BEZUGSACHSEN
100
AcDbLine
 62
7
  6
CONTINUOUS
 10
956.7754092464
 20
429.9167632862
 11
895.8246817623
 21
429.9167632862
  0
LINE
  5
296
100
AcDbEntity
  8
0
100
AcDbLine
 62
7
  6
CONTINUOUS
 10
1043.2384542711
 20
458.3303575274
 11
1041.7465113623
 21
458.0169214249
  0
LINE
  5
297
100
AcDbEntity
  8
0
100
AcDbLine
 62
7
  6
CONTINUOUS
 10
1042.5614370102
 20
464.7244080783
 11
1044.0533836069
 21
465.0378411252
  0
LINE
  5
298
100
AcDbEntity
  8
0
100
AcDbLine
 62
7
  6
CONTINUOUS
 10
1036.305298534
 20
464.3608238642
 11
1035.559327027
 21
464.2041057603
  0
LINE
  5
299
100
AcDbEntity
  8
0
100
AcDbLine
 62
7
  6
CONTINUOUS
 10
1035.399475779
 20
463.1603710358
 11
1036.4432105034
 21
463.3202222838
  0
LINE
  5
29A
100
AcDbEntity
  8
0
100
AcDbLine
 62
7
  6
CONTINUOUS
 10
1041.5866601144
 20
456.9731867005
 11
1042.4799466054
 21
456.982589715
  0
LINE
  5
29B
100
AcDbEntity
  8
0
100
AcDbLine
 62
7
  6
CONTINUOUS
 10
1043.6004704117
 20
485.6508197007
 11
1042.8544973241
 21
485.4941033881
  0
LINE
  5
29C
100
AcDbEntity
  8
0
100
AcDbLine
 62
7
  6
CONTINUOUS
 10
1015.5120958722
 20
483.0477509426
 11
1016.5558305967
 21
483.2076021906
  0
LINE
  5
29D
100
AcDbEntity
  8
0
100
AcDbLine
 62
7
  6
CONTINUOUS
 10
1018.671509142
 20
486.2071642124
 11
1019.7152438138
 21
486.3670154077
  0
LINE
  5
29E
100
AcDbEntity
  8
0
100
AcDbLine
 62
7
  6
CONTINUOUS
 10
1023.5422712246
 20
482.2390915301
 11
1029.0524385098
 21
482.4459579564
  0
LINE
  5
29F
100
AcDbEntity
  8
0
100
AcDbLine
 62
7
  6
CONTINUOUS
 10
1027.8739283317
 20
483.6244681344
 11
1021.1727113381
 21
483.4050655496
  0
LINE
  5
2A0
100
AcDbEntity
  8
0
100
AcDbLine
 62
7
  6
CONTINUOUS
 10
1044.2132348021
 20
466.0815757969
 11
1043.3199483638
 21
466.072172835
  0
LINE
  5
2A1
100
AcDbEntity
  8
0
100
AcDbLine
 62
7
  6
CONTINUOUS
 10
1019.9691252603
 20
482.2014794718
 11
1022.0534616179
 21
482.223418803
  0
LINE
  5
2A2
100
AcDbEntity
  8
0
100
AcDbLine
 62
7
  6
CONTINUOUS
 10
1034.4215622093
 20
469.253525278
 11
1035.4621603126
 21
469.115616575
  0
LINE
  5
2A3
100
AcDbEntity
  8
0
100
AcDbLine
 62
7
  6
CONTINUOUS
 10
1041.7465113623
 20
458.0169214249
 11
1041.0036731573
 21
458.1579666964
  0
LINE
  5
2A4
100
AcDbEntity
  8
0
100
AcDbLine
 62
7
  6
CONTINUOUS
 10
1035.559327027
 20
464.2041057603
 11
1034.8164888219
 21
464.3451510318
  0
LINE
  5
2A5
100
AcDbEntity
  8
0
100
AcDbLine
 62
7
  6
CONTINUOUS
 10
1044.0533836069
 20
465.0378411252
 11
1044.7962218119
 21
464.8967958537
  0
LINE
  5
2A6
100
AcDbEntity
  8
0
100
AcDbLine
 62
7
  6
CONTINUOUS
 10
1040.3987435631
 20
457.2584137724
 11
1041.5866601144
 21
456.9731867005
  0
LINE
  5
2A7
100
AcDbEntity
  8
0
100
AcDbLine
 62
7
  6
CONTINUOUS
 10
1034.2115592278
 20
463.4455981078
 11
1035.399475779
 21
463.1603710358
  0
LINE
  5
2A8
100
AcDbEntity
  8
0
100
AcDbLine
 62
7
  6
CONTINUOUS
 10
1036.5294025999
 20
492.7218875126
 11
1035.7834303552
 21
492.565170357
  0
LINE
  5
2A9
100
AcDbEntity
  8
0
100
AcDbLine
 62
7
  6
CONTINUOUS
 10
1011.8950697176
 20
492.9836036368
 11
1012.9388043894
 21
493.1434548321
  0
LINE
  5
2AA
100
AcDbEntity
  8
0
100
AcDbLine
 62
7
  6
CONTINUOUS
 10
1032.2980455092
 20
500.8648990927
 11
1033.341780181
 21
501.024750288
  0
LINE
  5
2AB
100
AcDbEntity
  8
0
100
AcDbLine
 62
7
  6
CONTINUOUS
 10
1042.2464361533
 20
484.2967854423
 11
1043.4374842285
 21
484.3093233394
  0
LINE
  5
2AC
100
AcDbEntity
  8
0
100
AcDbLine
 62
7
  6
CONTINUOUS
 10
1015.822395459
 20
484.2419340058
 11
1015.2268721852
 21
484.2356641352
  0
LINE
  5
2AD
100
AcDbEntity
  8
0
100
AcDbLine
 62
7
  6
CONTINUOUS
 10
1018.9818085707
 20
487.4013471175
 11
1018.3862854024
 21
487.3950773523
  0
LINE
  5
2AE
100
AcDbEntity
  8
0
100
AcDbLine
 62
7
  6
CONTINUOUS
 10
1035.1753683414
 20
491.3678532541
 11
1036.3664172596
 21
491.3803903084
  0
LINE
  5
2AF
100
AcDbEntity
  8
0
100
AcDbLine
 62
7
  6
CONTINUOUS
 10
1012.2053691463
 20
494.1777865419
 11
1011.609845135
 21
494.1715176197
  0
LINE
  5
2B0
100
AcDbEntity
  8
0
100
AcDbLine
 62
7
  6
CONTINUOUS
 10
1014.4714960436
 20
483.185661292
 11
1015.5120958722
 21
483.0477509426
  0
LINE
  5
2B1
100
AcDbEntity
  8
0
100
AcDbLine
 62
7
  6
CONTINUOUS
 10
1042.8544973241
 20
485.4941033881
 11
1042.1116590138
 21
485.6351485542
  0
LINE
  5
2B2
100
AcDbEntity
  8
0
100
AcDbLine
 62
7
  6
CONTINUOUS
 10
1045.4011479421
 20
465.7963520573
 11
1044.2132348021
 21
466.0815757969
  0
LINE
  5
2B3
100
AcDbEntity
  8
0
100
AcDbLine
 62
7
  6
CONTINUOUS
 10
1036.0670898146
 20
470.0151694069
 11
1034.8791733029
 21
470.3003965183
  0
LINE
  5
2B4
100
AcDbEntity
  8
0
100
AcDbLine
 62
7
  6
CONTINUOUS
 10
1032.6083449379
 20
502.0590819978
 11
1032.0128205051
 21
502.0528134971
  0
LINE
  5
2B5
100
AcDbEntity
  8
0
100
AcDbLine
 62
7
  6
CONTINUOUS
 10
1035.7834303552
 20
492.565170357
 11
1035.0405920448
 21
492.7062155231
  0
LINE
  5
2B6
100
AcDbEntity
  8
0
100
AcDbLine
 62
7
  6
CONTINUOUS
 10
1018.2264342071
 20
486.3513426806
 11
1018.671509142
 21
486.2071642124
  0
LINE
  5
2B7
100
AcDbEntity
  8
0
100
AcDbLine
 62
7
  6
CONTINUOUS
 10
1011.0049173189
 20
493.271963102
 11
1011.8950697176
 21
492.9836036368
  0
LINE
  5
2B8
100
AcDbEntity
  8
0
100
AcDbLine
 62
7
  6
CONTINUOUS
 10
1041.356284558
 20
484.585144025
 11
1042.2464361533
 21
484.2967854423
  0
LINE
  5
2B9
100
AcDbEntity
  8
0
100
AcDbLine
 62
7
  6
CONTINUOUS
 10
1034.2852159032
 20
491.6562126798
 11
1035.1753683414
 21
491.3678532541
  0
LINE
  5
2BA
100
AcDbEntity
  8
0
100
AcDbLine
 62
7
  6
CONTINUOUS
 10
1015.2268721852
 20
484.2356641352
 11
1014.6344822136
 21
484.5271576401
  0
LINE
  5
2BB
100
AcDbEntity
  8
0
100
AcDbLine
 62
7
  6
CONTINUOUS
 10
1018.3862854024
 20
487.3950773523
 11
1017.7938954307
 21
487.6865708572
  0
LINE
  5
2BC
100
AcDbEntity
  8
0
100
AcDbLine
 62
7
  6
CONTINUOUS
 10
1011.609845135
 20
494.1715176197
 11
1011.0174551634
 21
494.4630111246
  0
LINE
  5
2BD
100
AcDbEntity
  8
0
100
AcDbLine
 62
7
  6
CONTINUOUS
 10
1034.8164888219
 20
464.3451510318
 11
1034.0767838137
 21
464.7839595733
  0
LINE
  5
2BE
100
AcDbEntity
  8
0
100
AcDbLine
 62
7
  6
CONTINUOUS
 10
1035.4621603126
 20
469.115616575
 11
1036.2018653209
 21
468.6768080335
  0
LINE
  5
2BF
100
AcDbEntity
  8
0
100
AcDbLine
 62
7
  6
CONTINUOUS
 10
1041.0036731573
 20
458.1579666964
 11
1040.1166531124
 21
458.7440902746
  0
LINE
  5
2C0
100
AcDbEntity
  8
0
100
AcDbLine
 62
7
  6
CONTINUOUS
 10
1033.3245425414
 20
464.031718301
 11
1034.2115592278
 21
463.4455981078
  0
LINE
  5
2C1
100
AcDbEntity
  8
0
100
AcDbLine
 62
7
  6
CONTINUOUS
 10
1013.5844776713
 20
483.7717831711
 11
1014.4714960436
 21
483.185661292
  0
LINE
  5
2C2
100
AcDbEntity
  8
0
100
AcDbLine
 62
7
  6
CONTINUOUS
 10
1036.9541064878
 20
469.4290492004
 11
1036.0670898146
 21
470.0151694069
  0
LINE
  5
2C3
100
AcDbEntity
  8
0
100
AcDbLine
 62
7
  6
CONTINUOUS
 10
1039.3644118401
 20
457.9918490023
 11
1040.3987435631
 21
457.2584137724
  0
LINE
  5
2C4
100
AcDbEntity
  8
0
100
AcDbLine
 62
7
  6
CONTINUOUS
 10
1031.4078935319
 20
501.1532581364
 11
1032.2980455092
 21
500.8648990927
  0
LINE
  5
2C5
100
AcDbEntity
  8
0
100
AcDbLine
 62
7
  6
CONTINUOUS
 10
1032.0128205051
 20
502.0528134971
 11
1031.4204305335
 21
502.3443070019
  0
LINE
  5
2C6
100
AcDbEntity
  8
0
100
AcDbLine
 62
7
  6
CONTINUOUS
 10
1042.1116590138
 20
485.6351485542
 11
1041.3719556914
 21
486.0739554098
  0
LINE
  5
2C7
100
AcDbEntity
  8
0
100
AcDbLine
 62
7
  6
CONTINUOUS
 10
1035.0405920448
 20
492.7062155231
 11
1034.3008878795
 21
493.1450232217
  0
LINE
  5
2C8
100
AcDbEntity
  8
0
100
AcDbLine
 62
7
  6
CONTINUOUS
 10
1044.7962218119
 20
464.8967958537
 11
1045.6832384851
 21
464.3106756473
  0
LINE
  5
2C9
100
AcDbEntity
  8
0
100
AcDbLine
 62
7
  6
CONTINUOUS
 10
1040.4692661857
 20
485.1712659042
 11
1041.356284558
 21
484.585144025
  0
LINE
  5
2CA
100
AcDbEntity
  8
0
100
AcDbLine
 62
7
  6
CONTINUOUS
 10
1033.3981983738
 20
492.242333716
 11
1034.2852159032
 21
491.6562126798
  0
LINE
  5
2CB
100
AcDbEntity
  8
0
100
AcDbLine
 62
7
  6
CONTINUOUS
 10
1046.435479652
 20
465.0629168142
 11
1045.4011479421
 21
465.7963520573
  0
LINE
  5
2CC
100
AcDbEntity
  8
0
100
AcDbLine
 62
7
  6
CONTINUOUS
 10
998.5584592033
 20
498.7978016391
 11
999.736970435
 21
497.6192904074
  0
LINE
  5
2CD
100
AcDbEntity
  8
0
100
AcDbLine
 62
7
  6
CONTINUOUS
 10
1003.272504341
 20
494.0837565014
 11
1004.1563878174
 21
493.199873025
  0
LINE
  5
2CE
100
AcDbEntity
  8
0
100
AcDbLine
 62
7
  6
CONTINUOUS
 10
1007.8392359171
 20
489.5170249253
 11
1008.8704327444
 21
488.485828098
  0
LINE
  5
2CF
100
AcDbEntity
  8
0
100
AcDbLine
 62
7
  6
CONTINUOUS
 10
1010.0489446083
 20
487.3073162341
 11
1013.5844776713
 21
483.7717831711
  0
LINE
  5
2D0
100
AcDbEntity
  8
0
100
AcDbLine
 62
7
  6
CONTINUOUS
 10
1016.678069839
 20
480.6781910034
 11
1017.5619533155
 21
479.7943075269
  0
LINE
  5
2D1
100
AcDbEntity
  8
0
100
AcDbLine
 62
7
  6
CONTINUOUS
 10
1020.8028605198
 20
476.5534003226
 11
1021.9813706979
 21
475.3748901445
  0
LINE
  5
2D2
100
AcDbEntity
  8
0
100
AcDbLine
 62
7
  6
CONTINUOUS
 10
1032.4406590649
 20
464.9156017775
 11
1033.3245425414
 21
464.031718301
  0
LINE
  5
2D3
100
AcDbEntity
  8
0
100
AcDbLine
 62
7
  6
CONTINUOUS
 10
1034.0767838137
 20
464.7839595733
 11
1033.1929003372
 21
465.6678430498
  0
LINE
  5
2D4
100
AcDbEntity
  8
0
100
AcDbLine
 62
7
  6
CONTINUOUS
 10
1014.6344822136
 20
484.5271576401
 11
1011.8355167475
 21
487.3261231062
  0
LINE
  5
2D5
100
AcDbEntity
  8
0
100
AcDbLine
 62
7
  6
CONTINUOUS
 10
1032.9202128615
 20
468.0468060035
 11
1032.036329385
 21
468.93068948
  0
LINE
  5
2D6
100
AcDbEntity
  8
BEZUGSACHSEN
100
AcDbLine
 62
7
  6
CONTINUOUS
 10
1008.5021473444
 20
547.6409100625
 11
972.335625103
 21
547.6409100625
  0
LINE
  5
2D7
100
AcDbEntity
  8
0
100
AcDbLine
 62
7
  6
CONTINUOUS
 10
1007.3158011399
 20
496.3592863474
 11
1009.8201373756
 21
493.8549501117
  0
LINE
  5
2D8
100
AcDbEntity
  8
0
100
AcDbLine
 62
7
  6
CONTINUOUS
 10
1014.0922405643
 20
489.582846923
 11
1016.8912060304
 21
486.7838814569
  0
LINE
  5
2D9
100
AcDbEntity
  8
0
100
AcDbLine
 62
7
  6
CONTINUOUS
 10
1033.3903636962
 20
470.2847237912
 11
1034.4215622093
 21
469.253525278
  0
LINE
  5
2DA
100
AcDbEntity
  8
0
100
AcDbLine
 62
7
  6
CONTINUOUS
 10
1036.2018653209
 20
468.6768080335
 11
1037.0857487974
 21
467.792924557
  0
LINE
  5
2DB
100
AcDbEntity
  8
0
100
AcDbLine
 62
7
  6
CONTINUOUS
 10
1017.7938954307
 20
487.6865708572
 11
1014.9949299646
 21
490.4855363233
  0
LINE
  5
2DC
100
AcDbEntity
  8
0
100
AcDbLine
 62
7
  6
CONTINUOUS
 10
1011.0174551634
 20
494.4630111246
 11
1008.2184905402
 21
497.2619757477
  0
LINE
  5
2DD
100
AcDbEntity
  8
0
100
AcDbLine
 62
7
  6
CONTINUOUS
 10
1037.8379899643
 20
468.5451657239
 11
1036.9541064878
 21
469.4290492004
  0
LINE
  5
2DE
100
AcDbEntity
  8
0
100
AcDbLine
 62
7
  6
CONTINUOUS
 10
1017.1012056534
 20
492.5918120121
 11
1019.9001711195
 21
489.792846546
  0
LINE
  5
2DF
100
AcDbEntity
  8
0
100
AcDbLine
 62
7
  6
CONTINUOUS
 10
1010.4752144624
 20
499.5186996699
 11
1013.2741790856
 21
496.7197350467
  0
LINE
  5
2E0
100
AcDbEntity
  8
0
100
AcDbLine
 62
7
  6
CONTINUOUS
 10
1037.2863454585
 20
472.7075686739
 11
1041.558451176
 21
468.4354629564
  0
LINE
  5
2E1
100
AcDbEntity
  8
0
100
AcDbLine
 62
7
  6
CONTINUOUS
 10
1042.3106923429
 20
469.1877041233
 11
1037.3020181856
 21
474.1963782806
  0
LINE
  5
2E2
100
AcDbEntity
  8
0
100
AcDbLine
 62
7
  6
CONTINUOUS
 10
1029.0524385098
 20
482.4459579564
 11
1027.8739283317
 21
483.6244681344
  0
LINE
  5
2E3
100
AcDbEntity
  8
0
100
AcDbLine
 62
7
  6
CONTINUOUS
 10
1024.6330211273
 20
486.8653753388
 11
1023.7491376509
 21
487.7492588153
  0
LINE
  5
2E4
100
AcDbEntity
  8
0
100
AcDbLine
 62
7
  6
CONTINUOUS
 10
1020.6555454832
 20
490.842850983
 11
1017.1200124202
 21
494.378384046
  0
LINE
  5
2E5
100
AcDbEntity
  8
0
100
AcDbLine
 62
7
  6
CONTINUOUS
 10
1013.8791060588
 20
497.6192904074
 11
1010.3435721528
 21
501.1548243133
  0
LINE
  5
2E6
100
AcDbEntity
  8
0
100
AcDbLine
 62
7
  6
CONTINUOUS
 10
1009.1650607104
 20
502.3333357558
 11
1008.2811772339
 21
503.2172192323
  0
LINE
  5
2E7
100
AcDbEntity
  8
0
100
AcDbLine
 62
7
  6
CONTINUOUS
 10
1004.1563878174
 20
507.3420086487
 11
1003.272504341
 21
508.2258921252
  0
LINE
  5
2E8
100
AcDbEntity
  8
0
100
AcDbLine
 62
7
  6
CONTINUOUS
 10
1023.6754801325
 20
501.9650519573
 11
1024.559363609
 21
501.0811684809
  0
LINE
  5
2E9
100
AcDbEntity
  8
0
100
AcDbLine
 62
7
  6
CONTINUOUS
 10
1028.2422112872
 20
497.3983208027
 11
1029.2734089574
 21
496.3671231325
  0
LINE
  5
2EA
100
AcDbEntity
  8
0
100
AcDbLine
 62
7
  6
CONTINUOUS
 10
1032.8089424419
 20
492.831589648
 11
1033.3981983738
 21
492.242333716
  0
LINE
  5
2EB
100
AcDbEntity
  8
0
100
AcDbLine
 62
7
  6
CONTINUOUS
 10
1036.9337322798
 20
488.7067998101
 11
1040.4692661857
 21
485.1712659042
  0
LINE
  5
2EC
100
AcDbEntity
  8
BEZUGSACHSEN
100
AcDbLine
 62
7
  6
CONTINUOUS
 10
970.778000568
 20
415.9141719645
 11
970.778000568
 21
354.9634444804
  0
LINE
  5
2ED
100
AcDbEntity
  8
BEZUGSACHSEN
100
AcDbLine
 62
7
  6
CONTINUOUS
 10
981.5021473444
 20
758.1015180483
 11
981.5021473444
 21
548.2468438923
  0
LINE
  5
2EE
100
AcDbEntity
  8
RUNDUNGEN
100
AcDbLine
 62
7
  6
CONTINUOUS
 10
981.5023056628
 20
548.422623467
 11
981.5021473444
 21
547.6409100625
  0
LWPOLYLINE
  5
2EF
100
AcDbEntity
  8
RUNDUNGEN
100
AcDbPolyline
 62
7
  6
CONTINUOUS
 90
40
 70
0
 10
986.3297271769
 20
579.0577247337
 10
986.1475722954
 20
578.4628287676
 10
985.9649186659
 20
577.8558530881
 10
985.7821749228
 20
577.2372408121
 10
985.5997252184
 20
576.6074022268
 10
985.4179335883
 20
575.9666879792
 10
985.2371536476
 20
575.3154702358
 10
985.0576808054
 20
574.6539298794
 10
984.8798162241
 20
573.9822859278
 10
984.7038284012
 20
573.3006700822
 10
984.5299893874
 20
572.6092169268
 10
984.3585572085
 20
571.9080456327
 10
984.1897895051
 20
571.1972654008
 10
984.0239364578
 20
570.4769750372
 10
983.8612435758
 20
569.7472665364
 10
983.7019562388
 20
569.0082250935
 10
983.5463119795
 20
568.2599343047
 10
983.3945505301
 20
567.5024611741
 10
983.2469183114
 20
566.7359569802
 10
983.1036036167
 20
565.9602334019
 10
982.9648277567
 20
565.1752729153
 10
982.8307522695
 20
564.3806977653
 10
982.7015737982
 20
563.5762196111
 10
982.5774880417
 20
562.7615339599
 10
982.4587123366
 20
561.9363366955
 10
982.3454704954
 20
561.1003268624
 10
982.2380024332
 20
560.2532007286
 10
982.1365617859
 20
559.3946600109
 10
982.0414139058
 20
558.5244034643
 10
981.9528434561
 20
557.6421403788
 10
981.8711442203
 20
556.7475765068
 10
981.7966329502
 20
555.8404309021
 10
981.729634497
 20
554.9204208493
 10
981.670497672
 20
553.9872751319
 10
981.6195825522
 20
553.0407224484
 10
981.5772682562
 20
552.0805049507
 10
981.5439558523
 20
551.1063628541
 10
981.5200546699
 20
550.1180546007
 10
981.5060035263
 20
549.1152160138
 10
981.5023054688
 20
548.4228332684
  0
LINE
  5
2F0
100
AcDbEntity
  8
RUNDUNGEN
100
AcDbLine
 62
7
  6
CONTINUOUS
 10
988.2002462599
 20
584.7922153497
 11
988.096178498
 21
584.4570787107
  0
LINE
  5
2F1
100
AcDbEntity
  8
RUNDUNGEN
100
AcDbLine
 62
7
  6
CONTINUOUS
 10
986.690768457
 20
580.2092557981
 11
986.3297271769
 21
579.0577247337
  0
LINE
  5
2F2
100
AcDbEntity
  8
RUNDUNGEN
100
AcDbLine
 62
7
  6
CONTINUOUS
 10
987.0439825099
 20
581.305203042
 11
986.690768457
 21
580.2092557981
  0
LINE
  5
2F3
100
AcDbEntity
  8
RUNDUNGEN
100
AcDbLine
 62
7
  6
CONTINUOUS
 10
987.3845336643
 20
582.3387435311
 11
987.0439825099
 21
581.305203042
  0
LINE
  5
2F4
100
AcDbEntity
  8
RUNDUNGEN
100
AcDbLine
 62
7
  6
CONTINUOUS
 10
988.096164929
 20
584.4570686032
 11
987.3845336643
 21
582.3387435311
  0
LINE
  5
2F5
100
AcDbEntity
  8
BEZUGSACHSEN
100
AcDbLine
 62
7
  6
CONTINUOUS
 10
958.1934894792
 20
541.7830456862
 11
872.4901579831
 21
456.0797141901
  0
LINE
  5
2F6
100
AcDbEntity
  8
0
100
AcDbLine
 62
7
  6
CONTINUOUS
 10
1041.3719556914
 20
486.0739554098
 11
1038.7203052619
 21
488.7256058393
  0
LINE
  5
2F7
100
AcDbEntity
  8
0
100
AcDbLine
 62
7
  6
CONTINUOUS
 10
1034.3008878795
 20
493.1450232217
 11
1033.7116319475
 21
493.7342791536
  0
LINE
  5
2F8
100
AcDbEntity
  8
0
100
AcDbLine
 62
7
  6
CONTINUOUS
 10
1027.7187769315
 20
504.2405818033
 11
1030.2231133779
 21
501.7362453569
  0
LINE
  5
2F9
100
AcDbEntity
  8
0
100
AcDbLine
 62
7
  6
CONTINUOUS
 10
1031.4204305335
 20
502.3443070019
 11
1028.6214663318
 21
505.1432712036
  0
LINE
  5
2FA
100
AcDbEntity
  8
0
100
AcDbLine
 62
7
  6
CONTINUOUS
 10
1043.9859941678
 20
493.9912947452
 11
1046.6376445973
 21
491.3396443157
  0
LINE
  5
2FB
100
AcDbEntity
  8
0
100
AcDbLine
 62
7
  6
CONTINUOUS
 10
1030.878190254
 20
507.3999951258
 11
1033.6771544557
 21
504.6010309241
  0
LINE
  5
2FC
100
AcDbEntity
  8
0
100
AcDbLine
 62
7
  6
CONTINUOUS
 10
1047.5403339976
 20
492.242333716
 11
1044.0048000916
 21
495.777867622
  0
LINE
  5
2FD
100
AcDbEntity
  8
0
100
AcDbLine
 62
7
  6
CONTINUOUS
 10
1042.8262890706
 20
496.956378643
 11
1041.9424055942
 21
497.8402621194
  0
LINE
  5
2FE
100
AcDbEntity
  8
0
100
AcDbLine
 62
7
  6
CONTINUOUS
 10
1038.4068716882
 20
501.3757960254
 11
1037.5229877903
 21
502.2596799233
  0
LINE
  5
2FF
100
AcDbEntity
  8
0
100
AcDbLine
 62
7
  6
CONTINUOUS
 10
1034.2820818503
 20
505.5005858633
 11
1030.7465479444
 21
509.0361197692
  0
LINE
  5
300
100
AcDbEntity
  8
0
100
AcDbLine
 62
7
  6
CONTINUOUS
 10
1038.6309766102
 20
459.0261807253
 11
1039.3644118401
 21
457.9918490023
  0
LINE
  5
301
100
AcDbEntity
  8
0
100
AcDbLine
 62
7
  6
CONTINUOUS
 10
1047.1689148951
 20
464.0285851043
 11
1046.435479652
 21
465.0629168142
  0
LINE
  5
302
100
AcDbEntity
  8
0
100
AcDbLine
 62
7
  6
CONTINUOUS
 10
1031.8545388716
 20
465.8026184639
 11
1032.4406590649
 21
464.9156017775
  0
LINE
  5
303
100
AcDbEntity
  8
0
100
AcDbLine
 62
7
  6
CONTINUOUS
 10
1014.4652271081
 20
496.7322728912
 11
1013.8791060588
 21
497.6192904074
  0
LINE
  5
304
100
AcDbEntity
  8
0
100
AcDbLine
 62
7
  6
CONTINUOUS
 10
1040.1166531124
 20
458.7440902746
 11
1039.5305329059
 21
459.6311069478
  0
LINE
  5
305
100
AcDbEntity
  8
0
100
AcDbLine
 62
7
  6
CONTINUOUS
 10
1021.2416673755
 20
489.9558326239
 11
1020.6555454832
 21
490.842850983
  0
LINE
  5
306
100
AcDbEntity
  8
0
100
AcDbLine
 62
7
  6
CONTINUOUS
 10
1038.4241101707
 20
467.6581490507
 11
1037.8379899643
 21
468.5451657239
  0
LINE
  5
307
100
AcDbEntity
  8
0
100
AcDbLine
 62
7
  6
CONTINUOUS
 10
1045.6832384851
 20
464.3106756473
 11
1046.2693620633
 21
463.4236556023
  0
LINE
  5
308
100
AcDbEntity
  8
0
100
AcDbLine
 62
7
  6
CONTINUOUS
 10
1033.1929003372
 20
465.6678430498
 11
1032.7540917957
 21
466.4075480581
  0
LINE
  5
309
100
AcDbEntity
  8
0
100
AcDbLine
 62
7
  6
CONTINUOUS
 10
1037.0857487974
 20
467.792924557
 11
1037.5245573389
 21
467.0532195487
  0
LINE
  5
30A
100
AcDbEntity
  8
0
100
AcDbLine
 62
7
  6
CONTINUOUS
 10
1016.8912060304
 20
486.7838814569
 11
1017.1826995353
 21
486.1914914853
  0
LINE
  5
30B
100
AcDbEntity
  8
0
100
AcDbLine
 62
7
  6
CONTINUOUS
 10
1013.2741790856
 20
496.7197350467
 11
1013.5656725904
 21
496.1273450751
  0
LINE
  5
30C
100
AcDbEntity
  8
0
100
AcDbLine
 62
7
  6
CONTINUOUS
 10
1019.9001711195
 20
489.792846546
 11
1020.1916646244
 21
489.2004565744
  0
LINE
  5
30D
100
AcDbEntity
  8
0
100
AcDbLine
 62
7
  6
CONTINUOUS
 10
987.5021473444
 20
596.8209100625
 11
987.5021473444
 21
607.8209100625
  0
LINE
  5
30E
100
AcDbEntity
  8
0
100
AcDbLine
 62
7
  6
CONTINUOUS
 10
987.5021473444
 20
613.8209100625
 11
987.5021473444
 21
624.8209100625
  0
LINE
  5
30F
100
AcDbEntity
  8
BEZUGSACHSEN
100
AcDbLine
 62
7
  6
CONTINUOUS
 10
988.5021473444
 20
797.5764855084
 11
988.5021473444
 21
796.8152808335
  0
LINE
  5
310
100
AcDbEntity
  8
RUNDUNGEN
100
AcDbLine
 62
7
  6
CONTINUOUS
 10
988.5021473444
 20
583.8424957233
 11
988.5021473444
 21
796.8152808335
  0
LWPOLYLINE
  5
311
100
AcDbEntity
  8
RUNDUNGEN
100
AcDbPolyline
 62
7
  6
CONTINUOUS
 90
6
 70
0
 10
988.5021445638
 20
586.9645815166
 10
988.4935958878
 20
586.5991901863
 10
988.4585334422
 20
586.1328116574
 10
988.3973913002
 20
585.6755782914
 10
988.3110417576
 20
585.2283971802
 10
988.2002462599
 20
584.7922153497
  0
LINE
  5
312
100
AcDbEntity
  8
0
100
AcDbLine
 62
7
  6
CONTINUOUS
 10
1032.2228214057
 20
493.7186071773
 11
1032.8089424419
 21
492.831589648
  0
LINE
  5
313
100
AcDbEntity
  8
0
100
AcDbLine
 62
7
  6
CONTINUOUS
 10
1034.8682033212
 20
504.6135679257
 11
1034.2820818503
 21
505.5005858633
  0
LINE
  5
314
100
AcDbEntity
  8
0
100
AcDbLine
 62
7
  6
CONTINUOUS
 10
1048.1264558899
 20
491.355315357
 11
1047.5403339976
 21
492.242333716
  0
LINE
  5
315
100
AcDbEntity
  8
0
100
AcDbLine
 62
7
  6
CONTINUOUS
 10
1033.7116319475
 20
493.7342791536
 11
1033.2728250919
 21
494.4739824761
  0
LINE
  5
316
100
AcDbEntity
  8
0
100
AcDbLine
 62
7
  6
CONTINUOUS
 10
1046.6376445973
 20
491.3396443157
 11
1047.0764514529
 21
490.5999409933
  0
LINE
  5
317
100
AcDbEntity
  8
0
100
AcDbLine
 62
7
  6
CONTINUOUS
 10
1018.3706126753
 20
485.9062677456
 11
1018.2264342071
 21
486.3513426806
  0
LINE
  5
318
100
AcDbEntity
  8
0
100
AcDbLine
 62
7
  6
CONTINUOUS
 10
1013.5656725904
 20
496.1273450751
 11
1013.5594036682
 21
495.5318210638
  0
LINE
  5
319
100
AcDbEntity
  8
0
100
AcDbLine
 62
7
  6
CONTINUOUS
 10
1028.5021473444
 20
593.0409100625
 11
1029.5021473444
 21
593.0409100625
  0
LINE
  5
31A
100
AcDbEntity
  8
0
100
AcDbLine
 62
7
  6
CONTINUOUS
 10
988.5021473444
 20
596.8209100625
 11
987.5021473444
 21
596.8209100625
  0
LINE
  5
31B
100
AcDbEntity
  8
0
100
AcDbLine
 62
7
  6
CONTINUOUS
 10
1028.5021473444
 20
600.5409100625
 11
1029.5021473444
 21
600.5409100625
  0
LINE
  5
31C
100
AcDbEntity
  8
0
100
AcDbLine
 62
7
  6
CONTINUOUS
 10
1028.5021473444
 20
602.1034103605
 11
1029.5021473444
 21
602.1034103605
  0
LINE
  5
31D
100
AcDbEntity
  8
0
100
AcDbLine
 62
7
  6
CONTINUOUS
 10
1028.5021473444
 20
603.3534100625
 11
1029.5021473444
 21
603.3534100625
  0
LINE
  5
31E
100
AcDbEntity
  8
0
100
AcDbLine
 62
7
  6
CONTINUOUS
 10
1033.6771544557
 20
504.6010309241
 11
1033.9686479605
 21
504.0086409525
  0
LINE
  5
31F
100
AcDbEntity
  8
0
100
AcDbLine
 62
7
  6
CONTINUOUS
 10
1031.93446198
 20
494.6087596155
 11
1032.2228214057
 21
493.7186071773
  0
LINE
  5
320
100
AcDbEntity
  8
0
100
AcDbLine
 62
7
  6
CONTINUOUS
 10
1031.5693117997
 20
466.9905350151
 11
1031.8545388716
 21
465.8026184639
  0
LINE
  5
321
100
AcDbEntity
  8
0
100
AcDbLine
 62
7
  6
CONTINUOUS
 10
1038.34575291
 20
460.2140939048
 11
1038.6309766102
 21
459.0261807253
  0
LINE
  5
322
100
AcDbEntity
  8
0
100
AcDbLine
 62
7
  6
CONTINUOUS
 10
1038.7093372822
 20
466.470232539
 11
1038.4241101707
 21
467.6581490507
  0
LINE
  5
323
100
AcDbEntity
  8
0
100
AcDbLine
 62
7
  6
CONTINUOUS
 10
1032.7540917957
 20
466.4075480581
 11
1032.6130465242
 21
467.1503862631
  0
LINE
  5
324
100
AcDbEntity
  8
0
100
AcDbLine
 62
7
  6
CONTINUOUS
 10
1014.60313834
 20
495.6916722591
 11
1014.4652271081
 21
496.7322728912
  0
LINE
  5
325
100
AcDbEntity
  8
0
100
AcDbLine
 62
7
  6
CONTINUOUS
 10
1021.3795777644
 20
488.9152328347
 11
1021.2416673755
 21
489.9558326239
  0
LINE
  5
326
100
AcDbEntity
  8
BEZUGSACHSEN
100
AcDbLine
 62
7
  6
CONTINUOUS
 10
1028.5021473444
 20
583.8424957233
 11
1028.5021473444
 21
797.5764855084
  0
LINE
  5
327
100
AcDbEntity
  8
0
100
AcDbLine
 62
7
  6
CONTINUOUS
 10
1029.5021473444
 20
633.6659088704
 11
1029.5021473444
 21
621.1659100625
  0
LINE
  5
328
100
AcDbEntity
  8
0
100
AcDbLine
 62
7
  6
CONTINUOUS
 10
1029.5021473444
 20
618.6659106585
 11
1029.5021473444
 21
607.4159097644
  0
LINE
  5
329
100
AcDbEntity
  8
0
100
AcDbLine
 62
7
  6
CONTINUOUS
 10
1029.5021473444
 20
604.9159103605
 11
1029.5021473444
 21
593.0409100625
  0
LINE
  5
32A
100
AcDbEntity
  8
0
100
AcDbLine
 62
7
  6
CONTINUOUS
 10
1017.1826995353
 20
486.1914914853
 11
1017.1764297701
 21
485.595968317
  0
LINE
  5
32B
100
AcDbEntity
  8
0
100
AcDbLine
 62
7
  6
CONTINUOUS
 10
1020.1916646244
 20
489.2004565744
 11
1020.1853948592
 21
488.6049334061
  0
LINE
  5
32C
100
AcDbEntity
  8
0
100
AcDbLine
 62
7
  6
CONTINUOUS
 10
1031.9469998772
 20
495.7998076908
 11
1031.93446198
 21
494.6087596155
  0
LINE
  5
32D
100
AcDbEntity
  8
0
100
AcDbLine
 62
7
  6
CONTINUOUS
 10
1014.4432871447
 20
494.6479375874
 11
1014.60313834
 21
495.6916722591
  0
LINE
  5
32E
100
AcDbEntity
  8
0
100
AcDbLine
 62
7
  6
CONTINUOUS
 10
1018.21076148
 20
484.8625330739
 11
1018.3706126753
 21
485.9062677456
  0
LINE
  5
32F
100
AcDbEntity
  8
0
100
AcDbLine
 62
7
  6
CONTINUOUS
 10
1021.2197265691
 20
487.871498163
 11
1021.3795777644
 21
488.9152328347
  0
LINE
  5
330
100
AcDbEntity
  8
0
100
AcDbLine
 62
7
  6
CONTINUOUS
 10
1000.0504042194
 20
499.1112356343
 11
1004.1563878174
 21
507.3420086487
  0
LINE
  5
331
100
AcDbEntity
  8
0
100
AcDbLine
 62
7
  6
CONTINUOUS
 10
1003.272504341
 20
508.2258921252
 11
998.5584592033
 21
498.7978016391
  0
LINE
  5
332
100
AcDbEntity
  8
0
100
AcDbLine
 62
7
  6
CONTINUOUS
 10
1028.5021473444
 20
604.2909100625
 11
1029.5021473444
 21
604.2909100625
  0
LINE
  5
333
100
AcDbEntity
  8
0
100
AcDbLine
 62
7
  6
CONTINUOUS
 10
1028.5021473444
 20
604.6034097644
 11
1029.5021473444
 21
604.6034097644
  0
LINE
  5
334
100
AcDbEntity
  8
0
100
AcDbLine
 62
7
  6
CONTINUOUS
 10
1028.5021473444
 20
604.9159103605
 11
1029.5021473444
 21
604.9159103605
  0
LINE
  5
335
100
AcDbEntity
  8
0
100
AcDbLine
 62
7
  6
CONTINUOUS
 10
1028.5021473444
 20
607.4159097644
 11
1029.5021473444
 21
607.4159097644
  0
LINE
  5
336
100
AcDbEntity
  8
0
100
AcDbLine
 62
7
  6
CONTINUOUS
 10
988.5021473444
 20
607.8209100625
 11
987.5021473444
 21
607.8209100625
  0
LINE
  5
337
100
AcDbEntity
  8
0
100
AcDbLine
 62
7
  6
CONTINUOUS
 10
1028.5021473444
 20
609.2909106585
 11
1029.5021473444
 21
609.2909106585
  0
LINE
  5
338
100
AcDbEntity
  8
0
100
AcDbLine
 62
7
  6
CONTINUOUS
 10
1028.5021473444
 20
609.6034094664
 11
1029.5021473444
 21
609.6034094664
  0
LINE
  5
339
100
AcDbEntity
  8
0
100
AcDbLine
 62
7
  6
CONTINUOUS
 10
1028.5021473444
 20
610.2284106585
 11
1029.5021473444
 21
610.2284106585
  0
LINE
  5
33A
100
AcDbEntity
  8
0
100
AcDbLine
 62
7
  6
CONTINUOUS
 10
1028.5021473444
 20
611.1659106585
 11
1029.5021473444
 21
611.1659106585
  0
LINE
  5
33B
100
AcDbEntity
  8
0
100
AcDbLine
 62
7
  6
CONTINUOUS
 10
1028.5021473444
 20
612.4159094664
 11
1029.5021473444
 21
612.4159094664
  0
LINE
  5
33C
100
AcDbEntity
  8
0
100
AcDbLine
 62
7
  6
CONTINUOUS
 10
1028.5021473444
 20
613.6659100625
 11
1029.5021473444
 21
613.6659100625
  0
LINE
  5
33D
100
AcDbEntity
  8
0
100
AcDbLine
 62
7
  6
CONTINUOUS
 10
988.5021473444
 20
613.8209100625
 11
987.5021473444
 21
613.8209100625
  0
LINE
  5
33E
100
AcDbEntity
  8
0
100
AcDbLine
 62
7
  6
CONTINUOUS
 10
1028.5021473444
 20
614.9159106585
 11
1029.5021473444
 21
614.9159106585
  0
LINE
  5
33F
100
AcDbEntity
  8
0
100
AcDbLine
 62
7
  6
CONTINUOUS
 10
1028.5021473444
 20
615.8534106585
 11
1029.5021473444
 21
615.8534106585
  0
LINE
  5
340
100
AcDbEntity
  8
0
100
AcDbLine
 62
7
  6
CONTINUOUS
 10
1028.5021473444
 20
616.4784100625
 11
1029.5021473444
 21
616.4784100625
  0
LINE
  5
341
100
AcDbEntity
  8
0
100
AcDbLine
 62
7
  6
CONTINUOUS
 10
1028.5021473444
 20
616.7909106585
 11
1029.5021473444
 21
616.7909106585
  0
LINE
  5
342
100
AcDbEntity
  8
0
100
AcDbLine
 62
7
  6
CONTINUOUS
 10
1028.5021473444
 20
618.6659106585
 11
1029.5021473444
 21
618.6659106585
  0
LINE
  5
343
100
AcDbEntity
  8
BEZUGSACHSEN
100
AcDbLine
 62
7
  6
CONTINUOUS
 10
1029.6203622328
 20
582.33693549
 11
1028.9081296913
 21
584.4570688065
  0
LINE
  5
344
100
AcDbEntity
  8
BEZUGSACHSEN
100
AcDbLine
 62
7
  6
CONTINUOUS
 10
1029.9612545817
 20
581.302314048
 11
1029.6203622328
 21
582.33693549
  0
LINE
  5
345
100
AcDbEntity
  8
0
100
AcDbLine
 62
7
  6
CONTINUOUS
 10
1048.4148145122
 20
490.4651638012
 11
1048.1264558899
 21
491.355315357
  0
LINE
  5
346
100
AcDbEntity
  8
BEZUGSACHSEN
100
AcDbLine
 62
7
  6
CONTINUOUS
 10
1030.3147973306
 20
580.2052607181
 11
1029.9612545817
 21
581.302314048
  0
LWPOLYLINE
  5
347
100
AcDbEntity
  8
BEZUGSACHSEN
100
AcDbPolyline
 62
7
  6
CONTINUOUS
 90
7
 70
0
 10
1028.9081161907
 20
584.4570787107
 10
1028.8040484288
 20
584.7922153497
 10
1028.6932529311
 20
585.2283971802
 10
1028.6069033885
 20
585.6755782914
 10
1028.5457612465
 20
586.1328116574
 10
1028.5106988009
 20
586.5991901863
 10
1028.5021501249
 20
586.9645815166
  0
LINE
  5
348
100
AcDbEntity
  8
0
100
AcDbLine
 62
7
  6
CONTINUOUS
 10
1047.4541420065
 20
462.8406685926
 11
1047.1689148951
 21
464.0285851043
  0
LINE
  5
349
100
AcDbEntity
  8
0
100
AcDbLine
 62
7
  6
CONTINUOUS
 10
1037.5245573389
 20
467.0532195487
 11
1037.6656026104
 21
466.3103813437
  0
LINE
  5
34A
100
AcDbEntity
  8
0
100
AcDbLine
 62
7
  6
CONTINUOUS
 10
1039.5305329059
 20
459.6311069478
 11
1039.3894876345
 21
460.3739451528
  0
LINE
  5
34B
100
AcDbEntity
  8
0
100
AcDbLine
 62
7
  6
CONTINUOUS
 10
1033.2728250919
 20
494.4739824761
 11
1033.1317799258
 21
495.2168207864
  0
LINE
  5
34C
100
AcDbEntity
  8
0
100
AcDbLine
 62
7
  6
CONTINUOUS
 10
1046.2693620633
 20
463.4236556023
 11
1046.4104073347
 21
462.6808173973
  0
LINE
  5
34D
100
AcDbEntity
  8
0
100
AcDbLine
 62
7
  6
CONTINUOUS
 10
1047.0764514529
 20
490.5999409933
 11
1047.2174967244
 21
489.8571027883
  0
LINE
  5
34E
100
AcDbEntity
  8
0
100
AcDbLine
 62
7
  6
CONTINUOUS
 10
1035.0061141315
 20
503.572967715
 11
1034.8682033212
 21
504.6135679257
  0
LWPOLYLINE
  5
34F
100
AcDbEntity
  8
BEZUGSACHSEN
100
AcDbPolyline
 62
7
  6
CONTINUOUS
 90
41
 70
0
 10
1035.5019891555
 20
548.4228691084
 10
1035.4982944287
 20
549.1148482346
 10
1035.484253618
 20
550.1173438704
 10
1035.4603688671
 20
551.1053351528
 10
1035.4270782019
 20
552.0791829881
 10
1035.3847902575
 20
553.0391267558
 10
1035.3339055014
 20
553.9854240227
 10
1035.2748025954
 20
554.9183304352
 10
1035.2078412182
 20
555.8381150606
 10
1035.1333699187
 20
556.7450468871
 10
1035.0517133599
 20
557.6394063847
 10
1034.9631881953
 20
558.5214722734
 10
1034.8680882245
 20
559.3915365441
 10
1034.7666981686
 20
560.2498876675
 10
1034.6592835791
 20
561.0968246504
 10
1034.546098295
 20
561.9326435484
 10
1034.4273825953
 20
562.7576458729
 10
1034.3033606432
 20
563.5721303665
 10
1034.1742502613
 20
564.3763989515
 10
1034.0402477087
 20
565.1707537536
 10
1033.9015500735
 20
565.9554814979
 10
1033.758320058
 20
566.7309554534
 10
1033.6107779373
 20
567.4971995306
 10
1033.4591119025
 20
568.2544037769
 10
1033.303566378
 20
569.0024264615
 10
1033.1443793657
 20
569.7412081423
 10
1032.981786315
 20
570.4706728571
 10
1032.816030423
 20
571.1907430298
 10
1032.6473546764
 20
571.901334199
 10
1032.4760066944
 20
572.6023551175
 10
1032.3022412333
 20
573.2937040283
 10
1032.126313357
 20
573.9752692101
 10
1031.9484920493
 20
574.6469234048
 10
1031.769041994
 20
575.3085437755
 10
1031.5882625292
 20
575.9599136008
 10
1031.4064448725
 20
576.6008611603
 10
1031.2239450848
 20
577.2310016758
 10
1031.0411278878
 20
577.8499781136
 10
1030.8583795803
 20
578.457370041
 10
1030.6761110326
 20
579.0527251316
 10
1030.3147973306
 20
580.2052607181
  0
LINE
  5
350
100
AcDbEntity
  8
BEZUGSACHSEN
100
AcDbLine
 62
7
  6
CONTINUOUS
 10
1035.5021473444
 20
542.9308738363
 11
1035.5021473444
 21
758.1015180483
  0
LINE
  5
351
100
AcDbEntity
  8
0
100
AcDbLine
 62
7
  6
CONTINUOUS
 10
1033.9686479605
 20
504.0086409525
 11
1033.9623794598
 21
503.4131165197
  0
LINE
  5
352
100
AcDbEntity
  8
0
100
AcDbLine
 62
7
  6
CONTINUOUS
 10
1038.3551559246
 20
461.1073803959
 11
1038.34575291
 21
460.2140939048
  0
LINE
  5
353
100
AcDbEntity
  8
0
100
AcDbLine
 62
7
  6
CONTINUOUS
 10
1047.4447390446
 20
461.9473821542
 11
1047.4541420065
 21
462.8406685926
  0
LINE
  5
354
100
AcDbEntity
  8
0
100
AcDbLine
 62
7
  6
CONTINUOUS
 10
1048.4022766677
 20
489.2741157786
 11
1048.4148145122
 21
490.4651638012
  0
LINE
  5
355
100
AcDbEntity
  8
0
100
AcDbLine
 62
7
  6
CONTINUOUS
 10
1034.8462629362
 20
502.5292330433
 11
1035.0061141315
 21
503.572967715
  0
LINE
  5
356
100
AcDbEntity
  8
0
100
AcDbLine
 62
7
  6
CONTINUOUS
 10
1031.7291630477
 20
468.0342697396
 11
1031.5693117997
 21
466.9905350151
  0
LINE
  5
357
100
AcDbEntity
  8
0
100
AcDbLine
 62
7
  6
CONTINUOUS
 10
1033.1317799258
 20
495.2168207864
 11
1033.2884962385
 21
495.962793874
  0
LINE
  5
358
100
AcDbEntity
  8
0
100
AcDbLine
 62
7
  6
CONTINUOUS
 10
1022.0534616179
 20
482.223418803
 11
1020.8028605198
 21
476.5534003226
  0
LINE
  5
359
100
AcDbEntity
  8
0
100
AcDbLine
 62
7
  6
CONTINUOUS
 10
1021.9813706979
 20
475.3748901445
 11
1023.5422712246
 21
482.2390915301
  0
LINE
  5
35A
100
AcDbEntity
  8
0
100
AcDbLine
 62
7
  6
CONTINUOUS
 10
1008.8704327444
 20
488.485828098
 11
1011.0049173189
 21
493.271963102
  0
LINE
  5
35B
100
AcDbEntity
  8
0
100
AcDbLine
 62
7
  6
CONTINUOUS
 10
1009.8201373756
 20
493.8549501117
 11
1007.8392359171
 21
489.5170249253
  0
LINE
  5
35C
100
AcDbEntity
  8
0
100
AcDbLine
 62
7
  6
CONTINUOUS
 10
1013.5594036682
 20
495.5318210638
 11
1013.2553731618
 21
494.93316217
  0
LINE
  5
35D
100
AcDbEntity
  8
0
100
AcDbLine
 62
7
  6
CONTINUOUS
 10
1014.1392566383
 20
494.0492786935
 11
1014.4432871447
 21
494.6479375874
  0
LINE
  5
35E
100
AcDbEntity
  8
0
100
AcDbLine
 62
7
  6
CONTINUOUS
 10
1017.1764297701
 20
485.595968317
 11
1016.8723998959
 21
484.9973083694
  0
LINE
  5
35F
100
AcDbEntity
  8
0
100
AcDbLine
 62
7
  6
CONTINUOUS
 10
1017.9067316058
 20
484.2638731263
 11
1018.21076148
 21
484.8625330739
  0
LINE
  5
360
100
AcDbEntity
  8
0
100
AcDbLine
 62
7
  6
CONTINUOUS
 10
1020.1853948592
 20
488.6049334061
 11
1019.8813647743
 21
488.0062732478
  0
LINE
  5
361
100
AcDbEntity
  8
0
100
AcDbLine
 62
7
  6
CONTINUOUS
 10
1010.3435721528
 20
501.1548243133
 11
1003.272504341
 21
494.0837565014
  0
LINE
  5
362
100
AcDbEntity
  8
0
100
AcDbLine
 62
7
  6
CONTINUOUS
 10
1004.1563878174
 20
493.199873025
 11
1007.3158011399
 21
496.3592863474
  0
LINE
  5
363
100
AcDbEntity
  8
0
100
AcDbLine
 62
7
  6
CONTINUOUS
 10
1008.2184905402
 20
497.2619757477
 11
1010.4752144624
 21
499.5186996699
  0
LINE
  5
364
100
AcDbEntity
  8
0
100
AcDbLine
 62
7
  6
CONTINUOUS
 10
999.736970435
 20
497.6192904074
 11
1009.1650607104
 21
502.3333357558
  0
LINE
  5
365
100
AcDbEntity
  8
0
100
AcDbLine
 62
7
  6
CONTINUOUS
 10
1008.2811772339
 20
503.2172192323
 11
1000.0504042194
 21
499.1112356343
  0
LINE
  5
366
100
AcDbEntity
  8
0
100
AcDbLine
 62
7
  6
CONTINUOUS
 10
1028.5021473444
 20
621.1659100625
 11
1029.5021473444
 21
621.1659100625
  0
LINE
  5
367
100
AcDbEntity
  8
0
100
AcDbLine
 62
7
  6
CONTINUOUS
 10
988.5021473444
 20
624.8209100625
 11
987.5021473444
 21
624.8209100625
  0
LINE
  5
368
100
AcDbEntity
  8
0
100
AcDbLine
 62
7
  6
CONTINUOUS
 10
1028.5021473444
 20
628.6659100625
 11
1029.5021473444
 21
628.6659100625
  0
LINE
  5
369
100
AcDbEntity
  8
0
100
AcDbLine
 62
7
  6
CONTINUOUS
 10
1028.5021473444
 20
630.2284112546
 11
1029.5021473444
 21
630.2284112546
  0
LINE
  5
36A
100
AcDbEntity
  8
0
100
AcDbLine
 62
7
  6
CONTINUOUS
 10
1028.5021473444
 20
631.4784100625
 11
1029.5021473444
 21
631.4784100625
  0
LINE
  5
36B
100
AcDbEntity
  8
0
100
AcDbLine
 62
7
  6
CONTINUOUS
 10
1028.5021473444
 20
632.7284088704
 11
1029.5021473444
 21
632.7284088704
  0
LINE
  5
36C
100
AcDbEntity
  8
0
100
AcDbLine
 62
7
  6
CONTINUOUS
 10
1028.5021473444
 20
633.3534100625
 11
1029.5021473444
 21
633.3534100625
  0
LINE
  5
36D
100
AcDbEntity
  8
0
100
AcDbLine
 62
7
  6
CONTINUOUS
 10
1028.5021473444
 20
633.6659088704
 11
1029.5021473444
 21
633.6659088704
  0
LINE
  5
36E
100
AcDbEntity
  8
0
100
AcDbLine
 62
7
  6
CONTINUOUS
 10
1038.5494860869
 20
465.4264978673
 11
1038.7093372822
 21
466.470232539
  0
LINE
  5
36F
100
AcDbEntity
  8
0
100
AcDbLine
 62
7
  6
CONTINUOUS
 10
1037.6656026104
 20
466.3103813437
 11
1037.5088846118
 21
465.564409942
  0
LINE
  5
370
100
AcDbEntity
  8
0
100
AcDbLine
 62
7
  6
CONTINUOUS
 10
1039.3894876345
 20
460.3739451528
 11
1039.7029203652
 21
461.8658914333
  0
LINE
  5
371
100
AcDbEntity
  8
0
100
AcDbLine
 62
7
  6
CONTINUOUS
 10
1047.2174967244
 20
489.8571027883
 11
1047.0607799903
 21
489.1111292793
  0
LINE
  5
372
100
AcDbEntity
  8
0
100
AcDbLine
 62
7
  6
CONTINUOUS
 10
1046.4104073347
 20
462.6808173973
 11
1046.0969709161
 21
461.1888741724
  0
LINE
  5
373
100
AcDbEntity
  8
0
100
AcDbLine
 62
7
  6
CONTINUOUS
 10
1032.2541649501
 20
496.6962286957
 11
1031.9469998772
 21
495.7998076908
  0
LINE
  5
374
100
AcDbEntity
  8
0
100
AcDbLine
 62
7
  6
CONTINUOUS
 10
1032.036329385
 20
468.93068948
 11
1031.7291630477
 21
468.0342697396
  0
LINE
  5
375
100
AcDbEntity
  8
0
100
AcDbLine
 62
7
  6
CONTINUOUS
 10
1032.6130465242
 20
467.1503862631
 11
1032.9202128615
 21
468.0468060035
  0
LINE
  5
376
100
AcDbEntity
  8
0
100
AcDbLine
 62
7
  6
CONTINUOUS
 10
1029.2734089574
 20
496.3671231325
 11
1031.4078935319
 21
501.1532581364
  0
LINE
  5
377
100
AcDbEntity
  8
0
100
AcDbLine
 62
7
  6
CONTINUOUS
 10
1030.2231133779
 20
501.7362453569
 11
1028.2422112872
 21
497.3983208027
  0
LINE
  5
378
100
AcDbEntity
  8
0
100
AcDbLine
 62
7
  6
CONTINUOUS
 10
1020.9156969056
 20
487.2728384261
 11
1021.2197265691
 21
487.871498163
  0
LINE
  5
379
100
AcDbEntity
  8
0
100
AcDbLine
 62
7
  6
CONTINUOUS
 10
1033.9623794598
 20
503.4131165197
 11
1033.6583485319
 21
502.8144580473
  0
LINE
  5
37A
100
AcDbEntity
  8
0
100
AcDbLine
 62
7
  6
CONTINUOUS
 10
1034.5422320084
 20
501.9305745709
 11
1034.8462629362
 21
502.5292330433
  0
LINE
  5
37B
100
AcDbEntity
  8
0
100
AcDbLine
 62
7
  6
CONTINUOUS
 10
1033.2884962385
 20
495.962793874
 11
1033.7429758212
 21
496.7119001583
  0
LINE
  5
37C
100
AcDbEntity
  8
0
100
AcDbLine
 62
7
  6
CONTINUOUS
 10
1032.8590919232
 20
497.5957840563
 11
1032.2541649501
 21
496.6962286957
  0
LINE
  5
37D
100
AcDbEntity
  8
0
100
AcDbLine
 62
7
  6
CONTINUOUS
 10
1013.2553731618
 20
494.93316217
 11
1012.8040280402
 21
494.4818170484
  0
LINE
  5
37E
100
AcDbEntity
  8
0
100
AcDbLine
 62
7
  6
CONTINUOUS
 10
1013.5374632833
 20
493.4474853385
 11
1014.1392566383
 21
494.0492786935
  0
LINE
  5
37F
100
AcDbEntity
  8
0
100
AcDbLine
 62
7
  6
CONTINUOUS
 10
1030.7465479444
 20
509.0361197692
 11
1023.6754801325
 21
501.9650519573
  0
LINE
  5
380
100
AcDbEntity
  8
0
100
AcDbLine
 62
7
  6
CONTINUOUS
 10
1017.1200124202
 20
494.378384046
 11
1010.0489446083
 21
487.3073162341
  0
LINE
  5
381
100
AcDbEntity
  8
0
100
AcDbLine
 62
7
  6
CONTINUOUS
 10
1024.559363609
 20
501.0811684809
 11
1027.7187769315
 21
504.2405818033
  0
LINE
  5
382
100
AcDbEntity
  8
0
100
AcDbLine
 62
7
  6
CONTINUOUS
 10
1028.6214663318
 20
505.1432712036
 11
1030.878190254
 21
507.3999951258
  0
LINE
  5
383
100
AcDbEntity
  8
0
100
AcDbLine
 62
7
  6
CONTINUOUS
 10
1011.8355167475
 20
487.3261231062
 11
1014.0922405643
 21
489.582846923
  0
LINE
  5
384
100
AcDbEntity
  8
0
100
AcDbLine
 62
7
  6
CONTINUOUS
 10
1014.9949299646
 20
490.4855363233
 11
1017.1012056534
 21
492.5918120121
  0
LINE
  5
385
100
AcDbEntity
  8
0
100
AcDbLine
 62
7
  6
CONTINUOUS
 10
1033.6583485319
 20
502.8144580473
 11
1033.2070034103
 21
502.3631129257
  0
LINE
  5
386
100
AcDbEntity
  8
0
100
AcDbLine
 62
7
  6
CONTINUOUS
 10
1019.8813647743
 20
488.0062732478
 11
1019.5804683075
 21
487.705376781
  0
LINE
  5
387
100
AcDbEntity
  8
0
100
AcDbLine
 62
7
  6
CONTINUOUS
 10
1016.8723998959
 20
484.9973083694
 11
1016.4210551958
 21
484.5459636693
  0
LINE
  5
388
100
AcDbEntity
  8
0
100
AcDbLine
 62
7
  6
CONTINUOUS
 10
1033.9404386534
 20
501.3287812159
 11
1034.5422320084
 21
501.9305745709
  0
LINE
  5
389
100
AcDbEntity
  8
0
100
AcDbLine
 62
7
  6
CONTINUOUS
 10
1017.1544904389
 20
483.5116319594
 11
1017.9067316058
 21
484.2638731263
  0
LINE
  5
38A
100
AcDbEntity
  8
0
100
AcDbLine
 62
7
  6
CONTINUOUS
 10
1020.3139035506
 20
486.6710450711
 11
1020.9156969056
 21
487.2728384261
  0
LINE
  5
38B
100
AcDbEntity
  8
0
100
AcDbLine
 62
7
  6
CONTINUOUS
 10
1037.5229877903
 20
502.2596799233
 11
1032.8590919232
 21
497.5957840563
  0
LINE
  5
38C
100
AcDbEntity
  8
0
100
AcDbLine
 62
7
  6
CONTINUOUS
 10
1023.7491376509
 20
487.7492588153
 11
1016.678069839
 21
480.6781910034
  0
LINE
  5
38D
100
AcDbEntity
  8
0
100
AcDbLine
 62
7
  6
CONTINUOUS
 10
1033.7429758212
 20
496.7119001583
 11
1038.4068716882
 21
501.3757960254
  0
LINE
  5
38E
100
AcDbEntity
  8
0
100
AcDbLine
 62
7
  6
CONTINUOUS
 10
1017.5619533155
 20
479.7943075269
 11
1019.9691252603
 21
482.2014794718
  0
LINE
  5
38F
100
AcDbEntity
  8
0
100
AcDbLine
 62
7
  6
CONTINUOUS
 10
1021.1727113381
 20
483.4050655496
 11
1024.6330211273
 21
486.8653753388
  0
LINE
  5
390
100
AcDbEntity
  8
0
100
AcDbLine
 62
7
  6
CONTINUOUS
 10
1012.8040280402
 20
494.4818170484
 11
1012.2053691463
 21
494.1777865419
  0
LINE
  5
391
100
AcDbEntity
  8
0
100
AcDbLine
 62
7
  6
CONTINUOUS
 10
1012.9388043894
 20
493.1434548321
 11
1013.5374632833
 21
493.4474853385
  0
LINE
  5
392
100
AcDbEntity
  8
0
100
AcDbLine
 62
7
  6
CONTINUOUS
 10
1033.2070034103
 20
502.3631129257
 11
1032.6083449379
 21
502.0590819978
  0
LINE
  5
393
100
AcDbEntity
  8
0
100
AcDbLine
 62
7
  6
CONTINUOUS
 10
1033.341780181
 20
501.024750288
 11
1033.9404386534
 21
501.3287812159
  0
LINE
  5
394
100
AcDbEntity
  8
0
100
AcDbLine
 62
7
  6
CONTINUOUS
 10
1019.5804683075
 20
487.705376781
 11
1018.9818085707
 21
487.4013471175
  0
LINE
  5
395
100
AcDbEntity
  8
0
100
AcDbLine
 62
7
  6
CONTINUOUS
 10
1038.6623222619
 20
462.0038001364
 11
1038.3551559246
 21
461.1073803959
  0
LINE
  5
396
100
AcDbEntity
  8
0
100
AcDbLine
 62
7
  6
CONTINUOUS
 10
1048.0951121216
 20
488.3776944576
 11
1048.4022766677
 21
489.2741157786
  0
LINE
  5
397
100
AcDbEntity
  8
0
100
AcDbLine
 62
7
  6
CONTINUOUS
 10
1047.1375728126
 20
461.0509625191
 11
1047.4447390446
 21
461.9473821542
  0
LINE
  5
398
100
AcDbEntity
  8
0
100
AcDbLine
 62
7
  6
CONTINUOUS
 10
1038.0918714108
 20
464.379629788
 11
1038.5494860869
 21
465.4264978673
  0
LINE
  5
399
100
AcDbEntity
  8
0
100
AcDbLine
 62
7
  6
CONTINUOUS
 10
1037.5088846118
 20
465.564409942
 11
1037.2048547376
 21
464.9657499945
  0
LINE
  5
39A
100
AcDbEntity
  8
0
100
AcDbLine
 62
7
  6
CONTINUOUS
 10
1038.9663519254
 20
462.6024598732
 11
1038.6623222619
 21
462.0038001364
  0
LINE
  5
39B
100
AcDbEntity
  8
0
100
AcDbLine
 62
7
  6
CONTINUOUS
 10
1047.0607799903
 20
489.1111292793
 11
1046.6063004075
 21
488.3620229949
  0
LINE
  5
39C
100
AcDbEntity
  8
0
100
AcDbLine
 62
7
  6
CONTINUOUS
 10
1047.490183884
 20
487.4781395185
 11
1048.0951121216
 21
488.3776944576
  0
LINE
  5
39D
100
AcDbEntity
  8
0
100
AcDbLine
 62
7
  6
CONTINUOUS
 10
1041.9424055942
 20
497.8402621194
 11
1037.2785097271
 21
493.1763662524
  0
LINE
  5
39E
100
AcDbEntity
  8
0
100
AcDbLine
 62
7
  6
CONTINUOUS
 10
1038.1623932036
 20
492.2924827759
 11
1042.8262890706
 21
496.956378643
  0
LINE
  5
39F
100
AcDbEntity
  8
0
100
AcDbLine
 62
7
  6
CONTINUOUS
 10
1044.0048000916
 20
495.777867622
 11
1036.9337322798
 21
488.7067998101
  0
LINE
  5
3A0
100
AcDbEntity
  8
0
100
AcDbLine
 62
7
  6
CONTINUOUS
 10
1038.7203052619
 20
488.7256058393
 11
1043.9859941678
 21
493.9912947452
  0
LINE
  5
3A1
100
AcDbEntity
  8
0
100
AcDbLine
 62
7
  6
CONTINUOUS
 10
1046.6063004075
 20
488.3620229949
 11
1044.3495766961
 21
486.1052992835
  0
LINE
  5
3A2
100
AcDbEntity
  8
0
100
AcDbLine
 62
7
  6
CONTINUOUS
 10
1045.2334601725
 20
485.221415807
 11
1047.490183884
 21
487.4781395185
  0
LINE
  5
3A3
100
AcDbEntity
  8
0
100
AcDbLine
 62
7
  6
CONTINUOUS
 10
1037.3020181856
 20
474.1963782806
 11
1033.3903636962
 21
470.2847237912
  0
LINE
  5
3A4
100
AcDbEntity
  8
0
100
AcDbLine
 62
7
  6
CONTINUOUS
 10
1037.262837843
 20
491.6875558027
 11
1038.1623932036
 21
492.2924827759
  0
LINE
  5
3A5
100
AcDbEntity
  8
0
100
AcDbLine
 62
7
  6
CONTINUOUS
 10
1044.3339056548
 20
484.6164879909
 11
1045.2334601725
 21
485.221415807
  0
LINE
  5
3A6
100
AcDbEntity
  8
0
100
AcDbLine
 62
7
  6
CONTINUOUS
 10
1037.2785097271
 20
493.1763662524
 11
1036.5294025999
 21
492.7218875126
  0
LINE
  5
3A7
100
AcDbEntity
  8
0
100
AcDbLine
 62
7
  6
CONTINUOUS
 10
1044.3495766961
 20
486.1052992835
 11
1043.6004704117
 21
485.6508197007
  0
LINE
  5
3A8
100
AcDbEntity
  8
0
100
AcDbLine
 62
7
  6
CONTINUOUS
 10
1019.7152438138
 20
486.3670154077
 11
1020.3139035506
 21
486.6710450711
  0
LINE
  5
3A9
100
AcDbEntity
  8
0
100
AcDbLine
 62
7
  6
CONTINUOUS
 10
1016.4210551958
 20
484.5459636693
 11
1015.822395459
 21
484.2419340058
  0
LINE
  5
3AA
100
AcDbEntity
  8
0
100
AcDbLine
 62
7
  6
CONTINUOUS
 10
1016.5558305967
 20
483.2076021906
 11
1017.1544904389
 21
483.5116319594
  0
LINE
  5
3AB
100
AcDbEntity
  8
0
100
AcDbLine
 62
7
  6
CONTINUOUS
 10
1036.3664172596
 20
491.3803903084
 11
1037.262837843
 21
491.6875558027
  0
LINE
  5
3AC
100
AcDbEntity
  8
0
100
AcDbLine
 62
7
  6
CONTINUOUS
 10
1043.4374842285
 20
484.3093233394
 11
1044.3339056548
 21
484.6164879909
  0
LINE
  5
3AD
100
AcDbEntity
  8
RUNDUNGEN
100
AcDbLine
 62
7
  6
CONTINUOUS
 10
1088.5021473444
 20
467.6409100625
 11
1088.5021473444
 21
431.4743878211
  0
LINE
  5
3AE
100
AcDbEntity
  8
0
100
AcDbLine
 62
7
  6
CONTINUOUS
 10
1046.8335427277
 20
460.4523023608
 11
1047.1375728126
 21
461.0509625191
  0
LINE
  5
3AF
100
AcDbEntity
  8
0
100
AcDbLine
 62
7
  6
CONTINUOUS
 10
1039.5712782664
 20
463.5020162875
 11
1038.9663519254
 21
462.6024598732
  0
LINE
  5
3B0
100
AcDbEntity
  8
0
100
AcDbLine
 62
7
  6
CONTINUOUS
 10
1046.2286132257
 20
459.552749529
 11
1046.8335427277
 21
460.4523023608
  0
LINE
  5
3B1
100
AcDbEntity
  8
0
100
AcDbLine
 62
7
  6
CONTINUOUS
 10
1039.7029203652
 20
461.8658914333
 11
1040.4582983113
 21
462.9158927093
  0
LINE
  5
3B2
100
AcDbEntity
  8
0
100
AcDbLine
 62
7
  6
CONTINUOUS
 10
1046.0969709161
 20
461.1888741724
 11
1045.3415965525
 21
460.1388697354
  0
LINE
  5
3B3
100
AcDbEntity
  8
0
100
AcDbLine
 62
7
  6
CONTINUOUS
 10
1034.8791733029
 20
470.3003965183
 11
1037.2863454585
 21
472.7075686739
  0
LINE
  5
3B4
100
AcDbEntity
  8
0
100
AcDbLine
 62
7
  6
CONTINUOUS
 10
1037.2048547376
 20
464.9657499945
 11
1036.9039582708
 21
464.6648535277
  0
LINE
  5
3B5
100
AcDbEntity
  8
0
100
AcDbLine
 62
7
  6
CONTINUOUS
 10
1041.558451176
 20
468.4354629564
 11
1042.3106923429
 21
469.1877041233
  0
LINE
  5
3B6
100
AcDbEntity
  8
0
100
AcDbLine
 62
7
  6
CONTINUOUS
 10
1037.4900784773
 20
463.7778368545
 11
1038.0918714108
 21
464.379629788
  0
LINE
  5
3B7
100
AcDbEntity
  8
0
100
AcDbLine
 62
7
  6
CONTINUOUS
 10
1040.9253123668
 20
464.8560503879
 11
1039.5712782664
 21
463.5020162875
  0
LINE
  5
3B8
100
AcDbEntity
  8
0
100
AcDbLine
 62
7
  6
CONTINUOUS
 10
1040.4582983113
 20
462.9158927093
 11
1041.511435945
 21
463.969030343
  0
LINE
  5
3B9
100
AcDbEntity
  8
0
100
AcDbLine
 62
7
  6
CONTINUOUS
 10
1045.3415965525
 20
460.1388697354
 11
1044.2884589188
 21
459.0857321018
  0
LINE
  5
3BA
100
AcDbEntity
  8
0
100
AcDbLine
 62
7
  6
CONTINUOUS
 10
1044.8745791253
 20
458.1987154286
 11
1046.2286132257
 21
459.552749529
  0
LINE
  5
3BB
100
AcDbEntity
  8
0
100
AcDbLine
 62
7
  6
CONTINUOUS
 10
1041.511435945
 20
463.969030343
 11
1042.5614370102
 21
464.7244080783
  0
LINE
  5
3BC
100
AcDbEntity
  8
0
100
AcDbLine
 62
7
  6
CONTINUOUS
 10
1041.8248685704
 20
465.4609765181
 11
1040.9253123668
 21
464.8560503879
  0
LINE
  5
3BD
100
AcDbEntity
  8
0
100
AcDbLine
 62
7
  6
CONTINUOUS
 10
1036.9039582708
 20
464.6648535277
 11
1036.305298534
 21
464.3608238642
  0
LINE
  5
3BE
100
AcDbEntity
  8
0
100
AcDbLine
 62
7
  6
CONTINUOUS
 10
1042.4235287287
 20
465.7650066031
 11
1041.8248685704
 21
465.4609765181
  0
LINE
  5
3BF
100
AcDbEntity
  8
0
100
AcDbLine
 62
7
  6
CONTINUOUS
 10
1036.4432105034
 20
463.3202222838
 11
1037.4900784773
 21
463.7778368545
  0
LINE
  5
3C0
100
AcDbEntity
  8
0
100
AcDbLine
 62
7
  6
CONTINUOUS
 10
1043.3199483638
 20
466.072172835
 11
1042.4235287287
 21
465.7650066031
  0
LINE
  5
3C1
100
AcDbEntity
  8
0
100
AcDbLine
 62
7
  6
CONTINUOUS
 10
1044.2884589188
 20
459.0857321018
 11
1043.2384542711
 21
458.3303575274
  0
LINE
  5
3C2
100
AcDbEntity
  8
0
100
AcDbLine
 62
7
  6
CONTINUOUS
 10
1043.9750260827
 20
457.5937857158
 11
1044.8745791253
 21
458.1987154286
  0
LINE
  5
3C3
100
AcDbEntity
  8
0
100
AcDbLine
 62
7
  6
CONTINUOUS
 10
1043.3763663459
 20
457.2897560524
 11
1043.9750260827
 21
457.5937857158
  0
LINE
  5
3C4
100
AcDbEntity
  8
0
100
AcDbLine
 62
7
  6
CONTINUOUS
 10
1042.4799466054
 20
456.982589715
 11
1043.3763663459
 21
457.2897560524
  0
LINE
  5
3C5
100
AcDbEntity
  8
RUNDUNGEN
100
AcDbLine
 62
7
  6
CONTINUOUS
 10
1082.6442829681
 20
417.3322521974
 11
996.940951472
 21
331.6289207012
  0
LINE
  5
3C6
100
AcDbEntity
  8
0
100
AcDbLine
 62
7
  6
CONTINUOUS
 10
1023.5021473444
 20
802.5764855084
 11
993.5021473444
 21
802.5764855084
  0
LINE
  5
3C7
100
AcDbEntity
  8
BEZUGSACHSEN
100
AcDbLine
 62
7
  6
CONTINUOUS
 10
114.5137924051
 20
33.6333658989
 11
114.5137924051
 21
250.2310233374
  0
LINE
  5
3C8
100
AcDbEntity
  8
RUNDUNGEN
100
AcDbLine
 62
7
  6
CONTINUOUS
 10
241.8194452948
 20
128.6333658989
 11
241.8194452948
 21
98.6333658989
  0
LINE
  5
3C9
100
AcDbEntity
  8
BEZUGSACHSEN
100
AcDbLine
 62
7
  6
CONTINUOUS
 10
244.5137924051
 20
94.1993581853
 11
244.5137924051
 21
33.6333658989
  0
LINE
  5
3CA
100
AcDbEntity
  8
BEZUGSACHSEN
100
AcDbLine
 62
7
  6
CONTINUOUS
 10
244.5137924051
 20
133.0673736125
 11
244.5137924051
 21
182.1757598623
  0
LINE
  5
3CB
100
AcDbEntity
  8
0
100
AcDbLine
 62
7
  6
CONTINUOUS
 10
252.1621212643
 20
133.6333658989
 11
252.1621212643
 21
134.6333658989
  0
LINE
  5
3CC
100
AcDbEntity
  8
0
100
AcDbLine
 62
7
  6
CONTINUOUS
 10
252.2122468933
 20
133.6333658989
 11
252.2122468933
 21
134.6333658989
  0
LINE
  5
3CD
100
AcDbEntity
  8
0
100
AcDbLine
 62
7
  6
CONTINUOUS
 10
255.233918034
 20
133.6333658989
 11
255.233918034
 21
134.6333658989
  0
LINE
  5
3CE
100
AcDbEntity
  8
0
100
AcDbLine
 62
7
  6
CONTINUOUS
 10
258.2237924051
 20
93.6333658989
 11
258.2237924051
 21
92.6333658989
  0
LINE
  5
3CF
100
AcDbEntity
  8
0
100
AcDbLine
 62
7
  6
CONTINUOUS
 10
258.5429413032
 20
93.6333658989
 11
258.5429413032
 21
92.6333658989
  0
LINE
  5
3D0
100
AcDbEntity
  8
0
100
AcDbLine
 62
7
  6
CONTINUOUS
 10
259.1812390995
 20
93.6333658989
 11
259.1812390995
 21
92.6333658989
  0
LINE
  5
3D1
100
AcDbEntity
  8
0
100
AcDbLine
 62
7
  6
CONTINUOUS
 10
260.457834692
 20
93.6333658989
 11
260.457834692
 21
92.6333658989
  0
LINE
  5
3D2
100
AcDbEntity
  8
0
100
AcDbLine
 62
7
  6
CONTINUOUS
 10
260.6621212643
 20
133.6333658989
 11
260.6621212643
 21
134.6333658989
  0
LINE
  5
3D3
100
AcDbEntity
  8
0
100
AcDbLine
 62
7
  6
CONTINUOUS
 10
261.7344302845
 20
93.6333658989
 11
261.7344302845
 21
92.6333658989
  0
LINE
  5
3D4
100
AcDbEntity
  8
0
100
AcDbLine
 62
7
  6
CONTINUOUS
 10
263.3301756692
 20
93.6333658989
 11
263.3301756692
 21
92.6333658989
  0
LINE
  5
3D5
100
AcDbEntity
  8
0
100
AcDbLine
 62
7
  6
CONTINUOUS
 10
263.6837924051
 20
133.6333658989
 11
263.6837924051
 21
134.6333658989
  0
LINE
  5
3D6
100
AcDbEntity
  8
0
100
AcDbLine
 62
7
  6
CONTINUOUS
 10
268.1174095881
 20
93.6333658989
 11
268.1174095881
 21
92.6333658989
  0
LINE
  5
3D7
100
AcDbEntity
  8
0
100
AcDbLine
 62
7
  6
CONTINUOUS
 10
269.0903244946
 20
133.6333658989
 11
269.0903244946
 21
134.6333658989
  0
LINE
  5
3D8
100
AcDbEntity
  8
0
100
AcDbLine
 62
7
  6
CONTINUOUS
 10
269.7131540787
 20
93.6333658989
 11
269.7131540787
 21
92.6333658989
  0
LINE
  5
3D9
100
AcDbEntity
  8
0
100
AcDbLine
 62
7
  6
CONTINUOUS
 10
270.9897498947
 20
93.6333658989
 11
270.9897498947
 21
92.6333658989
  0
LINE
  5
3DA
100
AcDbEntity
  8
0
100
AcDbLine
 62
7
  6
CONTINUOUS
 10
272.1119956354
 20
133.6333658989
 11
272.1119956354
 21
134.6333658989
  0
LINE
  5
3DB
100
AcDbEntity
  8
0
100
AcDbLine
 62
7
  6
CONTINUOUS
 10
272.1621212643
 20
133.6333658989
 11
272.1621212643
 21
134.6333658989
  0
LINE
  5
3DC
100
AcDbEntity
  8
0
100
AcDbLine
 62
7
  6
CONTINUOUS
 10
272.266345599
 20
93.6333658989
 11
272.266345599
 21
92.6333658989
  0
LINE
  5
3DD
100
AcDbEntity
  8
0
100
AcDbLine
 62
7
  6
CONTINUOUS
 10
272.904643479
 20
93.6333658989
 11
272.904643479
 21
92.6333658989
  0
LINE
  5
3DE
100
AcDbEntity
  8
0
100
AcDbLine
 62
7
  6
CONTINUOUS
 10
273.2237924051
 20
93.6333658989
 11
273.2237924051
 21
92.6333658989
  0
LINE
  5
3DF
100
AcDbEntity
  8
BEZUGSACHSEN
100
AcDbLine
 62
7
  6
CONTINUOUS
 10
244.5137924051
 20
182.1757598623
 11
232.5138101039
 21
250.2310413228
  0
LINE
  5
3E0
100
AcDbEntity
  8
0
100
AcDbLine
 62
7
  6
CONTINUOUS
 10
740.5137924051
 20
33.6333658989
 11
610.5137924051
 21
33.6333658989
  0
LINE
  5
3E1
100
AcDbEntity
  8
BEZUGSACHSEN
100
AcDbLine
 62
7
  6
CONTINUOUS
 10
740.5137924051
 20
33.6333658989
 11
610.5137924051
 21
33.6333658989
  0
LINE
  5
3E2
100
AcDbEntity
  8
0
100
AcDbLine
 62
7
  6
CONTINUOUS
 10
114.5137924051
 20
33.6333658989
 11
244.5137924051
 21
33.6333658989
  0
LWPOLYLINE
  5
3E3
100
AcDbEntity
  8
BEZUGSACHSEN
100
AcDbPolyline
 62
7
  6
CONTINUOUS
 90
19
 70
0
 10
326.7351786627
 20
84.4538376584
 10
326.7914819432
 20
84.540248782
 10
326.8988751324
 20
84.6937214358
 10
327.022644556
 20
84.855102427
 10
327.1636383454
 20
85.0222775189
 10
327.3226796657
 20
85.1931201228
 10
327.5005894038
 20
85.3654984869
 10
327.6980754003
 20
85.5371541195
 10
327.9155177108
 20
85.7055625536
 10
328.1534115636
 20
85.868319529
 10
328.4109080924
 20
86.022224233
 10
328.6875325567
 20
86.1645907013
 10
328.9806449639
 20
86.2920054977
 10
329.287631213
 20
86.4017835943
 10
329.6053852764
 20
86.4917239748
 10
329.9304756286
 20
86.5602322164
 10
330.25949022
 20
86.6064021754
 10
330.5878653245
 20
86.6299159264
 10
330.7712838161
 20
86.6333725259
  0
LINE
  5
3E4
100
AcDbEntity
  8
BEZUGSACHSEN
100
AcDbLine
 62
7
  6
CONTINUOUS
 10
610.5137924051
 20
82.1333658989
 11
532.5137924051
 21
82.1333658989
  0
LINE
  5
3E5
100
AcDbEntity
  8
BEZUGSACHSEN
100
AcDbLine
 62
7
  6
CONTINUOUS
 10
322.5137924051
 20
82.1333658989
 11
244.5137924051
 21
82.1333658989
  0
LINE
  5
3E6
100
AcDbEntity
  8
BEZUGSACHSEN
100
AcDbLine
 62
7
  6
CONTINUOUS
 10
597.3728046572
 20
86.6333658989
 11
577.0549948492
 21
86.6333658989
  0
LINE
  5
3E7
100
AcDbEntity
  8
BEZUGSACHSEN
100
AcDbLine
 62
7
  6
CONTINUOUS
 10
257.654780153
 20
86.6333658989
 11
277.972589961
 21
86.6333658989
  0
LINE
  5
3E8
100
AcDbEntity
  8
BEZUGSACHSEN
100
AcDbLine
 62
7
  6
CONTINUOUS
 10
287.0531979958
 20
86.6333658989
 11
567.9717797108
 21
86.6333658989
  0
LINE
  5
3E9
100
AcDbEntity
  8
0
100
AcDbLine
 62
7
  6
CONTINUOUS
 10
273.2237924051
 20
92.6333658989
 11
258.2237924051
 21
92.6333658989
  0
LINE
  5
3EA
100
AcDbEntity
  8
BEZUGSACHSEN
100
AcDbLine
 62
7
  6
CONTINUOUS
 10
246.8195162805
 20
93.6333658989
 11
608.2080685298
 21
93.6333658989
  0
LWPOLYLINE
  5
3EB
100
AcDbEntity
  8
BEZUGSACHSEN
100
AcDbPolyline
 62
7
  6
CONTINUOUS
 90
19
 70
0
 10
524.2563024723
 20
86.6333725263
 10
524.4260574165
 20
86.6304117349
 10
524.7538175664
 20
86.6078897357
 10
525.082315935
 20
86.5628021514
 10
525.4070227092
 20
86.4954419958
 10
525.7245456703
 20
86.4066880278
 10
526.0314723616
 20
86.2980998661
 10
526.3247104023
 20
86.1718383484
 10
526.6016438927
 20
86.0305496967
 10
526.8596357102
 20
85.8775995113
 10
527.0981737739
 20
85.7156572095
 10
527.316383637
 20
85.5479019646
 10
527.5147225539
 20
85.3767378701
 10
527.6935357746
 20
85.2046942749
 10
527.8535124809
 20
85.0340274005
 10
527.9954552842
 20
84.8668703792
 10
528.120165168
 20
84.7053604689
 10
528.2284740524
 20
84.5516208412
 10
528.2924066755
 20
84.4538368266
  0
LINE
  5
3EC
100
AcDbEntity
  8
BEZUGSACHSEN
100
AcDbLine
 62
7
  6
CONTINUOUS
 10
608.2080685298
 20
133.6333658989
 11
423.6869580815
 21
133.6333658989
  0
LINE
  5
3ED
100
AcDbEntity
  8
RUNDUNGEN
100
AcDbLine
 62
7
  6
CONTINUOUS
 10
246.8195162805
 20
133.6333658989
 11
423.6869580815
 21
133.6333658989
  0
LINE
  5
3EE
100
AcDbEntity
  8
0
100
AcDbLine
 62
7
  6
CONTINUOUS
 10
252.1621276451
 20
134.6333658989
 11
255.233918034
 21
134.6333658989
  0
LINE
  5
3EF
100
AcDbEntity
  8
0
100
AcDbLine
 62
7
  6
CONTINUOUS
 10
255.2977730686
 20
134.6333658989
 11
272.1621148835
 21
134.6333658989
  0
LINE
  5
3F0
100
AcDbEntity
  8
0
100
AcDbLine
 62
7
  6
CONTINUOUS
 10
583.5937924051
 20
134.6333658989
 11
598.5937924051
 21
134.6333658989
  0
LINE
  5
3F1
100
AcDbEntity
  8
BEZUGSACHSEN
100
AcDbLine
 62
7
  6
CONTINUOUS
 10
597.3728046572
 20
140.6333658989
 11
577.0549948492
 21
140.6333658989
  0
LINE
  5
3F2
100
AcDbEntity
  8
RUNDUNGEN
100
AcDbLine
 62
7
  6
CONTINUOUS
 10
257.654780153
 20
140.6333658989
 11
277.972589961
 21
140.6333658989
  0
LINE
  5
3F3
100
AcDbEntity
  8
BEZUGSACHSEN
100
AcDbLine
 62
7
  6
CONTINUOUS
 10
287.0531979958
 20
140.6333658989
 11
567.9717797108
 21
140.6333658989
  0
LWPOLYLINE
  5
3F4
100
AcDbEntity
  8
RUNDUNGEN
100
AcDbPolyline
 62
7
  6
CONTINUOUS
 90
19
 70
0
 10
330.7712823379
 20
140.6333592715
 10
330.6015273937
 20
140.6363200629
 10
330.2737672438
 20
140.658842062
 10
329.9452688752
 20
140.7039296464
 10
329.620562101
 20
140.771289802
 10
329.3030391399
 20
140.86004377
 10
328.9961124486
 20
140.9686319317
 10
328.7028744079
 20
141.0948934494
 10
328.4259409175
 20
141.2361821011
 10
328.1679491001
 20
141.3891322865
 10
327.9294110363
 20
141.5510745883
 10
327.7112011733
 20
141.7188298332
 10
327.5128622563
 20
141.8899939277
 10
327.3340490357
 20
142.0620375229
 10
327.1740723293
 20
142.2327043973
 10
327.032129526
 20
142.3998614186
 10
326.9074196422
 20
142.5613713289
 10
326.7991107578
 20
142.7151109566
 10
326.7351781347
 20
142.8128949712
  0
LINE
  5
3F5
100
AcDbEntity
  8
0
100
AcDbLine
 62
7
  6
CONTINUOUS
 10
244.5137924051
 20
145.1333658989
 11
322.5137924051
 21
145.1333658989
  0
LINE
  5
3F6
100
AcDbEntity
  8
BEZUGSACHSEN
100
AcDbLine
 62
7
  6
CONTINUOUS
 10
532.5137924051
 20
145.1333658989
 11
610.5137924051
 21
145.1333658989
  0
LWPOLYLINE
  5
3F7
100
AcDbEntity
  8
BEZUGSACHSEN
100
AcDbPolyline
 62
7
  6
CONTINUOUS
 90
19
 70
0
 10
528.2924061475
 20
142.8128941394
 10
528.236102867
 20
142.7264830158
 10
528.1287096779
 20
142.573010362
 10
528.0049402542
 20
142.4116293708
 10
527.8639464648
 20
142.2444542789
 10
527.7049051445
 20
142.073611675
 10
527.5269954064
 20
141.9012333109
 10
527.3295094099
 20
141.7295776783
 10
527.1120670994
 20
141.5611692442
 10
526.8741732466
 20
141.3984122688
 10
526.6166767179
 20
141.2445075648
 10
526.3400522535
 20
141.1021410965
 10
526.0469398463
 20
140.9747263001
 10
525.7399535972
 20
140.8649482035
 10
525.4221995338
 20
140.775007823
 10
525.0971091816
 20
140.7064995814
 10
524.7680945902
 20
140.6603296224
 10
524.4397194857
 20
140.6368158714
 10
524.2563009942
 20
140.6333592719
  0
LINE
  5
3F8
100
AcDbEntity
  8
BEZUGSACHSEN
100
AcDbLine
 62
7
  6
CONTINUOUS
 10
114.5137924051
 20
250.2311416978
 11
232.5159955232
 21
250.2311416978
  0
LINE
  5
3F9
100
AcDbEntity
  8
RUNDUNGEN
100
AcDbLine
 62
7
  6
CONTINUOUS
 10
622.511589287
 20
250.2311416978
 11
740.5137924051
 21
250.2311416978
  0
LINE
  5
3FA
100
AcDbEntity
  8
0
100
AcDbLine
 62
7
  6
CONTINUOUS
 10
583.5937924051
 20
133.6333658989
 11
583.5937924051
 21
134.6333658989
  0
LINE
  5
3FB
100
AcDbEntity
  8
0
100
AcDbLine
 62
7
  6
CONTINUOUS
 10
583.9129413312
 20
133.6333658989
 11
583.9129413312
 21
134.6333658989
  0
LINE
  5
3FC
100
AcDbEntity
  8
0
100
AcDbLine
 62
7
  6
CONTINUOUS
 10
584.5512392112
 20
133.6333658989
 11
584.5512392112
 21
134.6333658989
  0
LINE
  5
3FD
100
AcDbEntity
  8
0
100
AcDbLine
 62
7
  6
CONTINUOUS
 10
585.8278349155
 20
133.6333658989
 11
585.8278349155
 21
134.6333658989
  0
LINE
  5
3FE
100
AcDbEntity
  8
0
100
AcDbLine
 62
7
  6
CONTINUOUS
 10
587.1044307315
 20
133.6333658989
 11
587.1044307315
 21
134.6333658989
  0
LINE
  5
3FF
100
AcDbEntity
  8
0
100
AcDbLine
 62
7
  6
CONTINUOUS
 10
588.7001752221
 20
133.6333658989
 11
588.7001752221
 21
134.6333658989
  0
LINE
  5
400
100
AcDbEntity
  8
0
100
AcDbLine
 62
7
  6
CONTINUOUS
 10
593.487409141
 20
133.6333658989
 11
593.487409141
 21
134.6333658989
  0
LINE
  5
401
100
AcDbEntity
  8
0
100
AcDbLine
 62
7
  6
CONTINUOUS
 10
595.0831545257
 20
133.6333658989
 11
595.0831545257
 21
134.6333658989
  0
LINE
  5
402
100
AcDbEntity
  8
0
100
AcDbLine
 62
7
  6
CONTINUOUS
 10
596.3597501182
 20
133.6333658989
 11
596.3597501182
 21
134.6333658989
  0
LINE
  5
403
100
AcDbEntity
  8
0
100
AcDbLine
 62
7
  6
CONTINUOUS
 10
597.6363457107
 20
133.6333658989
 11
597.6363457107
 21
134.6333658989
  0
LINE
  5
404
100
AcDbEntity
  8
0
100
AcDbLine
 62
7
  6
CONTINUOUS
 10
598.274643507
 20
133.6333658989
 11
598.274643507
 21
134.6333658989
  0
LINE
  5
405
100
AcDbEntity
  8
0
100
AcDbLine
 62
7
  6
CONTINUOUS
 10
598.5937924051
 20
133.6333658989
 11
598.5937924051
 21
134.6333658989
  0
LINE
  5
406
100
AcDbEntity
  8
0
100
AcDbLine
 62
7
  6
CONTINUOUS
 10
610.5137924051
 20
182.1757598623
 11
622.5137747063
 21
250.2310413228
  0
LINE
  5
407
100
AcDbEntity
  8
BEZUGSACHSEN
100
AcDbLine
 62
7
  6
CONTINUOUS
 10
610.5137924051
 20
33.6333658989
 11
610.5137924051
 21
94.1993581853
  0
LINE
  5
408
100
AcDbEntity
  8
RUNDUNGEN
100
AcDbLine
 62
7
  6
CONTINUOUS
 10
610.5137924051
 20
133.0673736125
 11
610.5137924051
 21
163.942023764
  0
LINE
  5
409
100
AcDbEntity
  8
0
100
AcDbLine
 62
7
  6
CONTINUOUS
 10
610.5137924051
 20
163.942023764
 11
610.5137924051
 21
182.1757598623
  0
LINE
  5
40A
100
AcDbEntity
  8
BEZUGSACHSEN
100
AcDbLine
 62
7
  6
CONTINUOUS
 10
613.2081395154
 20
98.6333658989
 11
613.2081395154
 21
128.6333658989
  0
LINE
  5
40B
100
AcDbEntity
  8
BEZUGSACHSEN
100
AcDbLine
 62
7
  6
CONTINUOUS
 10
740.5137924051
 20
113.6333658989
 11
740.5137924051
 21
33.6333658989
  0
LINE
  5
40C
100
AcDbEntity
  8
RUNDUNGEN
100
AcDbLine
 62
7
  6
CONTINUOUS
 10
740.5137924051
 20
113.6333658989
 11
740.5137924051
 21
250.2310233374
  0
ARC
  5
40D
100
AcDbEntity
  8
0
100
AcDbCircle
 62
7
  6
CONTINUOUS
 10
322.5137924051
 20
441.1409100625
 40
5.0
100
AcDbArc
 50
270.0
 51
345.5224878141
  0
ARC
  5
40E
100
AcDbEntity
  8
BEZUGSACHSEN
100
AcDbCircle
 62
7
  6
CONTINUOUS
 10
332.196250773
 20
438.6409100884
 40
4.9999999959
100
AcDbArc
 50
90.0000000274
 51
165.522488109
  0
ARC
  5
40F
100
AcDbEntity
  8
BEZUGSACHSEN
100
AcDbCircle
 62
7
  6
CONTINUOUS
 10
254.2566425479
 20
504.1409085143
 40
4.9999997879
100
AcDbArc
 50
269.9999971902
 51
9.0000179618
  0
ARC
  5
410
100
AcDbEntity
  8
BEZUGSACHSEN
100
AcDbCircle
 62
7
  6
CONTINUOUS
 10
256.8194452948
 20
615.8090732195
 40
15.0
100
AcDbArc
 50
157.5
 51
189.0
  0
ARC
  5
411
100
AcDbEntity
  8
BEZUGSACHSEN
100
AcDbCircle
 62
7
  6
CONTINUOUS
 10
307.3511946425
 20
737.8035078251
 40
15.0
100
AcDbArc
 50
112.5
 51
157.5
  0
ARC
  5
412
100
AcDbEntity
  8
BEZUGSACHSEN
100
AcDbCircle
 62
7
  6
CONTINUOUS
 10
532.5137924051
 20
441.1409100625
 40
5.0
100
AcDbArc
 50
194.4775121859
 51
270.0
  0
ARC
  5
413
100
AcDbEntity
  8
BEZUGSACHSEN
100
AcDbCircle
 62
7
  6
CONTINUOUS
 10
522.8313340372
 20
438.6409100884
 40
4.9999999959
100
AcDbArc
 50
14.477511891
 51
89.9999999726
  0
ARC
  5
414
100
AcDbEntity
  8
BEZUGSACHSEN
100
AcDbCircle
 62
7
  6
CONTINUOUS
 10
600.7709422623
 20
504.1409085143
 40
4.9999997879
100
AcDbArc
 50
170.9999820382
 51
270.0000028098
  0
ARC
  5
415
100
AcDbEntity
  8
BEZUGSACHSEN
100
AcDbCircle
 62
7
  6
CONTINUOUS
 10
427.5137924051
 20
617.6409100625
 40
126.2822021129
100
AcDbArc
 50
247.905106614
 51
292.094893386
  0
CIRCLE
  5
416
100
AcDbEntity
  8
BEZUGSACHSEN
100
AcDbCircle
 62
7
  6
CONTINUOUS
 10
427.5137924051
 20
617.6409100625
 40
115.0
  0
ARC
  5
417
100
AcDbEntity
  8
BEZUGSACHSEN
100
AcDbCircle
 62
7
  6
CONTINUOUS
 10
427.5137924051
 20
787.5764855084
 40
15.0
100
AcDbArc
 50
67.5
 51
112.5
  0
ARC
  5
418
100
AcDbEntity
  8
BEZUGSACHSEN
100
AcDbCircle
 62
7
  6
CONTINUOUS
 10
598.2081395154
 20
615.8090732195
 40
15.0
100
AcDbArc
 50
351.0
 51
22.5
  0
ARC
  5
419
100
AcDbEntity
  8
BEZUGSACHSEN
100
AcDbCircle
 62
7
  6
CONTINUOUS
 10
547.6763901678
 20
737.8035078251
 40
15.0
100
AcDbArc
 50
22.5
 51
67.5
  0
ARC
  5
41A
100
AcDbEntity
  8
BEZUGSACHSEN
100
AcDbCircle
 62
7
  6
CONTINUOUS
 10
1008.5021473444
 20
467.6409100625
 40
80.0
100
AcDbArc
 50
0.0
 51
90.0
  0
ARC
  5
41B
100
AcDbEntity
  8
BEZUGSACHSEN
100
AcDbCircle
 62
7
  6
CONTINUOUS
 10
972.335625103
 20
527.6409100625
 40
20.0
100
AcDbArc
 50
90.0
 51
135.0
  0
ARC
  5
41C
100
AcDbEntity
  8
RUNDUNGEN
100
AcDbCircle
 62
7
  6
CONTINUOUS
 10
1068.5021473444
 20
431.4743878211
 40
20.0
100
AcDbArc
 50
315.0
 51
360.0
  0
ARC
  5
41D
100
AcDbEntity
  8
BEZUGSACHSEN
100
AcDbCircle
 62
7
  6
CONTINUOUS
 10
964.767592928
 20
423.9063556461
 40
10.0
100
AcDbArc
 50
306.9444732985
 51
143.0555267015
  0
ARC
  5
41E
100
AcDbEntity
  8
BEZUGSACHSEN
100
AcDbCircle
 62
7
  6
CONTINUOUS
 10
1023.5021473444
 20
797.5764855084
 40
5.0
100
AcDbArc
 50
0.0
 51
90.0
  0
ARC
  5
41F
100
AcDbEntity
  8
BEZUGSACHSEN
100
AcDbCircle
 62
7
  6
CONTINUOUS
 10
1030.5021473444
 20
758.1015180483
 40
5.0
100
AcDbArc
 50
0.0
 51
72.5423968763
  0
ARC
  5
420
100
AcDbEntity
  8
BEZUGSACHSEN
100
AcDbCircle
 62
7
  6
CONTINUOUS
 10
1033.5021473444
 20
767.6409100625
 40
5.0
100
AcDbArc
 50
180.0
 51
252.5423968763
  0
ARC
  5
421
100
AcDbEntity
  8
BEZUGSACHSEN
100
AcDbCircle
 62
7
  6
CONTINUOUS
 10
993.5021473444
 20
797.5764855084
 40
5.0
100
AcDbArc
 50
90.0
 51
180.0
  0
ARC
  5
422
100
AcDbEntity
  8
BEZUGSACHSEN
100
AcDbCircle
 62
7
  6
CONTINUOUS
 10
986.5021473444
 20
758.1015180483
 40
5.0
100
AcDbArc
 50
107.4576031237
 51
180.0
  0
ARC
  5
423
100
AcDbEntity
  8
RUNDUNGEN
100
AcDbCircle
 62
7
  6
CONTINUOUS
 10
983.5021473444
 20
767.6409100625
 40
5.0
100
AcDbArc
 50
287.4576031237
 51
360.0
  0
ARC
  5
424
100
AcDbEntity
  8
BEZUGSACHSEN
100
AcDbCircle
 62
7
  6
CONTINUOUS
 10
873.9043715455
 20
454.6655006277
 40
2.0
100
AcDbArc
 50
135.0
 51
225.0
  0
ARC
  5
425
100
AcDbEntity
  8
RUNDUNGEN
100
AcDbCircle
 62
7
  6
CONTINUOUS
 10
995.5267379096
 20
333.0431342636
 40
2.0
100
AcDbArc
 50
225.0
 51
315.0
  0
ARC
  5
426
100
AcDbEntity
  8
BEZUGSACHSEN
100
AcDbCircle
 62
7
  6
CONTINUOUS
 10
608.2081395154
 20
98.6333658989
 40
5.0
100
AcDbArc
 50
270.0
 51
360.0
  0
ARC
  5
427
100
AcDbEntity
  8
BEZUGSACHSEN
100
AcDbCircle
 62
7
  6
CONTINUOUS
 10
567.9744003909
 20
91.6333658989
 40
5.0
100
AcDbArc
 50
270.0
 51
342.5423968763
  0
ARC
  5
428
100
AcDbEntity
  8
BEZUGSACHSEN
100
AcDbCircle
 62
7
  6
CONTINUOUS
 10
287.0531844193
 20
91.6333658989
 40
5.0
100
AcDbArc
 50
197.4576031237
 51
270.0
  0
ARC
  5
429
100
AcDbEntity
  8
BEZUGSACHSEN
100
AcDbCircle
 62
7
  6
CONTINUOUS
 10
246.8194452948
 20
98.6333658989
 40
5.0
100
AcDbArc
 50
180.0
 51
270.0
  0
ARC
  5
42A
100
AcDbEntity
  8
BEZUGSACHSEN
100
AcDbCircle
 62
7
  6
CONTINUOUS
 10
277.5137924051
 20
88.6333658989
 40
5.0
100
AcDbArc
 50
17.4576031237
 51
90.0
  0
ARC
  5
42B
100
AcDbEntity
  8
BEZUGSACHSEN
100
AcDbCircle
 62
7
  6
CONTINUOUS
 10
577.5137924051
 20
88.6333658989
 40
5.0
100
AcDbArc
 50
90.0
 51
162.5423968763
  0
ARC
  5
42C
100
AcDbEntity
  8
BEZUGSACHSEN
100
AcDbCircle
 62
7
  6
CONTINUOUS
 10
608.2081395154
 20
128.6333658989
 40
5.0
100
AcDbArc
 50
0.0
 51
90.0
  0
ARC
  5
42D
100
AcDbEntity
  8
BEZUGSACHSEN
100
AcDbCircle
 62
7
  6
CONTINUOUS
 10
532.5137924051
 20
140.1333658989
 40
5.0
100
AcDbArc
 50
90.0
 51
147.5900545776
  0
ARC
  5
42E
100
AcDbEntity
  8
BEZUGSACHSEN
100
AcDbCircle
 62
7
  6
CONTINUOUS
 10
532.5137924051
 20
87.1333658989
 40
5.0
100
AcDbArc
 50
212.4099454224
 51
270.0
  0
ARC
  5
42F
100
AcDbEntity
  8
BEZUGSACHSEN
100
AcDbCircle
 62
7
  6
CONTINUOUS
 10
567.9744003909
 20
135.6333658989
 40
5.0
100
AcDbArc
 50
17.4576031237
 51
90.0
  0
ARC
  5
430
100
AcDbEntity
  8
BEZUGSACHSEN
100
AcDbCircle
 62
7
  6
CONTINUOUS
 10
287.0531844193
 20
135.6333658989
 40
5.0
100
AcDbArc
 50
90.0
 51
162.5423968763
  0
ARC
  5
431
100
AcDbEntity
  8
RUNDUNGEN
100
AcDbCircle
 62
7
  6
CONTINUOUS
 10
246.8194452948
 20
128.6333658989
 40
5.0
100
AcDbArc
 50
90.0
 51
180.0
  0
ARC
  5
432
100
AcDbEntity
  8
0
100
AcDbCircle
 62
7
  6
CONTINUOUS
 10
322.5137924051
 20
140.1333658989
 40
5.0
100
AcDbArc
 50
32.4099454224
 51
90.0
  0
ARC
  5
433
100
AcDbEntity
  8
0
100
AcDbCircle
 62
7
  6
CONTINUOUS
 10
322.5137924051
 20
87.1333658989
 40
5.0
100
AcDbArc
 50
270.0
 51
327.5900545776
  0
ARC
  5
434
100
AcDbEntity
  8
RUNDUNGEN
100
AcDbCircle
 62
7
  6
CONTINUOUS
 10
277.5137924051
 20
138.6333658989
 40
5.0
100
AcDbArc
 50
270.0
 51
342.5423968763
  0
ARC
  5
435
100
AcDbEntity
  8
RUNDUNGEN
100
AcDbCircle
 62
7
  6
CONTINUOUS
 10
577.5137924051
 20
138.6333658989
 40
5.0
100
AcDbArc
 50
197.4576031237
 51
270.0
  0
SPLINE
  5
436
100
AcDbEntity
  8
0
100
AcDbSpline
 62
7
  6
CONTINUOUS
 70
0
 71
3
 72
8
 73
4
 74
0
 42
0.0000001
 43
0.0000001
 44
0.0000000001
 40
0.0
 40
0.0
 40
0.0
 40
0.0
 40
1.0
 40
1.0
 40
1.0
 40
1.0
 10
443.048626523
 20
468.2422258199
 30
0.0
 10
443.048626523
 20
466.3752876461
 30
0.0
 10
443.1844029236
 20
465.1193471864
 30
0.0
 10
443.4827630186
 20
464.4373813753
 30
0.0
  0
SPLINE
  5
437
100
AcDbEntity
  8
0
100
AcDbSpline
 62
7
  6
CONTINUOUS
 70
0
 71
3
 72
8
 73
4
 74
0
 42
0.0000001
 43
0.0000001
 44
0.0000000001
 40
0.0
 40
0.0
 40
0.0
 40
0.0
 40
1.0
 40
1.0
 40
1.0
 40
1.0
 10
443.4827630186
 20
464.4373813753
 30
0.0
 10
443.7784287739
 20
463.7615740538
 30
0.0
 10
444.3554822016
 20
463.2524090359
 30
0.0
 10
445.2182012485
 20
462.922545761
 30
0.0
  0
SPLINE
  5
438
100
AcDbEntity
  8
0
100
AcDbSpline
 62
7
  6
CONTINUOUS
 70
0
 71
3
 72
8
 73
4
 74
0
 42
0.0000001
 43
0.0000001
 44
0.0000000001
 40
0.0
 40
0.0
 40
0.0
 40
0.0
 40
1.0
 40
1.0
 40
1.0
 40
1.0
 10
445.2182012485
 20
462.922545761
 30
0.0
 10
446.0866424846
 20
462.5904945895
 30
0.0
 10
447.0710280943
 20
462.4207729247
 30
0.0
 10
448.1572482395
 20
462.4207729247
 30
0.0
  0
SPLINE
  5
439
100
AcDbEntity
  8
0
100
AcDbSpline
 62
7
  6
CONTINUOUS
 70
0
 71
3
 72
8
 73
4
 74
0
 42
0.0000001
 43
0.0000001
 44
0.0000000001
 40
0.0
 40
0.0
 40
0.0
 40
0.0
 40
1.0
 40
1.0
 40
1.0
 40
1.0
 10
448.1572482395
 20
462.4207729247
 30
0.0
 10
448.8361332226
 20
462.4207729247
 30
0.0
 10
449.752632122
 20
462.4716894474
 30
0.0
 10
450.9237114
 20
462.573522423
 30
0.0
  0
SPLINE
  5
43A
100
AcDbEntity
  8
0
100
AcDbSpline
 62
7
  6
CONTINUOUS
 70
0
 71
3
 72
8
 73
4
 74
0
 42
0.0000001
 43
0.0000001
 44
0.0000000001
 40
0.0
 40
0.0
 40
0.0
 40
0.0
 40
1.0
 40
1.0
 40
1.0
 40
1.0
 10
450.9237114
 20
466.2225380779
 30
0.0
 10
450.3466549921
 20
466.4262041688
 30
0.0
 10
449.9223533678
 20
466.5450092644
 30
0.0
 10
449.6335243852
 20
466.5761139405
 30
0.0
  0
SPLINE
  5
43B
100
AcDbEntity
  8
0
100
AcDbSpline
 62
7
  6
CONTINUOUS
 70
0
 71
3
 72
8
 73
4
 74
0
 42
0.0000001
 43
0.0000001
 44
0.0000000001
 40
0.0
 40
0.0
 40
0.0
 40
0.0
 40
1.0
 40
1.0
 40
1.0
 40
1.0
 10
449.6335243852
 20
466.5761139405
 30
0.0
 10
448.8191637802
 20
466.6638143599
 30
0.0
 10
448.3269694853
 20
466.8165639282
 30
0.0
 10
448.1572483311
 20
467.0202297229
 30
0.0
  0
SPLINE
  5
43C
100
AcDbEntity
  8
0
100
AcDbSpline
 62
7
  6
CONTINUOUS
 70
0
 71
3
 72
8
 73
4
 74
0
 42
0.0000001
 43
0.0000001
 44
0.0000000001
 40
0.0
 40
0.0
 40
0.0
 40
0.0
 40
1.0
 40
1.0
 40
1.0
 40
1.0
 10
448.1572483311
 20
467.0202297229
 30
0.0
 10
447.9875269937
 20
467.2238957376
 30
0.0
 10
447.9026648807
 20
467.6312279195
 30
0.0
 10
447.9026648807
 20
468.27616992
 30
0.0
  0
SPLINE
  5
43D
100
AcDbEntity
  8
0
100
AcDbSpline
 62
7
  6
CONTINUOUS
 70
0
 71
3
 72
8
 73
4
 74
0
 42
0.0000001
 43
0.0000001
 44
0.0000000001
 40
0.0
 40
0.0
 40
0.0
 40
0.0
 40
1.0
 40
1.0
 40
1.0
 40
1.0
 10
427.1966237542
 20
481.7690414375
 30
0.0
 10
427.7397337961
 20
482.9910371691
 30
0.0
 10
428.6392572927
 20
483.602035442
 30
0.0
 10
429.9291435289
 20
483.602035442
 30
0.0
  0
SPLINE
  5
43E
100
AcDbEntity
  8
0
100
AcDbSpline
 62
7
  6
CONTINUOUS
 70
0
 71
3
 72
8
 73
4
 74
0
 42
0.0000001
 43
0.0000001
 44
0.0000000001
 40
0.0
 40
0.0
 40
0.0
 40
0.0
 40
1.0
 40
1.0
 40
1.0
 40
1.0
 10
429.9291435289
 20
483.602035442
 30
0.0
 10
431.1171922493
 20
483.602035442
 30
0.0
 10
431.9827738809
 20
483.0419544369
 30
0.0
 10
432.5156544708
 20
481.9339020427
 30
0.0
  0
SPLINE
  5
43F
100
AcDbEntity
  8
0
100
AcDbSpline
 62
7
  6
CONTINUOUS
 70
0
 71
3
 72
8
 73
4
 74
0
 42
0.0000001
 43
0.0000001
 44
0.0000000001
 40
0.0
 40
0.0
 40
0.0
 40
0.0
 40
1.0
 40
1.0
 40
1.0
 40
1.0
 10
432.5156544708
 20
481.9339020427
 30
0.0
 10
433.0520216036
 20
480.8185998589
 30
0.0
 10
433.3235744047
 20
478.7479955942
 30
0.0
 10
433.3235744047
 20
475.7099781424
 30
0.0
  0
SPLINE
  5
440
100
AcDbEntity
  8
0
100
AcDbSpline
 62
7
  6
CONTINUOUS
 70
0
 71
3
 72
8
 73
4
 74
0
 42
0.0000001
 43
0.0000001
 44
0.0000000001
 40
0.0
 40
0.0
 40
0.0
 40
0.0
 40
1.0
 40
1.0
 40
1.0
 40
1.0
 10
433.3235744047
 20
475.7099781424
 30
0.0
 10
433.3235744047
 20
472.1118796855
 30
0.0
 10
433.0689940262
 20
469.667887339
 30
0.0
 10
432.5694341503
 20
468.380886173
 30
0.0
  0
SPLINE
  5
441
100
AcDbEntity
  8
0
100
AcDbSpline
 62
7
  6
CONTINUOUS
 70
0
 71
3
 72
8
 73
4
 74
0
 42
0.0000001
 43
0.0000001
 44
0.0000000001
 40
0.0
 40
0.0
 40
0.0
 40
0.0
 40
1.0
 40
1.0
 40
1.0
 40
1.0
 10
432.5694341503
 20
468.380886173
 30
0.0
 10
432.0676359939
 20
467.0881185919
 30
0.0
 10
431.1681095171
 20
466.460148269
 30
0.0
 10
429.8442814159
 20
466.460148269
 30
0.0
  0
SPLINE
  5
442
100
AcDbEntity
  8
0
100
AcDbSpline
 62
7
  6
CONTINUOUS
 70
0
 71
3
 72
8
 73
4
 74
0
 42
0.0000001
 43
0.0000001
 44
0.0000000001
 40
0.0
 40
0.0
 40
0.0
 40
0.0
 40
1.0
 40
1.0
 40
1.0
 40
1.0
 10
429.8442814159
 20
466.460148269
 30
0.0
 10
428.7241194057
 20
466.460148269
 30
0.0
 10
427.8755101967
 20
466.9353690237
 30
0.0
 10
427.2777198391
 20
467.9174531559
 30
0.0
  0
SPLINE
  5
443
100
AcDbEntity
  8
0
100
AcDbSpline
 62
7
  6
CONTINUOUS
 70
0
 71
3
 72
8
 73
4
 74
0
 42
0.0000001
 43
0.0000001
 44
0.0000000001
 40
0.0
 40
0.0
 40
0.0
 40
0.0
 40
1.0
 40
1.0
 40
1.0
 40
1.0
 10
427.2777198391
 20
467.9174531559
 30
0.0
 10
426.6874584961
 20
468.8871681929
 30
0.0
 10
426.3989302921
 20
471.0935492307
 30
0.0
 10
426.3989302921
 20
474.555871287
 30
0.0
  0
SPLINE
  5
444
100
AcDbEntity
  8
0
100
AcDbSpline
 62
7
  6
CONTINUOUS
 70
0
 71
3
 72
8
 73
4
 74
0
 42
0.0000001
 43
0.0000001
 44
0.0000000001
 40
0.0
 40
0.0
 40
0.0
 40
0.0
 40
1.0
 40
1.0
 40
1.0
 40
1.0
 10
426.3989302921
 20
474.555871287
 30
0.0
 10
426.3989302921
 20
478.1539697439
 30
0.0
 10
426.6535136509
 20
480.5470455677
 30
0.0
 10
427.1966237542
 20
481.7690414375
 30
0.0
  0
SPLINE
  5
445
100
AcDbEntity
  8
0
100
AcDbSpline
 62
7
  6
CONTINUOUS
 70
0
 71
3
 72
8
 73
4
 74
0
 42
0.0000001
 43
0.0000001
 44
0.0000000001
 40
0.0
 40
0.0
 40
0.0
 40
0.0
 40
1.0
 40
1.0
 40
1.0
 40
1.0
 10
423.6739857206
 20
465.230832939
 30
0.0
 10
425.1429918814
 20
463.3542420581
 30
0.0
 10
427.1796498108
 20
462.4207729247
 30
0.0
 10
429.7933641481
 20
462.4207729247
 30
0.0
  0
SPLINE
  5
446
100
AcDbEntity
  8
0
100
AcDbSpline
 62
7
  6
CONTINUOUS
 70
0
 71
3
 72
8
 73
4
 74
0
 42
0.0000001
 43
0.0000001
 44
0.0000000001
 40
0.0
 40
0.0
 40
0.0
 40
0.0
 40
1.0
 40
1.0
 40
1.0
 40
1.0
 10
429.7933641481
 20
462.4207729247
 30
0.0
 10
432.4240509081
 20
462.4207729247
 30
0.0
 10
434.4946536827
 20
463.3881863911
 30
0.0
 10
435.9882050528
 20
465.3569582898
 30
0.0
  0
SPLINE
  5
447
100
AcDbEntity
  8
0
100
AcDbSpline
 62
7
  6
CONTINUOUS
 70
0
 71
3
 72
8
 73
4
 74
0
 42
0.0000001
 43
0.0000001
 44
0.0000000001
 40
0.0
 40
0.0
 40
0.0
 40
0.0
 40
1.0
 40
1.0
 40
1.0
 40
1.0
 10
435.9882050528
 20
465.3569582898
 30
0.0
 10
437.4817553568
 20
467.325728783
 30
0.0
 10
438.2455024528
 20
470.8219949395
 30
0.0
 10
438.2455024528
 20
475.8627284557
 30
0.0
  0
SPLINE
  5
448
100
AcDbEntity
  8
0
100
AcDbSpline
 62
7
  6
CONTINUOUS
 70
0
 71
3
 72
8
 73
4
 74
0
 42
0.0000001
 43
0.0000001
 44
0.0000000001
 40
0.0
 40
0.0
 40
0.0
 40
0.0
 40
1.0
 40
1.0
 40
1.0
 40
1.0
 10
438.2455024528
 20
475.8627284557
 30
0.0
 10
438.2455024528
 20
483.7038684875
 30
0.0
 10
435.4790392923
 20
487.641410926
 30
0.0
 10
429.9800578165
 20
487.641410926
 30
0.0
  0
SPLINE
  5
449
100
AcDbEntity
  8
0
100
AcDbSpline
 62
7
  6
CONTINUOUS
 70
0
 71
3
 72
8
 73
4
 74
0
 42
0.0000001
 43
0.0000001
 44
0.0000000001
 40
0.0
 40
0.0
 40
0.0
 40
0.0
 40
1.0
 40
1.0
 40
1.0
 40
1.0
 10
429.9800578165
 20
487.641410926
 30
0.0
 10
427.1966222334
 20
487.641410926
 30
0.0
 10
425.0920746136
 20
486.6400528938
 30
0.0
 10
423.6439478434
 20
484.6753423681
 30
0.0
  0
SPLINE
  5
44A
100
AcDbEntity
  8
0
100
AcDbSpline
 62
7
  6
CONTINUOUS
 70
0
 71
3
 72
8
 73
4
 74
0
 42
0.0000001
 43
0.0000001
 44
0.0000000001
 40
0.0
 40
0.0
 40
0.0
 40
0.0
 40
1.0
 40
1.0
 40
1.0
 40
1.0
 10
423.6439478434
 20
484.6753423681
 30
0.0
 10
422.1898350525
 20
482.7025104553
 30
0.0
 10
421.4770037341
 20
479.4268835575
 30
0.0
 10
421.4770037341
 20
474.8443980009
 30
0.0
  0
SPLINE
  5
44B
100
AcDbEntity
  8
0
100
AcDbSpline
 62
7
  6
CONTINUOUS
 70
0
 71
3
 72
8
 73
4
 74
0
 42
0.0000001
 43
0.0000001
 44
0.0000000001
 40
0.0
 40
0.0
 40
0.0
 40
0.0
 40
1.0
 40
1.0
 40
1.0
 40
1.0
 10
421.4770037341
 20
474.8443980009
 30
0.0
 10
421.4770037341
 20
470.3128297121
 30
0.0
 10
422.206805985
 20
467.105090642
 30
0.0
 10
423.6739857206
 20
465.230832939
 30
0.0
  0
SPLINE
  5
44C
100
AcDbEntity
  8
0
100
AcDbSpline
 62
7
  6
CONTINUOUS
 70
0
 71
3
 72
8
 73
4
 74
0
 42
0.0000001
 43
0.0000001
 44
0.0000000001
 40
0.0
 40
0.0
 40
0.0
 40
0.0
 40
1.0
 40
1.0
 40
1.0
 40
1.0
 10
404.2502555304
 20
464.0331285793
 30
0.0
 10
405.6419729847
 20
462.9469100625
 30
0.0
 10
407.4410225856
 20
462.4207729247
 30
0.0
 10
409.6643764186
 20
462.4207729247
 30
0.0
  0
SPLINE
  5
44D
100
AcDbEntity
  8
0
100
AcDbSpline
 62
7
  6
CONTINUOUS
 70
0
 71
3
 72
8
 73
4
 74
0
 42
0.0000001
 43
0.0000001
 44
0.0000000001
 40
0.0
 40
0.0
 40
0.0
 40
0.0
 40
1.0
 40
1.0
 40
1.0
 40
1.0
 10
409.6643764186
 20
462.4207729247
 30
0.0
 10
412.312034111
 20
462.4207729247
 30
0.0
 10
414.4335541534
 20
463.2354368694
 30
0.0
 10
415.9949942616
 20
464.898709439
 30
0.0
  0
SPLINE
  5
44E
100
AcDbEntity
  8
0
100
AcDbSpline
 62
7
  6
CONTINUOUS
 70
0
 71
3
 72
8
 73
4
 74
0
 42
0.0000001
 43
0.0000001
 44
0.0000000001
 40
0.0
 40
0.0
 40
0.0
 40
0.0
 40
1.0
 40
1.0
 40
1.0
 40
1.0
 10
415.9949942616
 20
464.898709439
 30
0.0
 10
417.5564337182
 20
466.5619813144
 30
0.0
 10
418.3541256595
 20
468.6835021019
 30
0.0
 10
418.3541256595
 20
471.2972153217
 30
0.0
  0
SPLINE
  5
44F
100
AcDbEntity
  8
0
100
AcDbSpline
 62
7
  6
CONTINUOUS
 70
0
 71
3
 72
8
 73
4
 74
0
 42
0.0000001
 43
0.0000001
 44
0.0000000001
 40
0.0
 40
0.0
 40
0.0
 40
0.0
 40
1.0
 40
1.0
 40
1.0
 40
1.0
 10
418.3541256595
 20
471.2972153217
 30
0.0
 10
418.3541256595
 20
473.6563463003
 30
0.0
 10
417.6412943411
 20
475.5402568966
 30
0.0
 10
416.2495761771
 20
476.9659191698
 30
0.0
  0
SPLINE
  5
450
100
AcDbEntity
  8
0
100
AcDbSpline
 62
7
  6
CONTINUOUS
 70
0
 71
3
 72
8
 73
4
 74
0
 42
0.0000001
 43
0.0000001
 44
0.0000000001
 40
0.0
 40
0.0
 40
0.0
 40
0.0
 40
1.0
 40
1.0
 40
1.0
 40
1.0
 10
416.2495761771
 20
476.9659191698
 30
0.0
 10
414.857858758
 20
478.39158068
 30
0.0
 10
413.0757812071
 20
479.1044119984
 30
0.0
 10
410.9203163195
 20
479.1044119984
 30
0.0
  0
SPLINE
  5
451
100
AcDbEntity
  8
0
100
AcDbSpline
 62
7
  6
CONTINUOUS
 70
0
 71
3
 72
8
 73
4
 74
0
 42
0.0000001
 43
0.0000001
 44
0.0000000001
 40
0.0
 40
0.0
 40
0.0
 40
0.0
 40
1.0
 40
1.0
 40
1.0
 40
1.0
 10
410.9203163195
 20
479.1044119984
 30
0.0
 10
409.3928213823
 20
479.1044119984
 30
0.0
 10
407.950187813
 20
478.6461625487
 30
0.0
 10
406.5924141216
 20
477.7296666295
 30
0.0
  0
SPLINE
  5
452
100
AcDbEntity
  8
0
100
AcDbSpline
 62
7
  6
CONTINUOUS
 70
0
 71
3
 72
8
 73
4
 74
0
 42
0.0000001
 43
0.0000001
 44
0.0000000001
 40
0.0
 40
0.0
 40
0.0
 40
0.0
 40
1.0
 40
1.0
 40
1.0
 40
1.0
 10
406.5075534987
 20
473.4696526319
 30
0.0
 10
407.424050163
 20
474.5219271869
 30
0.0
 10
408.5442136633
 20
475.0650365144
 30
0.0
 10
409.8850141871
 20
475.0650365144
 30
0.0
  0
SPLINE
  5
453
100
AcDbEntity
  8
0
100
AcDbSpline
 62
7
  6
CONTINUOUS
 70
0
 71
3
 72
8
 73
4
 74
0
 42
0.0000001
 43
0.0000001
 44
0.0000000001
 40
0.0
 40
0.0
 40
0.0
 40
0.0
 40
1.0
 40
1.0
 40
1.0
 40
1.0
 10
409.8850141871
 20
475.0650365144
 30
0.0
 10
412.2441451657
 20
475.0650365144
 30
0.0
 10
413.4321976113
 20
473.6224022001
 30
0.0
 10
413.4321976113
 20
470.7541059941
 30
0.0
  0
SPLINE
  5
454
100
AcDbEntity
  8
0
100
AcDbSpline
 62
7
  6
CONTINUOUS
 70
0
 71
3
 72
8
 73
4
 74
0
 42
0.0000001
 43
0.0000001
 44
0.0000000001
 40
0.0
 40
0.0
 40
0.0
 40
0.0
 40
1.0
 40
1.0
 40
1.0
 40
1.0
 10
413.4321976113
 20
470.7541059941
 30
0.0
 10
413.4321976113
 20
469.3623889476
 30
0.0
 10
413.0757812071
 20
468.2931423426
 30
0.0
 10
412.3841697377
 20
467.5593591577
 30
0.0
  0
SPLINE
  5
455
100
AcDbEntity
  8
0
100
AcDbSpline
 62
7
  6
CONTINUOUS
 70
0
 71
3
 72
8
 73
4
 74
0
 42
0.0000001
 43
0.0000001
 44
0.0000000001
 40
0.0
 40
0.0
 40
0.0
 40
0.0
 40
1.0
 40
1.0
 40
1.0
 40
1.0
 10
412.3841697377
 20
467.5593591577
 30
0.0
 10
411.6840641606
 20
466.8165639282
 30
0.0
 10
410.818483274
 20
466.460148269
 30
0.0
 10
409.7831811416
 20
466.460148269
 30
0.0
  0
SPLINE
  5
456
100
AcDbEntity
  8
0
100
AcDbSpline
 62
7
  6
CONTINUOUS
 70
0
 71
3
 72
8
 73
4
 74
0
 42
0.0000001
 43
0.0000001
 44
0.0000000001
 40
0.0
 40
0.0
 40
0.0
 40
0.0
 40
1.0
 40
1.0
 40
1.0
 40
1.0
 10
409.7831811416
 20
466.460148269
 30
0.0
 10
408.9006285775
 20
466.460148269
 30
0.0
 10
408.2217421043
 20
466.6638143599
 30
0.0
 10
407.7253646082
 20
467.1002842595
 30
0.0
  0
SPLINE
  5
457
100
AcDbEntity
  8
0
100
AcDbSpline
 62
7
  6
CONTINUOUS
 70
0
 71
3
 72
8
 73
4
 74
0
 42
0.0000001
 43
0.0000001
 44
0.0000000001
 40
0.0
 40
0.0
 40
0.0
 40
0.0
 40
1.0
 40
1.0
 40
1.0
 40
1.0
 10
407.7253646082
 20
467.1002842595
 30
0.0
 10
407.2373564946
 20
467.529394874
 30
0.0
 10
406.7960802126
 20
468.3440588653
 30
0.0
 10
406.4057204532
 20
469.5321101934
 30
0.0
  0
SPLINE
  5
458
100
AcDbEntity
  8
0
100
AcDbSpline
 62
7
  6
CONTINUOUS
 70
0
 71
3
 72
8
 73
4
 74
0
 42
0.0000001
 43
0.0000001
 44
0.0000000001
 40
0.0
 40
0.0
 40
0.0
 40
0.0
 40
1.0
 40
1.0
 40
1.0
 40
1.0
 10
401.4837924982
 20
469.5321101934
 30
0.0
 10
401.9420409235
 20
466.9523410738
 30
0.0
 10
402.8585379603
 20
465.1193471864
 30
0.0
 10
404.2502555304
 20
464.0331285793
 30
0.0
  0
SPLINE
  5
459
100
AcDbEntity
  8
BEZUGSACHSEN
100
AcDbSpline
 62
7
  6
CONTINUOUS
 70
0
 71
3
 72
9
 73
5
 74
0
 42
0.0000001
 43
0.0000001
 44
0.0000000001
 40
0.0
 40
0.0
 40
0.0
 40
0.0
 40
0.2482391579
 40
1.0
 40
1.0
 40
1.0
 40
1.0
 10
1028.5021495396
 20
586.9652175823
 30
0.0
 10
1028.5022898512
 20
586.7701891687
 30
0.0
 10
1028.5299291362
 20
585.9848724041
 30
0.0
 10
1028.6680050166
 20
585.2028162334
 30
0.0
 10
1028.8355277509
 20
584.6364533348
 30
0.0
  0
SPLINE
  5
45A
100
AcDbEntity
  8
RUNDUNGEN
100
AcDbSpline
 62
7
  6
CONTINUOUS
 70
0
 71
3
 72
9
 73
5
 74
0
 42
0.0000001
 43
0.0000001
 44
0.0000000001
 40
0.0
 40
0.0
 40
0.0
 40
0.0
 40
0.2482391579
 40
1.0
 40
1.0
 40
1.0
 40
1.0
 10
988.5021451491
 20
586.9652175823
 30
0.0
 10
988.5020048375
 20
586.7701891687
 30
0.0
 10
988.4743655525
 20
585.9848724041
 30
0.0
 10
988.3362896721
 20
585.2028162334
 30
0.0
 10
988.1687669378
 20
584.6364533348
 30
0.0
  0
SPLINE
  5
45B
100
AcDbEntity
  8
RUNDUNGEN
100
AcDbSpline
 62
7
  6
CONTINUOUS
 70
0
 71
3
 72
14
 73
10
 74
0
 42
0.0000001
 43
0.0000001
 44
0.0000000001
 40
0.0
 40
0.0
 40
0.0
 40
0.0
 40
0.0566526223
 40
0.1172308559
 40
0.2425054308
 40
0.3693014739
 40
0.4961463923
 40
0.748744791
 40
1.0
 40
1.0
 40
1.0
 40
1.0
 10
988.1687669391
 20
584.6364759057
 30
0.0
 10
987.9447363756
 20
583.9747146208
 30
0.0
 10
987.4785508426
 20
582.6062097583
 30
0.0
 10
986.5425611669
 20
579.7657628706
 30
0.0
 10
985.4213142808
 20
576.0758263393
 30
0.0
 10
984.2421094638
 20
571.5526768831
 30
0.0
 10
982.9302917748
 20
565.4472306704
 30
0.0
 10
981.8155059095
 20
557.7379823825
 30
0.0
 10
981.507886787
 20
551.5211399143
 30
0.0
 10
981.5023055901
 20
548.422603339
 30
0.0
  0
SPLINE
  5
45C
100
AcDbEntity
  8
BEZUGSACHSEN
100
AcDbSpline
 62
7
  6
CONTINUOUS
 70
0
 71
3
 72
14
 73
10
 74
0
 42
0.0000001
 43
0.0000001
 44
0.0000000001
 40
0.0
 40
0.0
 40
0.0
 40
0.0
 40
0.05665262
 40
0.1172308504
 40
0.2425054214
 40
0.3693014637
 40
0.4961463832
 40
0.7487447862
 40
1.0
 40
1.0
 40
1.0
 40
1.0
 10
1028.8355277496
 20
584.6364759057
 30
0.0
 10
1029.0595580872
 20
583.9747152879
 30
0.0
 10
1029.5257431466
 20
582.6062118141
 30
0.0
 10
1030.4617319321
 20
579.7657678024
 30
0.0
 10
1031.5829778954
 20
576.075834994
 30
0.0
 10
1032.7621820157
 20
571.5526900778
 30
0.0
 10
1034.0739993634
 20
565.4472499154
 30
0.0
 10
1035.1887858888
 20
557.738009234
 30
0.0
 10
1035.496406705
 20
551.5211727876
 30
0.0
 10
1035.5019890341
 20
548.4226391532
 30
0.0
  0
SPLINE
  5
45D
100
AcDbEntity
  8
BEZUGSACHSEN
100
AcDbSpline
 62
7
  6
CONTINUOUS
 70
0
 71
3
 72
13
 73
9
 74
0
 42
0.0000001
 43
0.0000001
 44
0.0000000001
 40
0.0
 40
0.0
 40
0.0
 40
0.0
 40
0.2413600766
 40
0.4749490076
 40
0.5962126139
 40
0.7240971901
 40
0.8595788252
 40
1.0
 40
1.0
 40
1.0
 40
1.0
 10
606.231432519
 20
93.6297305157
 30
0.0
 10
605.7998326276
 20
92.7753425606
 30
0.0
 10
604.8630640272
 20
91.1353948868
 30
0.0
 10
603.3542736317
 20
89.2894858281
 30
0.0
 10
601.874603919
 20
88.0644239682
 30
0.0
 10
600.5510232295
 20
87.2895833309
 30
0.0
 10
599.0278802176
 20
86.7602340814
 30
0.0
 10
597.9297029388
 20
86.6333658989
 30
0.0
 10
597.3728046572
 20
86.6333658989
 30
0.0
  0
SPLINE
  5
45E
100
AcDbEntity
  8
BEZUGSACHSEN
100
AcDbSpline
 62
7
  6
CONTINUOUS
 70
0
 71
3
 72
13
 73
9
 74
0
 42
0.0000001
 43
0.0000001
 44
0.0000000001
 40
0.0
 40
0.0
 40
0.0
 40
0.0
 40
0.2413600766
 40
0.4749490076
 40
0.5962126139
 40
0.7240971901
 40
0.8595788252
 40
1.0
 40
1.0
 40
1.0
 40
1.0
 10
248.7961522913
 20
93.6297305157
 30
0.0
 10
249.2277521826
 20
92.7753425606
 30
0.0
 10
250.1645207831
 20
91.1353948868
 30
0.0
 10
251.6733111785
 20
89.2894858281
 30
0.0
 10
253.1529808912
 20
88.0644239682
 30
0.0
 10
254.4765615807
 20
87.2895833309
 30
0.0
 10
255.9997045926
 20
86.7602340814
 30
0.0
 10
257.0978818715
 20
86.6333658989
 30
0.0
 10
257.654780153
 20
86.6333658989
 30
0.0
  0
SPLINE
  5
45F
100
AcDbEntity
  8
BEZUGSACHSEN
100
AcDbSpline
 62
7
  6
CONTINUOUS
 70
0
 71
3
 72
13
 73
9
 74
0
 42
0.0000001
 43
0.0000001
 44
0.0000000001
 40
0.0
 40
0.0
 40
0.0
 40
0.0
 40
0.2413600766
 40
0.4749490076
 40
0.5962126139
 40
0.7240971901
 40
0.8595788252
 40
1.0
 40
1.0
 40
1.0
 40
1.0
 10
606.231432519
 20
133.6370012821
 30
0.0
 10
605.7998326276
 20
134.4913892372
 30
0.0
 10
604.8630640272
 20
136.131336911
 30
0.0
 10
603.3542736317
 20
137.9772459697
 30
0.0
 10
601.874603919
 20
139.2023078296
 30
0.0
 10
600.5510232296
 20
139.9771484669
 30
0.0
 10
599.0278802176
 20
140.5064977164
 30
0.0
 10
597.9297029388
 20
140.6333658989
 30
0.0
 10
597.3728046572
 20
140.6333658989
 30
0.0
  0
SPLINE
  5
460
100
AcDbEntity
  8
RUNDUNGEN
100
AcDbSpline
 62
7
  6
CONTINUOUS
 70
0
 71
3
 72
13
 73
9
 74
0
 42
0.0000001
 43
0.0000001
 44
0.0000000001
 40
0.0
 40
0.0
 40
0.0
 40
0.0
 40
0.2413600766
 40
0.4749490076
 40
0.5962126139
 40
0.7240971901
 40
0.8595788252
 40
1.0
 40
1.0
 40
1.0
 40
1.0
 10
248.7961522913
 20
133.6370012821
 30
0.0
 10
249.2277521826
 20
134.4913892372
 30
0.0
 10
250.1645207831
 20
136.131336911
 30
0.0
 10
251.6733111785
 20
137.9772459697
 30
0.0
 10
253.1529808912
 20
139.2023078296
 30
0.0
 10
254.4765615807
 20
139.9771484669
 30
0.0
 10
255.9997045926
 20
140.5064977164
 30
0.0
 10
257.0978818715
 20
140.6333658989
 30
0.0
 10
257.654780153
 20
140.6333658989
 30
0.0
  0
ENDSEC
  0
SECTION
  2
OBJECTS
  0
DICTIONARY
  5
C
100
AcDbDictionary
280
0
281
1
  3
ACAD_GROUP
350
D
  3
ACAD_MLINESTYLE
350
17
  3
ACAD_LAYOUT
350
1A
  3
ACAD_PLOTSETTINGS
350
19
  3
ACAD_PLOTSTYLENAME
350
E
  0
DICTIONARY
  5
D
102
{ACAD_REACTORS
330
C
102
}
100
AcDbDictionary
280
0
281
1
  0
ACDBDICTIONARYWDFLT
  5
E
102
{ACAD_REACTORS
330
C
102
}
100
AcDbDictionary
281
1
  3
Normal
350
F
100
AcDbDictionaryWithDefault
340
F
  0
DICTIONARY
  5
17
102
{ACAD_REACTORS
330
C
102
}
100
AcDbDictionary
280
0
281
1
  3
Standard
350
18
  0
DICTIONARY
  5
19
102
{ACAD_REACTORS
330
C
102
}
100
AcDbDictionary
281
1
  0
DICTIONARY
  5
1A
102
{ACAD_REACTORS
330
C
102
}
100
AcDbDictionary
281
1
  3
Model
350
461
  3
Layout1
350
462
  0
ACDBPLACEHOLDER
  5
F
102
{ACAD_REACTORS
330
E
102
}
  0
MLINESTYLE
  5
18
102
{ACAD_REACTORS
330
17
102
}
100
AcDbMlineStyle
  2
STANDARD
 70
0
  3

 62
256
 51
90.0
 52
90.0
 71
2
 49
0.5
 62
256
  6
BYLAYER
 49
-0.5
 62
256
  6
BYLAYER
  0
LAYOUT
  5
461
102
{ACAD_REACTORS
330
1A
102
}
100
AcDbPlotSettings
  1

  2
none_device
  4
ISO_A0_(1189.00_x_841.00_MM)
  6

 40
0.0
 41
0.0
 42
0.0
 43
0.0
 44
1189.0
 45
841.0
 46
0.0
 47
0.0
 48
0.0
 49
0.0
140
0.0
141
0.0
142
1.0
143
1.0
 70
1024
 72
1
 73
0
 74
0
  7

 75
0
147
1.0
148
0.0
149
0.0
100
AcDbLayout
  1
Model
 70
0
 71
0
 10
0.0
 20
0.0
 11
1189.0
 21
841.0
 12
0.0
 22
0.0
 32
0.0
 14
0.0
 24
0.0
 34
0.0
 15
0.0
 25
0.0
 35
0.0
146
0.0
 13
0.0
 23
0.0
 33
0.0
 16
1.0
 26
0.0
 36
0.0
 17
0.0
 27
1.0
 37
0.0
 76
0
330
20B
345
0
346
0
  0
LAYOUT
  5
462
102
{ACAD_REACTORS
330
1A
102
}
100
AcDbPlotSettings
  1

  2
none_device
  4
ISO_A0_(1189.00_x_841.00_MM)
  6

 40
0.0
 41
0.0
 42
0.0
 43
0.0
 44
1189.0
 45
841.0
 46
0.0
 47
0.0
 48
0.0
 49
0.0
140
0.0
141
0.0
142
1.0
143
1.0
 70
0
 72
1
 73
0
 74
0
  7

 75
0
147
1.0
148
0.0
149
0.0
100
AcDbLayout
  1
Layout1
 70
0
 71
1
 10
0.0
 20
0.0
 11
1189.0
 21
841.0
 12
0.0
 22
0.0
 32
0.0
 14
0.0
 24
0.0
 34
0.0
 15
0.0
 25
0.0
 35
0.0
146
0.0
 13
0.0
 23
0.0
 33
0.0
 16
1.0
 26
0.0
 36
0.0
 17
0.0
 27
1.0
 37
0.0
 76
0
330
20C
345
0
346
0
  0
ENDSEC
  0
EOF
