999
DXF file: VRBK-FIX-4t-7902149-M34419-P-1.dxf
999
Pro/ENGINEER 2011490 by Parametric Technology Corporation
  0
SECTION
  2
HEADER
  9
$ACADVER
  1
AC1015
  9
$DWGCODEPAGE
  3
ANSI_1252
  9
$EXTMAX
 10
420.0
 20
297.0
 30
0.0
  9
$EXTMIN
 10
0.0
 20
0.0
 30
0.0
  9
$LIMMIN
 10
0.0
 20
0.0
  9
$LIMMAX
 10
420.0
 20
297.0
  9
$VIEWCTR
 10
210.0
 20
148.5
  9
$VIEWSIZE
 40
297.0
  9
$CLAYER
  8
0
  9
$LTSCALE
 40
23.1
  9
$CELTYPE
  6
BYLAYER
  9
$DIMSCALE
 40
1.0
  9
$DIMASZ
 40
3.5
  9
$DIMEXO
 40
2.625
  9
$DIMDLI
 40
15.96
  9
$DIMEXE
 40
7.56
  9
$DIMCEN
 40
3.78
  9
$DIMLFAC
 40
1.0
  9
$DIMBLK
  1
_FILLED
  9
$DIMTXT
 40
3.5
  9
$DIMTOL
 70
1
  9
$DIMLIM
 70
0
  9
$DIMTFAC
 40
1.0
  9
$DIMTP
 40
0.005
  9
$DIMTM
 40
0.005
  9
$PDMODE
 70
3
  9
$PDSIZE
 40
0.3125
  9
$HANDSEED
  5
718
  9
$TILEMODE
 70
1
  9
$MEASUREMENT
 70
1
  9
$INSUNITS
 70
4
  0
ENDSEC
  0
SECTION
  2
CLASSES
  0
CLASS
  1
ACDBDICTIONARYWDFLT
  2
AcDbDictionaryWithDefault
  3
AutoCAD 2000
 90
0
280
0
281
0
  0
CLASS
  1
ACDBPLACEHOLDER
  2
AcDbPlaceHolder
  3
AutoCAD 2000
 90
0
280
0
281
0
  0
CLASS
  1
LAYOUT
  2
AcDbLayout
  3
AutoCAD 2000
 90
0
280
0
281
0
  0
ENDSEC
  0
SECTION
  2
TABLES
  0
TABLE
  2
VPORT
  5
8
100
AcDbSymbolTable
 70
2
  0
VPORT
  5
1F4
100
AcDbSymbolTableRecord
100
AcDbViewportTableRecord
  2
*ACTIVE
 70
0
 10
0.0
 20
0.0
 11
1.0
 21
1.0
 12
210.0
 22
148.5
 13
0.0
 23
0.0
 14
1.0
 24
1.0
 15
0.0
 25
0.0
 16
0.0
 26
0.0
 36
1.0
 17
0.0
 27
0.0
 37
0.0
 40
297.0
 41
1.4141414141
 42
50.0
 43
0.0
 44
0.0
 50
0.0
 51
0.0
 71
0
 72
100
 73
1
 74
1
 75
0
 76
0
 77
0
 78
0
  0
ENDTAB
  0
TABLE
  2
LTYPE
  5
5
100
AcDbSymbolTable
 70
6
  0
LTYPE
  5
14
100
AcDbSymbolTableRecord
100
AcDbLinetypeTableRecord
  2
BYBLOCK
 70
0
  3

 72
65
 73
0
 40
0.0
  0
LTYPE
  5
15
100
AcDbSymbolTableRecord
100
AcDbLinetypeTableRecord
  2
BYLAYER
 70
0
  3

 72
65
 73
0
 40
0.0
  0
LTYPE
  5
16
100
AcDbSymbolTableRecord
100
AcDbLinetypeTableRecord
  2
CONTINUOUS
 70
64
  3
Solid line
 72
65
 73
0
 40
0.0
  0
LTYPE
  5
1F5
100
AcDbSymbolTableRecord
100
AcDbLinetypeTableRecord
  2
CENTER
 70
64
  3
____ _ ____ _ ____ _ ____ _ ____ _ ____ _ ____
 72
65
 73
4
 40
0.6
 49
0.375
 74
0
 49
-0.075
 74
0
 49
0.075
 74
0
 49
-0.075
 74
0
  0
LTYPE
  5
1F6
100
AcDbSymbolTableRecord
100
AcDbLinetypeTableRecord
  2
HIDDEN
 70
64
  3
- - - - - - - - - - - - - - - - - - - -
 72
65
 73
2
 40
0.2
 49
0.1
 74
0
 49
-0.1
 74
0
  0
LTYPE
  5
1F7
100
AcDbSymbolTableRecord
100
AcDbLinetypeTableRecord
  2
PHANTOM
 70
64
  3
_____ _ _ _____ _ _ _____ _ _ _____
 72
65
 73
6
 40
0.8
 49
0.45
 74
0
 49
-0.05
 74
0
 49
0.1
 74
0
 49
-0.05
 74
0
 49
0.1
 74
0
 49
-0.05
 74
0
  0
LTYPE
  5
1F8
100
AcDbSymbolTableRecord
100
AcDbLinetypeTableRecord
  2
DOT
 70
64
  3
. . . . . . . . . . . . . . . . . . . .
 72
65
 73
2
 40
0.2
 49
0.1
 74
0
 49
-0.1
 74
0
  0
LTYPE
  5
1F9
100
AcDbSymbolTableRecord
100
AcDbLinetypeTableRecord
  2
DASHED
 70
64
  3
- - - - - - - - - - - - - - - - - - - -
 72
65
 73
2
 40
0.2
 49
0.1
 74
0
 49
-0.1
 74
0
  0
ENDTAB
  0
TABLE
  2
LAYER
  5
2
100
AcDbSymbolTable
 70
36
  0
LAYER
  5
10
100
AcDbSymbolTableRecord
100
AcDbLayerTableRecord
  2
0
 70
0
 62
7
  6
CONTINUOUS
370
-3
390
F
  0
LAYER
  5
1FA
100
AcDbSymbolTableRecord
100
AcDbLayerTableRecord
  2
DEFAULT_1
 70
0
 62
7
  6
CENTER
370
-3
390
F
  0
LAYER
  5
1FB
100
AcDbSymbolTableRecord
100
AcDbLayerTableRecord
  2
DEFAULT_2
 70
0
 62
8
  6
HIDDEN
370
-3
390
F
  0
LAYER
  5
1FC
100
AcDbSymbolTableRecord
100
AcDbLayerTableRecord
  2
DEFAULT_3
 70
0
 62
7
  6
PHANTOM
370
-3
390
F
  0
LAYER
  5
1FD
100
AcDbSymbolTableRecord
100
AcDbLayerTableRecord
  2
AUSFORMSCHRAEGEN
 70
0
 62
7
  6
CONTINUOUS
370
-3
390
F
  0
LAYER
  5
1FE
100
AcDbSymbolTableRecord
100
AcDbLayerTableRecord
  2
BEZUGSACHSEN
 70
0
 62
7
  6
CONTINUOUS
370
-3
390
F
  0
LAYER
  5
1FF
100
AcDbSymbolTableRecord
100
AcDbLayerTableRecord
  2
BEZUGSEBENEN
 70
0
 62
7
  6
CONTINUOUS
370
-3
390
F
  0
LAYER
  5
200
100
AcDbSymbolTableRecord
100
AcDbLayerTableRecord
  2
BG_STARTBEZUEGE
 70
0
 62
7
  6
CONTINUOUS
370
-3
390
F
  0
LAYER
  5
201
100
AcDbSymbolTableRecord
100
AcDbLayerTableRecord
  2
FASEN
 70
0
 62
7
  6
CONTINUOUS
370
-3
390
F
  0
LAYER
  5
202
100
AcDbSymbolTableRecord
100
AcDbLayerTableRecord
  2
FLAECHEN
 70
0
 62
7
  6
CONTINUOUS
370
-3
390
F
  0
LAYER
  5
203
100
AcDbSymbolTableRecord
100
AcDbLayerTableRecord
  2
HILFEN
 70
0
 62
7
  6
CONTINUOUS
370
-3
390
F
  0
LAYER
  5
204
100
AcDbSymbolTableRecord
100
AcDbLayerTableRecord
  2
KONSTRUKTIONSELEMENTE
 70
0
 62
7
  6
CONTINUOUS
370
-3
390
F
  0
LAYER
  5
205
100
AcDbSymbolTableRecord
100
AcDbLayerTableRecord
  2
KURVEN
 70
0
 62
7
  6
CONTINUOUS
370
-3
390
F
  0
LAYER
  5
206
100
AcDbSymbolTableRecord
100
AcDbLayerTableRecord
  2
NORM
 70
0
 62
7
  6
CONTINUOUS
370
-3
390
F
  0
LAYER
  5
207
100
AcDbSymbolTableRecord
100
AcDbLayerTableRecord
  2
PLATZIERUNG
 70
0
 62
7
  6
CONTINUOUS
370
-3
390
F
  0
LAYER
  5
208
100
AcDbSymbolTableRecord
100
AcDbLayerTableRecord
  2
RUNDUNGEN
 70
0
 62
7
  6
CONTINUOUS
370
-3
390
F
  0
LAYER
  5
209
100
AcDbSymbolTableRecord
100
AcDbLayerTableRecord
  2
TEIL_STARTBEZUEGE
 70
0
 62
7
  6
CONTINUOUS
370
-3
390
F
  0
LAYER
  5
20A
100
AcDbSymbolTableRecord
100
AcDbLayerTableRecord
  2
T_STARTBEZUEGE
 70
0
 62
7
  6
CONTINUOUS
370
-3
390
F
  0
LAYER
  5
20B
100
AcDbSymbolTableRecord
100
AcDbLayerTableRecord
  2
XSEC_DATUMS
 70
0
 62
7
  6
CONTINUOUS
370
-3
390
F
  0
LAYER
  5
20C
100
AcDbSymbolTableRecord
100
AcDbLayerTableRecord
  2
ZEICHNUNGSBEMASSUNGEN
 70
0
 62
7
  6
CONTINUOUS
370
-3
390
F
  0
ENDTAB
  0
TABLE
  2
STYLE
  5
3
100
AcDbSymbolTable
 70
1
  0
STYLE
  5
11
100
AcDbSymbolTableRecord
100
AcDbTextStyleTableRecord
  2
STANDARD
 70
0
 40
0.0
 41
0.7
 50
0.0
 71
0
 42
0.2
  3
txt
  4

  0
STYLE
  5
20D
100
AcDbSymbolTableRecord
100
AcDbTextStyleTableRecord
  2
TEXTSTYLE_1
 70
0
 40
0.0
 41
0.8
 50
0.0
 71
0
 42
0.2
  3
gdt
  4

  0
ENDTAB
  0
TABLE
  2
VIEW
  5
6
100
AcDbSymbolTable
 70
0
  0
ENDTAB
  0
TABLE
  2
UCS
  5
7
100
AcDbSymbolTable
 70
0
  0
ENDTAB
  0
TABLE
  2
APPID
  5
9
100
AcDbSymbolTable
 70
1
  0
APPID
  5
20E
100
AcDbSymbolTableRecord
100
AcDbRegAppTableRecord
  2
ACAD
 70
0
  0
ENDTAB
  0
TABLE
  2
BLOCK_RECORD
  5
1
100
AcDbSymbolTable
 70
0
  0
BLOCK_RECORD
  5
20F
100
AcDbSymbolTableRecord
100
AcDbBlockTableRecord
  2
*Model_Space
  0
BLOCK_RECORD
  5
210
100
AcDbSymbolTableRecord
100
AcDbBlockTableRecord
  2
*Paper_Space
  0
ENDTAB
  0
TABLE
  2
DIMSTYLE
  5
A
100
AcDbSymbolTable
 70
1
100
AcDbDimStyleTable
 71
0
  0
DIMSTYLE
105
211
100
AcDbSymbolTableRecord
100
AcDbDimStyleTableRecord
  2
STANDARD
 70
0
  3

  4

 40
1.0
 41
3.5
 42
0.0625
 43
0.38
 44
0.18
 45
0.0
 46
0.0
 47
0.005
 48
0.005
140
3.5
141
0.09
142
0.0
143
25.4
144
1.0
145
0.0
146
1.0
147
0.09
 71
1.0
 72
0.0
 73
0
 74
0
 75
0
 76
0
 77
1
 78
8
170
0
171
2
172
0
173
0
174
0
175
0
176
0
177
0
178
5
270
2
271
3
272
3
273
2
274
2
275
0
280
0
281
0
282
0
283
1
284
8
285
0
286
0
287
3
288
0
340
11
  0
ENDTAB
  0
ENDSEC
  0
SECTION
  2
BLOCKS
  0
BLOCK
  5
20
100
AcDbEntity
  8
0
100
AcDbBlockBegin
  2
*Model_Space
 70
0
 10
0.0
 20
0.0
 30
0.0
  3
*Model_Space
  1

  0
ENDBLK
  5
21
100
AcDbEntity
  8
0
100
AcDbBlockEnd
  0
BLOCK
  5
1C
100
AcDbEntity
  8
0
100
AcDbBlockBegin
  2
*Paper_Space
 70
0
 10
0.0
 20
0.0
 30
0.0
  3
*Paper_Space
  1

  0
ENDBLK
  5
1D
100
AcDbEntity
  8
0
100
AcDbBlockEnd
  0
ENDSEC
  0
SECTION
  2
ENTITIES
  0
MTEXT
  5
212
100
AcDbEntity
  8
0
100
AcDbMText
 62
5
  6
CONTINUOUS
  7
STANDARD
 71
2
 72
1
 10
130.8414645869
 20
267.5088007726
 30
0.0
 11
1.0
 21
0.0
 31
0.0
 44
0.9
  1
-FIX
 40
3.5
 41
10.9166666667
  0
MTEXT
  5
213
100
AcDbEntity
  8
0
100
AcDbMText
 62
5
  6
CONTINUOUS
  7
STANDARD
 71
1
 72
1
 10
111.9196607085
 20
262.4874910025
 30
0.0
 11
0.906307787
 21
0.4226182617
 31
0.0
 44
0.9
  1
VRBK
 40
3.5
 41
11.8333333333
  0
MTEXT
  5
214
100
AcDbEntity
  8
0
100
AcDbMText
 62
5
  6
CONTINUOUS
  7
STANDARD
 71
1
 72
1
 10
141.0187825136
 20
266.2238210321
 30
0.0
 11
0.906307787
 21
-0.4226182617
 31
0.0
 44
0.9
  1
4t
 40
3.5
 41
5.4166666667
  0
MTEXT
  5
215
100
AcDbEntity
  8
0
100
AcDbMText
 62
5
  6
CONTINUOUS
  7
STANDARD
 71
1
 72
1
 10
295.7320916959
 20
227.1447298633
 30
0.0
 11
0.0
 21
1.0
 31
0.0
 44
0.9
  1
RUD VRBK-FIX 4t
 40
3.5
 41
41.0
  0
MTEXT
  5
216
100
AcDbEntity
  8
0
100
AcDbMText
 62
5
  6
CONTINUOUS
  7
STANDARD
 71
1
 72
1
 10
110.7119876912
 20
94.7048284564
 30
0.0
 11
1.0
 21
0.0
 31
0.0
 44
0.9
  1
RUD VRBK-FIX 4t
 40
3.5
 41
41.0
  0
LINE
  5
217
100
AcDbEntity
  8
0
100
AcDbLine
 62
7
  6
CONTINUOUS
 10
0.0
 20
0.0
 11
0.0
 21
297.0
  0
LINE
  5
218
100
AcDbEntity
  8
0
100
AcDbLine
 62
7
  6
CONTINUOUS
 10
0.0
 20
0.0
 11
420.0
 21
0.0
  0
LINE
  5
219
100
AcDbEntity
  8
0
100
AcDbLine
 62
7
  6
CONTINUOUS
 10
0.0
 20
297.0
 11
420.0
 21
297.0
  0
LINE
  5
21A
100
AcDbEntity
  8
0
100
AcDbLine
 62
7
  6
CONTINUOUS
 10
420.0
 20
0.0
 11
420.0
 21
297.0
  0
LINE
  5
21B
100
AcDbEntity
  8
KONSTRUKTIONSELEMENTE
100
AcDbLine
 62
7
  6
CONTINUOUS
 10
59.7335801766
 20
203.030445839
 11
59.7335801766
 21
198.9546495997
  0
LINE
  5
21C
100
AcDbEntity
  8
0
100
AcDbLine
 62
7
  6
CONTINUOUS
 10
59.7335801766
 20
175.0507694534
 11
59.7335801766
 21
170.974973214
  0
LWPOLYLINE
  5
21D
100
AcDbEntity
  8
KONSTRUKTIONSELEMENTE
100
AcDbPolyline
 62
7
  6
CONTINUOUS
 90
9
 70
0
 10
62.3071837611
 20
198.2146064976
 10
62.3063467556
 20
198.2180285676
 10
62.3036953048
 20
198.2297647167
 10
62.3053004695
 20
198.2205412423
 10
62.3095135424
 20
198.1916755642
 10
62.3150113466
 20
198.1454980696
 10
62.3210440353
 20
198.0823225582
 10
62.3269278004
 20
198.0033396485
 10
62.3322570973
 20
197.9076963969
  0
LWPOLYLINE
  5
21E
100
AcDbEntity
  8
KONSTRUKTIONSELEMENTE
100
AcDbPolyline
 62
7
  6
CONTINUOUS
 90
3
 70
0
 10
62.3322570973
 20
197.9076963969
 10
62.3366332038
 20
197.7949368124
 10
62.3396815854
 20
197.6640863074
  0
LWPOLYLINE
  5
21F
100
AcDbEntity
  8
KONSTRUKTIONSELEMENTE
100
AcDbPolyline
 62
7
  6
CONTINUOUS
 90
3
 70
0
 10
62.3396815854
 20
197.6640863074
 10
62.3409926537
 20
197.5139957074
 10
62.3410145773
 20
197.4899346458
  0
LINE
  5
220
100
AcDbEntity
  8
0
100
AcDbLine
 62
7
  6
CONTINUOUS
 10
62.3410145773
 20
197.4899346458
 11
62.3410146542
 21
197.4895353573
  0
LWPOLYLINE
  5
221
100
AcDbEntity
  8
0
100
AcDbPolyline
 62
7
  6
CONTINUOUS
 90
10
 70
0
 10
62.3410146542
 20
197.4895353573
 10
62.3405021969
 20
197.3750829373
 10
62.3353154269
 20
197.0923250541
 10
62.3242907971
 20
196.779668863
 10
62.3071368909
 20
196.4399978644
 10
62.2837267285
 20
196.0760773457
 10
62.2539372964
 20
195.6907881942
 10
62.2178259478
 20
195.287339357
 10
62.1754529904
 20
194.8689130176
 10
62.1269756316
 20
194.4388702209
  0
LWPOLYLINE
  5
222
100
AcDbEntity
  8
0
100
AcDbPolyline
 62
7
  6
CONTINUOUS
 90
3
 70
0
 10
59.75652928
 20
175.4212504226
 10
59.7405239455
 20
175.2552949288
 10
59.7335809751
 20
175.0510755098
  0
LINE
  5
223
100
AcDbEntity
  8
0
100
AcDbLine
 62
7
  6
CONTINUOUS
 10
59.7565429829
 20
175.4212487045
 11
62.1269756316
 21
194.4388702209
  0
LINE
  5
224
100
AcDbEntity
  8
KONSTRUKTIONSELEMENTE
100
AcDbLine
 62
7
  6
CONTINUOUS
 10
200.2750422998
 20
168.9646672958
 11
200.444861926
 21
169.0040017019
  0
LINE
  5
225
100
AcDbEntity
  8
0
100
AcDbLine
 62
7
  6
CONTINUOUS
 10
60.1998384001
 20
168.9646672958
 11
60.0300187739
 21
169.0040017019
  0
LWPOLYLINE
  5
226
100
AcDbEntity
  8
KONSTRUKTIONSELEMENTE
100
AcDbPolyline
 62
7
  6
CONTINUOUS
 90
5
 70
0
 10
64.5549310938
 20
215.0606552285
 10
62.4035713393
 20
209.5047783487
 10
61.4140036479
 20
207.0202477831
 10
60.4683957686
 20
204.7575500947
 10
59.7584162128
 20
203.1554965183
  0
LINE
  5
227
100
AcDbEntity
  8
KONSTRUKTIONSELEMENTE
100
AcDbLine
 62
7
  6
CONTINUOUS
 10
65.7058503631
 20
217.9696767872
 11
64.5549310938
 21
215.0606552285
  0
LINE
  5
228
100
AcDbEntity
  8
KONSTRUKTIONSELEMENTE
100
AcDbLine
 62
7
  6
CONTINUOUS
 10
65.7050532831
 20
217.9677024044
 11
65.7058503631
 21
217.9696767872
  0
LINE
  5
229
100
AcDbEntity
  8
KONSTRUKTIONSELEMENTE
100
AcDbLine
 62
7
  6
CONTINUOUS
 10
200.2651369322
 20
168.9614328805
 11
174.7586524802
 21
165.7812332867
  0
LINE
  5
22A
100
AcDbEntity
  8
0
100
AcDbLine
 62
7
  6
CONTINUOUS
 10
85.7162282197
 20
165.7812332867
 11
60.2097437677
 21
168.9614328805
  0
LINE
  5
22B
100
AcDbEntity
  8
0
100
AcDbLine
 62
7
  6
CONTINUOUS
 10
75.0999405884
 20
216.5387526776
 11
75.0999405884
 21
216.8934431031
  0
LINE
  5
22C
100
AcDbEntity
  8
0
100
AcDbLine
 62
7
  6
CONTINUOUS
 10
75.0999405884
 20
218.6600730211
 11
75.0999405884
 21
219.0147634467
  0
LINE
  5
22D
100
AcDbEntity
  8
0
100
AcDbLine
 62
7
  6
CONTINUOUS
 10
75.5999401115
 20
216.5387526776
 11
75.5999401115
 21
216.8934431031
  0
LINE
  5
22E
100
AcDbEntity
  8
0
100
AcDbLine
 62
7
  6
CONTINUOUS
 10
76.9749405884
 20
219.0147634467
 11
76.9749405884
 21
218.3302802666
  0
LINE
  5
22F
100
AcDbEntity
  8
0
100
AcDbLine
 62
7
  6
CONTINUOUS
 10
76.9749405884
 20
216.5387526776
 11
76.9749405884
 21
217.973450693
  0
LINE
  5
230
100
AcDbEntity
  8
0
100
AcDbLine
 62
7
  6
CONTINUOUS
 10
77.3499405884
 20
216.5387526776
 11
77.3499405884
 21
219.0147634467
  0
LWPOLYLINE
  5
231
100
AcDbEntity
  8
0
100
AcDbPolyline
 62
7
  6
CONTINUOUS
 90
44
 70
0
 10
85.7160515574
 20
165.7812723493
 10
85.7831275375
 20
165.774054281
 10
85.8759119399
 20
165.7678203844
 10
85.9678532063
 20
165.7659031751
 10
86.0587713003
 20
165.768165229
 10
86.1484989349
 20
165.7744651082
 10
86.2368812273
 20
165.7846582133
 10
86.323775333
 20
165.7985975741
 10
86.4090499988
 20
165.8161345688
 10
86.4925854036
 20
165.837119656
 10
86.5742725528
 20
165.8614029843
 10
86.6540124143
 20
165.8888348114
 10
86.7317160887
 20
165.919266186
 10
86.80730351
 20
165.9525490788
 10
86.8807036151
 20
165.9885369749
 10
86.95185441
 20
166.0270855476
 10
87.0207016546
 20
166.0680525997
 10
87.0871992865
 20
166.1112988683
 10
87.1513081103
 20
166.156687808
 10
87.212995932
 20
166.204086192
 10
87.2722369032
 20
166.2533642022
 10
87.3290100801
 20
166.3043946681
 10
87.383283037
 20
166.3570367692
 10
87.4350971175
 20
166.4112224614
 10
87.4844697379
 20
166.4668706289
 10
87.5314360855
 20
166.5239305006
 10
87.5761136968
 20
166.5824790084
 10
87.61825112
 20
166.6421045841
 10
87.6578055426
 20
166.7026166975
 10
87.6944646456
 20
166.7633291113
 10
87.728012497
 20
166.8235360015
 10
87.7585280713
 20
166.8829362904
 10
87.7857146785
 20
166.9403610182
 10
87.8107074837
 20
166.9977261853
 10
87.8344047223
 20
167.0571246126
 10
87.8563093861
 20
167.1174840161
 10
87.8769758152
 20
167.1806015362
 10
87.8946920668
 20
167.2408805432
 10
87.9085327462
 20
167.2929744615
 10
87.9199872621
 20
167.3399648138
 10
87.929637779
 20
167.3823930691
 10
87.9384699004
 20
167.4233289284
 10
87.9470461361
 20
167.4647109153
 10
88.1526873818
 20
168.496480762
  0
LINE
  5
232
100
AcDbEntity
  8
0
100
AcDbLine
 62
7
  6
CONTINUOUS
 10
77.8499401115
 20
217.0661307601
 11
77.8499401115
 21
217.6069152244
  0
LINE
  5
233
100
AcDbEntity
  8
0
100
AcDbLine
 62
7
  6
CONTINUOUS
 10
77.8499401115
 20
217.9766115621
 11
77.8499401115
 21
218.5483666886
  0
LINE
  5
234
100
AcDbEntity
  8
0
100
AcDbLine
 62
7
  6
CONTINUOUS
 10
77.9124405884
 20
216.9241791425
 11
77.9124405884
 21
217.2782258413
  0
LINE
  5
235
100
AcDbEntity
  8
0
100
AcDbLine
 62
7
  6
CONTINUOUS
 10
77.9124405884
 20
217.8440117894
 11
77.9124405884
 21
218.19760668
  0
LINE
  5
236
100
AcDbEntity
  8
0
100
AcDbLine
 62
7
  6
CONTINUOUS
 10
78.0999405884
 20
216.7327202831
 11
78.0999405884
 21
217.0870553997
  0
LINE
  5
237
100
AcDbEntity
  8
0
100
AcDbLine
 62
7
  6
CONTINUOUS
 10
78.0999405884
 20
217.9281645944
 11
78.0999405884
 21
218.018585163
  0
LINE
  5
238
100
AcDbEntity
  8
0
100
AcDbLine
 62
7
  6
CONTINUOUS
 10
78.2249401115
 20
217.4669603611
 11
78.2249401115
 21
217.5604154804
  0
LINE
  5
239
100
AcDbEntity
  8
0
100
AcDbLine
 62
7
  6
CONTINUOUS
 10
78.2249401115
 20
218.374201276
 11
78.2249401115
 21
218.5050532322
  0
LINE
  5
23A
100
AcDbEntity
  8
0
100
AcDbLine
 62
7
  6
CONTINUOUS
 10
78.2874405884
 20
217.3458193191
 11
78.2874405884
 21
217.6994593127
  0
LINE
  5
23B
100
AcDbEntity
  8
0
100
AcDbLine
 62
7
  6
CONTINUOUS
 10
78.2874405884
 20
218.280552458
 11
78.2874405884
 21
218.6345374445
  0
LINE
  5
23C
100
AcDbEntity
  8
0
100
AcDbLine
 62
7
  6
CONTINUOUS
 10
78.3499403499
 20
216.587480173
 11
78.3499403499
 21
216.9420754693
  0
LINE
  5
23D
100
AcDbEntity
  8
0
100
AcDbLine
 62
7
  6
CONTINUOUS
 10
78.4124401115
 20
217.4378015593
 11
78.4124401115
 21
217.7913964498
  0
LINE
  5
23E
100
AcDbEntity
  8
0
100
AcDbLine
 62
7
  6
CONTINUOUS
 10
78.4124401115
 20
218.3659869873
 11
78.4124401115
 21
218.720099548
  0
LINE
  5
23F
100
AcDbEntity
  8
0
100
AcDbLine
 62
7
  6
CONTINUOUS
 10
78.5999401115
 20
217.4835589919
 11
78.5999401115
 21
217.8371374856
  0
LINE
  5
240
100
AcDbEntity
  8
0
100
AcDbLine
 62
7
  6
CONTINUOUS
 10
78.5999401115
 20
218.4084695524
 11
78.5999401115
 21
218.7626521318
  0
LINE
  5
241
100
AcDbEntity
  8
0
100
AcDbLine
 62
7
  6
CONTINUOUS
 10
78.6624405884
 20
216.5387526776
 11
78.6624405884
 21
216.8934431031
  0
LINE
  5
242
100
AcDbEntity
  8
0
100
AcDbLine
 62
7
  6
CONTINUOUS
 10
79.7874405884
 20
218.7626521318
 11
79.7874405884
 21
218.1083992121
  0
LINE
  5
243
100
AcDbEntity
  8
0
100
AcDbLine
 62
7
  6
CONTINUOUS
 10
79.7874405884
 20
217.8371374856
 11
79.7874405884
 21
217.1829454582
  0
LINE
  5
244
100
AcDbEntity
  8
0
100
AcDbLine
 62
7
  6
CONTINUOUS
 10
80.1624402307
 20
216.5387526776
 11
80.1624402307
 21
219.0147634467
  0
LINE
  5
245
100
AcDbEntity
  8
0
100
AcDbLine
 62
7
  6
CONTINUOUS
 10
80.6624404692
 20
218.6600730211
 11
80.6624404692
 21
219.0147634467
  0
LINE
  5
246
100
AcDbEntity
  8
0
100
AcDbLine
 62
7
  6
CONTINUOUS
 10
80.7249402307
 20
217.0661307601
 11
80.7249402307
 21
217.6069152244
  0
LINE
  5
247
100
AcDbEntity
  8
0
100
AcDbLine
 62
7
  6
CONTINUOUS
 10
80.7874403499
 20
216.9241791425
 11
80.7874403499
 21
217.2782258413
  0
LINE
  5
248
100
AcDbEntity
  8
0
100
AcDbLine
 62
7
  6
CONTINUOUS
 10
80.9749403499
 20
216.7327202831
 11
80.9749403499
 21
217.0870553997
  0
LINE
  5
249
100
AcDbEntity
  8
0
100
AcDbLine
 62
7
  6
CONTINUOUS
 10
81.0999402307
 20
217.4200047459
 11
81.0999402307
 21
217.5604154804
  0
LINE
  5
24A
100
AcDbEntity
  8
0
100
AcDbLine
 62
7
  6
CONTINUOUS
 10
81.1624403499
 20
217.3458193191
 11
81.1624403499
 21
217.6994593127
  0
LINE
  5
24B
100
AcDbEntity
  8
0
100
AcDbLine
 62
7
  6
CONTINUOUS
 10
81.2249404692
 20
216.587480173
 11
81.2249404692
 21
216.9420754693
  0
LINE
  5
24C
100
AcDbEntity
  8
0
100
AcDbLine
 62
7
  6
CONTINUOUS
 10
81.2874402307
 20
217.4378015593
 11
81.2874402307
 21
217.7913964498
  0
LINE
  5
24D
100
AcDbEntity
  8
0
100
AcDbLine
 62
7
  6
CONTINUOUS
 10
81.4749402307
 20
217.4835589919
 11
81.4749402307
 21
217.8371374856
  0
LINE
  5
24E
100
AcDbEntity
  8
0
100
AcDbLine
 62
7
  6
CONTINUOUS
 10
81.5374403499
 20
216.5387526776
 11
81.5374403499
 21
216.8934431031
  0
LINE
  5
24F
100
AcDbEntity
  8
0
100
AcDbLine
 62
7
  6
CONTINUOUS
 10
82.6624403499
 20
219.0147634467
 11
82.6624403499
 21
218.1083992121
  0
LINE
  5
250
100
AcDbEntity
  8
0
100
AcDbLine
 62
7
  6
CONTINUOUS
 10
82.6624403499
 20
217.8371374856
 11
82.6624403499
 21
217.1350766843
  0
LINE
  5
251
100
AcDbEntity
  8
0
100
AcDbLine
 62
7
  6
CONTINUOUS
 10
83.0374403499
 20
216.5387526776
 11
83.0374403499
 21
219.0147634467
  0
LINE
  5
252
100
AcDbEntity
  8
0
100
AcDbLine
 62
7
  6
CONTINUOUS
 10
83.5374404096
 20
216.5387526776
 11
83.5374404096
 21
216.8934431031
  0
LINE
  5
253
100
AcDbEntity
  8
RUNDUNGEN
100
AcDbLine
 62
7
  6
CONTINUOUS
 10
104.7653533219
 20
263.1272814175
 11
129.0980483367
 21
273.2062137017
  0
LINE
  5
254
100
AcDbEntity
  8
0
100
AcDbLine
 62
7
  6
CONTINUOUS
 10
83.9124404096
 20
216.5387526776
 11
83.9124404096
 21
216.8934431031
  0
LINE
  5
255
100
AcDbEntity
  8
0
100
AcDbLine
 62
7
  6
CONTINUOUS
 10
84.7874403797
 20
218.4084695524
 11
84.7874403797
 21
218.7626521318
  0
LINE
  5
256
100
AcDbEntity
  8
0
100
AcDbLine
 62
7
  6
CONTINUOUS
 10
85.6624403499
 20
216.5387526776
 11
85.6624403499
 21
216.8934431031
  0
LINE
  5
257
100
AcDbEntity
  8
0
100
AcDbLine
 62
7
  6
CONTINUOUS
 10
86.0374403499
 20
216.5387526776
 11
86.0374403499
 21
216.8934431031
  0
LINE
  5
258
100
AcDbEntity
  8
RUNDUNGEN
100
AcDbLine
 62
7
  6
CONTINUOUS
 10
92.5776025873
 20
236.3822323257
 11
102.8711669714
 21
261.233095067
  0
LINE
  5
259
100
AcDbEntity
  8
KONSTRUKTIONSELEMENTE
100
AcDbLine
 62
7
  6
CONTINUOUS
 10
172.7582549693
 20
178.9119011104
 11
176.5580354564
 21
179.3856653592
  0
LINE
  5
25A
100
AcDbEntity
  8
0
100
AcDbLine
 62
7
  6
CONTINUOUS
 10
87.7166257305
 20
178.9119011104
 11
83.9168452435
 21
179.3856653592
  0
LINE
  5
25B
100
AcDbEntity
  8
BEZUGSACHSEN
100
AcDbLine
 62
7
  6
CONTINUOUS
 10
94.4330090011
 20
214.6715677077
 11
93.48221639
 21
223.7177551298
  0
LINE
  5
25C
100
AcDbEntity
  8
RUNDUNGEN
100
AcDbLine
 62
7
  6
CONTINUOUS
 10
94.4330090011
 20
214.6715677077
 11
92.3303543173
 21
234.676990691
  0
LINE
  5
25D
100
AcDbEntity
  8
BEZUGSACHSEN
100
AcDbLine
 62
7
  6
CONTINUOUS
 10
90.41532501
 20
204.5609992636
 11
90.41532501
 21
222.885469457
  0
LINE
  5
25E
100
AcDbEntity
  8
BEZUGSACHSEN
100
AcDbLine
 62
7
  6
CONTINUOUS
 10
91.4374403499
 20
194.5611612994
 11
91.4374403499
 21
214.5608547785
  0
LINE
  5
25F
100
AcDbEntity
  8
BEZUGSACHSEN
100
AcDbLine
 62
7
  6
CONTINUOUS
 10
91.4374403499
 20
194.5610080389
 11
88.4734700659
 21
170.4214072432
  0
LINE
  5
260
100
AcDbEntity
  8
BEZUGSACHSEN
100
AcDbLine
 62
7
  6
CONTINUOUS
 10
91.4374403499
 20
214.5610080389
 11
90.41532501
 21
222.885469457
  0
LINE
  5
261
100
AcDbEntity
  8
0
100
AcDbLine
 62
7
  6
CONTINUOUS
 10
98.9474403499
 20
207.2410080389
 11
98.9474403499
 21
211.7410080389
  0
LINE
  5
262
100
AcDbEntity
  8
0
100
AcDbLine
 62
7
  6
CONTINUOUS
 10
99.5099403499
 20
207.2410080389
 11
99.5099403499
 21
209.2516463653
  0
LINE
  5
263
100
AcDbEntity
  8
0
100
AcDbLine
 62
7
  6
CONTINUOUS
 10
99.5099403499
 20
209.826114382
 11
99.5099403499
 21
211.2622846917
  0
LINE
  5
264
100
AcDbEntity
  8
RUNDUNGEN
100
AcDbLine
 62
7
  6
CONTINUOUS
 10
94.1229459026
 20
211.3981840536
 11
94.4117394502
 21
213.4530569181
  0
LINE
  5
265
100
AcDbEntity
  8
0
100
AcDbLine
 62
7
  6
CONTINUOUS
 10
88.1526873818
 20
168.496480762
 11
88.3752120166
 21
169.6589665989
  0
LINE
  5
266
100
AcDbEntity
  8
0
100
AcDbLine
 62
7
  6
CONTINUOUS
 10
103.3536904394
 20
208.2941995369
 11
103.5411905288
 21
207.911220792
  0
LINE
  5
267
100
AcDbEntity
  8
0
100
AcDbLine
 62
7
  6
CONTINUOUS
 10
102.5099404394
 20
207.2410080389
 11
101.6661904394
 21
209.4431357042
  0
LINE
  5
268
100
AcDbEntity
  8
0
100
AcDbLine
 62
7
  6
CONTINUOUS
 10
101.8536902605
 20
207.2410080389
 11
101.1036903052
 21
209.2516463653
  0
LINE
  5
269
100
AcDbEntity
  8
0
100
AcDbLine
 62
7
  6
CONTINUOUS
 10
101.8536902605
 20
210.6878166751
 11
101.7599403499
 21
210.9750506834
  0
LINE
  5
26A
100
AcDbEntity
  8
0
100
AcDbLine
 62
7
  6
CONTINUOUS
 10
102.4161902605
 20
210.6878166751
 11
102.3224403499
 21
210.9750506834
  0
LINE
  5
26B
100
AcDbEntity
  8
0
100
AcDbLine
 62
7
  6
CONTINUOUS
 10
101.8536902605
 20
210.4005823986
 11
101.8536902605
 21
210.6878166751
  0
LINE
  5
26C
100
AcDbEntity
  8
0
100
AcDbLine
 62
7
  6
CONTINUOUS
 10
102.4161902605
 20
210.3048377291
 11
102.4161902605
 21
210.6878166751
  0
LINE
  5
26D
100
AcDbEntity
  8
0
100
AcDbLine
 62
7
  6
CONTINUOUS
 10
103.2599402605
 20
208.772922884
 11
103.2599402605
 21
211.7410080389
  0
LINE
  5
26E
100
AcDbEntity
  8
0
100
AcDbLine
 62
7
  6
CONTINUOUS
 10
103.8224405288
 20
208.772922884
 11
103.8224405288
 21
211.7410080389
  0
LINE
  5
26F
100
AcDbEntity
  8
0
100
AcDbLine
 62
7
  6
CONTINUOUS
 10
106.0724405288
 20
208.772922884
 11
106.0724405288
 21
211.7410080389
  0
LINE
  5
270
100
AcDbEntity
  8
0
100
AcDbLine
 62
7
  6
CONTINUOUS
 10
106.6349405288
 20
208.772922884
 11
106.6349405288
 21
211.7410080389
  0
LINE
  5
271
100
AcDbEntity
  8
0
100
AcDbLine
 62
7
  6
CONTINUOUS
 10
101.7599403499
 20
210.1133483903
 11
101.8536902605
 21
210.4005823986
  0
LINE
  5
272
100
AcDbEntity
  8
0
100
AcDbLine
 62
7
  6
CONTINUOUS
 10
102.3224403499
 20
210.0176037208
 11
102.4161902605
 21
210.3048377291
  0
LINE
  5
273
100
AcDbEntity
  8
BEZUGSACHSEN
100
AcDbLine
 62
7
  6
CONTINUOUS
 10
169.0374403499
 20
196.0610080389
 11
167.7560547268
 21
196.0610080389
  0
LINE
  5
274
100
AcDbEntity
  8
BEZUGSACHSEN
100
AcDbLine
 62
7
  6
CONTINUOUS
 10
93.1188088004
 20
196.0610080389
 11
91.4374403499
 21
196.0610080389
  0
LINE
  5
275
100
AcDbEntity
  8
RUNDUNGEN
100
AcDbLine
 62
7
  6
CONTINUOUS
 10
93.1188088158
 20
196.0610080389
 11
167.7570659092
 21
196.0610080389
  0
LINE
  5
276
100
AcDbEntity
  8
0
100
AcDbLine
 62
7
  6
CONTINUOUS
 10
104.3849405288
 20
207.911220792
 11
104.1036905288
 21
208.102710198
  0
LINE
  5
277
100
AcDbEntity
  8
0
100
AcDbLine
 62
7
  6
CONTINUOUS
 10
102.0411903499
 20
211.3580293612
 11
101.6661904394
 21
211.6452633695
  0
LINE
  5
278
100
AcDbEntity
  8
0
100
AcDbLine
 62
7
  6
CONTINUOUS
 10
103.5411905288
 20
207.911220792
 11
103.9161901711
 21
207.5282420808
  0
LINE
  5
279
100
AcDbEntity
  8
0
100
AcDbLine
 62
7
  6
CONTINUOUS
 10
101.7599403499
 20
210.9750506834
 11
101.5724402605
 21
211.1665400223
  0
LINE
  5
27A
100
AcDbEntity
  8
0
100
AcDbLine
 62
7
  6
CONTINUOUS
 10
102.3224403499
 20
210.9750506834
 11
102.0411903499
 21
211.3580293612
  0
LINE
  5
27B
100
AcDbEntity
  8
0
100
AcDbLine
 62
7
  6
CONTINUOUS
 10
104.1036905288
 20
208.102710198
 11
103.9161901711
 21
208.3899442063
  0
LINE
  5
27C
100
AcDbEntity
  8
0
100
AcDbLine
 62
7
  6
CONTINUOUS
 10
103.9161901711
 20
208.3899442063
 11
103.8224405288
 21
208.772922884
  0
LINE
  5
27D
100
AcDbEntity
  8
0
100
AcDbLine
 62
7
  6
CONTINUOUS
 10
103.3536904394
 20
208.2941995369
 11
103.2599402605
 21
208.772922884
  0
LINE
  5
27E
100
AcDbEntity
  8
0
100
AcDbLine
 62
7
  6
CONTINUOUS
 10
107.3849403499
 20
207.2410080389
 11
107.3849403499
 21
211.7410080389
  0
LINE
  5
27F
100
AcDbEntity
  8
0
100
AcDbLine
 62
7
  6
CONTINUOUS
 10
107.9474403499
 20
207.8154761226
 11
107.9474403499
 21
211.1665400223
  0
LINE
  5
280
100
AcDbEntity
  8
0
100
AcDbLine
 62
7
  6
CONTINUOUS
 10
110.5724399923
 20
208.772922884
 11
110.5724399923
 21
210.2090930597
  0
LINE
  5
281
100
AcDbEntity
  8
0
100
AcDbLine
 62
7
  6
CONTINUOUS
 10
111.1349399923
 20
208.772922884
 11
111.1349399923
 21
210.2090930597
  0
LINE
  5
282
100
AcDbEntity
  8
0
100
AcDbLine
 62
7
  6
CONTINUOUS
 10
106.5411903499
 20
208.2941995369
 11
106.6349405288
 21
208.772922884
  0
LINE
  5
283
100
AcDbEntity
  8
0
100
AcDbLine
 62
7
  6
CONTINUOUS
 10
105.9786903499
 20
208.3899442063
 11
106.0724405288
 21
208.772922884
  0
LINE
  5
284
100
AcDbEntity
  8
KONSTRUKTIONSELEMENTE
100
AcDbLine
 62
7
  6
CONTINUOUS
 10
62.3304522481
 20
196.9544063211
 11
61.7335773459
 21
196.9544063211
  0
LINE
  5
285
100
AcDbEntity
  8
0
100
AcDbLine
 62
7
  6
CONTINUOUS
 10
198.1444284518
 20
196.9544063211
 11
198.7413033539
 21
196.9544063211
  0
LINE
  5
286
100
AcDbEntity
  8
0
100
AcDbLine
 62
7
  6
CONTINUOUS
 10
116.9374403499
 20
199.4041537894
 11
143.9374403499
 21
199.4041537894
  0
LINE
  5
287
100
AcDbEntity
  8
0
100
AcDbLine
 62
7
  6
CONTINUOUS
 10
129.1665645235
 20
202.3110080389
 11
130.3193139427
 21
202.3110080389
  0
LINE
  5
288
100
AcDbEntity
  8
0
100
AcDbLine
 62
7
  6
CONTINUOUS
 10
104.2911903499
 20
207.3367527167
 11
104.7599401711
 21
207.2410080389
  0
LINE
  5
289
100
AcDbEntity
  8
0
100
AcDbLine
 62
7
  6
CONTINUOUS
 10
104.7599401711
 20
207.8154761226
 11
104.3849405288
 21
207.911220792
  0
LINE
  5
28A
100
AcDbEntity
  8
0
100
AcDbLine
 62
7
  6
CONTINUOUS
 10
101.5724402605
 20
211.1665400223
 11
101.2911902605
 21
211.2622846917
  0
LINE
  5
28B
100
AcDbEntity
  8
KONSTRUKTIONSELEMENTE
100
AcDbLine
 62
7
  6
CONTINUOUS
 10
198.7885620866
 20
169.3093193838
 11
176.5580354564
 21
179.3856653592
  0
LINE
  5
28C
100
AcDbEntity
  8
0
100
AcDbLine
 62
7
  6
CONTINUOUS
 10
103.9161901711
 20
207.5282420808
 11
104.2911903499
 21
207.3367527167
  0
LINE
  5
28D
100
AcDbEntity
  8
0
100
AcDbLine
 62
7
  6
CONTINUOUS
 10
110.2911899923
 20
210.879306014
 11
110.0099399923
 21
211.0707953529
  0
LINE
  5
28E
100
AcDbEntity
  8
0
100
AcDbLine
 62
7
  6
CONTINUOUS
 10
110.8536899923
 20
211.0707953529
 11
110.4786903499
 21
211.4537740306
  0
LINE
  5
28F
100
AcDbEntity
  8
0
100
AcDbLine
 62
7
  6
CONTINUOUS
 10
110.4786903499
 20
210.5920717375
 11
110.2911899923
 21
210.879306014
  0
LINE
  5
290
100
AcDbEntity
  8
0
100
AcDbLine
 62
7
  6
CONTINUOUS
 10
111.0411903499
 20
210.6878166751
 11
110.8536899923
 21
211.0707953529
  0
LINE
  5
291
100
AcDbEntity
  8
0
100
AcDbLine
 62
7
  6
CONTINUOUS
 10
110.5724399923
 20
210.2090930597
 11
110.4786903499
 21
210.5920717375
  0
LINE
  5
292
100
AcDbEntity
  8
0
100
AcDbLine
 62
7
  6
CONTINUOUS
 10
111.1349399923
 20
210.2090930597
 11
111.0411903499
 21
210.6878166751
  0
LINE
  5
293
100
AcDbEntity
  8
0
100
AcDbLine
 62
7
  6
CONTINUOUS
 10
116.9374403499
 20
199.4041537894
 11
116.9374403499
 21
214.8866908254
  0
LINE
  5
294
100
AcDbEntity
  8
0
100
AcDbLine
 62
7
  6
CONTINUOUS
 10
111.0411903499
 20
208.2941995369
 11
111.1349399923
 21
208.772922884
  0
LINE
  5
295
100
AcDbEntity
  8
0
100
AcDbLine
 62
7
  6
CONTINUOUS
 10
110.4786903499
 20
208.3899442063
 11
110.5724399923
 21
208.772922884
  0
LINE
  5
296
100
AcDbEntity
  8
0
100
AcDbLine
 62
7
  6
CONTINUOUS
 10
106.3536905288
 20
207.911220792
 11
106.5411903499
 21
208.2941995369
  0
LINE
  5
297
100
AcDbEntity
  8
0
100
AcDbLine
 62
7
  6
CONTINUOUS
 10
110.8536899923
 20
207.911220792
 11
111.0411903499
 21
208.2941995369
  0
LINE
  5
298
100
AcDbEntity
  8
0
100
AcDbLine
 62
7
  6
CONTINUOUS
 10
105.9786903499
 20
208.3899442063
 11
105.7911905288
 21
208.102710198
  0
LINE
  5
299
100
AcDbEntity
  8
0
100
AcDbLine
 62
7
  6
CONTINUOUS
 10
102.0411903499
 20
209.6346250431
 11
102.3224403499
 21
210.0176037208
  0
LINE
  5
29A
100
AcDbEntity
  8
0
100
AcDbLine
 62
7
  6
CONTINUOUS
 10
101.5724402605
 20
209.9218590514
 11
101.7599403499
 21
210.1133483903
  0
LINE
  5
29B
100
AcDbEntity
  8
0
100
AcDbLine
 62
7
  6
CONTINUOUS
 10
126.8814321451
 20
203.5615171818
 11
129.1665645235
 21
203.5615171818
  0
LINE
  5
29C
100
AcDbEntity
  8
0
100
AcDbLine
 62
7
  6
CONTINUOUS
 10
130.3193139427
 20
203.5615171818
 11
130.9669719331
 21
203.5615171818
  0
LINE
  5
29D
100
AcDbEntity
  8
0
100
AcDbLine
 62
7
  6
CONTINUOUS
 10
130.9669719331
 20
204.4739408521
 11
130.3193139427
 21
204.4739408521
  0
LINE
  5
29E
100
AcDbEntity
  8
0
100
AcDbLine
 62
7
  6
CONTINUOUS
 10
129.1665645235
 20
204.4739408521
 11
127.7409025722
 21
204.4739408521
  0
LINE
  5
29F
100
AcDbEntity
  8
0
100
AcDbLine
 62
7
  6
CONTINUOUS
 10
131.4965032928
 20
205.818136516
 11
132.1034281843
 21
205.818136516
  0
LINE
  5
2A0
100
AcDbEntity
  8
0
100
AcDbLine
 62
7
  6
CONTINUOUS
 10
133.2683973901
 20
205.818136516
 11
133.9934485548
 21
205.818136516
  0
LINE
  5
2A1
100
AcDbEntity
  8
0
100
AcDbLine
 62
7
  6
CONTINUOUS
 10
133.9934485548
 20
206.6898269085
 11
133.2683973901
 21
206.6898269085
  0
LINE
  5
2A2
100
AcDbEntity
  8
0
100
AcDbLine
 62
7
  6
CONTINUOUS
 10
132.1034281843
 20
206.6898269085
 11
131.4965032928
 21
206.6898269085
  0
LINE
  5
2A3
100
AcDbEntity
  8
0
100
AcDbLine
 62
7
  6
CONTINUOUS
 10
98.9474403499
 20
207.2410080389
 11
99.5099403499
 21
207.2410080389
  0
LINE
  5
2A4
100
AcDbEntity
  8
0
100
AcDbLine
 62
7
  6
CONTINUOUS
 10
101.8536902605
 20
207.2410080389
 11
102.5099404394
 21
207.2410080389
  0
LINE
  5
2A5
100
AcDbEntity
  8
0
100
AcDbLine
 62
7
  6
CONTINUOUS
 10
104.7599401711
 20
207.2410080389
 11
105.1349403499
 21
207.2410080389
  0
LINE
  5
2A6
100
AcDbEntity
  8
0
100
AcDbLine
 62
7
  6
CONTINUOUS
 10
107.3849403499
 20
207.2410080389
 11
109.6349403499
 21
207.2410080389
  0
LINE
  5
2A7
100
AcDbEntity
  8
0
100
AcDbLine
 62
7
  6
CONTINUOUS
 10
109.6349403499
 20
207.8154761226
 11
107.9474403499
 21
207.8154761226
  0
LINE
  5
2A8
100
AcDbEntity
  8
0
100
AcDbLine
 62
7
  6
CONTINUOUS
 10
105.1349403499
 20
207.8154761226
 11
104.7599401711
 21
207.8154761226
  0
LINE
  5
2A9
100
AcDbEntity
  8
0
100
AcDbLine
 62
7
  6
CONTINUOUS
 10
133.2683973901
 20
207.8670162586
 11
132.1034281843
 21
207.8670162586
  0
LINE
  5
2AA
100
AcDbEntity
  8
0
100
AcDbLine
 62
7
  6
CONTINUOUS
 10
130.3193139427
 20
208.1073421864
 11
129.0484382503
 21
208.1073421864
  0
LINE
  5
2AB
100
AcDbEntity
  8
0
100
AcDbLine
 62
7
  6
CONTINUOUS
 10
101.6661904394
 20
211.6452633695
 11
101.1974403499
 21
211.7410080389
  0
LINE
  5
2AC
100
AcDbEntity
  8
0
100
AcDbLine
 62
7
  6
CONTINUOUS
 10
110.1036907076
 20
211.6452633695
 11
109.6349403499
 21
211.7410080389
  0
LINE
  5
2AD
100
AcDbEntity
  8
0
100
AcDbLine
 62
7
  6
CONTINUOUS
 10
110.0099399923
 20
211.0707953529
 11
109.6349403499
 21
211.1665400223
  0
LINE
  5
2AE
100
AcDbEntity
  8
0
100
AcDbLine
 62
7
  6
CONTINUOUS
 10
110.4786903499
 20
211.4537740306
 11
110.1036907076
 21
211.6452633695
  0
LINE
  5
2AF
100
AcDbEntity
  8
0
100
AcDbLine
 62
7
  6
CONTINUOUS
 10
110.4786903499
 20
208.3899442063
 11
110.2911899923
 21
208.102710198
  0
LINE
  5
2B0
100
AcDbEntity
  8
0
100
AcDbLine
 62
7
  6
CONTINUOUS
 10
105.9786903499
 20
207.5282420808
 11
106.3536905288
 21
207.911220792
  0
LINE
  5
2B1
100
AcDbEntity
  8
0
100
AcDbLine
 62
7
  6
CONTINUOUS
 10
110.4786903499
 20
207.5282420808
 11
110.8536899923
 21
207.911220792
  0
LINE
  5
2B2
100
AcDbEntity
  8
0
100
AcDbLine
 62
7
  6
CONTINUOUS
 10
110.0099399923
 20
207.911220792
 11
109.6349403499
 21
207.8154761226
  0
LINE
  5
2B3
100
AcDbEntity
  8
0
100
AcDbLine
 62
7
  6
CONTINUOUS
 10
105.5099405288
 20
207.911220792
 11
105.1349403499
 21
207.8154761226
  0
LINE
  5
2B4
100
AcDbEntity
  8
0
100
AcDbLine
 62
7
  6
CONTINUOUS
 10
109.6349403499
 20
207.2410080389
 11
110.1036907076
 21
207.3367527167
  0
LINE
  5
2B5
100
AcDbEntity
  8
0
100
AcDbLine
 62
7
  6
CONTINUOUS
 10
105.1349403499
 20
207.2410080389
 11
105.6036901711
 21
207.3367527167
  0
LINE
  5
2B6
100
AcDbEntity
  8
0
100
AcDbLine
 62
7
  6
CONTINUOUS
 10
101.1036903052
 20
209.2516463653
 11
99.5099403499
 21
209.2516463653
  0
LINE
  5
2B7
100
AcDbEntity
  8
0
100
AcDbLine
 62
7
  6
CONTINUOUS
 10
101.2911902605
 20
209.826114382
 11
99.5099403499
 21
209.826114382
  0
LINE
  5
2B8
100
AcDbEntity
  8
0
100
AcDbLine
 62
7
  6
CONTINUOUS
 10
109.6349403499
 20
211.1665400223
 11
107.9474403499
 21
211.1665400223
  0
LINE
  5
2B9
100
AcDbEntity
  8
0
100
AcDbLine
 62
7
  6
CONTINUOUS
 10
101.2911902605
 20
211.2622846917
 11
99.5099403499
 21
211.2622846917
  0
LINE
  5
2BA
100
AcDbEntity
  8
0
100
AcDbLine
 62
7
  6
CONTINUOUS
 10
109.6349403499
 20
211.7410080389
 11
107.3849403499
 21
211.7410080389
  0
LINE
  5
2BB
100
AcDbEntity
  8
0
100
AcDbLine
 62
7
  6
CONTINUOUS
 10
106.6349405288
 20
211.7410080389
 11
106.0724405288
 21
211.7410080389
  0
LINE
  5
2BC
100
AcDbEntity
  8
0
100
AcDbLine
 62
7
  6
CONTINUOUS
 10
103.8224405288
 20
211.7410080389
 11
103.2599402605
 21
211.7410080389
  0
LINE
  5
2BD
100
AcDbEntity
  8
0
100
AcDbLine
 62
7
  6
CONTINUOUS
 10
101.1974403499
 20
211.7410080389
 11
98.9474403499
 21
211.7410080389
  0
LINE
  5
2BE
100
AcDbEntity
  8
BEZUGSACHSEN
100
AcDbLine
 62
7
  6
CONTINUOUS
 10
169.0374403499
 20
213.0610080389
 11
167.4154474753
 21
213.0610080389
  0
LINE
  5
2BF
100
AcDbEntity
  8
BEZUGSACHSEN
100
AcDbLine
 62
7
  6
CONTINUOUS
 10
93.4594332246
 20
213.0610080389
 11
91.4374403499
 21
213.0610080389
  0
LINE
  5
2C0
100
AcDbEntity
  8
0
100
AcDbLine
 62
7
  6
CONTINUOUS
 10
126.8814321451
 20
204.5920671253
 11
126.8814321451
 21
203.5615171818
  0
LINE
  5
2C1
100
AcDbEntity
  8
0
100
AcDbLine
 62
7
  6
CONTINUOUS
 10
129.1665645235
 20
206.9138593106
 11
129.1665645235
 21
204.4739408521
  0
LINE
  5
2C2
100
AcDbEntity
  8
0
100
AcDbLine
 62
7
  6
CONTINUOUS
 10
129.1665645235
 20
203.5615171818
 11
129.1665645235
 21
202.3110080389
  0
LINE
  5
2C3
100
AcDbEntity
  8
0
100
AcDbLine
 62
7
  6
CONTINUOUS
 10
130.3193139427
 20
202.3110080389
 11
130.3193139427
 21
203.5615171818
  0
LINE
  5
2C4
100
AcDbEntity
  8
0
100
AcDbLine
 62
7
  6
CONTINUOUS
 10
130.3193139427
 20
204.4739408521
 11
130.3193139427
 21
208.1073421864
  0
LINE
  5
2C5
100
AcDbEntity
  8
0
100
AcDbLine
 62
7
  6
CONTINUOUS
 10
130.9669719331
 20
203.5615171818
 11
130.9669719331
 21
204.4739408521
  0
LINE
  5
2C6
100
AcDbEntity
  8
0
100
AcDbLine
 62
7
  6
CONTINUOUS
 10
105.7911905288
 20
208.102710198
 11
105.5099405288
 21
207.911220792
  0
LINE
  5
2C7
100
AcDbEntity
  8
0
100
AcDbLine
 62
7
  6
CONTINUOUS
 10
110.2911899923
 20
208.102710198
 11
110.0099399923
 21
207.911220792
  0
LINE
  5
2C8
100
AcDbEntity
  8
0
100
AcDbLine
 62
7
  6
CONTINUOUS
 10
101.6661904394
 20
209.4431357042
 11
102.0411903499
 21
209.6346250431
  0
LINE
  5
2C9
100
AcDbEntity
  8
0
100
AcDbLine
 62
7
  6
CONTINUOUS
 10
105.6036901711
 20
207.3367527167
 11
105.9786903499
 21
207.5282420808
  0
LINE
  5
2CA
100
AcDbEntity
  8
0
100
AcDbLine
 62
7
  6
CONTINUOUS
 10
101.2911902605
 20
209.826114382
 11
101.5724402605
 21
209.9218590514
  0
LINE
  5
2CB
100
AcDbEntity
  8
0
100
AcDbLine
 62
7
  6
CONTINUOUS
 10
185.3749401115
 20
216.5387526776
 11
184.8749405884
 21
216.5387526776
  0
LINE
  5
2CC
100
AcDbEntity
  8
0
100
AcDbLine
 62
7
  6
CONTINUOUS
 10
183.4999401115
 20
216.5387526776
 11
183.1249401115
 21
216.5387526776
  0
LINE
  5
2CD
100
AcDbEntity
  8
0
100
AcDbLine
 62
7
  6
CONTINUOUS
 10
181.8124401115
 20
216.5387526776
 11
180.3124404692
 21
216.5387526776
  0
LINE
  5
2CE
100
AcDbEntity
  8
0
100
AcDbLine
 62
7
  6
CONTINUOUS
 10
179.8124402307
 20
216.5387526776
 11
179.3749404692
 21
216.5387526776
  0
LINE
  5
2CF
100
AcDbEntity
  8
0
100
AcDbLine
 62
7
  6
CONTINUOUS
 10
177.8124403499
 20
216.5387526776
 11
177.4374403499
 21
216.5387526776
  0
LINE
  5
2D0
100
AcDbEntity
  8
0
100
AcDbLine
 62
7
  6
CONTINUOUS
 10
175.9374403499
 20
216.5387526776
 11
175.4374403797
 21
216.5387526776
  0
LINE
  5
2D1
100
AcDbEntity
  8
0
100
AcDbLine
 62
7
  6
CONTINUOUS
 10
75.0999405884
 20
216.5387526776
 11
75.5999401115
 21
216.5387526776
  0
LINE
  5
2D2
100
AcDbEntity
  8
0
100
AcDbLine
 62
7
  6
CONTINUOUS
 10
76.9749405884
 20
216.5387526776
 11
77.3499405884
 21
216.5387526776
  0
LINE
  5
2D3
100
AcDbEntity
  8
0
100
AcDbLine
 62
7
  6
CONTINUOUS
 10
78.6624405884
 20
216.5387526776
 11
80.1624402307
 21
216.5387526776
  0
LINE
  5
2D4
100
AcDbEntity
  8
0
100
AcDbLine
 62
7
  6
CONTINUOUS
 10
81.5374403499
 20
216.5387526776
 11
83.0374403499
 21
216.5387526776
  0
LINE
  5
2D5
100
AcDbEntity
  8
0
100
AcDbLine
 62
7
  6
CONTINUOUS
 10
83.5374404096
 20
216.5387526776
 11
83.9124404096
 21
216.5387526776
  0
LINE
  5
2D6
100
AcDbEntity
  8
0
100
AcDbLine
 62
7
  6
CONTINUOUS
 10
85.6624403499
 20
216.5387526776
 11
86.0374403499
 21
216.5387526776
  0
LINE
  5
2D7
100
AcDbEntity
  8
0
100
AcDbLine
 62
7
  6
CONTINUOUS
 10
75.0999405884
 20
216.8934431031
 11
75.5999401115
 21
216.8934431031
  0
LINE
  5
2D8
100
AcDbEntity
  8
0
100
AcDbLine
 62
7
  6
CONTINUOUS
 10
76.9749405884
 20
216.8934431031
 11
77.3499405884
 21
216.8934431031
  0
LINE
  5
2D9
100
AcDbEntity
  8
0
100
AcDbLine
 62
7
  6
CONTINUOUS
 10
78.6624405884
 20
216.8934431031
 11
80.1624402307
 21
216.8934431031
  0
LINE
  5
2DA
100
AcDbEntity
  8
0
100
AcDbLine
 62
7
  6
CONTINUOUS
 10
81.5374403499
 20
216.8934431031
 11
83.0374403499
 21
216.8934431031
  0
LINE
  5
2DB
100
AcDbEntity
  8
0
100
AcDbLine
 62
7
  6
CONTINUOUS
 10
83.5374404096
 20
216.8934431031
 11
83.9124404096
 21
216.8934431031
  0
LINE
  5
2DC
100
AcDbEntity
  8
0
100
AcDbLine
 62
7
  6
CONTINUOUS
 10
85.6624403499
 20
216.8934431031
 11
86.0374403499
 21
216.8934431031
  0
LINE
  5
2DD
100
AcDbEntity
  8
0
100
AcDbLine
 62
7
  6
CONTINUOUS
 10
175.4374403797
 20
216.8934431031
 11
175.9374403499
 21
216.8934431031
  0
LINE
  5
2DE
100
AcDbEntity
  8
0
100
AcDbLine
 62
7
  6
CONTINUOUS
 10
177.4374403499
 20
216.8934431031
 11
177.8124403499
 21
216.8934431031
  0
LINE
  5
2DF
100
AcDbEntity
  8
0
100
AcDbLine
 62
7
  6
CONTINUOUS
 10
179.3749404692
 20
216.8934431031
 11
179.8124402307
 21
216.8934431031
  0
LINE
  5
2E0
100
AcDbEntity
  8
0
100
AcDbLine
 62
7
  6
CONTINUOUS
 10
180.3124404692
 20
216.8934431031
 11
181.8124401115
 21
216.8934431031
  0
LINE
  5
2E1
100
AcDbEntity
  8
0
100
AcDbLine
 62
7
  6
CONTINUOUS
 10
183.1249401115
 20
216.8934431031
 11
183.4999401115
 21
216.8934431031
  0
LINE
  5
2E2
100
AcDbEntity
  8
0
100
AcDbLine
 62
7
  6
CONTINUOUS
 10
184.8749405884
 20
216.8934431031
 11
185.3749401115
 21
216.8934431031
  0
LINE
  5
2E3
100
AcDbEntity
  8
0
100
AcDbLine
 62
7
  6
CONTINUOUS
 10
82.6624403499
 20
217.1350766843
 11
81.4749402307
 21
217.1350766843
  0
LINE
  5
2E4
100
AcDbEntity
  8
0
100
AcDbLine
 62
7
  6
CONTINUOUS
 10
181.8749405884
 20
217.1829454916
 11
180.6874401115
 21
217.1829454916
  0
LINE
  5
2E5
100
AcDbEntity
  8
0
100
AcDbLine
 62
7
  6
CONTINUOUS
 10
79.7874405884
 20
217.1829454582
 11
78.5999401115
 21
217.1829454582
  0
LINE
  5
2E6
100
AcDbEntity
  8
0
100
AcDbLine
 62
7
  6
CONTINUOUS
 10
78.5999401115
 20
217.4835589919
 11
79.7874405884
 21
217.4835589919
  0
LINE
  5
2E7
100
AcDbEntity
  8
0
100
AcDbLine
 62
7
  6
CONTINUOUS
 10
81.4749402307
 20
217.4835589919
 11
82.6624403499
 21
217.4835589919
  0
LINE
  5
2E8
100
AcDbEntity
  8
0
100
AcDbLine
 62
7
  6
CONTINUOUS
 10
181.8749405884
 20
217.5291606643
 11
180.6874401115
 21
217.5291606643
  0
LINE
  5
2E9
100
AcDbEntity
  8
0
100
AcDbLine
 62
7
  6
CONTINUOUS
 10
178.8749402307
 20
217.5291606643
 11
177.8124403499
 21
217.5291606643
  0
LINE
  5
2EA
100
AcDbEntity
  8
0
100
AcDbLine
 62
7
  6
CONTINUOUS
 10
78.5999401115
 20
217.8371374856
 11
79.7874405884
 21
217.8371374856
  0
LINE
  5
2EB
100
AcDbEntity
  8
0
100
AcDbLine
 62
7
  6
CONTINUOUS
 10
81.4749402307
 20
217.8371374856
 11
82.6624403499
 21
217.8371374856
  0
LINE
  5
2EC
100
AcDbEntity
  8
0
100
AcDbLine
 62
7
  6
CONTINUOUS
 10
177.8124403499
 20
217.882726862
 11
178.8749402307
 21
217.882726862
  0
LINE
  5
2ED
100
AcDbEntity
  8
0
100
AcDbLine
 62
7
  6
CONTINUOUS
 10
180.6874401115
 20
217.882726862
 11
181.8749405884
 21
217.882726862
  0
LINE
  5
2EE
100
AcDbEntity
  8
0
100
AcDbLine
 62
7
  6
CONTINUOUS
 10
82.6624403499
 20
218.1083992121
 11
81.5999404692
 21
218.1083992121
  0
LINE
  5
2EF
100
AcDbEntity
  8
0
100
AcDbLine
 62
7
  6
CONTINUOUS
 10
79.7874405884
 20
218.1083992121
 11
78.5999401115
 21
218.1083992121
  0
LINE
  5
2F0
100
AcDbEntity
  8
0
100
AcDbLine
 62
7
  6
CONTINUOUS
 10
181.8749405884
 20
218.1530787757
 11
180.6874401115
 21
218.1530787757
  0
LINE
  5
2F1
100
AcDbEntity
  8
0
100
AcDbLine
 62
7
  6
CONTINUOUS
 10
178.9999404692
 20
218.1530787757
 11
177.8124403499
 21
218.1530787757
  0
LINE
  5
2F2
100
AcDbEntity
  8
0
100
AcDbLine
 62
7
  6
CONTINUOUS
 10
181.8749405884
 20
218.4084695821
 11
180.6874401115
 21
218.4084695821
  0
LINE
  5
2F3
100
AcDbEntity
  8
0
100
AcDbLine
 62
7
  6
CONTINUOUS
 10
78.5999401115
 20
218.4084695524
 11
79.7874405884
 21
218.4084695524
  0
LINE
  5
2F4
100
AcDbEntity
  8
0
100
AcDbLine
 62
7
  6
CONTINUOUS
 10
178.9999404692
 20
218.4507955656
 11
177.8124403499
 21
218.4507955656
  0
LINE
  5
2F5
100
AcDbEntity
  8
0
100
AcDbLine
 62
7
  6
CONTINUOUS
 10
78.5999401115
 20
218.7626521318
 11
79.7874405884
 21
218.7626521318
  0
LINE
  5
2F6
100
AcDbEntity
  8
0
100
AcDbLine
 62
7
  6
CONTINUOUS
 10
180.6874401115
 20
218.7626521615
 11
181.8749405884
 21
218.7626521615
  0
LINE
  5
2F7
100
AcDbEntity
  8
0
100
AcDbLine
 62
7
  6
CONTINUOUS
 10
177.8124403499
 20
218.8050523277
 11
178.9999404692
 21
218.8050523277
  0
LINE
  5
2F8
100
AcDbEntity
  8
0
100
AcDbLine
 62
7
  6
CONTINUOUS
 10
185.3749401115
 20
219.0147634467
 11
184.8749405884
 21
219.0147634467
  0
LINE
  5
2F9
100
AcDbEntity
  8
0
100
AcDbLine
 62
7
  6
CONTINUOUS
 10
183.4999401115
 20
219.0147634467
 11
183.1249401115
 21
219.0147634467
  0
LINE
  5
2FA
100
AcDbEntity
  8
0
100
AcDbLine
 62
7
  6
CONTINUOUS
 10
181.8124401115
 20
219.0147634467
 11
180.3124404692
 21
219.0147634467
  0
LINE
  5
2FB
100
AcDbEntity
  8
0
100
AcDbLine
 62
7
  6
CONTINUOUS
 10
178.9374403499
 20
219.0147634467
 11
177.4374403499
 21
219.0147634467
  0
LINE
  5
2FC
100
AcDbEntity
  8
0
100
AcDbLine
 62
7
  6
CONTINUOUS
 10
176.9374402903
 20
219.0147634467
 11
176.5624402903
 21
219.0147634467
  0
LINE
  5
2FD
100
AcDbEntity
  8
0
100
AcDbLine
 62
7
  6
CONTINUOUS
 10
174.8124403499
 20
219.0147634467
 11
174.4374403499
 21
219.0147634467
  0
LINE
  5
2FE
100
AcDbEntity
  8
0
100
AcDbLine
 62
7
  6
CONTINUOUS
 10
85.0374403201
 20
219.0147634467
 11
84.5374403499
 21
219.0147634467
  0
LINE
  5
2FF
100
AcDbEntity
  8
0
100
AcDbLine
 62
7
  6
CONTINUOUS
 10
83.0374403499
 20
219.0147634467
 11
82.6624403499
 21
219.0147634467
  0
LINE
  5
300
100
AcDbEntity
  8
0
100
AcDbLine
 62
7
  6
CONTINUOUS
 10
81.0999402307
 20
219.0147634467
 11
80.6624404692
 21
219.0147634467
  0
LINE
  5
301
100
AcDbEntity
  8
0
100
AcDbLine
 62
7
  6
CONTINUOUS
 10
80.1624402307
 20
219.0147634467
 11
78.6624405884
 21
219.0147634467
  0
LINE
  5
302
100
AcDbEntity
  8
0
100
AcDbLine
 62
7
  6
CONTINUOUS
 10
77.3499405884
 20
219.0147634467
 11
76.9749405884
 21
219.0147634467
  0
LINE
  5
303
100
AcDbEntity
  8
0
100
AcDbLine
 62
7
  6
CONTINUOUS
 10
75.5999401115
 20
219.0147634467
 11
75.0999405884
 21
219.0147634467
  0
LINE
  5
304
100
AcDbEntity
  8
KONSTRUKTIONSELEMENTE
100
AcDbLine
 62
7
  6
CONTINUOUS
 10
176.5580354564
 20
179.3856653592
 11
173.2903612605
 21
181.9427679812
  0
LINE
  5
305
100
AcDbEntity
  8
0
100
AcDbLine
 62
7
  6
CONTINUOUS
 10
131.4965032928
 20
206.6898269085
 11
131.4965032928
 21
205.818136516
  0
LINE
  5
306
100
AcDbEntity
  8
0
100
AcDbLine
 62
7
  6
CONTINUOUS
 10
132.1034281843
 20
207.8670162586
 11
132.1034281843
 21
206.6898269085
  0
LINE
  5
307
100
AcDbEntity
  8
0
100
AcDbLine
 62
7
  6
CONTINUOUS
 10
132.1034281843
 20
205.818136516
 11
132.1034281843
 21
203.5818838207
  0
LINE
  5
308
100
AcDbEntity
  8
0
100
AcDbLine
 62
7
  6
CONTINUOUS
 10
133.2683973901
 20
203.5900304047
 11
133.2683973901
 21
205.818136516
  0
LINE
  5
309
100
AcDbEntity
  8
0
100
AcDbLine
 62
7
  6
CONTINUOUS
 10
133.2683973901
 20
206.6898269085
 11
133.2683973901
 21
207.8670162586
  0
LINE
  5
30A
100
AcDbEntity
  8
0
100
AcDbLine
 62
7
  6
CONTINUOUS
 10
133.9934485548
 20
202.2213950055
 11
133.9934485548
 21
203.0971587626
  0
LINE
  5
30B
100
AcDbEntity
  8
0
100
AcDbLine
 62
7
  6
CONTINUOUS
 10
133.9934485548
 20
205.818136516
 11
133.9934485548
 21
206.6898269085
  0
LINE
  5
30C
100
AcDbEntity
  8
0
100
AcDbLine
 62
7
  6
CONTINUOUS
 10
127.7409025722
 20
204.4739408521
 11
129.1665645235
 21
206.9138593106
  0
LINE
  5
30D
100
AcDbEntity
  8
0
100
AcDbLine
 62
7
  6
CONTINUOUS
 10
129.0484382503
 20
208.1073421864
 11
126.8814321451
 21
204.5920671253
  0
LINE
  5
30E
100
AcDbEntity
  8
0
100
AcDbLine
 62
7
  6
CONTINUOUS
 10
83.9168452435
 20
179.3856653592
 11
87.1845194394
 21
181.9427679812
  0
LINE
  5
30F
100
AcDbEntity
  8
0
100
AcDbLine
 62
7
  6
CONTINUOUS
 10
110.1036907076
 20
207.3367527167
 11
110.4786903499
 21
207.5282420808
  0
LWPOLYLINE
  5
310
100
AcDbEntity
  8
KONSTRUKTIONSELEMENTE
100
AcDbPolyline
 62
7
  6
CONTINUOUS
 90
19
 70
0
 10
73.1859561071
 20
223.0610080203
 10
72.6830884406
 20
223.0452462304
 10
72.0395547677
 20
222.978674005
 10
71.407761273
 20
222.8614020611
 10
70.7937661645
 20
222.6959119128
 10
70.2024631506
 20
222.4853710904
 10
69.6382319305
 20
222.2335968684
 10
69.1048325396
 20
221.9449548249
 10
68.6055080949
 20
221.6243780586
 10
68.1428811855
 20
221.2772933219
 10
67.7182148174
 20
220.9088990069
 10
67.3322122486
 20
220.5245336542
 10
66.9851247151
 20
220.1297523467
 10
66.6763004946
 20
219.7297868812
 10
66.405038912
 20
219.3304912017
 10
66.1685113127
 20
218.9350471047
 10
65.9677307351
 20
218.5540871157
 10
65.801807471
 20
218.1977861507
 10
65.7050532444
 20
217.9677024023
  0
LINE
  5
311
100
AcDbEntity
  8
KONSTRUKTIONSELEMENTE
100
AcDbLine
 62
7
  6
CONTINUOUS
 10
73.18553248
 20
223.0610080389
 11
89.5959712805
 21
223.0610080389
  0
LINE
  5
312
100
AcDbEntity
  8
0
100
AcDbLine
 62
7
  6
CONTINUOUS
 10
170.8789094194
 20
223.0610080389
 11
187.2893482199
 21
223.0610080389
  0
LINE
  5
313
100
AcDbEntity
  8
0
100
AcDbLine
 62
7
  6
CONTINUOUS
 10
143.9374403499
 20
199.4041537894
 11
143.9374403499
 21
214.8866908256
  0
LINE
  5
314
100
AcDbEntity
  8
0
100
AcDbLine
 62
7
  6
CONTINUOUS
 10
61.6863186133
 20
169.3093193838
 11
83.9168452435
 21
179.3856653592
  0
LWPOLYLINE
  5
315
100
AcDbEntity
  8
KONSTRUKTIONSELEMENTE
100
AcDbPolyline
 62
7
  6
CONTINUOUS
 90
42
 70
0
 10
172.5364798208
 20
167.4230019923
 10
172.5453519499
 20
167.3818997439
 10
172.5550547154
 20
167.3392776165
 10
172.5665900794
 20
167.2920204573
 10
172.5805425103
 20
167.2396104641
 10
172.5984142731
 20
167.1789602734
 10
172.6192488974
 20
167.1155247345
 10
172.6412631043
 20
167.055060993
 10
172.6650602908
 20
166.9956041844
 10
172.6901943153
 20
166.9381010443
 10
172.7175528926
 20
166.8805053394
 10
172.7482823144
 20
166.8208971393
 10
172.7820757887
 20
166.7604726137
 10
172.81900199
 20
166.6995556777
 10
172.858842954
 20
166.6388551387
 10
172.9012784375
 20
166.5790668214
 10
172.9462658215
 20
166.5203793556
 10
172.9935507482
 20
166.4632053938
 10
173.0432511036
 20
166.40746715
 10
173.0954012653
 20
166.3532156908
 10
173.1500199694
 20
166.300530414
 10
173.2071506682
 20
166.2494777375
 10
173.2667591943
 20
166.2002002961
 10
173.328823746
 20
166.1528262285
 10
173.3933175475
 20
166.1074863361
 10
173.460207399
 20
166.0643148372
 10
173.5294530296
 20
166.0234492639
 10
173.6010072096
 20
165.9850298713
 10
173.6748144506
 20
165.9491998363
 10
173.7508114079
 20
165.9161044604
 10
173.8289255726
 20
165.8858912124
 10
173.9090753254
 20
165.8587090546
 10
173.9911700845
 20
165.8347078498
 10
174.0751090174
 20
165.8140382107
 10
174.1607812049
 20
165.7968508124
 10
174.2480647701
 20
165.7832959611
 10
174.3368262675
 20
165.7735229724
 10
174.4269205217
 20
165.767679427
 10
174.5181901762
 20
165.7659104379
 10
174.6104653259
 20
165.7683578446
 10
174.7035631705
 20
165.7751593448
 10
174.7588291815
 20
165.7812723542
  0
LINE
  5
316
100
AcDbEntity
  8
KONSTRUKTIONSELEMENTE
100
AcDbLine
 62
7
  6
CONTINUOUS
 10
172.5262262757
 20
167.4726255423
 11
172.5364798208
 21
167.4230019923
  0
LINE
  5
317
100
AcDbEntity
  8
KONSTRUKTIONSELEMENTE
100
AcDbLine
 62
7
  6
CONTINUOUS
 10
172.3241450562
 20
168.4865106211
 11
172.5263798468
 21
167.4718174844
  0
LINE
  5
318
100
AcDbEntity
  8
KONSTRUKTIONSELEMENTE
100
AcDbLine
 62
7
  6
CONTINUOUS
 10
172.0996686565
 20
169.6589667422
 11
172.3241450562
 21
168.4865106211
  0
LINE
  5
319
100
AcDbEntity
  8
RUNDUNGEN
100
AcDbLine
 62
7
  6
CONTINUOUS
 10
166.4631412524
 20
213.4530568989
 11
166.7519353023
 21
211.3981804604
  0
LINE
  5
31A
100
AcDbEntity
  8
BEZUGSACHSEN
100
AcDbLine
 62
7
  6
CONTINUOUS
 10
169.0374403499
 20
194.5610080389
 11
172.0014095836
 21
170.4214157979
  0
LINE
  5
31B
100
AcDbEntity
  8
BEZUGSACHSEN
100
AcDbLine
 62
7
  6
CONTINUOUS
 10
169.0374403499
 20
194.5611612994
 11
169.0374403499
 21
214.5608547785
  0
LINE
  5
31C
100
AcDbEntity
  8
BEZUGSACHSEN
100
AcDbLine
 62
7
  6
CONTINUOUS
 10
170.0595556899
 20
222.885469457
 11
170.0595556899
 21
204.5609993495
  0
LINE
  5
31D
100
AcDbEntity
  8
BEZUGSACHSEN
100
AcDbLine
 62
7
  6
CONTINUOUS
 10
166.6242620986
 20
216.4068964447
 11
166.4418716984
 21
214.6715677039
  0
LINE
  5
31E
100
AcDbEntity
  8
RUNDUNGEN
100
AcDbLine
 62
7
  6
CONTINUOUS
 10
168.5445263826
 20
234.676990691
 11
166.4418716984
 21
214.6715677039
  0
LINE
  5
31F
100
AcDbEntity
  8
BEZUGSACHSEN
100
AcDbLine
 62
7
  6
CONTINUOUS
 10
169.0374403499
 20
214.5610080389
 11
170.0595556899
 21
222.885469457
  0
LINE
  5
320
100
AcDbEntity
  8
RUNDUNGEN
100
AcDbLine
 62
7
  6
CONTINUOUS
 10
158.0037137285
 20
261.233095067
 11
168.2972781126
 21
236.3822323257
  0
LINE
  5
321
100
AcDbEntity
  8
0
100
AcDbLine
 62
7
  6
CONTINUOUS
 10
174.4374403499
 20
218.6600730211
 11
174.4374403499
 21
219.0147634467
  0
LINE
  5
322
100
AcDbEntity
  8
0
100
AcDbLine
 62
7
  6
CONTINUOUS
 10
175.4374403797
 20
216.5387526776
 11
175.4374403797
 21
216.8934431031
  0
LINE
  5
323
100
AcDbEntity
  8
0
100
AcDbLine
 62
7
  6
CONTINUOUS
 10
175.9374403499
 20
216.5387526776
 11
175.9374403499
 21
216.8934431031
  0
LINE
  5
324
100
AcDbEntity
  8
0
100
AcDbLine
 62
7
  6
CONTINUOUS
 10
176.9374402903
 20
218.6600730211
 11
176.9374402903
 21
219.0147634467
  0
LINE
  5
325
100
AcDbEntity
  8
0
100
AcDbLine
 62
7
  6
CONTINUOUS
 10
177.4374403499
 20
216.5387526776
 11
177.4374403499
 21
219.0147634467
  0
LINE
  5
326
100
AcDbEntity
  8
0
100
AcDbLine
 62
7
  6
CONTINUOUS
 10
177.8124403499
 20
216.5387526776
 11
177.8124403499
 21
217.882726862
  0
LINE
  5
327
100
AcDbEntity
  8
0
100
AcDbLine
 62
7
  6
CONTINUOUS
 10
177.8124403499
 20
218.1530787757
 11
177.8124403499
 21
218.8050523277
  0
LINE
  5
328
100
AcDbEntity
  8
0
100
AcDbLine
 62
7
  6
CONTINUOUS
 10
178.8749402307
 20
217.5291606643
 11
178.8749402307
 21
217.882726862
  0
LINE
  5
329
100
AcDbEntity
  8
0
100
AcDbLine
 62
7
  6
CONTINUOUS
 10
178.9999404692
 20
218.4507955656
 11
178.9999404692
 21
218.8050523277
  0
LINE
  5
32A
100
AcDbEntity
  8
0
100
AcDbLine
 62
7
  6
CONTINUOUS
 10
179.1874404692
 20
218.4084695821
 11
179.1874404692
 21
218.7626521615
  0
LINE
  5
32B
100
AcDbEntity
  8
0
100
AcDbLine
 62
7
  6
CONTINUOUS
 10
179.3124403499
 20
218.3233479658
 11
179.3124403499
 21
218.6773946646
  0
LINE
  5
32C
100
AcDbEntity
  8
0
100
AcDbLine
 62
7
  6
CONTINUOUS
 10
179.3749404692
 20
218.5483667492
 11
179.3749404692
 21
218.4179704106
  0
LINE
  5
32D
100
AcDbEntity
  8
0
100
AcDbLine
 62
7
  6
CONTINUOUS
 10
179.3749404692
 20
216.5387526776
 11
179.3749404692
 21
216.8934431031
  0
LINE
  5
32E
100
AcDbEntity
  8
0
100
AcDbLine
 62
7
  6
CONTINUOUS
 10
179.4999403499
 20
217.7100100034
 11
179.4999403499
 21
218.0635680044
  0
LINE
  5
32F
100
AcDbEntity
  8
0
100
AcDbLine
 62
7
  6
CONTINUOUS
 10
179.6874403499
 20
217.8883675144
 11
179.6874403499
 21
218.2419829042
  0
LINE
  5
330
100
AcDbEntity
  8
0
100
AcDbLine
 62
7
  6
CONTINUOUS
 10
179.7499404692
 20
218.0204996892
 11
179.7499404692
 21
218.5483667492
  0
LINE
  5
331
100
AcDbEntity
  8
0
100
AcDbLine
 62
7
  6
CONTINUOUS
 10
179.8124402307
 20
216.5387526776
 11
179.8124402307
 21
216.8934431031
  0
LINE
  5
332
100
AcDbEntity
  8
0
100
AcDbLine
 62
7
  6
CONTINUOUS
 10
180.3124404692
 20
216.5387526776
 11
180.3124404692
 21
219.0147634467
  0
LINE
  5
333
100
AcDbEntity
  8
0
100
AcDbLine
 62
7
  6
CONTINUOUS
 10
180.6874401115
 20
217.1829454916
 11
180.6874401115
 21
217.882726862
  0
LINE
  5
334
100
AcDbEntity
  8
0
100
AcDbLine
 62
7
  6
CONTINUOUS
 10
180.6874401115
 20
218.1530787757
 11
180.6874401115
 21
218.7626521615
  0
LINE
  5
335
100
AcDbEntity
  8
0
100
AcDbLine
 62
7
  6
CONTINUOUS
 10
181.8124401115
 20
216.5387526776
 11
181.8124401115
 21
216.8934431031
  0
LINE
  5
336
100
AcDbEntity
  8
0
100
AcDbLine
 62
7
  6
CONTINUOUS
 10
181.8749405884
 20
217.5291606643
 11
181.8749405884
 21
217.882726862
  0
LINE
  5
337
100
AcDbEntity
  8
0
100
AcDbLine
 62
7
  6
CONTINUOUS
 10
181.8749405884
 20
218.4084695821
 11
181.8749405884
 21
218.7626521615
  0
LINE
  5
338
100
AcDbEntity
  8
0
100
AcDbLine
 62
7
  6
CONTINUOUS
 10
182.0624405884
 20
217.4835589919
 11
182.0624405884
 21
217.8371374856
  0
LINE
  5
339
100
AcDbEntity
  8
0
100
AcDbLine
 62
7
  6
CONTINUOUS
 10
182.0624405884
 20
218.3659870171
 11
182.0624405884
 21
218.7200995778
  0
LINE
  5
33A
100
AcDbEntity
  8
0
100
AcDbLine
 62
7
  6
CONTINUOUS
 10
182.1249403499
 20
216.5874801772
 11
182.1249403499
 21
216.9420754736
  0
LINE
  5
33B
100
AcDbEntity
  8
0
100
AcDbLine
 62
7
  6
CONTINUOUS
 10
182.1874401115
 20
217.3918883443
 11
182.1874401115
 21
217.7455037341
  0
LINE
  5
33C
100
AcDbEntity
  8
0
100
AcDbLine
 62
7
  6
CONTINUOUS
 10
182.1874401115
 20
218.2805525181
 11
182.1874401115
 21
218.6345375047
  0
LINE
  5
33D
100
AcDbEntity
  8
0
100
AcDbLine
 62
7
  6
CONTINUOUS
 10
182.2499405884
 20
218.5050531714
 11
182.2499405884
 21
218.4179704106
  0
LINE
  5
33E
100
AcDbEntity
  8
0
100
AcDbLine
 62
7
  6
CONTINUOUS
 10
182.2499405884
 20
217.6069151593
 11
182.2499405884
 21
217.4669602954
  0
LINE
  5
33F
100
AcDbEntity
  8
0
100
AcDbLine
 62
7
  6
CONTINUOUS
 10
182.3749401115
 20
216.7327202999
 11
182.3749401115
 21
217.0870554165
  0
LINE
  5
340
100
AcDbEntity
  8
0
100
AcDbLine
 62
7
  6
CONTINUOUS
 10
182.3749401115
 20
217.973450693
 11
182.3749401115
 21
218.0635680044
  0
LINE
  5
341
100
AcDbEntity
  8
0
100
AcDbLine
 62
7
  6
CONTINUOUS
 10
182.5624401115
 20
216.9241791758
 11
182.5624401115
 21
217.2782258746
  0
LINE
  5
342
100
AcDbEntity
  8
0
100
AcDbLine
 62
7
  6
CONTINUOUS
 10
182.5624401115
 20
217.8883675144
 11
182.5624401115
 21
218.2419829042
  0
LINE
  5
343
100
AcDbEntity
  8
0
100
AcDbLine
 62
7
  6
CONTINUOUS
 10
182.6249405884
 20
217.066130826
 11
182.6249405884
 21
217.6532630899
  0
LINE
  5
344
100
AcDbEntity
  8
0
100
AcDbLine
 62
7
  6
CONTINUOUS
 10
182.6249405884
 20
218.0204996892
 11
182.6249405884
 21
218.5483667492
  0
LINE
  5
345
100
AcDbEntity
  8
0
100
AcDbLine
 62
7
  6
CONTINUOUS
 10
183.1249401115
 20
216.5387526776
 11
183.1249401115
 21
219.0147634467
  0
LINE
  5
346
100
AcDbEntity
  8
0
100
AcDbLine
 62
7
  6
CONTINUOUS
 10
183.4999401115
 20
216.5387526776
 11
183.4999401115
 21
217.6532630899
  0
LINE
  5
347
100
AcDbEntity
  8
0
100
AcDbLine
 62
7
  6
CONTINUOUS
 10
183.4999401115
 20
218.018585163
 11
183.4999401115
 21
219.0147634467
  0
LINE
  5
348
100
AcDbEntity
  8
0
100
AcDbLine
 62
7
  6
CONTINUOUS
 10
183.9374405884
 20
217.6198967902
 11
183.9374405884
 21
217.973450693
  0
LINE
  5
349
100
AcDbEntity
  8
RUNDUNGEN
100
AcDbLine
 62
7
  6
CONTINUOUS
 10
131.7768323632
 20
273.2062137017
 11
156.109527378
 21
263.1272814175
  0
LINE
  5
34A
100
AcDbEntity
  8
0
100
AcDbLine
 62
7
  6
CONTINUOUS
 10
184.8749405884
 20
216.5387526776
 11
184.8749405884
 21
216.8934431031
  0
LINE
  5
34B
100
AcDbEntity
  8
0
100
AcDbLine
 62
7
  6
CONTINUOUS
 10
185.3749401115
 20
216.5387526776
 11
185.3749401115
 21
216.8934431031
  0
LINE
  5
34C
100
AcDbEntity
  8
0
100
AcDbLine
 62
7
  6
CONTINUOUS
 10
185.3749401115
 20
218.6600730211
 11
185.3749401115
 21
219.0147634467
  0
LWPOLYLINE
  5
34D
100
AcDbEntity
  8
0
100
AcDbPolyline
 62
7
  6
CONTINUOUS
 90
4
 70
0
 10
200.7164644871
 20
203.1554965183
 10
200.0064849313
 20
204.7575500947
 10
199.060877052
 20
207.0202477831
 10
198.0713093606
 20
209.5047783487
  0
LWPOLYLINE
  5
34E
100
AcDbEntity
  8
0
100
AcDbPolyline
 62
7
  6
CONTINUOUS
 90
19
 70
0
 10
194.7698295214
 20
217.9676972826
 10
194.6730127556
 20
218.1979242972
 10
194.5069814152
 20
218.5544279982
 10
194.306032678
 20
218.935647545
 10
194.0692543148
 20
219.3314133854
 10
193.7976332568
 20
219.7310953097
 10
193.488331753
 20
220.1314821236
 10
193.1406373644
 20
220.5266967704
 10
192.7538975889
 20
220.91147403
 10
192.3283650375
 20
221.2802283989
 10
191.8647551051
 20
221.6275870054
 10
191.3643469731
 20
221.9483212268
 10
190.8297890707
 20
222.2369762507
 10
190.2643552934
 20
222.4885973838
 10
189.6718394799
 20
222.6988046751
 10
189.056658424
 20
222.8637736985
 10
188.4237446481
 20
222.9803381232
 10
187.7792034726
 20
223.0460268771
 10
187.2888998833
 20
223.0610080177
  0
LINE
  5
34F
100
AcDbEntity
  8
0
100
AcDbLine
 62
7
  6
CONTINUOUS
 10
194.7698294827
 20
217.9676972847
 11
194.7690303368
 21
217.9696767872
  0
LWPOLYLINE
  5
350
100
AcDbEntity
  8
0
100
AcDbPolyline
 62
7
  6
CONTINUOUS
 90
3
 70
0
 10
198.0713093606
 20
209.5047783487
 10
195.9199496061
 20
215.0606552285
 10
194.7690303368
 20
217.9696767872
  0
LWPOLYLINE
  5
351
100
AcDbEntity
  8
KONSTRUKTIONSELEMENTE
100
AcDbPolyline
 62
7
  6
CONTINUOUS
 90
11
 70
0
 10
200.718337717
 20
175.4212487045
 10
198.3479050683
 20
194.4388702209
 10
198.2994277095
 20
194.8689130176
 10
198.2570547521
 20
195.287339357
 10
198.2209434035
 20
195.6907881942
 10
198.1911539714
 20
196.0760773457
 10
198.167743809
 20
196.4399978644
 10
198.1505899028
 20
196.779668863
 10
198.139565273
 20
197.0923250541
 10
198.134378503
 20
197.3750829373
 10
198.1338660457
 20
197.4895353572
  0
LWPOLYLINE
  5
352
100
AcDbEntity
  8
KONSTRUKTIONSELEMENTE
100
AcDbPolyline
 62
7
  6
CONTINUOUS
 90
3
 70
0
 10
200.7412997248
 20
175.0510755098
 10
200.7343567544
 20
175.2552949288
 10
200.7183514199
 20
175.4212504226
  0
LINE
  5
353
100
AcDbEntity
  8
KONSTRUKTIONSELEMENTE
100
AcDbLine
 62
7
  6
CONTINUOUS
 10
200.7413005232
 20
170.974973214
 11
200.7413005232
 21
175.0507694534
  0
LINE
  5
354
100
AcDbEntity
  8
0
100
AcDbLine
 62
7
  6
CONTINUOUS
 10
200.7413005227
 20
198.9547286381
 11
200.7413005232
 21
203.030445839
  0
LWPOLYLINE
  5
355
100
AcDbEntity
  8
0
100
AcDbPolyline
 62
7
  6
CONTINUOUS
 90
3
 70
0
 10
198.1338660457
 20
197.4895353572
 10
198.1339192559
 20
197.5266658705
 10
198.1355840403
 20
197.6864640689
  0
LINE
  5
356
100
AcDbEntity
  8
0
100
AcDbLine
 62
7
  6
CONTINUOUS
 10
198.1355840403
 20
197.6864640689
 11
198.1392103616
 21
197.8241394756
  0
LWPOLYLINE
  5
357
100
AcDbEntity
  8
0
100
AcDbPolyline
 62
7
  6
CONTINUOUS
 90
8
 70
0
 10
198.1392103616
 20
197.8241394756
 10
198.1442868874
 20
197.9409666475
 10
198.1503513511
 20
198.0381066873
 10
198.1568520093
 20
198.1157466821
 10
198.1632146133
 20
198.1747515618
 10
198.1683901658
 20
198.2129859775
 10
198.1711581518
 20
198.2296258163
 10
198.171279307
 20
198.2302369781
  0
LINE
  5
358
100
AcDbEntity
  8
0
100
AcDbLine
 62
7
  6
CONTINUOUS
 10
289.9220484933
 20
169.4412594306
 11
287.9220484933
 21
169.4412594306
  0
LWPOLYLINE
  5
359
100
AcDbEntity
  8
0
100
AcDbPolyline
 62
7
  6
CONTINUOUS
 90
14
 70
0
 10
291.1045775866
 20
166.4058391639
 10
291.3252590819
 20
166.2296113297
 10
291.5647430138
 20
166.0790870481
 10
291.8198833493
 20
165.9563883494
 10
292.0876859383
 20
165.8630418906
 10
292.3645660966
 20
165.8004299786
 10
292.6467592607
 20
165.7693969938
 10
292.9305661
 20
165.7704555275
 10
293.2121920925
 20
165.8034318516
 10
293.4878616501
 20
165.8678842425
 10
293.7538335793
 20
165.9627220374
 10
294.0070397732
 20
166.0867560588
 10
294.2441964841
 20
166.2381443886
 10
294.3021155147
 20
166.2811494491
  0
LWPOLYLINE
  5
35A
100
AcDbEntity
  8
KONSTRUKTIONSELEMENTE
100
AcDbPolyline
 62
7
  6
CONTINUOUS
 90
15
 70
0
 10
291.0367313453
 20
166.4688442388
 10
291.1045775866
 20
166.4058391639
 10
291.3252590819
 20
166.2296113297
 10
291.5647430138
 20
166.0790870481
 10
291.8198833493
 20
165.9563883494
 10
292.0876859383
 20
165.8630418906
 10
292.3645660966
 20
165.8004299786
 10
292.6467592607
 20
165.7693969938
 10
292.9305661
 20
165.7704555275
 10
293.2121920925
 20
165.8034318516
 10
293.4878616501
 20
165.8678842425
 10
293.7538335793
 20
165.9627220374
 10
294.0070397732
 20
166.0867560588
 10
294.2441964841
 20
166.2381443886
 10
294.3021155147
 20
166.2811494491
  0
LINE
  5
35B
100
AcDbEntity
  8
0
100
AcDbLine
 62
7
  6
CONTINUOUS
 10
291.0367313453
 20
166.4688442388
 11
291.1045775866
 21
166.4058391639
  0
LINE
  5
35C
100
AcDbEntity
  8
KONSTRUKTIONSELEMENTE
100
AcDbLine
 62
7
  6
CONTINUOUS
 10
290.5333843207
 20
166.9542563899
 11
291.0367049978
 21
166.4688315476
  0
LINE
  5
35D
100
AcDbEntity
  8
0
100
AcDbLine
 62
7
  6
CONTINUOUS
 10
290.5333843207
 20
166.9542563899
 11
291.0367049978
 21
166.4688315476
  0
LINE
  5
35E
100
AcDbEntity
  8
0
100
AcDbLine
 62
7
  6
CONTINUOUS
 10
290.5347510358
 20
166.9529396914
 11
290.534795246
 21
166.9528966315
  0
LINE
  5
35F
100
AcDbEntity
  8
0
100
AcDbLine
 62
7
  6
CONTINUOUS
 10
259.4364737198
 20
198.0690628256
 11
259.9218985621
 21
197.5657421486
  0
LINE
  5
360
100
AcDbEntity
  8
KONSTRUKTIONSELEMENTE
100
AcDbLine
 62
7
  6
CONTINUOUS
 10
259.4364737198
 20
198.0690628256
 11
259.9218985621
 21
197.5657421486
  0
LINE
  5
361
100
AcDbEntity
  8
KONSTRUKTIONSELEMENTE
100
AcDbLine
 62
7
  6
CONTINUOUS
 10
259.3734813361
 20
198.1369354144
 11
259.4364864109
 21
198.0690891732
  0
LINE
  5
362
100
AcDbEntity
  8
RUNDUNGEN
100
AcDbLine
 62
7
  6
CONTINUOUS
 10
262.4089016028
 20
194.9544063211
 11
262.4089016028
 21
196.9544063211
  0
LINE
  5
363
100
AcDbEntity
  8
0
100
AcDbLine
 62
7
  6
CONTINUOUS
 10
287.9220484933
 20
193.9544063211
 11
289.9220484933
 21
193.9544063211
  0
LINE
  5
364
100
AcDbEntity
  8
RUNDUNGEN
100
AcDbLine
 62
7
  6
CONTINUOUS
 10
286.9220484933
 20
194.9544063211
 11
262.4089171444
 21
194.9544063211
  0
LINE
  5
365
100
AcDbEntity
  8
KONSTRUKTIONSELEMENTE
100
AcDbLine
 62
7
  6
CONTINUOUS
 10
286.9220484933
 20
196.9544063211
 11
261.3612080551
 21
196.9544063211
  0
LINE
  5
366
100
AcDbEntity
  8
RUNDUNGEN
100
AcDbLine
 62
7
  6
CONTINUOUS
 10
261.3612075919
 20
196.9544063211
 11
267.3222906637
 21
196.9544063211
  0
LWPOLYLINE
  5
367
100
AcDbEntity
  8
0
100
AcDbPolyline
 62
7
  6
CONTINUOUS
 90
15
 70
0
 10
259.2487916213
 20
201.3344733425
 10
259.2057865608
 20
201.2765543119
 10
259.054398231
 20
201.0393976011
 10
258.9303642096
 20
200.7861914072
 10
258.8355264146
 20
200.5202194779
 10
258.7710740238
 20
200.2445499204
 10
258.7380976996
 20
199.9629239279
 10
258.737039166
 20
199.6791170885
 10
258.7680721508
 20
199.3969239245
 10
258.8306840628
 20
199.1200437661
 10
258.9240305216
 20
198.8522411771
 10
259.0467292203
 20
198.5971008416
 10
259.1972535019
 20
198.3576169098
 10
259.3734813361
 20
198.1369354144
 10
259.4364864109
 20
198.0690891732
  0
LWPOLYLINE
  5
368
100
AcDbEntity
  8
KONSTRUKTIONSELEMENTE
100
AcDbPolyline
 62
7
  6
CONTINUOUS
 90
14
 70
0
 10
259.2487916213
 20
201.3344733425
 10
259.2057865608
 20
201.2765543119
 10
259.054398231
 20
201.0393976011
 10
258.9303642096
 20
200.7861914072
 10
258.8355264146
 20
200.5202194779
 10
258.7710740238
 20
200.2445499204
 10
258.7380976996
 20
199.9629239279
 10
258.737039166
 20
199.6791170885
 10
258.7680721508
 20
199.3969239245
 10
258.8306840628
 20
199.1200437661
 10
258.9240305216
 20
198.8522411771
 10
259.0467292203
 20
198.5971008416
 10
259.1972535019
 20
198.3576169098
 10
259.3734813361
 20
198.1369354144
  0
LINE
  5
369
100
AcDbEntity
  8
KONSTRUKTIONSELEMENTE
100
AcDbLine
 62
7
  6
CONTINUOUS
 10
268.0892803496
 20
212.8692709647
 11
259.2487778402
 21
201.3344991854
  0
LINE
  5
36A
100
AcDbEntity
  8
KONSTRUKTIONSELEMENTE
100
AcDbLine
 62
7
  6
CONTINUOUS
 10
271.8765604655
 20
217.7997417376
 11
268.0892803496
 21
212.8692709647
  0
LINE
  5
36B
100
AcDbEntity
  8
BEZUGSACHSEN
100
AcDbLine
 62
7
  6
CONTINUOUS
 10
271.8769161795
 20
217.8001469726
 11
271.8765655738
 21
217.7997468466
  0
LINE
  5
36C
100
AcDbEntity
  8
KONSTRUKTIONSELEMENTE
100
AcDbLine
 62
7
  6
CONTINUOUS
 10
271.8769245652
 20
217.8001553583
 11
275.2013091434
 21
221.1245399366
  0
LWPOLYLINE
  5
36D
100
AcDbEntity
  8
0
100
AcDbPolyline
 62
7
  6
CONTINUOUS
 90
3
 70
0
 10
277.8499026795
 20
222.4767199858
 10
277.4587720064
 20
222.2782808676
 10
275.2011453602
 20
221.1243761533
  0
LWPOLYLINE
  5
36E
100
AcDbEntity
  8
KONSTRUKTIONSELEMENTE
100
AcDbPolyline
 62
7
  6
CONTINUOUS
 90
3
 70
0
 10
277.8499026795
 20
222.4767199858
 10
277.4587720064
 20
222.2782808676
 10
275.2011453602
 20
221.1243761533
  0
LINE
  5
36F
100
AcDbEntity
  8
RUNDUNGEN
100
AcDbLine
 62
7
  6
CONTINUOUS
 10
286.9220484933
 20
194.9544063211
 11
286.9220484933
 21
196.9544063211
  0
LINE
  5
370
100
AcDbEntity
  8
0
100
AcDbLine
 62
7
  6
CONTINUOUS
 10
287.9220484933
 20
193.9544063211
 11
287.9220484933
 21
169.4412749722
  0
LINE
  5
371
100
AcDbEntity
  8
0
100
AcDbLine
 62
7
  6
CONTINUOUS
 10
289.9220484933
 20
168.3935654198
 11
289.9220484933
 21
193.9544063211
  0
LINE
  5
372
100
AcDbEntity
  8
BEZUGSACHSEN
100
AcDbLine
 62
7
  6
CONTINUOUS
 10
290.5286502111
 20
223.9790894951
 11
290.5286502111
 21
270.9726353379
  0
LWPOLYLINE
  5
373
100
AcDbEntity
  8
0
100
AcDbPolyline
 62
7
  6
CONTINUOUS
 90
7
 70
0
 10
280.3668109009
 20
223.0610081377
 10
280.0122229618
 20
223.0504026529
 10
279.5115238634
 20
222.9986536916
 10
279.0276781052
 20
222.9057619517
 10
278.5643283843
 20
222.7740220659
 10
278.125137856
 20
222.6060756321
 10
277.8499044299
 20
222.4767222131
  0
LWPOLYLINE
  5
374
100
AcDbEntity
  8
KONSTRUKTIONSELEMENTE
100
AcDbPolyline
 62
7
  6
CONTINUOUS
 90
7
 70
0
 10
280.3668109009
 20
223.0610081377
 10
280.0122229618
 20
223.0504026529
 10
279.5115238634
 20
222.9986536916
 10
279.0276781052
 20
222.9057619517
 10
278.5643283843
 20
222.7740220659
 10
278.125137856
 20
222.6060756321
 10
277.8499044299
 20
222.4767222131
  0
LINE
  5
375
100
AcDbEntity
  8
KONSTRUKTIONSELEMENTE
100
AcDbLine
 62
7
  6
CONTINUOUS
 10
280.36692951
 20
223.0610080389
 11
297.5286502111
 21
223.0610080389
  0
LINE
  5
376
100
AcDbEntity
  8
0
100
AcDbLine
 62
7
  6
CONTINUOUS
 10
309.5063948497
 20
218.6600730211
 11
309.8610852753
 21
219.0147634467
  0
LINE
  5
377
100
AcDbEntity
  8
RUNDUNGEN
100
AcDbLine
 62
7
  6
CONTINUOUS
 10
304.5286502111
 20
223.9790894951
 11
304.5286502111
 21
270.9726353379
  0
LINE
  5
378
100
AcDbEntity
  8
0
100
AcDbLine
 62
7
  6
CONTINUOUS
 10
310.8116539615
 20
217.4378015593
 11
311.1652488521
 21
217.7913964498
  0
LINE
  5
379
100
AcDbEntity
  8
0
100
AcDbLine
 62
7
  6
CONTINUOUS
 10
311.6277151933
 20
216.5387526776
 11
311.9824056188
 21
216.8934431031
  0
LINE
  5
37A
100
AcDbEntity
  8
0
100
AcDbLine
 62
7
  6
CONTINUOUS
 10
316.0286502111
 20
187.3992873379
 11
316.0286502111
 21
204.5610080389
  0
LWPOLYLINE
  5
37B
100
AcDbEntity
  8
KONSTRUKTIONSELEMENTE
100
AcDbPolyline
 62
7
  6
CONTINUOUS
 90
7
 70
0
 10
315.4443643852
 20
184.8822622578
 10
315.5737178043
 20
185.1574956838
 10
315.741664238
 20
185.5966862121
 10
315.8734041238
 20
186.060035933
 10
315.9662958638
 20
186.5438816913
 10
316.018044825
 20
187.0445807896
 10
316.0286503098
 20
187.3991687287
  0
LWPOLYLINE
  5
37C
100
AcDbEntity
  8
0
100
AcDbPolyline
 62
7
  6
CONTINUOUS
 90
7
 70
0
 10
315.4443643852
 20
184.8822622578
 10
315.5737178043
 20
185.1574956838
 10
315.741664238
 20
185.5966862121
 10
315.8734041238
 20
186.060035933
 10
315.9662958638
 20
186.5438816913
 10
316.018044825
 20
187.0445807896
 10
316.0286503098
 20
187.3991687287
  0
LWPOLYLINE
  5
37D
100
AcDbEntity
  8
KONSTRUKTIONSELEMENTE
100
AcDbPolyline
 62
7
  6
CONTINUOUS
 90
3
 70
0
 10
314.0920183255
 20
182.233503188
 10
314.4039260856
 20
182.8410568869
 10
315.4443621579
 20
184.8822605073
  0
LWPOLYLINE
  5
37E
100
AcDbEntity
  8
0
100
AcDbPolyline
 62
7
  6
CONTINUOUS
 90
3
 70
0
 10
314.0920183255
 20
182.233503188
 10
314.4039260856
 20
182.8410568869
 10
315.4443621579
 20
184.8822605073
  0
LINE
  5
37F
100
AcDbEntity
  8
0
100
AcDbLine
 62
7
  6
CONTINUOUS
 10
310.7677975304
 20
178.909282393
 11
314.0921821087
 21
182.2336669713
  0
LINE
  5
380
100
AcDbEntity
  8
BEZUGSACHSEN
100
AcDbLine
 62
7
  6
CONTINUOUS
 10
310.7677891448
 20
178.9092740073
 11
310.7673890188
 21
178.9089234016
  0
LINE
  5
381
100
AcDbEntity
  8
0
100
AcDbLine
 62
7
  6
CONTINUOUS
 10
303.1147999685
 20
173.0332132022
 11
310.7673839097
 21
178.9089182933
  0
LINE
  5
382
100
AcDbEntity
  8
0
100
AcDbLine
 62
7
  6
CONTINUOUS
 10
294.3021413575
 20
166.281135668
 11
303.1147999685
 21
173.0332132022
  0
LINE
  5
383
100
AcDbEntity
  8
BEZUGSACHSEN
100
AcDbLine
 62
7
  6
CONTINUOUS
 10
293.0286502111
 20
273.4726353379
 11
302.0286502111
 21
273.4726353379
  0
LINE
  5
384
100
AcDbEntity
  8
KONSTRUKTIONSELEMENTE
100
AcDbLine
 62
7
  6
CONTINUOUS
 10
59.7335801766
 20
126.4882444031
 11
59.7335801766
 21
122.4124481637
  0
LINE
  5
385
100
AcDbEntity
  8
0
100
AcDbLine
 62
7
  6
CONTINUOUS
 10
59.7335801772
 20
98.5084889789
 11
59.7335801766
 21
94.4327717781
  0
LWPOLYLINE
  5
386
100
AcDbEntity
  8
KONSTRUKTIONSELEMENTE
100
AcDbPolyline
 62
7
  6
CONTINUOUS
 90
3
 70
0
 10
59.7335809751
 20
122.4121421073
 10
59.7405239455
 20
122.2079226882
 10
59.75652928
 20
122.0419671945
  0
LWPOLYLINE
  5
387
100
AcDbEntity
  8
0
100
AcDbPolyline
 62
7
  6
CONTINUOUS
 90
3
 70
0
 10
62.3410146542
 20
99.9736822598
 10
62.340961444
 20
99.9365517466
 10
62.3392966596
 20
99.7767535482
  0
LINE
  5
388
100
AcDbEntity
  8
0
100
AcDbLine
 62
7
  6
CONTINUOUS
 10
62.3392966596
 20
99.7767535482
 11
62.3356703383
 21
99.6390781415
  0
LWPOLYLINE
  5
389
100
AcDbEntity
  8
0
100
AcDbPolyline
 62
7
  6
CONTINUOUS
 90
8
 70
0
 10
62.3356703383
 20
99.6390781415
 10
62.3305938125
 20
99.5222509696
 10
62.3245293488
 20
99.4251109297
 10
62.3180286906
 20
99.347470935
 10
62.3116660866
 20
99.2884660553
 10
62.3064905341
 20
99.2502316396
 10
62.3037225481
 20
99.2335918007
 10
62.3036013929
 20
99.232980639
  0
LWPOLYLINE
  5
38A
100
AcDbEntity
  8
0
100
AcDbPolyline
 62
7
  6
CONTINUOUS
 90
4
 70
0
 10
59.7584162128
 20
94.3077210988
 10
60.4683957686
 20
92.7056675224
 10
61.4140036479
 20
90.442969834
 10
62.4035713393
 20
87.9584392684
  0
LWPOLYLINE
  5
38B
100
AcDbEntity
  8
0
100
AcDbPolyline
 62
7
  6
CONTINUOUS
 90
19
 70
0
 10
65.7050511785
 20
79.4955203345
 10
65.8018679443
 20
79.2652933198
 10
65.9678992847
 20
78.9087896189
 10
66.1688480219
 20
78.5275700721
 10
66.4056263851
 20
78.1318042317
 10
66.6772474431
 20
77.7321223074
 10
66.9865489469
 20
77.3317354935
 10
67.3342433355
 20
76.9365208467
 10
67.720983111
 20
76.5517435871
 10
68.1465156624
 20
76.1829892182
 10
68.6101255948
 20
75.8356306117
 10
69.1105337268
 20
75.5148963903
 10
69.6450916292
 20
75.2262413664
 10
70.2105254064
 20
74.9746202332
 10
70.80304122
 20
74.7644129419
 10
71.4182222759
 20
74.5994439186
 10
72.0511360518
 20
74.4828794939
 10
72.6956772273
 20
74.41719074
 10
73.1859808166
 20
74.4022095994
  0
LINE
  5
38C
100
AcDbEntity
  8
0
100
AcDbLine
 62
7
  6
CONTINUOUS
 10
65.7050512172
 20
79.4955203324
 11
65.7058503631
 21
79.4935408299
  0
LWPOLYLINE
  5
38D
100
AcDbEntity
  8
0
100
AcDbPolyline
 62
7
  6
CONTINUOUS
 90
3
 70
0
 10
62.4035713393
 20
87.9584392684
 10
64.5549310938
 20
82.4025623885
 10
65.7058503631
 20
79.4935408299
  0
LWPOLYLINE
  5
38E
100
AcDbEntity
  8
KONSTRUKTIONSELEMENTE
100
AcDbPolyline
 62
7
  6
CONTINUOUS
 90
11
 70
0
 10
59.7565429829
 20
122.0419689126
 10
62.1269756316
 20
103.0243473962
 10
62.1754529904
 20
102.5943045995
 10
62.2178259478
 20
102.1758782601
 10
62.2539372964
 20
101.7724294229
 10
62.2837267285
 20
101.3871402714
 10
62.3071368909
 20
101.0232197526
 10
62.3242907971
 20
100.6835487541
 10
62.3353154269
 20
100.3708925629
 10
62.3405021969
 20
100.0881346798
 10
62.3410146542
 20
99.9736822598
  0
LINE
  5
38F
100
AcDbEntity
  8
0
100
AcDbLine
 62
7
  6
CONTINUOUS
 10
75.0999405884
 20
80.9244649395
 11
75.0999405884
 21
80.569774514
  0
LINE
  5
390
100
AcDbEntity
  8
0
100
AcDbLine
 62
7
  6
CONTINUOUS
 10
75.0999405884
 20
78.803144596
 11
75.0999405884
 21
78.4484541704
  0
LINE
  5
391
100
AcDbEntity
  8
0
100
AcDbLine
 62
7
  6
CONTINUOUS
 10
75.5999401115
 20
80.9244649395
 11
75.5999401115
 21
80.569774514
  0
LINE
  5
392
100
AcDbEntity
  8
0
100
AcDbLine
 62
7
  6
CONTINUOUS
 10
76.5374401115
 20
79.8433208269
 11
76.5374401115
 21
79.4897669241
  0
LINE
  5
393
100
AcDbEntity
  8
0
100
AcDbLine
 62
7
  6
CONTINUOUS
 10
76.9749405884
 20
80.9244649395
 11
76.9749405884
 21
79.8099545271
  0
LINE
  5
394
100
AcDbEntity
  8
0
100
AcDbLine
 62
7
  6
CONTINUOUS
 10
76.9749405884
 20
79.4446324541
 11
76.9749405884
 21
78.4484541704
  0
LINE
  5
395
100
AcDbEntity
  8
0
100
AcDbLine
 62
7
  6
CONTINUOUS
 10
77.3499405884
 20
78.4484541704
 11
77.3499405884
 21
80.9244649395
  0
LINE
  5
396
100
AcDbEntity
  8
0
100
AcDbLine
 62
7
  6
CONTINUOUS
 10
77.8499401115
 20
80.3970867911
 11
77.8499401115
 21
79.8099545271
  0
LINE
  5
397
100
AcDbEntity
  8
0
100
AcDbLine
 62
7
  6
CONTINUOUS
 10
77.8499401115
 20
79.4427179279
 11
77.8499401115
 21
78.9148508679
  0
LINE
  5
398
100
AcDbEntity
  8
0
100
AcDbLine
 62
7
  6
CONTINUOUS
 10
77.9124405884
 20
80.5390384413
 11
77.9124405884
 21
80.1849917425
  0
LINE
  5
399
100
AcDbEntity
  8
0
100
AcDbLine
 62
7
  6
CONTINUOUS
 10
77.9124405884
 20
79.5748501026
 11
77.9124405884
 21
79.2212347129
  0
LINE
  5
39A
100
AcDbEntity
  8
0
100
AcDbLine
 62
7
  6
CONTINUOUS
 10
78.0999405884
 20
80.7304973171
 11
78.0999405884
 21
80.3761622005
  0
LINE
  5
39B
100
AcDbEntity
  8
0
100
AcDbLine
 62
7
  6
CONTINUOUS
 10
78.0999405884
 20
79.4897669241
 11
78.0999405884
 21
79.3996496127
  0
LINE
  5
39C
100
AcDbEntity
  8
0
100
AcDbLine
 62
7
  6
CONTINUOUS
 10
78.2249401115
 20
78.9581644456
 11
78.2249401115
 21
79.0452472064
  0
LINE
  5
39D
100
AcDbEntity
  8
0
100
AcDbLine
 62
7
  6
CONTINUOUS
 10
78.2249401115
 20
79.8563024577
 11
78.2249401115
 21
79.9962573216
  0
LINE
  5
39E
100
AcDbEntity
  8
0
100
AcDbLine
 62
7
  6
CONTINUOUS
 10
78.2874405884
 20
80.0713292728
 11
78.2874405884
 21
79.717713883
  0
LINE
  5
39F
100
AcDbEntity
  8
0
100
AcDbLine
 62
7
  6
CONTINUOUS
 10
78.2874405884
 20
79.182665099
 11
78.2874405884
 21
78.8286801124
  0
LINE
  5
3A0
100
AcDbEntity
  8
0
100
AcDbLine
 62
7
  6
CONTINUOUS
 10
78.3499403499
 20
80.8757374399
 11
78.3499403499
 21
80.5211421435
  0
LINE
  5
3A1
100
AcDbEntity
  8
0
100
AcDbLine
 62
7
  6
CONTINUOUS
 10
78.4124401115
 20
79.9796586252
 11
78.4124401115
 21
79.6260801314
  0
LINE
  5
3A2
100
AcDbEntity
  8
0
100
AcDbLine
 62
7
  6
CONTINUOUS
 10
78.4124401115
 20
79.0972306
 11
78.4124401115
 21
78.7431180392
  0
LINE
  5
3A3
100
AcDbEntity
  8
0
100
AcDbLine
 62
7
  6
CONTINUOUS
 10
78.5999401115
 20
79.9340569527
 11
78.5999401115
 21
79.5804907551
  0
LINE
  5
3A4
100
AcDbEntity
  8
0
100
AcDbLine
 62
7
  6
CONTINUOUS
 10
78.5999401115
 20
79.054748035
 11
78.5999401115
 21
78.7005654555
  0
LINE
  5
3A5
100
AcDbEntity
  8
0
100
AcDbLine
 62
7
  6
CONTINUOUS
 10
78.6624405884
 20
80.9244649395
 11
78.6624405884
 21
80.569774514
  0
LINE
  5
3A6
100
AcDbEntity
  8
0
100
AcDbLine
 62
7
  6
CONTINUOUS
 10
79.7874405884
 20
80.2802721255
 11
79.7874405884
 21
79.5804907551
  0
LINE
  5
3A7
100
AcDbEntity
  8
0
100
AcDbLine
 62
7
  6
CONTINUOUS
 10
79.7874405884
 20
79.3101388413
 11
79.7874405884
 21
78.7005654555
  0
LINE
  5
3A8
100
AcDbEntity
  8
0
100
AcDbLine
 62
7
  6
CONTINUOUS
 10
80.1624402307
 20
78.4484541704
 11
80.1624402307
 21
80.9244649395
  0
LINE
  5
3A9
100
AcDbEntity
  8
0
100
AcDbLine
 62
7
  6
CONTINUOUS
 10
80.6624404692
 20
80.9244649395
 11
80.6624404692
 21
80.569774514
  0
LINE
  5
3AA
100
AcDbEntity
  8
0
100
AcDbLine
 62
7
  6
CONTINUOUS
 10
80.7249402307
 20
79.4427179279
 11
80.7249402307
 21
78.9148508679
  0
LINE
  5
3AB
100
AcDbEntity
  8
0
100
AcDbLine
 62
7
  6
CONTINUOUS
 10
80.7874403499
 20
79.5748501026
 11
80.7874403499
 21
79.2212347129
  0
LINE
  5
3AC
100
AcDbEntity
  8
0
100
AcDbLine
 62
7
  6
CONTINUOUS
 10
80.9749403499
 20
79.7532076136
 11
80.9749403499
 21
79.3996496127
  0
LINE
  5
3AD
100
AcDbEntity
  8
0
100
AcDbLine
 62
7
  6
CONTINUOUS
 10
81.0999402307
 20
80.9244649395
 11
81.0999402307
 21
80.569774514
  0
LINE
  5
3AE
100
AcDbEntity
  8
0
100
AcDbLine
 62
7
  6
CONTINUOUS
 10
81.0999402307
 20
78.9148508679
 11
81.0999402307
 21
79.0452472064
  0
LINE
  5
3AF
100
AcDbEntity
  8
0
100
AcDbLine
 62
7
  6
CONTINUOUS
 10
81.1624403499
 20
79.1398696512
 11
81.1624403499
 21
78.7858229524
  0
LINE
  5
3B0
100
AcDbEntity
  8
0
100
AcDbLine
 62
7
  6
CONTINUOUS
 10
81.2874402307
 20
79.054748035
 11
81.2874402307
 21
78.7005654555
  0
LINE
  5
3B1
100
AcDbEntity
  8
0
100
AcDbLine
 62
7
  6
CONTINUOUS
 10
81.4749402307
 20
79.0124220514
 11
81.4749402307
 21
78.6581652894
  0
LINE
  5
3B2
100
AcDbEntity
  8
0
100
AcDbLine
 62
7
  6
CONTINUOUS
 10
81.5999404692
 20
79.9340569527
 11
81.5999404692
 21
79.5804907551
  0
LINE
  5
3B3
100
AcDbEntity
  8
0
100
AcDbLine
 62
7
  6
CONTINUOUS
 10
82.6624403499
 20
80.9244649395
 11
82.6624403499
 21
79.5804907551
  0
LINE
  5
3B4
100
AcDbEntity
  8
0
100
AcDbLine
 62
7
  6
CONTINUOUS
 10
82.6624403499
 20
79.3101388413
 11
82.6624403499
 21
78.6581652894
  0
LINE
  5
3B5
100
AcDbEntity
  8
0
100
AcDbLine
 62
7
  6
CONTINUOUS
 10
83.0374403499
 20
78.4484541704
 11
83.0374403499
 21
80.9244649395
  0
LINE
  5
3B6
100
AcDbEntity
  8
0
100
AcDbLine
 62
7
  6
CONTINUOUS
 10
83.5374404096
 20
78.803144596
 11
83.5374404096
 21
78.4484541704
  0
LINE
  5
3B7
100
AcDbEntity
  8
0
100
AcDbLine
 62
7
  6
CONTINUOUS
 10
84.5374403499
 20
80.9244649395
 11
84.5374403499
 21
80.569774514
  0
LINE
  5
3B8
100
AcDbEntity
  8
0
100
AcDbLine
 62
7
  6
CONTINUOUS
 10
85.0374403201
 20
80.9244649395
 11
85.0374403201
 21
80.569774514
  0
LINE
  5
3B9
100
AcDbEntity
  8
0
100
AcDbLine
 62
7
  6
CONTINUOUS
 10
86.0374403499
 20
78.803144596
 11
86.0374403499
 21
78.4484541704
  0
LINE
  5
3BA
100
AcDbEntity
  8
BEZUGSACHSEN
100
AcDbLine
 62
7
  6
CONTINUOUS
 10
90.41532501
 20
74.5777481601
 11
90.41532501
 21
92.9022182676
  0
LINE
  5
3BB
100
AcDbEntity
  8
BEZUGSACHSEN
100
AcDbLine
 62
7
  6
CONTINUOUS
 10
91.4374403499
 20
82.9023628386
 11
91.4374403499
 21
102.9020563177
  0
LINE
  5
3BC
100
AcDbEntity
  8
BEZUGSACHSEN
100
AcDbLine
 62
7
  6
CONTINUOUS
 10
92.3111809511
 20
97.4022095782
 11
92.3111809511
 21
88.4022095782
  0
LINE
  5
3BD
100
AcDbEntity
  8
BEZUGSACHSEN
100
AcDbLine
 62
7
  6
CONTINUOUS
 10
91.4374403499
 20
82.9022095782
 11
90.41532501
 21
74.5777481601
  0
LWPOLYLINE
  5
3BE
100
AcDbEntity
  8
KONSTRUKTIONSELEMENTE
100
AcDbPolyline
 62
7
  6
CONTINUOUS
 90
42
 70
0
 10
87.9384008791
 20
130.0402156247
 10
87.92952875
 20
130.0813178732
 10
87.9198259845
 20
130.1239400006
 10
87.9082906205
 20
130.1711971598
 10
87.8943381896
 20
130.223607153
 10
87.8764664268
 20
130.2842573437
 10
87.8556318025
 20
130.3476928826
 10
87.8336175956
 20
130.4081566241
 10
87.8098204091
 20
130.4676134327
 10
87.7846863845
 20
130.5251165728
 10
87.7573278073
 20
130.5827122777
 10
87.7265983855
 20
130.6423204778
 10
87.6928049112
 20
130.7027450034
 10
87.6558787099
 20
130.7636619393
 10
87.6160377459
 20
130.8243624784
 10
87.5736022624
 20
130.8841507957
 10
87.5286148784
 20
130.9428382615
 10
87.4813299517
 20
131.0000122233
 10
87.4316295963
 20
131.055750467
 10
87.3794794346
 20
131.1100019263
 10
87.3248607305
 20
131.1626872031
 10
87.2677300317
 20
131.2137398796
 10
87.2081215056
 20
131.263017321
 10
87.1460569539
 20
131.3103913886
 10
87.0815631524
 20
131.3557312809
 10
87.0146733009
 20
131.3989027799
 10
86.9454276703
 20
131.4397683532
 10
86.8738734903
 20
131.4781877458
 10
86.8000662493
 20
131.5140177807
 10
86.724069292
 20
131.5471131567
 10
86.6459551273
 20
131.5773264046
 10
86.5658053745
 20
131.6045085624
 10
86.4837106154
 20
131.6285097673
 10
86.3997716825
 20
131.6491794064
 10
86.314099495
 20
131.6663668047
 10
86.2268159298
 20
131.6799216559
 10
86.1380544324
 20
131.6896946447
 10
86.0479601782
 20
131.6955381901
 10
85.9566905237
 20
131.6973071792
 10
85.864415374
 20
131.6948597725
 10
85.7713175294
 20
131.6880582723
 10
85.7160515184
 20
131.6819452629
  0
LINE
  5
3BF
100
AcDbEntity
  8
KONSTRUKTIONSELEMENTE
100
AcDbLine
 62
7
  6
CONTINUOUS
 10
87.9486544242
 20
129.9905920748
 11
87.9384008791
 21
130.0402156247
  0
LINE
  5
3C0
100
AcDbEntity
  8
KONSTRUKTIONSELEMENTE
100
AcDbLine
 62
7
  6
CONTINUOUS
 10
88.1507356436
 20
128.976706996
 11
87.9485008531
 21
129.9914001326
  0
LINE
  5
3C1
100
AcDbEntity
  8
KONSTRUKTIONSELEMENTE
100
AcDbLine
 62
7
  6
CONTINUOUS
 10
88.3752120434
 20
127.8042508748
 11
88.1507356436
 21
128.976706996
  0
LINE
  5
3C2
100
AcDbEntity
  8
BEZUGSACHSEN
100
AcDbLine
 62
7
  6
CONTINUOUS
 10
91.4374403499
 20
102.9022095782
 11
88.4734711163
 21
127.0418018191
  0
LINE
  5
3C3
100
AcDbEntity
  8
0
100
AcDbLine
 62
7
  6
CONTINUOUS
 10
98.9474403499
 20
83.6022095782
 11
98.9474403499
 21
84.0799737704
  0
LINE
  5
3C4
100
AcDbEntity
  8
0
100
AcDbLine
 62
7
  6
CONTINUOUS
 10
99.5099403499
 20
83.6022095782
 11
99.5099403499
 21
83.6120371879
  0
LINE
  5
3C5
100
AcDbEntity
  8
0
100
AcDbLine
 62
7
  6
CONTINUOUS
 10
99.5099403499
 20
83.6321262635
 11
99.5099403499
 21
83.7302221503
  0
LWPOLYLINE
  5
3C6
100
AcDbEntity
  8
KONSTRUKTIONSELEMENTE
100
AcDbPolyline
 62
7
  6
CONTINUOUS
 90
19
 70
0
 10
187.2889245928
 20
74.4022095968
 10
187.7917922593
 20
74.4179713867
 10
188.4353259322
 20
74.484543612
 10
189.0671194269
 20
74.601815556
 10
189.6811145354
 20
74.7673057043
 10
190.2724175493
 20
74.9778465267
 10
190.8366487694
 20
75.2296207487
 10
191.3700481603
 20
75.5182627922
 10
191.869372605
 20
75.8388395584
 10
192.3319995144
 20
76.1859242952
 10
192.7566658825
 20
76.5543186102
 10
193.1426684513
 20
76.9386839628
 10
193.4897559848
 20
77.3334652704
 10
193.7985802053
 20
77.7334307359
 10
194.0698417879
 20
78.1327264154
 10
194.3063693872
 20
78.5281705124
 10
194.5071499648
 20
78.9091305013
 10
194.6730732289
 20
79.2654314664
 10
194.7698274555
 20
79.4955152148
  0
LWPOLYLINE
  5
3C7
100
AcDbEntity
  8
RUNDUNGEN
100
AcDbPolyline
 62
7
  6
CONTINUOUS
 90
6
 70
0
 10
94.1750677209
 20
84.2602211159
 10
94.4079482272
 20
84.1348088989
 10
94.7056463979
 20
84.0176998574
 10
95.0193039727
 20
83.9400143058
 10
95.3391864655
 20
83.9046020401
 10
95.4428644987
 20
83.9022143127
  0
LINE
  5
3C8
100
AcDbEntity
  8
RUNDUNGEN
100
AcDbLine
 62
7
  6
CONTINUOUS
 10
94.175282419
 20
84.260089422
 11
94.1751051463
 21
84.2601983141
  0
LINE
  5
3C9
100
AcDbEntity
  8
0
100
AcDbLine
 62
7
  6
CONTINUOUS
 10
100.5074403499
 20
101.6780386944
 11
100.5074403499
 21
102.2022095782
  0
LINE
  5
3CA
100
AcDbEntity
  8
0
100
AcDbLine
 62
7
  6
CONTINUOUS
 10
101.0674403499
 20
102.0694226484
 11
101.0674403499
 21
102.1980027395
  0
LINE
  5
3CB
100
AcDbEntity
  8
0
100
AcDbLine
 62
7
  6
CONTINUOUS
 10
101.1974403499
 20
84.0799737704
 11
101.1974403499
 21
83.7782033941
  0
LINE
  5
3CC
100
AcDbEntity
  8
0
100
AcDbLine
 62
7
  6
CONTINUOUS
 10
101.2911902605
 20
83.7302221503
 11
101.2911902605
 21
83.6321262635
  0
LINE
  5
3CD
100
AcDbEntity
  8
0
100
AcDbLine
 62
7
  6
CONTINUOUS
 10
101.5724402605
 20
83.7215462579
 11
101.5724402605
 21
83.6365358207
  0
LINE
  5
3CE
100
AcDbEntity
  8
0
100
AcDbLine
 62
7
  6
CONTINUOUS
 10
101.6661904394
 20
84.0696597023
 11
101.6661904394
 21
83.7679926131
  0
LINE
  5
3CF
100
AcDbEntity
  8
0
100
AcDbLine
 62
7
  6
CONTINUOUS
 10
101.7599403499
 20
83.7051126579
 11
101.7599403499
 21
83.6462657989
  0
LINE
  5
3D0
100
AcDbEntity
  8
0
100
AcDbLine
 62
7
  6
CONTINUOUS
 10
101.8536902605
 20
83.6631401924
 11
101.8536902605
 21
83.6827540449
  0
LINE
  5
3D1
100
AcDbEntity
  8
0
100
AcDbLine
 62
7
  6
CONTINUOUS
 10
102.0411903499
 20
84.0405807183
 11
102.0411903499
 21
83.7392044533
  0
LINE
  5
3D2
100
AcDbEntity
  8
0
100
AcDbLine
 62
7
  6
CONTINUOUS
 10
102.3224403499
 20
84.0061452483
 11
102.3224403499
 21
83.7051126579
  0
LINE
  5
3D3
100
AcDbEntity
  8
0
100
AcDbLine
 62
7
  6
CONTINUOUS
 10
102.4161902605
 20
83.6572112542
 11
102.4161902605
 21
83.9835616688
  0
LINE
  5
3D4
100
AcDbEntity
  8
0
100
AcDbLine
 62
7
  6
CONTINUOUS
 10
102.5099404394
 20
83.9022095782
 11
102.5099404394
 21
83.6022095782
  0
LINE
  5
3D5
100
AcDbEntity
  8
0
100
AcDbLine
 62
7
  6
CONTINUOUS
 10
103.2599402605
 20
83.6036256314
 11
103.2599402605
 21
84.0799737704
  0
LINE
  5
3D6
100
AcDbEntity
  8
0
100
AcDbLine
 62
7
  6
CONTINUOUS
 10
103.5374403499
 20
101.8876429723
 11
103.5374403499
 21
102.1877913463
  0
LINE
  5
3D7
100
AcDbEntity
  8
0
100
AcDbLine
 62
7
  6
CONTINUOUS
 10
103.8224405288
 20
83.6036256314
 11
103.8224405288
 21
84.0799737704
  0
LINE
  5
3D8
100
AcDbEntity
  8
0
100
AcDbLine
 62
7
  6
CONTINUOUS
 10
103.9161901711
 20
83.9022095782
 11
103.9161901711
 21
83.6022095782
  0
LINE
  5
3D9
100
AcDbEntity
  8
0
100
AcDbLine
 62
7
  6
CONTINUOUS
 10
104.1036905288
 20
83.9022095782
 11
104.1036905288
 21
83.6022095782
  0
LINE
  5
3DA
100
AcDbEntity
  8
0
100
AcDbLine
 62
7
  6
CONTINUOUS
 10
104.3849405288
 20
83.9022095782
 11
104.3849405288
 21
83.6022095782
  0
LINE
  5
3DB
100
AcDbEntity
  8
0
100
AcDbLine
 62
7
  6
CONTINUOUS
 10
104.7599401711
 20
83.9022095782
 11
104.7599401711
 21
83.6022095782
  0
LINE
  5
3DC
100
AcDbEntity
  8
0
100
AcDbLine
 62
7
  6
CONTINUOUS
 10
105.1349403499
 20
83.9022095782
 11
105.1349403499
 21
83.6022095782
  0
LINE
  5
3DD
100
AcDbEntity
  8
0
100
AcDbLine
 62
7
  6
CONTINUOUS
 10
105.1874403499
 20
101.6780386944
 11
105.1874403499
 21
102.2022095782
  0
LINE
  5
3DE
100
AcDbEntity
  8
0
100
AcDbLine
 62
7
  6
CONTINUOUS
 10
105.5099405288
 20
83.9022095782
 11
105.5099405288
 21
83.6022095782
  0
LINE
  5
3DF
100
AcDbEntity
  8
0
100
AcDbLine
 62
7
  6
CONTINUOUS
 10
73.18553248
 20
74.4022095782
 11
89.5959712805
 21
74.4022095782
  0
LINE
  5
3E0
100
AcDbEntity
  8
KONSTRUKTIONSELEMENTE
100
AcDbLine
 62
7
  6
CONTINUOUS
 10
73.505995264
 20
74.4022095782
 11
89.5959712805
 21
74.4022095782
  0
LINE
  5
3E1
100
AcDbEntity
  8
KONSTRUKTIONSELEMENTE
100
AcDbLine
 62
7
  6
CONTINUOUS
 10
170.8789094194
 20
74.4022095782
 11
187.2893482199
 21
74.4022095782
  0
LINE
  5
3E2
100
AcDbEntity
  8
0
100
AcDbLine
 62
7
  6
CONTINUOUS
 10
105.7911905288
 20
83.9022095782
 11
105.7911905288
 21
83.6022095782
  0
LINE
  5
3E3
100
AcDbEntity
  8
0
100
AcDbLine
 62
7
  6
CONTINUOUS
 10
105.9786903499
 20
83.9022095782
 11
105.9786903499
 21
83.6022095782
  0
LINE
  5
3E4
100
AcDbEntity
  8
0
100
AcDbLine
 62
7
  6
CONTINUOUS
 10
106.0724405288
 20
83.6036256314
 11
106.0724405288
 21
84.0799737704
  0
LINE
  5
3E5
100
AcDbEntity
  8
0
100
AcDbLine
 62
7
  6
CONTINUOUS
 10
106.6349405288
 20
83.6036256314
 11
106.6349405288
 21
84.0799737704
  0
LINE
  5
3E6
100
AcDbEntity
  8
0
100
AcDbLine
 62
7
  6
CONTINUOUS
 10
107.3849403499
 20
83.6022095782
 11
107.3849403499
 21
84.0799737704
  0
LINE
  5
3E7
100
AcDbEntity
  8
0
100
AcDbLine
 62
7
  6
CONTINUOUS
 10
107.9474403499
 20
83.6022095782
 11
107.9474403499
 21
83.7215462579
  0
LINE
  5
3E8
100
AcDbEntity
  8
0
100
AcDbLine
 62
7
  6
CONTINUOUS
 10
108.2174403499
 20
101.8876429723
 11
108.2174403499
 21
102.1877913463
  0
LINE
  5
3E9
100
AcDbEntity
  8
0
100
AcDbLine
 62
7
  6
CONTINUOUS
 10
109.6349403499
 20
84.0799737704
 11
109.6349403499
 21
83.7782033941
  0
LINE
  5
3EA
100
AcDbEntity
  8
0
100
AcDbLine
 62
7
  6
CONTINUOUS
 10
109.6349403499
 20
83.7215462579
 11
109.6349403499
 21
83.6022095782
  0
LINE
  5
3EB
100
AcDbEntity
  8
0
100
AcDbLine
 62
7
  6
CONTINUOUS
 10
110.0099399923
 20
83.7131765119
 11
110.0099399923
 21
83.6022095782
  0
LINE
  5
3EC
100
AcDbEntity
  8
0
100
AcDbLine
 62
7
  6
CONTINUOUS
 10
110.1036907076
 20
84.0696597023
 11
110.1036907076
 21
83.7679926131
  0
LINE
  5
3ED
100
AcDbEntity
  8
0
100
AcDbLine
 62
7
  6
CONTINUOUS
 10
110.2911899923
 20
83.6973544508
 11
110.2911899923
 21
83.6022095782
  0
LINE
  5
3EE
100
AcDbEntity
  8
0
100
AcDbLine
 62
7
  6
CONTINUOUS
 10
110.4786903499
 20
84.0499634836
 11
110.4786903499
 21
83.7484934408
  0
LINE
  5
3EF
100
AcDbEntity
  8
0
100
AcDbLine
 62
7
  6
CONTINUOUS
 10
110.4786903499
 20
83.675911385
 11
110.4786903499
 21
83.6022095782
  0
LINE
  5
3F0
100
AcDbEntity
  8
0
100
AcDbLine
 62
7
  6
CONTINUOUS
 10
110.5724399923
 20
83.6036256314
 11
110.5724399923
 21
83.6515865129
  0
LINE
  5
3F1
100
AcDbEntity
  8
0
100
AcDbLine
 62
7
  6
CONTINUOUS
 10
75.0999405884
 20
78.4484541704
 11
75.5999401115
 21
78.4484541704
  0
LINE
  5
3F2
100
AcDbEntity
  8
0
100
AcDbLine
 62
7
  6
CONTINUOUS
 10
76.9749405884
 20
78.4484541704
 11
77.3499405884
 21
78.4484541704
  0
LINE
  5
3F3
100
AcDbEntity
  8
0
100
AcDbLine
 62
7
  6
CONTINUOUS
 10
78.6624405884
 20
78.4484541704
 11
80.1624402307
 21
78.4484541704
  0
LINE
  5
3F4
100
AcDbEntity
  8
0
100
AcDbLine
 62
7
  6
CONTINUOUS
 10
81.5374403499
 20
78.4484541704
 11
83.0374403499
 21
78.4484541704
  0
LINE
  5
3F5
100
AcDbEntity
  8
0
100
AcDbLine
 62
7
  6
CONTINUOUS
 10
83.5374404096
 20
78.4484541704
 11
83.9124404096
 21
78.4484541704
  0
LINE
  5
3F6
100
AcDbEntity
  8
0
100
AcDbLine
 62
7
  6
CONTINUOUS
 10
85.6624403499
 20
78.4484541704
 11
86.0374403499
 21
78.4484541704
  0
LINE
  5
3F7
100
AcDbEntity
  8
0
100
AcDbLine
 62
7
  6
CONTINUOUS
 10
175.4374403797
 20
78.4484541704
 11
175.9374403499
 21
78.4484541704
  0
LINE
  5
3F8
100
AcDbEntity
  8
0
100
AcDbLine
 62
7
  6
CONTINUOUS
 10
177.4374403499
 20
78.4484541704
 11
177.8124403499
 21
78.4484541704
  0
LINE
  5
3F9
100
AcDbEntity
  8
0
100
AcDbLine
 62
7
  6
CONTINUOUS
 10
179.3749404692
 20
78.4484541704
 11
179.8124402307
 21
78.4484541704
  0
LINE
  5
3FA
100
AcDbEntity
  8
0
100
AcDbLine
 62
7
  6
CONTINUOUS
 10
180.3124404692
 20
78.4484541704
 11
181.8124401115
 21
78.4484541704
  0
LINE
  5
3FB
100
AcDbEntity
  8
0
100
AcDbLine
 62
7
  6
CONTINUOUS
 10
183.1249401115
 20
78.4484541704
 11
183.4999401115
 21
78.4484541704
  0
LINE
  5
3FC
100
AcDbEntity
  8
0
100
AcDbLine
 62
7
  6
CONTINUOUS
 10
184.8749405884
 20
78.4484541704
 11
185.3749401115
 21
78.4484541704
  0
LINE
  5
3FD
100
AcDbEntity
  8
0
100
AcDbLine
 62
7
  6
CONTINUOUS
 10
82.6624403499
 20
78.6581652894
 11
81.4749402307
 21
78.6581652894
  0
LINE
  5
3FE
100
AcDbEntity
  8
0
100
AcDbLine
 62
7
  6
CONTINUOUS
 10
181.8749405884
 20
78.7005654853
 11
180.6874401115
 21
78.7005654853
  0
LINE
  5
3FF
100
AcDbEntity
  8
0
100
AcDbLine
 62
7
  6
CONTINUOUS
 10
79.7874405884
 20
78.7005654555
 11
78.5999401115
 21
78.7005654555
  0
LINE
  5
400
100
AcDbEntity
  8
0
100
AcDbLine
 62
7
  6
CONTINUOUS
 10
81.4749402307
 20
79.0124220514
 11
82.6624403499
 21
79.0124220514
  0
LINE
  5
401
100
AcDbEntity
  8
0
100
AcDbLine
 62
7
  6
CONTINUOUS
 10
181.8749405884
 20
79.0547480647
 11
180.6874401115
 21
79.0547480647
  0
LINE
  5
402
100
AcDbEntity
  8
0
100
AcDbLine
 62
7
  6
CONTINUOUS
 10
78.5999401115
 20
79.054748035
 11
79.7874405884
 21
79.054748035
  0
LINE
  5
403
100
AcDbEntity
  8
0
100
AcDbLine
 62
7
  6
CONTINUOUS
 10
78.5999401115
 20
79.3101388413
 11
79.7874405884
 21
79.3101388413
  0
LINE
  5
404
100
AcDbEntity
  8
0
100
AcDbLine
 62
7
  6
CONTINUOUS
 10
81.4749402307
 20
79.3101388413
 11
82.6624403499
 21
79.3101388413
  0
LINE
  5
405
100
AcDbEntity
  8
0
100
AcDbLine
 62
7
  6
CONTINUOUS
 10
177.8124403499
 20
79.354818405
 11
178.8749402307
 21
79.354818405
  0
LINE
  5
406
100
AcDbEntity
  8
0
100
AcDbLine
 62
7
  6
CONTINUOUS
 10
180.6874401115
 20
79.354818405
 11
181.8749405884
 21
79.354818405
  0
LINE
  5
407
100
AcDbEntity
  8
0
100
AcDbLine
 62
7
  6
CONTINUOUS
 10
82.6624403499
 20
79.5804907551
 11
81.5999404692
 21
79.5804907551
  0
LINE
  5
408
100
AcDbEntity
  8
0
100
AcDbLine
 62
7
  6
CONTINUOUS
 10
79.7874405884
 20
79.5804907551
 11
78.5999401115
 21
79.5804907551
  0
LINE
  5
409
100
AcDbEntity
  8
0
100
AcDbLine
 62
7
  6
CONTINUOUS
 10
181.8749405884
 20
79.6260801314
 11
180.6874401115
 21
79.6260801314
  0
LINE
  5
40A
100
AcDbEntity
  8
0
100
AcDbLine
 62
7
  6
CONTINUOUS
 10
178.9999404692
 20
79.6260801314
 11
177.8124403499
 21
79.6260801314
  0
LINE
  5
40B
100
AcDbEntity
  8
0
100
AcDbLine
 62
7
  6
CONTINUOUS
 10
78.5999401115
 20
79.9340569527
 11
79.7874405884
 21
79.9340569527
  0
LINE
  5
40C
100
AcDbEntity
  8
0
100
AcDbLine
 62
7
  6
CONTINUOUS
 10
81.5999404692
 20
79.9340569527
 11
82.6624403499
 21
79.9340569527
  0
LINE
  5
40D
100
AcDbEntity
  8
0
100
AcDbLine
 62
7
  6
CONTINUOUS
 10
181.8749405884
 20
79.9796586252
 11
180.6874401115
 21
79.9796586252
  0
LINE
  5
40E
100
AcDbEntity
  8
0
100
AcDbLine
 62
7
  6
CONTINUOUS
 10
178.9999404692
 20
79.9796586252
 11
177.8124403499
 21
79.9796586252
  0
LINE
  5
40F
100
AcDbEntity
  8
0
100
AcDbLine
 62
7
  6
CONTINUOUS
 10
78.5999401115
 20
80.2802721255
 11
79.7874405884
 21
80.2802721255
  0
LINE
  5
410
100
AcDbEntity
  8
0
100
AcDbLine
 62
7
  6
CONTINUOUS
 10
180.6874401115
 20
80.2802721589
 11
181.8749405884
 21
80.2802721589
  0
LINE
  5
411
100
AcDbEntity
  8
0
100
AcDbLine
 62
7
  6
CONTINUOUS
 10
177.8124403499
 20
80.3281409328
 11
178.9999404692
 21
80.3281409328
  0
LINE
  5
412
100
AcDbEntity
  8
0
100
AcDbLine
 62
7
  6
CONTINUOUS
 10
185.3749401115
 20
80.569774514
 11
184.8749405884
 21
80.569774514
  0
LINE
  5
413
100
AcDbEntity
  8
0
100
AcDbLine
 62
7
  6
CONTINUOUS
 10
183.4999401115
 20
80.569774514
 11
183.1249401115
 21
80.569774514
  0
LINE
  5
414
100
AcDbEntity
  8
0
100
AcDbLine
 62
7
  6
CONTINUOUS
 10
181.8124401115
 20
80.569774514
 11
180.3124404692
 21
80.569774514
  0
LINE
  5
415
100
AcDbEntity
  8
0
100
AcDbLine
 62
7
  6
CONTINUOUS
 10
178.9374403499
 20
80.569774514
 11
177.4374403499
 21
80.569774514
  0
LINE
  5
416
100
AcDbEntity
  8
0
100
AcDbLine
 62
7
  6
CONTINUOUS
 10
176.9374402903
 20
80.569774514
 11
176.5624402903
 21
80.569774514
  0
LINE
  5
417
100
AcDbEntity
  8
0
100
AcDbLine
 62
7
  6
CONTINUOUS
 10
174.8124403499
 20
80.569774514
 11
174.4374403499
 21
80.569774514
  0
LINE
  5
418
100
AcDbEntity
  8
0
100
AcDbLine
 62
7
  6
CONTINUOUS
 10
85.0374403201
 20
80.569774514
 11
84.5374403499
 21
80.569774514
  0
LINE
  5
419
100
AcDbEntity
  8
0
100
AcDbLine
 62
7
  6
CONTINUOUS
 10
83.0374403499
 20
80.569774514
 11
82.6624403499
 21
80.569774514
  0
LINE
  5
41A
100
AcDbEntity
  8
0
100
AcDbLine
 62
7
  6
CONTINUOUS
 10
81.0999402307
 20
80.569774514
 11
80.6624404692
 21
80.569774514
  0
LINE
  5
41B
100
AcDbEntity
  8
0
100
AcDbLine
 62
7
  6
CONTINUOUS
 10
80.1624402307
 20
80.569774514
 11
78.6624405884
 21
80.569774514
  0
LINE
  5
41C
100
AcDbEntity
  8
0
100
AcDbLine
 62
7
  6
CONTINUOUS
 10
77.3499405884
 20
80.569774514
 11
76.9749405884
 21
80.569774514
  0
LINE
  5
41D
100
AcDbEntity
  8
0
100
AcDbLine
 62
7
  6
CONTINUOUS
 10
75.5999401115
 20
80.569774514
 11
75.0999405884
 21
80.569774514
  0
LINE
  5
41E
100
AcDbEntity
  8
0
100
AcDbLine
 62
7
  6
CONTINUOUS
 10
185.3749401115
 20
80.9244649395
 11
184.8749405884
 21
80.9244649395
  0
LINE
  5
41F
100
AcDbEntity
  8
0
100
AcDbLine
 62
7
  6
CONTINUOUS
 10
183.4999401115
 20
80.9244649395
 11
183.1249401115
 21
80.9244649395
  0
LINE
  5
420
100
AcDbEntity
  8
0
100
AcDbLine
 62
7
  6
CONTINUOUS
 10
181.8124401115
 20
80.9244649395
 11
180.3124404692
 21
80.9244649395
  0
LINE
  5
421
100
AcDbEntity
  8
0
100
AcDbLine
 62
7
  6
CONTINUOUS
 10
178.9374403499
 20
80.9244649395
 11
177.4374403499
 21
80.9244649395
  0
LINE
  5
422
100
AcDbEntity
  8
0
100
AcDbLine
 62
7
  6
CONTINUOUS
 10
176.9374402903
 20
80.9244649395
 11
176.5624402903
 21
80.9244649395
  0
LINE
  5
423
100
AcDbEntity
  8
0
100
AcDbLine
 62
7
  6
CONTINUOUS
 10
174.8124403499
 20
80.9244649395
 11
174.4374403499
 21
80.9244649395
  0
LINE
  5
424
100
AcDbEntity
  8
0
100
AcDbLine
 62
7
  6
CONTINUOUS
 10
75.0999405884
 20
80.9244649395
 11
75.5999401115
 21
80.9244649395
  0
LINE
  5
425
100
AcDbEntity
  8
0
100
AcDbLine
 62
7
  6
CONTINUOUS
 10
76.9749405884
 20
80.9244649395
 11
77.3499405884
 21
80.9244649395
  0
LINE
  5
426
100
AcDbEntity
  8
0
100
AcDbLine
 62
7
  6
CONTINUOUS
 10
78.6624405884
 20
80.9244649395
 11
80.1624402307
 21
80.9244649395
  0
LINE
  5
427
100
AcDbEntity
  8
0
100
AcDbLine
 62
7
  6
CONTINUOUS
 10
80.6624404692
 20
80.9244649395
 11
81.0999402307
 21
80.9244649395
  0
LINE
  5
428
100
AcDbEntity
  8
0
100
AcDbLine
 62
7
  6
CONTINUOUS
 10
82.6624403499
 20
80.9244649395
 11
83.0374403499
 21
80.9244649395
  0
LINE
  5
429
100
AcDbEntity
  8
0
100
AcDbLine
 62
7
  6
CONTINUOUS
 10
84.5374403499
 20
80.9244649395
 11
85.0374403201
 21
80.9244649395
  0
LWPOLYLINE
  5
42A
100
AcDbEntity
  8
RUNDUNGEN
100
AcDbPolyline
 62
7
  6
CONTINUOUS
 90
5
 70
0
 10
93.6678716688
 20
84.4022469186
 10
93.8173264621
 20
84.3907577032
 10
93.9622682354
 20
84.3568792179
 10
94.0951720244
 20
84.3038883617
 10
94.1752075153
 20
84.2601570782
  0
LINE
  5
42B
100
AcDbEntity
  8
0
100
AcDbLine
 62
7
  6
CONTINUOUS
 10
110.8536899923
 20
84.0142903218
 11
110.8536899923
 21
83.7131765119
  0
LINE
  5
42C
100
AcDbEntity
  8
0
100
AcDbLine
 62
7
  6
CONTINUOUS
 10
111.0411903499
 20
83.9835616688
 11
111.0411903499
 21
83.6827540449
  0
LINE
  5
42D
100
AcDbEntity
  8
0
100
AcDbLine
 62
7
  6
CONTINUOUS
 10
111.1349399923
 20
83.6036256314
 11
111.1349399923
 21
83.9520811004
  0
LINE
  5
42E
100
AcDbEntity
  8
BEZUGSACHSEN
100
AcDbLine
 62
7
  6
CONTINUOUS
 10
94.1752971383
 20
101.5443387493
 11
94.1751063622
 21
101.5442215912
  0
LWPOLYLINE
  5
42F
100
AcDbEntity
  8
BEZUGSACHSEN
100
AcDbPolyline
 62
7
  6
CONTINUOUS
 90
5
 70
0
 10
94.1752221652
 20
101.5442710366
 10
94.1081385475
 20
101.5069626586
 10
93.9762138721
 20
101.4520596807
 10
93.8315794131
 20
101.4159729708
 10
93.6678747262
 20
101.4021722273
  0
LINE
  5
430
100
AcDbEntity
  8
BEZUGSACHSEN
100
AcDbLine
 62
7
  6
CONTINUOUS
 10
94.4206523423
 20
101.6755502903
 11
94.1750688731
 21
101.5441987505
  0
LWPOLYLINE
  5
431
100
AcDbEntity
  8
RUNDUNGEN
100
AcDbPolyline
 62
7
  6
CONTINUOUS
 90
5
 70
0
 10
165.4321935639
 20
83.9022146998
 10
165.5220049676
 20
83.9040305115
 10
165.8453470998
 20
83.9381402343
 10
166.1625267464
 20
84.0153512765
 10
166.4635441035
 20
84.1327968334
  0
LINE
  5
432
100
AcDbEntity
  8
0
100
AcDbLine
 62
7
  6
CONTINUOUS
 10
111.0775737976
 20
83.6022095782
 11
110.5724399923
 21
83.6022095782
  0
LINE
  5
433
100
AcDbEntity
  8
0
100
AcDbLine
 62
7
  6
CONTINUOUS
 10
110.5007322489
 20
83.6022095782
 11
107.3849403499
 21
83.6022095782
  0
LINE
  5
434
100
AcDbEntity
  8
0
100
AcDbLine
 62
7
  6
CONTINUOUS
 10
106.5775740058
 20
83.6022095782
 11
106.0724405288
 21
83.6022095782
  0
LINE
  5
435
100
AcDbEntity
  8
0
100
AcDbLine
 62
7
  6
CONTINUOUS
 10
106.0007323751
 20
83.6022095782
 11
103.8941482721
 21
83.6022095782
  0
LINE
  5
436
100
AcDbEntity
  8
0
100
AcDbLine
 62
7
  6
CONTINUOUS
 10
103.8224405288
 20
83.6022095782
 11
103.3173067835
 21
83.6022095782
  0
LINE
  5
437
100
AcDbEntity
  8
0
100
AcDbLine
 62
7
  6
CONTINUOUS
 10
102.5099404394
 20
83.6022095782
 11
102.0352225592
 21
83.6022095782
  0
LINE
  5
438
100
AcDbEntity
  8
0
100
AcDbLine
 62
7
  6
CONTINUOUS
 10
101.7599403499
 20
83.6022095782
 11
101.3915310874
 21
83.6022095782
  0
LINE
  5
439
100
AcDbEntity
  8
0
100
AcDbLine
 62
7
  6
CONTINUOUS
 10
99.5099403499
 20
83.6022095782
 11
98.9474403499
 21
83.6022095782
  0
LINE
  5
43A
100
AcDbEntity
  8
0
100
AcDbLine
 62
7
  6
CONTINUOUS
 10
101.1036903052
 20
83.6120371879
 11
99.5099403499
 21
83.6120371879
  0
LINE
  5
43B
100
AcDbEntity
  8
0
100
AcDbLine
 62
7
  6
CONTINUOUS
 10
101.2911902605
 20
83.6321262635
 11
99.5099403499
 21
83.6321262635
  0
LINE
  5
43C
100
AcDbEntity
  8
0
100
AcDbLine
 62
7
  6
CONTINUOUS
 10
109.6349403499
 20
83.7215462579
 11
107.9474403499
 21
83.7215462579
  0
LINE
  5
43D
100
AcDbEntity
  8
0
100
AcDbLine
 62
7
  6
CONTINUOUS
 10
101.2911902605
 20
83.7302221503
 11
99.5099403499
 21
83.7302221503
  0
LINE
  5
43E
100
AcDbEntity
  8
0
100
AcDbLine
 62
7
  6
CONTINUOUS
 10
109.6349403499
 20
83.7782033941
 11
107.3849403499
 21
83.7782033941
  0
LINE
  5
43F
100
AcDbEntity
  8
0
100
AcDbLine
 62
7
  6
CONTINUOUS
 10
106.6349405288
 20
83.7782033941
 11
106.0724405288
 21
83.7782033941
  0
LINE
  5
440
100
AcDbEntity
  8
0
100
AcDbLine
 62
7
  6
CONTINUOUS
 10
103.8224405288
 20
83.7782033941
 11
103.2599402605
 21
83.7782033941
  0
LINE
  5
441
100
AcDbEntity
  8
0
100
AcDbLine
 62
7
  6
CONTINUOUS
 10
101.1974403499
 20
83.7782033941
 11
98.9474403499
 21
83.7782033941
  0
LINE
  5
442
100
AcDbEntity
  8
0
100
AcDbLine
 62
7
  6
CONTINUOUS
 10
116.9374403499
 20
83.9022095782
 11
111.1349399923
 21
83.9022095782
  0
LINE
  5
443
100
AcDbEntity
  8
RUNDUNGEN
100
AcDbLine
 62
7
  6
CONTINUOUS
 10
116.9374403499
 20
83.9022095782
 11
111.1349399923
 21
83.9022095782
  0
LINE
  5
444
100
AcDbEntity
  8
0
100
AcDbLine
 62
7
  6
CONTINUOUS
 10
107.3849403499
 20
83.9022095782
 11
106.6349405288
 21
83.9022095782
  0
LINE
  5
445
100
AcDbEntity
  8
RUNDUNGEN
100
AcDbLine
 62
7
  6
CONTINUOUS
 10
107.3849403499
 20
83.9022095782
 11
106.6349405288
 21
83.9022095782
  0
LINE
  5
446
100
AcDbEntity
  8
0
100
AcDbLine
 62
7
  6
CONTINUOUS
 10
106.0007323751
 20
83.9022095782
 11
103.8941482721
 21
83.9022095782
  0
LINE
  5
447
100
AcDbEntity
  8
RUNDUNGEN
100
AcDbLine
 62
7
  6
CONTINUOUS
 10
106.0007323751
 20
83.9022095782
 11
103.8941482721
 21
83.9022095782
  0
LINE
  5
448
100
AcDbEntity
  8
0
100
AcDbLine
 62
7
  6
CONTINUOUS
 10
103.2599402605
 20
83.9022095782
 11
102.4161902605
 21
83.9022095782
  0
LINE
  5
449
100
AcDbEntity
  8
RUNDUNGEN
100
AcDbLine
 62
7
  6
CONTINUOUS
 10
103.2599402605
 20
83.9022095782
 11
102.4161902605
 21
83.9022095782
  0
LINE
  5
44A
100
AcDbEntity
  8
0
100
AcDbLine
 62
7
  6
CONTINUOUS
 10
98.9474403499
 20
83.9022095782
 11
96.0822480788
 21
83.9022095782
  0
LINE
  5
44B
100
AcDbEntity
  8
RUNDUNGEN
100
AcDbLine
 62
7
  6
CONTINUOUS
 10
143.9374403499
 20
83.9022095782
 11
165.4321935481
 21
83.9022144871
  0
LINE
  5
44C
100
AcDbEntity
  8
0
100
AcDbLine
 62
7
  6
CONTINUOUS
 10
109.6349403499
 20
84.0799737704
 11
107.3849403499
 21
84.0799737704
  0
LINE
  5
44D
100
AcDbEntity
  8
0
100
AcDbLine
 62
7
  6
CONTINUOUS
 10
106.6349405288
 20
84.0799737704
 11
106.0724405288
 21
84.0799737704
  0
LINE
  5
44E
100
AcDbEntity
  8
0
100
AcDbLine
 62
7
  6
CONTINUOUS
 10
103.8224405288
 20
84.0799737704
 11
103.2599402605
 21
84.0799737704
  0
LINE
  5
44F
100
AcDbEntity
  8
0
100
AcDbLine
 62
7
  6
CONTINUOUS
 10
101.1974403499
 20
84.0799737704
 11
98.9474403499
 21
84.0799737704
  0
LINE
  5
450
100
AcDbEntity
  8
BEZUGSACHSEN
100
AcDbLine
 62
7
  6
CONTINUOUS
 10
91.4374403499
 20
84.4022095782
 11
93.6677472342
 21
84.4022095782
  0
LINE
  5
451
100
AcDbEntity
  8
BEZUGSACHSEN
100
AcDbLine
 62
7
  6
CONTINUOUS
 10
167.2078684672
 20
84.4022095782
 11
169.0374403499
 21
84.4022095782
  0
LINE
  5
452
100
AcDbEntity
  8
0
100
AcDbLine
 62
7
  6
CONTINUOUS
 10
133.9934485548
 20
85.4022095782
 11
131.4965032928
 21
85.4022095782
  0
LINE
  5
453
100
AcDbEntity
  8
0
100
AcDbLine
 62
7
  6
CONTINUOUS
 10
130.9669719331
 20
85.4022095782
 11
126.8814321451
 21
85.4022095782
  0
LINE
  5
454
100
AcDbEntity
  8
RUNDUNGEN
100
AcDbLine
 62
7
  6
CONTINUOUS
 10
94.811429285
 20
85.9022095782
 11
166.063689858
 21
85.9022095782
  0
LINE
  5
455
100
AcDbEntity
  8
RUNDUNGEN
100
AcDbLine
 62
7
  6
CONTINUOUS
 10
95.4428644986
 20
83.9022141045
 11
96.0822480788
 21
83.9022095782
  0
LINE
  5
456
100
AcDbEntity
  8
KONSTRUKTIONSELEMENTE
100
AcDbLine
 62
7
  6
CONTINUOUS
 10
83.9168452435
 20
118.0775522579
 11
87.1845194394
 21
115.5204496359
  0
LINE
  5
457
100
AcDbEntity
  8
BEZUGSACHSEN
100
AcDbLine
 62
7
  6
CONTINUOUS
 10
116.9374403499
 20
101.9022095782
 11
116.9374403499
 21
99.9022095782
  0
LINE
  5
458
100
AcDbEntity
  8
0
100
AcDbLine
 62
7
  6
CONTINUOUS
 10
116.9374403499
 20
83.9022095782
 11
116.9374403499
 21
85.9022095782
  0
LINE
  5
459
100
AcDbEntity
  8
KONSTRUKTIONSELEMENTE
100
AcDbLine
 62
7
  6
CONTINUOUS
 10
61.6863186133
 20
128.1538982333
 11
83.9168452435
 21
118.0775522579
  0
LINE
  5
45A
100
AcDbEntity
  8
0
100
AcDbLine
 62
7
  6
CONTINUOUS
 10
126.8814321451
 20
85.9022095782
 11
126.8814321451
 21
85.4022095782
  0
LINE
  5
45B
100
AcDbEntity
  8
0
100
AcDbLine
 62
7
  6
CONTINUOUS
 10
126.8814321451
 20
99.9022095782
 11
126.8814321451
 21
100.4022095782
  0
LINE
  5
45C
100
AcDbEntity
  8
0
100
AcDbLine
 62
7
  6
CONTINUOUS
 10
127.6064833098
 20
99.9022095782
 11
127.6064833098
 21
100.4022095782
  0
LINE
  5
45D
100
AcDbEntity
  8
0
100
AcDbLine
 62
7
  6
CONTINUOUS
 10
128.7714525156
 20
99.9022095782
 11
128.7714525156
 21
100.4022095782
  0
LINE
  5
45E
100
AcDbEntity
  8
0
100
AcDbLine
 62
7
  6
CONTINUOUS
 10
129.0484382503
 20
85.9022095782
 11
129.0484382503
 21
85.4022095782
  0
LINE
  5
45F
100
AcDbEntity
  8
0
100
AcDbLine
 62
7
  6
CONTINUOUS
 10
129.3783774071
 20
99.9022095782
 11
129.3783774071
 21
100.4022095782
  0
LINE
  5
460
100
AcDbEntity
  8
0
100
AcDbLine
 62
7
  6
CONTINUOUS
 10
129.9079087668
 20
99.9022095782
 11
129.9079087668
 21
100.4022095782
  0
LINE
  5
461
100
AcDbEntity
  8
0
100
AcDbLine
 62
7
  6
CONTINUOUS
 10
130.3193139427
 20
85.9022095782
 11
130.3193139427
 21
85.4022095782
  0
LINE
  5
462
100
AcDbEntity
  8
0
100
AcDbLine
 62
7
  6
CONTINUOUS
 10
130.5555667572
 20
99.9022095782
 11
130.5555667572
 21
100.4022095782
  0
LWPOLYLINE
  5
463
100
AcDbEntity
  8
BEZUGSACHSEN
100
AcDbPolyline
 62
7
  6
CONTINUOUS
 90
5
 70
0
 10
95.4430091755
 20
101.9022051448
 10
95.342700355
 20
101.8999701766
 10
95.0262176831
 20
101.8656266505
 10
94.7157372846
 20
101.7899186807
 10
94.4206523423
 20
101.6755502903
  0
LINE
  5
464
100
AcDbEntity
  8
BEZUGSACHSEN
100
AcDbLine
 62
7
  6
CONTINUOUS
 10
94.811429285
 20
99.9022095782
 11
166.063689858
 21
99.9022095782
  0
LINE
  5
465
100
AcDbEntity
  8
0
100
AcDbLine
 62
7
  6
CONTINUOUS
 10
126.8814321451
 20
100.4022095782
 11
129.3783774071
 21
100.4022095782
  0
LINE
  5
466
100
AcDbEntity
  8
0
100
AcDbLine
 62
7
  6
CONTINUOUS
 10
129.9079087668
 20
100.4022095782
 11
133.9934485548
 21
100.4022095782
  0
LINE
  5
467
100
AcDbEntity
  8
0
100
AcDbLine
 62
7
  6
CONTINUOUS
 10
62.3304522481
 20
100.508811296
 11
61.733577346
 21
100.508811296
  0
LINE
  5
468
100
AcDbEntity
  8
KONSTRUKTIONSELEMENTE
100
AcDbLine
 62
7
  6
CONTINUOUS
 10
198.1444284518
 20
100.508811296
 11
198.741303354
 21
100.508811296
  0
LINE
  5
469
100
AcDbEntity
  8
BEZUGSACHSEN
100
AcDbLine
 62
7
  6
CONTINUOUS
 10
169.0374403499
 20
101.4022095782
 11
167.2078684672
 21
101.4022095782
  0
LINE
  5
46A
100
AcDbEntity
  8
BEZUGSACHSEN
100
AcDbLine
 62
7
  6
CONTINUOUS
 10
93.6677472342
 20
101.4022095782
 11
91.4374403499
 21
101.4022095782
  0
LINE
  5
46B
100
AcDbEntity
  8
0
100
AcDbLine
 62
7
  6
CONTINUOUS
 10
151.2399403499
 20
101.7244453859
 11
153.4899403499
 21
101.7244453859
  0
LINE
  5
46C
100
AcDbEntity
  8
0
100
AcDbLine
 62
7
  6
CONTINUOUS
 10
154.2399401711
 20
101.7244453859
 11
154.8024401711
 21
101.7244453859
  0
LINE
  5
46D
100
AcDbEntity
  8
0
100
AcDbLine
 62
7
  6
CONTINUOUS
 10
157.0524401711
 20
101.7244453859
 11
157.6149404394
 21
101.7244453859
  0
LINE
  5
46E
100
AcDbEntity
  8
0
100
AcDbLine
 62
7
  6
CONTINUOUS
 10
159.6774403499
 20
101.7244453859
 11
161.9274403499
 21
101.7244453859
  0
LINE
  5
46F
100
AcDbEntity
  8
0
100
AcDbLine
 62
7
  6
CONTINUOUS
 10
164.7926327907
 20
101.9022095782
 11
161.9274403499
 21
101.9022095782
  0
LINE
  5
470
100
AcDbEntity
  8
0
100
AcDbLine
 62
7
  6
CONTINUOUS
 10
158.4586904394
 20
101.9022095782
 11
157.6149404394
 21
101.9022095782
  0
LINE
  5
471
100
AcDbEntity
  8
0
100
AcDbLine
 62
7
  6
CONTINUOUS
 10
156.9807324278
 20
101.9022095782
 11
154.8741483248
 21
101.9022095782
  0
LINE
  5
472
100
AcDbEntity
  8
0
100
AcDbLine
 62
7
  6
CONTINUOUS
 10
154.2399401711
 20
101.9022095782
 11
153.4899403499
 21
101.9022095782
  0
LINE
  5
473
100
AcDbEntity
  8
0
100
AcDbLine
 62
7
  6
CONTINUOUS
 10
149.7399407076
 20
101.9022095782
 11
143.9374403499
 21
101.9022095782
  0
LINE
  5
474
100
AcDbEntity
  8
0
100
AcDbLine
 62
7
  6
CONTINUOUS
 10
116.9374403499
 20
101.9022095782
 11
108.2174403499
 21
101.9022095782
  0
LINE
  5
475
100
AcDbEntity
  8
0
100
AcDbLine
 62
7
  6
CONTINUOUS
 10
105.1874403499
 20
101.9022095782
 11
103.5374403499
 21
101.9022095782
  0
LINE
  5
476
100
AcDbEntity
  8
0
100
AcDbLine
 62
7
  6
CONTINUOUS
 10
100.5074403499
 20
101.9022095782
 11
96.0822480788
 21
101.9022095782
  0
LINE
  5
477
100
AcDbEntity
  8
BEZUGSACHSEN
100
AcDbLine
 62
7
  6
CONTINUOUS
 10
95.4430091753
 20
101.9022053571
 11
96.0822480788
 21
101.9022095782
  0
LINE
  5
478
100
AcDbEntity
  8
BEZUGSACHSEN
100
AcDbLine
 62
7
  6
CONTINUOUS
 10
108.2174403499
 20
101.9022095782
 11
116.9374403499
 21
101.9022095782
  0
LINE
  5
479
100
AcDbEntity
  8
BEZUGSACHSEN
100
AcDbLine
 62
7
  6
CONTINUOUS
 10
143.9374403499
 20
101.9022095782
 11
149.7399407076
 21
101.9022095782
  0
LINE
  5
47A
100
AcDbEntity
  8
BEZUGSACHSEN
100
AcDbLine
 62
7
  6
CONTINUOUS
 10
153.4899403499
 20
101.9022095782
 11
154.2399401711
 21
101.9022095782
  0
LINE
  5
47B
100
AcDbEntity
  8
BEZUGSACHSEN
100
AcDbLine
 62
7
  6
CONTINUOUS
 10
154.8741483248
 20
101.9022095782
 11
156.9807324278
 21
101.9022095782
  0
LINE
  5
47C
100
AcDbEntity
  8
BEZUGSACHSEN
100
AcDbLine
 62
7
  6
CONTINUOUS
 10
157.6149404394
 20
101.9022095782
 11
158.4586904394
 21
101.9022095782
  0
LINE
  5
47D
100
AcDbEntity
  8
0
100
AcDbLine
 62
7
  6
CONTINUOUS
 10
151.2399403499
 20
102.0262157622
 11
153.4899403499
 21
102.0262157622
  0
LINE
  5
47E
100
AcDbEntity
  8
0
100
AcDbLine
 62
7
  6
CONTINUOUS
 10
154.2399401711
 20
102.0262157622
 11
154.8024401711
 21
102.0262157622
  0
LINE
  5
47F
100
AcDbEntity
  8
0
100
AcDbLine
 62
7
  6
CONTINUOUS
 10
157.0524401711
 20
102.0262157622
 11
157.6149404394
 21
102.0262157622
  0
LINE
  5
480
100
AcDbEntity
  8
0
100
AcDbLine
 62
7
  6
CONTINUOUS
 10
159.6774403499
 20
102.0262157622
 11
161.9274403499
 21
102.0262157622
  0
LINE
  5
481
100
AcDbEntity
  8
0
100
AcDbLine
 62
7
  6
CONTINUOUS
 10
159.5836904394
 20
102.074197006
 11
161.3649403499
 21
102.074197006
  0
LINE
  5
482
100
AcDbEntity
  8
0
100
AcDbLine
 62
7
  6
CONTINUOUS
 10
151.2399403499
 20
102.0828728985
 11
152.9274403499
 21
102.0828728985
  0
LINE
  5
483
100
AcDbEntity
  8
0
100
AcDbLine
 62
7
  6
CONTINUOUS
 10
159.5836904394
 20
102.1722928928
 11
161.3649403499
 21
102.1722928928
  0
LINE
  5
484
100
AcDbEntity
  8
0
100
AcDbLine
 62
7
  6
CONTINUOUS
 10
101.0674403499
 20
102.1729609029
 11
102.6742261586
 21
102.1729609029
  0
LINE
  5
485
100
AcDbEntity
  8
0
100
AcDbLine
 62
7
  6
CONTINUOUS
 10
159.7711903947
 20
102.1923819684
 11
161.3649403499
 21
102.1923819684
  0
LINE
  5
486
100
AcDbEntity
  8
0
100
AcDbLine
 62
7
  6
CONTINUOUS
 10
101.0674403499
 20
102.1980027395
 11
102.6711866174
 21
102.1980027395
  0
LINE
  5
487
100
AcDbEntity
  8
0
100
AcDbLine
 62
7
  6
CONTINUOUS
 10
100.5074403499
 20
102.2022095782
 11
102.4813923371
 21
102.2022095782
  0
LINE
  5
488
100
AcDbEntity
  8
0
100
AcDbLine
 62
7
  6
CONTINUOUS
 10
102.6742261586
 20
102.2022095782
 11
103.3772421445
 21
102.2022095782
  0
LINE
  5
489
100
AcDbEntity
  8
0
100
AcDbLine
 62
7
  6
CONTINUOUS
 10
105.1874403499
 20
102.2022095782
 11
107.1613923371
 21
102.2022095782
  0
LINE
  5
48A
100
AcDbEntity
  8
0
100
AcDbLine
 62
7
  6
CONTINUOUS
 10
107.3974403413
 20
102.2022095782
 11
108.0572421445
 21
102.2022095782
  0
LINE
  5
48B
100
AcDbEntity
  8
0
100
AcDbLine
 62
7
  6
CONTINUOUS
 10
149.7973069023
 20
102.2022095782
 11
150.3024407076
 21
102.2022095782
  0
LINE
  5
48C
100
AcDbEntity
  8
0
100
AcDbLine
 62
7
  6
CONTINUOUS
 10
150.374148451
 20
102.2022095782
 11
153.4899403499
 21
102.2022095782
  0
LINE
  5
48D
100
AcDbEntity
  8
0
100
AcDbLine
 62
7
  6
CONTINUOUS
 10
154.2973066941
 20
102.2022095782
 11
154.8024401711
 21
102.2022095782
  0
LINE
  5
48E
100
AcDbEntity
  8
0
100
AcDbLine
 62
7
  6
CONTINUOUS
 10
157.0524401711
 20
102.2022095782
 11
157.5575739164
 21
102.2022095782
  0
LINE
  5
48F
100
AcDbEntity
  8
0
100
AcDbLine
 62
7
  6
CONTINUOUS
 10
154.8741483248
 20
102.2022095782
 11
156.9807324278
 21
102.2022095782
  0
LINE
  5
490
100
AcDbEntity
  8
0
100
AcDbLine
 62
7
  6
CONTINUOUS
 10
158.3649402605
 20
102.2022095782
 11
158.8396581407
 21
102.2022095782
  0
LINE
  5
491
100
AcDbEntity
  8
0
100
AcDbLine
 62
7
  6
CONTINUOUS
 10
159.1149403499
 20
102.2022095782
 11
159.4833496125
 21
102.2022095782
  0
LINE
  5
492
100
AcDbEntity
  8
0
100
AcDbLine
 62
7
  6
CONTINUOUS
 10
161.3649403499
 20
102.2022095782
 11
161.9274403499
 21
102.2022095782
  0
LINE
  5
493
100
AcDbEntity
  8
BEZUGSACHSEN
100
AcDbLine
 62
7
  6
CONTINUOUS
 10
165.4320413374
 20
101.9022050032
 11
164.7926327907
 21
101.9022095782
  0
LINE
  5
494
100
AcDbEntity
  8
0
100
AcDbLine
 62
7
  6
CONTINUOUS
 10
130.9669719331
 20
85.9022095782
 11
130.9669719331
 21
85.4022095782
  0
LINE
  5
495
100
AcDbEntity
  8
0
100
AcDbLine
 62
7
  6
CONTINUOUS
 10
131.4965032928
 20
85.9022095782
 11
131.4965032928
 21
85.4022095782
  0
LINE
  5
496
100
AcDbEntity
  8
0
100
AcDbLine
 62
7
  6
CONTINUOUS
 10
131.8264424496
 20
99.9022095782
 11
131.8264424496
 21
100.4022095782
  0
LINE
  5
497
100
AcDbEntity
  8
0
100
AcDbLine
 62
7
  6
CONTINUOUS
 10
132.1034281843
 20
85.9022095782
 11
132.1034281843
 21
85.4022095782
  0
LINE
  5
498
100
AcDbEntity
  8
0
100
AcDbLine
 62
7
  6
CONTINUOUS
 10
133.2683973901
 20
85.9022095782
 11
133.2683973901
 21
85.4022095782
  0
LINE
  5
499
100
AcDbEntity
  8
0
100
AcDbLine
 62
7
  6
CONTINUOUS
 10
133.9934485548
 20
85.9022095782
 11
133.9934485548
 21
85.4022095782
  0
LINE
  5
49A
100
AcDbEntity
  8
0
100
AcDbLine
 62
7
  6
CONTINUOUS
 10
133.9934485548
 20
99.9022095782
 11
133.9934485548
 21
100.4022095782
  0
LINE
  5
49B
100
AcDbEntity
  8
0
100
AcDbLine
 62
7
  6
CONTINUOUS
 10
198.7885620866
 20
128.1538982333
 11
176.5580354564
 21
118.0775522579
  0
LWPOLYLINE
  5
49C
100
AcDbEntity
  8
BEZUGSACHSEN
100
AcDbPolyline
 62
7
  6
CONTINUOUS
 90
5
 70
0
 10
167.2077857181
 20
101.4021715609
 10
167.0440178807
 20
101.4159960329
 10
166.899450534
 20
101.4521048177
 10
166.7676689965
 20
101.5069937519
 10
166.7010013168
 20
101.5440798429
  0
LINE
  5
49D
100
AcDbEntity
  8
0
100
AcDbLine
 62
7
  6
CONTINUOUS
 10
143.9374403499
 20
83.9022095782
 11
143.9374403499
 21
85.9022095782
  0
LINE
  5
49E
100
AcDbEntity
  8
BEZUGSACHSEN
100
AcDbLine
 62
7
  6
CONTINUOUS
 10
143.9374403499
 20
99.9022095782
 11
143.9374403499
 21
101.9022095782
  0
LINE
  5
49F
100
AcDbEntity
  8
0
100
AcDbLine
 62
7
  6
CONTINUOUS
 10
149.7399407076
 20
101.8523380559
 11
149.7399407076
 21
102.2007935249
  0
LINE
  5
4A0
100
AcDbEntity
  8
0
100
AcDbLine
 62
7
  6
CONTINUOUS
 10
149.8336903499
 20
101.8208574875
 11
149.8336903499
 21
102.1216651114
  0
LINE
  5
4A1
100
AcDbEntity
  8
0
100
AcDbLine
 62
7
  6
CONTINUOUS
 10
150.0211907076
 20
101.7901288345
 11
150.0211907076
 21
102.0912426444
  0
LINE
  5
4A2
100
AcDbEntity
  8
0
100
AcDbLine
 62
7
  6
CONTINUOUS
 10
150.3024407076
 20
102.2007935249
 11
150.3024407076
 21
102.1528326434
  0
LINE
  5
4A3
100
AcDbEntity
  8
0
100
AcDbLine
 62
7
  6
CONTINUOUS
 10
150.3961903499
 20
102.1285077713
 11
150.3961903499
 21
102.2022095782
  0
LINE
  5
4A4
100
AcDbEntity
  8
0
100
AcDbLine
 62
7
  6
CONTINUOUS
 10
150.3961903499
 20
101.7544556727
 11
150.3961903499
 21
102.0559257155
  0
LINE
  5
4A5
100
AcDbEntity
  8
0
100
AcDbLine
 62
7
  6
CONTINUOUS
 10
150.5836907076
 20
102.1070647055
 11
150.5836907076
 21
102.2022095782
  0
LINE
  5
4A6
100
AcDbEntity
  8
0
100
AcDbLine
 62
7
  6
CONTINUOUS
 10
150.7711899923
 20
101.734759454
 11
150.7711899923
 21
102.0364265432
  0
LINE
  5
4A7
100
AcDbEntity
  8
0
100
AcDbLine
 62
7
  6
CONTINUOUS
 10
150.8649407076
 20
102.0912426444
 11
150.8649407076
 21
102.2022095782
  0
LINE
  5
4A8
100
AcDbEntity
  8
0
100
AcDbLine
 62
7
  6
CONTINUOUS
 10
176.5580354564
 20
118.0775522579
 11
173.2903612605
 21
115.5204496359
  0
LINE
  5
4A9
100
AcDbEntity
  8
KONSTRUKTIONSELEMENTE
100
AcDbLine
 62
7
  6
CONTINUOUS
 10
87.7166257305
 20
118.5513165067
 11
83.9168452435
 21
118.0775522579
  0
LINE
  5
4AA
100
AcDbEntity
  8
0
100
AcDbLine
 62
7
  6
CONTINUOUS
 10
172.7582549693
 20
118.5513165067
 11
176.5580354564
 21
118.0775522579
  0
LWPOLYLINE
  5
4AB
100
AcDbEntity
  8
BEZUGSACHSEN
100
AcDbPolyline
 62
7
  6
CONTINUOUS
 90
6
 70
0
 10
166.7011735545
 20
101.5439983917
 10
166.4508075666
 20
101.6775437809
 10
166.1524090738
 20
101.7922379162
 10
165.8384176348
 20
101.8674706968
 10
165.518485075
 20
101.9005219032
 10
165.4320413527
 20
101.9022047862
  0
LINE
  5
4AC
100
AcDbEntity
  8
BEZUGSACHSEN
100
AcDbLine
 62
7
  6
CONTINUOUS
 10
166.701131086
 20
101.5440242603
 11
166.7009240615
 21
101.5441513808
  0
LINE
  5
4AD
100
AcDbEntity
  8
0
100
AcDbLine
 62
7
  6
CONTINUOUS
 10
151.2399403499
 20
102.0828728985
 11
151.2399403499
 21
102.2022095782
  0
LINE
  5
4AE
100
AcDbEntity
  8
0
100
AcDbLine
 62
7
  6
CONTINUOUS
 10
151.2399403499
 20
101.7244453859
 11
151.2399403499
 21
102.0262157622
  0
LINE
  5
4AF
100
AcDbEntity
  8
0
100
AcDbLine
 62
7
  6
CONTINUOUS
 10
152.9274403499
 20
102.2022095782
 11
152.9274403499
 21
102.0828728985
  0
LINE
  5
4B0
100
AcDbEntity
  8
0
100
AcDbLine
 62
7
  6
CONTINUOUS
 10
153.4899403499
 20
101.7244453859
 11
153.4899403499
 21
102.2022095782
  0
LINE
  5
4B1
100
AcDbEntity
  8
0
100
AcDbLine
 62
7
  6
CONTINUOUS
 10
154.2399401711
 20
101.7244453859
 11
154.2399401711
 21
102.2007935249
  0
LINE
  5
4B2
100
AcDbEntity
  8
0
100
AcDbLine
 62
7
  6
CONTINUOUS
 10
154.8024401711
 20
101.7244453859
 11
154.8024401711
 21
102.2007935249
  0
LINE
  5
4B3
100
AcDbEntity
  8
0
100
AcDbLine
 62
7
  6
CONTINUOUS
 10
154.8961903499
 20
101.9022095782
 11
154.8961903499
 21
102.2022095782
  0
LINE
  5
4B4
100
AcDbEntity
  8
0
100
AcDbLine
 62
7
  6
CONTINUOUS
 10
155.0836901711
 20
101.9022095782
 11
155.0836901711
 21
102.2022095782
  0
LINE
  5
4B5
100
AcDbEntity
  8
0
100
AcDbLine
 62
7
  6
CONTINUOUS
 10
155.3649401711
 20
101.9022095782
 11
155.3649401711
 21
102.2022095782
  0
LINE
  5
4B6
100
AcDbEntity
  8
0
100
AcDbLine
 62
7
  6
CONTINUOUS
 10
155.7399403499
 20
101.9022095782
 11
155.7399403499
 21
102.2022095782
  0
LINE
  5
4B7
100
AcDbEntity
  8
0
100
AcDbLine
 62
7
  6
CONTINUOUS
 10
156.1149405288
 20
101.9022095782
 11
156.1149405288
 21
102.2022095782
  0
LINE
  5
4B8
100
AcDbEntity
  8
0
100
AcDbLine
 62
7
  6
CONTINUOUS
 10
156.4899401711
 20
101.9022095782
 11
156.4899401711
 21
102.2022095782
  0
LINE
  5
4B9
100
AcDbEntity
  8
0
100
AcDbLine
 62
7
  6
CONTINUOUS
 10
156.7711901711
 20
101.9022095782
 11
156.7711901711
 21
102.2022095782
  0
LINE
  5
4BA
100
AcDbEntity
  8
0
100
AcDbLine
 62
7
  6
CONTINUOUS
 10
156.9586905288
 20
101.9022095782
 11
156.9586905288
 21
102.2022095782
  0
LINE
  5
4BB
100
AcDbEntity
  8
0
100
AcDbLine
 62
7
  6
CONTINUOUS
 10
157.0524401711
 20
101.7244453859
 11
157.0524401711
 21
102.2007935249
  0
LINE
  5
4BC
100
AcDbEntity
  8
0
100
AcDbLine
 62
7
  6
CONTINUOUS
 10
157.6149404394
 20
101.7244453859
 11
157.6149404394
 21
102.2007935249
  0
LINE
  5
4BD
100
AcDbEntity
  8
0
100
AcDbLine
 62
7
  6
CONTINUOUS
 10
158.3649402605
 20
101.9022095782
 11
158.3649402605
 21
102.2022095782
  0
LINE
  5
4BE
100
AcDbEntity
  8
0
100
AcDbLine
 62
7
  6
CONTINUOUS
 10
158.4586904394
 20
101.8208574875
 11
158.4586904394
 21
102.1472079021
  0
LINE
  5
4BF
100
AcDbEntity
  8
0
100
AcDbLine
 62
7
  6
CONTINUOUS
 10
158.5524403499
 20
101.798273908
 11
158.5524403499
 21
102.0993064984
  0
LINE
  5
4C0
100
AcDbEntity
  8
0
100
AcDbLine
 62
7
  6
CONTINUOUS
 10
158.8336903499
 20
101.763838438
 11
158.8336903499
 21
102.065214703
  0
LINE
  5
4C1
100
AcDbEntity
  8
0
100
AcDbLine
 62
7
  6
CONTINUOUS
 10
159.0211904394
 20
102.1412789639
 11
159.0211904394
 21
102.1216651114
  0
LINE
  5
4C2
100
AcDbEntity
  8
0
100
AcDbLine
 62
7
  6
CONTINUOUS
 10
159.1149403499
 20
102.0993064984
 11
159.1149403499
 21
102.1581533574
  0
LINE
  5
4C3
100
AcDbEntity
  8
0
100
AcDbLine
 62
7
  6
CONTINUOUS
 10
159.2086902605
 20
101.734759454
 11
159.2086902605
 21
102.0364265432
  0
LINE
  5
4C4
100
AcDbEntity
  8
0
100
AcDbLine
 62
7
  6
CONTINUOUS
 10
159.3024404394
 20
102.0828728985
 11
159.3024404394
 21
102.1678833356
  0
LINE
  5
4C5
100
AcDbEntity
  8
0
100
AcDbLine
 62
7
  6
CONTINUOUS
 10
159.5836904394
 20
102.074197006
 11
159.5836904394
 21
102.1722928928
  0
LINE
  5
4C6
100
AcDbEntity
  8
0
100
AcDbLine
 62
7
  6
CONTINUOUS
 10
159.6774403499
 20
101.7244453859
 11
159.6774403499
 21
102.0262157622
  0
LINE
  5
4C7
100
AcDbEntity
  8
0
100
AcDbLine
 62
7
  6
CONTINUOUS
 10
161.3649403499
 20
102.2022095782
 11
161.3649403499
 21
102.1923819684
  0
LINE
  5
4C8
100
AcDbEntity
  8
0
100
AcDbLine
 62
7
  6
CONTINUOUS
 10
161.3649403499
 20
102.1722928928
 11
161.3649403499
 21
102.074197006
  0
LINE
  5
4C9
100
AcDbEntity
  8
0
100
AcDbLine
 62
7
  6
CONTINUOUS
 10
161.9274403499
 20
101.7244453859
 11
161.9274403499
 21
102.2022095782
  0
LINE
  5
4CA
100
AcDbEntity
  8
RUNDUNGEN
100
AcDbLine
 62
7
  6
CONTINUOUS
 10
166.7011326986
 20
84.2603958893
 11
166.7009391332
 21
84.2602770035
  0
LWPOLYLINE
  5
4CB
100
AcDbEntity
  8
RUNDUNGEN
100
AcDbPolyline
 62
7
  6
CONTINUOUS
 90
5
 70
0
 10
166.7010163209
 20
84.2603484865
 10
166.7806256427
 20
84.3038571733
 10
166.9133895078
 20
84.3568363528
 10
167.0582652819
 20
84.3907368456
 10
167.2077888557
 20
84.4022475847
  0
LINE
  5
4CC
100
AcDbEntity
  8
RUNDUNGEN
100
AcDbLine
 62
7
  6
CONTINUOUS
 10
166.4635441035
 20
84.1327968334
 11
166.7011751036
 21
84.2604217192
  0
LINE
  5
4CD
100
AcDbEntity
  8
KONSTRUKTIONSELEMENTE
100
AcDbLine
 62
7
  6
CONTINUOUS
 10
60.2097437677
 20
128.5017847366
 11
85.7162282197
 21
131.6819843304
  0
LWPOLYLINE
  5
4CE
100
AcDbEntity
  8
0
100
AcDbPolyline
 62
7
  6
CONTINUOUS
 90
44
 70
0
 10
174.7588291424
 20
131.6819452677
 10
174.6917531624
 20
131.6891633361
 10
174.59896876
 20
131.6953972327
 10
174.5070274936
 20
131.697314442
 10
174.4161093996
 20
131.6950523881
 10
174.326381765
 20
131.6887525089
 10
174.2379994726
 20
131.6785594038
 10
174.1511053668
 20
131.6646200429
 10
174.0658307011
 20
131.6470830483
 10
173.9822952963
 20
131.6260979611
 10
173.9006081471
 20
131.6018146328
 10
173.8208682856
 20
131.5743828057
 10
173.7431646112
 20
131.543951431
 10
173.6675771899
 20
131.5106685383
 10
173.5941770848
 20
131.4746806422
 10
173.5230262899
 20
131.4361320695
 10
173.4541790453
 20
131.3951650173
 10
173.3876814134
 20
131.3519187488
 10
173.3235725896
 20
131.3065298091
 10
173.2618847679
 20
131.259131425
 10
173.2026437967
 20
131.2098534149
 10
173.1458706198
 20
131.158822949
 10
173.0915976629
 20
131.1061808479
 10
173.0397835823
 20
131.0519951557
 10
172.990410962
 20
130.9963469881
 10
172.9434446144
 20
130.9392871165
 10
172.8987670031
 20
130.8807386087
 10
172.8566295799
 20
130.8211130329
 10
172.8170751573
 20
130.7606009196
 10
172.7804160543
 20
130.6998885058
 10
172.7468682029
 20
130.6396816155
 10
172.7163526286
 20
130.5802813266
 10
172.6891660214
 20
130.5228565989
 10
172.6641732162
 20
130.4654914318
 10
172.6404759776
 20
130.4060930044
 10
172.6185713138
 20
130.345733601
 10
172.5979048847
 20
130.2826160809
 10
172.5801886331
 20
130.2223370739
 10
172.5663479537
 20
130.1702431555
 10
172.5548934378
 20
130.1232528033
 10
172.5452429209
 20
130.0808245479
 10
172.5364107995
 20
130.0398886887
 10
172.5278345638
 20
129.9985067018
 10
172.3221933181
 20
128.9667368551
  0
LINE
  5
4CF
100
AcDbEntity
  8
0
100
AcDbLine
 62
7
  6
CONTINUOUS
 10
174.7586524802
 20
131.6819843304
 11
200.2651369322
 21
128.5017847366
  0
LINE
  5
4D0
100
AcDbEntity
  8
BEZUGSACHSEN
100
AcDbLine
 62
7
  6
CONTINUOUS
 10
169.0374403499
 20
82.9022095782
 11
170.0595556899
 21
74.5777481601
  0
LINE
  5
4D1
100
AcDbEntity
  8
RUNDUNGEN
100
AcDbLine
 62
7
  6
CONTINUOUS
 10
168.5636997488
 20
88.4022095782
 11
168.5636997488
 21
97.4022095782
  0
LINE
  5
4D2
100
AcDbEntity
  8
BEZUGSACHSEN
100
AcDbLine
 62
7
  6
CONTINUOUS
 10
169.0374403499
 20
82.9023628386
 11
169.0374403499
 21
102.9020563177
  0
LINE
  5
4D3
100
AcDbEntity
  8
BEZUGSACHSEN
100
AcDbLine
 62
7
  6
CONTINUOUS
 10
170.0595556899
 20
92.9022183535
 11
170.0595556899
 21
74.5777481601
  0
LINE
  5
4D4
100
AcDbEntity
  8
BEZUGSACHSEN
100
AcDbLine
 62
7
  6
CONTINUOUS
 10
169.0374403499
 20
102.9022095782
 11
172.001410634
 21
127.0418103739
  0
LINE
  5
4D5
100
AcDbEntity
  8
0
100
AcDbLine
 62
7
  6
CONTINUOUS
 10
172.3221933181
 20
128.9667368551
 11
172.0996686833
 21
127.8042510182
  0
LINE
  5
4D6
100
AcDbEntity
  8
KONSTRUKTIONSELEMENTE
100
AcDbLine
 62
7
  6
CONTINUOUS
 10
60.1998384001
 20
128.4985503213
 11
60.0300187739
 21
128.4592159151
  0
LINE
  5
4D7
100
AcDbEntity
  8
0
100
AcDbLine
 62
7
  6
CONTINUOUS
 10
200.2750422998
 20
128.4985503213
 11
200.444861926
 21
128.4592159151
  0
LINE
  5
4D8
100
AcDbEntity
  8
0
100
AcDbLine
 62
7
  6
CONTINUOUS
 10
174.4374403499
 20
80.9244649395
 11
174.4374403499
 21
80.569774514
  0
LINE
  5
4D9
100
AcDbEntity
  8
0
100
AcDbLine
 62
7
  6
CONTINUOUS
 10
174.8124403499
 20
80.9244649395
 11
174.8124403499
 21
80.569774514
  0
LINE
  5
4DA
100
AcDbEntity
  8
0
100
AcDbLine
 62
7
  6
CONTINUOUS
 10
175.6874403201
 20
79.0547480647
 11
175.6874403201
 21
78.7005654853
  0
LINE
  5
4DB
100
AcDbEntity
  8
0
100
AcDbLine
 62
7
  6
CONTINUOUS
 10
176.5624402903
 20
80.9244649395
 11
176.5624402903
 21
80.569774514
  0
LINE
  5
4DC
100
AcDbEntity
  8
0
100
AcDbLine
 62
7
  6
CONTINUOUS
 10
176.9374402903
 20
80.9244649395
 11
176.9374402903
 21
80.569774514
  0
LINE
  5
4DD
100
AcDbEntity
  8
0
100
AcDbLine
 62
7
  6
CONTINUOUS
 10
177.4374403499
 20
80.9244649395
 11
177.4374403499
 21
78.4484541704
  0
LINE
  5
4DE
100
AcDbEntity
  8
0
100
AcDbLine
 62
7
  6
CONTINUOUS
 10
177.8124403499
 20
78.4484541704
 11
177.8124403499
 21
79.354818405
  0
LINE
  5
4DF
100
AcDbEntity
  8
0
100
AcDbLine
 62
7
  6
CONTINUOUS
 10
177.8124403499
 20
79.6260801314
 11
177.8124403499
 21
80.3281409328
  0
LINE
  5
4E0
100
AcDbEntity
  8
0
100
AcDbLine
 62
7
  6
CONTINUOUS
 10
178.9374403499
 20
80.9244649395
 11
178.9374403499
 21
80.569774514
  0
LINE
  5
4E1
100
AcDbEntity
  8
0
100
AcDbLine
 62
7
  6
CONTINUOUS
 10
178.9999404692
 20
79.9796586252
 11
178.9999404692
 21
79.6260801314
  0
LINE
  5
4E2
100
AcDbEntity
  8
0
100
AcDbLine
 62
7
  6
CONTINUOUS
 10
179.1874404692
 20
80.0254160578
 11
179.1874404692
 21
79.6718211672
  0
LINE
  5
4E3
100
AcDbEntity
  8
0
100
AcDbLine
 62
7
  6
CONTINUOUS
 10
179.2499402307
 20
80.8757374441
 11
179.2499402307
 21
80.5211421477
  0
LINE
  5
4E4
100
AcDbEntity
  8
0
100
AcDbLine
 62
7
  6
CONTINUOUS
 10
179.3124403499
 20
80.117398298
 11
179.3124403499
 21
79.7637583044
  0
LINE
  5
4E5
100
AcDbEntity
  8
0
100
AcDbLine
 62
7
  6
CONTINUOUS
 10
179.3749404692
 20
80.0432128711
 11
179.3749404692
 21
79.9028021367
  0
LINE
  5
4E6
100
AcDbEntity
  8
0
100
AcDbLine
 62
7
  6
CONTINUOUS
 10
179.4999403499
 20
80.730497334
 11
179.4999403499
 21
80.3761622174
  0
LINE
  5
4E7
100
AcDbEntity
  8
0
100
AcDbLine
 62
7
  6
CONTINUOUS
 10
179.6874403499
 20
80.5390384746
 11
179.6874403499
 21
80.1849917758
  0
LINE
  5
4E8
100
AcDbEntity
  8
0
100
AcDbLine
 62
7
  6
CONTINUOUS
 10
179.7499404692
 20
79.8563023927
 11
179.7499404692
 21
80.397086857
  0
LINE
  5
4E9
100
AcDbEntity
  8
0
100
AcDbLine
 62
7
  6
CONTINUOUS
 10
179.8124402307
 20
78.803144596
 11
179.8124402307
 21
78.4484541704
  0
LINE
  5
4EA
100
AcDbEntity
  8
0
100
AcDbLine
 62
7
  6
CONTINUOUS
 10
180.3124404692
 20
80.9244649395
 11
180.3124404692
 21
78.4484541704
  0
LINE
  5
4EB
100
AcDbEntity
  8
0
100
AcDbLine
 62
7
  6
CONTINUOUS
 10
180.6874401115
 20
78.7005654853
 11
180.6874401115
 21
79.354818405
  0
LINE
  5
4EC
100
AcDbEntity
  8
0
100
AcDbLine
 62
7
  6
CONTINUOUS
 10
180.6874401115
 20
79.6260801314
 11
180.6874401115
 21
80.2802721589
  0
LINE
  5
4ED
100
AcDbEntity
  8
0
100
AcDbLine
 62
7
  6
CONTINUOUS
 10
181.8124401115
 20
80.9244649395
 11
181.8124401115
 21
80.569774514
  0
LINE
  5
4EE
100
AcDbEntity
  8
0
100
AcDbLine
 62
7
  6
CONTINUOUS
 10
181.8749405884
 20
79.9796586252
 11
181.8749405884
 21
79.6260801314
  0
LINE
  5
4EF
100
AcDbEntity
  8
0
100
AcDbLine
 62
7
  6
CONTINUOUS
 10
181.8749405884
 20
79.0547480647
 11
181.8749405884
 21
78.7005654853
  0
LINE
  5
4F0
100
AcDbEntity
  8
0
100
AcDbLine
 62
7
  6
CONTINUOUS
 10
182.0624405884
 20
80.0254160578
 11
182.0624405884
 21
79.6718211672
  0
LINE
  5
4F1
100
AcDbEntity
  8
0
100
AcDbLine
 62
7
  6
CONTINUOUS
 10
182.0624405884
 20
79.0972306298
 11
182.0624405884
 21
78.7431180691
  0
LINE
  5
4F2
100
AcDbEntity
  8
0
100
AcDbLine
 62
7
  6
CONTINUOUS
 10
182.1249403499
 20
80.8757374441
 11
182.1249403499
 21
80.5211421477
  0
LINE
  5
4F3
100
AcDbEntity
  8
0
100
AcDbLine
 62
7
  6
CONTINUOUS
 10
182.1874401115
 20
80.117398298
 11
182.1874401115
 21
79.7637583044
  0
LINE
  5
4F4
100
AcDbEntity
  8
0
100
AcDbLine
 62
7
  6
CONTINUOUS
 10
182.1874401115
 20
79.1826651591
 11
182.1874401115
 21
78.8286801725
  0
LINE
  5
4F5
100
AcDbEntity
  8
0
100
AcDbLine
 62
7
  6
CONTINUOUS
 10
182.2499405884
 20
79.996257256
 11
182.2499405884
 21
79.9028021367
  0
LINE
  5
4F6
100
AcDbEntity
  8
0
100
AcDbLine
 62
7
  6
CONTINUOUS
 10
182.2499405884
 20
79.0890163411
 11
182.2499405884
 21
78.9581643849
  0
LINE
  5
4F7
100
AcDbEntity
  8
0
100
AcDbLine
 62
7
  6
CONTINUOUS
 10
182.3749401115
 20
80.730497334
 11
182.3749401115
 21
80.3761622174
  0
LINE
  5
4F8
100
AcDbEntity
  8
0
100
AcDbLine
 62
7
  6
CONTINUOUS
 10
182.3749401115
 20
79.5350530227
 11
182.3749401115
 21
79.4446324541
  0
LINE
  5
4F9
100
AcDbEntity
  8
0
100
AcDbLine
 62
7
  6
CONTINUOUS
 10
182.5624401115
 20
80.5390384746
 11
182.5624401115
 21
80.1849917758
  0
LINE
  5
4FA
100
AcDbEntity
  8
0
100
AcDbLine
 62
7
  6
CONTINUOUS
 10
182.5624401115
 20
79.6192058277
 11
182.5624401115
 21
79.2656109371
  0
LINE
  5
4FB
100
AcDbEntity
  8
0
100
AcDbLine
 62
7
  6
CONTINUOUS
 10
182.6249405884
 20
78.9148509285
 11
182.6249405884
 21
79.486606055
  0
LINE
  5
4FC
100
AcDbEntity
  8
0
100
AcDbLine
 62
7
  6
CONTINUOUS
 10
182.6249405884
 20
79.8563023927
 11
182.6249405884
 21
80.397086857
  0
LINE
  5
4FD
100
AcDbEntity
  8
0
100
AcDbLine
 62
7
  6
CONTINUOUS
 10
183.1249401115
 20
80.9244649395
 11
183.1249401115
 21
78.4484541704
  0
LINE
  5
4FE
100
AcDbEntity
  8
0
100
AcDbLine
 62
7
  6
CONTINUOUS
 10
183.4999401115
 20
78.4484541704
 11
183.4999401115
 21
79.1329373505
  0
LINE
  5
4FF
100
AcDbEntity
  8
0
100
AcDbLine
 62
7
  6
CONTINUOUS
 10
183.4999401115
 20
79.4897669241
 11
183.4999401115
 21
80.9244649395
  0
LINE
  5
500
100
AcDbEntity
  8
0
100
AcDbLine
 62
7
  6
CONTINUOUS
 10
184.8749405884
 20
80.9244649395
 11
184.8749405884
 21
80.569774514
  0
LINE
  5
501
100
AcDbEntity
  8
0
100
AcDbLine
 62
7
  6
CONTINUOUS
 10
185.3749401115
 20
80.9244649395
 11
185.3749401115
 21
80.569774514
  0
LINE
  5
502
100
AcDbEntity
  8
0
100
AcDbLine
 62
7
  6
CONTINUOUS
 10
185.3749401115
 20
78.803144596
 11
185.3749401115
 21
78.4484541704
  0
LWPOLYLINE
  5
503
100
AcDbEntity
  8
KONSTRUKTIONSELEMENTE
100
AcDbPolyline
 62
7
  6
CONTINUOUS
 90
9
 70
0
 10
198.1676969388
 20
99.2486111195
 10
198.1685339443
 20
99.2451890495
 10
198.1711853951
 20
99.2334529003
 10
198.1695802304
 20
99.2426763748
 10
198.1653671575
 20
99.2715420529
 10
198.1598693532
 20
99.3177195475
 10
198.1538366646
 20
99.3808950589
 10
198.1479528995
 20
99.4598779686
 10
198.1426236025
 20
99.5555212202
  0
LWPOLYLINE
  5
504
100
AcDbEntity
  8
KONSTRUKTIONSELEMENTE
100
AcDbPolyline
 62
7
  6
CONTINUOUS
 90
3
 70
0
 10
198.1426236025
 20
99.5555212202
 10
198.1382474961
 20
99.6682808047
 10
198.1351991145
 20
99.7991313097
  0
LWPOLYLINE
  5
505
100
AcDbEntity
  8
KONSTRUKTIONSELEMENTE
100
AcDbPolyline
 62
7
  6
CONTINUOUS
 90
3
 70
0
 10
198.1351991145
 20
99.7991313097
 10
198.1338880462
 20
99.9492219097
 10
198.1338661226
 20
99.9732829713
  0
LINE
  5
506
100
AcDbEntity
  8
0
100
AcDbLine
 62
7
  6
CONTINUOUS
 10
198.1338661226
 20
99.9732829713
 11
198.1338660457
 21
99.9736822598
  0
LINE
  5
507
100
AcDbEntity
  8
KONSTRUKTIONSELEMENTE
100
AcDbLine
 62
7
  6
CONTINUOUS
 10
200.7413005232
 20
94.4327717781
 11
200.7413005232
 21
98.5085680174
  0
LINE
  5
508
100
AcDbEntity
  8
0
100
AcDbLine
 62
7
  6
CONTINUOUS
 10
200.7413005189
 20
122.4124335219
 11
200.7413005232
 21
126.4882444031
  0
LWPOLYLINE
  5
509
100
AcDbEntity
  8
0
100
AcDbPolyline
 62
7
  6
CONTINUOUS
 90
10
 70
0
 10
198.1338660457
 20
99.9736822598
 10
198.134378503
 20
100.0881346798
 10
198.139565273
 20
100.3708925629
 10
198.1505899028
 20
100.6835487541
 10
198.167743809
 20
101.0232197526
 10
198.1911539714
 20
101.3871402714
 10
198.2209434035
 20
101.7724294229
 10
198.2570547521
 20
102.1758782601
 10
198.2994277095
 20
102.5943045995
 10
198.3479050683
 20
103.0243473962
  0
LWPOLYLINE
  5
50A
100
AcDbEntity
  8
0
100
AcDbPolyline
 62
7
  6
CONTINUOUS
 90
3
 70
0
 10
200.7183514199
 20
122.0419671945
 10
200.7343567544
 20
122.2079226882
 10
200.7412997248
 20
122.4121421073
  0
LINE
  5
50B
100
AcDbEntity
  8
0
100
AcDbLine
 62
7
  6
CONTINUOUS
 10
200.718337717
 20
122.0419689126
 11
198.3479050683
 21
103.0243473962
  0
LWPOLYLINE
  5
50C
100
AcDbEntity
  8
KONSTRUKTIONSELEMENTE
100
AcDbPolyline
 62
7
  6
CONTINUOUS
 90
5
 70
0
 10
195.9199496061
 20
82.4025623885
 10
198.0713093606
 20
87.9584392684
 10
199.060877052
 20
90.442969834
 10
200.0064849313
 20
92.7056675224
 10
200.7164644871
 20
94.3077210988
  0
LINE
  5
50D
100
AcDbEntity
  8
KONSTRUKTIONSELEMENTE
100
AcDbLine
 62
7
  6
CONTINUOUS
 10
194.7690303368
 20
79.4935408299
 11
195.9199496061
 21
82.4025623885
  0
LINE
  5
50E
100
AcDbEntity
  8
KONSTRUKTIONSELEMENTE
100
AcDbLine
 62
7
  6
CONTINUOUS
 10
194.7698274168
 20
79.4955152127
 11
194.7690303368
 21
79.4935408299
  0
ARC
  5
50F
100
AcDbEntity
  8
BEZUGSACHSEN
100
AcDbCircle
 62
7
  6
CONTINUOUS
 10
-133.5029815369
 20
195.7385654548
 40
223.21022177
100
AcDbArc
 50
356.5997446312
 51
357.2490122939
  0
ARC
  5
510
100
AcDbEntity
  8
BEZUGSACHSEN
100
AcDbCircle
 62
7
  6
CONTINUOUS
 10
-33.7360242591
 20
185.6679610273
 40
123.0910958774
100
AcDbArc
 50
357.0457670748
 51
358.5251309616
  0
ARC
  5
511
100
AcDbEntity
  8
0
100
AcDbCircle
 62
7
  6
CONTINUOUS
 10
68.2770402634
 20
170.9676973914
 40
8.5434703609
100
AcDbArc
 50
174.5946816103
 51
179.9407816343
  0
ARC
  5
512
100
AcDbEntity
  8
RUNDUNGEN
100
AcDbCircle
 62
7
  6
CONTINUOUS
 10
89.460399524
 20
214.1489253937
 40
5.0
100
AcDbArc
 50
351.9999656224
 51
5.999999973
  0
ARC
  5
513
100
AcDbEntity
  8
KONSTRUKTIONSELEMENTE
100
AcDbCircle
 62
7
  6
CONTINUOUS
 10
61.733581106
 20
198.9544063211
 40
2.0
100
AcDbArc
 50
179.9995266808
 51
269.9999998273
  0
ARC
  5
514
100
AcDbEntity
  8
BEZUGSACHSEN
100
AcDbCircle
 62
7
  6
CONTINUOUS
 10
93.4594355171
 20
214.061007496
 40
0.9999999429
100
AcDbArc
 50
269.9998686506
 51
358.7406034509
  0
ARC
  5
515
100
AcDbEntity
  8
0
100
AcDbCircle
 62
7
  6
CONTINUOUS
 10
87.7618344667
 20
179.2739113327
 40
0.3648221907
100
AcDbArc
 50
262.8816132806
 51
268.1350074993
  0
ARC
  5
516
100
AcDbEntity
  8
BEZUGSACHSEN
100
AcDbCircle
 62
7
  6
CONTINUOUS
 10
95.8111809511
 20
235.0428403124
 40
3.5
100
AcDbArc
 50
157.5
 51
186.0
  0
ARC
  5
517
100
AcDbEntity
  8
RUNDUNGEN
100
AcDbCircle
 62
7
  6
CONTINUOUS
 10
95.8111809511
 20
235.0428403124
 40
3.5
100
AcDbArc
 50
157.5
 51
186.0
  0
ARC
  5
518
100
AcDbEntity
  8
BEZUGSACHSEN
100
AcDbCircle
 62
7
  6
CONTINUOUS
 10
106.1047453352
 20
259.8937030537
 40
3.5
100
AcDbArc
 50
146.2499997621
 51
151.874999826
  0
ARC
  5
519
100
AcDbEntity
  8
BEZUGSACHSEN
100
AcDbCircle
 62
7
  6
CONTINUOUS
 10
106.1047453352
 20
259.8937030537
 40
3.5
100
AcDbArc
 50
129.3749998957
 51
134.9999999284
  0
ARC
  5
51A
100
AcDbEntity
  8
BEZUGSACHSEN
100
AcDbCircle
 62
7
  6
CONTINUOUS
 10
106.1047453352
 20
259.8937030537
 40
3.5
100
AcDbArc
 50
112.5
 51
127.2826573658
  0
ARC
  5
51B
100
AcDbEntity
  8
RUNDUNGEN
100
AcDbCircle
 62
7
  6
CONTINUOUS
 10
106.1047453352
 20
259.8937030537
 40
3.5
100
AcDbArc
 50
112.5
 51
157.5
  0
ARC
  5
51C
100
AcDbEntity
  8
BEZUGSACHSEN
100
AcDbCircle
 62
7
  6
CONTINUOUS
 10
89.5959706713
 20
221.0610080389
 40
2.0
100
AcDbArc
 50
65.8154465118
 51
89.9999825474
  0
ARC
  5
51D
100
AcDbEntity
  8
BEZUGSACHSEN
100
AcDbCircle
 62
7
  6
CONTINUOUS
 10
390.1268120963
 20
195.5316433643
 40
219.3536795274
100
AcDbArc
 50
182.7452801306
 51
183.4059629449
  0
ARC
  5
51E
100
AcDbEntity
  8
BEZUGSACHSEN
100
AcDbCircle
 62
7
  6
CONTINUOUS
 10
292.5469353803
 20
185.6036145502
 40
121.4260232769
100
AcDbArc
 50
181.4647254633
 51
182.9643765002
  0
ARC
  5
51F
100
AcDbEntity
  8
KONSTRUKTIONSELEMENTE
100
AcDbCircle
 62
7
  6
CONTINUOUS
 10
192.1978404365
 20
170.9676973914
 40
8.5434703609
100
AcDbArc
 50
0.0592183657
 51
5.4053183897
  0
ARC
  5
520
100
AcDbEntity
  8
RUNDUNGEN
100
AcDbCircle
 62
7
  6
CONTINUOUS
 10
171.4144811759
 20
214.1489253937
 40
5.0
100
AcDbArc
 50
174.0000000714
 51
188.0000346
  0
ARC
  5
521
100
AcDbEntity
  8
0
100
AcDbCircle
 62
7
  6
CONTINUOUS
 10
198.7412995938
 20
198.9544063211
 40
2.0
100
AcDbArc
 50
270.000000174
 51
0.0004732859
  0
ARC
  5
522
100
AcDbEntity
  8
BEZUGSACHSEN
100
AcDbCircle
 62
7
  6
CONTINUOUS
 10
167.4154464812
 20
214.0610078172
 40
0.9999999767
100
AcDbArc
 50
181.259413313
 51
270.0000569554
  0
ARC
  5
523
100
AcDbEntity
  8
KONSTRUKTIONSELEMENTE
100
AcDbCircle
 62
7
  6
CONTINUOUS
 10
172.7130462332
 20
179.2739113327
 40
0.3648221907
100
AcDbArc
 50
271.8649925007
 51
277.1183867194
  0
ARC
  5
524
100
AcDbEntity
  8
0
100
AcDbCircle
 62
7
  6
CONTINUOUS
 10
130.4374403499
 20
235.5610080389
 40
24.5358983849
100
AcDbArc
 50
255.2801343632
 51
284.7198648258
  0
ARC
  5
525
100
AcDbEntity
  8
BEZUGSACHSEN
100
AcDbCircle
 62
7
  6
CONTINUOUS
 10
130.4374403499
 20
235.5610080389
 40
24.0
100
AcDbArc
 50
316.6230408568
 51
335.5662736249
  0
ARC
  5
526
100
AcDbEntity
  8
BEZUGSACHSEN
100
AcDbCircle
 62
7
  6
CONTINUOUS
 10
130.4374403499
 20
235.5610080389
 40
24.0
100
AcDbArc
 50
204.4337263751
 51
223.3769591432
  0
CIRCLE
  5
527
100
AcDbEntity
  8
RUNDUNGEN
100
AcDbCircle
 62
7
  6
CONTINUOUS
 10
130.4374403499
 20
235.5610080389
 40
24.0
  0
ARC
  5
528
100
AcDbEntity
  8
BEZUGSACHSEN
100
AcDbCircle
 62
7
  6
CONTINUOUS
 10
130.4374403499
 20
269.9726353379
 40
3.5
100
AcDbArc
 50
106.8749998258
 51
112.5
  0
ARC
  5
529
100
AcDbEntity
  8
BEZUGSACHSEN
100
AcDbCircle
 62
7
  6
CONTINUOUS
 10
130.4374403499
 20
269.9726353379
 40
3.5
100
AcDbArc
 50
101.2499997617
 51
104.4992152467
  0
ARC
  5
52A
100
AcDbEntity
  8
BEZUGSACHSEN
100
AcDbCircle
 62
7
  6
CONTINUOUS
 10
130.4374403499
 20
269.9726353379
 40
3.5
100
AcDbArc
 50
89.9999999282
 51
95.6249998568
  0
ARC
  5
52B
100
AcDbEntity
  8
BEZUGSACHSEN
100
AcDbCircle
 62
7
  6
CONTINUOUS
 10
130.4374403499
 20
269.9726353379
 40
3.5
100
AcDbArc
 50
75.4884782746
 51
78.7499998235
  0
ARC
  5
52C
100
AcDbEntity
  8
RUNDUNGEN
100
AcDbCircle
 62
7
  6
CONTINUOUS
 10
130.4374403499
 20
269.9726353379
 40
3.5
100
AcDbArc
 50
67.5
 51
112.5
  0
ARC
  5
52D
100
AcDbEntity
  8
RUNDUNGEN
100
AcDbCircle
 62
7
  6
CONTINUOUS
 10
165.0636997488
 20
235.0428403124
 40
3.5
100
AcDbArc
 50
354.0
 51
22.5
  0
ARC
  5
52E
100
AcDbEntity
  8
BEZUGSACHSEN
100
AcDbCircle
 62
7
  6
CONTINUOUS
 10
170.8789100286
 20
221.0610080389
 40
2.0
100
AcDbArc
 50
90.0000174526
 51
114.1845534882
  0
ARC
  5
52F
100
AcDbEntity
  8
BEZUGSACHSEN
100
AcDbCircle
 62
7
  6
CONTINUOUS
 10
154.7701353647
 20
259.8937030537
 40
3.5
100
AcDbArc
 50
56.2499997585
 51
67.5
  0
ARC
  5
530
100
AcDbEntity
  8
BEZUGSACHSEN
100
AcDbCircle
 62
7
  6
CONTINUOUS
 10
154.7701353647
 20
259.8937030537
 40
3.5
100
AcDbArc
 50
30.4803152246
 51
52.764559669
  0
ARC
  5
531
100
AcDbEntity
  8
BEZUGSACHSEN
100
AcDbCircle
 62
7
  6
CONTINUOUS
 10
154.7701353647
 20
259.8937030537
 40
3.5
100
AcDbArc
 50
22.5
 51
28.124999874
  0
ARC
  5
532
100
AcDbEntity
  8
RUNDUNGEN
100
AcDbCircle
 62
7
  6
CONTINUOUS
 10
154.7701353647
 20
259.8937030537
 40
3.5
100
AcDbArc
 50
22.5
 51
67.5
  0
ARC
  5
533
100
AcDbEntity
  8
RUNDUNGEN
100
AcDbCircle
 62
7
  6
CONTINUOUS
 10
334.5286502111
 20
223.979076288
 40
30.0
100
AcDbArc
 50
179.9999747762
 51
184.4578749371
  0
ARC
  5
534
100
AcDbEntity
  8
BEZUGSACHSEN
100
AcDbCircle
 62
7
  6
CONTINUOUS
 10
260.5286502111
 20
223.979076288
 40
30.0
100
AcDbArc
 50
358.2463280144
 51
0.0000252238
  0
ARC
  5
535
100
AcDbEntity
  8
0
100
AcDbCircle
 62
7
  6
CONTINUOUS
 10
297.5286502111
 20
204.5610080389
 40
19.0
100
AcDbArc
 50
40.4719369862
 51
49.5280630138
  0
ARC
  5
536
100
AcDbEntity
  8
KONSTRUKTIONSELEMENTE
100
AcDbCircle
 62
7
  6
CONTINUOUS
 10
297.5286502111
 20
204.5610080389
 40
18.5
100
AcDbArc
 50
4.4122015076
 51
40.3493608638
  0
ARC
  5
537
100
AcDbEntity
  8
KONSTRUKTIONSELEMENTE
100
AcDbCircle
 62
7
  6
CONTINUOUS
 10
297.5286502111
 20
204.5610080389
 40
18.5
100
AcDbArc
 50
49.6506391362
 51
90.0000000006
  0
ARC
  5
538
100
AcDbEntity
  8
0
100
AcDbCircle
 62
7
  6
CONTINUOUS
 10
297.5286502111
 20
204.5610080389
 40
18.5
100
AcDbArc
 50
0.0
 51
90.0
  0
ARC
  5
539
100
AcDbEntity
  8
0
100
AcDbCircle
 62
7
  6
CONTINUOUS
 10
286.9220484933
 20
193.9544063211
 40
3.0
100
AcDbArc
 50
0.0
 51
90.0
  0
ARC
  5
53A
100
AcDbEntity
  8
BEZUGSACHSEN
100
AcDbCircle
 62
7
  6
CONTINUOUS
 10
293.0286502111
 20
270.9726353379
 40
2.5
100
AcDbArc
 50
90.0
 51
180.0
  0
ARC
  5
53B
100
AcDbEntity
  8
RUNDUNGEN
100
AcDbCircle
 62
7
  6
CONTINUOUS
 10
302.0286502111
 20
270.9726353379
 40
2.5
100
AcDbArc
 50
0.0
 51
90.0
  0
ARC
  5
53C
100
AcDbEntity
  8
KONSTRUKTIONSELEMENTE
100
AcDbCircle
 62
7
  6
CONTINUOUS
 10
261.3645552778
 20
198.9574259431
 40
2.0044841732
100
AcDbArc
 50
223.9109734992
 51
225.0182349521
  0
ARC
  5
53D
100
AcDbEntity
  8
0
100
AcDbCircle
 62
7
  6
CONTINUOUS
 10
291.9218886672
 20
168.3935473747
 40
1.999840174
100
AcDbArc
 50
179.9994697352
 51
226.0833168372
  0
ARC
  5
53E
100
AcDbEntity
  8
KONSTRUKTIONSELEMENTE
100
AcDbCircle
 62
7
  6
CONTINUOUS
 10
261.3601878104
 20
198.952968744
 40
1.9982441728
100
AcDbArc
 50
225.0164725911
 51
270.0018455002
  0
ARC
  5
53F
100
AcDbEntity
  8
BEZUGSACHSEN
100
AcDbCircle
 62
7
  6
CONTINUOUS
 10
393.9778622377
 20
101.7246521622
 40
223.2102217709
100
AcDbArc
 50
176.5997446312
 51
177.2490122939
  0
ARC
  5
540
100
AcDbEntity
  8
BEZUGSACHSEN
100
AcDbCircle
 62
7
  6
CONTINUOUS
 10
-129.6519313956
 20
101.9315742528
 40
219.3536795266
100
AcDbArc
 50
2.7452801306
 51
3.4059629449
  0
ARC
  5
541
100
AcDbEntity
  8
BEZUGSACHSEN
100
AcDbCircle
 62
7
  6
CONTINUOUS
 10
294.2109049591
 20
111.7952565898
 40
123.0910958775
100
AcDbArc
 50
177.0457670748
 51
178.5251309616
  0
ARC
  5
542
100
AcDbEntity
  8
BEZUGSACHSEN
100
AcDbCircle
 62
7
  6
CONTINUOUS
 10
-32.0720546803
 20
111.8596030668
 40
121.4260232768
100
AcDbArc
 50
1.4647254633
 51
2.9643765002
  0
ARC
  5
543
100
AcDbEntity
  8
0
100
AcDbCircle
 62
7
  6
CONTINUOUS
 10
100.7874382479
 20
124.4682744115
 40
22.4897428015
100
AcDbArc
 50
269.2866475868
 51
270.7365481923
  0
ARC
  5
544
100
AcDbEntity
  8
0
100
AcDbCircle
 62
7
  6
CONTINUOUS
 10
100.7877086155
 20
122.3778960668
 40
20.310481237
100
AcDbArc
 50
269.7190912483
 51
270.7945279308
  0
ARC
  5
545
100
AcDbEntity
  8
0
100
AcDbCircle
 62
7
  6
CONTINUOUS
 10
105.4665162091
 20
122.3629736374
 40
20.2955524594
100
AcDbArc
 50
269.212124289
 51
269.7729185864
  0
ARC
  5
546
100
AcDbEntity
  8
0
100
AcDbCircle
 62
7
  6
CONTINUOUS
 10
100.7865392338
 20
122.3568486569
 40
20.2894283748
100
AcDbArc
 50
269.2118214382
 51
269.7221020503
  0
ARC
  5
547
100
AcDbEntity
  8
0
100
AcDbCircle
 62
7
  6
CONTINUOUS
 10
105.8970406377
 20
117.9827143553
 40
15.9886133017
100
AcDbArc
 50
274.9779400851
 51
275.6104679101
  0
ARC
  5
548
100
AcDbEntity
  8
KONSTRUKTIONSELEMENTE
100
AcDbCircle
 62
7
  6
CONTINUOUS
 10
68.2770402634
 20
126.4955202256
 40
8.5434703609
100
AcDbArc
 50
180.0592183657
 51
185.4053183897
  0
ARC
  5
549
100
AcDbEntity
  8
0
100
AcDbCircle
 62
7
  6
CONTINUOUS
 10
192.1978404365
 20
126.4955202256
 40
8.5434703609
100
AcDbArc
 50
354.5946816103
 51
359.9407816343
  0
ARC
  5
54A
100
AcDbEntity
  8
0
100
AcDbCircle
 62
7
  6
CONTINUOUS
 10
102.484979681
 20
95.4982965685
 40
6.7039139694
100
AcDbArc
 50
89.5125902408
 51
90.0306596524
  0
ARC
  5
54B
100
AcDbEntity
  8
BEZUGSACHSEN
100
AcDbCircle
 62
7
  6
CONTINUOUS
 10
94.8111809511
 20
97.4022095782
 40
2.5
100
AcDbArc
 50
90.0
 51
180.0
  0
ARC
  5
54C
100
AcDbEntity
  8
BEZUGSACHSEN
100
AcDbCircle
 62
7
  6
CONTINUOUS
 10
166.0636997488
 20
97.4022095782
 40
2.5
100
AcDbArc
 50
0.0
 51
90.0
  0
ARC
  5
54D
100
AcDbEntity
  8
RUNDUNGEN
100
AcDbCircle
 62
7
  6
CONTINUOUS
 10
94.8111809511
 20
88.4022095782
 40
2.5
100
AcDbArc
 50
180.0
 51
270.0
  0
ARC
  5
54E
100
AcDbEntity
  8
RUNDUNGEN
100
AcDbCircle
 62
7
  6
CONTINUOUS
 10
166.0636997488
 20
88.4022095782
 40
2.5
100
AcDbArc
 50
270.0
 51
360.0
  0
ARC
  5
54F
100
AcDbEntity
  8
0
100
AcDbCircle
 62
7
  6
CONTINUOUS
 10
61.7335811061
 20
98.508811296
 40
2.0
100
AcDbArc
 50
90.000000174
 51
180.0004732859
  0
ARC
  5
550
100
AcDbEntity
  8
BEZUGSACHSEN
100
AcDbCircle
 62
7
  6
CONTINUOUS
 10
89.5959706713
 20
76.4022095782
 40
2.0
100
AcDbArc
 50
270.0000174526
 51
294.1845534882
  0
ARC
  5
551
100
AcDbEntity
  8
KONSTRUKTIONSELEMENTE
100
AcDbCircle
 62
7
  6
CONTINUOUS
 10
198.7412995938
 20
98.508811296
 40
2.0
100
AcDbArc
 50
359.9995266808
 51
89.9999998273
  0
ARC
  5
552
100
AcDbEntity
  8
BEZUGSACHSEN
100
AcDbCircle
 62
7
  6
CONTINUOUS
 10
170.8789100286
 20
76.4022095782
 40
2.0
100
AcDbArc
 50
245.8154465118
 51
269.9999825474
  0
ARC
  5
553
100
AcDbEntity
  8
0
100
AcDbCircle
 62
7
  6
CONTINUOUS
 10
106.000724944
 20
85.4188008986
 40
1.8165913205
100
AcDbArc
 50
270.000234378
 51
271.6967510642
  0
ARC
  5
554
100
AcDbEntity
  8
0
100
AcDbCircle
 62
7
  6
CONTINUOUS
 10
154.8741557559
 20
100.3856182578
 40
1.8165913204
100
AcDbArc
 50
90.0002343779
 51
91.6967510643
  0
ARC
  5
555
100
AcDbEntity
  8
0
100
AcDbCircle
 62
7
  6
CONTINUOUS
 10
150.3741558821
 20
100.3856390365
 40
1.8165705416
100
AcDbArc
 50
90.000234382
 51
91.696760769
  0
ARC
  5
556
100
AcDbEntity
  8
0
100
AcDbCircle
 62
7
  6
CONTINUOUS
 10
156.9807249966
 20
100.3856390365
 40
1.8165705417
100
AcDbArc
 50
88.3032392311
 51
89.999765618
  0
ARC
  5
557
100
AcDbEntity
  8
0
100
AcDbCircle
 62
7
  6
CONTINUOUS
 10
103.8941557033
 20
85.4187801198
 40
1.8165705416
100
AcDbArc
 50
268.303239231
 51
269.999765618
  0
ARC
  5
558
100
AcDbEntity
  8
0
100
AcDbCircle
 62
7
  6
CONTINUOUS
 10
110.5007248178
 20
85.4187801199
 40
1.8165705417
100
AcDbArc
 50
270.000234382
 51
271.6967607689
  0
ARC
  5
559
100
AcDbEntity
  8
0
100
AcDbCircle
 62
7
  6
CONTINUOUS
 10
157.5575533989
 20
101.0386406063
 40
1.163568972
100
AcDbArc
 50
87.1730342152
 51
89.9989896904
  0
ARC
  5
55A
100
AcDbEntity
  8
0
100
AcDbCircle
 62
7
  6
CONTINUOUS
 10
154.2973272116
 20
101.0386406063
 40
1.163568972
100
AcDbArc
 50
90.0010103095
 51
92.8269657848
  0
ARC
  5
55B
100
AcDbEntity
  8
0
100
AcDbCircle
 62
7
  6
CONTINUOUS
 10
103.317327301
 20
84.7657785499
 40
1.163568972
100
AcDbArc
 50
267.1730342152
 51
269.9989896904
  0
ARC
  5
55C
100
AcDbEntity
  8
0
100
AcDbCircle
 62
7
  6
CONTINUOUS
 10
106.5775534883
 20
84.7657785499
 40
1.163568972
100
AcDbArc
 50
270.0010103096
 51
272.8269657848
  0
ARC
  5
55D
100
AcDbEntity
  8
0
100
AcDbCircle
 62
7
  6
CONTINUOUS
 10
149.7973274199
 20
101.038653904
 40
1.1635556743
100
AcDbArc
 50
90.0010103277
 51
92.826981942
  0
ARC
  5
55E
100
AcDbEntity
  8
0
100
AcDbCircle
 62
7
  6
CONTINUOUS
 10
111.07755328
 20
84.7657652523
 40
1.1635556743
100
AcDbArc
 50
270.0010103277
 51
272.826981942
  0
ARC
  5
55F
100
AcDbEntity
  8
KONSTRUKTIONSELEMENTE
100
AcDbCircle
 62
7
  6
CONTINUOUS
 10
87.7618344667
 20
118.1893062844
 40
0.3648221907
100
AcDbArc
 50
91.8649925007
 51
97.1183867194
  0
ARC
  5
560
100
AcDbEntity
  8
0
100
AcDbCircle
 62
7
  6
CONTINUOUS
 10
172.7130462332
 20
118.1893062844
 40
0.3648221907
100
AcDbArc
 50
82.8816132806
 51
88.1350074993
  0
SPLINE
  5
561
100
AcDbEntity
  8
BEZUGSACHSEN
100
AcDbSpline
 62
7
  6
CONTINUOUS
 70
0
 71
3
 72
12
 73
8
 74
0
 42
0.0000001
 43
0.0000001
 44
0.0000000001
 40
0.0
 40
0.0
 40
0.0
 40
0.0
 40
0.2918107929
 40
0.5700552204
 40
0.8234694381
 40
0.9305246369
 40
1.0
 40
1.0
 40
1.0
 40
1.0
 10
172.0015273714
 20
170.4204565274
 30
0.0
 10
172.0106295998
 20
170.3463308161
 30
0.0
 10
172.0285414424
 20
170.2015395137
 30
0.0
 10
172.0551643382
 20
169.9924865215
 30
0.0
 10
172.0757741987
 20
169.8303061868
 30
0.0
 10
172.0910249677
 20
169.7213593236
 30
0.0
 10
172.0963828886
 20
169.6764571691
 30
0.0
 10
172.099666746
 20
169.6589823712
 30
0.0
  0
SPLINE
  5
562
100
AcDbEntity
  8
0
100
AcDbSpline
 62
7
  6
CONTINUOUS
 70
0
 71
3
 72
9
 73
5
 74
0
 42
0.0000001
 43
0.0000001
 44
0.0000000001
 40
0.0
 40
0.0
 40
0.0
 40
0.0
 40
0.2447455005
 40
1.0
 40
1.0
 40
1.0
 40
1.0
 10
200.7164722975
 20
203.1554998834
 30
0.0
 10
200.7207533397
 20
203.1461163864
 30
0.0
 10
200.7358902425
 20
203.1066980251
 30
0.0
 10
200.7413832106
 20
203.063958354
 30
0.0
 10
200.7413062342
 20
203.0321309004
 30
0.0
  0
SPLINE
  5
563
100
AcDbEntity
  8
KONSTRUKTIONSELEMENTE
100
AcDbSpline
 62
7
  6
CONTINUOUS
 70
0
 71
3
 72
9
 73
5
 74
0
 42
0.0000001
 43
0.0000001
 44
0.0000000001
 40
0.0
 40
0.0
 40
0.0
 40
0.0
 40
0.5025004098
 40
1.0
 40
1.0
 40
1.0
 40
1.0
 10
200.444861926
 20
169.0040017019
 30
0.0
 10
200.5567335184
 20
169.3200443677
 30
0.0
 10
200.7014114039
 20
169.9768986947
 30
0.0
 10
200.7414781204
 20
170.6446055965
 30
0.0
 10
200.7413062342
 20
170.9765275403
 30
0.0
  0
SPLINE
  5
564
100
AcDbEntity
  8
BEZUGSACHSEN
100
AcDbSpline
 62
7
  6
CONTINUOUS
 70
0
 71
3
 72
11
 73
7
 74
0
 42
0.0000001
 43
0.0000001
 44
0.0000000001
 40
0.0
 40
0.0
 40
0.0
 40
0.0
 40
0.2500471375
 40
0.5000790657
 40
0.7500747024
 40
1.0
 40
1.0
 40
1.0
 40
1.0
 10
170.0595556899
 20
204.5609993495
 30
0.0
 10
170.0595550656
 20
203.1149470192
 30
0.0
 10
170.1007435173
 20
200.2227834393
 30
0.0
 10
170.2759034893
 20
195.8881697977
 30
0.0
 10
170.541032083
 20
191.5589856781
 30
0.0
 10
170.7613432708
 20
188.6762057298
 30
0.0
 10
170.8790243709
 20
187.235656814
 30
0.0
  0
SPLINE
  5
565
100
AcDbEntity
  8
BEZUGSACHSEN
100
AcDbSpline
 62
7
  6
CONTINUOUS
 70
0
 71
3
 72
9
 73
5
 74
0
 42
0.0000001
 43
0.0000001
 44
0.0000000001
 40
0.0
 40
0.0
 40
0.0
 40
0.0
 40
0.2594786701
 40
1.0
 40
1.0
 40
1.0
 40
1.0
 10
170.8790243709
 20
187.235656814
 30
0.0
 10
170.8946230606
 20
187.0447107253
 30
0.0
 10
170.9518732106
 20
186.3086014693
 30
0.0
 10
170.9987166141
 20
185.5716398896
 30
0.0
 10
171.0248770212
 20
185.0255133182
 30
0.0
  0
SPLINE
  5
566
100
AcDbEntity
  8
BEZUGSACHSEN
100
AcDbSpline
 62
7
  6
CONTINUOUS
 70
0
 71
3
 72
9
 73
5
 74
0
 42
0.0000001
 43
0.0000001
 44
0.0000000001
 40
0.0
 40
0.0
 40
0.0
 40
0.0
 40
0.5262471303
 40
1.0
 40
1.0
 40
1.0
 40
1.0
 10
172.5229597773
 20
182.2328044486
 30
0.0
 10
172.2776714663
 20
182.2229285817
 30
0.0
 10
171.8081734131
 20
182.2542297648
 30
0.0
 10
171.3565977133
 20
182.3977013104
 30
0.0
 10
171.1605878696
 20
182.4997835539
 30
0.0
  0
SPLINE
  5
567
100
AcDbEntity
  8
BEZUGSACHSEN
100
AcDbSpline
 62
7
  6
CONTINUOUS
 70
0
 71
3
 72
9
 73
5
 74
0
 42
0.0000001
 43
0.0000001
 44
0.0000000001
 40
0.0
 40
0.0
 40
0.0
 40
0.0
 40
0.5185330355
 40
1.0
 40
1.0
 40
1.0
 40
1.0
 10
172.7247430093
 20
178.9092740073
 30
0.0
 10
172.4620430959
 20
178.900784632
 30
0.0
 10
171.9498852813
 20
178.958608328
 30
0.0
 10
171.478871186
 20
179.1779497057
 30
0.0
 10
171.2833945146
 20
179.3240615774
 30
0.0
  0
SPLINE
  5
568
100
AcDbEntity
  8
BEZUGSACHSEN
100
AcDbSpline
 62
7
  6
CONTINUOUS
 70
0
 71
3
 72
10
 73
6
 74
0
 42
0.0000001
 43
0.0000001
 44
0.0000000001
 40
0.0
 40
0.0
 40
0.0
 40
0.0
 40
0.5151053799
 40
0.7642189598
 40
1.0
 40
1.0
 40
1.0
 40
1.0
 10
171.2833945146
 20
179.3240615774
 30
0.0
 10
171.3375623934
 20
177.7909020017
 30
0.0
 10
171.4761088531
 20
175.5179365925
 30
0.0
 10
171.7543124508
 20
172.5526218937
 30
0.0
 10
171.915941892
 20
171.1174379966
 30
0.0
 10
172.0015273714
 20
170.4204565274
 30
0.0
  0
SPLINE
  5
569
100
AcDbEntity
  8
0
100
AcDbSpline
 62
7
  6
CONTINUOUS
 70
0
 71
3
 72
9
 73
5
 74
0
 42
0.0000001
 43
0.0000001
 44
0.0000000001
 40
0.0
 40
0.0
 40
0.0
 40
0.0
 40
0.2310913104
 40
1.0
 40
1.0
 40
1.0
 40
1.0
 10
200.7413062342
 20
203.0321309004
 30
0.0
 10
200.7412708897
 20
203.0175170242
 30
0.0
 10
200.7373596489
 20
202.9542787996
 30
0.0
 10
200.720310016
 20
202.8924195183
 30
0.0
 10
200.7033199058
 20
202.8468595848
 30
0.0
  0
SPLINE
  5
56A
100
AcDbEntity
  8
KONSTRUKTIONSELEMENTE
100
AcDbSpline
 62
7
  6
CONTINUOUS
 70
0
 71
3
 72
10
 73
6
 74
0
 42
0.0000001
 43
0.0000001
 44
0.0000000001
 40
0.0
 40
0.0
 40
0.0
 40
0.0
 40
0.2672246367
 40
0.5241468686
 40
1.0
 40
1.0
 40
1.0
 40
1.0
 10
172.5229383376
 20
182.2328059216
 30
0.0
 10
172.5973212563
 20
182.2358007475
 30
0.0
 10
172.7445613106
 20
182.2223437444
 30
0.0
 10
173.0107526247
 20
182.1352089053
 30
0.0
 10
173.1859642484
 20
182.0244633663
 30
0.0
 10
173.2903612605
 20
181.9427679812
 30
0.0
  0
SPLINE
  5
56B
100
AcDbEntity
  8
KONSTRUKTIONSELEMENTE
100
AcDbSpline
 62
7
  6
CONTINUOUS
 70
0
 71
3
 72
9
 73
5
 74
0
 42
0.0000001
 43
0.0000001
 44
0.0000000001
 40
0.0
 40
0.0
 40
0.0
 40
0.0
 40
0.5048460997
 40
1.0
 40
1.0
 40
1.0
 40
1.0
 10
199.5464660091
 20
169.1001927788
 30
0.0
 10
199.415340869
 20
169.1199849102
 30
0.0
 10
199.157239818
 20
169.1711388685
 30
0.0
 10
198.907025515
 20
169.2556239177
 30
0.0
 10
198.7885620866
 20
169.3093193838
 30
0.0
  0
SPLINE
  5
56C
100
AcDbEntity
  8
KONSTRUKTIONSELEMENTE
100
AcDbSpline
 62
7
  6
CONTINUOUS
 70
0
 71
3
 72
9
 73
5
 74
0
 42
0.0000001
 43
0.0000001
 44
0.0000000001
 40
0.0
 40
0.0
 40
0.0
 40
0.0
 40
0.4723531758
 40
1.0
 40
1.0
 40
1.0
 40
1.0
 10
200.444861926
 20
169.0040017019
 30
0.0
 10
200.3025692484
 20
169.0060214668
 30
0.0
 10
200.001800194
 20
169.0323436096
 30
0.0
 10
199.7038372203
 20
169.0764247188
 30
0.0
 10
199.5466528093
 20
169.1001540329
 30
0.0
  0
SPLINE
  5
56D
100
AcDbEntity
  8
BEZUGSACHSEN
100
AcDbSpline
 62
7
  6
CONTINUOUS
 70
0
 71
3
 72
12
 73
8
 74
0
 42
0.0000001
 43
0.0000001
 44
0.0000000001
 40
0.0
 40
0.0
 40
0.0
 40
0.0
 40
0.0694773627
 40
0.1765357047
 40
0.4299509612
 40
0.7081933045
 40
1.0
 40
1.0
 40
1.0
 40
1.0
 10
88.3752135989
 20
169.6589795445
 30
0.0
 10
88.378502014
 20
169.6764606147
 30
0.0
 10
88.3838561913
 20
169.7213815682
 30
0.0
 10
88.3991168677
 20
169.8303690121
 30
0.0
 10
88.4197313784
 20
169.9926096519
 30
0.0
 10
88.4463643714
 20
170.2017375682
 30
0.0
 10
88.4642819516
 20
170.3465802765
 30
0.0
 10
88.4733871602
 20
170.420732048
 30
0.0
  0
SPLINE
  5
56E
100
AcDbEntity
  8
KONSTRUKTIONSELEMENTE
100
AcDbSpline
 62
7
  6
CONTINUOUS
 70
0
 71
3
 72
9
 73
5
 74
0
 42
0.0000001
 43
0.0000001
 44
0.0000000001
 40
0.0
 40
0.0
 40
0.0
 40
0.0
 40
0.2447455005
 40
1.0
 40
1.0
 40
1.0
 40
1.0
 10
59.7584084024
 20
203.1554998834
 30
0.0
 10
59.7541273602
 20
203.1461163864
 30
0.0
 10
59.7389904574
 20
203.1066980251
 30
0.0
 10
59.7334974893
 20
203.063958354
 30
0.0
 10
59.7335744657
 20
203.0321309004
 30
0.0
  0
SPLINE
  5
56F
100
AcDbEntity
  8
0
100
AcDbSpline
 62
7
  6
CONTINUOUS
 70
0
 71
3
 72
9
 73
5
 74
0
 42
0.0000001
 43
0.0000001
 44
0.0000000001
 40
0.0
 40
0.0
 40
0.0
 40
0.0
 40
0.5025004098
 40
1.0
 40
1.0
 40
1.0
 40
1.0
 10
60.0300187739
 20
169.0040017019
 30
0.0
 10
59.9181471815
 20
169.3200443677
 30
0.0
 10
59.773469296
 20
169.9768986947
 30
0.0
 10
59.7334025795
 20
170.6446055965
 30
0.0
 10
59.7335744657
 20
170.9765275403
 30
0.0
  0
SPLINE
  5
570
100
AcDbEntity
  8
BEZUGSACHSEN
100
AcDbSpline
 62
7
  6
CONTINUOUS
 70
0
 71
3
 72
10
 73
6
 74
0
 42
0.0000001
 43
0.0000001
 44
0.0000000001
 40
0.0
 40
0.0
 40
0.0
 40
0.0
 40
0.2357831234
 40
0.4848964099
 40
1.0
 40
1.0
 40
1.0
 40
1.0
 10
88.4733871602
 20
170.420732048
 30
0.0
 10
88.5589687011
 20
171.1176982749
 30
0.0
 10
88.7205908384
 20
172.5528432022
 30
0.0
 10
88.9987803916
 20
175.5180662995
 30
0.0
 10
89.1373201773
 20
177.7909549531
 30
0.0
 10
89.1914861853
 20
179.3240615774
 30
0.0
  0
SPLINE
  5
571
100
AcDbEntity
  8
KONSTRUKTIONSELEMENTE
100
AcDbSpline
 62
7
  6
CONTINUOUS
 70
0
 71
3
 72
9
 73
5
 74
0
 42
0.0000001
 43
0.0000001
 44
0.0000000001
 40
0.0
 40
0.0
 40
0.0
 40
0.0
 40
0.2310913104
 40
1.0
 40
1.0
 40
1.0
 40
1.0
 10
59.7335744657
 20
203.0321309004
 30
0.0
 10
59.7336098102
 20
203.0175170242
 30
0.0
 10
59.737521051
 20
202.9542787996
 30
0.0
 10
59.7545706839
 20
202.8924195183
 30
0.0
 10
59.7715607941
 20
202.8468595848
 30
0.0
  0
SPLINE
  5
572
100
AcDbEntity
  8
0
100
AcDbSpline
 62
7
  6
CONTINUOUS
 70
0
 71
3
 72
10
 73
6
 74
0
 42
0.0000001
 43
0.0000001
 44
0.0000000001
 40
0.0
 40
0.0
 40
0.0
 40
0.0
 40
0.2672246367
 40
0.5241468686
 40
1.0
 40
1.0
 40
1.0
 40
1.0
 10
87.9519423623
 20
182.2328059216
 30
0.0
 10
87.8775594436
 20
182.2358007475
 30
0.0
 10
87.7303193893
 20
182.2223437444
 30
0.0
 10
87.4641280752
 20
182.1352089053
 30
0.0
 10
87.2889164515
 20
182.0244633663
 30
0.0
 10
87.1845194394
 20
181.9427679812
 30
0.0
  0
SPLINE
  5
573
100
AcDbEntity
  8
0
100
AcDbSpline
 62
7
  6
CONTINUOUS
 70
0
 71
3
 72
9
 73
5
 74
0
 42
0.0000001
 43
0.0000001
 44
0.0000000001
 40
0.0
 40
0.0
 40
0.0
 40
0.0
 40
0.5048460997
 40
1.0
 40
1.0
 40
1.0
 40
1.0
 10
60.9284146908
 20
169.1001927788
 30
0.0
 10
61.0595398309
 20
169.1199849102
 30
0.0
 10
61.3176408819
 20
169.1711388685
 30
0.0
 10
61.5678551848
 20
169.2556239177
 30
0.0
 10
61.6863186133
 20
169.3093193838
 30
0.0
  0
SPLINE
  5
574
100
AcDbEntity
  8
0
100
AcDbSpline
 62
7
  6
CONTINUOUS
 70
0
 71
3
 72
9
 73
5
 74
0
 42
0.0000001
 43
0.0000001
 44
0.0000000001
 40
0.0
 40
0.0
 40
0.0
 40
0.0
 40
0.4723531758
 40
1.0
 40
1.0
 40
1.0
 40
1.0
 10
60.0300187739
 20
169.0040017019
 30
0.0
 10
60.1723114515
 20
169.0060214668
 30
0.0
 10
60.4730805059
 20
169.0323436096
 30
0.0
 10
60.7710434796
 20
169.0764247188
 30
0.0
 10
60.9282278906
 20
169.1001540329
 30
0.0
  0
SPLINE
  5
575
100
AcDbEntity
  8
BEZUGSACHSEN
100
AcDbSpline
 62
7
  6
CONTINUOUS
 70
0
 71
3
 72
11
 73
7
 74
0
 42
0.0000001
 43
0.0000001
 44
0.0000000001
 40
0.0
 40
0.0
 40
0.0
 40
0.0
 40
0.2499252981
 40
0.4999209453
 40
0.74995288
 40
1.0
 40
1.0
 40
1.0
 40
1.0
 10
89.5958563591
 20
187.2356572077
 30
0.0
 10
89.7135374544
 20
188.6762060862
 30
0.0
 10
89.9338486361
 20
191.5589860181
 30
0.0
 10
90.1989772407
 20
195.8881701184
 30
0.0
 10
90.3741371102
 20
200.2227836402
 30
0.0
 10
90.4153256334
 20
203.1149470746
 30
0.0
 10
90.41532501
 20
204.5609992636
 30
0.0
  0
SPLINE
  5
576
100
AcDbEntity
  8
BEZUGSACHSEN
100
AcDbSpline
 62
7
  6
CONTINUOUS
 70
0
 71
3
 72
9
 73
5
 74
0
 42
0.0000001
 43
0.0000001
 44
0.0000000001
 40
0.0
 40
0.0
 40
0.0
 40
0.0
 40
0.2369394091
 40
1.0
 40
1.0
 40
1.0
 40
1.0
 10
89.4500036788
 20
185.0255133209
 30
0.0
 10
89.4583740593
 20
185.2002539948
 30
0.0
 10
89.497671549
 20
185.9375522363
 30
0.0
 10
89.5499844893
 20
186.6741322054
 30
0.0
 10
89.5958563591
 20
187.2356572077
 30
0.0
  0
SPLINE
  5
577
100
AcDbEntity
  8
BEZUGSACHSEN
100
AcDbSpline
 62
7
  6
CONTINUOUS
 70
0
 71
3
 72
9
 73
5
 74
0
 42
0.0000001
 43
0.0000001
 44
0.0000000001
 40
0.0
 40
0.0
 40
0.0
 40
0.0
 40
0.5262471303
 40
1.0
 40
1.0
 40
1.0
 40
1.0
 10
87.9519209226
 20
182.2328044486
 30
0.0
 10
88.1972092336
 20
182.2229285817
 30
0.0
 10
88.6667072868
 20
182.2542297648
 30
0.0
 10
89.1182829866
 20
182.3977013104
 30
0.0
 10
89.3142928303
 20
182.4997835539
 30
0.0
  0
SPLINE
  5
578
100
AcDbEntity
  8
BEZUGSACHSEN
100
AcDbSpline
 62
7
  6
CONTINUOUS
 70
0
 71
3
 72
9
 73
5
 74
0
 42
0.0000001
 43
0.0000001
 44
0.0000000001
 40
0.0
 40
0.0
 40
0.0
 40
0.0
 40
0.5185330355
 40
1.0
 40
1.0
 40
1.0
 40
1.0
 10
87.7501376906
 20
178.9092740073
 30
0.0
 10
88.012837604
 20
178.900784632
 30
0.0
 10
88.5249954185
 20
178.958608328
 30
0.0
 10
88.9960095139
 20
179.1779497057
 30
0.0
 10
89.1914861853
 20
179.3240615774
 30
0.0
  0
SPLINE
  5
579
100
AcDbEntity
  8
0
100
AcDbSpline
 62
7
  6
CONTINUOUS
 70
0
 71
3
 72
8
 73
4
 74
0
 42
0.0000001
 43
0.0000001
 44
0.0000000001
 40
0.0
 40
0.0
 40
0.0
 40
0.0
 40
1.0
 40
1.0
 40
1.0
 40
1.0
 10
132.1034281843
 20
203.5818838207
 30
0.0
 10
132.1034281843
 20
203.133818659
 30
0.0
 10
132.1360145204
 20
202.8323929487
 30
0.0
 10
132.2076208871
 20
202.6687212822
 30
0.0
  0
SPLINE
  5
57A
100
AcDbEntity
  8
0
100
AcDbSpline
 62
7
  6
CONTINUOUS
 70
0
 71
3
 72
8
 73
4
 74
0
 42
0.0000001
 43
0.0000001
 44
0.0000000001
 40
0.0
 40
0.0
 40
0.0
 40
0.0
 40
1.0
 40
1.0
 40
1.0
 40
1.0
 10
132.2076208871
 20
202.6687212822
 30
0.0
 10
132.2785807245
 20
202.5065273968
 30
0.0
 10
132.4170735471
 20
202.3843277926
 30
0.0
 10
132.6241261184
 20
202.3051606066
 30
0.0
  0
SPLINE
  5
57B
100
AcDbEntity
  8
0
100
AcDbSpline
 62
7
  6
CONTINUOUS
 70
0
 71
3
 72
8
 73
4
 74
0
 42
0.0000001
 43
0.0000001
 44
0.0000000001
 40
0.0
 40
0.0
 40
0.0
 40
0.0
 40
1.0
 40
1.0
 40
1.0
 40
1.0
 10
132.6241261184
 20
202.3051606066
 30
0.0
 10
132.8325520151
 20
202.2254683254
 30
0.0
 10
133.0688045614
 20
202.1847351259
 30
0.0
 10
133.3294973962
 20
202.1847351259
 30
0.0
  0
SPLINE
  5
57C
100
AcDbEntity
  8
0
100
AcDbSpline
 62
7
  6
CONTINUOUS
 70
0
 71
3
 72
8
 73
4
 74
0
 42
0.0000001
 43
0.0000001
 44
0.0000000001
 40
0.0
 40
0.0
 40
0.0
 40
0.0
 40
1.0
 40
1.0
 40
1.0
 40
1.0
 10
133.3294973962
 20
202.1847351259
 30
0.0
 10
133.4924297922
 20
202.1847351259
 30
0.0
 10
133.712389528
 20
202.1969550913
 30
0.0
 10
133.9934485548
 20
202.2213950055
 30
0.0
  0
SPLINE
  5
57D
100
AcDbEntity
  8
0
100
AcDbSpline
 62
7
  6
CONTINUOUS
 70
0
 71
3
 72
8
 73
4
 74
0
 42
0.0000001
 43
0.0000001
 44
0.0000000001
 40
0.0
 40
0.0
 40
0.0
 40
0.0
 40
1.0
 40
1.0
 40
1.0
 40
1.0
 10
133.9934485548
 20
203.0971587626
 30
0.0
 10
133.8549557321
 20
203.1460386245
 30
0.0
 10
133.753122627
 20
203.1745518474
 30
0.0
 10
133.6838036712
 20
203.1820169697
 30
0.0
  0
SPLINE
  5
57E
100
AcDbEntity
  8
0
100
AcDbSpline
 62
7
  6
CONTINUOUS
 70
0
 71
3
 72
8
 73
4
 74
0
 42
0.0000001
 43
0.0000001
 44
0.0000000001
 40
0.0
 40
0.0
 40
0.0
 40
0.0
 40
1.0
 40
1.0
 40
1.0
 40
1.0
 10
133.6838036712
 20
203.1820169697
 30
0.0
 10
133.488357126
 20
203.2030650703
 30
0.0
 10
133.3702304952
 20
203.2397249667
 30
0.0
 10
133.3294974182
 20
203.2886047574
 30
0.0
  0
SPLINE
  5
57F
100
AcDbEntity
  8
0
100
AcDbSpline
 62
7
  6
CONTINUOUS
 70
0
 71
3
 72
8
 73
4
 74
0
 42
0.0000001
 43
0.0000001
 44
0.0000000001
 40
0.0
 40
0.0
 40
0.0
 40
0.0
 40
1.0
 40
1.0
 40
1.0
 40
1.0
 10
133.3294974182
 20
203.2886047574
 30
0.0
 10
133.2887642973
 20
203.337484601
 30
0.0
 10
133.2683973901
 20
203.4352443246
 30
0.0
 10
133.2683973901
 20
203.5900304047
 30
0.0
  0
SPLINE
  5
580
100
AcDbEntity
  8
0
100
AcDbSpline
 62
7
  6
CONTINUOUS
 70
0
 71
3
 72
10
 73
6
 74
0
 42
0.0000001
 43
0.0000001
 44
0.0000000001
 40
0.0
 40
0.0
 40
0.0
 40
0.0
 40
0.499824218
 40
0.7499085725
 40
1.0
 40
1.0
 40
1.0
 40
1.0
 10
136.6718467535
 20
211.8303874093
 30
0.0
 10
137.9451276257
 20
212.164910472
 30
0.0
 10
139.8197095644
 20
212.8159466328
 30
0.0
 10
142.2074203616
 20
213.9300282148
 30
0.0
 10
143.3662801803
 20
214.5585360777
 30
0.0
 10
143.9374403499
 20
214.8866908256
 30
0.0
  0
SPLINE
  5
581
100
AcDbEntity
  8
0
100
AcDbSpline
 62
7
  6
CONTINUOUS
 70
0
 71
3
 72
10
 73
6
 74
0
 42
0.0000001
 43
0.0000001
 44
0.0000000001
 40
0.0
 40
0.0
 40
0.0
 40
0.0
 40
0.2500913588
 40
0.5001757208
 40
1.0
 40
1.0
 40
1.0
 40
1.0
 10
116.9374403499
 20
214.8866908254
 30
0.0
 10
117.508600352
 20
214.5585362066
 30
0.0
 10
118.6674599828
 20
213.9300284639
 30
0.0
 10
121.0551705991
 20
212.8159467646
 30
0.0
 10
122.9297526428
 20
212.1649106039
 30
0.0
 10
124.2030336073
 20
211.8303874856
 30
0.0
  0
SPLINE
  5
582
100
AcDbEntity
  8
BEZUGSACHSEN
100
AcDbSpline
 62
7
  6
CONTINUOUS
 70
0
 71
3
 72
12
 73
8
 74
0
 42
0.0000001
 43
0.0000001
 44
0.0000000001
 40
0.0
 40
0.0
 40
0.0
 40
0.0
 40
0.2918107929
 40
0.5700552204
 40
0.8234694381
 40
0.9305246369
 40
1.0
 40
1.0
 40
1.0
 40
1.0
 10
88.4733533285
 20
127.0427610897
 30
0.0
 10
88.4642511001
 20
127.1168868009
 30
0.0
 10
88.4463392575
 20
127.2616781034
 30
0.0
 10
88.4197163617
 20
127.4707310956
 30
0.0
 10
88.3991065012
 20
127.6329114303
 30
0.0
 10
88.3838557321
 20
127.7418582934
 30
0.0
 10
88.3784978113
 20
127.7867604479
 30
0.0
 10
88.3752139539
 20
127.8042352458
 30
0.0
  0
SPLINE
  5
583
100
AcDbEntity
  8
0
100
AcDbSpline
 62
7
  6
CONTINUOUS
 70
0
 71
3
 72
9
 73
5
 74
0
 42
0.0000001
 43
0.0000001
 44
0.0000000001
 40
0.0
 40
0.0
 40
0.0
 40
0.0
 40
0.2447455005
 40
1.0
 40
1.0
 40
1.0
 40
1.0
 10
59.7584084024
 20
94.3077177337
 30
0.0
 10
59.7541273602
 20
94.3171012306
 30
0.0
 10
59.7389904574
 20
94.356519592
 30
0.0
 10
59.7334974893
 20
94.3992592631
 30
0.0
 10
59.7335744657
 20
94.4310867167
 30
0.0
  0
SPLINE
  5
584
100
AcDbEntity
  8
KONSTRUKTIONSELEMENTE
100
AcDbSpline
 62
7
  6
CONTINUOUS
 70
0
 71
3
 72
9
 73
5
 74
0
 42
0.0000001
 43
0.0000001
 44
0.0000000001
 40
0.0
 40
0.0
 40
0.0
 40
0.0
 40
0.5025004098
 40
1.0
 40
1.0
 40
1.0
 40
1.0
 10
60.0300187739
 20
128.4592159151
 30
0.0
 10
59.9181471815
 20
128.1431732494
 30
0.0
 10
59.773469296
 20
127.4863189223
 30
0.0
 10
59.7334025795
 20
126.8186120206
 30
0.0
 10
59.7335744657
 20
126.4866900768
 30
0.0
  0
SPLINE
  5
585
100
AcDbEntity
  8
BEZUGSACHSEN
100
AcDbSpline
 62
7
  6
CONTINUOUS
 70
0
 71
3
 72
11
 73
7
 74
0
 42
0.0000001
 43
0.0000001
 44
0.0000000001
 40
0.0
 40
0.0
 40
0.0
 40
0.0
 40
0.2500471375
 40
0.5000790657
 40
0.7500747024
 40
1.0
 40
1.0
 40
1.0
 40
1.0
 10
90.41532501
 20
92.9022182676
 30
0.0
 10
90.4153256343
 20
94.3482705979
 30
0.0
 10
90.3741371826
 20
97.2404341777
 30
0.0
 10
90.1989772106
 20
101.5750478194
 30
0.0
 10
89.9338486169
 20
105.9042319389
 30
0.0
 10
89.7135374291
 20
108.7870118873
 30
0.0
 10
89.595856329
 20
110.227560803
 30
0.0
  0
SPLINE
  5
586
100
AcDbEntity
  8
BEZUGSACHSEN
100
AcDbSpline
 62
7
  6
CONTINUOUS
 70
0
 71
3
 72
9
 73
5
 74
0
 42
0.0000001
 43
0.0000001
 44
0.0000000001
 40
0.0
 40
0.0
 40
0.0
 40
0.0
 40
0.2594786701
 40
1.0
 40
1.0
 40
1.0
 40
1.0
 10
89.595856329
 20
110.227560803
 30
0.0
 10
89.5802576393
 20
110.4185068918
 30
0.0
 10
89.5230074893
 20
111.1546161478
 30
0.0
 10
89.4761640858
 20
111.8915777275
 30
0.0
 10
89.4500036787
 20
112.4377042989
 30
0.0
  0
SPLINE
  5
587
100
AcDbEntity
  8
BEZUGSACHSEN
100
AcDbSpline
 62
7
  6
CONTINUOUS
 70
0
 71
3
 72
9
 73
5
 74
0
 42
0.0000001
 43
0.0000001
 44
0.0000000001
 40
0.0
 40
0.0
 40
0.0
 40
0.0
 40
0.5262471303
 40
1.0
 40
1.0
 40
1.0
 40
1.0
 10
87.9519209226
 20
115.2304131685
 30
0.0
 10
88.1972092336
 20
115.2402890354
 30
0.0
 10
88.6667072868
 20
115.2089878523
 30
0.0
 10
89.1182829866
 20
115.0655163067
 30
0.0
 10
89.3142928303
 20
114.9634340632
 30
0.0
  0
SPLINE
  5
588
100
AcDbEntity
  8
BEZUGSACHSEN
100
AcDbSpline
 62
7
  6
CONTINUOUS
 70
0
 71
3
 72
9
 73
5
 74
0
 42
0.0000001
 43
0.0000001
 44
0.0000000001
 40
0.0
 40
0.0
 40
0.0
 40
0.0
 40
0.5185330355
 40
1.0
 40
1.0
 40
1.0
 40
1.0
 10
87.7501376906
 20
118.5539436097
 30
0.0
 10
88.012837604
 20
118.5624329851
 30
0.0
 10
88.5249954185
 20
118.5046092891
 30
0.0
 10
88.9960095139
 20
118.2852679114
 30
0.0
 10
89.1914861853
 20
118.1391560397
 30
0.0
  0
SPLINE
  5
589
100
AcDbEntity
  8
BEZUGSACHSEN
100
AcDbSpline
 62
7
  6
CONTINUOUS
 70
0
 71
3
 72
10
 73
6
 74
0
 42
0.0000001
 43
0.0000001
 44
0.0000000001
 40
0.0
 40
0.0
 40
0.0
 40
0.0
 40
0.5151053799
 40
0.7642189598
 40
1.0
 40
1.0
 40
1.0
 40
1.0
 10
89.1914861853
 20
118.1391560397
 30
0.0
 10
89.1373183065
 20
119.6723156154
 30
0.0
 10
88.9987718468
 20
121.9452810246
 30
0.0
 10
88.7205682491
 20
124.9105957233
 30
0.0
 10
88.5589388079
 20
126.3457796205
 30
0.0
 10
88.4733533285
 20
127.0427610897
 30
0.0
  0
SPLINE
  5
58A
100
AcDbEntity
  8
KONSTRUKTIONSELEMENTE
100
AcDbSpline
 62
7
  6
CONTINUOUS
 70
0
 71
3
 72
10
 73
6
 74
0
 42
0.0000001
 43
0.0000001
 44
0.0000000001
 40
0.0
 40
0.0
 40
0.0
 40
0.0
 40
0.2672246367
 40
0.5241468686
 40
1.0
 40
1.0
 40
1.0
 40
1.0
 10
87.9519423623
 20
115.2304116955
 30
0.0
 10
87.8775594436
 20
115.2274168695
 30
0.0
 10
87.7303193893
 20
115.2408738726
 30
0.0
 10
87.4641280752
 20
115.3280087118
 30
0.0
 10
87.2889164515
 20
115.4387542508
 30
0.0
 10
87.1845194394
 20
115.5204496359
 30
0.0
  0
SPLINE
  5
58B
100
AcDbEntity
  8
0
100
AcDbSpline
 62
7
  6
CONTINUOUS
 70
0
 71
3
 72
9
 73
5
 74
0
 42
0.0000001
 43
0.0000001
 44
0.0000000001
 40
0.0
 40
0.0
 40
0.0
 40
0.0
 40
0.2310913104
 40
1.0
 40
1.0
 40
1.0
 40
1.0
 10
59.7335744657
 20
94.4310867167
 30
0.0
 10
59.7336098102
 20
94.4457005929
 30
0.0
 10
59.737521051
 20
94.5089388175
 30
0.0
 10
59.7545706839
 20
94.5707980988
 30
0.0
 10
59.7715607941
 20
94.6163580323
 30
0.0
  0
SPLINE
  5
58C
100
AcDbEntity
  8
KONSTRUKTIONSELEMENTE
100
AcDbSpline
 62
7
  6
CONTINUOUS
 70
0
 71
3
 72
9
 73
5
 74
0
 42
0.0000001
 43
0.0000001
 44
0.0000000001
 40
0.0
 40
0.0
 40
0.0
 40
0.0
 40
0.5048460997
 40
1.0
 40
1.0
 40
1.0
 40
1.0
 10
60.9284146908
 20
128.3630248383
 30
0.0
 10
61.0595398309
 20
128.3432327069
 30
0.0
 10
61.3176408819
 20
128.2920787486
 30
0.0
 10
61.5678551848
 20
128.2075936994
 30
0.0
 10
61.6863186133
 20
128.1538982333
 30
0.0
  0
SPLINE
  5
58D
100
AcDbEntity
  8
KONSTRUKTIONSELEMENTE
100
AcDbSpline
 62
7
  6
CONTINUOUS
 70
0
 71
3
 72
9
 73
5
 74
0
 42
0.0000001
 43
0.0000001
 44
0.0000000001
 40
0.0
 40
0.0
 40
0.0
 40
0.0
 40
0.4723531758
 40
1.0
 40
1.0
 40
1.0
 40
1.0
 10
60.0300187739
 20
128.4592159151
 30
0.0
 10
60.1723114515
 20
128.4571961503
 30
0.0
 10
60.4730805059
 20
128.4308740075
 30
0.0
 10
60.7710434796
 20
128.3867928983
 30
0.0
 10
60.9282278906
 20
128.3630635842
 30
0.0
  0
SPLINE
  5
58E
100
AcDbEntity
  8
BEZUGSACHSEN
100
AcDbSpline
 62
7
  6
CONTINUOUS
 70
0
 71
3
 72
12
 73
8
 74
0
 42
0.0000001
 43
0.0000001
 44
0.0000000001
 40
0.0
 40
0.0
 40
0.0
 40
0.0
 40
0.0694773627
 40
0.1765357047
 40
0.4299509612
 40
0.7081933045
 40
1.0
 40
1.0
 40
1.0
 40
1.0
 10
172.099667101
 20
127.8042380726
 30
0.0
 10
172.0963786859
 20
127.7867570024
 30
0.0
 10
172.0910245086
 20
127.7418360489
 30
0.0
 10
172.0757638322
 20
127.632848605
 30
0.0
 10
172.0551493215
 20
127.4706079652
 30
0.0
 10
172.0285163285
 20
127.2614800489
 30
0.0
 10
172.0105987483
 20
127.1166373406
 30
0.0
 10
172.0014935397
 20
127.042485569
 30
0.0
  0
SPLINE
  5
58F
100
AcDbEntity
  8
KONSTRUKTIONSELEMENTE
100
AcDbSpline
 62
7
  6
CONTINUOUS
 70
0
 71
3
 72
9
 73
5
 74
0
 42
0.0000001
 43
0.0000001
 44
0.0000000001
 40
0.0
 40
0.0
 40
0.0
 40
0.0
 40
0.2447455005
 40
1.0
 40
1.0
 40
1.0
 40
1.0
 10
200.7164722975
 20
94.3077177337
 30
0.0
 10
200.7207533397
 20
94.3171012306
 30
0.0
 10
200.7358902425
 20
94.356519592
 30
0.0
 10
200.7413832106
 20
94.3992592631
 30
0.0
 10
200.7413062342
 20
94.4310867167
 30
0.0
  0
SPLINE
  5
590
100
AcDbEntity
  8
0
100
AcDbSpline
 62
7
  6
CONTINUOUS
 70
0
 71
3
 72
9
 73
5
 74
0
 42
0.0000001
 43
0.0000001
 44
0.0000000001
 40
0.0
 40
0.0
 40
0.0
 40
0.0
 40
0.5025004098
 40
1.0
 40
1.0
 40
1.0
 40
1.0
 10
200.444861926
 20
128.4592159151
 30
0.0
 10
200.5567335184
 20
128.1431732494
 30
0.0
 10
200.7014114039
 20
127.4863189223
 30
0.0
 10
200.7414781204
 20
126.8186120206
 30
0.0
 10
200.7413062342
 20
126.4866900768
 30
0.0
  0
SPLINE
  5
591
100
AcDbEntity
  8
BEZUGSACHSEN
100
AcDbSpline
 62
7
  6
CONTINUOUS
 70
0
 71
3
 72
10
 73
6
 74
0
 42
0.0000001
 43
0.0000001
 44
0.0000000001
 40
0.0
 40
0.0
 40
0.0
 40
0.0
 40
0.2357831234
 40
0.4848964099
 40
1.0
 40
1.0
 40
1.0
 40
1.0
 10
172.0014935397
 20
127.042485569
 30
0.0
 10
171.9159119988
 20
126.3455193422
 30
0.0
 10
171.7542898615
 20
124.9103744149
 30
0.0
 10
171.4761003083
 20
121.9451513176
 30
0.0
 10
171.3375605226
 20
119.672262664
 30
0.0
 10
171.2833945146
 20
118.1391560397
 30
0.0
  0
SPLINE
  5
592
100
AcDbEntity
  8
KONSTRUKTIONSELEMENTE
100
AcDbSpline
 62
7
  6
CONTINUOUS
 70
0
 71
3
 72
9
 73
5
 74
0
 42
0.0000001
 43
0.0000001
 44
0.0000000001
 40
0.0
 40
0.0
 40
0.0
 40
0.0
 40
0.2310913104
 40
1.0
 40
1.0
 40
1.0
 40
1.0
 10
200.7413062342
 20
94.4310867167
 30
0.0
 10
200.7412708897
 20
94.4457005929
 30
0.0
 10
200.7373596489
 20
94.5089388175
 30
0.0
 10
200.720310016
 20
94.5707980988
 30
0.0
 10
200.7033199058
 20
94.6163580323
 30
0.0
  0
SPLINE
  5
593
100
AcDbEntity
  8
0
100
AcDbSpline
 62
7
  6
CONTINUOUS
 70
0
 71
3
 72
10
 73
6
 74
0
 42
0.0000001
 43
0.0000001
 44
0.0000000001
 40
0.0
 40
0.0
 40
0.0
 40
0.0
 40
0.2672246367
 40
0.5241468686
 40
1.0
 40
1.0
 40
1.0
 40
1.0
 10
172.5229383376
 20
115.2304116955
 30
0.0
 10
172.5973212563
 20
115.2274168695
 30
0.0
 10
172.7445613106
 20
115.2408738726
 30
0.0
 10
173.0107526247
 20
115.3280087118
 30
0.0
 10
173.1859642484
 20
115.4387542508
 30
0.0
 10
173.2903612605
 20
115.5204496359
 30
0.0
  0
SPLINE
  5
594
100
AcDbEntity
  8
0
100
AcDbSpline
 62
7
  6
CONTINUOUS
 70
0
 71
3
 72
9
 73
5
 74
0
 42
0.0000001
 43
0.0000001
 44
0.0000000001
 40
0.0
 40
0.0
 40
0.0
 40
0.0
 40
0.5048460997
 40
1.0
 40
1.0
 40
1.0
 40
1.0
 10
199.5464660091
 20
128.3630248383
 30
0.0
 10
199.415340869
 20
128.3432327069
 30
0.0
 10
199.157239818
 20
128.2920787486
 30
0.0
 10
198.907025515
 20
128.2075936994
 30
0.0
 10
198.7885620866
 20
128.1538982333
 30
0.0
  0
SPLINE
  5
595
100
AcDbEntity
  8
0
100
AcDbSpline
 62
7
  6
CONTINUOUS
 70
0
 71
3
 72
9
 73
5
 74
0
 42
0.0000001
 43
0.0000001
 44
0.0000000001
 40
0.0
 40
0.0
 40
0.0
 40
0.0
 40
0.4723531758
 40
1.0
 40
1.0
 40
1.0
 40
1.0
 10
200.444861926
 20
128.4592159151
 30
0.0
 10
200.3025692484
 20
128.4571961503
 30
0.0
 10
200.001800194
 20
128.4308740075
 30
0.0
 10
199.7038372203
 20
128.3867928983
 30
0.0
 10
199.5466528093
 20
128.3630635842
 30
0.0
  0
SPLINE
  5
596
100
AcDbEntity
  8
BEZUGSACHSEN
100
AcDbSpline
 62
7
  6
CONTINUOUS
 70
0
 71
3
 72
11
 73
7
 74
0
 42
0.0000001
 43
0.0000001
 44
0.0000000001
 40
0.0
 40
0.0
 40
0.0
 40
0.0
 40
0.2499252981
 40
0.4999209453
 40
0.74995288
 40
1.0
 40
1.0
 40
1.0
 40
1.0
 10
170.8790243408
 20
110.2275604093
 30
0.0
 10
170.7613432455
 20
108.7870115309
 30
0.0
 10
170.5410320638
 20
105.9042315989
 30
0.0
 10
170.2759034592
 20
101.5750474987
 30
0.0
 10
170.1007435897
 20
97.2404339769
 30
0.0
 10
170.0595550665
 20
94.3482705425
 30
0.0
 10
170.0595556899
 20
92.9022183535
 30
0.0
  0
SPLINE
  5
597
100
AcDbEntity
  8
BEZUGSACHSEN
100
AcDbSpline
 62
7
  6
CONTINUOUS
 70
0
 71
3
 72
9
 73
5
 74
0
 42
0.0000001
 43
0.0000001
 44
0.0000000001
 40
0.0
 40
0.0
 40
0.0
 40
0.0
 40
0.2369394091
 40
1.0
 40
1.0
 40
1.0
 40
1.0
 10
171.0248770211
 20
112.4377042962
 30
0.0
 10
171.0165066406
 20
112.2629636222
 30
0.0
 10
170.9772091509
 20
111.5256653808
 30
0.0
 10
170.9248962106
 20
110.7890854117
 30
0.0
 10
170.8790243408
 20
110.2275604093
 30
0.0
  0
SPLINE
  5
598
100
AcDbEntity
  8
BEZUGSACHSEN
100
AcDbSpline
 62
7
  6
CONTINUOUS
 70
0
 71
3
 72
9
 73
5
 74
0
 42
0.0000001
 43
0.0000001
 44
0.0000000001
 40
0.0
 40
0.0
 40
0.0
 40
0.0
 40
0.5262471303
 40
1.0
 40
1.0
 40
1.0
 40
1.0
 10
172.5229597773
 20
115.2304131685
 30
0.0
 10
172.2776714663
 20
115.2402890354
 30
0.0
 10
171.8081734131
 20
115.2089878523
 30
0.0
 10
171.3565977133
 20
115.0655163067
 30
0.0
 10
171.1605878696
 20
114.9634340632
 30
0.0
  0
SPLINE
  5
599
100
AcDbEntity
  8
BEZUGSACHSEN
100
AcDbSpline
 62
7
  6
CONTINUOUS
 70
0
 71
3
 72
9
 73
5
 74
0
 42
0.0000001
 43
0.0000001
 44
0.0000000001
 40
0.0
 40
0.0
 40
0.0
 40
0.0
 40
0.5185330355
 40
1.0
 40
1.0
 40
1.0
 40
1.0
 10
172.7247430093
 20
118.5539436097
 30
0.0
 10
172.4620430959
 20
118.5624329851
 30
0.0
 10
171.9498852813
 20
118.5046092891
 30
0.0
 10
171.478871186
 20
118.2852679114
 30
0.0
 10
171.2833945146
 20
118.1391560397
 30
0.0
  0
SPLINE
  5
59A
100
AcDbEntity
  8
0
100
AcDbSpline
 62
7
  6
CONTINUOUS
 70
0
 71
3
 72
11
 73
7
 74
0
 42
0.0000001
 43
0.0000001
 44
0.0000000001
 40
0.0
 40
0.0
 40
0.0
 40
0.0
 40
0.4292497276
 40
0.7385343887
 40
0.9267219094
 40
1.0
 40
1.0
 40
1.0
 40
1.0
 10
108.0572421445
 20
102.2022095782
 30
0.0
 10
108.0804757624
 20
102.2022095782
 30
0.0
 10
108.1195844757
 20
102.2019627292
 30
0.0
 10
108.1723760618
 20
102.1996098112
 30
0.0
 10
108.198412428
 20
102.1966243964
 30
0.0
 10
108.2174335492
 20
102.19206081
 30
0.0
 10
108.2174398148
 20
102.1880945569
 30
0.0
  0
SPLINE
  5
59B
100
AcDbEntity
  8
0
100
AcDbSpline
 62
7
  6
CONTINUOUS
 70
0
 71
3
 72
11
 73
7
 74
0
 42
0.0000001
 43
0.0000001
 44
0.0000000001
 40
0.0
 40
0.0
 40
0.0
 40
0.0
 40
0.4292497276
 40
0.7385343887
 40
0.9267219094
 40
1.0
 40
1.0
 40
1.0
 40
1.0
 10
103.3772421445
 20
102.2022095782
 30
0.0
 10
103.4004757624
 20
102.2022095782
 30
0.0
 10
103.4395844757
 20
102.2019627292
 30
0.0
 10
103.4923760618
 20
102.1996098112
 30
0.0
 10
103.518412428
 20
102.1966243964
 30
0.0
 10
103.5374335492
 20
102.19206081
 30
0.0
 10
103.5374398148
 20
102.1880945569
 30
0.0
  0
SPLINE
  5
59C
100
AcDbEntity
  8
0
100
AcDbSpline
 62
7
  6
CONTINUOUS
 70
0
 71
3
 72
12
 73
8
 74
0
 42
0.0000001
 43
0.0000001
 44
0.0000000001
 40
0.0
 40
0.0
 40
0.0
 40
0.0
 40
0.3464239597
 40
0.6454230495
 40
0.8700187518
 40
0.9477891026
 40
1.0
 40
1.0
 40
1.0
 40
1.0
 10
101.0693476399
 20
102.0693676234
 30
0.0
 10
101.2551653734
 20
102.0719448121
 30
0.0
 10
101.6013307806
 20
102.0814406725
 30
0.0
 10
102.0673450533
 20
102.10748829
 30
0.0
 10
102.3889287288
 20
102.1343781788
 30
0.0
 10
102.5777798325
 20
102.1569580348
 30
0.0
 10
102.6467848594
 20
102.1673552454
 30
0.0
 10
102.6742261586
 20
102.1729609029
 30
0.0
  0
SPLINE
  5
59D
100
AcDbEntity
  8
0
100
AcDbSpline
 62
7
  6
CONTINUOUS
 70
0
 71
3
 72
20
 73
16
 74
0
 42
0.0000001
 43
0.0000001
 44
0.0000000001
 40
0.0
 40
0.0
 40
0.0
 40
0.0
 40
0.192373101
 40
0.3784922218
 40
0.5509255945
 40
0.7027005961
 40
0.7689103914
 40
0.8277580954
 40
0.8786618587
 40
0.9211061345
 40
0.9546748063
 40
0.9790456772
 40
0.9940275181
 40
0.9980370702
 40
1.0
 40
1.0
 40
1.0
 40
1.0
 10
105.3860786844
 20
102.067580578
 30
0.0
 10
105.5155591843
 20
102.0670641447
 30
0.0
 10
105.7703272243
 20
102.0684658525
 30
0.0
 10
106.1410522436
 20
102.0775180021
 30
0.0
 10
106.484239838
 20
102.0923790063
 30
0.0
 10
106.7465281581
 20
102.1087417286
 30
0.0
 10
106.9322910576
 20
102.1233381724
 30
0.0
 10
107.0502454826
 20
102.1339423329
 30
0.0
 10
107.1521739157
 20
102.1444263323
 30
0.0
 10
107.2369436626
 20
102.1544560422
 30
0.0
 10
107.304038176
 20
102.163868953
 30
0.0
 10
107.3520215074
 20
102.1720629635
 30
0.0
 10
107.3811656501
 20
102.1789867935
 30
0.0
 10
107.3936968135
 20
102.1837596919
 30
0.0
 10
107.3974430109
 20
102.1867742583
 30
0.0
 10
107.3974387301
 20
102.1880954504
 30
0.0
  0
LINE
  5
59E
100
AcDbEntity
  8
0
100
AcDbLine
 62
7
  6
CONTINUOUS
 10
150.3203677121
 20
102.2014130769
 11
150.3024407076
 21
102.2007935561
  0
SPLINE
  5
59F
100
AcDbEntity
  8
0
100
AcDbSpline
 62
7
  6
CONTINUOUS
 70
0
 71
3
 72
17
 73
13
 74
0
 42
0.0000001
 43
0.0000001
 44
0.0000000001
 40
0.0
 40
0.0
 40
0.0
 40
0.0
 40
0.0065268507
 40
0.0201115717
 40
0.0415489192
 40
0.0709505937
 40
0.1534730172
 40
0.2669195305
 40
0.4100429096
 40
0.5812505132
 40
0.7786335993
 40
1.0
 40
1.0
 40
1.0
 40
1.0
 10
103.5374398148
 20
102.1880945569
 30
0.0
 10
103.5374430652
 20
102.1860369326
 30
0.0
 10
103.5313916396
 20
102.1814015363
 30
0.0
 10
103.5199703153
 20
102.1768609584
 30
0.0
 10
103.5001695132
 20
102.1706596308
 30
0.0
 10
103.4595354866
 20
102.1608004783
 30
0.0
 10
103.3895656923
 20
102.1473332742
 30
0.0
 10
103.2840853614
 20
102.130446041
 30
0.0
 10
103.1504583879
 20
102.1119548698
 30
0.0
 10
102.9903192379
 20
102.0925099011
 30
0.0
 10
102.8053747147
 20
102.072752055
 30
0.0
 10
102.6739304025
 20
102.0604732843
 30
0.0
 10
102.6044075212
 20
102.0544072123
 30
0.0
  0
SPLINE
  5
5A0
100
AcDbEntity
  8
0
100
AcDbSpline
 62
7
  6
CONTINUOUS
 70
0
 71
3
 72
9
 73
5
 74
0
 42
0.0000001
 43
0.0000001
 44
0.0000000001
 40
0.0
 40
0.0
 40
0.0
 40
0.0
 40
0.2216131579
 40
1.0
 40
1.0
 40
1.0
 40
1.0
 10
102.6044075212
 20
102.0544072123
 30
0.0
 10
102.4918240228
 20
102.0445839772
 30
0.0
 10
101.9833773529
 20
102.0052878895
 30
0.0
 10
101.4734444462
 20
101.9854907027
 30
0.0
 10
101.0765402256
 20
101.9803898662
 30
0.0
  0
SPLINE
  5
5A1
100
AcDbEntity
  8
0
100
AcDbSpline
 62
7
  6
CONTINUOUS
 70
0
 71
3
 72
9
 73
5
 74
0
 42
0.0000001
 43
0.0000001
 44
0.0000000001
 40
0.0
 40
0.0
 40
0.0
 40
0.0
 40
0.1911384544
 40
1.0
 40
1.0
 40
1.0
 40
1.0
 10
102.6711866174
 20
102.1980027395
 30
0.0
 10
102.6629745206
 20
102.1986165637
 30
0.0
 10
102.6199538841
 20
102.2010543565
 30
0.0
 10
102.5768562066
 20
102.2016644996
 30
0.0
 10
102.5420085531
 20
102.2019679669
 30
0.0
  0
SPLINE
  5
5A2
100
AcDbEntity
  8
0
100
AcDbSpline
 62
7
  6
CONTINUOUS
 70
0
 71
3
 72
13
 73
9
 74
0
 42
0.0000001
 43
0.0000001
 44
0.0000000001
 40
0.0
 40
0.0
 40
0.0
 40
0.0
 40
0.02143831
 40
0.0704365292
 40
0.1498769549
 40
0.2600153271
 40
0.5712972975
 40
1.0
 40
1.0
 40
1.0
 40
1.0
 10
107.3974387301
 20
102.1880954504
 30
0.0
 10
107.3974332187
 20
102.1897964767
 30
0.0
 10
107.3910315165
 20
102.1930012692
 30
0.0
 10
107.3804225465
 20
102.1949067465
 30
0.0
 10
107.3610507543
 20
102.1974467898
 30
0.0
 10
107.3217328274
 20
102.2000195858
 30
0.0
 10
107.2540305318
 20
102.2019335074
 30
0.0
 10
107.1954080045
 20
102.2022095782
 30
0.0
 10
107.1613923371
 20
102.2022095782
 30
0.0
  0
SPLINE
  5
5A3
100
AcDbEntity
  8
0
100
AcDbSpline
 62
7
  6
CONTINUOUS
 70
0
 71
3
 72
17
 73
13
 74
0
 42
0.0000001
 43
0.0000001
 44
0.0000000001
 40
0.0
 40
0.0
 40
0.0
 40
0.0
 40
0.006865627
 40
0.0205026385
 40
0.0418235927
 40
0.0709850916
 40
0.1527806024
 40
0.2653726577
 40
0.4077899998
 40
0.5787589947
 40
0.7767470594
 40
1.0
 40
1.0
 40
1.0
 40
1.0
 10
108.2174398148
 20
102.1880945569
 30
0.0
 10
108.217442596
 20
102.186333971
 30
0.0
 10
108.2127979246
 20
102.1822238017
 30
0.0
 10
108.2034214374
 20
102.1781830686
 30
0.0
 10
108.1875878633
 20
102.1727940416
 30
0.0
 10
108.1549024884
 20
102.1642546048
 30
0.0
 10
108.0986213687
 20
102.1526640071
 30
0.0
 10
108.0135339425
 20
102.1381165146
 30
0.0
 10
107.9054502455
 20
102.1221012082
 30
0.0
 10
107.7754290915
 20
102.1050699786
 30
0.0
 10
107.6245828557
 20
102.0874633299
 30
0.0
 10
107.5171383699
 20
102.0762938223
 30
0.0
 10
107.460163031
 20
102.0706936258
 30
0.0
  0
SPLINE
  5
5A4
100
AcDbEntity
  8
0
100
AcDbSpline
 62
7
  6
CONTINUOUS
 70
0
 71
3
 72
9
 73
5
 74
0
 42
0.0000001
 43
0.0000001
 44
0.0000000001
 40
0.0
 40
0.0
 40
0.0
 40
0.0
 40
0.4666366015
 40
1.0
 40
1.0
 40
1.0
 40
1.0
 10
107.2844075212
 20
102.0544072123
 30
0.0
 10
106.9591683287
 20
102.0260291542
 30
0.0
 10
106.2604701409
 20
101.98428861
 30
0.0
 10
105.5605706249
 20
101.9756268274
 30
0.0
 10
105.1874403499
 20
101.9802746682
 30
0.0
  0
SPLINE
  5
5A5
100
AcDbEntity
  8
0
100
AcDbSpline
 62
7
  6
CONTINUOUS
 70
0
 71
3
 72
21
 73
17
 74
0
 42
0.0000001
 43
0.0000001
 44
0.0000000001
 40
0.0
 40
0.0
 40
0.0
 40
0.0
 40
0.1888468132
 40
0.3734785347
 40
0.545832215
 40
0.6984617933
 40
0.7652973823
 40
0.824841252
 40
0.8764528791
 40
0.9195745227
 40
0.9537415961
 40
0.9785912171
 40
0.9874464629
 40
0.993906644
 40
0.9980084639
 40
1.0
 40
1.0
 40
1.0
 40
1.0
 10
105.1874403499
 20
101.6780386944
 30
0.0
 10
105.3791127224
 20
101.6756269221
 30
0.0
 10
105.7582588819
 20
101.6757553662
 30
0.0
 10
106.3121742435
 20
101.6900993782
 30
0.0
 10
106.8288320174
 20
101.7165307599
 30
0.0
 10
107.2254490265
 20
101.7466626352
 30
0.0
 10
107.507366586
 20
101.7737054562
 30
0.0
 10
107.6869731672
 20
101.7933523664
 30
0.0
 10
107.8423751413
 20
101.8126308315
 30
0.0
 10
107.971967459
 20
101.8309284055
 30
0.0
 10
108.0742182305
 20
101.8476220159
 30
0.0
 10
108.1420071169
 20
101.8609313433
 30
0.0
 10
108.1813772439
 20
101.8706825221
 30
0.0
 10
108.2005330219
 20
101.8768199275
 30
0.0
 10
108.2116503536
 20
101.8813301332
 30
0.0
 10
108.2174470508
 20
101.8859370228
 30
0.0
 10
108.2174397791
 20
101.8879585035
 30
0.0
  0
SPLINE
  5
5A6
100
AcDbEntity
  8
0
100
AcDbSpline
 62
7
  6
CONTINUOUS
 70
0
 71
3
 72
21
 73
17
 74
0
 42
0.0000001
 43
0.0000001
 44
0.0000000001
 40
0.0
 40
0.0
 40
0.0
 40
0.0
 40
0.1888468132
 40
0.3734785347
 40
0.545832215
 40
0.6984617933
 40
0.7652973823
 40
0.824841252
 40
0.8764528791
 40
0.9195745227
 40
0.9537415961
 40
0.9785912171
 40
0.9874464629
 40
0.993906644
 40
0.9980084639
 40
1.0
 40
1.0
 40
1.0
 40
1.0
 10
100.5074403499
 20
101.6780386944
 30
0.0
 10
100.6991127224
 20
101.6756269221
 30
0.0
 10
101.0782588819
 20
101.6757553662
 30
0.0
 10
101.6321742435
 20
101.6900993782
 30
0.0
 10
102.1488320174
 20
101.7165307599
 30
0.0
 10
102.5454490265
 20
101.7466626352
 30
0.0
 10
102.827366586
 20
101.7737054562
 30
0.0
 10
103.0069731672
 20
101.7933523664
 30
0.0
 10
103.1623751413
 20
101.8126308315
 30
0.0
 10
103.291967459
 20
101.8309284055
 30
0.0
 10
103.3942182305
 20
101.8476220159
 30
0.0
 10
103.4620071169
 20
101.8609313433
 30
0.0
 10
103.5013772439
 20
101.8706825221
 30
0.0
 10
103.5205330219
 20
101.8768199275
 30
0.0
 10
103.5316503536
 20
101.8813301332
 30
0.0
 10
103.5374470508
 20
101.8859370228
 30
0.0
 10
103.5374397791
 20
101.8879585035
 30
0.0
  0
LINE
  5
5A7
100
AcDbEntity
  8
0
100
AcDbLine
 62
7
  6
CONTINUOUS
 10
157.0345131666
 20
102.2014130769
 11
157.0524401711
 21
102.2007935561
  0
LINE
  5
5A8
100
AcDbEntity
  8
0
100
AcDbLine
 62
7
  6
CONTINUOUS
 10
103.8403675333
 20
83.6030060794
 11
103.8224405288
 21
83.6036256002
  0
LINE
  5
5A9
100
AcDbEntity
  8
0
100
AcDbLine
 62
7
  6
CONTINUOUS
 10
106.0545134216
 20
83.6030060794
 11
106.0724405288
 21
83.6036256002
  0
LINE
  5
5AA
100
AcDbEntity
  8
0
100
AcDbLine
 62
7
  6
CONTINUOUS
 10
154.8203672783
 20
102.2014130769
 11
154.8024401711
 21
102.2007935561
  0
LINE
  5
5AB
100
AcDbEntity
  8
0
100
AcDbLine
 62
7
  6
CONTINUOUS
 10
110.5545129878
 20
83.6030060794
 11
110.5724399923
 21
83.6036256002
  0
ELLIPSE
  5
5AC
100
AcDbEntity
  8
0
100
AcDbEllipse
 62
7
  6
CONTINUOUS
 10
184.4307436649
 20
204.5610080389
 30
0.0
 11
-9.8925998442
 21
18.6630001551
 31
0.0
 40
0.3601321255
 41
-1.0530518206
 42
-0.958904057
  0
ELLIPSE
  5
5AD
100
AcDbEntity
  8
0
100
AcDbEllipse
 62
7
  6
CONTINUOUS
 10
183.4700488005
 20
204.5610080389
 30
0.0
 11
16.2095745844
 21
17.7817721813
 31
0.0
 40
0.4129609291
 41
1.0664085141
 42
1.1437583906
  0
ELLIPSE
  5
5AE
100
AcDbEntity
  8
0
100
AcDbEllipse
 62
7
  6
CONTINUOUS
 10
182.4895257788
 20
204.5610080389
 30
0.0
 11
4.6114928101
 21
18.9732547403
 31
0.0
 40
0.2185348906
 41
0.8771071363
 42
0.8871951907
  0
ELLIPSE
  5
5AF
100
AcDbEntity
  8
0
100
AcDbEllipse
 62
7
  6
CONTINUOUS
 10
183.0936864247
 20
204.5610080389
 30
0.0
 11
17.1120516547
 21
17.6292689393
 31
0.0
 40
0.4140837331
 41
1.2163031189
 42
1.2230311859
  0
ELLIPSE
  5
5B0
100
AcDbEntity
  8
0
100
AcDbEllipse
 62
7
  6
CONTINUOUS
 10
185.1561909823
 20
204.5610080389
 30
0.0
 11
55.7196648979
 21
14.1872826157
 31
0.0
 40
0.226815396
 41
1.5685684626
 42
1.5719334184
  0
ELLIPSE
  5
5B1
100
AcDbEntity
  8
0
100
AcDbEllipse
 62
7
  6
CONTINUOUS
 10
182.0520224117
 20
204.5610080389
 30
0.0
 11
4.6114928101
 21
18.9732547403
 31
0.0
 40
0.2185348906
 41
0.8065433903
 42
0.8166254612
  0
ELLIPSE
  5
5B2
100
AcDbEntity
  8
0
100
AcDbEllipse
 62
7
  6
CONTINUOUS
 10
181.7811916612
 20
204.5610080389
 30
0.0
 11
17.112058924
 21
17.6292676997
 31
0.0
 40
0.4140837374
 41
1.1457335643
 42
1.1524536483
  0
ELLIPSE
  5
5B3
100
AcDbEntity
  8
0
100
AcDbEllipse
 62
7
  6
CONTINUOUS
 10
181.2186905884
 20
204.5610080389
 30
0.0
 11
55.7196648979
 21
14.1872826157
 31
0.0
 40
0.226815396
 41
1.4979907501
 42
1.5013505172
  0
ELLIPSE
  5
5B4
100
AcDbEntity
  8
0
100
AcDbEllipse
 62
7
  6
CONTINUOUS
 10
182.8853593002
 20
204.5610080389
 30
0.0
 11
-4.6114928101
 21
18.9732547403
 31
0.0
 40
0.2185348906
 41
-0.7964580631
 42
-0.7863684683
  0
ELLIPSE
  5
5B5
100
AcDbEntity
  8
0
100
AcDbEllipse
 62
7
  6
CONTINUOUS
 10
183.2890027428
 20
204.5610080389
 30
0.0
 11
-11.9813266997
 21
18.4219691238
 31
0.0
 40
0.3881806888
 41
-0.9806011239
 42
-0.9671398896
  0
ELLIPSE
  5
5B6
100
AcDbEntity
  8
0
100
AcDbEllipse
 62
7
  6
CONTINUOUS
 10
183.9999387953
 20
204.5610080389
 30
0.0
 11
23.937761723
 21
-16.4875270155
 31
0.0
 40
0.3944618695
 41
1.9016410817
 42
1.9117446863
  0
ELLIPSE
  5
5B7
100
AcDbEntity
  8
0
100
AcDbEllipse
 62
7
  6
CONTINUOUS
 10
189.1561965898
 20
204.5610080389
 30
0.0
 11
93.0007008781
 21
-13.7121823233
 31
0.0
 40
0.1414186782
 41
1.6673043885
 42
1.6706739258
  0
ELLIPSE
  5
5B8
100
AcDbEntity
  8
0
100
AcDbEllipse
 62
7
  6
CONTINUOUS
 10
182.46868944
 20
204.5610080389
 30
0.0
 11
-4.6114904531
 21
18.9732547899
 31
0.0
 40
0.2185348
 41
-0.8636622883
 42
-0.8535818066
  0
ELLIPSE
  5
5B9
100
AcDbEntity
  8
0
100
AcDbEllipse
 62
7
  6
CONTINUOUS
 10
182.3515026115
 20
204.5610080389
 30
0.0
 11
-11.9813266997
 21
18.4219691238
 31
0.0
 40
0.3881806888
 41
5.2353707958
 42
5.2488092192
  0
ELLIPSE
  5
5BA
100
AcDbEntity
  8
0
100
AcDbEllipse
 62
7
  6
CONTINUOUS
 10
182.3124403499
 20
204.5610080389
 30
0.0
 11
36.9059982571
 21
-15.0347316334
 31
0.0
 40
0.3147751946
 41
7.9798387134
 42
7.9831981771
  0
ELLIPSE
  5
5BB
100
AcDbEntity
  8
0
100
AcDbEllipse
 62
7
  6
CONTINUOUS
 10
179.177023425
 20
204.5610080389
 30
0.0
 11
4.6114639241
 21
18.9732553477
 31
0.0
 40
0.2185337797
 41
0.8065427876
 42
0.8166248585
  0
ELLIPSE
  5
5BC
100
AcDbEntity
  8
0
100
AcDbEllipse
 62
7
  6
CONTINUOUS
 10
178.9061907374
 20
204.5610080389
 30
0.0
 11
17.1121183157
 21
17.6292575723
 31
0.0
 40
0.4140837726
 41
1.1457349935
 42
1.1524550776
  0
ELLIPSE
  5
5BD
100
AcDbEntity
  8
0
100
AcDbEllipse
 62
7
  6
CONTINUOUS
 10
178.3436904692
 20
204.5610080389
 30
0.0
 11
55.7196648979
 21
14.1872826157
 31
0.0
 40
0.226815396
 41
1.4979907501
 42
1.5013505172
  0
ELLIPSE
  5
5BE
100
AcDbEntity
  8
0
100
AcDbEllipse
 62
7
  6
CONTINUOUS
 10
179.2377119714
 20
204.5610080389
 30
0.0
 11
-5.5088355398
 21
18.9495601084
 31
0.0
 40
0.2511485286
 41
5.3458753488
 42
5.4232252253
  0
ELLIPSE
  5
5BF
100
AcDbEntity
  8
0
100
AcDbEllipse
 62
7
  6
CONTINUOUS
 10
180.0103576909
 20
204.5610080389
 30
0.0
 11
-4.6114639241
 21
18.9732553477
 31
0.0
 40
0.2185337797
 41
-0.7964574604
 42
-0.7863678656
  0
ELLIPSE
  5
5C0
100
AcDbEntity
  8
0
100
AcDbEllipse
 62
7
  6
CONTINUOUS
 10
180.4140029813
 20
204.5610080389
 30
0.0
 11
-11.9813266997
 21
18.4219691238
 31
0.0
 40
0.3881806888
 41
-0.9806011239
 42
-0.9671398896
  0
ELLIPSE
  5
5C1
100
AcDbEntity
  8
0
100
AcDbEllipse
 62
7
  6
CONTINUOUS
 10
181.1249413583
 20
204.5610080389
 30
0.0
 11
23.9378000269
 21
-16.48752112
 31
0.0
 40
0.3944616684
 41
1.9016404573
 42
1.9117440619
  0
ELLIPSE
  5
5C2
100
AcDbEntity
  8
0
100
AcDbEllipse
 62
7
  6
CONTINUOUS
 10
186.281188424
 20
204.5610080389
 30
0.0
 11
93.0005943549
 21
-13.7121829502
 31
0.0
 40
0.1414188332
 41
1.6673044362
 42
1.6706739735
  0
ELLIPSE
  5
5C3
100
AcDbEntity
  8
0
100
AcDbEllipse
 62
7
  6
CONTINUOUS
 10
176.0609159174
 20
204.5610080389
 30
0.0
 11
4.7349510566
 21
18.9705723334
 31
0.0
 40
0.2232471849
 41
0.7620322692
 42
0.8998863905
  0
ELLIPSE
  5
5C4
100
AcDbEntity
  8
0
100
AcDbEllipse
 62
7
  6
CONTINUOUS
 10
175.3139647229
 20
204.5610080389
 30
0.0
 11
-4.7349510566
 21
18.9705723334
 31
0.0
 40
0.2232471849
 41
-0.8998863905
 42
-0.7620322692
  0
ELLIPSE
  5
5C5
100
AcDbEntity
  8
0
100
AcDbEllipse
 62
7
  6
CONTINUOUS
 10
178.8154164008
 20
204.5610080389
 30
0.0
 11
-5.2049882175
 21
18.4558165148
 31
0.0
 40
0.2455000786
 41
-0.935695011
 42
-0.8631505792
  0
ELLIPSE
  5
5C6
100
AcDbEntity
  8
0
100
AcDbEllipse
 62
7
  6
CONTINUOUS
 10
183.9686906162
 20
204.5610080389
 30
0.0
 11
17.1121565844
 21
17.6292510468
 31
0.0
 40
0.4140837954
 41
1.1692538856
 42
1.1927727908
  0
ELLIPSE
  5
5C7
100
AcDbEntity
  8
0
100
AcDbEllipse
 62
7
  6
CONTINUOUS
 10
183.9170601561
 20
204.5610080389
 30
0.0
 11
-10.0697974864
 21
18.6450295212
 31
0.0
 40
0.3630188717
 41
-1.0580310876
 42
-0.9806812111
  0
ELLIPSE
  5
5C8
100
AcDbEntity
  8
0
100
AcDbEllipse
 62
7
  6
CONTINUOUS
 10
189.1561959469
 20
204.5610080389
 30
0.0
 11
90.5533060786
 21
13.3513354668
 31
0.0
 40
0.1414186901
 41
1.6276573414
 42
1.6311185171
  0
ELLIPSE
  5
5C9
100
AcDbEntity
  8
0
100
AcDbEllipse
 62
7
  6
CONTINUOUS
 10
183.9834927824
 20
204.5610080389
 30
0.0
 11
16.0196471841
 21
17.8134382667
 31
0.0
 40
0.4125678793
 41
1.06164782
 42
1.1255592731
  0
ELLIPSE
  5
5CA
100
AcDbEntity
  8
0
100
AcDbEllipse
 62
7
  6
CONTINUOUS
 10
183.9999386238
 20
204.5610080389
 30
0.0
 11
23.3078183426
 21
16.0536450769
 31
0.0
 40
0.3944618819
 41
1.3728389086
 42
1.383217009
  0
ELLIPSE
  5
5CB
100
AcDbEntity
  8
0
100
AcDbEllipse
 62
7
  6
CONTINUOUS
 10
183.2890026464
 20
204.5610080389
 30
0.0
 11
11.6660273527
 21
17.9371806283
 31
0.0
 40
0.388180675
 41
1.0862008559
 42
1.100027228
  0
ELLIPSE
  5
5CC
100
AcDbEntity
  8
0
100
AcDbEllipse
 62
7
  6
CONTINUOUS
 10
182.8853592102
 20
204.5610080389
 30
0.0
 11
4.4901365887
 21
18.4739585871
 31
0.0
 40
0.2185348453
 41
0.8816052915
 42
0.8919682123
  0
ELLIPSE
  5
5CD
100
AcDbEntity
  8
0
100
AcDbEllipse
 62
7
  6
CONTINUOUS
 10
179.3124402605
 20
204.5610080389
 30
0.0
 11
35.9349468208
 21
14.639068949
 31
0.0
 40
0.3147742283
 41
1.4380851527
 42
1.4406116549
  0
ELLIPSE
  5
5CE
100
AcDbEntity
  8
0
100
AcDbEllipse
 62
7
  6
CONTINUOUS
 10
179.4296278499
 20
204.5610080389
 30
0.0
 11
11.6660286287
 21
17.9371804627
 31
0.0
 40
0.3881806888
 41
1.013718796
 42
1.0275209455
  0
ELLIPSE
  5
5CF
100
AcDbEntity
  8
0
100
AcDbEllipse
 62
7
  6
CONTINUOUS
 10
185.1561911136
 20
204.5610080389
 30
0.0
 11
54.2533579269
 21
-13.8139330731
 31
0.0
 40
0.226815396
 41
1.6854438164
 42
1.6889000269
  0
ELLIPSE
  5
5D0
100
AcDbEntity
  8
0
100
AcDbEllipse
 62
7
  6
CONTINUOUS
 10
183.0936868295
 20
204.5610080389
 30
0.0
 11
16.6617415839
 21
-17.1653396024
 31
0.0
 40
0.4140837374
 41
8.3072558058
 42
8.3141662254
  0
ELLIPSE
  5
5D1
100
AcDbEntity
  8
0
100
AcDbEllipse
 62
7
  6
CONTINUOUS
 10
181.4061905884
 20
204.5610080389
 30
0.0
 11
55.7196648979
 21
-14.1872826157
 31
0.0
 40
0.226815396
 41
1.6167253599
 42
1.6200849942
  0
ELLIPSE
  5
5D2
100
AcDbEntity
  8
0
100
AcDbEllipse
 62
7
  6
CONTINUOUS
 10
181.8436914228
 20
204.5610080389
 30
0.0
 11
17.112058924
 21
-17.6292676997
 31
0.0
 40
0.4140837374
 41
1.955542757
 42
1.9622624617
  0
ELLIPSE
  5
5D3
100
AcDbEntity
  8
0
100
AcDbEllipse
 62
7
  6
CONTINUOUS
 10
182.0728559575
 20
204.5610080389
 30
0.0
 11
-4.6114904531
 21
18.9732547899
 31
0.0
 40
0.2185348
 41
-0.8670229659
 42
-0.8569417443
  0
ELLIPSE
  5
5D4
100
AcDbEntity
  8
0
100
AcDbEllipse
 62
7
  6
CONTINUOUS
 10
185.1561911136
 20
204.5610080389
 30
0.0
 11
55.7196648979
 21
-14.1872826157
 31
0.0
 40
0.226815396
 41
1.6839433077
 42
1.6873082635
  0
ELLIPSE
  5
5D5
100
AcDbEntity
  8
0
100
AcDbEllipse
 62
7
  6
CONTINUOUS
 10
183.0936868295
 20
204.5610080389
 30
0.0
 11
17.112058924
 21
-17.6292676997
 31
0.0
 40
0.4140837374
 41
2.0227523449
 42
2.0294804095
  0
ELLIPSE
  5
5D6
100
AcDbEntity
  8
0
100
AcDbEllipse
 62
7
  6
CONTINUOUS
 10
182.4895255258
 20
204.5610080389
 30
0.0
 11
-4.6114880961
 21
18.9732548394
 31
0.0
 40
0.2185347093
 41
-0.7998201711
 42
-0.7897321072
  0
ELLIPSE
  5
5D7
100
AcDbEntity
  8
0
100
AcDbEllipse
 62
7
  6
CONTINUOUS
 10
182.4686909944
 20
204.5610080389
 30
0.0
 11
54.2533579269
 21
-13.8139330731
 31
0.0
 40
0.226815396
 41
1.6889000269
 42
1.6923569601
  0
ELLIPSE
  5
5D8
100
AcDbEntity
  8
0
100
AcDbEllipse
 62
7
  6
CONTINUOUS
 10
180.2811896012
 20
204.5610080389
 30
0.0
 11
16.6617994126
 21
-17.1653297415
 31
0.0
 40
0.4140837726
 41
8.3107092667
 42
8.3176210066
  0
ELLIPSE
  5
5D9
100
AcDbEntity
  8
0
100
AcDbEllipse
 62
7
  6
CONTINUOUS
 10
179.6353576909
 20
204.5610080389
 30
0.0
 11
-4.4901096103
 21
18.4739591544
 31
0.0
 40
0.2185337797
 41
-0.7864354232
 42
-0.784958559
  0
ELLIPSE
  5
5DA
100
AcDbEntity
  8
0
100
AcDbEllipse
 62
7
  6
CONTINUOUS
 10
179.5728567981
 20
204.5610080389
 30
0.0
 11
4.4901096103
 21
18.4739591544
 31
0.0
 40
0.2185337797
 41
0.8091316961
 42
0.8194855377
  0
ELLIPSE
  5
5DB
100
AcDbEntity
  8
0
100
AcDbEllipse
 62
7
  6
CONTINUOUS
 10
176.4374403201
 20
204.5610080389
 30
0.0
 11
4.5949558095
 21
18.4716906195
 31
0.0
 40
0.2226478464
 41
0.7595565828
 42
0.9218969521
  0
ELLIPSE
  5
5DC
100
AcDbEntity
  8
0
100
AcDbEllipse
 62
7
  6
CONTINUOUS
 10
182.3046276115
 20
204.5610080389
 30
0.0
 11
11.9813266997
 21
18.4219691238
 31
0.0
 40
0.3881806888
 41
1.0142182631
 42
1.0276571416
  0
ELLIPSE
  5
5DD
100
AcDbEntity
  8
0
100
AcDbEllipse
 62
7
  6
CONTINUOUS
 10
182.447855904
 20
204.5610080389
 30
0.0
 11
4.6114928101
 21
18.9732547403
 31
0.0
 40
0.2185348906
 41
0.8099043906
 42
0.8199856075
  0
ELLIPSE
  5
5DE
100
AcDbEntity
  8
0
100
AcDbEllipse
 62
7
  6
CONTINUOUS
 10
174.9374403648
 20
204.5610080389
 30
0.0
 11
-4.5949562607
 21
18.4716906095
 31
0.0
 40
0.222647864
 41
-0.9218969619
 42
-0.7595565926
  0
ELLIPSE
  5
5DF
100
AcDbEntity
  8
0
100
AcDbEllipse
 62
7
  6
CONTINUOUS
 10
181.4061905884
 20
204.5610080389
 30
0.0
 11
54.2533579269
 21
-13.8139330731
 31
0.0
 40
0.226815396
 41
1.6164075504
 42
1.6198579953
  0
ELLIPSE
  5
5E0
100
AcDbEntity
  8
0
100
AcDbEllipse
 62
7
  6
CONTINUOUS
 10
181.8436914228
 20
204.5610080389
 30
0.0
 11
16.6617415839
 21
-17.1653396024
 31
0.0
 40
0.4140837374
 41
8.2382285971
 42
8.2451299594
  0
ELLIPSE
  5
5E1
100
AcDbEntity
  8
0
100
AcDbEllipse
 62
7
  6
CONTINUOUS
 10
182.0728559575
 20
204.5610080389
 30
0.0
 11
-4.4901354412
 21
18.4739586112
 31
0.0
 40
0.2185348
 41
-0.8600297093
 42
-0.8574412114
  0
ELLIPSE
  5
5E2
100
AcDbEntity
  8
0
100
AcDbEllipse
 62
7
  6
CONTINUOUS
 10
189.1561959469
 20
204.5610080389
 30
0.0
 11
93.0006927294
 21
13.7121823713
 31
0.0
 40
0.1414186901
 41
1.6256084032
 42
1.6289779408
  0
ELLIPSE
  5
5E3
100
AcDbEntity
  8
0
100
AcDbEllipse
 62
7
  6
CONTINUOUS
 10
183.9999386238
 20
204.5610080389
 30
0.0
 11
23.9377593789
 21
16.4875273763
 31
0.0
 40
0.3944618819
 41
1.3710644654
 42
1.3811680708
  0
ELLIPSE
  5
5E4
100
AcDbEntity
  8
0
100
AcDbEllipse
 62
7
  6
CONTINUOUS
 10
183.2890026464
 20
204.5610080389
 30
0.0
 11
11.9813253893
 21
18.4219692939
 31
0.0
 40
0.388180675
 41
1.0847915494
 42
1.0982527848
  0
ELLIPSE
  5
5E5
100
AcDbEntity
  8
0
100
AcDbEllipse
 62
7
  6
CONTINUOUS
 10
182.8853592102
 20
204.5610080389
 30
0.0
 11
4.6114916316
 21
18.9732547651
 31
0.0
 40
0.2185348453
 41
0.8804693086
 42
0.8905589058
  0
ELLIPSE
  5
5E6
100
AcDbEntity
  8
0
100
AcDbEllipse
 62
7
  6
CONTINUOUS
 10
183.9686906162
 20
204.5610080389
 30
0.0
 11
16.6618366743
 21
17.1653233876
 31
0.0
 40
0.4140837954
 41
1.1692992838
 42
1.1934539851
  0
ELLIPSE
  5
5E7
100
AcDbEntity
  8
0
100
AcDbEllipse
 62
7
  6
CONTINUOUS
 10
183.9170601561
 20
204.5610080389
 30
0.0
 11
-9.8048028157
 21
18.1543708496
 31
0.0
 40
0.3630188717
 41
-1.060171664
 42
-0.9807266093
  0
ELLIPSE
  5
5E8
100
AcDbEntity
  8
0
100
AcDbEllipse
 62
7
  6
CONTINUOUS
 10
182.1874408268
 20
204.5610080389
 30
0.0
 11
36.9059982571
 21
15.0347316334
 31
0.0
 40
0.3147751946
 41
1.4382203011
 42
1.4415797837
  0
ELLIPSE
  5
5E9
100
AcDbEntity
  8
0
100
AcDbEllipse
 62
7
  6
CONTINUOUS
 10
183.9834927824
 20
204.5610080389
 30
0.0
 11
15.5980775214
 21
17.3446635754
 31
0.0
 40
0.4125678793
 41
1.0595072436
 42
1.11406754
  0
ELLIPSE
  5
5EA
100
AcDbEntity
  8
0
100
AcDbEllipse
 62
7
  6
CONTINUOUS
 10
182.4686909944
 20
204.5610080389
 30
0.0
 11
55.7196648979
 21
-14.1872826157
 31
0.0
 40
0.226815396
 41
1.6873082635
 42
1.6906738863
  0
ELLIPSE
  5
5EB
100
AcDbEntity
  8
0
100
AcDbEllipse
 62
7
  6
CONTINUOUS
 10
180.2811896012
 20
204.5610080389
 30
0.0
 11
17.1121183157
 21
-17.6292575723
 31
0.0
 40
0.4140837726
 41
2.0261146529
 42
2.0328439361
  0
ELLIPSE
  5
5EC
100
AcDbEntity
  8
0
100
AcDbEllipse
 62
7
  6
CONTINUOUS
 10
179.6353576909
 20
204.5610080389
 30
0.0
 11
-4.6114639241
 21
18.9732553477
 31
0.0
 40
0.2185337797
 41
-0.7964574604
 42
-0.7863678656
  0
ELLIPSE
  5
5ED
100
AcDbEntity
  8
0
100
AcDbEllipse
 62
7
  6
CONTINUOUS
 10
182.3046276115
 20
204.5610080389
 30
0.0
 11
11.6660286287
 21
17.9371804627
 31
0.0
 40
0.3881806888
 41
1.013718796
 42
1.0171692615
  0
ELLIPSE
  5
5EE
100
AcDbEntity
  8
0
100
AcDbEllipse
 62
7
  6
CONTINUOUS
 10
178.8154164008
 20
204.5610080389
 30
0.0
 11
-5.3456635747
 21
18.9546223665
 31
0.0
 40
0.2455000786
 41
-0.9335544347
 42
-0.8629235803
  0
ELLIPSE
  5
5EF
100
AcDbEntity
  8
0
100
AcDbEllipse
 62
7
  6
CONTINUOUS
 10
179.3124402605
 20
204.5610080389
 30
0.0
 11
36.9061615998
 21
15.0347194612
 31
0.0
 40
0.3147742283
 41
1.4382213488
 42
1.4449402951
  0
ELLIPSE
  5
5F0
100
AcDbEntity
  8
0
100
AcDbEllipse
 62
7
  6
CONTINUOUS
 10
179.4296278499
 20
204.5610080389
 30
0.0
 11
11.9813266997
 21
18.4219691238
 31
0.0
 40
0.3881806888
 41
1.0142182631
 42
1.0276571416
  0
ELLIPSE
  5
5F1
100
AcDbEntity
  8
0
100
AcDbEllipse
 62
7
  6
CONTINUOUS
 10
179.5728567981
 20
204.5610080389
 30
0.0
 11
4.6114639241
 21
18.9732553477
 31
0.0
 40
0.2185337797
 41
0.8099037879
 42
0.8199850048
  0
ELLIPSE
  5
5F2
100
AcDbEntity
  8
0
100
AcDbEllipse
 62
7
  6
CONTINUOUS
 10
182.447855904
 20
204.5610080389
 30
0.0
 11
4.4901377362
 21
18.4739585629
 31
0.0
 40
0.2185348906
 41
0.8091322989
 42
0.8194861404
  0
ELLIPSE
  5
5F3
100
AcDbEntity
  8
0
100
AcDbEllipse
 62
7
  6
CONTINUOUS
 10
174.9374403648
 20
204.5610080389
 30
0.0
 11
-4.7191442677
 21
18.9709254908
 31
0.0
 40
0.222647864
 41
-0.9197563856
 42
-0.7616971689
  0
ELLIPSE
  5
5F4
100
AcDbEntity
  8
0
100
AcDbEllipse
 62
7
  6
CONTINUOUS
 10
176.4374403201
 20
204.5610080389
 30
0.0
 11
4.7191438044
 21
18.9709255011
 31
0.0
 40
0.2226478464
 41
0.7616971591
 42
0.9197563758
  0
ELLIPSE
  5
5F5
100
AcDbEntity
  8
0
100
AcDbEllipse
 62
7
  6
CONTINUOUS
 10
76.5061900837
 20
204.5610080389
 30
0.0
 11
17.1121565844
 21
17.6292510468
 31
0.0
 40
0.4140837954
 41
1.1423755168
 42
1.165894422
  0
ELLIPSE
  5
5F6
100
AcDbEntity
  8
0
100
AcDbEllipse
 62
7
  6
CONTINUOUS
 10
76.5578205438
 20
204.5610080389
 30
0.0
 11
-10.0697974864
 21
18.6450295212
 31
0.0
 40
0.3630188717
 41
-0.9773217475
 42
-0.899971871
  0
ELLIPSE
  5
5F7
100
AcDbEntity
  8
0
100
AcDbEllipse
 62
7
  6
CONTINUOUS
 10
76.4913879175
 20
204.5610080389
 30
0.0
 11
16.0196471841
 21
17.8134382667
 31
0.0
 40
0.4125678793
 41
1.1557955836
 42
1.2197070367
  0
ELLIPSE
  5
5F8
100
AcDbEntity
  8
0
100
AcDbEllipse
 62
7
  6
CONTINUOUS
 10
79.0686901115
 20
204.5610080389
 30
0.0
 11
55.7196648979
 21
-14.1872826157
 31
0.0
 40
0.226815396
 41
1.6368825021
 42
1.6402421364
  0
ELLIPSE
  5
5F9
100
AcDbEntity
  8
0
100
AcDbEllipse
 62
7
  6
CONTINUOUS
 10
78.6311892771
 20
204.5610080389
 30
0.0
 11
17.112058924
 21
-17.6292676997
 31
0.0
 40
0.4140837374
 41
1.9857792382
 42
1.9924989429
  0
ELLIPSE
  5
5FA
100
AcDbEntity
  8
0
100
AcDbEllipse
 62
7
  6
CONTINUOUS
 10
78.4020247424
 20
204.5610080389
 30
0.0
 11
-4.6114904531
 21
18.9732547899
 31
0.0
 40
0.2185348
 41
-0.8199855583
 42
-0.8099043367
  0
ELLIPSE
  5
5FB
100
AcDbEntity
  8
0
100
AcDbEllipse
 62
7
  6
CONTINUOUS
 10
75.3186895863
 20
204.5610080389
 30
0.0
 11
55.7196648979
 21
-14.1872826157
 31
0.0
 40
0.226815396
 41
1.5696592328
 42
1.5730241887
  0
ELLIPSE
  5
5FC
100
AcDbEntity
  8
0
100
AcDbEllipse
 62
7
  6
CONTINUOUS
 10
77.3811938703
 20
204.5610080389
 30
0.0
 11
17.112058924
 21
-17.6292676997
 31
0.0
 40
0.4140837374
 41
1.9185612904
 42
1.925289355
  0
ELLIPSE
  5
5FD
100
AcDbEntity
  8
0
100
AcDbEllipse
 62
7
  6
CONTINUOUS
 10
77.985355174
 20
204.5610080389
 30
0.0
 11
-4.6114880961
 21
18.9732548394
 31
0.0
 40
0.2185347093
 41
-0.8871950971
 42
-0.8771070332
  0
ELLIPSE
  5
5FE
100
AcDbEntity
  8
0
100
AcDbEllipse
 62
7
  6
CONTINUOUS
 10
78.1702530884
 20
204.5610080389
 30
0.0
 11
11.9813266997
 21
18.4219691238
 31
0.0
 40
0.3881806888
 41
7.3209208777
 42
7.3343597563
  0
ELLIPSE
  5
5FF
100
AcDbEntity
  8
0
100
AcDbEllipse
 62
7
  6
CONTINUOUS
 10
78.0270247959
 20
204.5610080389
 30
0.0
 11
4.6114928101
 21
18.9732547403
 31
0.0
 40
0.2185348906
 41
0.8569417935
 42
0.8670230104
  0
ELLIPSE
  5
600
100
AcDbEntity
  8
0
100
AcDbEllipse
 62
7
  6
CONTINUOUS
 10
71.318684753
 20
204.5610080389
 30
0.0
 11
93.0006927294
 21
13.7121823713
 31
0.0
 40
0.1414186901
 41
1.4709187241
 42
1.4742882617
  0
ELLIPSE
  5
601
100
AcDbEntity
  8
0
100
AcDbEllipse
 62
7
  6
CONTINUOUS
 10
76.4749420761
 20
204.5610080389
 30
0.0
 11
23.9377593789
 21
16.4875273763
 31
0.0
 40
0.3944618819
 41
1.2298479294
 42
1.2399515349
  0
ELLIPSE
  5
602
100
AcDbEntity
  8
0
100
AcDbEllipse
 62
7
  6
CONTINUOUS
 10
77.1858780535
 20
204.5610080389
 30
0.0
 11
11.9813253893
 21
18.4219692939
 31
0.0
 40
0.388180675
 41
0.9671398543
 42
0.9806010897
  0
ELLIPSE
  5
603
100
AcDbEntity
  8
0
100
AcDbEllipse
 62
7
  6
CONTINUOUS
 10
77.5895214897
 20
204.5610080389
 30
0.0
 11
4.6114916316
 21
18.9732547651
 31
0.0
 40
0.2185348453
 41
0.7863684461
 42
0.7964580433
  0
ELLIPSE
  5
604
100
AcDbEntity
  8
0
100
AcDbEllipse
 62
7
  6
CONTINUOUS
 10
78.2874398731
 20
204.5610080389
 30
0.0
 11
36.9059982571
 21
15.0347316334
 31
0.0
 40
0.3147751946
 41
7.7281245545
 42
7.7314840371
  0
ELLIPSE
  5
605
100
AcDbEntity
  8
0
100
AcDbEllipse
 62
7
  6
CONTINUOUS
 10
78.0061897055
 20
204.5610080389
 30
0.0
 11
55.7196648979
 21
-14.1872826157
 31
0.0
 40
0.226815396
 41
1.56629361
 42
1.5696592328
  0
ELLIPSE
  5
606
100
AcDbEntity
  8
0
100
AcDbEllipse
 62
7
  6
CONTINUOUS
 10
80.1936910987
 20
204.5610080389
 30
0.0
 11
17.1121183157
 21
-17.6292575723
 31
0.0
 40
0.4140837726
 41
1.9151949054
 42
1.9219241885
  0
ELLIPSE
  5
607
100
AcDbEntity
  8
0
100
AcDbEllipse
 62
7
  6
CONTINUOUS
 10
80.839523009
 20
204.5610080389
 30
0.0
 11
-4.6114639241
 21
18.9732553477
 31
0.0
 40
0.2185337797
 41
-0.89055833
 42
-0.8804687351
  0
ELLIPSE
  5
608
100
AcDbEntity
  8
0
100
AcDbEllipse
 62
7
  6
CONTINUOUS
 10
81.6594642991
 20
204.5610080389
 30
0.0
 11
-5.3456635747
 21
18.9546223665
 31
0.0
 40
0.2455000786
 41
-0.8461260724
 42
-0.775495218
  0
ELLIPSE
  5
609
100
AcDbEntity
  8
0
100
AcDbEllipse
 62
7
  6
CONTINUOUS
 10
81.1624404394
 20
204.5610080389
 30
0.0
 11
36.9061615998
 21
15.0347194612
 31
0.0
 40
0.3147742283
 41
1.4415808315
 42
1.4482997778
  0
ELLIPSE
  5
60A
100
AcDbEntity
  8
0
100
AcDbEllipse
 62
7
  6
CONTINUOUS
 10
81.0452528499
 20
204.5610080389
 30
0.0
 11
11.9813266997
 21
18.4219691238
 31
0.0
 40
0.3881806888
 41
1.0377355706
 42
1.0511744491
  0
ELLIPSE
  5
60B
100
AcDbEntity
  8
0
100
AcDbEllipse
 62
7
  6
CONTINUOUS
 10
80.9020239018
 20
204.5610080389
 30
0.0
 11
4.6114639241
 21
18.9732553477
 31
0.0
 40
0.2185337797
 41
0.8569411908
 42
0.8670224077
  0
ELLIPSE
  5
60C
100
AcDbEntity
  8
0
100
AcDbEllipse
 62
7
  6
CONTINUOUS
 10
85.537440335
 20
204.5610080389
 30
0.0
 11
-4.7191442677
 21
18.9709254908
 31
0.0
 40
0.222647864
 41
-0.9197563856
 42
-0.7616971689
  0
ELLIPSE
  5
60D
100
AcDbEntity
  8
0
100
AcDbEllipse
 62
7
  6
CONTINUOUS
 10
84.0374403797
 20
204.5610080389
 30
0.0
 11
4.7191438044
 21
18.9709255011
 31
0.0
 40
0.2226478464
 41
0.7616971591
 42
0.9197563758
  0
ELLIPSE
  5
60E
100
AcDbEntity
  8
0
100
AcDbEllipse
 62
7
  6
CONTINUOUS
 10
84.4139647825
 20
204.5610080389
 30
0.0
 11
4.6103470815
 21
18.4713467456
 31
0.0
 40
0.2232471849
 41
0.7806456012
 42
0.9222320622
  0
ELLIPSE
  5
60F
100
AcDbEntity
  8
0
100
AcDbEllipse
 62
7
  6
CONTINUOUS
 10
78.0061912598
 20
204.5610080389
 30
0.0
 11
-4.4901354412
 21
18.4739586112
 31
0.0
 40
0.2185348
 41
-0.8229368649
 42
-0.81258382
  0
ELLIPSE
  5
610
100
AcDbEntity
  8
0
100
AcDbEllipse
 62
7
  6
CONTINUOUS
 10
78.1233780884
 20
204.5610080389
 30
0.0
 11
-11.6660286287
 21
17.9371804627
 31
0.0
 40
0.3881806888
 41
-1.0209295056
 42
-1.0171695696
  0
ELLIPSE
  5
611
100
AcDbEntity
  8
0
100
AcDbEllipse
 62
7
  6
CONTINUOUS
 10
76.044137035
 20
204.5610080389
 30
0.0
 11
-9.8925998442
 21
18.6630001551
 31
0.0
 40
0.3601321255
 41
-0.9891403675
 42
-0.8949926039
  0
ELLIPSE
  5
612
100
AcDbEntity
  8
0
100
AcDbEllipse
 62
7
  6
CONTINUOUS
 10
77.0048318994
 20
204.5610080389
 30
0.0
 11
16.2095745844
 21
17.7817721813
 31
0.0
 40
0.4129609291
 41
1.1471178543
 42
1.2244677308
  0
ELLIPSE
  5
613
100
AcDbEntity
  8
0
100
AcDbEllipse
 62
7
  6
CONTINUOUS
 10
85.160915977
 20
204.5610080389
 30
0.0
 11
-4.6103470815
 21
18.4713467456
 31
0.0
 40
0.2232471849
 41
-0.9222320622
 42
-0.7806456012
  0
ELLIPSE
  5
614
100
AcDbEntity
  8
0
100
AcDbEllipse
 62
7
  6
CONTINUOUS
 10
81.2371687285
 20
204.5610080389
 30
0.0
 11
-5.3638661835
 21
18.450887474
 31
0.0
 40
0.2511485286
 41
-0.8336764697
 42
-0.7771101654
  0
ELLIPSE
  5
615
100
AcDbEntity
  8
0
100
AcDbEllipse
 62
7
  6
CONTINUOUS
 10
77.9853549211
 20
204.5610080389
 30
0.0
 11
4.6114928101
 21
18.9732547403
 31
0.0
 40
0.2185348906
 41
0.7897322103
 42
0.7998202647
  0
ELLIPSE
  5
616
100
AcDbEntity
  8
0
100
AcDbEllipse
 62
7
  6
CONTINUOUS
 10
77.3811942752
 20
204.5610080389
 30
0.0
 11
17.1120516547
 21
17.6292689393
 31
0.0
 40
0.4140837331
 41
1.1121120715
 42
1.1188401384
  0
ELLIPSE
  5
617
100
AcDbEntity
  8
0
100
AcDbEllipse
 62
7
  6
CONTINUOUS
 10
75.3186897176
 20
204.5610080389
 30
0.0
 11
55.7196648979
 21
14.1872826157
 31
0.0
 40
0.226815396
 41
1.4542843924
 42
1.4576493482
  0
ELLIPSE
  5
618
100
AcDbEntity
  8
0
100
AcDbEllipse
 62
7
  6
CONTINUOUS
 10
78.6936890386
 20
204.5610080389
 30
0.0
 11
16.6617415839
 21
17.1653396024
 31
0.0
 40
0.4140837374
 41
7.4662838973
 42
7.4731856705
  0
ELLIPSE
  5
619
100
AcDbEntity
  8
0
100
AcDbEllipse
 62
7
  6
CONTINUOUS
 10
79.2561901115
 20
204.5610080389
 30
0.0
 11
54.2533579269
 21
13.8139330731
 31
0.0
 40
0.226815396
 41
1.5251851032
 42
1.5286356919
  0
ELLIPSE
  5
61A
100
AcDbEntity
  8
0
100
AcDbEllipse
 62
7
  6
CONTINUOUS
 10
77.9853549211
 20
204.5610080389
 30
0.0
 11
4.4901377362
 21
18.4739585629
 31
0.0
 40
0.2185348906
 41
0.7884140567
 42
0.7899420584
  0
ELLIPSE
  5
61B
100
AcDbEntity
  8
0
100
AcDbEllipse
 62
7
  6
CONTINUOUS
 10
77.3811942752
 20
204.5610080389
 30
0.0
 11
16.6617345059
 21
17.1653408093
 31
0.0
 40
0.4140837331
 41
1.1106115629
 42
1.1175219848
  0
ELLIPSE
  5
61C
100
AcDbEntity
  8
0
100
AcDbEllipse
 62
7
  6
CONTINUOUS
 10
75.3186897176
 20
204.5610080389
 30
0.0
 11
54.2533579269
 21
13.8139330731
 31
0.0
 40
0.226815396
 41
1.4526926291
 42
1.4561488396
  0
ELLIPSE
  5
61D
100
AcDbEntity
  8
0
100
AcDbEllipse
 62
7
  6
CONTINUOUS
 10
78.4228582882
 20
204.5610080389
 30
0.0
 11
4.6114928101
 21
18.9732547403
 31
0.0
 40
0.2185348906
 41
0.8603019398
 42
0.8703840107
  0
ELLIPSE
  5
61E
100
AcDbEntity
  8
0
100
AcDbEllipse
 62
7
  6
CONTINUOUS
 10
81.2978572749
 20
204.5610080389
 30
0.0
 11
4.4901096103
 21
18.4739591544
 31
0.0
 40
0.2185337797
 41
0.8608916575
 42
0.8633831247
  0
ELLIPSE
  5
61F
100
AcDbEntity
  8
0
100
AcDbEllipse
 62
7
  6
CONTINUOUS
 10
81.5686899625
 20
204.5610080389
 30
0.0
 11
16.6617994126
 21
17.1653297415
 31
0.0
 40
0.4140837726
 41
1.1831000193
 42
1.1900017926
  0
ELLIPSE
  5
620
100
AcDbEntity
  8
0
100
AcDbEllipse
 62
7
  6
CONTINUOUS
 10
82.1311902307
 20
204.5610080389
 30
0.0
 11
54.2533579269
 21
13.8139330731
 31
0.0
 40
0.226815396
 41
1.5251851032
 42
1.5286356919
  0
ELLIPSE
  5
621
100
AcDbEntity
  8
0
100
AcDbEllipse
 62
7
  6
CONTINUOUS
 10
78.6936890386
 20
204.5610080389
 30
0.0
 11
17.112058924
 21
17.6292676997
 31
0.0
 40
0.4140837374
 41
1.1826899589
 42
1.1894100429
  0
ELLIPSE
  5
622
100
AcDbEntity
  8
0
100
AcDbEllipse
 62
7
  6
CONTINUOUS
 10
79.2561901115
 20
204.5610080389
 30
0.0
 11
55.7196648979
 21
14.1872826157
 31
0.0
 40
0.226815396
 41
1.5248672937
 42
1.5282270607
  0
ELLIPSE
  5
623
100
AcDbEntity
  8
0
100
AcDbEllipse
 62
7
  6
CONTINUOUS
 10
80.464523009
 20
204.5610080389
 30
0.0
 11
-4.4901096103
 21
18.4739591544
 31
0.0
 40
0.2185337797
 41
-0.8919676366
 42
-0.8816047182
  0
ELLIPSE
  5
624
100
AcDbEntity
  8
0
100
AcDbEllipse
 62
7
  6
CONTINUOUS
 10
76.044137035
 20
204.5610080389
 30
0.0
 11
-9.6322682694
 21
18.1718685721
 31
0.0
 40
0.3601321255
 41
-0.9736094925
 42
-0.8928520276
  0
ELLIPSE
  5
625
100
AcDbEntity
  8
0
100
AcDbEllipse
 62
7
  6
CONTINUOUS
 10
77.5895213997
 20
204.5610080389
 30
0.0
 11
-4.6114928101
 21
18.9732547403
 31
0.0
 40
0.2185348906
 41
-0.8905589327
 42
-0.8804693379
  0
ELLIPSE
  5
626
100
AcDbEntity
  8
0
100
AcDbEllipse
 62
7
  6
CONTINUOUS
 10
77.185877957
 20
204.5610080389
 30
0.0
 11
-11.9813266997
 21
18.4219691238
 31
0.0
 40
0.3881806888
 41
-1.0982528226
 42
-1.0847915883
  0
ELLIPSE
  5
627
100
AcDbEntity
  8
0
100
AcDbEllipse
 62
7
  6
CONTINUOUS
 10
76.4749419046
 20
204.5610080389
 30
0.0
 11
23.937761723
 21
-16.4875270155
 31
0.0
 40
0.3944618695
 41
1.7604245442
 42
1.7705281488
  0
ELLIPSE
  5
628
100
AcDbEntity
  8
0
100
AcDbEllipse
 62
7
  6
CONTINUOUS
 10
77.0048318994
 20
204.5610080389
 30
0.0
 11
15.7830068322
 21
17.3138308081
 31
0.0
 40
0.4129609291
 41
1.1471632525
 42
1.2266083071
  0
ELLIPSE
  5
629
100
AcDbEntity
  8
0
100
AcDbEllipse
 62
7
  6
CONTINUOUS
 10
71.3186841101
 20
204.5610080389
 30
0.0
 11
93.0007008781
 21
-13.7121823233
 31
0.0
 40
0.1414186782
 41
1.5126147092
 42
1.5159842465
  0
ELLIPSE
  5
62A
100
AcDbEntity
  8
0
100
AcDbEllipse
 62
7
  6
CONTINUOUS
 10
80.0608777186
 20
204.5610080389
 30
0.0
 11
-11.6660286287
 21
17.9371804627
 31
0.0
 40
0.3881806888
 41
-1.1000272658
 42
-1.0862008949
  0
ELLIPSE
  5
62B
100
AcDbEntity
  8
0
100
AcDbEllipse
 62
7
  6
CONTINUOUS
 10
79.3499393416
 20
204.5610080389
 30
0.0
 11
23.3078579209
 21
-16.0536389852
 31
0.0
 40
0.3944616684
 41
1.7583749817
 42
1.7687530812
  0
ELLIPSE
  5
62C
100
AcDbEntity
  8
0
100
AcDbEllipse
 62
7
  6
CONTINUOUS
 10
78.0061912598
 20
204.5610080389
 30
0.0
 11
-4.6114904531
 21
18.9732547899
 31
0.0
 40
0.2185348
 41
-0.8233454961
 42
-0.8132650143
  0
ELLIPSE
  5
62D
100
AcDbEntity
  8
0
100
AcDbEllipse
 62
7
  6
CONTINUOUS
 10
78.1233780884
 20
204.5610080389
 30
0.0
 11
-11.9813266997
 21
18.4219691238
 31
0.0
 40
0.3881806888
 41
-1.0310166243
 42
-1.0175782008
  0
ELLIPSE
  5
62E
100
AcDbEntity
  8
0
100
AcDbEllipse
 62
7
  6
CONTINUOUS
 10
78.1624403499
 20
204.5610080389
 30
0.0
 11
36.9059982571
 21
-15.0347316334
 31
0.0
 40
0.3147751946
 41
1.6966534062
 42
1.7000128699
  0
ELLIPSE
  5
62F
100
AcDbEntity
  8
0
100
AcDbEllipse
 62
7
  6
CONTINUOUS
 10
77.5895213997
 20
204.5610080389
 30
0.0
 11
-4.4901377362
 21
18.4739585629
 31
0.0
 40
0.2185348906
 41
-0.8919682393
 42
-0.8816053209
  0
ELLIPSE
  5
630
100
AcDbEntity
  8
0
100
AcDbEllipse
 62
7
  6
CONTINUOUS
 10
77.185877957
 20
204.5610080389
 30
0.0
 11
-11.6660286287
 21
17.9371804627
 31
0.0
 40
0.3881806888
 41
-1.1000272658
 42
-1.0862008949
  0
ELLIPSE
  5
631
100
AcDbEntity
  8
0
100
AcDbEllipse
 62
7
  6
CONTINUOUS
 10
76.4749419046
 20
204.5610080389
 30
0.0
 11
23.307820625
 21
-16.0536447256
 31
0.0
 40
0.3944618695
 41
1.758375606
 42
1.7687537056
  0
ELLIPSE
  5
632
100
AcDbEntity
  8
0
100
AcDbEllipse
 62
7
  6
CONTINUOUS
 10
81.2978572749
 20
204.5610080389
 30
0.0
 11
4.6114639241
 21
18.9732553477
 31
0.0
 40
0.2185337797
 41
0.8603013371
 42
0.8703834079
  0
ELLIPSE
  5
633
100
AcDbEntity
  8
0
100
AcDbEllipse
 62
7
  6
CONTINUOUS
 10
81.5686899625
 20
204.5610080389
 30
0.0
 11
17.1121183157
 21
17.6292575723
 31
0.0
 40
0.4140837726
 41
1.1826913881
 42
1.1894114722
  0
ELLIPSE
  5
634
100
AcDbEntity
  8
0
100
AcDbEllipse
 62
7
  6
CONTINUOUS
 10
82.1311902307
 20
204.5610080389
 30
0.0
 11
55.7196648979
 21
14.1872826157
 31
0.0
 40
0.226815396
 41
1.5248672937
 42
1.5282270607
  0
ELLIPSE
  5
635
100
AcDbEntity
  8
0
100
AcDbEllipse
 62
7
  6
CONTINUOUS
 10
81.2371687285
 20
204.5610080389
 30
0.0
 11
-5.5088355398
 21
18.9495601084
 31
0.0
 40
0.2511485286
 41
-0.8566006183
 42
-0.7792507418
  0
ELLIPSE
  5
636
100
AcDbEntity
  8
0
100
AcDbEllipse
 62
7
  6
CONTINUOUS
 10
71.3186841101
 20
204.5610080389
 30
0.0
 11
90.5533140129
 21
-13.3513354201
 31
0.0
 40
0.1414186782
 41
1.5104741328
 42
1.5139353083
  0
ELLIPSE
  5
637
100
AcDbEntity
  8
0
100
AcDbEllipse
 62
7
  6
CONTINUOUS
 10
80.464523009
 20
204.5610080389
 30
0.0
 11
-4.6114639241
 21
18.9732553477
 31
0.0
 40
0.2185337797
 41
-0.89055833
 42
-0.8804687351
  0
ELLIPSE
  5
638
100
AcDbEntity
  8
0
100
AcDbEllipse
 62
7
  6
CONTINUOUS
 10
80.0608777186
 20
204.5610080389
 30
0.0
 11
-11.9813266997
 21
18.4219691238
 31
0.0
 40
0.3881806888
 41
-1.0982528226
 42
-1.0847915883
  0
ELLIPSE
  5
639
100
AcDbEntity
  8
0
100
AcDbEllipse
 62
7
  6
CONTINUOUS
 10
79.3499393416
 20
204.5610080389
 30
0.0
 11
23.9378000269
 21
-16.48752112
 31
0.0
 40
0.3944616684
 41
1.7604239199
 42
1.7705275244
  0
ELLIPSE
  5
63A
100
AcDbEntity
  8
0
100
AcDbEllipse
 62
7
  6
CONTINUOUS
 10
74.1936922759
 20
204.5610080389
 30
0.0
 11
93.0005943549
 21
-13.7121829502
 31
0.0
 40
0.1414188332
 41
1.5126147568
 42
1.5159842941
  0
ELLIPSE
  5
63B
100
AcDbEntity
  8
0
100
AcDbEllipse
 62
7
  6
CONTINUOUS
 10
84.4139647825
 20
204.5610080389
 30
0.0
 11
4.7349510566
 21
18.9705723334
 31
0.0
 40
0.2232471849
 41
0.7822373645
 42
0.9200914858
  0
ELLIPSE
  5
63C
100
AcDbEntity
  8
0
100
AcDbEllipse
 62
7
  6
CONTINUOUS
 10
85.160915977
 20
204.5610080389
 30
0.0
 11
-4.7349510566
 21
18.9705723334
 31
0.0
 40
0.2232471849
 41
-0.9200914858
 42
-0.7822373645
  0
ELLIPSE
  5
63D
100
AcDbEntity
  8
0
100
AcDbEllipse
 62
7
  6
CONTINUOUS
 10
74.1936922759
 20
204.5610080389
 30
0.0
 11
90.5532102929
 21
-13.3513360304
 31
0.0
 40
0.1414188332
 41
1.5104741805
 42
1.5139353559
  0
ELLIPSE
  5
63E
100
AcDbEntity
  8
0
100
AcDbEllipse
 62
7
  6
CONTINUOUS
 10
76.044137035
 20
92.9022095782
 30
0.0
 11
-9.8925998442
 21
18.6630001551
 31
0.0
 40
0.3601321255
 41
-4.1946444742
 42
-4.1004967106
  0
ELLIPSE
  5
63F
100
AcDbEntity
  8
0
100
AcDbEllipse
 62
7
  6
CONTINUOUS
 10
77.0048318994
 20
92.9022095782
 30
0.0
 11
16.2095745844
 21
17.7817721813
 31
0.0
 40
0.4129609291
 41
-2.0751841395
 42
-1.997834263
  0
ELLIPSE
  5
640
100
AcDbEntity
  8
0
100
AcDbEllipse
 62
7
  6
CONTINUOUS
 10
77.9853549211
 20
92.9022095782
 30
0.0
 11
4.6114928101
 21
18.9732547403
 31
0.0
 40
0.2185348906
 41
-2.2644855173
 42
-2.2543974628
  0
ELLIPSE
  5
641
100
AcDbEntity
  8
0
100
AcDbEllipse
 62
7
  6
CONTINUOUS
 10
77.3811942752
 20
92.9022095782
 30
0.0
 11
17.1120516547
 21
17.6292689393
 31
0.0
 40
0.4140837331
 41
-1.9252895347
 42
-1.9185614677
  0
ELLIPSE
  5
642
100
AcDbEntity
  8
0
100
AcDbEllipse
 62
7
  6
CONTINUOUS
 10
75.3186897176
 20
92.9022095782
 30
0.0
 11
55.7196648979
 21
14.1872826157
 31
0.0
 40
0.226815396
 41
-1.573024191
 42
-1.5696592352
  0
ELLIPSE
  5
643
100
AcDbEntity
  8
0
100
AcDbEllipse
 62
7
  6
CONTINUOUS
 10
78.4228582882
 20
92.9022095782
 30
0.0
 11
4.6114928101
 21
18.9732547403
 31
0.0
 40
0.2185348906
 41
-2.3350492633
 42
-2.3249671924
  0
ELLIPSE
  5
644
100
AcDbEntity
  8
0
100
AcDbEllipse
 62
7
  6
CONTINUOUS
 10
78.6936890386
 20
92.9022095782
 30
0.0
 11
17.112058924
 21
17.6292676997
 31
0.0
 40
0.4140837374
 41
-1.9958590893
 42
-1.9891390052
  0
ELLIPSE
  5
645
100
AcDbEntity
  8
0
100
AcDbEllipse
 62
7
  6
CONTINUOUS
 10
79.2561901115
 20
92.9022095782
 30
0.0
 11
55.7196648979
 21
14.1872826157
 31
0.0
 40
0.226815396
 41
-1.6436019035
 42
-1.6402421364
  0
ELLIPSE
  5
646
100
AcDbEntity
  8
0
100
AcDbEllipse
 62
7
  6
CONTINUOUS
 10
77.5895213997
 20
92.9022095782
 30
0.0
 11
-4.6114928101
 21
18.9732547403
 31
0.0
 40
0.2185348906
 41
-3.9380507167
 42
-3.9279611219
  0
ELLIPSE
  5
647
100
AcDbEntity
  8
0
100
AcDbEllipse
 62
7
  6
CONTINUOUS
 10
77.185877957
 20
92.9022095782
 30
0.0
 11
-11.9813266997
 21
18.4219691238
 31
0.0
 40
0.3881806888
 41
-4.1221937775
 42
-4.1087325432
  0
ELLIPSE
  5
648
100
AcDbEntity
  8
0
100
AcDbEllipse
 62
7
  6
CONTINUOUS
 10
76.4749419046
 20
92.9022095782
 30
0.0
 11
23.937761723
 21
-16.4875270155
 31
0.0
 40
0.3944618695
 41
-1.2399515719
 42
-1.2298479673
  0
ELLIPSE
  5
649
100
AcDbEntity
  8
0
100
AcDbEllipse
 62
7
  6
CONTINUOUS
 10
71.3186841101
 20
92.9022095782
 30
0.0
 11
93.0007008781
 21
-13.7121823233
 31
0.0
 40
0.1414186782
 41
-1.4742882651
 42
-1.4709187278
  0
ELLIPSE
  5
64A
100
AcDbEntity
  8
0
100
AcDbEllipse
 62
7
  6
CONTINUOUS
 10
78.0061912598
 20
92.9022095782
 30
0.0
 11
-4.6114904531
 21
18.9732547899
 31
0.0
 40
0.2185348
 41
-4.0052549419
 42
-3.9951744602
  0
ELLIPSE
  5
64B
100
AcDbEntity
  8
0
100
AcDbEllipse
 62
7
  6
CONTINUOUS
 10
78.1233780884
 20
92.9022095782
 30
0.0
 11
-11.9813266997
 21
18.4219691238
 31
0.0
 40
0.3881806888
 41
2.0937781422
 42
2.1072165657
  0
ELLIPSE
  5
64C
100
AcDbEntity
  8
0
100
AcDbEllipse
 62
7
  6
CONTINUOUS
 10
78.1624403499
 20
92.9022095782
 30
0.0
 11
36.9059982571
 21
-15.0347316334
 31
0.0
 40
0.3147751946
 41
4.8382460598
 42
4.8416055235
  0
ELLIPSE
  5
64D
100
AcDbEntity
  8
0
100
AcDbEllipse
 62
7
  6
CONTINUOUS
 10
81.2978572749
 20
92.9022095782
 30
0.0
 11
4.6114639241
 21
18.9732553477
 31
0.0
 40
0.2185337797
 41
-2.335049866
 42
-2.3249677951
  0
ELLIPSE
  5
64E
100
AcDbEntity
  8
0
100
AcDbEllipse
 62
7
  6
CONTINUOUS
 10
81.5686899625
 20
92.9022095782
 30
0.0
 11
17.1121183157
 21
17.6292575723
 31
0.0
 40
0.4140837726
 41
-1.99585766
 42
-1.989137576
  0
ELLIPSE
  5
64F
100
AcDbEntity
  8
0
100
AcDbEllipse
 62
7
  6
CONTINUOUS
 10
82.1311902307
 20
92.9022095782
 30
0.0
 11
55.7196648979
 21
14.1872826157
 31
0.0
 40
0.226815396
 41
-1.6436019035
 42
-1.6402421364
  0
ELLIPSE
  5
650
100
AcDbEntity
  8
0
100
AcDbEllipse
 62
7
  6
CONTINUOUS
 10
81.2371687285
 20
92.9022095782
 30
0.0
 11
-5.5088355398
 21
18.9495601084
 31
0.0
 40
0.2511485286
 41
2.2042826952
 42
2.2816325717
  0
ELLIPSE
  5
651
100
AcDbEntity
  8
0
100
AcDbEllipse
 62
7
  6
CONTINUOUS
 10
80.464523009
 20
92.9022095782
 30
0.0
 11
-4.6114639241
 21
18.9732553477
 31
0.0
 40
0.2185337797
 41
-3.938050114
 42
-3.9279605192
  0
ELLIPSE
  5
652
100
AcDbEntity
  8
0
100
AcDbEllipse
 62
7
  6
CONTINUOUS
 10
80.0608777186
 20
92.9022095782
 30
0.0
 11
-11.9813266997
 21
18.4219691238
 31
0.0
 40
0.3881806888
 41
-4.1221937775
 42
-4.1087325432
  0
ELLIPSE
  5
653
100
AcDbEntity
  8
0
100
AcDbEllipse
 62
7
  6
CONTINUOUS
 10
79.3499393416
 20
92.9022095782
 30
0.0
 11
23.9378000269
 21
-16.48752112
 31
0.0
 40
0.3944616684
 41
-1.2399521962
 42
-1.2298485917
  0
ELLIPSE
  5
654
100
AcDbEntity
  8
0
100
AcDbEllipse
 62
7
  6
CONTINUOUS
 10
74.1936922759
 20
92.9022095782
 30
0.0
 11
93.0005943549
 21
-13.7121829502
 31
0.0
 40
0.1414188332
 41
-1.4742882174
 42
-1.4709186801
  0
ELLIPSE
  5
655
100
AcDbEntity
  8
0
100
AcDbEllipse
 62
7
  6
CONTINUOUS
 10
84.4139647825
 20
92.9022095782
 30
0.0
 11
4.7349510566
 21
18.9705723334
 31
0.0
 40
0.2232471849
 41
-2.3795603844
 42
-2.2417062631
  0
ELLIPSE
  5
656
100
AcDbEntity
  8
0
100
AcDbEllipse
 62
7
  6
CONTINUOUS
 10
85.160915977
 20
92.9022095782
 30
0.0
 11
-4.7349510566
 21
18.9705723334
 31
0.0
 40
0.2232471849
 41
-4.0414790441
 42
-3.9036249228
  0
ELLIPSE
  5
657
100
AcDbEntity
  8
0
100
AcDbEllipse
 62
7
  6
CONTINUOUS
 10
81.6594642991
 20
92.9022095782
 30
0.0
 11
-5.2049882175
 21
18.4558165148
 31
0.0
 40
0.2455000786
 41
-4.0772876646
 42
-4.0047432328
  0
ELLIPSE
  5
658
100
AcDbEntity
  8
0
100
AcDbEllipse
 62
7
  6
CONTINUOUS
 10
76.5061900837
 20
92.9022095782
 30
0.0
 11
17.1121565844
 21
17.6292510468
 31
0.0
 40
0.4140837954
 41
-1.972338768
 42
-1.9488198628
  0
ELLIPSE
  5
659
100
AcDbEntity
  8
0
100
AcDbEllipse
 62
7
  6
CONTINUOUS
 10
76.5578205438
 20
92.9022095782
 30
0.0
 11
-10.0697974864
 21
18.6450295212
 31
0.0
 40
0.3630188717
 41
-4.1996237412
 42
-4.1222738647
  0
ELLIPSE
  5
65A
100
AcDbEntity
  8
0
100
AcDbEllipse
 62
7
  6
CONTINUOUS
 10
71.318684753
 20
92.9022095782
 30
0.0
 11
90.5533060786
 21
13.3513354668
 31
0.0
 40
0.1414186901
 41
-1.5139353122
 42
-1.5104741365
  0
ELLIPSE
  5
65B
100
AcDbEntity
  8
0
100
AcDbEllipse
 62
7
  6
CONTINUOUS
 10
76.4913879175
 20
92.9022095782
 30
0.0
 11
16.0196471841
 21
17.8134382667
 31
0.0
 40
0.4125678793
 41
-2.0799448336
 42
-2.0160333805
  0
ELLIPSE
  5
65C
100
AcDbEntity
  8
0
100
AcDbEllipse
 62
7
  6
CONTINUOUS
 10
76.4749420761
 20
92.9022095782
 30
0.0
 11
23.3078183426
 21
16.0536450769
 31
0.0
 40
0.3944618819
 41
-1.768753745
 42
-1.7583756445
  0
ELLIPSE
  5
65D
100
AcDbEntity
  8
0
100
AcDbEllipse
 62
7
  6
CONTINUOUS
 10
77.1858780535
 20
92.9022095782
 30
0.0
 11
11.6660273527
 21
17.9371806283
 31
0.0
 40
0.388180675
 41
-2.0553917977
 42
-2.0415654256
  0
ELLIPSE
  5
65E
100
AcDbEntity
  8
0
100
AcDbEllipse
 62
7
  6
CONTINUOUS
 10
77.5895214897
 20
92.9022095782
 30
0.0
 11
4.4901365887
 21
18.4739585871
 31
0.0
 40
0.2185348453
 41
-2.2599873621
 42
-2.2496244413
  0
ELLIPSE
  5
65F
100
AcDbEntity
  8
0
100
AcDbEllipse
 62
7
  6
CONTINUOUS
 10
81.1624404394
 20
92.9022095782
 30
0.0
 11
35.9349468208
 21
14.639068949
 31
0.0
 40
0.3147742283
 41
-1.7035075009
 42
-1.7009809987
  0
ELLIPSE
  5
660
100
AcDbEntity
  8
0
100
AcDbEllipse
 62
7
  6
CONTINUOUS
 10
81.0452528499
 20
92.9022095782
 30
0.0
 11
11.6660286287
 21
17.9371804627
 31
0.0
 40
0.3881806888
 41
-2.1278738576
 42
-2.1140717081
  0
ELLIPSE
  5
661
100
AcDbEntity
  8
0
100
AcDbEllipse
 62
7
  6
CONTINUOUS
 10
75.3186895863
 20
92.9022095782
 30
0.0
 11
54.2533579269
 21
-13.8139330731
 31
0.0
 40
0.226815396
 41
-1.4561488372
 42
-1.4526926267
  0
ELLIPSE
  5
662
100
AcDbEntity
  8
0
100
AcDbEllipse
 62
7
  6
CONTINUOUS
 10
77.3811938703
 20
92.9022095782
 30
0.0
 11
16.6617415839
 21
-17.1653396024
 31
0.0
 40
0.4140837374
 41
5.1656631523
 42
5.1725735718
  0
ELLIPSE
  5
663
100
AcDbEntity
  8
0
100
AcDbEllipse
 62
7
  6
CONTINUOUS
 10
79.0686901115
 20
92.9022095782
 30
0.0
 11
55.7196648979
 21
-14.1872826157
 31
0.0
 40
0.226815396
 41
-1.5248672937
 42
-1.5215076594
  0
ELLIPSE
  5
664
100
AcDbEntity
  8
0
100
AcDbEllipse
 62
7
  6
CONTINUOUS
 10
78.6311892771
 20
92.9022095782
 30
0.0
 11
17.112058924
 21
-17.6292676997
 31
0.0
 40
0.4140837374
 41
-1.1860498966
 42
-1.1793301919
  0
ELLIPSE
  5
665
100
AcDbEntity
  8
0
100
AcDbEllipse
 62
7
  6
CONTINUOUS
 10
78.4020247424
 20
92.9022095782
 30
0.0
 11
-4.6114904531
 21
18.9732547899
 31
0.0
 40
0.2185348
 41
-4.0086156195
 42
-3.9985343979
  0
ELLIPSE
  5
666
100
AcDbEntity
  8
0
100
AcDbEllipse
 62
7
  6
CONTINUOUS
 10
75.3186895863
 20
92.9022095782
 30
0.0
 11
55.7196648979
 21
-14.1872826157
 31
0.0
 40
0.226815396
 41
-1.4576493459
 42
-1.4542843901
  0
ELLIPSE
  5
667
100
AcDbEntity
  8
0
100
AcDbEllipse
 62
7
  6
CONTINUOUS
 10
77.3811938703
 20
92.9022095782
 30
0.0
 11
17.112058924
 21
-17.6292676997
 31
0.0
 40
0.4140837374
 41
-1.1188403087
 42
-1.1121122441
  0
ELLIPSE
  5
668
100
AcDbEntity
  8
0
100
AcDbEllipse
 62
7
  6
CONTINUOUS
 10
77.985355174
 20
92.9022095782
 30
0.0
 11
-4.6114880961
 21
18.9732548394
 31
0.0
 40
0.2185347093
 41
-3.9414128247
 42
-3.9313247608
  0
ELLIPSE
  5
669
100
AcDbEntity
  8
0
100
AcDbEllipse
 62
7
  6
CONTINUOUS
 10
78.0061897055
 20
92.9022095782
 30
0.0
 11
54.2533579269
 21
-13.8139330731
 31
0.0
 40
0.226815396
 41
-1.4526926267
 42
-1.4492356935
  0
ELLIPSE
  5
66A
100
AcDbEntity
  8
0
100
AcDbEllipse
 62
7
  6
CONTINUOUS
 10
80.1936910987
 20
92.9022095782
 30
0.0
 11
16.6617994126
 21
-17.1653297415
 31
0.0
 40
0.4140837726
 41
5.1691166131
 42
5.176028353
  0
ELLIPSE
  5
66B
100
AcDbEntity
  8
0
100
AcDbEllipse
 62
7
  6
CONTINUOUS
 10
80.839523009
 20
92.9022095782
 30
0.0
 11
-4.4901096103
 21
18.4739591544
 31
0.0
 40
0.2185337797
 41
-3.9280280768
 42
-3.9265512126
  0
ELLIPSE
  5
66C
100
AcDbEntity
  8
0
100
AcDbEllipse
 62
7
  6
CONTINUOUS
 10
80.9020239018
 20
92.9022095782
 30
0.0
 11
4.4901096103
 21
18.4739591544
 31
0.0
 40
0.2185337797
 41
-2.3324609575
 42
-2.3221071159
  0
ELLIPSE
  5
66D
100
AcDbEntity
  8
0
100
AcDbEllipse
 62
7
  6
CONTINUOUS
 10
84.0374403797
 20
92.9022095782
 30
0.0
 11
4.5949558095
 21
18.4716906195
 31
0.0
 40
0.2226478464
 41
-2.3820360708
 42
-2.2196957015
  0
ELLIPSE
  5
66E
100
AcDbEntity
  8
0
100
AcDbEllipse
 62
7
  6
CONTINUOUS
 10
78.1702530884
 20
92.9022095782
 30
0.0
 11
11.9813266997
 21
18.4219691238
 31
0.0
 40
0.3881806888
 41
-2.1273743905
 42
-2.1139355119
  0
ELLIPSE
  5
66F
100
AcDbEntity
  8
0
100
AcDbEllipse
 62
7
  6
CONTINUOUS
 10
78.0270247959
 20
92.9022095782
 30
0.0
 11
4.6114928101
 21
18.9732547403
 31
0.0
 40
0.2185348906
 41
-2.331688263
 42
-2.3216070461
  0
ELLIPSE
  5
670
100
AcDbEntity
  8
0
100
AcDbEllipse
 62
7
  6
CONTINUOUS
 10
85.537440335
 20
92.9022095782
 30
0.0
 11
-4.5949562607
 21
18.4716906095
 31
0.0
 40
0.222647864
 41
-4.0634896155
 42
-3.9011492462
  0
ELLIPSE
  5
671
100
AcDbEntity
  8
0
100
AcDbEllipse
 62
7
  6
CONTINUOUS
 10
79.0686901115
 20
92.9022095782
 30
0.0
 11
54.2533579269
 21
-13.8139330731
 31
0.0
 40
0.226815396
 41
-1.5251851032
 42
-1.5217346583
  0
ELLIPSE
  5
672
100
AcDbEntity
  8
0
100
AcDbEllipse
 62
7
  6
CONTINUOUS
 10
78.6311892771
 20
92.9022095782
 30
0.0
 11
16.6617415839
 21
-17.1653396024
 31
0.0
 40
0.4140837374
 41
5.0966359435
 42
5.1035373058
  0
ELLIPSE
  5
673
100
AcDbEntity
  8
0
100
AcDbEllipse
 62
7
  6
CONTINUOUS
 10
78.4020247424
 20
92.9022095782
 30
0.0
 11
-4.4901354412
 21
18.4739586112
 31
0.0
 40
0.2185348
 41
-4.0016223629
 42
-3.999033865
  0
ELLIPSE
  5
674
100
AcDbEntity
  8
0
100
AcDbEllipse
 62
7
  6
CONTINUOUS
 10
71.318684753
 20
92.9022095782
 30
0.0
 11
93.0006927294
 21
13.7121823713
 31
0.0
 40
0.1414186901
 41
-1.5159842504
 42
-1.5126147128
  0
ELLIPSE
  5
675
100
AcDbEntity
  8
0
100
AcDbEllipse
 62
7
  6
CONTINUOUS
 10
76.4749420761
 20
92.9022095782
 30
0.0
 11
23.9377593789
 21
16.4875273763
 31
0.0
 40
0.3944618819
 41
-1.7705281882
 42
-1.7604245827
  0
ELLIPSE
  5
676
100
AcDbEntity
  8
0
100
AcDbEllipse
 62
7
  6
CONTINUOUS
 10
77.1858780535
 20
92.9022095782
 30
0.0
 11
11.9813253893
 21
18.4219692939
 31
0.0
 40
0.388180675
 41
-2.0568011042
 42
-2.0433398688
  0
ELLIPSE
  5
677
100
AcDbEntity
  8
0
100
AcDbEllipse
 62
7
  6
CONTINUOUS
 10
77.5895214897
 20
92.9022095782
 30
0.0
 11
4.6114916316
 21
18.9732547651
 31
0.0
 40
0.2185348453
 41
-2.261123345
 42
-2.2510337478
  0
ELLIPSE
  5
678
100
AcDbEntity
  8
0
100
AcDbEllipse
 62
7
  6
CONTINUOUS
 10
76.5061900837
 20
92.9022095782
 30
0.0
 11
16.6618366743
 21
17.1653233876
 31
0.0
 40
0.4140837954
 41
-1.9722933698
 42
-1.9481386685
  0
ELLIPSE
  5
679
100
AcDbEntity
  8
0
100
AcDbEllipse
 62
7
  6
CONTINUOUS
 10
76.5578205438
 20
92.9022095782
 30
0.0
 11
-9.8048028157
 21
18.1543708496
 31
0.0
 40
0.3630188717
 41
-4.2017643176
 42
-4.1223192629
  0
ELLIPSE
  5
67A
100
AcDbEntity
  8
0
100
AcDbEllipse
 62
7
  6
CONTINUOUS
 10
76.4913879175
 20
92.9022095782
 30
0.0
 11
15.5980775214
 21
17.3446635754
 31
0.0
 40
0.4125678793
 41
-2.0820854099
 42
-2.0275251136
  0
ELLIPSE
  5
67B
100
AcDbEntity
  8
0
100
AcDbEllipse
 62
7
  6
CONTINUOUS
 10
78.2874398731
 20
92.9022095782
 30
0.0
 11
36.9059982571
 21
15.0347316334
 31
0.0
 40
0.3147751946
 41
-1.7033723525
 42
-1.7000128699
  0
ELLIPSE
  5
67C
100
AcDbEntity
  8
0
100
AcDbEllipse
 62
7
  6
CONTINUOUS
 10
78.0061897055
 20
92.9022095782
 30
0.0
 11
55.7196648979
 21
-14.1872826157
 31
0.0
 40
0.226815396
 41
-1.4542843901
 42
-1.4509187673
  0
ELLIPSE
  5
67D
100
AcDbEntity
  8
0
100
AcDbEllipse
 62
7
  6
CONTINUOUS
 10
80.1936910987
 20
92.9022095782
 30
0.0
 11
17.1121183157
 21
-17.6292575723
 31
0.0
 40
0.4140837726
 41
-1.1154780007
 42
-1.1087487175
  0
ELLIPSE
  5
67E
100
AcDbEntity
  8
0
100
AcDbEllipse
 62
7
  6
CONTINUOUS
 10
80.839523009
 20
92.9022095782
 30
0.0
 11
-4.6114639241
 21
18.9732553477
 31
0.0
 40
0.2185337797
 41
-3.938050114
 42
-3.9279605192
  0
ELLIPSE
  5
67F
100
AcDbEntity
  8
0
100
AcDbEllipse
 62
7
  6
CONTINUOUS
 10
78.1702530884
 20
92.9022095782
 30
0.0
 11
11.6660286287
 21
17.9371804627
 31
0.0
 40
0.3881806888
 41
-2.1278738576
 42
-2.1244233921
  0
ELLIPSE
  5
680
100
AcDbEntity
  8
0
100
AcDbEllipse
 62
7
  6
CONTINUOUS
 10
81.6594642991
 20
92.9022095782
 30
0.0
 11
-5.3456635747
 21
18.9546223665
 31
0.0
 40
0.2455000786
 41
-4.0751470883
 42
-4.0045162339
  0
ELLIPSE
  5
681
100
AcDbEntity
  8
0
100
AcDbEllipse
 62
7
  6
CONTINUOUS
 10
81.1624404394
 20
92.9022095782
 30
0.0
 11
36.9061615998
 21
15.0347194612
 31
0.0
 40
0.3147742283
 41
-1.7033713047
 42
-1.6966523585
  0
ELLIPSE
  5
682
100
AcDbEntity
  8
0
100
AcDbEllipse
 62
7
  6
CONTINUOUS
 10
81.0452528499
 20
92.9022095782
 30
0.0
 11
11.9813266997
 21
18.4219691238
 31
0.0
 40
0.3881806888
 41
-2.1273743905
 42
-2.1139355119
  0
ELLIPSE
  5
683
100
AcDbEntity
  8
0
100
AcDbEllipse
 62
7
  6
CONTINUOUS
 10
80.9020239018
 20
92.9022095782
 30
0.0
 11
4.6114639241
 21
18.9732553477
 31
0.0
 40
0.2185337797
 41
-2.3316888657
 42
-2.3216076488
  0
ELLIPSE
  5
684
100
AcDbEntity
  8
0
100
AcDbEllipse
 62
7
  6
CONTINUOUS
 10
78.0270247959
 20
92.9022095782
 30
0.0
 11
4.4901377362
 21
18.4739585629
 31
0.0
 40
0.2185348906
 41
-2.3324603547
 42
-2.3221065132
  0
ELLIPSE
  5
685
100
AcDbEntity
  8
0
100
AcDbEllipse
 62
7
  6
CONTINUOUS
 10
85.537440335
 20
92.9022095782
 30
0.0
 11
-4.7191442677
 21
18.9709254908
 31
0.0
 40
0.222647864
 41
-4.0613490392
 42
-3.9032898225
  0
ELLIPSE
  5
686
100
AcDbEntity
  8
0
100
AcDbEllipse
 62
7
  6
CONTINUOUS
 10
84.0374403797
 20
92.9022095782
 30
0.0
 11
4.7191438044
 21
18.9709255011
 31
0.0
 40
0.2226478464
 41
-2.3798954945
 42
-2.2218362778
  0
ELLIPSE
  5
687
100
AcDbEntity
  8
0
100
AcDbEllipse
 62
7
  6
CONTINUOUS
 10
183.9686906162
 20
92.9022095782
 30
0.0
 11
17.1121565844
 21
17.6292510468
 31
0.0
 40
0.4140837954
 41
-1.9992171368
 42
-1.9756982316
  0
ELLIPSE
  5
688
100
AcDbEntity
  8
0
100
AcDbEllipse
 62
7
  6
CONTINUOUS
 10
183.9170601561
 20
92.9022095782
 30
0.0
 11
-10.0697974864
 21
18.6450295212
 31
0.0
 40
0.3630188717
 41
-4.1189144011
 42
-4.0415645246
  0
ELLIPSE
  5
689
100
AcDbEntity
  8
0
100
AcDbEllipse
 62
7
  6
CONTINUOUS
 10
183.9834927824
 20
92.9022095782
 30
0.0
 11
16.0196471841
 21
17.8134382667
 31
0.0
 40
0.4125678793
 41
-1.98579707
 42
-1.9218856169
  0
ELLIPSE
  5
68A
100
AcDbEntity
  8
0
100
AcDbEllipse
 62
7
  6
CONTINUOUS
 10
181.4061905884
 20
92.9022095782
 30
0.0
 11
55.7196648979
 21
-14.1872826157
 31
0.0
 40
0.226815396
 41
-1.5047101515
 42
-1.5013505172
  0
ELLIPSE
  5
68B
100
AcDbEntity
  8
0
100
AcDbEllipse
 62
7
  6
CONTINUOUS
 10
181.8436914228
 20
92.9022095782
 30
0.0
 11
17.112058924
 21
-17.6292676997
 31
0.0
 40
0.4140837374
 41
-1.1558134154
 42
-1.1490937106
  0
ELLIPSE
  5
68C
100
AcDbEntity
  8
0
100
AcDbEllipse
 62
7
  6
CONTINUOUS
 10
182.0728559575
 20
92.9022095782
 30
0.0
 11
-4.6114904531
 21
18.9732547899
 31
0.0
 40
0.2185348
 41
-3.9615782119
 42
-3.9514969903
  0
ELLIPSE
  5
68D
100
AcDbEntity
  8
0
100
AcDbEllipse
 62
7
  6
CONTINUOUS
 10
185.1561911136
 20
92.9022095782
 30
0.0
 11
55.7196648979
 21
-14.1872826157
 31
0.0
 40
0.226815396
 41
-1.5719334208
 42
-1.5685684649
  0
ELLIPSE
  5
68E
100
AcDbEntity
  8
0
100
AcDbEllipse
 62
7
  6
CONTINUOUS
 10
183.0936868295
 20
92.9022095782
 30
0.0
 11
17.112058924
 21
-17.6292676997
 31
0.0
 40
0.4140837374
 41
-1.2230313631
 42
-1.2163032986
  0
ELLIPSE
  5
68F
100
AcDbEntity
  8
0
100
AcDbEllipse
 62
7
  6
CONTINUOUS
 10
182.4895255258
 20
92.9022095782
 30
0.0
 11
-4.6114880961
 21
18.9732548394
 31
0.0
 40
0.2185347093
 41
-4.0287877507
 42
-4.0186996868
  0
ELLIPSE
  5
690
100
AcDbEntity
  8
0
100
AcDbEllipse
 62
7
  6
CONTINUOUS
 10
182.3046276115
 20
92.9022095782
 30
0.0
 11
11.9813266997
 21
18.4219691238
 31
0.0
 40
0.3881806888
 41
4.1793282241
 42
4.1927671027
  0
ELLIPSE
  5
691
100
AcDbEntity
  8
0
100
AcDbEllipse
 62
7
  6
CONTINUOUS
 10
182.447855904
 20
92.9022095782
 30
0.0
 11
4.6114928101
 21
18.9732547403
 31
0.0
 40
0.2185348906
 41
-2.2846508601
 42
-2.2745696432
  0
ELLIPSE
  5
692
100
AcDbEntity
  8
0
100
AcDbEllipse
 62
7
  6
CONTINUOUS
 10
189.1561959469
 20
92.9022095782
 30
0.0
 11
93.0006927294
 21
13.7121823713
 31
0.0
 40
0.1414186901
 41
-1.6706739295
 42
-1.6673043919
  0
ELLIPSE
  5
693
100
AcDbEntity
  8
0
100
AcDbEllipse
 62
7
  6
CONTINUOUS
 10
183.9999386238
 20
92.9022095782
 30
0.0
 11
23.9377593789
 21
16.4875273763
 31
0.0
 40
0.3944618819
 41
-1.9117447242
 42
-1.9016411187
  0
ELLIPSE
  5
694
100
AcDbEntity
  8
0
100
AcDbEllipse
 62
7
  6
CONTINUOUS
 10
183.2890026464
 20
92.9022095782
 30
0.0
 11
11.9813253893
 21
18.4219692939
 31
0.0
 40
0.388180675
 41
-2.1744527993
 42
-2.1609915639
  0
ELLIPSE
  5
695
100
AcDbEntity
  8
0
100
AcDbEllipse
 62
7
  6
CONTINUOUS
 10
182.8853592102
 20
92.9022095782
 30
0.0
 11
4.6114916316
 21
18.9732547651
 31
0.0
 40
0.2185348453
 41
-2.3552242075
 42
-2.3451346103
  0
ELLIPSE
  5
696
100
AcDbEntity
  8
0
100
AcDbEllipse
 62
7
  6
CONTINUOUS
 10
182.1874408268
 20
92.9022095782
 30
0.0
 11
36.9059982571
 21
15.0347316334
 31
0.0
 40
0.3147751946
 41
4.5865319009
 42
4.5898913836
  0
ELLIPSE
  5
697
100
AcDbEntity
  8
0
100
AcDbEllipse
 62
7
  6
CONTINUOUS
 10
182.4686909944
 20
92.9022095782
 30
0.0
 11
55.7196648979
 21
-14.1872826157
 31
0.0
 40
0.226815396
 41
-1.5752990435
 42
-1.5719334208
  0
ELLIPSE
  5
698
100
AcDbEntity
  8
0
100
AcDbEllipse
 62
7
  6
CONTINUOUS
 10
180.2811896012
 20
92.9022095782
 30
0.0
 11
17.1121183157
 21
-17.6292575723
 31
0.0
 40
0.4140837726
 41
-1.2263977482
 42
-1.2196684651
  0
ELLIPSE
  5
699
100
AcDbEntity
  8
0
100
AcDbEllipse
 62
7
  6
CONTINUOUS
 10
179.6353576909
 20
92.9022095782
 30
0.0
 11
-4.6114639241
 21
18.9732553477
 31
0.0
 40
0.2185337797
 41
-4.0321509836
 42
-4.0220613887
  0
ELLIPSE
  5
69A
100
AcDbEntity
  8
0
100
AcDbEllipse
 62
7
  6
CONTINUOUS
 10
178.8154164008
 20
92.9022095782
 30
0.0
 11
-5.3456635747
 21
18.9546223665
 31
0.0
 40
0.2455000786
 41
-3.987718726
 42
-3.9170878716
  0
ELLIPSE
  5
69B
100
AcDbEntity
  8
0
100
AcDbEllipse
 62
7
  6
CONTINUOUS
 10
179.3124402605
 20
92.9022095782
 30
0.0
 11
36.9061615998
 21
15.0347194612
 31
0.0
 40
0.3147742283
 41
-1.7000118221
 42
-1.6932928758
  0
ELLIPSE
  5
69C
100
AcDbEntity
  8
0
100
AcDbEllipse
 62
7
  6
CONTINUOUS
 10
179.4296278499
 20
92.9022095782
 30
0.0
 11
11.9813266997
 21
18.4219691238
 31
0.0
 40
0.3881806888
 41
-2.103857083
 42
-2.0904182045
  0
ELLIPSE
  5
69D
100
AcDbEntity
  8
0
100
AcDbEllipse
 62
7
  6
CONTINUOUS
 10
179.5728567981
 20
92.9022095782
 30
0.0
 11
4.6114639241
 21
18.9732553477
 31
0.0
 40
0.2185337797
 41
-2.2846514628
 42
-2.2745702459
  0
ELLIPSE
  5
69E
100
AcDbEntity
  8
0
100
AcDbEllipse
 62
7
  6
CONTINUOUS
 10
174.9374403648
 20
92.9022095782
 30
0.0
 11
-4.7191442677
 21
18.9709254908
 31
0.0
 40
0.222647864
 41
-4.0613490392
 42
-3.9032898225
  0
ELLIPSE
  5
69F
100
AcDbEntity
  8
0
100
AcDbEllipse
 62
7
  6
CONTINUOUS
 10
176.4374403201
 20
92.9022095782
 30
0.0
 11
4.7191438044
 21
18.9709255011
 31
0.0
 40
0.2226478464
 41
-2.3798954945
 42
-2.2218362778
  0
ELLIPSE
  5
6A0
100
AcDbEntity
  8
0
100
AcDbEllipse
 62
7
  6
CONTINUOUS
 10
176.0609159174
 20
92.9022095782
 30
0.0
 11
4.6103470815
 21
18.4713467456
 31
0.0
 40
0.2232471849
 41
-2.3609470524
 42
-2.2193605914
  0
ELLIPSE
  5
6A1
100
AcDbEntity
  8
0
100
AcDbEllipse
 62
7
  6
CONTINUOUS
 10
182.46868944
 20
92.9022095782
 30
0.0
 11
-4.4901354412
 21
18.4739586112
 31
0.0
 40
0.2185348
 41
-3.9645295184
 42
-3.9541764736
  0
ELLIPSE
  5
6A2
100
AcDbEntity
  8
0
100
AcDbEllipse
 62
7
  6
CONTINUOUS
 10
182.3515026115
 20
92.9022095782
 30
0.0
 11
-11.6660286287
 21
17.9371804627
 31
0.0
 40
0.3881806888
 41
-4.1625221592
 42
-4.1587622232
  0
ELLIPSE
  5
6A3
100
AcDbEntity
  8
0
100
AcDbEllipse
 62
7
  6
CONTINUOUS
 10
184.4307436649
 20
92.9022095782
 30
0.0
 11
-9.8925998442
 21
18.6630001551
 31
0.0
 40
0.3601321255
 41
-4.1307330211
 42
-4.0365852575
  0
ELLIPSE
  5
6A4
100
AcDbEntity
  8
0
100
AcDbEllipse
 62
7
  6
CONTINUOUS
 10
183.4700488005
 20
92.9022095782
 30
0.0
 11
16.2095745844
 21
17.7817721813
 31
0.0
 40
0.4129609291
 41
-1.9944747993
 42
-1.9171249228
  0
ELLIPSE
  5
6A5
100
AcDbEntity
  8
0
100
AcDbEllipse
 62
7
  6
CONTINUOUS
 10
175.3139647229
 20
92.9022095782
 30
0.0
 11
-4.6103470815
 21
18.4713467456
 31
0.0
 40
0.2232471849
 41
-4.0638247158
 42
-3.9222382548
  0
ELLIPSE
  5
6A6
100
AcDbEntity
  8
0
100
AcDbEllipse
 62
7
  6
CONTINUOUS
 10
179.2377119714
 20
92.9022095782
 30
0.0
 11
-5.3638661835
 21
18.450887474
 31
0.0
 40
0.2511485286
 41
-3.9752691233
 42
-3.918702819
  0
ELLIPSE
  5
6A7
100
AcDbEntity
  8
0
100
AcDbEllipse
 62
7
  6
CONTINUOUS
 10
182.4895257788
 20
92.9022095782
 30
0.0
 11
4.6114928101
 21
18.9732547403
 31
0.0
 40
0.2185348906
 41
-2.3518604433
 42
-2.3417723889
  0
ELLIPSE
  5
6A8
100
AcDbEntity
  8
0
100
AcDbEllipse
 62
7
  6
CONTINUOUS
 10
183.0936864247
 20
92.9022095782
 30
0.0
 11
17.1120516547
 21
17.6292689393
 31
0.0
 40
0.4140837331
 41
-2.0294805821
 42
-2.0227525151
  0
ELLIPSE
  5
6A9
100
AcDbEntity
  8
0
100
AcDbEllipse
 62
7
  6
CONTINUOUS
 10
185.1561909823
 20
92.9022095782
 30
0.0
 11
55.7196648979
 21
14.1872826157
 31
0.0
 40
0.226815396
 41
-1.6873082612
 42
-1.6839433054
  0
ELLIPSE
  5
6AA
100
AcDbEntity
  8
0
100
AcDbEllipse
 62
7
  6
CONTINUOUS
 10
181.7811916612
 20
92.9022095782
 30
0.0
 11
16.6617415839
 21
17.1653396024
 31
0.0
 40
0.4140837374
 41
4.3246912437
 42
4.3315930169
  0
ELLIPSE
  5
6AB
100
AcDbEntity
  8
0
100
AcDbEllipse
 62
7
  6
CONTINUOUS
 10
181.2186905884
 20
92.9022095782
 30
0.0
 11
54.2533579269
 21
13.8139330731
 31
0.0
 40
0.226815396
 41
-1.6164075504
 42
-1.6129569617
  0
ELLIPSE
  5
6AC
100
AcDbEntity
  8
0
100
AcDbEllipse
 62
7
  6
CONTINUOUS
 10
182.4895257788
 20
92.9022095782
 30
0.0
 11
4.4901377362
 21
18.4739585629
 31
0.0
 40
0.2185348906
 41
-2.3531785969
 42
-2.3516505952
  0
ELLIPSE
  5
6AD
100
AcDbEntity
  8
0
100
AcDbEllipse
 62
7
  6
CONTINUOUS
 10
183.0936864247
 20
92.9022095782
 30
0.0
 11
16.6617345059
 21
17.1653408093
 31
0.0
 40
0.4140837331
 41
-2.0309810907
 42
-2.0240706688
  0
ELLIPSE
  5
6AE
100
AcDbEntity
  8
0
100
AcDbEllipse
 62
7
  6
CONTINUOUS
 10
185.1561909823
 20
92.9022095782
 30
0.0
 11
54.2533579269
 21
13.8139330731
 31
0.0
 40
0.226815396
 41
-1.6889000245
 42
-1.685443814
  0
ELLIPSE
  5
6AF
100
AcDbEntity
  8
0
100
AcDbEllipse
 62
7
  6
CONTINUOUS
 10
182.0520224117
 20
92.9022095782
 30
0.0
 11
4.6114928101
 21
18.9732547403
 31
0.0
 40
0.2185348906
 41
-2.2812907138
 42
-2.2712086429
  0
ELLIPSE
  5
6B0
100
AcDbEntity
  8
0
100
AcDbEllipse
 62
7
  6
CONTINUOUS
 10
179.177023425
 20
92.9022095782
 30
0.0
 11
4.4901096103
 21
18.4739591544
 31
0.0
 40
0.2185337797
 41
-2.2807009961
 42
-2.2782095289
  0
ELLIPSE
  5
6B1
100
AcDbEntity
  8
0
100
AcDbEllipse
 62
7
  6
CONTINUOUS
 10
178.9061907374
 20
92.9022095782
 30
0.0
 11
16.6617994126
 21
17.1653297415
 31
0.0
 40
0.4140837726
 41
-1.9584926342
 42
-1.951590861
  0
ELLIPSE
  5
6B2
100
AcDbEntity
  8
0
100
AcDbEllipse
 62
7
  6
CONTINUOUS
 10
181.7811916612
 20
92.9022095782
 30
0.0
 11
17.112058924
 21
17.6292676997
 31
0.0
 40
0.4140837374
 41
-1.9589026947
 42
-1.9521826106
  0
ELLIPSE
  5
6B3
100
AcDbEntity
  8
0
100
AcDbEllipse
 62
7
  6
CONTINUOUS
 10
181.2186905884
 20
92.9022095782
 30
0.0
 11
55.7196648979
 21
14.1872826157
 31
0.0
 40
0.226815396
 41
-1.6167253599
 42
-1.6133655929
  0
ELLIPSE
  5
6B4
100
AcDbEntity
  8
0
100
AcDbEllipse
 62
7
  6
CONTINUOUS
 10
178.3436904692
 20
92.9022095782
 30
0.0
 11
54.2533579269
 21
13.8139330731
 31
0.0
 40
0.226815396
 41
-1.6164075504
 42
-1.6129569617
  0
ELLIPSE
  5
6B5
100
AcDbEntity
  8
0
100
AcDbEllipse
 62
7
  6
CONTINUOUS
 10
184.4307436649
 20
92.9022095782
 30
0.0
 11
-9.6322682694
 21
18.1718685721
 31
0.0
 40
0.3601321255
 41
-4.1152021461
 42
-4.0344446812
  0
ELLIPSE
  5
6B6
100
AcDbEntity
  8
0
100
AcDbEllipse
 62
7
  6
CONTINUOUS
 10
182.8853593002
 20
92.9022095782
 30
0.0
 11
-4.6114928101
 21
18.9732547403
 31
0.0
 40
0.2185348906
 41
-4.0321515863
 42
-4.0220619915
  0
ELLIPSE
  5
6B7
100
AcDbEntity
  8
0
100
AcDbEllipse
 62
7
  6
CONTINUOUS
 10
183.2890027428
 20
92.9022095782
 30
0.0
 11
-11.9813266997
 21
18.4219691238
 31
0.0
 40
0.3881806888
 41
-4.2398454761
 42
-4.2263842419
  0
ELLIPSE
  5
6B8
100
AcDbEntity
  8
0
100
AcDbEllipse
 62
7
  6
CONTINUOUS
 10
183.9999387953
 20
92.9022095782
 30
0.0
 11
23.937761723
 21
-16.4875270155
 31
0.0
 40
0.3944618695
 41
-1.3811681094
 42
-1.3710645048
  0
ELLIPSE
  5
6B9
100
AcDbEntity
  8
0
100
AcDbEllipse
 62
7
  6
CONTINUOUS
 10
183.4700488005
 20
92.9022095782
 30
0.0
 11
15.7830068322
 21
17.3138308081
 31
0.0
 40
0.4129609291
 41
-1.9944294011
 42
-1.9149843464
  0
ELLIPSE
  5
6BA
100
AcDbEntity
  8
0
100
AcDbEllipse
 62
7
  6
CONTINUOUS
 10
189.1561965898
 20
92.9022095782
 30
0.0
 11
93.0007008781
 21
-13.7121823233
 31
0.0
 40
0.1414186782
 41
-1.6289779444
 42
-1.6256084071
  0
ELLIPSE
  5
6BB
100
AcDbEntity
  8
0
100
AcDbEllipse
 62
7
  6
CONTINUOUS
 10
180.0103576909
 20
92.9022095782
 30
0.0
 11
-4.4901096103
 21
18.4739591544
 31
0.0
 40
0.2185337797
 41
-4.0335602902
 42
-4.0231973718
  0
ELLIPSE
  5
6BC
100
AcDbEntity
  8
0
100
AcDbEllipse
 62
7
  6
CONTINUOUS
 10
180.4140029813
 20
92.9022095782
 30
0.0
 11
-11.6660286287
 21
17.9371804627
 31
0.0
 40
0.3881806888
 41
-4.2416199194
 42
-4.2277935485
  0
ELLIPSE
  5
6BD
100
AcDbEntity
  8
0
100
AcDbEllipse
 62
7
  6
CONTINUOUS
 10
181.1249413583
 20
92.9022095782
 30
0.0
 11
23.3078579209
 21
-16.0536389852
 31
0.0
 40
0.3944616684
 41
-1.3832176719
 42
-1.3728395724
  0
ELLIPSE
  5
6BE
100
AcDbEntity
  8
0
100
AcDbEllipse
 62
7
  6
CONTINUOUS
 10
182.46868944
 20
92.9022095782
 30
0.0
 11
-4.6114904531
 21
18.9732547899
 31
0.0
 40
0.2185348
 41
-3.9649381496
 42
-3.9548576679
  0
ELLIPSE
  5
6BF
100
AcDbEntity
  8
0
100
AcDbEllipse
 62
7
  6
CONTINUOUS
 10
182.3515026115
 20
92.9022095782
 30
0.0
 11
-11.9813266997
 21
18.4219691238
 31
0.0
 40
0.3881806888
 41
-4.1726092779
 42
-4.1591708544
  0
ELLIPSE
  5
6C0
100
AcDbEntity
  8
0
100
AcDbEllipse
 62
7
  6
CONTINUOUS
 10
182.3124403499
 20
92.9022095782
 30
0.0
 11
36.9059982571
 21
-15.0347316334
 31
0.0
 40
0.3147751946
 41
-1.4449392473
 42
-1.4415797837
  0
ELLIPSE
  5
6C1
100
AcDbEntity
  8
0
100
AcDbEllipse
 62
7
  6
CONTINUOUS
 10
182.8853593002
 20
92.9022095782
 30
0.0
 11
-4.4901377362
 21
18.4739585629
 31
0.0
 40
0.2185348906
 41
-4.0335608929
 42
-4.0231979745
  0
ELLIPSE
  5
6C2
100
AcDbEntity
  8
0
100
AcDbEllipse
 62
7
  6
CONTINUOUS
 10
183.2890027428
 20
92.9022095782
 30
0.0
 11
-11.6660286287
 21
17.9371804627
 31
0.0
 40
0.3881806888
 41
-4.2416199194
 42
-4.2277935485
  0
ELLIPSE
  5
6C3
100
AcDbEntity
  8
0
100
AcDbEllipse
 62
7
  6
CONTINUOUS
 10
183.9999387953
 20
92.9022095782
 30
0.0
 11
23.307820625
 21
-16.0536447256
 31
0.0
 40
0.3944618695
 41
-1.3832170476
 42
-1.372838948
  0
ELLIPSE
  5
6C4
100
AcDbEntity
  8
0
100
AcDbEllipse
 62
7
  6
CONTINUOUS
 10
179.177023425
 20
92.9022095782
 30
0.0
 11
4.6114639241
 21
18.9732553477
 31
0.0
 40
0.2185337797
 41
-2.2812913165
 42
-2.2712092456
  0
ELLIPSE
  5
6C5
100
AcDbEntity
  8
0
100
AcDbEllipse
 62
7
  6
CONTINUOUS
 10
178.9061907374
 20
92.9022095782
 30
0.0
 11
17.1121183157
 21
17.6292575723
 31
0.0
 40
0.4140837726
 41
-1.9589012654
 42
-1.9521811814
  0
ELLIPSE
  5
6C6
100
AcDbEntity
  8
0
100
AcDbEllipse
 62
7
  6
CONTINUOUS
 10
178.3436904692
 20
92.9022095782
 30
0.0
 11
55.7196648979
 21
14.1872826157
 31
0.0
 40
0.226815396
 41
-1.6167253599
 42
-1.6133655929
  0
ELLIPSE
  5
6C7
100
AcDbEntity
  8
0
100
AcDbEllipse
 62
7
  6
CONTINUOUS
 10
179.2377119714
 20
92.9022095782
 30
0.0
 11
-5.5088355398
 21
18.9495601084
 31
0.0
 40
0.2511485286
 41
-3.9981932718
 42
-3.9208433954
  0
ELLIPSE
  5
6C8
100
AcDbEntity
  8
0
100
AcDbEllipse
 62
7
  6
CONTINUOUS
 10
189.1561965898
 20
92.9022095782
 30
0.0
 11
90.5533140129
 21
-13.3513354201
 31
0.0
 40
0.1414186782
 41
-1.6311185208
 42
-1.6276573453
  0
ELLIPSE
  5
6C9
100
AcDbEntity
  8
0
100
AcDbEllipse
 62
7
  6
CONTINUOUS
 10
180.0103576909
 20
92.9022095782
 30
0.0
 11
-4.6114639241
 21
18.9732553477
 31
0.0
 40
0.2185337797
 41
-4.0321509836
 42
-4.0220613887
  0
ELLIPSE
  5
6CA
100
AcDbEntity
  8
0
100
AcDbEllipse
 62
7
  6
CONTINUOUS
 10
180.4140029813
 20
92.9022095782
 30
0.0
 11
-11.9813266997
 21
18.4219691238
 31
0.0
 40
0.3881806888
 41
-4.2398454761
 42
-4.2263842419
  0
ELLIPSE
  5
6CB
100
AcDbEntity
  8
0
100
AcDbEllipse
 62
7
  6
CONTINUOUS
 10
181.1249413583
 20
92.9022095782
 30
0.0
 11
23.9378000269
 21
-16.48752112
 31
0.0
 40
0.3944616684
 41
-1.3811687337
 42
-1.3710651291
  0
ELLIPSE
  5
6CC
100
AcDbEntity
  8
0
100
AcDbEllipse
 62
7
  6
CONTINUOUS
 10
186.281188424
 20
92.9022095782
 30
0.0
 11
93.0005943549
 21
-13.7121829502
 31
0.0
 40
0.1414188332
 41
-1.6289778968
 42
-1.6256083594
  0
ELLIPSE
  5
6CD
100
AcDbEntity
  8
0
100
AcDbEllipse
 62
7
  6
CONTINUOUS
 10
176.0609159174
 20
92.9022095782
 30
0.0
 11
4.7349510566
 21
18.9705723334
 31
0.0
 40
0.2232471849
 41
-2.3593552891
 42
-2.2215011677
  0
ELLIPSE
  5
6CE
100
AcDbEntity
  8
0
100
AcDbEllipse
 62
7
  6
CONTINUOUS
 10
175.3139647229
 20
92.9022095782
 30
0.0
 11
-4.7349510566
 21
18.9705723334
 31
0.0
 40
0.2232471849
 41
-4.0616841394
 42
-3.9238300181
  0
ELLIPSE
  5
6CF
100
AcDbEntity
  8
0
100
AcDbEllipse
 62
7
  6
CONTINUOUS
 10
186.281188424
 20
92.9022095782
 30
0.0
 11
90.5532102929
 21
-13.3513360304
 31
0.0
 40
0.1414188332
 41
-1.6311184731
 42
-1.6276572977
  0
ELLIPSE
  5
6D0
100
AcDbEntity
  8
0
100
AcDbEllipse
 62
7
  6
CONTINUOUS
 10
159.4833496125
 20
71.9022095782
 30
0.0
 11
-0.0
 21
30.3
 31
0.0
 40
0.3730158455
 41
-0.0254700252
 42
0.0
  0
ELLIPSE
  5
6D1
100
AcDbEntity
  8
0
100
AcDbEllipse
 62
7
  6
CONTINUOUS
 10
101.3915310874
 20
113.9022095782
 30
0.0
 11
-0.0
 21
30.3
 31
0.0
 40
0.3730158455
 41
-3.1670626787
 42
-3.1415926536
  0
ELLIPSE
  5
6D2
100
AcDbEntity
  8
0
100
AcDbEllipse
 62
7
  6
CONTINUOUS
 10
149.8791717725
 20
71.9022095782
 30
0.0
 11
0.0
 21
30.3
 31
0.0
 40
0.244790762
 41
-0.0697623051
 42
-0.0570971908
  0
ELLIPSE
  5
6D3
100
AcDbEntity
  8
0
100
AcDbEllipse
 62
7
  6
CONTINUOUS
 10
149.0174675417
 20
71.9022095782
 30
0.0
 11
0.0
 21
30.3
 31
0.0
 40
0.6527784911
 41
-0.0792683991
 42
-0.0697623051
  0
ELLIPSE
  5
6D4
100
AcDbEntity
  8
0
100
AcDbEllipse
 62
7
  6
CONTINUOUS
 10
147.0596920151
 20
71.9022095782
 30
0.0
 11
44.5031303052
 21
0.0
 31
0.0
 40
0.6808509827
 41
1.4851866007
 42
1.4915279277
  0
ELLIPSE
  5
6D5
100
AcDbEntity
  8
0
100
AcDbEllipse
 62
7
  6
CONTINUOUS
 10
140.7176205382
 20
71.9022095782
 30
0.0
 11
118.6749009699
 21
-0.0
 31
0.0
 40
0.255319362
 41
1.4820146586
 42
1.4851866007
  0
ELLIPSE
  5
6D6
100
AcDbEntity
  8
0
100
AcDbEllipse
 62
7
  6
CONTINUOUS
 10
158.300580306
 20
71.9022095782
 30
0.0
 11
-0.0
 21
30.3
 31
0.0
 40
0.3263886165
 41
-0.0824386473
 42
-0.0729302648
  0
ELLIPSE
  5
6D7
100
AcDbEntity
  8
0
100
AcDbEllipse
 62
7
  6
CONTINUOUS
 10
156.6718567233
 20
71.9022095782
 30
0.0
 11
0.0
 21
30.3
 31
0.0
 40
0.9791672503
 41
-0.0887816682
 42
-0.0824386473
  0
ELLIPSE
  5
6D8
100
AcDbEntity
  8
0
100
AcDbEllipse
 62
7
  6
CONTINUOUS
 10
151.4106930544
 20
71.9022095782
 30
0.0
 11
89.0062606104
 21
0.0
 31
0.0
 40
0.3404254913
 41
1.4788418207
 42
1.4820146586
  0
ELLIPSE
  5
6D9
100
AcDbEntity
  8
0
100
AcDbEllipse
 62
7
  6
CONTINUOUS
 10
159.0543006043
 20
71.9022095782
 30
0.0
 11
-0.0
 21
30.3
 31
0.0
 40
0.3263886165
 41
0.0507681977
 42
0.0602625303
  0
ELLIPSE
  5
6DA
100
AcDbEntity
  8
0
100
AcDbEllipse
 62
7
  6
CONTINUOUS
 10
159.6816269992
 20
71.9022095782
 30
0.0
 11
-0.0
 21
30.3
 31
0.0
 40
0.7343750875
 41
6.3213013676
 42
6.3339535048
  0
ELLIPSE
  5
6DB
100
AcDbEntity
  8
0
100
AcDbEllipse
 62
7
  6
CONTINUOUS
 10
161.0948542089
 20
71.9022095782
 30
0.0
 11
59.3374929264
 21
-0.0
 31
0.0
 40
0.5106383587
 41
7.885774041
 42
7.8920976944
  0
ELLIPSE
  5
6DC
100
AcDbEntity
  8
0
100
AcDbEllipse
 62
7
  6
CONTINUOUS
 10
110.9957089274
 20
113.9022095782
 30
0.0
 11
-0.0
 21
30.3
 31
0.0
 40
0.244790762
 41
-3.2113549587
 42
-3.1986898444
  0
ELLIPSE
  5
6DD
100
AcDbEntity
  8
0
100
AcDbEllipse
 62
7
  6
CONTINUOUS
 10
111.8574131582
 20
113.9022095782
 30
0.0
 11
-0.0
 21
30.3
 31
0.0
 40
0.6527784911
 41
-3.2208610527
 42
-3.2113549587
  0
ELLIPSE
  5
6DE
100
AcDbEntity
  8
0
100
AcDbEllipse
 62
7
  6
CONTINUOUS
 10
113.8151886848
 20
113.9022095782
 30
0.0
 11
44.5031303052
 21
-0.0
 31
0.0
 40
0.6808509827
 41
-1.6564060529
 42
-1.6500647259
  0
ELLIPSE
  5
6DF
100
AcDbEntity
  8
0
100
AcDbEllipse
 62
7
  6
CONTINUOUS
 10
120.1572601617
 20
113.9022095782
 30
0.0
 11
118.6749009699
 21
-0.0
 31
0.0
 40
0.255319362
 41
-1.659577995
 42
-1.6564060529
  0
ELLIPSE
  5
6E0
100
AcDbEntity
  8
0
100
AcDbEllipse
 62
7
  6
CONTINUOUS
 10
102.5743003939
 20
113.9022095782
 30
0.0
 11
-0.0
 21
30.3
 31
0.0
 40
0.3263886165
 41
-3.2240313009
 42
-3.2145229184
  0
ELLIPSE
  5
6E1
100
AcDbEntity
  8
0
100
AcDbEllipse
 62
7
  6
CONTINUOUS
 10
104.2030239765
 20
113.9022095782
 30
0.0
 11
0.0
 21
30.3
 31
0.0
 40
0.9791672503
 41
-3.2303743218
 42
-3.2240313009
  0
ELLIPSE
  5
6E2
100
AcDbEntity
  8
0
100
AcDbEllipse
 62
7
  6
CONTINUOUS
 10
109.4641876455
 20
113.9022095782
 30
0.0
 11
89.0062606104
 21
-0.0
 31
0.0
 40
0.3404254913
 41
-1.6627508329
 42
-1.659577995
  0
ELLIPSE
  5
6E3
100
AcDbEntity
  8
0
100
AcDbEllipse
 62
7
  6
CONTINUOUS
 10
101.8205800956
 20
113.9022095782
 30
0.0
 11
-0.0
 21
30.3
 31
0.0
 40
0.3263886165
 41
-3.0908244559
 42
-3.0813301233
  0
ELLIPSE
  5
6E4
100
AcDbEntity
  8
0
100
AcDbEllipse
 62
7
  6
CONTINUOUS
 10
101.1932537007
 20
113.9022095782
 30
0.0
 11
-0.0
 21
30.3
 31
0.0
 40
0.7343750875
 41
3.179708714
 42
3.1923608513
  0
ELLIPSE
  5
6E5
100
AcDbEntity
  8
0
100
AcDbEllipse
 62
7
  6
CONTINUOUS
 10
99.780026491
 20
113.9022095782
 30
0.0
 11
59.3374929264
 21
0.0
 31
0.0
 40
0.5106383587
 41
4.7441813874
 42
4.7505050408
  0
ELLIPSE
  5
6E6
100
AcDbEntity
  8
0
100
AcDbEllipse
 62
7
  6
CONTINUOUS
 10
102.0352225592
 20
113.9022095782
 30
0.0
 11
-0.0
 21
30.3
 31
0.0
 40
0.3831521729
 41
-3.1733850606
 42
-3.1415926536
  0
ELLIPSE
  5
6E7
100
AcDbEntity
  8
0
100
AcDbEllipse
 62
7
  6
CONTINUOUS
 10
156.9807324278
 20
71.9022095782
 30
0.0
 11
-0.0
 21
30.0
 31
0.0
 40
0.244790762
 41
-0.0097646499
 42
0.0
  0
ELLIPSE
  5
6E8
100
AcDbEntity
  8
0
100
AcDbEllipse
 62
7
  6
CONTINUOUS
 10
103.1368003939
 20
113.9022095782
 30
0.0
 11
0.0
 21
30.0
 31
0.0
 40
0.3263886165
 41
-3.2248575883
 42
-3.2152535364
  0
ELLIPSE
  5
6E9
100
AcDbEntity
  8
0
100
AcDbEllipse
 62
7
  6
CONTINUOUS
 10
104.1547521962
 20
113.9022095782
 30
0.0
 11
-0.0
 21
30.0
 31
0.0
 40
0.7343750875
 41
-3.2376751324
 42
-3.2248575883
  0
ELLIPSE
  5
6EA
100
AcDbEntity
  8
0
100
AcDbEllipse
 62
7
  6
CONTINUOUS
 10
105.7986327363
 20
113.9022095782
 30
0.0
 11
39.1666619976
 21
0.0
 31
0.0
 40
0.7659575381
 41
-1.6765022496
 42
-1.6668788056
  0
ELLIPSE
  5
6EB
100
AcDbEntity
  8
0
100
AcDbEllipse
 62
7
  6
CONTINUOUS
 10
117.1628557033
 20
113.9022095782
 30
0.0
 11
146.8750455231
 21
-0.0
 31
0.0
 40
0.2042552558
 41
-1.6797122045
 42
-1.6765022496
  0
ELLIPSE
  5
6EC
100
AcDbEntity
  8
0
100
AcDbEllipse
 62
7
  6
CONTINUOUS
 10
154.8741483248
 20
71.9022095782
 30
0.0
 11
-0.0
 21
30.0
 31
0.0
 40
0.2447921628
 41
-0.0
 42
0.0097646499
  0
ELLIPSE
  5
6ED
100
AcDbEntity
  8
0
100
AcDbEllipse
 62
7
  6
CONTINUOUS
 10
149.4013257492
 20
71.9022095782
 30
0.0
 11
-0.0
 21
30.0
 31
0.0
 40
0.1958324999
 41
-0.0736608828
 42
-0.0576687934
  0
ELLIPSE
  5
6EE
100
AcDbEntity
  8
0
100
AcDbEllipse
 62
7
  6
CONTINUOUS
 10
148.7527720574
 20
71.9022095782
 30
0.0
 11
-0.0
 21
30.0
 31
0.0
 40
0.4895843255
 41
-0.0864679527
 42
-0.0736608828
  0
ELLIPSE
  5
6EF
100
AcDbEntity
  8
0
100
AcDbEllipse
 62
7
  6
CONTINUOUS
 10
147.4843606652
 20
71.9022095782
 30
0.0
 11
0.0
 21
30.0
 31
0.0
 40
0.9791658496
 41
-0.0992892574
 42
-0.0864679527
  0
ELLIPSE
  5
6F0
100
AcDbEntity
  8
0
100
AcDbEllipse
 62
7
  6
CONTINUOUS
 10
144.5725309805
 20
71.9022095782
 30
0.0
 11
58.7499509752
 21
-0.0
 31
0.0
 40
0.510638724
 41
1.465090404
 42
1.4715070694
  0
ELLIPSE
  5
6F1
100
AcDbEntity
  8
0
100
AcDbEllipse
 62
7
  6
CONTINUOUS
 10
135.2745158611
 20
71.9022095782
 30
0.0
 11
146.8751295656
 21
0.0
 31
0.0
 40
0.204255139
 41
1.4618804491
 42
1.465090404
  0
ELLIPSE
  5
6F2
100
AcDbEntity
  8
0
100
AcDbEllipse
 62
7
  6
CONTINUOUS
 10
135.2745158611
 20
71.9022095782
 30
0.0
 11
148.3438808613
 21
0.0
 31
0.0
 40
0.204255139
 41
1.4629630447
 42
1.4661408546
  0
ELLIPSE
  5
6F3
100
AcDbEntity
  8
0
100
AcDbEllipse
 62
7
  6
CONTINUOUS
 10
144.5725309805
 20
71.9022095782
 30
0.0
 11
59.3374504849
 21
-0.0
 31
0.0
 40
0.510638724
 41
1.4661408546
 42
1.4724933263
  0
ELLIPSE
  5
6F4
100
AcDbEntity
  8
0
100
AcDbEllipse
 62
7
  6
CONTINUOUS
 10
157.738080306
 20
71.9022095782
 30
0.0
 11
0.0
 21
30.0
 31
0.0
 40
0.3263886165
 41
-0.0832649347
 42
-0.0736608828
  0
ELLIPSE
  5
6F5
100
AcDbEntity
  8
0
100
AcDbEllipse
 62
7
  6
CONTINUOUS
 10
156.7201285037
 20
71.9022095782
 30
0.0
 11
-0.0
 21
30.0
 31
0.0
 40
0.7343750875
 41
-0.0960824788
 42
-0.0832649347
  0
ELLIPSE
  5
6F6
100
AcDbEntity
  8
0
100
AcDbEllipse
 62
7
  6
CONTINUOUS
 10
155.0762479636
 20
71.9022095782
 30
0.0
 11
39.1666619976
 21
0.0
 31
0.0
 40
0.7659575381
 41
1.465090404
 42
1.474713848
  0
ELLIPSE
  5
6F7
100
AcDbEntity
  8
0
100
AcDbEllipse
 62
7
  6
CONTINUOUS
 10
143.7120249966
 20
71.9022095782
 30
0.0
 11
146.8750455231
 21
-0.0
 31
0.0
 40
0.2042552558
 41
1.4618804491
 42
1.465090404
  0
ELLIPSE
  5
6F8
100
AcDbEntity
  8
0
100
AcDbEllipse
 62
7
  6
CONTINUOUS
 10
147.4843606652
 20
71.9022095782
 30
0.0
 11
-0.0
 21
30.3
 31
0.0
 40
0.9791658496
 41
-0.0983030005
 42
-0.0856097261
  0
ELLIPSE
  5
6F9
100
AcDbEntity
  8
0
100
AcDbEllipse
 62
7
  6
CONTINUOUS
 10
148.7527720574
 20
71.9022095782
 30
0.0
 11
-0.0
 21
30.3
 31
0.0
 40
0.4895843255
 41
-0.0856097261
 42
-0.0729302648
  0
ELLIPSE
  5
6FA
100
AcDbEntity
  8
0
100
AcDbEllipse
 62
7
  6
CONTINUOUS
 10
149.4013257492
 20
71.9022095782
 30
0.0
 11
-0.0
 21
30.3
 31
0.0
 40
0.1958324999
 41
-0.0729302648
 42
-0.0570971908
  0
ELLIPSE
  5
6FB
100
AcDbEntity
  8
0
100
AcDbEllipse
 62
7
  6
CONTINUOUS
 10
163.5379370364
 20
71.9022095782
 30
0.0
 11
89.0062606104
 21
-0.0
 31
0.0
 40
0.3404254913
 41
7.8984228732
 42
7.901586114
  0
ELLIPSE
  5
6FC
100
AcDbEntity
  8
0
100
AcDbEllipse
 62
7
  6
CONTINUOUS
 10
160.7142733116
 20
71.9022095782
 30
0.0
 11
0.0
 21
30.3
 31
0.0
 40
0.9791672503
 41
6.3307897872
 42
6.3371177311
  0
ELLIPSE
  5
6FD
100
AcDbEntity
  8
0
100
AcDbEllipse
 62
7
  6
CONTINUOUS
 10
159.6480505745
 20
71.9022095782
 30
0.0
 11
-0.0
 21
30.3
 31
0.0
 40
0.3263886165
 41
6.3371177311
 42
6.3466137816
  0
ELLIPSE
  5
6FE
100
AcDbEntity
  8
0
100
AcDbEllipse
 62
7
  6
CONTINUOUS
 10
143.7120249966
 20
71.9022095782
 30
0.0
 11
148.3437959783
 21
0.0
 31
0.0
 40
0.2042552558
 41
1.4629630447
 42
1.4661408546
  0
ELLIPSE
  5
6FF
100
AcDbEntity
  8
0
100
AcDbEllipse
 62
7
  6
CONTINUOUS
 10
155.0762479636
 20
71.9022095782
 30
0.0
 11
39.5583286176
 21
-0.0
 31
0.0
 40
0.7659575381
 41
1.4661408546
 42
1.4756680542
  0
ELLIPSE
  5
700
100
AcDbEntity
  8
0
100
AcDbEllipse
 62
7
  6
CONTINUOUS
 10
156.7201285037
 20
71.9022095782
 30
0.0
 11
-0.0
 21
30.3
 31
0.0
 40
0.7343750875
 41
-0.0951282726
 42
-0.0824386473
  0
ELLIPSE
  5
701
100
AcDbEntity
  8
0
100
AcDbEllipse
 62
7
  6
CONTINUOUS
 10
157.738080306
 20
71.9022095782
 30
0.0
 11
-0.0
 21
30.3
 31
0.0
 40
0.3263886165
 41
-0.0824386473
 42
-0.0729302648
  0
ELLIPSE
  5
702
100
AcDbEntity
  8
0
100
AcDbEllipse
 62
7
  6
CONTINUOUS
 10
125.6003648388
 20
113.9022095782
 30
0.0
 11
148.3438808613
 21
-0.0
 31
0.0
 40
0.204255139
 41
-1.6786296089
 42
-1.675451799
  0
ELLIPSE
  5
703
100
AcDbEntity
  8
0
100
AcDbEllipse
 62
7
  6
CONTINUOUS
 10
116.3023497194
 20
113.9022095782
 30
0.0
 11
59.3374504849
 21
0.0
 31
0.0
 40
0.510638724
 41
-1.675451799
 42
-1.6690993273
  0
ELLIPSE
  5
704
100
AcDbEntity
  8
0
100
AcDbEllipse
 62
7
  6
CONTINUOUS
 10
113.3905200347
 20
113.9022095782
 30
0.0
 11
-0.0
 21
30.3
 31
0.0
 40
0.9791658496
 41
-3.2398956541
 42
-3.2272023797
  0
ELLIPSE
  5
705
100
AcDbEntity
  8
0
100
AcDbEllipse
 62
7
  6
CONTINUOUS
 10
112.1221086425
 20
113.9022095782
 30
0.0
 11
-0.0
 21
30.3
 31
0.0
 40
0.4895843255
 41
-3.2272023797
 42
-3.2145229184
  0
ELLIPSE
  5
706
100
AcDbEntity
  8
0
100
AcDbEllipse
 62
7
  6
CONTINUOUS
 10
111.4735549507
 20
113.9022095782
 30
0.0
 11
0.0
 21
30.3
 31
0.0
 40
0.1958324999
 41
-3.2145229184
 42
-3.1986898444
  0
ELLIPSE
  5
707
100
AcDbEntity
  8
0
100
AcDbEllipse
 62
7
  6
CONTINUOUS
 10
97.3369436635
 20
113.9022095782
 30
0.0
 11
89.0062606104
 21
0.0
 31
0.0
 40
0.3404254913
 41
4.7568302196
 42
4.7599934604
  0
ELLIPSE
  5
708
100
AcDbEntity
  8
0
100
AcDbEllipse
 62
7
  6
CONTINUOUS
 10
100.1606073883
 20
113.9022095782
 30
0.0
 11
-0.0
 21
30.3
 31
0.0
 40
0.9791672503
 41
3.1891971336
 42
3.1955250775
  0
ELLIPSE
  5
709
100
AcDbEntity
  8
0
100
AcDbEllipse
 62
7
  6
CONTINUOUS
 10
101.2268301254
 20
113.9022095782
 30
0.0
 11
-0.0
 21
30.3
 31
0.0
 40
0.3263886165
 41
3.1955250775
 42
3.205021128
  0
ELLIPSE
  5
70A
100
AcDbEntity
  8
0
100
AcDbEllipse
 62
7
  6
CONTINUOUS
 10
117.1628557033
 20
113.9022095782
 30
0.0
 11
148.3437959783
 21
0.0
 31
0.0
 40
0.2042552558
 41
-1.6786296089
 42
-1.675451799
  0
ELLIPSE
  5
70B
100
AcDbEntity
  8
0
100
AcDbEllipse
 62
7
  6
CONTINUOUS
 10
105.7986327363
 20
113.9022095782
 30
0.0
 11
39.5583286176
 21
-0.0
 31
0.0
 40
0.7659575381
 41
-1.675451799
 42
-1.6659245994
  0
ELLIPSE
  5
70C
100
AcDbEntity
  8
0
100
AcDbEllipse
 62
7
  6
CONTINUOUS
 10
104.1547521962
 20
113.9022095782
 30
0.0
 11
0.0
 21
30.3
 31
0.0
 40
0.7343750875
 41
-3.2367209262
 42
-3.2240313009
  0
ELLIPSE
  5
70D
100
AcDbEntity
  8
0
100
AcDbEllipse
 62
7
  6
CONTINUOUS
 10
103.1368003939
 20
113.9022095782
 30
0.0
 11
0.0
 21
30.3
 31
0.0
 40
0.3263886165
 41
-3.2240313009
 42
-3.2145229184
  0
ELLIPSE
  5
70E
100
AcDbEntity
  8
0
100
AcDbEllipse
 62
7
  6
CONTINUOUS
 10
103.8941482721
 20
113.9022095782
 30
0.0
 11
-0.0
 21
30.0
 31
0.0
 40
0.244790762
 41
-3.1513573035
 42
-3.1415926536
  0
ELLIPSE
  5
70F
100
AcDbEntity
  8
0
100
AcDbEllipse
 62
7
  6
CONTINUOUS
 10
106.0007323751
 20
113.9022095782
 30
0.0
 11
-0.0
 21
30.0
 31
0.0
 40
0.2447921628
 41
-3.1415926536
 42
-3.1318280037
  0
ELLIPSE
  5
710
100
AcDbEntity
  8
0
100
AcDbEllipse
 62
7
  6
CONTINUOUS
 10
158.8396581407
 20
71.9022095782
 30
0.0
 11
-0.0
 21
30.3
 31
0.0
 40
0.3831521729
 41
-0.031792407
 42
-0.0
  0
ELLIPSE
  5
711
100
AcDbEntity
  8
0
100
AcDbEllipse
 62
7
  6
CONTINUOUS
 10
111.4735549507
 20
113.9022095782
 30
0.0
 11
0.0
 21
30.0
 31
0.0
 40
0.1958324999
 41
-3.2152535364
 42
-3.199261447
  0
ELLIPSE
  5
712
100
AcDbEntity
  8
0
100
AcDbEllipse
 62
7
  6
CONTINUOUS
 10
112.1221086425
 20
113.9022095782
 30
0.0
 11
-0.0
 21
30.0
 31
0.0
 40
0.4895843255
 41
-3.2280606063
 42
-3.2152535364
  0
ELLIPSE
  5
713
100
AcDbEntity
  8
0
100
AcDbEllipse
 62
7
  6
CONTINUOUS
 10
113.3905200347
 20
113.9022095782
 30
0.0
 11
-0.0
 21
30.0
 31
0.0
 40
0.9791658496
 41
-3.240881911
 42
-3.2280606063
  0
ELLIPSE
  5
714
100
AcDbEntity
  8
0
100
AcDbEllipse
 62
7
  6
CONTINUOUS
 10
116.3023497194
 20
113.9022095782
 30
0.0
 11
58.7499509752
 21
0.0
 31
0.0
 40
0.510638724
 41
-1.6765022496
 42
-1.6700855842
  0
ELLIPSE
  5
715
100
AcDbEntity
  8
0
100
AcDbEllipse
 62
7
  6
CONTINUOUS
 10
125.6003648388
 20
113.9022095782
 30
0.0
 11
146.8751295656
 21
-0.0
 31
0.0
 40
0.204255139
 41
-1.6797122045
 42
-1.6765022496
  0
ENDSEC
  0
SECTION
  2
OBJECTS
  0
DICTIONARY
  5
C
100
AcDbDictionary
280
0
281
1
  3
ACAD_GROUP
350
D
  3
ACAD_MLINESTYLE
350
17
  3
ACAD_LAYOUT
350
1A
  3
ACAD_PLOTSETTINGS
350
19
  3
ACAD_PLOTSTYLENAME
350
E
  0
DICTIONARY
  5
D
102
{ACAD_REACTORS
330
C
102
}
100
AcDbDictionary
280
0
281
1
  0
ACDBDICTIONARYWDFLT
  5
E
102
{ACAD_REACTORS
330
C
102
}
100
AcDbDictionary
281
1
  3
Normal
350
F
100
AcDbDictionaryWithDefault
340
F
  0
DICTIONARY
  5
17
102
{ACAD_REACTORS
330
C
102
}
100
AcDbDictionary
280
0
281
1
  3
Standard
350
18
  0
DICTIONARY
  5
19
102
{ACAD_REACTORS
330
C
102
}
100
AcDbDictionary
281
1
  0
DICTIONARY
  5
1A
102
{ACAD_REACTORS
330
C
102
}
100
AcDbDictionary
281
1
  3
Model
350
716
  3
Layout1
350
717
  0
ACDBPLACEHOLDER
  5
F
102
{ACAD_REACTORS
330
E
102
}
  0
MLINESTYLE
  5
18
102
{ACAD_REACTORS
330
17
102
}
100
AcDbMlineStyle
  2
STANDARD
 70
0
  3

 62
256
 51
90.0
 52
90.0
 71
2
 49
0.5
 62
256
  6
BYLAYER
 49
-0.5
 62
256
  6
BYLAYER
  0
LAYOUT
  5
716
102
{ACAD_REACTORS
330
1A
102
}
100
AcDbPlotSettings
  1

  2
none_device
  4
ISO_A3_(420.00_x_297.00_MM)
  6

 40
0.0
 41
0.0
 42
0.0
 43
0.0
 44
420.0
 45
297.0
 46
0.0
 47
0.0
 48
0.0
 49
0.0
140
0.0
141
0.0
142
1.0
143
1.0
 70
1024
 72
1
 73
0
 74
0
  7

 75
0
147
1.0
148
0.0
149
0.0
100
AcDbLayout
  1
Model
 70
0
 71
0
 10
0.0
 20
0.0
 11
420.0
 21
297.0
 12
0.0
 22
0.0
 32
0.0
 14
0.0
 24
0.0
 34
0.0
 15
0.0
 25
0.0
 35
0.0
146
0.0
 13
0.0
 23
0.0
 33
0.0
 16
1.0
 26
0.0
 36
0.0
 17
0.0
 27
1.0
 37
0.0
 76
0
330
20F
345
0
346
0
  0
LAYOUT
  5
717
102
{ACAD_REACTORS
330
1A
102
}
100
AcDbPlotSettings
  1

  2
none_device
  4
ISO_A3_(420.00_x_297.00_MM)
  6

 40
0.0
 41
0.0
 42
0.0
 43
0.0
 44
420.0
 45
297.0
 46
0.0
 47
0.0
 48
0.0
 49
0.0
140
0.0
141
0.0
142
1.0
143
1.0
 70
0
 72
1
 73
0
 74
0
  7

 75
0
147
1.0
148
0.0
149
0.0
100
AcDbLayout
  1
Layout1
 70
0
 71
1
 10
0.0
 20
0.0
 11
420.0
 21
297.0
 12
0.0
 22
0.0
 32
0.0
 14
0.0
 24
0.0
 34
0.0
 15
0.0
 25
0.0
 35
0.0
146
0.0
 13
0.0
 23
0.0
 33
0.0
 16
1.0
 26
0.0
 36
0.0
 17
0.0
 27
1.0
 37
0.0
 76
0
330
210
345
0
346
0
  0
ENDSEC
  0
EOF
