999
DXF file: 001-m35249-p-1.dxf
999
Pro/ENGINEER 2011490 by Parametric Technology Corporation
  0
SECTION
  2
HEADER
  9
$ACADVER
  1
AC1015
  9
$DWGCODEPAGE
  3
ANSI_1252
  9
$EXTMAX
 10
841.0
 20
594.0
 30
0.0
  9
$EXTMIN
 10
0.0
 20
0.0
 30
0.0
  9
$LIMMIN
 10
0.0
 20
0.0
  9
$LIMMAX
 10
841.0
 20
594.0
  9
$VIEWCTR
 10
420.5
 20
297.0
  9
$VIEWSIZE
 40
594.0
  9
$CLAYER
  8
0
  9
$LTSCALE
 40
46.255
  9
$CELTYPE
  6
BYLAYER
  9
$DIMSCALE
 40
1.0
  9
$DIMASZ
 40
3.5
  9
$DIMEXO
 40
5.25625
  9
$DIMDLI
 40
31.958
  9
$DIMEXE
 40
15.138
  9
$DIMCEN
 40
7.569
  9
$DIMLFAC
 40
1.0
  9
$DIMBLK
  1
_FILLED
  9
$DIMTXT
 40
3.5
  9
$DIMTOL
 70
1
  9
$DIMLIM
 70
0
  9
$DIMTFAC
 40
1.0
  9
$DIMTP
 40
0.005
  9
$DIMTM
 40
0.005
  9
$PDMODE
 70
3
  9
$PDSIZE
 40
0.3125
  9
$HANDSEED
  5
4CB
  9
$TILEMODE
 70
1
  9
$MEASUREMENT
 70
1
  9
$INSUNITS
 70
4
  0
ENDSEC
  0
SECTION
  2
CLASSES
  0
CLASS
  1
ACDBDICTIONARYWDFLT
  2
AcDbDictionaryWithDefault
  3
AutoCAD 2000
 90
0
280
0
281
0
  0
CLASS
  1
ACDBPLACEHOLDER
  2
AcDbPlaceHolder
  3
AutoCAD 2000
 90
0
280
0
281
0
  0
CLASS
  1
LAYOUT
  2
AcDbLayout
  3
AutoCAD 2000
 90
0
280
0
281
0
  0
ENDSEC
  0
SECTION
  2
TABLES
  0
TABLE
  2
VPORT
  5
8
100
AcDbSymbolTable
 70
2
  0
VPORT
  5
1F4
100
AcDbSymbolTableRecord
100
AcDbViewportTableRecord
  2
*ACTIVE
 70
0
 10
0.0
 20
0.0
 11
1.0
 21
1.0
 12
420.5
 22
297.0
 13
0.0
 23
0.0
 14
1.0
 24
1.0
 15
0.0
 25
0.0
 16
0.0
 26
0.0
 36
1.0
 17
0.0
 27
0.0
 37
0.0
 40
594.0
 41
1.4158249158
 42
50.0
 43
0.0
 44
0.0
 50
0.0
 51
0.0
 71
0
 72
100
 73
1
 74
1
 75
0
 76
0
 77
0
 78
0
  0
ENDTAB
  0
TABLE
  2
LTYPE
  5
5
100
AcDbSymbolTable
 70
6
  0
LTYPE
  5
14
100
AcDbSymbolTableRecord
100
AcDbLinetypeTableRecord
  2
BYBLOCK
 70
0
  3

 72
65
 73
0
 40
0.0
  0
LTYPE
  5
15
100
AcDbSymbolTableRecord
100
AcDbLinetypeTableRecord
  2
BYLAYER
 70
0
  3

 72
65
 73
0
 40
0.0
  0
LTYPE
  5
16
100
AcDbSymbolTableRecord
100
AcDbLinetypeTableRecord
  2
CONTINUOUS
 70
64
  3
Solid line
 72
65
 73
0
 40
0.0
  0
LTYPE
  5
1F5
100
AcDbSymbolTableRecord
100
AcDbLinetypeTableRecord
  2
CENTER
 70
64
  3
____ _ ____ _ ____ _ ____ _ ____ _ ____ _ ____
 72
65
 73
4
 40
0.6
 49
0.375
 74
0
 49
-0.075
 74
0
 49
0.075
 74
0
 49
-0.075
 74
0
  0
LTYPE
  5
1F6
100
AcDbSymbolTableRecord
100
AcDbLinetypeTableRecord
  2
HIDDEN
 70
64
  3
- - - - - - - - - - - - - - - - - - - -
 72
65
 73
2
 40
0.2
 49
0.1
 74
0
 49
-0.1
 74
0
  0
LTYPE
  5
1F7
100
AcDbSymbolTableRecord
100
AcDbLinetypeTableRecord
  2
PHANTOM
 70
64
  3
_____ _ _ _____ _ _ _____ _ _ _____
 72
65
 73
6
 40
0.8
 49
0.45
 74
0
 49
-0.05
 74
0
 49
0.1
 74
0
 49
-0.05
 74
0
 49
0.1
 74
0
 49
-0.05
 74
0
  0
LTYPE
  5
1F8
100
AcDbSymbolTableRecord
100
AcDbLinetypeTableRecord
  2
DOT
 70
64
  3
. . . . . . . . . . . . . . . . . . . .
 72
65
 73
2
 40
0.2
 49
0.1
 74
0
 49
-0.1
 74
0
  0
LTYPE
  5
1F9
100
AcDbSymbolTableRecord
100
AcDbLinetypeTableRecord
  2
DASHED
 70
64
  3
- - - - - - - - - - - - - - - - - - - -
 72
65
 73
2
 40
0.2
 49
0.1
 74
0
 49
-0.1
 74
0
  0
ENDTAB
  0
TABLE
  2
LAYER
  5
2
100
AcDbSymbolTable
 70
36
  0
LAYER
  5
10
100
AcDbSymbolTableRecord
100
AcDbLayerTableRecord
  2
0
 70
0
 62
7
  6
CONTINUOUS
370
-3
390
F
  0
LAYER
  5
1FA
100
AcDbSymbolTableRecord
100
AcDbLayerTableRecord
  2
DEFAULT_1
 70
0
 62
7
  6
CENTER
370
-3
390
F
  0
LAYER
  5
1FB
100
AcDbSymbolTableRecord
100
AcDbLayerTableRecord
  2
DEFAULT_2
 70
0
 62
8
  6
HIDDEN
370
-3
390
F
  0
LAYER
  5
1FC
100
AcDbSymbolTableRecord
100
AcDbLayerTableRecord
  2
DEFAULT_3
 70
0
 62
7
  6
PHANTOM
370
-3
390
F
  0
LAYER
  5
1FD
100
AcDbSymbolTableRecord
100
AcDbLayerTableRecord
  2
AUSFORMSCHRAEGEN
 70
0
 62
7
  6
CONTINUOUS
370
-3
390
F
  0
LAYER
  5
1FE
100
AcDbSymbolTableRecord
100
AcDbLayerTableRecord
  2
BEZUGSACHSEN
 70
0
 62
7
  6
CONTINUOUS
370
-3
390
F
  0
LAYER
  5
1FF
100
AcDbSymbolTableRecord
100
AcDbLayerTableRecord
  2
BEZUGSEBENEN
 70
0
 62
7
  6
CONTINUOUS
370
-3
390
F
  0
LAYER
  5
200
100
AcDbSymbolTableRecord
100
AcDbLayerTableRecord
  2
BG_STARTBEZUEGE
 70
0
 62
7
  6
CONTINUOUS
370
-3
390
F
  0
LAYER
  5
201
100
AcDbSymbolTableRecord
100
AcDbLayerTableRecord
  2
FASEN
 70
0
 62
7
  6
CONTINUOUS
370
-3
390
F
  0
LAYER
  5
202
100
AcDbSymbolTableRecord
100
AcDbLayerTableRecord
  2
FLAECHEN
 70
0
 62
7
  6
CONTINUOUS
370
-3
390
F
  0
LAYER
  5
203
100
AcDbSymbolTableRecord
100
AcDbLayerTableRecord
  2
HILFEN
 70
0
 62
7
  6
CONTINUOUS
370
-3
390
F
  0
LAYER
  5
204
100
AcDbSymbolTableRecord
100
AcDbLayerTableRecord
  2
KURVEN
 70
0
 62
7
  6
CONTINUOUS
370
-3
390
F
  0
LAYER
  5
205
100
AcDbSymbolTableRecord
100
AcDbLayerTableRecord
  2
NORM
 70
0
 62
7
  6
CONTINUOUS
370
-3
390
F
  0
LAYER
  5
206
100
AcDbSymbolTableRecord
100
AcDbLayerTableRecord
  2
PLATZIERUNG
 70
0
 62
7
  6
CONTINUOUS
370
-3
390
F
  0
LAYER
  5
207
100
AcDbSymbolTableRecord
100
AcDbLayerTableRecord
  2
RUNDUNGEN
 70
0
 62
7
  6
CONTINUOUS
370
-3
390
F
  0
LAYER
  5
208
100
AcDbSymbolTableRecord
100
AcDbLayerTableRecord
  2
T_STARTBEZUEGE
 70
0
 62
7
  6
CONTINUOUS
370
-3
390
F
  0
LAYER
  5
209
100
AcDbSymbolTableRecord
100
AcDbLayerTableRecord
  2
ZEICHNUNGSBEMASSUNGEN
 70
0
 62
7
  6
CONTINUOUS
370
-3
390
F
  0
ENDTAB
  0
TABLE
  2
STYLE
  5
3
100
AcDbSymbolTable
 70
1
  0
STYLE
  5
11
100
AcDbSymbolTableRecord
100
AcDbTextStyleTableRecord
  2
STANDARD
 70
0
 40
0.0
 41
0.7
 50
0.0
 71
0
 42
0.2
  3
txt
  4

  0
STYLE
  5
20A
100
AcDbSymbolTableRecord
100
AcDbTextStyleTableRecord
  2
TEXTSTYLE_1
 70
0
 40
0.0
 41
0.8
 50
0.0
 71
0
 42
0.2
  3
gdt
  4

  0
ENDTAB
  0
TABLE
  2
VIEW
  5
6
100
AcDbSymbolTable
 70
0
  0
ENDTAB
  0
TABLE
  2
UCS
  5
7
100
AcDbSymbolTable
 70
0
  0
ENDTAB
  0
TABLE
  2
APPID
  5
9
100
AcDbSymbolTable
 70
1
  0
APPID
  5
20B
100
AcDbSymbolTableRecord
100
AcDbRegAppTableRecord
  2
ACAD
 70
0
  0
ENDTAB
  0
TABLE
  2
BLOCK_RECORD
  5
1
100
AcDbSymbolTable
 70
0
  0
BLOCK_RECORD
  5
20C
100
AcDbSymbolTableRecord
100
AcDbBlockTableRecord
  2
*Model_Space
  0
BLOCK_RECORD
  5
20D
100
AcDbSymbolTableRecord
100
AcDbBlockTableRecord
  2
*Paper_Space
  0
ENDTAB
  0
TABLE
  2
DIMSTYLE
  5
A
100
AcDbSymbolTable
 70
1
100
AcDbDimStyleTable
 71
0
  0
DIMSTYLE
105
20E
100
AcDbSymbolTableRecord
100
AcDbDimStyleTableRecord
  2
STANDARD
 70
0
  3

  4

 40
1.0
 41
3.5
 42
0.0625
 43
0.38
 44
0.18
 45
0.0
 46
0.0
 47
0.005
 48
0.005
140
3.5
141
0.09
142
0.0
143
25.4
144
1.0
145
0.0
146
1.0
147
0.09
 71
1.0
 72
0.0
 73
0
 74
0
 75
0
 76
0
 77
1
 78
8
170
0
171
2
172
0
173
0
174
0
175
0
176
0
177
0
178
5
270
2
271
3
272
3
273
2
274
2
275
0
280
0
281
0
282
0
283
1
284
8
285
0
286
0
287
3
288
0
340
11
  0
ENDTAB
  0
ENDSEC
  0
SECTION
  2
BLOCKS
  0
BLOCK
  5
20
100
AcDbEntity
  8
0
100
AcDbBlockBegin
  2
*Model_Space
 70
0
 10
0.0
 20
0.0
 30
0.0
  3
*Model_Space
  1

  0
ENDBLK
  5
21
100
AcDbEntity
  8
0
100
AcDbBlockEnd
  0
BLOCK
  5
1C
100
AcDbEntity
  8
0
100
AcDbBlockBegin
  2
*Paper_Space
 70
0
 10
0.0
 20
0.0
 30
0.0
  3
*Paper_Space
  1

  0
ENDBLK
  5
1D
100
AcDbEntity
  8
0
100
AcDbBlockEnd
  0
ENDSEC
  0
SECTION
  2
ENTITIES
  0
MTEXT
  5
20F
100
AcDbEntity
  8
0
100
AcDbMText
 62
5
  6
CONTINUOUS
  7
STANDARD
 71
1
 72
1
 10
678.1537828947
 20
430.1840460526
 30
0.0
 11
0.0
 21
1.0
 31
0.0
 44
0.9
  1
VRBK-FIX 31,5t
 40
10.0
 41
102.380952381
  0
MTEXT
  5
210
100
AcDbEntity
  8
0
100
AcDbMText
 62
5
  6
CONTINUOUS
  7
STANDARD
 71
1
 72
1
 10
235.2211354858
 20
531.712375659
 30
0.0
 11
1.0
 21
0.0
 31
0.0
 44
0.9
  1
VRBK-FIX 31,5t
 40
10.0
 41
102.380952381
  0
MTEXT
  5
211
100
AcDbEntity
  8
0
100
AcDbMText
 62
5
  6
CONTINUOUS
  7
STANDARD
 71
1
 72
1
 10
213.7995423513
 20
99.0762534769
 30
0.0
 11
1.0
 21
0.0
 31
0.0
 44
0.9
  1
RUD VRBK-FIX 31,5t
 40
10.0
 41
135.0
  0
LINE
  5
212
100
AcDbEntity
  8
0
100
AcDbLine
 62
7
  6
CONTINUOUS
 10
0.0
 20
0.0
 11
0.0
 21
594.0
  0
LINE
  5
213
100
AcDbEntity
  8
0
100
AcDbLine
 62
7
  6
CONTINUOUS
 10
0.0
 20
0.0
 11
841.0
 21
0.0
  0
LINE
  5
214
100
AcDbEntity
  8
0
100
AcDbLine
 62
7
  6
CONTINUOUS
 10
0.0
 20
594.0
 11
841.0
 21
594.0
  0
LINE
  5
215
100
AcDbEntity
  8
0
100
AcDbLine
 62
7
  6
CONTINUOUS
 10
841.0
 20
0.0
 11
841.0
 21
594.0
  0
LINE
  5
216
100
AcDbEntity
  8
RUNDUNGEN
100
AcDbLine
 62
7
  6
CONTINUOUS
 10
82.0671140112
 20
266.3750691093
 11
82.0671140112
 21
363.8344845695
  0
LINE
  5
217
100
AcDbEntity
  8
BEZUGSACHSEN
100
AcDbLine
 62
7
  6
CONTINUOUS
 10
82.0671140112
 20
363.8344845695
 11
82.0671140112
 21
416.8344845695
  0
LINE
  5
218
100
AcDbEntity
  8
BEZUGSACHSEN
100
AcDbLine
 62
7
  6
CONTINUOUS
 10
477.0671140112
 20
266.3750691093
 11
395.0671054155
 21
266.3750691093
  0
LINE
  5
219
100
AcDbEntity
  8
RUNDUNGEN
100
AcDbLine
 62
7
  6
CONTINUOUS
 10
164.0671226069
 20
266.3750691093
 11
82.0671140112
 21
266.3750691093
  0
LINE
  5
21A
100
AcDbEntity
  8
BEZUGSACHSEN
100
AcDbLine
 62
7
  6
CONTINUOUS
 10
206.9681558831
 20
527.7630114987
 11
276.5056465523
 21
556.5663832272
  0
LINE
  5
21B
100
AcDbEntity
  8
BEZUGSACHSEN
100
AcDbLine
 62
7
  6
CONTINUOUS
 10
173.3446276965
 20
452.7115686535
 11
202.638587082
 21
523.4334426975
  0
LINE
  5
21C
100
AcDbEntity
  8
BEZUGSACHSEN
100
AcDbLine
 62
7
  6
CONTINUOUS
 10
178.7450223266
 20
392.0556132921
 11
172.7794887936
 21
448.8138734884
  0
LINE
  5
21D
100
AcDbEntity
  8
BEZUGSACHSEN
100
AcDbLine
 62
7
  6
CONTINUOUS
 10
172.0671140112
 20
416.8344845695
 11
172.0671140112
 21
363.8344845695
  0
LINE
  5
21E
100
AcDbEntity
  8
RUNDUNGEN
100
AcDbLine
 62
7
  6
CONTINUOUS
 10
172.0671140112
 20
363.8344845695
 11
172.0671140112
 21
323.3958843895
  0
LINE
  5
21F
100
AcDbEntity
  8
0
100
AcDbLine
 62
7
  6
CONTINUOUS
 10
172.0671140112
 20
323.3958843895
 11
172.0671140112
 21
311.7453236663
  0
LINE
  5
220
100
AcDbEntity
  8
RUNDUNGEN
100
AcDbLine
 62
7
  6
CONTINUOUS
 10
178.2924604177
 20
386.7011114424
 11
178.7025131432
 21
389.6187881903
  0
LINE
  5
221
100
AcDbEntity
  8
BEZUGSACHSEN
100
AcDbLine
 62
7
  6
CONTINUOUS
 10
178.2581690895
 20
386.4571159641
 11
178.702484253
 21
389.6185826256
  0
LINE
  5
222
100
AcDbEntity
  8
0
100
AcDbLine
 62
7
  6
CONTINUOUS
 10
195.0571140112
 20
385.3544845695
 11
195.0571140112
 21
373.3544845695
  0
LINE
  5
223
100
AcDbEntity
  8
0
100
AcDbLine
 62
7
  6
CONTINUOUS
 10
196.5571140112
 20
373.3544845695
 11
196.5571140112
 21
378.7161867732
  0
LINE
  5
224
100
AcDbEntity
  8
0
100
AcDbLine
 62
7
  6
CONTINUOUS
 10
196.5571140112
 20
380.2481014842
 11
196.5571140112
 21
384.077888977
  0
LINE
  5
225
100
AcDbEntity
  8
0
100
AcDbLine
 62
7
  6
CONTINUOUS
 10
164.0671140179
 20
266.3750691472
 11
172.0671140112
 21
311.7453236663
  0
LINE
  5
226
100
AcDbEntity
  8
0
100
AcDbLine
 62
7
  6
CONTINUOUS
 10
206.8071142496
 20
376.1629952306
 11
207.307114488
 21
375.1417185778
  0
LINE
  5
227
100
AcDbEntity
  8
0
100
AcDbLine
 62
7
  6
CONTINUOUS
 10
204.5571142496
 20
373.3544845695
 11
202.3071142496
 21
379.2268250102
  0
LINE
  5
228
100
AcDbEntity
  8
0
100
AcDbLine
 62
7
  6
CONTINUOUS
 10
200.807113892
 20
378.7161867732
 11
202.8071137728
 21
373.3544845695
  0
LINE
  5
229
100
AcDbEntity
  8
0
100
AcDbLine
 62
7
  6
CONTINUOUS
 10
202.5571140112
 20
383.3119316215
 11
202.8071137728
 21
382.545974266
  0
LINE
  5
22A
100
AcDbEntity
  8
0
100
AcDbLine
 62
7
  6
CONTINUOUS
 10
204.3071137728
 20
382.545974266
 11
204.0571140112
 21
383.3119316215
  0
LINE
  5
22B
100
AcDbEntity
  8
0
100
AcDbLine
 62
7
  6
CONTINUOUS
 10
202.8071137728
 20
382.545974266
 11
202.8071137728
 21
381.7800161952
  0
LINE
  5
22C
100
AcDbEntity
  8
0
100
AcDbLine
 62
7
  6
CONTINUOUS
 10
204.3071137728
 20
381.5246970767
 11
204.3071137728
 21
382.545974266
  0
LINE
  5
22D
100
AcDbEntity
  8
0
100
AcDbLine
 62
7
  6
CONTINUOUS
 10
206.5571137728
 20
385.3544845695
 11
206.5571137728
 21
377.4395908231
  0
LINE
  5
22E
100
AcDbEntity
  8
0
100
AcDbLine
 62
7
  6
CONTINUOUS
 10
208.057114488
 20
377.4395908231
 11
208.057114488
 21
385.3544845695
  0
LINE
  5
22F
100
AcDbEntity
  8
0
100
AcDbLine
 62
7
  6
CONTINUOUS
 10
214.057114488
 20
385.3544845695
 11
214.057114488
 21
377.4395908231
  0
LINE
  5
230
100
AcDbEntity
  8
0
100
AcDbLine
 62
7
  6
CONTINUOUS
 10
215.557114488
 20
377.4395908231
 11
215.557114488
 21
385.3544845695
  0
LINE
  5
231
100
AcDbEntity
  8
0
100
AcDbLine
 62
7
  6
CONTINUOUS
 10
202.8071137728
 20
381.7800161952
 11
202.5571140112
 21
381.0140588397
  0
LINE
  5
232
100
AcDbEntity
  8
RUNDUNGEN
100
AcDbLine
 62
7
  6
CONTINUOUS
 10
378.0849543726
 20
340.8344845695
 11
181.0492736265
 21
340.8344845695
  0
LINE
  5
233
100
AcDbEntity
  8
BEZUGSACHSEN
100
AcDbLine
 62
7
  6
CONTINUOUS
 10
172.0671140112
 20
340.8344845695
 11
181.049273923
 21
340.8344845695
  0
LINE
  5
234
100
AcDbEntity
  8
BEZUGSACHSEN
100
AcDbLine
 62
7
  6
CONTINUOUS
 10
378.0849540994
 20
340.8344845695
 11
387.0671140112
 21
340.8344845695
  0
LINE
  5
235
100
AcDbEntity
  8
0
100
AcDbLine
 62
7
  6
CONTINUOUS
 10
208.3071135344
 20
374.1204420144
 11
209.3071140112
 21
373.6098037103
  0
LINE
  5
236
100
AcDbEntity
  8
0
100
AcDbLine
 62
7
  6
CONTINUOUS
 10
209.557114488
 20
375.1417185778
 11
208.807114488
 21
375.6523569936
  0
LINE
  5
237
100
AcDbEntity
  8
0
100
AcDbLine
 62
7
  6
CONTINUOUS
 10
203.3071140112
 20
384.3332080955
 11
202.3071142496
 21
385.099165451
  0
LINE
  5
238
100
AcDbEntity
  8
0
100
AcDbLine
 62
7
  6
CONTINUOUS
 10
207.307114488
 20
375.1417185778
 11
208.3071135344
 21
374.1204420144
  0
LINE
  5
239
100
AcDbEntity
  8
0
100
AcDbLine
 62
7
  6
CONTINUOUS
 10
202.0571137728
 20
383.8225698585
 11
202.5571140112
 21
383.3119316215
  0
LINE
  5
23A
100
AcDbEntity
  8
0
100
AcDbLine
 62
7
  6
CONTINUOUS
 10
204.0571140112
 20
383.3119316215
 11
203.3071140112
 21
384.3332080955
  0
LINE
  5
23B
100
AcDbEntity
  8
0
100
AcDbLine
 62
7
  6
CONTINUOUS
 10
208.807114488
 20
375.6523569936
 11
208.3071135344
 21
376.4183143491
  0
LINE
  5
23C
100
AcDbEntity
  8
0
100
AcDbLine
 62
7
  6
CONTINUOUS
 10
208.3071135344
 20
376.4183143491
 11
208.057114488
 21
377.4395908231
  0
LINE
  5
23D
100
AcDbEntity
  8
0
100
AcDbLine
 62
7
  6
CONTINUOUS
 10
206.5571137728
 20
377.4395908231
 11
206.8071142496
 21
376.1629952306
  0
LINE
  5
23E
100
AcDbEntity
  8
0
100
AcDbLine
 62
7
  6
CONTINUOUS
 10
217.5571140112
 20
385.3544845695
 11
217.5571140112
 21
373.3544845695
  0
LINE
  5
23F
100
AcDbEntity
  8
0
100
AcDbLine
 62
7
  6
CONTINUOUS
 10
219.0571140112
 20
374.8863994593
 11
219.0571140112
 21
383.8225698585
  0
LINE
  5
240
100
AcDbEntity
  8
0
100
AcDbLine
 62
7
  6
CONTINUOUS
 10
226.0571130575
 20
381.2693779582
 11
226.0571130575
 21
377.4395908231
  0
LINE
  5
241
100
AcDbEntity
  8
0
100
AcDbLine
 62
7
  6
CONTINUOUS
 10
227.5571130575
 20
377.4395908231
 11
227.5571130575
 21
381.2693779582
  0
LINE
  5
242
100
AcDbEntity
  8
0
100
AcDbLine
 62
7
  6
CONTINUOUS
 10
215.3071140112
 20
376.1629952306
 11
215.557114488
 21
377.4395908231
  0
LINE
  5
243
100
AcDbEntity
  8
0
100
AcDbLine
 62
7
  6
CONTINUOUS
 10
214.057114488
 20
377.4395908231
 11
213.8071140112
 21
376.4183143491
  0
LINE
  5
244
100
AcDbEntity
  8
0
100
AcDbLine
 62
7
  6
CONTINUOUS
 10
204.0571140112
 20
380.7587397212
 11
204.3071137728
 21
381.5246970767
  0
LINE
  5
245
100
AcDbEntity
  8
BEZUGSACHSEN
100
AcDbLine
 62
7
  6
CONTINUOUS
 10
315.727368049
 20
354.847651589
 11
243.4068599733
 21
354.847651589
  0
LINE
  5
246
100
AcDbEntity
  8
0
100
AcDbLine
 62
7
  6
CONTINUOUS
 10
272.2106973387
 20
359.8344845695
 11
274.900446818
 21
359.8344845695
  0
LINE
  5
247
100
AcDbEntity
  8
0
100
AcDbLine
 62
7
  6
CONTINUOUS
 10
280.2609349944
 20
359.8344845695
 11
281.8101543642
 21
359.8344845695
  0
LINE
  5
248
100
AcDbEntity
  8
0
100
AcDbLine
 62
7
  6
CONTINUOUS
 10
283.1122585989
 20
362.6858083827
 11
280.2609349944
 21
362.6858083827
  0
LINE
  5
249
100
AcDbEntity
  8
0
100
AcDbLine
 62
7
  6
CONTINUOUS
 10
288.3872074343
 20
363.5221966428
 11
285.6309293963
 21
363.5221966428
  0
LINE
  5
24A
100
AcDbEntity
  8
0
100
AcDbLine
 62
7
  6
CONTINUOUS
 10
259.7028906204
 20
364.0829571409
 11
256.946610757
 21
364.0829571409
  0
LINE
  5
24B
100
AcDbEntity
  8
0
100
AcDbLine
 62
7
  6
CONTINUOUS
 10
209.3071140112
 20
373.6098037103
 11
210.5571135344
 21
373.3544845695
  0
LINE
  5
24C
100
AcDbEntity
  8
0
100
AcDbLine
 62
7
  6
CONTINUOUS
 10
210.5571135344
 20
374.8863994593
 11
209.557114488
 21
375.1417185778
  0
LINE
  5
24D
100
AcDbEntity
  8
0
100
AcDbLine
 62
7
  6
CONTINUOUS
 10
201.3071137728
 20
384.077888977
 11
202.0571137728
 21
383.8225698585
  0
LINE
  5
24E
100
AcDbEntity
  8
0
100
AcDbLine
 62
7
  6
CONTINUOUS
 10
225.8071140112
 20
384.588527214
 11
224.8071149649
 21
385.099165451
  0
LINE
  5
24F
100
AcDbEntity
  8
0
100
AcDbLine
 62
7
  6
CONTINUOUS
 10
224.5571130575
 20
383.56725074
 11
225.3071130575
 21
383.056612503
  0
LINE
  5
250
100
AcDbEntity
  8
0
100
AcDbLine
 62
7
  6
CONTINUOUS
 10
226.8071130575
 20
383.56725074
 11
225.8071140112
 21
384.588527214
  0
LINE
  5
251
100
AcDbEntity
  8
0
100
AcDbLine
 62
7
  6
CONTINUOUS
 10
225.3071130575
 20
383.056612503
 11
225.8071140112
 21
382.2906544322
  0
LINE
  5
252
100
AcDbEntity
  8
0
100
AcDbLine
 62
7
  6
CONTINUOUS
 10
227.3071140112
 20
382.545974266
 11
226.8071130575
 21
383.56725074
  0
LINE
  5
253
100
AcDbEntity
  8
0
100
AcDbLine
 62
7
  6
CONTINUOUS
 10
225.8071140112
 20
382.2906544322
 11
226.0571130575
 21
381.2693779582
  0
LINE
  5
254
100
AcDbEntity
  8
0
100
AcDbLine
 62
7
  6
CONTINUOUS
 10
227.5571130575
 20
381.2693779582
 11
227.3071140112
 21
382.545974266
  0
LINE
  5
255
100
AcDbEntity
  8
BEZUGSACHSEN
100
AcDbLine
 62
7
  6
CONTINUOUS
 10
238.6030123961
 20
364.3344845695
 11
238.6030123961
 21
385.5877266347
  0
LINE
  5
256
100
AcDbEntity
  8
0
100
AcDbLine
 62
7
  6
CONTINUOUS
 10
227.3071140112
 20
376.1629952306
 11
227.5571130575
 21
377.4395908231
  0
LINE
  5
257
100
AcDbEntity
  8
0
100
AcDbLine
 62
7
  6
CONTINUOUS
 10
226.0571130575
 20
377.4395908231
 11
225.8071140112
 21
376.4183143491
  0
LINE
  5
258
100
AcDbEntity
  8
0
100
AcDbLine
 62
7
  6
CONTINUOUS
 10
214.807114488
 20
375.1417185778
 11
215.3071140112
 21
376.1629952306
  0
LINE
  5
259
100
AcDbEntity
  8
0
100
AcDbLine
 62
7
  6
CONTINUOUS
 10
226.8071130575
 20
375.1417185778
 11
227.3071140112
 21
376.1629952306
  0
LINE
  5
25A
100
AcDbEntity
  8
0
100
AcDbLine
 62
7
  6
CONTINUOUS
 10
213.8071140112
 20
376.4183143491
 11
213.307114488
 21
375.6523569936
  0
LINE
  5
25B
100
AcDbEntity
  8
0
100
AcDbLine
 62
7
  6
CONTINUOUS
 10
203.3071140112
 20
379.7374632472
 11
204.0571140112
 21
380.7587397212
  0
LINE
  5
25C
100
AcDbEntity
  8
0
100
AcDbLine
 62
7
  6
CONTINUOUS
 10
202.5571140112
 20
381.0140588397
 11
202.0571137728
 21
380.5034206027
  0
LINE
  5
25D
100
AcDbEntity
  8
0
100
AcDbLine
 62
7
  6
CONTINUOUS
 10
260.3967124082
 20
365.850777976
 11
260.8054025032
 21
365.850777976
  0
LINE
  5
25E
100
AcDbEntity
  8
0
100
AcDbLine
 62
7
  6
CONTINUOUS
 10
260.985986159
 20
367.818191163
 11
260.3967124082
 21
367.818191163
  0
LINE
  5
25F
100
AcDbEntity
  8
0
100
AcDbLine
 62
7
  6
CONTINUOUS
 10
296.3614119746
 20
368.0177843494
 11
297.7775692202
 21
368.0177843494
  0
LINE
  5
260
100
AcDbEntity
  8
0
100
AcDbLine
 62
7
  6
CONTINUOUS
 10
300.4958290316
 20
368.0177843494
 11
302.1876167513
 21
368.0177843494
  0
LINE
  5
261
100
AcDbEntity
  8
0
100
AcDbLine
 62
7
  6
CONTINUOUS
 10
269.0742412068
 20
369.167818181
 11
272.2106973387
 21
369.167818181
  0
LINE
  5
262
100
AcDbEntity
  8
0
100
AcDbLine
 62
7
  6
CONTINUOUS
 10
257.1366990216
 20
369.2343484086
 11
259.6363595582
 21
369.2343484086
  0
LINE
  5
263
100
AcDbEntity
  8
0
100
AcDbLine
 62
7
  6
CONTINUOUS
 10
302.1876167513
 20
370.0517285985
 11
300.4958290316
 21
370.0517285985
  0
LINE
  5
264
100
AcDbEntity
  8
0
100
AcDbLine
 62
7
  6
CONTINUOUS
 10
297.7775692202
 20
370.0517285985
 11
296.3614119746
 21
370.0517285985
  0
LINE
  5
265
100
AcDbEntity
  8
0
100
AcDbLine
 62
7
  6
CONTINUOUS
 10
288.871934817
 20
370.9831609649
 11
294.5460666872
 21
370.9831609649
  0
LINE
  5
266
100
AcDbEntity
  8
0
100
AcDbLine
 62
7
  6
CONTINUOUS
 10
300.4958290316
 20
372.7985037488
 11
297.7775692202
 21
372.7985037488
  0
LINE
  5
267
100
AcDbEntity
  8
0
100
AcDbLine
 62
7
  6
CONTINUOUS
 10
195.0571140112
 20
373.3544845695
 11
196.5571140112
 21
373.3544845695
  0
LINE
  5
268
100
AcDbEntity
  8
0
100
AcDbLine
 62
7
  6
CONTINUOUS
 10
202.8071137728
 20
373.3544845695
 11
204.5571142496
 21
373.3544845695
  0
LINE
  5
269
100
AcDbEntity
  8
0
100
AcDbLine
 62
7
  6
CONTINUOUS
 10
210.5571135344
 20
373.3544845695
 11
211.5571140112
 21
373.3544845695
  0
LINE
  5
26A
100
AcDbEntity
  8
0
100
AcDbLine
 62
7
  6
CONTINUOUS
 10
217.5571140112
 20
373.3544845695
 11
223.5571140112
 21
373.3544845695
  0
LINE
  5
26B
100
AcDbEntity
  8
0
100
AcDbLine
 62
7
  6
CONTINUOUS
 10
294.5460666872
 20
373.3592642469
 11
287.0565895297
 21
373.3592642469
  0
LINE
  5
26C
100
AcDbEntity
  8
0
100
AcDbLine
 62
7
  6
CONTINUOUS
 10
274.900446818
 20
373.3592642469
 11
272.7999715067
 21
373.3592642469
  0
LINE
  5
26D
100
AcDbEntity
  8
0
100
AcDbLine
 62
7
  6
CONTINUOUS
 10
351.75113923
 20
373.8917922151
 11
355.0571140112
 21
373.8917922151
  0
LINE
  5
26E
100
AcDbEntity
  8
0
100
AcDbLine
 62
7
  6
CONTINUOUS
 10
223.5571140112
 20
374.8863994593
 11
219.0571140112
 21
374.8863994593
  0
LINE
  5
26F
100
AcDbEntity
  8
0
100
AcDbLine
 62
7
  6
CONTINUOUS
 10
211.5571140112
 20
374.8863994593
 11
210.5571135344
 21
374.8863994593
  0
LINE
  5
270
100
AcDbEntity
  8
0
100
AcDbLine
 62
7
  6
CONTINUOUS
 10
355.0571140112
 20
375.5844845695
 11
351.7451963036
 21
375.5844845695
  0
LINE
  5
271
100
AcDbEntity
  8
0
100
AcDbLine
 62
7
  6
CONTINUOUS
 10
196.5571140112
 20
378.7161867732
 11
200.807113892
 21
378.7161867732
  0
LINE
  5
272
100
AcDbEntity
  8
0
100
AcDbLine
 62
7
  6
CONTINUOUS
 10
201.3071137728
 20
380.2481014842
 11
196.5571140112
 21
380.2481014842
  0
LINE
  5
273
100
AcDbEntity
  8
0
100
AcDbLine
 62
7
  6
CONTINUOUS
 10
286.0586261012
 20
365.8317688627
 11
288.4442347743
 21
365.7272204084
  0
LINE
  5
274
100
AcDbEntity
  8
0
100
AcDbLine
 62
7
  6
CONTINUOUS
 10
202.3071142496
 20
385.099165451
 11
201.0571140112
 21
385.3544845695
  0
LINE
  5
275
100
AcDbEntity
  8
0
100
AcDbLine
 62
7
  6
CONTINUOUS
 10
224.8071149649
 20
385.099165451
 11
223.5571140112
 21
385.3544845695
  0
LINE
  5
276
100
AcDbEntity
  8
0
100
AcDbLine
 62
7
  6
CONTINUOUS
 10
223.5571140112
 20
383.8225698585
 11
224.5571130575
 21
383.56725074
  0
LINE
  5
277
100
AcDbEntity
  8
0
100
AcDbLine
 62
7
  6
CONTINUOUS
 10
260.3967124082
 20
367.818191163
 11
260.3967124082
 21
365.850777976
  0
LINE
  5
278
100
AcDbEntity
  8
0
100
AcDbLine
 62
7
  6
CONTINUOUS
 10
225.8071140112
 20
376.4183143491
 11
225.3071130575
 21
375.6523569936
  0
LINE
  5
279
100
AcDbEntity
  8
0
100
AcDbLine
 62
7
  6
CONTINUOUS
 10
213.8071140112
 20
374.1204420144
 11
214.807114488
 21
375.1417185778
  0
LINE
  5
27A
100
AcDbEntity
  8
0
100
AcDbLine
 62
7
  6
CONTINUOUS
 10
224.5571130575
 20
375.1417185778
 11
223.5571140112
 21
374.8863994593
  0
LINE
  5
27B
100
AcDbEntity
  8
0
100
AcDbLine
 62
7
  6
CONTINUOUS
 10
212.557114488
 20
375.1417185778
 11
211.5571140112
 21
374.8863994593
  0
LINE
  5
27C
100
AcDbEntity
  8
0
100
AcDbLine
 62
7
  6
CONTINUOUS
 10
223.5571140112
 20
373.3544845695
 11
224.8071149649
 21
373.6098037103
  0
LINE
  5
27D
100
AcDbEntity
  8
0
100
AcDbLine
 62
7
  6
CONTINUOUS
 10
211.5571140112
 20
373.3544845695
 11
212.8071135344
 21
373.6098037103
  0
LINE
  5
27E
100
AcDbEntity
  8
0
100
AcDbLine
 62
7
  6
CONTINUOUS
 10
219.0571140112
 20
383.8225698585
 11
223.5571140112
 21
383.8225698585
  0
LINE
  5
27F
100
AcDbEntity
  8
0
100
AcDbLine
 62
7
  6
CONTINUOUS
 10
196.5571140112
 20
384.077888977
 11
201.3071137728
 21
384.077888977
  0
LINE
  5
280
100
AcDbEntity
  8
0
100
AcDbLine
 62
7
  6
CONTINUOUS
 10
223.5571140112
 20
385.3544845695
 11
217.5571140112
 21
385.3544845695
  0
LINE
  5
281
100
AcDbEntity
  8
0
100
AcDbLine
 62
7
  6
CONTINUOUS
 10
215.557114488
 20
385.3544845695
 11
214.057114488
 21
385.3544845695
  0
LINE
  5
282
100
AcDbEntity
  8
0
100
AcDbLine
 62
7
  6
CONTINUOUS
 10
208.057114488
 20
385.3544845695
 11
206.5571137728
 21
385.3544845695
  0
LINE
  5
283
100
AcDbEntity
  8
0
100
AcDbLine
 62
7
  6
CONTINUOUS
 10
201.0571140112
 20
385.3544845695
 11
195.0571140112
 21
385.3544845695
  0
LINE
  5
284
100
AcDbEntity
  8
BEZUGSACHSEN
100
AcDbLine
 62
7
  6
CONTINUOUS
 10
387.0671140112
 20
386.8344845695
 11
385.3935055283
 21
386.8344845695
  0
LINE
  5
285
100
AcDbEntity
  8
BEZUGSACHSEN
100
AcDbLine
 62
7
  6
CONTINUOUS
 10
173.740722494
 20
386.8344845695
 11
172.0671140112
 21
386.8344845695
  0
LINE
  5
286
100
AcDbEntity
  8
0
100
AcDbLine
 62
7
  6
CONTINUOUS
 10
269.0742412068
 20
371.0306829137
 11
269.0742412068
 21
369.167818181
  0
LINE
  5
287
100
AcDbEntity
  8
0
100
AcDbLine
 62
7
  6
CONTINUOUS
 10
272.2106973387
 20
369.167818181
 11
272.2106973387
 21
359.8344845695
  0
LINE
  5
288
100
AcDbEntity
  8
0
100
AcDbLine
 62
7
  6
CONTINUOUS
 10
274.900446818
 20
359.8344845695
 11
274.900446818
 21
373.3592642469
  0
LINE
  5
289
100
AcDbEntity
  8
0
100
AcDbLine
 62
7
  6
CONTINUOUS
 10
280.2609349944
 20
362.6858083827
 11
280.2609349944
 21
359.8344845695
  0
LINE
  5
28A
100
AcDbEntity
  8
0
100
AcDbLine
 62
7
  6
CONTINUOUS
 10
280.2609349944
 20
357.6294608039
 11
280.2609349944
 21
356.5459578258
  0
LINE
  5
28B
100
AcDbEntity
  8
0
100
AcDbLine
 62
7
  6
CONTINUOUS
 10
225.8071140112
 20
374.1204420144
 11
226.8071130575
 21
375.1417185778
  0
LINE
  5
28C
100
AcDbEntity
  8
0
100
AcDbLine
 62
7
  6
CONTINUOUS
 10
213.307114488
 20
375.6523569936
 11
212.557114488
 21
375.1417185778
  0
LINE
  5
28D
100
AcDbEntity
  8
0
100
AcDbLine
 62
7
  6
CONTINUOUS
 10
225.3071130575
 20
375.6523569936
 11
224.5571130575
 21
375.1417185778
  0
LINE
  5
28E
100
AcDbEntity
  8
0
100
AcDbLine
 62
7
  6
CONTINUOUS
 10
202.3071142496
 20
379.2268250102
 11
203.3071140112
 21
379.7374632472
  0
LINE
  5
28F
100
AcDbEntity
  8
0
100
AcDbLine
 62
7
  6
CONTINUOUS
 10
281.8101543642
 20
359.8344845695
 11
281.8101543642
 21
359.6253874914
  0
LINE
  5
290
100
AcDbEntity
  8
0
100
AcDbLine
 62
7
  6
CONTINUOUS
 10
283.1122585989
 20
360.0815993135
 11
283.1122585989
 21
362.6858083827
  0
LINE
  5
291
100
AcDbEntity
  8
0
100
AcDbLine
 62
7
  6
CONTINUOUS
 10
294.5460666872
 20
370.9831609649
 11
294.5460666872
 21
373.3592642469
  0
LINE
  5
292
100
AcDbEntity
  8
0
100
AcDbLine
 62
7
  6
CONTINUOUS
 10
296.3614119746
 20
370.0517285985
 11
296.3614119746
 21
368.0177843494
  0
LINE
  5
293
100
AcDbEntity
  8
0
100
AcDbLine
 62
7
  6
CONTINUOUS
 10
297.7775692202
 20
372.7985037488
 11
297.7775692202
 21
370.0517285985
  0
LINE
  5
294
100
AcDbEntity
  8
0
100
AcDbLine
 62
7
  6
CONTINUOUS
 10
297.7775692202
 20
368.0177843494
 11
297.7775692202
 21
362.7998613936
  0
LINE
  5
295
100
AcDbEntity
  8
0
100
AcDbLine
 62
7
  6
CONTINUOUS
 10
287.0565895297
 20
373.3592642469
 11
286.0586261012
 21
365.8317688627
  0
LINE
  5
296
100
AcDbEntity
  8
0
100
AcDbLine
 62
7
  6
CONTINUOUS
 10
288.4917558886
 20
368.112828247
 11
288.871934817
 21
370.9831609649
  0
LINE
  5
297
100
AcDbEntity
  8
0
100
AcDbLine
 62
7
  6
CONTINUOUS
 10
212.8071135344
 20
373.6098037103
 11
213.8071140112
 21
374.1204420144
  0
LINE
  5
298
100
AcDbEntity
  8
0
100
AcDbLine
 62
7
  6
CONTINUOUS
 10
224.8071149649
 20
373.6098037103
 11
225.8071140112
 21
374.1204420144
  0
LINE
  5
299
100
AcDbEntity
  8
0
100
AcDbLine
 62
7
  6
CONTINUOUS
 10
202.0571137728
 20
380.5034206027
 11
201.3071137728
 21
380.2481014842
  0
LINE
  5
29A
100
AcDbEntity
  8
0
100
AcDbLine
 62
7
  6
CONTINUOUS
 10
477.0671140112
 20
416.8344845695
 11
387.0671140112
 21
416.8344845695
  0
LINE
  5
29B
100
AcDbEntity
  8
0
100
AcDbLine
 62
7
  6
CONTINUOUS
 10
82.0671140112
 20
416.8344845695
 11
172.0671140112
 21
416.8344845695
  0
LINE
  5
29C
100
AcDbEntity
  8
BEZUGSACHSEN
100
AcDbLine
 62
7
  6
CONTINUOUS
 10
82.0671140112
 20
416.8344845695
 11
172.0671140112
 21
416.8344845695
  0
LINE
  5
29D
100
AcDbEntity
  8
0
100
AcDbLine
 62
7
  6
CONTINUOUS
 10
300.4958290316
 20
362.8188700897
 11
300.4958290316
 21
368.0177843494
  0
LINE
  5
29E
100
AcDbEntity
  8
0
100
AcDbLine
 62
7
  6
CONTINUOUS
 10
300.4958290316
 20
370.0517285985
 11
300.4958290316
 21
372.7985037488
  0
LINE
  5
29F
100
AcDbEntity
  8
0
100
AcDbLine
 62
7
  6
CONTINUOUS
 10
302.1876167513
 20
359.6253874914
 11
302.1876167513
 21
361.6688362581
  0
LINE
  5
2A0
100
AcDbEntity
  8
0
100
AcDbLine
 62
7
  6
CONTINUOUS
 10
302.1876167513
 20
368.0177843494
 11
302.1876167513
 21
370.0517285985
  0
LINE
  5
2A1
100
AcDbEntity
  8
BEZUGSACHSEN
100
AcDbLine
 62
7
  6
CONTINUOUS
 10
320.5312156263
 20
364.3344845695
 11
320.5312156263
 21
385.5877266347
  0
LINE
  5
2A2
100
AcDbEntity
  8
0
100
AcDbLine
 62
7
  6
CONTINUOUS
 10
346.5671140112
 20
369.1215879559
 11
346.5671140112
 21
370.8142803103
  0
LINE
  5
2A3
100
AcDbEntity
  8
0
100
AcDbLine
 62
7
  6
CONTINUOUS
 10
346.5671140112
 20
378.6893041198
 11
346.5671140112
 21
380.3819964742
  0
LINE
  5
2A4
100
AcDbEntity
  8
0
100
AcDbLine
 62
7
  6
CONTINUOUS
 10
355.0571140112
 20
373.8917922151
 11
355.0571140112
 21
375.5844845695
  0
LINE
  5
2A5
100
AcDbEntity
  8
0
100
AcDbLine
 62
7
  6
CONTINUOUS
 10
356.2171140112
 20
369.1215879559
 11
356.2171140112
 21
370.8142803103
  0
LINE
  5
2A6
100
AcDbEntity
  8
0
100
AcDbLine
 62
7
  6
CONTINUOUS
 10
356.2171140112
 20
378.6893041198
 11
356.2171140112
 21
380.3819964742
  0
LINE
  5
2A7
100
AcDbEntity
  8
BEZUGSACHSEN
100
AcDbLine
 62
7
  6
CONTINUOUS
 10
395.0671140045
 20
266.3750691472
 11
387.0671140112
 21
311.7453236663
  0
LINE
  5
2A8
100
AcDbEntity
  8
RUNDUNGEN
100
AcDbLine
 62
7
  6
CONTINUOUS
 10
380.4317437673
 20
389.6185826406
 11
380.8417676047
 21
386.7011114424
  0
LINE
  5
2A9
100
AcDbEntity
  8
BEZUGSACHSEN
100
AcDbLine
 62
7
  6
CONTINUOUS
 10
380.4317437673
 20
389.6185826406
 11
380.8760582261
 21
386.457120993
  0
LINE
  5
2AA
100
AcDbEntity
  8
BEZUGSACHSEN
100
AcDbLine
 62
7
  6
CONTINUOUS
 10
387.0671140112
 20
311.7453236663
 11
387.0671140112
 21
416.8344845695
  0
LINE
  5
2AB
100
AcDbEntity
  8
BEZUGSACHSEN
100
AcDbLine
 62
7
  6
CONTINUOUS
 10
386.3547392287
 20
448.8138734884
 11
380.3892056954
 21
392.055613288
  0
LINE
  5
2AC
100
AcDbEntity
  8
BEZUGSACHSEN
100
AcDbLine
 62
7
  6
CONTINUOUS
 10
356.4956409404
 20
523.4334426975
 11
385.7896003259
 21
452.7115686535
  0
LINE
  5
2AD
100
AcDbEntity
  8
BEZUGSACHSEN
100
AcDbLine
 62
7
  6
CONTINUOUS
 10
282.6285814701
 20
556.5663832272
 11
352.1660721392
 21
527.7630114987
  0
LINE
  5
2AE
100
AcDbEntity
  8
BEZUGSACHSEN
100
AcDbLine
 62
7
  6
CONTINUOUS
 10
477.0671140112
 20
266.3750691093
 11
477.0671140112
 21
416.8344845695
  0
LINE
  5
2AF
100
AcDbEntity
  8
RUNDUNGEN
100
AcDbLine
 62
7
  6
CONTINUOUS
 10
672.6787222286
 20
266.9608555469
 11
656.4827627357
 21
283.1568150398
  0
LINE
  5
2B0
100
AcDbEntity
  8
BEZUGSACHSEN
100
AcDbLine
 62
7
  6
CONTINUOUS
 10
584.9974813615
 20
354.6420964141
 11
601.1934408544
 21
338.4461369212
  0
LINE
  5
2B1
100
AcDbEntity
  8
0
100
AcDbLine
 62
7
  6
CONTINUOUS
 10
705.785140918
 20
356.3794927484
 11
705.2835847321
 21
356.2491662065
  0
LINE
  5
2B2
100
AcDbEntity
  8
0
100
AcDbLine
 62
7
  6
CONTINUOUS
 10
705.1407529369
 20
355.5494878211
 11
705.8404313223
 21
355.6923196163
  0
LINE
  5
2B3
100
AcDbEntity
  8
BEZUGSACHSEN
100
AcDbLine
 62
7
  6
CONTINUOUS
 10
646.8782182066
 20
338.4461369212
 11
601.1934408544
 21
338.4461369212
  0
LINE
  5
2B4
100
AcDbEntity
  8
0
100
AcDbLine
 62
7
  6
CONTINUOUS
 10
697.7286377696
 20
363.1722305888
 11
698.2301938817
 21
363.3025570569
  0
LINE
  5
2B5
100
AcDbEntity
  8
0
100
AcDbLine
 62
7
  6
CONTINUOUS
 10
699.9527323119
 20
365.5819420773
 11
700.4542905482
 21
365.7122664212
  0
LINE
  5
2B6
100
AcDbEntity
  8
0
100
AcDbLine
 62
7
  6
CONTINUOUS
 10
698.4875552945
 20
368.9427674253
 11
698.9891114066
 21
369.0730938934
  0
LINE
  5
2B7
100
AcDbEntity
  8
0
100
AcDbLine
 62
7
  6
CONTINUOUS
 10
707.1323120785
 20
376.4561525502
 11
706.6101309172
 21
376.3464511313
  0
LINE
  5
2B8
100
AcDbEntity
  8
0
100
AcDbLine
 62
7
  6
CONTINUOUS
 10
701.5929943091
 20
364.9948177137
 11
702.8870375378
 21
365.1751677622
  0
LINE
  5
2B9
100
AcDbEntity
  8
0
100
AcDbLine
 62
7
  6
CONTINUOUS
 10
703.7295476448
 20
366.0176778691
 11
702.435504711
 21
365.8373281157
  0
LINE
  5
2BA
100
AcDbEntity
  8
0
100
AcDbLine
 62
7
  6
CONTINUOUS
 10
697.8714696017
 20
363.8719090111
 11
697.4752271793
 21
363.8468962326
  0
LINE
  5
2BB
100
AcDbEntity
  8
0
100
AcDbLine
 62
7
  6
CONTINUOUS
 10
699.897443958
 20
366.2691130114
 11
699.501199485
 21
366.2441024308
  0
LINE
  5
2BC
100
AcDbEntity
  8
0
100
AcDbLine
 62
7
  6
CONTINUOUS
 10
699.3300654014
 20
369.7852775323
 11
698.5375785797
 21
369.735254247
  0
LINE
  5
2BD
100
AcDbEntity
  8
0
100
AcDbLine
 62
7
  6
CONTINUOUS
 10
704.7037008115
 20
359.5672084172
 11
705.3908738698
 21
359.5119179391
  0
LINE
  5
2BE
100
AcDbEntity
  8
0
100
AcDbLine
 62
7
  6
CONTINUOUS
 10
699.2655613778
 20
365.6372304312
 11
699.9527323119
 21
365.5819420773
  0
LINE
  5
2BF
100
AcDbEntity
  8
0
100
AcDbLine
 62
7
  6
CONTINUOUS
 10
705.2835847321
 20
356.2491662065
 11
704.7945339103
 21
356.3169619749
  0
LINE
  5
2C0
100
AcDbEntity
  8
0
100
AcDbLine
 62
7
  6
CONTINUOUS
 10
697.2395869109
 20
363.2400263203
 11
697.7286377696
 21
363.1722305888
  0
LINE
  5
2C1
100
AcDbEntity
  8
0
100
AcDbLine
 62
7
  6
CONTINUOUS
 10
704.360773502
 20
355.6975846204
 11
705.1407529369
 21
355.5494878211
  0
LINE
  5
2C2
100
AcDbEntity
  8
0
100
AcDbLine
 62
7
  6
CONTINUOUS
 10
702.1825646102
 20
381.4059000185
 11
701.6603840389
 21
381.2961980096
  0
LINE
  5
2C3
100
AcDbEntity
  8
0
100
AcDbLine
 62
7
  6
CONTINUOUS
 10
684.9086598061
 20
375.7815809518
 11
685.6083381916
 21
375.9244127471
  0
LINE
  5
2C4
100
AcDbEntity
  8
0
100
AcDbLine
 62
7
  6
CONTINUOUS
 10
687.120249095
 20
377.9931702407
 11
687.8199274435
 21
378.1360019991
  0
LINE
  5
2C5
100
AcDbEntity
  8
0
100
AcDbLine
 62
7
  6
CONTINUOUS
 10
682.8510922576
 20
382.2623270781
 11
683.5507706062
 21
382.4051588364
  0
LINE
  5
2C6
100
AcDbEntity
  8
0
100
AcDbLine
 62
7
  6
CONTINUOUS
 10
690.220423336
 20
375.5248785799
 11
693.8919249056
 21
375.8553006083
  0
LINE
  5
2C7
100
AcDbEntity
  8
0
100
AcDbLine
 62
7
  6
CONTINUOUS
 10
693.1494634934
 20
376.5977620205
 11
688.6854751022
 21
376.2173167068
  0
LINE
  5
2C8
100
AcDbEntity
  8
0
100
AcDbLine
 62
7
  6
CONTINUOUS
 10
687.8429648477
 20
375.3748064523
 11
689.2298164021
 21
375.4623478801
  0
LINE
  5
2C9
100
AcDbEntity
  8
0
100
AcDbLine
 62
7
  6
CONTINUOUS
 10
685.1568054385
 20
376.5865731744
 11
684.760563016
 21
376.5615603959
  0
LINE
  5
2CA
100
AcDbEntity
  8
0
100
AcDbLine
 62
7
  6
CONTINUOUS
 10
687.3683946167
 20
378.7981623526
 11
686.972152268
 21
378.7731496479
  0
LINE
  5
2CB
100
AcDbEntity
  8
0
100
AcDbLine
 62
7
  6
CONTINUOUS
 10
706.1844880975
 20
375.5083285693
 11
707.0182217502
 21
375.5171050973
  0
LINE
  5
2CC
100
AcDbEntity
  8
0
100
AcDbLine
 62
7
  6
CONTINUOUS
 10
701.2347406292
 20
380.4580760376
 11
702.0684748719
 21
380.4668519756
  0
LINE
  5
2CD
100
AcDbEntity
  8
0
100
AcDbLine
 62
7
  6
CONTINUOUS
 10
684.2214877823
 20
375.8368703402
 11
684.9086598061
 21
375.7815809518
  0
LINE
  5
2CE
100
AcDbEntity
  8
0
100
AcDbLine
 62
7
  6
CONTINUOUS
 10
698.9891114066
 20
369.0730938934
 11
699.4781622284
 21
369.0052981251
  0
LINE
  5
2CF
100
AcDbEntity
  8
0
100
AcDbLine
 62
7
  6
CONTINUOUS
 10
705.8246342135
 20
360.1312952291
 11
705.0446548064
 21
360.279392056
  0
LINE
  5
2D0
100
AcDbEntity
  8
0
100
AcDbLine
 62
7
  6
CONTINUOUS
 10
696.6577275883
 20
363.4006305341
 11
697.2395869109
 21
363.2400263203
  0
LINE
  5
2D1
100
AcDbEntity
  8
0
100
AcDbLine
 62
7
  6
CONTINUOUS
 10
697.4752271793
 20
363.8468962326
 11
697.1842964697
 21
363.9271994155
  0
LINE
  5
2D2
100
AcDbEntity
  8
0
100
AcDbLine
 62
7
  6
CONTINUOUS
 10
699.2206146467
 20
387.1060081246
 11
699.9512289169
 21
387.2179039613
  0
LINE
  5
2D3
100
AcDbEntity
  8
0
100
AcDbLine
 62
7
  6
CONTINUOUS
 10
683.0992377793
 20
383.06731919
 11
682.7029948996
 21
383.0423070163
  0
LINE
  5
2D4
100
AcDbEntity
  8
0
100
AcDbLine
 62
7
  6
CONTINUOUS
 10
699.4378242467
 20
387.9419361582
 11
699.0209571438
 21
387.9375482076
  0
LINE
  5
2D5
100
AcDbEntity
  8
0
100
AcDbLine
 62
7
  6
CONTINUOUS
 10
706.6101309172
 20
376.3464511313
 11
706.0901440999
 21
376.4451827476
  0
LINE
  5
2D6
100
AcDbEntity
  8
0
100
AcDbLine
 62
7
  6
CONTINUOUS
 10
701.6603840389
 20
381.2961980096
 11
701.1403972216
 21
381.3949296259
  0
LINE
  5
2D7
100
AcDbEntity
  8
0
100
AcDbLine
 62
7
  6
CONTINUOUS
 10
699.9119246963
 20
369.6246732908
 11
699.3300654014
 21
369.7852775323
  0
LINE
  5
2D8
100
AcDbEntity
  8
0
100
AcDbLine
 62
7
  6
CONTINUOUS
 10
686.8293205096
 20
378.0734712993
 11
687.120249095
 21
377.9931702407
  0
LINE
  5
2D9
100
AcDbEntity
  8
0
100
AcDbLine
 62
7
  6
CONTINUOUS
 10
682.2692334937
 20
382.4229307885
 11
682.8510922576
 21
382.2623270781
  0
LINE
  5
2DA
100
AcDbEntity
  8
0
100
AcDbLine
 62
7
  6
CONTINUOUS
 10
699.501199485
 20
366.2441024308
 11
698.7337253681
 21
366.5903214943
  0
LINE
  5
2DB
100
AcDbEntity
  8
0
100
AcDbLine
 62
7
  6
CONTINUOUS
 10
684.760563016
 20
376.5615603959
 11
684.3768259576
 21
376.7346699276
  0
LINE
  5
2DC
100
AcDbEntity
  8
0
100
AcDbLine
 62
7
  6
CONTINUOUS
 10
704.7945339103
 20
356.3169619749
 11
704.3179883787
 21
356.5828799797
  0
LINE
  5
2DD
100
AcDbEntity
  8
0
100
AcDbLine
 62
7
  6
CONTINUOUS
 10
696.1811841718
 20
363.6665464055
 11
696.6577275883
 21
363.4006305341
  0
LINE
  5
2DE
100
AcDbEntity
  8
0
100
AcDbLine
 62
7
  6
CONTINUOUS
 10
705.3908738698
 20
359.5119179391
 11
705.8674172772
 21
359.2460020585
  0
LINE
  5
2DF
100
AcDbEntity
  8
0
100
AcDbLine
 62
7
  6
CONTINUOUS
 10
703.7914194881
 20
356.0563110891
 11
704.360773502
 21
355.6975846204
  0
LINE
  5
2E0
100
AcDbEntity
  8
0
100
AcDbLine
 62
7
  6
CONTINUOUS
 10
697.1842964697
 20
363.9271994155
 11
696.6149445892
 21
364.2859237692
  0
LINE
  5
2E1
100
AcDbEntity
  8
BEZUGSACHSEN
100
AcDbLine
 62
7
  6
CONTINUOUS
 10
641.432510204
 20
413.9055523814
 11
584.9974813615
 21
357.4705235388
  0
LINE
  5
2E2
100
AcDbEntity
  8
0
100
AcDbLine
 62
7
  6
CONTINUOUS
 10
705.5613819808
 20
375.7101795772
 11
706.1844880975
 21
375.5083285693
  0
LINE
  5
2E3
100
AcDbEntity
  8
0
100
AcDbLine
 62
7
  6
CONTINUOUS
 10
700.6116339225
 20
380.6599276356
 11
701.2347406292
 21
380.4580760376
  0
LINE
  5
2E4
100
AcDbEntity
  8
0
100
AcDbLine
 62
7
  6
CONTINUOUS
 10
698.5975082626
 20
387.3078594552
 11
699.2206146467
 21
387.1060081246
  0
LINE
  5
2E5
100
AcDbEntity
  8
0
100
AcDbLine
 62
7
  6
CONTINUOUS
 10
686.972152268
 20
378.7731496479
 11
686.5884152095
 21
378.9462591796
  0
LINE
  5
2E6
100
AcDbEntity
  8
0
100
AcDbLine
 62
7
  6
CONTINUOUS
 10
682.7029948996
 20
383.0423070163
 11
682.3192578411
 21
383.215416548
  0
LINE
  5
2E7
100
AcDbEntity
  8
0
100
AcDbLine
 62
7
  6
CONTINUOUS
 10
706.393986094
 20
359.7725708753
 11
705.8246342135
 21
360.1312952291
  0
LINE
  5
2E8
100
AcDbEntity
  8
0
100
AcDbLine
 62
7
  6
CONTINUOUS
 10
683.6521348305
 20
376.1955957468
 11
684.2214877823
 21
375.8368703402
  0
LINE
  5
2E9
100
AcDbEntity
  8
0
100
AcDbLine
 62
7
  6
CONTINUOUS
 10
699.4781622284
 20
369.0052981251
 11
700.047516233
 21
368.6465716472
  0
LINE
  5
2EA
100
AcDbEntity
  8
0
100
AcDbLine
 62
7
  6
CONTINUOUS
 10
700.6668913988
 20
369.0803341151
 11
699.9119246963
 21
369.6246732908
  0
LINE
  5
2EB
100
AcDbEntity
  8
BEZUGSACHSEN
100
AcDbLine
 62
7
  6
CONTINUOUS
 10
656.4827627357
 20
328.841592392
 11
656.4827627357
 21
283.1568150398
  0
LINE
  5
2EC
100
AcDbEntity
  8
RUNDUNGEN
100
AcDbLine
 62
7
  6
CONTINUOUS
 10
660.871110384
 20
416.8344845695
 11
660.871110384
 21
549.1753469672
  0
LINE
  5
2ED
100
AcDbEntity
  8
0
100
AcDbLine
 62
7
  6
CONTINUOUS
 10
699.0209571438
 20
387.9375482076
 11
698.6062841637
 21
388.141593661
  0
LINE
  5
2EE
100
AcDbEntity
  8
0
100
AcDbLine
 62
7
  6
CONTINUOUS
 10
706.0901440999
 20
376.4451827476
 11
705.5723517742
 21
376.7523475466
  0
LINE
  5
2EF
100
AcDbEntity
  8
0
100
AcDbLine
 62
7
  6
CONTINUOUS
 10
701.1403972216
 20
381.3949296259
 11
700.6226043059
 21
381.7020950149
  0
LINE
  5
2F0
100
AcDbEntity
  8
0
100
AcDbLine
 62
7
  6
CONTINUOUS
 10
704.9404691202
 20
376.1204648926
 11
705.5613819808
 21
375.7101795772
  0
LINE
  5
2F1
100
AcDbEntity
  8
0
100
AcDbLine
 62
7
  6
CONTINUOUS
 10
699.9907216519
 20
381.0702123609
 11
700.6116339225
 21
380.6599276356
  0
LINE
  5
2F2
100
AcDbEntity
  8
0
100
AcDbLine
 62
7
  6
CONTINUOUS
 10
699.4472276491
 20
359.1367376203
 11
699.9112657662
 21
358.6726995032
  0
LINE
  5
2F3
100
AcDbEntity
  8
0
100
AcDbLine
 62
7
  6
CONTINUOUS
 10
674.1857431957
 20
385.6619873816
 11
674.9282052716
 21
384.9195253056
  0
LINE
  5
2F4
100
AcDbEntity
  8
0
100
AcDbLine
 62
7
  6
CONTINUOUS
 10
677.1555916324
 20
382.6921389449
 11
677.7124382226
 21
382.1352923547
  0
LINE
  5
2F5
100
AcDbEntity
  8
0
100
AcDbLine
 62
7
  6
CONTINUOUS
 10
680.0326325254
 20
379.8150980519
 11
680.6822865265
 21
379.1654440507
  0
LINE
  5
2F6
100
AcDbEntity
  8
0
100
AcDbLine
 62
7
  6
CONTINUOUS
 10
681.4247490008
 20
378.4229815764
 11
683.6521348305
 21
376.1955957468
  0
LINE
  5
2F7
100
AcDbEntity
  8
0
100
AcDbLine
 62
7
  6
CONTINUOUS
 10
685.6010978961
 20
374.2466326811
 11
686.1579444863
 21
373.6897860909
  0
LINE
  5
2F8
100
AcDbEntity
  8
0
100
AcDbLine
 62
7
  6
CONTINUOUS
 10
688.1997160251
 20
371.6480145522
 11
688.9421774373
 21
370.90555314
  0
LINE
  5
2F9
100
AcDbEntity
  8
0
100
AcDbLine
 62
7
  6
CONTINUOUS
 10
695.4387206354
 20
364.4090099419
 11
696.1811841718
 21
363.6665464055
  0
LINE
  5
2FA
100
AcDbEntity
  8
0
100
AcDbLine
 62
7
  6
CONTINUOUS
 10
698.7798001765
 20
361.0679304008
 11
699.3366467667
 21
360.5110838106
  0
LINE
  5
2FB
100
AcDbEntity
  8
0
100
AcDbLine
 62
7
  6
CONTINUOUS
 10
703.234572898
 20
356.6131576793
 11
703.7914194881
 21
356.0563110891
  0
LINE
  5
2FC
100
AcDbEntity
  8
0
100
AcDbLine
 62
7
  6
CONTINUOUS
 10
704.3179883787
 20
356.5828799797
 11
703.7611417885
 21
357.1397265699
  0
LINE
  5
2FD
100
AcDbEntity
  8
0
100
AcDbLine
 62
7
  6
CONTINUOUS
 10
701.6265639009
 20
359.2743044575
 11
701.1625257838
 21
359.7383425746
  0
LINE
  5
2FE
100
AcDbEntity
  8
0
100
AcDbLine
 62
7
  6
CONTINUOUS
 10
696.6149445892
 20
364.2859237692
 11
696.0580979991
 21
364.8427703594
  0
LINE
  5
2FF
100
AcDbEntity
  8
0
100
AcDbLine
 62
7
  6
CONTINUOUS
 10
684.3768259576
 20
376.7346699276
 11
682.6134777139
 21
378.4980181713
  0
LINE
  5
300
100
AcDbEntity
  8
0
100
AcDbLine
 62
7
  6
CONTINUOUS
 10
695.7619022946
 20
366.4027313717
 11
695.2978641776
 21
366.8667694888
  0
LINE
  5
301
100
AcDbEntity
  8
0
100
AcDbLine
 62
7
  6
CONTINUOUS
 10
703.6630683206
 20
358.7121928725
 11
703.1062217304
 21
359.2690394627
  0
LINE
  5
302
100
AcDbEntity
  8
0
100
AcDbLine
 62
7
  6
CONTINUOUS
 10
679.9240275483
 20
384.3468816804
 11
681.5017593768
 21
382.7691498519
  0
LINE
  5
303
100
AcDbEntity
  8
0
100
AcDbLine
 62
7
  6
CONTINUOUS
 10
684.1931843857
 20
380.077724843
 11
685.9565326293
 21
378.3143765994
  0
LINE
  5
304
100
AcDbEntity
  8
0
100
AcDbLine
 62
7
  6
CONTINUOUS
 10
704.0540457482
 20
360.2168634805
 11
704.7037008115
 21
359.5672084172
  0
LINE
  5
305
100
AcDbEntity
  8
0
100
AcDbLine
 62
7
  6
CONTINUOUS
 10
697.9412406707
 20
366.5402960848
 11
698.3124703147
 21
366.1690664408
  0
LINE
  5
306
100
AcDbEntity
  8
0
100
AcDbLine
 62
7
  6
CONTINUOUS
 10
705.8674172772
 20
359.2460020585
 11
706.4242638673
 21
358.6891554683
  0
LINE
  5
307
100
AcDbEntity
  8
0
100
AcDbLine
 62
7
  6
CONTINUOUS
 10
698.7337253681
 20
366.5903214943
 11
698.3624957241
 21
366.9615511383
  0
LINE
  5
308
100
AcDbEntity
  8
0
100
AcDbLine
 62
7
  6
CONTINUOUS
 10
686.5884152095
 20
378.9462591796
 11
684.8250669659
 21
380.7096074232
  0
LINE
  5
309
100
AcDbEntity
  8
0
100
AcDbLine
 62
7
  6
CONTINUOUS
 10
682.3192578411
 20
383.215416548
 11
680.5559101285
 21
384.9787642606
  0
LINE
  5
30A
100
AcDbEntity
  8
0
100
AcDbLine
 62
7
  6
CONTINUOUS
 10
706.9508326842
 20
359.2157242852
 11
706.393986094
 21
359.7725708753
  0
LINE
  5
30B
100
AcDbEntity
  8
0
100
AcDbLine
 62
7
  6
CONTINUOUS
 10
698.0235171774
 20
369.4068055424
 11
698.4875552945
 21
368.9427674253
  0
LINE
  5
30C
100
AcDbEntity
  8
0
100
AcDbLine
 62
7
  6
CONTINUOUS
 10
686.2994599481
 20
382.1840004054
 11
688.0628081917
 21
380.4206521618
  0
LINE
  5
30D
100
AcDbEntity
  8
0
100
AcDbLine
 62
7
  6
CONTINUOUS
 10
682.135616874
 20
386.5584710062
 11
683.8989645866
 21
384.7951232936
  0
LINE
  5
30E
100
AcDbEntity
  8
0
100
AcDbLine
 62
7
  6
CONTINUOUS
 10
700.047516233
 20
368.6465716472
 11
700.418745877
 21
368.2753420032
  0
LINE
  5
30F
100
AcDbEntity
  8
0
100
AcDbLine
 62
7
  6
CONTINUOUS
 10
706.7296753153
 20
361.9644125649
 11
709.4210997931
 21
359.2729880871
  0
LINE
  5
310
100
AcDbEntity
  8
0
100
AcDbLine
 62
7
  6
CONTINUOUS
 10
709.9476686099
 20
359.799556904
 11
706.7922038908
 21
362.9550216231
  0
LINE
  5
311
100
AcDbEntity
  8
0
100
AcDbLine
 62
7
  6
CONTINUOUS
 10
704.286394235
 20
365.4608312789
 11
703.7295476448
 21
366.0176778691
  0
LINE
  5
312
100
AcDbEntity
  8
0
100
AcDbLine
 62
7
  6
CONTINUOUS
 10
700.852508345
 20
368.8947171689
 11
700.6668913988
 21
369.0803341151
  0
LINE
  5
313
100
AcDbEntity
  8
0
100
AcDbLine
 62
7
  6
CONTINUOUS
 10
693.8919249056
 20
375.8553006083
 11
693.1494634934
 21
376.5977620205
  0
LINE
  5
314
100
AcDbEntity
  8
0
100
AcDbLine
 62
7
  6
CONTINUOUS
 10
691.1076919546
 20
378.6395335592
 11
690.5508453645
 21
379.1963801494
  0
LINE
  5
315
100
AcDbEntity
  8
0
100
AcDbLine
 62
7
  6
CONTINUOUS
 10
688.6018822988
 20
381.1453432151
 11
686.3744964691
 21
383.3727290448
  0
LINE
  5
316
100
AcDbEntity
  8
0
100
AcDbLine
 62
7
  6
CONTINUOUS
 10
684.3327254614
 20
385.4145000524
 11
682.1053391007
 21
387.6418864132
  0
LINE
  5
317
100
AcDbEntity
  8
0
100
AcDbLine
 62
7
  6
CONTINUOUS
 10
681.3628768919
 20
388.3843486219
 11
680.8060303018
 21
388.9411952121
  0
LINE
  5
318
100
AcDbEntity
  8
0
100
AcDbLine
 62
7
  6
CONTINUOUS
 10
678.2074129694
 20
391.5398125445
 11
677.6505663792
 21
392.0966591347
  0
LINE
  5
319
100
AcDbEntity
  8
BEZUGSACHSEN
100
AcDbLine
 62
7
  6
CONTINUOUS
 10
681.871110384
 20
416.8344845695
 11
648.5035780159
 21
416.8344845695
  0
LINE
  5
31A
100
AcDbEntity
  8
0
100
AcDbLine
 62
7
  6
CONTINUOUS
 10
693.184818883
 20
387.8761151298
 11
693.8035373166
 21
387.2573966963
  0
LINE
  5
31B
100
AcDbEntity
  8
0
100
AcDbLine
 62
7
  6
CONTINUOUS
 10
696.3815306913
 20
384.6794033216
 11
697.1033690604
 21
383.9575649524
  0
LINE
  5
31C
100
AcDbEntity
  8
0
100
AcDbLine
 62
7
  6
CONTINUOUS
 10
699.5782424996
 20
381.4826915133
 11
699.9907216519
 21
381.0702123609
  0
LINE
  5
31D
100
AcDbEntity
  8
0
100
AcDbLine
 62
7
  6
CONTINUOUS
 10
702.4655953861
 20
378.5953386268
 11
704.9404691202
 21
376.1204648926
  0
LINE
  5
31E
100
AcDbEntity
  8
0
100
AcDbLine
 62
7
  6
CONTINUOUS
 10
705.5723517742
 20
376.7523475466
 11
703.7161964736
 21
378.6085028472
  0
LINE
  5
31F
100
AcDbEntity
  8
0
100
AcDbLine
 62
7
  6
CONTINUOUS
 10
700.6226043059
 20
381.7020950149
 11
700.2101251535
 21
382.1145741673
  0
LINE
  5
320
100
AcDbEntity
  8
0
100
AcDbLine
 62
7
  6
CONTINUOUS
 10
696.0151266423
 20
389.468986022
 11
697.7681621548
 21
387.7159505095
  0
LINE
  5
321
100
AcDbEntity
  8
0
100
AcDbLine
 62
7
  6
CONTINUOUS
 10
698.6062841637
 20
388.141593661
 11
696.6470092225
 21
390.1008686022
  0
LINE
  5
322
100
AcDbEntity
  8
0
100
AcDbLine
 62
7
  6
CONTINUOUS
 10
701.3968475207
 20
368.1397504665
 11
700.852508345
 21
368.8947171689
  0
LINE
  5
323
100
AcDbEntity
  8
0
100
AcDbLine
 62
7
  6
CONTINUOUS
 10
698.3124703147
 20
366.1690664408
 11
698.7640031415
 21
365.5069060873
  0
LINE
  5
324
100
AcDbEntity
  8
0
100
AcDbLine
 62
7
  6
CONTINUOUS
 10
696.0580979991
 20
364.8427703594
 11
695.6993736453
 21
365.4121222398
  0
LINE
  5
325
100
AcDbEntity
  8
0
100
AcDbLine
 62
7
  6
CONTINUOUS
 10
684.6914503462
 20
384.8451476409
 11
684.3327254614
 21
385.4145000524
  0
LINE
  5
326
100
AcDbEntity
  8
0
100
AcDbLine
 62
7
  6
CONTINUOUS
 10
702.8758485535
 20
357.182509569
 11
703.234572898
 21
356.6131576793
  0
LINE
  5
327
100
AcDbEntity
  8
0
100
AcDbLine
 62
7
  6
CONTINUOUS
 10
688.9606077146
 20
380.5759902725
 11
688.6018822988
 21
381.1453432151
  0
LINE
  5
328
100
AcDbEntity
  8
0
100
AcDbLine
 62
7
  6
CONTINUOUS
 10
700.418745877
 20
368.2753420032
 11
700.7774723549
 21
367.7059879985
  0
LINE
  5
329
100
AcDbEntity
  8
0
100
AcDbLine
 62
7
  6
CONTINUOUS
 10
707.3095591621
 20
358.6463702805
 11
706.9508326842
 21
359.2157242852
  0
LINE
  5
32A
100
AcDbEntity
  8
0
100
AcDbLine
 62
7
  6
CONTINUOUS
 10
695.172804764
 20
364.8855533585
 11
695.4387206354
 21
364.4090099419
  0
LINE
  5
32B
100
AcDbEntity
  8
0
100
AcDbLine
 62
7
  6
CONTINUOUS
 10
703.7611417885
 20
357.1397265699
 11
703.4952259079
 21
357.6162699773
  0
LINE
  5
32C
100
AcDbEntity
  8
0
100
AcDbLine
 62
7
  6
CONTINUOUS
 10
685.9565326293
 20
378.3143765994
 11
686.1296421611
 21
377.9306395409
  0
LINE
  5
32D
100
AcDbEntity
  8
0
100
AcDbLine
 62
7
  6
CONTINUOUS
 10
683.8989645866
 20
384.7951232936
 11
684.0720741184
 21
384.4113862351
  0
LINE
  5
32E
100
AcDbEntity
  8
0
100
AcDbLine
 62
7
  6
CONTINUOUS
 10
684.7467402932
 20
384.1579751137
 11
684.6914503462
 21
384.8451476409
  0
LINE
  5
32F
100
AcDbEntity
  8
0
100
AcDbLine
 62
7
  6
CONTINUOUS
 10
707.4021787077
 20
382.2944850813
 11
709.2583340083
 21
380.4383297807
  0
LINE
  5
330
100
AcDbEntity
  8
0
100
AcDbLine
 62
7
  6
CONTINUOUS
 10
698.226715968
 20
391.6805753478
 11
700.1859909092
 21
389.7213004066
  0
LINE
  5
331
100
AcDbEntity
  8
0
100
AcDbLine
 62
7
  6
CONTINUOUS
 10
709.8902165885
 20
381.0702123609
 11
707.4153428544
 21
383.5450860951
  0
LINE
  5
332
100
AcDbEntity
  8
0
100
AcDbLine
 62
7
  6
CONTINUOUS
 10
706.5903851397
 20
384.3700438098
 11
705.9716667062
 21
384.9887622433
  0
LINE
  5
333
100
AcDbEntity
  8
0
100
AcDbLine
 62
7
  6
CONTINUOUS
 10
703.496792972
 20
387.4636359775
 11
702.8780742434
 21
388.082354706
  0
LINE
  5
334
100
AcDbEntity
  8
0
100
AcDbLine
 62
7
  6
CONTINUOUS
 10
700.6094400855
 20
390.350988864
 11
698.1345663513
 21
392.8258625981
  0
LINE
  5
335
100
AcDbEntity
  8
0
100
AcDbLine
 62
7
  6
CONTINUOUS
 10
699.1679577742
 20
382.1036037838
 11
699.5782424996
 21
381.4826915133
  0
LINE
  5
336
100
AcDbEntity
  8
0
100
AcDbLine
 62
7
  6
CONTINUOUS
 10
701.0197251151
 20
389.7300763077
 11
700.6094400855
 21
390.350988864
  0
LINE
  5
337
100
AcDbEntity
  8
0
100
AcDbLine
 62
7
  6
CONTINUOUS
 10
700.2101251535
 20
382.1145741673
 11
699.9029603546
 21
382.6323664929
  0
LINE
  5
338
100
AcDbEntity
  8
0
100
AcDbLine
 62
7
  6
CONTINUOUS
 10
706.4242638673
 20
358.6891554683
 11
706.6901818722
 21
358.2126099368
  0
LINE
  5
339
100
AcDbEntity
  8
0
100
AcDbLine
 62
7
  6
CONTINUOUS
 10
688.0628081917
 20
380.4206521618
 11
688.2359177234
 21
380.0369151033
  0
LINE
  5
33A
100
AcDbEntity
  8
0
100
AcDbLine
 62
7
  6
CONTINUOUS
 10
699.5189719681
 20
364.9625647873
 11
699.2655613778
 21
365.6372304312
  0
LINE
  5
33B
100
AcDbEntity
  8
0
100
AcDbLine
 62
7
  6
CONTINUOUS
 10
686.9096215682
 20
377.7825427139
 11
686.8293205096
 21
378.0734712993
  0
LINE
  5
33C
100
AcDbEntity
  8
0
100
AcDbLine
 62
7
  6
CONTINUOUS
 10
695.0122005502
 20
365.467412681
 11
695.172804764
 21
364.8855533585
  0
LINE
  5
33D
100
AcDbEntity
  8
0
100
AcDbLine
 62
7
  6
CONTINUOUS
 10
695.6993736453
 20
365.4121222398
 11
695.6190704625
 21
365.7030529494
  0
LINE
  5
33E
100
AcDbEntity
  8
0
100
AcDbLine
 62
7
  6
CONTINUOUS
 10
689.0158971306
 20
379.8888182763
 11
688.9606077146
 21
380.5759902725
  0
LINE
  5
33F
100
AcDbEntity
  8
0
100
AcDbLine
 62
7
  6
CONTINUOUS
 10
684.0720741184
 20
384.4113862351
 11
684.0470619447
 21
384.0151433553
  0
LINE
  5
340
100
AcDbEntity
  8
0
100
AcDbLine
 62
7
  6
CONTINUOUS
 10
686.1296421611
 20
377.9306395409
 11
686.1046294563
 21
377.5343971922
  0
LINE
  5
341
100
AcDbEntity
  8
0
100
AcDbLine
 62
7
  6
CONTINUOUS
 10
688.2359177234
 20
380.0369151033
 11
688.2109050187
 21
379.6406727546
  0
LINE
  5
342
100
AcDbEntity
  8
0
100
AcDbLine
 62
7
  6
CONTINUOUS
 10
684.6039085349
 20
383.4582967651
 11
684.7467402932
 21
384.1579751137
  0
LINE
  5
343
100
AcDbEntity
  8
0
100
AcDbLine
 62
7
  6
CONTINUOUS
 10
686.7667898099
 20
377.0828643654
 11
686.9096215682
 21
377.7825427139
  0
LINE
  5
344
100
AcDbEntity
  8
0
100
AcDbLine
 62
7
  6
CONTINUOUS
 10
680.6822865265
 20
379.1654440507
 11
682.2692334937
 21
382.4229307885
  0
LINE
  5
345
100
AcDbEntity
  8
0
100
AcDbLine
 62
7
  6
CONTINUOUS
 10
681.5017593768
 20
382.7691498519
 11
680.0326325254
 21
379.8150980519
  0
LINE
  5
346
100
AcDbEntity
  8
0
100
AcDbLine
 62
7
  6
CONTINUOUS
 10
675.1888568212
 20
385.9226390639
 11
678.2074129694
 21
391.5398125445
  0
LINE
  5
347
100
AcDbEntity
  8
0
100
AcDbLine
 62
7
  6
CONTINUOUS
 10
677.6505663792
 20
392.0966591347
 11
674.1857431957
 21
385.6619873816
  0
LINE
  5
348
100
AcDbEntity
  8
0
100
AcDbLine
 62
7
  6
CONTINUOUS
 10
682.1053391007
 20
387.6418864132
 11
677.1555916324
 21
382.6921389449
  0
LINE
  5
349
100
AcDbEntity
  8
0
100
AcDbLine
 62
7
  6
CONTINUOUS
 10
677.7124382226
 20
382.1352923547
 11
679.9240275483
 21
384.3468816804
  0
LINE
  5
34A
100
AcDbEntity
  8
0
100
AcDbLine
 62
7
  6
CONTINUOUS
 10
680.5559101285
 20
384.9787642606
 11
682.135616874
 21
386.5584710062
  0
LINE
  5
34B
100
AcDbEntity
  8
0
100
AcDbLine
 62
7
  6
CONTINUOUS
 10
674.9282052716
 20
384.9195253056
 11
681.3628768919
 21
388.3843486219
  0
LINE
  5
34C
100
AcDbEntity
  8
0
100
AcDbLine
 62
7
  6
CONTINUOUS
 10
680.8060303018
 20
388.9411952121
 11
675.1888568212
 21
385.9226390639
  0
LINE
  5
34D
100
AcDbEntity
  8
0
100
AcDbLine
 62
7
  6
CONTINUOUS
 10
710.3005019132
 20
380.4492995096
 11
709.8902165885
 21
381.0702123609
  0
LINE
  5
34E
100
AcDbEntity
  8
0
100
AcDbLine
 62
7
  6
CONTINUOUS
 10
709.2583340083
 20
380.4383297807
 11
709.5654988073
 21
379.920537455
  0
LINE
  5
34F
100
AcDbEntity
  8
0
100
AcDbLine
 62
7
  6
CONTINUOUS
 10
700.1859909092
 20
389.7213004066
 11
700.3900363626
 21
389.3066274264
  0
LINE
  5
350
100
AcDbEntity
  8
0
100
AcDbLine
 62
7
  6
CONTINUOUS
 10
698.9661061762
 20
382.7267104906
 11
699.1679577742
 21
382.1036037838
  0
LINE
  5
351
100
AcDbEntity
  8
0
100
AcDbLine
 62
7
  6
CONTINUOUS
 10
701.5574517621
 20
367.5578911715
 11
701.3968475207
 21
368.1397504665
  0
LINE
  5
352
100
AcDbEntity
  8
0
100
AcDbLine
 62
7
  6
CONTINUOUS
 10
702.7277517541
 20
357.9624890038
 11
702.8758485535
 21
357.182509569
  0
LINE
  5
353
100
AcDbEntity
  8
0
100
AcDbLine
 62
7
  6
CONTINUOUS
 10
699.9029603546
 20
382.6323664929
 11
699.8042287383
 21
383.1523533102
  0
LINE
  5
354
100
AcDbEntity
  8
0
100
AcDbLine
 62
7
  6
CONTINUOUS
 10
694.9444048187
 20
365.9564635398
 11
695.0122005502
 21
365.467412681
  0
LINE
  5
355
100
AcDbEntity
  8
0
100
AcDbLine
 62
7
  6
CONTINUOUS
 10
698.7640031415
 20
365.5069060873
 11
698.8317989098
 21
365.0178552654
  0
LINE
  5
356
100
AcDbEntity
  8
BEZUGSACHSEN
100
AcDbLine
 62
7
  6
CONTINUOUS
 10
702.871110384
 20
549.1753469672
 11
702.871110384
 21
412.4905226661
  0
LINE
  5
357
100
AcDbEntity
  8
0
100
AcDbLine
 62
7
  6
CONTINUOUS
 10
698.9748827043
 20
383.5604441433
 11
698.9661061762
 21
382.7267104906
  0
LINE
  5
358
100
AcDbEntity
  8
0
100
AcDbLine
 62
7
  6
CONTINUOUS
 10
700.3900363626
 20
389.3066274264
 11
700.3856484121
 21
388.8897603235
  0
LINE
  5
359
100
AcDbEntity
  8
0
100
AcDbLine
 62
7
  6
CONTINUOUS
 10
695.6190704625
 20
365.7030529494
 11
695.644083241
 21
366.0992953719
  0
LINE
  5
35A
100
AcDbEntity
  8
0
100
AcDbLine
 62
7
  6
CONTINUOUS
 10
701.5074284769
 20
366.7654043499
 11
701.5574517621
 21
367.5578911715
  0
LINE
  5
35B
100
AcDbEntity
  8
0
100
AcDbLine
 62
7
  6
CONTINUOUS
 10
701.0043668456
 20
388.27104189
 11
701.1162626823
 21
389.0016561602
  0
LINE
  5
35C
100
AcDbEntity
  8
0
100
AcDbLine
 62
7
  6
CONTINUOUS
 10
688.8730653722
 20
379.1891399278
 11
689.0158971306
 21
379.8888182763
  0
LINE
  5
35D
100
AcDbEntity
  8
0
100
AcDbLine
 62
7
  6
CONTINUOUS
 10
689.2298164021
 20
375.4623478801
 11
688.1997160251
 21
371.6480145522
  0
LINE
  5
35E
100
AcDbEntity
  8
0
100
AcDbLine
 62
7
  6
CONTINUOUS
 10
688.9421774373
 20
370.90555314
 11
690.220423336
 21
375.5248785799
  0
LINE
  5
35F
100
AcDbEntity
  8
0
100
AcDbLine
 62
7
  6
CONTINUOUS
 10
697.7681621548
 20
387.7159505095
 11
696.3815306913
 21
384.6794033216
  0
LINE
  5
360
100
AcDbEntity
  8
0
100
AcDbLine
 62
7
  6
CONTINUOUS
 10
684.0470619447
 20
384.0151433553
 11
683.8239285966
 21
383.6063941232
  0
LINE
  5
361
100
AcDbEntity
  8
0
100
AcDbLine
 62
7
  6
CONTINUOUS
 10
684.3807751868
 20
383.049547533
 11
684.6039085349
 21
383.4582967651
  0
LINE
  5
362
100
AcDbEntity
  8
0
100
AcDbLine
 62
7
  6
CONTINUOUS
 10
686.1046294563
 20
377.5343971922
 11
685.8814964918
 21
377.1256472815
  0
LINE
  5
363
100
AcDbEntity
  8
0
100
AcDbLine
 62
7
  6
CONTINUOUS
 10
686.5436568454
 20
376.6741144547
 11
686.7667898099
 21
377.0828643654
  0
LINE
  5
364
100
AcDbEntity
  8
0
100
AcDbLine
 62
7
  6
CONTINUOUS
 10
688.2109050187
 20
379.6406727546
 11
687.9877719067
 21
379.2319226963
  0
LINE
  5
365
100
AcDbEntity
  8
0
100
AcDbLine
 62
7
  6
CONTINUOUS
 10
688.6499325552
 20
378.7803901646
 11
688.8730653722
 21
379.1891399278
  0
LINE
  5
366
100
AcDbEntity
  8
0
100
AcDbLine
 62
7
  6
CONTINUOUS
 10
683.8239285966
 20
383.6063941232
 11
683.5079870115
 21
383.290452538
  0
LINE
  5
367
100
AcDbEntity
  8
0
100
AcDbLine
 62
7
  6
CONTINUOUS
 10
683.9595198383
 20
382.6282921845
 11
684.3807751868
 21
383.049547533
  0
LINE
  5
368
100
AcDbEntity
  8
0
100
AcDbLine
 62
7
  6
CONTINUOUS
 10
686.3744964691
 20
383.3727290448
 11
681.4247490008
 21
378.4229815764
  0
LINE
  5
369
100
AcDbEntity
  8
0
100
AcDbLine
 62
7
  6
CONTINUOUS
 10
682.6134777139
 20
378.4980181713
 11
684.1931843857
 21
380.077724843
  0
LINE
  5
36A
100
AcDbEntity
  8
0
100
AcDbLine
 62
7
  6
CONTINUOUS
 10
684.8250669659
 20
380.7096074232
 11
686.2994599481
 21
382.1840004054
  0
LINE
  5
36B
100
AcDbEntity
  8
0
100
AcDbLine
 62
7
  6
CONTINUOUS
 10
698.1345663513
 20
392.8258625981
 11
693.184818883
 21
387.8761151298
  0
LINE
  5
36C
100
AcDbEntity
  8
0
100
AcDbLine
 62
7
  6
CONTINUOUS
 10
693.8035373166
 20
387.2573966963
 11
696.0151266423
 21
389.468986022
  0
LINE
  5
36D
100
AcDbEntity
  8
0
100
AcDbLine
 62
7
  6
CONTINUOUS
 10
696.6470092225
 20
390.1008686022
 11
698.226715968
 21
391.6805753478
  0
LINE
  5
36E
100
AcDbEntity
  8
0
100
AcDbLine
 62
7
  6
CONTINUOUS
 10
687.9877719067
 20
379.2319226963
 11
687.7771443799
 21
379.0212951696
  0
LINE
  5
36F
100
AcDbEntity
  8
0
100
AcDbLine
 62
7
  6
CONTINUOUS
 10
685.8814964918
 20
377.1256472815
 11
685.5655552017
 21
376.8097059914
  0
LINE
  5
370
100
AcDbEntity
  8
0
100
AcDbLine
 62
7
  6
CONTINUOUS
 10
686.0170880285
 20
376.1475456378
 11
686.5436568454
 21
376.6741144547
  0
LINE
  5
371
100
AcDbEntity
  8
0
100
AcDbLine
 62
7
  6
CONTINUOUS
 10
688.2286772067
 20
378.3591348161
 11
688.6499325552
 21
378.7803901646
  0
LINE
  5
372
100
AcDbEntity
  8
0
100
AcDbLine
 62
7
  6
CONTINUOUS
 10
690.5508453645
 20
379.1963801494
 11
685.6010978961
 21
374.2466326811
  0
LINE
  5
373
100
AcDbEntity
  8
0
100
AcDbLine
 62
7
  6
CONTINUOUS
 10
683.5079870115
 20
383.290452538
 11
683.0992377793
 21
383.06731919
  0
LINE
  5
374
100
AcDbEntity
  8
0
100
AcDbLine
 62
7
  6
CONTINUOUS
 10
683.5507706062
 20
382.4051588364
 11
683.9595198383
 21
382.6282921845
  0
LINE
  5
375
100
AcDbEntity
  8
0
100
AcDbLine
 62
7
  6
CONTINUOUS
 10
687.7771443799
 20
379.0212951696
 11
687.3683946167
 21
378.7981623526
  0
LINE
  5
376
100
AcDbEntity
  8
0
100
AcDbLine
 62
7
  6
CONTINUOUS
 10
687.8199274435
 20
378.1360019991
 11
688.2286772067
 21
378.3591348161
  0
LINE
  5
377
100
AcDbEntity
  8
0
100
AcDbLine
 62
7
  6
CONTINUOUS
 10
685.5655552017
 20
376.8097059914
 11
685.1568054385
 21
376.5865731744
  0
LINE
  5
378
100
AcDbEntity
  8
0
100
AcDbLine
 62
7
  6
CONTINUOUS
 10
685.6083381916
 20
375.9244127471
 11
686.0170880285
 21
376.1475456378
  0
LINE
  5
379
100
AcDbEntity
  8
0
100
AcDbLine
 62
7
  6
CONTINUOUS
 10
699.8568851774
 20
388.1547578077
 11
699.4378242467
 21
387.9419361582
  0
LINE
  5
37A
100
AcDbEntity
  8
0
100
AcDbLine
 62
7
  6
CONTINUOUS
 10
699.9512289169
 20
387.2179039613
 11
700.3702898476
 21
387.4307256108
  0
LINE
  5
37B
100
AcDbEntity
  8
0
100
AcDbLine
 62
7
  6
CONTINUOUS
 10
702.0684748719
 20
380.4668519756
 11
702.6959692803
 21
380.6818678216
  0
LINE
  5
37C
100
AcDbEntity
  8
0
100
AcDbLine
 62
7
  6
CONTINUOUS
 10
710.5023529488
 20
379.8261934205
 11
710.3005019132
 21
380.4492995096
  0
LINE
  5
37D
100
AcDbEntity
  8
0
100
AcDbLine
 62
7
  6
CONTINUOUS
 10
707.4576559891
 20
357.8663908733
 11
707.3095591621
 21
358.6463702805
  0
LINE
  5
37E
100
AcDbEntity
  8
0
100
AcDbLine
 62
7
  6
CONTINUOUS
 10
709.5654988073
 20
379.920537455
 11
709.6642304973
 21
379.4005507115
  0
LINE
  5
37F
100
AcDbEntity
  8
0
100
AcDbLine
 62
7
  6
CONTINUOUS
 10
700.7774723549
 20
367.7059879985
 11
700.8452681233
 21
367.2169371767
  0
LINE
  5
380
100
AcDbEntity
  8
0
100
AcDbLine
 62
7
  6
CONTINUOUS
 10
703.4952259079
 20
357.6162699773
 11
703.4274301396
 21
358.1053207991
  0
LINE
  5
381
100
AcDbEntity
  8
0
100
AcDbLine
 62
7
  6
CONTINUOUS
 10
706.6901818722
 20
358.2126099368
 11
706.7579776405
 21
357.7235591149
  0
LINE
  5
382
100
AcDbEntity
  8
0
100
AcDbLine
 62
7
  6
CONTINUOUS
 10
701.1162626823
 20
389.0016561602
 11
701.0197251151
 21
389.7300763077
  0
LINE
  5
383
100
AcDbEntity
  8
0
100
AcDbLine
 62
7
  6
CONTINUOUS
 10
710.4935764576
 20
378.9924598047
 11
710.5023529488
 21
379.8261934205
  0
LINE
  5
384
100
AcDbEntity
  8
0
100
AcDbLine
 62
7
  6
CONTINUOUS
 10
702.8705835494
 20
358.6621673893
 11
702.7277517541
 21
357.9624890038
  0
LINE
  5
385
100
AcDbEntity
  8
0
100
AcDbLine
 62
7
  6
CONTINUOUS
 10
699.8042287383
 20
383.1523533102
 11
699.9139301572
 21
383.6745344715
  0
LINE
  5
386
100
AcDbEntity
  8
0
100
AcDbLine
 62
7
  6
CONTINUOUS
 10
709.6642304973
 20
379.4005507115
 11
709.5545287834
 21
378.8783692552
  0
LINE
  5
387
100
AcDbEntity
  8
0
100
AcDbLine
 62
7
  6
CONTINUOUS
 10
695.0747312868
 20
366.4580196518
 11
694.9444048187
 21
365.9564635398
  0
LINE
  5
388
100
AcDbEntity
  8
0
100
AcDbLine
 62
7
  6
CONTINUOUS
 10
699.3886455
 20
364.4610086752
 11
699.5189719681
 21
364.9625647873
  0
LINE
  5
389
100
AcDbEntity
  8
0
100
AcDbLine
 62
7
  6
CONTINUOUS
 10
700.8452681233
 20
367.2169371767
 11
700.7149416552
 21
366.7153810646
  0
LINE
  5
38A
100
AcDbEntity
  8
0
100
AcDbLine
 62
7
  6
CONTINUOUS
 10
699.1898982553
 20
384.1879388467
 11
698.9748827043
 21
383.5604441433
  0
LINE
  5
38B
100
AcDbEntity
  8
0
100
AcDbLine
 62
7
  6
CONTINUOUS
 10
695.644083241
 20
366.0992953719
 11
695.7619022946
 21
366.4027313717
  0
LINE
  5
38C
100
AcDbEntity
  8
0
100
AcDbLine
 62
7
  6
CONTINUOUS
 10
698.8317989098
 20
365.0178552654
 11
698.596160655
 21
364.4109831182
  0
LINE
  5
38D
100
AcDbEntity
  8
0
100
AcDbLine
 62
7
  6
CONTINUOUS
 10
697.1033690604
 20
383.9575649524
 11
698.5975082626
 21
387.3078594552
  0
LINE
  5
38E
100
AcDbEntity
  8
0
100
AcDbLine
 62
7
  6
CONTINUOUS
 10
700.3856484121
 20
388.8897603235
 11
700.1728267626
 21
388.4706993928
  0
LINE
  5
38F
100
AcDbEntity
  8
0
100
AcDbLine
 62
7
  6
CONTINUOUS
 10
700.7915451961
 20
387.8519809593
 11
701.0043668456
 21
388.27104189
  0
LINE
  5
390
100
AcDbEntity
  8
0
100
AcDbLine
 62
7
  6
CONTINUOUS
 10
695.2978641776
 20
366.8667694888
 11
695.0747312868
 21
366.4580196518
  0
LINE
  5
391
100
AcDbEntity
  8
0
100
AcDbLine
 62
7
  6
CONTINUOUS
 10
699.9139301572
 20
383.6745344715
 11
700.2320658651
 21
384.1989088705
  0
LINE
  5
392
100
AcDbEntity
  8
0
100
AcDbLine
 62
7
  6
CONTINUOUS
 10
699.6133471365
 20
384.8176275991
 11
699.1898982553
 21
384.1879388467
  0
LINE
  5
393
100
AcDbEntity
  8
0
100
AcDbLine
 62
7
  6
CONTINUOUS
 10
700.1728267626
 20
388.4706993928
 11
699.8568851774
 21
388.1547578077
  0
LINE
  5
394
100
AcDbEntity
  8
0
100
AcDbLine
 62
7
  6
CONTINUOUS
 10
686.1579444863
 20
373.6897860909
 11
687.8429648477
 21
375.3748064523
  0
LINE
  5
395
100
AcDbEntity
  8
0
100
AcDbLine
 62
7
  6
CONTINUOUS
 10
688.6854751022
 20
376.2173167068
 11
691.1076919546
 21
378.6395335592
  0
LINE
  5
396
100
AcDbEntity
  8
0
100
AcDbLine
 62
7
  6
CONTINUOUS
 10
700.3702898476
 20
387.4307256108
 11
700.7915451961
 21
387.8519809593
  0
LINE
  5
397
100
AcDbEntity
  8
0
100
AcDbLine
 62
7
  6
CONTINUOUS
 10
702.8780742434
 20
388.082354706
 11
699.6133471365
 21
384.8176275991
  0
LINE
  5
398
100
AcDbEntity
  8
0
100
AcDbLine
 62
7
  6
CONTINUOUS
 10
700.2320658651
 20
384.1989088705
 11
703.496792972
 21
387.4636359775
  0
LINE
  5
399
100
AcDbEntity
  8
0
100
AcDbLine
 62
7
  6
CONTINUOUS
 10
705.9716667062
 20
384.9887622433
 11
702.7069395992
 21
381.7240351364
  0
LINE
  5
39A
100
AcDbEntity
  8
0
100
AcDbLine
 62
7
  6
CONTINUOUS
 10
703.3256580328
 20
381.1053167029
 11
706.5903851397
 21
384.3700438098
  0
LINE
  5
39B
100
AcDbEntity
  8
0
100
AcDbLine
 62
7
  6
CONTINUOUS
 10
707.4153428544
 20
383.5450860951
 11
702.4655953861
 21
378.5953386268
  0
LINE
  5
39C
100
AcDbEntity
  8
0
100
AcDbLine
 62
7
  6
CONTINUOUS
 10
703.7161964736
 20
378.6085028472
 11
707.4021787077
 21
382.2944850813
  0
LINE
  5
39D
100
AcDbEntity
  8
0
100
AcDbLine
 62
7
  6
CONTINUOUS
 10
702.6959692803
 20
380.6818678216
 11
703.3256580328
 21
381.1053167029
  0
LINE
  5
39E
100
AcDbEntity
  8
0
100
AcDbLine
 62
7
  6
CONTINUOUS
 10
702.7069395992
 20
381.7240351364
 11
702.1825646102
 21
381.4059000185
  0
LINE
  5
39F
100
AcDbEntity
  8
0
100
AcDbLine
 62
7
  6
CONTINUOUS
 10
707.6566864775
 20
376.7742882581
 11
707.1323120785
 21
376.4561525502
  0
LINE
  5
3A0
100
AcDbEntity
  8
0
100
AcDbLine
 62
7
  6
CONTINUOUS
 10
707.0182217502
 20
375.5171050973
 11
707.6457167486
 21
375.7321203533
  0
LINE
  5
3A1
100
AcDbEntity
  8
0
100
AcDbLine
 62
7
  6
CONTINUOUS
 10
707.3148242307
 20
357.1667125248
 11
707.4576559891
 21
357.8663908733
  0
LINE
  5
3A2
100
AcDbEntity
  8
0
100
AcDbLine
 62
7
  6
CONTINUOUS
 10
706.7579776405
 20
357.7235591149
 11
706.6276511724
 21
357.2220030028
  0
LINE
  5
3A3
100
AcDbEntity
  8
0
100
AcDbLine
 62
7
  6
CONTINUOUS
 10
710.2785612754
 20
378.36496488
 11
710.4935764576
 21
378.9924598047
  0
LINE
  5
3A4
100
AcDbEntity
  8
0
100
AcDbLine
 62
7
  6
CONTINUOUS
 10
703.1062217304
 20
359.2690394627
 11
702.8705835494
 21
358.6621673893
  0
LINE
  5
3A5
100
AcDbEntity
  8
0
100
AcDbLine
 62
7
  6
CONTINUOUS
 10
703.4274301396
 20
358.1053207991
 11
703.6630683206
 21
358.7121928725
  0
LINE
  5
3A6
100
AcDbEntity
  8
0
100
AcDbLine
 62
7
  6
CONTINUOUS
 10
706.9738700884
 20
356.4545287384
 11
707.3148242307
 21
357.1667125248
  0
LINE
  5
3A7
100
AcDbEntity
  8
0
100
AcDbLine
 62
7
  6
CONTINUOUS
 10
709.5545287834
 20
378.8783692552
 11
709.2363930755
 21
378.3539948562
  0
LINE
  5
3A8
100
AcDbEntity
  8
0
100
AcDbLine
 62
7
  6
CONTINUOUS
 10
699.0601987721
 20
363.9469450012
 11
699.3886455
 21
364.4610086752
  0
LINE
  5
3A9
100
AcDbEntity
  8
0
100
AcDbLine
 62
7
  6
CONTINUOUS
 10
701.1789797723
 20
366.2513429475
 11
701.5074284769
 21
366.7654043499
  0
LINE
  5
3AA
100
AcDbEntity
  8
0
100
AcDbLine
 62
7
  6
CONTINUOUS
 10
709.855111509
 20
377.7352764226
 11
710.2785612754
 21
378.36496488
  0
LINE
  5
3AB
100
AcDbEntity
  8
0
100
AcDbLine
 62
7
  6
CONTINUOUS
 10
709.2363930755
 20
378.3539948562
 11
707.6566864775
 21
376.7742882581
  0
LINE
  5
3AC
100
AcDbEntity
  8
0
100
AcDbLine
 62
7
  6
CONTINUOUS
 10
698.3624957241
 20
366.9615511383
 11
697.9412406707
 21
366.5402960848
  0
LINE
  5
3AD
100
AcDbEntity
  8
0
100
AcDbLine
 62
7
  6
CONTINUOUS
 10
708.275404911
 20
376.1555698246
 11
709.855111509
 21
377.7352764226
  0
LINE
  5
3AE
100
AcDbEntity
  8
0
100
AcDbLine
 62
7
  6
CONTINUOUS
 10
700.7149416552
 20
366.7153810646
 11
700.5043138334
 21
366.5047532428
  0
LINE
  5
3AF
100
AcDbEntity
  8
0
100
AcDbLine
 62
7
  6
CONTINUOUS
 10
698.596160655
 20
364.4109831182
 11
698.1749056016
 21
363.9897280648
  0
LINE
  5
3B0
100
AcDbEntity
  8
0
100
AcDbLine
 62
7
  6
CONTINUOUS
 10
700.9683519505
 20
366.0407151257
 11
701.1789797723
 21
366.2513429475
  0
LINE
  5
3B1
100
AcDbEntity
  8
0
100
AcDbLine
 62
7
  6
CONTINUOUS
 10
698.6389437187
 20
363.5256899477
 11
699.0601987721
 21
363.9469450012
  0
LINE
  5
3B2
100
AcDbEntity
  8
0
100
AcDbLine
 62
7
  6
CONTINUOUS
 10
702.435504711
 20
365.8373281157
 11
701.5929943091
 21
364.9948177137
  0
LINE
  5
3B3
100
AcDbEntity
  8
0
100
AcDbLine
 62
7
  6
CONTINUOUS
 10
702.8870375378
 20
365.1751677622
 11
698.7798001765
 21
361.0679304008
  0
LINE
  5
3B4
100
AcDbEntity
  8
0
100
AcDbLine
 62
7
  6
CONTINUOUS
 10
699.3366467667
 20
360.5110838106
 11
704.286394235
 21
365.4608312789
  0
LINE
  5
3B5
100
AcDbEntity
  8
0
100
AcDbLine
 62
7
  6
CONTINUOUS
 10
707.6457167486
 20
375.7321203533
 11
708.275404911
 21
376.1555698246
  0
LINE
  5
3B6
100
AcDbEntity
  8
0
100
AcDbLine
 62
7
  6
CONTINUOUS
 10
698.5375785797
 20
369.735254247
 11
698.0235171774
 21
369.4068055424
  0
LINE
  5
3B7
100
AcDbEntity
  8
0
100
AcDbLine
 62
7
  6
CONTINUOUS
 10
700.4542905482
 20
365.7122664212
 11
700.9683519505
 21
366.0407151257
  0
LINE
  5
3B8
100
AcDbEntity
  8
0
100
AcDbLine
 62
7
  6
CONTINUOUS
 10
698.2301938817
 20
363.3025570569
 11
698.6389437187
 21
363.5256899477
  0
LINE
  5
3B9
100
AcDbEntity
  8
0
100
AcDbLine
 62
7
  6
CONTINUOUS
 10
700.5043138334
 20
366.5047532428
 11
699.897443958
 21
366.2691130114
  0
LINE
  5
3BA
100
AcDbEntity
  8
0
100
AcDbLine
 62
7
  6
CONTINUOUS
 10
698.1749056016
 20
363.9897280648
 11
697.8714696017
 21
363.8719090111
  0
LINE
  5
3BB
100
AcDbEntity
  8
0
100
AcDbLine
 62
7
  6
CONTINUOUS
 10
701.1625257838
 20
359.7383425746
 11
699.4472276491
 21
359.1367376203
  0
LINE
  5
3BC
100
AcDbEntity
  8
0
100
AcDbLine
 62
7
  6
CONTINUOUS
 10
699.9112657662
 20
358.6726995032
 11
701.6265639009
 21
359.2743044575
  0
LINE
  5
3BD
100
AcDbEntity
  8
RUNDUNGEN
100
AcDbLine
 62
7
  6
CONTINUOUS
 10
734.871110384
 20
363.8344845695
 11
734.871110384
 21
330.4669522013
  0
LINE
  5
3BE
100
AcDbEntity
  8
0
100
AcDbLine
 62
7
  6
CONTINUOUS
 10
706.6276511724
 20
357.2220030028
 11
706.4045182079
 21
356.8132530921
  0
LINE
  5
3BF
100
AcDbEntity
  8
0
100
AcDbLine
 62
7
  6
CONTINUOUS
 10
706.7922038908
 20
362.9550216231
 11
704.0540457482
 21
360.2168634805
  0
LINE
  5
3C0
100
AcDbEntity
  8
0
100
AcDbLine
 62
7
  6
CONTINUOUS
 10
705.0446548064
 20
360.279392056
 11
706.7296753153
 21
361.9644125649
  0
LINE
  5
3C1
100
AcDbEntity
  8
0
100
AcDbLine
 62
7
  6
CONTINUOUS
 10
706.4045182079
 20
356.8132530921
 11
706.1938906812
 21
356.6026255654
  0
LINE
  5
3C2
100
AcDbEntity
  8
0
100
AcDbLine
 62
7
  6
CONTINUOUS
 10
709.4210997931
 20
359.2729880871
 11
709.9476686099
 21
359.799556904
  0
LINE
  5
3C3
100
AcDbEntity
  8
0
100
AcDbLine
 62
7
  6
CONTINUOUS
 10
706.5526150349
 20
356.0332736849
 11
706.9738700884
 21
356.4545287384
  0
LINE
  5
3C4
100
AcDbEntity
  8
0
100
AcDbLine
 62
7
  6
CONTINUOUS
 10
706.1938906812
 20
356.6026255654
 11
705.785140918
 21
356.3794927484
  0
LINE
  5
3C5
100
AcDbEntity
  8
0
100
AcDbLine
 62
7
  6
CONTINUOUS
 10
705.8404313223
 20
355.6923196163
 11
706.5526150349
 21
356.0332736849
  0
LINE
  5
3C6
100
AcDbEntity
  8
RUNDUNGEN
100
AcDbLine
 62
7
  6
CONTINUOUS
 10
731.9421781959
 20
323.3958843895
 11
675.5071493534
 21
266.9608555469
  0
LINE
  5
3C7
100
AcDbEntity
  8
BEZUGSACHSEN
100
AcDbLine
 62
7
  6
CONTINUOUS
 10
694.871110384
 20
557.1753469672
 11
668.871110384
 21
557.1753469672
  0
LINE
  5
3C8
100
AcDbEntity
  8
BEZUGSACHSEN
100
AcDbLine
 62
7
  6
CONTINUOUS
 10
82.0671140112
 20
40.3495668898
 11
82.0671140112
 21
190.80898235
  0
LINE
  5
3C9
100
AcDbEntity
  8
BEZUGSACHSEN
100
AcDbLine
 62
7
  6
CONTINUOUS
 10
172.0671140112
 20
40.3495668898
 11
172.0671140112
 21
145.4387277931
  0
LINE
  5
3CA
100
AcDbEntity
  8
RUNDUNGEN
100
AcDbLine
 62
7
  6
CONTINUOUS
 10
172.7356639566
 20
106.3495668898
 11
172.7356639566
 21
80.3495668898
  0
LINE
  5
3CB
100
AcDbEntity
  8
BEZUGSACHSEN
100
AcDbLine
 62
7
  6
CONTINUOUS
 10
172.0671140112
 20
145.4387277931
 11
164.0671140179
 21
190.8089823122
  0
LINE
  5
3CC
100
AcDbEntity
  8
0
100
AcDbLine
 62
7
  6
CONTINUOUS
 10
195.0571140112
 20
69.8495668898
 11
195.0571140112
 21
69.3495668898
  0
LINE
  5
3CD
100
AcDbEntity
  8
0
100
AcDbLine
 62
7
  6
CONTINUOUS
 10
201.0571140112
 20
69.8495668898
 11
201.0571140112
 21
69.3495668898
  0
LINE
  5
3CE
100
AcDbEntity
  8
0
100
AcDbLine
 62
7
  6
CONTINUOUS
 10
202.3071142496
 20
69.8495668898
 11
202.3071142496
 21
69.3495668898
  0
LINE
  5
3CF
100
AcDbEntity
  8
0
100
AcDbLine
 62
7
  6
CONTINUOUS
 10
203.3071140112
 20
69.8495668898
 11
203.3071140112
 21
69.3495668898
  0
LINE
  5
3D0
100
AcDbEntity
  8
0
100
AcDbLine
 62
7
  6
CONTINUOUS
 10
204.0571140112
 20
69.8495668898
 11
204.0571140112
 21
69.3495668898
  0
LINE
  5
3D1
100
AcDbEntity
  8
0
100
AcDbLine
 62
7
  6
CONTINUOUS
 10
204.3071137728
 20
69.8495668898
 11
204.3071137728
 21
69.3495668898
  0
LINE
  5
3D2
100
AcDbEntity
  8
0
100
AcDbLine
 62
7
  6
CONTINUOUS
 10
204.5571142496
 20
69.8495668898
 11
204.5571142496
 21
69.3495668898
  0
LINE
  5
3D3
100
AcDbEntity
  8
0
100
AcDbLine
 62
7
  6
CONTINUOUS
 10
206.5571137728
 20
69.8495668898
 11
206.5571137728
 21
69.3495668898
  0
LINE
  5
3D4
100
AcDbEntity
  8
0
100
AcDbLine
 62
7
  6
CONTINUOUS
 10
208.057114488
 20
69.8495668898
 11
208.057114488
 21
69.3495668898
  0
LINE
  5
3D5
100
AcDbEntity
  8
0
100
AcDbLine
 62
7
  6
CONTINUOUS
 10
208.3071135344
 20
69.8495668898
 11
208.3071135344
 21
69.3495668898
  0
LINE
  5
3D6
100
AcDbEntity
  8
0
100
AcDbLine
 62
7
  6
CONTINUOUS
 10
208.807114488
 20
69.8495668898
 11
208.807114488
 21
69.3495668898
  0
LINE
  5
3D7
100
AcDbEntity
  8
0
100
AcDbLine
 62
7
  6
CONTINUOUS
 10
209.557114488
 20
69.8495668898
 11
209.557114488
 21
69.3495668898
  0
LINE
  5
3D8
100
AcDbEntity
  8
0
100
AcDbLine
 62
7
  6
CONTINUOUS
 10
210.5571135344
 20
69.8495668898
 11
210.5571135344
 21
69.3495668898
  0
LINE
  5
3D9
100
AcDbEntity
  8
BEZUGSACHSEN
100
AcDbLine
 62
7
  6
CONTINUOUS
 10
377.9442659611
 20
70.1032580659
 11
378.2699301799
 21
70.1906324508
  0
LINE
  5
3DA
100
AcDbEntity
  8
0
100
AcDbLine
 62
7
  6
CONTINUOUS
 10
477.0671140112
 20
40.3495668898
 11
387.0671140112
 21
40.3495668898
  0
LINE
  5
3DB
100
AcDbEntity
  8
BEZUGSACHSEN
100
AcDbLine
 62
7
  6
CONTINUOUS
 10
477.0671140112
 20
40.3495668898
 11
387.0671140112
 21
40.3495668898
  0
LINE
  5
3DC
100
AcDbEntity
  8
0
100
AcDbLine
 62
7
  6
CONTINUOUS
 10
82.0671140112
 20
40.3495668898
 11
172.0671140112
 21
40.3495668898
  0
LINE
  5
3DD
100
AcDbEntity
  8
0
100
AcDbLine
 62
7
  6
CONTINUOUS
 10
211.5571140112
 20
69.8495668898
 11
211.5571140112
 21
69.3495668898
  0
LINE
  5
3DE
100
AcDbEntity
  8
0
100
AcDbLine
 62
7
  6
CONTINUOUS
 10
212.557114488
 20
69.8495668898
 11
212.557114488
 21
69.3495668898
  0
LINE
  5
3DF
100
AcDbEntity
  8
0
100
AcDbLine
 62
7
  6
CONTINUOUS
 10
213.307114488
 20
69.8495668898
 11
213.307114488
 21
69.3495668898
  0
LINE
  5
3E0
100
AcDbEntity
  8
0
100
AcDbLine
 62
7
  6
CONTINUOUS
 10
213.8071140112
 20
69.8495668898
 11
213.8071140112
 21
69.3495668898
  0
LINE
  5
3E1
100
AcDbEntity
  8
0
100
AcDbLine
 62
7
  6
CONTINUOUS
 10
214.057114488
 20
69.8495668898
 11
214.057114488
 21
69.3495668898
  0
LINE
  5
3E2
100
AcDbEntity
  8
0
100
AcDbLine
 62
7
  6
CONTINUOUS
 10
215.557114488
 20
69.8495668898
 11
215.557114488
 21
69.3495668898
  0
LINE
  5
3E3
100
AcDbEntity
  8
0
100
AcDbLine
 62
7
  6
CONTINUOUS
 10
217.5571140112
 20
69.8495668898
 11
217.5571140112
 21
69.3495668898
  0
LINE
  5
3E4
100
AcDbEntity
  8
0
100
AcDbLine
 62
7
  6
CONTINUOUS
 10
223.5571140112
 20
69.8495668898
 11
223.5571140112
 21
69.3495668898
  0
LINE
  5
3E5
100
AcDbEntity
  8
0
100
AcDbLine
 62
7
  6
CONTINUOUS
 10
224.8071149649
 20
69.8495668898
 11
224.8071149649
 21
69.3495668898
  0
LWPOLYLINE
  5
3E6
100
AcDbEntity
  8
BEZUGSACHSEN
100
AcDbPolyline
 62
7
  6
CONTINUOUS
 90
6
 70
0
 10
378.2699301799
 20
70.1906324508
 10
378.5475473072
 20
70.2540154118
 10
378.8283766839
 20
70.3014783915
 10
379.1114866246
 20
70.332857197
 10
379.3959371313
 20
70.3480441397
 10
379.519853092
 20
70.3495818699
  0
LWPOLYLINE
  5
3E7
100
AcDbEntity
  8
BEZUGSACHSEN
100
AcDbPolyline
 62
7
  6
CONTINUOUS
 90
6
 70
0
 10
181.1845910574
 20
70.1046175121
 10
181.6592379464
 20
69.9989519693
 10
182.1396916782
 20
69.9211253248
 10
182.6239802671
 20
69.8715375448
 10
183.1100924537
 20
69.8504013802
 10
183.2277897002
 20
69.8495687046
  0
LINE
  5
3E8
100
AcDbEntity
  8
0
100
AcDbLine
 62
7
  6
CONTINUOUS
 10
225.8071140112
 20
69.8495668898
 11
225.8071140112
 21
69.3495668898
  0
LINE
  5
3E9
100
AcDbEntity
  8
0
100
AcDbLine
 62
7
  6
CONTINUOUS
 10
226.8071130575
 20
69.8495668898
 11
226.8071130575
 21
69.3495668898
  0
LINE
  5
3EA
100
AcDbEntity
  8
0
100
AcDbLine
 62
7
  6
CONTINUOUS
 10
227.3071140112
 20
69.8495668898
 11
227.3071140112
 21
69.3495668898
  0
LINE
  5
3EB
100
AcDbEntity
  8
0
100
AcDbLine
 62
7
  6
CONTINUOUS
 10
227.5571130575
 20
69.8495668898
 11
227.5571130575
 21
69.3495668898
  0
LWPOLYLINE
  5
3EC
100
AcDbEntity
  8
BEZUGSACHSEN
100
AcDbPolyline
 62
7
  6
CONTINUOUS
 90
6
 70
0
 10
375.9064357328
 20
69.8495687055
 10
375.9963835335
 20
69.8500547602
 10
376.4880992906
 20
69.8699533171
 10
376.9780318489
 20
69.9189621188
 10
377.4641007483
 20
69.996867003
 10
377.9442659611
 20
70.1032580659
  0
LINE
  5
3ED
100
AcDbEntity
  8
0
100
AcDbLine
 62
7
  6
CONTINUOUS
 10
356.2171140112
 20
69.3495668898
 11
349.9771140112
 21
69.3495668898
  0
LINE
  5
3EE
100
AcDbEntity
  8
0
100
AcDbLine
 62
7
  6
CONTINUOUS
 10
346.5671140112
 20
69.3495668898
 11
340.3271140112
 21
69.3495668898
  0
LINE
  5
3EF
100
AcDbEntity
  8
0
100
AcDbLine
 62
7
  6
CONTINUOUS
 10
227.5571130575
 20
69.3495668898
 11
217.5571140112
 21
69.3495668898
  0
LINE
  5
3F0
100
AcDbEntity
  8
0
100
AcDbLine
 62
7
  6
CONTINUOUS
 10
215.557114488
 20
69.3495668898
 11
206.5571137728
 21
69.3495668898
  0
LINE
  5
3F1
100
AcDbEntity
  8
0
100
AcDbLine
 62
7
  6
CONTINUOUS
 10
204.5571142496
 20
69.3495668898
 11
195.0571140112
 21
69.3495668898
  0
LINE
  5
3F2
100
AcDbEntity
  8
BEZUGSACHSEN
100
AcDbLine
 62
7
  6
CONTINUOUS
 10
183.2276781288
 20
69.8495668898
 11
238.6030123961
 21
69.8495668898
  0
LINE
  5
3F3
100
AcDbEntity
  8
BEZUGSACHSEN
100
AcDbLine
 62
7
  6
CONTINUOUS
 10
320.5312156263
 20
69.8495668898
 11
375.9065498932
 21
69.8495668898
  0
LINE
  5
3F4
100
AcDbEntity
  8
BEZUGSACHSEN
100
AcDbLine
 62
7
  6
CONTINUOUS
 10
172.0671140112
 20
70.3495668898
 11
179.6156905907
 21
70.3495668898
  0
LINE
  5
3F5
100
AcDbEntity
  8
BEZUGSACHSEN
100
AcDbLine
 62
7
  6
CONTINUOUS
 10
379.5185375936
 20
70.3495668898
 11
387.0671140112
 21
70.3495668898
  0
LINE
  5
3F6
100
AcDbEntity
  8
0
100
AcDbLine
 62
7
  6
CONTINUOUS
 10
302.1876167513
 20
71.3495668898
 11
296.3614119746
 21
71.3495668898
  0
LINE
  5
3F7
100
AcDbEntity
  8
0
100
AcDbLine
 62
7
  6
CONTINUOUS
 10
295.0783151843
 20
71.3495668898
 11
285.6309293963
 21
71.3495668898
  0
LINE
  5
3F8
100
AcDbEntity
  8
0
100
AcDbLine
 62
7
  6
CONTINUOUS
 10
283.1122585989
 20
71.3495668898
 11
280.2609349944
 21
71.3495668898
  0
LINE
  5
3F9
100
AcDbEntity
  8
0
100
AcDbLine
 62
7
  6
CONTINUOUS
 10
274.900446818
 20
71.3495668898
 11
269.0742412068
 21
71.3495668898
  0
LINE
  5
3FA
100
AcDbEntity
  8
0
100
AcDbLine
 62
7
  6
CONTINUOUS
 10
266.2324221589
 20
71.3495668898
 11
256.946610757
 21
71.3495668898
  0
LINE
  5
3FB
100
AcDbEntity
  8
BEZUGSACHSEN
100
AcDbLine
 62
7
  6
CONTINUOUS
 10
315.727368049
 20
71.8495668898
 11
243.4068599733
 21
71.8495668898
  0
LINE
  5
3FC
100
AcDbEntity
  8
BEZUGSACHSEN
100
AcDbLine
 62
7
  6
CONTINUOUS
 10
180.7356639566
 20
72.3495668898
 11
378.3985640658
 21
72.3495668898
  0
LWPOLYLINE
  5
3FD
100
AcDbEntity
  8
BEZUGSACHSEN
100
AcDbPolyline
 62
7
  6
CONTINUOUS
 90
7
 70
0
 10
179.6143725941
 20
70.3495821364
 10
179.751601109
 20
70.3476962169
 10
180.0360111568
 20
70.3317507459
 10
180.3190366326
 20
70.2996170344
 10
180.5997377695
 20
70.2514054242
 10
180.8771832781
 20
70.1872827532
 10
181.1845910574
 20
70.1046175121
  0
LINE
  5
3FE
100
AcDbEntity
  8
0
100
AcDbLine
 62
7
  6
CONTINUOUS
 10
256.946610757
 20
71.8495668898
 11
256.946610757
 21
71.3495668898
  0
LINE
  5
3FF
100
AcDbEntity
  8
0
100
AcDbLine
 62
7
  6
CONTINUOUS
 10
256.946611271
 20
114.8495668898
 11
256.946611271
 21
115.3495668898
  0
LINE
  5
400
100
AcDbEntity
  8
0
100
AcDbLine
 62
7
  6
CONTINUOUS
 10
257.1366990216
 20
71.8495668898
 11
257.1366990216
 21
71.3495668898
  0
LINE
  5
401
100
AcDbEntity
  8
0
100
AcDbLine
 62
7
  6
CONTINUOUS
 10
258.6383989908
 20
114.8495668898
 11
258.6383989908
 21
115.3495668898
  0
LINE
  5
402
100
AcDbEntity
  8
0
100
AcDbLine
 62
7
  6
CONTINUOUS
 10
261.3566588022
 20
114.8495668898
 11
261.3566588022
 21
115.3495668898
  0
LINE
  5
403
100
AcDbEntity
  8
0
100
AcDbLine
 62
7
  6
CONTINUOUS
 10
262.7728160478
 20
114.8495668898
 11
262.7728160478
 21
115.3495668898
  0
LINE
  5
404
100
AcDbEntity
  8
0
100
AcDbLine
 62
7
  6
CONTINUOUS
 10
264.0559128381
 20
114.8495668898
 11
264.0559128381
 21
115.3495668898
  0
LINE
  5
405
100
AcDbEntity
  8
0
100
AcDbLine
 62
7
  6
CONTINUOUS
 10
264.5881613351
 20
114.8495668898
 11
264.5881613351
 21
115.3495668898
  0
LINE
  5
406
100
AcDbEntity
  8
0
100
AcDbLine
 62
7
  6
CONTINUOUS
 10
265.8332366206
 20
71.8495668898
 11
265.8332366206
 21
71.3495668898
  0
LINE
  5
407
100
AcDbEntity
  8
0
100
AcDbLine
 62
7
  6
CONTINUOUS
 10
266.2324221589
 20
71.8495668898
 11
266.2324221589
 21
71.3495668898
  0
LINE
  5
408
100
AcDbEntity
  8
RUNDUNGEN
100
AcDbLine
 62
7
  6
CONTINUOUS
 10
240.9068599733
 20
115.5194398709
 11
239.554034499
 21
116.3004940227
  0
LINE
  5
409
100
AcDbEntity
  8
0
100
AcDbLine
 62
7
  6
CONTINUOUS
 10
238.6030123961
 20
116.8495668898
 11
239.554034499
 21
116.3004940227
  0
LINE
  5
40A
100
AcDbEntity
  8
BEZUGSACHSEN
100
AcDbLine
 62
7
  6
CONTINUOUS
 10
320.5312156263
 20
69.8495668898
 11
318.227368049
 21
71.1796939088
  0
LINE
  5
40B
100
AcDbEntity
  8
0
100
AcDbLine
 62
7
  6
CONTINUOUS
 10
269.0742412068
 20
71.8495668898
 11
269.0742412068
 21
71.3495668898
  0
LINE
  5
40C
100
AcDbEntity
  8
0
100
AcDbLine
 62
7
  6
CONTINUOUS
 10
272.0776384927
 20
114.8495668898
 11
272.0776384927
 21
115.3495668898
  0
LINE
  5
40D
100
AcDbEntity
  8
0
100
AcDbLine
 62
7
  6
CONTINUOUS
 10
272.7999715067
 20
71.8495668898
 11
272.7999715067
 21
71.3495668898
  0
LINE
  5
40E
100
AcDbEntity
  8
0
100
AcDbLine
 62
7
  6
CONTINUOUS
 10
273.0756019212
 20
114.8495668898
 11
273.0756019212
 21
115.3495668898
  0
LINE
  5
40F
100
AcDbEntity
  8
0
100
AcDbLine
 62
7
  6
CONTINUOUS
 10
273.5032986261
 20
114.8495668898
 11
273.5032986261
 21
115.3495668898
  0
LINE
  5
410
100
AcDbEntity
  8
0
100
AcDbLine
 62
7
  6
CONTINUOUS
 10
274.900446818
 20
71.8495668898
 11
274.900446818
 21
71.3495668898
  0
LINE
  5
411
100
AcDbEntity
  8
0
100
AcDbLine
 62
7
  6
CONTINUOUS
 10
276.0219694234
 20
114.8495668898
 11
276.0219694234
 21
115.3495668898
  0
LINE
  5
412
100
AcDbEntity
  8
0
100
AcDbLine
 62
7
  6
CONTINUOUS
 10
278.873293028
 20
114.8495668898
 11
278.873293028
 21
115.3495668898
  0
LINE
  5
413
100
AcDbEntity
  8
0
100
AcDbLine
 62
7
  6
CONTINUOUS
 10
280.2609349944
 20
71.8495668898
 11
280.2609349944
 21
71.3495668898
  0
LINE
  5
414
100
AcDbEntity
  8
RUNDUNGEN
100
AcDbLine
 62
7
  6
CONTINUOUS
 10
180.7356639566
 20
114.3495668898
 11
378.3985640658
 21
114.3495668898
  0
LINE
  5
415
100
AcDbEntity
  8
RUNDUNGEN
100
AcDbLine
 62
7
  6
CONTINUOUS
 10
315.727368049
 20
114.8495668898
 11
309.9332182044
 21
114.8495668898
  0
LINE
  5
416
100
AcDbEntity
  8
0
100
AcDbLine
 62
7
  6
CONTINUOUS
 10
309.9332182044
 20
114.8495668898
 11
249.2010099885
 21
114.8495668898
  0
LINE
  5
417
100
AcDbEntity
  8
RUNDUNGEN
100
AcDbLine
 62
7
  6
CONTINUOUS
 10
249.2010099885
 20
114.8495668898
 11
243.4068599733
 21
114.8495668898
  0
LINE
  5
418
100
AcDbEntity
  8
0
100
AcDbLine
 62
7
  6
CONTINUOUS
 10
256.946611271
 20
115.3495668898
 11
262.7728160478
 21
115.3495668898
  0
LINE
  5
419
100
AcDbEntity
  8
0
100
AcDbLine
 62
7
  6
CONTINUOUS
 10
264.0559128381
 20
115.3495668898
 11
273.5032986261
 21
115.3495668898
  0
LINE
  5
41A
100
AcDbEntity
  8
0
100
AcDbLine
 62
7
  6
CONTINUOUS
 10
276.0219694234
 20
115.3495668898
 11
278.873293028
 21
115.3495668898
  0
LINE
  5
41B
100
AcDbEntity
  8
0
100
AcDbLine
 62
7
  6
CONTINUOUS
 10
284.2337812044
 20
115.3495668898
 11
290.0599868156
 21
115.3495668898
  0
LINE
  5
41C
100
AcDbEntity
  8
0
100
AcDbLine
 62
7
  6
CONTINUOUS
 10
292.9018058635
 20
115.3495668898
 11
302.1876172654
 21
115.3495668898
  0
LINE
  5
41D
100
AcDbEntity
  8
BEZUGSACHSEN
100
AcDbLine
 62
7
  6
CONTINUOUS
 10
387.0671140112
 20
116.3495668898
 11
379.5185375936
 21
116.3495668898
  0
LINE
  5
41E
100
AcDbEntity
  8
BEZUGSACHSEN
100
AcDbLine
 62
7
  6
CONTINUOUS
 10
179.6156905907
 20
116.3495668898
 11
172.0671140112
 21
116.3495668898
  0
LINE
  5
41F
100
AcDbEntity
  8
RUNDUNGEN
100
AcDbLine
 62
7
  6
CONTINUOUS
 10
183.2276781288
 20
116.8495668898
 11
238.6030123961
 21
116.8495668898
  0
LINE
  5
420
100
AcDbEntity
  8
0
100
AcDbLine
 62
7
  6
CONTINUOUS
 10
186.2146019095
 20
116.8495668898
 11
238.6030123961
 21
116.8495668898
  0
LINE
  5
421
100
AcDbEntity
  8
0
100
AcDbLine
 62
7
  6
CONTINUOUS
 10
320.5312156263
 20
116.8495668898
 11
372.9196261123
 21
116.8495668898
  0
LINE
  5
422
100
AcDbEntity
  8
RUNDUNGEN
100
AcDbLine
 62
7
  6
CONTINUOUS
 10
320.5312156263
 20
116.8495668898
 11
375.9065498932
 21
116.8495668898
  0
LINE
  5
423
100
AcDbEntity
  8
0
100
AcDbLine
 62
7
  6
CONTINUOUS
 10
331.5771149649
 20
117.3495668898
 11
341.5771140112
 21
117.3495668898
  0
LINE
  5
424
100
AcDbEntity
  8
0
100
AcDbLine
 62
7
  6
CONTINUOUS
 10
343.5771135344
 20
117.3495668898
 11
352.5771142496
 21
117.3495668898
  0
LINE
  5
425
100
AcDbEntity
  8
0
100
AcDbLine
 62
7
  6
CONTINUOUS
 10
354.5771137728
 20
117.3495668898
 11
364.0771140112
 21
117.3495668898
  0
LINE
  5
426
100
AcDbEntity
  8
0
100
AcDbLine
 62
7
  6
CONTINUOUS
 10
283.1122585989
 20
71.8495668898
 11
283.1122585989
 21
71.3495668898
  0
LINE
  5
427
100
AcDbEntity
  8
0
100
AcDbLine
 62
7
  6
CONTINUOUS
 10
284.2337812044
 20
114.8495668898
 11
284.2337812044
 21
115.3495668898
  0
LINE
  5
428
100
AcDbEntity
  8
0
100
AcDbLine
 62
7
  6
CONTINUOUS
 10
285.6309293963
 20
71.8495668898
 11
285.6309293963
 21
71.3495668898
  0
LINE
  5
429
100
AcDbEntity
  8
0
100
AcDbLine
 62
7
  6
CONTINUOUS
 10
286.0586261012
 20
71.8495668898
 11
286.0586261012
 21
71.3495668898
  0
LINE
  5
42A
100
AcDbEntity
  8
0
100
AcDbLine
 62
7
  6
CONTINUOUS
 10
286.3342565156
 20
114.8495668898
 11
286.3342565156
 21
115.3495668898
  0
LINE
  5
42B
100
AcDbEntity
  8
0
100
AcDbLine
 62
7
  6
CONTINUOUS
 10
287.0565895297
 20
71.8495668898
 11
287.0565895297
 21
71.3495668898
  0
LINE
  5
42C
100
AcDbEntity
  8
0
100
AcDbLine
 62
7
  6
CONTINUOUS
 10
290.0599868156
 20
114.8495668898
 11
290.0599868156
 21
115.3495668898
  0
LINE
  5
42D
100
AcDbEntity
  8
0
100
AcDbLine
 62
7
  6
CONTINUOUS
 10
292.9018058635
 20
114.8495668898
 11
292.9018058635
 21
115.3495668898
  0
LINE
  5
42E
100
AcDbEntity
  8
0
100
AcDbLine
 62
7
  6
CONTINUOUS
 10
293.3009914018
 20
114.8495668898
 11
293.3009914018
 21
115.3495668898
  0
LINE
  5
42F
100
AcDbEntity
  8
0
100
AcDbLine
 62
7
  6
CONTINUOUS
 10
294.5460666872
 20
71.8495668898
 11
294.5460666872
 21
71.3495668898
  0
LINE
  5
430
100
AcDbEntity
  8
0
100
AcDbLine
 62
7
  6
CONTINUOUS
 10
295.0783151843
 20
71.8495668898
 11
295.0783151843
 21
71.3495668898
  0
LWPOLYLINE
  5
431
100
AcDbEntity
  8
RUNDUNGEN
100
AcDbPolyline
 62
7
  6
CONTINUOUS
 90
6
 70
0
 10
183.2277888547
 20
116.8495650753
 10
183.1124385022
 20
116.8487652906
 10
182.6286614299
 20
116.8279360263
 10
182.146675524
 20
116.7789279137
 10
181.6684627588
 20
116.7019490475
 10
181.1959668648
 20
116.5973910854
  0
LWPOLYLINE
  5
432
100
AcDbEntity
  8
RUNDUNGEN
100
AcDbPolyline
 62
7
  6
CONTINUOUS
 90
7
 70
0
 10
379.5198531345
 20
116.3495519098
 10
379.3826251085
 20
116.3514378248
 10
379.0982150397
 20
116.3673832875
 10
378.8151895684
 20
116.3995169892
 10
378.5344884621
 20
116.4477285839
 10
378.2570430104
 20
116.5118512291
 10
378.1643283926
 20
116.537038819
  0
LINE
  5
433
100
AcDbEntity
  8
0
100
AcDbLine
 62
7
  6
CONTINUOUS
 10
296.3614119746
 20
71.8495668898
 11
296.3614119746
 21
71.3495668898
  0
LINE
  5
434
100
AcDbEntity
  8
0
100
AcDbLine
 62
7
  6
CONTINUOUS
 10
297.7775692202
 20
71.8495668898
 11
297.7775692202
 21
71.3495668898
  0
LINE
  5
435
100
AcDbEntity
  8
0
100
AcDbLine
 62
7
  6
CONTINUOUS
 10
300.4958290316
 20
71.8495668898
 11
300.4958290316
 21
71.3495668898
  0
LINE
  5
436
100
AcDbEntity
  8
0
100
AcDbLine
 62
7
  6
CONTINUOUS
 10
301.9975290008
 20
114.8495668898
 11
301.9975290008
 21
115.3495668898
  0
LINE
  5
437
100
AcDbEntity
  8
0
100
AcDbLine
 62
7
  6
CONTINUOUS
 10
302.1876167513
 20
71.8495668898
 11
302.1876167513
 21
71.3495668898
  0
LINE
  5
438
100
AcDbEntity
  8
0
100
AcDbLine
 62
7
  6
CONTINUOUS
 10
302.1876172654
 20
114.8495668898
 11
302.1876172654
 21
115.3495668898
  0
LINE
  5
439
100
AcDbEntity
  8
BEZUGSACHSEN
100
AcDbLine
 62
7
  6
CONTINUOUS
 10
238.6030123961
 20
69.8495668898
 11
240.9068599733
 21
71.1796939088
  0
LINE
  5
43A
100
AcDbEntity
  8
0
100
AcDbLine
 62
7
  6
CONTINUOUS
 10
320.5312156263
 20
116.8495668898
 11
319.5801935422
 21
116.3004940335
  0
LINE
  5
43B
100
AcDbEntity
  8
RUNDUNGEN
100
AcDbLine
 62
7
  6
CONTINUOUS
 10
319.5801935422
 20
116.3004940335
 11
318.227368049
 21
115.5194398709
  0
LINE
  5
43C
100
AcDbEntity
  8
RUNDUNGEN
100
AcDbLine
 62
7
  6
CONTINUOUS
 10
181.1959668648
 20
116.5973910854
 11
180.8642961085
 21
116.5085011256
  0
LWPOLYLINE
  5
43D
100
AcDbEntity
  8
RUNDUNGEN
100
AcDbPolyline
 62
7
  6
CONTINUOUS
 90
6
 70
0
 10
180.8642961085
 20
116.5085011256
 10
180.5866789247
 20
116.4451181389
 10
180.3058495178
 20
116.3976551439
 10
180.0227395728
 20
116.3662763286
 10
179.738289087
 20
116.3510893776
 10
179.6143726365
 20
116.3495516433
  0
LWPOLYLINE
  5
43E
100
AcDbEntity
  8
RUNDUNGEN
100
AcDbPolyline
 62
7
  6
CONTINUOUS
 90
6
 70
0
 10
377.9328881446
 20
116.5987429952
 10
377.45487345
 20
116.7040217502
 10
376.9710461194
 20
116.7810771426
 10
376.4834172795
 20
116.8295077389
 10
375.994037434
 20
116.8491040706
 10
375.9064366352
 20
116.8495650745
  0
LINE
  5
43F
100
AcDbEntity
  8
RUNDUNGEN
100
AcDbLine
 62
7
  6
CONTINUOUS
 10
378.1643604244
 20
116.5370354103
 11
377.9328881446
 21
116.5987429952
  0
LINE
  5
440
100
AcDbEntity
  8
0
100
AcDbLine
 62
7
  6
CONTINUOUS
 10
331.5771149649
 20
116.8495668898
 11
331.5771149649
 21
117.3495668898
  0
LINE
  5
441
100
AcDbEntity
  8
0
100
AcDbLine
 62
7
  6
CONTINUOUS
 10
331.8271140112
 20
116.8495668898
 11
331.8271140112
 21
117.3495668898
  0
LINE
  5
442
100
AcDbEntity
  8
0
100
AcDbLine
 62
7
  6
CONTINUOUS
 10
332.3271149649
 20
116.8495668898
 11
332.3271149649
 21
117.3495668898
  0
LINE
  5
443
100
AcDbEntity
  8
0
100
AcDbLine
 62
7
  6
CONTINUOUS
 10
333.3271140112
 20
116.8495668898
 11
333.3271140112
 21
117.3495668898
  0
LINE
  5
444
100
AcDbEntity
  8
0
100
AcDbLine
 62
7
  6
CONTINUOUS
 10
334.3271130575
 20
116.8495668898
 11
334.3271130575
 21
117.3495668898
  0
LINE
  5
445
100
AcDbEntity
  8
0
100
AcDbLine
 62
7
  6
CONTINUOUS
 10
335.5771140112
 20
116.8495668898
 11
335.5771140112
 21
117.3495668898
  0
LINE
  5
446
100
AcDbEntity
  8
0
100
AcDbLine
 62
7
  6
CONTINUOUS
 10
340.3271140112
 20
69.8495668898
 11
340.3271140112
 21
69.3495668898
  0
LINE
  5
447
100
AcDbEntity
  8
0
100
AcDbLine
 62
7
  6
CONTINUOUS
 10
341.5771140112
 20
116.8495668898
 11
341.5771140112
 21
117.3495668898
  0
LINE
  5
448
100
AcDbEntity
  8
0
100
AcDbLine
 62
7
  6
CONTINUOUS
 10
343.5771135344
 20
116.8495668898
 11
343.5771135344
 21
117.3495668898
  0
LINE
  5
449
100
AcDbEntity
  8
0
100
AcDbLine
 62
7
  6
CONTINUOUS
 10
345.0771135344
 20
116.8495668898
 11
345.0771135344
 21
117.3495668898
  0
LINE
  5
44A
100
AcDbEntity
  8
0
100
AcDbLine
 62
7
  6
CONTINUOUS
 10
345.3271140112
 20
116.8495668898
 11
345.3271140112
 21
117.3495668898
  0
LINE
  5
44B
100
AcDbEntity
  8
0
100
AcDbLine
 62
7
  6
CONTINUOUS
 10
345.8271135344
 20
116.8495668898
 11
345.8271135344
 21
117.3495668898
  0
LINE
  5
44C
100
AcDbEntity
  8
0
100
AcDbLine
 62
7
  6
CONTINUOUS
 10
346.5671140112
 20
69.8495668898
 11
346.5671140112
 21
69.3495668898
  0
LINE
  5
44D
100
AcDbEntity
  8
0
100
AcDbLine
 62
7
  6
CONTINUOUS
 10
346.5771135344
 20
116.8495668898
 11
346.5771135344
 21
117.3495668898
  0
LINE
  5
44E
100
AcDbEntity
  8
0
100
AcDbLine
 62
7
  6
CONTINUOUS
 10
347.5771140112
 20
116.8495668898
 11
347.5771140112
 21
117.3495668898
  0
LINE
  5
44F
100
AcDbEntity
  8
0
100
AcDbLine
 62
7
  6
CONTINUOUS
 10
348.577114488
 20
116.8495668898
 11
348.577114488
 21
117.3495668898
  0
LINE
  5
450
100
AcDbEntity
  8
0
100
AcDbLine
 62
7
  6
CONTINUOUS
 10
349.5771135344
 20
116.8495668898
 11
349.5771135344
 21
117.3495668898
  0
LINE
  5
451
100
AcDbEntity
  8
0
100
AcDbLine
 62
7
  6
CONTINUOUS
 10
349.9771140112
 20
69.8495668898
 11
349.9771140112
 21
69.3495668898
  0
LINE
  5
452
100
AcDbEntity
  8
0
100
AcDbLine
 62
7
  6
CONTINUOUS
 10
350.3271135344
 20
116.8495668898
 11
350.3271135344
 21
117.3495668898
  0
LINE
  5
453
100
AcDbEntity
  8
0
100
AcDbLine
 62
7
  6
CONTINUOUS
 10
350.827114488
 20
116.8495668898
 11
350.827114488
 21
117.3495668898
  0
LINE
  5
454
100
AcDbEntity
  8
0
100
AcDbLine
 62
7
  6
CONTINUOUS
 10
351.0771135344
 20
116.8495668898
 11
351.0771135344
 21
117.3495668898
  0
LINE
  5
455
100
AcDbEntity
  8
0
100
AcDbLine
 62
7
  6
CONTINUOUS
 10
352.5771142496
 20
116.8495668898
 11
352.5771142496
 21
117.3495668898
  0
LINE
  5
456
100
AcDbEntity
  8
0
100
AcDbLine
 62
7
  6
CONTINUOUS
 10
354.5771137728
 20
116.8495668898
 11
354.5771137728
 21
117.3495668898
  0
LINE
  5
457
100
AcDbEntity
  8
0
100
AcDbLine
 62
7
  6
CONTINUOUS
 10
354.8271142496
 20
116.8495668898
 11
354.8271142496
 21
117.3495668898
  0
LINE
  5
458
100
AcDbEntity
  8
0
100
AcDbLine
 62
7
  6
CONTINUOUS
 10
355.0771140112
 20
116.8495668898
 11
355.0771140112
 21
117.3495668898
  0
LINE
  5
459
100
AcDbEntity
  8
0
100
AcDbLine
 62
7
  6
CONTINUOUS
 10
355.8271140112
 20
116.8495668898
 11
355.8271140112
 21
117.3495668898
  0
LINE
  5
45A
100
AcDbEntity
  8
0
100
AcDbLine
 62
7
  6
CONTINUOUS
 10
356.2171140112
 20
69.8495668898
 11
356.2171140112
 21
69.3495668898
  0
LINE
  5
45B
100
AcDbEntity
  8
0
100
AcDbLine
 62
7
  6
CONTINUOUS
 10
356.8271137728
 20
116.8495668898
 11
356.8271137728
 21
117.3495668898
  0
LINE
  5
45C
100
AcDbEntity
  8
0
100
AcDbLine
 62
7
  6
CONTINUOUS
 10
358.0771140112
 20
116.8495668898
 11
358.0771140112
 21
117.3495668898
  0
LINE
  5
45D
100
AcDbEntity
  8
0
100
AcDbLine
 62
7
  6
CONTINUOUS
 10
364.0771140112
 20
116.8495668898
 11
364.0771140112
 21
117.3495668898
  0
LINE
  5
45E
100
AcDbEntity
  8
BEZUGSACHSEN
100
AcDbLine
 62
7
  6
CONTINUOUS
 10
82.0671140112
 20
190.80898235
 11
164.0671226069
 21
190.80898235
  0
LINE
  5
45F
100
AcDbEntity
  8
RUNDUNGEN
100
AcDbLine
 62
7
  6
CONTINUOUS
 10
395.0671054155
 20
190.80898235
 11
477.0671140112
 21
190.80898235
  0
LINE
  5
460
100
AcDbEntity
  8
BEZUGSACHSEN
100
AcDbLine
 62
7
  6
CONTINUOUS
 10
386.3985640658
 20
80.3495668898
 11
386.3985640658
 21
106.3495668898
  0
LINE
  5
461
100
AcDbEntity
  8
BEZUGSACHSEN
100
AcDbLine
 62
7
  6
CONTINUOUS
 10
387.0671140112
 20
40.3495668898
 11
387.0671140112
 21
93.3495668898
  0
LINE
  5
462
100
AcDbEntity
  8
RUNDUNGEN
100
AcDbLine
 62
7
  6
CONTINUOUS
 10
387.0671140112
 20
93.3495668898
 11
387.0671140112
 21
133.7881670699
  0
LINE
  5
463
100
AcDbEntity
  8
0
100
AcDbLine
 62
7
  6
CONTINUOUS
 10
387.0671140112
 20
133.7881670699
 11
387.0671140112
 21
145.4387277931
  0
LINE
  5
464
100
AcDbEntity
  8
0
100
AcDbLine
 62
7
  6
CONTINUOUS
 10
387.0671140112
 20
145.4387277931
 11
395.0671140045
 21
190.8089823122
  0
LINE
  5
465
100
AcDbEntity
  8
BEZUGSACHSEN
100
AcDbLine
 62
7
  6
CONTINUOUS
 10
477.0671140112
 20
93.3495668898
 11
477.0671140112
 21
40.3495668898
  0
LINE
  5
466
100
AcDbEntity
  8
RUNDUNGEN
100
AcDbLine
 62
7
  6
CONTINUOUS
 10
477.0671140112
 20
93.3495668898
 11
477.0671140112
 21
190.80898235
  0
ARC
  5
467
100
AcDbEntity
  8
BEZUGSACHSEN
100
AcDbCircle
 62
7
  6
CONTINUOUS
 10
168.7998043588
 20
391.0103192791
 40
10.0
100
AcDbArc
 50
351.999967345
 51
6.0000540413
  0
ARC
  5
468
100
AcDbEntity
  8
RUNDUNGEN
100
AcDbCircle
 62
7
  6
CONTINUOUS
 10
180.7356639566
 20
449.6501011946
 40
8.0
100
AcDbArc
 50
157.4999999995
 51
161.0624999998
  0
ARC
  5
469
100
AcDbEntity
  8
BEZUGSACHSEN
100
AcDbCircle
 62
7
  6
CONTINUOUS
 10
180.7356639566
 20
449.6501011946
 40
8.0
100
AcDbArc
 50
157.5
 51
186.0
  0
ARC
  5
46A
100
AcDbEntity
  8
BEZUGSACHSEN
100
AcDbCircle
 62
7
  6
CONTINUOUS
 10
173.7407225131
 20
391.8344843879
 40
4.9999999676
100
AcDbArc
 50
269.9999997813
 51
2.5300197857
  0
ARC
  5
46B
100
AcDbEntity
  8
RUNDUNGEN
100
AcDbCircle
 62
7
  6
CONTINUOUS
 10
210.0296233421
 20
520.3719752386
 40
8.0
100
AcDbArc
 50
112.4999999995
 51
157.5000000012
  0
ARC
  5
46C
100
AcDbEntity
  8
BEZUGSACHSEN
100
AcDbCircle
 62
7
  6
CONTINUOUS
 10
210.0296233421
 20
520.3719752386
 40
8.0
100
AcDbArc
 50
112.5
 51
157.5
  0
ARC
  5
46D
100
AcDbEntity
  8
BEZUGSACHSEN
100
AcDbCircle
 62
7
  6
CONTINUOUS
 10
279.5671140112
 20
450.8344845695
 40
67.7084973779
100
AcDbArc
 50
243.353608763
 51
296.6463913956
  0
CIRCLE
  5
46E
100
AcDbEntity
  8
BEZUGSACHSEN
100
AcDbCircle
 62
7
  6
CONTINUOUS
 10
279.5671140112
 20
450.8344845695
 40
65.0
  0
ARC
  5
46F
100
AcDbEntity
  8
RUNDUNGEN
100
AcDbCircle
 62
7
  6
CONTINUOUS
 10
279.5671140112
 20
450.8344845695
 40
65.0
100
AcDbArc
 50
296.6464164935
 51
304.3102228021
  0
ARC
  5
470
100
AcDbEntity
  8
BEZUGSACHSEN
100
AcDbCircle
 62
7
  6
CONTINUOUS
 10
390.3344236636
 20
391.0103192791
 40
10.0
100
AcDbArc
 50
173.9999459827
 51
188.0000325683
  0
ARC
  5
471
100
AcDbEntity
  8
0
100
AcDbCircle
 62
7
  6
CONTINUOUS
 10
355.6371140112
 20
374.7517922151
 40
5.66
100
AcDbArc
 50
84.1183766043
 51
275.8816233957
  0
ARC
  5
472
100
AcDbEntity
  8
0
100
AcDbCircle
 62
7
  6
CONTINUOUS
 10
345.9871140112
 20
374.7517922151
 40
5.66
100
AcDbArc
 50
84.1183766043
 51
275.8816233957
  0
ARC
  5
473
100
AcDbEntity
  8
BEZUGSACHSEN
100
AcDbCircle
 62
7
  6
CONTINUOUS
 10
385.3935055072
 20
391.8344843686
 40
4.9999999641
100
AcDbArc
 50
177.4699897417
 51
270.0000002419
  0
ARC
  5
474
100
AcDbEntity
  8
0
100
AcDbCircle
 62
7
  6
CONTINUOUS
 10
355.6371140112
 20
374.7517922151
 40
3.98
100
AcDbArc
 50
192.4789198272
 51
278.3794755727
  0
ARC
  5
475
100
AcDbEntity
  8
0
100
AcDbCircle
 62
7
  6
CONTINUOUS
 10
355.6371140112
 20
374.7517922151
 40
3.98
100
AcDbArc
 50
81.6205244273
 51
167.923401602
  0
ARC
  5
476
100
AcDbEntity
  8
0
100
AcDbCircle
 62
7
  6
CONTINUOUS
 10
345.9871140112
 20
374.7517922151
 40
3.98
100
AcDbArc
 50
81.6205244273
 51
278.3794755727
  0
ARC
  5
477
100
AcDbEntity
  8
RUNDUNGEN
100
AcDbCircle
 62
7
  6
CONTINUOUS
 10
378.3985640658
 20
449.6501011946
 40
8.0
100
AcDbArc
 50
353.9999999989
 51
22.5000000005
  0
ARC
  5
478
100
AcDbEntity
  8
BEZUGSACHSEN
100
AcDbCircle
 62
7
  6
CONTINUOUS
 10
378.3985640658
 20
449.6501011946
 40
8.0
100
AcDbArc
 50
354.0
 51
22.5
  0
ARC
  5
479
100
AcDbEntity
  8
RUNDUNGEN
100
AcDbCircle
 62
7
  6
CONTINUOUS
 10
279.5671140112
 20
549.1753469672
 40
8.0
100
AcDbArc
 50
71.2499999992
 51
112.5000000005
  0
ARC
  5
47A
100
AcDbEntity
  8
BEZUGSACHSEN
100
AcDbCircle
 62
7
  6
CONTINUOUS
 10
349.1046046803
 20
520.3719752386
 40
8.0
100
AcDbArc
 50
22.5
 51
67.5
  0
ARC
  5
47B
100
AcDbEntity
  8
RUNDUNGEN
100
AcDbCircle
 62
7
  6
CONTINUOUS
 10
349.1046046803
 20
520.3719752386
 40
8.0
100
AcDbArc
 50
22.5
 51
67.5
  0
ARC
  5
47C
100
AcDbEntity
  8
BEZUGSACHSEN
100
AcDbCircle
 62
7
  6
CONTINUOUS
 10
279.5671140112
 20
549.1753469672
 40
8.0
100
AcDbArc
 50
67.5
 51
112.5
  0
ARC
  5
47D
100
AcDbEntity
  8
BEZUGSACHSEN
100
AcDbCircle
 62
7
  6
CONTINUOUS
 10
681.871110384
 20
363.8344845695
 40
53.0
100
AcDbArc
 50
0.0
 51
90.0
  0
ARC
  5
47E
100
AcDbEntity
  8
BEZUGSACHSEN
100
AcDbCircle
 62
7
  6
CONTINUOUS
 10
648.5035780159
 20
406.8344845695
 40
10.0
100
AcDbArc
 50
90.0
 51
135.0
  0
ARC
  5
47F
100
AcDbEntity
  8
RUNDUNGEN
100
AcDbCircle
 62
7
  6
CONTINUOUS
 10
724.871110384
 20
330.4669522013
 40
10.0
100
AcDbArc
 50
315.0
 51
360.0
  0
ARC
  5
480
100
AcDbEntity
  8
BEZUGSACHSEN
100
AcDbCircle
 62
7
  6
CONTINUOUS
 10
694.871110384
 20
549.1753469672
 40
8.0
100
AcDbArc
 50
0.0
 51
90.0
  0
ARC
  5
481
100
AcDbEntity
  8
RUNDUNGEN
100
AcDbCircle
 62
7
  6
CONTINUOUS
 10
668.871110384
 20
549.1753469672
 40
8.0
100
AcDbArc
 50
90.0
 51
180.0
  0
ARC
  5
482
100
AcDbEntity
  8
BEZUGSACHSEN
100
AcDbCircle
 62
7
  6
CONTINUOUS
 10
652.8797323554
 20
334.8431065408
 40
7.0
100
AcDbArc
 50
300.978649396
 51
149.021350604
  0
ARC
  5
483
100
AcDbEntity
  8
BEZUGSACHSEN
100
AcDbCircle
 62
7
  6
CONTINUOUS
 10
586.4116949238
 20
356.0563099764
 40
2.0
100
AcDbArc
 50
135.0
 51
225.0
  0
ARC
  5
484
100
AcDbEntity
  8
RUNDUNGEN
100
AcDbCircle
 62
7
  6
CONTINUOUS
 10
674.092935791
 20
268.3750691093
 40
2.0
100
AcDbArc
 50
225.0
 51
315.0
  0
ARC
  5
485
100
AcDbEntity
  8
BEZUGSACHSEN
100
AcDbCircle
 62
7
  6
CONTINUOUS
 10
180.7356841945
 20
80.3495871277
 40
8.0000202379
100
AcDbArc
 50
180.0001449427
 51
269.9998550573
  0
ARC
  5
486
100
AcDbEntity
  8
BEZUGSACHSEN
100
AcDbCircle
 62
7
  6
CONTINUOUS
 10
378.3985438279
 20
80.3495871277
 40
8.0000202379
100
AcDbArc
 50
270.0001449427
 51
359.9998550573
  0
ARC
  5
487
100
AcDbEntity
  8
RUNDUNGEN
100
AcDbCircle
 62
7
  6
CONTINUOUS
 10
180.7356841945
 20
106.349546652
 40
8.0000202379
100
AcDbArc
 50
90.0001449427
 51
179.9998550573
  0
ARC
  5
488
100
AcDbEntity
  8
RUNDUNGEN
100
AcDbCircle
 62
7
  6
CONTINUOUS
 10
378.3985438279
 20
106.349546652
 40
8.0000202379
100
AcDbArc
 50
0.0001449427
 51
89.9998550573
  0
ARC
  5
489
100
AcDbEntity
  8
RUNDUNGEN
100
AcDbCircle
 62
7
  6
CONTINUOUS
 10
315.727368049
 20
119.8495668898
 40
5.0
100
AcDbArc
 50
270.0
 51
300.0
  0
ARC
  5
48A
100
AcDbEntity
  8
RUNDUNGEN
100
AcDbCircle
 62
7
  6
CONTINUOUS
 10
243.4068599733
 20
119.8495668898
 40
5.0
100
AcDbArc
 50
240.0
 51
270.0
  0
ARC
  5
48B
100
AcDbEntity
  8
BEZUGSACHSEN
100
AcDbCircle
 62
7
  6
CONTINUOUS
 10
315.727368049
 20
66.8495668898
 40
5.0
100
AcDbArc
 50
60.0
 51
90.0
  0
ARC
  5
48C
100
AcDbEntity
  8
BEZUGSACHSEN
100
AcDbCircle
 62
7
  6
CONTINUOUS
 10
243.4068599733
 20
66.8495668898
 40
5.0
100
AcDbArc
 50
90.0
 51
120.0
  0
SPLINE
  5
48D
100
AcDbEntity
  8
0
100
AcDbSpline
 62
7
  6
CONTINUOUS
 70
0
 71
3
 72
8
 73
4
 74
0
 42
0.0000001
 43
0.0000001
 44
0.0000000001
 40
0.0
 40
0.0
 40
0.0
 40
0.0
 40
1.0
 40
1.0
 40
1.0
 40
1.0
 10
297.7775692202
 20
362.7998613936
 30
0.0
 10
297.7775692202
 20
361.7543760163
 30
0.0
 10
297.8536023356
 20
361.0510493589
 30
0.0
 10
298.0206842504
 20
360.6691479066
 30
0.0
  0
SPLINE
  5
48E
100
AcDbEntity
  8
0
100
AcDbSpline
 62
7
  6
CONTINUOUS
 70
0
 71
3
 72
8
 73
4
 74
0
 42
0.0000001
 43
0.0000001
 44
0.0000000001
 40
0.0
 40
0.0
 40
0.0
 40
0.0
 40
1.0
 40
1.0
 40
1.0
 40
1.0
 10
298.0206842504
 20
360.6691479066
 30
0.0
 10
298.1862568118
 20
360.2906964046
 30
0.0
 10
298.5094084002
 20
360.0055639946
 30
0.0
 10
298.9925295044
 20
359.82084084
 30
0.0
  0
SPLINE
  5
48F
100
AcDbEntity
  8
0
100
AcDbSpline
 62
7
  6
CONTINUOUS
 70
0
 71
3
 72
8
 73
4
 74
0
 42
0.0000001
 43
0.0000001
 44
0.0000000001
 40
0.0
 40
0.0
 40
0.0
 40
0.0
 40
1.0
 40
1.0
 40
1.0
 40
1.0
 10
298.9925295044
 20
359.82084084
 30
0.0
 10
299.4788564898
 20
359.6348919047
 30
0.0
 10
300.0301141001
 20
359.5398477723
 30
0.0
 10
300.6383957125
 20
359.5398477723
 30
0.0
  0
SPLINE
  5
490
100
AcDbEntity
  8
0
100
AcDbSpline
 62
7
  6
CONTINUOUS
 70
0
 71
3
 72
8
 73
4
 74
0
 42
0.0000001
 43
0.0000001
 44
0.0000000001
 40
0.0
 40
0.0
 40
0.0
 40
0.0
 40
1.0
 40
1.0
 40
1.0
 40
1.0
 10
300.6383957125
 20
359.5398477723
 30
0.0
 10
301.018571303
 20
359.5398477723
 30
0.0
 10
301.5318106867
 20
359.5683610251
 30
0.0
 10
302.1876167513
 20
359.6253874914
 30
0.0
  0
SPLINE
  5
491
100
AcDbEntity
  8
0
100
AcDbSpline
 62
7
  6
CONTINUOUS
 70
0
 71
3
 72
8
 73
4
 74
0
 42
0.0000001
 43
0.0000001
 44
0.0000000001
 40
0.0
 40
0.0
 40
0.0
 40
0.0
 40
1.0
 40
1.0
 40
1.0
 40
1.0
 10
302.1876167513
 20
361.6688362581
 30
0.0
 10
301.8644651629
 20
361.7828892691
 30
0.0
 10
301.6268562533
 20
361.8494201226
 30
0.0
 10
301.4651120186
 20
361.8668386946
 30
0.0
  0
SPLINE
  5
492
100
AcDbEntity
  8
0
100
AcDbSpline
 62
7
  6
CONTINUOUS
 70
0
 71
3
 72
8
 73
4
 74
0
 42
0.0000001
 43
0.0000001
 44
0.0000000001
 40
0.0
 40
0.0
 40
0.0
 40
0.0
 40
1.0
 40
1.0
 40
1.0
 40
1.0
 10
301.4651120186
 20
361.8668386946
 30
0.0
 10
301.0090684153
 20
361.9159509761
 30
0.0
 10
300.7334412791
 20
362.0014907343
 30
0.0
 10
300.6383967488
 20
362.1155444001
 30
0.0
  0
SPLINE
  5
493
100
AcDbEntity
  8
0
100
AcDbSpline
 62
7
  6
CONTINUOUS
 70
0
 71
3
 72
8
 73
4
 74
0
 42
0.0000001
 43
0.0000001
 44
0.0000000001
 40
0.0
 40
0.0
 40
0.0
 40
0.0
 40
1.0
 40
1.0
 40
1.0
 40
1.0
 10
300.6383967488
 20
362.1155444001
 30
0.0
 10
300.5433534838
 20
362.2295965476
 30
0.0
 10
300.4958290316
 20
362.4577025694
 30
0.0
 10
300.4958290316
 20
362.8188700897
 30
0.0
  0
SPLINE
  5
494
100
AcDbEntity
  8
0
100
AcDbSpline
 62
7
  6
CONTINUOUS
 70
0
 71
3
 72
8
 73
4
 74
0
 42
0.0000001
 43
0.0000001
 44
0.0000000001
 40
0.0
 40
0.0
 40
0.0
 40
0.0
 40
1.0
 40
1.0
 40
1.0
 40
1.0
 10
287.180147729
 20
360.4427677737
 30
0.0
 10
287.9595107295
 20
359.8344845695
 30
0.0
 10
288.9669770457
 20
359.5398477723
 30
0.0
 10
290.2120556094
 20
359.5398477723
 30
0.0
  0
SPLINE
  5
495
100
AcDbEntity
  8
0
100
AcDbSpline
 62
7
  6
CONTINUOUS
 70
0
 71
3
 72
8
 73
4
 74
0
 42
0.0000001
 43
0.0000001
 44
0.0000000001
 40
0.0
 40
0.0
 40
0.0
 40
0.0
 40
1.0
 40
1.0
 40
1.0
 40
1.0
 10
290.2120556094
 20
359.5398477723
 30
0.0
 10
291.6947430827
 20
359.5398477723
 30
0.0
 10
292.8827943064
 20
359.9960595814
 30
0.0
 10
293.7572001543
 20
360.9274920121
 30
0.0
  0
SPLINE
  5
496
100
AcDbEntity
  8
0
100
AcDbSpline
 62
7
  6
CONTINUOUS
 70
0
 71
3
 72
8
 73
4
 74
0
 42
0.0000001
 43
0.0000001
 44
0.0000000001
 40
0.0
 40
0.0
 40
0.0
 40
0.0
 40
1.0
 40
1.0
 40
1.0
 40
1.0
 10
293.7572001543
 20
360.9274920121
 30
0.0
 10
294.6316060282
 20
361.8589244706
 30
0.0
 10
295.0783151843
 20
363.0469761116
 30
0.0
 10
295.0783151843
 20
364.5106555147
 30
0.0
  0
SPLINE
  5
497
100
AcDbEntity
  8
0
100
AcDbSpline
 62
7
  6
CONTINUOUS
 70
0
 71
3
 72
8
 73
4
 74
0
 42
0.0000001
 43
0.0000001
 44
0.0000000001
 40
0.0
 40
0.0
 40
0.0
 40
0.0
 40
1.0
 40
1.0
 40
1.0
 40
1.0
 10
295.0783151843
 20
364.5106555147
 30
0.0
 10
295.0783151843
 20
365.8317688627
 30
0.0
 10
294.6791304804
 20
366.8867587966
 30
0.0
 10
293.8997674942
 20
367.6851305039
 30
0.0
  0
SPLINE
  5
498
100
AcDbEntity
  8
0
100
AcDbSpline
 62
7
  6
CONTINUOUS
 70
0
 71
3
 72
8
 73
4
 74
0
 42
0.0000001
 43
0.0000001
 44
0.0000000001
 40
0.0
 40
0.0
 40
0.0
 40
0.0
 40
1.0
 40
1.0
 40
1.0
 40
1.0
 10
293.8997674942
 20
367.6851305039
 30
0.0
 10
293.1204065539
 20
368.4835001153
 30
0.0
 10
292.1224431254
 20
368.8826856536
 30
0.0
 10
290.9153827883
 20
368.8826856536
 30
0.0
  0
SPLINE
  5
499
100
AcDbEntity
  8
0
100
AcDbSpline
 62
7
  6
CONTINUOUS
 70
0
 71
3
 72
8
 73
4
 74
0
 42
0.0000001
 43
0.0000001
 44
0.0000000001
 40
0.0
 40
0.0
 40
0.0
 40
0.0
 40
1.0
 40
1.0
 40
1.0
 40
1.0
 10
290.9153827883
 20
368.8826856536
 30
0.0
 10
290.0599860407
 20
368.8826856536
 30
0.0
 10
289.2521104075
 20
368.6260659618
 30
0.0
 10
288.4917558886
 20
368.112828247
 30
0.0
  0
SPLINE
  5
49A
100
AcDbEntity
  8
0
100
AcDbSpline
 62
7
  6
CONTINUOUS
 70
0
 71
3
 72
8
 73
4
 74
0
 42
0.0000001
 43
0.0000001
 44
0.0000000001
 40
0.0
 40
0.0
 40
0.0
 40
0.0
 40
1.0
 40
1.0
 40
1.0
 40
1.0
 10
288.4442347743
 20
365.7272204084
 30
0.0
 10
288.957474158
 20
366.3164941592
 30
0.0
 10
289.5847648837
 20
366.6206353826
 30
0.0
 10
290.335613177
 20
366.6206353826
 30
0.0
  0
SPLINE
  5
49B
100
AcDbEntity
  8
0
100
AcDbSpline
 62
7
  6
CONTINUOUS
 70
0
 71
3
 72
8
 73
4
 74
0
 42
0.0000001
 43
0.0000001
 44
0.0000000001
 40
0.0
 40
0.0
 40
0.0
 40
0.0
 40
1.0
 40
1.0
 40
1.0
 40
1.0
 10
290.335613177
 20
366.6206353826
 30
0.0
 10
291.656724856
 20
366.6206353826
 30
0.0
 10
292.3220338084
 20
365.8127601666
 30
0.0
 10
292.3220338084
 20
364.2065142912
 30
0.0
  0
SPLINE
  5
49C
100
AcDbEntity
  8
0
100
AcDbSpline
 62
7
  6
CONTINUOUS
 70
0
 71
3
 72
8
 73
4
 74
0
 42
0.0000001
 43
0.0000001
 44
0.0000000001
 40
0.0
 40
0.0
 40
0.0
 40
0.0
 40
1.0
 40
1.0
 40
1.0
 40
1.0
 10
292.3220338084
 20
364.2065142912
 30
0.0
 10
292.3220338084
 20
363.4271527452
 30
0.0
 10
292.1224431254
 20
362.8283746464
 30
0.0
 10
291.7351395623
 20
362.417455953
 30
0.0
  0
SPLINE
  5
49D
100
AcDbEntity
  8
0
100
AcDbSpline
 62
7
  6
CONTINUOUS
 70
0
 71
3
 72
8
 73
4
 74
0
 42
0.0000001
 43
0.0000001
 44
0.0000000001
 40
0.0
 40
0.0
 40
0.0
 40
0.0
 40
1.0
 40
1.0
 40
1.0
 40
1.0
 10
291.7351395623
 20
362.417455953
 30
0.0
 10
291.3430794932
 20
362.0014907343
 30
0.0
 10
290.8583554484
 20
361.8018979651
 30
0.0
 10
290.278585837
 20
361.8018979651
 30
0.0
  0
SPLINE
  5
49E
100
AcDbEntity
  8
0
100
AcDbSpline
 62
7
  6
CONTINUOUS
 70
0
 71
3
 72
8
 73
4
 74
0
 42
0.0000001
 43
0.0000001
 44
0.0000000001
 40
0.0
 40
0.0
 40
0.0
 40
0.0
 40
1.0
 40
1.0
 40
1.0
 40
1.0
 10
290.278585837
 20
361.8018979651
 30
0.0
 10
289.7843555666
 20
361.8018979651
 30
0.0
 10
289.4041799761
 20
361.9159509761
 30
0.0
 10
289.1262094119
 20
362.1603741269
 30
0.0
  0
SPLINE
  5
49F
100
AcDbEntity
  8
0
100
AcDbSpline
 62
7
  6
CONTINUOUS
 70
0
 71
3
 72
8
 73
4
 74
0
 42
0.0000001
 43
0.0000001
 44
0.0000000001
 40
0.0
 40
0.0
 40
0.0
 40
0.0
 40
1.0
 40
1.0
 40
1.0
 40
1.0
 10
289.1262094119
 20
362.1603741269
 30
0.0
 10
288.8529257037
 20
362.400676064
 30
0.0
 10
288.6058105685
 20
362.8568878991
 30
0.0
 10
288.3872074343
 20
363.5221966428
 30
0.0
  0
SPLINE
  5
4A0
100
AcDbEntity
  8
0
100
AcDbSpline
 62
7
  6
CONTINUOUS
 70
0
 71
3
 72
8
 73
4
 74
0
 42
0.0000001
 43
0.0000001
 44
0.0000000001
 40
0.0
 40
0.0
 40
0.0
 40
0.0
 40
1.0
 40
1.0
 40
1.0
 40
1.0
 10
285.6309293963
 20
363.5221966428
 30
0.0
 10
285.8875474192
 20
362.0775259358
 30
0.0
 10
286.4007868029
 20
361.0510493589
 30
0.0
 10
287.180147729
 20
360.4427677737
 30
0.0
  0
SPLINE
  5
4A1
100
AcDbEntity
  8
0
100
AcDbSpline
 62
7
  6
CONTINUOUS
 70
0
 71
3
 72
8
 73
4
 74
0
 42
0.0000001
 43
0.0000001
 44
0.0000000001
 40
0.0
 40
0.0
 40
0.0
 40
0.0
 40
1.0
 40
1.0
 40
1.0
 40
1.0
 10
281.8101543642
 20
359.6253874914
 30
0.0
 10
281.7721361376
 20
358.6749461812
 30
0.0
 10
281.2588984229
 20
358.0096372289
 30
0.0
 10
280.2609349944
 20
357.6294608039
 30
0.0
  0
SPLINE
  5
4A2
100
AcDbEntity
  8
0
100
AcDbSpline
 62
7
  6
CONTINUOUS
 70
0
 71
3
 72
8
 73
4
 74
0
 42
0.0000001
 43
0.0000001
 44
0.0000000001
 40
0.0
 40
0.0
 40
0.0
 40
0.0
 40
1.0
 40
1.0
 40
1.0
 40
1.0
 10
280.2609349944
 20
356.5459578258
 30
0.0
 10
282.1618179537
 20
356.9451431555
 30
0.0
 10
283.1122585989
 20
358.1236902399
 30
0.0
 10
283.1122585989
 20
360.0815993135
 30
0.0
  0
SPLINE
  5
4A3
100
AcDbEntity
  8
0
100
AcDbSpline
 62
7
  6
CONTINUOUS
 70
0
 71
3
 72
8
 73
4
 74
0
 42
0.0000001
 43
0.0000001
 44
0.0000000001
 40
0.0
 40
0.0
 40
0.0
 40
0.0
 40
1.0
 40
1.0
 40
1.0
 40
1.0
 10
272.7999715067
 20
373.3592642469
 30
0.0
 10
272.6479002692
 20
372.7034598512
 30
0.0
 10
272.4483079173
 20
372.2377432508
 30
0.0
 10
272.1821841147
 20
371.9526103072
 30
0.0
  0
SPLINE
  5
4A4
100
AcDbEntity
  8
0
100
AcDbSpline
 62
7
  6
CONTINUOUS
 70
0
 71
3
 72
8
 73
4
 74
0
 42
0.0000001
 43
0.0000001
 44
0.0000000001
 40
0.0
 40
0.0
 40
0.0
 40
0.0
 40
1.0
 40
1.0
 40
1.0
 40
1.0
 10
272.1821841147
 20
371.9526103072
 30
0.0
 10
271.9160610892
 20
371.6674781961
 30
0.0
 10
271.5739020564
 20
371.4393721742
 30
0.0
 10
271.1573602478
 20
371.2737019856
 30
0.0
  0
SPLINE
  5
4A5
100
AcDbEntity
  8
0
100
AcDbSpline
 62
7
  6
CONTINUOUS
 70
0
 71
3
 72
8
 73
4
 74
0
 42
0.0000001
 43
0.0000001
 44
0.0000000001
 40
0.0
 40
0.0
 40
0.0
 40
0.0
 40
1.0
 40
1.0
 40
1.0
 40
1.0
 10
271.1573602478
 20
371.2737019856
 30
0.0
 10
270.7375144221
 20
371.106717698
 30
0.0
 10
270.0436917998
 20
371.0306829137
 30
0.0
 10
269.0742412068
 20
371.0306829137
 30
0.0
  0
SPLINE
  5
4A6
100
AcDbEntity
  8
0
100
AcDbSpline
 62
7
  6
CONTINUOUS
 70
0
 71
3
 72
8
 73
4
 74
0
 42
0.0000001
 43
0.0000001
 44
0.0000000001
 40
0.0
 40
0.0
 40
0.0
 40
0.0
 40
1.0
 40
1.0
 40
1.0
 40
1.0
 10
257.5548931517
 20
361.4122170878
 30
0.0
 10
257.9540784813
 20
360.7849258406
 30
0.0
 10
258.5053344227
 20
360.309705205
 30
0.0
 10
259.1991566302
 20
360.0055640001
 30
0.0
  0
SPLINE
  5
4A7
100
AcDbEntity
  8
0
100
AcDbSpline
 62
7
  6
CONTINUOUS
 70
0
 71
3
 72
8
 73
4
 74
0
 42
0.0000001
 43
0.0000001
 44
0.0000000001
 40
0.0
 40
0.0
 40
0.0
 40
0.0
 40
1.0
 40
1.0
 40
1.0
 40
1.0
 10
259.1991566302
 20
360.0055640001
 30
0.0
 10
259.8929788329
 20
359.7014227973
 30
0.0
 10
260.6723403789
 20
359.5398477723
 30
0.0
 10
261.5277375437
 20
359.5398477723
 30
0.0
  0
SPLINE
  5
4A8
100
AcDbEntity
  8
0
100
AcDbSpline
 62
7
  6
CONTINUOUS
 70
0
 71
3
 72
8
 73
4
 74
0
 42
0.0000001
 43
0.0000001
 44
0.0000000001
 40
0.0
 40
0.0
 40
0.0
 40
0.0
 40
1.0
 40
1.0
 40
1.0
 40
1.0
 10
261.5277375437
 20
359.5398477723
 30
0.0
 10
262.9533997632
 20
359.5398477723
 30
0.0
 10
264.0939294554
 20
359.9485375283
 30
0.0
 10
264.9516980643
 20
360.7824792111
 30
0.0
  0
SPLINE
  5
4A9
100
AcDbEntity
  8
0
100
AcDbSpline
 62
7
  6
CONTINUOUS
 70
0
 71
3
 72
8
 73
4
 74
0
 42
0.0000001
 43
0.0000001
 44
0.0000000001
 40
0.0
 40
0.0
 40
0.0
 40
0.0
 40
1.0
 40
1.0
 40
1.0
 40
1.0
 10
264.9516980643
 20
360.7824792111
 30
0.0
 10
265.8047237851
 20
361.6118097526
 30
0.0
 10
266.2324221589
 20
362.666799478
 30
0.0
 10
266.2324221589
 20
363.9498954338
 30
0.0
  0
SPLINE
  5
4AA
100
AcDbEntity
  8
0
100
AcDbSpline
 62
7
  6
CONTINUOUS
 70
0
 71
3
 72
8
 73
4
 74
0
 42
0.0000001
 43
0.0000001
 44
0.0000000001
 40
0.0
 40
0.0
 40
0.0
 40
0.0
 40
1.0
 40
1.0
 40
1.0
 40
1.0
 10
266.2324221589
 20
363.9498954338
 30
0.0
 10
266.2324221589
 20
364.6342130823
 30
0.0
 10
266.089855478
 20
365.2424955291
 30
0.0
 10
265.8105442322
 20
365.7632459363
 30
0.0
  0
SPLINE
  5
4AB
100
AcDbEntity
  8
0
100
AcDbSpline
 62
7
  6
CONTINUOUS
 70
0
 71
3
 72
8
 73
4
 74
0
 42
0.0000001
 43
0.0000001
 44
0.0000000001
 40
0.0
 40
0.0
 40
0.0
 40
0.0
 40
1.0
 40
1.0
 40
1.0
 40
1.0
 10
265.8105442322
 20
365.7632459363
 30
0.0
 10
265.5290958144
 20
366.2879809064
 30
0.0
 10
265.0253618218
 20
366.744192533
 30
0.0
 10
264.2840172507
 20
367.1338739318
 30
0.0
  0
SPLINE
  5
4AC
100
AcDbEntity
  8
0
100
AcDbSpline
 62
7
  6
CONTINUOUS
 70
0
 71
3
 72
8
 73
4
 74
0
 42
0.0000001
 43
0.0000001
 44
0.0000000001
 40
0.0
 40
0.0
 40
0.0
 40
0.0
 40
1.0
 40
1.0
 40
1.0
 40
1.0
 10
264.2840172507
 20
367.1338739318
 30
0.0
 10
265.3104943491
 20
367.818191163
 30
0.0
 10
265.8332366206
 20
368.759128086
 30
0.0
 10
265.8332366206
 20
369.9566838664
 30
0.0
  0
SPLINE
  5
4AD
100
AcDbEntity
  8
0
100
AcDbSpline
 62
7
  6
CONTINUOUS
 70
0
 71
3
 72
8
 73
4
 74
0
 42
0.0000001
 43
0.0000001
 44
0.0000000001
 40
0.0
 40
0.0
 40
0.0
 40
0.0
 40
1.0
 40
1.0
 40
1.0
 40
1.0
 10
265.8332366206
 20
369.9566838664
 30
0.0
 10
265.8332366206
 20
371.049692027
 30
0.0
 10
265.4435556389
 20
371.9431061668
 30
0.0
 10
264.6810941355
 20
372.6250593308
 30
0.0
  0
SPLINE
  5
4AE
100
AcDbEntity
  8
0
100
AcDbSpline
 62
7
  6
CONTINUOUS
 70
0
 71
3
 72
8
 73
4
 74
0
 42
0.0000001
 43
0.0000001
 44
0.0000000001
 40
0.0
 40
0.0
 40
0.0
 40
0.0
 40
1.0
 40
1.0
 40
1.0
 40
1.0
 10
264.6810941355
 20
372.6250593308
 30
0.0
 10
263.9133453824
 20
373.3117414636
 30
0.0
 10
262.867860005
 20
373.6634050531
 30
0.0
 10
261.5372421004
 20
373.6634050531
 30
0.0
  0
SPLINE
  5
4AF
100
AcDbEntity
  8
0
100
AcDbSpline
 62
7
  6
CONTINUOUS
 70
0
 71
3
 72
8
 73
4
 74
0
 42
0.0000001
 43
0.0000001
 44
0.0000000001
 40
0.0
 40
0.0
 40
0.0
 40
0.0
 40
1.0
 40
1.0
 40
1.0
 40
1.0
 10
261.5372421004
 20
373.6634050531
 30
0.0
 10
260.1686068036
 20
373.6634050531
 30
0.0
 10
259.0851036169
 20
373.2642195148
 30
0.0
 10
258.3081212893
 20
372.4824996782
 30
0.0
  0
SPLINE
  5
4B0
100
AcDbEntity
  8
0
100
AcDbSpline
 62
7
  6
CONTINUOUS
 70
0
 71
3
 72
8
 73
4
 74
0
 42
0.0000001
 43
0.0000001
 44
0.0000000001
 40
0.0
 40
0.0
 40
0.0
 40
0.0
 40
1.0
 40
1.0
 40
1.0
 40
1.0
 10
258.3081212893
 20
372.4824996782
 30
0.0
 10
257.5263800032
 20
371.6959918661
 30
0.0
 10
257.1366990216
 20
370.6124882621
 30
0.0
 10
257.1366990216
 20
369.2343484086
 30
0.0
  0
SPLINE
  5
4B1
100
AcDbEntity
  8
0
100
AcDbSpline
 62
7
  6
CONTINUOUS
 70
0
 71
3
 72
8
 73
4
 74
0
 42
0.0000001
 43
0.0000001
 44
0.0000000001
 40
0.0
 40
0.0
 40
0.0
 40
0.0
 40
1.0
 40
1.0
 40
1.0
 40
1.0
 10
259.6363595582
 20
369.2343484086
 30
0.0
 10
259.6553682543
 20
370.6790193242
 30
0.0
 10
260.2636507012
 20
371.4013547821
 30
0.0
 10
261.4517023422
 20
371.4013547821
 30
0.0
  0
SPLINE
  5
4B2
100
AcDbEntity
  8
0
100
AcDbSpline
 62
7
  6
CONTINUOUS
 70
0
 71
3
 72
8
 73
4
 74
0
 42
0.0000001
 43
0.0000001
 44
0.0000000001
 40
0.0
 40
0.0
 40
0.0
 40
0.0
 40
1.0
 40
1.0
 40
1.0
 40
1.0
 10
261.4517023422
 20
371.4013547821
 30
0.0
 10
261.9174185254
 20
371.4013547821
 30
0.0
 10
262.307099507
 20
371.249284379
 30
0.0
 10
262.6088572122
 20
370.9616713657
 30
0.0
  0
SPLINE
  5
4B3
100
AcDbEntity
  8
0
100
AcDbSpline
 62
7
  6
CONTINUOUS
 70
0
 71
3
 72
8
 73
4
 74
0
 42
0.0000001
 43
0.0000001
 44
0.0000000001
 40
0.0
 40
0.0
 40
0.0
 40
0.0
 40
1.0
 40
1.0
 40
1.0
 40
1.0
 10
262.6088572122
 20
370.9616713657
 30
0.0
 10
262.9153819539
 20
370.6695147676
 30
0.0
 10
263.0769569136
 20
370.2513209505
 30
0.0
 10
263.0769569136
 20
369.7190741224
 30
0.0
  0
SPLINE
  5
4B4
100
AcDbEntity
  8
0
100
AcDbSpline
 62
7
  6
CONTINUOUS
 70
0
 71
3
 72
8
 73
4
 74
0
 42
0.0000001
 43
0.0000001
 44
0.0000000001
 40
0.0
 40
0.0
 40
0.0
 40
0.0
 40
1.0
 40
1.0
 40
1.0
 40
1.0
 10
263.0769569136
 20
369.7190741224
 30
0.0
 10
263.0769569136
 20
369.2913749141
 30
0.0
 10
262.9629039027
 20
368.9111984891
 30
0.0
 10
262.7443024374
 20
368.578544013
 30
0.0
  0
SPLINE
  5
4B5
100
AcDbEntity
  8
0
100
AcDbSpline
 62
7
  6
CONTINUOUS
 70
0
 71
3
 72
8
 73
4
 74
0
 42
0.0000001
 43
0.0000001
 44
0.0000000001
 40
0.0
 40
0.0
 40
0.0
 40
0.0
 40
1.0
 40
1.0
 40
1.0
 40
1.0
 10
262.7443024374
 20
368.578544013
 30
0.0
 10
262.5257009722
 20
368.2458895368
 30
0.0
 10
262.2405688621
 20
368.0272880716
 30
0.0
 10
261.8989920282
 20
367.9208956459
 30
0.0
  0
SPLINE
  5
4B6
100
AcDbEntity
  8
0
100
AcDbSpline
 62
7
  6
CONTINUOUS
 70
0
 71
3
 72
8
 73
4
 74
0
 42
0.0000001
 43
0.0000001
 44
0.0000000001
 40
0.0
 40
0.0
 40
0.0
 40
0.0
 40
1.0
 40
1.0
 40
1.0
 40
1.0
 10
261.8989920282
 20
367.9208956459
 30
0.0
 10
261.660799668
 20
367.846704833
 30
0.0
 10
261.3566584445
 20
367.818191163
 30
0.0
 10
260.985986159
 20
367.818191163
 30
0.0
  0
SPLINE
  5
4B7
100
AcDbEntity
  8
0
100
AcDbSpline
 62
7
  6
CONTINUOUS
 70
0
 71
3
 72
8
 73
4
 74
0
 42
0.0000001
 43
0.0000001
 44
0.0000000001
 40
0.0
 40
0.0
 40
0.0
 40
0.0
 40
1.0
 40
1.0
 40
1.0
 40
1.0
 10
260.8054025032
 20
365.850777976
 30
0.0
 10
261.3946758367
 20
365.850777976
 30
0.0
 10
261.8889052726
 20
365.7842469139
 30
0.0
 10
262.2782816959
 20
365.6503014527
 30
0.0
  0
SPLINE
  5
4B8
100
AcDbEntity
  8
0
100
AcDbSpline
 62
7
  6
CONTINUOUS
 70
0
 71
3
 72
8
 73
4
 74
0
 42
0.0000001
 43
0.0000001
 44
0.0000000001
 40
0.0
 40
0.0
 40
0.0
 40
0.0
 40
1.0
 40
1.0
 40
1.0
 40
1.0
 10
262.2782816959
 20
365.6503014527
 30
0.0
 10
263.0769569136
 20
365.3755572361
 30
0.0
 10
263.4761424519
 20
364.7482660932
 30
0.0
 10
263.4761424519
 20
363.7693113608
 30
0.0
  0
SPLINE
  5
4B9
100
AcDbEntity
  8
0
100
AcDbSpline
 62
7
  6
CONTINUOUS
 70
0
 71
3
 72
8
 73
4
 74
0
 42
0.0000001
 43
0.0000001
 44
0.0000000001
 40
0.0
 40
0.0
 40
0.0
 40
0.0
 40
1.0
 40
1.0
 40
1.0
 40
1.0
 10
263.4761424519
 20
363.7693113608
 30
0.0
 10
263.4761424519
 20
363.1800378186
 30
0.0
 10
263.2955583788
 20
362.7048172874
 30
0.0
 10
262.9438952066
 20
362.3436495585
 30
0.0
  0
SPLINE
  5
4BA
100
AcDbEntity
  8
0
100
AcDbSpline
 62
7
  6
CONTINUOUS
 70
0
 71
3
 72
8
 73
4
 74
0
 42
0.0000001
 43
0.0000001
 44
0.0000000001
 40
0.0
 40
0.0
 40
0.0
 40
0.0
 40
1.0
 40
1.0
 40
1.0
 40
1.0
 10
262.9438952066
 20
362.3436495585
 30
0.0
 10
262.5922320343
 20
361.9824818296
 30
0.0
 10
262.1455245472
 20
361.8018979651
 30
0.0
 10
261.6037731625
 20
361.8018979651
 30
0.0
  0
SPLINE
  5
4BB
100
AcDbEntity
  8
0
100
AcDbSpline
 62
7
  6
CONTINUOUS
 70
0
 71
3
 72
8
 73
4
 74
0
 42
0.0000001
 43
0.0000001
 44
0.0000000001
 40
0.0
 40
0.0
 40
0.0
 40
0.0
 40
1.0
 40
1.0
 40
1.0
 40
1.0
 10
261.6037731625
 20
361.8018979651
 30
0.0
 10
260.4442347743
 20
361.8018979651
 30
0.0
 10
259.8169436313
 20
362.5622510237
 30
0.0
 10
259.7028906204
 20
364.0829571409
 30
0.0
  0
SPLINE
  5
4BC
100
AcDbEntity
  8
0
100
AcDbSpline
 62
7
  6
CONTINUOUS
 70
0
 71
3
 72
8
 73
4
 74
0
 42
0.0000001
 43
0.0000001
 44
0.0000000001
 40
0.0
 40
0.0
 40
0.0
 40
0.0
 40
1.0
 40
1.0
 40
1.0
 40
1.0
 10
256.946610757
 20
364.0829571409
 30
0.0
 10
256.946610757
 20
362.9234187526
 30
0.0
 10
257.155707822
 20
362.0395083351
 30
0.0
 10
257.5548931517
 20
361.4122170878
 30
0.0
  0
SPLINE
  5
4BD
100
AcDbEntity
  8
BEZUGSACHSEN
100
AcDbSpline
 62
7
  6
CONTINUOUS
 70
0
 71
3
 72
9
 73
5
 74
0
 42
0.0000001
 43
0.0000001
 44
0.0000000001
 40
0.0
 40
0.0
 40
0.0
 40
0.0
 40
0.5000005097
 40
1.0
 40
1.0
 40
1.0
 40
1.0
 10
249.2010099885
 20
390.3172128792
 30
0.0
 10
248.2340456983
 20
390.8024243941
 30
0.0
 10
246.3056949742
 20
391.7838663875
 30
0.0
 10
244.3767098939
 20
392.7642134813
 30
0.0
 10
243.4068599733
 20
393.2436261553
 30
0.0
  0
SPLINE
  5
4BE
100
AcDbEntity
  8
BEZUGSACHSEN
100
AcDbSpline
 62
7
  6
CONTINUOUS
 70
0
 71
3
 72
9
 73
5
 74
0
 42
0.0000001
 43
0.0000001
 44
0.0000000001
 40
0.0
 40
0.0
 40
0.0
 40
0.0
 40
0.4897710491
 40
1.0
 40
1.0
 40
1.0
 40
1.0
 10
240.9068599733
 20
393.2632216767
 30
0.0
 10
240.5968169781
 20
393.0211253517
 30
0.0
 10
240.0379012029
 20
392.4240708753
 30
0.0
 10
239.6845599866
 20
391.6895949653
 30
0.0
 10
239.554034499
 20
391.3011400469
 30
0.0
  0
SPLINE
  5
4BF
100
AcDbEntity
  8
BEZUGSACHSEN
100
AcDbSpline
 62
7
  6
CONTINUOUS
 70
0
 71
3
 72
9
 73
5
 74
0
 42
0.0000001
 43
0.0000001
 44
0.0000000001
 40
0.0
 40
0.0
 40
0.0
 40
0.0
 40
0.5102291735
 40
1.0
 40
1.0
 40
1.0
 40
1.0
 10
319.5801935422
 20
391.301139857
 30
0.0
 10
319.4496679908
 20
391.6895949598
 30
0.0
 10
319.0963266951
 20
392.4240708779
 30
0.0
 10
318.5374109101
 20
393.0211253658
 30
0.0
 10
318.227368049
 20
393.2632215976
 30
0.0
  0
SPLINE
  5
4C0
100
AcDbEntity
  8
BEZUGSACHSEN
100
AcDbSpline
 62
7
  6
CONTINUOUS
 70
0
 71
3
 72
9
 73
5
 74
0
 42
0.0000001
 43
0.0000001
 44
0.0000000001
 40
0.0
 40
0.0
 40
0.0
 40
0.0
 40
0.4999994904
 40
1.0
 40
1.0
 40
1.0
 40
1.0
 10
315.727368049
 20
393.2436261723
 30
0.0
 10
314.7575181387
 20
392.764213545
 30
0.0
 10
312.8285331411
 20
391.7838664193
 30
0.0
 10
310.9001824808
 20
390.8024244325
 30
0.0
 10
309.9332182044
 20
390.3172129573
 30
0.0
  0
SPLINE
  5
4C1
100
AcDbEntity
  8
BEZUGSACHSEN
100
AcDbSpline
 62
7
  6
CONTINUOUS
 70
0
 71
3
 72
9
 73
5
 74
0
 42
0.0000001
 43
0.0000001
 44
0.0000000001
 40
0.0
 40
0.0
 40
0.0
 40
0.0
 40
0.5021126884
 40
1.0
 40
1.0
 40
1.0
 40
1.0
 10
320.5312156263
 20
385.5877266347
 30
0.0
 10
320.5312156263
 20
386.5603592955
 30
0.0
 10
320.3665952029
 20
388.5008951237
 30
0.0
 10
319.8873817649
 20
390.3869216723
 30
0.0
 10
319.5801935422
 20
391.301139857
 30
0.0
  0
SPLINE
  5
4C2
100
AcDbEntity
  8
BEZUGSACHSEN
100
AcDbSpline
 62
7
  6
CONTINUOUS
 70
0
 71
3
 72
9
 73
5
 74
0
 42
0.0000001
 43
0.0000001
 44
0.0000000001
 40
0.0
 40
0.0
 40
0.0
 40
0.0
 40
0.502112688
 40
1.0
 40
1.0
 40
1.0
 40
1.0
 10
238.6030123961
 20
385.5877266347
 30
0.0
 10
238.6030123961
 20
386.5603593263
 30
0.0
 10
238.7676328456
 20
388.5008952145
 30
0.0
 10
239.2468462698
 20
390.3869218306
 30
0.0
 10
239.554034499
 20
391.3011400469
 30
0.0
  0
SPLINE
  5
4C3
100
AcDbEntity
  8
BEZUGSACHSEN
100
AcDbSpline
 62
7
  6
CONTINUOUS
 70
0
 71
3
 72
11
 73
7
 74
0
 42
0.0000001
 43
0.0000001
 44
0.0000000001
 40
0.0
 40
0.0
 40
0.0
 40
0.0
 40
0.2603242665
 40
0.5159986521
 40
0.7621306876
 40
1.0
 40
1.0
 40
1.0
 40
1.0
 10
243.4068599733
 20
393.2436261553
 30
0.0
 10
243.202019336
 20
393.3448822317
 30
0.0
 10
242.781022349
 20
393.5177440313
 30
0.0
 10
242.1194868683
 20
393.6506314779
 30
0.0
 10
241.4599725016
 20
393.592905829
 30
0.0
 10
241.0714241703
 20
393.391721233
 30
0.0
 10
240.9068599733
 20
393.2632216767
 30
0.0
  0
SPLINE
  5
4C4
100
AcDbEntity
  8
BEZUGSACHSEN
100
AcDbSpline
 62
7
  6
CONTINUOUS
 70
0
 71
3
 72
11
 73
7
 74
0
 42
0.0000001
 43
0.0000001
 44
0.0000000001
 40
0.0
 40
0.0
 40
0.0
 40
0.0
 40
0.2462041192
 40
0.4938136478
 40
0.7449698752
 40
1.0
 40
1.0
 40
1.0
 40
1.0
 10
240.9068599733
 20
356.5404655804
 30
0.0
 10
241.0412576062
 20
356.319750129
 30
0.0
 10
241.3417641837
 20
355.8944747376
 30
0.0
 10
241.9072173514
 20
355.3458478246
 30
0.0
 10
242.6036523522
 20
354.9483421135
 30
0.0
 10
243.1391817853
 20
354.847651589
 30
0.0
 10
243.4068599733
 20
354.847651589
 30
0.0
  0
SPLINE
  5
4C5
100
AcDbEntity
  8
BEZUGSACHSEN
100
AcDbSpline
 62
7
  6
CONTINUOUS
 70
0
 71
3
 72
11
 73
7
 74
0
 42
0.0000001
 43
0.0000001
 44
0.0000000001
 40
0.0
 40
0.0
 40
0.0
 40
0.0
 40
0.2378663683
 40
0.4840030679
 40
0.7396784552
 40
1.0
 40
1.0
 40
1.0
 40
1.0
 10
318.227368049
 20
393.2632215976
 30
0.0
 10
318.0628058852
 20
393.3917195724
 30
0.0
 10
317.6742573635
 20
393.5929067215
 30
0.0
 10
317.014739701
 20
393.65063142
 30
0.0
 10
316.3532020014
 20
393.5177428332
 30
0.0
 10
315.9322065566
 20
393.3448811872
 30
0.0
 10
315.727368049
 20
393.2436261723
 30
0.0
  0
SPLINE
  5
4C6
100
AcDbEntity
  8
BEZUGSACHSEN
100
AcDbSpline
 62
7
  6
CONTINUOUS
 70
0
 71
3
 72
11
 73
7
 74
0
 42
0.0000001
 43
0.0000001
 44
0.0000000001
 40
0.0
 40
0.0
 40
0.0
 40
0.0
 40
0.2550308623
 40
0.5061865415
 40
0.7537959121
 40
1.0
 40
1.0
 40
1.0
 40
1.0
 10
315.727368049
 20
354.847651589
 30
0.0
 10
315.9950470119
 20
354.847651589
 30
0.0
 10
316.5305767047
 20
354.9483423392
 30
0.0
 10
317.2270113841
 20
355.3458485525
 30
0.0
 10
317.7924639791
 20
355.8944749147
 30
0.0
 10
318.0929704329
 20
356.3197501563
 30
0.0
 10
318.227368049
 20
356.5404655804
 30
0.0
  0
ELLIPSE
  5
4C7
100
AcDbEntity
  8
BEZUGSACHSEN
100
AcDbEllipse
 62
7
  6
CONTINUOUS
 10
279.3062063739
 20
364.3344845695
 30
0.0
 11
40.7031939779
 21
-0.0
 31
0.0
 40
0.5773502692
 41
-3.1415926536
 42
-2.8035296211
  0
ELLIPSE
  5
4C8
100
AcDbEntity
  8
BEZUGSACHSEN
100
AcDbEllipse
 62
7
  6
CONTINUOUS
 10
279.8280216485
 20
364.3344845695
 30
0.0
 11
40.7031939779
 21
-0.0
 31
0.0
 40
0.5773502692
 41
-0.3380630325
 42
0.0
  0
ENDSEC
  0
SECTION
  2
OBJECTS
  0
DICTIONARY
  5
C
100
AcDbDictionary
280
0
281
1
  3
ACAD_GROUP
350
D
  3
ACAD_MLINESTYLE
350
17
  3
ACAD_LAYOUT
350
1A
  3
ACAD_PLOTSETTINGS
350
19
  3
ACAD_PLOTSTYLENAME
350
E
  0
DICTIONARY
  5
D
102
{ACAD_REACTORS
330
C
102
}
100
AcDbDictionary
280
0
281
1
  0
ACDBDICTIONARYWDFLT
  5
E
102
{ACAD_REACTORS
330
C
102
}
100
AcDbDictionary
281
1
  3
Normal
350
F
100
AcDbDictionaryWithDefault
340
F
  0
DICTIONARY
  5
17
102
{ACAD_REACTORS
330
C
102
}
100
AcDbDictionary
280
0
281
1
  3
Standard
350
18
  0
DICTIONARY
  5
19
102
{ACAD_REACTORS
330
C
102
}
100
AcDbDictionary
281
1
  0
DICTIONARY
  5
1A
102
{ACAD_REACTORS
330
C
102
}
100
AcDbDictionary
281
1
  3
Model
350
4C9
  3
Layout1
350
4CA
  0
ACDBPLACEHOLDER
  5
F
102
{ACAD_REACTORS
330
E
102
}
  0
MLINESTYLE
  5
18
102
{ACAD_REACTORS
330
17
102
}
100
AcDbMlineStyle
  2
STANDARD
 70
0
  3

 62
256
 51
90.0
 52
90.0
 71
2
 49
0.5
 62
256
  6
BYLAYER
 49
-0.5
 62
256
  6
BYLAYER
  0
LAYOUT
  5
4C9
102
{ACAD_REACTORS
330
1A
102
}
100
AcDbPlotSettings
  1

  2
none_device
  4
ISO_A1_(594.00_x_841.00_MM)
  6

 40
0.0
 41
0.0
 42
0.0
 43
0.0
 44
841.0
 45
594.0
 46
0.0
 47
0.0
 48
0.0
 49
0.0
140
0.0
141
0.0
142
1.0
143
1.0
 70
1024
 72
1
 73
0
 74
0
  7

 75
0
147
1.0
148
0.0
149
0.0
100
AcDbLayout
  1
Model
 70
0
 71
0
 10
0.0
 20
0.0
 11
841.0
 21
594.0
 12
0.0
 22
0.0
 32
0.0
 14
0.0
 24
0.0
 34
0.0
 15
0.0
 25
0.0
 35
0.0
146
0.0
 13
0.0
 23
0.0
 33
0.0
 16
1.0
 26
0.0
 36
0.0
 17
0.0
 27
1.0
 37
0.0
 76
0
330
20C
345
0
346
0
  0
LAYOUT
  5
4CA
102
{ACAD_REACTORS
330
1A
102
}
100
AcDbPlotSettings
  1

  2
none_device
  4
ISO_A1_(594.00_x_841.00_MM)
  6

 40
0.0
 41
0.0
 42
0.0
 43
0.0
 44
841.0
 45
594.0
 46
0.0
 47
0.0
 48
0.0
 49
0.0
140
0.0
141
0.0
142
1.0
143
1.0
 70
0
 72
1
 73
0
 74
0
  7

 75
0
147
1.0
148
0.0
149
0.0
100
AcDbLayout
  1
Layout1
 70
0
 71
1
 10
0.0
 20
0.0
 11
841.0
 21
594.0
 12
0.0
 22
0.0
 32
0.0
 14
0.0
 24
0.0
 34
0.0
 15
0.0
 25
0.0
 35
0.0
146
0.0
 13
0.0
 23
0.0
 33
0.0
 16
1.0
 26
0.0
 36
0.0
 17
0.0
 27
1.0
 37
0.0
 76
0
330
20D
345
0
346
0
  0
ENDSEC
  0
EOF
