999
DXF file: 001-m35847-p-1.dxf
999
Pro/ENGINEER 2011490 by Parametric Technology Corporation
  0
SECTION
  2
HEADER
  9
$ACADVER
  1
AC1015
  9
$DWGCODEPAGE
  3
ANSI_1252
  9
$EXTMAX
 10
420.0
 20
297.0
 30
0.0
  9
$EXTMIN
 10
0.0
 20
0.0
 30
0.0
  9
$LIMMIN
 10
0.0
 20
0.0
  9
$LIMMAX
 10
420.0
 20
297.0
  9
$VIEWCTR
 10
210.0
 20
148.5
  9
$VIEWSIZE
 40
297.0
  9
$CLAYER
  8
0
  9
$LTSCALE
 40
23.1
  9
$CELTYPE
  6
BYLAYER
  9
$DIMSCALE
 40
1.0
  9
$DIMASZ
 40
3.5
  9
$DIMEXO
 40
2.625
  9
$DIMDLI
 40
15.96
  9
$DIMEXE
 40
7.56
  9
$DIMCEN
 40
3.78
  9
$DIMLFAC
 40
1.0
  9
$DIMBLK
  1
_FILLED
  9
$DIMTXT
 40
3.5
  9
$DIMTOL
 70
1
  9
$DIMLIM
 70
0
  9
$DIMTFAC
 40
1.0
  9
$DIMTP
 40
0.005
  9
$DIMTM
 40
0.005
  9
$PDMODE
 70
3
  9
$PDSIZE
 40
0.3125
  9
$HANDSEED
  5
67D
  9
$TILEMODE
 70
1
  9
$MEASUREMENT
 70
1
  9
$INSUNITS
 70
4
  0
ENDSEC
  0
SECTION
  2
CLASSES
  0
CLASS
  1
ACDBDICTIONARYWDFLT
  2
AcDbDictionaryWithDefault
  3
AutoCAD 2000
 90
0
280
0
281
0
  0
CLASS
  1
ACDBPLACEHOLDER
  2
AcDbPlaceHolder
  3
AutoCAD 2000
 90
0
280
0
281
0
  0
CLASS
  1
LAYOUT
  2
AcDbLayout
  3
AutoCAD 2000
 90
0
280
0
281
0
  0
ENDSEC
  0
SECTION
  2
TABLES
  0
TABLE
  2
VPORT
  5
8
100
AcDbSymbolTable
 70
2
  0
VPORT
  5
1F4
100
AcDbSymbolTableRecord
100
AcDbViewportTableRecord
  2
*ACTIVE
 70
0
 10
0.0
 20
0.0
 11
1.0
 21
1.0
 12
210.0
 22
148.5
 13
0.0
 23
0.0
 14
1.0
 24
1.0
 15
0.0
 25
0.0
 16
0.0
 26
0.0
 36
1.0
 17
0.0
 27
0.0
 37
0.0
 40
297.0
 41
1.4141414141
 42
50.0
 43
0.0
 44
0.0
 50
0.0
 51
0.0
 71
0
 72
100
 73
1
 74
1
 75
0
 76
0
 77
0
 78
0
  0
ENDTAB
  0
TABLE
  2
LTYPE
  5
5
100
AcDbSymbolTable
 70
6
  0
LTYPE
  5
14
100
AcDbSymbolTableRecord
100
AcDbLinetypeTableRecord
  2
BYBLOCK
 70
0
  3

 72
65
 73
0
 40
0.0
  0
LTYPE
  5
15
100
AcDbSymbolTableRecord
100
AcDbLinetypeTableRecord
  2
BYLAYER
 70
0
  3

 72
65
 73
0
 40
0.0
  0
LTYPE
  5
16
100
AcDbSymbolTableRecord
100
AcDbLinetypeTableRecord
  2
CONTINUOUS
 70
64
  3
Solid line
 72
65
 73
0
 40
0.0
  0
LTYPE
  5
1F5
100
AcDbSymbolTableRecord
100
AcDbLinetypeTableRecord
  2
CENTER
 70
64
  3
____ _ ____ _ ____ _ ____ _ ____ _ ____ _ ____
 72
65
 73
4
 40
0.6
 49
0.375
 74
0
 49
-0.075
 74
0
 49
0.075
 74
0
 49
-0.075
 74
0
  0
LTYPE
  5
1F6
100
AcDbSymbolTableRecord
100
AcDbLinetypeTableRecord
  2
HIDDEN
 70
64
  3
- - - - - - - - - - - - - - - - - - - -
 72
65
 73
2
 40
0.2
 49
0.1
 74
0
 49
-0.1
 74
0
  0
LTYPE
  5
1F7
100
AcDbSymbolTableRecord
100
AcDbLinetypeTableRecord
  2
PHANTOM
 70
64
  3
_____ _ _ _____ _ _ _____ _ _ _____
 72
65
 73
6
 40
0.8
 49
0.45
 74
0
 49
-0.05
 74
0
 49
0.1
 74
0
 49
-0.05
 74
0
 49
0.1
 74
0
 49
-0.05
 74
0
  0
LTYPE
  5
1F8
100
AcDbSymbolTableRecord
100
AcDbLinetypeTableRecord
  2
DOT
 70
64
  3
. . . . . . . . . . . . . . . . . . . .
 72
65
 73
2
 40
0.2
 49
0.1
 74
0
 49
-0.1
 74
0
  0
LTYPE
  5
1F9
100
AcDbSymbolTableRecord
100
AcDbLinetypeTableRecord
  2
DASHED
 70
64
  3
- - - - - - - - - - - - - - - - - - - -
 72
65
 73
2
 40
0.2
 49
0.1
 74
0
 49
-0.1
 74
0
  0
ENDTAB
  0
TABLE
  2
LAYER
  5
2
100
AcDbSymbolTable
 70
36
  0
LAYER
  5
10
100
AcDbSymbolTableRecord
100
AcDbLayerTableRecord
  2
0
 70
0
 62
7
  6
CONTINUOUS
370
-3
390
F
  0
LAYER
  5
1FA
100
AcDbSymbolTableRecord
100
AcDbLayerTableRecord
  2
DEFAULT_1
 70
0
 62
7
  6
CENTER
370
-3
390
F
  0
LAYER
  5
1FB
100
AcDbSymbolTableRecord
100
AcDbLayerTableRecord
  2
DEFAULT_2
 70
0
 62
8
  6
HIDDEN
370
-3
390
F
  0
LAYER
  5
1FC
100
AcDbSymbolTableRecord
100
AcDbLayerTableRecord
  2
DEFAULT_3
 70
0
 62
7
  6
PHANTOM
370
-3
390
F
  0
LAYER
  5
1FD
100
AcDbSymbolTableRecord
100
AcDbLayerTableRecord
  2
AUSFORMSCHRAEGEN
 70
0
 62
7
  6
CONTINUOUS
370
-3
390
F
  0
LAYER
  5
1FE
100
AcDbSymbolTableRecord
100
AcDbLayerTableRecord
  2
BEZUGSACHSEN
 70
0
 62
7
  6
CONTINUOUS
370
-3
390
F
  0
LAYER
  5
1FF
100
AcDbSymbolTableRecord
100
AcDbLayerTableRecord
  2
BEZUGSEBENEN
 70
0
 62
7
  6
CONTINUOUS
370
-3
390
F
  0
LAYER
  5
200
100
AcDbSymbolTableRecord
100
AcDbLayerTableRecord
  2
BG_STARTBEZUEGE
 70
0
 62
7
  6
CONTINUOUS
370
-3
390
F
  0
LAYER
  5
201
100
AcDbSymbolTableRecord
100
AcDbLayerTableRecord
  2
FASEN
 70
0
 62
7
  6
CONTINUOUS
370
-3
390
F
  0
LAYER
  5
202
100
AcDbSymbolTableRecord
100
AcDbLayerTableRecord
  2
FLAECHEN
 70
0
 62
7
  6
CONTINUOUS
370
-3
390
F
  0
LAYER
  5
203
100
AcDbSymbolTableRecord
100
AcDbLayerTableRecord
  2
FLAECHENVERBUND
 70
0
 62
7
  6
CONTINUOUS
370
-3
390
F
  0
LAYER
  5
204
100
AcDbSymbolTableRecord
100
AcDbLayerTableRecord
  2
HILFEN
 70
0
 62
7
  6
CONTINUOUS
370
-3
390
F
  0
LAYER
  5
205
100
AcDbSymbolTableRecord
100
AcDbLayerTableRecord
  2
KONSTRUKTIONSELEMENTE
 70
0
 62
7
  6
CONTINUOUS
370
-3
390
F
  0
LAYER
  5
206
100
AcDbSymbolTableRecord
100
AcDbLayerTableRecord
  2
KURVEN
 70
0
 62
7
  6
CONTINUOUS
370
-3
390
F
  0
LAYER
  5
207
100
AcDbSymbolTableRecord
100
AcDbLayerTableRecord
  2
NORM
 70
0
 62
7
  6
CONTINUOUS
370
-3
390
F
  0
LAYER
  5
208
100
AcDbSymbolTableRecord
100
AcDbLayerTableRecord
  2
PLATZIERUNG
 70
0
 62
7
  6
CONTINUOUS
370
-3
390
F
  0
LAYER
  5
209
100
AcDbSymbolTableRecord
100
AcDbLayerTableRecord
  2
RUNDUNGEN
 70
0
 62
7
  6
CONTINUOUS
370
-3
390
F
  0
LAYER
  5
20A
100
AcDbSymbolTableRecord
100
AcDbLayerTableRecord
  2
TEIL_STARTBEZUEGE
 70
0
 62
7
  6
CONTINUOUS
370
-3
390
F
  0
LAYER
  5
20B
100
AcDbSymbolTableRecord
100
AcDbLayerTableRecord
  2
T_STARTBEZUEGE
 70
0
 62
7
  6
CONTINUOUS
370
-3
390
F
  0
LAYER
  5
20C
100
AcDbSymbolTableRecord
100
AcDbLayerTableRecord
  2
XSEC_DATUMS
 70
0
 62
7
  6
CONTINUOUS
370
-3
390
F
  0
LAYER
  5
20D
100
AcDbSymbolTableRecord
100
AcDbLayerTableRecord
  2
ZEICHNUNGSBEMASSUNGEN
 70
0
 62
7
  6
CONTINUOUS
370
-3
390
F
  0
ENDTAB
  0
TABLE
  2
STYLE
  5
3
100
AcDbSymbolTable
 70
1
  0
STYLE
  5
11
100
AcDbSymbolTableRecord
100
AcDbTextStyleTableRecord
  2
STANDARD
 70
0
 40
0.0
 41
0.7
 50
0.0
 71
0
 42
0.2
  3
txt
  4

  0
STYLE
  5
20E
100
AcDbSymbolTableRecord
100
AcDbTextStyleTableRecord
  2
TEXTSTYLE_1
 70
0
 40
0.0
 41
0.8
 50
0.0
 71
0
 42
0.2
  3
gdt
  4

  0
ENDTAB
  0
TABLE
  2
VIEW
  5
6
100
AcDbSymbolTable
 70
0
  0
ENDTAB
  0
TABLE
  2
UCS
  5
7
100
AcDbSymbolTable
 70
0
  0
ENDTAB
  0
TABLE
  2
APPID
  5
9
100
AcDbSymbolTable
 70
1
  0
APPID
  5
20F
100
AcDbSymbolTableRecord
100
AcDbRegAppTableRecord
  2
ACAD
 70
0
  0
ENDTAB
  0
TABLE
  2
BLOCK_RECORD
  5
1
100
AcDbSymbolTable
 70
0
  0
BLOCK_RECORD
  5
210
100
AcDbSymbolTableRecord
100
AcDbBlockTableRecord
  2
*Model_Space
  0
BLOCK_RECORD
  5
211
100
AcDbSymbolTableRecord
100
AcDbBlockTableRecord
  2
*Paper_Space
  0
ENDTAB
  0
TABLE
  2
DIMSTYLE
  5
A
100
AcDbSymbolTable
 70
1
100
AcDbDimStyleTable
 71
0
  0
DIMSTYLE
105
212
100
AcDbSymbolTableRecord
100
AcDbDimStyleTableRecord
  2
STANDARD
 70
0
  3

  4

 40
1.0
 41
3.5
 42
0.0625
 43
0.38
 44
0.18
 45
0.0
 46
0.0
 47
0.005
 48
0.005
140
3.5
141
0.09
142
0.0
143
25.4
144
1.0
145
0.0
146
1.0
147
0.09
 71
1.0
 72
0.0
 73
0
 74
0
 75
0
 76
0
 77
1
 78
8
170
0
171
2
172
0
173
0
174
0
175
0
176
0
177
0
178
5
270
2
271
3
272
3
273
2
274
2
275
0
280
0
281
0
282
0
283
1
284
8
285
0
286
0
287
3
288
0
340
11
  0
ENDTAB
  0
ENDSEC
  0
SECTION
  2
BLOCKS
  0
BLOCK
  5
20
100
AcDbEntity
  8
0
100
AcDbBlockBegin
  2
*Model_Space
 70
0
 10
0.0
 20
0.0
 30
0.0
  3
*Model_Space
  1

  0
ENDBLK
  5
21
100
AcDbEntity
  8
0
100
AcDbBlockEnd
  0
BLOCK
  5
1C
100
AcDbEntity
  8
0
100
AcDbBlockBegin
  2
*Paper_Space
 70
0
 10
0.0
 20
0.0
 30
0.0
  3
*Paper_Space
  1

  0
ENDBLK
  5
1D
100
AcDbEntity
  8
0
100
AcDbBlockEnd
  0
ENDSEC
  0
SECTION
  2
ENTITIES
  0
MTEXT
  5
213
100
AcDbEntity
  8
0
100
AcDbMText
 62
5
  6
CONTINUOUS
  7
STANDARD
 71
1
 72
1
 10
374.996810453
 20
285.7047975436
 30
0.0
 11
1.0
 21
0.0
 31
0.0
 44
0.9
  1
RUD\PVRBK 16t
 40
5.0
 41
29.5238095238
  0
MTEXT
  5
214
100
AcDbEntity
  8
0
100
AcDbMText
 62
5
  6
CONTINUOUS
  7
STANDARD
 71
1
 72
1
 10
170.915593254
 20
51.8597029308
 30
0.0
 11
1.0
 21
0.0
 31
0.0
 44
0.9
  1
RUD\PVRBK 16t
 40
5.0
 41
29.5238095238
  0
LINE
  5
215
100
AcDbEntity
  8
0
100
AcDbLine
 62
7
  6
CONTINUOUS
 10
0.0
 20
0.0
 11
0.0
 21
297.0
  0
LINE
  5
216
100
AcDbEntity
  8
0
100
AcDbLine
 62
7
  6
CONTINUOUS
 10
0.0
 20
0.0
 11
420.0
 21
0.0
  0
LINE
  5
217
100
AcDbEntity
  8
0
100
AcDbLine
 62
7
  6
CONTINUOUS
 10
0.0
 20
297.0
 11
420.0
 21
297.0
  0
LINE
  5
218
100
AcDbEntity
  8
0
100
AcDbLine
 62
7
  6
CONTINUOUS
 10
420.0
 20
0.0
 11
420.0
 21
297.0
  0
LINE
  5
219
100
AcDbEntity
  8
0
100
AcDbLine
 62
7
  6
CONTINUOUS
 10
12.4769893318
 20
203.2091192752
 11
12.4773192885
 21
203.2088897019
  0
LWPOLYLINE
  5
21A
100
AcDbEntity
  8
0
100
AcDbPolyline
 62
7
  6
CONTINUOUS
 90
11
 70
0
 10
9.6753207231
 20
208.3621650874
 10
9.6813523252
 20
208.094844124
 10
9.7483698858
 20
207.4363904739
 10
9.8894640639
 20
206.7852066056
 10
10.1035865262
 20
206.1488579823
 10
10.3891308338
 20
205.5341904517
 10
10.743749143
 20
204.9479235454
 10
11.1647106886
 20
204.3957899398
 10
11.6482239746
 20
203.8844751878
 10
12.189875963
 20
203.4196003929
 10
12.4761557518
 20
203.2097607514
  0
LINE
  5
21B
100
AcDbEntity
  8
KONSTRUKTIONSELEMENTE
100
AcDbLine
 62
7
  6
CONTINUOUS
 10
9.6753207818
 20
278.9428709842
 11
9.6753207818
 21
268.2771495479
  0
LINE
  5
21C
100
AcDbEntity
  8
0
100
AcDbLine
 62
7
  6
CONTINUOUS
 10
9.675320783
 20
219.0280056951
 11
9.6753207818
 21
208.3625771537
  0
LINE
  5
21D
100
AcDbEntity
  8
RUNDUNGEN
100
AcDbLine
 62
7
  6
CONTINUOUS
 10
9.6753209438
 20
278.9432250938
 11
9.6753207966
 21
278.9426627634
  0
LWPOLYLINE
  5
21E
100
AcDbEntity
  8
KONSTRUKTIONSELEMENTE
100
AcDbPolyline
 62
7
  6
CONTINUOUS
 90
11
 70
0
 10
14.7111901068
 20
266.8458075784
 10
14.6970790829
 20
266.8875022001
 10
14.6982453578
 20
266.8823838335
 10
14.7103531963
 20
266.8273792165
 10
14.7286884248
 20
266.7260113136
 10
14.7500981759
 20
266.5805239051
 10
14.7720120692
 20
266.3954111352
 10
14.7929374475
 20
266.1720657447
 10
14.8116376256
 20
265.9134503186
 10
14.827315135
 20
265.6213792067
 10
14.8393157687
 20
265.2987397595
  0
LWPOLYLINE
  5
21F
100
AcDbEntity
  8
KONSTRUKTIONSELEMENTE
100
AcDbPolyline
 62
7
  6
CONTINUOUS
 90
3
 70
0
 10
14.8393157687
 20
265.2987397595
 10
14.8471860438
 20
264.9475866827
 10
14.8506212393
 20
264.5712895615
  0
LINE
  5
220
100
AcDbEntity
  8
KONSTRUKTIONSELEMENTE
100
AcDbLine
 62
7
  6
CONTINUOUS
 10
14.8506212393
 20
264.5712895615
 11
14.8507704236
 21
264.4693876995
  0
LINE
  5
221
100
AcDbEntity
  8
0
100
AcDbLine
 62
7
  6
CONTINUOUS
 10
14.8507704236
 20
264.4693876995
 11
14.8507704783
 21
264.4685923111
  0
LWPOLYLINE
  5
222
100
AcDbEntity
  8
0
100
AcDbPolyline
 62
7
  6
CONTINUOUS
 90
10
 70
0
 10
14.8507704783
 20
264.4685923111
 10
14.8483556954
 20
264.0520225939
 10
14.832387767
 20
263.276078609
 10
14.8011149715
 20
262.433324852
 10
14.7543007993
 20
261.5304494169
 10
14.6917568865
 20
260.5739889424
 10
14.6136467178
 20
259.571044748
 10
14.5201644379
 20
258.5293661721
 10
14.4116811427
 20
257.4562625628
 10
14.2887180513
 20
256.3597847481
  0
LINE
  5
223
100
AcDbEntity
  8
0
100
AcDbLine
 62
7
  6
CONTINUOUS
 10
9.693881447
 20
219.4594541836
 11
9.6753191742
 21
219.0270786051
  0
LWPOLYLINE
  5
224
100
AcDbEntity
  8
RUNDUNGEN
100
AcDbPolyline
 62
7
  6
CONTINUOUS
 90
3
 70
0
 10
9.7402092591
 20
279.8110224662
 10
9.6803042755
 20
279.1859885925
 10
9.6753206874
 20
278.9432070968
  0
LINE
  5
225
100
AcDbEntity
  8
0
100
AcDbLine
 62
7
  6
CONTINUOUS
 10
9.7135262836
 20
219.645452119
 11
9.693881447
 21
219.4594541836
  0
LINE
  5
226
100
AcDbEntity
  8
0
100
AcDbLine
 62
7
  6
CONTINUOUS
 10
9.7135630644
 20
219.6454475017
 11
14.2887180513
 21
256.3597847481
  0
LWPOLYLINE
  5
227
100
AcDbEntity
  8
KONSTRUKTIONSELEMENTE
100
AcDbPolyline
 62
7
  6
CONTINUOUS
 90
7
 70
0
 10
22.073963441
 20
308.3669958961
 10
20.2120525576
 20
303.8396736442
 10
18.2643430606
 20
299.2071939361
 10
16.286180778
 20
294.6204214993
 10
14.2727544394
 20
290.0836193127
 10
12.2166764233
 20
285.5964748932
 10
10.2381233192
 20
281.4239928744
  0
LWPOLYLINE
  5
228
100
AcDbEntity
  8
RUNDUNGEN
100
AcDbPolyline
 62
7
  6
CONTINUOUS
 90
4
 70
0
 10
10.2390964163
 20
281.426048178
 10
10.0609719261
 20
281.0165581747
 10
9.8676038085
 20
280.4236983661
 10
9.7402092591
 20
279.8110224662
  0
LINE
  5
229
100
AcDbEntity
  8
KONSTRUKTIONSELEMENTE
100
AcDbLine
 62
7
  6
CONTINUOUS
 10
289.9652308849
 20
202.5241969613
 11
237.1018780973
 21
195.933088135
  0
LINE
  5
22A
100
AcDbEntity
  8
0
100
AcDbLine
 62
7
  6
CONTINUOUS
 10
67.1286631908
 20
195.933088135
 11
14.2653104032
 21
202.5241969613
  0
LINE
  5
22B
100
AcDbEntity
  8
0
100
AcDbLine
 62
7
  6
CONTINUOUS
 10
42.4581649973
 20
305.3191744185
 11
42.4581649973
 21
306.0308139936
  0
LINE
  5
22C
100
AcDbEntity
  8
0
100
AcDbLine
 62
7
  6
CONTINUOUS
 10
42.4581649973
 20
310.976028668
 11
42.4581649973
 21
311.6876682431
  0
LINE
  5
22D
100
AcDbEntity
  8
0
100
AcDbLine
 62
7
  6
CONTINUOUS
 10
43.7914970591
 20
305.3191744185
 11
43.7914970591
 21
306.0308139936
  0
LINE
  5
22E
100
AcDbEntity
  8
RUNDUNGEN
100
AcDbLine
 62
7
  6
CONTINUOUS
 10
10.2390111146
 20
281.4258313257
 11
10.2381283828
 21
281.424003366
  0
LWPOLYLINE
  5
22F
100
AcDbEntity
  8
0
100
AcDbPolyline
 62
7
  6
CONTINUOUS
 90
7
 70
0
 10
67.1283626247
 20
195.9331445924
 10
67.2733265905
 20
195.9186308962
 10
67.6448383133
 20
195.9135962878
 10
68.0141335135
 20
195.9545182305
 10
68.3755475699
 20
196.0407716461
 10
68.723536954
 20
196.1710352493
 10
69.0528668577
 20
196.3433736595
  0
LINE
  5
230
100
AcDbEntity
  8
0
100
AcDbLine
 62
7
  6
CONTINUOUS
 10
47.4581649973
 20
311.6876682431
 11
47.4581649973
 21
309.9035433586
  0
LINE
  5
231
100
AcDbEntity
  8
0
100
AcDbLine
 62
7
  6
CONTINUOUS
 10
47.4581649973
 20
305.3191744185
 11
47.4581649973
 21
308.9566135323
  0
LINE
  5
232
100
AcDbEntity
  8
0
100
AcDbLine
 62
7
  6
CONTINUOUS
 10
48.4581649973
 20
305.3191744185
 11
48.4581649973
 21
311.6876682431
  0
LINE
  5
233
100
AcDbEntity
  8
0
100
AcDbLine
 62
7
  6
CONTINUOUS
 10
49.7914970591
 20
306.7595032206
 11
49.7914970591
 21
307.9732499656
  0
LINE
  5
234
100
AcDbEntity
  8
0
100
AcDbLine
 62
7
  6
CONTINUOUS
 10
49.7914970591
 20
309.1959788436
 11
49.7914970591
 21
310.4768488681
  0
LINE
  5
235
100
AcDbEntity
  8
0
100
AcDbLine
 62
7
  6
CONTINUOUS
 10
49.9581649973
 20
306.373785736
 11
49.9581649973
 21
307.0828537836
  0
LINE
  5
236
100
AcDbEntity
  8
0
100
AcDbLine
 62
7
  6
CONTINUOUS
 10
49.9581649973
 20
308.8454436382
 11
49.9581649973
 21
309.5527151011
  0
LINE
  5
237
100
AcDbEntity
  8
0
100
AcDbLine
 62
7
  6
CONTINUOUS
 10
50.4581649973
 20
305.8512270806
 11
50.4581649973
 21
306.5614455647
  0
LINE
  5
238
100
AcDbEntity
  8
0
100
AcDbLine
 62
7
  6
CONTINUOUS
 10
50.4581649973
 20
308.8356858664
 11
50.4581649973
 21
309.0769721191
  0
LINE
  5
239
100
AcDbEntity
  8
0
100
AcDbLine
 62
7
  6
CONTINUOUS
 10
50.7914970591
 20
307.5950825211
 11
50.7914970591
 21
307.8477650797
  0
LINE
  5
23A
100
AcDbEntity
  8
0
100
AcDbLine
 62
7
  6
CONTINUOUS
 10
50.7914970591
 20
310.0193461014
 11
50.7914970591
 21
310.3633301747
  0
LINE
  5
23B
100
AcDbEntity
  8
0
100
AcDbLine
 62
7
  6
CONTINUOUS
 10
50.9581649973
 20
307.5150581688
 11
50.9581649973
 21
308.2225086757
  0
LINE
  5
23C
100
AcDbEntity
  8
0
100
AcDbLine
 62
7
  6
CONTINUOUS
 10
50.9581649973
 20
309.9933472941
 11
50.9581649973
 21
310.7021695461
  0
LINE
  5
23D
100
AcDbEntity
  8
0
100
AcDbLine
 62
7
  6
CONTINUOUS
 10
51.1248310282
 20
305.4530806643
 11
51.1248310282
 21
306.1643393445
  0
LINE
  5
23E
100
AcDbEntity
  8
0
100
AcDbLine
 62
7
  6
CONTINUOUS
 10
51.2914970591
 20
307.7622163578
 11
51.2914970591
 21
308.4694878207
  0
LINE
  5
23F
100
AcDbEntity
  8
0
100
AcDbLine
 62
7
  6
CONTINUOUS
 10
51.2914970591
 20
310.2158673094
 11
51.2914970591
 21
310.9251978207
  0
LINE
  5
240
100
AcDbEntity
  8
0
100
AcDbLine
 62
7
  6
CONTINUOUS
 10
51.7914970591
 20
307.8849167164
 11
51.7914970591
 21
308.5921231061
  0
LINE
  5
241
100
AcDbEntity
  8
0
100
AcDbLine
 62
7
  6
CONTINUOUS
 10
51.7914970591
 20
310.3262410653
 11
51.7914970591
 21
311.0358507641
  0
LINE
  5
242
100
AcDbEntity
  8
0
100
AcDbLine
 62
7
  6
CONTINUOUS
 10
51.9581649973
 20
305.3191744185
 11
51.9581649973
 21
306.0308139936
  0
LINE
  5
243
100
AcDbEntity
  8
0
100
AcDbLine
 62
7
  6
CONTINUOUS
 10
54.9581649973
 20
311.0358507641
 11
54.9581649973
 21
309.3159820166
  0
LINE
  5
244
100
AcDbEntity
  8
0
100
AcDbLine
 62
7
  6
CONTINUOUS
 10
54.9581649973
 20
308.5921231061
 11
54.9581649973
 21
306.8232996324
  0
LINE
  5
245
100
AcDbEntity
  8
0
100
AcDbLine
 62
7
  6
CONTINUOUS
 10
55.9581640436
 20
305.3191744185
 11
55.9581640436
 21
311.6876682431
  0
LINE
  5
246
100
AcDbEntity
  8
0
100
AcDbLine
 62
7
  6
CONTINUOUS
 10
57.2914980127
 20
310.976028668
 11
57.2914980127
 21
311.6876682431
  0
LINE
  5
247
100
AcDbEntity
  8
0
100
AcDbLine
 62
7
  6
CONTINUOUS
 10
57.4581640436
 20
306.7595032206
 11
57.4581640436
 21
307.9732499656
  0
LINE
  5
248
100
AcDbEntity
  8
0
100
AcDbLine
 62
7
  6
CONTINUOUS
 10
57.6248310282
 20
306.373785736
 11
57.6248310282
 21
307.0828537836
  0
LINE
  5
249
100
AcDbEntity
  8
RUNDUNGEN
100
AcDbLine
 62
7
  6
CONTINUOUS
 10
149.0538031851
 20
413.7929184947
 11
103.5579430764
 21
394.9479162059
  0
LINE
  5
24A
100
AcDbEntity
  8
0
100
AcDbLine
 62
7
  6
CONTINUOUS
 10
58.1248310282
 20
305.8512270806
 11
58.1248310282
 21
306.5614455647
  0
LINE
  5
24B
100
AcDbEntity
  8
0
100
AcDbLine
 62
7
  6
CONTINUOUS
 10
58.4581640436
 20
307.4678836847
 11
58.4581640436
 21
307.8477650797
  0
LINE
  5
24C
100
AcDbEntity
  8
0
100
AcDbLine
 62
7
  6
CONTINUOUS
 10
58.6248310282
 20
307.5150581688
 11
58.6248310282
 21
308.2225086757
  0
LINE
  5
24D
100
AcDbEntity
  8
0
100
AcDbLine
 62
7
  6
CONTINUOUS
 10
58.7914980127
 20
305.4530806643
 11
58.7914980127
 21
306.1643393445
  0
LINE
  5
24E
100
AcDbEntity
  8
0
100
AcDbLine
 62
7
  6
CONTINUOUS
 10
58.9581640436
 20
307.7622163578
 11
58.9581640436
 21
308.4694878207
  0
LINE
  5
24F
100
AcDbEntity
  8
0
100
AcDbLine
 62
7
  6
CONTINUOUS
 10
59.4581640436
 20
307.8849167164
 11
59.4581640436
 21
308.5921231061
  0
LINE
  5
250
100
AcDbEntity
  8
0
100
AcDbLine
 62
7
  6
CONTINUOUS
 10
59.6248310282
 20
305.3191744185
 11
59.6248310282
 21
306.0308139936
  0
LINE
  5
251
100
AcDbEntity
  8
0
100
AcDbLine
 62
7
  6
CONTINUOUS
 10
62.6248310282
 20
311.6876682431
 11
62.6248310282
 21
309.3159820166
  0
LINE
  5
252
100
AcDbEntity
  8
0
100
AcDbLine
 62
7
  6
CONTINUOUS
 10
62.6248310282
 20
308.5921231061
 11
62.6248310282
 21
306.6926604329
  0
LINE
  5
253
100
AcDbEntity
  8
0
100
AcDbLine
 62
7
  6
CONTINUOUS
 10
63.6248310282
 20
305.3191744185
 11
63.6248310282
 21
311.6876682431
  0
LINE
  5
254
100
AcDbEntity
  8
0
100
AcDbLine
 62
7
  6
CONTINUOUS
 10
64.9581645204
 20
305.3191744185
 11
64.9581645204
 21
306.0308139936
  0
LINE
  5
255
100
AcDbEntity
  8
0
100
AcDbLine
 62
7
  6
CONTINUOUS
 10
65.9581645204
 20
305.3191744185
 11
65.9581645204
 21
306.0308139936
  0
LINE
  5
256
100
AcDbEntity
  8
0
100
AcDbLine
 62
7
  6
CONTINUOUS
 10
68.2914977743
 20
310.3262410653
 11
68.2914977743
 21
311.0358507641
  0
LINE
  5
257
100
AcDbEntity
  8
0
100
AcDbLine
 62
7
  6
CONTINUOUS
 10
70.6248310282
 20
305.3191744185
 11
70.6248310282
 21
306.0308139936
  0
LINE
  5
258
100
AcDbEntity
  8
0
100
AcDbLine
 62
7
  6
CONTINUOUS
 10
71.6248310282
 20
305.3191744185
 11
71.6248310282
 21
306.0308139936
  0
LINE
  5
259
100
AcDbEntity
  8
KONSTRUKTIONSELEMENTE
100
AcDbLine
 62
7
  6
CONTINUOUS
 10
78.4290707266
 20
283.5607417002
 11
78.4290707266
 21
318.1297141372
  0
LINE
  5
25A
100
AcDbEntity
  8
KONSTRUKTIONSELEMENTE
100
AcDbLine
 62
7
  6
CONTINUOUS
 10
80.6452706441
 20
261.561019837
 11
80.6452706441
 21
305.561019837
  0
LINE
  5
25B
100
AcDbEntity
  8
RUNDUNGEN
100
AcDbLine
 62
7
  6
CONTINUOUS
 10
99.2283742752
 20
390.6183474047
 11
79.8927843294
 21
343.938103921
  0
LINE
  5
25C
100
AcDbEntity
  8
KONSTRUKTIONSELEMENTE
100
AcDbLine
 62
7
  6
CONTINUOUS
 10
80.6452706441
 20
305.561019837
 11
78.4290707266
 21
318.1297141372
  0
LINE
  5
25D
100
AcDbEntity
  8
BEZUGSACHSEN
100
AcDbLine
 62
7
  6
CONTINUOUS
 10
82.7280005732
 20
307.6881906166
 11
82.7915919725
 21
307.0831588677
  0
LINE
  5
25E
100
AcDbEntity
  8
RUNDUNGEN
100
AcDbLine
 62
7
  6
CONTINUOUS
 10
79.3276454265
 20
340.0404087559
 11
83.1132875625
 21
304.022429781
  0
LINE
  5
25F
100
AcDbEntity
  8
0
100
AcDbLine
 62
7
  6
CONTINUOUS
 10
92.1952706441
 20
290.711019837
 11
92.1952706441
 21
298.711019837
  0
LINE
  5
260
100
AcDbEntity
  8
0
100
AcDbLine
 62
7
  6
CONTINUOUS
 10
93.1952706441
 20
290.711019837
 11
93.1952706441
 21
294.2854879728
  0
LINE
  5
261
100
AcDbEntity
  8
0
100
AcDbLine
 62
7
  6
CONTINUOUS
 10
93.1952706441
 20
295.3067644468
 11
93.1952706441
 21
297.8599561087
  0
LINE
  5
262
100
AcDbEntity
  8
KONSTRUKTIONSELEMENTE
100
AcDbLine
 62
7
  6
CONTINUOUS
 10
80.6452706441
 20
261.561019837
 11
70.3667889356
 21
203.2688533906
  0
LWPOLYLINE
  5
263
100
AcDbEntity
  8
KONSTRUKTIONSELEMENTE
100
AcDbPolyline
 62
7
  6
CONTINUOUS
 90
7
 70
0
 10
235.1776745464
 20
196.3433735886
 10
235.5351291827
 20
196.1586431286
 10
235.8844321399
 20
196.0319513028
 10
236.2467084355
 20
195.9494043415
 10
236.6164014207
 20
195.9122667099
 10
236.9878405207
 20
195.9211055139
 10
237.1021771213
 20
195.9331443998
  0
LINE
  5
264
100
AcDbEntity
  8
0
100
AcDbLine
 62
7
  6
CONTINUOUS
 10
97.3619371518
 20
296.8386796347
 11
97.3619371518
 21
296.3280409208
  0
LINE
  5
265
100
AcDbEntity
  8
0
100
AcDbLine
 62
7
  6
CONTINUOUS
 10
98.3619371518
 20
296.1578281752
 11
98.3619371518
 21
296.8386796347
  0
LINE
  5
266
100
AcDbEntity
  8
0
100
AcDbLine
 62
7
  6
CONTINUOUS
 10
99.8619371518
 20
293.4344240061
 11
99.8619371518
 21
298.711019837
  0
LINE
  5
267
100
AcDbEntity
  8
0
100
AcDbLine
 62
7
  6
CONTINUOUS
 10
100.8619376286
 20
293.4344240061
 11
100.8619376286
 21
298.711019837
  0
LINE
  5
268
100
AcDbEntity
  8
0
100
AcDbLine
 62
7
  6
CONTINUOUS
 10
104.8619376286
 20
293.4344240061
 11
104.8619376286
 21
298.711019837
  0
LINE
  5
269
100
AcDbEntity
  8
0
100
AcDbLine
 62
7
  6
CONTINUOUS
 10
97.3619371518
 20
296.3280409208
 11
97.1952706441
 21
295.8174026838
  0
LINE
  5
26A
100
AcDbEntity
  8
0
100
AcDbLine
 62
7
  6
CONTINUOUS
 10
98.1952706441
 20
295.6471899382
 11
98.3619371518
 21
296.1578281752
  0
LINE
  5
26B
100
AcDbEntity
  8
0
100
AcDbLine
 62
7
  6
CONTINUOUS
 10
98.1952706441
 20
297.3493178717
 11
97.6952706441
 21
298.0301688543
  0
LINE
  5
26C
100
AcDbEntity
  8
0
100
AcDbLine
 62
7
  6
CONTINUOUS
 10
101.3619376286
 20
292.2429347864
 11
101.0286036595
 21
292.7535730234
  0
LINE
  5
26D
100
AcDbEntity
  8
0
100
AcDbLine
 62
7
  6
CONTINUOUS
 10
100.0286041363
 20
292.5833602777
 11
100.3619376286
 21
291.9025091759
  0
LINE
  5
26E
100
AcDbEntity
  8
0
100
AcDbLine
 62
7
  6
CONTINUOUS
 10
98.5286041363
 20
290.711019837
 11
97.0286041363
 21
294.6259134642
  0
LINE
  5
26F
100
AcDbEntity
  8
0
100
AcDbLine
 62
7
  6
CONTINUOUS
 10
96.0286038979
 20
294.2854879728
 11
97.3619371518
 21
290.711019837
  0
LINE
  5
270
100
AcDbEntity
  8
0
100
AcDbLine
 62
7
  6
CONTINUOUS
 10
97.1952706441
 20
297.3493178717
 11
97.3619371518
 21
296.8386796347
  0
LINE
  5
271
100
AcDbEntity
  8
0
100
AcDbLine
 62
7
  6
CONTINUOUS
 10
98.3619371518
 20
296.8386796347
 11
98.1952706441
 21
297.3493178717
  0
LINE
  5
272
100
AcDbEntity
  8
0
100
AcDbLine
 62
7
  6
CONTINUOUS
 10
101.0286036595
 20
292.7535730234
 11
100.8619376286
 21
293.4344240061
  0
LINE
  5
273
100
AcDbEntity
  8
0
100
AcDbLine
 62
7
  6
CONTINUOUS
 10
99.8619371518
 20
293.4344240061
 11
100.0286041363
 21
292.5833602777
  0
LINE
  5
274
100
AcDbEntity
  8
0
100
AcDbLine
 62
7
  6
CONTINUOUS
 10
105.8619376286
 20
293.4344240061
 11
105.8619376286
 21
298.711019837
  0
LINE
  5
275
100
AcDbEntity
  8
0
100
AcDbLine
 62
7
  6
CONTINUOUS
 10
107.1952706441
 20
290.711019837
 11
107.1952706441
 21
298.711019837
  0
LINE
  5
276
100
AcDbEntity
  8
0
100
AcDbLine
 62
7
  6
CONTINUOUS
 10
108.1952706441
 20
291.7322964302
 11
108.1952706441
 21
297.689743363
  0
LINE
  5
277
100
AcDbEntity
  8
0
100
AcDbLine
 62
7
  6
CONTINUOUS
 10
112.8619366749
 20
295.9876154295
 11
112.8619366749
 21
293.4344240061
  0
LINE
  5
278
100
AcDbEntity
  8
0
100
AcDbLine
 62
7
  6
CONTINUOUS
 10
113.8619366749
 20
293.4344240061
 11
113.8619366749
 21
295.9876154295
  0
LINE
  5
279
100
AcDbEntity
  8
0
100
AcDbLine
 62
7
  6
CONTINUOUS
 10
105.6952706441
 20
292.5833602777
 11
105.8619376286
 21
293.4344240061
  0
LINE
  5
27A
100
AcDbEntity
  8
0
100
AcDbLine
 62
7
  6
CONTINUOUS
 10
113.6952706441
 20
292.5833602777
 11
113.8619366749
 21
293.4344240061
  0
LINE
  5
27B
100
AcDbEntity
  8
0
100
AcDbLine
 62
7
  6
CONTINUOUS
 10
104.8619376286
 20
293.4344240061
 11
104.6952706441
 21
292.7535730234
  0
LINE
  5
27C
100
AcDbEntity
  8
0
100
AcDbLine
 62
7
  6
CONTINUOUS
 10
112.8619366749
 20
293.4344240061
 11
112.6952706441
 21
292.7535730234
  0
LINE
  5
27D
100
AcDbEntity
  8
0
100
AcDbLine
 62
7
  6
CONTINUOUS
 10
105.3619376286
 20
291.9025091759
 11
105.6952706441
 21
292.5833602777
  0
LINE
  5
27E
100
AcDbEntity
  8
0
100
AcDbLine
 62
7
  6
CONTINUOUS
 10
97.6952706441
 20
294.9663389555
 11
98.1952706441
 21
295.6471899382
  0
LINE
  5
27F
100
AcDbEntity
  8
KONSTRUKTIONSELEMENTE
100
AcDbLine
 62
7
  6
CONTINUOUS
 10
14.8398086494
 20
265.2767485895
 11
12.6753083651
 21
265.2767485895
  0
LINE
  5
280
100
AcDbEntity
  8
0
100
AcDbLine
 62
7
  6
CONTINUOUS
 10
289.390717255
 20
265.2767485895
 11
291.5552329231
 21
265.2767485895
  0
LINE
  5
281
100
AcDbEntity
  8
RUNDUNGEN
100
AcDbLine
 62
7
  6
CONTINUOUS
 10
80.6452706441
 20
266.061019837
 11
223.5852706441
 21
266.061019837
  0
LINE
  5
282
100
AcDbEntity
  8
0
100
AcDbLine
 62
7
  6
CONTINUOUS
 10
101.0286036595
 20
291.2216581336
 11
101.6952706441
 21
290.8812325976
  0
LINE
  5
283
100
AcDbEntity
  8
0
100
AcDbLine
 62
7
  6
CONTINUOUS
 10
101.8619376286
 20
291.9025091759
 11
101.3619376286
 21
292.2429347864
  0
LINE
  5
284
100
AcDbEntity
  8
0
100
AcDbLine
 62
7
  6
CONTINUOUS
 10
97.6952706441
 20
298.0301688543
 11
97.0286041363
 21
298.5408070913
  0
LINE
  5
285
100
AcDbEntity
  8
0
100
AcDbLine
 62
7
  6
CONTINUOUS
 10
100.3619376286
 20
291.9025091759
 11
101.0286036595
 21
291.2216581336
  0
LINE
  5
286
100
AcDbEntity
  8
0
100
AcDbLine
 62
7
  6
CONTINUOUS
 10
96.8619371518
 20
297.689743363
 11
97.1952706441
 21
297.3493178717
  0
LINE
  5
287
100
AcDbEntity
  8
0
100
AcDbLine
 62
7
  6
CONTINUOUS
 10
112.3619366749
 20
297.179105126
 11
112.6952706441
 21
296.6684664122
  0
LINE
  5
288
100
AcDbEntity
  8
0
100
AcDbLine
 62
7
  6
CONTINUOUS
 10
113.6952706441
 20
296.8386796347
 11
113.3619366749
 21
297.5195306173
  0
LINE
  5
289
100
AcDbEntity
  8
0
100
AcDbLine
 62
7
  6
CONTINUOUS
 10
112.6952706441
 20
296.6684664122
 11
112.8619366749
 21
295.9876154295
  0
LINE
  5
28A
100
AcDbEntity
  8
0
100
AcDbLine
 62
7
  6
CONTINUOUS
 10
113.8619366749
 20
295.9876154295
 11
113.6952706441
 21
296.8386796347
  0
LINE
  5
28B
100
AcDbEntity
  8
0
100
AcDbLine
 62
7
  6
CONTINUOUS
 10
122.1152706441
 20
276.1944195717
 11
122.1152706441
 21
304.7033703727
  0
LINE
  5
28C
100
AcDbEntity
  8
0
100
AcDbLine
 62
7
  6
CONTINUOUS
 10
113.3619366749
 20
291.9025091759
 11
113.6952706441
 21
292.5833602777
  0
LINE
  5
28D
100
AcDbEntity
  8
0
100
AcDbLine
 62
7
  6
CONTINUOUS
 10
104.6952706441
 20
292.7535730234
 11
104.3619376286
 21
292.2429347864
  0
LINE
  5
28E
100
AcDbEntity
  8
0
100
AcDbLine
 62
7
  6
CONTINUOUS
 10
112.6952706441
 20
292.7535730234
 11
112.3619366749
 21
292.2429347864
  0
LINE
  5
28F
100
AcDbEntity
  8
0
100
AcDbLine
 62
7
  6
CONTINUOUS
 10
97.1952706441
 20
295.8174026838
 11
96.8619371518
 21
295.4769771925
  0
LINE
  5
290
100
AcDbEntity
  8
0
100
AcDbLine
 62
7
  6
CONTINUOUS
 10
104.6952706441
 20
291.2216581336
 11
105.3619376286
 21
291.9025091759
  0
LINE
  5
291
100
AcDbEntity
  8
0
100
AcDbLine
 62
7
  6
CONTINUOUS
 10
122.1152706441
 20
276.1944195717
 11
182.1152706441
 21
276.1944195717
  0
LINE
  5
292
100
AcDbEntity
  8
0
100
AcDbLine
 62
7
  6
CONTINUOUS
 10
144.1098397966
 20
279.061019837
 11
146.2232140597
 21
279.061019837
  0
LINE
  5
293
100
AcDbEntity
  8
0
100
AcDbLine
 62
7
  6
CONTINUOUS
 10
101.6952706441
 20
290.8812325976
 11
102.5286036595
 21
290.711019837
  0
LINE
  5
294
100
AcDbEntity
  8
0
100
AcDbLine
 62
7
  6
CONTINUOUS
 10
102.5286036595
 20
291.7322964302
 11
101.8619376286
 21
291.9025091759
  0
LINE
  5
295
100
AcDbEntity
  8
0
100
AcDbLine
 62
7
  6
CONTINUOUS
 10
96.8619371518
 20
297.689743363
 11
96.3619371518
 21
297.8599561087
  0
LINE
  5
296
100
AcDbEntity
  8
0
100
AcDbLine
 62
7
  6
CONTINUOUS
 10
112.6952706441
 20
298.2003816
 11
112.0286046132
 21
298.5408070913
  0
LINE
  5
297
100
AcDbEntity
  8
0
100
AcDbLine
 62
7
  6
CONTINUOUS
 10
111.8619366749
 20
297.5195306173
 11
112.3619366749
 21
297.179105126
  0
LINE
  5
298
100
AcDbEntity
  8
0
100
AcDbLine
 62
7
  6
CONTINUOUS
 10
113.3619366749
 20
297.5195306173
 11
112.6952706441
 21
298.2003816
  0
LINE
  5
299
100
AcDbEntity
  8
0
100
AcDbLine
 62
7
  6
CONTINUOUS
 10
141.6454812434
 20
287.8580328217
 11
141.6454812434
 21
286.3943533889
  0
LINE
  5
29A
100
AcDbEntity
  8
0
100
AcDbLine
 62
7
  6
CONTINUOUS
 10
112.6952706441
 20
291.2216581336
 11
113.3619366749
 21
291.9025091759
  0
LINE
  5
29B
100
AcDbEntity
  8
0
100
AcDbLine
 62
7
  6
CONTINUOUS
 10
104.3619376286
 20
292.2429347864
 11
103.8619376286
 21
291.9025091759
  0
LINE
  5
29C
100
AcDbEntity
  8
0
100
AcDbLine
 62
7
  6
CONTINUOUS
 10
112.3619366749
 20
292.2429347864
 11
111.8619366749
 21
291.9025091759
  0
LINE
  5
29D
100
AcDbEntity
  8
0
100
AcDbLine
 62
7
  6
CONTINUOUS
 10
97.0286041363
 20
294.6259134642
 11
97.6952706441
 21
294.9663389555
  0
LINE
  5
29E
100
AcDbEntity
  8
0
100
AcDbLine
 62
7
  6
CONTINUOUS
 10
158.0073281821
 20
285.4907553783
 11
159.1200231608
 21
285.4907553783
  0
LINE
  5
29F
100
AcDbEntity
  8
0
100
AcDbLine
 62
7
  6
CONTINUOUS
 10
161.2558000382
 20
285.4907553783
 11
162.5850605067
 21
285.4907553783
  0
LINE
  5
2A0
100
AcDbEntity
  8
0
100
AcDbLine
 62
7
  6
CONTINUOUS
 10
141.6454812434
 20
286.3943533889
 11
144.1098397966
 21
286.3943533889
  0
LINE
  5
2A1
100
AcDbEntity
  8
0
100
AcDbLine
 62
7
  6
CONTINUOUS
 10
162.5850605067
 20
287.0888544312
 11
161.2558000382
 21
287.0888544312
  0
LINE
  5
2A2
100
AcDbEntity
  8
0
100
AcDbLine
 62
7
  6
CONTINUOUS
 10
159.1200231608
 20
287.0888544312
 11
158.0073281821
 21
287.0888544312
  0
LINE
  5
2A3
100
AcDbEntity
  8
0
100
AcDbLine
 62
7
  6
CONTINUOUS
 10
154.6841776665
 20
287.1187252394
 11
156.8498260077
 21
287.1187252394
  0
LINE
  5
2A4
100
AcDbEntity
  8
0
100
AcDbLine
 62
7
  6
CONTINUOUS
 10
161.2558000382
 20
289.2470349065
 11
159.1200231608
 21
289.2470349065
  0
LINE
  5
2A5
100
AcDbEntity
  8
0
100
AcDbLine
 62
7
  6
CONTINUOUS
 10
146.2232140597
 20
289.6876324407
 11
144.572840273
 21
289.6876324407
  0
LINE
  5
2A6
100
AcDbEntity
  8
0
100
AcDbLine
 62
7
  6
CONTINUOUS
 10
92.1952706441
 20
290.711019837
 11
93.1952706441
 21
290.711019837
  0
LINE
  5
2A7
100
AcDbEntity
  8
0
100
AcDbLine
 62
7
  6
CONTINUOUS
 10
97.3619371518
 20
290.711019837
 11
98.5286041363
 21
290.711019837
  0
LINE
  5
2A8
100
AcDbEntity
  8
0
100
AcDbLine
 62
7
  6
CONTINUOUS
 10
102.5286036595
 20
290.711019837
 11
103.1952706441
 21
290.711019837
  0
LINE
  5
2A9
100
AcDbEntity
  8
0
100
AcDbLine
 62
7
  6
CONTINUOUS
 10
107.1952706441
 20
290.711019837
 11
111.1952706441
 21
290.711019837
  0
LINE
  5
2AA
100
AcDbEntity
  8
0
100
AcDbLine
 62
7
  6
CONTINUOUS
 10
111.1952706441
 20
291.7322964302
 11
108.1952706441
 21
291.7322964302
  0
LINE
  5
2AB
100
AcDbEntity
  8
0
100
AcDbLine
 62
7
  6
CONTINUOUS
 10
103.1952706441
 20
291.7322964302
 11
102.5286036595
 21
291.7322964302
  0
LINE
  5
2AC
100
AcDbEntity
  8
0
100
AcDbLine
 62
7
  6
CONTINUOUS
 10
93.1952706441
 20
294.2854879728
 11
96.0286038979
 21
294.2854879728
  0
LINE
  5
2AD
100
AcDbEntity
  8
0
100
AcDbLine
 62
7
  6
CONTINUOUS
 10
97.0286041363
 20
298.5408070913
 11
96.1952706441
 21
298.711019837
  0
LINE
  5
2AE
100
AcDbEntity
  8
0
100
AcDbLine
 62
7
  6
CONTINUOUS
 10
112.0286046132
 20
298.5408070913
 11
111.1952706441
 21
298.711019837
  0
LINE
  5
2AF
100
AcDbEntity
  8
0
100
AcDbLine
 62
7
  6
CONTINUOUS
 10
111.1952706441
 20
297.689743363
 11
111.8619366749
 21
297.5195306173
  0
LINE
  5
2B0
100
AcDbEntity
  8
0
100
AcDbLine
 62
7
  6
CONTINUOUS
 10
144.1098397966
 20
286.3943533889
 11
144.1098397966
 21
279.061019837
  0
LINE
  5
2B1
100
AcDbEntity
  8
0
100
AcDbLine
 62
7
  6
CONTINUOUS
 10
146.2232140597
 20
279.061019837
 11
146.2232140597
 21
289.6876324407
  0
LINE
  5
2B2
100
AcDbEntity
  8
0
100
AcDbLine
 62
7
  6
CONTINUOUS
 10
104.0286036595
 20
290.8812325976
 11
104.6952706441
 21
291.2216581336
  0
LINE
  5
2B3
100
AcDbEntity
  8
0
100
AcDbLine
 62
7
  6
CONTINUOUS
 10
112.0286046132
 20
290.8812325976
 11
112.6952706441
 21
291.2216581336
  0
LINE
  5
2B4
100
AcDbEntity
  8
0
100
AcDbLine
 62
7
  6
CONTINUOUS
 10
96.8619371518
 20
295.4769771925
 11
96.3619371518
 21
295.3067644468
  0
LINE
  5
2B5
100
AcDbEntity
  8
0
100
AcDbLine
 62
7
  6
CONTINUOUS
 10
111.8619366749
 20
291.9025091759
 11
111.1952706441
 21
291.7322964302
  0
LINE
  5
2B6
100
AcDbEntity
  8
0
100
AcDbLine
 62
7
  6
CONTINUOUS
 10
103.8619376286
 20
291.9025091759
 11
103.1952706441
 21
291.7322964302
  0
LINE
  5
2B7
100
AcDbEntity
  8
0
100
AcDbLine
 62
7
  6
CONTINUOUS
 10
111.1952706441
 20
290.711019837
 11
112.0286046132
 21
290.8812325976
  0
LINE
  5
2B8
100
AcDbEntity
  8
0
100
AcDbLine
 62
7
  6
CONTINUOUS
 10
103.1952706441
 20
290.711019837
 11
104.0286036595
 21
290.8812325976
  0
LINE
  5
2B9
100
AcDbEntity
  8
0
100
AcDbLine
 62
7
  6
CONTINUOUS
 10
96.3619371518
 20
295.3067644468
 11
93.1952706441
 21
295.3067644468
  0
LINE
  5
2BA
100
AcDbEntity
  8
0
100
AcDbLine
 62
7
  6
CONTINUOUS
 10
108.1952706441
 20
297.689743363
 11
111.1952706441
 21
297.689743363
  0
LINE
  5
2BB
100
AcDbEntity
  8
0
100
AcDbLine
 62
7
  6
CONTINUOUS
 10
96.3619371518
 20
297.8599561087
 11
93.1952706441
 21
297.8599561087
  0
LINE
  5
2BC
100
AcDbEntity
  8
0
100
AcDbLine
 62
7
  6
CONTINUOUS
 10
111.1952706441
 20
298.711019837
 11
107.1952706441
 21
298.711019837
  0
LINE
  5
2BD
100
AcDbEntity
  8
0
100
AcDbLine
 62
7
  6
CONTINUOUS
 10
105.8619376286
 20
298.711019837
 11
104.8619376286
 21
298.711019837
  0
LINE
  5
2BE
100
AcDbEntity
  8
0
100
AcDbLine
 62
7
  6
CONTINUOUS
 10
100.8619376286
 20
298.711019837
 11
99.8619371518
 21
298.711019837
  0
LINE
  5
2BF
100
AcDbEntity
  8
0
100
AcDbLine
 62
7
  6
CONTINUOUS
 10
96.1952706441
 20
298.711019837
 11
92.1952706441
 21
298.711019837
  0
LINE
  5
2C0
100
AcDbEntity
  8
0
100
AcDbLine
 62
7
  6
CONTINUOUS
 10
261.7723762908
 20
305.3191744185
 11
260.4390442291
 21
305.3191744185
  0
LINE
  5
2C1
100
AcDbEntity
  8
0
100
AcDbLine
 62
7
  6
CONTINUOUS
 10
256.7723762908
 20
305.3191744185
 11
255.7723762908
 21
305.3191744185
  0
LINE
  5
2C2
100
AcDbEntity
  8
0
100
AcDbLine
 62
7
  6
CONTINUOUS
 10
252.2723762908
 20
305.3191744185
 11
248.2723772445
 21
305.3191744185
  0
LINE
  5
2C3
100
AcDbEntity
  8
0
100
AcDbLine
 62
7
  6
CONTINUOUS
 10
246.9390432754
 20
305.3191744185
 11
245.7723772445
 21
305.3191744185
  0
LINE
  5
2C4
100
AcDbEntity
  8
0
100
AcDbLine
 62
7
  6
CONTINUOUS
 10
241.6057102599
 20
305.3191744185
 11
240.6057102599
 21
305.3191744185
  0
LINE
  5
2C5
100
AcDbEntity
  8
0
100
AcDbLine
 62
7
  6
CONTINUOUS
 10
236.6057102599
 20
305.3191744185
 11
235.2723770061
 21
305.3191744185
  0
LINE
  5
2C6
100
AcDbEntity
  8
0
100
AcDbLine
 62
7
  6
CONTINUOUS
 10
42.4581649973
 20
305.3191744185
 11
43.7914970591
 21
305.3191744185
  0
LINE
  5
2C7
100
AcDbEntity
  8
0
100
AcDbLine
 62
7
  6
CONTINUOUS
 10
47.4581649973
 20
305.3191744185
 11
48.4581649973
 21
305.3191744185
  0
LINE
  5
2C8
100
AcDbEntity
  8
0
100
AcDbLine
 62
7
  6
CONTINUOUS
 10
51.9581649973
 20
305.3191744185
 11
55.9581640436
 21
305.3191744185
  0
LINE
  5
2C9
100
AcDbEntity
  8
0
100
AcDbLine
 62
7
  6
CONTINUOUS
 10
59.6248310282
 20
305.3191744185
 11
63.6248310282
 21
305.3191744185
  0
LINE
  5
2CA
100
AcDbEntity
  8
0
100
AcDbLine
 62
7
  6
CONTINUOUS
 10
64.9581645204
 20
305.3191744185
 11
65.9581645204
 21
305.3191744185
  0
LINE
  5
2CB
100
AcDbEntity
  8
0
100
AcDbLine
 62
7
  6
CONTINUOUS
 10
70.6248310282
 20
305.3191744185
 11
71.6248310282
 21
305.3191744185
  0
LINE
  5
2CC
100
AcDbEntity
  8
0
100
AcDbLine
 62
7
  6
CONTINUOUS
 10
42.4581649973
 20
306.0308139936
 11
43.7914970591
 21
306.0308139936
  0
LINE
  5
2CD
100
AcDbEntity
  8
0
100
AcDbLine
 62
7
  6
CONTINUOUS
 10
47.4581649973
 20
306.0308139936
 11
48.4581649973
 21
306.0308139936
  0
LINE
  5
2CE
100
AcDbEntity
  8
0
100
AcDbLine
 62
7
  6
CONTINUOUS
 10
51.9581649973
 20
306.0308139936
 11
55.9581640436
 21
306.0308139936
  0
LINE
  5
2CF
100
AcDbEntity
  8
0
100
AcDbLine
 62
7
  6
CONTINUOUS
 10
59.6248310282
 20
306.0308139936
 11
63.6248310282
 21
306.0308139936
  0
LINE
  5
2D0
100
AcDbEntity
  8
0
100
AcDbLine
 62
7
  6
CONTINUOUS
 10
64.9581645204
 20
306.0308139936
 11
65.9581645204
 21
306.0308139936
  0
LINE
  5
2D1
100
AcDbEntity
  8
0
100
AcDbLine
 62
7
  6
CONTINUOUS
 10
70.6248310282
 20
306.0308139936
 11
71.6248310282
 21
306.0308139936
  0
LINE
  5
2D2
100
AcDbEntity
  8
0
100
AcDbLine
 62
7
  6
CONTINUOUS
 10
235.2723770061
 20
306.0308139936
 11
236.6057102599
 21
306.0308139936
  0
LINE
  5
2D3
100
AcDbEntity
  8
0
100
AcDbLine
 62
7
  6
CONTINUOUS
 10
240.6057102599
 20
306.0308139936
 11
241.6057102599
 21
306.0308139936
  0
LINE
  5
2D4
100
AcDbEntity
  8
0
100
AcDbLine
 62
7
  6
CONTINUOUS
 10
245.7723772445
 20
306.0308139936
 11
246.9390432754
 21
306.0308139936
  0
LINE
  5
2D5
100
AcDbEntity
  8
0
100
AcDbLine
 62
7
  6
CONTINUOUS
 10
248.2723772445
 20
306.0308139936
 11
252.2723762908
 21
306.0308139936
  0
LINE
  5
2D6
100
AcDbEntity
  8
0
100
AcDbLine
 62
7
  6
CONTINUOUS
 10
255.7723762908
 20
306.0308139936
 11
256.7723762908
 21
306.0308139936
  0
LINE
  5
2D7
100
AcDbEntity
  8
0
100
AcDbLine
 62
7
  6
CONTINUOUS
 10
260.4390442291
 20
306.0308139936
 11
261.7723762908
 21
306.0308139936
  0
LINE
  5
2D8
100
AcDbEntity
  8
0
100
AcDbLine
 62
7
  6
CONTINUOUS
 10
62.6248310282
 20
306.6926604329
 11
59.4581640436
 21
306.6926604329
  0
LINE
  5
2D9
100
AcDbEntity
  8
0
100
AcDbLine
 62
7
  6
CONTINUOUS
 10
158.0073281821
 20
287.0888544312
 11
158.0073281821
 21
285.4907553783
  0
LINE
  5
2DA
100
AcDbEntity
  8
0
100
AcDbLine
 62
7
  6
CONTINUOUS
 10
159.1200231608
 20
289.2470349065
 11
159.1200231608
 21
287.0888544312
  0
LINE
  5
2DB
100
AcDbEntity
  8
0
100
AcDbLine
 62
7
  6
CONTINUOUS
 10
159.1200231608
 20
285.4907553783
 11
159.1200231608
 21
281.3909587702
  0
LINE
  5
2DC
100
AcDbEntity
  8
0
100
AcDbLine
 62
7
  6
CONTINUOUS
 10
161.2558000382
 20
281.4058941743
 11
161.2558000382
 21
285.4907553783
  0
LINE
  5
2DD
100
AcDbEntity
  8
0
100
AcDbLine
 62
7
  6
CONTINUOUS
 10
161.2558000382
 20
287.0888544312
 11
161.2558000382
 21
289.2470349065
  0
LINE
  5
2DE
100
AcDbEntity
  8
0
100
AcDbLine
 62
7
  6
CONTINUOUS
 10
162.5850605067
 20
278.8967292757
 11
162.5850605067
 21
280.5022961638
  0
LINE
  5
2DF
100
AcDbEntity
  8
0
100
AcDbLine
 62
7
  6
CONTINUOUS
 10
162.5850605067
 20
285.4907553783
 11
162.5850605067
 21
287.0888544312
  0
LINE
  5
2E0
100
AcDbEntity
  8
0
100
AcDbLine
 62
7
  6
CONTINUOUS
 10
252.4390442291
 20
306.8232997237
 11
249.2723762908
 21
306.8232997237
  0
LINE
  5
2E1
100
AcDbEntity
  8
0
100
AcDbLine
 62
7
  6
CONTINUOUS
 10
54.9581649973
 20
306.8232996324
 11
51.7914970591
 21
306.8232996324
  0
LINE
  5
2E2
100
AcDbEntity
  8
0
100
AcDbLine
 62
7
  6
CONTINUOUS
 10
51.7914970591
 20
307.8849167164
 11
54.9581649973
 21
307.8849167164
  0
LINE
  5
2E3
100
AcDbEntity
  8
0
100
AcDbLine
 62
7
  6
CONTINUOUS
 10
59.4581640436
 20
307.8849167164
 11
62.6248310282
 21
307.8849167164
  0
LINE
  5
2E4
100
AcDbEntity
  8
0
100
AcDbLine
 62
7
  6
CONTINUOUS
 10
252.4390442291
 20
308.0070314865
 11
249.2723762908
 21
308.0070314865
  0
LINE
  5
2E5
100
AcDbEntity
  8
0
100
AcDbLine
 62
7
  6
CONTINUOUS
 10
244.4390432754
 20
308.0070314865
 11
241.6057102599
 21
308.0070314865
  0
LINE
  5
2E6
100
AcDbEntity
  8
0
100
AcDbLine
 62
7
  6
CONTINUOUS
 10
51.7914970591
 20
308.5921231061
 11
54.9581649973
 21
308.5921231061
  0
LINE
  5
2E7
100
AcDbEntity
  8
0
100
AcDbLine
 62
7
  6
CONTINUOUS
 10
59.4581640436
 20
308.5921231061
 11
62.6248310282
 21
308.5921231061
  0
LINE
  5
2E8
100
AcDbEntity
  8
0
100
AcDbLine
 62
7
  6
CONTINUOUS
 10
241.6057102599
 20
308.7141890831
 11
244.4390432754
 21
308.7141890831
  0
LINE
  5
2E9
100
AcDbEntity
  8
0
100
AcDbLine
 62
7
  6
CONTINUOUS
 10
249.2723762908
 20
308.7141890831
 11
252.4390442291
 21
308.7141890831
  0
LINE
  5
2EA
100
AcDbEntity
  8
0
100
AcDbLine
 62
7
  6
CONTINUOUS
 10
62.6248310282
 20
309.3159820166
 11
59.7914980127
 21
309.3159820166
  0
LINE
  5
2EB
100
AcDbEntity
  8
0
100
AcDbLine
 62
7
  6
CONTINUOUS
 10
54.9581649973
 20
309.3159820166
 11
51.7914970591
 21
309.3159820166
  0
LINE
  5
2EC
100
AcDbEntity
  8
0
100
AcDbLine
 62
7
  6
CONTINUOUS
 10
252.4390442291
 20
309.434633213
 11
249.2723762908
 21
309.434633213
  0
LINE
  5
2ED
100
AcDbEntity
  8
0
100
AcDbLine
 62
7
  6
CONTINUOUS
 10
244.7723772445
 20
309.434633213
 11
241.6057102599
 21
309.434633213
  0
LINE
  5
2EE
100
AcDbEntity
  8
0
100
AcDbLine
 62
7
  6
CONTINUOUS
 10
252.4390442291
 20
310.3262411424
 11
249.2723762908
 21
310.3262411424
  0
LINE
  5
2EF
100
AcDbEntity
  8
0
100
AcDbLine
 62
7
  6
CONTINUOUS
 10
51.7914970591
 20
310.3262410653
 11
54.9581649973
 21
310.3262410653
  0
LINE
  5
2F0
100
AcDbEntity
  8
0
100
AcDbLine
 62
7
  6
CONTINUOUS
 10
244.7723772445
 20
310.4360231462
 11
241.6057102599
 21
310.4360231462
  0
LINE
  5
2F1
100
AcDbEntity
  8
0
100
AcDbLine
 62
7
  6
CONTINUOUS
 10
51.7914970591
 20
311.0358507641
 11
54.9581649973
 21
311.0358507641
  0
LINE
  5
2F2
100
AcDbEntity
  8
0
100
AcDbLine
 62
7
  6
CONTINUOUS
 10
249.2723762908
 20
311.0358508414
 11
252.4390442291
 21
311.0358508414
  0
LINE
  5
2F3
100
AcDbEntity
  8
0
100
AcDbLine
 62
7
  6
CONTINUOUS
 10
241.6057102599
 20
311.1459288153
 11
244.7723772445
 21
311.1459288153
  0
LINE
  5
2F4
100
AcDbEntity
  8
0
100
AcDbLine
 62
7
  6
CONTINUOUS
 10
261.7723762908
 20
311.6876682431
 11
260.4390442291
 21
311.6876682431
  0
LINE
  5
2F5
100
AcDbEntity
  8
0
100
AcDbLine
 62
7
  6
CONTINUOUS
 10
256.7723762908
 20
311.6876682431
 11
255.7723762908
 21
311.6876682431
  0
LINE
  5
2F6
100
AcDbEntity
  8
0
100
AcDbLine
 62
7
  6
CONTINUOUS
 10
252.2723762908
 20
311.6876682431
 11
248.2723772445
 21
311.6876682431
  0
LINE
  5
2F7
100
AcDbEntity
  8
0
100
AcDbLine
 62
7
  6
CONTINUOUS
 10
244.6057102599
 20
311.6876682431
 11
240.6057102599
 21
311.6876682431
  0
LINE
  5
2F8
100
AcDbEntity
  8
0
100
AcDbLine
 62
7
  6
CONTINUOUS
 10
239.2723767677
 20
311.6876682431
 11
238.2723767677
 21
311.6876682431
  0
LINE
  5
2F9
100
AcDbEntity
  8
0
100
AcDbLine
 62
7
  6
CONTINUOUS
 10
233.6057102599
 20
311.6876682431
 11
232.6057102599
 21
311.6876682431
  0
LINE
  5
2FA
100
AcDbEntity
  8
0
100
AcDbLine
 62
7
  6
CONTINUOUS
 10
68.958164282
 20
311.6876682431
 11
67.6248310282
 21
311.6876682431
  0
LINE
  5
2FB
100
AcDbEntity
  8
0
100
AcDbLine
 62
7
  6
CONTINUOUS
 10
63.6248310282
 20
311.6876682431
 11
62.6248310282
 21
311.6876682431
  0
LINE
  5
2FC
100
AcDbEntity
  8
0
100
AcDbLine
 62
7
  6
CONTINUOUS
 10
58.4581640436
 20
311.6876682431
 11
57.2914980127
 21
311.6876682431
  0
LINE
  5
2FD
100
AcDbEntity
  8
0
100
AcDbLine
 62
7
  6
CONTINUOUS
 10
55.9581640436
 20
311.6876682431
 11
51.9581649973
 21
311.6876682431
  0
LINE
  5
2FE
100
AcDbEntity
  8
0
100
AcDbLine
 62
7
  6
CONTINUOUS
 10
48.4581649973
 20
311.6876682431
 11
47.4581649973
 21
311.6876682431
  0
LINE
  5
2FF
100
AcDbEntity
  8
0
100
AcDbLine
 62
7
  6
CONTINUOUS
 10
43.7914970591
 20
311.6876682431
 11
42.4581649973
 21
311.6876682431
  0
LINE
  5
300
100
AcDbEntity
  8
KONSTRUKTIONSELEMENTE
100
AcDbLine
 62
7
  6
CONTINUOUS
 10
36.62469466
 20
318.561019837
 11
76.8792934549
 21
318.561019837
  0
LINE
  5
301
100
AcDbEntity
  8
0
100
AcDbLine
 62
7
  6
CONTINUOUS
 10
267.6150854187
 20
318.5610169479
 11
227.3512478332
 21
318.561019837
  0
LWPOLYLINE
  5
302
100
AcDbEntity
  8
KONSTRUKTIONSELEMENTE
100
AcDbPolyline
 62
7
  6
CONTINUOUS
 90
17
 70
0
 10
36.6244736021
 20
318.5610197661
 10
35.5312570823
 20
318.5216885324
 10
34.1002033206
 20
318.3502158609
 10
32.6886954293
 20
318.0434604062
 10
31.3208158131
 20
317.6076651503
 10
30.0146216127
 20
317.0525769976
 10
28.786956013
 20
316.392007443
 10
27.6503512165
 20
315.6421454335
 10
26.6166841865
 20
314.823552365
 10
25.6926160193
 20
313.9580799536
 10
24.8803768858
 20
313.0681296831
 10
24.1795809675
 20
312.17767134
 10
23.5802420568
 20
311.3009797897
 10
23.0735823026
 20
310.4534138402
 10
22.6455662237
 20
309.6398020016
 10
22.2842989439
 20
308.8644047339
 10
22.072810284
 20
308.364162803
  0
LINE
  5
303
100
AcDbEntity
  8
0
100
AcDbLine
 62
7
  6
CONTINUOUS
 10
182.1152706441
 20
276.1944195717
 11
182.1152706441
 21
304.7033704286
  0
LINE
  5
304
100
AcDbEntity
  8
KONSTRUKTIONSELEMENTE
100
AcDbLine
 62
7
  6
CONTINUOUS
 10
223.5852706441
 20
261.561019837
 11
223.5852706441
 21
305.561019837
  0
LINE
  5
305
100
AcDbEntity
  8
BEZUGSACHSEN
100
AcDbLine
 62
7
  6
CONTINUOUS
 10
221.4389493156
 20
307.0831588677
 11
221.5025407149
 21
307.6881906166
  0
LINE
  5
306
100
AcDbEntity
  8
RUNDUNGEN
100
AcDbLine
 62
7
  6
CONTINUOUS
 10
221.1172540653
 20
304.0224330132
 11
224.9028958616
 21
340.0404087559
  0
LINE
  5
307
100
AcDbEntity
  8
KONSTRUKTIONSELEMENTE
100
AcDbLine
 62
7
  6
CONTINUOUS
 10
223.5852706441
 20
305.561019837
 11
225.8014705615
 21
318.1297141372
  0
LINE
  5
308
100
AcDbEntity
  8
KONSTRUKTIONSELEMENTE
100
AcDbLine
 62
7
  6
CONTINUOUS
 10
223.5852706441
 20
261.561019837
 11
233.863740388
 21
203.2689212449
  0
LINE
  5
309
100
AcDbEntity
  8
KONSTRUKTIONSELEMENTE
100
AcDbLine
 62
7
  6
CONTINUOUS
 10
225.8014705615
 20
318.1297141372
 11
225.8014705615
 21
283.5607450067
  0
LINE
  5
30A
100
AcDbEntity
  8
0
100
AcDbLine
 62
7
  6
CONTINUOUS
 10
232.6057102599
 20
310.976028668
 11
232.6057102599
 21
311.6876682431
  0
LINE
  5
30B
100
AcDbEntity
  8
0
100
AcDbLine
 62
7
  6
CONTINUOUS
 10
235.2723770061
 20
305.3191744185
 11
235.2723770061
 21
306.0308139936
  0
LINE
  5
30C
100
AcDbEntity
  8
0
100
AcDbLine
 62
7
  6
CONTINUOUS
 10
236.6057102599
 20
305.3191744185
 11
236.6057102599
 21
306.0308139936
  0
LINE
  5
30D
100
AcDbEntity
  8
RUNDUNGEN
100
AcDbLine
 62
7
  6
CONTINUOUS
 10
224.3377569587
 20
343.938103921
 11
205.002167013
 21
390.6183474045
  0
LINE
  5
30E
100
AcDbEntity
  8
0
100
AcDbLine
 62
7
  6
CONTINUOUS
 10
239.2723767677
 20
310.976028668
 11
239.2723767677
 21
311.6876682431
  0
LINE
  5
30F
100
AcDbEntity
  8
0
100
AcDbLine
 62
7
  6
CONTINUOUS
 10
240.6057102599
 20
305.3191744185
 11
240.6057102599
 21
311.6876682431
  0
LINE
  5
310
100
AcDbEntity
  8
0
100
AcDbLine
 62
7
  6
CONTINUOUS
 10
241.6057102599
 20
305.3191744185
 11
241.6057102599
 21
308.7141890831
  0
LINE
  5
311
100
AcDbEntity
  8
0
100
AcDbLine
 62
7
  6
CONTINUOUS
 10
241.6057102599
 20
309.434633213
 11
241.6057102599
 21
311.1459288153
  0
LINE
  5
312
100
AcDbEntity
  8
0
100
AcDbLine
 62
7
  6
CONTINUOUS
 10
244.4390432754
 20
308.0070314865
 11
244.4390432754
 21
308.7141890831
  0
LINE
  5
313
100
AcDbEntity
  8
0
100
AcDbLine
 62
7
  6
CONTINUOUS
 10
244.7723772445
 20
310.4360231462
 11
244.7723772445
 21
311.1459288153
  0
LINE
  5
314
100
AcDbEntity
  8
0
100
AcDbLine
 62
7
  6
CONTINUOUS
 10
245.2723772445
 20
310.3262411424
 11
245.2723772445
 21
311.0358508414
  0
LINE
  5
315
100
AcDbEntity
  8
0
100
AcDbLine
 62
7
  6
CONTINUOUS
 10
245.6057102599
 20
310.1049025982
 11
245.6057102599
 21
310.8139706458
  0
LINE
  5
316
100
AcDbEntity
  8
0
100
AcDbLine
 62
7
  6
CONTINUOUS
 10
245.7723772445
 20
310.4768490267
 11
245.7723772445
 21
310.1345782271
  0
LINE
  5
317
100
AcDbEntity
  8
0
100
AcDbLine
 62
7
  6
CONTINUOUS
 10
245.7723772445
 20
305.3191744185
 11
245.7723772445
 21
306.0308139936
  0
LINE
  5
318
100
AcDbEntity
  8
0
100
AcDbLine
 62
7
  6
CONTINUOUS
 10
246.1057102599
 20
308.4896365531
 11
246.1057102599
 21
309.1967616265
  0
LINE
  5
319
100
AcDbEntity
  8
0
100
AcDbLine
 62
7
  6
CONTINUOUS
 10
246.6057102599
 20
308.9628746984
 11
246.6057102599
 21
309.6702275281
  0
LINE
  5
31A
100
AcDbEntity
  8
0
100
AcDbLine
 62
7
  6
CONTINUOUS
 10
246.7723772445
 20
309.3116510625
 11
246.7723772445
 21
310.4768490267
  0
LINE
  5
31B
100
AcDbEntity
  8
0
100
AcDbLine
 62
7
  6
CONTINUOUS
 10
246.9390432754
 20
305.3191744185
 11
246.9390432754
 21
306.0308139936
  0
LINE
  5
31C
100
AcDbEntity
  8
0
100
AcDbLine
 62
7
  6
CONTINUOUS
 10
248.2723772445
 20
305.3191744185
 11
248.2723772445
 21
311.6876682431
  0
LINE
  5
31D
100
AcDbEntity
  8
0
100
AcDbLine
 62
7
  6
CONTINUOUS
 10
249.2723762908
 20
306.8232997237
 11
249.2723762908
 21
308.7141890831
  0
LINE
  5
31E
100
AcDbEntity
  8
0
100
AcDbLine
 62
7
  6
CONTINUOUS
 10
249.2723762908
 20
309.434633213
 11
249.2723762908
 21
311.0358508414
  0
LINE
  5
31F
100
AcDbEntity
  8
0
100
AcDbLine
 62
7
  6
CONTINUOUS
 10
252.2723762908
 20
305.3191744185
 11
252.2723762908
 21
306.0308139936
  0
LINE
  5
320
100
AcDbEntity
  8
0
100
AcDbLine
 62
7
  6
CONTINUOUS
 10
252.4390442291
 20
308.0070314865
 11
252.4390442291
 21
308.7141890831
  0
LINE
  5
321
100
AcDbEntity
  8
0
100
AcDbLine
 62
7
  6
CONTINUOUS
 10
252.4390442291
 20
310.3262411424
 11
252.4390442291
 21
311.0358508414
  0
LINE
  5
322
100
AcDbEntity
  8
0
100
AcDbLine
 62
7
  6
CONTINUOUS
 10
252.9390442291
 20
307.8849167164
 11
252.9390442291
 21
308.5921231061
  0
LINE
  5
323
100
AcDbEntity
  8
0
100
AcDbLine
 62
7
  6
CONTINUOUS
 10
252.9390442291
 20
310.2158673869
 11
252.9390442291
 21
310.9251978984
  0
LINE
  5
324
100
AcDbEntity
  8
0
100
AcDbLine
 62
7
  6
CONTINUOUS
 10
253.1057102599
 20
305.453080676
 11
253.1057102599
 21
306.1643393562
  0
LINE
  5
325
100
AcDbEntity
  8
0
100
AcDbLine
 62
7
  6
CONTINUOUS
 10
253.2723762908
 20
307.6389302447
 11
253.2723762908
 21
308.3462830743
  0
LINE
  5
326
100
AcDbEntity
  8
0
100
AcDbLine
 62
7
  6
CONTINUOUS
 10
253.2723762908
 20
309.9933474508
 11
253.2723762908
 21
310.7021697031
  0
LINE
  5
327
100
AcDbEntity
  8
0
100
AcDbLine
 62
7
  6
CONTINUOUS
 10
253.4390442291
 20
310.3633300153
 11
253.4390442291
 21
310.1345782271
  0
LINE
  5
328
100
AcDbEntity
  8
0
100
AcDbLine
 62
7
  6
CONTINUOUS
 10
253.4390442291
 20
307.9732497902
 11
253.4390442291
 21
307.5950823433
  0
LINE
  5
329
100
AcDbEntity
  8
0
100
AcDbLine
 62
7
  6
CONTINUOUS
 10
253.7723762908
 20
305.8512271267
 11
253.7723762908
 21
306.5614456108
  0
LINE
  5
32A
100
AcDbEntity
  8
0
100
AcDbLine
 62
7
  6
CONTINUOUS
 10
253.7723762908
 20
308.9566135323
 11
253.7723762908
 21
309.1967616265
  0
LINE
  5
32B
100
AcDbEntity
  8
0
100
AcDbLine
 62
7
  6
CONTINUOUS
 10
254.2723762908
 20
306.3737858266
 11
254.2723762908
 21
307.0828538741
  0
LINE
  5
32C
100
AcDbEntity
  8
0
100
AcDbLine
 62
7
  6
CONTINUOUS
 10
254.2723762908
 20
308.9628746984
 11
254.2723762908
 21
309.6702275281
  0
LINE
  5
32D
100
AcDbEntity
  8
0
100
AcDbLine
 62
7
  6
CONTINUOUS
 10
254.4390442291
 20
306.7595033994
 11
254.4390442291
 21
308.0981642208
  0
LINE
  5
32E
100
AcDbEntity
  8
0
100
AcDbLine
 62
7
  6
CONTINUOUS
 10
254.4390442291
 20
309.3116510625
 11
254.4390442291
 21
310.4768490267
  0
LINE
  5
32F
100
AcDbEntity
  8
0
100
AcDbLine
 62
7
  6
CONTINUOUS
 10
255.7723762908
 20
305.3191744185
 11
255.7723762908
 21
311.6876682431
  0
LINE
  5
330
100
AcDbEntity
  8
0
100
AcDbLine
 62
7
  6
CONTINUOUS
 10
256.7723762908
 20
305.3191744185
 11
256.7723762908
 21
308.0981642208
  0
LINE
  5
331
100
AcDbEntity
  8
0
100
AcDbLine
 62
7
  6
CONTINUOUS
 10
256.7723762908
 20
309.0769721191
 11
256.7723762908
 21
311.6876682431
  0
LINE
  5
332
100
AcDbEntity
  8
0
100
AcDbLine
 62
7
  6
CONTINUOUS
 10
257.9390442291
 20
308.2495047188
 11
257.9390442291
 21
308.9566135323
  0
LINE
  5
333
100
AcDbEntity
  8
0
100
AcDbLine
 62
7
  6
CONTINUOUS
 10
260.4390442291
 20
305.3191744185
 11
260.4390442291
 21
306.0308139936
  0
LINE
  5
334
100
AcDbEntity
  8
RUNDUNGEN
100
AcDbLine
 62
7
  6
CONTINUOUS
 10
200.6725982117
 20
394.9479162059
 11
155.176738103
 21
413.7929184947
  0
LINE
  5
335
100
AcDbEntity
  8
0
100
AcDbLine
 62
7
  6
CONTINUOUS
 10
261.7723762908
 20
305.3191744185
 11
261.7723762908
 21
306.0308139936
  0
LINE
  5
336
100
AcDbEntity
  8
0
100
AcDbLine
 62
7
  6
CONTINUOUS
 10
261.7723762908
 20
310.976028668
 11
261.7723762908
 21
311.6876682431
  0
LINE
  5
337
100
AcDbEntity
  8
0
100
AcDbLine
 62
7
  6
CONTINUOUS
 10
293.9916932359
 20
281.4254938003
 11
293.9924129053
 21
281.424003366
  0
LWPOLYLINE
  5
338
100
AcDbEntity
  8
0
100
AcDbPolyline
 62
7
  6
CONTINUOUS
 90
7
 70
0
 10
293.9924179689
 20
281.4239928744
 10
292.0138648648
 20
285.5964748932
 10
289.9577868487
 20
290.0836193127
 10
287.9443605101
 20
294.6204214993
 10
285.9661982275
 20
299.2071939361
 10
284.0184887305
 20
303.8396736442
 10
282.1565778471
 20
308.3669958961
  0
LWPOLYLINE
  5
339
100
AcDbEntity
  8
0
100
AcDbPolyline
 62
7
  6
CONTINUOUS
 90
17
 70
0
 10
282.1577233741
 20
308.3641815553
 10
281.9456960848
 20
308.8656490086
 10
281.5837974515
 20
309.6421854357
 10
281.1550832404
 20
310.4567650749
 10
280.6475116171
 20
311.3053487147
 10
280.046869279
 20
312.1832580773
 10
279.3443126109
 20
313.0750460074
 10
278.5296883062
 20
313.9664366266
 10
277.602711834
 20
314.8331656228
 10
276.5657001162
 20
315.6526374605
 10
275.4254929509
 20
316.4028114044
 10
274.1941913097
 20
317.0630038388
 10
272.8845766624
 20
317.6169753761
 10
271.5137663161
 20
318.0509430897
 10
270.1000820303
 20
318.3552720447
 10
268.6679301277
 20
318.5239144194
 10
267.6150854187
 20
318.5610169479
  0
LINE
  5
33A
100
AcDbEntity
  8
KONSTRUKTIONSELEMENTE
100
AcDbLine
 62
7
  6
CONTINUOUS
 10
294.5366598411
 20
219.4594541836
 11
294.5170150045
 21
219.645452119
  0
LWPOLYLINE
  5
33B
100
AcDbEntity
  8
KONSTRUKTIONSELEMENTE
100
AcDbPolyline
 62
7
  6
CONTINUOUS
 90
11
 70
0
 10
294.5169782237
 20
219.6454475017
 10
289.9418232368
 20
256.3597847481
 10
289.8188601454
 20
257.4562625628
 10
289.7103768502
 20
258.5293661721
 10
289.6168945703
 20
259.571044748
 10
289.5387844016
 20
260.5739889424
 10
289.4762404888
 20
261.5304494169
 10
289.4294263166
 20
262.433324852
 10
289.3981535211
 20
263.276078609
 10
289.3821855927
 20
264.0520225939
 10
289.3797708098
 20
264.4685923111
  0
LINE
  5
33C
100
AcDbEntity
  8
KONSTRUKTIONSELEMENTE
100
AcDbLine
 62
7
  6
CONTINUOUS
 10
294.5552221139
 20
219.0270786051
 11
294.5366598411
 21
219.4594541836
  0
LWPOLYLINE
  5
33D
100
AcDbEntity
  8
0
100
AcDbPolyline
 62
7
  6
CONTINUOUS
 90
3
 70
0
 10
294.5552206247
 20
278.9431445931
 10
294.5505782531
 20
279.1775857799
 10
294.4928219938
 20
279.7943954637
  0
LINE
  5
33E
100
AcDbEntity
  8
KONSTRUKTIONSELEMENTE
100
AcDbLine
 62
7
  6
CONTINUOUS
 10
294.5552205063
 20
208.3625771537
 11
294.5552205063
 21
219.02829859
  0
LINE
  5
33F
100
AcDbEntity
  8
0
100
AcDbLine
 62
7
  6
CONTINUOUS
 10
294.5552205063
 20
268.2771495479
 11
294.5552205063
 21
278.9428709842
  0
LINE
  5
340
100
AcDbEntity
  8
RUNDUNGEN
100
AcDbLine
 62
7
  6
CONTINUOUS
 10
294.5552204915
 20
208.3632730013
 11
294.5552203107
 21
208.3621465018
  0
LWPOLYLINE
  5
341
100
AcDbEntity
  8
0
100
AcDbPolyline
 62
7
  6
CONTINUOUS
 90
3
 70
0
 10
289.3797708098
 20
264.4685923111
 10
289.3799171511
 20
264.570321564
 10
289.3833278319
 20
264.9458268619
  0
LINE
  5
342
100
AcDbEntity
  8
0
100
AcDbLine
 62
7
  6
CONTINUOUS
 10
289.3833278319
 20
264.9458268619
 11
289.3911554251
 21
265.2963712329
  0
LWPOLYLINE
  5
343
100
AcDbEntity
  8
0
100
AcDbPolyline
 62
7
  6
CONTINUOUS
 90
9
 70
0
 10
289.3911554251
 20
265.2963712329
 10
289.4030988282
 20
265.6185616364
 10
289.4187080195
 20
265.9103281399
 10
289.4373329884
 20
266.1687870108
 10
289.4581814599
 20
266.3921185986
 10
289.4800306697
 20
266.577406391
 10
289.5014036044
 20
266.7232680363
 10
289.5197780812
 20
266.8253391002
 10
289.5326646965
 20
266.8838698787
  0
LWPOLYLINE
  5
344
100
AcDbEntity
  8
0
100
AcDbPolyline
 62
7
  6
CONTINUOUS
 90
4
 70
0
 10
294.4928219938
 20
279.7943954637
 10
294.3693720009
 20
280.3993010804
 10
294.1816618017
 20
280.9851581652
 10
293.9916078409
 20
281.4257108245
  0
LWPOLYLINE
  5
345
100
AcDbEntity
  8
RUNDUNGEN
100
AcDbPolyline
 62
7
  6
CONTINUOUS
 90
11
 70
0
 10
291.7543851159
 20
203.2097604585
 10
292.0406436412
 20
203.4195836382
 10
292.5822941207
 20
203.8844530957
 10
293.065824911
 20
204.3957832482
 10
293.4868068248
 20
204.9479451026
 10
293.8414386048
 20
205.5342432792
 10
294.1269880222
 20
206.1489413035
 10
294.3411076738
 20
206.7853170371
 10
294.4821897018
 20
207.436505762
 10
294.5491924098
 20
208.0949201968
 10
294.5552205648
 20
208.3621646034
  0
LINE
  5
346
100
AcDbEntity
  8
RUNDUNGEN
100
AcDbLine
 62
7
  6
CONTINUOUS
 10
291.7535515414
 20
203.2091189862
 11
291.7532219996
 21
203.2088897019
  0
LINE
  5
347
100
AcDbEntity
  8
0
100
AcDbLine
 62
7
  6
CONTINUOUS
 10
395.4824035643
 20
207.5006183155
 11
391.4824035643
 21
207.5006183155
  0
LWPOLYLINE
  5
348
100
AcDbEntity
  8
0
100
AcDbPolyline
 62
7
  6
CONTINUOUS
 90
12
 70
0
 10
401.5111657079
 20
196.9033174923
 10
401.948524242
 20
196.5708972439
 10
402.427916855
 20
196.301004545
 10
402.9400555482
 20
196.0988772975
 10
403.4757751339
 20
195.968447323
 10
404.0244439889
 20
195.9122975838
 10
404.5753172929
 20
195.9317781938
 10
405.1176059357
 20
196.0260990364
 10
405.6404157398
 20
196.1932114813
 10
406.1346319154
 20
196.429685038
 10
406.5908401193
 20
196.7308157447
 10
406.7123684993
 20
196.827287821
  0
LWPOLYLINE
  5
349
100
AcDbEntity
  8
KONSTRUKTIONSELEMENTE
100
AcDbPolyline
 62
7
  6
CONTINUOUS
 90
13
 70
0
 10
401.3678129442
 20
197.0348172528
 10
401.5111657077
 20
196.9033174924
 10
401.9485242418
 20
196.570897244
 10
402.4279168548
 20
196.301004545
 10
402.9400555481
 20
196.0988772975
 10
403.4757751339
 20
195.968447323
 10
404.0244439889
 20
195.9122975838
 10
404.575317293
 20
195.9317781938
 10
405.1176059359
 20
196.0260990365
 10
405.64041574
 20
196.1932114814
 10
406.1346319156
 20
196.4296850382
 10
406.5908401195
 20
196.7308157449
 10
406.7123684993
 20
196.827287821
  0
LINE
  5
34A
100
AcDbEntity
  8
0
100
AcDbLine
 62
7
  6
CONTINUOUS
 10
401.3678129442
 20
197.0348172528
 11
401.5111657079
 21
196.9033174923
  0
LINE
  5
34B
100
AcDbEntity
  8
0
100
AcDbLine
 62
7
  6
CONTINUOUS
 10
396.3980003369
 20
201.8300088518
 11
401.3677304484
 21
197.0347812375
  0
LINE
  5
34C
100
AcDbEntity
  8
KONSTRUKTIONSELEMENTE
100
AcDbLine
 62
7
  6
CONTINUOUS
 10
396.3994538117
 20
201.828606813
 11
396.3995310887
 21
201.8285314395
  0
LINE
  5
34D
100
AcDbEntity
  8
KONSTRUKTIONSELEMENTE
100
AcDbLine
 62
7
  6
CONTINUOUS
 10
327.2404362123
 20
271.1620754736
 11
332.0356638265
 21
266.1923453621
  0
LINE
  5
34E
100
AcDbEntity
  8
KONSTRUKTIONSELEMENTE
100
AcDbLine
 62
7
  6
CONTINUOUS
 10
327.1089724672
 20
271.305510733
 11
327.2404722276
 21
271.1621579695
  0
LINE
  5
34F
100
AcDbEntity
  8
RUNDUNGEN
100
AcDbLine
 62
7
  6
CONTINUOUS
 10
337.7062732903
 20
261.2767485895
 11
337.7062732903
 21
265.2767485895
  0
LINE
  5
350
100
AcDbEntity
  8
0
100
AcDbLine
 62
7
  6
CONTINUOUS
 10
391.4824035643
 20
255.2767485895
 11
395.4824035643
 21
255.2767485895
  0
LINE
  5
351
100
AcDbEntity
  8
RUNDUNGEN
100
AcDbLine
 62
7
  6
CONTINUOUS
 10
385.4824035643
 20
261.2767485895
 11
337.7063121443
 21
261.2767485895
  0
LINE
  5
352
100
AcDbEntity
  8
KONSTRUKTIONSELEMENTE
100
AcDbLine
 62
7
  6
CONTINUOUS
 10
385.4824035643
 20
265.2767485895
 11
334.1932699033
 21
265.2767485895
  0
LINE
  5
353
100
AcDbEntity
  8
RUNDUNGEN
100
AcDbLine
 62
7
  6
CONTINUOUS
 10
334.1932653598
 20
265.2767485895
 11
347.8416260425
 21
265.2767485895
  0
LWPOLYLINE
  5
354
100
AcDbEntity
  8
0
100
AcDbPolyline
 62
7
  6
CONTINUOUS
 90
13
 70
0
 10
327.0329427958
 20
276.5067135245
 10
326.9364707195
 20
276.3851851445
 10
326.6353400128
 20
275.9289769406
 10
326.3988664561
 20
275.4347607651
 10
326.2317540112
 20
274.9119509609
 10
326.1374331686
 20
274.3696623181
 10
326.1179525586
 20
273.8187890141
 10
326.1741022977
 20
273.2701201591
 10
326.3045322723
 20
272.7344005734
 10
326.5066595197
 20
272.2222618802
 10
326.7765522187
 20
271.7428692672
 10
327.108972467
 20
271.3055107331
 10
327.2404722276
 20
271.1621579695
  0
LWPOLYLINE
  5
355
100
AcDbEntity
  8
KONSTRUKTIONSELEMENTE
100
AcDbPolyline
 62
7
  6
CONTINUOUS
 90
12
 70
0
 10
327.0329427958
 20
276.5067135245
 10
326.9364707197
 20
276.3851851447
 10
326.6353400129
 20
275.9289769408
 10
326.3988664561
 20
275.4347607652
 10
326.2317540113
 20
274.9119509611
 10
326.1374331686
 20
274.3696623182
 10
326.1179525586
 20
273.8187890141
 10
326.1741022977
 20
273.2701201591
 10
326.3045322723
 20
272.7344005733
 10
326.5066595198
 20
272.22226188
 10
326.7765522188
 20
271.7428692671
 10
327.1089724672
 20
271.305510733
  0
LINE
  5
356
100
AcDbEntity
  8
KONSTRUKTIONSELEMENTE
100
AcDbLine
 62
7
  6
CONTINUOUS
 10
344.390103554
 20
297.4977856376
 11
327.0329073069
 21
276.5068013544
  0
LINE
  5
357
100
AcDbEntity
  8
KONSTRUKTIONSELEMENTE
100
AcDbLine
 62
7
  6
CONTINUOUS
 10
351.7916705
 20
306.4387409427
 11
344.390103554
 21
297.4977856376
  0
LINE
  5
358
100
AcDbEntity
  8
KONSTRUKTIONSELEMENTE
100
AcDbLine
 62
7
  6
CONTINUOUS
 10
351.7925682567
 20
306.4397270243
 11
351.7916767046
 21
306.438747148
  0
LINE
  5
359
100
AcDbEntity
  8
KONSTRUKTIONSELEMENTE
100
AcDbLine
 62
7
  6
CONTINUOUS
 10
351.7925193577
 20
306.4396781253
 11
351.7951272969
 21
306.4422860645
  0
LINE
  5
35A
100
AcDbEntity
  8
RUNDUNGEN
100
AcDbLine
 62
7
  6
CONTINUOUS
 10
351.7951272969
 20
306.4422860645
 11
362.7422881941
 21
317.3894469617
  0
LINE
  5
35B
100
AcDbEntity
  8
RUNDUNGEN
100
AcDbLine
 62
7
  6
CONTINUOUS
 10
385.4824035643
 20
261.2767485895
 11
385.4824035643
 21
265.2767485895
  0
LINE
  5
35C
100
AcDbEntity
  8
0
100
AcDbLine
 62
7
  6
CONTINUOUS
 10
391.4824035643
 20
255.2767485895
 11
391.4824035643
 21
207.5006571695
  0
LINE
  5
35D
100
AcDbEntity
  8
0
100
AcDbLine
 62
7
  6
CONTINUOUS
 10
395.4824035643
 20
203.9876149285
 11
395.4824035643
 21
255.2767485895
  0
LINE
  5
35E
100
AcDbEntity
  8
BEZUGSACHSEN
100
AcDbLine
 62
7
  6
CONTINUOUS
 10
397.7666748118
 20
409.4018822347
 11
397.7666748118
 21
318.561019837
  0
LINE
  5
35F
100
AcDbEntity
  8
KONSTRUKTIONSELEMENTE
100
AcDbLine
 62
7
  6
CONTINUOUS
 10
413.7666748118
 20
318.561019837
 11
408.4278811279
 21
318.561019837
  0
LINE
  5
360
100
AcDbEntity
  8
RUNDUNGEN
100
AcDbLine
 62
7
  6
CONTINUOUS
 10
365.5707153189
 20
318.561019837
 11
408.4278811279
 21
318.561019837
  0
LINE
  5
361
100
AcDbEntity
  8
0
100
AcDbLine
 62
7
  6
CONTINUOUS
 10
435.5248293933
 20
310.976028668
 11
436.2364689684
 21
311.6876682431
  0
LINE
  5
362
100
AcDbEntity
  8
0
100
AcDbLine
 62
7
  6
CONTINUOUS
 10
439.051098613
 20
307.7622163578
 11
439.7583700759
 21
308.4694878207
  0
LINE
  5
363
100
AcDbEntity
  8
RUNDUNGEN
100
AcDbLine
 62
7
  6
CONTINUOUS
 10
429.7666748118
 20
409.4018822347
 11
429.7666748118
 21
315.4791593876
  0
LINE
  5
364
100
AcDbEntity
  8
0
100
AcDbLine
 62
7
  6
CONTINUOUS
 10
441.1816836428
 20
305.3191744185
 11
441.8933232179
 21
306.0308139936
  0
LINE
  5
365
100
AcDbEntity
  8
0
100
AcDbLine
 62
7
  6
CONTINUOUS
 10
448.7666748118
 20
235.3650603441
 11
448.7666748118
 21
283.561019837
  0
LINE
  5
366
100
AcDbEntity
  8
0
100
AcDbLine
 62
7
  6
CONTINUOUS
 10
436.6453331001
 20
221.5868643829
 11
447.5951019365
 21
232.5366332194
  0
LINE
  5
367
100
AcDbEntity
  8
KONSTRUKTIONSELEMENTE
100
AcDbLine
 62
7
  6
CONTINUOUS
 10
436.6453819991
 20
221.5869132819
 11
436.6444021227
 21
221.5860217298
  0
LINE
  5
368
100
AcDbEntity
  8
0
100
AcDbLine
 62
7
  6
CONTINUOUS
 10
422.7393323789
 20
210.0775269738
 11
436.6443959175
 21
221.5860155252
  0
LINE
  5
369
100
AcDbEntity
  8
0
100
AcDbLine
 62
7
  6
CONTINUOUS
 10
406.7124563291
 20
196.8272523321
 11
422.7393323789
 21
210.0775269738
  0
LINE
  5
36A
100
AcDbEntity
  8
KONSTRUKTIONSELEMENTE
100
AcDbLine
 62
7
  6
CONTINUOUS
 10
406.7124032794
 20
196.827316534
 11
406.7123684993
 21
196.827287821
  0
LINE
  5
36B
100
AcDbEntity
  8
BEZUGSACHSEN
100
AcDbLine
 62
7
  6
CONTINUOUS
 10
402.7666748118
 20
414.4018822347
 11
424.7666748118
 21
414.4018822347
  0
LWPOLYLINE
  5
36C
100
AcDbEntity
  8
0
100
AcDbPolyline
 62
7
  6
CONTINUOUS
 90
4
 70
0
 10
9.7377192943
 20
50.0559851226
 10
9.8611692872
 20
49.4510795059
 10
10.0488794864
 20
48.8652224211
 10
10.2389334472
 20
48.4246697618
  0
LINE
  5
36D
100
AcDbEntity
  8
KONSTRUKTIONSELEMENTE
100
AcDbLine
 62
7
  6
CONTINUOUS
 10
9.693881447
 20
110.3909264027
 11
9.7135262836
 21
110.2049284673
  0
LINE
  5
36E
100
AcDbEntity
  8
KONSTRUKTIONSELEMENTE
100
AcDbLine
 62
7
  6
CONTINUOUS
 10
9.6753191742
 20
110.8233019812
 11
9.693881447
 21
110.3909264027
  0
LWPOLYLINE
  5
36F
100
AcDbEntity
  8
0
100
AcDbPolyline
 62
7
  6
CONTINUOUS
 90
3
 70
0
 10
9.6753206634
 20
50.9072359932
 10
9.679963035
 20
50.6727948065
 10
9.7377192943
 20
50.0559851226
  0
LINE
  5
370
100
AcDbEntity
  8
KONSTRUKTIONSELEMENTE
100
AcDbLine
 62
7
  6
CONTINUOUS
 10
9.6753207818
 20
121.4878034326
 11
9.6753207818
 21
110.8220819963
  0
LINE
  5
371
100
AcDbEntity
  8
0
100
AcDbLine
 62
7
  6
CONTINUOUS
 10
9.6753207818
 20
61.5732310385
 11
9.6753207818
 21
50.9075096022
  0
LINE
  5
372
100
AcDbEntity
  8
RUNDUNGEN
100
AcDbLine
 62
7
  6
CONTINUOUS
 10
9.6753207966
 20
121.4871075851
 11
9.6753209774
 21
121.4882340845
  0
LWPOLYLINE
  5
373
100
AcDbEntity
  8
0
100
AcDbPolyline
 62
7
  6
CONTINUOUS
 90
3
 70
0
 10
14.8507704783
 20
65.3817882752
 10
14.850624137
 20
65.2800590223
 10
14.8472134562
 20
64.9045537245
  0
LINE
  5
374
100
AcDbEntity
  8
0
100
AcDbLine
 62
7
  6
CONTINUOUS
 10
14.8472134562
 20
64.9045537245
 11
14.839385863
 21
64.5540093534
  0
LWPOLYLINE
  5
375
100
AcDbEntity
  8
0
100
AcDbPolyline
 62
7
  6
CONTINUOUS
 90
9
 70
0
 10
14.839385863
 20
64.5540093534
 10
14.8274424599
 20
64.2318189499
 10
14.8118332686
 20
63.9400524464
 10
14.7932082997
 20
63.6815935755
 10
14.7723598282
 20
63.4582619878
 10
14.7505106184
 20
63.2729741953
 10
14.7291376837
 20
63.12711255
 10
14.7107632069
 20
63.0250414861
 10
14.6978765916
 20
62.9665107076
  0
LINE
  5
376
100
AcDbEntity
  8
0
100
AcDbLine
 62
7
  6
CONTINUOUS
 10
10.2388480522
 20
48.424886786
 11
10.2381283828
 21
48.4263772203
  0
LWPOLYLINE
  5
377
100
AcDbEntity
  8
0
100
AcDbPolyline
 62
7
  6
CONTINUOUS
 90
7
 70
0
 10
10.2381233192
 20
48.4263877119
 10
12.2166764233
 20
44.2539056932
 10
14.2727544394
 20
39.7667612736
 10
16.286180778
 20
35.2299590871
 10
18.2643430606
 20
30.6431866503
 10
20.2120525576
 20
26.0107069422
 10
22.073963441
 20
21.4833846902
  0
LWPOLYLINE
  5
378
100
AcDbEntity
  8
0
100
AcDbPolyline
 62
7
  6
CONTINUOUS
 90
17
 70
0
 10
22.072817914
 20
21.486199031
 10
22.2848452033
 20
20.9847315777
 10
22.6467438366
 20
20.2081951507
 10
23.0754580477
 20
19.3936155115
 10
23.583029671
 20
18.5450318717
 10
24.1836720091
 20
17.6671225091
 10
24.8862286772
 20
16.7753345789
 10
25.7008529819
 20
15.8839439597
 10
26.6278294541
 20
15.0172149636
 10
27.6648411719
 20
14.1977431258
 10
28.8050483372
 20
13.4475691819
 10
30.0363499784
 20
12.7873767475
 10
31.3459646257
 20
12.2334052102
 10
32.716774972
 20
11.7994374967
 10
34.1304592578
 20
11.4951085417
 10
35.5626111604
 20
11.3264661669
 10
36.6154558694
 20
11.2893636384
  0
LWPOLYLINE
  5
379
100
AcDbEntity
  8
KONSTRUKTIONSELEMENTE
100
AcDbPolyline
 62
7
  6
CONTINUOUS
 90
11
 70
0
 10
9.7135630644
 20
110.2049330846
 10
14.2887180513
 20
73.4905958383
 10
14.4116811427
 20
72.3941180235
 10
14.5201644379
 20
71.3210144142
 10
14.6136467178
 20
70.2793358383
 10
14.6917568865
 20
69.2763916439
 10
14.7543007993
 20
68.3199311695
 10
14.8011149715
 20
67.4170557344
 10
14.832387767
 20
66.5743019773
 10
14.8483556954
 20
65.7983579924
 10
14.8507704783
 20
65.3817882752
  0
LWPOLYLINE
  5
37A
100
AcDbEntity
  8
RUNDUNGEN
100
AcDbPolyline
 62
7
  6
CONTINUOUS
 90
11
 70
0
 10
12.4761561722
 20
126.6406201279
 10
12.1898976469
 20
126.4307969482
 10
11.6482471674
 20
125.9659274907
 10
11.1647163771
 20
125.4545973382
 10
10.7437344633
 20
124.9024354837
 10
10.3891026833
 20
124.3161373071
 10
10.1035532659
 20
123.7014392828
 10
9.8894336143
 20
123.0650635493
 10
9.7483515863
 20
122.4138748243
 10
9.6813488783
 20
121.7554603896
 10
9.6753207233
 20
121.4882159829
  0
LINE
  5
37B
100
AcDbEntity
  8
RUNDUNGEN
100
AcDbLine
 62
7
  6
CONTINUOUS
 10
12.4769897467
 20
126.6412616001
 11
12.4773192885
 21
126.6414908845
  0
LINE
  5
37C
100
AcDbEntity
  8
0
100
AcDbLine
 62
7
  6
CONTINUOUS
 10
42.4581649973
 20
24.5312061678
 11
42.4581649973
 21
23.8195665928
  0
LINE
  5
37D
100
AcDbEntity
  8
0
100
AcDbLine
 62
7
  6
CONTINUOUS
 10
42.4581649973
 20
18.8743519183
 11
42.4581649973
 21
18.1627123433
  0
LINE
  5
37E
100
AcDbEntity
  8
0
100
AcDbLine
 62
7
  6
CONTINUOUS
 10
43.7914970591
 20
24.5312061678
 11
43.7914970591
 21
23.8195665928
  0
LINE
  5
37F
100
AcDbEntity
  8
0
100
AcDbLine
 62
7
  6
CONTINUOUS
 10
46.2914970591
 20
21.6008758676
 11
46.2914970591
 21
20.893767054
  0
LINE
  5
380
100
AcDbEntity
  8
0
100
AcDbLine
 62
7
  6
CONTINUOUS
 10
47.4581649973
 20
24.5312061678
 11
47.4581649973
 21
21.7522163655
  0
LINE
  5
381
100
AcDbEntity
  8
0
100
AcDbLine
 62
7
  6
CONTINUOUS
 10
47.4581649973
 20
20.7734084673
 11
47.4581649973
 21
18.1627123433
  0
LINE
  5
382
100
AcDbEntity
  8
0
100
AcDbLine
 62
7
  6
CONTINUOUS
 10
48.4581649973
 20
18.1627123433
 11
48.4581649973
 21
24.5312061678
  0
LINE
  5
383
100
AcDbEntity
  8
0
100
AcDbLine
 62
7
  6
CONTINUOUS
 10
49.7914970591
 20
23.0908771869
 11
49.7914970591
 21
21.7522163655
  0
LINE
  5
384
100
AcDbEntity
  8
0
100
AcDbLine
 62
7
  6
CONTINUOUS
 10
49.7914970591
 20
20.5387295239
 11
49.7914970591
 21
19.3735315597
  0
LINE
  5
385
100
AcDbEntity
  8
0
100
AcDbLine
 62
7
  6
CONTINUOUS
 10
49.9581649973
 20
23.4765947597
 11
49.9581649973
 21
22.7675267123
  0
LINE
  5
386
100
AcDbEntity
  8
0
100
AcDbLine
 62
7
  6
CONTINUOUS
 10
49.9581649973
 20
20.8875058879
 11
49.9581649973
 21
20.1801530583
  0
LINE
  5
387
100
AcDbEntity
  8
0
100
AcDbLine
 62
7
  6
CONTINUOUS
 10
50.4581649973
 20
23.9991534596
 11
50.4581649973
 21
23.2889349756
  0
LINE
  5
388
100
AcDbEntity
  8
0
100
AcDbLine
 62
7
  6
CONTINUOUS
 10
50.4581649973
 20
20.893767054
 11
50.4581649973
 21
20.6536189598
  0
LINE
  5
389
100
AcDbEntity
  8
0
100
AcDbLine
 62
7
  6
CONTINUOUS
 10
50.7914970591
 20
19.487050571
 11
50.7914970591
 21
19.7158023592
  0
LINE
  5
38A
100
AcDbEntity
  8
0
100
AcDbLine
 62
7
  6
CONTINUOUS
 10
50.7914970591
 20
21.8771307961
 11
50.7914970591
 21
22.255298243
  0
LINE
  5
38B
100
AcDbEntity
  8
0
100
AcDbLine
 62
7
  6
CONTINUOUS
 10
50.9581649973
 20
22.2114503417
 11
50.9581649973
 21
21.504097512
  0
LINE
  5
38C
100
AcDbEntity
  8
0
100
AcDbLine
 62
7
  6
CONTINUOUS
 10
50.9581649973
 20
19.8570331355
 11
50.9581649973
 21
19.1482108833
  0
LINE
  5
38D
100
AcDbEntity
  8
0
100
AcDbLine
 62
7
  6
CONTINUOUS
 10
51.1248310282
 20
24.3972999103
 11
51.1248310282
 21
23.6860412302
  0
LINE
  5
38E
100
AcDbEntity
  8
0
100
AcDbLine
 62
7
  6
CONTINUOUS
 10
51.2914970591
 20
21.96546387
 11
51.2914970591
 21
21.2582574803
  0
LINE
  5
38F
100
AcDbEntity
  8
0
100
AcDbLine
 62
7
  6
CONTINUOUS
 10
51.2914970591
 20
19.6345131994
 11
51.2914970591
 21
18.9251826879
  0
LINE
  5
390
100
AcDbEntity
  8
0
100
AcDbLine
 62
7
  6
CONTINUOUS
 10
51.7914970591
 20
21.8433490998
 11
51.7914970591
 21
21.1361915032
  0
LINE
  5
391
100
AcDbEntity
  8
0
100
AcDbLine
 62
7
  6
CONTINUOUS
 10
51.7914970591
 20
19.524139444
 11
51.7914970591
 21
18.8145297449
  0
LINE
  5
392
100
AcDbEntity
  8
0
100
AcDbLine
 62
7
  6
CONTINUOUS
 10
51.9581649973
 20
24.5312061678
 11
51.9581649973
 21
23.8195665928
  0
LINE
  5
393
100
AcDbEntity
  8
0
100
AcDbLine
 62
7
  6
CONTINUOUS
 10
54.9581649973
 20
23.0270808627
 11
54.9581649973
 21
21.1361915032
  0
LINE
  5
394
100
AcDbEntity
  8
0
100
AcDbLine
 62
7
  6
CONTINUOUS
 10
54.9581649973
 20
20.4157473733
 11
54.9581649973
 21
18.8145297449
  0
LINE
  5
395
100
AcDbEntity
  8
0
100
AcDbLine
 62
7
  6
CONTINUOUS
 10
55.9581640436
 20
18.1627123433
 11
55.9581640436
 21
24.5312061678
  0
LINE
  5
396
100
AcDbEntity
  8
0
100
AcDbLine
 62
7
  6
CONTINUOUS
 10
57.2914980127
 20
24.5312061678
 11
57.2914980127
 21
23.8195665928
  0
LINE
  5
397
100
AcDbEntity
  8
0
100
AcDbLine
 62
7
  6
CONTINUOUS
 10
57.4581640436
 20
20.5387295239
 11
57.4581640436
 21
19.3735315597
  0
LINE
  5
398
100
AcDbEntity
  8
0
100
AcDbLine
 62
7
  6
CONTINUOUS
 10
57.6248310282
 20
20.8875058879
 11
57.6248310282
 21
20.1801530583
  0
LINE
  5
399
100
AcDbEntity
  8
0
100
AcDbLine
 62
7
  6
CONTINUOUS
 10
58.1248310282
 20
21.3607440333
 11
58.1248310282
 21
20.6536189598
  0
LINE
  5
39A
100
AcDbEntity
  8
0
100
AcDbLine
 62
7
  6
CONTINUOUS
 10
58.4581640436
 20
24.5312061678
 11
58.4581640436
 21
23.8195665928
  0
LINE
  5
39B
100
AcDbEntity
  8
0
100
AcDbLine
 62
7
  6
CONTINUOUS
 10
58.4581640436
 20
19.3735315597
 11
58.4581640436
 21
19.7158023592
  0
LINE
  5
39C
100
AcDbEntity
  8
0
100
AcDbLine
 62
7
  6
CONTINUOUS
 10
58.6248310282
 20
19.7454779882
 11
58.6248310282
 21
19.0364099405
  0
LINE
  5
39D
100
AcDbEntity
  8
0
100
AcDbLine
 62
7
  6
CONTINUOUS
 10
58.9581640436
 20
19.524139444
 11
58.9581640436
 21
18.8145297449
  0
LINE
  5
39E
100
AcDbEntity
  8
0
100
AcDbLine
 62
7
  6
CONTINUOUS
 10
59.4581640436
 20
19.4143574401
 11
59.4581640436
 21
18.704451771
  0
LINE
  5
39F
100
AcDbEntity
  8
0
100
AcDbLine
 62
7
  6
CONTINUOUS
 10
59.7914980127
 20
21.8433490998
 11
59.7914980127
 21
21.1361915032
  0
LINE
  5
3A0
100
AcDbEntity
  8
0
100
AcDbLine
 62
7
  6
CONTINUOUS
 10
62.6248310282
 20
24.5312061678
 11
62.6248310282
 21
21.1361915032
  0
LINE
  5
3A1
100
AcDbEntity
  8
0
100
AcDbLine
 62
7
  6
CONTINUOUS
 10
62.6248310282
 20
20.4157473733
 11
62.6248310282
 21
18.704451771
  0
LINE
  5
3A2
100
AcDbEntity
  8
0
100
AcDbLine
 62
7
  6
CONTINUOUS
 10
63.6248310282
 20
18.1627123433
 11
63.6248310282
 21
24.5312061678
  0
LINE
  5
3A3
100
AcDbEntity
  8
0
100
AcDbLine
 62
7
  6
CONTINUOUS
 10
64.9581645204
 20
18.8743519183
 11
64.9581645204
 21
18.1627123433
  0
LINE
  5
3A4
100
AcDbEntity
  8
0
100
AcDbLine
 62
7
  6
CONTINUOUS
 10
67.6248310282
 20
24.5312061678
 11
67.6248310282
 21
23.8195665928
  0
LINE
  5
3A5
100
AcDbEntity
  8
0
100
AcDbLine
 62
7
  6
CONTINUOUS
 10
68.958164282
 20
24.5312061678
 11
68.958164282
 21
23.8195665928
  0
LINE
  5
3A6
100
AcDbEntity
  8
0
100
AcDbLine
 62
7
  6
CONTINUOUS
 10
71.6248310282
 20
18.8743519183
 11
71.6248310282
 21
18.1627123433
  0
LINE
  5
3A7
100
AcDbEntity
  8
KONSTRUKTIONSELEMENTE
100
AcDbLine
 62
7
  6
CONTINUOUS
 10
78.4290707266
 20
11.7206664491
 11
78.4290707266
 21
46.2896355796
  0
LINE
  5
3A8
100
AcDbEntity
  8
BEZUGSACHSEN
100
AcDbLine
 62
7
  6
CONTINUOUS
 10
79.2838205894
 20
57.2893607494
 11
79.2838205894
 21
35.2893607494
  0
LINE
  5
3A9
100
AcDbEntity
  8
KONSTRUKTIONSELEMENTE
100
AcDbLine
 62
7
  6
CONTINUOUS
 10
80.6452706441
 20
24.2893607494
 11
80.6452706441
 21
31.866249123
  0
LINE
  5
3AA
100
AcDbEntity
  8
KONSTRUKTIONSELEMENTE
100
AcDbLine
 62
7
  6
CONTINUOUS
 10
80.6452706441
 20
60.7124723757
 11
80.6452706441
 21
68.2893607494
  0
LINE
  5
3AB
100
AcDbEntity
  8
KONSTRUKTIONSELEMENTE
100
AcDbLine
 62
7
  6
CONTINUOUS
 10
80.6452706441
 20
24.2893607494
 11
78.4290707266
 21
11.7206664491
  0
LWPOLYLINE
  5
3AC
100
AcDbEntity
  8
KONSTRUKTIONSELEMENTE
100
AcDbPolyline
 62
7
  6
CONTINUOUS
 90
17
 70
0
 10
267.606067686
 20
11.2893608203
 10
268.6992842058
 20
11.3286920539
 10
270.1303379675
 20
11.5001647254
 10
271.5418458588
 20
11.8069201802
 10
272.909725475
 20
12.242715436
 10
274.2159196754
 20
12.7978035887
 10
275.4435852751
 20
13.4583731434
 10
276.5801900716
 20
14.2082351528
 10
277.6138571016
 20
15.0268282213
 10
278.5379252688
 20
15.8923006327
 10
279.3501644023
 20
16.7822509033
 10
280.0509603206
 20
17.6727092463
 10
280.6502992313
 20
18.5494007967
 10
281.1569589855
 20
19.3969667461
 10
281.5849750644
 20
20.2105785847
 10
281.9462423442
 20
20.9859758525
 10
282.1577310041
 20
21.4862177833
  0
LINE
  5
3AD
100
AcDbEntity
  8
KONSTRUKTIONSELEMENTE
100
AcDbLine
 62
7
  6
CONTINUOUS
 10
37.2903461542
 20
11.2893607494
 11
76.8792934549
 21
11.2893607494
  0
LINE
  5
3AE
100
AcDbEntity
  8
KONSTRUKTIONSELEMENTE
100
AcDbLine
 62
7
  6
CONTINUOUS
 10
227.3512478332
 20
11.2893607494
 11
267.6058466281
 21
11.2893607494
  0
LINE
  5
3AF
100
AcDbEntity
  8
0
100
AcDbLine
 62
7
  6
CONTINUOUS
 10
36.6154558694
 20
11.2893636384
 11
76.8792934549
 21
11.2893607494
  0
LWPOLYLINE
  5
3B0
100
AcDbEntity
  8
RUNDUNGEN
100
AcDbPolyline
 62
7
  6
CONTINUOUS
 90
7
 70
0
 10
83.4950971086
 20
28.3599874768
 10
83.9051369982
 20
28.1846865519
 10
84.3509271255
 20
28.0248762328
 10
84.8116520558
 20
27.9049254814
 10
85.2821914921
 20
27.8268114702
 10
85.7570737225
 20
27.7915605324
 10
85.9046713643
 20
27.7893656994
  0
LINE
  5
3B1
100
AcDbEntity
  8
RUNDUNGEN
100
AcDbLine
 62
7
  6
CONTINUOUS
 10
83.7327757228
 20
28.2588372045
 11
83.7326600051
 21
28.2588895632
  0
LINE
  5
3B2
100
AcDbEntity
  8
KONSTRUKTIONSELEMENTE
100
AcDbLine
 62
7
  6
CONTINUOUS
 10
80.6452706441
 20
68.2893607494
 11
70.3668009001
 21
126.5814593414
  0
LINE
  5
3B3
100
AcDbEntity
  8
0
100
AcDbLine
 62
7
  6
CONTINUOUS
 10
92.1952706441
 20
27.8027666579
 11
92.1952706441
 21
27.302546793
  0
LINE
  5
3B4
100
AcDbEntity
  8
0
100
AcDbLine
 62
7
  6
CONTINUOUS
 10
96.1952706441
 20
27.8027666579
 11
96.1952706441
 21
27.302546793
  0
LINE
  5
3B5
100
AcDbEntity
  8
0
100
AcDbLine
 62
7
  6
CONTINUOUS
 10
97.0286041363
 20
27.7981598383
 11
97.0286041363
 21
27.2980155496
  0
LINE
  5
3B6
100
AcDbEntity
  8
0
100
AcDbLine
 62
7
  6
CONTINUOUS
 10
97.3152706441
 20
64.7893607494
 11
97.3152706441
 21
65.2893607494
  0
LINE
  5
3B7
100
AcDbEntity
  8
0
100
AcDbLine
 62
7
  6
CONTINUOUS
 10
97.6952706441
 20
27.7901376896
 11
97.6952706441
 21
27.2901249609
  0
LINE
  5
3B8
100
AcDbEntity
  8
0
100
AcDbLine
 62
7
  6
CONTINUOUS
 10
98.1952706441
 20
27.7893607494
 11
98.1952706441
 21
27.2893607494
  0
LINE
  5
3B9
100
AcDbEntity
  8
0
100
AcDbLine
 62
7
  6
CONTINUOUS
 10
98.3619371518
 20
27.7893607494
 11
98.3619371518
 21
27.2893607494
  0
LINE
  5
3BA
100
AcDbEntity
  8
0
100
AcDbLine
 62
7
  6
CONTINUOUS
 10
98.5286041363
 20
27.7893607494
 11
98.5286041363
 21
27.2893607494
  0
LINE
  5
3BB
100
AcDbEntity
  8
0
100
AcDbLine
 62
7
  6
CONTINUOUS
 10
99.8619371518
 20
27.8027666579
 11
99.8619371518
 21
27.302546793
  0
LINE
  5
3BC
100
AcDbEntity
  8
0
100
AcDbLine
 62
7
  6
CONTINUOUS
 10
100.8619376286
 20
27.8027666579
 11
100.8619376286
 21
27.302546793
  0
LINE
  5
3BD
100
AcDbEntity
  8
0
100
AcDbLine
 62
7
  6
CONTINUOUS
 10
101.0286036595
 20
27.7893607494
 11
101.0286036595
 21
27.2893607494
  0
LINE
  5
3BE
100
AcDbEntity
  8
0
100
AcDbLine
 62
7
  6
CONTINUOUS
 10
101.3619376286
 20
27.7893607494
 11
101.3619376286
 21
27.2893607494
  0
LINE
  5
3BF
100
AcDbEntity
  8
0
100
AcDbLine
 62
7
  6
CONTINUOUS
 10
101.7152706441
 20
64.7893607494
 11
101.7152706441
 21
65.2893607494
  0
LINE
  5
3C0
100
AcDbEntity
  8
0
100
AcDbLine
 62
7
  6
CONTINUOUS
 10
42.4581649973
 20
18.1627123433
 11
43.7914970591
 21
18.1627123433
  0
LINE
  5
3C1
100
AcDbEntity
  8
0
100
AcDbLine
 62
7
  6
CONTINUOUS
 10
47.4581649973
 20
18.1627123433
 11
48.4581649973
 21
18.1627123433
  0
LINE
  5
3C2
100
AcDbEntity
  8
0
100
AcDbLine
 62
7
  6
CONTINUOUS
 10
51.9581649973
 20
18.1627123433
 11
55.9581640436
 21
18.1627123433
  0
LINE
  5
3C3
100
AcDbEntity
  8
0
100
AcDbLine
 62
7
  6
CONTINUOUS
 10
59.6248310282
 20
18.1627123433
 11
63.6248310282
 21
18.1627123433
  0
LINE
  5
3C4
100
AcDbEntity
  8
0
100
AcDbLine
 62
7
  6
CONTINUOUS
 10
64.9581645204
 20
18.1627123433
 11
65.9581645204
 21
18.1627123433
  0
LINE
  5
3C5
100
AcDbEntity
  8
0
100
AcDbLine
 62
7
  6
CONTINUOUS
 10
70.6248310282
 20
18.1627123433
 11
71.6248310282
 21
18.1627123433
  0
LINE
  5
3C6
100
AcDbEntity
  8
0
100
AcDbLine
 62
7
  6
CONTINUOUS
 10
235.2723770061
 20
18.1627123433
 11
236.6057102599
 21
18.1627123433
  0
LINE
  5
3C7
100
AcDbEntity
  8
0
100
AcDbLine
 62
7
  6
CONTINUOUS
 10
240.6057102599
 20
18.1627123433
 11
241.6057102599
 21
18.1627123433
  0
LINE
  5
3C8
100
AcDbEntity
  8
0
100
AcDbLine
 62
7
  6
CONTINUOUS
 10
245.7723772445
 20
18.1627123433
 11
246.9390432754
 21
18.1627123433
  0
LINE
  5
3C9
100
AcDbEntity
  8
0
100
AcDbLine
 62
7
  6
CONTINUOUS
 10
248.2723772445
 20
18.1627123433
 11
252.2723762908
 21
18.1627123433
  0
LINE
  5
3CA
100
AcDbEntity
  8
0
100
AcDbLine
 62
7
  6
CONTINUOUS
 10
255.7723762908
 20
18.1627123433
 11
256.7723762908
 21
18.1627123433
  0
LINE
  5
3CB
100
AcDbEntity
  8
0
100
AcDbLine
 62
7
  6
CONTINUOUS
 10
260.4390442291
 20
18.1627123433
 11
261.7723762908
 21
18.1627123433
  0
LINE
  5
3CC
100
AcDbEntity
  8
0
100
AcDbLine
 62
7
  6
CONTINUOUS
 10
62.6248310282
 20
18.704451771
 11
59.4581640436
 21
18.704451771
  0
LINE
  5
3CD
100
AcDbEntity
  8
0
100
AcDbLine
 62
7
  6
CONTINUOUS
 10
252.4390442291
 20
18.8145298222
 11
249.2723762908
 21
18.8145298222
  0
LINE
  5
3CE
100
AcDbEntity
  8
0
100
AcDbLine
 62
7
  6
CONTINUOUS
 10
54.9581649973
 20
18.8145297449
 11
51.7914970591
 21
18.8145297449
  0
LINE
  5
3CF
100
AcDbEntity
  8
0
100
AcDbLine
 62
7
  6
CONTINUOUS
 10
59.4581640436
 20
19.4143574401
 11
62.6248310282
 21
19.4143574401
  0
LINE
  5
3D0
100
AcDbEntity
  8
0
100
AcDbLine
 62
7
  6
CONTINUOUS
 10
252.4390442291
 20
19.5241395211
 11
249.2723762908
 21
19.5241395211
  0
LINE
  5
3D1
100
AcDbEntity
  8
0
100
AcDbLine
 62
7
  6
CONTINUOUS
 10
51.7914970591
 20
19.524139444
 11
54.9581649973
 21
19.524139444
  0
LINE
  5
3D2
100
AcDbEntity
  8
0
100
AcDbLine
 62
7
  6
CONTINUOUS
 10
51.7914970591
 20
20.4157473733
 11
54.9581649973
 21
20.4157473733
  0
LINE
  5
3D3
100
AcDbEntity
  8
0
100
AcDbLine
 62
7
  6
CONTINUOUS
 10
59.4581640436
 20
20.4157473733
 11
62.6248310282
 21
20.4157473733
  0
LINE
  5
3D4
100
AcDbEntity
  8
0
100
AcDbLine
 62
7
  6
CONTINUOUS
 10
241.6057102599
 20
20.5343985697
 11
244.4390432754
 21
20.5343985697
  0
LINE
  5
3D5
100
AcDbEntity
  8
0
100
AcDbLine
 62
7
  6
CONTINUOUS
 10
249.2723762908
 20
20.5343985697
 11
252.4390442291
 21
20.5343985697
  0
LINE
  5
3D6
100
AcDbEntity
  8
0
100
AcDbLine
 62
7
  6
CONTINUOUS
 10
62.6248310282
 20
21.1361915032
 11
59.7914980127
 21
21.1361915032
  0
LINE
  5
3D7
100
AcDbEntity
  8
0
100
AcDbLine
 62
7
  6
CONTINUOUS
 10
54.9581649973
 20
21.1361915032
 11
51.7914970591
 21
21.1361915032
  0
LINE
  5
3D8
100
AcDbEntity
  8
0
100
AcDbLine
 62
7
  6
CONTINUOUS
 10
252.4390442291
 20
21.2582574803
 11
249.2723762908
 21
21.2582574803
  0
LINE
  5
3D9
100
AcDbEntity
  8
0
100
AcDbLine
 62
7
  6
CONTINUOUS
 10
244.7723772445
 20
21.2582574803
 11
241.6057102599
 21
21.2582574803
  0
LINE
  5
3DA
100
AcDbEntity
  8
0
100
AcDbLine
 62
7
  6
CONTINUOUS
 10
101.8619376286
 20
27.7893607494
 11
101.8619376286
 21
27.2893607494
  0
LINE
  5
3DB
100
AcDbEntity
  8
0
100
AcDbLine
 62
7
  6
CONTINUOUS
 10
102.5286036595
 20
27.7893607494
 11
102.5286036595
 21
27.2893607494
  0
LINE
  5
3DC
100
AcDbEntity
  8
0
100
AcDbLine
 62
7
  6
CONTINUOUS
 10
103.1952706441
 20
27.7893607494
 11
103.1952706441
 21
27.2893607494
  0
LINE
  5
3DD
100
AcDbEntity
  8
0
100
AcDbLine
 62
7
  6
CONTINUOUS
 10
103.8619376286
 20
27.7893607494
 11
103.8619376286
 21
27.2893607494
  0
LINE
  5
3DE
100
AcDbEntity
  8
0
100
AcDbLine
 62
7
  6
CONTINUOUS
 10
104.1152706441
 20
64.7893607494
 11
104.1152706441
 21
65.2893607494
  0
LINE
  5
3DF
100
AcDbEntity
  8
0
100
AcDbLine
 62
7
  6
CONTINUOUS
 10
104.3619376286
 20
27.7893607494
 11
104.3619376286
 21
27.2893607494
  0
LINE
  5
3E0
100
AcDbEntity
  8
0
100
AcDbLine
 62
7
  6
CONTINUOUS
 10
104.6952706441
 20
27.7893607494
 11
104.6952706441
 21
27.2893607494
  0
LINE
  5
3E1
100
AcDbEntity
  8
0
100
AcDbLine
 62
7
  6
CONTINUOUS
 10
104.8619376286
 20
27.8027666579
 11
104.8619376286
 21
27.302546793
  0
LINE
  5
3E2
100
AcDbEntity
  8
0
100
AcDbLine
 62
7
  6
CONTINUOUS
 10
105.8619376286
 20
27.8027666579
 11
105.8619376286
 21
27.302546793
  0
LINE
  5
3E3
100
AcDbEntity
  8
0
100
AcDbLine
 62
7
  6
CONTINUOUS
 10
107.1952706441
 20
27.8027666579
 11
107.1952706441
 21
27.302546793
  0
LINE
  5
3E4
100
AcDbEntity
  8
0
100
AcDbLine
 62
7
  6
CONTINUOUS
 10
108.5152706441
 20
64.7893607494
 11
108.5152706441
 21
65.2893607494
  0
LINE
  5
3E5
100
AcDbEntity
  8
0
100
AcDbLine
 62
7
  6
CONTINUOUS
 10
111.1952706441
 20
27.8027666579
 11
111.1952706441
 21
27.302546793
  0
LINE
  5
3E6
100
AcDbEntity
  8
0
100
AcDbLine
 62
7
  6
CONTINUOUS
 10
112.0286046132
 20
27.7981598383
 11
112.0286046132
 21
27.2980155496
  0
LWPOLYLINE
  5
3E7
100
AcDbEntity
  8
RUNDUNGEN
100
AcDbPolyline
 62
7
  6
CONTINUOUS
 90
6
 70
0
 10
218.3256895376
 20
27.789365539
 10
218.4958328594
 20
27.7922542594
 10
218.9661201933
 20
27.8289720267
 10
219.4319858558
 20
27.9077300675
 10
219.888107755
 20
28.0275081118
 10
220.3295069424
 20
28.1863687321
  0
LINE
  5
3E8
100
AcDbEntity
  8
0
100
AcDbLine
 62
7
  6
CONTINUOUS
 10
51.7914970591
 20
21.8433490998
 11
54.9581649973
 21
21.8433490998
  0
LINE
  5
3E9
100
AcDbEntity
  8
0
100
AcDbLine
 62
7
  6
CONTINUOUS
 10
59.7914980127
 20
21.8433490998
 11
62.6248310282
 21
21.8433490998
  0
LINE
  5
3EA
100
AcDbEntity
  8
0
100
AcDbLine
 62
7
  6
CONTINUOUS
 10
252.4390442291
 20
21.96546387
 11
249.2723762908
 21
21.96546387
  0
LINE
  5
3EB
100
AcDbEntity
  8
0
100
AcDbLine
 62
7
  6
CONTINUOUS
 10
244.7723772445
 20
21.96546387
 11
241.6057102599
 21
21.96546387
  0
LINE
  5
3EC
100
AcDbEntity
  8
0
100
AcDbLine
 62
7
  6
CONTINUOUS
 10
51.7914970591
 20
23.0270808627
 11
54.9581649973
 21
23.0270808627
  0
LINE
  5
3ED
100
AcDbEntity
  8
0
100
AcDbLine
 62
7
  6
CONTINUOUS
 10
249.2723762908
 20
23.027080954
 11
252.4390442291
 21
23.027080954
  0
LINE
  5
3EE
100
AcDbEntity
  8
0
100
AcDbLine
 62
7
  6
CONTINUOUS
 10
241.6057102599
 20
23.1577201535
 11
244.7723772445
 21
23.1577201535
  0
LINE
  5
3EF
100
AcDbEntity
  8
0
100
AcDbLine
 62
7
  6
CONTINUOUS
 10
261.7723762908
 20
23.8195665928
 11
260.4390442291
 21
23.8195665928
  0
LINE
  5
3F0
100
AcDbEntity
  8
0
100
AcDbLine
 62
7
  6
CONTINUOUS
 10
256.7723762908
 20
23.8195665928
 11
255.7723762908
 21
23.8195665928
  0
LINE
  5
3F1
100
AcDbEntity
  8
0
100
AcDbLine
 62
7
  6
CONTINUOUS
 10
252.2723762908
 20
23.8195665928
 11
248.2723772445
 21
23.8195665928
  0
LINE
  5
3F2
100
AcDbEntity
  8
0
100
AcDbLine
 62
7
  6
CONTINUOUS
 10
244.6057102599
 20
23.8195665928
 11
240.6057102599
 21
23.8195665928
  0
LINE
  5
3F3
100
AcDbEntity
  8
0
100
AcDbLine
 62
7
  6
CONTINUOUS
 10
239.2723767677
 20
23.8195665928
 11
238.2723767677
 21
23.8195665928
  0
LINE
  5
3F4
100
AcDbEntity
  8
0
100
AcDbLine
 62
7
  6
CONTINUOUS
 10
233.6057102599
 20
23.8195665928
 11
232.6057102599
 21
23.8195665928
  0
LINE
  5
3F5
100
AcDbEntity
  8
0
100
AcDbLine
 62
7
  6
CONTINUOUS
 10
68.958164282
 20
23.8195665928
 11
67.6248310282
 21
23.8195665928
  0
LINE
  5
3F6
100
AcDbEntity
  8
0
100
AcDbLine
 62
7
  6
CONTINUOUS
 10
63.6248310282
 20
23.8195665928
 11
62.6248310282
 21
23.8195665928
  0
LINE
  5
3F7
100
AcDbEntity
  8
0
100
AcDbLine
 62
7
  6
CONTINUOUS
 10
58.4581640436
 20
23.8195665928
 11
57.2914980127
 21
23.8195665928
  0
LINE
  5
3F8
100
AcDbEntity
  8
0
100
AcDbLine
 62
7
  6
CONTINUOUS
 10
55.9581640436
 20
23.8195665928
 11
51.9581649973
 21
23.8195665928
  0
LINE
  5
3F9
100
AcDbEntity
  8
0
100
AcDbLine
 62
7
  6
CONTINUOUS
 10
48.4581649973
 20
23.8195665928
 11
47.4581649973
 21
23.8195665928
  0
LINE
  5
3FA
100
AcDbEntity
  8
0
100
AcDbLine
 62
7
  6
CONTINUOUS
 10
43.7914970591
 20
23.8195665928
 11
42.4581649973
 21
23.8195665928
  0
LINE
  5
3FB
100
AcDbEntity
  8
0
100
AcDbLine
 62
7
  6
CONTINUOUS
 10
261.7723762908
 20
24.5312061678
 11
260.4390442291
 21
24.5312061678
  0
LINE
  5
3FC
100
AcDbEntity
  8
0
100
AcDbLine
 62
7
  6
CONTINUOUS
 10
256.7723762908
 20
24.5312061678
 11
255.7723762908
 21
24.5312061678
  0
LINE
  5
3FD
100
AcDbEntity
  8
0
100
AcDbLine
 62
7
  6
CONTINUOUS
 10
252.2723762908
 20
24.5312061678
 11
248.2723772445
 21
24.5312061678
  0
LINE
  5
3FE
100
AcDbEntity
  8
0
100
AcDbLine
 62
7
  6
CONTINUOUS
 10
244.6057102599
 20
24.5312061678
 11
240.6057102599
 21
24.5312061678
  0
LINE
  5
3FF
100
AcDbEntity
  8
0
100
AcDbLine
 62
7
  6
CONTINUOUS
 10
239.2723767677
 20
24.5312061678
 11
238.2723767677
 21
24.5312061678
  0
LINE
  5
400
100
AcDbEntity
  8
0
100
AcDbLine
 62
7
  6
CONTINUOUS
 10
233.6057102599
 20
24.5312061678
 11
232.6057102599
 21
24.5312061678
  0
LINE
  5
401
100
AcDbEntity
  8
0
100
AcDbLine
 62
7
  6
CONTINUOUS
 10
42.4581649973
 20
24.5312061678
 11
43.7914970591
 21
24.5312061678
  0
LINE
  5
402
100
AcDbEntity
  8
0
100
AcDbLine
 62
7
  6
CONTINUOUS
 10
47.4581649973
 20
24.5312061678
 11
48.4581649973
 21
24.5312061678
  0
LINE
  5
403
100
AcDbEntity
  8
0
100
AcDbLine
 62
7
  6
CONTINUOUS
 10
51.9581649973
 20
24.5312061678
 11
55.9581640436
 21
24.5312061678
  0
LINE
  5
404
100
AcDbEntity
  8
0
100
AcDbLine
 62
7
  6
CONTINUOUS
 10
57.2914980127
 20
24.5312061678
 11
58.4581640436
 21
24.5312061678
  0
LINE
  5
405
100
AcDbEntity
  8
0
100
AcDbLine
 62
7
  6
CONTINUOUS
 10
62.6248310282
 20
24.5312061678
 11
63.6248310282
 21
24.5312061678
  0
LINE
  5
406
100
AcDbEntity
  8
0
100
AcDbLine
 62
7
  6
CONTINUOUS
 10
67.6248310282
 20
24.5312061678
 11
68.958164282
 21
24.5312061678
  0
LINE
  5
407
100
AcDbEntity
  8
0
100
AcDbLine
 62
7
  6
CONTINUOUS
 10
113.8619366749
 20
27.2893607494
 11
113.0733458659
 21
27.2893607494
  0
LINE
  5
408
100
AcDbEntity
  8
0
100
AcDbLine
 62
7
  6
CONTINUOUS
 10
112.6952706441
 20
27.2893607494
 11
107.1952706441
 21
27.2893607494
  0
LINE
  5
409
100
AcDbEntity
  8
0
100
AcDbLine
 62
7
  6
CONTINUOUS
 10
105.8619376286
 20
27.2893607494
 11
99.8619371518
 21
27.2893607494
  0
LINE
  5
40A
100
AcDbEntity
  8
0
100
AcDbLine
 62
7
  6
CONTINUOUS
 10
98.5286041363
 20
27.2893607494
 11
97.8538273309
 21
27.2893607494
  0
LINE
  5
40B
100
AcDbEntity
  8
0
100
AcDbLine
 62
7
  6
CONTINUOUS
 10
97.0286041363
 20
27.2893607494
 11
92.1952706441
 21
27.2893607494
  0
LINE
  5
40C
100
AcDbEntity
  8
0
100
AcDbLine
 62
7
  6
CONTINUOUS
 10
111.1952706441
 20
27.302546793
 11
107.1952706441
 21
27.302546793
  0
LINE
  5
40D
100
AcDbEntity
  8
0
100
AcDbLine
 62
7
  6
CONTINUOUS
 10
105.8619376286
 20
27.302546793
 11
104.8619376286
 21
27.302546793
  0
LINE
  5
40E
100
AcDbEntity
  8
0
100
AcDbLine
 62
7
  6
CONTINUOUS
 10
100.8619376286
 20
27.302546793
 11
99.8619371518
 21
27.302546793
  0
LINE
  5
40F
100
AcDbEntity
  8
0
100
AcDbLine
 62
7
  6
CONTINUOUS
 10
96.1952706441
 20
27.302546793
 11
92.1952706441
 21
27.302546793
  0
LINE
  5
410
100
AcDbEntity
  8
0
100
AcDbLine
 62
7
  6
CONTINUOUS
 10
216.4588080534
 20
27.7893607494
 11
182.1152706441
 21
27.7893607494
  0
LINE
  5
411
100
AcDbEntity
  8
RUNDUNGEN
100
AcDbLine
 62
7
  6
CONTINUOUS
 10
218.3256895401
 20
27.7893626013
 11
182.1152706441
 21
27.7893607494
  0
LINE
  5
412
100
AcDbEntity
  8
0
100
AcDbLine
 62
7
  6
CONTINUOUS
 10
122.1152706441
 20
27.7893607494
 11
113.0733458659
 21
27.7893607494
  0
LINE
  5
413
100
AcDbEntity
  8
RUNDUNGEN
100
AcDbLine
 62
7
  6
CONTINUOUS
 10
122.1152706441
 20
27.7893607494
 11
113.0733458659
 21
27.7893607494
  0
LINE
  5
414
100
AcDbEntity
  8
0
100
AcDbLine
 62
7
  6
CONTINUOUS
 10
107.1952706441
 20
27.7893607494
 11
105.8619376286
 21
27.7893607494
  0
LINE
  5
415
100
AcDbEntity
  8
RUNDUNGEN
100
AcDbLine
 62
7
  6
CONTINUOUS
 10
107.1952706441
 20
27.7893607494
 11
105.8619376286
 21
27.7893607494
  0
LINE
  5
416
100
AcDbEntity
  8
0
100
AcDbLine
 62
7
  6
CONTINUOUS
 10
104.8619376286
 20
27.7893607494
 11
100.8619376286
 21
27.7893607494
  0
LINE
  5
417
100
AcDbEntity
  8
RUNDUNGEN
100
AcDbLine
 62
7
  6
CONTINUOUS
 10
104.8619376286
 20
27.7893607494
 11
100.8619376286
 21
27.7893607494
  0
LINE
  5
418
100
AcDbEntity
  8
0
100
AcDbLine
 62
7
  6
CONTINUOUS
 10
99.8619371518
 20
27.7893607494
 11
97.8538273309
 21
27.7893607494
  0
LINE
  5
419
100
AcDbEntity
  8
RUNDUNGEN
100
AcDbLine
 62
7
  6
CONTINUOUS
 10
99.8619371518
 20
27.7893607494
 11
97.8538273309
 21
27.7893607494
  0
LINE
  5
41A
100
AcDbEntity
  8
0
100
AcDbLine
 62
7
  6
CONTINUOUS
 10
92.1952706441
 20
27.7893607494
 11
87.771733235
 21
27.7893607494
  0
LINE
  5
41B
100
AcDbEntity
  8
0
100
AcDbLine
 62
7
  6
CONTINUOUS
 10
111.1952706441
 20
27.8027666579
 11
107.1952706441
 21
27.8027666579
  0
LINE
  5
41C
100
AcDbEntity
  8
0
100
AcDbLine
 62
7
  6
CONTINUOUS
 10
105.8619376286
 20
27.8027666579
 11
104.8619376286
 21
27.8027666579
  0
LINE
  5
41D
100
AcDbEntity
  8
0
100
AcDbLine
 62
7
  6
CONTINUOUS
 10
100.8619376286
 20
27.8027666579
 11
99.8619371518
 21
27.8027666579
  0
LINE
  5
41E
100
AcDbEntity
  8
0
100
AcDbLine
 62
7
  6
CONTINUOUS
 10
96.1952706441
 20
27.8027666579
 11
92.1952706441
 21
27.8027666579
  0
LINE
  5
41F
100
AcDbEntity
  8
BEZUGSACHSEN
100
AcDbLine
 62
7
  6
CONTINUOUS
 10
80.6452706441
 20
28.7893607494
 11
81.2697649097
 21
28.7893607494
  0
LINE
  5
420
100
AcDbEntity
  8
BEZUGSACHSEN
100
AcDbLine
 62
7
  6
CONTINUOUS
 10
222.9607765063
 20
28.7893607494
 11
223.5852706441
 21
28.7893607494
  0
LINE
  5
421
100
AcDbEntity
  8
0
100
AcDbLine
 62
7
  6
CONTINUOUS
 10
162.5850605067
 20
29.2893607494
 11
158.0073281821
 21
29.2893607494
  0
LINE
  5
422
100
AcDbEntity
  8
0
100
AcDbLine
 62
7
  6
CONTINUOUS
 10
157.0589236315
 20
29.2893607494
 11
149.6733156737
 21
29.2893607494
  0
LINE
  5
423
100
AcDbEntity
  8
0
100
AcDbLine
 62
7
  6
CONTINUOUS
 10
146.2232140597
 20
29.2893607494
 11
141.6454812434
 21
29.2893607494
  0
LINE
  5
424
100
AcDbEntity
  8
0
100
AcDbLine
 62
7
  6
CONTINUOUS
 10
122.1152706441
 20
29.7893607494
 11
182.1152706441
 21
29.7893607494
  0
LINE
  5
425
100
AcDbEntity
  8
RUNDUNGEN
100
AcDbLine
 62
7
  6
CONTINUOUS
 10
219.9467212975
 20
30.2893607494
 11
84.2845345082
 21
30.2893607494
  0
LINE
  5
426
100
AcDbEntity
  8
RUNDUNGEN
100
AcDbLine
 62
7
  6
CONTINUOUS
 10
92.1952706441
 20
27.7893607494
 11
85.9046713617
 21
27.7893627614
  0
LWPOLYLINE
  5
427
100
AcDbEntity
  8
RUNDUNGEN
100
AcDbPolyline
 62
7
  6
CONTINUOUS
 90
6
 70
0
 10
81.2670339124
 20
28.7893842236
 10
81.5947009862
 20
28.780423073
 10
82.081180914
 20
28.7338468193
 10
82.5622152274
 20
28.6478108681
 10
83.0345761623
 20
28.5229050151
 10
83.4950971086
 20
28.3599874768
  0
LINE
  5
428
100
AcDbEntity
  8
0
100
AcDbLine
 62
7
  6
CONTINUOUS
 10
112.6952706441
 20
27.7918456593
 11
112.6952706441
 21
27.2918049376
  0
LINE
  5
429
100
AcDbEntity
  8
0
100
AcDbLine
 62
7
  6
CONTINUOUS
 10
113.3619366749
 20
27.7893607494
 11
113.3619366749
 21
27.2893607494
  0
LINE
  5
42A
100
AcDbEntity
  8
0
100
AcDbLine
 62
7
  6
CONTINUOUS
 10
113.6952706441
 20
27.7893607494
 11
113.6952706441
 21
27.2893607494
  0
LINE
  5
42B
100
AcDbEntity
  8
0
100
AcDbLine
 62
7
  6
CONTINUOUS
 10
113.8619366749
 20
27.7893607494
 11
113.8619366749
 21
27.2893607494
  0
LINE
  5
42C
100
AcDbEntity
  8
BEZUGSACHSEN
100
AcDbLine
 62
7
  6
CONTINUOUS
 10
122.1152706441
 20
64.7893607494
 11
122.1152706441
 21
62.7893607494
  0
LINE
  5
42D
100
AcDbEntity
  8
0
100
AcDbLine
 62
7
  6
CONTINUOUS
 10
122.1152706441
 20
27.7893607494
 11
122.1152706441
 21
29.7893607494
  0
LINE
  5
42E
100
AcDbEntity
  8
BEZUGSACHSEN
100
AcDbLine
 62
7
  6
CONTINUOUS
 10
83.7327759831
 20
64.3198844116
 11
83.7327166767
 21
64.3198576177
  0
LINE
  5
42F
100
AcDbEntity
  8
BEZUGSACHSEN
100
AcDbLine
 62
7
  6
CONTINUOUS
 10
83.7842023279
 20
64.3427613736
 11
83.7325879632
 21
64.3197995468
  0
LWPOLYLINE
  5
430
100
AcDbEntity
  8
BEZUGSACHSEN
100
AcDbPolyline
 62
7
  6
CONTINUOUS
 90
7
 70
0
 10
83.7326495888
 20
64.3198192579
 10
83.5074586679
 20
64.2236985482
 10
83.0473032696
 20
64.0597588062
 10
82.5752220693
 20
63.933803678
 10
82.0943798398
 20
63.8466987718
 10
81.6080031492
 20
63.799041366
 10
81.2670338058
 20
63.7893372751
  0
LINE
  5
431
100
AcDbEntity
  8
0
100
AcDbLine
 62
7
  6
CONTINUOUS
 10
141.6454807814
 20
62.7893607494
 11
141.6454807814
 21
63.2893607494
  0
LINE
  5
432
100
AcDbEntity
  8
0
100
AcDbLine
 62
7
  6
CONTINUOUS
 10
141.6454812434
 20
29.7893607494
 11
141.6454812434
 21
29.2893607494
  0
LINE
  5
433
100
AcDbEntity
  8
0
100
AcDbLine
 62
7
  6
CONTINUOUS
 10
142.9747412499
 20
62.7893607494
 11
142.9747412499
 21
63.2893607494
  0
LINE
  5
434
100
AcDbEntity
  8
BEZUGSACHSEN
100
AcDbLine
 62
7
  6
CONTINUOUS
 10
219.9467212975
 20
62.2893607494
 11
84.2845345082
 21
62.2893607494
  0
LINE
  5
435
100
AcDbEntity
  8
BEZUGSACHSEN
100
AcDbLine
 62
7
  6
CONTINUOUS
 10
122.1152706441
 20
62.7893607494
 11
182.1152706441
 21
62.7893607494
  0
LINE
  5
436
100
AcDbEntity
  8
0
100
AcDbLine
 62
7
  6
CONTINUOUS
 10
144.572840273
 20
29.7893607494
 11
144.572840273
 21
29.2893607494
  0
LINE
  5
437
100
AcDbEntity
  8
0
100
AcDbLine
 62
7
  6
CONTINUOUS
 10
145.1105181273
 20
62.7893607494
 11
145.1105181273
 21
63.2893607494
  0
LINE
  5
438
100
AcDbEntity
  8
0
100
AcDbLine
 62
7
  6
CONTINUOUS
 10
146.223213106
 20
62.7893607494
 11
146.223213106
 21
63.2893607494
  0
LINE
  5
439
100
AcDbEntity
  8
0
100
AcDbLine
 62
7
  6
CONTINUOUS
 10
146.2232140597
 20
29.7893607494
 11
146.2232140597
 21
29.2893607494
  0
LINE
  5
43A
100
AcDbEntity
  8
0
100
AcDbLine
 62
7
  6
CONTINUOUS
 10
147.1716176566
 20
62.7893607494
 11
147.1716176566
 21
63.2893607494
  0
LINE
  5
43B
100
AcDbEntity
  8
0
100
AcDbLine
 62
7
  6
CONTINUOUS
 10
147.3807152804
 20
62.7893607494
 11
147.3807152804
 21
63.2893607494
  0
LINE
  5
43C
100
AcDbEntity
  8
0
100
AcDbLine
 62
7
  6
CONTINUOUS
 10
149.6733156737
 20
29.7893607494
 11
149.6733156737
 21
29.2893607494
  0
LWPOLYLINE
  5
43D
100
AcDbEntity
  8
BEZUGSACHSEN
100
AcDbPolyline
 62
7
  6
CONTINUOUS
 90
7
 70
0
 10
85.906770611
 20
64.7893572517
 10
85.5158921665
 20
64.7746539793
 10
85.1584590159
 20
64.7355920434
 10
84.8045624211
 20
64.6722821121
 10
84.4561206158
 20
64.5851559477
 10
84.1152698865
 20
64.4749527313
 10
83.7842023279
 20
64.3427613736
  0
LINE
  5
43E
100
AcDbEntity
  8
0
100
AcDbLine
 62
7
  6
CONTINUOUS
 10
141.6454807814
 20
63.2893607494
 11
146.223213106
 21
63.2893607494
  0
LINE
  5
43F
100
AcDbEntity
  8
0
100
AcDbLine
 62
7
  6
CONTINUOUS
 10
147.1716176566
 20
63.2893607494
 11
154.5572256144
 21
63.2893607494
  0
LINE
  5
440
100
AcDbEntity
  8
0
100
AcDbLine
 62
7
  6
CONTINUOUS
 10
158.0073272284
 20
63.2893607494
 11
162.5850600447
 21
63.2893607494
  0
LINE
  5
441
100
AcDbEntity
  8
BEZUGSACHSEN
100
AcDbLine
 62
7
  6
CONTINUOUS
 10
223.5852706441
 20
63.7893607494
 11
222.9607765063
 21
63.7893607494
  0
LINE
  5
442
100
AcDbEntity
  8
BEZUGSACHSEN
100
AcDbLine
 62
7
  6
CONTINUOUS
 10
81.2697649097
 20
63.7893607494
 11
80.6452706441
 21
63.7893607494
  0
LINE
  5
443
100
AcDbEntity
  8
0
100
AcDbLine
 62
7
  6
CONTINUOUS
 10
14.8398240331
 20
64.5736319968
 11
12.675308365
 21
64.5736319968
  0
LINE
  5
444
100
AcDbEntity
  8
KONSTRUKTIONSELEMENTE
100
AcDbLine
 62
7
  6
CONTINUOUS
 10
289.3907326387
 20
64.5736319968
 11
291.555232923
 21
64.5736319968
  0
LINE
  5
445
100
AcDbEntity
  8
0
100
AcDbLine
 62
7
  6
CONTINUOUS
 10
193.0352706441
 20
64.7759548408
 11
197.0352706441
 21
64.7759548408
  0
LINE
  5
446
100
AcDbEntity
  8
0
100
AcDbLine
 62
7
  6
CONTINUOUS
 10
198.3686036595
 20
64.7759548408
 11
199.3686036595
 21
64.7759548408
  0
LINE
  5
447
100
AcDbEntity
  8
0
100
AcDbLine
 62
7
  6
CONTINUOUS
 10
203.3686036595
 20
64.7759548408
 11
204.3686041363
 21
64.7759548408
  0
LINE
  5
448
100
AcDbEntity
  8
0
100
AcDbLine
 62
7
  6
CONTINUOUS
 10
208.0352706441
 20
64.7759548408
 11
212.0352706441
 21
64.7759548408
  0
LINE
  5
449
100
AcDbEntity
  8
0
100
AcDbLine
 62
7
  6
CONTINUOUS
 10
216.4588080534
 20
64.7893607494
 11
212.0352706441
 21
64.7893607494
  0
LINE
  5
44A
100
AcDbEntity
  8
0
100
AcDbLine
 62
7
  6
CONTINUOUS
 10
206.3767139572
 20
64.7893607494
 11
204.3686041363
 21
64.7893607494
  0
LINE
  5
44B
100
AcDbEntity
  8
0
100
AcDbLine
 62
7
  6
CONTINUOUS
 10
203.3686036595
 20
64.7893607494
 11
199.3686036595
 21
64.7893607494
  0
LINE
  5
44C
100
AcDbEntity
  8
0
100
AcDbLine
 62
7
  6
CONTINUOUS
 10
198.3686036595
 20
64.7893607494
 11
197.0352706441
 21
64.7893607494
  0
LINE
  5
44D
100
AcDbEntity
  8
0
100
AcDbLine
 62
7
  6
CONTINUOUS
 10
191.1571954222
 20
64.7893607494
 11
182.1152706441
 21
64.7893607494
  0
LINE
  5
44E
100
AcDbEntity
  8
BEZUGSACHSEN
100
AcDbLine
 62
7
  6
CONTINUOUS
 10
122.1152706441
 20
64.7893607494
 11
85.9091413818
 21
64.7893607494
  0
LINE
  5
44F
100
AcDbEntity
  8
BEZUGSACHSEN
100
AcDbLine
 62
7
  6
CONTINUOUS
 10
182.1152706441
 20
64.7893607494
 11
191.1571954222
 21
64.7893607494
  0
LINE
  5
450
100
AcDbEntity
  8
BEZUGSACHSEN
100
AcDbLine
 62
7
  6
CONTINUOUS
 10
197.0352706441
 20
64.7893607494
 11
198.3686036595
 21
64.7893607494
  0
LINE
  5
451
100
AcDbEntity
  8
BEZUGSACHSEN
100
AcDbLine
 62
7
  6
CONTINUOUS
 10
199.3686036595
 20
64.7893607494
 11
203.3686036595
 21
64.7893607494
  0
LINE
  5
452
100
AcDbEntity
  8
BEZUGSACHSEN
100
AcDbLine
 62
7
  6
CONTINUOUS
 10
204.3686041363
 20
64.7893607494
 11
206.3767139572
 21
64.7893607494
  0
LINE
  5
453
100
AcDbEntity
  8
0
100
AcDbLine
 62
7
  6
CONTINUOUS
 10
193.0352706441
 20
65.2761747057
 11
197.0352706441
 21
65.2761747057
  0
LINE
  5
454
100
AcDbEntity
  8
0
100
AcDbLine
 62
7
  6
CONTINUOUS
 10
198.3686036595
 20
65.2761747057
 11
199.3686036595
 21
65.2761747057
  0
LINE
  5
455
100
AcDbEntity
  8
0
100
AcDbLine
 62
7
  6
CONTINUOUS
 10
203.3686036595
 20
65.2761747057
 11
204.3686041363
 21
65.2761747057
  0
LINE
  5
456
100
AcDbEntity
  8
0
100
AcDbLine
 62
7
  6
CONTINUOUS
 10
208.0352706441
 20
65.2761747057
 11
212.0352706441
 21
65.2761747057
  0
LINE
  5
457
100
AcDbEntity
  8
0
100
AcDbLine
 62
7
  6
CONTINUOUS
 10
97.3152706441
 20
65.2893607494
 11
101.7152706441
 21
65.2893607494
  0
LINE
  5
458
100
AcDbEntity
  8
0
100
AcDbLine
 62
7
  6
CONTINUOUS
 10
104.1152706441
 20
65.2893607494
 11
108.5152706441
 21
65.2893607494
  0
LINE
  5
459
100
AcDbEntity
  8
0
100
AcDbLine
 62
7
  6
CONTINUOUS
 10
190.3686046132
 20
65.2893607494
 11
191.1571954222
 21
65.2893607494
  0
LINE
  5
45A
100
AcDbEntity
  8
0
100
AcDbLine
 62
7
  6
CONTINUOUS
 10
191.5352706441
 20
65.2893607494
 11
197.0352706441
 21
65.2893607494
  0
LINE
  5
45B
100
AcDbEntity
  8
0
100
AcDbLine
 62
7
  6
CONTINUOUS
 10
198.3686036595
 20
65.2893607494
 11
204.3686041363
 21
65.2893607494
  0
LINE
  5
45C
100
AcDbEntity
  8
0
100
AcDbLine
 62
7
  6
CONTINUOUS
 10
205.7019371518
 20
65.2893607494
 11
206.3767139572
 21
65.2893607494
  0
LINE
  5
45D
100
AcDbEntity
  8
0
100
AcDbLine
 62
7
  6
CONTINUOUS
 10
207.2019371518
 20
65.2893607494
 11
212.0352706441
 21
65.2893607494
  0
LINE
  5
45E
100
AcDbEntity
  8
BEZUGSACHSEN
100
AcDbLine
 62
7
  6
CONTINUOUS
 10
218.3257401004
 20
64.7893588532
 11
212.0352706441
 21
64.7893607494
  0
LWPOLYLINE
  5
45F
100
AcDbEntity
  8
BEZUGSACHSEN
100
AcDbPolyline
 62
7
  6
CONTINUOUS
 90
7
 70
0
 10
222.9635081449
 20
63.7893378197
 10
222.6225399679
 20
63.799041882
 10
222.1361638495
 20
63.8466991682
 10
221.6553221897
 20
63.9338038605
 10
221.1832415497
 20
64.0597586781
 10
220.7230866953
 20
64.2236980106
 10
220.4978937442
 20
64.3198195121
  0
LINE
  5
460
100
AcDbEntity
  8
0
100
AcDbLine
 62
7
  6
CONTINUOUS
 10
154.5572256144
 20
62.7893607494
 11
154.5572256144
 21
63.2893607494
  0
LINE
  5
461
100
AcDbEntity
  8
0
100
AcDbLine
 62
7
  6
CONTINUOUS
 10
156.8498260077
 20
29.7893607494
 11
156.8498260077
 21
29.2893607494
  0
LINE
  5
462
100
AcDbEntity
  8
0
100
AcDbLine
 62
7
  6
CONTINUOUS
 10
157.0589236315
 20
29.7893607494
 11
157.0589236315
 21
29.2893607494
  0
LINE
  5
463
100
AcDbEntity
  8
0
100
AcDbLine
 62
7
  6
CONTINUOUS
 10
158.0073272284
 20
62.7893607494
 11
158.0073272284
 21
63.2893607494
  0
LINE
  5
464
100
AcDbEntity
  8
0
100
AcDbLine
 62
7
  6
CONTINUOUS
 10
158.0073281821
 20
29.7893607494
 11
158.0073281821
 21
29.2893607494
  0
LINE
  5
465
100
AcDbEntity
  8
0
100
AcDbLine
 62
7
  6
CONTINUOUS
 10
159.1200231608
 20
29.7893607494
 11
159.1200231608
 21
29.2893607494
  0
LINE
  5
466
100
AcDbEntity
  8
0
100
AcDbLine
 62
7
  6
CONTINUOUS
 10
159.6577010151
 20
62.7893607494
 11
159.6577010151
 21
63.2893607494
  0
LINE
  5
467
100
AcDbEntity
  8
0
100
AcDbLine
 62
7
  6
CONTINUOUS
 10
161.2558000382
 20
29.7893607494
 11
161.2558000382
 21
29.2893607494
  0
LINE
  5
468
100
AcDbEntity
  8
0
100
AcDbLine
 62
7
  6
CONTINUOUS
 10
162.5850600447
 20
62.7893607494
 11
162.5850600447
 21
63.2893607494
  0
LINE
  5
469
100
AcDbEntity
  8
0
100
AcDbLine
 62
7
  6
CONTINUOUS
 10
162.5850605067
 20
29.7893607494
 11
162.5850605067
 21
29.2893607494
  0
LWPOLYLINE
  5
46A
100
AcDbEntity
  8
BEZUGSACHSEN
100
AcDbPolyline
 62
7
  6
CONTINUOUS
 90
6
 70
0
 10
220.3407589935
 20
64.3877186844
 10
219.8974491401
 20
64.5483007759
 10
219.4391706696
 20
64.6694380811
 10
218.9709785844
 20
64.7491481192
 10
218.4982811823
 20
64.7863855174
 10
218.3257400978
 20
64.7893559155
  0
LINE
  5
46B
100
AcDbEntity
  8
BEZUGSACHSEN
100
AcDbLine
 62
7
  6
CONTINUOUS
 10
220.4980105328
 20
64.3197736216
 11
220.3407589935
 21
64.3877186844
  0
LINE
  5
46C
100
AcDbEntity
  8
BEZUGSACHSEN
100
AcDbLine
 62
7
  6
CONTINUOUS
 10
220.4978819142
 20
64.319831647
 11
220.4977658861
 21
64.3198841489
  0
LWPOLYLINE
  5
46D
100
AcDbEntity
  8
KONSTRUKTIONSELEMENTE
100
AcDbPolyline
 62
7
  6
CONTINUOUS
 90
7
 70
0
 10
69.0528667417
 20
133.5070069978
 10
68.6954121054
 20
133.6917374578
 10
68.3461091482
 20
133.8184292836
 10
67.9838328526
 20
133.9009762449
 10
67.6141398674
 20
133.9381138765
 10
67.2427007674
 20
133.9292750724
 10
67.1283641668
 20
133.9172361866
  0
LINE
  5
46E
100
AcDbEntity
  8
0
100
AcDbLine
 62
7
  6
CONTINUOUS
 10
182.1152706441
 20
27.7893607494
 11
182.1152706441
 21
29.7893607494
  0
LINE
  5
46F
100
AcDbEntity
  8
BEZUGSACHSEN
100
AcDbLine
 62
7
  6
CONTINUOUS
 10
182.1152706441
 20
62.7893607494
 11
182.1152706441
 21
64.7893607494
  0
LINE
  5
470
100
AcDbEntity
  8
0
100
AcDbLine
 62
7
  6
CONTINUOUS
 10
190.3686046132
 20
64.7893607494
 11
190.3686046132
 21
65.2893607494
  0
LINE
  5
471
100
AcDbEntity
  8
0
100
AcDbLine
 62
7
  6
CONTINUOUS
 10
190.5352706441
 20
64.7893607494
 11
190.5352706441
 21
65.2893607494
  0
LINE
  5
472
100
AcDbEntity
  8
0
100
AcDbLine
 62
7
  6
CONTINUOUS
 10
190.8686046132
 20
64.7893607494
 11
190.8686046132
 21
65.2893607494
  0
LINE
  5
473
100
AcDbEntity
  8
0
100
AcDbLine
 62
7
  6
CONTINUOUS
 10
191.5352706441
 20
64.7868758394
 11
191.5352706441
 21
65.2869165611
  0
LINE
  5
474
100
AcDbEntity
  8
0
100
AcDbLine
 62
7
  6
CONTINUOUS
 10
192.2019366749
 20
64.7805616604
 11
192.2019366749
 21
65.2807059491
  0
LINE
  5
475
100
AcDbEntity
  8
0
100
AcDbLine
 62
7
  6
CONTINUOUS
 10
193.0352706441
 20
64.7759548408
 11
193.0352706441
 21
65.2761747057
  0
LINE
  5
476
100
AcDbEntity
  8
0
100
AcDbLine
 62
7
  6
CONTINUOUS
 10
197.0352706441
 20
64.7759548408
 11
197.0352706441
 21
65.2761747057
  0
LINE
  5
477
100
AcDbEntity
  8
0
100
AcDbLine
 62
7
  6
CONTINUOUS
 10
198.3686036595
 20
64.7759548408
 11
198.3686036595
 21
65.2761747057
  0
LINE
  5
478
100
AcDbEntity
  8
0
100
AcDbLine
 62
7
  6
CONTINUOUS
 10
199.3686036595
 20
64.7759548408
 11
199.3686036595
 21
65.2761747057
  0
LINE
  5
479
100
AcDbEntity
  8
0
100
AcDbLine
 62
7
  6
CONTINUOUS
 10
199.5352706441
 20
64.7893607494
 11
199.5352706441
 21
65.2893607494
  0
LINE
  5
47A
100
AcDbEntity
  8
0
100
AcDbLine
 62
7
  6
CONTINUOUS
 10
199.8686036595
 20
64.7893607494
 11
199.8686036595
 21
65.2893607494
  0
LINE
  5
47B
100
AcDbEntity
  8
0
100
AcDbLine
 62
7
  6
CONTINUOUS
 10
200.3686036595
 20
64.7893607494
 11
200.3686036595
 21
65.2893607494
  0
LINE
  5
47C
100
AcDbEntity
  8
0
100
AcDbLine
 62
7
  6
CONTINUOUS
 10
201.0352706441
 20
64.7893607494
 11
201.0352706441
 21
65.2893607494
  0
LINE
  5
47D
100
AcDbEntity
  8
0
100
AcDbLine
 62
7
  6
CONTINUOUS
 10
201.7019376286
 20
64.7893607494
 11
201.7019376286
 21
65.2893607494
  0
LINE
  5
47E
100
AcDbEntity
  8
0
100
AcDbLine
 62
7
  6
CONTINUOUS
 10
202.3686036595
 20
64.7893607494
 11
202.3686036595
 21
65.2893607494
  0
LINE
  5
47F
100
AcDbEntity
  8
0
100
AcDbLine
 62
7
  6
CONTINUOUS
 10
202.8686036595
 20
64.7893607494
 11
202.8686036595
 21
65.2893607494
  0
LINE
  5
480
100
AcDbEntity
  8
0
100
AcDbLine
 62
7
  6
CONTINUOUS
 10
203.2019376286
 20
64.7893607494
 11
203.2019376286
 21
65.2893607494
  0
LINE
  5
481
100
AcDbEntity
  8
0
100
AcDbLine
 62
7
  6
CONTINUOUS
 10
203.3686036595
 20
64.7759548408
 11
203.3686036595
 21
65.2761747057
  0
LINE
  5
482
100
AcDbEntity
  8
0
100
AcDbLine
 62
7
  6
CONTINUOUS
 10
204.3686041363
 20
64.7759548408
 11
204.3686041363
 21
65.2761747057
  0
LINE
  5
483
100
AcDbEntity
  8
0
100
AcDbLine
 62
7
  6
CONTINUOUS
 10
205.7019371518
 20
64.7893607494
 11
205.7019371518
 21
65.2893607494
  0
LINE
  5
484
100
AcDbEntity
  8
0
100
AcDbLine
 62
7
  6
CONTINUOUS
 10
205.8686041363
 20
64.7893607494
 11
205.8686041363
 21
65.2893607494
  0
LINE
  5
485
100
AcDbEntity
  8
0
100
AcDbLine
 62
7
  6
CONTINUOUS
 10
206.0352706441
 20
64.7893607494
 11
206.0352706441
 21
65.2893607494
  0
LINE
  5
486
100
AcDbEntity
  8
0
100
AcDbLine
 62
7
  6
CONTINUOUS
 10
206.5352706441
 20
64.7885838091
 11
206.5352706441
 21
65.2885965378
  0
LINE
  5
487
100
AcDbEntity
  8
0
100
AcDbLine
 62
7
  6
CONTINUOUS
 10
207.2019371518
 20
64.7805616604
 11
207.2019371518
 21
65.2807059491
  0
LINE
  5
488
100
AcDbEntity
  8
0
100
AcDbLine
 62
7
  6
CONTINUOUS
 10
208.0352706441
 20
64.7759548408
 11
208.0352706441
 21
65.2761747057
  0
LINE
  5
489
100
AcDbEntity
  8
0
100
AcDbLine
 62
7
  6
CONTINUOUS
 10
212.0352706441
 20
64.7759548408
 11
212.0352706441
 21
65.2761747057
  0
LINE
  5
48A
100
AcDbEntity
  8
KONSTRUKTIONSELEMENTE
100
AcDbLine
 62
7
  6
CONTINUOUS
 10
223.5852706441
 20
24.2893607494
 11
225.8014705615
 21
11.7206664491
  0
LINE
  5
48B
100
AcDbEntity
  8
KONSTRUKTIONSELEMENTE
100
AcDbLine
 62
7
  6
CONTINUOUS
 10
223.5852706441
 20
24.2893607494
 11
223.5852706441
 21
31.866249123
  0
LINE
  5
48C
100
AcDbEntity
  8
KONSTRUKTIONSELEMENTE
100
AcDbLine
 62
7
  6
CONTINUOUS
 10
223.5852706441
 20
60.7124723757
 11
223.5852706441
 21
68.2893607494
  0
LINE
  5
48D
100
AcDbEntity
  8
RUNDUNGEN
100
AcDbLine
 62
7
  6
CONTINUOUS
 10
224.9467206987
 20
35.2893607494
 11
224.9467206987
 21
57.2893607494
  0
LINE
  5
48E
100
AcDbEntity
  8
KONSTRUKTIONSELEMENTE
100
AcDbLine
 62
7
  6
CONTINUOUS
 10
225.8014705615
 20
46.2896388862
 11
225.8014705615
 21
11.7206664491
  0
LINE
  5
48F
100
AcDbEntity
  8
KONSTRUKTIONSELEMENTE
100
AcDbLine
 62
7
  6
CONTINUOUS
 10
223.5852706441
 20
68.2893607494
 11
233.8637523525
 21
126.5815271957
  0
LINE
  5
490
100
AcDbEntity
  8
RUNDUNGEN
100
AcDbLine
 62
7
  6
CONTINUOUS
 10
220.4978782735
 20
28.2588881994
 11
220.4977661464
 21
28.2588374672
  0
LINE
  5
491
100
AcDbEntity
  8
RUNDUNGEN
100
AcDbLine
 62
7
  6
CONTINUOUS
 10
220.3295069424
 20
28.1863687321
 11
220.4980068966
 21
28.258946227
  0
LWPOLYLINE
  5
492
100
AcDbEntity
  8
RUNDUNGEN
100
AcDbPolyline
 62
7
  6
CONTINUOUS
 90
7
 70
0
 10
220.4978940044
 20
28.258902104
 10
220.735448255
 20
28.3599880079
 10
221.1959686569
 20
28.522905138
 10
221.6683290311
 20
28.6478106819
 10
222.1493627745
 20
28.7338464204
 10
222.6358421299
 20
28.7804225558
 10
222.9635080379
 20
28.789383679
  0
LINE
  5
493
100
AcDbEntity
  8
KONSTRUKTIONSELEMENTE
100
AcDbLine
 62
7
  6
CONTINUOUS
 10
14.2653104032
 20
127.326183625
 11
67.1286631908
 21
133.9172924513
  0
LWPOLYLINE
  5
494
100
AcDbEntity
  8
0
100
AcDbPolyline
 62
7
  6
CONTINUOUS
 90
7
 70
0
 10
237.1021786634
 20
133.917235994
 10
236.9572146976
 20
133.9317496901
 10
236.5857029748
 20
133.9367842986
 10
236.2164077746
 20
133.8958623559
 10
235.8549937182
 20
133.8096089403
 10
235.5070043341
 20
133.6793453371
 10
235.1776744304
 20
133.5070069268
  0
LINE
  5
495
100
AcDbEntity
  8
0
100
AcDbLine
 62
7
  6
CONTINUOUS
 10
237.1018780973
 20
133.9172924513
 11
289.9652308849
 21
127.326183625
  0
LINE
  5
496
100
AcDbEntity
  8
0
100
AcDbLine
 62
7
  6
CONTINUOUS
 10
232.6057102599
 20
24.5312061678
 11
232.6057102599
 21
23.8195665928
  0
LINE
  5
497
100
AcDbEntity
  8
0
100
AcDbLine
 62
7
  6
CONTINUOUS
 10
233.6057102599
 20
24.5312061678
 11
233.6057102599
 21
23.8195665928
  0
LINE
  5
498
100
AcDbEntity
  8
0
100
AcDbLine
 62
7
  6
CONTINUOUS
 10
235.9390435138
 20
19.5241395211
 11
235.9390435138
 21
18.8145298222
  0
LINE
  5
499
100
AcDbEntity
  8
0
100
AcDbLine
 62
7
  6
CONTINUOUS
 10
238.2723767677
 20
24.5312061678
 11
238.2723767677
 21
23.8195665928
  0
LINE
  5
49A
100
AcDbEntity
  8
0
100
AcDbLine
 62
7
  6
CONTINUOUS
 10
239.2723767677
 20
24.5312061678
 11
239.2723767677
 21
23.8195665928
  0
LINE
  5
49B
100
AcDbEntity
  8
0
100
AcDbLine
 62
7
  6
CONTINUOUS
 10
240.6057102599
 20
24.5312061678
 11
240.6057102599
 21
18.1627123433
  0
LINE
  5
49C
100
AcDbEntity
  8
0
100
AcDbLine
 62
7
  6
CONTINUOUS
 10
241.6057102599
 20
18.1627123433
 11
241.6057102599
 21
20.5343985697
  0
LINE
  5
49D
100
AcDbEntity
  8
0
100
AcDbLine
 62
7
  6
CONTINUOUS
 10
241.6057102599
 20
21.2582574803
 11
241.6057102599
 21
23.1577201535
  0
LINE
  5
49E
100
AcDbEntity
  8
0
100
AcDbLine
 62
7
  6
CONTINUOUS
 10
244.6057102599
 20
24.5312061678
 11
244.6057102599
 21
23.8195665928
  0
LINE
  5
49F
100
AcDbEntity
  8
0
100
AcDbLine
 62
7
  6
CONTINUOUS
 10
244.7723772445
 20
21.96546387
 11
244.7723772445
 21
21.2582574803
  0
LINE
  5
4A0
100
AcDbEntity
  8
0
100
AcDbLine
 62
7
  6
CONTINUOUS
 10
245.2723772445
 20
22.0881642285
 11
245.2723772445
 21
21.3808927656
  0
LINE
  5
4A1
100
AcDbEntity
  8
0
100
AcDbLine
 62
7
  6
CONTINUOUS
 10
245.4390432754
 20
24.397299922
 11
245.4390432754
 21
23.6860412418
  0
LINE
  5
4A2
100
AcDbEntity
  8
0
100
AcDbLine
 62
7
  6
CONTINUOUS
 10
245.6057102599
 20
22.3353224175
 11
245.6057102599
 21
21.6278719107
  0
LINE
  5
4A3
100
AcDbEntity
  8
0
100
AcDbLine
 62
7
  6
CONTINUOUS
 10
245.7723772445
 20
22.3824969017
 11
245.7723772445
 21
22.0026155066
  0
LINE
  5
4A4
100
AcDbEntity
  8
0
100
AcDbLine
 62
7
  6
CONTINUOUS
 10
246.1057102599
 20
23.9991535058
 11
246.1057102599
 21
23.2889350216
  0
LINE
  5
4A5
100
AcDbEntity
  8
0
100
AcDbLine
 62
7
  6
CONTINUOUS
 10
246.6057102599
 20
23.4765948504
 11
246.6057102599
 21
22.7675268027
  0
LINE
  5
4A6
100
AcDbEntity
  8
0
100
AcDbLine
 62
7
  6
CONTINUOUS
 10
246.7723772445
 20
21.8771306208
 11
246.7723772445
 21
23.0908773658
  0
LINE
  5
4A7
100
AcDbEntity
  8
0
100
AcDbLine
 62
7
  6
CONTINUOUS
 10
246.9390432754
 20
18.8743519183
 11
246.9390432754
 21
18.1627123433
  0
LINE
  5
4A8
100
AcDbEntity
  8
0
100
AcDbLine
 62
7
  6
CONTINUOUS
 10
248.2723772445
 20
24.5312061678
 11
248.2723772445
 21
18.1627123433
  0
LINE
  5
4A9
100
AcDbEntity
  8
0
100
AcDbLine
 62
7
  6
CONTINUOUS
 10
249.2723762908
 20
18.8145298222
 11
249.2723762908
 21
20.5343985697
  0
LINE
  5
4AA
100
AcDbEntity
  8
0
100
AcDbLine
 62
7
  6
CONTINUOUS
 10
249.2723762908
 20
21.2582574803
 11
249.2723762908
 21
23.027080954
  0
LINE
  5
4AB
100
AcDbEntity
  8
0
100
AcDbLine
 62
7
  6
CONTINUOUS
 10
252.2723762908
 20
24.5312061678
 11
252.2723762908
 21
23.8195665928
  0
LINE
  5
4AC
100
AcDbEntity
  8
0
100
AcDbLine
 62
7
  6
CONTINUOUS
 10
252.4390442291
 20
21.96546387
 11
252.4390442291
 21
21.2582574803
  0
LINE
  5
4AD
100
AcDbEntity
  8
0
100
AcDbLine
 62
7
  6
CONTINUOUS
 10
252.4390442291
 20
19.5241395211
 11
252.4390442291
 21
18.8145298222
  0
LINE
  5
4AE
100
AcDbEntity
  8
0
100
AcDbLine
 62
7
  6
CONTINUOUS
 10
252.9390442291
 20
22.0881642285
 11
252.9390442291
 21
21.3808927656
  0
LINE
  5
4AF
100
AcDbEntity
  8
0
100
AcDbLine
 62
7
  6
CONTINUOUS
 10
252.9390442291
 20
19.6345132769
 11
252.9390442291
 21
18.9251827656
  0
LINE
  5
4B0
100
AcDbEntity
  8
0
100
AcDbLine
 62
7
  6
CONTINUOUS
 10
253.1057102599
 20
24.397299922
 11
253.1057102599
 21
23.6860412418
  0
LINE
  5
4B1
100
AcDbEntity
  8
0
100
AcDbLine
 62
7
  6
CONTINUOUS
 10
253.2723762908
 20
22.3353224175
 11
253.2723762908
 21
21.6278719107
  0
LINE
  5
4B2
100
AcDbEntity
  8
0
100
AcDbLine
 62
7
  6
CONTINUOUS
 10
253.2723762908
 20
19.8570332922
 11
253.2723762908
 21
19.1482110403
  0
LINE
  5
4B3
100
AcDbEntity
  8
0
100
AcDbLine
 62
7
  6
CONTINUOUS
 10
253.4390442291
 20
22.2552980652
 11
253.4390442291
 21
22.0026155066
  0
LINE
  5
4B4
100
AcDbEntity
  8
0
100
AcDbLine
 62
7
  6
CONTINUOUS
 10
253.4390442291
 20
19.831034485
 11
253.4390442291
 21
19.4870504116
  0
LINE
  5
4B5
100
AcDbEntity
  8
0
100
AcDbLine
 62
7
  6
CONTINUOUS
 10
253.7723762908
 20
23.9991535058
 11
253.7723762908
 21
23.2889350216
  0
LINE
  5
4B6
100
AcDbEntity
  8
0
100
AcDbLine
 62
7
  6
CONTINUOUS
 10
253.7723762908
 20
21.0146947199
 11
253.7723762908
 21
20.7734084673
  0
LINE
  5
4B7
100
AcDbEntity
  8
0
100
AcDbLine
 62
7
  6
CONTINUOUS
 10
254.2723762908
 20
23.4765948504
 11
254.2723762908
 21
22.7675268027
  0
LINE
  5
4B8
100
AcDbEntity
  8
0
100
AcDbLine
 62
7
  6
CONTINUOUS
 10
254.2723762908
 20
21.0049369482
 11
254.2723762908
 21
20.2976654852
  0
LINE
  5
4B9
100
AcDbEntity
  8
0
100
AcDbLine
 62
7
  6
CONTINUOUS
 10
254.4390442291
 20
19.3735317183
 11
254.4390442291
 21
20.6544017427
  0
LINE
  5
4BA
100
AcDbEntity
  8
0
100
AcDbLine
 62
7
  6
CONTINUOUS
 10
254.4390442291
 20
21.8771306208
 11
254.4390442291
 21
23.0908773658
  0
LINE
  5
4BB
100
AcDbEntity
  8
0
100
AcDbLine
 62
7
  6
CONTINUOUS
 10
255.7723762908
 20
24.5312061678
 11
255.7723762908
 21
18.1627123433
  0
LINE
  5
4BC
100
AcDbEntity
  8
0
100
AcDbLine
 62
7
  6
CONTINUOUS
 10
256.7723762908
 20
18.1627123433
 11
256.7723762908
 21
19.9468372278
  0
LINE
  5
4BD
100
AcDbEntity
  8
0
100
AcDbLine
 62
7
  6
CONTINUOUS
 10
256.7723762908
 20
20.893767054
 11
256.7723762908
 21
24.5312061678
  0
LINE
  5
4BE
100
AcDbEntity
  8
0
100
AcDbLine
 62
7
  6
CONTINUOUS
 10
260.4390442291
 20
24.5312061678
 11
260.4390442291
 21
23.8195665928
  0
LINE
  5
4BF
100
AcDbEntity
  8
0
100
AcDbLine
 62
7
  6
CONTINUOUS
 10
261.7723762908
 20
24.5312061678
 11
261.7723762908
 21
23.8195665928
  0
LINE
  5
4C0
100
AcDbEntity
  8
0
100
AcDbLine
 62
7
  6
CONTINUOUS
 10
261.7723762908
 20
18.8743519183
 11
261.7723762908
 21
18.1627123433
  0
LINE
  5
4C1
100
AcDbEntity
  8
0
100
AcDbLine
 62
7
  6
CONTINUOUS
 10
291.7535519563
 20
126.6412613112
 11
291.7532219996
 21
126.6414908845
  0
LWPOLYLINE
  5
4C2
100
AcDbEntity
  8
KONSTRUKTIONSELEMENTE
100
AcDbPolyline
 62
7
  6
CONTINUOUS
 90
11
 70
0
 10
289.5193511813
 20
63.004573008
 10
289.5334622052
 20
62.9628783862
 10
289.5322959303
 20
62.9679967529
 10
289.5201880918
 20
63.0230013698
 10
289.5018528633
 20
63.1243692728
 10
289.4804431122
 20
63.2698566812
 10
289.4585292189
 20
63.4549694512
 10
289.4376038406
 20
63.6783148417
 10
289.4189036625
 20
63.9369302677
 10
289.4032261531
 20
64.2290013797
 10
289.3912255194
 20
64.5516408268
  0
LWPOLYLINE
  5
4C3
100
AcDbEntity
  8
0
100
AcDbPolyline
 62
7
  6
CONTINUOUS
 90
11
 70
0
 10
294.555220565
 20
121.488215499
 10
294.5491889629
 20
121.7555364624
 10
294.4821714023
 20
122.4139901124
 10
294.3410772242
 20
123.0651739807
 10
294.1269547619
 20
123.7015226041
 10
293.8414104543
 20
124.3161901346
 10
293.4867921451
 20
124.9024570409
 10
293.0658305995
 20
125.4545906466
 10
292.5823173135
 20
125.9659053986
 10
292.0406653251
 20
126.4307801935
 10
291.7543855363
 20
126.640619835
  0
LWPOLYLINE
  5
4C4
100
AcDbEntity
  8
KONSTRUKTIONSELEMENTE
100
AcDbPolyline
 62
7
  6
CONTINUOUS
 90
3
 70
0
 10
289.3912255194
 20
64.5516408268
 10
289.3833552443
 20
64.9027939036
 10
289.3799200488
 20
65.2790910249
  0
LINE
  5
4C5
100
AcDbEntity
  8
KONSTRUKTIONSELEMENTE
100
AcDbLine
 62
7
  6
CONTINUOUS
 10
289.3799200488
 20
65.2790910249
 11
289.3797708645
 21
65.3809928869
  0
LINE
  5
4C6
100
AcDbEntity
  8
0
100
AcDbLine
 62
7
  6
CONTINUOUS
 10
289.3797708645
 20
65.3809928869
 11
289.3797708098
 21
65.3817882753
  0
LINE
  5
4C7
100
AcDbEntity
  8
KONSTRUKTIONSELEMENTE
100
AcDbLine
 62
7
  6
CONTINUOUS
 10
294.5552205063
 20
50.9075096022
 11
294.5552205063
 21
61.5732310385
  0
LINE
  5
4C8
100
AcDbEntity
  8
0
100
AcDbLine
 62
7
  6
CONTINUOUS
 10
294.5552205051
 20
110.8223748912
 11
294.5552205063
 21
121.4878034326
  0
LINE
  5
4C9
100
AcDbEntity
  8
RUNDUNGEN
100
AcDbLine
 62
7
  6
CONTINUOUS
 10
294.5552203443
 20
50.9071554925
 11
294.5552204915
 21
50.9077178229
  0
LWPOLYLINE
  5
4CA
100
AcDbEntity
  8
0
100
AcDbPolyline
 62
7
  6
CONTINUOUS
 90
10
 70
0
 10
289.3797708098
 20
65.3817882753
 10
289.3821855927
 20
65.7983579924
 10
289.3981535211
 20
66.5743019773
 10
289.4294263166
 20
67.4170557344
 10
289.4762404888
 20
68.3199311695
 10
289.5387844016
 20
69.2763916439
 10
289.6168945703
 20
70.2793358383
 10
289.7103768502
 20
71.3210144142
 10
289.8188601454
 20
72.3941180235
 10
289.9418232368
 20
73.4905958383
  0
LINE
  5
4CB
100
AcDbEntity
  8
0
100
AcDbLine
 62
7
  6
CONTINUOUS
 10
294.5366598411
 20
110.3909264027
 11
294.5552221139
 21
110.8233019812
  0
LWPOLYLINE
  5
4CC
100
AcDbEntity
  8
RUNDUNGEN
100
AcDbPolyline
 62
7
  6
CONTINUOUS
 90
3
 70
0
 10
294.490332029
 20
50.0393581201
 10
294.5502370126
 20
50.6643919939
 10
294.5552206007
 20
50.9071734895
  0
LINE
  5
4CD
100
AcDbEntity
  8
0
100
AcDbLine
 62
7
  6
CONTINUOUS
 10
294.5170150045
 20
110.2049284673
 11
294.5366598411
 21
110.3909264027
  0
LINE
  5
4CE
100
AcDbEntity
  8
0
100
AcDbLine
 62
7
  6
CONTINUOUS
 10
294.5169782237
 20
110.2049330846
 11
289.9418232368
 21
73.4905958383
  0
LWPOLYLINE
  5
4CF
100
AcDbEntity
  8
KONSTRUKTIONSELEMENTE
100
AcDbPolyline
 62
7
  6
CONTINUOUS
 90
7
 70
0
 10
282.1565778471
 20
21.4833846902
 10
284.0184887305
 20
26.0107069422
 10
285.9661982275
 20
30.6431866503
 10
287.9443605101
 20
35.2299590871
 10
289.9577868487
 20
39.7667612736
 10
292.0138648648
 20
44.2539056932
 10
293.9924179689
 20
48.4263877119
  0
LWPOLYLINE
  5
4D0
100
AcDbEntity
  8
RUNDUNGEN
100
AcDbPolyline
 62
7
  6
CONTINUOUS
 90
4
 70
0
 10
293.9914448718
 20
48.4243324084
 10
294.169569362
 20
48.8338224116
 10
294.3629374796
 20
49.4266822203
 10
294.490332029
 20
50.0393581201
  0
LINE
  5
4D1
100
AcDbEntity
  8
RUNDUNGEN
100
AcDbLine
 62
7
  6
CONTINUOUS
 10
293.9915301735
 20
48.4245492606
 11
293.9924129053
 21
48.4263772203
  0
ARC
  5
4D2
100
AcDbEntity
  8
KONSTRUKTIONSELEMENTE
100
AcDbCircle
 62
7
  6
CONTINUOUS
 10
-296.2650942432
 20
268.1560980318
 40
372.3295380562
100
AcDbArc
 50
348.9966429209
 51
349.9660491189
  0
ARC
  5
4D3
100
AcDbEntity
  8
0
100
AcDbCircle
 62
7
  6
CONTINUOUS
 10
14.7600590069
 20
206.4929801487
 40
3.9995019902
100
AcDbArc
 50
235.1972074579
 51
262.8941640156
  0
ARC
  5
4D4
100
AcDbEntity
  8
KONSTRUKTIONSELEMENTE
100
AcDbCircle
 62
7
  6
CONTINUOUS
 10
12.6753200759
 20
268.2767485895
 40
3.0
100
AcDbArc
 50
180.0068427419
 51
269.9999999941
  0
ARC
  5
4D5
100
AcDbEntity
  8
BEZUGSACHSEN
100
AcDbCircle
 62
7
  6
CONTINUOUS
 10
87.2838205894
 20
340.8766364621
 40
8.0
100
AcDbArc
 50
157.5
 51
186.0
  0
ARC
  5
4D6
100
AcDbEntity
  8
RUNDUNGEN
100
AcDbCircle
 62
7
  6
CONTINUOUS
 10
87.2838205894
 20
340.8766364621
 40
8.0
100
AcDbArc
 50
157.5
 51
186.0
  0
ARC
  5
4D7
100
AcDbEntity
  8
RUNDUNGEN
100
AcDbCircle
 62
7
  6
CONTINUOUS
 10
106.6194105353
 20
387.5568799458
 40
8.0
100
AcDbArc
 50
112.5
 51
157.5
  0
ARC
  5
4D8
100
AcDbEntity
  8
BEZUGSACHSEN
100
AcDbCircle
 62
7
  6
CONTINUOUS
 10
76.7608693106
 20
307.0610187943
 40
5.9999997338
100
AcDbArc
 50
310.3879261246
 51
6.0000100115
  0
ARC
  5
4D9
100
AcDbEntity
  8
KONSTRUKTIONSELEMENTE
100
AcDbCircle
 62
7
  6
CONTINUOUS
 10
76.8792798471
 20
315.561019837
 40
3.0
100
AcDbArc
 50
58.895823139
 51
89.9997401103
  0
ARC
  5
4DA
100
AcDbEntity
  8
KONSTRUKTIONSELEMENTE
100
AcDbCircle
 62
7
  6
CONTINUOUS
 10
585.9462279107
 20
265.4546242767
 40
357.5320077633
100
AcDbArc
 50
190.0138815082
 51
191.02341855
  0
ARC
  5
4DB
100
AcDbEntity
  8
RUNDUNGEN
100
AcDbCircle
 62
7
  6
CONTINUOUS
 10
289.4704822812
 20
206.4929801487
 40
3.9995019902
100
AcDbArc
 50
277.1058359844
 51
304.8027925421
  0
ARC
  5
4DC
100
AcDbEntity
  8
0
100
AcDbCircle
 62
7
  6
CONTINUOUS
 10
291.5552212122
 20
268.2767485895
 40
3.0
100
AcDbArc
 50
270.0000000059
 51
359.9931572718
  0
ARC
  5
4DD
100
AcDbEntity
  8
0
100
AcDbCircle
 62
7
  6
CONTINUOUS
 10
152.1152706441
 20
342.061019837
 40
47.7084973779
100
AcDbArc
 50
236.5996712494
 51
303.4003287419
  0
CIRCLE
  5
4DE
100
AcDbEntity
  8
RUNDUNGEN
100
AcDbCircle
 62
7
  6
CONTINUOUS
 10
152.1152706441
 20
342.061019837
 40
45.0
  0
ARC
  5
4DF
100
AcDbEntity
  8
BEZUGSACHSEN
100
AcDbCircle
 62
7
  6
CONTINUOUS
 10
197.6111307528
 20
387.5568799458
 40
8.0
100
AcDbArc
 50
63.0000000591
 51
67.5000000009
  0
ARC
  5
4E0
100
AcDbEntity
  8
RUNDUNGEN
100
AcDbCircle
 62
7
  6
CONTINUOUS
 10
216.9467206987
 20
340.8766364621
 40
8.0
100
AcDbArc
 50
354.0
 51
22.5
  0
ARC
  5
4E1
100
AcDbEntity
  8
RUNDUNGEN
100
AcDbCircle
 62
7
  6
CONTINUOUS
 10
197.6111307528
 20
387.5568799458
 40
8.0
100
AcDbArc
 50
22.5
 51
67.5
  0
ARC
  5
4E2
100
AcDbEntity
  8
BEZUGSACHSEN
100
AcDbCircle
 62
7
  6
CONTINUOUS
 10
152.1152706441
 20
406.4018822347
 40
8.0
100
AcDbArc
 50
67.5
 51
112.5
  0
ARC
  5
4E3
100
AcDbEntity
  8
RUNDUNGEN
100
AcDbCircle
 62
7
  6
CONTINUOUS
 10
152.1152706441
 20
406.4018822347
 40
8.0
100
AcDbArc
 50
67.5
 51
112.5
  0
ARC
  5
4E4
100
AcDbEntity
  8
BEZUGSACHSEN
100
AcDbCircle
 62
7
  6
CONTINUOUS
 10
227.4696720344
 20
307.0610193349
 40
5.9999998718
100
AcDbArc
 50
173.9999951794
 51
229.6120957064
  0
ARC
  5
4E5
100
AcDbEntity
  8
KONSTRUKTIONSELEMENTE
100
AcDbCircle
 62
7
  6
CONTINUOUS
 10
227.351261441
 20
315.561019837
 40
3.0
100
AcDbArc
 50
90.0002598897
 51
121.104176861
  0
ARC
  5
4E6
100
AcDbEntity
  8
0
100
AcDbCircle
 62
7
  6
CONTINUOUS
 10
413.7666748118
 20
283.561019837
 40
36.0
100
AcDbArc
 50
38.6206297916
 51
51.3793702084
  0
ARC
  5
4E7
100
AcDbEntity
  8
KONSTRUKTIONSELEMENTE
100
AcDbCircle
 62
7
  6
CONTINUOUS
 10
413.7666748118
 20
283.561019837
 40
35.0
100
AcDbArc
 50
51.5623799851
 51
90.0000000004
  0
ARC
  5
4E8
100
AcDbEntity
  8
KONSTRUKTIONSELEMENTE
100
AcDbCircle
 62
7
  6
CONTINUOUS
 10
413.7666748118
 20
283.561019837
 40
35.0
100
AcDbArc
 50
0.0
 51
38.4376200149
  0
ARC
  5
4E9
100
AcDbEntity
  8
0
100
AcDbCircle
 62
7
  6
CONTINUOUS
 10
413.7666748118
 20
283.561019837
 40
35.0
100
AcDbArc
 50
0.0
 51
90.0
  0
ARC
  5
4EA
100
AcDbEntity
  8
RUNDUNGEN
100
AcDbCircle
 62
7
  6
CONTINUOUS
 10
459.7666748118
 20
315.479088086
 40
30.0
100
AcDbArc
 50
179.999863824
 51
181.5344735191
  0
ARC
  5
4EB
100
AcDbEntity
  8
0
100
AcDbCircle
 62
7
  6
CONTINUOUS
 10
385.4824035643
 20
255.2767485895
 40
10.0
100
AcDbArc
 50
0.0
 51
90.0
  0
ARC
  5
4EC
100
AcDbEntity
  8
BEZUGSACHSEN
100
AcDbCircle
 62
7
  6
CONTINUOUS
 10
402.7666748118
 20
409.4018822347
 40
5.0
100
AcDbArc
 50
90.0
 51
180.0
  0
ARC
  5
4ED
100
AcDbEntity
  8
RUNDUNGEN
100
AcDbCircle
 62
7
  6
CONTINUOUS
 10
424.7666748118
 20
409.4018822347
 40
5.0
100
AcDbArc
 50
0.0
 51
90.0
  0
ARC
  5
4EE
100
AcDbEntity
  8
0
100
AcDbCircle
 62
7
  6
CONTINUOUS
 10
365.5707153189
 20
314.561019837
 40
4.0
100
AcDbArc
 50
120.0013030028
 51
135.0
  0
ARC
  5
4EF
100
AcDbEntity
  8
RUNDUNGEN
100
AcDbCircle
 62
7
  6
CONTINUOUS
 10
444.7666748118
 20
235.3650603441
 40
4.0
100
AcDbArc
 50
315.0
 51
329.9986969972
  0
ARC
  5
4F0
100
AcDbEntity
  8
0
100
AcDbCircle
 62
7
  6
CONTINUOUS
 10
444.7666748118
 20
235.3650603441
 40
4.0
100
AcDbArc
 50
315.0
 51
360.0
  0
ARC
  5
4F1
100
AcDbEntity
  8
RUNDUNGEN
100
AcDbCircle
 62
7
  6
CONTINUOUS
 10
365.5707153189
 20
314.561019837
 40
4.0
100
AcDbArc
 50
90.0
 51
135.0002099058
  0
ARC
  5
4F2
100
AcDbEntity
  8
0
100
AcDbCircle
 62
7
  6
CONTINUOUS
 10
398.4875619456
 20
203.9922111036
 40
3.0068361727
100
AcDbArc
 50
213.8979725593
 51
226.0173087564
  0
ARC
  5
4F3
100
AcDbEntity
  8
0
100
AcDbCircle
 62
7
  6
CONTINUOUS
 10
398.4822392058
 20
203.9875804038
 40
2.9998356416
100
AcDbArc
 50
179.9993405909
 51
213.881259357
  0
ARC
  5
4F4
100
AcDbEntity
  8
KONSTRUKTIONSELEMENTE
100
AcDbCircle
 62
7
  6
CONTINUOUS
 10
334.1916805469
 20
268.2745642923
 40
2.9973227183
100
AcDbArc
 50
223.9615832008
 51
270.0029933724
  0
ARC
  5
4F5
100
AcDbEntity
  8
0
100
AcDbCircle
 62
7
  6
CONTINUOUS
 10
437.0529700132
 20
225.2373662509
 40
2.2930519395
100
AcDbArc
 50
315.0199856227
 51
322.0640932418
  0
ARC
  5
4F6
100
AcDbEntity
  8
RUNDUNGEN
100
AcDbCircle
 62
7
  6
CONTINUOUS
 10
355.4430212257
 20
306.8473150384
 40
2.2930519395
100
AcDbArc
 50
127.9359067582
 51
134.9800143774
  0
ARC
  5
4F7
100
AcDbEntity
  8
KONSTRUKTIONSELEMENTE
100
AcDbCircle
 62
7
  6
CONTINUOUS
 10
600.4956355313
 20
61.6942825545
 40
372.3295380562
100
AcDbArc
 50
168.9966429209
 51
169.9660491189
  0
ARC
  5
4F8
100
AcDbEntity
  8
KONSTRUKTIONSELEMENTE
100
AcDbCircle
 62
7
  6
CONTINUOUS
 10
-281.715686621
 20
64.3957563099
 40
357.5320077617
100
AcDbArc
 50
10.0138815082
 51
11.02341855
  0
ARC
  5
4F9
100
AcDbEntity
  8
0
100
AcDbCircle
 62
7
  6
CONTINUOUS
 10
190.7794099884
 20
-51.6358004629
 40
116.9251601735
100
AcDbArc
 50
89.3029149069
 51
89.6296098543
  0
ARC
  5
4FA
100
AcDbEntity
  8
0
100
AcDbCircle
 62
7
  6
CONTINUOUS
 10
113.4511312997
 20
144.2145219601
 40
116.925160172
100
AcDbArc
 50
269.3029149069
 51
269.6296098543
  0
ARC
  5
4FB
100
AcDbEntity
  8
0
100
AcDbCircle
 62
7
  6
CONTINUOUS
 10
206.2534720821
 20
13.3107884915
 40
51.9785719285
100
AcDbArc
 50
88.9544525824
 51
89.6893730095
  0
ARC
  5
4FC
100
AcDbEntity
  8
0
100
AcDbCircle
 62
7
  6
CONTINUOUS
 10
97.977069206
 20
79.2679330072
 40
51.9785719284
100
AcDbArc
 50
268.9544525824
 51
269.6893730095
  0
ARC
  5
4FD
100
AcDbEntity
  8
0
100
AcDbCircle
 62
7
  6
CONTINUOUS
 10
191.1571969888
 20
36.0465988405
 40
29.2427619088
100
AcDbArc
 50
89.2592140104
 51
90.0000030695
  0
ARC
  5
4FE
100
AcDbEntity
  8
0
100
AcDbCircle
 62
7
  6
CONTINUOUS
 10
113.0733442993
 20
56.532122658
 40
29.2427619086
100
AcDbArc
 50
269.2592140104
 51
270.0000030695
  0
ARC
  5
4FF
100
AcDbEntity
  8
BEZUGSACHSEN
100
AcDbCircle
 62
7
  6
CONTINUOUS
 10
219.9467206987
 20
57.2893607494
 40
5.0
100
AcDbArc
 50
0.0
 51
90.0
  0
ARC
  5
500
100
AcDbEntity
  8
BEZUGSACHSEN
100
AcDbCircle
 62
7
  6
CONTINUOUS
 10
84.2838205894
 20
57.2893607494
 40
5.0
100
AcDbArc
 50
90.0
 51
180.0
  0
ARC
  5
501
100
AcDbEntity
  8
RUNDUNGEN
100
AcDbCircle
 62
7
  6
CONTINUOUS
 10
219.9467206987
 20
35.2893607494
 40
5.0
100
AcDbArc
 50
270.0
 51
360.0
  0
ARC
  5
502
100
AcDbEntity
  8
RUNDUNGEN
100
AcDbCircle
 62
7
  6
CONTINUOUS
 10
84.2838205894
 20
35.2893607494
 40
5.0
100
AcDbArc
 50
180.0
 51
270.0
  0
ARC
  5
503
100
AcDbEntity
  8
0
100
AcDbCircle
 62
7
  6
CONTINUOUS
 10
289.4704822812
 20
123.3574004376
 40
3.9995019902
100
AcDbArc
 50
55.1972074579
 51
82.8941640156
  0
ARC
  5
504
100
AcDbEntity
  8
RUNDUNGEN
100
AcDbCircle
 62
7
  6
CONTINUOUS
 10
14.7600590069
 20
123.3574004376
 40
3.9995019902
100
AcDbArc
 50
97.1058359844
 51
124.8027925421
  0
ARC
  5
505
100
AcDbEntity
  8
KONSTRUKTIONSELEMENTE
100
AcDbCircle
 62
7
  6
CONTINUOUS
 10
291.5552212122
 20
61.5736319968
 40
3.0
100
AcDbArc
 50
0.0068427419
 51
89.9999999941
  0
ARC
  5
506
100
AcDbEntity
  8
KONSTRUKTIONSELEMENTE
100
AcDbCircle
 62
7
  6
CONTINUOUS
 10
227.351261441
 20
14.2893607494
 40
3.0
100
AcDbArc
 50
238.895823139
 51
269.9997401103
  0
ARC
  5
507
100
AcDbEntity
  8
0
100
AcDbCircle
 62
7
  6
CONTINUOUS
 10
12.6753200759
 20
61.5736319968
 40
3.0
100
AcDbArc
 50
90.0000000059
 51
179.9931572718
  0
ARC
  5
508
100
AcDbEntity
  8
KONSTRUKTIONSELEMENTE
100
AcDbCircle
 62
7
  6
CONTINUOUS
 10
76.8792798471
 20
14.2893607494
 40
3.0
100
AcDbArc
 50
270.0002598897
 51
301.104176861
  0
SPLINE
  5
509
100
AcDbEntity
  8
KONSTRUKTIONSELEMENTE
100
AcDbSpline
 62
7
  6
CONTINUOUS
 70
0
 71
3
 72
14
 73
10
 74
0
 42
0.0000001
 43
0.0000001
 44
0.0000000001
 40
0.0
 40
0.0
 40
0.0
 40
0.0
 40
0.0225048801
 40
0.0751278708
 40
0.1579215823
 40
0.2704825591
 40
0.4120713405
 40
0.581829624
 40
1.0
 40
1.0
 40
1.0
 40
1.0
 10
69.0528727527
 20
196.3434085973
 30
0.0
 10
69.0578027099
 20
196.346370194
 30
0.0
 10
69.0626913099
 20
196.367569104
 30
0.0
 10
69.0756790231
 20
196.4036464359
 30
0.0
 10
69.090102269
 20
196.4665545292
 30
0.0
 10
69.1096475555
 20
196.5499065688
 30
0.0
 10
69.1323144024
 20
196.6560342154
 30
0.0
 10
69.1701230745
 20
196.838498796
 30
0.0
 10
69.1991580703
 20
196.9859560314
 30
0.0
 10
69.2195382801
 20
197.0908582982
 30
0.0
  0
SPLINE
  5
50A
100
AcDbEntity
  8
KONSTRUKTIONSELEMENTE
100
AcDbSpline
 62
7
  6
CONTINUOUS
 70
0
 71
3
 72
9
 73
5
 74
0
 42
0.0000001
 43
0.0000001
 44
0.0000000001
 40
0.0
 40
0.0
 40
0.0
 40
0.0
 40
0.2505277269
 40
1.0
 40
1.0
 40
1.0
 40
1.0
 10
70.369545905
 20
203.2844898162
 30
0.0
 10
70.6414471032
 20
204.8259820437
 30
0.0
 10
71.6820748843
 20
210.986390023
 30
0.0
 10
72.5110667743
 20
217.1855002352
 30
0.0
 10
72.9426308193
 20
221.8482480253
 30
0.0
  0
SPLINE
  5
50B
100
AcDbEntity
  8
KONSTRUKTIONSELEMENTE
100
AcDbSpline
 62
7
  6
CONTINUOUS
 70
0
 71
3
 72
11
 73
7
 74
0
 42
0.0000001
 43
0.0000001
 44
0.0000000001
 40
0.0
 40
0.0
 40
0.0
 40
0.0
 40
0.2500129442
 40
0.5000212117
 40
0.7500183308
 40
1.0
 40
1.0
 40
1.0
 40
1.0
 10
74.042782873
 20
235.1121237062
 30
0.0
 10
74.6189635916
 20
239.1283455857
 30
0.0
 10
75.7248996878
 20
247.1675500826
 30
0.0
 10
77.1486225497
 20
259.2569527701
 30
0.0
 10
78.1714636996
 20
271.3884055702
 30
0.0
 10
78.4290543886
 20
279.5039074569
 30
0.0
 10
78.4290707266
 20
283.5607417002
 30
0.0
  0
SPLINE
  5
50C
100
AcDbEntity
  8
KONSTRUKTIONSELEMENTE
100
AcDbSpline
 62
7
  6
CONTINUOUS
 70
0
 71
3
 72
9
 73
5
 74
0
 42
0.0000001
 43
0.0000001
 44
0.0000000001
 40
0.0
 40
0.0
 40
0.0
 40
0.0
 40
0.2501543717
 40
1.0
 40
1.0
 40
1.0
 40
1.0
 10
72.9426308193
 20
221.8482480253
 30
0.0
 10
73.0384174495
 20
222.7597766733
 30
0.0
 10
73.3995418336
 20
226.4058624645
 30
0.0
 10
73.6663234229
 20
230.0615728572
 30
0.0
 10
73.8033037191
 20
232.8055363729
 30
0.0
  0
SPLINE
  5
50D
100
AcDbEntity
  8
KONSTRUKTIONSELEMENTE
100
AcDbSpline
 62
7
  6
CONTINUOUS
 70
0
 71
3
 72
9
 73
5
 74
0
 42
0.0000001
 43
0.0000001
 44
0.0000000001
 40
0.0
 40
0.0
 40
0.0
 40
0.0
 40
0.4587475113
 40
1.0
 40
1.0
 40
1.0
 40
1.0
 10
73.8033037191
 20
232.8055363729
 30
0.0
 10
73.8209884655
 20
233.1597882555
 30
0.0
 10
73.8875962266
 20
233.9305182624
 30
0.0
 10
73.9833537275
 20
234.697880998
 30
0.0
 10
74.042782873
 20
235.1121237062
 30
0.0
  0
SPLINE
  5
50E
100
AcDbEntity
  8
KONSTRUKTIONSELEMENTE
100
AcDbSpline
 62
7
  6
CONTINUOUS
 70
0
 71
3
 72
14
 73
10
 74
0
 42
0.0000001
 43
0.0000001
 44
0.0000000001
 40
0.0
 40
0.0
 40
0.0
 40
0.0
 40
0.4181705659
 40
0.5879295589
 40
0.7295186352
 40
0.8420797746
 40
0.924873141
 40
0.9774954992
 40
1.0
 40
1.0
 40
1.0
 40
1.0
 10
235.0110032004
 20
197.0908573179
 30
0.0
 10
235.0313834021
 20
196.9859550941
 30
0.0
 10
235.0604184292
 20
196.8384977534
 30
0.0
 10
235.0982271344
 20
196.6560330543
 30
0.0
 10
235.1208940193
 20
196.5499051603
 30
0.0
 10
235.1404393648
 20
196.4665533021
 30
0.0
 10
235.1548624073
 20
196.4036451546
 30
0.0
 10
235.1678503691
 20
196.3675687832
 30
0.0
 10
235.1727385905
 20
196.3463694739
 30
0.0
 10
235.1776686868
 20
196.3434083068
 30
0.0
  0
SPLINE
  5
50F
100
AcDbEntity
  8
KONSTRUKTIONSELEMENTE
100
AcDbSpline
 62
7
  6
CONTINUOUS
 70
0
 71
3
 72
11
 73
7
 74
0
 42
0.0000001
 43
0.0000001
 44
0.0000000001
 40
0.0
 40
0.0
 40
0.0
 40
0.0
 40
0.2499816983
 40
0.499978805
 40
0.7499870622
 40
1.0
 40
1.0
 40
1.0
 40
1.0
 10
225.8014705615
 20
283.5607450067
 30
0.0
 10
225.801486823
 20
279.5039100168
 30
0.0
 10
226.0590772319
 20
271.3884072874
 30
0.0
 10
227.0819191402
 20
259.2569536201
 30
0.0
 10
228.5056412968
 20
247.1675504997
 30
0.0
 10
229.6115776722
 20
239.1283457547
 30
0.0
 10
230.1877584151
 20
235.1121237062
 30
0.0
  0
SPLINE
  5
510
100
AcDbEntity
  8
KONSTRUKTIONSELEMENTE
100
AcDbSpline
 62
7
  6
CONTINUOUS
 70
0
 71
3
 72
9
 73
5
 74
0
 42
0.0000001
 43
0.0000001
 44
0.0000000001
 40
0.0
 40
0.0
 40
0.0
 40
0.0
 40
0.2498939134
 40
1.0
 40
1.0
 40
1.0
 40
1.0
 10
230.4272373444
 20
232.8055402457
 30
0.0
 10
230.4728877162
 20
231.8910801778
 30
0.0
 10
230.6834090951
 20
228.2330925512
 30
0.0
 10
231.0006855696
 20
224.5815493572
 30
0.0
 10
231.2879104688
 20
221.8482480253
 30
0.0
  0
SPLINE
  5
511
100
AcDbEntity
  8
KONSTRUKTIONSELEMENTE
100
AcDbSpline
 62
7
  6
CONTINUOUS
 70
0
 71
3
 72
9
 73
5
 74
0
 42
0.0000001
 43
0.0000001
 44
0.0000000001
 40
0.0
 40
0.0
 40
0.0
 40
0.0
 40
0.2495612005
 40
1.0
 40
1.0
 40
1.0
 40
1.0
 10
231.2879104688
 20
221.8482480253
 30
0.0
 10
231.4316181264
 20
220.2955872545
 30
0.0
 10
232.0919734333
 20
214.081778252
 30
0.0
 10
233.0465013162
 20
207.9021137099
 30
0.0
 10
233.8609868273
 20
203.2845383307
 30
0.0
  0
SPLINE
  5
512
100
AcDbEntity
  8
KONSTRUKTIONSELEMENTE
100
AcDbSpline
 62
7
  6
CONTINUOUS
 70
0
 71
3
 72
9
 73
5
 74
0
 42
0.0000001
 43
0.0000001
 44
0.0000000001
 40
0.0
 40
0.0
 40
0.0
 40
0.0
 40
0.5412532301
 40
1.0
 40
1.0
 40
1.0
 40
1.0
 10
230.1877584151
 20
235.1121237062
 30
0.0
 10
230.2471875426
 20
234.6978811233
 30
0.0
 10
230.3429448453
 20
233.9305196687
 30
0.0
 10
230.4095526641
 20
233.1597909639
 30
0.0
 10
230.4272373444
 20
232.8055402457
 30
0.0
  0
SPLINE
  5
513
100
AcDbEntity
  8
0
100
AcDbSpline
 62
7
  6
CONTINUOUS
 70
0
 71
3
 72
8
 73
4
 74
0
 42
0.0000001
 43
0.0000001
 44
0.0000000001
 40
0.0
 40
0.0
 40
0.0
 40
0.0
 40
1.0
 40
1.0
 40
1.0
 40
1.0
 10
159.1200231608
 20
281.3909587702
 30
0.0
 10
159.1200231608
 20
280.5695059738
 30
0.0
 10
159.179764777
 20
280.0168921715
 30
0.0
 10
159.3110432188
 20
279.7168272146
 30
0.0
  0
SPLINE
  5
514
100
AcDbEntity
  8
0
100
AcDbSpline
 62
7
  6
CONTINUOUS
 70
0
 71
3
 72
8
 73
4
 74
0
 42
0.0000001
 43
0.0000001
 44
0.0000000001
 40
0.0
 40
0.0
 40
0.0
 40
0.0
 40
1.0
 40
1.0
 40
1.0
 40
1.0
 10
159.3110432188
 20
279.7168272146
 30
0.0
 10
159.4411361512
 20
279.4194719932
 30
0.0
 10
159.6950396594
 20
279.1954393853
 30
0.0
 10
160.07463604
 20
279.0502995444
 30
0.0
  0
SPLINE
  5
515
100
AcDbEntity
  8
0
100
AcDbSpline
 62
7
  6
CONTINUOUS
 70
0
 71
3
 72
8
 73
4
 74
0
 42
0.0000001
 43
0.0000001
 44
0.0000000001
 40
0.0
 40
0.0
 40
0.0
 40
0.0
 40
1.0
 40
1.0
 40
1.0
 40
1.0
 10
160.07463604
 20
279.0502995444
 30
0.0
 10
160.4567501839
 20
278.9041970289
 30
0.0
 10
160.8898798522
 20
278.8295194964
 30
0.0
 10
161.3678167161
 20
278.8295194964
 30
0.0
  0
SPLINE
  5
516
100
AcDbEntity
  8
0
100
AcDbSpline
 62
7
  6
CONTINUOUS
 70
0
 71
3
 72
8
 73
4
 74
0
 42
0.0000001
 43
0.0000001
 44
0.0000000001
 40
0.0
 40
0.0
 40
0.0
 40
0.0
 40
1.0
 40
1.0
 40
1.0
 40
1.0
 10
161.3678167161
 20
278.8295194964
 30
0.0
 10
161.6665261086
 20
278.8295194964
 30
0.0
 10
162.0697856244
 20
278.8519227664
 30
0.0
 10
162.5850605067
 20
278.8967292757
 30
0.0
  0
SPLINE
  5
517
100
AcDbEntity
  8
0
100
AcDbSpline
 62
7
  6
CONTINUOUS
 70
0
 71
3
 72
8
 73
4
 74
0
 42
0.0000001
 43
0.0000001
 44
0.0000000001
 40
0.0
 40
0.0
 40
0.0
 40
0.0
 40
1.0
 40
1.0
 40
1.0
 40
1.0
 10
162.5850605067
 20
280.5022961638
 30
0.0
 10
162.3311556872
 20
280.5919092438
 30
0.0
 10
162.1444629725
 20
280.6441834858
 30
0.0
 10
162.0173782202
 20
280.6578695433
 30
0.0
  0
SPLINE
  5
518
100
AcDbEntity
  8
0
100
AcDbSpline
 62
7
  6
CONTINUOUS
 70
0
 71
3
 72
8
 73
4
 74
0
 42
0.0000001
 43
0.0000001
 44
0.0000000001
 40
0.0
 40
0.0
 40
0.0
 40
0.0
 40
1.0
 40
1.0
 40
1.0
 40
1.0
 10
162.0173782202
 20
280.6578695433
 30
0.0
 10
161.659059554
 20
280.6964577279
 30
0.0
 10
161.4424940642
 20
280.7636675379
 30
0.0
 10
161.3678167564
 20
280.8532804876
 30
0.0
  0
SPLINE
  5
519
100
AcDbEntity
  8
0
100
AcDbSpline
 62
7
  6
CONTINUOUS
 70
0
 71
3
 72
8
 73
4
 74
0
 42
0.0000001
 43
0.0000001
 44
0.0000000001
 40
0.0
 40
0.0
 40
0.0
 40
0.0
 40
1.0
 40
1.0
 40
1.0
 40
1.0
 10
161.3678167564
 20
280.8532804876
 30
0.0
 10
161.2931393679
 20
280.942893534
 30
0.0
 10
161.2558000382
 20
281.1221196941
 30
0.0
 10
161.2558000382
 20
281.4058941743
 30
0.0
  0
SPLINE
  5
51A
100
AcDbEntity
  8
0
100
AcDbSpline
 62
7
  6
CONTINUOUS
 70
0
 71
3
 72
8
 73
4
 74
0
 42
0.0000001
 43
0.0000001
 44
0.0000000001
 40
0.0
 40
0.0
 40
0.0
 40
0.0
 40
1.0
 40
1.0
 40
1.0
 40
1.0
 10
152.2796084737
 20
283.8702045761
 30
0.0
 10
152.5708030757
 20
284.1540273717
 30
0.0
 10
152.9367232617
 20
284.3033823958
 30
0.0
 10
153.3847886618
 20
284.3033823958
 30
0.0
  0
SPLINE
  5
51B
100
AcDbEntity
  8
0
100
AcDbSpline
 62
7
  6
CONTINUOUS
 70
0
 71
3
 72
8
 73
4
 74
0
 42
0.0000001
 43
0.0000001
 44
0.0000000001
 40
0.0
 40
0.0
 40
0.0
 40
0.0
 40
1.0
 40
1.0
 40
1.0
 40
1.0
 10
153.3847886618
 20
284.3033823958
 30
0.0
 10
153.8403219279
 20
284.3033823958
 30
0.0
 10
154.2062421139
 20
284.1390916398
 30
0.0
 10
154.4803301508
 20
283.8086836895
 30
0.0
  0
SPLINE
  5
51C
100
AcDbEntity
  8
0
100
AcDbSpline
 62
7
  6
CONTINUOUS
 70
0
 71
3
 72
8
 73
4
 74
0
 42
0.0000001
 43
0.0000001
 44
0.0000000001
 40
0.0
 40
0.0
 40
0.0
 40
0.0
 40
1.0
 40
1.0
 40
1.0
 40
1.0
 10
154.4803301508
 20
283.8086836895
 30
0.0
 10
154.7513871487
 20
283.4819295994
 30
0.0
 10
154.8932752904
 20
283.0338645271
 30
0.0
 10
154.8932752904
 20
282.4812506429
 30
0.0
  0
SPLINE
  5
51D
100
AcDbEntity
  8
0
100
AcDbSpline
 62
7
  6
CONTINUOUS
 70
0
 71
3
 72
8
 73
4
 74
0
 42
0.0000001
 43
0.0000001
 44
0.0000000001
 40
0.0
 40
0.0
 40
0.0
 40
0.0
 40
1.0
 40
1.0
 40
1.0
 40
1.0
 10
154.8932752904
 20
282.4812506429
 30
0.0
 10
154.8932752904
 20
281.9435724905
 30
0.0
 10
154.7663228806
 20
281.4955072543
 30
0.0
 10
154.5198872384
 20
281.1370550981
 30
0.0
  0
SPLINE
  5
51E
100
AcDbEntity
  8
0
100
AcDbSpline
 62
7
  6
CONTINUOUS
 70
0
 71
3
 72
8
 73
4
 74
0
 42
0.0000001
 43
0.0000001
 44
0.0000000001
 40
0.0
 40
0.0
 40
0.0
 40
0.0
 40
1.0
 40
1.0
 40
1.0
 40
1.0
 10
154.5198872384
 20
281.1370550981
 30
0.0
 10
154.2734515961
 20
280.778602942
 30
0.0
 10
153.9000635441
 20
280.6068446479
 30
0.0
 10
153.4071922597
 20
280.6068446479
 30
0.0
  0
SPLINE
  5
51F
100
AcDbEntity
  8
0
100
AcDbSpline
 62
7
  6
CONTINUOUS
 70
0
 71
3
 72
8
 73
4
 74
0
 42
0.0000001
 43
0.0000001
 44
0.0000000001
 40
0.0
 40
0.0
 40
0.0
 40
0.0
 40
1.0
 40
1.0
 40
1.0
 40
1.0
 10
153.4071922597
 20
280.6068446479
 30
0.0
 10
152.9367232617
 20
280.6068446479
 30
0.0
 10
152.5558686551
 20
280.7711352399
 30
0.0
 10
152.2699847731
 20
281.0978591759
 30
0.0
  0
SPLINE
  5
520
100
AcDbEntity
  8
0
100
AcDbSpline
 62
7
  6
CONTINUOUS
 70
0
 71
3
 72
8
 73
4
 74
0
 42
0.0000001
 43
0.0000001
 44
0.0000000001
 40
0.0
 40
0.0
 40
0.0
 40
0.0
 40
1.0
 40
1.0
 40
1.0
 40
1.0
 10
152.2699847731
 20
281.0978591759
 30
0.0
 10
151.9808508452
 20
281.4282974443
 30
0.0
 10
151.8389640149
 20
281.8987659505
 30
0.0
 10
151.8389640149
 20
282.5185893169
 30
0.0
  0
SPLINE
  5
521
100
AcDbEntity
  8
0
100
AcDbSpline
 62
7
  6
CONTINUOUS
 70
0
 71
3
 72
8
 73
4
 74
0
 42
0.0000001
 43
0.0000001
 44
0.0000000001
 40
0.0
 40
0.0
 40
0.0
 40
0.0
 40
1.0
 40
1.0
 40
1.0
 40
1.0
 10
151.8389640149
 20
282.5185893169
 30
0.0
 10
151.8389640149
 20
283.1309451452
 30
0.0
 10
151.9808508452
 20
283.5790102175
 30
0.0
 10
152.2796084737
 20
283.8702045761
 30
0.0
  0
SPLINE
  5
522
100
AcDbEntity
  8
0
100
AcDbSpline
 62
7
  6
CONTINUOUS
 70
0
 71
3
 72
8
 73
4
 74
0
 42
0.0000001
 43
0.0000001
 44
0.0000000001
 40
0.0
 40
0.0
 40
0.0
 40
0.0
 40
1.0
 40
1.0
 40
1.0
 40
1.0
 10
153.5789505538
 20
289.926600217
 30
0.0
 10
150.9727046784
 20
289.926600217
 30
0.0
 10
149.6733156737
 20
287.9551137677
 30
0.0
 10
149.6733156737
 20
284.0196077517
 30
0.0
  0
SPLINE
  5
523
100
AcDbEntity
  8
0
100
AcDbSpline
 62
7
  6
CONTINUOUS
 70
0
 71
3
 72
8
 73
4
 74
0
 42
0.0000001
 43
0.0000001
 44
0.0000000001
 40
0.0
 40
0.0
 40
0.0
 40
0.0
 40
1.0
 40
1.0
 40
1.0
 40
1.0
 10
149.6733156737
 20
284.0196077517
 30
0.0
 10
149.6733156737
 20
282.2646858087
 30
0.0
 10
150.00189653
 20
280.957829102
 30
0.0
 10
150.6739946352
 20
280.1065052555
 30
0.0
  0
SPLINE
  5
524
100
AcDbEntity
  8
0
100
AcDbSpline
 62
7
  6
CONTINUOUS
 70
0
 71
3
 72
8
 73
4
 74
0
 42
0.0000001
 43
0.0000001
 44
0.0000000001
 40
0.0
 40
0.0
 40
0.0
 40
0.0
 40
1.0
 40
1.0
 40
1.0
 40
1.0
 10
150.6739946352
 20
280.1065052555
 30
0.0
 10
151.3460927304
 20
279.2551814216
 30
0.0
 10
152.279561549
 20
278.8295194964
 30
0.0
 10
153.4744017418
 20
278.8295194964
 30
0.0
  0
SPLINE
  5
525
100
AcDbEntity
  8
0
100
AcDbSpline
 62
7
  6
CONTINUOUS
 70
0
 71
3
 72
8
 73
4
 74
0
 42
0.0000001
 43
0.0000001
 44
0.0000000001
 40
0.0
 40
0.0
 40
0.0
 40
0.0
 40
1.0
 40
1.0
 40
1.0
 40
1.0
 10
153.4744017418
 20
278.8295194964
 30
0.0
 10
154.5721609887
 20
278.8295194964
 30
0.0
 10
155.4458881911
 20
279.1805038788
 30
0.0
 10
156.0881151288
 20
279.8824729576
 30
0.0
  0
SPLINE
  5
526
100
AcDbEntity
  8
0
100
AcDbSpline
 62
7
  6
CONTINUOUS
 70
0
 71
3
 72
8
 73
4
 74
0
 42
0.0000001
 43
0.0000001
 44
0.0000000001
 40
0.0
 40
0.0
 40
0.0
 40
0.0
 40
1.0
 40
1.0
 40
1.0
 40
1.0
 10
156.0881151288
 20
279.8824729576
 30
0.0
 10
156.7303414639
 20
280.5844413778
 30
0.0
 10
157.0589236315
 20
281.5104428223
 30
0.0
 10
157.0589236315
 20
282.6604768029
 30
0.0
  0
SPLINE
  5
527
100
AcDbEntity
  8
0
100
AcDbSpline
 62
7
  6
CONTINUOUS
 70
0
 71
3
 72
8
 73
4
 74
0
 42
0.0000001
 43
0.0000001
 44
0.0000000001
 40
0.0
 40
0.0
 40
0.0
 40
0.0
 40
1.0
 40
1.0
 40
1.0
 40
1.0
 10
157.0589236315
 20
282.6604768029
 30
0.0
 10
157.0589236315
 20
283.7208977035
 30
0.0
 10
156.7527450617
 20
284.5498183659
 30
0.0
 10
156.1403893154
 20
285.1621739483
 30
0.0
  0
SPLINE
  5
528
100
AcDbEntity
  8
0
100
AcDbSpline
 62
7
  6
CONTINUOUS
 70
0
 71
3
 72
8
 73
4
 74
0
 42
0.0000001
 43
0.0000001
 44
0.0000000001
 40
0.0
 40
0.0
 40
0.0
 40
0.0
 40
1.0
 40
1.0
 40
1.0
 40
1.0
 10
156.1403893154
 20
285.1621739483
 30
0.0
 10
155.5280334052
 20
285.7745296946
 30
0.0
 10
154.7887264784
 20
286.0807076088
 30
0.0
 10
153.9075314101
 20
286.0807076088
 30
0.0
  0
SPLINE
  5
529
100
AcDbEntity
  8
0
100
AcDbSpline
 62
7
  6
CONTINUOUS
 70
0
 71
3
 72
8
 73
4
 74
0
 42
0.0000001
 43
0.0000001
 44
0.0000000001
 40
0.0
 40
0.0
 40
0.0
 40
0.0
 40
1.0
 40
1.0
 40
1.0
 40
1.0
 10
153.9075314101
 20
286.0807076088
 30
0.0
 10
153.1458208855
 20
286.0807076088
 30
0.0
 10
152.4139805134
 20
285.7745296946
 30
0.0
 10
151.7194794711
 20
285.1621738664
 30
0.0
  0
SPLINE
  5
52A
100
AcDbEntity
  8
0
100
AcDbSpline
 62
7
  6
CONTINUOUS
 70
0
 71
3
 72
8
 73
4
 74
0
 42
0.0000001
 43
0.0000001
 44
0.0000000001
 40
0.0
 40
0.0
 40
0.0
 40
0.0
 40
1.0
 40
1.0
 40
1.0
 40
1.0
 10
151.7194794711
 20
285.1621738664
 30
0.0
 10
151.8389640149
 20
286.334611117
 30
0.0
 10
152.0480616387
 20
287.1261931053
 30
0.0
 10
152.3460971321
 20
287.537406739
 30
0.0
  0
SPLINE
  5
52B
100
AcDbEntity
  8
0
100
AcDbSpline
 62
7
  6
CONTINUOUS
 70
0
 71
3
 72
8
 73
4
 74
0
 42
0.0000001
 43
0.0000001
 44
0.0000000001
 40
0.0
 40
0.0
 40
0.0
 40
0.0
 40
1.0
 40
1.0
 40
1.0
 40
1.0
 10
152.3460971321
 20
287.537406739
 30
0.0
 10
152.6380138691
 20
287.9401780358
 30
0.0
 10
153.0188684758
 20
288.149275004
 30
0.0
 10
153.4968053397
 20
288.149275004
 30
0.0
  0
SPLINE
  5
52C
100
AcDbEntity
  8
0
100
AcDbSpline
 62
7
  6
CONTINUOUS
 70
0
 71
3
 72
8
 73
4
 74
0
 42
0.0000001
 43
0.0000001
 44
0.0000000001
 40
0.0
 40
0.0
 40
0.0
 40
0.0
 40
1.0
 40
1.0
 40
1.0
 40
1.0
 10
153.4968053397
 20
288.149275004
 30
0.0
 10
154.0867575701
 20
288.149275004
 30
0.0
 10
154.4825479086
 20
287.8057584158
 30
0.0
 10
154.6841776665
 20
287.1187252394
 30
0.0
  0
SPLINE
  5
52D
100
AcDbEntity
  8
0
100
AcDbSpline
 62
7
  6
CONTINUOUS
 70
0
 71
3
 72
8
 73
4
 74
0
 42
0.0000001
 43
0.0000001
 44
0.0000000001
 40
0.0
 40
0.0
 40
0.0
 40
0.0
 40
1.0
 40
1.0
 40
1.0
 40
1.0
 10
156.8498260077
 20
287.1187252394
 30
0.0
 10
156.5884546336
 20
288.9856635323
 30
0.0
 10
155.4981632527
 20
289.926600217
 30
0.0
 10
153.5789505538
 20
289.926600217
 30
0.0
  0
SPLINE
  5
52E
100
AcDbEntity
  8
0
100
AcDbSpline
 62
7
  6
CONTINUOUS
 70
0
 71
3
 72
8
 73
4
 74
0
 42
0.0000001
 43
0.0000001
 44
0.0000000001
 40
0.0
 40
0.0
 40
0.0
 40
0.0
 40
1.0
 40
1.0
 40
1.0
 40
1.0
 10
144.572840273
 20
289.6876324407
 30
0.0
 10
144.4533563849
 20
289.1723575583
 30
0.0
 10
144.2965334948
 20
288.8064373723
 30
0.0
 10
144.087436439
 20
288.582404754
 30
0.0
  0
SPLINE
  5
52F
100
AcDbEntity
  8
0
100
AcDbSpline
 62
7
  6
CONTINUOUS
 70
0
 71
3
 72
8
 73
4
 74
0
 42
0.0000001
 43
0.0000001
 44
0.0000000001
 40
0.0
 40
0.0
 40
0.0
 40
0.0
 40
1.0
 40
1.0
 40
1.0
 40
1.0
 10
144.087436439
 20
288.582404754
 30
0.0
 10
143.8783392306
 20
288.3583719722
 30
0.0
 10
143.6095003184
 20
288.1791458121
 30
0.0
 10
143.28221714
 20
288.0489763773
 30
0.0
  0
SPLINE
  5
530
100
AcDbEntity
  8
0
100
AcDbSpline
 62
7
  6
CONTINUOUS
 70
0
 71
3
 72
8
 73
4
 74
0
 42
0.0000001
 43
0.0000001
 44
0.0000000001
 40
0.0
 40
0.0
 40
0.0
 40
0.0
 40
1.0
 40
1.0
 40
1.0
 40
1.0
 10
143.28221714
 20
288.0489763773
 30
0.0
 10
142.9523379501
 20
287.917774438
 30
0.0
 10
142.4071920957
 20
287.8580328217
 30
0.0
 10
141.6454812434
 20
287.8580328217
 30
0.0
  0
SPLINE
  5
531
100
AcDbEntity
  8
0
100
AcDbSpline
 62
7
  6
CONTINUOUS
 70
0
 71
3
 72
9
 73
5
 74
0
 42
0.0000001
 43
0.0000001
 44
0.0000000001
 40
0.0
 40
0.0
 40
0.0
 40
0.0
 40
0.4999997003
 40
1.0
 40
1.0
 40
1.0
 40
1.0
 10
122.1152706441
 20
304.7033703727
 30
0.0
 10
122.7407283862
 20
304.2954021885
 30
0.0
 10
123.9853503221
 20
303.4698554752
 30
0.0
 10
125.229016103
 20
302.6429148433
 30
0.0
 10
125.8524336687
 20
302.2318341914
 30
0.0
  0
SPLINE
  5
532
100
AcDbEntity
  8
0
100
AcDbSpline
 62
7
  6
CONTINUOUS
 70
0
 71
3
 72
9
 73
5
 74
0
 42
0.0000001
 43
0.0000001
 44
0.0000000001
 40
0.0
 40
0.0
 40
0.0
 40
0.0
 40
0.5000002997
 40
1.0
 40
1.0
 40
1.0
 40
1.0
 10
178.3781076147
 20
302.2318341852
 30
0.0
 10
179.0015251922
 20
302.6429148306
 30
0.0
 10
180.2451910041
 20
303.4698554387
 30
0.0
 10
181.4898128938
 20
304.2954022452
 30
0.0
 10
182.1152706441
 20
304.7033704286
 30
0.0
  0
SPLINE
  5
533
100
AcDbEntity
  8
0
100
AcDbSpline
 62
7
  6
CONTINUOUS
 70
0
 71
3
 72
9
 73
5
 74
0
 42
0.0000001
 43
0.0000001
 44
0.0000000001
 40
0.0
 40
0.0
 40
0.0
 40
0.0
 40
0.5133288442
 40
1.0
 40
1.0
 40
1.0
 40
1.0
 10
439.3860303828
 20
225.1893453431
 30
0.0
 10
439.3602442141
 20
224.9384918285
 30
0.0
 10
439.2508832012
 20
224.4530193847
 30
0.0
 10
439.0085228082
 20
224.0161724079
 30
0.0
 10
438.8614976996
 20
223.8276447163
 30
0.0
  0
SPLINE
  5
534
100
AcDbEntity
  8
RUNDUNGEN
100
AcDbSpline
 62
7
  6
CONTINUOUS
 70
0
 71
3
 72
9
 73
5
 74
0
 42
0.0000001
 43
0.0000001
 44
0.0000000001
 40
0.0
 40
0.0
 40
0.0
 40
0.0
 40
0.5133288442
 40
1.0
 40
1.0
 40
1.0
 40
1.0
 10
355.3950003179
 20
309.1803754081
 30
0.0
 10
355.1441468033
 20
309.1545892393
 30
0.0
 10
354.6586743595
 20
309.0452282264
 30
0.0
 10
354.2218273827
 20
308.8028678335
 30
0.0
 10
354.0332996911
 20
308.6558427248
 30
0.0
  0
SPLINE
  5
535
100
AcDbEntity
  8
KONSTRUKTIONSELEMENTE
100
AcDbSpline
 62
7
  6
CONTINUOUS
 70
0
 71
3
 72
14
 73
10
 74
0
 42
0.0000001
 43
0.0000001
 44
0.0000000001
 40
0.0
 40
0.0
 40
0.0
 40
0.0
 40
0.0225048801
 40
0.0751278708
 40
0.1579215823
 40
0.2704825591
 40
0.4120713405
 40
0.581829624
 40
1.0
 40
1.0
 40
1.0
 40
1.0
 10
235.1776685354
 20
133.506971989
 30
0.0
 10
235.1727385782
 20
133.5040103924
 30
0.0
 10
235.1678499782
 20
133.4828114823
 30
0.0
 10
235.154862265
 20
133.4467341505
 30
0.0
 10
235.1404390191
 20
133.3838260572
 30
0.0
 10
235.1208937326
 20
133.3004740176
 30
0.0
 10
235.0982268857
 20
133.194346371
 30
0.0
 10
235.0604182136
 20
133.0118817904
 30
0.0
 10
235.0313832178
 20
132.864424555
 30
0.0
 10
235.011003008
 20
132.7595222881
 30
0.0
  0
SPLINE
  5
536
100
AcDbEntity
  8
KONSTRUKTIONSELEMENTE
100
AcDbSpline
 62
7
  6
CONTINUOUS
 70
0
 71
3
 72
9
 73
5
 74
0
 42
0.0000001
 43
0.0000001
 44
0.0000000001
 40
0.0
 40
0.0
 40
0.0
 40
0.0
 40
0.2505277269
 40
1.0
 40
1.0
 40
1.0
 40
1.0
 10
233.8609953831
 20
126.5658907701
 30
0.0
 10
233.5890941849
 20
125.0243985426
 30
0.0
 10
232.5484664038
 20
118.8639905634
 30
0.0
 10
231.7194745138
 20
112.6648803511
 30
0.0
 10
231.2879104688
 20
108.002132561
 30
0.0
  0
SPLINE
  5
537
100
AcDbEntity
  8
KONSTRUKTIONSELEMENTE
100
AcDbSpline
 62
7
  6
CONTINUOUS
 70
0
 71
3
 72
11
 73
7
 74
0
 42
0.0000001
 43
0.0000001
 44
0.0000000001
 40
0.0
 40
0.0
 40
0.0
 40
0.0
 40
0.2500129442
 40
0.5000212117
 40
0.7500183308
 40
1.0
 40
1.0
 40
1.0
 40
1.0
 10
230.1877584151
 20
94.7382568801
 30
0.0
 10
229.6115776965
 20
90.7220350006
 30
0.0
 10
228.5056416003
 20
82.6828305037
 30
0.0
 10
227.0819187384
 20
70.5934278162
 30
0.0
 10
226.0590775885
 20
58.4619750161
 30
0.0
 10
225.8014868995
 20
50.3464731294
 30
0.0
 10
225.8014705615
 20
46.2896388862
 30
0.0
  0
SPLINE
  5
538
100
AcDbEntity
  8
KONSTRUKTIONSELEMENTE
100
AcDbSpline
 62
7
  6
CONTINUOUS
 70
0
 71
3
 72
9
 73
5
 74
0
 42
0.0000001
 43
0.0000001
 44
0.0000000001
 40
0.0
 40
0.0
 40
0.0
 40
0.0
 40
0.2501543717
 40
1.0
 40
1.0
 40
1.0
 40
1.0
 10
231.2879104688
 20
108.002132561
 30
0.0
 10
231.1921238386
 20
107.0906039131
 30
0.0
 10
230.8309994545
 20
103.4445181219
 30
0.0
 10
230.5642178652
 20
99.7888077291
 30
0.0
 10
230.427237569
 20
97.0448442135
 30
0.0
  0
SPLINE
  5
539
100
AcDbEntity
  8
KONSTRUKTIONSELEMENTE
100
AcDbSpline
 62
7
  6
CONTINUOUS
 70
0
 71
3
 72
9
 73
5
 74
0
 42
0.0000001
 43
0.0000001
 44
0.0000000001
 40
0.0
 40
0.0
 40
0.0
 40
0.0
 40
0.4587475113
 40
1.0
 40
1.0
 40
1.0
 40
1.0
 10
230.427237569
 20
97.0448442135
 30
0.0
 10
230.4095528226
 20
96.6905923309
 30
0.0
 10
230.3429450615
 20
95.919862324
 30
0.0
 10
230.2471875606
 20
95.1524995883
 30
0.0
 10
230.1877584151
 20
94.7382568801
 30
0.0
  0
SPLINE
  5
53A
100
AcDbEntity
  8
KONSTRUKTIONSELEMENTE
100
AcDbSpline
 62
7
  6
CONTINUOUS
 70
0
 71
3
 72
14
 73
10
 74
0
 42
0.0000001
 43
0.0000001
 44
0.0000000001
 40
0.0
 40
0.0
 40
0.0
 40
0.0
 40
0.4181705659
 40
0.5879295589
 40
0.7295186352
 40
0.8420797746
 40
0.924873141
 40
0.9774954992
 40
1.0
 40
1.0
 40
1.0
 40
1.0
 10
69.2195380877
 20
132.7595232685
 30
0.0
 10
69.199157886
 20
132.8644254922
 30
0.0
 10
69.1701228589
 20
133.0118828329
 30
0.0
 10
69.1323141537
 20
133.194347532
 30
0.0
 10
69.1096472688
 20
133.300475426
 30
0.0
 10
69.0901019233
 20
133.3838272842
 30
0.0
 10
69.0756788808
 20
133.4467354317
 30
0.0
 10
69.062690919
 20
133.4828118031
 30
0.0
 10
69.0578026976
 20
133.5040111125
 30
0.0
 10
69.0528726013
 20
133.5069722795
 30
0.0
  0
SPLINE
  5
53B
100
AcDbEntity
  8
KONSTRUKTIONSELEMENTE
100
AcDbSpline
 62
7
  6
CONTINUOUS
 70
0
 71
3
 72
11
 73
7
 74
0
 42
0.0000001
 43
0.0000001
 44
0.0000000001
 40
0.0
 40
0.0
 40
0.0
 40
0.0
 40
0.2499816983
 40
0.499978805
 40
0.7499870622
 40
1.0
 40
1.0
 40
1.0
 40
1.0
 10
78.4290707266
 20
46.2896355796
 30
0.0
 10
78.4290544651
 20
50.3464705696
 30
0.0
 10
78.1714640562
 20
58.4619732989
 30
0.0
 10
77.1486221479
 20
70.5934269663
 30
0.0
 10
75.7248999913
 20
82.6828300866
 30
0.0
 10
74.6189636159
 20
90.7220348316
 30
0.0
 10
74.042782873
 20
94.7382568801
 30
0.0
  0
SPLINE
  5
53C
100
AcDbEntity
  8
KONSTRUKTIONSELEMENTE
100
AcDbSpline
 62
7
  6
CONTINUOUS
 70
0
 71
3
 72
9
 73
5
 74
0
 42
0.0000001
 43
0.0000001
 44
0.0000000001
 40
0.0
 40
0.0
 40
0.0
 40
0.0
 40
0.2498939134
 40
1.0
 40
1.0
 40
1.0
 40
1.0
 10
73.8033039437
 20
97.0448403406
 30
0.0
 10
73.7576535719
 20
97.9593004085
 30
0.0
 10
73.547132193
 20
101.6172880352
 30
0.0
 10
73.2298557185
 20
105.2688312291
 30
0.0
 10
72.9426308193
 20
108.002132561
 30
0.0
  0
SPLINE
  5
53D
100
AcDbEntity
  8
KONSTRUKTIONSELEMENTE
100
AcDbSpline
 62
7
  6
CONTINUOUS
 70
0
 71
3
 72
9
 73
5
 74
0
 42
0.0000001
 43
0.0000001
 44
0.0000000001
 40
0.0
 40
0.0
 40
0.0
 40
0.0
 40
0.2495612005
 40
1.0
 40
1.0
 40
1.0
 40
1.0
 10
72.9426308193
 20
108.002132561
 30
0.0
 10
72.7989231617
 20
109.5547933318
 30
0.0
 10
72.1385678548
 20
115.7686023343
 30
0.0
 10
71.1840399719
 20
121.9482668764
 30
0.0
 10
70.3695544608
 20
126.5658422556
 30
0.0
  0
SPLINE
  5
53E
100
AcDbEntity
  8
KONSTRUKTIONSELEMENTE
100
AcDbSpline
 62
7
  6
CONTINUOUS
 70
0
 71
3
 72
9
 73
5
 74
0
 42
0.0000001
 43
0.0000001
 44
0.0000000001
 40
0.0
 40
0.0
 40
0.0
 40
0.0
 40
0.5412532301
 40
1.0
 40
1.0
 40
1.0
 40
1.0
 10
74.042782873
 20
94.7382568801
 30
0.0
 10
73.9833537455
 20
95.152499463
 30
0.0
 10
73.8875964428
 20
95.9198609177
 30
0.0
 10
73.820988624
 20
96.6905896224
 30
0.0
 10
73.8033039437
 20
97.0448403406
 30
0.0
  0
ELLIPSE
  5
53F
100
AcDbEntity
  8
0
100
AcDbEllipse
 62
7
  6
CONTINUOUS
 10
46.2081636516
 20
283.561019837
 30
0.0
 11
32.4230335283
 21
33.402791457
 31
0.0
 40
0.4140837954
 41
1.1321057224
 42
1.1652100857
  0
ELLIPSE
  5
540
100
AcDbEntity
  8
0
100
AcDbEllipse
 62
7
  6
CONTINUOUS
 10
46.3458448785
 20
283.561019837
 30
0.0
 11
-19.07961629
 21
35.3274243559
 31
0.0
 40
0.3630188717
 41
-0.9766374112
 42
-0.867660465
  0
ELLIPSE
  5
541
100
AcDbEntity
  8
0
100
AcDbEllipse
 62
7
  6
CONTINUOUS
 10
46.1686912083
 20
283.561019837
 30
0.0
 11
30.3530157173
 21
33.7517777684
 31
0.0
 40
0.4125678793
 41
1.1619556272
 42
1.2520184427
  0
ELLIPSE
  5
542
100
AcDbEntity
  8
0
100
AcDbEllipse
 62
7
  6
CONTINUOUS
 10
53.0414970591
 20
283.561019837
 30
0.0
 11
105.5741019118
 21
-26.8811670612
 31
0.0
 40
0.226815396
 41
1.640304353
 42
1.645032965
  0
ELLIPSE
  5
543
100
AcDbEntity
  8
0
100
AcDbEllipse
 62
7
  6
CONTINUOUS
 10
51.8748281671
 20
283.561019837
 30
0.0
 11
32.4228484875
 21
-33.40282301
 31
0.0
 40
0.4140837374
 41
1.9905700667
 42
2.0000285068
  0
ELLIPSE
  5
544
100
AcDbEntity
  8
0
100
AcDbEllipse
 62
7
  6
CONTINUOUS
 10
51.2637227414
 20
283.561019837
 30
0.0
 11
-8.7375608585
 21
35.949324865
 31
0.0
 40
0.2185348
 41
-0.8124559945
 42
-0.7982636976
  0
ELLIPSE
  5
545
100
AcDbEntity
  8
0
100
AcDbEllipse
 62
7
  6
CONTINUOUS
 10
43.0414956583
 20
283.561019837
 30
0.0
 11
105.5741019118
 21
-26.8811670612
 31
0.0
 40
0.226815396
 41
1.5456467229
 42
1.5503902071
  0
ELLIPSE
  5
546
100
AcDbEntity
  8
0
100
AcDbEllipse
 62
7
  6
CONTINUOUS
 10
48.5415070826
 20
283.561019837
 30
0.0
 11
32.4228484875
 21
-33.40282301
 31
0.0
 40
0.4140837374
 41
1.8959273089
 42
1.9054091055
  0
ELLIPSE
  5
547
100
AcDbEntity
  8
0
100
AcDbEllipse
 62
7
  6
CONTINUOUS
 10
50.1526038924
 20
283.561019837
 30
0.0
 11
-8.7375563925
 21
35.949324959
 31
0.0
 40
0.2185347093
 41
-0.9070753466
 42
-0.8928639462
  0
ELLIPSE
  5
548
100
AcDbEntity
  8
0
100
AcDbEllipse
 62
7
  6
CONTINUOUS
 10
50.6456649973
 20
283.561019837
 30
0.0
 11
22.7014611153
 21
34.904783603
 31
0.0
 40
0.3881806888
 41
7.3229739205
 42
7.3418893201
  0
ELLIPSE
  5
549
100
AcDbEntity
  8
0
100
AcDbEllipse
 62
7
  6
CONTINUOUS
 10
50.263722884
 20
283.561019837
 30
0.0
 11
8.7375653245
 21
35.9493247711
 31
0.0
 40
0.2185348906
 41
0.8644713574
 42
0.8786636476
  0
ELLIPSE
  5
54A
100
AcDbEntity
  8
0
100
AcDbEllipse
 62
7
  6
CONTINUOUS
 10
32.3748161029
 20
283.561019837
 30
0.0
 11
176.2118388556
 21
25.9809771245
 31
0.0
 40
0.1414186901
 41
1.4386073181
 42
1.4433636627
  0
ELLIPSE
  5
54B
100
AcDbEntity
  8
0
100
AcDbEllipse
 62
7
  6
CONTINUOUS
 10
46.1248356312
 20
283.561019837
 30
0.0
 11
45.3557546126
 21
31.2395255551
 31
0.0
 40
0.3944618819
 41
1.1989233304
 42
1.2131782922
  0
ELLIPSE
  5
54C
100
AcDbEntity
  8
0
100
AcDbEllipse
 62
7
  6
CONTINUOUS
 10
48.0206649043
 20
283.561019837
 30
0.0
 11
22.7014586323
 21
34.9047839253
 31
0.0
 40
0.388180675
 41
0.9403666116
 42
0.9593445059
  0
ELLIPSE
  5
54D
100
AcDbEntity
  8
0
100
AcDbEllipse
 62
7
  6
CONTINUOUS
 10
49.0970474007
 20
283.561019837
 30
0.0
 11
8.7375630915
 21
35.9493248181
 31
0.0
 40
0.2185348453
 41
0.7651118623
 42
0.7793275602
  0
ELLIPSE
  5
54E
100
AcDbEntity
  8
0
100
AcDbEllipse
 62
7
  6
CONTINUOUS
 10
50.9581630899
 20
283.561019837
 30
0.0
 11
69.9271545924
 21
28.4868599371
 31
0.0
 40
0.3147751946
 41
7.7288088908
 42
7.7335370799
  0
ELLIPSE
  5
54F
100
AcDbEntity
  8
0
100
AcDbEllipse
 62
7
  6
CONTINUOUS
 10
50.2081626429
 20
283.561019837
 30
0.0
 11
105.5741019118
 21
-26.8811670612
 31
0.0
 40
0.226815396
 41
1.5409013698
 42
1.5456467229
  0
ELLIPSE
  5
550
100
AcDbEntity
  8
0
100
AcDbEllipse
 62
7
  6
CONTINUOUS
 10
56.0414996916
 20
283.561019837
 30
0.0
 11
32.4229610191
 21
-33.4028038213
 31
0.0
 40
0.4140837726
 41
1.8911823955
 42
1.9006676038
  0
ELLIPSE
  5
551
100
AcDbEntity
  8
0
100
AcDbEllipse
 62
7
  6
CONTINUOUS
 10
57.763718119
 20
283.561019837
 30
0.0
 11
-8.737510593
 21
35.949325922
 31
0.0
 40
0.2185337797
 41
-0.9118149147
 42
-0.8975992201
  0
ELLIPSE
  5
552
100
AcDbEntity
  8
0
100
AcDbEllipse
 62
7
  6
CONTINUOUS
 10
59.950228226
 20
283.561019837
 30
0.0
 11
-10.1286257205
 21
35.914021326
 31
0.0
 40
0.2455000786
 41
-0.8427042215
 42
-0.743183812
  0
ELLIPSE
  5
553
100
AcDbEntity
  8
0
100
AcDbEllipse
 62
7
  6
CONTINUOUS
 10
58.6248312666
 20
283.561019837
 30
0.0
 11
69.9274640838
 21
28.4868368738
 31
0.0
 40
0.3147742283
 41
1.4408964952
 42
1.4503528205
  0
ELLIPSE
  5
554
100
AcDbEntity
  8
0
100
AcDbEllipse
 62
7
  6
CONTINUOUS
 10
58.3123310282
 20
283.561019837
 30
0.0
 11
22.7014611153
 21
34.904783603
 31
0.0
 40
0.3881806888
 41
1.0397886133
 42
1.058704013
  0
ELLIPSE
  5
555
100
AcDbEntity
  8
0
100
AcDbEllipse
 62
7
  6
CONTINUOUS
 10
57.9303871665
 20
283.561019837
 30
0.0
 11
8.737510593
 21
35.949325922
 31
0.0
 40
0.2185337797
 41
0.8644707546
 42
0.8786630448
  0
ELLIPSE
  5
556
100
AcDbEntity
  8
0
100
AcDbEllipse
 62
7
  6
CONTINUOUS
 10
70.2914976551
 20
283.561019837
 30
0.0
 11
-8.9415365073
 21
35.9449114563
 31
0.0
 40
0.222647864
 41
-0.9520677916
 42
-0.7293857629
  0
ELLIPSE
  5
557
100
AcDbEntity
  8
0
100
AcDbEllipse
 62
7
  6
CONTINUOUS
 10
66.2914977743
 20
283.561019837
 30
0.0
 11
8.9415356293
 21
35.9449114758
 31
0.0
 40
0.2226478464
 41
0.7293857531
 42
0.9520677818
  0
ELLIPSE
  5
558
100
AcDbEntity
  8
0
100
AcDbEllipse
 62
7
  6
CONTINUOUS
 10
50.2081667879
 20
283.561019837
 30
0.0
 11
-8.4948508347
 21
34.9507325077
 31
0.0
 40
0.2185348
 41
-0.8165774082
 42
-0.8019813926
  0
ELLIPSE
  5
559
100
AcDbEntity
  8
0
100
AcDbEllipse
 62
7
  6
CONTINUOUS
 10
50.5206649973
 20
283.561019837
 30
0.0
 11
-22.0708649732
 21
33.9352062807
 31
0.0
 40
0.3881806888
 41
-1.020874556
 42
-1.010810113
  0
ELLIPSE
  5
55A
100
AcDbEntity
  8
0
100
AcDbEllipse
 62
7
  6
CONTINUOUS
 10
67.2955628484
 20
283.561019837
 30
0.0
 11
8.7222782622
 21
34.9457911404
 31
0.0
 40
0.2232471849
 41
0.7558524192
 42
0.9555978508
  0
ELLIPSE
  5
55B
100
AcDbEntity
  8
0
100
AcDbEllipse
 62
7
  6
CONTINUOUS
 10
58.8241067044
 20
283.561019837
 30
0.0
 11
-10.1478549417
 21
34.9070844102
 31
0.0
 40
0.2511485286
 41
-0.8316142881
 42
-0.7437443769
  0
ELLIPSE
  5
55C
100
AcDbEntity
  8
0
100
AcDbEllipse
 62
7
  6
CONTINUOUS
 10
69.2874327002
 20
283.561019837
 30
0.0
 11
-8.7222782622
 21
34.9457911404
 31
0.0
 40
0.2232471849
 41
-0.9555978508
 42
-0.7558524192
  0
ELLIPSE
  5
55D
100
AcDbEntity
  8
0
100
AcDbEllipse
 62
7
  6
CONTINUOUS
 10
44.9760221884
 20
283.561019837
 30
0.0
 11
-18.7438733891
 21
35.3614739782
 31
0.0
 40
0.3601321255
 41
-0.9953004111
 42
-0.8626811979
  0
ELLIPSE
  5
55E
100
AcDbEntity
  8
0
100
AcDbEllipse
 62
7
  6
CONTINUOUS
 10
51.3192788635
 20
283.561019837
 30
0.0
 11
8.4948551766
 21
34.9507324164
 31
0.0
 40
0.2185348906
 41
7.1532652131
 42
7.1591027408
  0
ELLIPSE
  5
55F
100
AcDbEntity
  8
0
100
AcDbEllipse
 62
7
  6
CONTINUOUS
 10
47.5378751601
 20
283.561019837
 30
0.0
 11
30.71287816
 21
33.6917788698
 31
0.0
 40
0.4129609291
 41
1.1478021906
 42
1.2567791368
  0
ELLIPSE
  5
560
100
AcDbEntity
  8
0
100
AcDbEllipse
 62
7
  6
CONTINUOUS
 10
52.041494198
 20
283.561019837
 30
0.0
 11
31.5222138073
 21
32.4749668153
 31
0.0
 40
0.4140837374
 41
7.4726433539
 42
7.4823733162
  0
ELLIPSE
  5
561
100
AcDbEntity
  8
0
100
AcDbEllipse
 62
7
  6
CONTINUOUS
 10
53.5414970591
 20
283.561019837
 30
0.0
 11
102.6414879698
 21
26.1344679762
 31
0.0
 40
0.226815396
 41
1.530131002
 42
1.5349951485
  0
ELLIPSE
  5
562
100
AcDbEntity
  8
0
100
AcDbEllipse
 62
7
  6
CONTINUOUS
 10
50.152603218
 20
283.561019837
 30
0.0
 11
8.4948551766
 21
34.9507324164
 31
0.0
 40
0.2185348906
 41
0.7678884116
 42
0.7747630022
  0
ELLIPSE
  5
563
100
AcDbEntity
  8
0
100
AcDbEllipse
 62
7
  6
CONTINUOUS
 10
48.5415081623
 20
283.561019837
 30
0.0
 11
31.5222004166
 21
32.4749690987
 31
0.0
 40
0.4140837331
 41
7.3704274098
 42
7.380181647
  0
ELLIPSE
  5
564
100
AcDbEntity
  8
0
100
AcDbEllipse
 62
7
  6
CONTINUOUS
 10
43.0414960085
 20
283.561019837
 30
0.0
 11
102.6414879698
 21
26.1344679762
 31
0.0
 40
0.226815396
 41
1.4278994471
 42
1.4327793794
  0
ELLIPSE
  5
565
100
AcDbEntity
  8
0
100
AcDbEllipse
 62
7
  6
CONTINUOUS
 10
50.152603218
 20
283.561019837
 30
0.0
 11
8.7375653245
 21
35.9493247711
 31
0.0
 40
0.2185348906
 41
0.7698519627
 42
0.7840633498
  0
ELLIPSE
  5
566
100
AcDbEntity
  8
0
100
AcDbEllipse
 62
7
  6
CONTINUOUS
 10
48.5415081623
 20
283.561019837
 30
0.0
 11
32.4228347142
 21
33.4028253587
 31
0.0
 40
0.4140837331
 41
1.089478091
 42
1.0989598909
  0
ELLIPSE
  5
567
100
AcDbEntity
  8
0
100
AcDbEllipse
 62
7
  6
CONTINUOUS
 10
43.0414960085
 20
283.561019837
 30
0.0
 11
105.5741019118
 21
26.8811670612
 31
0.0
 40
0.226815396
 41
1.4302718835
 42
1.4350153677
  0
ELLIPSE
  5
568
100
AcDbEntity
  8
0
100
AcDbEllipse
 62
7
  6
CONTINUOUS
 10
58.985942828
 20
283.561019837
 30
0.0
 11
8.4948019654
 21
34.9507335353
 31
0.0
 40
0.2185337797
 41
0.8700793032
 42
0.877379842
  0
ELLIPSE
  5
569
100
AcDbEntity
  8
0
100
AcDbEllipse
 62
7
  6
CONTINUOUS
 10
59.7081633284
 20
283.561019837
 30
0.0
 11
31.5223232131
 21
32.4749481596
 31
0.0
 40
0.4140837726
 41
7.4726447832
 42
7.4823747454
  0
ELLIPSE
  5
56A
100
AcDbEntity
  8
0
100
AcDbEllipse
 62
7
  6
CONTINUOUS
 10
61.2081640436
 20
283.561019837
 30
0.0
 11
102.6414879698
 21
26.1344679762
 31
0.0
 40
0.226815396
 41
1.530131002
 42
1.5349951485
  0
ELLIPSE
  5
56B
100
AcDbEntity
  8
0
100
AcDbEllipse
 62
7
  6
CONTINUOUS
 10
44.9760221884
 20
283.561019837
 30
0.0
 11
-18.2232102394
 21
34.3792108121
 31
0.0
 40
0.3601321255
 41
-0.9791251675
 42
-0.859486239
  0
ELLIPSE
  5
56C
100
AcDbEntity
  8
0
100
AcDbEllipse
 62
7
  6
CONTINUOUS
 10
47.5378751601
 20
283.561019837
 30
0.0
 11
29.8597426555
 21
32.7558961234
 31
0.0
 40
0.4129609291
 41
1.1478697355
 42
1.2599740957
  0
ELLIPSE
  5
56D
100
AcDbEntity
  8
0
100
AcDbEllipse
 62
7
  6
CONTINUOUS
 10
51.3192788635
 20
283.561019837
 30
0.0
 11
8.7375653245
 21
35.9493247711
 31
0.0
 40
0.2185348906
 41
0.8692013973
 42
0.8833960704
  0
ELLIPSE
  5
56E
100
AcDbEntity
  8
0
100
AcDbEllipse
 62
7
  6
CONTINUOUS
 10
52.041494198
 20
283.561019837
 30
0.0
 11
32.4228484875
 21
33.40282301
 31
0.0
 40
0.4140837374
 41
1.1888500025
 42
1.1983095004
  0
ELLIPSE
  5
56F
100
AcDbEntity
  8
0
100
AcDbEllipse
 62
7
  6
CONTINUOUS
 10
53.5414970591
 20
283.561019837
 30
0.0
 11
105.5741019118
 21
26.8811670612
 31
0.0
 40
0.226815396
 41
1.5296581222
 42
1.5343871042
  0
ELLIPSE
  5
570
100
AcDbEntity
  8
0
100
AcDbEllipse
 62
7
  6
CONTINUOUS
 10
56.763718119
 20
283.561019837
 30
0.0
 11
-8.4948019654
 21
34.9507335353
 31
0.0
 40
0.2185337797
 41
-0.9139146113
 42
-0.8992908814
  0
ELLIPSE
  5
571
100
AcDbEntity
  8
0
100
AcDbEllipse
 62
7
  6
CONTINUOUS
 10
55.687330678
 20
283.561019837
 30
0.0
 11
-22.0708649732
 21
33.9352062807
 31
0.0
 40
0.3881806888
 41
-1.1276719063
 42
-1.1081478696
  0
ELLIPSE
  5
572
100
AcDbEntity
  8
0
100
AcDbEllipse
 62
7
  6
CONTINUOUS
 10
49.0970471608
 20
283.561019837
 30
0.0
 11
-8.4948551766
 21
34.9507324164
 31
0.0
 40
0.2185348906
 41
-0.913915214
 42
-0.8992914842
  0
ELLIPSE
  5
573
100
AcDbEntity
  8
0
100
AcDbEllipse
 62
7
  6
CONTINUOUS
 10
49.0970471608
 20
283.561019837
 30
0.0
 11
-8.7375653245
 21
35.9493247711
 31
0.0
 40
0.2185348906
 41
-0.9118155174
 42
-0.8975998228
  0
ELLIPSE
  5
574
100
AcDbEntity
  8
0
100
AcDbEllipse
 62
7
  6
CONTINUOUS
 10
48.0206646471
 20
283.561019837
 30
0.0
 11
-22.7014611153
 21
34.904783603
 31
0.0
 40
0.3881806888
 41
-1.1250260657
 42
-1.106048173
  0
ELLIPSE
  5
575
100
AcDbEntity
  8
0
100
AcDbEllipse
 62
7
  6
CONTINUOUS
 10
46.124835174
 20
283.561019837
 30
0.0
 11
45.355759054
 21
-31.2395248715
 31
0.0
 40
0.3944618695
 41
1.7294999451
 42
1.7437549057
  0
ELLIPSE
  5
576
100
AcDbEntity
  8
0
100
AcDbEllipse
 62
7
  6
CONTINUOUS
 10
32.3748143885
 20
283.561019837
 30
0.0
 11
176.2118542954
 21
-25.9809770336
 31
0.0
 40
0.1414186782
 41
1.4803033032
 42
1.4850596473
  0
ELLIPSE
  5
577
100
AcDbEntity
  8
0
100
AcDbEllipse
 62
7
  6
CONTINUOUS
 10
48.0206646471
 20
283.561019837
 30
0.0
 11
-22.0708649732
 21
33.9352062807
 31
0.0
 40
0.3881806888
 41
-1.1276719063
 42
-1.1081478696
  0
ELLIPSE
  5
578
100
AcDbEntity
  8
0
100
AcDbEllipse
 62
7
  6
CONTINUOUS
 10
46.124835174
 20
283.561019837
 30
0.0
 11
44.0958768581
 21
-30.3717602917
 31
0.0
 40
0.3944618695
 41
1.7264425796
 42
1.741109065
  0
ELLIPSE
  5
579
100
AcDbEntity
  8
0
100
AcDbEllipse
 62
7
  6
CONTINUOUS
 10
32.3748143885
 20
283.561019837
 30
0.0
 11
171.317080565
 21
-25.2592832272
 31
0.0
 40
0.1414186782
 41
1.4771083443
 42
1.4820022818
  0
ELLIPSE
  5
57A
100
AcDbEntity
  8
0
100
AcDbEllipse
 62
7
  6
CONTINUOUS
 10
50.2081667879
 20
283.561019837
 30
0.0
 11
-8.7375608585
 21
35.949324865
 31
0.0
 40
0.2185348
 41
-0.8171854525
 42
-0.8029952199
  0
ELLIPSE
  5
57B
100
AcDbEntity
  8
0
100
AcDbEllipse
 62
7
  6
CONTINUOUS
 10
50.5206649973
 20
283.561019837
 30
0.0
 11
-22.7014611153
 21
34.904783603
 31
0.0
 40
0.3881806888
 41
-1.030332288
 42
-1.0114181573
  0
ELLIPSE
  5
57C
100
AcDbEntity
  8
0
100
AcDbEllipse
 62
7
  6
CONTINUOUS
 10
50.6248310282
 20
283.561019837
 30
0.0
 11
69.9271545924
 21
-28.4868599371
 31
0.0
 40
0.3147751946
 41
1.69596907
 42
1.7006972062
  0
ELLIPSE
  5
57D
100
AcDbEntity
  8
0
100
AcDbEllipse
 62
7
  6
CONTINUOUS
 10
53.791495006
 20
283.561019837
 30
0.0
 11
44.095947418
 21
-30.3717494315
 31
0.0
 40
0.3944616684
 41
1.7264419552
 42
1.7411084407
  0
ELLIPSE
  5
57E
100
AcDbEntity
  8
0
100
AcDbEllipse
 62
7
  6
CONTINUOUS
 10
40.0415028308
 20
283.561019837
 30
0.0
 11
171.316884338
 21
-25.2592843819
 31
0.0
 40
0.1414188332
 41
1.4771083919
 42
1.4820023295
  0
ELLIPSE
  5
57F
100
AcDbEntity
  8
0
100
AcDbEllipse
 62
7
  6
CONTINUOUS
 10
58.985942828
 20
283.561019837
 30
0.0
 11
8.737510593
 21
35.949325922
 31
0.0
 40
0.2185337797
 41
0.8692007946
 42
0.8833954677
  0
ELLIPSE
  5
580
100
AcDbEntity
  8
0
100
AcDbEllipse
 62
7
  6
CONTINUOUS
 10
59.7081633284
 20
283.561019837
 30
0.0
 11
32.4229610191
 21
33.4028038213
 31
0.0
 40
0.4140837726
 41
1.1888514317
 42
1.1983109297
  0
ELLIPSE
  5
581
100
AcDbEntity
  8
0
100
AcDbEllipse
 62
7
  6
CONTINUOUS
 10
61.2081640436
 20
283.561019837
 30
0.0
 11
105.5741019118
 21
26.8811670612
 31
0.0
 40
0.226815396
 41
1.5296581222
 42
1.5343871042
  0
ELLIPSE
  5
582
100
AcDbEntity
  8
0
100
AcDbEllipse
 62
7
  6
CONTINUOUS
 10
58.8241067044
 20
283.561019837
 30
0.0
 11
-10.4377936543
 21
35.9044296791
 31
0.0
 40
0.2511485286
 41
-0.855916282
 42
-0.7469393358
  0
ELLIPSE
  5
583
100
AcDbEntity
  8
0
100
AcDbEllipse
 62
7
  6
CONTINUOUS
 10
56.763718119
 20
283.561019837
 30
0.0
 11
-8.737510593
 21
35.949325922
 31
0.0
 40
0.2185337797
 41
-0.9118149147
 42
-0.8975992201
  0
ELLIPSE
  5
584
100
AcDbEntity
  8
0
100
AcDbEllipse
 62
7
  6
CONTINUOUS
 10
55.687330678
 20
283.561019837
 30
0.0
 11
-22.7014611153
 21
34.904783603
 31
0.0
 40
0.3881806888
 41
-1.1250260657
 42
-1.106048173
  0
ELLIPSE
  5
585
100
AcDbEntity
  8
0
100
AcDbEllipse
 62
7
  6
CONTINUOUS
 10
53.791495006
 20
283.561019837
 30
0.0
 11
45.3558316299
 21
-31.239513701
 31
0.0
 40
0.3944616684
 41
1.7294993207
 42
1.7437542813
  0
ELLIPSE
  5
586
100
AcDbEntity
  8
0
100
AcDbEllipse
 62
7
  6
CONTINUOUS
 10
40.0415028308
 20
283.561019837
 30
0.0
 11
176.211652462
 21
-25.9809782214
 31
0.0
 40
0.1414188332
 41
1.4803033508
 42
1.485059695
  0
ELLIPSE
  5
587
100
AcDbEntity
  8
0
100
AcDbEllipse
 62
7
  6
CONTINUOUS
 10
67.2955628484
 20
283.561019837
 30
0.0
 11
8.9714862126
 21
35.9442423158
 31
0.0
 40
0.2232471849
 41
0.7582248556
 42
0.9524028919
  0
ELLIPSE
  5
588
100
AcDbEntity
  8
0
100
AcDbEllipse
 62
7
  6
CONTINUOUS
 10
69.2874327002
 20
283.561019837
 30
0.0
 11
-8.9714862126
 21
35.9442423158
 31
0.0
 40
0.2232471849
 41
-0.9524028919
 42
-0.7582248556
  0
ELLIPSE
  5
589
100
AcDbEntity
  8
0
100
AcDbEllipse
 62
7
  6
CONTINUOUS
 10
259.2545190997
 20
283.561019837
 30
0.0
 11
-18.7438733891
 21
35.3614739782
 31
0.0
 40
0.3601321255
 41
-1.0853632266
 42
-0.9527440134
  0
ELLIPSE
  5
58A
100
AcDbEntity
  8
0
100
AcDbEllipse
 62
7
  6
CONTINUOUS
 10
256.692666128
 20
283.561019837
 30
0.0
 11
30.71287816
 21
33.6917788698
 31
0.0
 40
0.4129609291
 41
1.0340971081
 42
1.1430740543
  0
ELLIPSE
  5
58B
100
AcDbEntity
  8
0
100
AcDbEllipse
 62
7
  6
CONTINUOUS
 10
254.0779380701
 20
283.561019837
 30
0.0
 11
8.7375653245
 21
35.9493247711
 31
0.0
 40
0.2185348906
 41
0.8928640512
 42
0.9070754383
  0
ELLIPSE
  5
58C
100
AcDbEntity
  8
0
100
AcDbEllipse
 62
7
  6
CONTINUOUS
 10
255.6890331258
 20
283.561019837
 30
0.0
 11
32.4228347142
 21
33.4028253587
 31
0.0
 40
0.4140837331
 41
1.2361833665
 42
1.2456651664
  0
ELLIPSE
  5
58D
100
AcDbEntity
  8
0
100
AcDbEllipse
 62
7
  6
CONTINUOUS
 10
261.1890452796
 20
283.561019837
 30
0.0
 11
105.5741019118
 21
26.8811670612
 31
0.0
 40
0.226815396
 41
1.5912024431
 42
1.5959459273
  0
ELLIPSE
  5
58E
100
AcDbEntity
  8
0
100
AcDbEllipse
 62
7
  6
CONTINUOUS
 10
252.9112624246
 20
283.561019837
 30
0.0
 11
8.7375653245
 21
35.9493247711
 31
0.0
 40
0.2185348906
 41
0.7935313306
 42
0.8077260037
  0
ELLIPSE
  5
58F
100
AcDbEntity
  8
0
100
AcDbEllipse
 62
7
  6
CONTINUOUS
 10
252.1890470901
 20
283.561019837
 30
0.0
 11
32.4228484875
 21
33.40282301
 31
0.0
 40
0.4140837374
 41
1.1368341068
 42
1.1462936048
  0
ELLIPSE
  5
590
100
AcDbEntity
  8
0
100
AcDbEllipse
 62
7
  6
CONTINUOUS
 10
250.6890442291
 20
283.561019837
 30
0.0
 11
105.5741019118
 21
26.8811670612
 31
0.0
 40
0.226815396
 41
1.4918307066
 42
1.4965596886
  0
ELLIPSE
  5
591
100
AcDbEntity
  8
0
100
AcDbEllipse
 62
7
  6
CONTINUOUS
 10
255.1334941273
 20
283.561019837
 30
0.0
 11
-8.7375653245
 21
35.9493247711
 31
0.0
 40
0.2185348906
 41
-0.7793275782
 42
-0.7651118836
  0
ELLIPSE
  5
592
100
AcDbEntity
  8
0
100
AcDbEllipse
 62
7
  6
CONTINUOUS
 10
256.209876641
 20
283.561019837
 30
0.0
 11
-22.7014611153
 21
34.904783603
 31
0.0
 40
0.3881806888
 41
-0.9593445392
 42
-0.9403666465
  0
ELLIPSE
  5
593
100
AcDbEntity
  8
0
100
AcDbEllipse
 62
7
  6
CONTINUOUS
 10
258.1057061141
 20
283.561019837
 30
0.0
 11
45.355759054
 21
-31.2395248715
 31
0.0
 40
0.3944618695
 41
1.9284143248
 42
1.9426692854
  0
ELLIPSE
  5
594
100
AcDbEntity
  8
0
100
AcDbEllipse
 62
7
  6
CONTINUOUS
 10
271.8557268996
 20
283.561019837
 30
0.0
 11
176.2118542954
 21
-25.9809770336
 31
0.0
 40
0.1414186782
 41
1.6982289877
 42
1.7029853318
  0
ELLIPSE
  5
595
100
AcDbEntity
  8
0
100
AcDbEllipse
 62
7
  6
CONTINUOUS
 10
254.0223745002
 20
283.561019837
 30
0.0
 11
-8.7375608585
 21
35.949324865
 31
0.0
 40
0.2185348
 41
-0.8739320828
 42
-0.8597418502
  0
ELLIPSE
  5
596
100
AcDbEntity
  8
0
100
AcDbEllipse
 62
7
  6
CONTINUOUS
 10
253.7098762908
 20
283.561019837
 30
0.0
 11
-22.7014611153
 21
34.904783603
 31
0.0
 40
0.3881806888
 41
5.2292107522
 42
5.248124883
  0
ELLIPSE
  5
597
100
AcDbEntity
  8
0
100
AcDbEllipse
 62
7
  6
CONTINUOUS
 10
253.6057102599
 20
283.561019837
 30
0.0
 11
69.9271545924
 21
-28.4868599371
 31
0.0
 40
0.3147751946
 41
7.9791543771
 42
7.9838825134
  0
ELLIPSE
  5
598
100
AcDbEntity
  8
0
100
AcDbEllipse
 62
7
  6
CONTINUOUS
 10
245.2445984601
 20
283.561019837
 30
0.0
 11
8.737510593
 21
35.949325922
 31
0.0
 40
0.2185337797
 41
0.7935307278
 42
0.807725401
  0
ELLIPSE
  5
599
100
AcDbEntity
  8
0
100
AcDbEllipse
 62
7
  6
CONTINUOUS
 10
244.5223779597
 20
283.561019837
 30
0.0
 11
32.4229610191
 21
33.4028038213
 31
0.0
 40
0.4140837726
 41
1.136835536
 42
1.146295034
  0
ELLIPSE
  5
59A
100
AcDbEntity
  8
0
100
AcDbEllipse
 62
7
  6
CONTINUOUS
 10
243.0223772445
 20
283.561019837
 30
0.0
 11
105.5741019118
 21
26.8811670612
 31
0.0
 40
0.226815396
 41
1.4918307066
 42
1.4965596886
  0
ELLIPSE
  5
59B
100
AcDbEntity
  8
0
100
AcDbEllipse
 62
7
  6
CONTINUOUS
 10
245.4064345837
 20
283.561019837
 30
0.0
 11
-10.4377936543
 21
35.9044296791
 31
0.0
 40
0.2511485286
 41
-0.9696213644
 42
-0.8606444182
  0
ELLIPSE
  5
59C
100
AcDbEntity
  8
0
100
AcDbEllipse
 62
7
  6
CONTINUOUS
 10
247.4668231691
 20
283.561019837
 30
0.0
 11
-8.737510593
 21
35.949325922
 31
0.0
 40
0.2185337797
 41
-0.7793269755
 42
-0.7651112808
  0
ELLIPSE
  5
59D
100
AcDbEntity
  8
0
100
AcDbEllipse
 62
7
  6
CONTINUOUS
 10
248.5432106101
 20
283.561019837
 30
0.0
 11
-22.7014611153
 21
34.904783603
 31
0.0
 40
0.3881806888
 41
-0.9593445392
 42
-0.9403666465
  0
ELLIPSE
  5
59E
100
AcDbEntity
  8
0
100
AcDbEllipse
 62
7
  6
CONTINUOUS
 10
250.4390462821
 20
283.561019837
 30
0.0
 11
45.3558316299
 21
-31.239513701
 31
0.0
 40
0.3944616684
 41
1.9284137005
 42
1.9426686611
  0
ELLIPSE
  5
59F
100
AcDbEntity
  8
0
100
AcDbEllipse
 62
7
  6
CONTINUOUS
 10
264.1890384573
 20
283.561019837
 30
0.0
 11
176.211652462
 21
-25.9809782214
 31
0.0
 40
0.1414188332
 41
1.6982290353
 42
1.7029853795
  0
ELLIPSE
  5
5A0
100
AcDbEntity
  8
0
100
AcDbEllipse
 62
7
  6
CONTINUOUS
 10
236.9349784397
 20
283.561019837
 30
0.0
 11
8.9714862126
 21
35.9442423158
 31
0.0
 40
0.2232471849
 41
0.7297208632
 42
0.9238988994
  0
ELLIPSE
  5
5A1
100
AcDbEntity
  8
0
100
AcDbEllipse
 62
7
  6
CONTINUOUS
 10
234.9431085879
 20
283.561019837
 30
0.0
 11
-8.9714862126
 21
35.9442423158
 31
0.0
 40
0.2232471849
 41
-0.9238988994
 42
-0.7297208632
  0
ELLIPSE
  5
5A2
100
AcDbEntity
  8
0
100
AcDbEllipse
 62
7
  6
CONTINUOUS
 10
244.2803130621
 20
283.561019837
 30
0.0
 11
-9.847275006
 21
34.9164096225
 31
0.0
 40
0.2455000786
 41
-0.9690607996
 42
-0.8666831792
  0
ELLIPSE
  5
5A3
100
AcDbEntity
  8
0
100
AcDbEllipse
 62
7
  6
CONTINUOUS
 10
271.8557251852
 20
283.561019837
 30
0.0
 11
171.3170655541
 21
25.2592833155
 31
0.0
 40
0.1414186901
 41
1.6595903677
 42
1.6644843057
  0
ELLIPSE
  5
5A4
100
AcDbEntity
  8
0
100
AcDbEllipse
 62
7
  6
CONTINUOUS
 10
258.1057056569
 20
283.561019837
 30
0.0
 11
44.09587254
 21
30.3717609564
 31
0.0
 40
0.3944618819
 41
1.4004835486
 42
1.4151500354
  0
ELLIPSE
  5
5A5
100
AcDbEntity
  8
0
100
AcDbEllipse
 62
7
  6
CONTINUOUS
 10
256.2098763838
 20
283.561019837
 30
0.0
 11
22.0708625592
 21
33.9352065941
 31
0.0
 40
0.388180675
 41
1.1081478296
 42
1.127671868
  0
ELLIPSE
  5
5A6
100
AcDbEntity
  8
0
100
AcDbEllipse
 62
7
  6
CONTINUOUS
 10
255.1334938874
 20
283.561019837
 30
0.0
 11
8.4948530056
 21
34.950732462
 31
0.0
 40
0.2185348453
 41
0.8992914527
 42
0.913915186
  0
ELLIPSE
  5
5A7
100
AcDbEntity
  8
0
100
AcDbEllipse
 62
7
  6
CONTINUOUS
 10
258.0223776365
 20
283.561019837
 30
0.0
 11
32.4230335283
 21
33.402791457
 31
0.0
 40
0.4140837954
 41
1.1699382219
 42
1.2030425852
  0
ELLIPSE
  5
5A8
100
AcDbEntity
  8
0
100
AcDbEllipse
 62
7
  6
CONTINUOUS
 10
257.8846964096
 20
283.561019837
 30
0.0
 11
-19.07961629
 21
35.3274243559
 31
0.0
 40
0.3630188717
 41
-1.0903424937
 42
-0.9813655474
  0
ELLIPSE
  5
5A9
100
AcDbEntity
  8
0
100
AcDbEllipse
 62
7
  6
CONTINUOUS
 10
258.0618500798
 20
283.561019837
 30
0.0
 11
30.3530157173
 21
33.7517777684
 31
0.0
 40
0.4125678793
 41
1.029336414
 42
1.1193992295
  0
ELLIPSE
  5
5AA
100
AcDbEntity
  8
0
100
AcDbEllipse
 62
7
  6
CONTINUOUS
 10
261.1890456298
 20
283.561019837
 30
0.0
 11
102.6414879698
 21
-26.1344679762
 31
0.0
 40
0.226815396
 41
1.7088132776
 42
1.7136932099
  0
ELLIPSE
  5
5AB
100
AcDbEntity
  8
0
100
AcDbEllipse
 62
7
  6
CONTINUOUS
 10
255.6890342055
 20
283.561019837
 30
0.0
 11
31.5222138073
 21
-32.4749668153
 31
0.0
 40
0.4140837374
 41
8.3277814529
 42
8.3375356866
  0
ELLIPSE
  5
5AC
100
AcDbEntity
  8
0
100
AcDbEllipse
 62
7
  6
CONTINUOUS
 10
254.0779373957
 20
283.561019837
 30
0.0
 11
-8.4948464928
 21
34.950732599
 31
0.0
 40
0.2185347093
 41
-0.7715429547
 42
-0.7678883064
  0
ELLIPSE
  5
5AD
100
AcDbEntity
  8
0
100
AcDbEllipse
 62
7
  6
CONTINUOUS
 10
245.6057100215
 20
283.561019837
 30
0.0
 11
67.9850345259
 21
27.6955358496
 31
0.0
 40
0.3147742283
 41
1.4359656666
 42
1.4410756992
  0
ELLIPSE
  5
5AE
100
AcDbEntity
  8
0
100
AcDbEllipse
 62
7
  6
CONTINUOUS
 10
254.0223786452
 20
283.561019837
 30
0.0
 11
102.6414879698
 21
-26.1344679762
 31
0.0
 40
0.226815396
 41
1.7136932099
 42
1.7185751772
  0
ELLIPSE
  5
5AF
100
AcDbEntity
  8
0
100
AcDbEllipse
 62
7
  6
CONTINUOUS
 10
248.1890415965
 20
283.561019837
 30
0.0
 11
31.5223232131
 21
-32.4749481596
 31
0.0
 40
0.4140837726
 41
8.3326562414
 42
8.3424141896
  0
ELLIPSE
  5
5B0
100
AcDbEntity
  8
0
100
AcDbEllipse
 62
7
  6
CONTINUOUS
 10
246.4668231691
 20
283.561019837
 30
0.0
 11
-8.4948019654
 21
34.9507335353
 31
0.0
 40
0.2185337797
 41
5.5133770705
 42
5.5201737229
  0
ELLIPSE
  5
5B1
100
AcDbEntity
  8
0
100
AcDbEllipse
 62
7
  6
CONTINUOUS
 10
245.9182102599
 20
283.561019837
 30
0.0
 11
22.0708649732
 21
33.9352062807
 31
0.0
 40
0.3881806888
 41
1.0059454485
 42
1.0254014594
  0
ELLIPSE
  5
5B2
100
AcDbEntity
  8
0
100
AcDbEllipse
 62
7
  6
CONTINUOUS
 10
246.3001541216
 20
283.561019837
 30
0.0
 11
8.4948019654
 21
34.9507335353
 31
0.0
 40
0.2185337797
 41
0.7971139349
 42
0.8117121902
  0
ELLIPSE
  5
5B3
100
AcDbEntity
  8
0
100
AcDbEllipse
 62
7
  6
CONTINUOUS
 10
251.1890442291
 20
283.561019837
 30
0.0
 11
105.5741019118
 21
-26.8811670612
 31
0.0
 40
0.226815396
 41
1.6119345314
 42
1.6166631433
  0
ELLIPSE
  5
5B4
100
AcDbEntity
  8
0
100
AcDbEllipse
 62
7
  6
CONTINUOUS
 10
252.355713121
 20
283.561019837
 30
0.0
 11
32.4228484875
 21
-33.40282301
 31
0.0
 40
0.4140837374
 41
1.9480131931
 42
1.9574716332
  0
ELLIPSE
  5
5B5
100
AcDbEntity
  8
0
100
AcDbEllipse
 62
7
  6
CONTINUOUS
 10
252.9668185467
 20
283.561019837
 30
0.0
 11
-8.7375608585
 21
35.949324865
 31
0.0
 40
0.2185348
 41
-0.878663605
 42
-0.8644713082
  0
ELLIPSE
  5
5B6
100
AcDbEntity
  8
0
100
AcDbEllipse
 62
7
  6
CONTINUOUS
 10
261.1890456298
 20
283.561019837
 30
0.0
 11
105.5741019118
 21
-26.8811670612
 31
0.0
 40
0.226815396
 41
1.7065772892
 42
1.7113207734
  0
ELLIPSE
  5
5B7
100
AcDbEntity
  8
0
100
AcDbEllipse
 62
7
  6
CONTINUOUS
 10
255.6890342055
 20
283.561019837
 30
0.0
 11
32.4228484875
 21
-33.40282301
 31
0.0
 40
0.4140837374
 41
2.0426325944
 42
2.052114391
  0
ELLIPSE
  5
5B8
100
AcDbEntity
  8
0
100
AcDbEllipse
 62
7
  6
CONTINUOUS
 10
254.0779373957
 20
283.561019837
 30
0.0
 11
-8.7375563925
 21
35.949324959
 31
0.0
 40
0.2185347093
 41
-0.7840632581
 42
-0.7698518577
  0
ELLIPSE
  5
5B9
100
AcDbEntity
  8
0
100
AcDbEllipse
 62
7
  6
CONTINUOUS
 10
251.1890442291
 20
283.561019837
 30
0.0
 11
102.6414879698
 21
-26.1344679762
 31
0.0
 40
0.226815396
 41
1.6114616516
 42
1.6163253954
  0
ELLIPSE
  5
5BA
100
AcDbEntity
  8
0
100
AcDbEllipse
 62
7
  6
CONTINUOUS
 10
252.355713121
 20
283.561019837
 30
0.0
 11
31.5222138073
 21
-32.4749668153
 31
0.0
 40
0.4140837374
 41
8.2304552495
 42
8.2401840606
  0
ELLIPSE
  5
5BB
100
AcDbEntity
  8
0
100
AcDbEllipse
 62
7
  6
CONTINUOUS
 10
252.9668185467
 20
283.561019837
 30
0.0
 11
-8.4948508347
 21
34.9507325077
 31
0.0
 40
0.2185348
 41
-0.8688642239
 42
-0.8652145589
  0
ELLIPSE
  5
5BC
100
AcDbEntity
  8
0
100
AcDbEllipse
 62
7
  6
CONTINUOUS
 10
253.5848762908
 20
283.561019837
 30
0.0
 11
22.7014611153
 21
34.904783603
 31
0.0
 40
0.3881806888
 41
1.0066886992
 42
1.0256040989
  0
ELLIPSE
  5
5BD
100
AcDbEntity
  8
0
100
AcDbEllipse
 62
7
  6
CONTINUOUS
 10
253.9668184041
 20
283.561019837
 30
0.0
 11
8.7375653245
 21
35.9493247711
 31
0.0
 40
0.2185348906
 41
0.7982637535
 42
0.8124560437
  0
ELLIPSE
  5
5BE
100
AcDbEntity
  8
0
100
AcDbEllipse
 62
7
  6
CONTINUOUS
 10
258.0223776365
 20
283.561019837
 30
0.0
 11
31.5223937081
 21
32.4749361388
 31
0.0
 40
0.4140837954
 41
1.1700057668
 42
1.2040564126
  0
ELLIPSE
  5
5BF
100
AcDbEntity
  8
0
100
AcDbEllipse
 62
7
  6
CONTINUOUS
 10
257.8846964096
 20
283.561019837
 30
0.0
 11
-18.5496269486
 21
34.3461070127
 31
0.0
 40
0.3630188717
 41
-1.0935374525
 42
-0.9814330924
  0
ELLIPSE
  5
5C0
100
AcDbEntity
  8
0
100
AcDbEllipse
 62
7
  6
CONTINUOUS
 10
258.0618500798
 20
283.561019837
 30
0.0
 11
29.5098763918
 21
32.814228386
 31
0.0
 40
0.4125678793
 41
1.0261414551
 42
1.1070010944
  0
ELLIPSE
  5
5C1
100
AcDbEntity
  8
0
100
AcDbEllipse
 62
7
  6
CONTINUOUS
 10
253.5848762908
 20
283.561019837
 30
0.0
 11
22.0708649732
 21
33.9352062807
 31
0.0
 40
0.3881806888
 41
1.0059454485
 42
1.0159423155
  0
ELLIPSE
  5
5C2
100
AcDbEntity
  8
0
100
AcDbEllipse
 62
7
  6
CONTINUOUS
 10
271.8557251852
 20
283.561019837
 30
0.0
 11
176.2118388556
 21
25.9809771245
 31
0.0
 40
0.1414186901
 41
1.6565330022
 42
1.6612893468
  0
ELLIPSE
  5
5C3
100
AcDbEntity
  8
0
100
AcDbEllipse
 62
7
  6
CONTINUOUS
 10
258.1057056569
 20
283.561019837
 30
0.0
 11
45.3557546126
 21
31.2395255551
 31
0.0
 40
0.3944618819
 41
1.397837708
 42
1.4120926699
  0
ELLIPSE
  5
5C4
100
AcDbEntity
  8
0
100
AcDbEllipse
 62
7
  6
CONTINUOUS
 10
256.2098763838
 20
283.561019837
 30
0.0
 11
22.7014586323
 21
34.9047839253
 31
0.0
 40
0.388180675
 41
1.1060481331
 42
1.1250260274
  0
ELLIPSE
  5
5C5
100
AcDbEntity
  8
0
100
AcDbEllipse
 62
7
  6
CONTINUOUS
 10
255.1334938874
 20
283.561019837
 30
0.0
 11
8.7375630915
 21
35.9493248181
 31
0.0
 40
0.2185348453
 41
0.8975997916
 42
0.9118154895
  0
ELLIPSE
  5
5C6
100
AcDbEntity
  8
0
100
AcDbEllipse
 62
7
  6
CONTINUOUS
 10
253.9668184041
 20
283.561019837
 30
0.0
 11
8.4948551766
 21
34.9507324164
 31
0.0
 40
0.2185348906
 41
0.7971145376
 42
0.8117127929
  0
ELLIPSE
  5
5C7
100
AcDbEntity
  8
0
100
AcDbEllipse
 62
7
  6
CONTINUOUS
 10
237.9390435138
 20
283.561019837
 30
0.0
 11
8.6931596396
 21
34.9464417126
 31
0.0
 40
0.2226478464
 41
0.7261907942
 42
0.9552627407
  0
ELLIPSE
  5
5C8
100
AcDbEntity
  8
0
100
AcDbEllipse
 62
7
  6
CONTINUOUS
 10
253.2723781982
 20
283.561019837
 30
0.0
 11
69.9271545924
 21
28.4868599371
 31
0.0
 40
0.3147751946
 41
1.4361672583
 42
1.4408954474
  0
ELLIPSE
  5
5C9
100
AcDbEntity
  8
0
100
AcDbEllipse
 62
7
  6
CONTINUOUS
 10
254.0223786452
 20
283.561019837
 30
0.0
 11
105.5741019118
 21
-26.8811670612
 31
0.0
 40
0.226815396
 41
1.7113207734
 42
1.7160661265
  0
ELLIPSE
  5
5CA
100
AcDbEntity
  8
0
100
AcDbEllipse
 62
7
  6
CONTINUOUS
 10
248.1890415965
 20
283.561019837
 30
0.0
 11
32.4229610191
 21
-33.4028038213
 31
0.0
 40
0.4140837726
 41
2.0473712377
 42
2.056856446
  0
ELLIPSE
  5
5CB
100
AcDbEntity
  8
0
100
AcDbEllipse
 62
7
  6
CONTINUOUS
 10
246.4668231691
 20
283.561019837
 30
0.0
 11
-8.737510593
 21
35.949325922
 31
0.0
 40
0.2185337797
 41
-0.7793269755
 42
-0.7651112808
  0
ELLIPSE
  5
5CC
100
AcDbEntity
  8
0
100
AcDbEllipse
 62
7
  6
CONTINUOUS
 10
233.939043633
 20
283.561019837
 30
0.0
 11
-8.6931604932
 21
34.9464416936
 31
0.0
 40
0.222647864
 41
-0.9552627505
 42
-0.726190804
  0
ELLIPSE
  5
5CD
100
AcDbEntity
  8
0
100
AcDbEllipse
 62
7
  6
CONTINUOUS
 10
244.2803130621
 20
283.561019837
 30
0.0
 11
-10.1286257205
 21
35.914021326
 31
0.0
 40
0.2455000786
 41
-0.9658658407
 42
-0.8663454312
  0
ELLIPSE
  5
5CE
100
AcDbEntity
  8
0
100
AcDbEllipse
 62
7
  6
CONTINUOUS
 10
245.6057100215
 20
283.561019837
 30
0.0
 11
69.9274640838
 21
28.4868368738
 31
0.0
 40
0.3147742283
 41
1.4361683061
 42
1.4456246314
  0
ELLIPSE
  5
5CF
100
AcDbEntity
  8
0
100
AcDbEllipse
 62
7
  6
CONTINUOUS
 10
245.9182102599
 20
283.561019837
 30
0.0
 11
22.7014611153
 21
34.904783603
 31
0.0
 40
0.3881806888
 41
1.0066886992
 42
1.0256040989
  0
ELLIPSE
  5
5D0
100
AcDbEntity
  8
0
100
AcDbEllipse
 62
7
  6
CONTINUOUS
 10
246.3001541216
 20
283.561019837
 30
0.0
 11
8.737510593
 21
35.949325922
 31
0.0
 40
0.2185337797
 41
0.7982631507
 42
0.8124554409
  0
ELLIPSE
  5
5D1
100
AcDbEntity
  8
0
100
AcDbEllipse
 62
7
  6
CONTINUOUS
 10
233.939043633
 20
283.561019837
 30
0.0
 11
-8.9415365073
 21
35.9449114563
 31
0.0
 40
0.222647864
 41
-0.9520677916
 42
-0.7293857629
  0
ELLIPSE
  5
5D2
100
AcDbEntity
  8
0
100
AcDbEllipse
 62
7
  6
CONTINUOUS
 10
237.9390435138
 20
283.561019837
 30
0.0
 11
8.9415356293
 21
35.9449114758
 31
0.0
 40
0.2226478464
 41
0.7293857531
 42
0.9520677818
  0
ELLIPSE
  5
5D3
100
AcDbEntity
  8
0
100
AcDbEllipse
 62
7
  6
CONTINUOUS
 10
258.0223776365
 20
46.2893607494
 30
0.0
 11
32.4230335283
 21
33.402791457
 31
0.0
 40
0.4140837954
 41
-2.0094869312
 42
-1.9763825679
  0
ELLIPSE
  5
5D4
100
AcDbEntity
  8
0
100
AcDbEllipse
 62
7
  6
CONTINUOUS
 10
257.8846964096
 20
46.2893607494
 30
0.0
 11
-19.07961629
 21
35.3274243559
 31
0.0
 40
0.3630188717
 41
-4.1182300648
 42
-4.0092531186
  0
ELLIPSE
  5
5D5
100
AcDbEntity
  8
0
100
AcDbEllipse
 62
7
  6
CONTINUOUS
 10
258.0618500798
 20
46.2893607494
 30
0.0
 11
30.3530157173
 21
33.7517777684
 31
0.0
 40
0.4125678793
 41
-1.9796370264
 42
-1.8895742109
  0
ELLIPSE
  5
5D6
100
AcDbEntity
  8
0
100
AcDbEllipse
 62
7
  6
CONTINUOUS
 10
251.1890442291
 20
46.2893607494
 30
0.0
 11
105.5741019118
 21
-26.8811670612
 31
0.0
 40
0.226815396
 41
-1.5012883006
 42
-1.4965596886
  0
ELLIPSE
  5
5D7
100
AcDbEntity
  8
0
100
AcDbEllipse
 62
7
  6
CONTINUOUS
 10
252.355713121
 20
46.2893607494
 30
0.0
 11
32.4228484875
 21
-33.40282301
 31
0.0
 40
0.4140837374
 41
-1.1510225868
 42
-1.1415641468
  0
ELLIPSE
  5
5D8
100
AcDbEntity
  8
0
100
AcDbEllipse
 62
7
  6
CONTINUOUS
 10
252.9668185467
 20
46.2893607494
 30
0.0
 11
-8.7375608585
 21
35.949324865
 31
0.0
 40
0.2185348
 41
-3.9540486481
 42
-3.9398563512
  0
ELLIPSE
  5
5D9
100
AcDbEntity
  8
0
100
AcDbEllipse
 62
7
  6
CONTINUOUS
 10
261.1890456298
 20
46.2893607494
 30
0.0
 11
105.5741019118
 21
-26.8811670612
 31
0.0
 40
0.226815396
 41
-1.5959459306
 42
-1.5912024464
  0
ELLIPSE
  5
5DA
100
AcDbEntity
  8
0
100
AcDbEllipse
 62
7
  6
CONTINUOUS
 10
255.6890342055
 20
46.2893607494
 30
0.0
 11
32.4228484875
 21
-33.40282301
 31
0.0
 40
0.4140837374
 41
-1.2456653447
 42
-1.2361835481
  0
ELLIPSE
  5
5DB
100
AcDbEntity
  8
0
100
AcDbEllipse
 62
7
  6
CONTINUOUS
 10
254.0779373957
 20
46.2893607494
 30
0.0
 11
-8.7375563925
 21
35.949324959
 31
0.0
 40
0.2185347093
 41
-4.0486680002
 42
-4.0344565998
  0
ELLIPSE
  5
5DC
100
AcDbEntity
  8
0
100
AcDbEllipse
 62
7
  6
CONTINUOUS
 10
253.5848762908
 20
46.2893607494
 30
0.0
 11
22.7014611153
 21
34.904783603
 31
0.0
 40
0.3881806888
 41
4.1813812669
 42
4.2002966665
  0
ELLIPSE
  5
5DD
100
AcDbEntity
  8
0
100
AcDbEllipse
 62
7
  6
CONTINUOUS
 10
253.9668184041
 20
46.2893607494
 30
0.0
 11
8.7375653245
 21
35.9493247711
 31
0.0
 40
0.2185348906
 41
-2.2771212962
 42
-2.262929006
  0
ELLIPSE
  5
5DE
100
AcDbEntity
  8
0
100
AcDbEllipse
 62
7
  6
CONTINUOUS
 10
271.8557251852
 20
46.2893607494
 30
0.0
 11
176.2118388556
 21
25.9809771245
 31
0.0
 40
0.1414186901
 41
-1.7029853355
 42
-1.6982289909
  0
ELLIPSE
  5
5DF
100
AcDbEntity
  8
0
100
AcDbEllipse
 62
7
  6
CONTINUOUS
 10
258.1057056569
 20
46.2893607494
 30
0.0
 11
45.3557546126
 21
31.2395255551
 31
0.0
 40
0.3944618819
 41
-1.9426693232
 42
-1.9284143614
  0
ELLIPSE
  5
5E0
100
AcDbEntity
  8
0
100
AcDbEllipse
 62
7
  6
CONTINUOUS
 10
256.2098763838
 20
46.2893607494
 30
0.0
 11
22.7014586323
 21
34.9047839253
 31
0.0
 40
0.388180675
 41
-2.201226042
 42
-2.1822481477
  0
ELLIPSE
  5
5E1
100
AcDbEntity
  8
0
100
AcDbEllipse
 62
7
  6
CONTINUOUS
 10
255.1334938874
 20
46.2893607494
 30
0.0
 11
8.7375630915
 21
35.9493248181
 31
0.0
 40
0.2185348453
 41
-2.3764807913
 42
-2.3622650934
  0
ELLIPSE
  5
5E2
100
AcDbEntity
  8
0
100
AcDbEllipse
 62
7
  6
CONTINUOUS
 10
253.2723781982
 20
46.2893607494
 30
0.0
 11
69.9271545924
 21
28.4868599371
 31
0.0
 40
0.3147751946
 41
4.5872162372
 42
4.5919444263
  0
ELLIPSE
  5
5E3
100
AcDbEntity
  8
0
100
AcDbEllipse
 62
7
  6
CONTINUOUS
 10
254.0223786452
 20
46.2893607494
 30
0.0
 11
105.5741019118
 21
-26.8811670612
 31
0.0
 40
0.226815396
 41
-1.6006912838
 42
-1.5959459306
  0
ELLIPSE
  5
5E4
100
AcDbEntity
  8
0
100
AcDbEllipse
 62
7
  6
CONTINUOUS
 10
248.1890415965
 20
46.2893607494
 30
0.0
 11
32.4229610191
 21
-33.4028038213
 31
0.0
 40
0.4140837726
 41
-1.2504102581
 42
-1.2409250498
  0
ELLIPSE
  5
5E5
100
AcDbEntity
  8
0
100
AcDbEllipse
 62
7
  6
CONTINUOUS
 10
246.4668231691
 20
46.2893607494
 30
0.0
 11
-8.737510593
 21
35.949325922
 31
0.0
 40
0.2185337797
 41
-4.0534075683
 42
-4.0391918737
  0
ELLIPSE
  5
5E6
100
AcDbEntity
  8
0
100
AcDbEllipse
 62
7
  6
CONTINUOUS
 10
244.2803130621
 20
46.2893607494
 30
0.0
 11
-10.1286257205
 21
35.914021326
 31
0.0
 40
0.2455000786
 41
-3.9842968751
 42
-3.8847764656
  0
ELLIPSE
  5
5E7
100
AcDbEntity
  8
0
100
AcDbEllipse
 62
7
  6
CONTINUOUS
 10
245.6057100215
 20
46.2893607494
 30
0.0
 11
69.9274640838
 21
28.4868368738
 31
0.0
 40
0.3147742283
 41
-1.7006961584
 42
-1.6912398331
  0
ELLIPSE
  5
5E8
100
AcDbEntity
  8
0
100
AcDbEllipse
 62
7
  6
CONTINUOUS
 10
245.9182102599
 20
46.2893607494
 30
0.0
 11
22.7014611153
 21
34.904783603
 31
0.0
 40
0.3881806888
 41
-2.1018040403
 42
-2.0828886406
  0
ELLIPSE
  5
5E9
100
AcDbEntity
  8
0
100
AcDbEllipse
 62
7
  6
CONTINUOUS
 10
246.3001541216
 20
46.2893607494
 30
0.0
 11
8.737510593
 21
35.949325922
 31
0.0
 40
0.2185337797
 41
-2.277121899
 42
-2.2629296088
  0
ELLIPSE
  5
5EA
100
AcDbEntity
  8
0
100
AcDbEllipse
 62
7
  6
CONTINUOUS
 10
233.939043633
 20
46.2893607494
 30
0.0
 11
-8.9415365073
 21
35.9449114563
 31
0.0
 40
0.222647864
 41
-4.0936604452
 42
-3.8709784165
  0
ELLIPSE
  5
5EB
100
AcDbEntity
  8
0
100
AcDbEllipse
 62
7
  6
CONTINUOUS
 10
237.9390435138
 20
46.2893607494
 30
0.0
 11
8.9415356293
 21
35.9449114758
 31
0.0
 40
0.2226478464
 41
-2.4122069005
 42
-2.1895248718
  0
ELLIPSE
  5
5EC
100
AcDbEntity
  8
0
100
AcDbEllipse
 62
7
  6
CONTINUOUS
 10
254.0223745002
 20
46.2893607494
 30
0.0
 11
-8.4948508347
 21
34.9507325077
 31
0.0
 40
0.2185348
 41
-3.9581700618
 42
-3.9435740461
  0
ELLIPSE
  5
5ED
100
AcDbEntity
  8
0
100
AcDbEllipse
 62
7
  6
CONTINUOUS
 10
253.7098762908
 20
46.2893607494
 30
0.0
 11
-22.0708649732
 21
33.9352062807
 31
0.0
 40
0.3881806888
 41
-4.1624672096
 42
-4.1524027666
  0
ELLIPSE
  5
5EE
100
AcDbEntity
  8
0
100
AcDbEllipse
 62
7
  6
CONTINUOUS
 10
236.9349784397
 20
46.2893607494
 30
0.0
 11
8.7222782622
 21
34.9457911404
 31
0.0
 40
0.2232471849
 41
-2.3857402344
 42
-2.1859948028
  0
ELLIPSE
  5
5EF
100
AcDbEntity
  8
0
100
AcDbEllipse
 62
7
  6
CONTINUOUS
 10
245.4064345837
 20
46.2893607494
 30
0.0
 11
-10.1478549417
 21
34.9070844102
 31
0.0
 40
0.2511485286
 41
-3.9732069417
 42
-3.8853370304
  0
ELLIPSE
  5
5F0
100
AcDbEntity
  8
0
100
AcDbEllipse
 62
7
  6
CONTINUOUS
 10
234.9431085879
 20
46.2893607494
 30
0.0
 11
-8.7222782622
 21
34.9457911404
 31
0.0
 40
0.2232471849
 41
-4.0971905043
 42
-3.8974450728
  0
ELLIPSE
  5
5F1
100
AcDbEntity
  8
0
100
AcDbEllipse
 62
7
  6
CONTINUOUS
 10
252.9112624246
 20
46.2893607494
 30
0.0
 11
8.4948551766
 21
34.9507324164
 31
0.0
 40
0.2185348906
 41
4.0116725595
 42
4.0175100873
  0
ELLIPSE
  5
5F2
100
AcDbEntity
  8
0
100
AcDbEllipse
 62
7
  6
CONTINUOUS
 10
259.2545190997
 20
46.2893607494
 30
0.0
 11
-18.7438733891
 21
35.3614739782
 31
0.0
 40
0.3601321255
 41
-4.1368930647
 42
-4.0042738515
  0
ELLIPSE
  5
5F3
100
AcDbEntity
  8
0
100
AcDbEllipse
 62
7
  6
CONTINUOUS
 10
252.1890470901
 20
46.2893607494
 30
0.0
 11
31.5222138073
 21
32.4749668153
 31
0.0
 40
0.4140837374
 41
4.3310507003
 42
4.3407806626
  0
ELLIPSE
  5
5F4
100
AcDbEntity
  8
0
100
AcDbEllipse
 62
7
  6
CONTINUOUS
 10
256.692666128
 20
46.2893607494
 30
0.0
 11
30.71287816
 21
33.6917788698
 31
0.0
 40
0.4129609291
 41
-1.993790463
 42
-1.8848135168
  0
ELLIPSE
  5
5F5
100
AcDbEntity
  8
0
100
AcDbEllipse
 62
7
  6
CONTINUOUS
 10
250.6890442291
 20
46.2893607494
 30
0.0
 11
102.6414879698
 21
26.1344679762
 31
0.0
 40
0.226815396
 41
-1.6114616516
 42
-1.6065975051
  0
ELLIPSE
  5
5F6
100
AcDbEntity
  8
0
100
AcDbEllipse
 62
7
  6
CONTINUOUS
 10
254.0779380701
 20
46.2893607494
 30
0.0
 11
8.4948551766
 21
34.9507324164
 31
0.0
 40
0.2185348906
 41
-2.373704242
 42
-2.3668296514
  0
ELLIPSE
  5
5F7
100
AcDbEntity
  8
0
100
AcDbEllipse
 62
7
  6
CONTINUOUS
 10
255.6890331258
 20
46.2893607494
 30
0.0
 11
31.5222004166
 21
32.4749690987
 31
0.0
 40
0.4140837331
 41
4.2288347562
 42
4.2385889934
  0
ELLIPSE
  5
5F8
100
AcDbEntity
  8
0
100
AcDbEllipse
 62
7
  6
CONTINUOUS
 10
261.1890452796
 20
46.2893607494
 30
0.0
 11
102.6414879698
 21
26.1344679762
 31
0.0
 40
0.226815396
 41
-1.7136932065
 42
-1.7088132742
  0
ELLIPSE
  5
5F9
100
AcDbEntity
  8
0
100
AcDbEllipse
 62
7
  6
CONTINUOUS
 10
254.0779380701
 20
46.2893607494
 30
0.0
 11
8.7375653245
 21
35.9493247711
 31
0.0
 40
0.2185348906
 41
-2.3717406909
 42
-2.3575293038
  0
ELLIPSE
  5
5FA
100
AcDbEntity
  8
0
100
AcDbEllipse
 62
7
  6
CONTINUOUS
 10
255.6890331258
 20
46.2893607494
 30
0.0
 11
32.4228347142
 21
33.4028253587
 31
0.0
 40
0.4140837331
 41
-2.0521145626
 42
-2.0426327627
  0
ELLIPSE
  5
5FB
100
AcDbEntity
  8
0
100
AcDbEllipse
 62
7
  6
CONTINUOUS
 10
261.1890452796
 20
46.2893607494
 30
0.0
 11
105.5741019118
 21
26.8811670612
 31
0.0
 40
0.226815396
 41
-1.7113207701
 42
-1.7065772859
  0
ELLIPSE
  5
5FC
100
AcDbEntity
  8
0
100
AcDbEllipse
 62
7
  6
CONTINUOUS
 10
245.2445984601
 20
46.2893607494
 30
0.0
 11
8.4948019654
 21
34.9507335353
 31
0.0
 40
0.2185337797
 41
-2.2715133504
 42
-2.2642128116
  0
ELLIPSE
  5
5FD
100
AcDbEntity
  8
0
100
AcDbEllipse
 62
7
  6
CONTINUOUS
 10
244.5223779597
 20
46.2893607494
 30
0.0
 11
31.5223232131
 21
32.4749481596
 31
0.0
 40
0.4140837726
 41
4.3310521296
 42
4.3407820919
  0
ELLIPSE
  5
5FE
100
AcDbEntity
  8
0
100
AcDbEllipse
 62
7
  6
CONTINUOUS
 10
243.0223772445
 20
46.2893607494
 30
0.0
 11
102.6414879698
 21
26.1344679762
 31
0.0
 40
0.226815396
 41
-1.6114616516
 42
-1.6065975051
  0
ELLIPSE
  5
5FF
100
AcDbEntity
  8
0
100
AcDbEllipse
 62
7
  6
CONTINUOUS
 10
259.2545190997
 20
46.2893607494
 30
0.0
 11
-18.2232102394
 21
34.3792108121
 31
0.0
 40
0.3601321255
 41
-4.1207178211
 42
-4.0010788926
  0
ELLIPSE
  5
600
100
AcDbEntity
  8
0
100
AcDbEllipse
 62
7
  6
CONTINUOUS
 10
256.692666128
 20
46.2893607494
 30
0.0
 11
29.8597426555
 21
32.7558961234
 31
0.0
 40
0.4129609291
 41
-1.9937229181
 42
-1.8816185579
  0
ELLIPSE
  5
601
100
AcDbEntity
  8
0
100
AcDbEllipse
 62
7
  6
CONTINUOUS
 10
252.9112624246
 20
46.2893607494
 30
0.0
 11
8.7375653245
 21
35.9493247711
 31
0.0
 40
0.2185348906
 41
-2.2723912563
 42
-2.2581965832
  0
ELLIPSE
  5
602
100
AcDbEntity
  8
0
100
AcDbEllipse
 62
7
  6
CONTINUOUS
 10
252.1890470901
 20
46.2893607494
 30
0.0
 11
32.4228484875
 21
33.40282301
 31
0.0
 40
0.4140837374
 41
-1.9527426511
 42
-1.9432831531
  0
ELLIPSE
  5
603
100
AcDbEntity
  8
0
100
AcDbEllipse
 62
7
  6
CONTINUOUS
 10
250.6890442291
 20
46.2893607494
 30
0.0
 11
105.5741019118
 21
26.8811670612
 31
0.0
 40
0.226815396
 41
-1.6119345314
 42
-1.6072055494
  0
ELLIPSE
  5
604
100
AcDbEntity
  8
0
100
AcDbEllipse
 62
7
  6
CONTINUOUS
 10
247.4668231691
 20
46.2893607494
 30
0.0
 11
-8.4948019654
 21
34.9507335353
 31
0.0
 40
0.2185337797
 41
-4.0555072649
 42
-4.040883535
  0
ELLIPSE
  5
605
100
AcDbEntity
  8
0
100
AcDbEllipse
 62
7
  6
CONTINUOUS
 10
248.5432106101
 20
46.2893607494
 30
0.0
 11
-22.0708649732
 21
33.9352062807
 31
0.0
 40
0.3881806888
 41
-4.2692645599
 42
-4.2497405232
  0
ELLIPSE
  5
606
100
AcDbEntity
  8
0
100
AcDbEllipse
 62
7
  6
CONTINUOUS
 10
255.1334941273
 20
46.2893607494
 30
0.0
 11
-8.4948551766
 21
34.9507324164
 31
0.0
 40
0.2185348906
 41
-4.0555078676
 42
-4.0408841378
  0
ELLIPSE
  5
607
100
AcDbEntity
  8
0
100
AcDbEllipse
 62
7
  6
CONTINUOUS
 10
256.209876641
 20
46.2893607494
 30
0.0
 11
-22.0708649732
 21
33.9352062807
 31
0.0
 40
0.3881806888
 41
-4.2692645599
 42
-4.2497405232
  0
ELLIPSE
  5
608
100
AcDbEntity
  8
0
100
AcDbEllipse
 62
7
  6
CONTINUOUS
 10
255.1334941273
 20
46.2893607494
 30
0.0
 11
-8.7375653245
 21
35.9493247711
 31
0.0
 40
0.2185348906
 41
-4.053408171
 42
-4.0391924764
  0
ELLIPSE
  5
609
100
AcDbEntity
  8
0
100
AcDbEllipse
 62
7
  6
CONTINUOUS
 10
256.209876641
 20
46.2893607494
 30
0.0
 11
-22.7014611153
 21
34.904783603
 31
0.0
 40
0.3881806888
 41
-4.2666187193
 42
-4.2476408266
  0
ELLIPSE
  5
60A
100
AcDbEntity
  8
0
100
AcDbEllipse
 62
7
  6
CONTINUOUS
 10
258.1057061141
 20
46.2893607494
 30
0.0
 11
45.355759054
 21
-31.2395248715
 31
0.0
 40
0.3944618695
 41
-1.4120927085
 42
-1.3978377479
  0
ELLIPSE
  5
60B
100
AcDbEntity
  8
0
100
AcDbEllipse
 62
7
  6
CONTINUOUS
 10
271.8557268996
 20
46.2893607494
 30
0.0
 11
176.2118542954
 21
-25.9809770336
 31
0.0
 40
0.1414186782
 41
-1.6612893504
 42
-1.6565330063
  0
ELLIPSE
  5
60C
100
AcDbEntity
  8
0
100
AcDbEllipse
 62
7
  6
CONTINUOUS
 10
258.1057061141
 20
46.2893607494
 30
0.0
 11
44.0958768581
 21
-30.3717602917
 31
0.0
 40
0.3944618695
 41
-1.415150074
 42
-1.4004835886
  0
ELLIPSE
  5
60D
100
AcDbEntity
  8
0
100
AcDbEllipse
 62
7
  6
CONTINUOUS
 10
271.8557268996
 20
46.2893607494
 30
0.0
 11
171.317080565
 21
-25.2592832272
 31
0.0
 40
0.1414186782
 41
-1.6644843093
 42
-1.6595903718
  0
ELLIPSE
  5
60E
100
AcDbEntity
  8
0
100
AcDbEllipse
 62
7
  6
CONTINUOUS
 10
250.4390462821
 20
46.2893607494
 30
0.0
 11
44.095947418
 21
-30.3717494315
 31
0.0
 40
0.3944616684
 41
-1.4151506984
 42
-1.4004842129
  0
ELLIPSE
  5
60F
100
AcDbEntity
  8
0
100
AcDbEllipse
 62
7
  6
CONTINUOUS
 10
254.0223745002
 20
46.2893607494
 30
0.0
 11
-8.7375608585
 21
35.949324865
 31
0.0
 40
0.2185348
 41
-3.9587781061
 42
-3.9445878735
  0
ELLIPSE
  5
610
100
AcDbEntity
  8
0
100
AcDbEllipse
 62
7
  6
CONTINUOUS
 10
253.7098762908
 20
46.2893607494
 30
0.0
 11
-22.7014611153
 21
34.904783603
 31
0.0
 40
0.3881806888
 41
-4.1719249416
 42
-4.1530108109
  0
ELLIPSE
  5
611
100
AcDbEntity
  8
0
100
AcDbEllipse
 62
7
  6
CONTINUOUS
 10
253.6057102599
 20
46.2893607494
 30
0.0
 11
69.9271545924
 21
-28.4868599371
 31
0.0
 40
0.3147751946
 41
-1.4456235836
 42
-1.4408954474
  0
ELLIPSE
  5
612
100
AcDbEntity
  8
0
100
AcDbEllipse
 62
7
  6
CONTINUOUS
 10
264.1890384573
 20
46.2893607494
 30
0.0
 11
171.316884338
 21
-25.2592843819
 31
0.0
 40
0.1414188332
 41
-1.6644842617
 42
-1.6595903241
  0
ELLIPSE
  5
613
100
AcDbEntity
  8
0
100
AcDbEllipse
 62
7
  6
CONTINUOUS
 10
245.2445984601
 20
46.2893607494
 30
0.0
 11
8.737510593
 21
35.949325922
 31
0.0
 40
0.2185337797
 41
-2.272391859
 42
-2.2581971859
  0
ELLIPSE
  5
614
100
AcDbEntity
  8
0
100
AcDbEllipse
 62
7
  6
CONTINUOUS
 10
244.5223779597
 20
46.2893607494
 30
0.0
 11
32.4229610191
 21
33.4028038213
 31
0.0
 40
0.4140837726
 41
-1.9527412219
 42
-1.9432817239
  0
ELLIPSE
  5
615
100
AcDbEntity
  8
0
100
AcDbEllipse
 62
7
  6
CONTINUOUS
 10
243.0223772445
 20
46.2893607494
 30
0.0
 11
105.5741019118
 21
26.8811670612
 31
0.0
 40
0.226815396
 41
-1.6119345314
 42
-1.6072055494
  0
ELLIPSE
  5
616
100
AcDbEntity
  8
0
100
AcDbEllipse
 62
7
  6
CONTINUOUS
 10
245.4064345837
 20
46.2893607494
 30
0.0
 11
-10.4377936543
 21
35.9044296791
 31
0.0
 40
0.2511485286
 41
-3.9975089356
 42
-3.8885319893
  0
ELLIPSE
  5
617
100
AcDbEntity
  8
0
100
AcDbEllipse
 62
7
  6
CONTINUOUS
 10
247.4668231691
 20
46.2893607494
 30
0.0
 11
-8.737510593
 21
35.949325922
 31
0.0
 40
0.2185337797
 41
-4.0534075683
 42
-4.0391918737
  0
ELLIPSE
  5
618
100
AcDbEntity
  8
0
100
AcDbEllipse
 62
7
  6
CONTINUOUS
 10
248.5432106101
 20
46.2893607494
 30
0.0
 11
-22.7014611153
 21
34.904783603
 31
0.0
 40
0.3881806888
 41
-4.2666187193
 42
-4.2476408266
  0
ELLIPSE
  5
619
100
AcDbEntity
  8
0
100
AcDbEllipse
 62
7
  6
CONTINUOUS
 10
250.4390462821
 20
46.2893607494
 30
0.0
 11
45.3558316299
 21
-31.239513701
 31
0.0
 40
0.3944616684
 41
-1.4120933329
 42
-1.3978383723
  0
ELLIPSE
  5
61A
100
AcDbEntity
  8
0
100
AcDbEllipse
 62
7
  6
CONTINUOUS
 10
264.1890384573
 20
46.2893607494
 30
0.0
 11
176.211652462
 21
-25.9809782214
 31
0.0
 40
0.1414188332
 41
-1.6612893028
 42
-1.6565329586
  0
ELLIPSE
  5
61B
100
AcDbEntity
  8
0
100
AcDbEllipse
 62
7
  6
CONTINUOUS
 10
236.9349784397
 20
46.2893607494
 30
0.0
 11
8.9714862126
 21
35.9442423158
 31
0.0
 40
0.2232471849
 41
-2.383367798
 42
-2.1891897617
  0
ELLIPSE
  5
61C
100
AcDbEntity
  8
0
100
AcDbEllipse
 62
7
  6
CONTINUOUS
 10
234.9431085879
 20
46.2893607494
 30
0.0
 11
-8.9714862126
 21
35.9442423158
 31
0.0
 40
0.2232471849
 41
-4.0939955455
 42
-3.8998175092
  0
ELLIPSE
  5
61D
100
AcDbEntity
  8
0
100
AcDbEllipse
 62
7
  6
CONTINUOUS
 10
44.9760221884
 20
46.2893607494
 30
0.0
 11
-18.7438733891
 21
35.3614739782
 31
0.0
 40
0.3601321255
 41
-4.2269558802
 42
-4.094336667
  0
ELLIPSE
  5
61E
100
AcDbEntity
  8
0
100
AcDbEllipse
 62
7
  6
CONTINUOUS
 10
47.5378751601
 20
46.2893607494
 30
0.0
 11
30.71287816
 21
33.6917788698
 31
0.0
 40
0.4129609291
 41
-2.1074955455
 42
-1.9985185992
  0
ELLIPSE
  5
61F
100
AcDbEntity
  8
0
100
AcDbEllipse
 62
7
  6
CONTINUOUS
 10
50.152603218
 20
46.2893607494
 30
0.0
 11
8.7375653245
 21
35.9493247711
 31
0.0
 40
0.2185348906
 41
-2.2487286024
 42
-2.2345172152
  0
ELLIPSE
  5
620
100
AcDbEntity
  8
0
100
AcDbEllipse
 62
7
  6
CONTINUOUS
 10
48.5415081623
 20
46.2893607494
 30
0.0
 11
32.4228347142
 21
33.4028253587
 31
0.0
 40
0.4140837331
 41
-1.9054092871
 42
-1.8959274872
  0
ELLIPSE
  5
621
100
AcDbEntity
  8
0
100
AcDbEllipse
 62
7
  6
CONTINUOUS
 10
43.0414960085
 20
46.2893607494
 30
0.0
 11
105.5741019118
 21
26.8811670612
 31
0.0
 40
0.226815396
 41
-1.5503902105
 42
-1.5456467263
  0
ELLIPSE
  5
622
100
AcDbEntity
  8
0
100
AcDbEllipse
 62
7
  6
CONTINUOUS
 10
51.3192788635
 20
46.2893607494
 30
0.0
 11
8.7375653245
 21
35.9493247711
 31
0.0
 40
0.2185348906
 41
-2.348061323
 42
-2.3338666499
  0
ELLIPSE
  5
623
100
AcDbEntity
  8
0
100
AcDbEllipse
 62
7
  6
CONTINUOUS
 10
52.041494198
 20
46.2893607494
 30
0.0
 11
32.4228484875
 21
33.40282301
 31
0.0
 40
0.4140837374
 41
-2.0047585468
 42
-1.9952990488
  0
ELLIPSE
  5
624
100
AcDbEntity
  8
0
100
AcDbEllipse
 62
7
  6
CONTINUOUS
 10
53.5414970591
 20
46.2893607494
 30
0.0
 11
105.5741019118
 21
26.8811670612
 31
0.0
 40
0.226815396
 41
-1.649761947
 42
-1.645032965
  0
ELLIPSE
  5
625
100
AcDbEntity
  8
0
100
AcDbEllipse
 62
7
  6
CONTINUOUS
 10
49.0970471608
 20
46.2893607494
 30
0.0
 11
-8.7375653245
 21
35.9493247711
 31
0.0
 40
0.2185348906
 41
-3.9209202318
 42
-3.9067045372
  0
ELLIPSE
  5
626
100
AcDbEntity
  8
0
100
AcDbEllipse
 62
7
  6
CONTINUOUS
 10
48.0206646471
 20
46.2893607494
 30
0.0
 11
-22.7014611153
 21
34.904783603
 31
0.0
 40
0.3881806888
 41
-4.1009371928
 42
-4.0819593001
  0
ELLIPSE
  5
627
100
AcDbEntity
  8
0
100
AcDbEllipse
 62
7
  6
CONTINUOUS
 10
46.124835174
 20
46.2893607494
 30
0.0
 11
45.355759054
 21
-31.2395248715
 31
0.0
 40
0.3944618695
 41
-1.2131783288
 42
-1.1989233682
  0
ELLIPSE
  5
628
100
AcDbEntity
  8
0
100
AcDbEllipse
 62
7
  6
CONTINUOUS
 10
32.3748143885
 20
46.2893607494
 30
0.0
 11
176.2118542954
 21
-25.9809770336
 31
0.0
 40
0.1414186782
 41
-1.4433636659
 42
-1.4386073218
  0
ELLIPSE
  5
629
100
AcDbEntity
  8
0
100
AcDbEllipse
 62
7
  6
CONTINUOUS
 10
50.2081667879
 20
46.2893607494
 30
0.0
 11
-8.7375608585
 21
35.949324865
 31
0.0
 40
0.2185348
 41
-4.0155247364
 42
-4.0013345037
  0
ELLIPSE
  5
62A
100
AcDbEntity
  8
0
100
AcDbEllipse
 62
7
  6
CONTINUOUS
 10
50.5206649973
 20
46.2893607494
 30
0.0
 11
-22.7014611153
 21
34.904783603
 31
0.0
 40
0.3881806888
 41
2.0876180987
 42
2.1065322294
  0
ELLIPSE
  5
62B
100
AcDbEntity
  8
0
100
AcDbEllipse
 62
7
  6
CONTINUOUS
 10
50.6248310282
 20
46.2893607494
 30
0.0
 11
69.9271545924
 21
-28.4868599371
 31
0.0
 40
0.3147751946
 41
4.8375617236
 42
4.8422898598
  0
ELLIPSE
  5
62C
100
AcDbEntity
  8
0
100
AcDbEllipse
 62
7
  6
CONTINUOUS
 10
58.985942828
 20
46.2893607494
 30
0.0
 11
8.737510593
 21
35.949325922
 31
0.0
 40
0.2185337797
 41
-2.3480619257
 42
-2.3338672526
  0
ELLIPSE
  5
62D
100
AcDbEntity
  8
0
100
AcDbEllipse
 62
7
  6
CONTINUOUS
 10
59.7081633284
 20
46.2893607494
 30
0.0
 11
32.4229610191
 21
33.4028038213
 31
0.0
 40
0.4140837726
 41
-2.0047571175
 42
-1.9952976196
  0
ELLIPSE
  5
62E
100
AcDbEntity
  8
0
100
AcDbEllipse
 62
7
  6
CONTINUOUS
 10
61.2081640436
 20
46.2893607494
 30
0.0
 11
105.5741019118
 21
26.8811670612
 31
0.0
 40
0.226815396
 41
-1.649761947
 42
-1.645032965
  0
ELLIPSE
  5
62F
100
AcDbEntity
  8
0
100
AcDbEllipse
 62
7
  6
CONTINUOUS
 10
58.8241067044
 20
46.2893607494
 30
0.0
 11
-10.4377936543
 21
35.9044296791
 31
0.0
 40
0.2511485286
 41
-4.111214018
 42
-4.0022370718
  0
ELLIPSE
  5
630
100
AcDbEntity
  8
0
100
AcDbEllipse
 62
7
  6
CONTINUOUS
 10
56.763718119
 20
46.2893607494
 30
0.0
 11
-8.737510593
 21
35.949325922
 31
0.0
 40
0.2185337797
 41
-3.920919629
 42
-3.9067039344
  0
ELLIPSE
  5
631
100
AcDbEntity
  8
0
100
AcDbEllipse
 62
7
  6
CONTINUOUS
 10
55.687330678
 20
46.2893607494
 30
0.0
 11
-22.7014611153
 21
34.904783603
 31
0.0
 40
0.3881806888
 41
-4.1009371928
 42
-4.0819593001
  0
ELLIPSE
  5
632
100
AcDbEntity
  8
0
100
AcDbEllipse
 62
7
  6
CONTINUOUS
 10
53.791495006
 20
46.2893607494
 30
0.0
 11
45.3558316299
 21
-31.239513701
 31
0.0
 40
0.3944616684
 41
-1.2131789531
 42
-1.1989239925
  0
ELLIPSE
  5
633
100
AcDbEntity
  8
0
100
AcDbEllipse
 62
7
  6
CONTINUOUS
 10
40.0415028308
 20
46.2893607494
 30
0.0
 11
176.211652462
 21
-25.9809782214
 31
0.0
 40
0.1414188332
 41
-1.4433636183
 42
-1.4386072741
  0
ELLIPSE
  5
634
100
AcDbEntity
  8
0
100
AcDbEllipse
 62
7
  6
CONTINUOUS
 10
67.2955628484
 20
46.2893607494
 30
0.0
 11
8.9714862126
 21
35.9442423158
 31
0.0
 40
0.2232471849
 41
-2.4118717904
 42
-2.2176937542
  0
ELLIPSE
  5
635
100
AcDbEntity
  8
0
100
AcDbEllipse
 62
7
  6
CONTINUOUS
 10
69.2874327002
 20
46.2893607494
 30
0.0
 11
-8.9714862126
 21
35.9442423158
 31
0.0
 40
0.2232471849
 41
-4.065491553
 42
-3.8713135168
  0
ELLIPSE
  5
636
100
AcDbEntity
  8
0
100
AcDbEllipse
 62
7
  6
CONTINUOUS
 10
59.950228226
 20
46.2893607494
 30
0.0
 11
-9.847275006
 21
34.9164096225
 31
0.0
 40
0.2455000786
 41
-4.1106534532
 42
-4.0082758327
  0
ELLIPSE
  5
637
100
AcDbEntity
  8
0
100
AcDbEllipse
 62
7
  6
CONTINUOUS
 10
32.3748161029
 20
46.2893607494
 30
0.0
 11
171.3170655541
 21
25.2592833155
 31
0.0
 40
0.1414186901
 41
-1.4820022859
 42
-1.4771083479
  0
ELLIPSE
  5
638
100
AcDbEntity
  8
0
100
AcDbEllipse
 62
7
  6
CONTINUOUS
 10
46.1248356312
 20
46.2893607494
 30
0.0
 11
44.09587254
 21
30.3717609564
 31
0.0
 40
0.3944618819
 41
-1.741109105
 42
-1.7264426182
  0
ELLIPSE
  5
639
100
AcDbEntity
  8
0
100
AcDbEllipse
 62
7
  6
CONTINUOUS
 10
48.0206649043
 20
46.2893607494
 30
0.0
 11
22.0708625592
 21
33.9352065941
 31
0.0
 40
0.388180675
 41
-2.033444824
 42
-2.0139207856
  0
ELLIPSE
  5
63A
100
AcDbEntity
  8
0
100
AcDbEllipse
 62
7
  6
CONTINUOUS
 10
49.0970474007
 20
46.2893607494
 30
0.0
 11
8.4948530056
 21
34.950732462
 31
0.0
 40
0.2185348453
 41
-2.2423012008
 42
-2.2276774676
  0
ELLIPSE
  5
63B
100
AcDbEntity
  8
0
100
AcDbEllipse
 62
7
  6
CONTINUOUS
 10
46.2081636516
 20
46.2893607494
 30
0.0
 11
32.4230335283
 21
33.402791457
 31
0.0
 40
0.4140837954
 41
-1.9716544317
 42
-1.9385500684
  0
ELLIPSE
  5
63C
100
AcDbEntity
  8
0
100
AcDbEllipse
 62
7
  6
CONTINUOUS
 10
46.3458448785
 20
46.2893607494
 30
0.0
 11
-19.07961629
 21
35.3274243559
 31
0.0
 40
0.3630188717
 41
-4.2319351472
 42
-4.122958201
  0
ELLIPSE
  5
63D
100
AcDbEntity
  8
0
100
AcDbEllipse
 62
7
  6
CONTINUOUS
 10
46.1686912083
 20
46.2893607494
 30
0.0
 11
30.3530157173
 21
33.7517777684
 31
0.0
 40
0.4125678793
 41
-2.1122562396
 42
-2.0221934241
  0
ELLIPSE
  5
63E
100
AcDbEntity
  8
0
100
AcDbEllipse
 62
7
  6
CONTINUOUS
 10
43.0414956583
 20
46.2893607494
 30
0.0
 11
102.6414879698
 21
-26.1344679762
 31
0.0
 40
0.226815396
 41
-1.4327793759
 42
-1.4278994437
  0
ELLIPSE
  5
63F
100
AcDbEntity
  8
0
100
AcDbEllipse
 62
7
  6
CONTINUOUS
 10
48.5415070826
 20
46.2893607494
 30
0.0
 11
31.5222138073
 21
-32.4749668153
 31
0.0
 40
0.4140837374
 41
5.1861887993
 42
5.195943033
  0
ELLIPSE
  5
640
100
AcDbEntity
  8
0
100
AcDbEllipse
 62
7
  6
CONTINUOUS
 10
50.1526038924
 20
46.2893607494
 30
0.0
 11
-8.4948464928
 21
34.950732599
 31
0.0
 40
0.2185347093
 41
-3.9131356083
 42
-3.90948096
  0
ELLIPSE
  5
641
100
AcDbEntity
  8
0
100
AcDbEllipse
 62
7
  6
CONTINUOUS
 10
58.6248312666
 20
46.2893607494
 30
0.0
 11
67.9850345259
 21
27.6955358496
 31
0.0
 40
0.3147742283
 41
-1.7056269869
 42
-1.7005169544
  0
ELLIPSE
  5
642
100
AcDbEntity
  8
0
100
AcDbEllipse
 62
7
  6
CONTINUOUS
 10
50.2081626429
 20
46.2893607494
 30
0.0
 11
102.6414879698
 21
-26.1344679762
 31
0.0
 40
0.226815396
 41
-1.4278994437
 42
-1.4230174764
  0
ELLIPSE
  5
643
100
AcDbEntity
  8
0
100
AcDbEllipse
 62
7
  6
CONTINUOUS
 10
56.0414996916
 20
46.2893607494
 30
0.0
 11
31.5223232131
 21
-32.4749481596
 31
0.0
 40
0.4140837726
 41
5.1910635878
 42
5.2008215361
  0
ELLIPSE
  5
644
100
AcDbEntity
  8
0
100
AcDbEllipse
 62
7
  6
CONTINUOUS
 10
57.763718119
 20
46.2893607494
 30
0.0
 11
-8.4948019654
 21
34.9507335353
 31
0.0
 40
0.2185337797
 41
2.3717844169
 42
2.3785810693
  0
ELLIPSE
  5
645
100
AcDbEntity
  8
0
100
AcDbEllipse
 62
7
  6
CONTINUOUS
 10
58.3123310282
 20
46.2893607494
 30
0.0
 11
22.0708649732
 21
33.9352062807
 31
0.0
 40
0.3881806888
 41
-2.1356472051
 42
-2.1161911941
  0
ELLIPSE
  5
646
100
AcDbEntity
  8
0
100
AcDbEllipse
 62
7
  6
CONTINUOUS
 10
53.0414970591
 20
46.2893607494
 30
0.0
 11
105.5741019118
 21
-26.8811670612
 31
0.0
 40
0.226815396
 41
-1.5296581222
 42
-1.5249295102
  0
ELLIPSE
  5
647
100
AcDbEntity
  8
0
100
AcDbEllipse
 62
7
  6
CONTINUOUS
 10
51.8748281671
 20
46.2893607494
 30
0.0
 11
32.4228484875
 21
-33.40282301
 31
0.0
 40
0.4140837374
 41
-1.1935794605
 42
-1.1841210204
  0
ELLIPSE
  5
648
100
AcDbEntity
  8
0
100
AcDbEllipse
 62
7
  6
CONTINUOUS
 10
51.2637227414
 20
46.2893607494
 30
0.0
 11
-8.7375608585
 21
35.949324865
 31
0.0
 40
0.2185348
 41
-4.0202562586
 42
-4.0060639618
  0
ELLIPSE
  5
649
100
AcDbEntity
  8
0
100
AcDbEllipse
 62
7
  6
CONTINUOUS
 10
57.9303871665
 20
46.2893607494
 30
0.0
 11
8.4948019654
 21
34.9507335353
 31
0.0
 40
0.2185337797
 41
-2.3444787187
 42
-2.3298804634
  0
ELLIPSE
  5
64A
100
AcDbEntity
  8
0
100
AcDbEllipse
 62
7
  6
CONTINUOUS
 10
43.0414956583
 20
46.2893607494
 30
0.0
 11
105.5741019118
 21
-26.8811670612
 31
0.0
 40
0.226815396
 41
-1.4350153644
 42
-1.4302718802
  0
ELLIPSE
  5
64B
100
AcDbEntity
  8
0
100
AcDbEllipse
 62
7
  6
CONTINUOUS
 10
48.5415070826
 20
46.2893607494
 30
0.0
 11
32.4228484875
 21
-33.40282301
 31
0.0
 40
0.4140837374
 41
-1.0989600591
 42
-1.0894782626
  0
ELLIPSE
  5
64C
100
AcDbEntity
  8
0
100
AcDbEllipse
 62
7
  6
CONTINUOUS
 10
50.1526038924
 20
46.2893607494
 30
0.0
 11
-8.7375563925
 21
35.949324959
 31
0.0
 40
0.2185347093
 41
-3.9256559117
 42
-3.9114445113
  0
ELLIPSE
  5
64D
100
AcDbEntity
  8
0
100
AcDbEllipse
 62
7
  6
CONTINUOUS
 10
53.0414970591
 20
46.2893607494
 30
0.0
 11
102.6414879698
 21
-26.1344679762
 31
0.0
 40
0.226815396
 41
-1.530131002
 42
-1.5252672582
  0
ELLIPSE
  5
64E
100
AcDbEntity
  8
0
100
AcDbEllipse
 62
7
  6
CONTINUOUS
 10
51.8748281671
 20
46.2893607494
 30
0.0
 11
31.5222138073
 21
-32.4749668153
 31
0.0
 40
0.4140837374
 41
5.088862596
 42
5.098591407
  0
ELLIPSE
  5
64F
100
AcDbEntity
  8
0
100
AcDbEllipse
 62
7
  6
CONTINUOUS
 10
51.2637227414
 20
46.2893607494
 30
0.0
 11
-8.4948508347
 21
34.9507325077
 31
0.0
 40
0.2185348
 41
-4.0104568775
 42
-4.0068072125
  0
ELLIPSE
  5
650
100
AcDbEntity
  8
0
100
AcDbEllipse
 62
7
  6
CONTINUOUS
 10
46.2081636516
 20
46.2893607494
 30
0.0
 11
31.5223937081
 21
32.4749361388
 31
0.0
 40
0.4140837954
 41
-1.9715868867
 42
-1.937536241
  0
ELLIPSE
  5
651
100
AcDbEntity
  8
0
100
AcDbEllipse
 62
7
  6
CONTINUOUS
 10
50.6456649973
 20
46.2893607494
 30
0.0
 11
22.7014611153
 21
34.904783603
 31
0.0
 40
0.3881806888
 41
-2.1349039543
 42
-2.1159885547
  0
ELLIPSE
  5
652
100
AcDbEntity
  8
0
100
AcDbEllipse
 62
7
  6
CONTINUOUS
 10
50.263722884
 20
46.2893607494
 30
0.0
 11
8.7375653245
 21
35.9493247711
 31
0.0
 40
0.2185348906
 41
-2.3433289001
 42
-2.3291366099
  0
ELLIPSE
  5
653
100
AcDbEntity
  8
0
100
AcDbEllipse
 62
7
  6
CONTINUOUS
 10
46.3458448785
 20
46.2893607494
 30
0.0
 11
-18.5496269486
 21
34.3461070127
 31
0.0
 40
0.3630188717
 41
-4.2351301061
 42
-4.1230257459
  0
ELLIPSE
  5
654
100
AcDbEntity
  8
0
100
AcDbEllipse
 62
7
  6
CONTINUOUS
 10
46.1686912083
 20
46.2893607494
 30
0.0
 11
29.5098763918
 21
32.814228386
 31
0.0
 40
0.4125678793
 41
-2.1154511985
 42
-2.0345915592
  0
ELLIPSE
  5
655
100
AcDbEntity
  8
0
100
AcDbEllipse
 62
7
  6
CONTINUOUS
 10
32.3748161029
 20
46.2893607494
 30
0.0
 11
176.2118388556
 21
25.9809771245
 31
0.0
 40
0.1414186901
 41
-1.4850596514
 42
-1.4803033068
  0
ELLIPSE
  5
656
100
AcDbEntity
  8
0
100
AcDbEllipse
 62
7
  6
CONTINUOUS
 10
46.1248356312
 20
46.2893607494
 30
0.0
 11
45.3557546126
 21
31.2395255551
 31
0.0
 40
0.3944618819
 41
-1.7437549455
 42
-1.7294999837
  0
ELLIPSE
  5
657
100
AcDbEntity
  8
0
100
AcDbEllipse
 62
7
  6
CONTINUOUS
 10
48.0206649043
 20
46.2893607494
 30
0.0
 11
22.7014586323
 21
34.9047839253
 31
0.0
 40
0.388180675
 41
-2.0355445205
 42
-2.0165666261
  0
ELLIPSE
  5
658
100
AcDbEntity
  8
0
100
AcDbEllipse
 62
7
  6
CONTINUOUS
 10
49.0970474007
 20
46.2893607494
 30
0.0
 11
8.7375630915
 21
35.9493248181
 31
0.0
 40
0.2185348453
 41
-2.243992862
 42
-2.2297771641
  0
ELLIPSE
  5
659
100
AcDbEntity
  8
0
100
AcDbEllipse
 62
7
  6
CONTINUOUS
 10
50.6456649973
 20
46.2893607494
 30
0.0
 11
22.0708649732
 21
33.9352062807
 31
0.0
 40
0.3881806888
 41
-2.1356472051
 42
-2.1256503381
  0
ELLIPSE
  5
65A
100
AcDbEntity
  8
0
100
AcDbEllipse
 62
7
  6
CONTINUOUS
 10
50.263722884
 20
46.2893607494
 30
0.0
 11
8.4948551766
 21
34.9507324164
 31
0.0
 40
0.2185348906
 41
-2.344478116
 42
-2.3298798607
  0
ELLIPSE
  5
65B
100
AcDbEntity
  8
0
100
AcDbEllipse
 62
7
  6
CONTINUOUS
 10
66.2914977743
 20
46.2893607494
 30
0.0
 11
8.6931596396
 21
34.9464417126
 31
0.0
 40
0.2226478464
 41
-2.4154018594
 42
-2.1863299129
  0
ELLIPSE
  5
65C
100
AcDbEntity
  8
0
100
AcDbEllipse
 62
7
  6
CONTINUOUS
 10
50.9581630899
 20
46.2893607494
 30
0.0
 11
69.9271545924
 21
28.4868599371
 31
0.0
 40
0.3147751946
 41
-1.7054253953
 42
-1.7006972062
  0
ELLIPSE
  5
65D
100
AcDbEntity
  8
0
100
AcDbEllipse
 62
7
  6
CONTINUOUS
 10
50.2081626429
 20
46.2893607494
 30
0.0
 11
105.5741019118
 21
-26.8811670612
 31
0.0
 40
0.226815396
 41
-1.4302718802
 42
-1.4255265271
  0
ELLIPSE
  5
65E
100
AcDbEntity
  8
0
100
AcDbEllipse
 62
7
  6
CONTINUOUS
 10
56.0414996916
 20
46.2893607494
 30
0.0
 11
32.4229610191
 21
-33.4028038213
 31
0.0
 40
0.4140837726
 41
-1.0942214159
 42
-1.0847362076
  0
ELLIPSE
  5
65F
100
AcDbEntity
  8
0
100
AcDbEllipse
 62
7
  6
CONTINUOUS
 10
57.763718119
 20
46.2893607494
 30
0.0
 11
-8.737510593
 21
35.949325922
 31
0.0
 40
0.2185337797
 41
-3.920919629
 42
-3.9067039344
  0
ELLIPSE
  5
660
100
AcDbEntity
  8
0
100
AcDbEllipse
 62
7
  6
CONTINUOUS
 10
59.950228226
 20
46.2893607494
 30
0.0
 11
-10.1286257205
 21
35.914021326
 31
0.0
 40
0.2455000786
 41
-4.1074584943
 42
-4.0079380848
  0
ELLIPSE
  5
661
100
AcDbEntity
  8
0
100
AcDbEllipse
 62
7
  6
CONTINUOUS
 10
58.6248312666
 20
46.2893607494
 30
0.0
 11
69.9274640838
 21
28.4868368738
 31
0.0
 40
0.3147742283
 41
-1.7054243475
 42
-1.6959680222
  0
ELLIPSE
  5
662
100
AcDbEntity
  8
0
100
AcDbEllipse
 62
7
  6
CONTINUOUS
 10
58.3123310282
 20
46.2893607494
 30
0.0
 11
22.7014611153
 21
34.904783603
 31
0.0
 40
0.3881806888
 41
-2.1349039543
 42
-2.1159885547
  0
ELLIPSE
  5
663
100
AcDbEntity
  8
0
100
AcDbEllipse
 62
7
  6
CONTINUOUS
 10
57.9303871665
 20
46.2893607494
 30
0.0
 11
8.737510593
 21
35.949325922
 31
0.0
 40
0.2185337797
 41
-2.3433295029
 42
-2.3291372127
  0
ELLIPSE
  5
664
100
AcDbEntity
  8
0
100
AcDbEllipse
 62
7
  6
CONTINUOUS
 10
70.2914976551
 20
46.2893607494
 30
0.0
 11
-8.6931604932
 21
34.9464416936
 31
0.0
 40
0.222647864
 41
-4.0968554041
 42
-3.8677834576
  0
ELLIPSE
  5
665
100
AcDbEntity
  8
0
100
AcDbEllipse
 62
7
  6
CONTINUOUS
 10
70.2914976551
 20
46.2893607494
 30
0.0
 11
-8.9415365073
 21
35.9449114563
 31
0.0
 40
0.222647864
 41
-4.0936604452
 42
-3.8709784165
  0
ELLIPSE
  5
666
100
AcDbEntity
  8
0
100
AcDbEllipse
 62
7
  6
CONTINUOUS
 10
66.2914977743
 20
46.2893607494
 30
0.0
 11
8.9415356293
 21
35.9449114758
 31
0.0
 40
0.2226478464
 41
-2.4122069005
 42
-2.1895248718
  0
ELLIPSE
  5
667
100
AcDbEntity
  8
0
100
AcDbEllipse
 62
7
  6
CONTINUOUS
 10
207.7343773889
 20
34.7893607494
 30
0.0
 11
89.5937606804
 21
0.0
 31
0.0
 40
0.3404254913
 41
1.5692981555
 42
1.5707963268
  0
ELLIPSE
  5
668
100
AcDbEntity
  8
0
100
AcDbEllipse
 62
7
  6
CONTINUOUS
 10
96.4961638992
 20
57.7893607494
 30
0.0
 11
89.5937606804
 21
-0.0
 31
0.0
 40
0.3404254913
 41
-1.5722944981
 42
-1.5707963268
  0
ELLIPSE
  5
669
100
AcDbEntity
  8
0
100
AcDbEllipse
 62
7
  6
CONTINUOUS
 10
188.6448893822
 20
34.7893607494
 30
0.0
 11
149.3230483917
 21
0.0
 31
0.0
 40
0.204255139
 41
1.5413901895
 42
1.5469729196
  0
ELLIPSE
  5
66A
100
AcDbEntity
  8
0
100
AcDbEllipse
 62
7
  6
CONTINUOUS
 10
97.9771491312
 20
57.7893607494
 30
0.0
 11
39.1666619976
 21
-0.0
 31
0.0
 40
0.7659575381
 41
-1.5950168678
 42
-1.5779932873
  0
ELLIPSE
  5
66B
100
AcDbEntity
  8
0
100
AcDbEllipse
 62
7
  6
CONTINUOUS
 10
100.5856493938
 20
57.7893607494
 30
0.0
 11
146.8750455231
 21
-0.0
 31
0.0
 40
0.2042552558
 41
-1.6006927113
 42
-1.5950168678
  0
ELLIPSE
  5
66C
100
AcDbEntity
  8
0
100
AcDbEllipse
 62
7
  6
CONTINUOUS
 10
113.4514210878
 20
57.7893607494
 30
0.0
 11
58.7499509752
 21
-0.0
 31
0.0
 40
0.510638724
 41
-1.5950168678
 42
-1.5836673388
  0
ELLIPSE
  5
66D
100
AcDbEntity
  8
0
100
AcDbEllipse
 62
7
  6
CONTINUOUS
 10
203.6448918944
 20
34.7893607494
 30
0.0
 11
149.3229629484
 21
0.0
 31
0.0
 40
0.2042552558
 41
1.5413901895
 42
1.5469729196
  0
ELLIPSE
  5
66E
100
AcDbEntity
  8
0
100
AcDbEllipse
 62
7
  6
CONTINUOUS
 10
115.5856519059
 20
57.7893607494
 30
0.0
 11
146.8751295656
 21
-0.0
 31
0.0
 40
0.204255139
 41
-1.6006927113
 42
-1.5950168678
  0
ELLIPSE
  5
66F
100
AcDbEntity
  8
0
100
AcDbEllipse
 62
7
  6
CONTINUOUS
 10
206.2533921569
 20
34.7893607494
 30
0.0
 11
39.1666619976
 21
0.0
 31
0.0
 40
0.7659575381
 41
1.5465757858
 42
1.5635993663
  0
ELLIPSE
  5
670
100
AcDbEntity
  8
0
100
AcDbEllipse
 62
7
  6
CONTINUOUS
 10
203.6448918944
 20
34.7893607494
 30
0.0
 11
146.8750455231
 21
0.0
 31
0.0
 40
0.2042552558
 41
1.5408999423
 42
1.5465757858
  0
ELLIPSE
  5
671
100
AcDbEntity
  8
0
100
AcDbEllipse
 62
7
  6
CONTINUOUS
 10
190.7791202003
 20
34.7893607494
 30
0.0
 11
58.7499509752
 21
0.0
 31
0.0
 40
0.510638724
 41
1.5465757858
 42
1.5579253148
  0
ELLIPSE
  5
672
100
AcDbEntity
  8
0
100
AcDbEllipse
 62
7
  6
CONTINUOUS
 10
188.6448893822
 20
34.7893607494
 30
0.0
 11
146.8751295656
 21
0.0
 31
0.0
 40
0.204255139
 41
1.5408999423
 42
1.5465757858
  0
ELLIPSE
  5
673
100
AcDbEntity
  8
0
100
AcDbEllipse
 62
7
  6
CONTINUOUS
 10
115.5856519059
 20
57.7893607494
 30
0.0
 11
149.3230483917
 21
-0.0
 31
0.0
 40
0.204255139
 41
-1.6002024641
 42
-1.594619734
  0
ELLIPSE
  5
674
100
AcDbEntity
  8
0
100
AcDbEllipse
 62
7
  6
CONTINUOUS
 10
100.5856493938
 20
57.7893607494
 30
0.0
 11
149.3229629484
 21
-0.0
 31
0.0
 40
0.2042552558
 41
-1.6002024641
 42
-1.594619734
  0
ELLIPSE
  5
675
100
AcDbEntity
  8
0
100
AcDbEllipse
 62
7
  6
CONTINUOUS
 10
206.3767139572
 20
34.7893607494
 30
0.0
 11
-0.0
 21
30.0
 31
0.0
 40
0.7343750875
 41
-0.0071969605
 42
-0.0
  0
ELLIPSE
  5
676
100
AcDbEntity
  8
0
100
AcDbEllipse
 62
7
  6
CONTINUOUS
 10
191.1571954222
 20
34.7893607494
 30
0.0
 11
0.0
 21
30.0
 31
0.0
 40
0.9791658496
 41
-0.012871012
 42
0.0
  0
ELLIPSE
  5
677
100
AcDbEntity
  8
0
100
AcDbEllipse
 62
7
  6
CONTINUOUS
 10
206.3767139572
 20
34.7893607494
 30
0.0
 11
-0.0
 21
30.5
 31
0.0
 40
0.7343750875
 41
-0.0070789756
 42
0.0
  0
ELLIPSE
  5
678
100
AcDbEntity
  8
0
100
AcDbEllipse
 62
7
  6
CONTINUOUS
 10
97.8538273309
 20
57.7893607494
 30
0.0
 11
-0.0
 21
30.0
 31
0.0
 40
0.7343750875
 41
-3.1487896141
 42
-3.1415926536
  0
ELLIPSE
  5
679
100
AcDbEntity
  8
0
100
AcDbEllipse
 62
7
  6
CONTINUOUS
 10
113.0733458659
 20
57.7893607494
 30
0.0
 11
0.0
 21
30.0
 31
0.0
 40
0.9791658496
 41
-3.1544636656
 42
-3.1415926536
  0
ELLIPSE
  5
67A
100
AcDbEntity
  8
0
100
AcDbEllipse
 62
7
  6
CONTINUOUS
 10
97.8538273309
 20
57.7893607494
 30
0.0
 11
0.0
 21
30.5
 31
0.0
 40
0.7343750875
 41
-3.1486716292
 42
-3.1415926536
  0
ENDSEC
  0
SECTION
  2
OBJECTS
  0
DICTIONARY
  5
C
100
AcDbDictionary
280
0
281
1
  3
ACAD_GROUP
350
D
  3
ACAD_MLINESTYLE
350
17
  3
ACAD_LAYOUT
350
1A
  3
ACAD_PLOTSETTINGS
350
19
  3
ACAD_PLOTSTYLENAME
350
E
  0
DICTIONARY
  5
D
102
{ACAD_REACTORS
330
C
102
}
100
AcDbDictionary
280
0
281
1
  0
ACDBDICTIONARYWDFLT
  5
E
102
{ACAD_REACTORS
330
C
102
}
100
AcDbDictionary
281
1
  3
Normal
350
F
100
AcDbDictionaryWithDefault
340
F
  0
DICTIONARY
  5
17
102
{ACAD_REACTORS
330
C
102
}
100
AcDbDictionary
280
0
281
1
  3
Standard
350
18
  0
DICTIONARY
  5
19
102
{ACAD_REACTORS
330
C
102
}
100
AcDbDictionary
281
1
  0
DICTIONARY
  5
1A
102
{ACAD_REACTORS
330
C
102
}
100
AcDbDictionary
281
1
  3
Model
350
67B
  3
Layout1
350
67C
  0
ACDBPLACEHOLDER
  5
F
102
{ACAD_REACTORS
330
E
102
}
  0
MLINESTYLE
  5
18
102
{ACAD_REACTORS
330
17
102
}
100
AcDbMlineStyle
  2
STANDARD
 70
0
  3

 62
256
 51
90.0
 52
90.0
 71
2
 49
0.5
 62
256
  6
BYLAYER
 49
-0.5
 62
256
  6
BYLAYER
  0
LAYOUT
  5
67B
102
{ACAD_REACTORS
330
1A
102
}
100
AcDbPlotSettings
  1

  2
none_device
  4
ISO_A3_(420.00_x_297.00_MM)
  6

 40
0.0
 41
0.0
 42
0.0
 43
0.0
 44
420.0
 45
297.0
 46
0.0
 47
0.0
 48
0.0
 49
0.0
140
0.0
141
0.0
142
1.0
143
1.0
 70
1024
 72
1
 73
0
 74
0
  7

 75
0
147
1.0
148
0.0
149
0.0
100
AcDbLayout
  1
Model
 70
0
 71
0
 10
0.0
 20
0.0
 11
420.0
 21
297.0
 12
0.0
 22
0.0
 32
0.0
 14
0.0
 24
0.0
 34
0.0
 15
0.0
 25
0.0
 35
0.0
146
0.0
 13
0.0
 23
0.0
 33
0.0
 16
1.0
 26
0.0
 36
0.0
 17
0.0
 27
1.0
 37
0.0
 76
0
330
210
345
0
346
0
  0
LAYOUT
  5
67C
102
{ACAD_REACTORS
330
1A
102
}
100
AcDbPlotSettings
  1

  2
none_device
  4
ISO_A3_(420.00_x_297.00_MM)
  6

 40
0.0
 41
0.0
 42
0.0
 43
0.0
 44
420.0
 45
297.0
 46
0.0
 47
0.0
 48
0.0
 49
0.0
140
0.0
141
0.0
142
1.0
143
1.0
 70
0
 72
1
 73
0
 74
0
  7

 75
0
147
1.0
148
0.0
149
0.0
100
AcDbLayout
  1
Layout1
 70
0
 71
1
 10
0.0
 20
0.0
 11
420.0
 21
297.0
 12
0.0
 22
0.0
 32
0.0
 14
0.0
 24
0.0
 34
0.0
 15
0.0
 25
0.0
 35
0.0
146
0.0
 13
0.0
 23
0.0
 33
0.0
 16
1.0
 26
0.0
 36
0.0
 17
0.0
 27
1.0
 37
0.0
 76
0
330
211
345
0
346
0
  0
ENDSEC
  0
EOF
