999
DXF file: VRBK-FIX-10t-7902256-M34421-P-1.dxf
999
Pro/ENGINEER 2011490 by Parametric Technology Corporation
  0
SECTION
  2
HEADER
  9
$ACADVER
  1
AC1015
  9
$DWGCODEPAGE
  3
ANSI_1252
  9
$EXTMAX
 10
420.0
 20
297.0
 30
0.0
  9
$EXTMIN
 10
0.0
 20
0.0
 30
0.0
  9
$LIMMIN
 10
0.0
 20
0.0
  9
$LIMMAX
 10
420.0
 20
297.0
  9
$VIEWCTR
 10
210.0
 20
148.5
  9
$VIEWSIZE
 40
297.0
  9
$CLAYER
  8
0
  9
$LTSCALE
 40
23.1
  9
$CELTYPE
  6
BYLAYER
  9
$DIMSCALE
 40
1.0
  9
$DIMASZ
 40
3.5
  9
$DIMEXO
 40
2.625
  9
$DIMDLI
 40
15.96
  9
$DIMEXE
 40
7.56
  9
$DIMCEN
 40
3.78
  9
$DIMLFAC
 40
1.0
  9
$DIMBLK
  1
_FILLED
  9
$DIMTXT
 40
3.5
  9
$DIMTOL
 70
1
  9
$DIMLIM
 70
0
  9
$DIMTFAC
 40
1.0
  9
$DIMTP
 40
0.005
  9
$DIMTM
 40
0.005
  9
$PDMODE
 70
3
  9
$PDSIZE
 40
0.3125
  9
$HANDSEED
  5
6BF
  9
$TILEMODE
 70
1
  9
$MEASUREMENT
 70
1
  9
$INSUNITS
 70
4
  0
ENDSEC
  0
SECTION
  2
CLASSES
  0
CLASS
  1
ACDBDICTIONARYWDFLT
  2
AcDbDictionaryWithDefault
  3
AutoCAD 2000
 90
0
280
0
281
0
  0
CLASS
  1
ACDBPLACEHOLDER
  2
AcDbPlaceHolder
  3
AutoCAD 2000
 90
0
280
0
281
0
  0
CLASS
  1
LAYOUT
  2
AcDbLayout
  3
AutoCAD 2000
 90
0
280
0
281
0
  0
ENDSEC
  0
SECTION
  2
TABLES
  0
TABLE
  2
VPORT
  5
8
100
AcDbSymbolTable
 70
2
  0
VPORT
  5
1F4
100
AcDbSymbolTableRecord
100
AcDbViewportTableRecord
  2
*ACTIVE
 70
0
 10
0.0
 20
0.0
 11
1.0
 21
1.0
 12
210.0
 22
148.5
 13
0.0
 23
0.0
 14
1.0
 24
1.0
 15
0.0
 25
0.0
 16
0.0
 26
0.0
 36
1.0
 17
0.0
 27
0.0
 37
0.0
 40
297.0
 41
1.4141414141
 42
50.0
 43
0.0
 44
0.0
 50
0.0
 51
0.0
 71
0
 72
100
 73
1
 74
1
 75
0
 76
0
 77
0
 78
0
  0
ENDTAB
  0
TABLE
  2
LTYPE
  5
5
100
AcDbSymbolTable
 70
6
  0
LTYPE
  5
14
100
AcDbSymbolTableRecord
100
AcDbLinetypeTableRecord
  2
BYBLOCK
 70
0
  3

 72
65
 73
0
 40
0.0
  0
LTYPE
  5
15
100
AcDbSymbolTableRecord
100
AcDbLinetypeTableRecord
  2
BYLAYER
 70
0
  3

 72
65
 73
0
 40
0.0
  0
LTYPE
  5
16
100
AcDbSymbolTableRecord
100
AcDbLinetypeTableRecord
  2
CONTINUOUS
 70
64
  3
Solid line
 72
65
 73
0
 40
0.0
  0
LTYPE
  5
1F5
100
AcDbSymbolTableRecord
100
AcDbLinetypeTableRecord
  2
CENTER
 70
64
  3
____ _ ____ _ ____ _ ____ _ ____ _ ____ _ ____
 72
65
 73
4
 40
0.6
 49
0.375
 74
0
 49
-0.075
 74
0
 49
0.075
 74
0
 49
-0.075
 74
0
  0
LTYPE
  5
1F6
100
AcDbSymbolTableRecord
100
AcDbLinetypeTableRecord
  2
HIDDEN
 70
64
  3
- - - - - - - - - - - - - - - - - - - -
 72
65
 73
2
 40
0.2
 49
0.1
 74
0
 49
-0.1
 74
0
  0
LTYPE
  5
1F7
100
AcDbSymbolTableRecord
100
AcDbLinetypeTableRecord
  2
PHANTOM
 70
64
  3
_____ _ _ _____ _ _ _____ _ _ _____
 72
65
 73
6
 40
0.8
 49
0.45
 74
0
 49
-0.05
 74
0
 49
0.1
 74
0
 49
-0.05
 74
0
 49
0.1
 74
0
 49
-0.05
 74
0
  0
LTYPE
  5
1F8
100
AcDbSymbolTableRecord
100
AcDbLinetypeTableRecord
  2
DOT
 70
64
  3
. . . . . . . . . . . . . . . . . . . .
 72
65
 73
2
 40
0.2
 49
0.1
 74
0
 49
-0.1
 74
0
  0
LTYPE
  5
1F9
100
AcDbSymbolTableRecord
100
AcDbLinetypeTableRecord
  2
DASHED
 70
64
  3
- - - - - - - - - - - - - - - - - - - -
 72
65
 73
2
 40
0.2
 49
0.1
 74
0
 49
-0.1
 74
0
  0
ENDTAB
  0
TABLE
  2
LAYER
  5
2
100
AcDbSymbolTable
 70
36
  0
LAYER
  5
10
100
AcDbSymbolTableRecord
100
AcDbLayerTableRecord
  2
0
 70
0
 62
7
  6
CONTINUOUS
370
-3
390
F
  0
LAYER
  5
1FA
100
AcDbSymbolTableRecord
100
AcDbLayerTableRecord
  2
DEFAULT_1
 70
0
 62
7
  6
CENTER
370
-3
390
F
  0
LAYER
  5
1FB
100
AcDbSymbolTableRecord
100
AcDbLayerTableRecord
  2
DEFAULT_2
 70
0
 62
8
  6
HIDDEN
370
-3
390
F
  0
LAYER
  5
1FC
100
AcDbSymbolTableRecord
100
AcDbLayerTableRecord
  2
DEFAULT_3
 70
0
 62
7
  6
PHANTOM
370
-3
390
F
  0
LAYER
  5
1FD
100
AcDbSymbolTableRecord
100
AcDbLayerTableRecord
  2
AUSFORMSCHRAEGEN
 70
0
 62
7
  6
CONTINUOUS
370
-3
390
F
  0
LAYER
  5
1FE
100
AcDbSymbolTableRecord
100
AcDbLayerTableRecord
  2
BEZUGSACHSEN
 70
0
 62
7
  6
CONTINUOUS
370
-3
390
F
  0
LAYER
  5
1FF
100
AcDbSymbolTableRecord
100
AcDbLayerTableRecord
  2
BEZUGSEBENEN
 70
0
 62
7
  6
CONTINUOUS
370
-3
390
F
  0
LAYER
  5
200
100
AcDbSymbolTableRecord
100
AcDbLayerTableRecord
  2
BG_STARTBEZUEGE
 70
0
 62
7
  6
CONTINUOUS
370
-3
390
F
  0
LAYER
  5
201
100
AcDbSymbolTableRecord
100
AcDbLayerTableRecord
  2
FASEN
 70
0
 62
7
  6
CONTINUOUS
370
-3
390
F
  0
LAYER
  5
202
100
AcDbSymbolTableRecord
100
AcDbLayerTableRecord
  2
FLAECHEN
 70
0
 62
7
  6
CONTINUOUS
370
-3
390
F
  0
LAYER
  5
203
100
AcDbSymbolTableRecord
100
AcDbLayerTableRecord
  2
FLAECHENVERBUND
 70
0
 62
7
  6
CONTINUOUS
370
-3
390
F
  0
LAYER
  5
204
100
AcDbSymbolTableRecord
100
AcDbLayerTableRecord
  2
HILFEN
 70
0
 62
7
  6
CONTINUOUS
370
-3
390
F
  0
LAYER
  5
205
100
AcDbSymbolTableRecord
100
AcDbLayerTableRecord
  2
KONSTRUKTIONSELEMENTE
 70
0
 62
7
  6
CONTINUOUS
370
-3
390
F
  0
LAYER
  5
206
100
AcDbSymbolTableRecord
100
AcDbLayerTableRecord
  2
KURVEN
 70
0
 62
7
  6
CONTINUOUS
370
-3
390
F
  0
LAYER
  5
207
100
AcDbSymbolTableRecord
100
AcDbLayerTableRecord
  2
NORM
 70
0
 62
7
  6
CONTINUOUS
370
-3
390
F
  0
LAYER
  5
208
100
AcDbSymbolTableRecord
100
AcDbLayerTableRecord
  2
PLATZIERUNG
 70
0
 62
7
  6
CONTINUOUS
370
-3
390
F
  0
LAYER
  5
209
100
AcDbSymbolTableRecord
100
AcDbLayerTableRecord
  2
RUNDUNGEN
 70
0
 62
7
  6
CONTINUOUS
370
-3
390
F
  0
LAYER
  5
20A
100
AcDbSymbolTableRecord
100
AcDbLayerTableRecord
  2
TEIL_STARTBEZUEGE
 70
0
 62
7
  6
CONTINUOUS
370
-3
390
F
  0
LAYER
  5
20B
100
AcDbSymbolTableRecord
100
AcDbLayerTableRecord
  2
T_STARTBEZUEGE
 70
0
 62
7
  6
CONTINUOUS
370
-3
390
F
  0
LAYER
  5
20C
100
AcDbSymbolTableRecord
100
AcDbLayerTableRecord
  2
XSEC_DATUMS
 70
0
 62
7
  6
CONTINUOUS
370
-3
390
F
  0
ENDTAB
  0
TABLE
  2
STYLE
  5
3
100
AcDbSymbolTable
 70
1
  0
STYLE
  5
11
100
AcDbSymbolTableRecord
100
AcDbTextStyleTableRecord
  2
STANDARD
 70
0
 40
0.0
 41
0.7
 50
0.0
 71
0
 42
0.2
  3
txt
  4

  0
STYLE
  5
20D
100
AcDbSymbolTableRecord
100
AcDbTextStyleTableRecord
  2
TEXTSTYLE_1
 70
0
 40
0.0
 41
0.8
 50
0.0
 71
0
 42
0.2
  3
gdt
  4

  0
ENDTAB
  0
TABLE
  2
VIEW
  5
6
100
AcDbSymbolTable
 70
0
  0
ENDTAB
  0
TABLE
  2
UCS
  5
7
100
AcDbSymbolTable
 70
0
  0
ENDTAB
  0
TABLE
  2
APPID
  5
9
100
AcDbSymbolTable
 70
1
  0
APPID
  5
20E
100
AcDbSymbolTableRecord
100
AcDbRegAppTableRecord
  2
ACAD
 70
0
  0
ENDTAB
  0
TABLE
  2
BLOCK_RECORD
  5
1
100
AcDbSymbolTable
 70
0
  0
BLOCK_RECORD
  5
20F
100
AcDbSymbolTableRecord
100
AcDbBlockTableRecord
  2
*Model_Space
  0
BLOCK_RECORD
  5
210
100
AcDbSymbolTableRecord
100
AcDbBlockTableRecord
  2
*Paper_Space
  0
ENDTAB
  0
TABLE
  2
DIMSTYLE
  5
A
100
AcDbSymbolTable
 70
1
100
AcDbDimStyleTable
 71
0
  0
DIMSTYLE
105
211
100
AcDbSymbolTableRecord
100
AcDbDimStyleTableRecord
  2
STANDARD
 70
0
  3

  4

 40
1.0
 41
3.5
 42
0.0625
 43
0.38
 44
0.18
 45
0.0
 46
0.0
 47
0.005
 48
0.005
140
3.5
141
0.09
142
0.0
143
25.4
144
1.0
145
0.0
146
1.0
147
0.09
 71
1.0
 72
0.0
 73
0
 74
0
 75
0
 76
0
 77
1
 78
8
170
0
171
2
172
0
173
0
174
0
175
0
176
0
177
0
178
5
270
2
271
3
272
3
273
2
274
2
275
0
280
0
281
0
282
0
283
1
284
8
285
0
286
0
287
3
288
0
340
11
  0
ENDTAB
  0
ENDSEC
  0
SECTION
  2
BLOCKS
  0
BLOCK
  5
20
100
AcDbEntity
  8
0
100
AcDbBlockBegin
  2
*Model_Space
 70
0
 10
0.0
 20
0.0
 30
0.0
  3
*Model_Space
  1

  0
ENDBLK
  5
21
100
AcDbEntity
  8
0
100
AcDbBlockEnd
  0
BLOCK
  5
1C
100
AcDbEntity
  8
0
100
AcDbBlockBegin
  2
*Paper_Space
 70
0
 10
0.0
 20
0.0
 30
0.0
  3
*Paper_Space
  1

  0
ENDBLK
  5
1D
100
AcDbEntity
  8
0
100
AcDbBlockEnd
  0
ENDSEC
  0
SECTION
  2
ENTITIES
  0
MTEXT
  5
212
100
AcDbEntity
  8
0
100
AcDbMText
 62
5
  6
CONTINUOUS
  7
STANDARD
 71
1
 72
1
 10
127.7243783907
 20
279.0404884643
 30
0.0
 11
1.0
 21
0.0
 31
0.0
 44
0.9
  1
-FIX
 40
5.0
 41
15.5952380952
  0
MTEXT
  5
213
100
AcDbEntity
  8
0
100
AcDbMText
 62
5
  6
CONTINUOUS
  7
STANDARD
 71
1
 72
1
 10
108.7037185083
 20
271.6909694239
 30
0.0
 11
0.906307787
 21
0.4226182617
 31
0.0
 44
0.9
  1
VRBK
 40
5.0
 41
16.9047619048
  0
MTEXT
  5
214
100
AcDbEntity
  8
0
100
AcDbMText
 62
5
  6
CONTINUOUS
  7
STANDARD
 71
1
 72
1
 10
148.5517678809
 20
277.6978343848
 30
0.0
 11
0.906307787
 21
-0.4226182617
 31
0.0
 44
0.9
  1
10t
 40
5.0
 41
10.5952380952
  0
MTEXT
  5
215
100
AcDbEntity
  8
0
100
AcDbMText
 62
5
  6
CONTINUOUS
  7
STANDARD
 71
1
 72
1
 10
335.1289918716
 20
224.290063993
 30
0.0
 11
0.0
 21
1.0
 31
0.0
 44
0.9
  1
RUD VRBK-FIX 10t
 40
4.5
 41
55.2857142857
  0
MTEXT
  5
216
100
AcDbEntity
  8
0
100
AcDbMText
 62
5
  6
CONTINUOUS
  7
STANDARD
 71
1
 72
1
 10
108.5656196069
 20
39.1772776554
 30
0.0
 11
1.0
 21
0.0
 31
0.0
 44
0.9
  1
RUD VRBK-FIX 10t
 40
5.0
 41
61.4285714286
  0
LINE
  5
217
100
AcDbEntity
  8
0
100
AcDbLine
 62
7
  6
CONTINUOUS
 10
0.0
 20
0.0
 11
0.0
 21
297.0
  0
LINE
  5
218
100
AcDbEntity
  8
0
100
AcDbLine
 62
7
  6
CONTINUOUS
 10
0.0
 20
0.0
 11
420.0
 21
0.0
  0
LINE
  5
219
100
AcDbEntity
  8
0
100
AcDbLine
 62
7
  6
CONTINUOUS
 10
0.0
 20
297.0
 11
420.0
 21
297.0
  0
LINE
  5
21A
100
AcDbEntity
  8
0
100
AcDbLine
 62
7
  6
CONTINUOUS
 10
420.0
 20
0.0
 11
420.0
 21
297.0
  0
LINE
  5
21B
100
AcDbEntity
  8
KONSTRUKTIONSELEMENTE
100
AcDbLine
 62
7
  6
CONTINUOUS
 10
28.7807041062
 20
189.2955975059
 11
28.7807041062
 21
181.7692302851
  0
LINE
  5
21C
100
AcDbEntity
  8
0
100
AcDbLine
 62
7
  6
CONTINUOUS
 10
28.7807041062
 20
145.0042499134
 11
28.7807041062
 21
137.4778826926
  0
LWPOLYLINE
  5
21D
100
AcDbEntity
  8
KONSTRUKTIONSELEMENTE
100
AcDbPolyline
 62
7
  6
CONTINUOUS
 90
9
 70
0
 10
32.654929836
 20
180.2869834004
 10
32.6521828285
 20
180.2977059688
 10
32.640336767
 20
180.3485793154
 10
32.6385379752
 20
180.3574891423
 10
32.6431100452
 20
180.3273896728
 10
32.6511598654
 20
180.2630098249
 10
32.661034523
 20
180.1650897199
 10
32.6712300519
 20
180.0362431316
 10
32.6809020862
 20
179.8740282037
  0
LWPOLYLINE
  5
21E
100
AcDbEntity
  8
KONSTRUKTIONSELEMENTE
100
AcDbPolyline
 62
7
  6
CONTINUOUS
 90
3
 70
0
 10
32.6809020862
 20
179.8740282037
 10
32.6891762176
 20
179.6769062069
 10
32.6952229816
 20
179.4420078476
  0
LWPOLYLINE
  5
21F
100
AcDbEntity
  8
KONSTRUKTIONSELEMENTE
100
AcDbPolyline
 62
7
  6
CONTINUOUS
 90
3
 70
0
 10
32.6952229816
 20
179.4420078476
 10
32.6980862387
 20
179.1657643016
 10
32.6981908529
 20
179.0964570608
  0
LINE
  5
220
100
AcDbEntity
  8
0
100
AcDbLine
 62
7
  6
CONTINUOUS
 10
32.6981908529
 20
179.0964570608
 11
32.6981909769
 21
179.0958367963
  0
LWPOLYLINE
  5
221
100
AcDbEntity
  8
0
100
AcDbPolyline
 62
7
  6
CONTINUOUS
 90
10
 70
0
 10
32.6981909769
 20
179.0958367963
 10
32.6972191114
 20
178.8846057338
 10
32.6878865176
 20
178.3808749778
 10
32.6681525511
 20
177.8217528524
 10
32.6374243514
 20
177.2125217585
 10
32.5954244701
 20
176.5582308413
 10
32.5418709296
 20
175.8640070505
 10
32.4768240839
 20
175.1356434143
 10
32.4003570186
 20
174.3788982484
 10
32.3127183854
 20
173.5998679428
  0
LINE
  5
222
100
AcDbEntity
  8
0
100
AcDbLine
 62
7
  6
CONTINUOUS
 10
28.8123978616
 20
145.514611538
 11
32.3127183854
 21
173.5998679428
  0
LINE
  5
223
100
AcDbEntity
  8
RUNDUNGEN
100
AcDbLine
 62
7
  6
CONTINUOUS
 10
38.276979066
 20
214.1161828916
 11
31.4124241836
 21
196.2449788871
  0
LINE
  5
224
100
AcDbEntity
  8
RUNDUNGEN
100
AcDbLine
 62
7
  6
CONTINUOUS
 10
31.4124241836
 20
196.2449788871
 11
28.8137039236
 21
189.479886839
  0
LINE
  5
225
100
AcDbEntity
  8
0
100
AcDbLine
 62
7
  6
CONTINUOUS
 10
56.0029071228
 20
209.6935510184
 11
56.0029071228
 21
210.120889688
  0
LINE
  5
226
100
AcDbEntity
  8
0
100
AcDbLine
 62
7
  6
CONTINUOUS
 10
56.0029071228
 20
213.2290849244
 11
56.0029071228
 21
213.6564235939
  0
LINE
  5
227
100
AcDbEntity
  8
KONSTRUKTIONSELEMENTE
100
AcDbLine
 62
7
  6
CONTINUOUS
 10
239.9084975309
 20
133.6133708301
 11
198.2027011506
 21
128.4134084667
  0
LINE
  5
228
100
AcDbEntity
  8
0
100
AcDbLine
 62
7
  6
CONTINUOUS
 10
71.2614456336
 20
128.4134084667
 11
29.5556492534
 21
133.6133708301
  0
LINE
  5
229
100
AcDbEntity
  8
0
100
AcDbLine
 62
7
  6
CONTINUOUS
 10
56.8362396614
 20
209.6935510184
 11
56.8362396614
 21
210.120889688
  0
LINE
  5
22A
100
AcDbEntity
  8
0
100
AcDbLine
 62
7
  6
CONTINUOUS
 10
59.1279071228
 20
213.6564235939
 11
59.1279071228
 21
212.4528376215
  0
LINE
  5
22B
100
AcDbEntity
  8
0
100
AcDbLine
 62
7
  6
CONTINUOUS
 10
59.1279071228
 20
209.6935510184
 11
59.1279071228
 21
211.8510445826
  0
LINE
  5
22C
100
AcDbEntity
  8
0
100
AcDbLine
 62
7
  6
CONTINUOUS
 10
59.7529071228
 20
209.6935510184
 11
59.7529071228
 21
213.6564235939
  0
LINE
  5
22D
100
AcDbEntity
  8
0
100
AcDbLine
 62
7
  6
CONTINUOUS
 10
60.5862396614
 20
210.5739513128
 11
60.5862396614
 21
211.2492516491
  0
LINE
  5
22E
100
AcDbEntity
  8
0
100
AcDbLine
 62
7
  6
CONTINUOUS
 10
60.5862396614
 20
212.0917804966
 11
60.5862396614
 21
212.828958205
  0
LINE
  5
22F
100
AcDbEntity
  8
0
100
AcDbLine
 62
7
  6
CONTINUOUS
 10
60.6904071228
 20
210.3370613784
 11
60.6904071228
 21
210.7226826215
  0
LINE
  5
230
100
AcDbEntity
  8
0
100
AcDbLine
 62
7
  6
CONTINUOUS
 10
60.6904071228
 20
211.870910738
 11
60.6904071228
 21
212.2271651661
  0
LINE
  5
231
100
AcDbEntity
  8
0
100
AcDbLine
 62
7
  6
CONTINUOUS
 10
61.0029071228
 20
210.0174557248
 11
61.0029071228
 21
210.4217861548
  0
LINE
  5
232
100
AcDbEntity
  8
0
100
AcDbLine
 62
7
  6
CONTINUOUS
 10
61.0029071228
 20
211.7758204659
 11
61.0029071228
 21
211.9262686993
  0
LINE
  5
233
100
AcDbEntity
  8
0
100
AcDbLine
 62
7
  6
CONTINUOUS
 10
61.2112396614
 20
211.023579299
 11
61.2112396614
 21
211.1740275324
  0
LINE
  5
234
100
AcDbEntity
  8
0
100
AcDbLine
 62
7
  6
CONTINUOUS
 10
61.2112396614
 20
212.5280617382
 11
61.2112396614
 21
212.7537340883
  0
LINE
  5
235
100
AcDbEntity
  8
0
100
AcDbLine
 62
7
  6
CONTINUOUS
 10
61.3154071228
 20
211.040510604
 11
61.3154071228
 21
211.3996998825
  0
LINE
  5
236
100
AcDbEntity
  8
0
100
AcDbLine
 62
7
  6
CONTINUOUS
 10
61.3154071228
 20
212.5977921625
 11
61.3154071228
 21
212.9794064384
  0
LINE
  5
237
100
AcDbEntity
  8
0
100
AcDbLine
 62
7
  6
CONTINUOUS
 10
61.4195733921
 20
209.7749309539
 11
61.4195733921
 21
210.1961138047
  0
LINE
  5
238
100
AcDbEntity
  8
0
100
AcDbLine
 62
7
  6
CONTINUOUS
 10
61.5237396614
 20
211.1938936877
 11
61.5237396614
 21
211.5501481159
  0
LINE
  5
239
100
AcDbEntity
  8
0
100
AcDbLine
 62
7
  6
CONTINUOUS
 10
61.5237396614
 20
212.739958556
 11
61.5237396614
 21
213.1298547244
  0
LINE
  5
23A
100
AcDbEntity
  8
0
100
AcDbLine
 62
7
  6
CONTINUOUS
 10
61.8362396614
 20
211.2701849221
 11
61.8362396614
 21
211.6253722326
  0
LINE
  5
23B
100
AcDbEntity
  8
0
100
AcDbLine
 62
7
  6
CONTINUOUS
 10
61.8362396614
 20
212.8106396158
 11
61.8362396614
 21
213.2050788411
  0
LINE
  5
23C
100
AcDbEntity
  8
0
100
AcDbLine
 62
7
  6
CONTINUOUS
 10
61.9404071228
 20
209.6935510184
 11
61.9404071228
 21
210.120889688
  0
LINE
  5
23D
100
AcDbEntity
  8
0
100
AcDbLine
 62
7
  6
CONTINUOUS
 10
63.8154071228
 20
213.2050788411
 11
63.8154071228
 21
212.0767169327
  0
LINE
  5
23E
100
AcDbEntity
  8
0
100
AcDbLine
 62
7
  6
CONTINUOUS
 10
63.8154071228
 20
211.6253722326
 11
63.8154071228
 21
210.5722343882
  0
LINE
  5
23F
100
AcDbEntity
  8
0
100
AcDbLine
 62
7
  6
CONTINUOUS
 10
64.4404065268
 20
209.6935510184
 11
64.4404065268
 21
213.6564235939
  0
LINE
  5
240
100
AcDbEntity
  8
RUNDUNGEN
100
AcDbLine
 62
7
  6
CONTINUOUS
 10
100.2877514064
 20
274.0545945015
 11
132.0532893656
 21
287.2123111403
  0
LINE
  5
241
100
AcDbEntity
  8
0
100
AcDbLine
 62
7
  6
CONTINUOUS
 10
65.2737402575
 20
213.2290849244
 11
65.2737402575
 21
213.6564235939
  0
LINE
  5
242
100
AcDbEntity
  8
0
100
AcDbLine
 62
7
  6
CONTINUOUS
 10
65.3779065268
 20
210.5739513128
 11
65.3779065268
 21
211.2492516491
  0
LINE
  5
243
100
AcDbEntity
  8
0
100
AcDbLine
 62
7
  6
CONTINUOUS
 10
65.4820733921
 20
210.3370613784
 11
65.4820733921
 21
210.7226826215
  0
LINE
  5
244
100
AcDbEntity
  8
0
100
AcDbLine
 62
7
  6
CONTINUOUS
 10
65.7945733921
 20
210.0174557248
 11
65.7945733921
 21
210.4217861548
  0
LINE
  5
245
100
AcDbEntity
  8
0
100
AcDbLine
 62
7
  6
CONTINUOUS
 10
66.0029065268
 20
210.9483549716
 11
66.0029065268
 21
211.1740275324
  0
LINE
  5
246
100
AcDbEntity
  8
0
100
AcDbLine
 62
7
  6
CONTINUOUS
 10
66.1070733921
 20
211.040510604
 11
66.1070733921
 21
211.3996998825
  0
LINE
  5
247
100
AcDbEntity
  8
0
100
AcDbLine
 62
7
  6
CONTINUOUS
 10
66.2112402575
 20
209.7749309539
 11
66.2112402575
 21
210.1961138047
  0
LINE
  5
248
100
AcDbEntity
  8
0
100
AcDbLine
 62
7
  6
CONTINUOUS
 10
66.3154065268
 20
211.1938936877
 11
66.3154065268
 21
211.5501481159
  0
LINE
  5
249
100
AcDbEntity
  8
0
100
AcDbLine
 62
7
  6
CONTINUOUS
 10
66.6279065268
 20
211.2701849221
 11
66.6279065268
 21
211.6253722326
  0
LINE
  5
24A
100
AcDbEntity
  8
0
100
AcDbLine
 62
7
  6
CONTINUOUS
 10
66.7320733921
 20
209.6935510184
 11
66.7320733921
 21
210.120889688
  0
LINE
  5
24B
100
AcDbEntity
  8
0
100
AcDbLine
 62
7
  6
CONTINUOUS
 10
68.6070733921
 20
213.6564235939
 11
68.6070733921
 21
212.0767169327
  0
LINE
  5
24C
100
AcDbEntity
  8
0
100
AcDbLine
 62
7
  6
CONTINUOUS
 10
68.6070733921
 20
211.6253722326
 11
68.6070733921
 21
210.4970102715
  0
LINE
  5
24D
100
AcDbEntity
  8
0
100
AcDbLine
 62
7
  6
CONTINUOUS
 10
69.2320733921
 20
209.6935510184
 11
69.2320733921
 21
213.6564235939
  0
LINE
  5
24E
100
AcDbEntity
  8
0
100
AcDbLine
 62
7
  6
CONTINUOUS
 10
70.0654068248
 20
209.6935510184
 11
70.0654068248
 21
210.120889688
  0
LINE
  5
24F
100
AcDbEntity
  8
0
100
AcDbLine
 62
7
  6
CONTINUOUS
 10
70.6904068248
 20
209.6935510184
 11
70.6904068248
 21
210.120889688
  0
LINE
  5
250
100
AcDbEntity
  8
0
100
AcDbLine
 62
7
  6
CONTINUOUS
 10
72.1487401085
 20
212.8106396158
 11
72.1487401085
 21
213.2050788411
  0
LINE
  5
251
100
AcDbEntity
  8
0
100
AcDbLine
 62
7
  6
CONTINUOUS
 10
73.6070733921
 20
209.6935510184
 11
73.6070733921
 21
210.120889688
  0
LINE
  5
252
100
AcDbEntity
  8
0
100
AcDbLine
 62
7
  6
CONTINUOUS
 10
60.6904071228
 20
213.0546306077
 11
60.5862396614
 21
212.828958205
  0
LINE
  5
253
100
AcDbEntity
  8
0
100
AcDbLine
 62
7
  6
CONTINUOUS
 10
61.2112396614
 20
212.7537340883
 11
61.3154071228
 21
212.9794064384
  0
LINE
  5
254
100
AcDbEntity
  8
0
100
AcDbLine
 62
7
  6
CONTINUOUS
 10
60.6904071228
 20
211.4749239992
 11
60.5862396614
 21
211.2492516491
  0
LINE
  5
255
100
AcDbEntity
  8
0
100
AcDbLine
 62
7
  6
CONTINUOUS
 10
61.2112396614
 20
211.1740275324
 11
61.3154071228
 21
211.3996998825
  0
LINE
  5
256
100
AcDbEntity
  8
0
100
AcDbLine
 62
7
  6
CONTINUOUS
 10
65.4820733921
 20
211.4749239992
 11
65.3779065268
 21
211.2492516491
  0
LINE
  5
257
100
AcDbEntity
  8
0
100
AcDbLine
 62
7
  6
CONTINUOUS
 10
66.0029065268
 20
211.1740275324
 11
66.1070733921
 21
211.3996998825
  0
LWPOLYLINE
  5
258
100
AcDbEntity
  8
RUNDUNGEN
100
AcDbPolyline
 62
7
  6
CONTINUOUS
 90
10
 70
0
 10
41.6954737813
 20
218.513768811
 10
41.0871056268
 20
218.0450133509
 10
40.5444108019
 20
217.5552361192
 10
40.0614016708
 20
217.0496169281
 10
39.6264930853
 20
216.5234736379
 10
39.2435032047
 20
215.9879933432
 10
38.9078565569
 20
215.4448393188
 10
38.6181194789
 20
214.8994659989
 10
38.3716410413
 20
214.3540285176
 10
38.2763752445
 20
214.1146023479
  0
LINE
  5
259
100
AcDbEntity
  8
KONSTRUKTIONSELEMENTE
100
AcDbLine
 62
7
  6
CONTINUOUS
 10
195.1092952356
 20
149.5894275504
 11
199.3510652539
 21
150.1183000141
  0
LINE
  5
25A
100
AcDbEntity
  8
0
100
AcDbLine
 62
7
  6
CONTINUOUS
 10
74.3548515487
 20
149.5894275504
 11
70.1130815303
 21
150.1183000141
  0
LINE
  5
25B
100
AcDbEntity
  8
0
100
AcDbLine
 62
7
  6
CONTINUOUS
 10
60.5862396614
 20
210.9483549716
 11
60.6904071228
 21
210.7226826215
  0
LINE
  5
25C
100
AcDbEntity
  8
0
100
AcDbLine
 62
7
  6
CONTINUOUS
 10
61.3154071228
 20
210.7979067382
 11
61.2112396614
 21
211.023579299
  0
LINE
  5
25D
100
AcDbEntity
  8
0
100
AcDbLine
 62
7
  6
CONTINUOUS
 10
60.5862396614
 20
212.4528376215
 11
60.6904071228
 21
212.2271651661
  0
LINE
  5
25E
100
AcDbEntity
  8
0
100
AcDbLine
 62
7
  6
CONTINUOUS
 10
61.3154071228
 20
212.3023892828
 11
61.2112396614
 21
212.5280617382
  0
LINE
  5
25F
100
AcDbEntity
  8
0
100
AcDbLine
 62
7
  6
CONTINUOUS
 10
65.3779065268
 20
210.9483549716
 11
65.4820733921
 21
210.7226826215
  0
LINE
  5
260
100
AcDbEntity
  8
0
100
AcDbLine
 62
7
  6
CONTINUOUS
 10
66.1070733921
 20
210.7226826215
 11
66.0029065268
 21
210.9483549716
  0
LINE
  5
261
100
AcDbEntity
  8
0
100
AcDbLine
 62
7
  6
CONTINUOUS
 10
74.2320733921
 20
209.6935510184
 11
74.2320733921
 21
210.120889688
  0
LINE
  5
262
100
AcDbEntity
  8
KONSTRUKTIONSELEMENTE
100
AcDbLine
 62
7
  6
CONTINUOUS
 10
80.8398951436
 20
190.3218398291
 11
80.8398951436
 21
218.5529759153
  0
LINE
  5
263
100
AcDbEntity
  8
KONSTRUKTIONSELEMENTE
100
AcDbLine
 62
7
  6
CONTINUOUS
 10
82.7320733921
 20
172.8221680205
 11
82.7320733921
 21
207.821631609
  0
LINE
  5
264
100
AcDbEntity
  8
RUNDUNGEN
100
AcDbLine
 62
7
  6
CONTINUOUS
 10
82.9123978668
 20
237.4643483883
 11
96.4993787054
 21
270.2662218005
  0
LINE
  5
265
100
AcDbEntity
  8
0
100
AcDbLine
 62
7
  6
CONTINUOUS
 10
71.7320733921
 20
213.6564235939
 11
70.0654068248
 21
210.120889688
  0
LINE
  5
266
100
AcDbEntity
  8
0
100
AcDbLine
 62
7
  6
CONTINUOUS
 10
70.6904068248
 20
210.120889688
 11
72.1487401085
 21
213.2050788411
  0
LINE
  5
267
100
AcDbEntity
  8
0
100
AcDbLine
 62
7
  6
CONTINUOUS
 10
61.0029071228
 20
213.3555271008
 11
60.6904071228
 21
213.0546306077
  0
LINE
  5
268
100
AcDbEntity
  8
0
100
AcDbLine
 62
7
  6
CONTINUOUS
 10
61.0029071228
 20
211.7758204659
 11
60.6904071228
 21
211.4749239992
  0
LINE
  5
269
100
AcDbEntity
  8
RUNDUNGEN
100
AcDbLine
 62
7
  6
CONTINUOUS
 10
42.2057026312
 20
218.8520024988
 11
41.6954737813
 21
218.513768811
  0
LINE
  5
26A
100
AcDbEntity
  8
RUNDUNGEN
100
AcDbLine
 62
7
  6
CONTINUOUS
 10
42.209006488
 20
218.8538423981
 11
42.2057518092
 21
218.8518277558
  0
LINE
  5
26B
100
AcDbEntity
  8
0
100
AcDbLine
 62
7
  6
CONTINUOUS
 10
58.3987396614
 20
211.9262686993
 11
56.8362396614
 21
213.6564235939
  0
LINE
  5
26C
100
AcDbEntity
  8
0
100
AcDbLine
 62
7
  6
CONTINUOUS
 10
56.0029071228
 20
213.6564235939
 11
57.8779071228
 21
211.5501481159
  0
LINE
  5
26D
100
AcDbEntity
  8
0
100
AcDbLine
 62
7
  6
CONTINUOUS
 10
65.2737402575
 20
213.6564235939
 11
66.2112402575
 21
211.9262686993
  0
LINE
  5
26E
100
AcDbEntity
  8
0
100
AcDbLine
 62
7
  6
CONTINUOUS
 10
66.8362402575
 20
212.0767169327
 11
66.0029065268
 21
213.6564235939
  0
LINE
  5
26F
100
AcDbEntity
  8
0
100
AcDbLine
 62
7
  6
CONTINUOUS
 10
72.1487401085
 20
213.2050788411
 11
73.6070733921
 21
210.120889688
  0
LINE
  5
270
100
AcDbEntity
  8
0
100
AcDbLine
 62
7
  6
CONTINUOUS
 10
74.2320733921
 20
210.120889688
 11
72.5654066758
 21
213.6564235939
  0
LINE
  5
271
100
AcDbEntity
  8
BEZUGSACHSEN
100
AcDbLine
 62
7
  6
CONTINUOUS
 10
85.0784943251
 20
208.7400136679
 11
85.1926490392
 21
207.6539041137
  0
LINE
  5
272
100
AcDbEntity
  8
RUNDUNGEN
100
AcDbLine
 62
7
  6
CONTINUOUS
 10
85.1926840812
 20
207.6535707119
 11
82.4179013268
 21
234.0538651188
  0
LINE
  5
273
100
AcDbEntity
  8
KONSTRUKTIONSELEMENTE
100
AcDbLine
 62
7
  6
CONTINUOUS
 10
82.7320733921
 20
172.8218998148
 11
75.8948408051
 21
134.0460269477
  0
LINE
  5
274
100
AcDbEntity
  8
0
100
AcDbLine
 62
7
  6
CONTINUOUS
 10
65.7945733921
 20
211.7758204659
 11
65.4820733921
 21
211.4749239992
  0
LINE
  5
275
100
AcDbEntity
  8
0
100
AcDbLine
 62
7
  6
CONTINUOUS
 10
57.8779071228
 20
211.5501481159
 11
56.0029071228
 21
210.120889688
  0
LINE
  5
276
100
AcDbEntity
  8
0
100
AcDbLine
 62
7
  6
CONTINUOUS
 10
56.8362396614
 20
210.120889688
 11
59.1279071228
 21
211.8510445826
  0
LINE
  5
277
100
AcDbEntity
  8
0
100
AcDbLine
 62
7
  6
CONTINUOUS
 10
59.1279071228
 20
212.4528376215
 11
58.3987396614
 21
211.9262686993
  0
LINE
  5
278
100
AcDbEntity
  8
0
100
AcDbLine
 62
7
  6
CONTINUOUS
 10
61.3154071228
 20
212.9794064384
 11
61.5237396614
 21
213.1298547244
  0
LINE
  5
279
100
AcDbEntity
  8
0
100
AcDbLine
 62
7
  6
CONTINUOUS
 10
61.3154071228
 20
211.3996998825
 11
61.5237396614
 21
211.5501481159
  0
LINE
  5
27A
100
AcDbEntity
  8
0
100
AcDbLine
 62
7
  6
CONTINUOUS
 10
60.6904071228
 20
210.7226826215
 11
61.0029071228
 21
210.4217861548
  0
LINE
  5
27B
100
AcDbEntity
  8
0
100
AcDbLine
 62
7
  6
CONTINUOUS
 10
60.6904071228
 20
212.2271651661
 11
61.0029071228
 21
211.9262686993
  0
LINE
  5
27C
100
AcDbEntity
  8
0
100
AcDbLine
 62
7
  6
CONTINUOUS
 10
65.4820733921
 20
210.7226826215
 11
65.7945733921
 21
210.4217861548
  0
LINE
  5
27D
100
AcDbEntity
  8
KONSTRUKTIONSELEMENTE
100
AcDbLine
 62
7
  6
CONTINUOUS
 10
82.7320733921
 20
207.8218998148
 11
80.8398951436
 21
218.5529759153
  0
LINE
  5
27E
100
AcDbEntity
  8
0
100
AcDbLine
 62
7
  6
CONTINUOUS
 10
92.5320733921
 20
195.1018998148
 11
92.5320733921
 21
201.1018998148
  0
LINE
  5
27F
100
AcDbEntity
  8
0
100
AcDbLine
 62
7
  6
CONTINUOUS
 10
93.2820733921
 20
195.1018998148
 11
93.2820733921
 21
197.7827509167
  0
LINE
  5
280
100
AcDbEntity
  8
0
100
AcDbLine
 62
7
  6
CONTINUOUS
 10
93.2820733921
 20
198.5487082722
 11
93.2820733921
 21
200.4636020185
  0
LINE
  5
281
100
AcDbEntity
  8
0
100
AcDbLine
 62
7
  6
CONTINUOUS
 10
96.4070732729
 20
199.697644663
 11
96.4070732729
 21
199.3146656277
  0
LINE
  5
282
100
AcDbEntity
  8
0
100
AcDbLine
 62
7
  6
CONTINUOUS
 10
97.1570732729
 20
199.1870060684
 11
97.1570732729
 21
199.697644663
  0
LINE
  5
283
100
AcDbEntity
  8
0
100
AcDbLine
 62
7
  6
CONTINUOUS
 10
98.2820732729
 20
197.1444529416
 11
98.2820732729
 21
201.1018998148
  0
LINE
  5
284
100
AcDbEntity
  8
0
100
AcDbLine
 62
7
  6
CONTINUOUS
 10
99.0320736305
 20
197.1444529416
 11
99.0320736305
 21
201.1018998148
  0
LINE
  5
285
100
AcDbEntity
  8
0
100
AcDbLine
 62
7
  6
CONTINUOUS
 10
66.1070733921
 20
211.3996998825
 11
66.3154065268
 21
211.5501481159
  0
LINE
  5
286
100
AcDbEntity
  8
0
100
AcDbLine
 62
7
  6
CONTINUOUS
 10
61.4195733921
 20
213.5811994707
 11
61.0029071228
 21
213.3555271008
  0
LINE
  5
287
100
AcDbEntity
  8
0
100
AcDbLine
 62
7
  6
CONTINUOUS
 10
61.5237396614
 20
210.6474585048
 11
61.3154071228
 21
210.7979067382
  0
LINE
  5
288
100
AcDbEntity
  8
0
100
AcDbLine
 62
7
  6
CONTINUOUS
 10
61.5237396614
 20
212.1519410494
 11
61.3154071228
 21
212.3023892828
  0
LINE
  5
289
100
AcDbEntity
  8
0
100
AcDbLine
 62
7
  6
CONTINUOUS
 10
66.3154065268
 20
210.5722343882
 11
66.1070733921
 21
210.7226826215
  0
LINE
  5
28A
100
AcDbEntity
  8
0
100
AcDbLine
 62
7
  6
CONTINUOUS
 10
98.6570736305
 20
195.9955168189
 11
99.1570731537
 21
195.4848785372
  0
LINE
  5
28B
100
AcDbEntity
  8
0
100
AcDbLine
 62
7
  6
CONTINUOUS
 10
97.0320733921
 20
200.0806233408
 11
96.6570733921
 21
200.5912615778
  0
LINE
  5
28C
100
AcDbEntity
  8
0
100
AcDbLine
 62
7
  6
CONTINUOUS
 10
99.4070736305
 20
196.2508360268
 11
99.1570731537
 21
196.6338147046
  0
LINE
  5
28D
100
AcDbEntity
  8
0
100
AcDbLine
 62
7
  6
CONTINUOUS
 10
98.4070735113
 20
196.5061551453
 11
98.6570736305
 21
195.9955168189
  0
LINE
  5
28E
100
AcDbEntity
  8
0
100
AcDbLine
 62
7
  6
CONTINUOUS
 10
97.2820735113
 20
195.1018998148
 11
96.1570735113
 21
198.0380700352
  0
LINE
  5
28F
100
AcDbEntity
  8
0
100
AcDbLine
 62
7
  6
CONTINUOUS
 10
95.4070733325
 20
197.7827509167
 11
96.4070732729
 21
195.1018998148
  0
LINE
  5
290
100
AcDbEntity
  8
0
100
AcDbLine
 62
7
  6
CONTINUOUS
 10
96.4070732729
 20
199.697644663
 11
96.2820733921
 21
200.0806233408
  0
LINE
  5
291
100
AcDbEntity
  8
0
100
AcDbLine
 62
7
  6
CONTINUOUS
 10
97.1570732729
 20
199.697644663
 11
97.0320733921
 21
200.0806233408
  0
LINE
  5
292
100
AcDbEntity
  8
0
100
AcDbLine
 62
7
  6
CONTINUOUS
 10
99.1570731537
 20
196.6338147046
 11
99.0320736305
 21
197.1444529416
  0
LINE
  5
293
100
AcDbEntity
  8
0
100
AcDbLine
 62
7
  6
CONTINUOUS
 10
98.2820732729
 20
197.1444529416
 11
98.4070735113
 21
196.5061551453
  0
LINE
  5
294
100
AcDbEntity
  8
0
100
AcDbLine
 62
7
  6
CONTINUOUS
 10
102.0320736305
 20
197.1444529416
 11
102.0320736305
 21
201.1018998148
  0
LINE
  5
295
100
AcDbEntity
  8
0
100
AcDbLine
 62
7
  6
CONTINUOUS
 10
102.7820736305
 20
197.1444529416
 11
102.7820736305
 21
201.1018998148
  0
LINE
  5
296
100
AcDbEntity
  8
0
100
AcDbLine
 62
7
  6
CONTINUOUS
 10
103.7820733921
 20
195.1018998148
 11
103.7820733921
 21
201.1018998148
  0
LINE
  5
297
100
AcDbEntity
  8
0
100
AcDbLine
 62
7
  6
CONTINUOUS
 10
104.5320733921
 20
195.8678572597
 11
104.5320733921
 21
200.3359424593
  0
LINE
  5
298
100
AcDbEntity
  8
0
100
AcDbLine
 62
7
  6
CONTINUOUS
 10
108.0320729153
 20
199.0593465092
 11
108.0320729153
 21
197.1444529416
  0
LINE
  5
299
100
AcDbEntity
  8
0
100
AcDbLine
 62
7
  6
CONTINUOUS
 10
108.7820729153
 20
197.1444529416
 11
108.7820729153
 21
199.0593465092
  0
LINE
  5
29A
100
AcDbEntity
  8
0
100
AcDbLine
 62
7
  6
CONTINUOUS
 10
102.6570733921
 20
196.5061551453
 11
102.7820736305
 21
197.1444529416
  0
LINE
  5
29B
100
AcDbEntity
  8
0
100
AcDbLine
 62
7
  6
CONTINUOUS
 10
102.0320736305
 20
197.1444529416
 11
101.9070733921
 21
196.6338147046
  0
LINE
  5
29C
100
AcDbEntity
  8
0
100
AcDbLine
 62
7
  6
CONTINUOUS
 10
96.4070732729
 20
199.3146656277
 11
96.2820733921
 21
198.9316869499
  0
LINE
  5
29D
100
AcDbEntity
  8
0
100
AcDbLine
 62
7
  6
CONTINUOUS
 10
97.0320733921
 20
198.8040273907
 11
97.1570732729
 21
199.1870060684
  0
LINE
  5
29E
100
AcDbEntity
  8
0
100
AcDbLine
 62
7
  6
CONTINUOUS
 10
61.2112396614
 20
211.8510445826
 11
61.0029071228
 21
211.7758204659
  0
LINE
  5
29F
100
AcDbEntity
  8
0
100
AcDbLine
 62
7
  6
CONTINUOUS
 10
66.2112402575
 20
211.9262686993
 11
65.7945733921
 21
211.7758204659
  0
LINE
  5
2A0
100
AcDbEntity
  8
RUNDUNGEN
100
AcDbLine
 62
7
  6
CONTINUOUS
 10
82.7320733921
 20
176.3218998148
 11
186.7320733921
 21
176.3218998148
  0
LINE
  5
2A1
100
AcDbEntity
  8
KONSTRUKTIONSELEMENTE
100
AcDbLine
 62
7
  6
CONTINUOUS
 10
237.2574374226
 20
134.1540792102
 11
199.3510652539
 21
150.1183000141
  0
LINE
  5
2A2
100
AcDbEntity
  8
0
100
AcDbLine
 62
7
  6
CONTINUOUS
 10
99.1570731537
 20
195.4848785372
 11
99.6570733921
 21
195.2295593852
  0
LINE
  5
2A3
100
AcDbEntity
  8
0
100
AcDbLine
 62
7
  6
CONTINUOUS
 10
61.0029071228
 20
210.4217861548
 11
61.4195733921
 21
210.1961138047
  0
LINE
  5
2A4
100
AcDbEntity
  8
0
100
AcDbLine
 62
7
  6
CONTINUOUS
 10
65.7945733921
 20
210.4217861548
 11
66.2112402575
 21
210.1961138047
  0
LINE
  5
2A5
100
AcDbEntity
  8
0
100
AcDbLine
 62
7
  6
CONTINUOUS
 10
99.7820736305
 20
195.9955168189
 11
99.4070736305
 21
196.2508360268
  0
LINE
  5
2A6
100
AcDbEntity
  8
0
100
AcDbLine
 62
7
  6
CONTINUOUS
 10
96.6570733921
 20
200.5912615778
 11
96.1570735113
 21
200.9742402555
  0
LINE
  5
2A7
100
AcDbEntity
  8
0
100
AcDbLine
 62
7
  6
CONTINUOUS
 10
96.2820733921
 20
200.0806233408
 11
96.0320732729
 21
200.3359424593
  0
LINE
  5
2A8
100
AcDbEntity
  8
0
100
AcDbLine
 62
7
  6
CONTINUOUS
 10
107.9070733921
 20
199.5699847462
 11
107.6570729153
 21
199.9529637815
  0
LINE
  5
2A9
100
AcDbEntity
  8
0
100
AcDbLine
 62
7
  6
CONTINUOUS
 10
108.6570733921
 20
199.697644663
 11
108.4070729153
 21
200.2082829
  0
LINE
  5
2AA
100
AcDbEntity
  8
0
100
AcDbLine
 62
7
  6
CONTINUOUS
 10
107.9070733921
 20
199.5699847462
 11
108.0320729153
 21
199.0593465092
  0
LINE
  5
2AB
100
AcDbEntity
  8
0
100
AcDbLine
 62
7
  6
CONTINUOUS
 10
108.7820729153
 20
199.0593465092
 11
108.6570733921
 21
199.697644663
  0
LINE
  5
2AC
100
AcDbEntity
  8
0
100
AcDbLine
 62
7
  6
CONTINUOUS
 10
112.7320733921
 20
183.4734305864
 11
112.7320733921
 21
208.8096355075
  0
LINE
  5
2AD
100
AcDbEntity
  8
0
100
AcDbLine
 62
7
  6
CONTINUOUS
 10
108.6570733921
 20
196.5061551453
 11
108.7820729153
 21
197.1444529416
  0
LINE
  5
2AE
100
AcDbEntity
  8
0
100
AcDbLine
 62
7
  6
CONTINUOUS
 10
108.0320729153
 20
197.1444529416
 11
107.9070733921
 21
196.6338147046
  0
LINE
  5
2AF
100
AcDbEntity
  8
0
100
AcDbLine
 62
7
  6
CONTINUOUS
 10
102.4070736305
 20
195.9955168189
 11
102.6570733921
 21
196.5061551453
  0
LINE
  5
2B0
100
AcDbEntity
  8
0
100
AcDbLine
 62
7
  6
CONTINUOUS
 10
108.4070729153
 20
195.9955168189
 11
108.6570733921
 21
196.5061551453
  0
LINE
  5
2B1
100
AcDbEntity
  8
0
100
AcDbLine
 62
7
  6
CONTINUOUS
 10
101.9070733921
 20
196.6338147046
 11
101.6570736305
 21
196.2508360268
  0
LINE
  5
2B2
100
AcDbEntity
  8
0
100
AcDbLine
 62
7
  6
CONTINUOUS
 10
96.6570733921
 20
198.2933891537
 11
97.0320733921
 21
198.8040273907
  0
LINE
  5
2B3
100
AcDbEntity
  8
0
100
AcDbLine
 62
7
  6
CONTINUOUS
 10
96.2820733921
 20
198.9316869499
 11
96.0320732729
 21
198.6763678314
  0
LINE
  5
2B4
100
AcDbEntity
  8
0
100
AcDbLine
 62
7
  6
CONTINUOUS
 10
112.7320733921
 20
183.4734305864
 11
156.7320733921
 21
183.4734305864
  0
LINE
  5
2B5
100
AcDbEntity
  8
0
100
AcDbLine
 62
7
  6
CONTINUOUS
 10
127.4544092672
 20
187.3218998148
 11
129.3756585972
 21
187.3218998148
  0
LINE
  5
2B6
100
AcDbEntity
  8
0
100
AcDbLine
 62
7
  6
CONTINUOUS
 10
99.6570733921
 20
195.2295593852
 11
100.2820731537
 21
195.1018998148
  0
LINE
  5
2B7
100
AcDbEntity
  8
0
100
AcDbLine
 62
7
  6
CONTINUOUS
 10
100.2820731537
 20
195.8678572597
 11
99.7820736305
 21
195.9955168189
  0
LINE
  5
2B8
100
AcDbEntity
  8
0
100
AcDbLine
 62
7
  6
CONTINUOUS
 10
96.0320732729
 20
200.3359424593
 11
95.6570732729
 21
200.4636020185
  0
LINE
  5
2B9
100
AcDbEntity
  8
0
100
AcDbLine
 62
7
  6
CONTINUOUS
 10
61.0029071228
 20
211.9262686993
 11
61.2112396614
 21
211.8510445826
  0
LINE
  5
2BA
100
AcDbEntity
  8
0
100
AcDbLine
 62
7
  6
CONTINUOUS
 10
107.9070733921
 20
200.718921137
 11
107.407073869
 21
200.9742402555
  0
LINE
  5
2BB
100
AcDbEntity
  8
0
100
AcDbLine
 62
7
  6
CONTINUOUS
 10
107.6570729153
 20
199.9529637815
 11
107.2820729153
 21
200.2082829
  0
LINE
  5
2BC
100
AcDbEntity
  8
0
100
AcDbLine
 62
7
  6
CONTINUOUS
 10
108.4070729153
 20
200.2082829
 11
107.9070733921
 21
200.718921137
  0
LINE
  5
2BD
100
AcDbEntity
  8
0
100
AcDbLine
 62
7
  6
CONTINUOUS
 10
125.2140833096
 20
195.3191843464
 11
125.2140833096
 21
193.9885666801
  0
LINE
  5
2BE
100
AcDbEntity
  8
0
100
AcDbLine
 62
7
  6
CONTINUOUS
 10
107.9070733921
 20
196.6338147046
 11
107.6570729153
 21
196.2508360268
  0
LINE
  5
2BF
100
AcDbEntity
  8
0
100
AcDbLine
 62
7
  6
CONTINUOUS
 10
101.9070733921
 20
195.4848785372
 11
102.4070736305
 21
195.9955168189
  0
LINE
  5
2C0
100
AcDbEntity
  8
0
100
AcDbLine
 62
7
  6
CONTINUOUS
 10
107.9070733921
 20
195.4848785372
 11
108.4070729153
 21
195.9955168189
  0
LINE
  5
2C1
100
AcDbEntity
  8
0
100
AcDbLine
 62
7
  6
CONTINUOUS
 10
101.6570736305
 20
196.2508360268
 11
101.2820736305
 21
195.9955168189
  0
LINE
  5
2C2
100
AcDbEntity
  8
0
100
AcDbLine
 62
7
  6
CONTINUOUS
 10
96.1570735113
 20
198.0380700352
 11
96.6570733921
 21
198.2933891537
  0
LINE
  5
2C3
100
AcDbEntity
  8
0
100
AcDbLine
 62
7
  6
CONTINUOUS
 10
207.9404071228
 20
210.6474585575
 11
207.6279071228
 21
210.5722344408
  0
LINE
  5
2C4
100
AcDbEntity
  8
0
100
AcDbLine
 62
7
  6
CONTINUOUS
 10
207.9404071228
 20
212.2271651661
 11
207.6279071228
 21
212.1519410494
  0
LINE
  5
2C5
100
AcDbEntity
  8
0
100
AcDbLine
 62
7
  6
CONTINUOUS
 10
203.1487402575
 20
212.2271651661
 11
202.8362402575
 21
212.1519410494
  0
LINE
  5
2C6
100
AcDbEntity
  8
0
100
AcDbLine
 62
7
  6
CONTINUOUS
 10
207.5237396614
 20
210.120889688
 11
208.0445733921
 21
210.1961138113
  0
LINE
  5
2C7
100
AcDbEntity
  8
0
100
AcDbLine
 62
7
  6
CONTINUOUS
 10
140.0884896175
 20
193.1671139433
 11
141.1000305073
 21
193.1671139433
  0
LINE
  5
2C8
100
AcDbEntity
  8
0
100
AcDbLine
 62
7
  6
CONTINUOUS
 10
143.0416458504
 20
193.1671139433
 11
144.2500644581
 21
193.1671139433
  0
LINE
  5
2C9
100
AcDbEntity
  8
0
100
AcDbLine
 62
7
  6
CONTINUOUS
 10
125.2140833096
 20
193.9885666801
 11
127.4544092672
 21
193.9885666801
  0
LINE
  5
2CA
100
AcDbEntity
  8
0
100
AcDbLine
 62
7
  6
CONTINUOUS
 10
144.2500644581
 20
194.6199312641
 11
143.0416458504
 21
194.6199312641
  0
LINE
  5
2CB
100
AcDbEntity
  8
0
100
AcDbLine
 62
7
  6
CONTINUOUS
 10
141.1000305073
 20
194.6199312641
 11
140.0884896175
 21
194.6199312641
  0
LINE
  5
2CC
100
AcDbEntity
  8
0
100
AcDbLine
 62
7
  6
CONTINUOUS
 10
92.5320733921
 20
195.1018998148
 11
93.2820733921
 21
195.1018998148
  0
LINE
  5
2CD
100
AcDbEntity
  8
0
100
AcDbLine
 62
7
  6
CONTINUOUS
 10
96.4070732729
 20
195.1018998148
 11
97.2820735113
 21
195.1018998148
  0
LINE
  5
2CE
100
AcDbEntity
  8
0
100
AcDbLine
 62
7
  6
CONTINUOUS
 10
100.2820731537
 20
195.1018998148
 11
100.7820733921
 21
195.1018998148
  0
LINE
  5
2CF
100
AcDbEntity
  8
0
100
AcDbLine
 62
7
  6
CONTINUOUS
 10
103.7820733921
 20
195.1018998148
 11
106.7820733921
 21
195.1018998148
  0
LINE
  5
2D0
100
AcDbEntity
  8
0
100
AcDbLine
 62
7
  6
CONTINUOUS
 10
106.7820733921
 20
195.8678572597
 11
104.5320733921
 21
195.8678572597
  0
LINE
  5
2D1
100
AcDbEntity
  8
0
100
AcDbLine
 62
7
  6
CONTINUOUS
 10
100.7820733921
 20
195.8678572597
 11
100.2820731537
 21
195.8678572597
  0
LINE
  5
2D2
100
AcDbEntity
  8
0
100
AcDbLine
 62
7
  6
CONTINUOUS
 10
143.0416458504
 20
196.5819135143
 11
141.1000305073
 21
196.5819135143
  0
LINE
  5
2D3
100
AcDbEntity
  8
0
100
AcDbLine
 62
7
  6
CONTINUOUS
 10
129.3756585972
 20
196.9824567272
 11
127.8753187911
 21
196.9824567272
  0
LINE
  5
2D4
100
AcDbEntity
  8
0
100
AcDbLine
 62
7
  6
CONTINUOUS
 10
93.2820733921
 20
197.7827509167
 11
95.4070733325
 21
197.7827509167
  0
LINE
  5
2D5
100
AcDbEntity
  8
0
100
AcDbLine
 62
7
  6
CONTINUOUS
 10
95.6570732729
 20
198.5487082722
 11
93.2820733921
 21
198.5487082722
  0
LINE
  5
2D6
100
AcDbEntity
  8
0
100
AcDbLine
 62
7
  6
CONTINUOUS
 10
106.7820733921
 20
200.3359424593
 11
104.5320733921
 21
200.3359424593
  0
LINE
  5
2D7
100
AcDbEntity
  8
0
100
AcDbLine
 62
7
  6
CONTINUOUS
 10
61.4195733921
 20
210.1961138047
 11
61.9404071228
 21
210.120889688
  0
LINE
  5
2D8
100
AcDbEntity
  8
0
100
AcDbLine
 62
7
  6
CONTINUOUS
 10
66.2112402575
 20
210.1961138047
 11
66.7320733921
 21
210.120889688
  0
LINE
  5
2D9
100
AcDbEntity
  8
0
100
AcDbLine
 62
7
  6
CONTINUOUS
 10
96.1570735113
 20
200.9742402555
 11
95.5320733921
 21
201.1018998148
  0
LINE
  5
2DA
100
AcDbEntity
  8
0
100
AcDbLine
 62
7
  6
CONTINUOUS
 10
107.407073869
 20
200.9742402555
 11
106.7820733921
 21
201.1018998148
  0
LINE
  5
2DB
100
AcDbEntity
  8
0
100
AcDbLine
 62
7
  6
CONTINUOUS
 10
61.8362396614
 20
210.5722343882
 11
61.5237396614
 21
210.6474585048
  0
LINE
  5
2DC
100
AcDbEntity
  8
0
100
AcDbLine
 62
7
  6
CONTINUOUS
 10
66.6279065268
 20
210.4970102715
 11
66.3154065268
 21
210.5722343882
  0
LINE
  5
2DD
100
AcDbEntity
  8
0
100
AcDbLine
 62
7
  6
CONTINUOUS
 10
61.8362396614
 20
212.0767169327
 11
61.5237396614
 21
212.1519410494
  0
LINE
  5
2DE
100
AcDbEntity
  8
0
100
AcDbLine
 62
7
  6
CONTINUOUS
 10
107.2820729153
 20
200.2082829
 11
106.7820733921
 21
200.3359424593
  0
LINE
  5
2DF
100
AcDbEntity
  8
KONSTRUKTIONSELEMENTE
100
AcDbLine
 62
7
  6
CONTINUOUS
 10
199.3510652539
 20
150.1183000141
 11
196.408128616
 21
152.2580643482
  0
LINE
  5
2E0
100
AcDbEntity
  8
0
100
AcDbLine
 62
7
  6
CONTINUOUS
 10
127.4544092672
 20
193.9885666801
 11
127.4544092672
 21
187.3218998148
  0
LINE
  5
2E1
100
AcDbEntity
  8
0
100
AcDbLine
 62
7
  6
CONTINUOUS
 10
129.3756585972
 20
187.3218998148
 11
129.3756585972
 21
196.9824567272
  0
LINE
  5
2E2
100
AcDbEntity
  8
0
100
AcDbLine
 62
7
  6
CONTINUOUS
 10
107.6570729153
 20
196.2508360268
 11
107.2820729153
 21
195.9955168189
  0
LINE
  5
2E3
100
AcDbEntity
  8
0
100
AcDbLine
 62
7
  6
CONTINUOUS
 10
101.4070731537
 20
195.2295593852
 11
101.9070733921
 21
195.4848785372
  0
LINE
  5
2E4
100
AcDbEntity
  8
0
100
AcDbLine
 62
7
  6
CONTINUOUS
 10
107.407073869
 20
195.2295593852
 11
107.9070733921
 21
195.4848785372
  0
LINE
  5
2E5
100
AcDbEntity
  8
0
100
AcDbLine
 62
7
  6
CONTINUOUS
 10
96.0320732729
 20
198.6763678314
 11
95.6570732729
 21
198.5487082722
  0
LINE
  5
2E6
100
AcDbEntity
  8
0
100
AcDbLine
 62
7
  6
CONTINUOUS
 10
107.2820729153
 20
195.9955168189
 11
106.7820733921
 21
195.8678572597
  0
LINE
  5
2E7
100
AcDbEntity
  8
0
100
AcDbLine
 62
7
  6
CONTINUOUS
 10
101.2820736305
 20
195.9955168189
 11
100.7820733921
 21
195.8678572597
  0
LINE
  5
2E8
100
AcDbEntity
  8
0
100
AcDbLine
 62
7
  6
CONTINUOUS
 10
106.7820733921
 20
195.1018998148
 11
107.407073869
 21
195.2295593852
  0
LINE
  5
2E9
100
AcDbEntity
  8
0
100
AcDbLine
 62
7
  6
CONTINUOUS
 10
100.7820733921
 20
195.1018998148
 11
101.4070731537
 21
195.2295593852
  0
LINE
  5
2EA
100
AcDbEntity
  8
0
100
AcDbLine
 62
7
  6
CONTINUOUS
 10
95.6570732729
 20
200.4636020185
 11
93.2820733921
 21
200.4636020185
  0
LINE
  5
2EB
100
AcDbEntity
  8
0
100
AcDbLine
 62
7
  6
CONTINUOUS
 10
106.7820733921
 20
201.1018998148
 11
103.7820733921
 21
201.1018998148
  0
LINE
  5
2EC
100
AcDbEntity
  8
0
100
AcDbLine
 62
7
  6
CONTINUOUS
 10
102.7820736305
 20
201.1018998148
 11
102.0320736305
 21
201.1018998148
  0
LINE
  5
2ED
100
AcDbEntity
  8
0
100
AcDbLine
 62
7
  6
CONTINUOUS
 10
99.0320736305
 20
201.1018998148
 11
98.2820732729
 21
201.1018998148
  0
LINE
  5
2EE
100
AcDbEntity
  8
0
100
AcDbLine
 62
7
  6
CONTINUOUS
 10
95.5320733921
 20
201.1018998148
 11
92.5320733921
 21
201.1018998148
  0
LINE
  5
2EF
100
AcDbEntity
  8
0
100
AcDbLine
 62
7
  6
CONTINUOUS
 10
140.0884896175
 20
194.6199312641
 11
140.0884896175
 21
193.1671139433
  0
LINE
  5
2F0
100
AcDbEntity
  8
0
100
AcDbLine
 62
7
  6
CONTINUOUS
 10
141.1000305073
 20
196.5819135143
 11
141.1000305073
 21
194.6199312641
  0
LINE
  5
2F1
100
AcDbEntity
  8
0
100
AcDbLine
 62
7
  6
CONTINUOUS
 10
141.1000305073
 20
193.1671139433
 11
141.1000305073
 21
189.4400261177
  0
LINE
  5
2F2
100
AcDbEntity
  8
0
100
AcDbLine
 62
7
  6
CONTINUOUS
 10
143.0416458504
 20
189.4536037578
 11
143.0416458504
 21
193.1671139433
  0
LINE
  5
2F3
100
AcDbEntity
  8
0
100
AcDbLine
 62
7
  6
CONTINUOUS
 10
143.0416458504
 20
194.6199312641
 11
143.0416458504
 21
196.5819135143
  0
LINE
  5
2F4
100
AcDbEntity
  8
0
100
AcDbLine
 62
7
  6
CONTINUOUS
 10
144.2500644581
 20
187.172544759
 11
144.2500644581
 21
188.6321510209
  0
LINE
  5
2F5
100
AcDbEntity
  8
0
100
AcDbLine
 62
7
  6
CONTINUOUS
 10
144.2500644581
 20
193.1671139433
 11
144.2500644581
 21
194.6199312641
  0
LINE
  5
2F6
100
AcDbEntity
  8
0
100
AcDbLine
 62
7
  6
CONTINUOUS
 10
70.1130815303
 20
150.1183000141
 11
73.0560181682
 21
152.2580643482
  0
LINE
  5
2F7
100
AcDbEntity
  8
0
100
AcDbLine
 62
7
  6
CONTINUOUS
 10
213.4612396614
 20
209.6935510184
 11
212.6279071228
 21
209.6935510184
  0
LINE
  5
2F8
100
AcDbEntity
  8
0
100
AcDbLine
 62
7
  6
CONTINUOUS
 10
210.3362396614
 20
209.6935510184
 11
209.7112396614
 21
209.6935510184
  0
LINE
  5
2F9
100
AcDbEntity
  8
0
100
AcDbLine
 62
7
  6
CONTINUOUS
 10
207.5237396614
 20
209.6935510184
 11
205.0237402575
 21
209.6935510184
  0
LINE
  5
2FA
100
AcDbEntity
  8
0
100
AcDbLine
 62
7
  6
CONTINUOUS
 10
204.1904065268
 20
209.6935510184
 11
203.4612402575
 21
209.6935510184
  0
LINE
  5
2FB
100
AcDbEntity
  8
0
100
AcDbLine
 62
7
  6
CONTINUOUS
 10
200.8570733921
 20
209.6935510184
 11
200.2320733921
 21
209.6935510184
  0
LINE
  5
2FC
100
AcDbEntity
  8
0
100
AcDbLine
 62
7
  6
CONTINUOUS
 10
197.7320733921
 20
209.6935510184
 11
196.8987401085
 21
209.6935510184
  0
LINE
  5
2FD
100
AcDbEntity
  8
0
100
AcDbLine
 62
7
  6
CONTINUOUS
 10
56.0029071228
 20
209.6935510184
 11
56.8362396614
 21
209.6935510184
  0
LINE
  5
2FE
100
AcDbEntity
  8
0
100
AcDbLine
 62
7
  6
CONTINUOUS
 10
59.1279071228
 20
209.6935510184
 11
59.7529071228
 21
209.6935510184
  0
LINE
  5
2FF
100
AcDbEntity
  8
0
100
AcDbLine
 62
7
  6
CONTINUOUS
 10
61.9404071228
 20
209.6935510184
 11
64.4404065268
 21
209.6935510184
  0
LINE
  5
300
100
AcDbEntity
  8
0
100
AcDbLine
 62
7
  6
CONTINUOUS
 10
66.7320733921
 20
209.6935510184
 11
69.2320733921
 21
209.6935510184
  0
LINE
  5
301
100
AcDbEntity
  8
0
100
AcDbLine
 62
7
  6
CONTINUOUS
 10
70.0654068248
 20
209.6935510184
 11
70.6904068248
 21
209.6935510184
  0
LINE
  5
302
100
AcDbEntity
  8
0
100
AcDbLine
 62
7
  6
CONTINUOUS
 10
73.6070733921
 20
209.6935510184
 11
74.2320733921
 21
209.6935510184
  0
LINE
  5
303
100
AcDbEntity
  8
0
100
AcDbLine
 62
7
  6
CONTINUOUS
 10
56.0029071228
 20
210.120889688
 11
56.8362396614
 21
210.120889688
  0
LINE
  5
304
100
AcDbEntity
  8
0
100
AcDbLine
 62
7
  6
CONTINUOUS
 10
59.1279071228
 20
210.120889688
 11
59.7529071228
 21
210.120889688
  0
LINE
  5
305
100
AcDbEntity
  8
0
100
AcDbLine
 62
7
  6
CONTINUOUS
 10
61.9404071228
 20
210.120889688
 11
64.4404065268
 21
210.120889688
  0
LINE
  5
306
100
AcDbEntity
  8
0
100
AcDbLine
 62
7
  6
CONTINUOUS
 10
66.7320733921
 20
210.120889688
 11
69.2320733921
 21
210.120889688
  0
LINE
  5
307
100
AcDbEntity
  8
0
100
AcDbLine
 62
7
  6
CONTINUOUS
 10
70.0654068248
 20
210.120889688
 11
70.6904068248
 21
210.120889688
  0
LINE
  5
308
100
AcDbEntity
  8
0
100
AcDbLine
 62
7
  6
CONTINUOUS
 10
73.6070733921
 20
210.120889688
 11
74.2320733921
 21
210.120889688
  0
LINE
  5
309
100
AcDbEntity
  8
0
100
AcDbLine
 62
7
  6
CONTINUOUS
 10
196.8987401085
 20
210.120889688
 11
197.7320733921
 21
210.120889688
  0
LINE
  5
30A
100
AcDbEntity
  8
0
100
AcDbLine
 62
7
  6
CONTINUOUS
 10
200.2320733921
 20
210.120889688
 11
200.8570733921
 21
210.120889688
  0
LINE
  5
30B
100
AcDbEntity
  8
0
100
AcDbLine
 62
7
  6
CONTINUOUS
 10
203.4612402575
 20
210.120889688
 11
204.1904065268
 21
210.120889688
  0
LINE
  5
30C
100
AcDbEntity
  8
0
100
AcDbLine
 62
7
  6
CONTINUOUS
 10
205.0237402575
 20
210.120889688
 11
207.5237396614
 21
210.120889688
  0
LINE
  5
30D
100
AcDbEntity
  8
0
100
AcDbLine
 62
7
  6
CONTINUOUS
 10
209.7112396614
 20
210.120889688
 11
210.3362396614
 21
210.120889688
  0
LINE
  5
30E
100
AcDbEntity
  8
0
100
AcDbLine
 62
7
  6
CONTINUOUS
 10
212.6279071228
 20
210.120889688
 11
213.4612396614
 21
210.120889688
  0
LINE
  5
30F
100
AcDbEntity
  8
0
100
AcDbLine
 62
7
  6
CONTINUOUS
 10
68.6070733921
 20
210.4970102715
 11
66.6279065268
 21
210.4970102715
  0
LINE
  5
310
100
AcDbEntity
  8
0
100
AcDbLine
 62
7
  6
CONTINUOUS
 10
207.6279071228
 20
210.5722344408
 11
205.6487396614
 21
210.5722344408
  0
LINE
  5
311
100
AcDbEntity
  8
0
100
AcDbLine
 62
7
  6
CONTINUOUS
 10
63.8154071228
 20
210.5722343882
 11
61.8362396614
 21
210.5722343882
  0
LINE
  5
312
100
AcDbEntity
  8
0
100
AcDbLine
 62
7
  6
CONTINUOUS
 10
61.8362396614
 20
211.2701849221
 11
63.8154071228
 21
211.2701849221
  0
LINE
  5
313
100
AcDbEntity
  8
0
100
AcDbLine
 62
7
  6
CONTINUOUS
 10
66.6279065268
 20
211.2701849221
 11
68.6070733921
 21
211.2701849221
  0
LINE
  5
314
100
AcDbEntity
  8
0
100
AcDbLine
 62
7
  6
CONTINUOUS
 10
207.6279071228
 20
211.3462093418
 11
205.6487396614
 21
211.3462093418
  0
LINE
  5
315
100
AcDbEntity
  8
0
100
AcDbLine
 62
7
  6
CONTINUOUS
 10
202.6279065268
 20
211.3462093418
 11
200.8570733921
 21
211.3462093418
  0
LINE
  5
316
100
AcDbEntity
  8
0
100
AcDbLine
 62
7
  6
CONTINUOUS
 10
61.8362396614
 20
211.6253722326
 11
63.8154071228
 21
211.6253722326
  0
LINE
  5
317
100
AcDbEntity
  8
0
100
AcDbLine
 62
7
  6
CONTINUOUS
 10
66.6279065268
 20
211.6253722326
 11
68.6070733921
 21
211.6253722326
  0
LINE
  5
318
100
AcDbEntity
  8
0
100
AcDbLine
 62
7
  6
CONTINUOUS
 10
200.8570733921
 20
211.7005963492
 11
202.6279065268
 21
211.7005963492
  0
LINE
  5
319
100
AcDbEntity
  8
0
100
AcDbLine
 62
7
  6
CONTINUOUS
 10
205.6487396614
 20
211.7005963492
 11
207.6279071228
 21
211.7005963492
  0
LINE
  5
31A
100
AcDbEntity
  8
0
100
AcDbLine
 62
7
  6
CONTINUOUS
 10
68.6070733921
 20
212.0767169327
 11
66.8362402575
 21
212.0767169327
  0
LINE
  5
31B
100
AcDbEntity
  8
0
100
AcDbLine
 62
7
  6
CONTINUOUS
 10
63.8154071228
 20
212.0767169327
 11
61.8362396614
 21
212.0767169327
  0
LINE
  5
31C
100
AcDbEntity
  8
0
100
AcDbLine
 62
7
  6
CONTINUOUS
 10
207.6279071228
 20
212.1519410494
 11
205.6487396614
 21
212.1519410494
  0
LINE
  5
31D
100
AcDbEntity
  8
0
100
AcDbLine
 62
7
  6
CONTINUOUS
 10
202.8362402575
 20
212.1519410494
 11
200.8570733921
 21
212.1519410494
  0
LINE
  5
31E
100
AcDbEntity
  8
0
100
AcDbLine
 62
7
  6
CONTINUOUS
 10
207.6279071228
 20
212.8106396652
 11
205.6487396614
 21
212.8106396652
  0
LINE
  5
31F
100
AcDbEntity
  8
0
100
AcDbLine
 62
7
  6
CONTINUOUS
 10
61.8362396614
 20
212.8106396158
 11
63.8154071228
 21
212.8106396158
  0
LINE
  5
320
100
AcDbEntity
  8
0
100
AcDbLine
 62
7
  6
CONTINUOUS
 10
202.8362402575
 20
212.8810524234
 11
200.8570733921
 21
212.8810524234
  0
LINE
  5
321
100
AcDbEntity
  8
0
100
AcDbLine
 62
7
  6
CONTINUOUS
 10
61.8362396614
 20
213.2050788411
 11
63.8154071228
 21
213.2050788411
  0
LINE
  5
322
100
AcDbEntity
  8
0
100
AcDbLine
 62
7
  6
CONTINUOUS
 10
205.6487396614
 20
213.2050788938
 11
207.6279071228
 21
213.2050788938
  0
LINE
  5
323
100
AcDbEntity
  8
0
100
AcDbLine
 62
7
  6
CONTINUOUS
 10
200.8570733921
 20
213.2803030105
 11
202.8362402575
 21
213.2803030105
  0
LINE
  5
324
100
AcDbEntity
  8
0
100
AcDbLine
 62
7
  6
CONTINUOUS
 10
213.4612396614
 20
213.6564235939
 11
212.6279071228
 21
213.6564235939
  0
LINE
  5
325
100
AcDbEntity
  8
0
100
AcDbLine
 62
7
  6
CONTINUOUS
 10
210.3362396614
 20
213.6564235939
 11
209.7112396614
 21
213.6564235939
  0
LINE
  5
326
100
AcDbEntity
  8
0
100
AcDbLine
 62
7
  6
CONTINUOUS
 10
207.5237396614
 20
213.6564235939
 11
205.0237402575
 21
213.6564235939
  0
LINE
  5
327
100
AcDbEntity
  8
0
100
AcDbLine
 62
7
  6
CONTINUOUS
 10
202.7320733921
 20
213.6564235939
 11
200.2320733921
 21
213.6564235939
  0
LINE
  5
328
100
AcDbEntity
  8
0
100
AcDbLine
 62
7
  6
CONTINUOUS
 10
199.3987399594
 20
213.6564235939
 11
198.7737399594
 21
213.6564235939
  0
LINE
  5
329
100
AcDbEntity
  8
0
100
AcDbLine
 62
7
  6
CONTINUOUS
 10
195.8570733921
 20
213.6564235939
 11
195.2320733921
 21
213.6564235939
  0
LINE
  5
32A
100
AcDbEntity
  8
0
100
AcDbLine
 62
7
  6
CONTINUOUS
 10
72.5654066758
 20
213.6564235939
 11
71.7320733921
 21
213.6564235939
  0
LINE
  5
32B
100
AcDbEntity
  8
0
100
AcDbLine
 62
7
  6
CONTINUOUS
 10
69.2320733921
 20
213.6564235939
 11
68.6070733921
 21
213.6564235939
  0
LINE
  5
32C
100
AcDbEntity
  8
0
100
AcDbLine
 62
7
  6
CONTINUOUS
 10
66.0029065268
 20
213.6564235939
 11
65.2737402575
 21
213.6564235939
  0
LINE
  5
32D
100
AcDbEntity
  8
0
100
AcDbLine
 62
7
  6
CONTINUOUS
 10
64.4404065268
 20
213.6564235939
 11
61.9404071228
 21
213.6564235939
  0
LINE
  5
32E
100
AcDbEntity
  8
0
100
AcDbLine
 62
7
  6
CONTINUOUS
 10
59.7529071228
 20
213.6564235939
 11
59.1279071228
 21
213.6564235939
  0
LINE
  5
32F
100
AcDbEntity
  8
0
100
AcDbLine
 62
7
  6
CONTINUOUS
 10
56.8362396614
 20
213.6564235939
 11
56.0029071228
 21
213.6564235939
  0
LINE
  5
330
100
AcDbEntity
  8
0
100
AcDbLine
 62
7
  6
CONTINUOUS
 10
61.9404071228
 20
213.6564235939
 11
61.4195733921
 21
213.5811994707
  0
LWPOLYLINE
  5
331
100
AcDbEntity
  8
RUNDUNGEN
100
AcDbPolyline
 62
7
  6
CONTINUOUS
 90
15
 70
0
 10
47.3300711661
 20
220.3218998121
 10
47.0120049521
 20
220.3165875621
 10
46.5763981189
 20
220.2921145407
 10
46.1491240319
 20
220.2487252602
 10
45.7311229613
 20
220.1874790278
 10
45.3232548506
 20
220.1094660074
 10
44.9263980803
 20
220.0158930556
 10
44.5394585836
 20
219.9074510207
 10
44.1611612452
 20
219.7845017791
 10
43.7928632927
 20
219.6481551239
 10
43.4326290076
 20
219.498234615
 10
43.0862948605
 20
219.337886168
 10
42.7571322017
 20
219.1698644345
 10
42.4484973665
 20
218.9974921699
 10
42.209006488
 20
218.8538423981
  0
LINE
  5
332
100
AcDbEntity
  8
0
100
AcDbLine
 62
7
  6
CONTINUOUS
 10
222.1333026073
 20
220.3218998148
 11
192.0101828875
 21
220.3218998148
  0
LINE
  5
333
100
AcDbEntity
  8
RUNDUNGEN
100
AcDbLine
 62
7
  6
CONTINUOUS
 10
47.330844177
 20
220.3218998148
 11
77.4539638967
 21
220.3218998148
  0
LINE
  5
334
100
AcDbEntity
  8
0
100
AcDbLine
 62
7
  6
CONTINUOUS
 10
203.2529065268
 20
213.5811994773
 11
202.7320733921
 21
213.6564235939
  0
LINE
  5
335
100
AcDbEntity
  8
0
100
AcDbLine
 62
7
  6
CONTINUOUS
 10
208.0445733921
 20
213.5811994773
 11
207.5237396614
 21
213.6564235939
  0
LINE
  5
336
100
AcDbEntity
  8
0
100
AcDbLine
 62
7
  6
CONTINUOUS
 10
156.7320733921
 20
183.4734305864
 11
156.7320733921
 21
208.8096355075
  0
LINE
  5
337
100
AcDbEntity
  8
0
100
AcDbLine
 62
7
  6
CONTINUOUS
 10
203.2529065268
 20
211.8510445826
 11
203.6695733921
 21
212.001492816
  0
LINE
  5
338
100
AcDbEntity
  8
0
100
AcDbLine
 62
7
  6
CONTINUOUS
 10
208.2529071228
 20
211.9262686993
 11
208.4612396614
 21
212.001492816
  0
LINE
  5
339
100
AcDbEntity
  8
0
100
AcDbLine
 62
7
  6
CONTINUOUS
 10
66.3154065268
 20
211.5501481159
 11
66.6279065268
 21
211.6253722326
  0
LINE
  5
33A
100
AcDbEntity
  8
0
100
AcDbLine
 62
7
  6
CONTINUOUS
 10
61.5237396614
 20
211.5501481159
 11
61.8362396614
 21
211.6253722326
  0
LINE
  5
33B
100
AcDbEntity
  8
0
100
AcDbLine
 62
7
  6
CONTINUOUS
 10
61.5237396614
 20
213.1298547244
 11
61.8362396614
 21
213.2050788411
  0
LINE
  5
33C
100
AcDbEntity
  8
0
100
AcDbLine
 62
7
  6
CONTINUOUS
 10
207.6279071228
 20
211.7005963492
 11
207.9404071228
 21
211.6253722326
  0
LINE
  5
33D
100
AcDbEntity
  8
0
100
AcDbLine
 62
7
  6
CONTINUOUS
 10
202.8362402575
 20
213.2803030105
 11
203.1487402575
 21
213.2050788938
  0
LINE
  5
33E
100
AcDbEntity
  8
0
100
AcDbLine
 62
7
  6
CONTINUOUS
 10
207.6279071228
 20
213.2050788938
 11
207.9404071228
 21
213.1298547771
  0
LINE
  5
33F
100
AcDbEntity
  8
0
100
AcDbLine
 62
7
  6
CONTINUOUS
 10
208.0445733921
 20
210.1961138113
 11
208.4612396614
 21
210.4217861811
  0
LINE
  5
340
100
AcDbEntity
  8
0
100
AcDbLine
 62
7
  6
CONTINUOUS
 10
32.2067093616
 20
134.1540792102
 11
70.1130815303
 21
150.1183000141
  0
LINE
  5
341
100
AcDbEntity
  8
0
100
AcDbLine
 62
7
  6
CONTINUOUS
 10
208.4612396614
 20
211.8510445826
 11
208.2529071228
 21
211.9262686993
  0
LINE
  5
342
100
AcDbEntity
  8
0
100
AcDbLine
 62
7
  6
CONTINUOUS
 10
203.6695733921
 20
212.001492816
 11
203.9820733921
 21
212.3023892828
  0
LINE
  5
343
100
AcDbEntity
  8
0
100
AcDbLine
 62
7
  6
CONTINUOUS
 10
211.5862396614
 20
212.2271651661
 11
213.4612396614
 21
213.6564235939
  0
LINE
  5
344
100
AcDbEntity
  8
0
100
AcDbLine
 62
7
  6
CONTINUOUS
 10
212.6279071228
 20
213.6564235939
 11
210.3362396614
 21
211.9262686993
  0
LINE
  5
345
100
AcDbEntity
  8
0
100
AcDbLine
 62
7
  6
CONTINUOUS
 10
203.3570733921
 20
212.3776133995
 11
203.1487402575
 21
212.2271651661
  0
LINE
  5
346
100
AcDbEntity
  8
0
100
AcDbLine
 62
7
  6
CONTINUOUS
 10
208.1487396614
 20
212.3776133995
 11
207.9404071228
 21
212.2271651661
  0
LINE
  5
347
100
AcDbEntity
  8
0
100
AcDbLine
 62
7
  6
CONTINUOUS
 10
208.1487396614
 20
210.7979068436
 11
207.9404071228
 21
210.6474585575
  0
LINE
  5
348
100
AcDbEntity
  8
0
100
AcDbLine
 62
7
  6
CONTINUOUS
 10
210.3362396614
 20
211.3244756604
 11
211.0654071228
 21
211.8510445826
  0
LINE
  5
349
100
AcDbEntity
  8
0
100
AcDbLine
 62
7
  6
CONTINUOUS
 10
203.6695733921
 20
213.3555271272
 11
203.2529065268
 21
213.5811994773
  0
LINE
  5
34A
100
AcDbEntity
  8
0
100
AcDbLine
 62
7
  6
CONTINUOUS
 10
208.4612396614
 20
213.3555271272
 11
208.0445733921
 21
213.5811994773
  0
LINE
  5
34B
100
AcDbEntity
  8
0
100
AcDbLine
 62
7
  6
CONTINUOUS
 10
203.1487402575
 20
213.2050788938
 11
203.3570733921
 21
213.0546306604
  0
LINE
  5
34C
100
AcDbEntity
  8
KONSTRUKTIONSELEMENTE
100
AcDbLine
 62
7
  6
CONTINUOUS
 10
186.7320733921
 20
172.8218998148
 11
193.56946181
 21
134.0451431867
  0
LINE
  5
34D
100
AcDbEntity
  8
KONSTRUKTIONSELEMENTE
100
AcDbLine
 62
7
  6
CONTINUOUS
 10
186.7320733921
 20
172.8221680205
 11
186.7320733921
 21
207.821631609
  0
LINE
  5
34E
100
AcDbEntity
  8
KONSTRUKTIONSELEMENTE
100
AcDbLine
 62
7
  6
CONTINUOUS
 10
188.6242516407
 20
218.5529759153
 11
188.6242516407
 21
190.3218399872
  0
LINE
  5
34F
100
AcDbEntity
  8
RUNDUNGEN
100
AcDbLine
 62
7
  6
CONTINUOUS
 10
187.0462454575
 20
234.0538651188
 11
184.2714627
 21
207.6535706831
  0
LINE
  5
350
100
AcDbEntity
  8
BEZUGSACHSEN
100
AcDbLine
 62
7
  6
CONTINUOUS
 10
184.3856524591
 20
208.7400136679
 11
184.2714627
 21
207.6535706831
  0
LINE
  5
351
100
AcDbEntity
  8
KONSTRUKTIONSELEMENTE
100
AcDbLine
 62
7
  6
CONTINUOUS
 10
186.7320733921
 20
207.8218998148
 11
188.6242516407
 21
218.5529759153
  0
LINE
  5
352
100
AcDbEntity
  8
0
100
AcDbLine
 62
7
  6
CONTINUOUS
 10
208.4612396614
 20
212.001492816
 11
208.7737396614
 21
212.3023892828
  0
LINE
  5
353
100
AcDbEntity
  8
0
100
AcDbLine
 62
7
  6
CONTINUOUS
 10
208.4612396614
 20
210.4217861811
 11
208.7737396614
 21
210.7226826742
  0
LINE
  5
354
100
AcDbEntity
  8
0
100
AcDbLine
 62
7
  6
CONTINUOUS
 10
207.9404071228
 20
211.6253722326
 11
208.1487396614
 21
211.4749239992
  0
LINE
  5
355
100
AcDbEntity
  8
0
100
AcDbLine
 62
7
  6
CONTINUOUS
 10
207.9404071228
 20
213.1298547771
 11
208.1487396614
 21
212.9794065437
  0
LINE
  5
356
100
AcDbEntity
  8
0
100
AcDbLine
 62
7
  6
CONTINUOUS
 10
203.9820733921
 20
213.0546306604
 11
203.6695733921
 21
213.3555271272
  0
LINE
  5
357
100
AcDbEntity
  8
0
100
AcDbLine
 62
7
  6
CONTINUOUS
 10
208.7737396614
 20
211.5501481159
 11
208.4612396614
 21
211.8510445826
  0
LINE
  5
358
100
AcDbEntity
  8
0
100
AcDbLine
 62
7
  6
CONTINUOUS
 10
195.2320733921
 20
213.2290849244
 11
195.2320733921
 21
213.6564235939
  0
LINE
  5
359
100
AcDbEntity
  8
0
100
AcDbLine
 62
7
  6
CONTINUOUS
 10
196.8987401085
 20
209.6935510184
 11
196.8987401085
 21
210.120889688
  0
LINE
  5
35A
100
AcDbEntity
  8
0
100
AcDbLine
 62
7
  6
CONTINUOUS
 10
197.7320733921
 20
209.6935510184
 11
197.7320733921
 21
210.120889688
  0
LINE
  5
35B
100
AcDbEntity
  8
0
100
AcDbLine
 62
7
  6
CONTINUOUS
 10
203.4612402575
 20
212.6032857495
 11
203.3570733921
 21
212.3776133995
  0
LINE
  5
35C
100
AcDbEntity
  8
0
100
AcDbLine
 62
7
  6
CONTINUOUS
 10
203.9820733921
 20
212.3023892828
 11
204.0862402575
 21
212.5280616328
  0
LINE
  5
35D
100
AcDbEntity
  8
0
100
AcDbLine
 62
7
  6
CONTINUOUS
 10
197.7320733921
 20
210.120889688
 11
199.3987399594
 21
213.6564235939
  0
LINE
  5
35E
100
AcDbEntity
  8
0
100
AcDbLine
 62
7
  6
CONTINUOUS
 10
198.7737399594
 20
213.6564235939
 11
197.3154066758
 21
210.5722344408
  0
LWPOLYLINE
  5
35F
100
AcDbEntity
  8
0
100
AcDbPolyline
 62
7
  6
CONTINUOUS
 90
15
 70
0
 10
227.2551402963
 20
218.8538423981
 10
227.0156494177
 20
218.9974921699
 10
226.7070145825
 20
219.1698644345
 10
226.3778519237
 20
219.337886168
 10
226.0315177767
 20
219.498234615
 10
225.6712834915
 20
219.6481551239
 10
225.302985539
 20
219.7845017791
 10
224.9246882007
 20
219.9074510207
 10
224.537748704
 20
220.0158930556
 10
224.1408919336
 20
220.1094660074
 10
223.7330238229
 20
220.1874790278
 10
223.3150227523
 20
220.2487252602
 10
222.8877486653
 20
220.2921145407
 10
222.4521418321
 20
220.3165875621
 10
222.1340756181
 20
220.3218998121
  0
LINE
  5
360
100
AcDbEntity
  8
0
100
AcDbLine
 62
7
  6
CONTINUOUS
 10
227.2551402963
 20
218.8538423981
 11
227.258394975
 21
218.8518277558
  0
LINE
  5
361
100
AcDbEntity
  8
0
100
AcDbLine
 62
7
  6
CONTINUOUS
 10
227.768673003
 20
218.513768811
 11
227.2584441531
 21
218.8520024988
  0
LINE
  5
362
100
AcDbEntity
  8
0
100
AcDbLine
 62
7
  6
CONTINUOUS
 10
208.7737396614
 20
213.0546306604
 11
208.4612396614
 21
213.3555271272
  0
LINE
  5
363
100
AcDbEntity
  8
0
100
AcDbLine
 62
7
  6
CONTINUOUS
 10
211.0654071228
 20
211.8510445826
 11
212.6279071228
 21
210.120889688
  0
LINE
  5
364
100
AcDbEntity
  8
0
100
AcDbLine
 62
7
  6
CONTINUOUS
 10
213.4612396614
 20
210.120889688
 11
211.5862396614
 21
212.2271651661
  0
LINE
  5
365
100
AcDbEntity
  8
0
100
AcDbLine
 62
7
  6
CONTINUOUS
 10
204.1904065268
 20
210.120889688
 11
203.2529065268
 21
211.8510445826
  0
LINE
  5
366
100
AcDbEntity
  8
0
100
AcDbLine
 62
7
  6
CONTINUOUS
 10
202.6279065268
 20
211.7005963492
 11
203.4612402575
 21
210.120889688
  0
LINE
  5
367
100
AcDbEntity
  8
0
100
AcDbLine
 62
7
  6
CONTINUOUS
 10
197.3154066758
 20
210.5722344408
 11
195.8570733921
 21
213.6564235939
  0
LINE
  5
368
100
AcDbEntity
  8
0
100
AcDbLine
 62
7
  6
CONTINUOUS
 10
195.2320733921
 20
213.6564235939
 11
196.8987401085
 21
210.120889688
  0
LINE
  5
369
100
AcDbEntity
  8
RUNDUNGEN
100
AcDbLine
 62
7
  6
CONTINUOUS
 10
172.9647680789
 20
270.2662218005
 11
186.5517489175
 21
237.4643483883
  0
LINE
  5
36A
100
AcDbEntity
  8
0
100
AcDbLine
 62
7
  6
CONTINUOUS
 10
199.3987399594
 20
213.2290849244
 11
199.3987399594
 21
213.6564235939
  0
LINE
  5
36B
100
AcDbEntity
  8
0
100
AcDbLine
 62
7
  6
CONTINUOUS
 10
200.2320733921
 20
209.6935510184
 11
200.2320733921
 21
213.6564235939
  0
LINE
  5
36C
100
AcDbEntity
  8
0
100
AcDbLine
 62
7
  6
CONTINUOUS
 10
200.8570733921
 20
209.6935510184
 11
200.8570733921
 21
211.7005963492
  0
LINE
  5
36D
100
AcDbEntity
  8
0
100
AcDbLine
 62
7
  6
CONTINUOUS
 10
200.8570733921
 20
212.1519410494
 11
200.8570733921
 21
213.2803030105
  0
LINE
  5
36E
100
AcDbEntity
  8
0
100
AcDbLine
 62
7
  6
CONTINUOUS
 10
202.6279065268
 20
211.3462093418
 11
202.6279065268
 21
211.7005963492
  0
LINE
  5
36F
100
AcDbEntity
  8
0
100
AcDbLine
 62
7
  6
CONTINUOUS
 10
202.8362402575
 20
212.8810524234
 11
202.8362402575
 21
213.2803030105
  0
LINE
  5
370
100
AcDbEntity
  8
0
100
AcDbLine
 62
7
  6
CONTINUOUS
 10
203.1487402575
 20
212.8106396652
 11
203.1487402575
 21
213.2050788938
  0
LINE
  5
371
100
AcDbEntity
  8
0
100
AcDbLine
 62
7
  6
CONTINUOUS
 10
203.3570733921
 20
212.6690094172
 11
203.3570733921
 21
213.0546306604
  0
LINE
  5
372
100
AcDbEntity
  8
0
100
AcDbLine
 62
7
  6
CONTINUOUS
 10
203.4612402575
 20
212.8289583103
 11
203.4612402575
 21
212.6032857495
  0
LINE
  5
373
100
AcDbEntity
  8
0
100
AcDbLine
 62
7
  6
CONTINUOUS
 10
203.4612402575
 20
209.6935510184
 11
203.4612402575
 21
210.120889688
  0
LINE
  5
374
100
AcDbEntity
  8
0
100
AcDbLine
 62
7
  6
CONTINUOUS
 10
203.6695733921
 20
211.6476393271
 11
203.6695733921
 21
212.001492816
  0
LINE
  5
375
100
AcDbEntity
  8
0
100
AcDbLine
 62
7
  6
CONTINUOUS
 10
203.9820733921
 20
211.9448008821
 11
203.9820733921
 21
212.3023892828
  0
LINE
  5
376
100
AcDbEntity
  8
0
100
AcDbLine
 62
7
  6
CONTINUOUS
 10
204.0862402575
 20
212.1648696309
 11
204.0862402575
 21
212.8289583103
  0
LINE
  5
377
100
AcDbEntity
  8
0
100
AcDbLine
 62
7
  6
CONTINUOUS
 10
204.1904065268
 20
209.6935510184
 11
204.1904065268
 21
210.120889688
  0
LINE
  5
378
100
AcDbEntity
  8
0
100
AcDbLine
 62
7
  6
CONTINUOUS
 10
205.0237402575
 20
209.6935510184
 11
205.0237402575
 21
213.6564235939
  0
LINE
  5
379
100
AcDbEntity
  8
0
100
AcDbLine
 62
7
  6
CONTINUOUS
 10
205.6487396614
 20
210.5722344408
 11
205.6487396614
 21
211.7005963492
  0
LINE
  5
37A
100
AcDbEntity
  8
0
100
AcDbLine
 62
7
  6
CONTINUOUS
 10
205.6487396614
 20
212.1519410494
 11
205.6487396614
 21
213.2050788938
  0
LINE
  5
37B
100
AcDbEntity
  8
0
100
AcDbLine
 62
7
  6
CONTINUOUS
 10
208.2529071228
 20
212.6032857495
 11
208.1487396614
 21
212.3776133995
  0
LINE
  5
37C
100
AcDbEntity
  8
0
100
AcDbLine
 62
7
  6
CONTINUOUS
 10
208.7737396614
 20
212.3023892828
 11
208.8779071228
 21
212.5280616328
  0
LINE
  5
37D
100
AcDbEntity
  8
0
100
AcDbLine
 62
7
  6
CONTINUOUS
 10
208.2529071228
 20
211.0235791937
 11
208.1487396614
 21
210.7979068436
  0
LINE
  5
37E
100
AcDbEntity
  8
0
100
AcDbLine
 62
7
  6
CONTINUOUS
 10
208.7737396614
 20
210.7226826742
 11
208.8779071228
 21
210.948355077
  0
LINE
  5
37F
100
AcDbEntity
  8
0
100
AcDbLine
 62
7
  6
CONTINUOUS
 10
208.1487396614
 20
211.4749239992
 11
208.2529071228
 21
211.2492515437
  0
LINE
  5
380
100
AcDbEntity
  8
0
100
AcDbLine
 62
7
  6
CONTINUOUS
 10
208.8779071228
 20
211.3244756604
 11
208.7737396614
 21
211.5501481159
  0
LINE
  5
381
100
AcDbEntity
  8
0
100
AcDbLine
 62
7
  6
CONTINUOUS
 10
208.1487396614
 20
212.9794065437
 11
208.2529071228
 21
212.7537339829
  0
LINE
  5
382
100
AcDbEntity
  8
0
100
AcDbLine
 62
7
  6
CONTINUOUS
 10
208.8779071228
 20
212.8289583103
 11
208.7737396614
 21
213.0546306604
  0
LINE
  5
383
100
AcDbEntity
  8
0
100
AcDbLine
 62
7
  6
CONTINUOUS
 10
203.3570733921
 20
213.0546306604
 11
203.4612402575
 21
212.8289583103
  0
LINE
  5
384
100
AcDbEntity
  8
0
100
AcDbLine
 62
7
  6
CONTINUOUS
 10
204.0862402575
 20
212.8289583103
 11
203.9820733921
 21
213.0546306604
  0
LINE
  5
385
100
AcDbEntity
  8
0
100
AcDbLine
 62
7
  6
CONTINUOUS
 10
207.5237396614
 20
209.6935510184
 11
207.5237396614
 21
210.120889688
  0
LINE
  5
386
100
AcDbEntity
  8
0
100
AcDbLine
 62
7
  6
CONTINUOUS
 10
207.6279071228
 20
211.3462093418
 11
207.6279071228
 21
211.7005963492
  0
LINE
  5
387
100
AcDbEntity
  8
0
100
AcDbLine
 62
7
  6
CONTINUOUS
 10
207.6279071228
 20
212.8106396652
 11
207.6279071228
 21
213.2050788938
  0
LINE
  5
388
100
AcDbEntity
  8
0
100
AcDbLine
 62
7
  6
CONTINUOUS
 10
207.9404071228
 20
211.2701849221
 11
207.9404071228
 21
211.6253722326
  0
LINE
  5
389
100
AcDbEntity
  8
0
100
AcDbLine
 62
7
  6
CONTINUOUS
 10
207.9404071228
 20
212.7399586056
 11
207.9404071228
 21
213.1298547771
  0
LINE
  5
38A
100
AcDbEntity
  8
0
100
AcDbLine
 62
7
  6
CONTINUOUS
 10
208.0445733921
 20
209.774930961
 11
208.0445733921
 21
210.1961138113
  0
LINE
  5
38B
100
AcDbEntity
  8
0
100
AcDbLine
 62
7
  6
CONTINUOUS
 10
208.1487396614
 20
211.1173355985
 11
208.1487396614
 21
211.4749239992
  0
LINE
  5
38C
100
AcDbEntity
  8
0
100
AcDbLine
 62
7
  6
CONTINUOUS
 10
208.1487396614
 20
212.5977922625
 11
208.1487396614
 21
212.9794065437
  0
LINE
  5
38D
100
AcDbEntity
  8
0
100
AcDbLine
 62
7
  6
CONTINUOUS
 10
208.2529071228
 20
212.7537339829
 11
208.2529071228
 21
212.6032857495
  0
LINE
  5
38E
100
AcDbEntity
  8
0
100
AcDbLine
 62
7
  6
CONTINUOUS
 10
208.2529071228
 20
211.2492515437
 11
208.2529071228
 21
211.0235791937
  0
LINE
  5
38F
100
AcDbEntity
  8
0
100
AcDbLine
 62
7
  6
CONTINUOUS
 10
208.4612396614
 20
210.017455753
 11
208.4612396614
 21
210.4217861811
  0
LINE
  5
390
100
AcDbEntity
  8
0
100
AcDbLine
 62
7
  6
CONTINUOUS
 10
208.4612396614
 20
211.8510445826
 11
208.4612396614
 21
212.001492816
  0
LINE
  5
391
100
AcDbEntity
  8
0
100
AcDbLine
 62
7
  6
CONTINUOUS
 10
208.7737396614
 20
210.3370614339
 11
208.7737396614
 21
210.7226826742
  0
LINE
  5
392
100
AcDbEntity
  8
0
100
AcDbLine
 62
7
  6
CONTINUOUS
 10
208.7737396614
 20
211.9448008821
 11
208.7737396614
 21
212.3023892828
  0
LINE
  5
393
100
AcDbEntity
  8
0
100
AcDbLine
 62
7
  6
CONTINUOUS
 10
208.8779071228
 20
210.5739514228
 11
208.8779071228
 21
211.3244756604
  0
LINE
  5
394
100
AcDbEntity
  8
0
100
AcDbLine
 62
7
  6
CONTINUOUS
 10
208.8779071228
 20
212.1648696309
 11
208.8779071228
 21
212.8289583103
  0
LINE
  5
395
100
AcDbEntity
  8
0
100
AcDbLine
 62
7
  6
CONTINUOUS
 10
209.7112396614
 20
209.6935510184
 11
209.7112396614
 21
213.6564235939
  0
LINE
  5
396
100
AcDbEntity
  8
0
100
AcDbLine
 62
7
  6
CONTINUOUS
 10
210.3362396614
 20
209.6935510184
 11
210.3362396614
 21
211.3244756604
  0
LINE
  5
397
100
AcDbEntity
  8
0
100
AcDbLine
 62
7
  6
CONTINUOUS
 10
210.3362396614
 20
211.9262686993
 11
210.3362396614
 21
213.6564235939
  0
LINE
  5
398
100
AcDbEntity
  8
0
100
AcDbLine
 62
7
  6
CONTINUOUS
 10
211.0654071228
 20
211.497457848
 11
211.0654071228
 21
211.8510445826
  0
LINE
  5
399
100
AcDbEntity
  8
0
100
AcDbLine
 62
7
  6
CONTINUOUS
 10
212.6279071228
 20
209.6935510184
 11
212.6279071228
 21
210.120889688
  0
LINE
  5
39A
100
AcDbEntity
  8
0
100
AcDbLine
 62
7
  6
CONTINUOUS
 10
213.4612396614
 20
209.6935510184
 11
213.4612396614
 21
210.120889688
  0
LINE
  5
39B
100
AcDbEntity
  8
0
100
AcDbLine
 62
7
  6
CONTINUOUS
 10
213.4612396614
 20
213.2290849244
 11
213.4612396614
 21
213.6564235939
  0
LINE
  5
39C
100
AcDbEntity
  8
RUNDUNGEN
100
AcDbLine
 62
7
  6
CONTINUOUS
 10
137.4108574187
 20
287.2123111403
 11
169.1763953779
 21
274.0545945015
  0
LWPOLYLINE
  5
39D
100
AcDbEntity
  8
0
100
AcDbPolyline
 62
7
  6
CONTINUOUS
 90
10
 70
0
 10
231.1877715398
 20
214.1146023479
 10
231.0925057429
 20
214.3540285176
 10
230.8460273054
 20
214.8994659989
 10
230.5562902274
 20
215.4448393188
 10
230.2206435795
 20
215.9879933432
 10
229.8376536989
 20
216.5234736379
 10
229.4027451134
 20
217.0496169281
 10
228.9197359823
 20
217.5552361192
 10
228.3770411575
 20
218.0450133509
 10
227.768673003
 20
218.513768811
  0
LINE
  5
39E
100
AcDbEntity
  8
0
100
AcDbLine
 62
7
  6
CONTINUOUS
 10
240.6504428606
 20
189.479886839
 11
231.1867616887
 21
214.1178847508
  0
LWPOLYLINE
  5
39F
100
AcDbEntity
  8
KONSTRUKTIONSELEMENTE
100
AcDbPolyline
 62
7
  6
CONTINUOUS
 90
11
 70
0
 10
240.6517489227
 20
145.514611538
 10
237.1514283989
 20
173.5998679428
 10
237.0637897657
 20
174.3788982484
 10
236.9873227004
 20
175.1356434143
 10
236.9222758547
 20
175.8640070505
 10
236.8687223141
 20
176.5582308413
 10
236.8267224329
 20
177.2125217585
 10
236.7959942331
 20
177.8217528524
 10
236.7762602666
 20
178.3808749778
 10
236.7669276728
 20
178.8846057338
 10
236.7659558073
 20
179.0958367963
  0
LINE
  5
3A0
100
AcDbEntity
  8
KONSTRUKTIONSELEMENTE
100
AcDbLine
 62
7
  6
CONTINUOUS
 10
240.6834426781
 20
137.4778826926
 11
240.6834426781
 21
145.0042499134
  0
LINE
  5
3A1
100
AcDbEntity
  8
0
100
AcDbLine
 62
7
  6
CONTINUOUS
 10
240.6834426781
 20
181.7692302851
 11
240.6834426781
 21
189.2955975059
  0
LWPOLYLINE
  5
3A2
100
AcDbEntity
  8
0
100
AcDbPolyline
 62
7
  6
CONTINUOUS
 90
3
 70
0
 10
236.7659558073
 20
179.0958367963
 10
236.7660592568
 20
179.1653554906
 10
236.7689096702
 20
179.4412268254
  0
LWPOLYLINE
  5
3A3
100
AcDbEntity
  8
0
100
AcDbPolyline
 62
7
  6
CONTINUOUS
 90
3
 70
0
 10
236.7689096702
 20
179.4412268254
 10
236.7749327953
 20
179.6757919077
 10
236.7831754454
 20
179.8726628827
  0
LWPOLYLINE
  5
3A4
100
AcDbEntity
  8
0
100
AcDbPolyline
 62
7
  6
CONTINUOUS
 90
7
 70
0
 10
236.7831754454
 20
179.8726628827
 10
236.7928121278
 20
180.0347342218
 10
236.8029768296
 20
180.1635834576
 10
236.8128359122
 20
180.2616753531
 10
236.8209065188
 20
180.3264555695
 10
236.8255639596
 20
180.357227845
 10
236.8259550632
 20
180.3594453512
  0
LINE
  5
3A5
100
AcDbEntity
  8
0
100
AcDbLine
 62
7
  6
CONTINUOUS
 10
324.6779240468
 20
137.0903492573
 11
321.6779240468
 21
137.0903492573
  0
LINE
  5
3A6
100
AcDbEntity
  8
KONSTRUKTIONSELEMENTE
100
AcDbLine
 62
7
  6
CONTINUOUS
 10
325.9386288217
 20
132.2416475219
 11
328.7484453477
 21
129.5343682491
  0
LINE
  5
3A7
100
AcDbEntity
  8
0
100
AcDbLine
 62
7
  6
CONTINUOUS
 10
325.9386288217
 20
132.2416475219
 11
328.7484453477
 21
129.5343682491
  0
LINE
  5
3A8
100
AcDbEntity
  8
0
100
AcDbLine
 62
7
  6
CONTINUOUS
 10
276.5680620108
 20
181.7147515861
 11
279.2753412836
 21
178.90493506
  0
LINE
  5
3A9
100
AcDbEntity
  8
KONSTRUKTIONSELEMENTE
100
AcDbLine
 62
7
  6
CONTINUOUS
 10
276.5680620108
 20
181.7147515861
 11
279.2753412836
 21
178.90493506
  0
LINE
  5
3AA
100
AcDbEntity
  8
RUNDUNGEN
100
AcDbLine
 62
7
  6
CONTINUOUS
 10
284.124043019
 20
174.6442302851
 11
284.124043019
 21
177.6442302851
  0
LINE
  5
3AB
100
AcDbEntity
  8
0
100
AcDbLine
 62
7
  6
CONTINUOUS
 10
324.6779240468
 20
172.6442302851
 11
321.6779240468
 21
172.6442302851
  0
LINE
  5
3AC
100
AcDbEntity
  8
RUNDUNGEN
100
AcDbLine
 62
7
  6
CONTINUOUS
 10
319.6779240468
 20
174.6442302851
 11
284.1240663314
 21
174.6442302851
  0
LINE
  5
3AD
100
AcDbEntity
  8
KONSTRUKTIONSELEMENTE
100
AcDbLine
 62
7
  6
CONTINUOUS
 10
319.6779240468
 20
177.6442302851
 11
282.2437496046
 21
177.6442302851
  0
LINE
  5
3AE
100
AcDbEntity
  8
RUNDUNGEN
100
AcDbLine
 62
7
  6
CONTINUOUS
 10
282.2437495161
 20
177.6442302851
 11
292.0379436751
 21
177.6442302851
  0
LINE
  5
3AF
100
AcDbEntity
  8
KONSTRUKTIONSELEMENTE
100
AcDbLine
 62
7
  6
CONTINUOUS
 10
283.6213721108
 20
196.7361924205
 11
276.2589271153
 21
187.0744594956
  0
LINE
  5
3B0
100
AcDbEntity
  8
KONSTRUKTIONSELEMENTE
100
AcDbLine
 62
7
  6
CONTINUOUS
 10
290.5130896934
 20
205.7677276935
 11
283.6213721108
 21
196.7361924205
  0
LINE
  5
3B1
100
AcDbEntity
  8
KONSTRUKTIONSELEMENTE
100
AcDbLine
 62
7
  6
CONTINUOUS
 10
296.6169531105
 20
213.7531269087
 11
290.5130896934
 21
205.7677276935
  0
LINE
  5
3B2
100
AcDbEntity
  8
KONSTRUKTIONSELEMENTE
100
AcDbLine
 62
7
  6
CONTINUOUS
 10
296.6174663341
 20
213.7537129651
 11
296.6169467053
 21
213.7531185367
  0
LINE
  5
3B3
100
AcDbEntity
  8
KONSTRUKTIONSELEMENTE
100
AcDbLine
 62
7
  6
CONTINUOUS
 10
296.6174693408
 20
213.7537159718
 11
299.8383284566
 21
216.9745750876
  0
LINE
  5
3B4
100
AcDbEntity
  8
0
100
AcDbLine
 62
7
  6
CONTINUOUS
 10
302.3507441239
 20
218.2134340236
 11
299.8378606754
 21
216.9741073064
  0
LINE
  5
3B5
100
AcDbEntity
  8
KONSTRUKTIONSELEMENTE
100
AcDbLine
 62
7
  6
CONTINUOUS
 10
302.3507441239
 20
218.2134340236
 11
299.8378606754
 21
216.9741073064
  0
LINE
  5
3B6
100
AcDbEntity
  8
0
100
AcDbLine
 62
7
  6
CONTINUOUS
 10
305.4177609947
 20
219.7124425597
 11
302.3507441239
 21
218.2134340236
  0
LINE
  5
3B7
100
AcDbEntity
  8
KONSTRUKTIONSELEMENTE
100
AcDbLine
 62
7
  6
CONTINUOUS
 10
305.4177609947
 20
219.7124425597
 11
302.3507441239
 21
218.2134340236
  0
LINE
  5
3B8
100
AcDbEntity
  8
RUNDUNGEN
100
AcDbLine
 62
7
  6
CONTINUOUS
 10
319.6779240468
 20
174.6442302851
 11
319.6779240468
 21
177.6442302851
  0
LINE
  5
3B9
100
AcDbEntity
  8
0
100
AcDbLine
 62
7
  6
CONTINUOUS
 10
321.6779240468
 20
172.6442302851
 11
321.6779240468
 21
137.0903725697
  0
LINE
  5
3BA
100
AcDbEntity
  8
0
100
AcDbLine
 62
7
  6
CONTINUOUS
 10
324.6779240468
 20
135.2100557545
 11
324.6779240468
 21
172.6442302851
  0
LINE
  5
3BB
100
AcDbEntity
  8
BEZUGSACHSEN
100
AcDbLine
 62
7
  6
CONTINUOUS
 10
324.8555935765
 20
220.3218998148
 11
324.8555935765
 21
282.7451544127
  0
LWPOLYLINE
  5
3BC
100
AcDbEntity
  8
0
100
AcDbPolyline
 62
7
  6
CONTINUOUS
 90
7
 70
0
 10
308.0836161131
 20
220.3219039795
 10
307.8074815225
 20
220.3157073806
 10
307.2534647887
 20
220.2657740921
 10
306.7086645022
 20
220.1666625407
 10
306.1780869143
 20
220.0195468279
 10
305.6668046979
 20
219.8265091243
 10
305.4177642528
 20
219.7124463407
  0
LWPOLYLINE
  5
3BD
100
AcDbEntity
  8
KONSTRUKTIONSELEMENTE
100
AcDbPolyline
 62
7
  6
CONTINUOUS
 90
7
 70
0
 10
308.0836161131
 20
220.3219039795
 10
307.8074815225
 20
220.3157073806
 10
307.2534647887
 20
220.2657740921
 10
306.7086645022
 20
220.1666625407
 10
306.1780869143
 20
220.0195468279
 10
305.6668046979
 20
219.8265091243
 10
305.4177642528
 20
219.7124463407
  0
LINE
  5
3BE
100
AcDbEntity
  8
RUNDUNGEN
100
AcDbLine
 62
7
  6
CONTINUOUS
 10
308.0841788891
 20
220.3218998148
 11
337.3555935765
 21
220.3218998148
  0
LINE
  5
3BF
100
AcDbEntity
  8
KONSTRUKTIONSELEMENTE
100
AcDbLine
 62
7
  6
CONTINUOUS
 10
308.0841788891
 20
220.3218998148
 11
308.0837406912
 21
220.3218997912
  0
LINE
  5
3C0
100
AcDbEntity
  8
0
100
AcDbLine
 62
7
  6
CONTINUOUS
 10
356.7272447801
 20
213.2290849244
 11
357.1545834497
 21
213.6564235939
  0
LINE
  5
3C1
100
AcDbEntity
  8
0
100
AcDbLine
 62
7
  6
CONTINUOUS
 10
358.9046044996
 20
211.1938936877
 11
359.2608589278
 21
211.5501481159
  0
LINE
  5
3C2
100
AcDbEntity
  8
RUNDUNGEN
100
AcDbLine
 62
7
  6
CONTINUOUS
 10
349.8555935765
 20
217.5935531307
 11
349.8555935765
 21
282.7451544127
  0
LINE
  5
3C3
100
AcDbEntity
  8
0
100
AcDbLine
 62
7
  6
CONTINUOUS
 10
360.262778686
 20
209.6935510184
 11
360.6901173556
 21
210.120889688
  0
LINE
  5
3C4
100
AcDbEntity
  8
0
100
AcDbLine
 62
7
  6
CONTINUOUS
 10
357.1545834497
 20
213.6564235939
 11
360.6901173556
 21
210.120889688
  0
LINE
  5
3C5
100
AcDbEntity
  8
0
100
AcDbLine
 62
7
  6
CONTINUOUS
 10
367.3555935765
 20
161.0504851275
 11
367.3555935765
 21
190.3218998148
  0
LWPOLYLINE
  5
3C6
100
AcDbEntity
  8
KONSTRUKTIONSELEMENTE
100
AcDbPolyline
 62
7
  6
CONTINUOUS
 90
7
 70
0
 10
366.7461401024
 20
158.3840704911
 10
366.860202886
 20
158.6331109362
 10
367.0532405896
 20
159.1443931526
 10
367.2003563024
 20
159.6749707406
 10
367.2994678538
 20
160.219771027
 10
367.3494011423
 20
160.7737877608
 10
367.3555977412
 20
161.0499223514
  0
LWPOLYLINE
  5
3C7
100
AcDbEntity
  8
0
100
AcDbPolyline
 62
7
  6
CONTINUOUS
 90
7
 70
0
 10
366.7461401024
 20
158.3840704911
 10
366.860202886
 20
158.6331109362
 10
367.0532405896
 20
159.1443931526
 10
367.2003563024
 20
159.6749707406
 10
367.2994678538
 20
160.219771027
 10
367.3494011423
 20
160.7737877608
 10
367.3555977412
 20
161.0499223514
  0
LINE
  5
3C8
100
AcDbEntity
  8
KONSTRUKTIONSELEMENTE
100
AcDbLine
 62
7
  6
CONTINUOUS
 10
365.7980798346
 20
156.4406171207
 11
366.7461363214
 21
158.384067233
  0
LINE
  5
3C9
100
AcDbEntity
  8
0
100
AcDbLine
 62
7
  6
CONTINUOUS
 10
365.7980798346
 20
156.4406171207
 11
366.7461363214
 21
158.384067233
  0
LINE
  5
3CA
100
AcDbEntity
  8
KONSTRUKTIONSELEMENTE
100
AcDbLine
 62
7
  6
CONTINUOUS
 10
364.6833703379
 20
154.1715577084
 11
365.7980798346
 21
156.4406171207
  0
LINE
  5
3CB
100
AcDbEntity
  8
0
100
AcDbLine
 62
7
  6
CONTINUOUS
 10
364.6833703379
 20
154.1715577084
 11
365.7980798346
 21
156.4406171207
  0
LINE
  5
3CC
100
AcDbEntity
  8
KONSTRUKTIONSELEMENTE
100
AcDbLine
 62
7
  6
CONTINUOUS
 10
364.0078010681
 20
152.8041669137
 11
364.6833703379
 21
154.1715577084
  0
LINE
  5
3CD
100
AcDbEntity
  8
0
100
AcDbLine
 62
7
  6
CONTINUOUS
 10
364.0078010681
 20
152.8041669137
 11
364.6833703379
 21
154.1715577084
  0
LINE
  5
3CE
100
AcDbEntity
  8
0
100
AcDbLine
 62
7
  6
CONTINUOUS
 10
360.7874097335
 20
149.5837755791
 11
364.0082688493
 21
152.804634695
  0
LINE
  5
3CF
100
AcDbEntity
  8
KONSTRUKTIONSELEMENTE
100
AcDbLine
 62
7
  6
CONTINUOUS
 10
360.7874067268
 20
149.5837725724
 11
360.7868122984
 21
149.5832529436
  0
LINE
  5
3D0
100
AcDbEntity
  8
0
100
AcDbLine
 62
7
  6
CONTINUOUS
 10
352.8014214551
 20
143.4793959317
 11
360.7868206704
 21
149.5832593489
  0
LINE
  5
3D1
100
AcDbEntity
  8
KONSTRUKTIONSELEMENTE
100
AcDbLine
 62
7
  6
CONTINUOUS
 10
334.1089591798
 20
129.2258477125
 11
334.1088942793
 21
129.225798136
  0
LINE
  5
3D2
100
AcDbEntity
  8
0
100
AcDbLine
 62
7
  6
CONTINUOUS
 10
343.7698861822
 20
136.5876783491
 11
352.8014214551
 21
143.4793959317
  0
LINE
  5
3D3
100
AcDbEntity
  8
0
100
AcDbLine
 62
7
  6
CONTINUOUS
 10
334.1081532573
 20
129.2252333537
 11
343.7698861822
 21
136.5876783491
  0
LINE
  5
3D4
100
AcDbEntity
  8
BEZUGSACHSEN
100
AcDbLine
 62
7
  6
CONTINUOUS
 10
329.8555935765
 20
287.7451544127
 11
344.8555935765
 21
287.7451544127
  0
LINE
  5
3D5
100
AcDbEntity
  8
KONSTRUKTIONSELEMENTE
100
AcDbLine
 62
7
  6
CONTINUOUS
 10
28.7807041062
 20
90.1632160768
 11
28.7807041062
 21
82.636848856
  0
LINE
  5
3D6
100
AcDbEntity
  8
0
100
AcDbLine
 62
7
  6
CONTINUOUS
 10
28.7807041062
 20
45.8718684843
 11
28.7807041062
 21
38.3455012635
  0
LWPOLYLINE
  5
3D7
100
AcDbEntity
  8
0
100
AcDbPolyline
 62
7
  6
CONTINUOUS
 90
3
 70
0
 10
32.6981909769
 20
48.5452619732
 10
32.6980875275
 20
48.4757432788
 10
32.695237114
 20
48.199871944
  0
LWPOLYLINE
  5
3D8
100
AcDbEntity
  8
0
100
AcDbPolyline
 62
7
  6
CONTINUOUS
 90
3
 70
0
 10
32.695237114
 20
48.199871944
 10
32.689213989
 20
47.9653068617
 10
32.6809713389
 20
47.7684358868
  0
LWPOLYLINE
  5
3D9
100
AcDbEntity
  8
0
100
AcDbPolyline
 62
7
  6
CONTINUOUS
 90
7
 70
0
 10
32.6809713389
 20
47.7684358868
 10
32.6713346564
 20
47.6063645477
 10
32.6611699547
 20
47.4775153119
 10
32.6513108721
 20
47.3794234163
 10
32.6432402654
 20
47.3146431999
 10
32.6385828247
 20
47.2838709245
 10
32.6381917211
 20
47.2816534182
  0
LWPOLYLINE
  5
3DA
100
AcDbEntity
  8
0
100
AcDbPolyline
 62
7
  6
CONTINUOUS
 90
10
 70
0
 10
38.2763752445
 20
13.5264964215
 10
38.3716410413
 20
13.2870702518
 10
38.6181194789
 20
12.7416327705
 10
38.9078565569
 20
12.1962594506
 10
39.2435032047
 20
11.6531054262
 10
39.6264930853
 20
11.1176251316
 10
40.0614016708
 20
10.5914818414
 10
40.5444108019
 20
10.0858626503
 10
41.0871056268
 20
9.5960854185
 10
41.6954737813
 20
9.1273299584
  0
LINE
  5
3DB
100
AcDbEntity
  8
0
100
AcDbLine
 62
7
  6
CONTINUOUS
 10
28.8137039236
 20
38.1612119304
 11
38.2773850955
 21
13.5232140186
  0
LWPOLYLINE
  5
3DC
100
AcDbEntity
  8
KONSTRUKTIONSELEMENTE
100
AcDbPolyline
 62
7
  6
CONTINUOUS
 90
11
 70
0
 10
28.8123978616
 20
82.1264872314
 10
32.3127183854
 20
54.0412308266
 10
32.4003570186
 20
53.262200521
 10
32.4768240839
 20
52.5054553552
 10
32.5418709296
 20
51.7770917189
 10
32.5954244701
 20
51.0828679282
 10
32.6374243514
 20
50.4285770109
 10
32.6681525511
 20
49.819345917
 10
32.6878865176
 20
49.2602237917
 10
32.6972191114
 20
48.7564930356
 10
32.6981909769
 20
48.5452619732
  0
LWPOLYLINE
  5
3DD
100
AcDbEntity
  8
0
100
AcDbPolyline
 62
7
  6
CONTINUOUS
 90
15
 70
0
 10
42.209006488
 20
8.7872563713
 10
42.4484973665
 20
8.6436065995
 10
42.7571322017
 20
8.4712343349
 10
43.0862948605
 20
8.3032126015
 10
43.4326290076
 20
8.1428641544
 10
43.7928632927
 20
7.9929436456
 10
44.1611612452
 20
7.8565969904
 10
44.5394585836
 20
7.7336477487
 10
44.9263980803
 20
7.6252057139
 10
45.3232548506
 20
7.531632762
 10
45.7311229613
 20
7.4536197416
 10
46.1491240319
 20
7.3923735093
 10
46.5763981189
 20
7.3489842287
 10
47.0120049521
 20
7.3245112074
 10
47.3300711661
 20
7.3191989573
  0
LINE
  5
3DE
100
AcDbEntity
  8
0
100
AcDbLine
 62
7
  6
CONTINUOUS
 10
42.209006488
 20
8.7872563713
 11
42.2057518092
 21
8.7892710136
  0
LINE
  5
3DF
100
AcDbEntity
  8
0
100
AcDbLine
 62
7
  6
CONTINUOUS
 10
41.6954737813
 20
9.1273299584
 11
42.2057026312
 21
8.7890962706
  0
LINE
  5
3E0
100
AcDbEntity
  8
0
100
AcDbLine
 62
7
  6
CONTINUOUS
 10
56.0029071228
 20
17.947547751
 11
56.0029071228
 21
17.5202090814
  0
LINE
  5
3E1
100
AcDbEntity
  8
0
100
AcDbLine
 62
7
  6
CONTINUOUS
 10
56.0029071228
 20
14.4120138451
 11
56.0029071228
 21
13.9846751755
  0
LINE
  5
3E2
100
AcDbEntity
  8
0
100
AcDbLine
 62
7
  6
CONTINUOUS
 10
56.8362396614
 20
17.947547751
 11
56.8362396614
 21
17.5202090814
  0
LINE
  5
3E3
100
AcDbEntity
  8
0
100
AcDbLine
 62
7
  6
CONTINUOUS
 10
58.3987396614
 20
16.1436409214
 11
58.3987396614
 21
15.7900541868
  0
LINE
  5
3E4
100
AcDbEntity
  8
0
100
AcDbLine
 62
7
  6
CONTINUOUS
 10
60.6904071228
 20
14.586468109
 11
61.0029071228
 21
14.2855716423
  0
LINE
  5
3E5
100
AcDbEntity
  8
0
100
AcDbLine
 62
7
  6
CONTINUOUS
 10
60.6904071228
 20
16.0909506536
 11
61.0029071228
 21
15.7900541868
  0
LINE
  5
3E6
100
AcDbEntity
  8
0
100
AcDbLine
 62
7
  6
CONTINUOUS
 10
58.3987396614
 20
15.7900541868
 11
56.8362396614
 21
17.5202090814
  0
LINE
  5
3E7
100
AcDbEntity
  8
0
100
AcDbLine
 62
7
  6
CONTINUOUS
 10
56.0029071228
 20
17.5202090814
 11
57.8779071228
 21
15.4139336034
  0
LINE
  5
3E8
100
AcDbEntity
  8
0
100
AcDbLine
 62
7
  6
CONTINUOUS
 10
65.2737402575
 20
17.5202090814
 11
66.2112402575
 21
15.7900541868
  0
LINE
  5
3E9
100
AcDbEntity
  8
0
100
AcDbLine
 62
7
  6
CONTINUOUS
 10
66.8362402575
 20
15.9405024202
 11
66.0029065268
 21
17.5202090814
  0
LINE
  5
3EA
100
AcDbEntity
  8
0
100
AcDbLine
 62
7
  6
CONTINUOUS
 10
60.5862396614
 20
14.8121404591
 11
60.6904071228
 21
14.586468109
  0
LINE
  5
3EB
100
AcDbEntity
  8
0
100
AcDbLine
 62
7
  6
CONTINUOUS
 10
61.3154071228
 20
14.6616922257
 11
61.2112396614
 21
14.8873647865
  0
LINE
  5
3EC
100
AcDbEntity
  8
0
100
AcDbLine
 62
7
  6
CONTINUOUS
 10
60.5862396614
 20
16.316623109
 11
60.6904071228
 21
16.0909506536
  0
LINE
  5
3ED
100
AcDbEntity
  8
0
100
AcDbLine
 62
7
  6
CONTINUOUS
 10
61.3154071228
 20
16.1661747703
 11
61.2112396614
 21
16.3918472257
  0
LINE
  5
3EE
100
AcDbEntity
  8
0
100
AcDbLine
 62
7
  6
CONTINUOUS
 10
65.3779065268
 20
14.8121404591
 11
65.4820733921
 21
14.586468109
  0
LINE
  5
3EF
100
AcDbEntity
  8
0
100
AcDbLine
 62
7
  6
CONTINUOUS
 10
66.1070733921
 20
14.586468109
 11
66.0029065268
 21
14.8121404591
  0
LINE
  5
3F0
100
AcDbEntity
  8
0
100
AcDbLine
 62
7
  6
CONTINUOUS
 10
59.1279071228
 20
17.947547751
 11
59.1279071228
 21
16.316623109
  0
LINE
  5
3F1
100
AcDbEntity
  8
0
100
AcDbLine
 62
7
  6
CONTINUOUS
 10
59.1279071228
 20
15.7148300701
 11
59.1279071228
 21
13.9846751755
  0
LINE
  5
3F2
100
AcDbEntity
  8
0
100
AcDbLine
 62
7
  6
CONTINUOUS
 10
59.7529071228
 20
13.9846751755
 11
59.7529071228
 21
17.947547751
  0
LINE
  5
3F3
100
AcDbEntity
  8
0
100
AcDbLine
 62
7
  6
CONTINUOUS
 10
60.5862396614
 20
17.0671473466
 11
60.5862396614
 21
16.316623109
  0
LINE
  5
3F4
100
AcDbEntity
  8
0
100
AcDbLine
 62
7
  6
CONTINUOUS
 10
60.5862396614
 20
15.4762291385
 11
60.5862396614
 21
14.8121404591
  0
LINE
  5
3F5
100
AcDbEntity
  8
0
100
AcDbLine
 62
7
  6
CONTINUOUS
 10
60.6904071228
 20
17.3040373355
 11
60.6904071228
 21
16.9184160952
  0
LINE
  5
3F6
100
AcDbEntity
  8
0
100
AcDbLine
 62
7
  6
CONTINUOUS
 10
60.6904071228
 20
15.6962978874
 11
60.6904071228
 21
15.3387094867
  0
LINE
  5
3F7
100
AcDbEntity
  8
0
100
AcDbLine
 62
7
  6
CONTINUOUS
 10
61.0029071228
 20
17.6236430164
 11
61.0029071228
 21
17.2193125883
  0
LINE
  5
3F8
100
AcDbEntity
  8
0
100
AcDbLine
 62
7
  6
CONTINUOUS
 10
61.0029071228
 20
15.7900541868
 11
61.0029071228
 21
15.6396059534
  0
LINE
  5
3F9
100
AcDbEntity
  8
0
100
AcDbLine
 62
7
  6
CONTINUOUS
 10
61.2112396614
 20
14.8873647865
 11
61.2112396614
 21
15.0378130199
  0
LINE
  5
3FA
100
AcDbEntity
  8
0
100
AcDbLine
 62
7
  6
CONTINUOUS
 10
61.2112396614
 20
16.3918472257
 11
61.2112396614
 21
16.6175195758
  0
LINE
  5
3FB
100
AcDbEntity
  8
0
100
AcDbLine
 62
7
  6
CONTINUOUS
 10
61.3154071228
 20
16.523763171
 11
61.3154071228
 21
16.1661747703
  0
LINE
  5
3FC
100
AcDbEntity
  8
0
100
AcDbLine
 62
7
  6
CONTINUOUS
 10
61.3154071228
 20
15.043306507
 11
61.3154071228
 21
14.6616922257
  0
LINE
  5
3FD
100
AcDbEntity
  8
0
100
AcDbLine
 62
7
  6
CONTINUOUS
 10
61.4195733921
 20
17.8661678085
 11
61.4195733921
 21
17.4449849582
  0
LINE
  5
3FE
100
AcDbEntity
  8
0
100
AcDbLine
 62
7
  6
CONTINUOUS
 10
61.5237396614
 20
16.3709138473
 11
61.5237396614
 21
16.0157265369
  0
LINE
  5
3FF
100
AcDbEntity
  8
0
100
AcDbLine
 62
7
  6
CONTINUOUS
 10
61.5237396614
 20
14.9011401639
 11
61.5237396614
 21
14.5112439923
  0
LINE
  5
400
100
AcDbEntity
  8
0
100
AcDbLine
 62
7
  6
CONTINUOUS
 10
61.8362396614
 20
16.2948894276
 11
61.8362396614
 21
15.9405024202
  0
LINE
  5
401
100
AcDbEntity
  8
0
100
AcDbLine
 62
7
  6
CONTINUOUS
 10
61.8362396614
 20
14.8304591043
 11
61.8362396614
 21
14.4360198756
  0
LINE
  5
402
100
AcDbEntity
  8
0
100
AcDbLine
 62
7
  6
CONTINUOUS
 10
61.9404071228
 20
17.947547751
 11
61.9404071228
 21
17.5202090814
  0
LINE
  5
403
100
AcDbEntity
  8
0
100
AcDbLine
 62
7
  6
CONTINUOUS
 10
63.8154071228
 20
17.0688643286
 11
63.8154071228
 21
15.9405024202
  0
LINE
  5
404
100
AcDbEntity
  8
0
100
AcDbLine
 62
7
  6
CONTINUOUS
 10
63.8154071228
 20
15.48915772
 11
63.8154071228
 21
14.4360198756
  0
LINE
  5
405
100
AcDbEntity
  8
0
100
AcDbLine
 62
7
  6
CONTINUOUS
 10
64.4404065268
 20
13.9846751755
 11
64.4404065268
 21
17.947547751
  0
LINE
  5
406
100
AcDbEntity
  8
0
100
AcDbLine
 62
7
  6
CONTINUOUS
 10
65.2737402575
 20
17.947547751
 11
65.2737402575
 21
17.5202090814
  0
LINE
  5
407
100
AcDbEntity
  8
0
100
AcDbLine
 62
7
  6
CONTINUOUS
 10
65.3779065268
 20
15.4762291385
 11
65.3779065268
 21
14.8121404591
  0
LINE
  5
408
100
AcDbEntity
  8
0
100
AcDbLine
 62
7
  6
CONTINUOUS
 10
65.4820733921
 20
15.6962978874
 11
65.4820733921
 21
15.3387094867
  0
LINE
  5
409
100
AcDbEntity
  8
0
100
AcDbLine
 62
7
  6
CONTINUOUS
 10
65.7945733921
 20
15.9934594423
 11
65.7945733921
 21
15.6396059534
  0
LINE
  5
40A
100
AcDbEntity
  8
0
100
AcDbLine
 62
7
  6
CONTINUOUS
 10
66.0029065268
 20
17.947547751
 11
66.0029065268
 21
17.5202090814
  0
LINE
  5
40B
100
AcDbEntity
  8
0
100
AcDbLine
 62
7
  6
CONTINUOUS
 10
66.0029065268
 20
14.8121404591
 11
66.0029065268
 21
15.0378130199
  0
LINE
  5
40C
100
AcDbEntity
  8
0
100
AcDbLine
 62
7
  6
CONTINUOUS
 10
66.1070733921
 20
14.9720893522
 11
66.1070733921
 21
14.586468109
  0
LINE
  5
40D
100
AcDbEntity
  8
0
100
AcDbLine
 62
7
  6
CONTINUOUS
 10
66.3154065268
 20
14.8304591043
 11
66.3154065268
 21
14.4360198756
  0
LINE
  5
40E
100
AcDbEntity
  8
0
100
AcDbLine
 62
7
  6
CONTINUOUS
 10
61.0029071228
 20
14.2855716423
 11
61.4195733921
 21
14.0598992922
  0
LINE
  5
40F
100
AcDbEntity
  8
0
100
AcDbLine
 62
7
  6
CONTINUOUS
 10
61.5237396614
 20
14.5112439923
 11
61.3154071228
 21
14.6616922257
  0
LINE
  5
410
100
AcDbEntity
  8
0
100
AcDbLine
 62
7
  6
CONTINUOUS
 10
61.5237396614
 20
16.0157265369
 11
61.3154071228
 21
16.1661747703
  0
LINE
  5
411
100
AcDbEntity
  8
0
100
AcDbLine
 62
7
  6
CONTINUOUS
 10
66.3154065268
 20
14.4360198756
 11
66.1070733921
 21
14.586468109
  0
LINE
  5
412
100
AcDbEntity
  8
0
100
AcDbLine
 62
7
  6
CONTINUOUS
 10
65.4820733921
 20
14.586468109
 11
65.7945733921
 21
14.2855716423
  0
LINE
  5
413
100
AcDbEntity
  8
0
100
AcDbLine
 62
7
  6
CONTINUOUS
 10
72.1487401085
 20
17.0688643286
 11
73.6070733921
 21
13.9846751755
  0
LINE
  5
414
100
AcDbEntity
  8
0
100
AcDbLine
 62
7
  6
CONTINUOUS
 10
74.2320733921
 20
13.9846751755
 11
72.5654066758
 21
17.5202090814
  0
LINE
  5
415
100
AcDbEntity
  8
0
100
AcDbLine
 62
7
  6
CONTINUOUS
 10
66.6279065268
 20
14.760046346
 11
66.6279065268
 21
14.3607957589
  0
LINE
  5
416
100
AcDbEntity
  8
0
100
AcDbLine
 62
7
  6
CONTINUOUS
 10
66.8362402575
 20
16.2948894276
 11
66.8362402575
 21
15.9405024202
  0
LINE
  5
417
100
AcDbEntity
  8
0
100
AcDbLine
 62
7
  6
CONTINUOUS
 10
68.6070733921
 20
17.947547751
 11
68.6070733921
 21
15.9405024202
  0
LINE
  5
418
100
AcDbEntity
  8
0
100
AcDbLine
 62
7
  6
CONTINUOUS
 10
68.6070733921
 20
15.48915772
 11
68.6070733921
 21
14.3607957589
  0
LINE
  5
419
100
AcDbEntity
  8
0
100
AcDbLine
 62
7
  6
CONTINUOUS
 10
69.2320733921
 20
13.9846751755
 11
69.2320733921
 21
17.947547751
  0
LINE
  5
41A
100
AcDbEntity
  8
0
100
AcDbLine
 62
7
  6
CONTINUOUS
 10
70.0654068248
 20
14.4120138451
 11
70.0654068248
 21
13.9846751755
  0
LINE
  5
41B
100
AcDbEntity
  8
0
100
AcDbLine
 62
7
  6
CONTINUOUS
 10
71.7320733921
 20
17.947547751
 11
71.7320733921
 21
17.5202090814
  0
LINE
  5
41C
100
AcDbEntity
  8
0
100
AcDbLine
 62
7
  6
CONTINUOUS
 10
72.5654066758
 20
17.947547751
 11
72.5654066758
 21
17.5202090814
  0
LINE
  5
41D
100
AcDbEntity
  8
0
100
AcDbLine
 62
7
  6
CONTINUOUS
 10
65.7945733921
 20
14.2855716423
 11
66.2112402575
 21
14.0598992922
  0
LINE
  5
41E
100
AcDbEntity
  8
0
100
AcDbLine
 62
7
  6
CONTINUOUS
 10
74.2320733921
 20
14.4120138451
 11
74.2320733921
 21
13.9846751755
  0
LINE
  5
41F
100
AcDbEntity
  8
KONSTRUKTIONSELEMENTE
100
AcDbLine
 62
7
  6
CONTINUOUS
 10
80.8398951436
 20
9.0881228541
 11
80.8398951436
 21
37.3192587823
  0
LINE
  5
420
100
AcDbEntity
  8
0
100
AcDbLine
 62
7
  6
CONTINUOUS
 10
207.9404071228
 20
14.511244045
 11
207.6279071228
 21
14.4360199283
  0
LINE
  5
421
100
AcDbEntity
  8
0
100
AcDbLine
 62
7
  6
CONTINUOUS
 10
207.9404071228
 20
16.0909506536
 11
207.6279071228
 21
16.0157265369
  0
LINE
  5
422
100
AcDbEntity
  8
0
100
AcDbLine
 62
7
  6
CONTINUOUS
 10
61.8362396614
 20
14.4360198756
 11
61.5237396614
 21
14.5112439923
  0
LINE
  5
423
100
AcDbEntity
  8
0
100
AcDbLine
 62
7
  6
CONTINUOUS
 10
66.6279065268
 20
14.3607957589
 11
66.3154065268
 21
14.4360198756
  0
LINE
  5
424
100
AcDbEntity
  8
0
100
AcDbLine
 62
7
  6
CONTINUOUS
 10
61.8362396614
 20
15.9405024202
 11
61.5237396614
 21
16.0157265369
  0
LINE
  5
425
100
AcDbEntity
  8
0
100
AcDbLine
 62
7
  6
CONTINUOUS
 10
61.0029071228
 20
15.7900541868
 11
61.2112396614
 21
15.7148300701
  0
LINE
  5
426
100
AcDbEntity
  8
BEZUGSACHSEN
100
AcDbLine
 62
7
  6
CONTINUOUS
 10
82.3795545943
 20
44.8191989547
 11
82.3795545943
 21
29.8191989547
  0
LINE
  5
427
100
AcDbEntity
  8
KONSTRUKTIONSELEMENTE
100
AcDbLine
 62
7
  6
CONTINUOUS
 10
82.7320733921
 20
19.8194671604
 11
82.7320733921
 21
27.9860170395
  0
LINE
  5
428
100
AcDbEntity
  8
KONSTRUKTIONSELEMENTE
100
AcDbLine
 62
7
  6
CONTINUOUS
 10
82.7320733921
 20
46.6523808698
 11
82.7320733921
 21
54.8189307489
  0
LINE
  5
429
100
AcDbEntity
  8
KONSTRUKTIONSELEMENTE
100
AcDbLine
 62
7
  6
CONTINUOUS
 10
82.7320733921
 20
19.8191989547
 11
80.8398951436
 21
9.0881228541
  0
LINE
  5
42A
100
AcDbEntity
  8
0
100
AcDbLine
 62
7
  6
CONTINUOUS
 10
60.6904071228
 20
16.9184160952
 11
60.5862396614
 21
16.6927436925
  0
LINE
  5
42B
100
AcDbEntity
  8
0
100
AcDbLine
 62
7
  6
CONTINUOUS
 10
61.2112396614
 20
16.6175195758
 11
61.3154071228
 21
16.8431919258
  0
LINE
  5
42C
100
AcDbEntity
  8
0
100
AcDbLine
 62
7
  6
CONTINUOUS
 10
60.6904071228
 20
15.3387094867
 11
60.5862396614
 21
15.1130371366
  0
LINE
  5
42D
100
AcDbEntity
  8
0
100
AcDbLine
 62
7
  6
CONTINUOUS
 10
61.2112396614
 20
15.0378130199
 11
61.3154071228
 21
15.26348537
  0
LINE
  5
42E
100
AcDbEntity
  8
0
100
AcDbLine
 62
7
  6
CONTINUOUS
 10
65.4820733921
 20
15.3387094867
 11
65.3779065268
 21
15.1130371366
  0
LINE
  5
42F
100
AcDbEntity
  8
0
100
AcDbLine
 62
7
  6
CONTINUOUS
 10
66.0029065268
 20
15.0378130199
 11
66.1070733921
 21
15.26348537
  0
LINE
  5
430
100
AcDbEntity
  8
0
100
AcDbLine
 62
7
  6
CONTINUOUS
 10
203.1487402575
 20
16.0909506536
 11
202.8362402575
 21
16.0157265369
  0
LINE
  5
431
100
AcDbEntity
  8
0
100
AcDbLine
 62
7
  6
CONTINUOUS
 10
207.5237396614
 20
13.9846751755
 11
208.0445733921
 21
14.0598992988
  0
LWPOLYLINE
  5
432
100
AcDbEntity
  8
RUNDUNGEN
100
AcDbPolyline
 62
7
  6
CONTINUOUS
 90
15
 70
0
 10
222.1340756181
 20
7.3191989573
 10
222.4521418321
 20
7.3245112074
 10
222.8877486653
 20
7.3489842287
 10
223.3150227523
 20
7.3923735093
 10
223.7330238229
 20
7.4536197416
 10
224.1408919336
 20
7.531632762
 10
224.537748704
 20
7.6252057139
 10
224.9246882007
 20
7.7336477487
 10
225.302985539
 20
7.8565969904
 10
225.6712834915
 20
7.9929436456
 10
226.0315177767
 20
8.1428641544
 10
226.3778519237
 20
8.3032126015
 10
226.7070145825
 20
8.4712343349
 10
227.0156494177
 20
8.6436065995
 10
227.2551402963
 20
8.7872563713
  0
LINE
  5
433
100
AcDbEntity
  8
RUNDUNGEN
100
AcDbLine
 62
7
  6
CONTINUOUS
 10
222.1340702346
 20
7.3191989583
 11
192.0101828875
 21
7.3191989547
  0
LINE
  5
434
100
AcDbEntity
  8
KONSTRUKTIONSELEMENTE
100
AcDbLine
 62
7
  6
CONTINUOUS
 10
221.4418361906
 20
7.3191989547
 11
192.0101828875
 21
7.3191989547
  0
LINE
  5
435
100
AcDbEntity
  8
0
100
AcDbLine
 62
7
  6
CONTINUOUS
 10
47.330844177
 20
7.3191989547
 11
77.4539638967
 21
7.3191989547
  0
LINE
  5
436
100
AcDbEntity
  8
KONSTRUKTIONSELEMENTE
100
AcDbLine
 62
7
  6
CONTINUOUS
 10
48.0223105936
 20
7.3191989547
 11
77.4539638967
 21
7.3191989547
  0
LINE
  5
437
100
AcDbEntity
  8
0
100
AcDbLine
 62
7
  6
CONTINUOUS
 10
61.4195733921
 20
14.0598992922
 11
61.9404071228
 21
13.9846751755
  0
LINE
  5
438
100
AcDbEntity
  8
0
100
AcDbLine
 62
7
  6
CONTINUOUS
 10
66.2112402575
 20
14.0598992922
 11
66.7320733921
 21
13.9846751755
  0
LINE
  5
439
100
AcDbEntity
  8
KONSTRUKTIONSELEMENTE
100
AcDbLine
 62
7
  6
CONTINUOUS
 10
82.7320733921
 20
54.8191989547
 11
75.8946849742
 21
93.5959555828
  0
LINE
  5
43A
100
AcDbEntity
  8
0
100
AcDbLine
 62
7
  6
CONTINUOUS
 10
92.5320733921
 20
22.3191989547
 11
92.5320733921
 21
22.8500877805
  0
LINE
  5
43B
100
AcDbEntity
  8
0
100
AcDbLine
 62
7
  6
CONTINUOUS
 10
93.2820733921
 20
22.3191989547
 11
93.2820733921
 21
22.3277629009
  0
LINE
  5
43C
100
AcDbEntity
  8
0
100
AcDbLine
 62
7
  6
CONTINUOUS
 10
94.1120733921
 20
51.8191989547
 11
94.1120733921
 21
52.3191989547
  0
LINE
  5
43D
100
AcDbEntity
  8
0
100
AcDbLine
 62
7
  6
CONTINUOUS
 10
95.5320733921
 20
22.8500877805
 11
95.5320733921
 21
22.3495808972
  0
LINE
  5
43E
100
AcDbEntity
  8
0
100
AcDbLine
 62
7
  6
CONTINUOUS
 10
96.1570735113
 20
22.8445626428
 11
96.1570735113
 21
22.3441465014
  0
LINE
  5
43F
100
AcDbEntity
  8
0
100
AcDbLine
 62
7
  6
CONTINUOUS
 10
96.6570733921
 20
22.8312538623
 11
96.6570733921
 21
22.3310561634
  0
LINE
  5
440
100
AcDbEntity
  8
0
100
AcDbLine
 62
7
  6
CONTINUOUS
 10
97.0320733921
 20
22.8211227774
 11
97.0320733921
 21
22.3210912373
  0
LINE
  5
441
100
AcDbEntity
  8
0
100
AcDbLine
 62
7
  6
CONTINUOUS
 10
97.1570732729
 20
22.8191989547
 11
97.1570732729
 21
22.3191989547
  0
LINE
  5
442
100
AcDbEntity
  8
0
100
AcDbLine
 62
7
  6
CONTINUOUS
 10
71.7320733921
 20
17.5202090814
 11
70.0654068248
 21
13.9846751755
  0
LINE
  5
443
100
AcDbEntity
  8
0
100
AcDbLine
 62
7
  6
CONTINUOUS
 10
70.6904068248
 20
13.9846751755
 11
72.1487401085
 21
17.0688643286
  0
LWPOLYLINE
  5
444
100
AcDbEntity
  8
RUNDUNGEN
100
AcDbPolyline
 62
7
  6
CONTINUOUS
 90
6
 70
0
 10
182.9202896305
 20
23.1324430159
 10
183.1876543196
 20
23.2070516683
 10
183.4595613605
 20
23.2629357139
 10
183.7346969529
 20
23.299823361
 10
184.0117314711
 20
23.3175354001
 10
184.1282255285
 20
23.3192323925
  0
LINE
  5
445
100
AcDbEntity
  8
0
100
AcDbLine
 62
7
  6
CONTINUOUS
 10
56.0029071228
 20
13.9846751755
 11
56.8362396614
 21
13.9846751755
  0
LINE
  5
446
100
AcDbEntity
  8
0
100
AcDbLine
 62
7
  6
CONTINUOUS
 10
59.1279071228
 20
13.9846751755
 11
59.7529071228
 21
13.9846751755
  0
LINE
  5
447
100
AcDbEntity
  8
0
100
AcDbLine
 62
7
  6
CONTINUOUS
 10
61.9404071228
 20
13.9846751755
 11
64.4404065268
 21
13.9846751755
  0
LINE
  5
448
100
AcDbEntity
  8
0
100
AcDbLine
 62
7
  6
CONTINUOUS
 10
66.7320733921
 20
13.9846751755
 11
69.2320733921
 21
13.9846751755
  0
LINE
  5
449
100
AcDbEntity
  8
0
100
AcDbLine
 62
7
  6
CONTINUOUS
 10
70.0654068248
 20
13.9846751755
 11
70.6904068248
 21
13.9846751755
  0
LINE
  5
44A
100
AcDbEntity
  8
0
100
AcDbLine
 62
7
  6
CONTINUOUS
 10
73.6070733921
 20
13.9846751755
 11
74.2320733921
 21
13.9846751755
  0
LINE
  5
44B
100
AcDbEntity
  8
0
100
AcDbLine
 62
7
  6
CONTINUOUS
 10
196.8987401085
 20
13.9846751755
 11
197.7320733921
 21
13.9846751755
  0
LINE
  5
44C
100
AcDbEntity
  8
0
100
AcDbLine
 62
7
  6
CONTINUOUS
 10
200.2320733921
 20
13.9846751755
 11
200.8570733921
 21
13.9846751755
  0
LINE
  5
44D
100
AcDbEntity
  8
0
100
AcDbLine
 62
7
  6
CONTINUOUS
 10
203.4612402575
 20
13.9846751755
 11
204.1904065268
 21
13.9846751755
  0
LINE
  5
44E
100
AcDbEntity
  8
0
100
AcDbLine
 62
7
  6
CONTINUOUS
 10
205.0237402575
 20
13.9846751755
 11
207.5237396614
 21
13.9846751755
  0
LINE
  5
44F
100
AcDbEntity
  8
0
100
AcDbLine
 62
7
  6
CONTINUOUS
 10
209.7112396614
 20
13.9846751755
 11
210.3362396614
 21
13.9846751755
  0
LINE
  5
450
100
AcDbEntity
  8
0
100
AcDbLine
 62
7
  6
CONTINUOUS
 10
212.6279071228
 20
13.9846751755
 11
213.4612396614
 21
13.9846751755
  0
LINE
  5
451
100
AcDbEntity
  8
0
100
AcDbLine
 62
7
  6
CONTINUOUS
 10
68.6070733921
 20
14.3607957589
 11
66.6279065268
 21
14.3607957589
  0
LINE
  5
452
100
AcDbEntity
  8
0
100
AcDbLine
 62
7
  6
CONTINUOUS
 10
207.6279071228
 20
14.4360199283
 11
205.6487396614
 21
14.4360199283
  0
LINE
  5
453
100
AcDbEntity
  8
0
100
AcDbLine
 62
7
  6
CONTINUOUS
 10
63.8154071228
 20
14.4360198756
 11
61.8362396614
 21
14.4360198756
  0
LINE
  5
454
100
AcDbEntity
  8
0
100
AcDbLine
 62
7
  6
CONTINUOUS
 10
66.6279065268
 20
14.760046346
 11
68.6070733921
 21
14.760046346
  0
LINE
  5
455
100
AcDbEntity
  8
0
100
AcDbLine
 62
7
  6
CONTINUOUS
 10
207.6279071228
 20
14.8304591537
 11
205.6487396614
 21
14.8304591537
  0
LINE
  5
456
100
AcDbEntity
  8
0
100
AcDbLine
 62
7
  6
CONTINUOUS
 10
61.8362396614
 20
14.8304591043
 11
63.8154071228
 21
14.8304591043
  0
LINE
  5
457
100
AcDbEntity
  8
0
100
AcDbLine
 62
7
  6
CONTINUOUS
 10
61.8362396614
 20
15.48915772
 11
63.8154071228
 21
15.48915772
  0
LINE
  5
458
100
AcDbEntity
  8
0
100
AcDbLine
 62
7
  6
CONTINUOUS
 10
66.6279065268
 20
15.48915772
 11
68.6070733921
 21
15.48915772
  0
LINE
  5
459
100
AcDbEntity
  8
0
100
AcDbLine
 62
7
  6
CONTINUOUS
 10
200.8570733921
 20
15.5643818367
 11
202.6279065268
 21
15.5643818367
  0
LINE
  5
45A
100
AcDbEntity
  8
0
100
AcDbLine
 62
7
  6
CONTINUOUS
 10
205.6487396614
 20
15.5643818367
 11
207.6279071228
 21
15.5643818367
  0
LWPOLYLINE
  5
45B
100
AcDbEntity
  8
RUNDUNGEN
100
AcDbPolyline
 62
7
  6
CONTINUOUS
 90
5
 70
0
 10
86.7696614731
 20
23.0580476117
 10
87.1461686356
 20
22.955156099
 10
87.5299340184
 20
22.880682202
 10
87.9183578377
 20
22.8352673888
 10
88.3229009989
 20
22.8192042013
  0
LINE
  5
45C
100
AcDbEntity
  8
0
100
AcDbLine
 62
7
  6
CONTINUOUS
 10
97.2820735113
 20
22.8191989547
 11
97.2820735113
 21
22.3191989547
  0
LINE
  5
45D
100
AcDbEntity
  8
0
100
AcDbLine
 62
7
  6
CONTINUOUS
 10
97.7520733921
 20
51.8191989547
 11
97.7520733921
 21
52.3191989547
  0
LINE
  5
45E
100
AcDbEntity
  8
0
100
AcDbLine
 62
7
  6
CONTINUOUS
 10
98.2820732729
 20
22.3191989547
 11
98.2820732729
 21
22.8500877805
  0
LINE
  5
45F
100
AcDbEntity
  8
0
100
AcDbLine
 62
7
  6
CONTINUOUS
 10
99.0320736305
 20
22.3191989547
 11
99.0320736305
 21
22.8500877805
  0
LINE
  5
460
100
AcDbEntity
  8
0
100
AcDbLine
 62
7
  6
CONTINUOUS
 10
99.1570731537
 20
22.8191989547
 11
99.1570731537
 21
22.3191989547
  0
LINE
  5
461
100
AcDbEntity
  8
0
100
AcDbLine
 62
7
  6
CONTINUOUS
 10
99.4070736305
 20
22.8191989547
 11
99.4070736305
 21
22.3191989547
  0
LINE
  5
462
100
AcDbEntity
  8
0
100
AcDbLine
 62
7
  6
CONTINUOUS
 10
99.7320733921
 20
51.8191989547
 11
99.7320733921
 21
52.3191989547
  0
LINE
  5
463
100
AcDbEntity
  8
0
100
AcDbLine
 62
7
  6
CONTINUOUS
 10
99.7820736305
 20
22.8191989547
 11
99.7820736305
 21
22.3191989547
  0
LINE
  5
464
100
AcDbEntity
  8
0
100
AcDbLine
 62
7
  6
CONTINUOUS
 10
100.2820731537
 20
22.8191989547
 11
100.2820731537
 21
22.3191989547
  0
LINE
  5
465
100
AcDbEntity
  8
0
100
AcDbLine
 62
7
  6
CONTINUOUS
 10
100.7820733921
 20
22.8191989547
 11
100.7820733921
 21
22.3191989547
  0
LINE
  5
466
100
AcDbEntity
  8
0
100
AcDbLine
 62
7
  6
CONTINUOUS
 10
101.2820736305
 20
22.8191989547
 11
101.2820736305
 21
22.3191989547
  0
LINE
  5
467
100
AcDbEntity
  8
0
100
AcDbLine
 62
7
  6
CONTINUOUS
 10
101.6570736305
 20
22.8191989547
 11
101.6570736305
 21
22.3191989547
  0
LINE
  5
468
100
AcDbEntity
  8
0
100
AcDbLine
 62
7
  6
CONTINUOUS
 10
101.9070733921
 20
22.8191989547
 11
101.9070733921
 21
22.3191989547
  0
LINE
  5
469
100
AcDbEntity
  8
0
100
AcDbLine
 62
7
  6
CONTINUOUS
 10
102.0320736305
 20
22.3191989547
 11
102.0320736305
 21
22.8500877805
  0
LINE
  5
46A
100
AcDbEntity
  8
0
100
AcDbLine
 62
7
  6
CONTINUOUS
 10
102.7820736305
 20
22.3191989547
 11
102.7820736305
 21
22.8500877805
  0
LINE
  5
46B
100
AcDbEntity
  8
0
100
AcDbLine
 62
7
  6
CONTINUOUS
 10
103.3720733921
 20
51.8191989547
 11
103.3720733921
 21
52.3191989547
  0
LINE
  5
46C
100
AcDbEntity
  8
0
100
AcDbLine
 62
7
  6
CONTINUOUS
 10
103.7820733921
 20
22.3191989547
 11
103.7820733921
 21
22.8500877805
  0
LINE
  5
46D
100
AcDbEntity
  8
0
100
AcDbLine
 62
7
  6
CONTINUOUS
 10
104.5320733921
 20
22.3191989547
 11
104.5320733921
 21
22.3250044178
  0
LWPOLYLINE
  5
46E
100
AcDbEntity
  8
RUNDUNGEN
100
AcDbPolyline
 62
7
  6
CONTINUOUS
 90
5
 70
0
 10
181.1412840036
 20
22.8192042279
 10
181.5234067434
 20
22.8335506761
 10
181.9175850268
 20
22.8781276564
 10
182.3070693995
 20
22.9526225822
 10
182.6891468144
 20
23.0563746319
  0
LINE
  5
46F
100
AcDbEntity
  8
0
100
AcDbLine
 62
7
  6
CONTINUOUS
 10
68.6070733921
 20
15.9405024202
 11
66.8362402575
 21
15.9405024202
  0
LINE
  5
470
100
AcDbEntity
  8
0
100
AcDbLine
 62
7
  6
CONTINUOUS
 10
63.8154071228
 20
15.9405024202
 11
61.8362396614
 21
15.9405024202
  0
LINE
  5
471
100
AcDbEntity
  8
0
100
AcDbLine
 62
7
  6
CONTINUOUS
 10
207.6279071228
 20
16.0157265369
 11
205.6487396614
 21
16.0157265369
  0
LINE
  5
472
100
AcDbEntity
  8
0
100
AcDbLine
 62
7
  6
CONTINUOUS
 10
202.8362402575
 20
16.0157265369
 11
200.8570733921
 21
16.0157265369
  0
LINE
  5
473
100
AcDbEntity
  8
0
100
AcDbLine
 62
7
  6
CONTINUOUS
 10
61.8362396614
 20
16.2948894276
 11
63.8154071228
 21
16.2948894276
  0
LINE
  5
474
100
AcDbEntity
  8
0
100
AcDbLine
 62
7
  6
CONTINUOUS
 10
66.8362402575
 20
16.2948894276
 11
68.6070733921
 21
16.2948894276
  0
LINE
  5
475
100
AcDbEntity
  8
0
100
AcDbLine
 62
7
  6
CONTINUOUS
 10
207.6279071228
 20
16.3709138473
 11
205.6487396614
 21
16.3709138473
  0
LINE
  5
476
100
AcDbEntity
  8
0
100
AcDbLine
 62
7
  6
CONTINUOUS
 10
202.8362402575
 20
16.3709138473
 11
200.8570733921
 21
16.3709138473
  0
LINE
  5
477
100
AcDbEntity
  8
0
100
AcDbLine
 62
7
  6
CONTINUOUS
 10
61.8362396614
 20
17.0688643286
 11
63.8154071228
 21
17.0688643286
  0
LINE
  5
478
100
AcDbEntity
  8
0
100
AcDbLine
 62
7
  6
CONTINUOUS
 10
205.6487396614
 20
17.0688643813
 11
207.6279071228
 21
17.0688643813
  0
LINE
  5
479
100
AcDbEntity
  8
0
100
AcDbLine
 62
7
  6
CONTINUOUS
 10
200.8570733921
 20
17.144088498
 11
202.8362402575
 21
17.144088498
  0
LINE
  5
47A
100
AcDbEntity
  8
0
100
AcDbLine
 62
7
  6
CONTINUOUS
 10
213.4612396614
 20
17.5202090814
 11
212.6279071228
 21
17.5202090814
  0
LINE
  5
47B
100
AcDbEntity
  8
0
100
AcDbLine
 62
7
  6
CONTINUOUS
 10
210.3362396614
 20
17.5202090814
 11
209.7112396614
 21
17.5202090814
  0
LINE
  5
47C
100
AcDbEntity
  8
0
100
AcDbLine
 62
7
  6
CONTINUOUS
 10
207.5237396614
 20
17.5202090814
 11
205.0237402575
 21
17.5202090814
  0
LINE
  5
47D
100
AcDbEntity
  8
0
100
AcDbLine
 62
7
  6
CONTINUOUS
 10
202.7320733921
 20
17.5202090814
 11
200.2320733921
 21
17.5202090814
  0
LINE
  5
47E
100
AcDbEntity
  8
0
100
AcDbLine
 62
7
  6
CONTINUOUS
 10
199.3987399594
 20
17.5202090814
 11
198.7737399594
 21
17.5202090814
  0
LINE
  5
47F
100
AcDbEntity
  8
0
100
AcDbLine
 62
7
  6
CONTINUOUS
 10
195.8570733921
 20
17.5202090814
 11
195.2320733921
 21
17.5202090814
  0
LINE
  5
480
100
AcDbEntity
  8
0
100
AcDbLine
 62
7
  6
CONTINUOUS
 10
72.5654066758
 20
17.5202090814
 11
71.7320733921
 21
17.5202090814
  0
LINE
  5
481
100
AcDbEntity
  8
0
100
AcDbLine
 62
7
  6
CONTINUOUS
 10
69.2320733921
 20
17.5202090814
 11
68.6070733921
 21
17.5202090814
  0
LINE
  5
482
100
AcDbEntity
  8
0
100
AcDbLine
 62
7
  6
CONTINUOUS
 10
66.0029065268
 20
17.5202090814
 11
65.2737402575
 21
17.5202090814
  0
LINE
  5
483
100
AcDbEntity
  8
0
100
AcDbLine
 62
7
  6
CONTINUOUS
 10
64.4404065268
 20
17.5202090814
 11
61.9404071228
 21
17.5202090814
  0
LINE
  5
484
100
AcDbEntity
  8
0
100
AcDbLine
 62
7
  6
CONTINUOUS
 10
59.7529071228
 20
17.5202090814
 11
59.1279071228
 21
17.5202090814
  0
LINE
  5
485
100
AcDbEntity
  8
0
100
AcDbLine
 62
7
  6
CONTINUOUS
 10
56.8362396614
 20
17.5202090814
 11
56.0029071228
 21
17.5202090814
  0
LINE
  5
486
100
AcDbEntity
  8
0
100
AcDbLine
 62
7
  6
CONTINUOUS
 10
213.4612396614
 20
17.947547751
 11
212.6279071228
 21
17.947547751
  0
LINE
  5
487
100
AcDbEntity
  8
0
100
AcDbLine
 62
7
  6
CONTINUOUS
 10
210.3362396614
 20
17.947547751
 11
209.7112396614
 21
17.947547751
  0
LINE
  5
488
100
AcDbEntity
  8
0
100
AcDbLine
 62
7
  6
CONTINUOUS
 10
207.5237396614
 20
17.947547751
 11
205.0237402575
 21
17.947547751
  0
LINE
  5
489
100
AcDbEntity
  8
0
100
AcDbLine
 62
7
  6
CONTINUOUS
 10
202.7320733921
 20
17.947547751
 11
200.2320733921
 21
17.947547751
  0
LINE
  5
48A
100
AcDbEntity
  8
0
100
AcDbLine
 62
7
  6
CONTINUOUS
 10
199.3987399594
 20
17.947547751
 11
198.7737399594
 21
17.947547751
  0
LINE
  5
48B
100
AcDbEntity
  8
0
100
AcDbLine
 62
7
  6
CONTINUOUS
 10
195.8570733921
 20
17.947547751
 11
195.2320733921
 21
17.947547751
  0
LINE
  5
48C
100
AcDbEntity
  8
0
100
AcDbLine
 62
7
  6
CONTINUOUS
 10
56.0029071228
 20
17.947547751
 11
56.8362396614
 21
17.947547751
  0
LINE
  5
48D
100
AcDbEntity
  8
0
100
AcDbLine
 62
7
  6
CONTINUOUS
 10
59.1279071228
 20
17.947547751
 11
59.7529071228
 21
17.947547751
  0
LINE
  5
48E
100
AcDbEntity
  8
0
100
AcDbLine
 62
7
  6
CONTINUOUS
 10
61.9404071228
 20
17.947547751
 11
64.4404065268
 21
17.947547751
  0
LINE
  5
48F
100
AcDbEntity
  8
0
100
AcDbLine
 62
7
  6
CONTINUOUS
 10
65.2737402575
 20
17.947547751
 11
66.0029065268
 21
17.947547751
  0
LINE
  5
490
100
AcDbEntity
  8
0
100
AcDbLine
 62
7
  6
CONTINUOUS
 10
68.6070733921
 20
17.947547751
 11
69.2320733921
 21
17.947547751
  0
LINE
  5
491
100
AcDbEntity
  8
0
100
AcDbLine
 62
7
  6
CONTINUOUS
 10
71.7320733921
 20
17.947547751
 11
72.5654066758
 21
17.947547751
  0
LINE
  5
492
100
AcDbEntity
  8
0
100
AcDbLine
 62
7
  6
CONTINUOUS
 10
108.7820729153
 20
22.3191989547
 11
108.6359061383
 21
22.3191989547
  0
LINE
  5
493
100
AcDbEntity
  8
0
100
AcDbLine
 62
7
  6
CONTINUOUS
 10
108.4070729153
 20
22.3191989547
 11
103.7820733921
 21
22.3191989547
  0
LINE
  5
494
100
AcDbEntity
  8
0
100
AcDbLine
 62
7
  6
CONTINUOUS
 10
102.7820736305
 20
22.3191989547
 11
98.2820732729
 21
22.3191989547
  0
LINE
  5
495
100
AcDbEntity
  8
0
100
AcDbLine
 62
7
  6
CONTINUOUS
 10
97.2820735113
 20
22.3191989547
 11
97.1429618108
 21
22.3191989547
  0
LINE
  5
496
100
AcDbEntity
  8
0
100
AcDbLine
 62
7
  6
CONTINUOUS
 10
97.0320733921
 20
22.3191989547
 11
92.5320733921
 21
22.3191989547
  0
LINE
  5
497
100
AcDbEntity
  8
0
100
AcDbLine
 62
7
  6
CONTINUOUS
 10
106.7820733921
 20
22.3250044178
 11
104.5320733921
 21
22.3250044178
  0
LINE
  5
498
100
AcDbEntity
  8
0
100
AcDbLine
 62
7
  6
CONTINUOUS
 10
95.6570732729
 20
22.3277629009
 11
93.2820733921
 21
22.3277629009
  0
LINE
  5
499
100
AcDbEntity
  8
0
100
AcDbLine
 62
7
  6
CONTINUOUS
 10
106.7820733921
 20
22.3495808972
 11
103.7820733921
 21
22.3495808972
  0
LINE
  5
49A
100
AcDbEntity
  8
0
100
AcDbLine
 62
7
  6
CONTINUOUS
 10
102.7820736305
 20
22.3495808972
 11
102.0320736305
 21
22.3495808972
  0
LINE
  5
49B
100
AcDbEntity
  8
0
100
AcDbLine
 62
7
  6
CONTINUOUS
 10
99.0320736305
 20
22.3495808972
 11
98.2820732729
 21
22.3495808972
  0
LINE
  5
49C
100
AcDbEntity
  8
0
100
AcDbLine
 62
7
  6
CONTINUOUS
 10
95.5320733921
 20
22.3495808972
 11
92.5320733921
 21
22.3495808972
  0
LINE
  5
49D
100
AcDbEntity
  8
0
100
AcDbLine
 62
7
  6
CONTINUOUS
 10
179.8844430446
 20
22.8191989547
 11
156.7320733921
 21
22.8191989547
  0
LINE
  5
49E
100
AcDbEntity
  8
0
100
AcDbLine
 62
7
  6
CONTINUOUS
 10
112.7320733921
 20
22.8191989547
 11
108.6359061383
 21
22.8191989547
  0
LINE
  5
49F
100
AcDbEntity
  8
RUNDUNGEN
100
AcDbLine
 62
7
  6
CONTINUOUS
 10
112.7320733921
 20
22.8191989547
 11
108.6359061383
 21
22.8191989547
  0
LINE
  5
4A0
100
AcDbEntity
  8
0
100
AcDbLine
 62
7
  6
CONTINUOUS
 10
103.7820733921
 20
22.8191989547
 11
102.7820736305
 21
22.8191989547
  0
LINE
  5
4A1
100
AcDbEntity
  8
RUNDUNGEN
100
AcDbLine
 62
7
  6
CONTINUOUS
 10
103.7820733921
 20
22.8191989547
 11
102.7820736305
 21
22.8191989547
  0
LINE
  5
4A2
100
AcDbEntity
  8
0
100
AcDbLine
 62
7
  6
CONTINUOUS
 10
102.0320736305
 20
22.8191989547
 11
99.0320736305
 21
22.8191989547
  0
LINE
  5
4A3
100
AcDbEntity
  8
RUNDUNGEN
100
AcDbLine
 62
7
  6
CONTINUOUS
 10
102.0320736305
 20
22.8191989547
 11
99.0320736305
 21
22.8191989547
  0
LINE
  5
4A4
100
AcDbEntity
  8
0
100
AcDbLine
 62
7
  6
CONTINUOUS
 10
98.2820732729
 20
22.8191989547
 11
97.1429618108
 21
22.8191989547
  0
LINE
  5
4A5
100
AcDbEntity
  8
RUNDUNGEN
100
AcDbLine
 62
7
  6
CONTINUOUS
 10
98.2820732729
 20
22.8191989547
 11
97.1429618108
 21
22.8191989547
  0
LINE
  5
4A6
100
AcDbEntity
  8
0
100
AcDbLine
 62
7
  6
CONTINUOUS
 10
92.5320733921
 20
22.8191989547
 11
89.5797066864
 21
22.8191989547
  0
LINE
  5
4A7
100
AcDbEntity
  8
RUNDUNGEN
100
AcDbLine
 62
7
  6
CONTINUOUS
 10
156.7320733921
 20
22.8191989547
 11
181.1412840063
 21
22.819200108
  0
LINE
  5
4A8
100
AcDbEntity
  8
0
100
AcDbLine
 62
7
  6
CONTINUOUS
 10
106.7820733921
 20
22.8500877805
 11
103.7820733921
 21
22.8500877805
  0
LINE
  5
4A9
100
AcDbEntity
  8
0
100
AcDbLine
 62
7
  6
CONTINUOUS
 10
102.7820736305
 20
22.8500877805
 11
102.0320736305
 21
22.8500877805
  0
LINE
  5
4AA
100
AcDbEntity
  8
0
100
AcDbLine
 62
7
  6
CONTINUOUS
 10
99.0320736305
 20
22.8500877805
 11
98.2820732729
 21
22.8500877805
  0
LINE
  5
4AB
100
AcDbEntity
  8
0
100
AcDbLine
 62
7
  6
CONTINUOUS
 10
95.5320733921
 20
22.8500877805
 11
92.5320733921
 21
22.8500877805
  0
LINE
  5
4AC
100
AcDbEntity
  8
BEZUGSACHSEN
100
AcDbLine
 62
7
  6
CONTINUOUS
 10
82.7320733921
 20
23.3191989547
 11
85.3377776879
 21
23.3191989547
  0
LINE
  5
4AD
100
AcDbEntity
  8
BEZUGSACHSEN
100
AcDbLine
 62
7
  6
CONTINUOUS
 10
184.1260908417
 20
23.3191989547
 11
186.7320733921
 21
23.3191989547
  0
LINE
  5
4AE
100
AcDbEntity
  8
RUNDUNGEN
100
AcDbLine
 62
7
  6
CONTINUOUS
 10
88.3229009961
 20
22.8192000819
 11
92.5320733921
 21
22.8191989547
  0
LWPOLYLINE
  5
4AF
100
AcDbEntity
  8
RUNDUNGEN
100
AcDbPolyline
 62
7
  6
CONTINUOUS
 90
7
 70
0
 10
85.3359280632
 20
23.3192233364
 10
85.4524212885
 20
23.3175263157
 10
85.7294564299
 20
23.2998141646
 10
86.0045925798
 20
23.2629263513
 10
86.2765000994
 20
23.2070420983
 10
86.5438651772
 20
23.1324332124
 10
86.7696614731
 20
23.0580476117
  0
LINE
  5
4B0
100
AcDbEntity
  8
0
100
AcDbLine
 62
7
  6
CONTINUOUS
 10
106.7820733921
 20
22.8500877805
 11
106.7820733921
 21
22.3495808972
  0
LINE
  5
4B1
100
AcDbEntity
  8
0
100
AcDbLine
 62
7
  6
CONTINUOUS
 10
107.407073869
 20
22.8445626428
 11
107.407073869
 21
22.3441465014
  0
LINE
  5
4B2
100
AcDbEntity
  8
0
100
AcDbLine
 62
7
  6
CONTINUOUS
 10
107.9070733921
 20
22.8351459401
 11
107.9070733921
 21
22.3348843785
  0
LINE
  5
4B3
100
AcDbEntity
  8
0
100
AcDbLine
 62
7
  6
CONTINUOUS
 10
108.4070729153
 20
22.8228402697
 11
108.4070729153
 21
22.3227805689
  0
LINE
  5
4B4
100
AcDbEntity
  8
0
100
AcDbLine
 62
7
  6
CONTINUOUS
 10
108.6570733921
 20
22.8191989547
 11
108.6570733921
 21
22.3191989547
  0
LINE
  5
4B5
100
AcDbEntity
  8
0
100
AcDbLine
 62
7
  6
CONTINUOUS
 10
108.7820729153
 20
22.8191989547
 11
108.7820729153
 21
22.3191989547
  0
LINE
  5
4B6
100
AcDbEntity
  8
0
100
AcDbLine
 62
7
  6
CONTINUOUS
 10
61.0029071228
 20
17.2193125883
 11
60.6904071228
 21
16.9184160952
  0
LINE
  5
4B7
100
AcDbEntity
  8
0
100
AcDbLine
 62
7
  6
CONTINUOUS
 10
61.0029071228
 20
15.6396059534
 11
60.6904071228
 21
15.3387094867
  0
LINE
  5
4B8
100
AcDbEntity
  8
0
100
AcDbLine
 62
7
  6
CONTINUOUS
 10
61.9404071228
 20
17.5202090814
 11
61.4195733921
 21
17.4449849582
  0
LINE
  5
4B9
100
AcDbEntity
  8
0
100
AcDbLine
 62
7
  6
CONTINUOUS
 10
144.2500644581
 20
24.3191989547
 11
140.0884896175
 21
24.3191989547
  0
LINE
  5
4BA
100
AcDbEntity
  8
0
100
AcDbLine
 62
7
  6
CONTINUOUS
 10
139.1787808792
 20
24.3191989547
 11
132.4713813917
 21
24.3191989547
  0
LINE
  5
4BB
100
AcDbEntity
  8
0
100
AcDbLine
 62
7
  6
CONTINUOUS
 10
129.3756585972
 20
24.3191989547
 11
125.2140833096
 21
24.3191989547
  0
LINE
  5
4BC
100
AcDbEntity
  8
RUNDUNGEN
100
AcDbLine
 62
7
  6
CONTINUOUS
 10
87.3800305402
 20
24.8191989547
 11
182.0845926081
 21
24.8191989547
  0
LINE
  5
4BD
100
AcDbEntity
  8
0
100
AcDbLine
 62
7
  6
CONTINUOUS
 10
203.2529065268
 20
17.4449849647
 11
202.7320733921
 21
17.5202090814
  0
LINE
  5
4BE
100
AcDbEntity
  8
0
100
AcDbLine
 62
7
  6
CONTINUOUS
 10
208.0445733921
 20
17.4449849647
 11
207.5237396614
 21
17.5202090814
  0
LINE
  5
4BF
100
AcDbEntity
  8
BEZUGSACHSEN
100
AcDbLine
 62
7
  6
CONTINUOUS
 10
112.7320733921
 20
51.8191989547
 11
112.7320733921
 21
49.8191989547
  0
LINE
  5
4C0
100
AcDbEntity
  8
0
100
AcDbLine
 62
7
  6
CONTINUOUS
 10
112.7320733921
 20
22.8191989547
 11
112.7320733921
 21
24.8191989547
  0
LINE
  5
4C1
100
AcDbEntity
  8
0
100
AcDbLine
 62
7
  6
CONTINUOUS
 10
65.7945733921
 20
15.6396059534
 11
65.4820733921
 21
15.3387094867
  0
LINE
  5
4C2
100
AcDbEntity
  8
0
100
AcDbLine
 62
7
  6
CONTINUOUS
 10
57.8779071228
 20
15.4139336034
 11
56.0029071228
 21
13.9846751755
  0
LINE
  5
4C3
100
AcDbEntity
  8
0
100
AcDbLine
 62
7
  6
CONTINUOUS
 10
56.8362396614
 20
13.9846751755
 11
59.1279071228
 21
15.7148300701
  0
LINE
  5
4C4
100
AcDbEntity
  8
0
100
AcDbLine
 62
7
  6
CONTINUOUS
 10
66.3154065268
 20
15.4139336034
 11
66.6279065268
 21
15.48915772
  0
LINE
  5
4C5
100
AcDbEntity
  8
0
100
AcDbLine
 62
7
  6
CONTINUOUS
 10
61.5237396614
 20
15.4139336034
 11
61.8362396614
 21
15.48915772
  0
LINE
  5
4C6
100
AcDbEntity
  8
0
100
AcDbLine
 62
7
  6
CONTINUOUS
 10
61.5237396614
 20
16.9936402119
 11
61.8362396614
 21
17.0688643286
  0
LINE
  5
4C7
100
AcDbEntity
  8
0
100
AcDbLine
 62
7
  6
CONTINUOUS
 10
207.6279071228
 20
15.5643818367
 11
207.9404071228
 21
15.48915772
  0
LINE
  5
4C8
100
AcDbEntity
  8
0
100
AcDbLine
 62
7
  6
CONTINUOUS
 10
202.8362402575
 20
17.144088498
 11
203.1487402575
 21
17.0688643813
  0
LINE
  5
4C9
100
AcDbEntity
  8
0
100
AcDbLine
 62
7
  6
CONTINUOUS
 10
207.6279071228
 20
17.0688643813
 11
207.9404071228
 21
16.9936402646
  0
LINE
  5
4CA
100
AcDbEntity
  8
KONSTRUKTIONSELEMENTE
100
AcDbLine
 62
7
  6
CONTINUOUS
 10
70.1130815303
 20
77.5227987553
 11
73.0560181682
 21
75.3830344212
  0
LINE
  5
4CB
100
AcDbEntity
  8
0
100
AcDbLine
 62
7
  6
CONTINUOUS
 10
125.2140823261
 20
49.8191989547
 11
125.2140823261
 21
50.3191989547
  0
LINE
  5
4CC
100
AcDbEntity
  8
0
100
AcDbLine
 62
7
  6
CONTINUOUS
 10
125.2140833096
 20
24.8191989547
 11
125.2140833096
 21
24.3191989547
  0
LINE
  5
4CD
100
AcDbEntity
  8
0
100
AcDbLine
 62
7
  6
CONTINUOUS
 10
126.4225009338
 20
49.8191989547
 11
126.4225009338
 21
50.3191989547
  0
LINE
  5
4CE
100
AcDbEntity
  8
0
100
AcDbLine
 62
7
  6
CONTINUOUS
 10
127.8753187911
 20
24.8191989547
 11
127.8753187911
 21
24.3191989547
  0
LINE
  5
4CF
100
AcDbEntity
  8
0
100
AcDbLine
 62
7
  6
CONTINUOUS
 10
59.1279071228
 20
16.316623109
 11
58.3987396614
 21
15.7900541868
  0
LINE
  5
4D0
100
AcDbEntity
  8
0
100
AcDbLine
 62
7
  6
CONTINUOUS
 10
61.3154071228
 20
16.8431919258
 11
61.5237396614
 21
16.9936402119
  0
LINE
  5
4D1
100
AcDbEntity
  8
0
100
AcDbLine
 62
7
  6
CONTINUOUS
 10
61.3154071228
 20
15.26348537
 11
61.5237396614
 21
15.4139336034
  0
LINE
  5
4D2
100
AcDbEntity
  8
0
100
AcDbLine
 62
7
  6
CONTINUOUS
 10
66.1070733921
 20
15.26348537
 11
66.3154065268
 21
15.4139336034
  0
LINE
  5
4D3
100
AcDbEntity
  8
BEZUGSACHSEN
100
AcDbLine
 62
7
  6
CONTINUOUS
 10
86.780901149
 20
51.5838652837
 11
86.5565649015
 21
51.5100118971
  0
LINE
  5
4D4
100
AcDbEntity
  8
0
100
AcDbLine
 62
7
  6
CONTINUOUS
 10
208.4612396614
 20
15.7148300701
 11
208.2529071228
 21
15.7900541868
  0
LINE
  5
4D5
100
AcDbEntity
  8
0
100
AcDbLine
 62
7
  6
CONTINUOUS
 10
128.3641162769
 20
49.8191989547
 11
128.3641162769
 21
50.3191989547
  0
LINE
  5
4D6
100
AcDbEntity
  8
0
100
AcDbLine
 62
7
  6
CONTINUOUS
 10
129.3756571667
 20
49.8191989547
 11
129.3756571667
 21
50.3191989547
  0
LINE
  5
4D7
100
AcDbEntity
  8
0
100
AcDbLine
 62
7
  6
CONTINUOUS
 10
129.3756585972
 20
24.8191989547
 11
129.3756585972
 21
24.3191989547
  0
LINE
  5
4D8
100
AcDbEntity
  8
0
100
AcDbLine
 62
7
  6
CONTINUOUS
 10
130.285365905
 20
49.8191989547
 11
130.285365905
 21
50.3191989547
  0
LINE
  5
4D9
100
AcDbEntity
  8
0
100
AcDbLine
 62
7
  6
CONTINUOUS
 10
132.4713813917
 20
24.8191989547
 11
132.4713813917
 21
24.3191989547
  0
LINE
  5
4DA
100
AcDbEntity
  8
0
100
AcDbLine
 62
7
  6
CONTINUOUS
 10
61.4195733921
 20
17.4449849582
 11
61.0029071228
 21
17.2193125883
  0
LWPOLYLINE
  5
4DB
100
AcDbEntity
  8
BEZUGSACHSEN
100
AcDbPolyline
 62
7
  6
CONTINUOUS
 90
5
 70
0
 10
88.3229431323
 20
51.8191937364
 10
87.9230555738
 20
51.8034989129
 10
87.5369254676
 20
51.7587965312
 10
87.155356175
 20
51.6853772265
 10
86.780901149
 20
51.5838652837
  0
LINE
  5
4DC
100
AcDbEntity
  8
BEZUGSACHSEN
100
AcDbLine
 62
7
  6
CONTINUOUS
 10
87.3800305402
 20
49.8191989547
 11
182.0845926081
 21
49.8191989547
  0
LINE
  5
4DD
100
AcDbEntity
  8
0
100
AcDbLine
 62
7
  6
CONTINUOUS
 10
125.2140823261
 20
50.3191989547
 11
129.3756571667
 21
50.3191989547
  0
LINE
  5
4DE
100
AcDbEntity
  8
0
100
AcDbLine
 62
7
  6
CONTINUOUS
 10
130.285365905
 20
50.3191989547
 11
136.9927653925
 21
50.3191989547
  0
LINE
  5
4DF
100
AcDbEntity
  8
0
100
AcDbLine
 62
7
  6
CONTINUOUS
 10
140.088488187
 20
50.3191989547
 11
144.2500634746
 21
50.3191989547
  0
LINE
  5
4E0
100
AcDbEntity
  8
BEZUGSACHSEN
100
AcDbLine
 62
7
  6
CONTINUOUS
 10
186.7320733921
 20
51.3191989547
 11
184.1260908417
 21
51.3191989547
  0
LINE
  5
4E1
100
AcDbEntity
  8
BEZUGSACHSEN
100
AcDbLine
 62
7
  6
CONTINUOUS
 10
85.3377776879
 20
51.3191989547
 11
82.7320733921
 21
51.3191989547
  0
LINE
  5
4E2
100
AcDbEntity
  8
0
100
AcDbLine
 62
7
  6
CONTINUOUS
 10
162.6820733921
 20
51.7883101288
 11
165.6820733921
 21
51.7883101288
  0
LINE
  5
4E3
100
AcDbEntity
  8
0
100
AcDbLine
 62
7
  6
CONTINUOUS
 10
166.6820731537
 20
51.7883101288
 11
167.4320731537
 21
51.7883101288
  0
LINE
  5
4E4
100
AcDbEntity
  8
0
100
AcDbLine
 62
7
  6
CONTINUOUS
 10
170.4320731537
 20
51.7883101288
 11
171.1820735113
 21
51.7883101288
  0
LINE
  5
4E5
100
AcDbEntity
  8
0
100
AcDbLine
 62
7
  6
CONTINUOUS
 10
173.9320733921
 20
51.7883101288
 11
176.9320733921
 21
51.7883101288
  0
LINE
  5
4E6
100
AcDbEntity
  8
0
100
AcDbLine
 62
7
  6
CONTINUOUS
 10
179.8844430446
 20
51.8191989547
 11
176.9320733921
 21
51.8191989547
  0
LINE
  5
4E7
100
AcDbEntity
  8
0
100
AcDbLine
 62
7
  6
CONTINUOUS
 10
172.3211849735
 20
51.8191989547
 11
171.1820735113
 21
51.8191989547
  0
LINE
  5
4E8
100
AcDbEntity
  8
0
100
AcDbLine
 62
7
  6
CONTINUOUS
 10
170.4320731537
 20
51.8191989547
 11
167.4320731537
 21
51.8191989547
  0
LINE
  5
4E9
100
AcDbEntity
  8
0
100
AcDbLine
 62
7
  6
CONTINUOUS
 10
166.6820731537
 20
51.8191989547
 11
165.6820733921
 21
51.8191989547
  0
LINE
  5
4EA
100
AcDbEntity
  8
0
100
AcDbLine
 62
7
  6
CONTINUOUS
 10
160.8282406459
 20
51.8191989547
 11
156.7320733921
 21
51.8191989547
  0
LINE
  5
4EB
100
AcDbEntity
  8
BEZUGSACHSEN
100
AcDbLine
 62
7
  6
CONTINUOUS
 10
112.7320733921
 20
51.8191989547
 11
88.3262257922
 21
51.8191989547
  0
LINE
  5
4EC
100
AcDbEntity
  8
BEZUGSACHSEN
100
AcDbLine
 62
7
  6
CONTINUOUS
 10
156.7320733921
 20
51.8191989547
 11
160.8282406459
 21
51.8191989547
  0
LINE
  5
4ED
100
AcDbEntity
  8
BEZUGSACHSEN
100
AcDbLine
 62
7
  6
CONTINUOUS
 10
165.6820733921
 20
51.8191989547
 11
166.6820731537
 21
51.8191989547
  0
LINE
  5
4EE
100
AcDbEntity
  8
BEZUGSACHSEN
100
AcDbLine
 62
7
  6
CONTINUOUS
 10
167.4320731537
 20
51.8191989547
 11
170.4320731537
 21
51.8191989547
  0
LINE
  5
4EF
100
AcDbEntity
  8
BEZUGSACHSEN
100
AcDbLine
 62
7
  6
CONTINUOUS
 10
171.1820735113
 20
51.8191989547
 11
172.3211849735
 21
51.8191989547
  0
LINE
  5
4F0
100
AcDbEntity
  8
BEZUGSACHSEN
100
AcDbLine
 62
7
  6
CONTINUOUS
 10
176.9320733921
 20
51.8191989547
 11
181.1379209921
 21
51.8191989547
  0
LINE
  5
4F1
100
AcDbEntity
  8
0
100
AcDbLine
 62
7
  6
CONTINUOUS
 10
162.6820733921
 20
52.2888170121
 11
165.6820733921
 21
52.2888170121
  0
LINE
  5
4F2
100
AcDbEntity
  8
0
100
AcDbLine
 62
7
  6
CONTINUOUS
 10
166.6820731537
 20
52.2888170121
 11
167.4320731537
 21
52.2888170121
  0
LINE
  5
4F3
100
AcDbEntity
  8
0
100
AcDbLine
 62
7
  6
CONTINUOUS
 10
170.4320731537
 20
52.2888170121
 11
171.1820735113
 21
52.2888170121
  0
LINE
  5
4F4
100
AcDbEntity
  8
0
100
AcDbLine
 62
7
  6
CONTINUOUS
 10
173.9320733921
 20
52.2888170121
 11
176.9320733921
 21
52.2888170121
  0
LINE
  5
4F5
100
AcDbEntity
  8
0
100
AcDbLine
 62
7
  6
CONTINUOUS
 10
173.8070735113
 20
52.3106350084
 11
176.1820733921
 21
52.3106350084
  0
LINE
  5
4F6
100
AcDbEntity
  8
0
100
AcDbLine
 62
7
  6
CONTINUOUS
 10
162.6820733921
 20
52.3133934915
 11
164.9320733921
 21
52.3133934915
  0
LINE
  5
4F7
100
AcDbEntity
  8
0
100
AcDbLine
 62
7
  6
CONTINUOUS
 10
94.1120733921
 20
52.3191989547
 11
97.7520733921
 21
52.3191989547
  0
LINE
  5
4F8
100
AcDbEntity
  8
0
100
AcDbLine
 62
7
  6
CONTINUOUS
 10
99.7320733921
 20
52.3191989547
 11
103.3720733921
 21
52.3191989547
  0
LINE
  5
4F9
100
AcDbEntity
  8
0
100
AcDbLine
 62
7
  6
CONTINUOUS
 10
160.682073869
 20
52.3191989547
 11
160.8282406459
 21
52.3191989547
  0
LINE
  5
4FA
100
AcDbEntity
  8
0
100
AcDbLine
 62
7
  6
CONTINUOUS
 10
161.057073869
 20
52.3191989547
 11
165.6820733921
 21
52.3191989547
  0
LINE
  5
4FB
100
AcDbEntity
  8
0
100
AcDbLine
 62
7
  6
CONTINUOUS
 10
166.6820731537
 20
52.3191989547
 11
171.1820735113
 21
52.3191989547
  0
LINE
  5
4FC
100
AcDbEntity
  8
0
100
AcDbLine
 62
7
  6
CONTINUOUS
 10
172.1820732729
 20
52.3191989547
 11
172.3211849735
 21
52.3191989547
  0
LINE
  5
4FD
100
AcDbEntity
  8
0
100
AcDbLine
 62
7
  6
CONTINUOUS
 10
172.4320733921
 20
52.3191989547
 11
176.9320733921
 21
52.3191989547
  0
LWPOLYLINE
  5
4FE
100
AcDbEntity
  8
BEZUGSACHSEN
100
AcDbPolyline
 62
7
  6
CONTINUOUS
 90
7
 70
0
 10
184.1282255368
 20
51.3191655168
 10
183.9984084583
 20
51.3212729828
 10
183.7214342543
 20
51.3399083177
 10
183.4464230863
 20
51.3777128277
 10
183.1747039934
 20
51.4345028274
 10
182.9075898753
 20
51.5100020971
 10
182.8279739874
 20
51.5364446505
  0
LINE
  5
4FF
100
AcDbEntity
  8
KONSTRUKTIONSELEMENTE
100
AcDbLine
 62
7
  6
CONTINUOUS
 10
32.2067093616
 20
93.4870195592
 11
70.1130815303
 21
77.5227987553
  0
LINE
  5
500
100
AcDbEntity
  8
0
100
AcDbLine
 62
7
  6
CONTINUOUS
 10
136.9927653925
 20
49.8191989547
 11
136.9927653925
 21
50.3191989547
  0
LINE
  5
501
100
AcDbEntity
  8
0
100
AcDbLine
 62
7
  6
CONTINUOUS
 10
139.1787808792
 20
24.8191989547
 11
139.1787808792
 21
24.3191989547
  0
LINE
  5
502
100
AcDbEntity
  8
0
100
AcDbLine
 62
7
  6
CONTINUOUS
 10
140.088488187
 20
49.8191989547
 11
140.088488187
 21
50.3191989547
  0
LINE
  5
503
100
AcDbEntity
  8
0
100
AcDbLine
 62
7
  6
CONTINUOUS
 10
140.0884896175
 20
24.8191989547
 11
140.0884896175
 21
24.3191989547
  0
LINE
  5
504
100
AcDbEntity
  8
0
100
AcDbLine
 62
7
  6
CONTINUOUS
 10
141.1000305073
 20
24.8191989547
 11
141.1000305073
 21
24.3191989547
  0
LINE
  5
505
100
AcDbEntity
  8
0
100
AcDbLine
 62
7
  6
CONTINUOUS
 10
141.5888279931
 20
49.8191989547
 11
141.5888279931
 21
50.3191989547
  0
LINE
  5
506
100
AcDbEntity
  8
0
100
AcDbLine
 62
7
  6
CONTINUOUS
 10
143.0416458504
 20
24.8191989547
 11
143.0416458504
 21
24.3191989547
  0
LINE
  5
507
100
AcDbEntity
  8
0
100
AcDbLine
 62
7
  6
CONTINUOUS
 10
237.2574374226
 20
93.4870195592
 11
199.3510652539
 21
77.5227987553
  0
LINE
  5
508
100
AcDbEntity
  8
0
100
AcDbLine
 62
7
  6
CONTINUOUS
 10
203.6695733921
 20
17.2193126147
 11
203.2529065268
 21
17.4449849647
  0
LINE
  5
509
100
AcDbEntity
  8
0
100
AcDbLine
 62
7
  6
CONTINUOUS
 10
208.4612396614
 20
17.2193126147
 11
208.0445733921
 21
17.4449849647
  0
LINE
  5
50A
100
AcDbEntity
  8
0
100
AcDbLine
 62
7
  6
CONTINUOUS
 10
144.2500634746
 20
49.8191989547
 11
144.2500634746
 21
50.3191989547
  0
LINE
  5
50B
100
AcDbEntity
  8
0
100
AcDbLine
 62
7
  6
CONTINUOUS
 10
144.2500644581
 20
24.8191989547
 11
144.2500644581
 21
24.3191989547
  0
LINE
  5
50C
100
AcDbEntity
  8
0
100
AcDbLine
 62
7
  6
CONTINUOUS
 10
61.2112396614
 20
15.7148300701
 11
61.0029071228
 21
15.6396059534
  0
LINE
  5
50D
100
AcDbEntity
  8
0
100
AcDbLine
 62
7
  6
CONTINUOUS
 10
66.2112402575
 20
15.7900541868
 11
65.7945733921
 21
15.6396059534
  0
LWPOLYLINE
  5
50E
100
AcDbEntity
  8
BEZUGSACHSEN
100
AcDbPolyline
 62
7
  6
CONTINUOUS
 90
6
 70
0
 10
86.5565649015
 20
51.5100118971
 10
86.2894503969
 20
51.434512396
 10
86.0177308266
 20
51.3777221904
 10
85.7427191019
 20
51.3399175153
 10
85.4657442746
 20
51.3212820693
 10
85.3359280539
 20
51.3191745729
  0
LWPOLYLINE
  5
50F
100
AcDbEntity
  8
BEZUGSACHSEN
100
AcDbPolyline
 62
7
  6
CONTINUOUS
 90
6
 70
0
 10
182.8280192516
 20
51.5364400309
 10
182.6779031604
 20
51.5855262717
 10
182.2978769793
 20
51.6878910322
 10
181.9105899764
 20
51.7613284482
 10
181.5187075324
 20
51.8051952945
 10
181.1412395522
 20
51.8191937117
  0
LINE
  5
510
100
AcDbEntity
  8
0
100
AcDbLine
 62
7
  6
CONTINUOUS
 10
203.1487402575
 20
17.0688643813
 11
203.3570733921
 21
16.9184161479
  0
LINE
  5
511
100
AcDbEntity
  8
0
100
AcDbLine
 62
7
  6
CONTINUOUS
 10
207.9404071228
 20
15.48915772
 11
208.1487396614
 21
15.3387094867
  0
LINE
  5
512
100
AcDbEntity
  8
0
100
AcDbLine
 62
7
  6
CONTINUOUS
 10
207.9404071228
 20
16.9936402646
 11
208.1487396614
 21
16.8431920312
  0
LINE
  5
513
100
AcDbEntity
  8
0
100
AcDbLine
 62
7
  6
CONTINUOUS
 10
156.7320733921
 20
22.8191989547
 11
156.7320733921
 21
24.8191989547
  0
LINE
  5
514
100
AcDbEntity
  8
BEZUGSACHSEN
100
AcDbLine
 62
7
  6
CONTINUOUS
 10
156.7320733921
 20
49.8191989547
 11
156.7320733921
 21
51.8191989547
  0
LINE
  5
515
100
AcDbEntity
  8
0
100
AcDbLine
 62
7
  6
CONTINUOUS
 10
199.3510652539
 20
77.5227987553
 11
196.408128616
 21
75.3830344212
  0
LINE
  5
516
100
AcDbEntity
  8
0
100
AcDbLine
 62
7
  6
CONTINUOUS
 10
203.9820733921
 20
16.9184161479
 11
203.6695733921
 21
17.2193126147
  0
LINE
  5
517
100
AcDbEntity
  8
0
100
AcDbLine
 62
7
  6
CONTINUOUS
 10
208.7737396614
 20
15.4139336034
 11
208.4612396614
 21
15.7148300701
  0
LINE
  5
518
100
AcDbEntity
  8
0
100
AcDbLine
 62
7
  6
CONTINUOUS
 10
160.682073869
 20
51.8191989547
 11
160.682073869
 21
52.3191989547
  0
LINE
  5
519
100
AcDbEntity
  8
0
100
AcDbLine
 62
7
  6
CONTINUOUS
 10
160.8070733921
 20
51.8191989547
 11
160.8070733921
 21
52.3191989547
  0
LINE
  5
51A
100
AcDbEntity
  8
0
100
AcDbLine
 62
7
  6
CONTINUOUS
 10
161.057073869
 20
51.8155576396
 11
161.057073869
 21
52.3156173404
  0
LINE
  5
51B
100
AcDbEntity
  8
0
100
AcDbLine
 62
7
  6
CONTINUOUS
 10
161.5570733921
 20
51.8032519692
 11
161.5570733921
 21
52.3035135308
  0
LINE
  5
51C
100
AcDbEntity
  8
0
100
AcDbLine
 62
7
  6
CONTINUOUS
 10
162.0570729153
 20
51.7938352665
 11
162.0570729153
 21
52.2942514079
  0
LINE
  5
51D
100
AcDbEntity
  8
0
100
AcDbLine
 62
7
  6
CONTINUOUS
 10
162.6820733921
 20
51.7883101288
 11
162.6820733921
 21
52.2888170121
  0
LINE
  5
51E
100
AcDbEntity
  8
0
100
AcDbLine
 62
7
  6
CONTINUOUS
 10
164.9320733921
 20
52.3191989547
 11
164.9320733921
 21
52.3133934915
  0
LINE
  5
51F
100
AcDbEntity
  8
0
100
AcDbLine
 62
7
  6
CONTINUOUS
 10
165.6820733921
 20
51.7883101288
 11
165.6820733921
 21
52.3191989547
  0
LINE
  5
520
100
AcDbEntity
  8
0
100
AcDbLine
 62
7
  6
CONTINUOUS
 10
208.7737396614
 20
16.9184161479
 11
208.4612396614
 21
17.2193126147
  0
LINE
  5
521
100
AcDbEntity
  8
0
100
AcDbLine
 62
7
  6
CONTINUOUS
 10
211.0654071228
 20
15.7148300701
 11
212.6279071228
 21
13.9846751755
  0
LINE
  5
522
100
AcDbEntity
  8
0
100
AcDbLine
 62
7
  6
CONTINUOUS
 10
166.6820731537
 20
51.7883101288
 11
166.6820731537
 21
52.3191989547
  0
LINE
  5
523
100
AcDbEntity
  8
0
100
AcDbLine
 62
7
  6
CONTINUOUS
 10
167.4320731537
 20
51.7883101288
 11
167.4320731537
 21
52.3191989547
  0
LINE
  5
524
100
AcDbEntity
  8
0
100
AcDbLine
 62
7
  6
CONTINUOUS
 10
167.5570733921
 20
51.8191989547
 11
167.5570733921
 21
52.3191989547
  0
LINE
  5
525
100
AcDbEntity
  8
0
100
AcDbLine
 62
7
  6
CONTINUOUS
 10
167.8070731537
 20
51.8191989547
 11
167.8070731537
 21
52.3191989547
  0
LINE
  5
526
100
AcDbEntity
  8
0
100
AcDbLine
 62
7
  6
CONTINUOUS
 10
168.1820731537
 20
51.8191989547
 11
168.1820731537
 21
52.3191989547
  0
LINE
  5
527
100
AcDbEntity
  8
0
100
AcDbLine
 62
7
  6
CONTINUOUS
 10
168.6820733921
 20
51.8191989547
 11
168.6820733921
 21
52.3191989547
  0
LINE
  5
528
100
AcDbEntity
  8
0
100
AcDbLine
 62
7
  6
CONTINUOUS
 10
169.1820736305
 20
51.8191989547
 11
169.1820736305
 21
52.3191989547
  0
LINE
  5
529
100
AcDbEntity
  8
0
100
AcDbLine
 62
7
  6
CONTINUOUS
 10
169.6820731537
 20
51.8191989547
 11
169.6820731537
 21
52.3191989547
  0
LINE
  5
52A
100
AcDbEntity
  8
0
100
AcDbLine
 62
7
  6
CONTINUOUS
 10
170.0570731537
 20
51.8191989547
 11
170.0570731537
 21
52.3191989547
  0
LINE
  5
52B
100
AcDbEntity
  8
0
100
AcDbLine
 62
7
  6
CONTINUOUS
 10
170.3070736305
 20
51.8191989547
 11
170.3070736305
 21
52.3191989547
  0
LINE
  5
52C
100
AcDbEntity
  8
0
100
AcDbLine
 62
7
  6
CONTINUOUS
 10
170.4320731537
 20
51.7883101288
 11
170.4320731537
 21
52.3191989547
  0
LINE
  5
52D
100
AcDbEntity
  8
0
100
AcDbLine
 62
7
  6
CONTINUOUS
 10
171.1820735113
 20
51.7883101288
 11
171.1820735113
 21
52.3191989547
  0
LINE
  5
52E
100
AcDbEntity
  8
0
100
AcDbLine
 62
7
  6
CONTINUOUS
 10
172.1820732729
 20
51.8191989547
 11
172.1820732729
 21
52.3191989547
  0
LINE
  5
52F
100
AcDbEntity
  8
0
100
AcDbLine
 62
7
  6
CONTINUOUS
 10
172.3070735113
 20
51.8191989547
 11
172.3070735113
 21
52.3191989547
  0
LINE
  5
530
100
AcDbEntity
  8
0
100
AcDbLine
 62
7
  6
CONTINUOUS
 10
172.4320733921
 20
51.8172751319
 11
172.4320733921
 21
52.317306672
  0
LINE
  5
531
100
AcDbEntity
  8
0
100
AcDbLine
 62
7
  6
CONTINUOUS
 10
172.8070733921
 20
51.807144047
 11
172.8070733921
 21
52.3073417459
  0
LINE
  5
532
100
AcDbEntity
  8
0
100
AcDbLine
 62
7
  6
CONTINUOUS
 10
173.3070732729
 20
51.7938352665
 11
173.3070732729
 21
52.2942514079
  0
LINE
  5
533
100
AcDbEntity
  8
0
100
AcDbLine
 62
7
  6
CONTINUOUS
 10
173.9320733921
 20
51.7883101288
 11
173.9320733921
 21
52.2888170121
  0
LINE
  5
534
100
AcDbEntity
  8
KONSTRUKTIONSELEMENTE
100
AcDbLine
 62
7
  6
CONTINUOUS
 10
74.3548515487
 20
78.0516712191
 11
70.1130815303
 21
77.5227987553
  0
LINE
  5
535
100
AcDbEntity
  8
0
100
AcDbLine
 62
7
  6
CONTINUOUS
 10
195.1092952356
 20
78.0516712191
 11
199.3510652539
 21
77.5227987553
  0
LINE
  5
536
100
AcDbEntity
  8
0
100
AcDbLine
 62
7
  6
CONTINUOUS
 10
213.4612396614
 20
13.9846751755
 11
211.5862396614
 21
16.0909506536
  0
LINE
  5
537
100
AcDbEntity
  8
0
100
AcDbLine
 62
7
  6
CONTINUOUS
 10
195.2320733921
 20
17.5202090814
 11
196.8987401085
 21
13.9846751755
  0
LINE
  5
538
100
AcDbEntity
  8
0
100
AcDbLine
 62
7
  6
CONTINUOUS
 10
176.1820733921
 20
52.3191989547
 11
176.1820733921
 21
52.3106350084
  0
LINE
  5
539
100
AcDbEntity
  8
0
100
AcDbLine
 62
7
  6
CONTINUOUS
 10
176.9320733921
 20
51.7883101288
 11
176.9320733921
 21
52.3191989547
  0
LINE
  5
53A
100
AcDbEntity
  8
RUNDUNGEN
100
AcDbLine
 62
7
  6
CONTINUOUS
 10
182.8278427524
 20
23.101897205
 11
182.827802047
 21
23.101883171
  0
LINE
  5
53B
100
AcDbEntity
  8
RUNDUNGEN
100
AcDbLine
 62
7
  6
CONTINUOUS
 10
182.6891468144
 20
23.0563746319
 11
182.9202896305
 21
23.1324430159
  0
LINE
  5
53C
100
AcDbEntity
  8
0
100
AcDbLine
 62
7
  6
CONTINUOUS
 10
204.1904065268
 20
13.9846751755
 11
203.2529065268
 21
15.7148300701
  0
LINE
  5
53D
100
AcDbEntity
  8
0
100
AcDbLine
 62
7
  6
CONTINUOUS
 10
202.6279065268
 20
15.5643818367
 11
203.4612402575
 21
13.9846751755
  0
LINE
  5
53E
100
AcDbEntity
  8
0
100
AcDbLine
 62
7
  6
CONTINUOUS
 10
197.3154066758
 20
14.4360199283
 11
195.8570733921
 21
17.5202090814
  0
LINE
  5
53F
100
AcDbEntity
  8
0
100
AcDbLine
 62
7
  6
CONTINUOUS
 10
203.3570733921
 20
16.9184161479
 11
203.4612402575
 21
16.6927437978
  0
LINE
  5
540
100
AcDbEntity
  8
KONSTRUKTIONSELEMENTE
100
AcDbLine
 62
7
  6
CONTINUOUS
 10
186.7320733921
 20
19.8191989547
 11
188.6242516407
 21
9.0881228541
  0
LINE
  5
541
100
AcDbEntity
  8
KONSTRUKTIONSELEMENTE
100
AcDbLine
 62
7
  6
CONTINUOUS
 10
186.7320733921
 20
19.8194671604
 11
186.7320733921
 21
27.9860170395
  0
LINE
  5
542
100
AcDbEntity
  8
KONSTRUKTIONSELEMENTE
100
AcDbLine
 62
7
  6
CONTINUOUS
 10
186.7320733921
 20
46.6523808698
 11
186.7320733921
 21
54.8189307489
  0
LINE
  5
543
100
AcDbEntity
  8
RUNDUNGEN
100
AcDbLine
 62
7
  6
CONTINUOUS
 10
187.0845921899
 20
29.8191989547
 11
187.0845921899
 21
44.8191989547
  0
LINE
  5
544
100
AcDbEntity
  8
KONSTRUKTIONSELEMENTE
100
AcDbLine
 62
7
  6
CONTINUOUS
 10
188.6242516407
 20
37.3192589403
 11
188.6242516407
 21
9.0881228541
  0
LINE
  5
545
100
AcDbEntity
  8
KONSTRUKTIONSELEMENTE
100
AcDbLine
 62
7
  6
CONTINUOUS
 10
186.7320733921
 20
54.8191989547
 11
193.5693059791
 21
93.5950718218
  0
LINE
  5
546
100
AcDbEntity
  8
KONSTRUKTIONSELEMENTE
100
AcDbLine
 62
7
  6
CONTINUOUS
 10
29.5556492534
 20
94.0277279393
 11
71.2614456336
 21
99.2276903028
  0
LINE
  5
547
100
AcDbEntity
  8
0
100
AcDbLine
 62
7
  6
CONTINUOUS
 10
198.2027011506
 20
99.2276903028
 11
239.9084975309
 21
94.0277279393
  0
LINE
  5
548
100
AcDbEntity
  8
0
100
AcDbLine
 62
7
  6
CONTINUOUS
 10
208.1487396614
 20
15.3387094867
 11
208.2529071228
 21
15.1130370312
  0
LINE
  5
549
100
AcDbEntity
  8
0
100
AcDbLine
 62
7
  6
CONTINUOUS
 10
208.8779071228
 20
15.1882611479
 11
208.7737396614
 21
15.4139336034
  0
LINE
  5
54A
100
AcDbEntity
  8
0
100
AcDbLine
 62
7
  6
CONTINUOUS
 10
208.1487396614
 20
16.8431920312
 11
208.2529071228
 21
16.6175194704
  0
LINE
  5
54B
100
AcDbEntity
  8
0
100
AcDbLine
 62
7
  6
CONTINUOUS
 10
208.8779071228
 20
16.6927437978
 11
208.7737396614
 21
16.9184161479
  0
LINE
  5
54C
100
AcDbEntity
  8
0
100
AcDbLine
 62
7
  6
CONTINUOUS
 10
204.0862402575
 20
16.6927437978
 11
203.9820733921
 21
16.9184161479
  0
LINE
  5
54D
100
AcDbEntity
  8
0
100
AcDbLine
 62
7
  6
CONTINUOUS
 10
195.2320733921
 20
17.947547751
 11
195.2320733921
 21
17.5202090814
  0
LINE
  5
54E
100
AcDbEntity
  8
0
100
AcDbLine
 62
7
  6
CONTINUOUS
 10
195.8570733921
 20
17.947547751
 11
195.8570733921
 21
17.5202090814
  0
LINE
  5
54F
100
AcDbEntity
  8
0
100
AcDbLine
 62
7
  6
CONTINUOUS
 10
197.3154066758
 20
14.8304591537
 11
197.3154066758
 21
14.4360199283
  0
LINE
  5
550
100
AcDbEntity
  8
0
100
AcDbLine
 62
7
  6
CONTINUOUS
 10
203.2529065268
 20
15.7148300701
 11
203.6695733921
 21
15.8652783035
  0
LINE
  5
551
100
AcDbEntity
  8
0
100
AcDbLine
 62
7
  6
CONTINUOUS
 10
208.2529071228
 20
15.7900541868
 11
208.4612396614
 21
15.8652783035
  0
LINE
  5
552
100
AcDbEntity
  8
0
100
AcDbLine
 62
7
  6
CONTINUOUS
 10
198.7737399594
 20
17.947547751
 11
198.7737399594
 21
17.5202090814
  0
LINE
  5
553
100
AcDbEntity
  8
0
100
AcDbLine
 62
7
  6
CONTINUOUS
 10
199.3987399594
 20
17.947547751
 11
199.3987399594
 21
17.5202090814
  0
LINE
  5
554
100
AcDbEntity
  8
0
100
AcDbLine
 62
7
  6
CONTINUOUS
 10
200.2320733921
 20
17.947547751
 11
200.2320733921
 21
13.9846751755
  0
LINE
  5
555
100
AcDbEntity
  8
0
100
AcDbLine
 62
7
  6
CONTINUOUS
 10
200.8570733921
 20
13.9846751755
 11
200.8570733921
 21
15.5643818367
  0
LINE
  5
556
100
AcDbEntity
  8
0
100
AcDbLine
 62
7
  6
CONTINUOUS
 10
200.8570733921
 20
16.0157265369
 11
200.8570733921
 21
17.144088498
  0
LINE
  5
557
100
AcDbEntity
  8
0
100
AcDbLine
 62
7
  6
CONTINUOUS
 10
202.7320733921
 20
17.947547751
 11
202.7320733921
 21
17.5202090814
  0
LINE
  5
558
100
AcDbEntity
  8
0
100
AcDbLine
 62
7
  6
CONTINUOUS
 10
202.8362402575
 20
16.3709138473
 11
202.8362402575
 21
16.0157265369
  0
LINE
  5
559
100
AcDbEntity
  8
0
100
AcDbLine
 62
7
  6
CONTINUOUS
 10
203.1487402575
 20
16.4472050817
 11
203.1487402575
 21
16.0909506536
  0
LINE
  5
55A
100
AcDbEntity
  8
0
100
AcDbLine
 62
7
  6
CONTINUOUS
 10
203.2529065268
 20
17.8661678156
 11
203.2529065268
 21
17.4449849647
  0
LINE
  5
55B
100
AcDbEntity
  8
0
100
AcDbLine
 62
7
  6
CONTINUOUS
 10
203.3570733921
 20
16.6005881655
 11
203.3570733921
 21
16.241398887
  0
LINE
  5
55C
100
AcDbEntity
  8
0
100
AcDbLine
 62
7
  6
CONTINUOUS
 10
203.4612402575
 20
16.6927437978
 11
203.4612402575
 21
16.467071237
  0
LINE
  5
55D
100
AcDbEntity
  8
0
100
AcDbLine
 62
7
  6
CONTINUOUS
 10
203.6695733921
 20
17.6236430446
 11
203.6695733921
 21
17.2193126147
  0
LINE
  5
55E
100
AcDbEntity
  8
0
100
AcDbLine
 62
7
  6
CONTINUOUS
 10
203.9820733921
 20
17.3040373911
 11
203.9820733921
 21
16.9184161479
  0
LINE
  5
55F
100
AcDbEntity
  8
0
100
AcDbLine
 62
7
  6
CONTINUOUS
 10
204.0862402575
 20
16.3918471203
 11
204.0862402575
 21
17.0671474566
  0
LINE
  5
560
100
AcDbEntity
  8
0
100
AcDbLine
 62
7
  6
CONTINUOUS
 10
204.1904065268
 20
14.4120138451
 11
204.1904065268
 21
13.9846751755
  0
LINE
  5
561
100
AcDbEntity
  8
0
100
AcDbLine
 62
7
  6
CONTINUOUS
 10
205.0237402575
 20
17.947547751
 11
205.0237402575
 21
13.9846751755
  0
LINE
  5
562
100
AcDbEntity
  8
0
100
AcDbLine
 62
7
  6
CONTINUOUS
 10
203.3570733921
 20
16.241398887
 11
203.1487402575
 21
16.0909506536
  0
LINE
  5
563
100
AcDbEntity
  8
0
100
AcDbLine
 62
7
  6
CONTINUOUS
 10
208.0445733921
 20
14.0598992988
 11
208.4612396614
 21
14.2855716686
  0
LINE
  5
564
100
AcDbEntity
  8
0
100
AcDbLine
 62
7
  6
CONTINUOUS
 10
205.6487396614
 20
14.4360199283
 11
205.6487396614
 21
15.5643818367
  0
LINE
  5
565
100
AcDbEntity
  8
0
100
AcDbLine
 62
7
  6
CONTINUOUS
 10
205.6487396614
 20
16.0157265369
 11
205.6487396614
 21
17.0688643813
  0
LINE
  5
566
100
AcDbEntity
  8
0
100
AcDbLine
 62
7
  6
CONTINUOUS
 10
207.5237396614
 20
17.947547751
 11
207.5237396614
 21
17.5202090814
  0
LINE
  5
567
100
AcDbEntity
  8
0
100
AcDbLine
 62
7
  6
CONTINUOUS
 10
207.6279071228
 20
16.3709138473
 11
207.6279071228
 21
16.0157265369
  0
LINE
  5
568
100
AcDbEntity
  8
0
100
AcDbLine
 62
7
  6
CONTINUOUS
 10
207.6279071228
 20
14.8304591537
 11
207.6279071228
 21
14.4360199283
  0
LINE
  5
569
100
AcDbEntity
  8
0
100
AcDbLine
 62
7
  6
CONTINUOUS
 10
207.9404071228
 20
16.4472050817
 11
207.9404071228
 21
16.0909506536
  0
LINE
  5
56A
100
AcDbEntity
  8
0
100
AcDbLine
 62
7
  6
CONTINUOUS
 10
207.9404071228
 20
14.9011402135
 11
207.9404071228
 21
14.511244045
  0
LINE
  5
56B
100
AcDbEntity
  8
0
100
AcDbLine
 62
7
  6
CONTINUOUS
 10
208.0445733921
 20
17.8661678156
 11
208.0445733921
 21
17.4449849647
  0
LINE
  5
56C
100
AcDbEntity
  8
0
100
AcDbLine
 62
7
  6
CONTINUOUS
 10
208.1487396614
 20
16.6005881655
 11
208.1487396614
 21
16.241398887
  0
LINE
  5
56D
100
AcDbEntity
  8
0
100
AcDbLine
 62
7
  6
CONTINUOUS
 10
208.1487396614
 20
15.0433066069
 11
208.1487396614
 21
14.6616923311
  0
LINE
  5
56E
100
AcDbEntity
  8
0
100
AcDbLine
 62
7
  6
CONTINUOUS
 10
208.2529071228
 20
16.6175194704
 11
208.2529071228
 21
16.467071237
  0
LINE
  5
56F
100
AcDbEntity
  8
0
100
AcDbLine
 62
7
  6
CONTINUOUS
 10
208.2529071228
 20
15.1130370312
 11
208.2529071228
 21
14.8873646812
  0
LINE
  5
570
100
AcDbEntity
  8
0
100
AcDbLine
 62
7
  6
CONTINUOUS
 10
208.4612396614
 20
17.6236430446
 11
208.4612396614
 21
17.2193126147
  0
LINE
  5
571
100
AcDbEntity
  8
0
100
AcDbLine
 62
7
  6
CONTINUOUS
 10
208.4612396614
 20
15.8652783035
 11
208.4612396614
 21
15.7148300701
  0
LINE
  5
572
100
AcDbEntity
  8
0
100
AcDbLine
 62
7
  6
CONTINUOUS
 10
208.7737396614
 20
17.3040373911
 11
208.7737396614
 21
16.9184161479
  0
LINE
  5
573
100
AcDbEntity
  8
0
100
AcDbLine
 62
7
  6
CONTINUOUS
 10
208.7737396614
 20
15.7701880315
 11
208.7737396614
 21
15.4139336034
  0
LINE
  5
574
100
AcDbEntity
  8
0
100
AcDbLine
 62
7
  6
CONTINUOUS
 10
208.8779071228
 20
14.8121405645
 11
208.8779071228
 21
15.5493182728
  0
LINE
  5
575
100
AcDbEntity
  8
0
100
AcDbLine
 62
7
  6
CONTINUOUS
 10
208.8779071228
 20
16.3918471203
 11
208.8779071228
 21
17.0671474566
  0
LINE
  5
576
100
AcDbEntity
  8
0
100
AcDbLine
 62
7
  6
CONTINUOUS
 10
209.7112396614
 20
17.947547751
 11
209.7112396614
 21
13.9846751755
  0
LINE
  5
577
100
AcDbEntity
  8
0
100
AcDbLine
 62
7
  6
CONTINUOUS
 10
210.3362396614
 20
13.9846751755
 11
210.3362396614
 21
15.1882611479
  0
LINE
  5
578
100
AcDbEntity
  8
0
100
AcDbLine
 62
7
  6
CONTINUOUS
 10
210.3362396614
 20
15.7900541868
 11
210.3362396614
 21
17.947547751
  0
LINE
  5
579
100
AcDbEntity
  8
0
100
AcDbLine
 62
7
  6
CONTINUOUS
 10
212.6279071228
 20
17.947547751
 11
212.6279071228
 21
17.5202090814
  0
LINE
  5
57A
100
AcDbEntity
  8
0
100
AcDbLine
 62
7
  6
CONTINUOUS
 10
203.4612402575
 20
16.467071237
 11
203.3570733921
 21
16.241398887
  0
LINE
  5
57B
100
AcDbEntity
  8
0
100
AcDbLine
 62
7
  6
CONTINUOUS
 10
197.7320733921
 20
13.9846751755
 11
199.3987399594
 21
17.5202090814
  0
LINE
  5
57C
100
AcDbEntity
  8
0
100
AcDbLine
 62
7
  6
CONTINUOUS
 10
198.7737399594
 20
17.5202090814
 11
197.3154066758
 21
14.4360199283
  0
LINE
  5
57D
100
AcDbEntity
  8
0
100
AcDbLine
 62
7
  6
CONTINUOUS
 10
203.6695733921
 20
15.8652783035
 11
203.9820733921
 21
16.1661747703
  0
LINE
  5
57E
100
AcDbEntity
  8
0
100
AcDbLine
 62
7
  6
CONTINUOUS
 10
211.5862396614
 20
16.0909506536
 11
213.4612396614
 21
17.5202090814
  0
LINE
  5
57F
100
AcDbEntity
  8
0
100
AcDbLine
 62
7
  6
CONTINUOUS
 10
212.6279071228
 20
17.5202090814
 11
210.3362396614
 21
15.7900541868
  0
LINE
  5
580
100
AcDbEntity
  8
0
100
AcDbLine
 62
7
  6
CONTINUOUS
 10
208.1487396614
 20
16.241398887
 11
207.9404071228
 21
16.0909506536
  0
LINE
  5
581
100
AcDbEntity
  8
0
100
AcDbLine
 62
7
  6
CONTINUOUS
 10
208.1487396614
 20
14.6616923311
 11
207.9404071228
 21
14.511244045
  0
LINE
  5
582
100
AcDbEntity
  8
0
100
AcDbLine
 62
7
  6
CONTINUOUS
 10
210.3362396614
 20
15.1882611479
 11
211.0654071228
 21
15.7148300701
  0
LINE
  5
583
100
AcDbEntity
  8
0
100
AcDbLine
 62
7
  6
CONTINUOUS
 10
213.4612396614
 20
17.947547751
 11
213.4612396614
 21
17.5202090814
  0
LINE
  5
584
100
AcDbEntity
  8
0
100
AcDbLine
 62
7
  6
CONTINUOUS
 10
213.4612396614
 20
14.4120138451
 11
213.4612396614
 21
13.9846751755
  0
LINE
  5
585
100
AcDbEntity
  8
0
100
AcDbLine
 62
7
  6
CONTINUOUS
 10
203.9820733921
 20
16.1661747703
 11
204.0862402575
 21
16.3918471203
  0
LINE
  5
586
100
AcDbEntity
  8
0
100
AcDbLine
 62
7
  6
CONTINUOUS
 10
208.2529071228
 20
16.467071237
 11
208.1487396614
 21
16.241398887
  0
LINE
  5
587
100
AcDbEntity
  8
0
100
AcDbLine
 62
7
  6
CONTINUOUS
 10
208.7737396614
 20
16.1661747703
 11
208.8779071228
 21
16.3918471203
  0
LINE
  5
588
100
AcDbEntity
  8
0
100
AcDbLine
 62
7
  6
CONTINUOUS
 10
208.2529071228
 20
14.8873646812
 11
208.1487396614
 21
14.6616923311
  0
LINE
  5
589
100
AcDbEntity
  8
0
100
AcDbLine
 62
7
  6
CONTINUOUS
 10
208.7737396614
 20
14.5864681617
 11
208.8779071228
 21
14.8121405645
  0
LINE
  5
58A
100
AcDbEntity
  8
0
100
AcDbLine
 62
7
  6
CONTINUOUS
 10
208.4612396614
 20
15.8652783035
 11
208.7737396614
 21
16.1661747703
  0
LINE
  5
58B
100
AcDbEntity
  8
0
100
AcDbLine
 62
7
  6
CONTINUOUS
 10
208.4612396614
 20
14.2855716686
 11
208.7737396614
 21
14.5864681617
  0
LWPOLYLINE
  5
58C
100
AcDbEntity
  8
RUNDUNGEN
100
AcDbPolyline
 62
7
  6
CONTINUOUS
 90
10
 70
0
 10
227.768673003
 20
9.1273299584
 10
228.3770411575
 20
9.5960854185
 10
228.9197359823
 20
10.0858626503
 10
229.4027451134
 20
10.5914818414
 10
229.8376536989
 20
11.1176251316
 10
230.2206435795
 20
11.6531054262
 10
230.5562902274
 20
12.1962594506
 10
230.8460273054
 20
12.7416327705
 10
231.0925057429
 20
13.2870702518
 10
231.1877715398
 20
13.5264964215
  0
LINE
  5
58D
100
AcDbEntity
  8
RUNDUNGEN
100
AcDbLine
 62
7
  6
CONTINUOUS
 10
227.2584441531
 20
8.7890962706
 11
227.768673003
 21
9.1273299584
  0
LINE
  5
58E
100
AcDbEntity
  8
RUNDUNGEN
100
AcDbLine
 62
7
  6
CONTINUOUS
 10
227.2551402963
 20
8.7872563713
 11
227.258394975
 21
8.7892710136
  0
LWPOLYLINE
  5
58F
100
AcDbEntity
  8
KONSTRUKTIONSELEMENTE
100
AcDbPolyline
 62
7
  6
CONTINUOUS
 90
9
 70
0
 10
236.8092169483
 20
47.3541153691
 10
236.8119639557
 20
47.3433928006
 10
236.8238100173
 20
47.292519454
 10
236.825608809
 20
47.2836096271
 10
236.8210367391
 20
47.3137090967
 10
236.8129869188
 20
47.3780889446
 10
236.8031122612
 20
47.4760090496
 10
236.7929167323
 20
47.6048556379
 10
236.783244698
 20
47.7670705657
  0
LWPOLYLINE
  5
590
100
AcDbEntity
  8
KONSTRUKTIONSELEMENTE
100
AcDbPolyline
 62
7
  6
CONTINUOUS
 90
3
 70
0
 10
236.783244698
 20
47.7670705657
 10
236.7749705667
 20
47.9641925625
 10
236.7689238026
 20
48.1990909218
  0
LWPOLYLINE
  5
591
100
AcDbEntity
  8
KONSTRUKTIONSELEMENTE
100
AcDbPolyline
 62
7
  6
CONTINUOUS
 90
3
 70
0
 10
236.7689238026
 20
48.1990909218
 10
236.7660605456
 20
48.4753344679
 10
236.7659559313
 20
48.5446417087
  0
LINE
  5
592
100
AcDbEntity
  8
0
100
AcDbLine
 62
7
  6
CONTINUOUS
 10
236.7659559313
 20
48.5446417087
 11
236.7659558073
 21
48.5452619731
  0
LINE
  5
593
100
AcDbEntity
  8
KONSTRUKTIONSELEMENTE
100
AcDbLine
 62
7
  6
CONTINUOUS
 10
240.6834426781
 20
38.3455012635
 11
240.6834426781
 21
45.8718684843
  0
LINE
  5
594
100
AcDbEntity
  8
0
100
AcDbLine
 62
7
  6
CONTINUOUS
 10
240.6834426781
 20
82.636848856
 11
240.6834426781
 21
90.1632160768
  0
LWPOLYLINE
  5
595
100
AcDbEntity
  8
0
100
AcDbPolyline
 62
7
  6
CONTINUOUS
 90
10
 70
0
 10
236.7659558073
 20
48.5452619732
 10
236.7669276728
 20
48.7564930356
 10
236.7762602666
 20
49.2602237917
 10
236.7959942331
 20
49.819345917
 10
236.8267224329
 20
50.4285770109
 10
236.8687223141
 20
51.0828679282
 10
236.9222758547
 20
51.7770917189
 10
236.9873227004
 20
52.5054553552
 10
237.0637897657
 20
53.262200521
 10
237.1514283989
 20
54.0412308266
  0
LINE
  5
596
100
AcDbEntity
  8
0
100
AcDbLine
 62
7
  6
CONTINUOUS
 10
240.6517489227
 20
82.1264872314
 11
237.1514283989
 21
54.0412308266
  0
LINE
  5
597
100
AcDbEntity
  8
RUNDUNGEN
100
AcDbLine
 62
7
  6
CONTINUOUS
 10
231.1871677183
 20
13.5249158778
 11
238.0517226007
 21
31.3961198823
  0
LINE
  5
598
100
AcDbEntity
  8
RUNDUNGEN
100
AcDbLine
 62
7
  6
CONTINUOUS
 10
238.0517226007
 20
31.3961198823
 11
240.6504428606
 21
38.1612119304
  0
ARC
  5
599
100
AcDbEntity
  8
KONSTRUKTIONSELEMENTE
100
AcDbCircle
 62
7
  6
CONTINUOUS
 10
-179.6949627917
 20
178.3745783122
 40
258.869543181
100
AcDbArc
 50
354.5311011433
 51
355.6992822488
  0
ARC
  5
59A
100
AcDbEntity
  8
KONSTRUKTIONSELEMENTE
100
AcDbCircle
 62
7
  6
CONTINUOUS
 10
-130.400729649
 20
170.5212372903
 40
209.4953375351
100
AcDbArc
 50
348.9880707222
 51
349.9858586477
  0
ARC
  5
59B
100
AcDbEntity
  8
KONSTRUKTIONSELEMENTE
100
AcDbCircle
 62
7
  6
CONTINUOUS
 10
-56.7509237109
 20
159.8538743
 40
134.8874675047
100
AcDbArc
 50
356.169889736
 51
357.3863644684
  0
ARC
  5
59C
100
AcDbEntity
  8
0
100
AcDbCircle
 62
7
  6
CONTINUOUS
 10
42.1807134453
 20
137.4751615691
 40
13.3999626263
100
AcDbArc
 50
174.4586926169
 51
179.9724821499
  0
ARC
  5
59D
100
AcDbEntity
  8
0
100
AcDbCircle
 62
7
  6
CONTINUOUS
 10
32.9118170644
 20
145.0034731095
 40
4.1311483981
100
AcDbArc
 50
172.8927138678
 51
173.8105717042
  0
ARC
  5
59E
100
AcDbEntity
  8
0
100
AcDbCircle
 62
7
  6
CONTINUOUS
 10
71.7717714065
 20
132.5068239942
 40
4.1250889006
100
AcDbArc
 50
262.8931325204
 51
325.2308199063
  0
ARC
  5
59F
100
AcDbEntity
  8
KONSTRUKTIONSELEMENTE
100
AcDbCircle
 62
7
  6
CONTINUOUS
 10
32.9056354844
 20
181.7691549434
 40
4.1248866668
100
AcDbArc
 50
179.9920555008
 51
266.5790041246
  0
ARC
  5
5A0
100
AcDbEntity
  8
0
100
AcDbCircle
 62
7
  6
CONTINUOUS
 10
32.9047382705
 20
145.0041664899
 40
4.1240361106
100
AcDbArc
 50
173.8095454444
 51
179.9969828738
  0
ARC
  5
5A1
100
AcDbEntity
  8
0
100
AcDbCircle
 62
7
  6
CONTINUOUS
 10
74.4502997124
 20
150.3543972297
 40
0.770901396
100
AcDbArc
 50
262.8877456628
 51
268.456407038
  0
ARC
  5
5A2
100
AcDbEntity
  8
RUNDUNGEN
100
AcDbCircle
 62
7
  6
CONTINUOUS
 10
70.2748547976
 20
206.0856518792
 40
15.0
100
AcDbArc
 50
359.986908876
 51
5.999968827
  0
ARC
  5
5A3
100
AcDbEntity
  8
BEZUGSACHSEN
100
AcDbCircle
 62
7
  6
CONTINUOUS
 10
89.3795545943
 20
234.7855643617
 40
7.0
100
AcDbArc
 50
157.5
 51
186.0
  0
ARC
  5
5A4
100
AcDbEntity
  8
RUNDUNGEN
100
AcDbCircle
 62
7
  6
CONTINUOUS
 10
89.3795545943
 20
234.7855643617
 40
7.0
100
AcDbArc
 50
157.5
 51
186.0
  0
ARC
  5
5A5
100
AcDbEntity
  8
KONSTRUKTIONSELEMENTE
100
AcDbCircle
 62
7
  6
CONTINUOUS
 10
77.4539629121
 20
216.1968998148
 40
4.125
100
AcDbArc
 50
34.8318434324
 51
89.9999863248
  0
ARC
  5
5A6
100
AcDbEntity
  8
BEZUGSACHSEN
100
AcDbCircle
 62
7
  6
CONTINUOUS
 10
81.1004069454
 20
208.3218978957
 40
3.9999995735
100
AcDbArc
 50
294.0931435282
 51
6.0000276404
  0
ARC
  5
5A7
100
AcDbEntity
  8
0
100
AcDbCircle
 62
7
  6
CONTINUOUS
 10
89.1824317572
 20
337.2983926418
 40
145.1630627774
100
AcDbArc
 50
297.5030175923
 51
297.7319885782
  0
ARC
  5
5A8
100
AcDbEntity
  8
RUNDUNGEN
100
AcDbCircle
 62
7
  6
CONTINUOUS
 10
102.9665354329
 20
267.587437774
 40
7.0
100
AcDbArc
 50
112.5
 51
157.5
  0
ARC
  5
5A9
100
AcDbEntity
  8
KONSTRUKTIONSELEMENTE
100
AcDbCircle
 62
7
  6
CONTINUOUS
 10
442.4940507913
 20
177.8049613669
 40
252.1805448587
100
AcDbArc
 50
184.2852244009
 51
185.4843922069
  0
ARC
  5
5AA
100
AcDbEntity
  8
KONSTRUKTIONSELEMENTE
100
AcDbCircle
 62
7
  6
CONTINUOUS
 10
399.8665973716
 20
170.5215687437
 40
209.4970899984
100
AcDbArc
 50
190.014207444
 51
191.0119483889
  0
ARC
  5
5AB
100
AcDbEntity
  8
KONSTRUKTIONSELEMENTE
100
AcDbCircle
 62
7
  6
CONTINUOUS
 10
326.2150704951
 20
159.8538743
 40
134.8874675047
100
AcDbArc
 50
182.6136355316
 51
183.830110264
  0
ARC
  5
5AC
100
AcDbEntity
  8
RUNDUNGEN
100
AcDbCircle
 62
7
  6
CONTINUOUS
 10
199.1892919866
 20
206.0856518792
 40
15.0
100
AcDbArc
 50
174.0000312835
 51
180.0131207958
  0
ARC
  5
5AD
100
AcDbEntity
  8
RUNDUNGEN
100
AcDbCircle
 62
7
  6
CONTINUOUS
 10
227.2834333389
 20
137.4751615691
 40
13.3999626263
100
AcDbArc
 50
0.0275178501
 51
5.5413073831
  0
ARC
  5
5AE
100
AcDbEntity
  8
RUNDUNGEN
100
AcDbCircle
 62
7
  6
CONTINUOUS
 10
180.0845921899
 20
234.7855643617
 40
7.0
100
AcDbArc
 50
354.0
 51
22.5
  0
ARC
  5
5AF
100
AcDbEntity
  8
KONSTRUKTIONSELEMENTE
100
AcDbCircle
 62
7
  6
CONTINUOUS
 10
197.6923753793
 20
132.5068239996
 40
4.1250889056
100
AcDbArc
 50
214.7691801152
 51
277.1068674738
  0
ARC
  5
5B0
100
AcDbEntity
  8
KONSTRUKTIONSELEMENTE
100
AcDbCircle
 62
7
  6
CONTINUOUS
 10
192.0101838721
 20
216.1968998148
 40
4.125
100
AcDbArc
 50
90.0000136752
 51
145.1681565676
  0
ARC
  5
5B1
100
AcDbEntity
  8
0
100
AcDbCircle
 62
7
  6
CONTINUOUS
 10
236.5585601305
 20
181.7690770058
 40
4.1248013579
100
AcDbArc
 50
273.4203573415
 51
0.0237403445
  0
ARC
  5
5B2
100
AcDbEntity
  8
KONSTRUKTIONSELEMENTE
100
AcDbCircle
 62
7
  6
CONTINUOUS
 10
236.561339482
 20
145.0045399866
 40
4.1221124221
100
AcDbArc
 50
0.0004888091
 51
7.1078531624
  0
ARC
  5
5B3
100
AcDbEntity
  8
BEZUGSACHSEN
100
AcDbCircle
 62
7
  6
CONTINUOUS
 10
188.363739901
 20
208.321898487
 40
3.9999997049
100
AcDbArc
 50
173.9999808755
 51
245.9128793325
  0
ARC
  5
5B4
100
AcDbEntity
  8
KONSTRUKTIONSELEMENTE
100
AcDbCircle
 62
7
  6
CONTINUOUS
 10
195.0138470718
 20
150.3543972297
 40
0.770901396
100
AcDbArc
 50
271.543592962
 51
277.1122543372
  0
ARC
  5
5B5
100
AcDbEntity
  8
0
100
AcDbCircle
 62
7
  6
CONTINUOUS
 10
180.281720737
 20
337.2984011258
 40
145.1630729439
100
AcDbArc
 50
242.2680109852
 51
242.4969818414
  0
ARC
  5
5B6
100
AcDbEntity
  8
0
100
AcDbCircle
 62
7
  6
CONTINUOUS
 10
134.7320733921
 20
235.8218998148
 40
34.027864045
100
AcDbArc
 50
249.5814932591
 51
290.4185071629
  0
ARC
  5
5B7
100
AcDbEntity
  8
BEZUGSACHSEN
100
AcDbCircle
 62
7
  6
CONTINUOUS
 10
134.7320733921
 20
235.8218998148
 40
32.5
100
AcDbArc
 50
311.8460996254
 51
327.6835078148
  0
ARC
  5
5B8
100
AcDbEntity
  8
BEZUGSACHSEN
100
AcDbCircle
 62
7
  6
CONTINUOUS
 10
134.7320733921
 20
235.8218998148
 40
32.5
100
AcDbArc
 50
212.3164921852
 51
228.1539003746
  0
CIRCLE
  5
5B9
100
AcDbEntity
  8
RUNDUNGEN
100
AcDbCircle
 62
7
  6
CONTINUOUS
 10
134.7320733921
 20
235.8218998148
 40
32.5
  0
ARC
  5
5BA
100
AcDbEntity
  8
RUNDUNGEN
100
AcDbCircle
 62
7
  6
CONTINUOUS
 10
166.4976113513
 20
267.587437774
 40
7.0
100
AcDbArc
 50
22.5
 51
67.5
  0
ARC
  5
5BB
100
AcDbEntity
  8
BEZUGSACHSEN
100
AcDbCircle
 62
7
  6
CONTINUOUS
 10
134.7320733921
 20
280.7451544127
 40
7.0
100
AcDbArc
 50
71.9999999337
 51
108.0000000669
  0
ARC
  5
5BC
100
AcDbEntity
  8
RUNDUNGEN
100
AcDbCircle
 62
7
  6
CONTINUOUS
 10
134.7320733921
 20
280.7451544127
 40
7.0
100
AcDbArc
 50
67.5
 51
112.5
  0
ARC
  5
5BD
100
AcDbEntity
  8
0
100
AcDbCircle
 62
7
  6
CONTINUOUS
 10
337.3555935765
 20
190.3218998148
 40
30.0
100
AcDbArc
 50
0.0
 51
90.0
  0
ARC
  5
5BE
100
AcDbEntity
  8
KONSTRUKTIONSELEMENTE
100
AcDbCircle
 62
7
  6
CONTINUOUS
 10
337.3555935765
 20
190.3218998148
 40
30.0
100
AcDbArc
 50
85.5193882423
 51
90.0000000007
  0
ARC
  5
5BF
100
AcDbEntity
  8
BEZUGSACHSEN
100
AcDbCircle
 62
7
  6
CONTINUOUS
 10
329.8555935765
 20
282.7451544127
 40
5.0
100
AcDbArc
 50
90.0
 51
180.0
  0
ARC
  5
5C0
100
AcDbEntity
  8
RUNDUNGEN
100
AcDbCircle
 62
7
  6
CONTINUOUS
 10
344.8555935765
 20
282.7451544127
 40
5.0
100
AcDbArc
 50
0.0
 51
90.0
  0
ARC
  5
5C1
100
AcDbEntity
  8
0
100
AcDbCircle
 62
7
  6
CONTINUOUS
 10
319.6779240468
 20
172.6442302851
 40
5.0
100
AcDbArc
 50
0.0
 51
90.0
  0
ARC
  5
5C2
100
AcDbEntity
  8
KONSTRUKTIONSELEMENTE
100
AcDbCircle
 62
7
  6
CONTINUOUS
 10
282.2494479781
 20
181.7759679287
 40
4.1337800753
100
AcDbArc
 50
225.0305128523
 51
228.8145875222
  0
ARC
  5
5C3
100
AcDbEntity
  8
0
100
AcDbCircle
 62
7
  6
CONTINUOUS
 10
331.6086460536
 20
132.5067030503
 40
4.1249874692
100
AcDbArc
 50
226.101406587
 51
307.3107278434
  0
ARC
  5
5C4
100
AcDbEntity
  8
KONSTRUKTIONSELEMENTE
100
AcDbCircle
 62
7
  6
CONTINUOUS
 10
279.5403968119
 20
184.5749522919
 40
4.1249874692
100
AcDbArc
 50
142.6892721566
 51
223.898593413
  0
ARC
  5
5C5
100
AcDbEntity
  8
0
100
AcDbCircle
 62
7
  6
CONTINUOUS
 10
328.8028473625
 20
135.2100436776
 40
4.1249233157
100
AcDbArc
 50
179.9998310228
 51
224.9802628463
  0
ARC
  5
5C6
100
AcDbEntity
  8
KONSTRUKTIONSELEMENTE
100
AcDbCircle
 62
7
  6
CONTINUOUS
 10
282.2437228127
 20
181.7689855284
 40
4.1247552433
100
AcDbArc
 50
228.8105698283
 51
270.0003721575
  0
ARC
  5
5C7
100
AcDbEntity
  8
KONSTRUKTIONSELEMENTE
100
AcDbCircle
 62
7
  6
CONTINUOUS
 10
282.2366686969
 20
181.7629981836
 40
4.1155726969
100
AcDbArc
 50
223.9839487239
 51
225.0287728899
  0
ARC
  5
5C8
100
AcDbEntity
  8
0
100
AcDbCircle
 62
7
  6
CONTINUOUS
 10
328.7966919441
 20
135.202974934
 40
4.1155726953
100
AcDbArc
 50
224.9712271099
 51
226.0160512763
  0
ARC
  5
5C9
100
AcDbEntity
  8
KONSTRUKTIONSELEMENTE
100
AcDbCircle
 62
7
  6
CONTINUOUS
 10
449.1591095766
 20
49.2665204571
 40
258.8695431817
100
AcDbArc
 50
174.5311011433
 51
175.6992822488
  0
ARC
  5
5CA
100
AcDbEntity
  8
KONSTRUKTIONSELEMENTE
100
AcDbCircle
 62
7
  6
CONTINUOUS
 10
-173.0299040077
 20
49.8361374025
 40
252.1805448593
100
AcDbArc
 50
4.2852244009
 51
5.4843922069
  0
ARC
  5
5CB
100
AcDbEntity
  8
KONSTRUKTIONSELEMENTE
100
AcDbCircle
 62
7
  6
CONTINUOUS
 10
-130.4024505879
 20
57.1195300257
 40
209.4970899989
100
AcDbArc
 50
10.014207444
 51
11.0119483889
  0
ARC
  5
5CC
100
AcDbEntity
  8
KONSTRUKTIONSELEMENTE
100
AcDbCircle
 62
7
  6
CONTINUOUS
 10
399.8648764329
 20
57.1198614792
 40
209.4953375348
100
AcDbArc
 50
168.9880707222
 51
169.9858586477
  0
ARC
  5
5CD
100
AcDbEntity
  8
KONSTRUKTIONSELEMENTE
100
AcDbCircle
 62
7
  6
CONTINUOUS
 10
326.2150704952
 20
67.7872244695
 40
134.8874675047
100
AcDbArc
 50
176.169889736
 51
177.3863644684
  0
ARC
  5
5CE
100
AcDbEntity
  8
KONSTRUKTIONSELEMENTE
100
AcDbCircle
 62
7
  6
CONTINUOUS
 10
-56.750923711
 20
67.7872244695
 40
134.8874675048
100
AcDbArc
 50
2.6136355316
 51
3.830110264
  0
ARC
  5
5CF
100
AcDbEntity
  8
0
100
AcDbCircle
 62
7
  6
CONTINUOUS
 10
161.4956146927
 20
-13.4694820903
 40
65.7886809268
100
AcDbArc
 50
89.4021475004
 51
89.7287472146
  0
ARC
  5
5D0
100
AcDbEntity
  8
0
100
AcDbCircle
 62
7
  6
CONTINUOUS
 10
107.9685320915
 20
88.1078799982
 40
65.7886809254
100
AcDbArc
 50
269.4021475004
 51
269.7287472146
  0
ARC
  5
5D1
100
AcDbEntity
  8
0
100
AcDbCircle
 62
7
  6
CONTINUOUS
 10
172.8494177449
 20
23.0761721286
 40
29.2430266534
100
AcDbArc
 50
88.8583286557
 51
89.3482146725
  0
ARC
  5
5D2
100
AcDbEntity
  8
0
100
AcDbCircle
 62
7
  6
CONTINUOUS
 10
96.6147290393
 20
51.5622257801
 40
29.2430266527
100
AcDbArc
 50
268.8583286557
 51
269.3482146725
  0
ARC
  5
5D3
100
AcDbEntity
  8
0
100
AcDbCircle
 62
7
  6
CONTINUOUS
 10
227.2834333389
 20
90.1659372003
 40
13.3999626263
100
AcDbArc
 50
354.4586926169
 51
359.9724821499
  0
ARC
  5
5D4
100
AcDbEntity
  8
RUNDUNGEN
100
AcDbCircle
 62
7
  6
CONTINUOUS
 10
42.1807134453
 20
90.1659372003
 40
13.3999626263
100
AcDbArc
 50
180.0275178501
 51
185.5413073831
  0
ARC
  5
5D5
100
AcDbEntity
  8
0
100
AcDbCircle
 62
7
  6
CONTINUOUS
 10
160.8282003253
 20
45.004656284
 40
7.3145428529
100
AcDbArc
 50
88.2069106502
 51
89.5515690244
  0
ARC
  5
5D6
100
AcDbEntity
  8
0
100
AcDbCircle
 62
7
  6
CONTINUOUS
 10
108.6359464589
 20
29.6337416253
 40
7.3145428529
100
AcDbArc
 50
268.2069106502
 51
269.5515690244
  0
ARC
  5
5D7
100
AcDbEntity
  8
0
100
AcDbCircle
 62
7
  6
CONTINUOUS
 10
108.6359076187
 20
29.629768214
 40
7.3105692594
100
AcDbArc
 50
269.5516296943
 51
269.999988398
  0
ARC
  5
5D8
100
AcDbEntity
  8
0
100
AcDbCircle
 62
7
  6
CONTINUOUS
 10
160.8282391656
 20
45.0086296968
 40
7.3105692579
100
AcDbArc
 50
89.5516296942
 51
89.9999883981
  0
ARC
  5
5D9
100
AcDbEntity
  8
BEZUGSACHSEN
100
AcDbCircle
 62
7
  6
CONTINUOUS
 10
87.3795545943
 20
44.8191989547
 40
5.0
100
AcDbArc
 50
90.0
 51
180.0
  0
ARC
  5
5DA
100
AcDbEntity
  8
BEZUGSACHSEN
100
AcDbCircle
 62
7
  6
CONTINUOUS
 10
182.0845921899
 20
44.8191989547
 40
5.0
100
AcDbArc
 50
0.0
 51
90.0
  0
ARC
  5
5DB
100
AcDbEntity
  8
RUNDUNGEN
100
AcDbCircle
 62
7
  6
CONTINUOUS
 10
87.3795545943
 20
29.8191989547
 40
5.0
100
AcDbArc
 50
180.0
 51
270.0
  0
ARC
  5
5DC
100
AcDbEntity
  8
RUNDUNGEN
100
AcDbCircle
 62
7
  6
CONTINUOUS
 10
182.0845921899
 20
29.8191989547
 40
5.0
100
AcDbArc
 50
270.0
 51
360.0
  0
ARC
  5
5DD
100
AcDbEntity
  8
0
100
AcDbCircle
 62
7
  6
CONTINUOUS
 10
236.55232972
 20
82.6376256599
 40
4.1311483979
100
AcDbArc
 50
352.8927138678
 51
353.8105717043
  0
ARC
  5
5DE
100
AcDbEntity
  8
KONSTRUKTIONSELEMENTE
100
AcDbCircle
 62
7
  6
CONTINUOUS
 10
71.7717711122
 20
95.1342741142
 40
4.1250889056
100
AcDbArc
 50
34.7691852768
 51
97.1068623123
  0
ARC
  5
5DF
100
AcDbEntity
  8
0
100
AcDbCircle
 62
7
  6
CONTINUOUS
 10
197.6923756705
 20
95.1342741196
 40
4.1250889006
100
AcDbArc
 50
82.8931376819
 51
145.2308147447
  0
ARC
  5
5E0
100
AcDbEntity
  8
KONSTRUKTIONSELEMENTE
100
AcDbCircle
 62
7
  6
CONTINUOUS
 10
192.0101838721
 20
11.4441989547
 40
4.125
100
AcDbArc
 50
214.8318434324
 51
269.9999863248
  0
ARC
  5
5E1
100
AcDbEntity
  8
KONSTRUKTIONSELEMENTE
100
AcDbCircle
 62
7
  6
CONTINUOUS
 10
77.4539629121
 20
11.4441989547
 40
4.125
100
AcDbArc
 50
270.0000136752
 51
325.1681565676
  0
ARC
  5
5E2
100
AcDbEntity
  8
KONSTRUKTIONSELEMENTE
100
AcDbCircle
 62
7
  6
CONTINUOUS
 10
236.5585112999
 20
45.871943826
 40
4.1248866668
100
AcDbArc
 50
359.9920555002
 51
86.5790041253
  0
ARC
  5
5E3
100
AcDbEntity
  8
0
100
AcDbCircle
 62
7
  6
CONTINUOUS
 10
32.9055894774
 20
45.8720234222
 40
4.1248013579
100
AcDbArc
 50
93.4203978678
 51
180.0237633659
  0
ARC
  5
5E4
100
AcDbEntity
  8
0
100
AcDbCircle
 62
7
  6
CONTINUOUS
 10
236.5594085054
 20
82.6369322803
 40
4.1240361189
100
AcDbArc
 50
353.8095454462
 51
359.9969779535
  0
ARC
  5
5E5
100
AcDbEntity
  8
KONSTRUKTIONSELEMENTE
100
AcDbCircle
 62
7
  6
CONTINUOUS
 10
32.9028073022
 20
82.6365587828
 40
4.1221124221
100
AcDbArc
 50
180.0004888091
 51
187.1078531623
  0
ARC
  5
5E6
100
AcDbEntity
  8
0
100
AcDbCircle
 62
7
  6
CONTINUOUS
 10
97.1429787127
 20
25.5702764854
 40
3.2510775308
100
AcDbArc
 50
268.0450666447
 51
269.999702126
  0
ARC
  5
5E7
100
AcDbEntity
  8
0
100
AcDbCircle
 62
7
  6
CONTINUOUS
 10
172.3211680715
 20
49.0681214239
 40
3.2510775308
100
AcDbArc
 50
88.0450666447
 51
89.999702126
  0
ARC
  5
5E8
100
AcDbEntity
  8
0
100
AcDbCircle
 62
7
  6
CONTINUOUS
 10
173.0711680715
 20
49.0681214265
 40
3.2510775282
100
AcDbArc
 50
88.0450666439
 51
89.9997021268
  0
ARC
  5
5E9
100
AcDbEntity
  8
0
100
AcDbCircle
 62
7
  6
CONTINUOUS
 10
96.3929787127
 20
25.5702764827
 40
3.2510775281
100
AcDbArc
 50
268.0450666439
 51
269.9997021268
  0
ARC
  5
5EA
100
AcDbEntity
  8
0
100
AcDbCircle
 62
7
  6
CONTINUOUS
 10
195.0138470718
 20
77.2867015397
 40
0.770901396
100
AcDbArc
 50
82.8877456628
 51
88.4564070379
  0
ARC
  5
5EB
100
AcDbEntity
  8
KONSTRUKTIONSELEMENTE
100
AcDbCircle
 62
7
  6
CONTINUOUS
 10
74.4502997124
 20
77.2867015397
 40
0.770901396
100
AcDbArc
 50
91.5435929621
 51
97.1122543372
  0
SPLINE
  5
5EC
100
AcDbEntity
  8
KONSTRUKTIONSELEMENTE
100
AcDbSpline
 62
7
  6
CONTINUOUS
 70
0
 71
3
 72
13
 73
9
 74
0
 42
0.0000001
 43
0.0000001
 44
0.0000000001
 40
0.0
 40
0.0
 40
0.0
 40
0.0
 40
0.0283851559
 40
0.0852427172
 40
0.1704092396
 40
0.2835068283
 40
0.5912082332
 40
1.0
 40
1.0
 40
1.0
 40
1.0
 10
75.160356572
 20
130.1544236969
 30
0.0
 10
75.1623065795
 20
130.1572047678
 30
0.0
 10
75.1652168617
 20
130.1672287845
 30
0.0
 10
75.1709274136
 20
130.186625095
 30
0.0
 10
75.1779438047
 20
130.2164347414
 30
0.0
 10
75.1912653969
 20
130.2754423967
 30
0.0
 10
75.2113131337
 20
130.372711861
 30
0.0
 10
75.2279314586
 20
130.4568081518
 30
0.0
 10
75.2372613144
 20
130.5048266383
 30
0.0
  0
SPLINE
  5
5ED
100
AcDbEntity
  8
0
100
AcDbSpline
 62
7
  6
CONTINUOUS
 70
0
 71
3
 72
9
 73
5
 74
0
 42
0.0000001
 43
0.0000001
 44
0.0000000001
 40
0.0
 40
0.0
 40
0.0
 40
0.0
 40
0.4987306822
 40
1.0
 40
1.0
 40
1.0
 40
1.0
 10
28.7807523644
 20
137.4815972639
 30
0.0
 10
28.7804971993
 20
136.8295674331
 30
0.0
 10
28.8766271944
 20
135.5203509473
 30
0.0
 10
29.2025150774
 20
134.242527754
 30
0.0
 10
29.440562064
 20
133.6319413696
 30
0.0
  0
SPLINE
  5
5EE
100
AcDbEntity
  8
RUNDUNGEN
100
AcDbSpline
 62
7
  6
CONTINUOUS
 70
0
 71
3
 72
8
 73
4
 74
0
 42
0.0000001
 43
0.0000001
 44
0.0000000001
 40
0.0
 40
0.0
 40
0.0
 40
0.0
 40
1.0
 40
1.0
 40
1.0
 40
1.0
 10
28.7807523644
 20
189.2969718132
 30
0.0
 10
28.7806344794
 20
189.3589032764
 30
0.0
 10
28.7916951772
 20
189.4219299049
 30
0.0
 10
28.8136927081
 20
189.4798231572
 30
0.0
  0
SPLINE
  5
5EF
100
AcDbEntity
  8
RUNDUNGEN
100
AcDbSpline
 62
7
  6
CONTINUOUS
 70
0
 71
3
 72
9
 73
5
 74
0
 42
0.0000001
 43
0.0000001
 44
0.0000000001
 40
0.0
 40
0.0
 40
0.0
 40
0.0
 40
0.2668079846
 40
1.0
 40
1.0
 40
1.0
 40
1.0
 10
28.8433709923
 20
189.0173635352
 30
0.0
 10
28.8332289478
 20
189.0408441218
 30
0.0
 10
28.799086876
 20
189.130377764
 30
0.0
 10
28.7808861534
 20
189.2266851285
 30
0.0
 10
28.7807523644
 20
189.2969718132
 30
0.0
  0
SPLINE
  5
5F0
100
AcDbEntity
  8
KONSTRUKTIONSELEMENTE
100
AcDbSpline
 62
7
  6
CONTINUOUS
 70
0
 71
3
 72
9
 73
5
 74
0
 42
0.0000001
 43
0.0000001
 44
0.0000000001
 40
0.0
 40
0.0
 40
0.0
 40
0.0
 40
0.5003758878
 40
1.0
 40
1.0
 40
1.0
 40
1.0
 10
75.9029180032
 20
134.0918341336
 30
0.0
 10
76.3914584703
 20
136.8632928937
 30
0.0
 10
77.2466244524
 20
142.4249248003
 30
0.0
 10
77.7215283343
 20
148.0359692365
 30
0.0
 10
77.8352729096
 20
150.8436262976
 30
0.0
  0
SPLINE
  5
5F1
100
AcDbEntity
  8
0
100
AcDbSpline
 62
7
  6
CONTINUOUS
 70
0
 71
3
 72
9
 73
5
 74
0
 42
0.0000001
 43
0.0000001
 44
0.0000000001
 40
0.0
 40
0.0
 40
0.0
 40
0.0
 40
0.2442245044
 40
1.0
 40
1.0
 40
1.0
 40
1.0
 10
29.440562064
 20
133.6319413696
 30
0.0
 10
29.4651609137
 20
133.6302404286
 30
0.0
 10
29.5659702502
 20
133.6245522702
 30
0.0
 10
29.6670288855
 20
133.623696854
 30
0.0
 10
29.7433180676
 20
133.6252603606
 30
0.0
  0
SPLINE
  5
5F2
100
AcDbEntity
  8
0
100
AcDbSpline
 62
7
  6
CONTINUOUS
 70
0
 71
3
 72
9
 73
5
 74
0
 42
0.0000001
 43
0.0000001
 44
0.0000000001
 40
0.0
 40
0.0
 40
0.0
 40
0.0
 40
0.4723690284
 40
1.0
 40
1.0
 40
1.0
 40
1.0
 10
29.7433180676
 20
133.6252603606
 30
0.0
 10
30.0636591122
 20
133.6318255816
 30
0.0
 10
30.7397111372
 20
133.7239812561
 30
0.0
 10
31.3968494892
 20
133.8932795129
 30
0.0
 10
31.7409286142
 20
133.9917509454
 30
0.0
  0
SPLINE
  5
5F3
100
AcDbEntity
  8
0
100
AcDbSpline
 62
7
  6
CONTINUOUS
 70
0
 71
3
 72
8
 73
4
 74
0
 42
0.0000001
 43
0.0000001
 44
0.0000000001
 40
0.0
 40
0.0
 40
0.0
 40
0.0
 40
1.0
 40
1.0
 40
1.0
 40
1.0
 10
31.7415392673
 20
133.991926958
 30
0.0
 10
31.899412694
 20
134.037093809
 30
0.0
 10
32.0553752345
 20
134.0903450336
 30
0.0
 10
32.2067093616
 20
134.1540792102
 30
0.0
  0
SPLINE
  5
5F4
100
AcDbEntity
  8
KONSTRUKTIONSELEMENTE
100
AcDbSpline
 62
7
  6
CONTINUOUS
 70
0
 71
3
 72
11
 73
7
 74
0
 42
0.0000001
 43
0.0000001
 44
0.0000000001
 40
0.0
 40
0.0
 40
0.0
 40
0.0
 40
0.2500056171
 40
0.5000065621
 40
0.7500037275
 40
1.0
 40
1.0
 40
1.0
 40
1.0
 10
78.6123711775
 20
160.5902308933
 30
0.0
 10
78.9264923863
 20
163.0565459436
 30
0.0
 10
79.5178894178
 20
167.9939823984
 30
0.0
 10
80.2401782683
 20
175.4184019009
 30
0.0
 10
80.7247602017
 20
182.8627468374
 30
0.0
 10
80.839900975
 20
187.8356942217
 30
0.0
 10
80.8398951436
 20
190.3218398291
 30
0.0
  0
SPLINE
  5
5F5
100
AcDbEntity
  8
KONSTRUKTIONSELEMENTE
100
AcDbSpline
 62
7
  6
CONTINUOUS
 70
0
 71
3
 72
9
 73
5
 74
0
 42
0.0000001
 43
0.0000001
 44
0.0000000001
 40
0.0
 40
0.0
 40
0.0
 40
0.0
 40
0.2384562214
 40
1.0
 40
1.0
 40
1.0
 40
1.0
 10
78.4456540228
 20
158.9616357901
 30
0.0
 10
78.4553610038
 20
159.0914074732
 30
0.0
 10
78.5003061174
 20
159.6353015468
 30
0.0
 10
78.5598630113
 20
160.177959144
 30
0.0
 10
78.6123711775
 20
160.5902308933
 30
0.0
  0
SPLINE
  5
5F6
100
AcDbEntity
  8
0
100
AcDbSpline
 62
7
  6
CONTINUOUS
 70
0
 71
3
 72
10
 73
6
 74
0
 42
0.0000001
 43
0.0000001
 44
0.0000000001
 40
0.0
 40
0.0
 40
0.0
 40
0.0
 40
0.2654899113
 40
0.5222009266
 40
1.0
 40
1.0
 40
1.0
 40
1.0
 10
74.6179989829
 20
152.8023220691
 30
0.0
 10
74.4692721036
 20
152.8089684177
 30
0.0
 10
74.1741361346
 20
152.7862489704
 30
0.0
 10
73.6338543706
 20
152.6261460516
 30
0.0
 10
73.2727215226
 20
152.4156260361
 30
0.0
 10
73.0560181682
 20
152.2580643482
 30
0.0
  0
SPLINE
  5
5F7
100
AcDbEntity
  8
KONSTRUKTIONSELEMENTE
100
AcDbSpline
 62
7
  6
CONTINUOUS
 70
0
 71
3
 72
11
 73
7
 74
0
 42
0.0000001
 43
0.0000001
 44
0.0000000001
 40
0.0
 40
0.0
 40
0.0
 40
0.0
 40
0.2774594502
 40
0.541818215
 40
0.7843999172
 40
1.0
 40
1.0
 40
1.0
 40
1.0
 10
74.6177583007
 20
152.802308531
 30
0.0
 10
74.947063104
 20
152.7875924654
 30
0.0
 10
75.5931646951
 20
152.8040537299
 30
0.0
 10
76.5147261343
 20
152.9661001404
 30
0.0
 10
77.3276024741
 20
153.2549530818
 30
0.0
 10
77.798004963
 20
153.5406829105
 30
0.0
 10
77.9962265384
 20
153.7029077489
 30
0.0
  0
SPLINE
  5
5F8
100
AcDbEntity
  8
KONSTRUKTIONSELEMENTE
100
AcDbSpline
 62
7
  6
CONTINUOUS
 70
0
 71
3
 72
10
 73
6
 74
0
 42
0.0000001
 43
0.0000001
 44
0.0000000001
 40
0.0
 40
0.0
 40
0.0
 40
0.0
 40
0.2669770314
 40
0.5262551043
 40
1.0
 40
1.0
 40
1.0
 40
1.0
 10
74.4296034687
 20
149.5837725724
 30
0.0
 10
74.7604113179
 20
149.5749071256
 30
0.0
 10
75.4165554808
 20
149.6170521368
 30
0.0
 10
76.6200325208
 20
149.9232413037
 30
0.0
 10
77.4339193516
 20
150.4149713656
 30
0.0
 10
77.8352729096
 20
150.8436262976
 30
0.0
  0
SPLINE
  5
5F9
100
AcDbEntity
  8
0
100
AcDbSpline
 62
7
  6
CONTINUOUS
 70
0
 71
3
 72
8
 73
4
 74
0
 42
0.0000001
 43
0.0000001
 44
0.0000000001
 40
0.0
 40
0.0
 40
0.0
 40
0.0
 40
1.0
 40
1.0
 40
1.0
 40
1.0
 10
240.6833944198
 20
189.2969718132
 30
0.0
 10
240.6835123048
 20
189.3589032764
 30
0.0
 10
240.672451607
 20
189.4219299049
 30
0.0
 10
240.6504540762
 20
189.4798231572
 30
0.0
  0
SPLINE
  5
5FA
100
AcDbEntity
  8
RUNDUNGEN
100
AcDbSpline
 62
7
  6
CONTINUOUS
 70
0
 71
3
 72
9
 73
5
 74
0
 42
0.0000001
 43
0.0000001
 44
0.0000000001
 40
0.0
 40
0.0
 40
0.0
 40
0.0
 40
0.4987306822
 40
1.0
 40
1.0
 40
1.0
 40
1.0
 10
240.6833944198
 20
137.4815972639
 30
0.0
 10
240.683649585
 20
136.8295674331
 30
0.0
 10
240.5875195898
 20
135.5203509473
 30
0.0
 10
240.2616317069
 20
134.242527754
 30
0.0
 10
240.0235847202
 20
133.6319413696
 30
0.0
  0
SPLINE
  5
5FB
100
AcDbEntity
  8
KONSTRUKTIONSELEMENTE
100
AcDbSpline
 62
7
  6
CONTINUOUS
 70
0
 71
3
 72
13
 73
9
 74
0
 42
0.0000001
 43
0.0000001
 44
0.0000000001
 40
0.0
 40
0.0
 40
0.0
 40
0.0
 40
0.4090462261
 40
0.7165081319
 40
0.8295606411
 40
0.9147234175
 40
0.9715421444
 40
1.0
 40
1.0
 40
1.0
 40
1.0
 10
194.2268995599
 20
130.5047547564
 30
0.0
 10
194.2362335449
 20
130.4567150995
 30
0.0
 10
194.2528470982
 20
130.3726314716
 30
0.0
 10
194.2728953082
 20
130.2753853968
 30
0.0
 10
194.2862055327
 20
130.2164201343
 30
0.0
 10
194.2932200975
 20
130.1866294821
 30
0.0
 10
194.2989260692
 20
130.1672261058
 30
0.0
 10
194.3018481836
 20
130.1572106736
 30
0.0
 10
194.3037916613
 20
130.1544151873
 30
0.0
  0
SPLINE
  5
5FC
100
AcDbEntity
  8
RUNDUNGEN
100
AcDbSpline
 62
7
  6
CONTINUOUS
 70
0
 71
3
 72
9
 73
5
 74
0
 42
0.0000001
 43
0.0000001
 44
0.0000000001
 40
0.0
 40
0.0
 40
0.0
 40
0.0
 40
0.2442245044
 40
1.0
 40
1.0
 40
1.0
 40
1.0
 10
240.0235847202
 20
133.6319413696
 30
0.0
 10
239.9989858706
 20
133.6302404286
 30
0.0
 10
239.8981765341
 20
133.6245522702
 30
0.0
 10
239.7971178987
 20
133.623696854
 30
0.0
 10
239.7208287166
 20
133.6252603606
 30
0.0
  0
SPLINE
  5
5FD
100
AcDbEntity
  8
RUNDUNGEN
100
AcDbSpline
 62
7
  6
CONTINUOUS
 70
0
 71
3
 72
9
 73
5
 74
0
 42
0.0000001
 43
0.0000001
 44
0.0000000001
 40
0.0
 40
0.0
 40
0.0
 40
0.0
 40
0.4723690284
 40
1.0
 40
1.0
 40
1.0
 40
1.0
 10
239.7208287166
 20
133.6252603606
 30
0.0
 10
239.400487672
 20
133.6318255816
 30
0.0
 10
238.7244356471
 20
133.7239812561
 30
0.0
 10
238.067297295
 20
133.8932795129
 30
0.0
 10
237.7232181701
 20
133.9917509454
 30
0.0
  0
SPLINE
  5
5FE
100
AcDbEntity
  8
RUNDUNGEN
100
AcDbSpline
 62
7
  6
CONTINUOUS
 70
0
 71
3
 72
8
 73
4
 74
0
 42
0.0000001
 43
0.0000001
 44
0.0000000001
 40
0.0
 40
0.0
 40
0.0
 40
0.0
 40
1.0
 40
1.0
 40
1.0
 40
1.0
 10
237.7226075169
 20
133.991926958
 30
0.0
 10
237.5647340903
 20
134.037093809
 30
0.0
 10
237.4087715497
 20
134.0903450336
 30
0.0
 10
237.2574374226
 20
134.1540792102
 30
0.0
  0
SPLINE
  5
5FF
100
AcDbEntity
  8
KONSTRUKTIONSELEMENTE
100
AcDbSpline
 62
7
  6
CONTINUOUS
 70
0
 71
3
 72
11
 73
7
 74
0
 42
0.0000001
 43
0.0000001
 44
0.0000000001
 40
0.0
 40
0.0
 40
0.0
 40
0.0
 40
0.2499962802
 40
0.4999934489
 40
0.7499943876
 40
1.0
 40
1.0
 40
1.0
 40
1.0
 10
188.6242516407
 20
190.3218399872
 30
0.0
 10
188.624245806
 20
187.8356942103
 30
0.0
 10
188.7393865599
 20
182.8627465299
 30
0.0
 10
189.2239685594
 20
175.4184012709
 30
0.0
 10
189.946257451
 20
167.9939815695
 30
0.0
 10
190.5376544989
 20
163.0565450392
 30
0.0
 10
190.8517757199
 20
160.5902299437
 30
0.0
  0
SPLINE
  5
600
100
AcDbEntity
  8
KONSTRUKTIONSELEMENTE
100
AcDbSpline
 62
7
  6
CONTINUOUS
 70
0
 71
3
 72
9
 73
5
 74
0
 42
0.0000001
 43
0.0000001
 44
0.0000000001
 40
0.0
 40
0.0
 40
0.0
 40
0.0
 40
0.2582547417
 40
1.0
 40
1.0
 40
1.0
 40
1.0
 10
190.8517757199
 20
160.5902299437
 30
0.0
 10
190.8695822269
 20
160.4504208403
 30
0.0
 10
190.9351505816
 20
159.9086414562
 30
0.0
 10
190.9882981986
 20
159.3653039575
 30
0.0
 10
191.0184927614
 20
158.9616357901
 30
0.0
  0
SPLINE
  5
601
100
AcDbEntity
  8
KONSTRUKTIONSELEMENTE
100
AcDbSpline
 62
7
  6
CONTINUOUS
 70
0
 71
3
 72
10
 73
6
 74
0
 42
0.0000001
 43
0.0000001
 44
0.0000000001
 40
0.0
 40
0.0
 40
0.0
 40
0.0
 40
0.2654899113
 40
0.5222009266
 40
1.0
 40
1.0
 40
1.0
 40
1.0
 10
194.8461478014
 20
152.8023220691
 30
0.0
 10
194.9948746807
 20
152.8089684177
 30
0.0
 10
195.2900106496
 20
152.7862489704
 30
0.0
 10
195.8302924136
 20
152.6261460516
 30
0.0
 10
196.1914252616
 20
152.4156260361
 30
0.0
 10
196.408128616
 20
152.2580643482
 30
0.0
  0
SPLINE
  5
602
100
AcDbEntity
  8
KONSTRUKTIONSELEMENTE
100
AcDbSpline
 62
7
  6
CONTINUOUS
 70
0
 71
3
 72
11
 73
7
 74
0
 42
0.0000001
 43
0.0000001
 44
0.0000000001
 40
0.0
 40
0.0
 40
0.0
 40
0.0
 40
0.2774594502
 40
0.541818215
 40
0.7843999172
 40
1.0
 40
1.0
 40
1.0
 40
1.0
 10
194.8463884835
 20
152.802308531
 30
0.0
 10
194.5170836802
 20
152.7875924654
 30
0.0
 10
193.8709820892
 20
152.8040537299
 30
0.0
 10
192.9494206499
 20
152.9661001404
 30
0.0
 10
192.1365443101
 20
153.2549530818
 30
0.0
 10
191.6661418213
 20
153.5406829105
 30
0.0
 10
191.4679202458
 20
153.7029077489
 30
0.0
  0
SPLINE
  5
603
100
AcDbEntity
  8
KONSTRUKTIONSELEMENTE
100
AcDbSpline
 62
7
  6
CONTINUOUS
 70
0
 71
3
 72
9
 73
5
 74
0
 42
0.0000001
 43
0.0000001
 44
0.0000000001
 40
0.0
 40
0.0
 40
0.0
 40
0.0
 40
0.4996240936
 40
1.0
 40
1.0
 40
1.0
 40
1.0
 10
191.6288738747
 20
150.8436262976
 30
0.0
 10
191.7426198911
 20
148.0359336621
 30
0.0
 10
192.2175330766
 20
142.4248180443
 30
0.0
 10
193.0727160962
 20
136.8631163932
 30
0.0
 10
193.5612659776
 20
134.0916228722
 30
0.0
  0
SPLINE
  5
604
100
AcDbEntity
  8
KONSTRUKTIONSELEMENTE
100
AcDbSpline
 62
7
  6
CONTINUOUS
 70
0
 71
3
 72
10
 73
6
 74
0
 42
0.0000001
 43
0.0000001
 44
0.0000000001
 40
0.0
 40
0.0
 40
0.0
 40
0.0
 40
0.2669770314
 40
0.5262551043
 40
1.0
 40
1.0
 40
1.0
 40
1.0
 10
195.0345433156
 20
149.5837725724
 30
0.0
 10
194.7037354663
 20
149.5749071256
 30
0.0
 10
194.0475913034
 20
149.6170521368
 30
0.0
 10
192.8441142634
 20
149.9232413037
 30
0.0
 10
192.0302274327
 20
150.4149713656
 30
0.0
 10
191.6288738747
 20
150.8436262976
 30
0.0
  0
SPLINE
  5
605
100
AcDbEntity
  8
0
100
AcDbSpline
 62
7
  6
CONTINUOUS
 70
0
 71
3
 72
9
 73
5
 74
0
 42
0.0000001
 43
0.0000001
 44
0.0000000001
 40
0.0
 40
0.0
 40
0.0
 40
0.0
 40
0.2668079846
 40
1.0
 40
1.0
 40
1.0
 40
1.0
 10
240.620775792
 20
189.0173635352
 30
0.0
 10
240.6309178364
 20
189.0408441218
 30
0.0
 10
240.6650599083
 20
189.130377764
 30
0.0
 10
240.6832606308
 20
189.2266851285
 30
0.0
 10
240.6833944198
 20
189.2969718132
 30
0.0
  0
SPLINE
  5
606
100
AcDbEntity
  8
0
100
AcDbSpline
 62
7
  6
CONTINUOUS
 70
0
 71
3
 72
8
 73
4
 74
0
 42
0.0000001
 43
0.0000001
 44
0.0000000001
 40
0.0
 40
0.0
 40
0.0
 40
0.0
 40
1.0
 40
1.0
 40
1.0
 40
1.0
 10
141.1000305073
 20
189.4400261177
 30
0.0
 10
141.1000305073
 20
188.6932508482
 30
0.0
 10
141.1543410675
 20
188.1908746644
 30
0.0
 10
141.2736851055
 20
187.9180883399
 30
0.0
  0
SPLINE
  5
607
100
AcDbEntity
  8
0
100
AcDbSpline
 62
7
  6
CONTINUOUS
 70
0
 71
3
 72
8
 73
4
 74
0
 42
0.0000001
 43
0.0000001
 44
0.0000000001
 40
0.0
 40
0.0
 40
0.0
 40
0.0
 40
1.0
 40
1.0
 40
1.0
 40
1.0
 10
141.2736851055
 20
187.9180883399
 30
0.0
 10
141.3919514076
 20
187.6477654113
 30
0.0
 10
141.6227727787
 20
187.4440994042
 30
0.0
 10
141.9678603975
 20
187.3121540942
 30
0.0
  0
SPLINE
  5
608
100
AcDbEntity
  8
0
100
AcDbSpline
 62
7
  6
CONTINUOUS
 70
0
 71
3
 72
8
 73
4
 74
0
 42
0.0000001
 43
0.0000001
 44
0.0000000001
 40
0.0
 40
0.0
 40
0.0
 40
0.0
 40
1.0
 40
1.0
 40
1.0
 40
1.0
 10
141.9678603975
 20
187.3121540942
 30
0.0
 10
142.3152368919
 20
187.1793336256
 30
0.0
 10
142.7089911358
 20
187.1114449597
 30
0.0
 10
143.1434791939
 20
187.1114449597
 30
0.0
  0
SPLINE
  5
609
100
AcDbEntity
  8
0
100
AcDbSpline
 62
7
  6
CONTINUOUS
 70
0
 71
3
 72
8
 73
4
 74
0
 42
0.0000001
 43
0.0000001
 44
0.0000000001
 40
0.0
 40
0.0
 40
0.0
 40
0.0
 40
1.0
 40
1.0
 40
1.0
 40
1.0
 10
143.1434791939
 20
187.1114449597
 30
0.0
 10
143.4150331871
 20
187.1114449597
 30
0.0
 10
143.7816327469
 20
187.1318115688
 30
0.0
 10
144.2500644581
 20
187.172544759
 30
0.0
  0
SPLINE
  5
60A
100
AcDbEntity
  8
0
100
AcDbSpline
 62
7
  6
CONTINUOUS
 70
0
 71
3
 72
8
 73
4
 74
0
 42
0.0000001
 43
0.0000001
 44
0.0000000001
 40
0.0
 40
0.0
 40
0.0
 40
0.0
 40
1.0
 40
1.0
 40
1.0
 40
1.0
 10
144.2500644581
 20
188.6321510209
 30
0.0
 10
144.0192418949
 20
188.7136174573
 30
0.0
 10
143.8495212452
 20
188.7611394956
 30
0.0
 10
143.7339896522
 20
188.773581366
 30
0.0
  0
SPLINE
  5
60B
100
AcDbEntity
  8
0
100
AcDbSpline
 62
7
  6
CONTINUOUS
 70
0
 71
3
 72
8
 73
4
 74
0
 42
0.0000001
 43
0.0000001
 44
0.0000000001
 40
0.0
 40
0.0
 40
0.0
 40
0.0
 40
1.0
 40
1.0
 40
1.0
 40
1.0
 10
143.7339896522
 20
188.773581366
 30
0.0
 10
143.4082454102
 20
188.8086615338
 30
0.0
 10
143.2113676922
 20
188.8697613611
 30
0.0
 10
143.1434792305
 20
188.951227679
 30
0.0
  0
SPLINE
  5
60C
100
AcDbEntity
  8
0
100
AcDbSpline
 62
7
  6
CONTINUOUS
 70
0
 71
3
 72
8
 73
4
 74
0
 42
0.0000001
 43
0.0000001
 44
0.0000000001
 40
0.0
 40
0.0
 40
0.0
 40
0.0
 40
1.0
 40
1.0
 40
1.0
 40
1.0
 10
143.1434792305
 20
188.951227679
 30
0.0
 10
143.0755906956
 20
189.0326940848
 30
0.0
 10
143.0416458504
 20
189.1956269576
 30
0.0
 10
143.0416458504
 20
189.4536037578
 30
0.0
  0
SPLINE
  5
60D
100
AcDbEntity
  8
0
100
AcDbSpline
 62
7
  6
CONTINUOUS
 70
0
 71
3
 72
8
 73
4
 74
0
 42
0.0000001
 43
0.0000001
 44
0.0000000001
 40
0.0
 40
0.0
 40
0.0
 40
0.0
 40
1.0
 40
1.0
 40
1.0
 40
1.0
 10
134.7592293998
 20
194.8507523648
 30
0.0
 10
134.9764734165
 20
195.3395506575
 30
0.0
 10
135.3362828152
 20
195.5839499666
 30
0.0
 10
135.8522373097
 20
195.5839499666
 30
0.0
  0
SPLINE
  5
60E
100
AcDbEntity
  8
0
100
AcDbSpline
 62
7
  6
CONTINUOUS
 70
0
 71
3
 72
8
 73
4
 74
0
 42
0.0000001
 43
0.0000001
 44
0.0000000001
 40
0.0
 40
0.0
 40
0.0
 40
0.0
 40
1.0
 40
1.0
 40
1.0
 40
1.0
 10
135.8522373097
 20
195.5839499666
 30
0.0
 10
136.3274567978
 20
195.5839499666
 30
0.0
 10
136.6736894505
 20
195.3599175646
 30
0.0
 10
136.8868416864
 20
194.9166966069
 30
0.0
  0
SPLINE
  5
60F
100
AcDbEntity
  8
0
100
AcDbSpline
 62
7
  6
CONTINUOUS
 70
0
 71
3
 72
8
 73
4
 74
0
 42
0.0000001
 43
0.0000001
 44
0.0000000001
 40
0.0
 40
0.0
 40
0.0
 40
0.0
 40
1.0
 40
1.0
 40
1.0
 40
1.0
 10
136.8868416864
 20
194.9166966069
 30
0.0
 10
137.1013885395
 20
194.4705757334
 30
0.0
 10
137.21000966
 20
193.6423340275
 30
0.0
 10
137.21000966
 20
192.4271270468
 30
0.0
  0
SPLINE
  5
610
100
AcDbEntity
  8
0
100
AcDbSpline
 62
7
  6
CONTINUOUS
 70
0
 71
3
 72
8
 73
4
 74
0
 42
0.0000001
 43
0.0000001
 44
0.0000000001
 40
0.0
 40
0.0
 40
0.0
 40
0.0
 40
1.0
 40
1.0
 40
1.0
 40
1.0
 10
137.21000966
 20
192.4271270468
 30
0.0
 10
137.21000966
 20
190.987887664
 30
0.0
 10
137.1081775086
 20
190.0102907254
 30
0.0
 10
136.9083535582
 20
189.495490259
 30
0.0
  0
SPLINE
  5
611
100
AcDbEntity
  8
0
100
AcDbSpline
 62
7
  6
CONTINUOUS
 70
0
 71
3
 72
8
 73
4
 74
0
 42
0.0000001
 43
0.0000001
 44
0.0000000001
 40
0.0
 40
0.0
 40
0.0
 40
0.0
 40
1.0
 40
1.0
 40
1.0
 40
1.0
 10
136.9083535582
 20
189.495490259
 30
0.0
 10
136.7076342957
 20
188.9783832266
 30
0.0
 10
136.3478237049
 20
188.7271950974
 30
0.0
 10
135.8182924645
 20
188.7271950974
 30
0.0
  0
SPLINE
  5
612
100
AcDbEntity
  8
0
100
AcDbSpline
 62
7
  6
CONTINUOUS
 70
0
 71
3
 72
8
 73
4
 74
0
 42
0.0000001
 43
0.0000001
 44
0.0000000001
 40
0.0
 40
0.0
 40
0.0
 40
0.0
 40
1.0
 40
1.0
 40
1.0
 40
1.0
 10
135.8182924645
 20
188.7271950974
 30
0.0
 10
135.3702276604
 20
188.7271950974
 30
0.0
 10
135.0307839768
 20
188.9172833993
 30
0.0
 10
134.7916678337
 20
189.3101170522
 30
0.0
  0
SPLINE
  5
613
100
AcDbEntity
  8
0
100
AcDbSpline
 62
7
  6
CONTINUOUS
 70
0
 71
3
 72
8
 73
4
 74
0
 42
0.0000001
 43
0.0000001
 44
0.0000000001
 40
0.0
 40
0.0
 40
0.0
 40
0.0
 40
1.0
 40
1.0
 40
1.0
 40
1.0
 10
134.7916678337
 20
189.3101170522
 30
0.0
 10
134.5555632965
 20
189.698003067
 30
0.0
 10
134.4401520149
 20
190.5805554821
 30
0.0
 10
134.4401520149
 20
191.9654843046
 30
0.0
  0
SPLINE
  5
614
100
AcDbEntity
  8
0
100
AcDbSpline
 62
7
  6
CONTINUOUS
 70
0
 71
3
 72
8
 73
4
 74
0
 42
0.0000001
 43
0.0000001
 44
0.0000000001
 40
0.0
 40
0.0
 40
0.0
 40
0.0
 40
1.0
 40
1.0
 40
1.0
 40
1.0
 10
134.4401520149
 20
191.9654843046
 30
0.0
 10
134.4401520149
 20
193.4047236874
 30
0.0
 10
134.5419853584
 20
194.3619540169
 30
0.0
 10
134.7592293998
 20
194.8507523648
 30
0.0
  0
SPLINE
  5
615
100
AcDbEntity
  8
0
100
AcDbSpline
 62
7
  6
CONTINUOUS
 70
0
 71
3
 72
8
 73
4
 74
0
 42
0.0000001
 43
0.0000001
 44
0.0000000001
 40
0.0
 40
0.0
 40
0.0
 40
0.0
 40
1.0
 40
1.0
 40
1.0
 40
1.0
 10
133.3501741863
 20
188.2354689654
 30
0.0
 10
133.9377766506
 20
187.4848326131
 30
0.0
 10
134.7524398224
 20
187.1114449597
 30
0.0
 10
135.7979255573
 20
187.1114449597
 30
0.0
  0
SPLINE
  5
616
100
AcDbEntity
  8
0
100
AcDbSpline
 62
7
  6
CONTINUOUS
 70
0
 71
3
 72
8
 73
4
 74
0
 42
0.0000001
 43
0.0000001
 44
0.0000000001
 40
0.0
 40
0.0
 40
0.0
 40
0.0
 40
1.0
 40
1.0
 40
1.0
 40
1.0
 10
135.7979255573
 20
187.1114449597
 30
0.0
 10
136.8502002613
 20
187.1114449597
 30
0.0
 10
137.6784413712
 20
187.4984103462
 30
0.0
 10
138.2758619192
 20
188.2859191057
 30
0.0
  0
SPLINE
  5
617
100
AcDbEntity
  8
0
100
AcDbSpline
 62
7
  6
CONTINUOUS
 70
0
 71
3
 72
8
 73
4
 74
0
 42
0.0000001
 43
0.0000001
 44
0.0000000001
 40
0.0
 40
0.0
 40
0.0
 40
0.0
 40
1.0
 40
1.0
 40
1.0
 40
1.0
 10
138.2758619192
 20
188.2859191057
 30
0.0
 10
138.8732820408
 20
189.073427303
 30
0.0
 10
139.1787808792
 20
190.4719337656
 30
0.0
 10
139.1787808792
 20
192.4882271721
 30
0.0
  0
SPLINE
  5
618
100
AcDbEntity
  8
0
100
AcDbSpline
 62
7
  6
CONTINUOUS
 70
0
 71
3
 72
8
 73
4
 74
0
 42
0.0000001
 43
0.0000001
 44
0.0000000001
 40
0.0
 40
0.0
 40
0.0
 40
0.0
 40
1.0
 40
1.0
 40
1.0
 40
1.0
 10
139.1787808792
 20
192.4882271721
 30
0.0
 10
139.1787808792
 20
195.6246831848
 30
0.0
 10
138.072195615
 20
197.1997001602
 30
0.0
 10
135.8726030247
 20
197.1997001602
 30
0.0
  0
SPLINE
  5
619
100
AcDbEntity
  8
0
100
AcDbSpline
 62
7
  6
CONTINUOUS
 70
0
 71
3
 72
8
 73
4
 74
0
 42
0.0000001
 43
0.0000001
 44
0.0000000001
 40
0.0
 40
0.0
 40
0.0
 40
0.0
 40
1.0
 40
1.0
 40
1.0
 40
1.0
 10
135.8726030247
 20
197.1997001602
 30
0.0
 10
134.7592287914
 20
197.1997001602
 30
0.0
 10
133.9174097435
 20
196.7991569473
 30
0.0
 10
133.3381590355
 20
196.0132727371
 30
0.0
  0
SPLINE
  5
61A
100
AcDbEntity
  8
0
100
AcDbSpline
 62
7
  6
CONTINUOUS
 70
0
 71
3
 72
8
 73
4
 74
0
 42
0.0000001
 43
0.0000001
 44
0.0000000001
 40
0.0
 40
0.0
 40
0.0
 40
0.0
 40
1.0
 40
1.0
 40
1.0
 40
1.0
 10
133.3381590355
 20
196.0132727371
 30
0.0
 10
132.7565139191
 20
195.2241399719
 30
0.0
 10
132.4713813917
 20
193.9138892128
 30
0.0
 10
132.4713813917
 20
192.0808949901
 30
0.0
  0
SPLINE
  5
61B
100
AcDbEntity
  8
0
100
AcDbSpline
 62
7
  6
CONTINUOUS
 70
0
 71
3
 72
8
 73
4
 74
0
 42
0.0000001
 43
0.0000001
 44
0.0000000001
 40
0.0
 40
0.0
 40
0.0
 40
0.0
 40
1.0
 40
1.0
 40
1.0
 40
1.0
 10
132.4713813917
 20
192.0808949901
 30
0.0
 10
132.4713813917
 20
190.2682676746
 30
0.0
 10
132.7633022921
 20
188.9851720466
 30
0.0
 10
133.3501741863
 20
188.2354689654
 30
0.0
  0
SPLINE
  5
61C
100
AcDbEntity
  8
0
100
AcDbSpline
 62
7
  6
CONTINUOUS
 70
0
 71
3
 72
8
 73
4
 74
0
 42
0.0000001
 43
0.0000001
 44
0.0000000001
 40
0.0
 40
0.0
 40
0.0
 40
0.0
 40
1.0
 40
1.0
 40
1.0
 40
1.0
 10
127.8753187911
 20
196.9824567272
 30
0.0
 10
127.7666970746
 20
196.514025016
 30
0.0
 10
127.6241308109
 20
196.1813703014
 30
0.0
 10
127.4340425784
 20
195.9777042848
 30
0.0
  0
SPLINE
  5
61D
100
AcDbEntity
  8
0
100
AcDbSpline
 62
7
  6
CONTINUOUS
 70
0
 71
3
 72
8
 73
4
 74
0
 42
0.0000001
 43
0.0000001
 44
0.0000000001
 40
0.0
 40
0.0
 40
0.0
 40
0.0
 40
1.0
 40
1.0
 40
1.0
 40
1.0
 10
127.4340425784
 20
195.9777042848
 30
0.0
 10
127.2439542071
 20
195.7740381195
 30
0.0
 10
126.999555196
 20
195.6111052467
 30
0.0
 10
126.7020250339
 20
195.4927693969
 30
0.0
  0
SPLINE
  5
61E
100
AcDbEntity
  8
0
100
AcDbSpline
 62
7
  6
CONTINUOUS
 70
0
 71
3
 72
8
 73
4
 74
0
 42
0.0000001
 43
0.0000001
 44
0.0000000001
 40
0.0
 40
0.0
 40
0.0
 40
0.0
 40
1.0
 40
1.0
 40
1.0
 40
1.0
 10
126.7020250339
 20
195.4927693969
 30
0.0
 10
126.4021348612
 20
195.3734949066
 30
0.0
 10
125.9065477209
 20
195.3191843464
 30
0.0
 10
125.2140833096
 20
195.3191843464
 30
0.0
  0
SPLINE
  5
61F
100
AcDbEntity
  8
0
100
AcDbSpline
 62
7
  6
CONTINUOUS
 70
0
 71
3
 72
11
 73
7
 74
0
 42
0.0000001
 43
0.0000001
 44
0.0000000001
 40
0.0
 40
0.0
 40
0.0
 40
0.0
 40
0.2500120606
 40
0.5000188251
 40
0.7500145493
 40
1.0
 40
1.0
 40
1.0
 40
1.0
 10
113.2460904756
 20
208.5407138913
 30
0.0
 10
114.0348709454
 20
208.1301541688
 30
0.0
 10
115.6002744713
 20
207.2860663546
 30
0.0
 10
117.9672621721
 20
206.0551393747
 30
0.0
 10
120.380131224
 20
204.9156387126
 30
0.0
 10
122.0273447982
 20
204.2422457699
 30
0.0
 10
122.8606107515
 20
203.9320305983
 30
0.0
  0
SPLINE
  5
620
100
AcDbEntity
  8
0
100
AcDbSpline
 62
7
  6
CONTINUOUS
 70
0
 71
3
 72
11
 73
7
 74
0
 42
0.0000001
 43
0.0000001
 44
0.0000000001
 40
0.0
 40
0.0
 40
0.0
 40
0.0
 40
0.2499855661
 40
0.4999813324
 40
0.7499880061
 40
1.0
 40
1.0
 40
1.0
 40
1.0
 10
146.603536267
 20
203.9320306875
 30
0.0
 10
147.4368025611
 20
204.2422459977
 30
0.0
 10
149.0840164223
 20
204.9156394671
 30
0.0
 10
151.4968860252
 20
206.055139192
 30
0.0
 10
153.8638733198
 20
207.2860658232
 30
0.0
 10
155.4292758166
 20
208.1301541937
 30
0.0
 10
156.2180560511
 20
208.5407137623
 30
0.0
  0
SPLINE
  5
621
100
AcDbEntity
  8
KONSTRUKTIONSELEMENTE
100
AcDbSpline
 62
7
  6
CONTINUOUS
 70
0
 71
3
 72
13
 73
9
 74
0
 42
0.0000001
 43
0.0000001
 44
0.0000000001
 40
0.0
 40
0.0
 40
0.0
 40
0.0
 40
0.0283851559
 40
0.0852427172
 40
0.1704092396
 40
0.2835068283
 40
0.5912082332
 40
1.0
 40
1.0
 40
1.0
 40
1.0
 10
194.3037902122
 20
97.4866750725
 30
0.0
 10
194.3018402048
 20
97.4838940016
 30
0.0
 10
194.2989299225
 20
97.4738699849
 30
0.0
 10
194.2932193707
 20
97.4544736745
 30
0.0
 10
194.2862029795
 20
97.4246640281
 30
0.0
 10
194.2728813874
 20
97.3656563728
 30
0.0
 10
194.2528336505
 20
97.2683869085
 30
0.0
 10
194.2362153257
 20
97.1842906176
 30
0.0
 10
194.2268854698
 20
97.1362721312
 30
0.0
  0
SPLINE
  5
622
100
AcDbEntity
  8
0
100
AcDbSpline
 62
7
  6
CONTINUOUS
 70
0
 71
3
 72
9
 73
5
 74
0
 42
0.0000001
 43
0.0000001
 44
0.0000000001
 40
0.0
 40
0.0
 40
0.0
 40
0.0
 40
0.4987306822
 40
1.0
 40
1.0
 40
1.0
 40
1.0
 10
240.6833944198
 20
90.1595015055
 30
0.0
 10
240.683649585
 20
90.8115313363
 30
0.0
 10
240.5875195898
 20
92.1207478221
 30
0.0
 10
240.2616317069
 20
93.3985710155
 30
0.0
 10
240.0235847202
 20
94.0091573998
 30
0.0
  0
SPLINE
  5
623
100
AcDbEntity
  8
RUNDUNGEN
100
AcDbSpline
 62
7
  6
CONTINUOUS
 70
0
 71
3
 72
8
 73
4
 74
0
 42
0.0000001
 43
0.0000001
 44
0.0000000001
 40
0.0
 40
0.0
 40
0.0
 40
0.0
 40
1.0
 40
1.0
 40
1.0
 40
1.0
 10
240.6833944198
 20
38.3441269562
 30
0.0
 10
240.6835123048
 20
38.282195493
 30
0.0
 10
240.672451607
 20
38.2191688645
 30
0.0
 10
240.6504540762
 20
38.1612756122
 30
0.0
  0
SPLINE
  5
624
100
AcDbEntity
  8
RUNDUNGEN
100
AcDbSpline
 62
7
  6
CONTINUOUS
 70
0
 71
3
 72
9
 73
5
 74
0
 42
0.0000001
 43
0.0000001
 44
0.0000000001
 40
0.0
 40
0.0
 40
0.0
 40
0.0
 40
0.2668079846
 40
1.0
 40
1.0
 40
1.0
 40
1.0
 10
240.620775792
 20
38.6237352343
 30
0.0
 10
240.6309178364
 20
38.6002546477
 30
0.0
 10
240.6650599083
 20
38.5107210054
 30
0.0
 10
240.6832606308
 20
38.414413641
 30
0.0
 10
240.6833944198
 20
38.3441269562
 30
0.0
  0
SPLINE
  5
625
100
AcDbEntity
  8
KONSTRUKTIONSELEMENTE
100
AcDbSpline
 62
7
  6
CONTINUOUS
 70
0
 71
3
 72
9
 73
5
 74
0
 42
0.0000001
 43
0.0000001
 44
0.0000000001
 40
0.0
 40
0.0
 40
0.0
 40
0.0
 40
0.5003758878
 40
1.0
 40
1.0
 40
1.0
 40
1.0
 10
193.5612287811
 20
93.5492646358
 30
0.0
 10
193.072688314
 20
90.7778058757
 30
0.0
 10
192.2175223319
 20
85.2161739691
 30
0.0
 10
191.7426184499
 20
79.605129533
 30
0.0
 10
191.6288738747
 20
76.7974724718
 30
0.0
  0
SPLINE
  5
626
100
AcDbEntity
  8
0
100
AcDbSpline
 62
7
  6
CONTINUOUS
 70
0
 71
3
 72
9
 73
5
 74
0
 42
0.0000001
 43
0.0000001
 44
0.0000000001
 40
0.0
 40
0.0
 40
0.0
 40
0.0
 40
0.2442245044
 40
1.0
 40
1.0
 40
1.0
 40
1.0
 10
240.0235847202
 20
94.0091573998
 30
0.0
 10
239.9989858706
 20
94.0108583409
 30
0.0
 10
239.8981765341
 20
94.0165464992
 30
0.0
 10
239.7971178987
 20
94.0174019154
 30
0.0
 10
239.7208287166
 20
94.0158384088
 30
0.0
  0
SPLINE
  5
627
100
AcDbEntity
  8
0
100
AcDbSpline
 62
7
  6
CONTINUOUS
 70
0
 71
3
 72
9
 73
5
 74
0
 42
0.0000001
 43
0.0000001
 44
0.0000000001
 40
0.0
 40
0.0
 40
0.0
 40
0.0
 40
0.4723690284
 40
1.0
 40
1.0
 40
1.0
 40
1.0
 10
239.7208287166
 20
94.0158384088
 30
0.0
 10
239.400487672
 20
94.0092731879
 30
0.0
 10
238.7244356471
 20
93.9171175134
 30
0.0
 10
238.067297295
 20
93.7478192565
 30
0.0
 10
237.7232181701
 20
93.6493478241
 30
0.0
  0
SPLINE
  5
628
100
AcDbEntity
  8
0
100
AcDbSpline
 62
7
  6
CONTINUOUS
 70
0
 71
3
 72
8
 73
4
 74
0
 42
0.0000001
 43
0.0000001
 44
0.0000000001
 40
0.0
 40
0.0
 40
0.0
 40
0.0
 40
1.0
 40
1.0
 40
1.0
 40
1.0
 10
237.7226075169
 20
93.6491718115
 30
0.0
 10
237.5647340903
 20
93.6040049605
 30
0.0
 10
237.4087715497
 20
93.5507537359
 30
0.0
 10
237.2574374226
 20
93.4870195592
 30
0.0
  0
SPLINE
  5
629
100
AcDbEntity
  8
KONSTRUKTIONSELEMENTE
100
AcDbSpline
 62
7
  6
CONTINUOUS
 70
0
 71
3
 72
11
 73
7
 74
0
 42
0.0000001
 43
0.0000001
 44
0.0000000001
 40
0.0
 40
0.0
 40
0.0
 40
0.0
 40
0.2500056171
 40
0.5000065621
 40
0.7500037275
 40
1.0
 40
1.0
 40
1.0
 40
1.0
 10
190.8517756067
 20
67.0508678761
 30
0.0
 10
190.5376543979
 20
64.5845528258
 30
0.0
 10
189.9462573664
 20
59.6471163711
 30
0.0
 10
189.2239685159
 20
52.2226968686
 30
0.0
 10
188.7393865825
 20
44.778351932
 30
0.0
 10
188.6242458093
 20
39.8054045477
 30
0.0
 10
188.6242516407
 20
37.3192589403
 30
0.0
  0
SPLINE
  5
62A
100
AcDbEntity
  8
KONSTRUKTIONSELEMENTE
100
AcDbSpline
 62
7
  6
CONTINUOUS
 70
0
 71
3
 72
9
 73
5
 74
0
 42
0.0000001
 43
0.0000001
 44
0.0000000001
 40
0.0
 40
0.0
 40
0.0
 40
0.0
 40
0.2384562214
 40
1.0
 40
1.0
 40
1.0
 40
1.0
 10
191.0184927614
 20
68.6794629793
 30
0.0
 10
191.0087857804
 20
68.5496912963
 30
0.0
 10
190.9638406668
 20
68.0057972227
 30
0.0
 10
190.9042837729
 20
67.4631396255
 30
0.0
 10
190.8517756067
 20
67.0508678761
 30
0.0
  0
SPLINE
  5
62B
100
AcDbEntity
  8
0
100
AcDbSpline
 62
7
  6
CONTINUOUS
 70
0
 71
3
 72
10
 73
6
 74
0
 42
0.0000001
 43
0.0000001
 44
0.0000000001
 40
0.0
 40
0.0
 40
0.0
 40
0.0
 40
0.2654899113
 40
0.5222009266
 40
1.0
 40
1.0
 40
1.0
 40
1.0
 10
194.8461478014
 20
74.8387767004
 30
0.0
 10
194.9948746807
 20
74.8321303518
 30
0.0
 10
195.2900106496
 20
74.8548497991
 30
0.0
 10
195.8302924136
 20
75.0149527178
 30
0.0
 10
196.1914252616
 20
75.2254727333
 30
0.0
 10
196.408128616
 20
75.3830344212
 30
0.0
  0
SPLINE
  5
62C
100
AcDbEntity
  8
KONSTRUKTIONSELEMENTE
100
AcDbSpline
 62
7
  6
CONTINUOUS
 70
0
 71
3
 72
11
 73
7
 74
0
 42
0.0000001
 43
0.0000001
 44
0.0000000001
 40
0.0
 40
0.0
 40
0.0
 40
0.0
 40
0.2774594502
 40
0.541818215
 40
0.7843999172
 40
1.0
 40
1.0
 40
1.0
 40
1.0
 10
194.8463884835
 20
74.8387902384
 30
0.0
 10
194.5170836802
 20
74.8535063041
 30
0.0
 10
193.8709820892
 20
74.8370450395
 30
0.0
 10
192.9494206499
 20
74.6749986291
 30
0.0
 10
192.1365443101
 20
74.3861456876
 30
0.0
 10
191.6661418213
 20
74.100415859
 30
0.0
 10
191.4679202458
 20
73.9381910205
 30
0.0
  0
SPLINE
  5
62D
100
AcDbEntity
  8
KONSTRUKTIONSELEMENTE
100
AcDbSpline
 62
7
  6
CONTINUOUS
 70
0
 71
3
 72
10
 73
6
 74
0
 42
0.0000001
 43
0.0000001
 44
0.0000000001
 40
0.0
 40
0.0
 40
0.0
 40
0.0
 40
0.2669770314
 40
0.5262551043
 40
1.0
 40
1.0
 40
1.0
 40
1.0
 10
195.0345433156
 20
78.057326197
 30
0.0
 10
194.7037354663
 20
78.0661916438
 30
0.0
 10
194.0475913034
 20
78.0240466326
 30
0.0
 10
192.8441142634
 20
77.7178574657
 30
0.0
 10
192.0302274327
 20
77.2261274038
 30
0.0
 10
191.6288738747
 20
76.7974724718
 30
0.0
  0
SPLINE
  5
62E
100
AcDbEntity
  8
0
100
AcDbSpline
 62
7
  6
CONTINUOUS
 70
0
 71
3
 72
8
 73
4
 74
0
 42
0.0000001
 43
0.0000001
 44
0.0000000001
 40
0.0
 40
0.0
 40
0.0
 40
0.0
 40
1.0
 40
1.0
 40
1.0
 40
1.0
 10
28.7807523644
 20
38.3441269562
 30
0.0
 10
28.7806344794
 20
38.282195493
 30
0.0
 10
28.7916951772
 20
38.2191688645
 30
0.0
 10
28.8136927081
 20
38.1612756122
 30
0.0
  0
SPLINE
  5
62F
100
AcDbEntity
  8
RUNDUNGEN
100
AcDbSpline
 62
7
  6
CONTINUOUS
 70
0
 71
3
 72
9
 73
5
 74
0
 42
0.0000001
 43
0.0000001
 44
0.0000000001
 40
0.0
 40
0.0
 40
0.0
 40
0.0
 40
0.4987306822
 40
1.0
 40
1.0
 40
1.0
 40
1.0
 10
28.7807523644
 20
90.1595015055
 30
0.0
 10
28.7804971993
 20
90.8115313363
 30
0.0
 10
28.8766271944
 20
92.1207478221
 30
0.0
 10
29.2025150774
 20
93.3985710155
 30
0.0
 10
29.440562064
 20
94.0091573998
 30
0.0
  0
SPLINE
  5
630
100
AcDbEntity
  8
KONSTRUKTIONSELEMENTE
100
AcDbSpline
 62
7
  6
CONTINUOUS
 70
0
 71
3
 72
13
 73
9
 74
0
 42
0.0000001
 43
0.0000001
 44
0.0000000001
 40
0.0
 40
0.0
 40
0.0
 40
0.0
 40
0.4090462261
 40
0.7165081319
 40
0.8295606411
 40
0.9147234175
 40
0.9715421444
 40
1.0
 40
1.0
 40
1.0
 40
1.0
 10
75.2372472243
 20
97.1363440131
 30
0.0
 10
75.2279132393
 20
97.18438367
 30
0.0
 10
75.211299686
 20
97.2684672978
 30
0.0
 10
75.191251476
 20
97.3657133726
 30
0.0
 10
75.1779412516
 20
97.4246786352
 30
0.0
 10
75.1709266867
 20
97.4544692873
 30
0.0
 10
75.165220715
 20
97.4738726636
 30
0.0
 10
75.1622986006
 20
97.4838880958
 30
0.0
 10
75.1603551229
 20
97.4866835822
 30
0.0
  0
SPLINE
  5
631
100
AcDbEntity
  8
RUNDUNGEN
100
AcDbSpline
 62
7
  6
CONTINUOUS
 70
0
 71
3
 72
9
 73
5
 74
0
 42
0.0000001
 43
0.0000001
 44
0.0000000001
 40
0.0
 40
0.0
 40
0.0
 40
0.0
 40
0.2442245044
 40
1.0
 40
1.0
 40
1.0
 40
1.0
 10
29.440562064
 20
94.0091573998
 30
0.0
 10
29.4651609137
 20
94.0108583409
 30
0.0
 10
29.5659702502
 20
94.0165464992
 30
0.0
 10
29.6670288855
 20
94.0174019154
 30
0.0
 10
29.7433180676
 20
94.0158384088
 30
0.0
  0
SPLINE
  5
632
100
AcDbEntity
  8
RUNDUNGEN
100
AcDbSpline
 62
7
  6
CONTINUOUS
 70
0
 71
3
 72
9
 73
5
 74
0
 42
0.0000001
 43
0.0000001
 44
0.0000000001
 40
0.0
 40
0.0
 40
0.0
 40
0.0
 40
0.4723690284
 40
1.0
 40
1.0
 40
1.0
 40
1.0
 10
29.7433180676
 20
94.0158384088
 30
0.0
 10
30.0636591122
 20
94.0092731879
 30
0.0
 10
30.7397111372
 20
93.9171175134
 30
0.0
 10
31.3968494892
 20
93.7478192565
 30
0.0
 10
31.7409286142
 20
93.6493478241
 30
0.0
  0
SPLINE
  5
633
100
AcDbEntity
  8
RUNDUNGEN
100
AcDbSpline
 62
7
  6
CONTINUOUS
 70
0
 71
3
 72
8
 73
4
 74
0
 42
0.0000001
 43
0.0000001
 44
0.0000000001
 40
0.0
 40
0.0
 40
0.0
 40
0.0
 40
1.0
 40
1.0
 40
1.0
 40
1.0
 10
31.7415392673
 20
93.6491718115
 30
0.0
 10
31.899412694
 20
93.6040049605
 30
0.0
 10
32.0553752345
 20
93.5507537359
 30
0.0
 10
32.2067093616
 20
93.4870195592
 30
0.0
  0
SPLINE
  5
634
100
AcDbEntity
  8
KONSTRUKTIONSELEMENTE
100
AcDbSpline
 62
7
  6
CONTINUOUS
 70
0
 71
3
 72
11
 73
7
 74
0
 42
0.0000001
 43
0.0000001
 44
0.0000000001
 40
0.0
 40
0.0
 40
0.0
 40
0.0
 40
0.2499962802
 40
0.4999934489
 40
0.7499943876
 40
1.0
 40
1.0
 40
1.0
 40
1.0
 10
80.8398951436
 20
37.3192587823
 30
0.0
 10
80.8399009782
 20
39.8054045592
 30
0.0
 10
80.7247602243
 20
44.7783522395
 30
0.0
 10
80.2401782248
 20
52.2226974986
 30
0.0
 10
79.5178893333
 20
59.6471171999
 30
0.0
 10
78.9264922853
 20
64.5845537302
 30
0.0
 10
78.6123710643
 20
67.0508688257
 30
0.0
  0
SPLINE
  5
635
100
AcDbEntity
  8
KONSTRUKTIONSELEMENTE
100
AcDbSpline
 62
7
  6
CONTINUOUS
 70
0
 71
3
 72
9
 73
5
 74
0
 42
0.0000001
 43
0.0000001
 44
0.0000000001
 40
0.0
 40
0.0
 40
0.0
 40
0.0
 40
0.2582547417
 40
1.0
 40
1.0
 40
1.0
 40
1.0
 10
78.6123710643
 20
67.0508688257
 30
0.0
 10
78.5945645574
 20
67.1906779291
 30
0.0
 10
78.5289962026
 20
67.7324573132
 30
0.0
 10
78.4758485856
 20
68.2757948119
 30
0.0
 10
78.4456540228
 20
68.6794629793
 30
0.0
  0
SPLINE
  5
636
100
AcDbEntity
  8
KONSTRUKTIONSELEMENTE
100
AcDbSpline
 62
7
  6
CONTINUOUS
 70
0
 71
3
 72
10
 73
6
 74
0
 42
0.0000001
 43
0.0000001
 44
0.0000000001
 40
0.0
 40
0.0
 40
0.0
 40
0.0
 40
0.2654899113
 40
0.5222009266
 40
1.0
 40
1.0
 40
1.0
 40
1.0
 10
74.6179989829
 20
74.8387767004
 30
0.0
 10
74.4692721036
 20
74.8321303518
 30
0.0
 10
74.1741361346
 20
74.8548497991
 30
0.0
 10
73.6338543706
 20
75.0149527178
 30
0.0
 10
73.2727215226
 20
75.2254727333
 30
0.0
 10
73.0560181682
 20
75.3830344212
 30
0.0
  0
SPLINE
  5
637
100
AcDbEntity
  8
KONSTRUKTIONSELEMENTE
100
AcDbSpline
 62
7
  6
CONTINUOUS
 70
0
 71
3
 72
11
 73
7
 74
0
 42
0.0000001
 43
0.0000001
 44
0.0000000001
 40
0.0
 40
0.0
 40
0.0
 40
0.0
 40
0.2774594502
 40
0.541818215
 40
0.7843999172
 40
1.0
 40
1.0
 40
1.0
 40
1.0
 10
74.6177583007
 20
74.8387902384
 30
0.0
 10
74.947063104
 20
74.8535063041
 30
0.0
 10
75.5931646951
 20
74.8370450395
 30
0.0
 10
76.5147261343
 20
74.6749986291
 30
0.0
 10
77.3276024741
 20
74.3861456876
 30
0.0
 10
77.798004963
 20
74.100415859
 30
0.0
 10
77.9962265384
 20
73.9381910205
 30
0.0
  0
SPLINE
  5
638
100
AcDbEntity
  8
KONSTRUKTIONSELEMENTE
100
AcDbSpline
 62
7
  6
CONTINUOUS
 70
0
 71
3
 72
9
 73
5
 74
0
 42
0.0000001
 43
0.0000001
 44
0.0000000001
 40
0.0
 40
0.0
 40
0.0
 40
0.0
 40
0.4996240936
 40
1.0
 40
1.0
 40
1.0
 40
1.0
 10
77.8352729096
 20
76.7974724718
 30
0.0
 10
77.7215268931
 20
79.6051651073
 30
0.0
 10
77.2466137077
 20
85.2162807251
 30
0.0
 10
76.3914306881
 20
90.7779823763
 30
0.0
 10
75.9028808066
 20
93.5494758972
 30
0.0
  0
SPLINE
  5
639
100
AcDbEntity
  8
KONSTRUKTIONSELEMENTE
100
AcDbSpline
 62
7
  6
CONTINUOUS
 70
0
 71
3
 72
10
 73
6
 74
0
 42
0.0000001
 43
0.0000001
 44
0.0000000001
 40
0.0
 40
0.0
 40
0.0
 40
0.0
 40
0.2669770314
 40
0.5262551043
 40
1.0
 40
1.0
 40
1.0
 40
1.0
 10
74.4296034687
 20
78.057326197
 30
0.0
 10
74.7604113179
 20
78.0661916438
 30
0.0
 10
75.4165554808
 20
78.0240466326
 30
0.0
 10
76.6200325208
 20
77.7178574657
 30
0.0
 10
77.4339193516
 20
77.2261274038
 30
0.0
 10
77.8352729096
 20
76.7974724718
 30
0.0
  0
SPLINE
  5
63A
100
AcDbEntity
  8
0
100
AcDbSpline
 62
7
  6
CONTINUOUS
 70
0
 71
3
 72
9
 73
5
 74
0
 42
0.0000001
 43
0.0000001
 44
0.0000000001
 40
0.0
 40
0.0
 40
0.0
 40
0.0
 40
0.2668079846
 40
1.0
 40
1.0
 40
1.0
 40
1.0
 10
28.8433709923
 20
38.6237352343
 30
0.0
 10
28.8332289478
 20
38.6002546477
 30
0.0
 10
28.799086876
 20
38.5107210054
 30
0.0
 10
28.7808861534
 20
38.414413641
 30
0.0
 10
28.7807523644
 20
38.3441269562
 30
0.0
  0
ELLIPSE
  5
63B
100
AcDbEntity
  8
0
100
AcDbEllipse
 62
7
  6
CONTINUOUS
 10
58.2945759833
 20
190.3218998148
 30
0.0
 11
37.7964658784
 21
-26.0329373929
 31
0.0
 40
0.3944618695
 41
1.7562124831
 42
1.7668804517
  0
ELLIPSE
  5
63C
100
AcDbEntity
  8
0
100
AcDbEllipse
 62
7
  6
CONTINUOUS
 10
49.7008129923
 20
190.3218998148
 30
0.0
 11
146.8432119128
 21
-21.6508141947
 31
0.0
 40
0.1414186782
 41
1.5082142309
 42
1.5117721853
  0
ELLIPSE
  5
63D
100
AcDbEntity
  8
0
100
AcDbEllipse
 62
7
  6
CONTINUOUS
 10
64.9438778239
 20
190.3218998148
 30
0.0
 11
-7.2812588275
 21
29.9577716017
 31
0.0
 40
0.2185337797
 41
-0.8934553534
 42
-0.8828038719
  0
ELLIPSE
  5
63E
100
AcDbEntity
  8
0
100
AcDbEllipse
 62
7
  6
CONTINUOUS
 10
64.2711356733
 20
190.3218998148
 30
0.0
 11
-18.9178842627
 21
29.0873196692
 31
0.0
 40
0.3881806888
 41
-1.1019005197
 42
-1.0876886118
  0
ELLIPSE
  5
63F
100
AcDbEntity
  8
0
100
AcDbEllipse
 62
7
  6
CONTINUOUS
 10
63.0862383783
 20
190.3218998148
 30
0.0
 11
37.7965263583
 21
-26.0329280842
 31
0.0
 40
0.3944616684
 41
1.7562118587
 42
1.7668798273
  0
ELLIPSE
  5
640
100
AcDbEntity
  8
0
100
AcDbEllipse
 62
7
  6
CONTINUOUS
 10
54.4924932687
 20
190.3218998148
 30
0.0
 11
146.8430437183
 21
-21.6508151845
 31
0.0
 40
0.1414188332
 41
1.5082142785
 42
1.511772233
  0
ELLIPSE
  5
641
100
AcDbEntity
  8
0
100
AcDbEllipse
 62
7
  6
CONTINUOUS
 10
60.846658242
 20
190.3218998148
 30
0.0
 11
-7.2813007154
 21
29.9577707209
 31
0.0
 40
0.2185348
 41
-0.8225055291
 42
-0.8118647685
  0
ELLIPSE
  5
642
100
AcDbEntity
  8
0
100
AcDbEllipse
 62
7
  6
CONTINUOUS
 10
61.0419696228
 20
190.3218998148
 30
0.0
 11
-18.9178842627
 21
29.0873196692
 31
0.0
 40
0.3881806888
 41
-1.0261245032
 42
-1.0167382339
  0
ELLIPSE
  5
643
100
AcDbEntity
  8
0
100
AcDbEllipse
 62
7
  6
CONTINUOUS
 10
61.5411032892
 20
190.3218998148
 30
0.0
 11
7.2813044371
 21
29.9577706426
 31
0.0
 40
0.2185348906
 41
0.8615153846
 42
0.8671622788
  0
ELLIPSE
  5
644
100
AcDbEntity
  8
0
100
AcDbEllipse
 62
7
  6
CONTINUOUS
 10
61.9924878733
 20
190.3218998148
 30
0.0
 11
27.0190404063
 21
27.8356858417
 31
0.0
 40
0.4140837374
 41
1.1835299258
 42
1.1906234877
  0
ELLIPSE
  5
645
100
AcDbEntity
  8
0
100
AcDbEllipse
 62
7
  6
CONTINUOUS
 10
62.9299896614
 20
190.3218998148
 30
0.0
 11
87.9784182598
 21
22.400972551
 31
0.0
 40
0.226815396
 41
1.5255205701
 42
1.5290670276
  0
ELLIPSE
  5
646
100
AcDbEntity
  8
0
100
AcDbEllipse
 62
7
  6
CONTINUOUS
 10
60.8119310108
 20
190.3218998148
 30
0.0
 11
7.2813044371
 21
29.9577706426
 31
0.0
 40
0.2185348906
 41
0.7870225778
 42
0.7941639345
  0
ELLIPSE
  5
647
100
AcDbEntity
  8
0
100
AcDbEllipse
 62
7
  6
CONTINUOUS
 10
59.8049966009
 20
190.3218998148
 30
0.0
 11
27.0190289285
 21
27.8356877989
 31
0.0
 40
0.4140837331
 41
1.1090275532
 42
1.116130506
  0
ELLIPSE
  5
648
100
AcDbEntity
  8
0
100
AcDbEllipse
 62
7
  6
CONTINUOUS
 10
56.3674890048
 20
190.3218998148
 30
0.0
 11
87.9784182598
 21
22.400972551
 31
0.0
 40
0.226815396
 41
1.4510122681
 42
1.45456483
  0
ELLIPSE
  5
649
100
AcDbEntity
  8
0
100
AcDbEllipse
 62
7
  6
CONTINUOUS
 10
66.2316206898
 20
190.3218998148
 30
0.0
 11
-8.6981613786
 21
29.9203580659
 31
0.0
 40
0.2511485286
 41
-0.8424240698
 42
-0.7748502635
  0
ELLIPSE
  5
64A
100
AcDbEntity
  8
0
100
AcDbEllipse
 62
7
  6
CONTINUOUS
 10
66.332768267
 20
190.3218998148
 30
0.0
 11
7.2812588275
 21
29.9577716017
 31
0.0
 40
0.2185337797
 41
0.8615147819
 42
0.8689095445
  0
ELLIPSE
  5
64B
100
AcDbEntity
  8
0
100
AcDbEllipse
 62
7
  6
CONTINUOUS
 10
66.7841560797
 20
190.3218998148
 30
0.0
 11
27.0191341826
 21
27.835669851
 31
0.0
 40
0.4140837726
 41
1.1835313551
 42
1.190624917
  0
ELLIPSE
  5
64C
100
AcDbEntity
  8
0
100
AcDbEllipse
 62
7
  6
CONTINUOUS
 10
57.5765678672
 20
190.3218998148
 30
0.0
 11
-15.6198944909
 21
29.4678949818
 31
0.0
 40
0.3601321255
 41
-0.9799959494
 42
-0.8905921257
  0
ELLIPSE
  5
64D
100
AcDbEntity
  8
0
100
AcDbEllipse
 62
7
  6
CONTINUOUS
 10
59.1777259746
 20
190.3218998148
 30
0.0
 11
25.5940651333
 21
28.0764823915
 31
0.0
 40
0.4129609291
 41
1.1472111728
 42
1.2288682091
  0
ELLIPSE
  5
64E
100
AcDbEntity
  8
0
100
AcDbEllipse
 62
7
  6
CONTINUOUS
 10
67.7216565268
 20
190.3218998148
 30
0.0
 11
87.9784182598
 21
22.400972551
 31
0.0
 40
0.226815396
 41
1.5255205701
 42
1.5290670276
  0
ELLIPSE
  5
64F
100
AcDbEntity
  8
0
100
AcDbEllipse
 62
7
  6
CONTINUOUS
 10
71.5262807798
 20
190.3218998148
 30
0.0
 11
7.4762385105
 21
29.9535352632
 31
0.0
 40
0.2232471849
 41
0.7789652402
 42
0.9244919641
  0
ELLIPSE
  5
650
100
AcDbEntity
  8
0
100
AcDbEllipse
 62
7
  6
CONTINUOUS
 10
72.7711994371
 20
190.3218998148
 30
0.0
 11
-7.4762385105
 21
29.9535352632
 31
0.0
 40
0.2232471849
 41
-0.9244919641
 42
-0.7789652402
  0
ELLIPSE
  5
651
100
AcDbEntity
  8
0
100
AcDbEllipse
 62
7
  6
CONTINUOUS
 10
60.152208475
 20
190.3218998148
 30
0.0
 11
-7.2813044371
 21
29.9577706426
 31
0.0
 40
0.2185348906
 41
-0.8934559562
 42
-0.8828044746
  0
ELLIPSE
  5
652
100
AcDbEntity
  8
0
100
AcDbEllipse
 62
7
  6
CONTINUOUS
 10
59.479469404
 20
190.3218998148
 30
0.0
 11
-18.9178842627
 21
29.0873196692
 31
0.0
 40
0.3881806888
 41
-1.1019005197
 42
-1.0876886118
  0
ELLIPSE
  5
653
100
AcDbEntity
  8
0
100
AcDbEllipse
 62
7
  6
CONTINUOUS
 10
208.3440521614
 20
190.3218998148
 30
0.0
 11
18.9178842627
 21
29.0873196692
 31
0.0
 40
0.3881806888
 41
1.0131915756
 42
1.0225633992
  0
ELLIPSE
  5
654
100
AcDbEntity
  8
0
100
AcDbEllipse
 62
7
  6
CONTINUOUS
 10
208.5827659822
 20
190.3218998148
 30
0.0
 11
7.2813044371
 21
29.9577706426
 31
0.0
 40
0.2185348906
 41
0.8083172941
 42
0.81895892
  0
ELLIPSE
  5
655
100
AcDbEntity
  8
0
100
AcDbEllipse
 62
7
  6
CONTINUOUS
 10
203.5523858921
 20
190.3218998148
 30
0.0
 11
18.9178842627
 21
29.0873196692
 31
0.0
 40
0.3881806888
 41
1.0131915756
 42
1.0273771827
  0
ELLIPSE
  5
656
100
AcDbEntity
  8
0
100
AcDbEllipse
 62
7
  6
CONTINUOUS
 10
203.7911008056
 20
190.3218998148
 30
0.0
 11
7.2812588275
 21
29.9577716017
 31
0.0
 40
0.2185337797
 41
0.8083166914
 42
0.8189583173
  0
ELLIPSE
  5
657
100
AcDbEntity
  8
0
100
AcDbEllipse
 62
7
  6
CONTINUOUS
 10
219.7633327204
 20
190.3218998148
 30
0.0
 11
146.8431990464
 21
21.6508142704
 31
0.0
 40
0.1414186901
 41
1.6298204643
 42
1.6333784191
  0
ELLIPSE
  5
658
100
AcDbEntity
  8
0
100
AcDbEllipse
 62
7
  6
CONTINUOUS
 10
211.1695705152
 20
190.3218998148
 30
0.0
 11
37.7964621771
 21
26.0329379626
 31
0.0
 40
0.3944618819
 41
1.3747121625
 42
1.385380132
  0
ELLIPSE
  5
659
100
AcDbEntity
  8
0
100
AcDbEllipse
 62
7
  6
CONTINUOUS
 10
209.9846772196
 20
190.3218998148
 30
0.0
 11
18.9178821936
 21
29.0873199378
 31
0.0
 40
0.388180675
 41
1.0876885727
 42
1.1019004819
  0
ELLIPSE
  5
65A
100
AcDbEntity
  8
0
100
AcDbEllipse
 62
7
  6
CONTINUOUS
 10
209.3119381593
 20
190.3218998148
 30
0.0
 11
7.2813025763
 21
29.9577706817
 31
0.0
 40
0.2185348453
 41
0.8828044451
 42
0.8934559291
  0
ELLIPSE
  5
65B
100
AcDbEntity
  8
0
100
AcDbEllipse
 62
7
  6
CONTINUOUS
 10
196.0654067503
 20
190.3218998148
 30
0.0
 11
-7.4512804227
 21
29.9540928802
 31
0.0
 40
0.222647864
 41
-0.9241568639
 42
-0.7572966906
  0
ELLIPSE
  5
65C
100
AcDbEntity
  8
0
100
AcDbEllipse
 62
7
  6
CONTINUOUS
 10
213.0966579983
 20
190.3218998148
 30
0.0
 11
87.9784182598
 21
-22.400972551
 31
0.0
 40
0.226815396
 41
1.6870278261
 42
1.690580388
  0
ELLIPSE
  5
65D
100
AcDbEntity
  8
0
100
AcDbEllipse
 62
7
  6
CONTINUOUS
 10
209.6591508581
 20
190.3218998148
 30
0.0
 11
27.0190404063
 21
-27.8356858417
 31
0.0
 40
0.4140837374
 41
8.3086472848
 42
8.3157502351
  0
ELLIPSE
  5
65E
100
AcDbEntity
  8
0
100
AcDbEllipse
 62
7
  6
CONTINUOUS
 10
208.652215352
 20
190.3218998148
 30
0.0
 11
-7.2812969938
 21
29.9577707991
 31
0.0
 40
0.2185347093
 41
5.4908369835
 42
5.4961628327
  0
ELLIPSE
  5
65F
100
AcDbEntity
  8
0
100
AcDbEllipse
 62
7
  6
CONTINUOUS
 10
202.5287001435
 20
190.3218998148
 30
0.0
 11
-8.4405214337
 21
29.928351105
 31
0.0
 40
0.2455000786
 41
-0.9379549129
 42
-0.8633901896
  0
ELLIPSE
  5
660
100
AcDbEntity
  8
0
100
AcDbEllipse
 62
7
  6
CONTINUOUS
 10
208.6174911329
 20
190.3218998148
 30
0.0
 11
87.9784182598
 21
-22.400972551
 31
0.0
 40
0.226815396
 41
1.690580388
 42
1.6941337347
  0
ELLIPSE
  5
661
100
AcDbEntity
  8
0
100
AcDbEllipse
 62
7
  6
CONTINUOUS
 10
204.9716554775
 20
190.3218998148
 30
0.0
 11
27.0191341826
 21
-27.835669851
 31
0.0
 40
0.4140837726
 41
8.3121969836
 42
8.3193013677
  0
ELLIPSE
  5
662
100
AcDbEntity
  8
0
100
AcDbEllipse
 62
7
  6
CONTINUOUS
 10
203.8952689604
 20
190.3218998148
 30
0.0
 11
-7.2812588275
 21
29.9577716017
 31
0.0
 40
0.2185337797
 41
5.4926557215
 42
5.4997144651
  0
ELLIPSE
  5
663
100
AcDbEntity
  8
0
100
AcDbEllipse
 62
7
  6
CONTINUOUS
 10
206.8466571228
 20
190.3218998148
 30
0.0
 11
87.9784182598
 21
-22.400972551
 31
0.0
 40
0.226815396
 41
1.6160720835
 42
1.6196183849
  0
ELLIPSE
  5
664
100
AcDbEntity
  8
0
100
AcDbEllipse
 62
7
  6
CONTINUOUS
 10
207.5758251803
 20
190.3218998148
 30
0.0
 11
27.0190404063
 21
-27.8356858417
 31
0.0
 40
0.4140837374
 41
8.2377013767
 42
8.2447944924
  0
ELLIPSE
  5
665
100
AcDbEntity
  8
0
100
AcDbEllipse
 62
7
  6
CONTINUOUS
 10
207.9577660714
 20
190.3218998148
 30
0.0
 11
-7.2813007154
 21
29.9577707209
 31
0.0
 40
0.2185348
 41
5.4177725579
 42
5.4252168754
  0
ELLIPSE
  5
666
100
AcDbEntity
  8
0
100
AcDbEllipse
 62
7
  6
CONTINUOUS
 10
211.1174905025
 20
190.3218998148
 30
0.0
 11
27.019194607
 21
27.8356595475
 31
0.0
 40
0.4140837954
 41
1.1693472042
 42
1.1941730366
  0
ELLIPSE
  5
667
100
AcDbEntity
  8
0
100
AcDbEllipse
 62
7
  6
CONTINUOUS
 10
211.0314397356
 20
190.3218998148
 30
0.0
 11
-15.8996802416
 21
29.4395202966
 31
0.0
 40
0.3630188717
 41
-1.0624315659
 42
-0.9807745297
  0
ELLIPSE
  5
668
100
AcDbEntity
  8
0
100
AcDbEllipse
 62
7
  6
CONTINUOUS
 10
198.5654066758
 20
190.3218998148
 30
0.0
 11
7.4512796911
 21
29.9540928965
 31
0.0
 40
0.2226478464
 41
0.7572966808
 42
0.9241568541
  0
ELLIPSE
  5
669
100
AcDbEntity
  8
0
100
AcDbEllipse
 62
7
  6
CONTINUOUS
 10
211.1421607795
 20
190.3218998148
 30
0.0
 11
25.2941797644
 21
28.1264814737
 31
0.0
 40
0.4125678793
 41
1.0572473417
 42
1.1178608356
  0
ELLIPSE
  5
66A
100
AcDbEntity
  8
0
100
AcDbEllipse
 62
7
  6
CONTINUOUS
 10
203.3570732431
 20
190.3218998148
 30
0.0
 11
58.2728867365
 21
23.7390307282
 31
0.0
 40
0.3147742283
 41
1.4379413899
 42
1.4423062027
  0
ELLIPSE
  5
66B
100
AcDbEntity
  8
0
100
AcDbEllipse
 62
7
  6
CONTINUOUS
 10
211.169570801
 20
37.3191989547
 30
0.0
 11
37.7964658784
 21
-26.0329373929
 31
0.0
 40
0.3944618695
 41
-1.3853801705
 42
-1.3747122019
  0
ELLIPSE
  5
66C
100
AcDbEntity
  8
0
100
AcDbEllipse
 62
7
  6
CONTINUOUS
 10
219.7633337919
 20
37.3191989547
 30
0.0
 11
146.8432119128
 21
-21.6508141947
 31
0.0
 40
0.1414186782
 41
-1.6333784227
 42
-1.6298204683
  0
ELLIPSE
  5
66D
100
AcDbEntity
  8
0
100
AcDbEllipse
 62
7
  6
CONTINUOUS
 10
205.193011111
 20
37.3191989547
 30
0.0
 11
-18.9178842627
 21
29.0873196692
 31
0.0
 40
0.3881806888
 41
-4.2434931733
 42
-4.2292812653
  0
ELLIPSE
  5
66E
100
AcDbEntity
  8
0
100
AcDbEllipse
 62
7
  6
CONTINUOUS
 10
206.377908406
 20
37.3191989547
 30
0.0
 11
37.7965263583
 21
-26.0329280842
 31
0.0
 40
0.3944616684
 41
-1.3853807949
 42
-1.3747128263
  0
ELLIPSE
  5
66F
100
AcDbEntity
  8
0
100
AcDbEllipse
 62
7
  6
CONTINUOUS
 10
214.9716535155
 20
37.3191989547
 30
0.0
 11
146.8430437183
 21
-21.6508151845
 31
0.0
 40
0.1414188332
 41
-1.633378375
 42
-1.6298204206
  0
ELLIPSE
  5
670
100
AcDbEntity
  8
0
100
AcDbEllipse
 62
7
  6
CONTINUOUS
 10
208.6174885423
 20
37.3191989547
 30
0.0
 11
-7.2813007154
 21
29.9577707209
 31
0.0
 40
0.2185348
 41
-3.9640981827
 42
-3.9534574221
  0
ELLIPSE
  5
671
100
AcDbEntity
  8
0
100
AcDbEllipse
 62
7
  6
CONTINUOUS
 10
208.4221771614
 20
37.3191989547
 30
0.0
 11
-18.9178842627
 21
29.0873196692
 31
0.0
 40
0.3881806888
 41
-4.1677171568
 42
-4.1583308875
  0
ELLIPSE
  5
672
100
AcDbEntity
  8
0
100
AcDbEllipse
 62
7
  6
CONTINUOUS
 10
207.9230434951
 20
37.3191989547
 30
0.0
 11
7.2813044371
 21
29.9577706426
 31
0.0
 40
0.2185348906
 41
-2.280077269
 42
-2.2744303748
  0
ELLIPSE
  5
673
100
AcDbEntity
  8
0
100
AcDbEllipse
 62
7
  6
CONTINUOUS
 10
207.471658911
 20
37.3191989547
 30
0.0
 11
27.0190404063
 21
27.8356858417
 31
0.0
 40
0.4140837374
 41
-1.9580627277
 42
-1.9509691658
  0
ELLIPSE
  5
674
100
AcDbEntity
  8
0
100
AcDbEllipse
 62
7
  6
CONTINUOUS
 10
206.5341571228
 20
37.3191989547
 30
0.0
 11
87.9784182598
 21
22.400972551
 31
0.0
 40
0.226815396
 41
-1.6160720835
 42
-1.612525626
  0
ELLIPSE
  5
675
100
AcDbEntity
  8
0
100
AcDbEllipse
 62
7
  6
CONTINUOUS
 10
208.6522157735
 20
37.3191989547
 30
0.0
 11
7.2813044371
 21
29.9577706426
 31
0.0
 40
0.2185348906
 41
-2.3545700758
 42
-2.347428719
  0
ELLIPSE
  5
676
100
AcDbEntity
  8
0
100
AcDbEllipse
 62
7
  6
CONTINUOUS
 10
209.6591501833
 20
37.3191989547
 30
0.0
 11
27.0190289285
 21
27.8356877989
 31
0.0
 40
0.4140837331
 41
-2.0325651004
 42
-2.0254621476
  0
ELLIPSE
  5
677
100
AcDbEntity
  8
0
100
AcDbEllipse
 62
7
  6
CONTINUOUS
 10
213.0966577794
 20
37.3191989547
 30
0.0
 11
87.9784182598
 21
22.400972551
 31
0.0
 40
0.226815396
 41
-1.6905803855
 42
-1.6870278236
  0
ELLIPSE
  5
678
100
AcDbEntity
  8
0
100
AcDbEllipse
 62
7
  6
CONTINUOUS
 10
203.2325260945
 20
37.3191989547
 30
0.0
 11
-8.6981613786
 21
29.9203580659
 31
0.0
 40
0.2511485286
 41
-3.9840167234
 42
-3.9164429171
  0
ELLIPSE
  5
679
100
AcDbEntity
  8
0
100
AcDbEllipse
 62
7
  6
CONTINUOUS
 10
197.9378660045
 20
37.3191989547
 30
0.0
 11
7.4762385105
 21
29.9535352632
 31
0.0
 40
0.2232471849
 41
-2.3626274134
 42
-2.2171006895
  0
ELLIPSE
  5
67A
100
AcDbEntity
  8
0
100
AcDbEllipse
 62
7
  6
CONTINUOUS
 10
203.1313785172
 20
37.3191989547
 30
0.0
 11
7.2812588275
 21
29.9577716017
 31
0.0
 40
0.2185337797
 41
-2.2800778717
 42
-2.2726831091
  0
ELLIPSE
  5
67B
100
AcDbEntity
  8
0
100
AcDbEllipse
 62
7
  6
CONTINUOUS
 10
202.6799907045
 20
37.3191989547
 30
0.0
 11
27.0191341826
 21
27.835669851
 31
0.0
 40
0.4140837726
 41
-1.9580612985
 42
-1.9509677366
  0
ELLIPSE
  5
67C
100
AcDbEntity
  8
0
100
AcDbEllipse
 62
7
  6
CONTINUOUS
 10
211.887578917
 20
37.3191989547
 30
0.0
 11
-15.6198944909
 21
29.4678949818
 31
0.0
 40
0.3601321255
 41
-4.121588603
 42
-4.0321847792
  0
ELLIPSE
  5
67D
100
AcDbEntity
  8
0
100
AcDbEllipse
 62
7
  6
CONTINUOUS
 10
210.2864208096
 20
37.3191989547
 30
0.0
 11
25.5940651333
 21
28.0764823915
 31
0.0
 40
0.4129609291
 41
-1.9943814808
 42
-1.9127244445
  0
ELLIPSE
  5
67E
100
AcDbEntity
  8
0
100
AcDbEllipse
 62
7
  6
CONTINUOUS
 10
201.7424902575
 20
37.3191989547
 30
0.0
 11
87.9784182598
 21
22.400972551
 31
0.0
 40
0.226815396
 41
-1.6160720835
 42
-1.612525626
  0
ELLIPSE
  5
67F
100
AcDbEntity
  8
0
100
AcDbEllipse
 62
7
  6
CONTINUOUS
 10
196.6929473471
 20
37.3191989547
 30
0.0
 11
-7.4762385105
 21
29.9535352632
 31
0.0
 40
0.2232471849
 41
-4.0660846177
 42
-3.9205578938
  0
ELLIPSE
  5
680
100
AcDbEntity
  8
0
100
AcDbEllipse
 62
7
  6
CONTINUOUS
 10
204.5202689604
 20
37.3191989547
 30
0.0
 11
-7.2812588275
 21
29.9577716017
 31
0.0
 40
0.2185337797
 41
-4.035048007
 42
-4.0243965255
  0
ELLIPSE
  5
681
100
AcDbEntity
  8
0
100
AcDbEllipse
 62
7
  6
CONTINUOUS
 10
209.3119383092
 20
37.3191989547
 30
0.0
 11
-7.2813044371
 21
29.9577706426
 31
0.0
 40
0.2185348906
 41
-4.0350486098
 42
-4.0243971282
  0
ELLIPSE
  5
682
100
AcDbEntity
  8
0
100
AcDbEllipse
 62
7
  6
CONTINUOUS
 10
209.9846773803
 20
37.3191989547
 30
0.0
 11
-18.9178842627
 21
29.0873196692
 31
0.0
 40
0.3881806888
 41
-4.2434931733
 42
-4.2292812653
  0
ELLIPSE
  5
683
100
AcDbEntity
  8
0
100
AcDbEllipse
 62
7
  6
CONTINUOUS
 10
61.1200946228
 20
37.3191989547
 30
0.0
 11
18.9178842627
 21
29.0873196692
 31
0.0
 40
0.3881806888
 41
-2.128401078
 42
-2.1190292543
  0
ELLIPSE
  5
684
100
AcDbEntity
  8
0
100
AcDbEllipse
 62
7
  6
CONTINUOUS
 10
60.881380802
 20
37.3191989547
 30
0.0
 11
7.2813044371
 21
29.9577706426
 31
0.0
 40
0.2185348906
 41
-2.3332753595
 42
-2.3226337336
  0
ELLIPSE
  5
685
100
AcDbEntity
  8
0
100
AcDbEllipse
 62
7
  6
CONTINUOUS
 10
65.9117608921
 20
37.3191989547
 30
0.0
 11
18.9178842627
 21
29.0873196692
 31
0.0
 40
0.3881806888
 41
-2.128401078
 42
-2.1142154709
  0
ELLIPSE
  5
686
100
AcDbEntity
  8
0
100
AcDbEllipse
 62
7
  6
CONTINUOUS
 10
65.6730459786
 20
37.3191989547
 30
0.0
 11
7.2812588275
 21
29.9577716017
 31
0.0
 40
0.2185337797
 41
-2.3332759622
 42
-2.3226343363
  0
ELLIPSE
  5
687
100
AcDbEntity
  8
0
100
AcDbEllipse
 62
7
  6
CONTINUOUS
 10
70.8987401085
 20
37.3191989547
 30
0.0
 11
7.4512796911
 21
29.9540928965
 31
0.0
 40
0.2226478464
 41
-2.3842959728
 42
-2.2174357995
  0
ELLIPSE
  5
688
100
AcDbEntity
  8
0
100
AcDbEllipse
 62
7
  6
CONTINUOUS
 10
73.3987400339
 20
37.3191989547
 30
0.0
 11
-7.4512804227
 21
29.9540928802
 31
0.0
 40
0.222647864
 41
-4.0657495175
 42
-3.8988893442
  0
ELLIPSE
  5
689
100
AcDbEntity
  8
0
100
AcDbEllipse
 62
7
  6
CONTINUOUS
 10
49.7008140639
 20
37.3191989547
 30
0.0
 11
146.8431990464
 21
21.6508142704
 31
0.0
 40
0.1414186901
 41
-1.5117721893
 42
-1.5082142345
  0
ELLIPSE
  5
68A
100
AcDbEntity
  8
0
100
AcDbEllipse
 62
7
  6
CONTINUOUS
 10
58.294576269
 20
37.3191989547
 30
0.0
 11
37.7964621771
 21
26.0329379626
 31
0.0
 40
0.3944618819
 41
-1.7668804911
 42
-1.7562125216
  0
ELLIPSE
  5
68B
100
AcDbEntity
  8
0
100
AcDbEllipse
 62
7
  6
CONTINUOUS
 10
59.4794695647
 20
37.3191989547
 30
0.0
 11
18.9178821936
 21
29.0873199378
 31
0.0
 40
0.388180675
 41
-2.0539040809
 42
-2.0396921717
  0
ELLIPSE
  5
68C
100
AcDbEntity
  8
0
100
AcDbEllipse
 62
7
  6
CONTINUOUS
 10
60.152208625
 20
37.3191989547
 30
0.0
 11
7.2813025763
 21
29.9577706817
 31
0.0
 40
0.2185348453
 41
-2.2587882085
 42
-2.2481367245
  0
ELLIPSE
  5
68D
100
AcDbEntity
  8
0
100
AcDbEllipse
 62
7
  6
CONTINUOUS
 10
56.367488786
 20
37.3191989547
 30
0.0
 11
87.9784182598
 21
-22.400972551
 31
0.0
 40
0.226815396
 41
-1.4545648275
 42
-1.4510122656
  0
ELLIPSE
  5
68E
100
AcDbEntity
  8
0
100
AcDbEllipse
 62
7
  6
CONTINUOUS
 10
59.8049959261
 20
37.3191989547
 30
0.0
 11
27.0190404063
 21
-27.8356858417
 31
0.0
 40
0.4140837374
 41
5.1670546312
 42
5.1741575815
  0
ELLIPSE
  5
68F
100
AcDbEntity
  8
0
100
AcDbEllipse
 62
7
  6
CONTINUOUS
 10
60.8119314323
 20
37.3191989547
 30
0.0
 11
-7.2812969938
 21
29.9577707991
 31
0.0
 40
0.2185347093
 41
2.3492443299
 42
2.3545701791
  0
ELLIPSE
  5
690
100
AcDbEntity
  8
0
100
AcDbEllipse
 62
7
  6
CONTINUOUS
 10
66.9354466407
 20
37.3191989547
 30
0.0
 11
-8.4405214337
 21
29.928351105
 31
0.0
 40
0.2455000786
 41
-4.0795475665
 42
-4.0049828432
  0
ELLIPSE
  5
691
100
AcDbEntity
  8
0
100
AcDbEllipse
 62
7
  6
CONTINUOUS
 10
60.8466556513
 20
37.3191989547
 30
0.0
 11
87.9784182598
 21
-22.400972551
 31
0.0
 40
0.226815396
 41
-1.4510122656
 42
-1.4474589189
  0
ELLIPSE
  5
692
100
AcDbEntity
  8
0
100
AcDbEllipse
 62
7
  6
CONTINUOUS
 10
64.4924913068
 20
37.3191989547
 30
0.0
 11
27.0191341826
 21
-27.835669851
 31
0.0
 40
0.4140837726
 41
5.17060433
 42
5.1777087141
  0
ELLIPSE
  5
693
100
AcDbEntity
  8
0
100
AcDbEllipse
 62
7
  6
CONTINUOUS
 10
65.5688778239
 20
37.3191989547
 30
0.0
 11
-7.2812588275
 21
29.9577716017
 31
0.0
 40
0.2185337797
 41
2.3510630679
 42
2.3581218115
  0
ELLIPSE
  5
694
100
AcDbEntity
  8
0
100
AcDbEllipse
 62
7
  6
CONTINUOUS
 10
62.6174896614
 20
37.3191989547
 30
0.0
 11
87.9784182598
 21
-22.400972551
 31
0.0
 40
0.226815396
 41
-1.5255205701
 42
-1.5219742687
  0
ELLIPSE
  5
695
100
AcDbEntity
  8
0
100
AcDbEllipse
 62
7
  6
CONTINUOUS
 10
61.888321604
 20
37.3191989547
 30
0.0
 11
27.0190404063
 21
-27.8356858417
 31
0.0
 40
0.4140837374
 41
5.0961087231
 42
5.1032018389
  0
ELLIPSE
  5
696
100
AcDbEntity
  8
0
100
AcDbEllipse
 62
7
  6
CONTINUOUS
 10
61.5063807129
 20
37.3191989547
 30
0.0
 11
-7.2813007154
 21
29.9577707209
 31
0.0
 40
0.2185348
 41
2.2761799044
 42
2.2836242218
  0
ELLIPSE
  5
697
100
AcDbEntity
  8
0
100
AcDbEllipse
 62
7
  6
CONTINUOUS
 10
58.3466562817
 20
37.3191989547
 30
0.0
 11
27.019194607
 21
27.8356595475
 31
0.0
 40
0.4140837954
 41
-1.9722454494
 42
-1.947419617
  0
ELLIPSE
  5
698
100
AcDbEntity
  8
0
100
AcDbEllipse
 62
7
  6
CONTINUOUS
 10
58.4327070486
 20
37.3191989547
 30
0.0
 11
-15.8996802416
 21
29.4395202966
 31
0.0
 40
0.3630188717
 41
-4.2040242195
 42
-4.1223671833
  0
ELLIPSE
  5
699
100
AcDbEntity
  8
0
100
AcDbEllipse
 62
7
  6
CONTINUOUS
 10
58.3219860047
 20
37.3191989547
 30
0.0
 11
25.2941797644
 21
28.1264814737
 31
0.0
 40
0.4125678793
 41
-2.0843453119
 42
-2.023731818
  0
ELLIPSE
  5
69A
100
AcDbEntity
  8
0
100
AcDbEllipse
 62
7
  6
CONTINUOUS
 10
66.1070735411
 20
37.3191989547
 30
0.0
 11
58.2728867365
 21
23.7390307282
 31
0.0
 40
0.3147742283
 41
-1.7036512637
 42
-1.6992864509
  0
ELLIPSE
  5
69B
100
AcDbEntity
  8
0
100
AcDbEllipse
 62
7
  6
CONTINUOUS
 10
161.6686300187
 20
21.8191989547
 30
0.0
 11
-0.0
 21
30.5
 31
0.0
 40
0.6527784911
 41
-0.0069536286
 42
0.0
  0
ELLIPSE
  5
69C
100
AcDbEntity
  8
0
100
AcDbEllipse
 62
7
  6
CONTINUOUS
 10
107.7955167655
 20
52.8191989547
 30
0.0
 11
-0.0
 21
30.5
 31
0.0
 40
0.6527784911
 41
-3.1485462822
 42
-3.1415926536
  0
ELLIPSE
  5
69D
100
AcDbEntity
  8
0
100
AcDbEllipse
 62
7
  6
CONTINUOUS
 10
160.351413322
 20
21.8191989547
 30
0.0
 11
119.4582336495
 21
-0.0
 31
0.0
 40
0.255319362
 41
1.5512848383
 42
1.5554710357
  0
ELLIPSE
  5
69E
100
AcDbEntity
  8
0
100
AcDbEllipse
 62
7
  6
CONTINUOUS
 10
171.6840767917
 20
21.8191989547
 30
0.0
 11
89.5937606804
 21
0.0
 31
0.0
 40
0.3404254913
 41
1.5470982989
 42
1.5512848383
  0
ELLIPSE
  5
69F
100
AcDbEntity
  8
0
100
AcDbEllipse
 62
7
  6
CONTINUOUS
 10
109.1127334622
 20
52.8191989547
 30
0.0
 11
119.4582336495
 21
-0.0
 31
0.0
 40
0.255319362
 41
-1.5903078153
 42
-1.5861216179
  0
ELLIPSE
  5
6A0
100
AcDbEntity
  8
0
100
AcDbEllipse
 62
7
  6
CONTINUOUS
 10
97.7800699925
 20
52.8191989547
 30
0.0
 11
89.5937606804
 21
0.0
 31
0.0
 40
0.3404254913
 41
-1.5944943547
 42
-1.5903078153
  0
ELLIPSE
  5
6A1
100
AcDbEntity
  8
0
100
AcDbEllipse
 62
7
  6
CONTINUOUS
 10
156.0187404424
 20
21.8191989547
 30
0.0
 11
149.3230483917
 21
0.0
 31
0.0
 40
0.204255139
 41
1.5261578974
 42
1.5303472506
  0
ELLIPSE
  5
6A2
100
AcDbEntity
  8
0
100
AcDbEllipse
 62
7
  6
CONTINUOUS
 10
159.6417440723
 20
21.8191989547
 30
0.0
 11
59.7291168248
 21
0.0
 31
0.0
 40
0.510638724
 41
1.5303472506
 42
1.5387239001
  0
ELLIPSE
  5
6A3
100
AcDbEntity
  8
0
100
AcDbEllipse
 62
7
  6
CONTINUOUS
 10
160.5994087322
 20
21.8191989547
 30
0.0
 11
-0.0
 21
30.5
 31
0.0
 40
0.9791658496
 41
-0.0320724267
 42
-0.0153252911
  0
ELLIPSE
  5
6A4
100
AcDbEntity
  8
0
100
AcDbEllipse
 62
7
  6
CONTINUOUS
 10
167.2687442552
 20
21.8191989547
 30
0.0
 11
149.3229629484
 21
0.0
 31
0.0
 40
0.2042552558
 41
1.5261578974
 42
1.5303472506
  0
ELLIPSE
  5
6A5
100
AcDbEntity
  8
0
100
AcDbEllipse
 62
7
  6
CONTINUOUS
 10
171.6968528925
 20
21.8191989547
 30
0.0
 11
39.8194396976
 21
0.0
 31
0.0
 40
0.7659575381
 41
1.5303472506
 42
1.542911344
  0
ELLIPSE
  5
6A6
100
AcDbEntity
  8
0
100
AcDbEllipse
 62
7
  6
CONTINUOUS
 10
172.1825742122
 20
21.8191989547
 30
0.0
 11
-0.0
 21
30.5
 31
0.0
 40
0.7343750875
 41
-0.0278849828
 42
-0.0111393623
  0
ELLIPSE
  5
6A7
100
AcDbEntity
  8
0
100
AcDbEllipse
 62
7
  6
CONTINUOUS
 10
172.1825742122
 20
21.8191989547
 30
0.0
 11
-0.0
 21
30.0
 31
0.0
 40
0.7343750875
 41
-0.0283498561
 42
-0.0113250262
  0
ELLIPSE
  5
6A8
100
AcDbEntity
  8
0
100
AcDbEllipse
 62
7
  6
CONTINUOUS
 10
171.6968528925
 20
21.8191989547
 30
0.0
 11
39.1666619976
 21
-0.0
 31
0.0
 40
0.7659575381
 41
1.5296727221
 42
1.5424464707
  0
ELLIPSE
  5
6A9
100
AcDbEntity
  8
0
100
AcDbEllipse
 62
7
  6
CONTINUOUS
 10
167.2687442552
 20
21.8191989547
 30
0.0
 11
146.8750455231
 21
-0.0
 31
0.0
 40
0.2042552558
 41
1.5254134166
 42
1.5296727221
  0
ELLIPSE
  5
6AA
100
AcDbEntity
  8
0
100
AcDbEllipse
 62
7
  6
CONTINUOUS
 10
160.5994087322
 20
21.8191989547
 30
0.0
 11
-0.0
 21
30.0
 31
0.0
 40
0.9791658496
 41
-0.0326071552
 42
-0.0155807331
  0
ELLIPSE
  5
6AB
100
AcDbEntity
  8
0
100
AcDbEllipse
 62
7
  6
CONTINUOUS
 10
159.6417440723
 20
21.8191989547
 30
0.0
 11
58.7499509752
 21
0.0
 31
0.0
 40
0.510638724
 41
1.5296727221
 42
1.5381891716
  0
ELLIPSE
  5
6AC
100
AcDbEntity
  8
0
100
AcDbEllipse
 62
7
  6
CONTINUOUS
 10
156.0187404424
 20
21.8191989547
 30
0.0
 11
146.8751295656
 21
0.0
 31
0.0
 40
0.204255139
 41
1.5254134166
 42
1.5296727221
  0
ELLIPSE
  5
6AD
100
AcDbEntity
  8
0
100
AcDbEllipse
 62
7
  6
CONTINUOUS
 10
113.4454063418
 20
52.8191989547
 30
0.0
 11
149.3230483917
 21
-0.0
 31
0.0
 40
0.204255139
 41
-1.6154347561
 42
-1.611245403
  0
ELLIPSE
  5
6AE
100
AcDbEntity
  8
0
100
AcDbEllipse
 62
7
  6
CONTINUOUS
 10
109.8224027119
 20
52.8191989547
 30
0.0
 11
59.7291168248
 21
0.0
 31
0.0
 40
0.510638724
 41
-1.611245403
 42
-1.6028687535
  0
ELLIPSE
  5
6AF
100
AcDbEntity
  8
0
100
AcDbEllipse
 62
7
  6
CONTINUOUS
 10
108.864738052
 20
52.8191989547
 30
0.0
 11
-0.0
 21
30.5
 31
0.0
 40
0.9791658496
 41
-3.1736650803
 42
-3.1569179447
  0
ELLIPSE
  5
6B0
100
AcDbEntity
  8
0
100
AcDbEllipse
 62
7
  6
CONTINUOUS
 10
102.195402529
 20
52.8191989547
 30
0.0
 11
149.3229629484
 21
-0.0
 31
0.0
 40
0.2042552558
 41
-1.6154347561
 42
-1.611245403
  0
ELLIPSE
  5
6B1
100
AcDbEntity
  8
0
100
AcDbEllipse
 62
7
  6
CONTINUOUS
 10
97.7672938917
 20
52.8191989547
 30
0.0
 11
39.8194396976
 21
-0.0
 31
0.0
 40
0.7659575381
 41
-1.611245403
 42
-1.5986813096
  0
ELLIPSE
  5
6B2
100
AcDbEntity
  8
0
100
AcDbEllipse
 62
7
  6
CONTINUOUS
 10
97.281572572
 20
52.8191989547
 30
0.0
 11
-0.0
 21
30.5
 31
0.0
 40
0.7343750875
 41
-3.1694776364
 42
-3.1527320159
  0
ELLIPSE
  5
6B3
100
AcDbEntity
  8
0
100
AcDbEllipse
 62
7
  6
CONTINUOUS
 10
172.3211849735
 20
21.8191989547
 30
0.0
 11
-0.0
 21
30.0
 31
0.0
 40
0.3263886165
 41
-0.0113250262
 42
-0.0
  0
ELLIPSE
  5
6B4
100
AcDbEntity
  8
0
100
AcDbEllipse
 62
7
  6
CONTINUOUS
 10
97.1429618108
 20
52.8191989547
 30
0.0
 11
-0.0
 21
30.0
 31
0.0
 40
0.3263886165
 41
-3.1529176798
 42
-3.1415926536
  0
ELLIPSE
  5
6B5
100
AcDbEntity
  8
0
100
AcDbEllipse
 62
7
  6
CONTINUOUS
 10
108.6359061383
 20
52.8191989547
 30
0.0
 11
0.0
 21
30.0
 31
0.0
 40
0.4895843255
 41
-3.1571733867
 42
-3.1415926536
  0
ELLIPSE
  5
6B6
100
AcDbEntity
  8
0
100
AcDbEllipse
 62
7
  6
CONTINUOUS
 10
97.281572572
 20
52.8191989547
 30
0.0
 11
0.0
 21
30.0
 31
0.0
 40
0.7343750875
 41
-3.1699425097
 42
-3.1529176798
  0
ELLIPSE
  5
6B7
100
AcDbEntity
  8
0
100
AcDbEllipse
 62
7
  6
CONTINUOUS
 10
97.7672938917
 20
52.8191989547
 30
0.0
 11
39.1666619976
 21
-0.0
 31
0.0
 40
0.7659575381
 41
-1.6119199315
 42
-1.5991461829
  0
ELLIPSE
  5
6B8
100
AcDbEntity
  8
0
100
AcDbEllipse
 62
7
  6
CONTINUOUS
 10
102.195402529
 20
52.8191989547
 30
0.0
 11
146.8750455231
 21
-0.0
 31
0.0
 40
0.2042552558
 41
-1.6161792369
 42
-1.6119199315
  0
ELLIPSE
  5
6B9
100
AcDbEntity
  8
0
100
AcDbEllipse
 62
7
  6
CONTINUOUS
 10
160.8282406459
 20
21.8191989547
 30
0.0
 11
-0.0
 21
30.0
 31
0.0
 40
0.4895843255
 41
-0.0155807331
 42
-0.0
  0
ELLIPSE
  5
6BA
100
AcDbEntity
  8
0
100
AcDbEllipse
 62
7
  6
CONTINUOUS
 10
108.864738052
 20
52.8191989547
 30
0.0
 11
0.0
 21
30.0
 31
0.0
 40
0.9791658496
 41
-3.1741998087
 42
-3.1571733867
  0
ELLIPSE
  5
6BB
100
AcDbEntity
  8
0
100
AcDbEllipse
 62
7
  6
CONTINUOUS
 10
109.8224027119
 20
52.8191989547
 30
0.0
 11
58.7499509752
 21
-0.0
 31
0.0
 40
0.510638724
 41
-1.6119199315
 42
-1.6034034819
  0
ELLIPSE
  5
6BC
100
AcDbEntity
  8
0
100
AcDbEllipse
 62
7
  6
CONTINUOUS
 10
113.4454063418
 20
52.8191989547
 30
0.0
 11
146.8751295656
 21
-0.0
 31
0.0
 40
0.204255139
 41
-1.6161792369
 42
-1.6119199315
  0
ENDSEC
  0
SECTION
  2
OBJECTS
  0
DICTIONARY
  5
C
100
AcDbDictionary
280
0
281
1
  3
ACAD_GROUP
350
D
  3
ACAD_MLINESTYLE
350
17
  3
ACAD_LAYOUT
350
1A
  3
ACAD_PLOTSETTINGS
350
19
  3
ACAD_PLOTSTYLENAME
350
E
  0
DICTIONARY
  5
D
102
{ACAD_REACTORS
330
C
102
}
100
AcDbDictionary
280
0
281
1
  0
ACDBDICTIONARYWDFLT
  5
E
102
{ACAD_REACTORS
330
C
102
}
100
AcDbDictionary
281
1
  3
Normal
350
F
100
AcDbDictionaryWithDefault
340
F
  0
DICTIONARY
  5
17
102
{ACAD_REACTORS
330
C
102
}
100
AcDbDictionary
280
0
281
1
  3
Standard
350
18
  0
DICTIONARY
  5
19
102
{ACAD_REACTORS
330
C
102
}
100
AcDbDictionary
281
1
  0
DICTIONARY
  5
1A
102
{ACAD_REACTORS
330
C
102
}
100
AcDbDictionary
281
1
  3
Model
350
6BD
  3
Layout1
350
6BE
  0
ACDBPLACEHOLDER
  5
F
102
{ACAD_REACTORS
330
E
102
}
  0
MLINESTYLE
  5
18
102
{ACAD_REACTORS
330
17
102
}
100
AcDbMlineStyle
  2
STANDARD
 70
0
  3

 62
256
 51
90.0
 52
90.0
 71
2
 49
0.5
 62
256
  6
BYLAYER
 49
-0.5
 62
256
  6
BYLAYER
  0
LAYOUT
  5
6BD
102
{ACAD_REACTORS
330
1A
102
}
100
AcDbPlotSettings
  1

  2
none_device
  4
ISO_A3_(420.00_x_297.00_MM)
  6

 40
0.0
 41
0.0
 42
0.0
 43
0.0
 44
420.0
 45
297.0
 46
0.0
 47
0.0
 48
0.0
 49
0.0
140
0.0
141
0.0
142
1.0
143
1.0
 70
1024
 72
1
 73
0
 74
0
  7

 75
0
147
1.0
148
0.0
149
0.0
100
AcDbLayout
  1
Model
 70
0
 71
0
 10
0.0
 20
0.0
 11
420.0
 21
297.0
 12
0.0
 22
0.0
 32
0.0
 14
0.0
 24
0.0
 34
0.0
 15
0.0
 25
0.0
 35
0.0
146
0.0
 13
0.0
 23
0.0
 33
0.0
 16
1.0
 26
0.0
 36
0.0
 17
0.0
 27
1.0
 37
0.0
 76
0
330
20F
345
0
346
0
  0
LAYOUT
  5
6BE
102
{ACAD_REACTORS
330
1A
102
}
100
AcDbPlotSettings
  1

  2
none_device
  4
ISO_A3_(420.00_x_297.00_MM)
  6

 40
0.0
 41
0.0
 42
0.0
 43
0.0
 44
420.0
 45
297.0
 46
0.0
 47
0.0
 48
0.0
 49
0.0
140
0.0
141
0.0
142
1.0
143
1.0
 70
0
 72
1
 73
0
 74
0
  7

 75
0
147
1.0
148
0.0
149
0.0
100
AcDbLayout
  1
Layout1
 70
0
 71
1
 10
0.0
 20
0.0
 11
420.0
 21
297.0
 12
0.0
 22
0.0
 32
0.0
 14
0.0
 24
0.0
 34
0.0
 15
0.0
 25
0.0
 35
0.0
146
0.0
 13
0.0
 23
0.0
 33
0.0
 16
1.0
 26
0.0
 36
0.0
 17
0.0
 27
1.0
 37
0.0
 76
0
330
210
345
0
346
0
  0
ENDSEC
  0
EOF
