999
DXF file: VRBS-FIX-50t-7906272-M35252-P-1.dxf
999
Pro/ENGINEER 2011490 by Parametric Technology Corporation
  0
SECTION
  2
HEADER
  9
$ACADVER
  1
AC1015
  9
$DWGCODEPAGE
  3
ANSI_1252
  9
$EXTMAX
 10
1189.0
 20
841.0
 30
0.0
  9
$EXTMIN
 10
0.0
 20
0.0
 30
0.0
  9
$LIMMIN
 10
0.0
 20
0.0
  9
$LIMMAX
 10
1189.0
 20
841.0
  9
$VIEWCTR
 10
594.5
 20
420.5
  9
$VIEWSIZE
 40
841.0
  9
$CLAYER
  8
0
  9
$LTSCALE
 40
65.395
  9
$CELTYPE
  6
BYLAYER
  9
$DIMSCALE
 40
1.0
  9
$DIMASZ
 40
3.5
  9
$DIMEXO
 40
7.43125
  9
$DIMDLI
 40
45.182
  9
$DIMEXE
 40
21.402
  9
$DIMCEN
 40
10.701
  9
$DIMLFAC
 40
1.0
  9
$DIMBLK
  1
_FILLED
  9
$DIMTXT
 40
3.5
  9
$DIMTOL
 70
1
  9
$DIMLIM
 70
0
  9
$DIMTFAC
 40
1.0
  9
$DIMTP
 40
0.005
  9
$DIMTM
 40
0.005
  9
$PDMODE
 70
3
  9
$PDSIZE
 40
0.3125
  9
$HANDSEED
  5
5B9
  9
$TILEMODE
 70
1
  9
$MEASUREMENT
 70
1
  9
$INSUNITS
 70
4
  0
ENDSEC
  0
SECTION
  2
CLASSES
  0
CLASS
  1
ACDBDICTIONARYWDFLT
  2
AcDbDictionaryWithDefault
  3
AutoCAD 2000
 90
0
280
0
281
0
  0
CLASS
  1
ACDBPLACEHOLDER
  2
AcDbPlaceHolder
  3
AutoCAD 2000
 90
0
280
0
281
0
  0
CLASS
  1
LAYOUT
  2
AcDbLayout
  3
AutoCAD 2000
 90
0
280
0
281
0
  0
ENDSEC
  0
SECTION
  2
TABLES
  0
TABLE
  2
VPORT
  5
8
100
AcDbSymbolTable
 70
2
  0
VPORT
  5
1F4
100
AcDbSymbolTableRecord
100
AcDbViewportTableRecord
  2
*ACTIVE
 70
0
 10
0.0
 20
0.0
 11
1.0
 21
1.0
 12
594.5
 22
420.5
 13
0.0
 23
0.0
 14
1.0
 24
1.0
 15
0.0
 25
0.0
 16
0.0
 26
0.0
 36
1.0
 17
0.0
 27
0.0
 37
0.0
 40
841.0
 41
1.4137931034
 42
50.0
 43
0.0
 44
0.0
 50
0.0
 51
0.0
 71
0
 72
100
 73
1
 74
1
 75
0
 76
0
 77
0
 78
0
  0
ENDTAB
  0
TABLE
  2
LTYPE
  5
5
100
AcDbSymbolTable
 70
6
  0
LTYPE
  5
14
100
AcDbSymbolTableRecord
100
AcDbLinetypeTableRecord
  2
BYBLOCK
 70
0
  3

 72
65
 73
0
 40
0.0
  0
LTYPE
  5
15
100
AcDbSymbolTableRecord
100
AcDbLinetypeTableRecord
  2
BYLAYER
 70
0
  3

 72
65
 73
0
 40
0.0
  0
LTYPE
  5
16
100
AcDbSymbolTableRecord
100
AcDbLinetypeTableRecord
  2
CONTINUOUS
 70
64
  3
Solid line
 72
65
 73
0
 40
0.0
  0
LTYPE
  5
1F5
100
AcDbSymbolTableRecord
100
AcDbLinetypeTableRecord
  2
CENTER
 70
64
  3
____ _ ____ _ ____ _ ____ _ ____ _ ____ _ ____
 72
65
 73
4
 40
0.6
 49
0.375
 74
0
 49
-0.075
 74
0
 49
0.075
 74
0
 49
-0.075
 74
0
  0
LTYPE
  5
1F6
100
AcDbSymbolTableRecord
100
AcDbLinetypeTableRecord
  2
HIDDEN
 70
64
  3
- - - - - - - - - - - - - - - - - - - -
 72
65
 73
2
 40
0.2
 49
0.1
 74
0
 49
-0.1
 74
0
  0
LTYPE
  5
1F7
100
AcDbSymbolTableRecord
100
AcDbLinetypeTableRecord
  2
PHANTOM
 70
64
  3
_____ _ _ _____ _ _ _____ _ _ _____
 72
65
 73
6
 40
0.8
 49
0.45
 74
0
 49
-0.05
 74
0
 49
0.1
 74
0
 49
-0.05
 74
0
 49
0.1
 74
0
 49
-0.05
 74
0
  0
LTYPE
  5
1F8
100
AcDbSymbolTableRecord
100
AcDbLinetypeTableRecord
  2
DOT
 70
64
  3
. . . . . . . . . . . . . . . . . . . .
 72
65
 73
2
 40
0.2
 49
0.1
 74
0
 49
-0.1
 74
0
  0
LTYPE
  5
1F9
100
AcDbSymbolTableRecord
100
AcDbLinetypeTableRecord
  2
DASHED
 70
64
  3
- - - - - - - - - - - - - - - - - - - -
 72
65
 73
2
 40
0.2
 49
0.1
 74
0
 49
-0.1
 74
0
  0
ENDTAB
  0
TABLE
  2
LAYER
  5
2
100
AcDbSymbolTable
 70
36
  0
LAYER
  5
10
100
AcDbSymbolTableRecord
100
AcDbLayerTableRecord
  2
0
 70
0
 62
7
  6
CONTINUOUS
370
-3
390
F
  0
LAYER
  5
1FA
100
AcDbSymbolTableRecord
100
AcDbLayerTableRecord
  2
DEFAULT_1
 70
0
 62
7
  6
CENTER
370
-3
390
F
  0
LAYER
  5
1FB
100
AcDbSymbolTableRecord
100
AcDbLayerTableRecord
  2
DEFAULT_2
 70
0
 62
8
  6
HIDDEN
370
-3
390
F
  0
LAYER
  5
1FC
100
AcDbSymbolTableRecord
100
AcDbLayerTableRecord
  2
DEFAULT_3
 70
0
 62
7
  6
PHANTOM
370
-3
390
F
  0
LAYER
  5
1FD
100
AcDbSymbolTableRecord
100
AcDbLayerTableRecord
  2
AUSFORMSCHRAEGEN
 70
0
 62
7
  6
CONTINUOUS
370
-3
390
F
  0
LAYER
  5
1FE
100
AcDbSymbolTableRecord
100
AcDbLayerTableRecord
  2
BEZUGSACHSEN
 70
0
 62
7
  6
CONTINUOUS
370
-3
390
F
  0
LAYER
  5
1FF
100
AcDbSymbolTableRecord
100
AcDbLayerTableRecord
  2
BEZUGSEBENEN
 70
0
 62
7
  6
CONTINUOUS
370
-3
390
F
  0
LAYER
  5
200
100
AcDbSymbolTableRecord
100
AcDbLayerTableRecord
  2
BG_STARTBEZUEGE
 70
0
 62
7
  6
CONTINUOUS
370
-3
390
F
  0
LAYER
  5
201
100
AcDbSymbolTableRecord
100
AcDbLayerTableRecord
  2
BOHRUNGEN
 70
0
 62
7
  6
CONTINUOUS
370
-3
390
F
  0
LAYER
  5
202
100
AcDbSymbolTableRecord
100
AcDbLayerTableRecord
  2
FASEN
 70
0
 62
7
  6
CONTINUOUS
370
-3
390
F
  0
LAYER
  5
203
100
AcDbSymbolTableRecord
100
AcDbLayerTableRecord
  2
FLAECHEN
 70
0
 62
7
  6
CONTINUOUS
370
-3
390
F
  0
LAYER
  5
204
100
AcDbSymbolTableRecord
100
AcDbLayerTableRecord
  2
FLAECHENVERBUND
 70
0
 62
7
  6
CONTINUOUS
370
-3
390
F
  0
LAYER
  5
205
100
AcDbSymbolTableRecord
100
AcDbLayerTableRecord
  2
GEWINDE
 70
0
 62
7
  6
CONTINUOUS
370
-3
390
F
  0
LAYER
  5
206
100
AcDbSymbolTableRecord
100
AcDbLayerTableRecord
  2
HILFEN
 70
0
 62
7
  6
CONTINUOUS
370
-3
390
F
  0
LAYER
  5
207
100
AcDbSymbolTableRecord
100
AcDbLayerTableRecord
  2
KONSTRUKTIONSELEMENTE
 70
0
 62
7
  6
CONTINUOUS
370
-3
390
F
  0
LAYER
  5
208
100
AcDbSymbolTableRecord
100
AcDbLayerTableRecord
  2
KURVEN
 70
0
 62
7
  6
CONTINUOUS
370
-3
390
F
  0
LAYER
  5
209
100
AcDbSymbolTableRecord
100
AcDbLayerTableRecord
  2
NORM
 70
0
 62
7
  6
CONTINUOUS
370
-3
390
F
  0
LAYER
  5
20A
100
AcDbSymbolTableRecord
100
AcDbLayerTableRecord
  2
PLATZIERUNG
 70
0
 62
7
  6
CONTINUOUS
370
-3
390
F
  0
LAYER
  5
20B
100
AcDbSymbolTableRecord
100
AcDbLayerTableRecord
  2
RUNDUNGEN
 70
0
 62
7
  6
CONTINUOUS
370
-3
390
F
  0
LAYER
  5
20C
100
AcDbSymbolTableRecord
100
AcDbLayerTableRecord
  2
TEIL_STARTBEZUEGE
 70
0
 62
7
  6
CONTINUOUS
370
-3
390
F
  0
LAYER
  5
20D
100
AcDbSymbolTableRecord
100
AcDbLayerTableRecord
  2
T_STARTBEZUEGE
 70
0
 62
7
  6
CONTINUOUS
370
-3
390
F
  0
LAYER
  5
20E
100
AcDbSymbolTableRecord
100
AcDbLayerTableRecord
  2
XSEC_DATUMS
 70
0
 62
7
  6
CONTINUOUS
370
-3
390
F
  0
LAYER
  5
20F
100
AcDbSymbolTableRecord
100
AcDbLayerTableRecord
  2
ZEICHNUNGSBEMASSUNGEN
 70
0
 62
7
  6
CONTINUOUS
370
-3
390
F
  0
ENDTAB
  0
TABLE
  2
STYLE
  5
3
100
AcDbSymbolTable
 70
1
  0
STYLE
  5
11
100
AcDbSymbolTableRecord
100
AcDbTextStyleTableRecord
  2
STANDARD
 70
0
 40
0.0
 41
0.7
 50
0.0
 71
0
 42
0.2
  3
txt
  4

  0
STYLE
  5
210
100
AcDbSymbolTableRecord
100
AcDbTextStyleTableRecord
  2
TEXTSTYLE_1
 70
0
 40
0.0
 41
0.8
 50
0.0
 71
0
 42
0.2
  3
gdt
  4

  0
ENDTAB
  0
TABLE
  2
VIEW
  5
6
100
AcDbSymbolTable
 70
0
  0
ENDTAB
  0
TABLE
  2
UCS
  5
7
100
AcDbSymbolTable
 70
0
  0
ENDTAB
  0
TABLE
  2
APPID
  5
9
100
AcDbSymbolTable
 70
1
  0
APPID
  5
211
100
AcDbSymbolTableRecord
100
AcDbRegAppTableRecord
  2
ACAD
 70
0
  0
ENDTAB
  0
TABLE
  2
BLOCK_RECORD
  5
1
100
AcDbSymbolTable
 70
0
  0
BLOCK_RECORD
  5
212
100
AcDbSymbolTableRecord
100
AcDbBlockTableRecord
  2
*Model_Space
  0
BLOCK_RECORD
  5
213
100
AcDbSymbolTableRecord
100
AcDbBlockTableRecord
  2
*Paper_Space
  0
ENDTAB
  0
TABLE
  2
DIMSTYLE
  5
A
100
AcDbSymbolTable
 70
1
100
AcDbDimStyleTable
 71
0
  0
DIMSTYLE
105
214
100
AcDbSymbolTableRecord
100
AcDbDimStyleTableRecord
  2
STANDARD
 70
0
  3

  4

 40
1.0
 41
3.5
 42
0.0625
 43
0.38
 44
0.18
 45
0.0
 46
0.0
 47
0.005
 48
0.005
140
3.5
141
0.09
142
0.0
143
25.4
144
1.0
145
0.0
146
1.0
147
0.09
 71
1.0
 72
0.0
 73
0
 74
0
 75
0
 76
0
 77
1
 78
8
170
0
171
2
172
0
173
0
174
0
175
0
176
0
177
0
178
5
270
2
271
3
272
3
273
2
274
2
275
0
280
0
281
0
282
0
283
1
284
8
285
0
286
0
287
3
288
0
340
11
  0
ENDTAB
  0
ENDSEC
  0
SECTION
  2
BLOCKS
  0
BLOCK
  5
20
100
AcDbEntity
  8
0
100
AcDbBlockBegin
  2
*Model_Space
 70
0
 10
0.0
 20
0.0
 30
0.0
  3
*Model_Space
  1

  0
ENDBLK
  5
21
100
AcDbEntity
  8
0
100
AcDbBlockEnd
  0
BLOCK
  5
1C
100
AcDbEntity
  8
0
100
AcDbBlockBegin
  2
*Paper_Space
 70
0
 10
0.0
 20
0.0
 30
0.0
  3
*Paper_Space
  1

  0
ENDBLK
  5
1D
100
AcDbEntity
  8
0
100
AcDbBlockEnd
  0
ENDSEC
  0
SECTION
  2
ENTITIES
  0
MTEXT
  5
215
100
AcDbEntity
  8
0
100
AcDbMText
 62
5
  6
CONTINUOUS
  7
STANDARD
 71
2
 72
1
 10
398.7176515563
 20
182.8022635215
 30
0.0
 11
1.0
 21
0.0
 31
0.0
 44
0.9
  1
VRBS-FIX 50t
 40
13.0
 41
119.1666666667
  0
MTEXT
  5
216
100
AcDbEntity
  8
0
100
AcDbMText
 62
5
  6
CONTINUOUS
  7
STANDARD
 71
1
 72
1
 10
916.4929276316
 20
537.7889802632
 30
0.0
 11
0.0
 21
1.0
 31
0.0
 44
0.9
  1
VRBS-FIX 50t
 40
13.0
 41
119.1666666667
  0
MTEXT
  5
217
100
AcDbEntity
  8
0
100
AcDbMText
 62
5
  6
CONTINUOUS
  7
STANDARD
 71
2
 72
1
 10
386.1680106128
 20
707.3578208067
 30
0.0
 11
1.0
 21
0.0
 31
0.0
 44
0.9
  1
VRBS-FIX 50t
 40
13.0
 41
119.1666666667
  0
LINE
  5
218
100
AcDbEntity
  8
0
100
AcDbLine
 62
7
  6
CONTINUOUS
 10
0.0
 20
0.0
 11
0.0
 21
841.0
  0
LINE
  5
219
100
AcDbEntity
  8
0
100
AcDbLine
 62
7
  6
CONTINUOUS
 10
0.0
 20
0.0
 11
1189.0
 21
0.0
  0
LINE
  5
21A
100
AcDbEntity
  8
0
100
AcDbLine
 62
7
  6
CONTINUOUS
 10
0.0
 20
841.0
 11
1189.0
 21
841.0
  0
LINE
  5
21B
100
AcDbEntity
  8
0
100
AcDbLine
 62
7
  6
CONTINUOUS
 10
1189.0
 20
0.0
 11
1189.0
 21
841.0
  0
LINE
  5
21C
100
AcDbEntity
  8
0
100
AcDbLine
 62
7
  6
CONTINUOUS
 10
101.513539639
 20
349.1357188627
 11
84.513539639
 21
369.3955299368
  0
LINE
  5
21D
100
AcDbEntity
  8
0
100
AcDbLine
 62
7
  6
CONTINUOUS
 10
84.513539639
 20
369.3955299368
 11
84.513539639
 21
497.1341237286
  0
LINE
  5
21E
100
AcDbEntity
  8
0
100
AcDbLine
 62
7
  6
CONTINUOUS
 10
135.4537856344
 20
404.9493400844
 11
135.4537856344
 21
408.2712819038
  0
LINE
  5
21F
100
AcDbEntity
  8
0
100
AcDbLine
 62
7
  6
CONTINUOUS
 10
135.4537856344
 20
409.5651894186
 11
135.4537856344
 21
415.3408509584
  0
LINE
  5
220
100
AcDbEntity
  8
0
100
AcDbLine
 62
7
  6
CONTINUOUS
 10
135.4537856344
 20
418.8833658122
 11
135.4537856344
 21
422.0496632277
  0
LINE
  5
221
100
AcDbEntity
  8
0
100
AcDbLine
 62
7
  6
CONTINUOUS
 10
141.2609817151
 20
414.8800385852
 11
141.2609817151
 21
419.8360783494
  0
LINE
  5
222
100
AcDbEntity
  8
0
100
AcDbLine
 62
7
  6
CONTINUOUS
 10
142.5915992025
 20
406.7089247138
 11
142.5915992025
 21
408.2205276019
  0
LINE
  5
223
100
AcDbEntity
  8
0
100
AcDbLine
 62
7
  6
CONTINUOUS
 10
143.7701467041
 20
414.835881979
 11
143.7701467041
 21
419.7897961364
  0
LINE
  5
224
100
AcDbEntity
  8
0
100
AcDbLine
 62
7
  6
CONTINUOUS
 10
146.9446210626
 20
414.843280739
 11
146.9446210626
 21
419.8981003415
  0
LINE
  5
225
100
AcDbEntity
  8
0
100
AcDbLine
 62
7
  6
CONTINUOUS
 10
149.4537856344
 20
404.8296861977
 11
149.4537856344
 21
408.0491094709
  0
LINE
  5
226
100
AcDbEntity
  8
0
100
AcDbLine
 62
7
  6
CONTINUOUS
 10
149.4537856344
 20
409.1521927855
 11
149.4537856344
 21
421.7715904406
  0
LINE
  5
227
100
AcDbEntity
  8
0
100
AcDbLine
 62
7
  6
CONTINUOUS
 10
197.513539639
 20
349.1357188627
 11
101.513539639
 21
349.1357188627
  0
LINE
  5
228
100
AcDbEntity
  8
0
100
AcDbLine
 62
7
  6
CONTINUOUS
 10
567.513539639
 20
349.1357188627
 11
663.513539639
 21
349.1357188627
  0
LINE
  5
229
100
AcDbEntity
  8
BEZUGSACHSEN
100
AcDbLine
 62
7
  6
CONTINUOUS
 10
207.513539639
 20
464.1357188627
 11
207.513539639
 21
364.1357188627
  0
LINE
  5
22A
100
AcDbEntity
  8
0
100
AcDbLine
 62
7
  6
CONTINUOUS
 10
211.433539639
 20
573.2907188627
 11
211.433539639
 21
565.7907188627
  0
LINE
  5
22B
100
AcDbEntity
  8
0
100
AcDbLine
 62
7
  6
CONTINUOUS
 10
211.433539639
 20
563.2907194588
 11
211.433539639
 21
561.4157194588
  0
LINE
  5
22C
100
AcDbEntity
  8
0
100
AcDbLine
 62
7
  6
CONTINUOUS
 10
211.433539639
 20
553.9157194588
 11
211.433539639
 21
552.0407185647
  0
LINE
  5
22D
100
AcDbEntity
  8
0
100
AcDbLine
 62
7
  6
CONTINUOUS
 10
211.433539639
 20
545.1657188627
 11
211.433539639
 21
537.6657188627
  0
LINE
  5
22E
100
AcDbEntity
  8
0
100
AcDbLine
 62
7
  6
CONTINUOUS
 10
213.0292841296
 20
539.5407188627
 11
213.0292841296
 21
545.4782185647
  0
LINE
  5
22F
100
AcDbEntity
  8
0
100
AcDbLine
 62
7
  6
CONTINUOUS
 10
213.3484330277
 20
567.6657188627
 11
213.3484330277
 21
573.2907188627
  0
LINE
  5
230
100
AcDbEntity
  8
0
100
AcDbLine
 62
7
  6
CONTINUOUS
 10
217.8165184955
 20
545.4782185647
 11
217.8165184955
 21
539.5407188627
  0
LINE
  5
231
100
AcDbEntity
  8
0
100
AcDbLine
 62
7
  6
CONTINUOUS
 10
211.7526885371
 20
574.8532200548
 11
211.433539639
 21
573.2907188627
  0
LINE
  5
232
100
AcDbEntity
  8
0
100
AcDbLine
 62
7
  6
CONTINUOUS
 10
211.7526885371
 20
546.7282191607
 11
211.433539639
 21
545.1657188627
  0
LINE
  5
233
100
AcDbEntity
  8
0
100
AcDbLine
 62
7
  6
CONTINUOUS
 10
213.3484330277
 20
573.2907188627
 11
213.6675819258
 21
574.5407176706
  0
LINE
  5
234
100
AcDbEntity
  8
BEZUGSACHSEN
100
AcDbLine
 62
7
  6
CONTINUOUS
 10
197.960999541
 20
568.0441335052
 11
248.4927488887
 21
690.0385681108
  0
LINE
  5
235
100
AcDbEntity
  8
BEZUGSACHSEN
100
AcDbLine
 62
7
  6
CONTINUOUS
 10
256.6106903909
 20
698.156509613
 11
376.7732881535
 21
747.9294872963
  0
LINE
  5
236
100
AcDbEntity
  8
BEZUGSACHSEN
100
AcDbLine
 62
7
  6
CONTINUOUS
 10
586.642642438
 20
369.3955299368
 11
569.2848894998
 21
369.3955299368
  0
LINE
  5
237
100
AcDbEntity
  8
0
100
AcDbLine
 62
7
  6
CONTINUOUS
 10
84.513539639
 20
369.3955299368
 11
178.3844368399
 21
369.3955299368
  0
LINE
  5
238
100
AcDbEntity
  8
BEZUGSACHSEN
100
AcDbLine
 62
7
  6
CONTINUOUS
 10
178.3844368399
 20
369.3955299368
 11
195.7421897782
 21
369.3955299368
  0
LINE
  5
239
100
AcDbEntity
  8
0
100
AcDbLine
 62
7
  6
CONTINUOUS
 10
586.642642438
 20
369.3955299368
 11
680.513539639
 21
369.3955299368
  0
LINE
  5
23A
100
AcDbEntity
  8
0
100
AcDbLine
 62
7
  6
CONTINUOUS
 10
557.513539639
 20
382.6357188627
 11
487.513539639
 21
382.6357188627
  0
LINE
  5
23B
100
AcDbEntity
  8
BEZUGSACHSEN
100
AcDbLine
 62
7
  6
CONTINUOUS
 10
277.513539639
 20
382.6357188627
 11
207.513539639
 21
382.6357188627
  0
LINE
  5
23C
100
AcDbEntity
  8
BEZUGSACHSEN
100
AcDbLine
 62
7
  6
CONTINUOUS
 10
487.513539639
 20
382.6357188627
 11
557.513539639
 21
382.6357188627
  0
LINE
  5
23D
100
AcDbEntity
  8
BEZUGSACHSEN
100
AcDbLine
 62
7
  6
CONTINUOUS
 10
207.513539639
 20
464.1357188627
 11
202.2870343262
 21
497.1345746979
  0
LINE
  5
23E
100
AcDbEntity
  8
BEZUGSACHSEN
100
AcDbLine
 62
7
  6
CONTINUOUS
 10
215.3629613675
 20
444.0426078229
 11
197.0038674197
 21
559.9573650441
  0
LINE
  5
23F
100
AcDbEntity
  8
0
100
AcDbLine
 62
7
  6
CONTINUOUS
 10
219.7314118843
 20
539.5407188627
 11
219.7314118843
 21
544.8532187137
  0
LINE
  5
240
100
AcDbEntity
  8
0
100
AcDbLine
 62
7
  6
CONTINUOUS
 10
224.5186460267
 20
573.2907188627
 11
224.5186460267
 21
567.6657188627
  0
LINE
  5
241
100
AcDbEntity
  8
0
100
AcDbLine
 62
7
  6
CONTINUOUS
 10
224.5186460267
 20
558.2907188627
 11
224.5186460267
 21
557.0407182667
  0
LINE
  5
242
100
AcDbEntity
  8
0
100
AcDbLine
 62
7
  6
CONTINUOUS
 10
226.433539639
 20
537.6657188627
 11
226.433539639
 21
539.5407188627
  0
LINE
  5
243
100
AcDbEntity
  8
0
100
AcDbLine
 62
7
  6
CONTINUOUS
 10
226.433539639
 20
547.3532185647
 11
226.433539639
 21
549.5407191607
  0
LINE
  5
244
100
AcDbEntity
  8
0
100
AcDbLine
 62
7
  6
CONTINUOUS
 10
226.433539639
 20
557.0407182667
 11
226.433539639
 21
558.2907188627
  0
LINE
  5
245
100
AcDbEntity
  8
0
100
AcDbLine
 62
7
  6
CONTINUOUS
 10
226.433539639
 20
565.7907188627
 11
226.433539639
 21
573.2907188627
  0
LINE
  5
246
100
AcDbEntity
  8
BEZUGSACHSEN
100
AcDbLine
 62
7
  6
CONTINUOUS
 10
207.513539639
 20
364.1357188627
 11
206.9117307119
 21
360.3360468377
  0
LINE
  5
247
100
AcDbEntity
  8
0
100
AcDbLine
 62
7
  6
CONTINUOUS
 10
226.1143907129
 20
555.4782188627
 11
226.433539639
 21
557.0407182667
  0
LINE
  5
248
100
AcDbEntity
  8
0
100
AcDbLine
 62
7
  6
CONTINUOUS
 10
224.5186460267
 20
557.0407182667
 11
224.1994971286
 21
555.7907194588
  0
LINE
  5
249
100
AcDbEntity
  8
0
100
AcDbLine
 62
7
  6
CONTINUOUS
 10
213.0292841296
 20
545.4782185647
 11
213.3484330277
 21
546.4157185647
  0
LINE
  5
24A
100
AcDbEntity
  8
0
100
AcDbLine
 62
7
  6
CONTINUOUS
 10
212.3909863333
 20
576.1032188627
 11
211.7526885371
 21
574.8532200548
  0
LINE
  5
24B
100
AcDbEntity
  8
0
100
AcDbLine
 62
7
  6
CONTINUOUS
 10
225.4760928328
 20
554.2282182667
 11
226.1143907129
 21
555.4782188627
  0
LINE
  5
24C
100
AcDbEntity
  8
0
100
AcDbLine
 62
7
  6
CONTINUOUS
 10
213.6675819258
 20
574.5407176706
 11
214.3058797221
 21
575.4782176706
  0
LINE
  5
24D
100
AcDbEntity
  8
0
100
AcDbLine
 62
7
  6
CONTINUOUS
 10
178.3844368399
 20
390.1357188627
 11
109.513539639
 21
390.1357188627
  0
LINE
  5
24E
100
AcDbEntity
  8
RUNDUNGEN
100
AcDbLine
 62
7
  6
CONTINUOUS
 10
287.1959980045
 20
390.1357188627
 11
477.8310812735
 21
390.1357188627
  0
LINE
  5
24F
100
AcDbEntity
  8
RUNDUNGEN
100
AcDbLine
 62
7
  6
CONTINUOUS
 10
586.642642438
 20
390.1357188627
 11
655.513539639
 21
390.1357188627
  0
LINE
  5
250
100
AcDbEntity
  8
BEZUGSACHSEN
100
AcDbLine
 62
7
  6
CONTINUOUS
 10
430.013539639
 20
406.9376798355
 11
335.013539639
 21
406.9376798355
  0
LINE
  5
251
100
AcDbEntity
  8
0
100
AcDbLine
 62
7
  6
CONTINUOUS
 10
219.093114088
 20
546.7282191607
 11
218.4548162918
 21
547.9782188627
  0
LINE
  5
252
100
AcDbEntity
  8
0
100
AcDbLine
 62
7
  6
CONTINUOUS
 10
217.4973695974
 20
546.4157185647
 11
217.8165184955
 21
545.4782185647
  0
LINE
  5
253
100
AcDbEntity
  8
0
100
AcDbLine
 62
7
  6
CONTINUOUS
 10
224.1994971286
 20
559.5407194588
 11
224.5186460267
 21
558.2907188627
  0
LINE
  5
254
100
AcDbEntity
  8
0
100
AcDbLine
 62
7
  6
CONTINUOUS
 10
224.1994971286
 20
574.5407176706
 11
224.5186460267
 21
573.2907188627
  0
LINE
  5
255
100
AcDbEntity
  8
0
100
AcDbLine
 62
7
  6
CONTINUOUS
 10
226.433539639
 20
558.2907188627
 11
226.1143907129
 21
559.8532182667
  0
LINE
  5
256
100
AcDbEntity
  8
0
100
AcDbLine
 62
7
  6
CONTINUOUS
 10
226.433539639
 20
573.2907188627
 11
226.1143907129
 21
574.8532200548
  0
LINE
  5
257
100
AcDbEntity
  8
0
100
AcDbLine
 62
7
  6
CONTINUOUS
 10
224.1994971286
 20
555.7907194588
 11
223.5611991088
 21
554.8532194588
  0
LINE
  5
258
100
AcDbEntity
  8
0
100
AcDbLine
 62
7
  6
CONTINUOUS
 10
212.7101352315
 20
547.9782188627
 11
211.7526885371
 21
546.7282191607
  0
LINE
  5
259
100
AcDbEntity
  8
0
100
AcDbLine
 62
7
  6
CONTINUOUS
 10
213.6675819258
 20
577.3532176706
 11
212.3909863333
 21
576.1032188627
  0
LINE
  5
25A
100
AcDbEntity
  8
0
100
AcDbLine
 62
7
  6
CONTINUOUS
 10
213.3484330277
 20
546.4157185647
 11
213.986730824
 21
547.0407188627
  0
LINE
  5
25B
100
AcDbEntity
  8
0
100
AcDbLine
 62
7
  6
CONTINUOUS
 10
362.4354676871
 20
415.7209189936
 11
357.5135397321
 21
415.7209189936
  0
LINE
  5
25C
100
AcDbEntity
  8
0
100
AcDbLine
 62
7
  6
CONTINUOUS
 10
396.5495215325
 20
423.7487541839
 11
399.0783737569
 21
423.7487541839
  0
LINE
  5
25D
100
AcDbEntity
  8
0
100
AcDbLine
 62
7
  6
CONTINUOUS
 10
403.9324121146
 20
423.7487541839
 11
406.9534586339
 21
423.7487541839
  0
LINE
  5
25E
100
AcDbEntity
  8
0
100
AcDbLine
 62
7
  6
CONTINUOUS
 10
406.9534586339
 20
427.380797486
 11
403.9324121146
 21
427.380797486
  0
LINE
  5
25F
100
AcDbEntity
  8
0
100
AcDbLine
 62
7
  6
CONTINUOUS
 10
399.0783737569
 20
427.380797486
 11
396.5495215325
 21
427.380797486
  0
LINE
  5
260
100
AcDbEntity
  8
0
100
AcDbLine
 62
7
  6
CONTINUOUS
 10
363.3010478287
 20
429.0440695688
 11
373.4334306388
 21
429.0440695688
  0
LINE
  5
261
100
AcDbEntity
  8
0
100
AcDbLine
 62
7
  6
CONTINUOUS
 10
403.9324121146
 20
432.2857531115
 11
399.0783737569
 21
432.2857531115
  0
LINE
  5
262
100
AcDbEntity
  8
0
100
AcDbLine
 62
7
  6
CONTINUOUS
 10
358.2772871076
 20
419.8451551005
 11
362.5373007326
 21
419.6584614322
  0
LINE
  5
263
100
AcDbEntity
  8
0
100
AcDbLine
 62
7
  6
CONTINUOUS
 10
216.8590718012
 20
547.0407188627
 11
217.4973695974
 21
546.4157185647
  0
LINE
  5
264
100
AcDbEntity
  8
0
100
AcDbLine
 62
7
  6
CONTINUOUS
 10
223.5611991088
 20
560.4782194588
 11
224.1994971286
 21
559.5407194588
  0
LINE
  5
265
100
AcDbEntity
  8
0
100
AcDbLine
 62
7
  6
CONTINUOUS
 10
223.5611991088
 20
575.4782176706
 11
224.1994971286
 21
574.5407176706
  0
LINE
  5
266
100
AcDbEntity
  8
0
100
AcDbLine
 62
7
  6
CONTINUOUS
 10
226.1143907129
 20
559.8532182667
 11
225.4760928328
 21
561.1032188627
  0
LINE
  5
267
100
AcDbEntity
  8
0
100
AcDbLine
 62
7
  6
CONTINUOUS
 10
226.1143907129
 20
574.8532200548
 11
225.4760928328
 21
576.1032188627
  0
LINE
  5
268
100
AcDbEntity
  8
0
100
AcDbLine
 62
7
  6
CONTINUOUS
 10
224.1994971286
 20
552.9782194588
 11
225.4760928328
 21
554.2282182667
  0
LINE
  5
269
100
AcDbEntity
  8
0
100
AcDbLine
 62
7
  6
CONTINUOUS
 10
213.986730824
 20
548.9157188627
 11
212.7101352315
 21
547.9782188627
  0
LINE
  5
26A
100
AcDbEntity
  8
0
100
AcDbLine
 62
7
  6
CONTINUOUS
 10
214.3058797221
 20
575.4782176706
 11
215.2633273105
 21
576.1032188627
  0
LINE
  5
26B
100
AcDbEntity
  8
0
100
AcDbLine
 62
7
  6
CONTINUOUS
 10
214.9441775183
 20
577.9782188627
 11
213.6675819258
 21
577.3532176706
  0
LINE
  5
26C
100
AcDbEntity
  8
0
100
AcDbLine
 62
7
  6
CONTINUOUS
 10
373.4334306388
 20
433.2871111438
 11
360.0593646585
 21
433.2871111438
  0
LINE
  5
26D
100
AcDbEntity
  8
BEZUGSACHSEN
100
AcDbLine
 62
7
  6
CONTINUOUS
 10
207.513539639
 20
445.6357188627
 11
209.2563895366
 21
445.6357188627
  0
LINE
  5
26E
100
AcDbEntity
  8
BEZUGSACHSEN
100
AcDbLine
 62
7
  6
CONTINUOUS
 10
555.7706897414
 20
445.6357188627
 11
557.513539639
 21
445.6357188627
  0
LINE
  5
26F
100
AcDbEntity
  8
0
100
AcDbLine
 62
7
  6
CONTINUOUS
 10
218.4548162918
 20
547.9782188627
 11
217.1782206993
 21
548.9157188627
  0
LINE
  5
270
100
AcDbEntity
  8
0
100
AcDbLine
 62
7
  6
CONTINUOUS
 10
225.4760928328
 20
561.1032188627
 11
224.1994971286
 21
562.3532194588
  0
LINE
  5
271
100
AcDbEntity
  8
0
100
AcDbLine
 62
7
  6
CONTINUOUS
 10
223.5611991088
 20
554.8532194588
 11
222.6037524144
 21
554.2282182667
  0
LINE
  5
272
100
AcDbEntity
  8
0
100
AcDbLine
 62
7
  6
CONTINUOUS
 10
222.9229013126
 20
552.3532191607
 11
224.1994971286
 21
552.9782194588
  0
LINE
  5
273
100
AcDbEntity
  8
0
100
AcDbLine
 62
7
  6
CONTINUOUS
 10
222.6037524144
 20
561.1032188627
 11
223.5611991088
 21
560.4782194588
  0
LINE
  5
274
100
AcDbEntity
  8
0
100
AcDbLine
 62
7
  6
CONTINUOUS
 10
225.4760928328
 20
576.1032188627
 11
224.1994971286
 21
577.3532176706
  0
LINE
  5
275
100
AcDbEntity
  8
BEZUGSACHSEN
100
AcDbLine
 62
7
  6
CONTINUOUS
 10
335.013539639
 20
406.9376798355
 11
335.013539639
 21
447.1274090275
  0
LINE
  5
276
100
AcDbEntity
  8
0
100
AcDbLine
 62
7
  6
CONTINUOUS
 10
226.433539639
 20
549.5407191607
 11
219.093114088
 21
546.7282191607
  0
LINE
  5
277
100
AcDbEntity
  8
0
100
AcDbLine
 62
7
  6
CONTINUOUS
 10
219.7314118843
 20
544.8532187137
 11
226.433539639
 21
547.3532185647
  0
LINE
  5
278
100
AcDbEntity
  8
0
100
AcDbLine
 62
7
  6
CONTINUOUS
 10
214.9441775183
 20
549.2282185647
 11
213.986730824
 21
548.9157188627
  0
LINE
  5
279
100
AcDbEntity
  8
0
100
AcDbLine
 62
7
  6
CONTINUOUS
 10
213.986730824
 20
547.0407188627
 11
214.9441775183
 21
547.3532185647
  0
LINE
  5
27A
100
AcDbEntity
  8
0
100
AcDbLine
 62
7
  6
CONTINUOUS
 10
202.2870343262
 20
497.1345746979
 11
84.513539639
 21
497.1345746979
  0
LINE
  5
27B
100
AcDbEntity
  8
0
100
AcDbLine
 62
7
  6
CONTINUOUS
 10
562.7400449518
 20
497.1345746979
 11
680.513539639
 21
497.1345746979
  0
LINE
  5
27C
100
AcDbEntity
  8
0
100
AcDbLine
 62
7
  6
CONTINUOUS
 10
215.9016251068
 20
547.3532185647
 11
216.8590718012
 21
547.0407188627
  0
LINE
  5
27D
100
AcDbEntity
  8
0
100
AcDbLine
 62
7
  6
CONTINUOUS
 10
217.1782206993
 20
548.9157188627
 11
216.2207740049
 21
549.2282185647
  0
LINE
  5
27E
100
AcDbEntity
  8
0
100
AcDbLine
 62
7
  6
CONTINUOUS
 10
224.1994971286
 20
562.3532194588
 11
222.9229013126
 21
562.9782188627
  0
LINE
  5
27F
100
AcDbEntity
  8
0
100
AcDbLine
 62
7
  6
CONTINUOUS
 10
222.6037524144
 20
576.1032188627
 11
223.5611991088
 21
575.4782176706
  0
LINE
  5
280
100
AcDbEntity
  8
0
100
AcDbLine
 62
7
  6
CONTINUOUS
 10
221.3271568219
 20
561.4157194588
 11
222.6037524144
 21
561.1032188627
  0
LINE
  5
281
100
AcDbEntity
  8
0
100
AcDbLine
 62
7
  6
CONTINUOUS
 10
224.1994971286
 20
577.3532176706
 11
222.9229013126
 21
577.9782188627
  0
LINE
  5
282
100
AcDbEntity
  8
0
100
AcDbLine
 62
7
  6
CONTINUOUS
 10
373.4334306388
 20
429.0440695688
 11
373.4334306388
 21
433.2871111438
  0
LINE
  5
283
100
AcDbEntity
  8
0
100
AcDbLine
 62
7
  6
CONTINUOUS
 10
360.0593646585
 20
433.2871111438
 11
358.2772871076
 21
419.8451551005
  0
LINE
  5
284
100
AcDbEntity
  8
0
100
AcDbLine
 62
7
  6
CONTINUOUS
 10
362.6221613555
 20
423.9184754297
 11
363.3010478287
 21
429.0440695688
  0
LINE
  5
285
100
AcDbEntity
  8
BEZUGSACHSEN
100
AcDbLine
 62
7
  6
CONTINUOUS
 10
197.513539639
 20
349.1357188627
 11
206.9117307119
 21
360.3360468377
  0
LINE
  5
286
100
AcDbEntity
  8
0
100
AcDbLine
 62
7
  6
CONTINUOUS
 10
211.433539639
 20
537.6657188627
 11
226.433539639
 21
537.6657188627
  0
LINE
  5
287
100
AcDbEntity
  8
0
100
AcDbLine
 62
7
  6
CONTINUOUS
 10
226.433539639
 20
539.5407188627
 11
219.7314118843
 21
539.5407188627
  0
LINE
  5
288
100
AcDbEntity
  8
0
100
AcDbLine
 62
7
  6
CONTINUOUS
 10
217.8165184955
 20
539.5407188627
 11
213.0292841296
 21
539.5407188627
  0
LINE
  5
289
100
AcDbEntity
  8
0
100
AcDbLine
 62
7
  6
CONTINUOUS
 10
214.9441775183
 20
547.3532185647
 11
215.9016251068
 21
547.3532185647
  0
LINE
  5
28A
100
AcDbEntity
  8
0
100
AcDbLine
 62
7
  6
CONTINUOUS
 10
216.2207740049
 20
549.2282185647
 11
214.9441775183
 21
549.2282185647
  0
LINE
  5
28B
100
AcDbEntity
  8
0
100
AcDbLine
 62
7
  6
CONTINUOUS
 10
211.433539639
 20
552.0407185647
 11
221.3271568219
 21
552.0407185647
  0
LINE
  5
28C
100
AcDbEntity
  8
0
100
AcDbLine
 62
7
  6
CONTINUOUS
 10
222.9229013126
 20
562.9782188627
 11
221.3271568219
 21
563.2907194588
  0
LINE
  5
28D
100
AcDbEntity
  8
0
100
AcDbLine
 62
7
  6
CONTINUOUS
 10
222.9229013126
 20
577.9782188627
 11
221.3271568219
 21
578.2907176706
  0
LINE
  5
28E
100
AcDbEntity
  8
0
100
AcDbLine
 62
7
  6
CONTINUOUS
 10
221.3271568219
 20
576.4157176706
 11
222.6037524144
 21
576.1032188627
  0
LINE
  5
28F
100
AcDbEntity
  8
0
100
AcDbLine
 62
7
  6
CONTINUOUS
 10
396.5495215325
 20
427.380797486
 11
396.5495215325
 21
423.7487541839
  0
LINE
  5
290
100
AcDbEntity
  8
0
100
AcDbLine
 62
7
  6
CONTINUOUS
 10
399.0783737569
 20
432.2857531115
 11
399.0783737569
 21
427.380797486
  0
LINE
  5
291
100
AcDbEntity
  8
0
100
AcDbLine
 62
7
  6
CONTINUOUS
 10
399.0783737569
 20
423.7487541839
 11
399.0783737569
 21
414.4310346201
  0
LINE
  5
292
100
AcDbEntity
  8
0
100
AcDbLine
 62
7
  6
CONTINUOUS
 10
403.9324121146
 20
414.4649787202
 11
403.9324121146
 21
423.7487541839
  0
LINE
  5
293
100
AcDbEntity
  8
0
100
AcDbLine
 62
7
  6
CONTINUOUS
 10
403.9324121146
 20
427.380797486
 11
403.9324121146
 21
432.2857531115
  0
LINE
  5
294
100
AcDbEntity
  8
0
100
AcDbLine
 62
7
  6
CONTINUOUS
 10
406.9534586339
 20
408.7623312233
 11
406.9534586339
 21
412.4113468781
  0
LINE
  5
295
100
AcDbEntity
  8
0
100
AcDbLine
 62
7
  6
CONTINUOUS
 10
406.9534586339
 20
423.7487541839
 11
406.9534586339
 21
427.380797486
  0
LINE
  5
296
100
AcDbEntity
  8
0
100
AcDbLine
 62
7
  6
CONTINUOUS
 10
221.3271568219
 20
553.9157194588
 11
211.433539639
 21
553.9157194588
  0
LINE
  5
297
100
AcDbEntity
  8
0
100
AcDbLine
 62
7
  6
CONTINUOUS
 10
557.8150851508
 20
554.3157188627
 11
554.79341401
 21
554.3157188627
  0
LINE
  5
298
100
AcDbEntity
  8
0
100
AcDbLine
 62
7
  6
CONTINUOUS
 10
540.9370075495
 20
554.3157188627
 11
537.9153364087
 21
554.3157188627
  0
LINE
  5
299
100
AcDbEntity
  8
0
100
AcDbLine
 62
7
  6
CONTINUOUS
 10
211.433539639
 20
561.4157194588
 11
221.3271568219
 21
561.4157194588
  0
LINE
  5
29A
100
AcDbEntity
  8
0
100
AcDbLine
 62
7
  6
CONTINUOUS
 10
221.3271568219
 20
563.2907194588
 11
211.433539639
 21
563.2907194588
  0
LINE
  5
29B
100
AcDbEntity
  8
0
100
AcDbLine
 62
7
  6
CONTINUOUS
 10
211.433539639
 20
565.7907188627
 11
226.433539639
 21
565.7907188627
  0
LINE
  5
29C
100
AcDbEntity
  8
0
100
AcDbLine
 62
7
  6
CONTINUOUS
 10
224.5186460267
 20
567.6657188627
 11
213.3484330277
 21
567.6657188627
  0
LINE
  5
29D
100
AcDbEntity
  8
0
100
AcDbLine
 62
7
  6
CONTINUOUS
 10
549.3652107798
 20
569.3157188627
 11
546.343539639
 21
569.3157188627
  0
LINE
  5
29E
100
AcDbEntity
  8
0
100
AcDbLine
 62
7
  6
CONTINUOUS
 10
557.8150851508
 20
571.3157188627
 11
554.79341401
 21
571.3157188627
  0
LINE
  5
29F
100
AcDbEntity
  8
0
100
AcDbLine
 62
7
  6
CONTINUOUS
 10
540.9370075495
 20
571.3157188627
 11
537.9153364087
 21
571.3157188627
  0
LINE
  5
2A0
100
AcDbEntity
  8
BEZUGSACHSEN
100
AcDbLine
 62
7
  6
CONTINUOUS
 10
567.513539639
 20
349.1357188627
 11
558.1153485661
 21
360.3360468377
  0
LINE
  5
2A1
100
AcDbEntity
  8
RUNDUNGEN
100
AcDbLine
 62
7
  6
CONTINUOUS
 10
430.013539639
 20
406.9376798355
 11
430.013539639
 21
419.3147082741
  0
LINE
  5
2A2
100
AcDbEntity
  8
0
100
AcDbLine
 62
7
  6
CONTINUOUS
 10
430.013539639
 20
419.3147082741
 11
430.013539639
 21
447.1274090275
  0
LINE
  5
2A3
100
AcDbEntity
  8
0
100
AcDbLine
 62
7
  6
CONTINUOUS
 10
222.6037524144
 20
554.2282182667
 11
221.3271568219
 21
553.9157194588
  0
LINE
  5
2A4
100
AcDbEntity
  8
0
100
AcDbLine
 62
7
  6
CONTINUOUS
 10
221.3271568219
 20
552.0407185647
 11
222.9229013126
 21
552.3532191607
  0
LINE
  5
2A5
100
AcDbEntity
  8
0
100
AcDbLine
 62
7
  6
CONTINUOUS
 10
216.539922903
 20
576.4157176706
 11
221.3271568219
 21
576.4157176706
  0
LINE
  5
2A6
100
AcDbEntity
  8
0
100
AcDbLine
 62
7
  6
CONTINUOUS
 10
221.3271568219
 20
578.2907176706
 11
216.539922903
 21
578.2907176706
  0
LINE
  5
2A7
100
AcDbEntity
  8
0
100
AcDbLine
 62
7
  6
CONTINUOUS
 10
215.2633273105
 20
576.1032188627
 11
216.539922903
 21
576.4157176706
  0
LINE
  5
2A8
100
AcDbEntity
  8
0
100
AcDbLine
 62
7
  6
CONTINUOUS
 10
216.539922903
 20
578.2907176706
 11
214.9441775183
 21
577.9782188627
  0
LINE
  5
2A9
100
AcDbEntity
  8
BEZUGSACHSEN
100
AcDbLine
 62
7
  6
CONTINUOUS
 10
557.513539639
 20
364.1357188627
 11
558.1153485661
 21
360.3360468377
  0
LINE
  5
2AA
100
AcDbEntity
  8
0
100
AcDbLine
 62
7
  6
CONTINUOUS
 10
546.343539639
 20
569.3157188627
 11
546.343539639
 21
563.4831119708
  0
LINE
  5
2AB
100
AcDbEntity
  8
0
100
AcDbLine
 62
7
  6
CONTINUOUS
 10
549.3652107798
 20
563.4783216971
 11
549.3652107798
 21
569.3157188627
  0
LINE
  5
2AC
100
AcDbEntity
  8
BEZUGSACHSEN
100
AcDbLine
 62
7
  6
CONTINUOUS
 10
557.513539639
 20
464.1357188627
 11
557.513539639
 21
364.1357188627
  0
LINE
  5
2AD
100
AcDbEntity
  8
RUNDUNGEN
100
AcDbLine
 62
7
  6
CONTINUOUS
 10
549.6641179104
 20
444.0426078229
 11
568.0232118582
 21
559.9573650441
  0
LINE
  5
2AE
100
AcDbEntity
  8
BEZUGSACHSEN
100
AcDbLine
 62
7
  6
CONTINUOUS
 10
557.513539639
 20
464.1357188627
 11
562.7400449518
 21
497.1345746979
  0
LINE
  5
2AF
100
AcDbEntity
  8
RUNDUNGEN
100
AcDbLine
 62
7
  6
CONTINUOUS
 10
508.4163888871
 20
698.156509613
 11
388.2537911244
 21
747.9294872963
  0
LINE
  5
2B0
100
AcDbEntity
  8
RUNDUNGEN
100
AcDbLine
 62
7
  6
CONTINUOUS
 10
567.066079737
 20
568.0441335052
 11
516.5343303893
 21
690.0385681108
  0
LINE
  5
2B1
100
AcDbEntity
  8
0
100
AcDbLine
 62
7
  6
CONTINUOUS
 10
611.4232936435
 20
407.9651246594
 11
611.4232936435
 21
414.2587318074
  0
LINE
  5
2B2
100
AcDbEntity
  8
0
100
AcDbLine
 62
7
  6
CONTINUOUS
 10
611.4232936435
 20
417.283397046
 11
611.4232936435
 21
420.0980054908
  0
LINE
  5
2B3
100
AcDbEntity
  8
0
100
AcDbLine
 62
7
  6
CONTINUOUS
 10
611.4232936435
 20
423.8464614202
 11
611.4232936435
 21
426.7245111654
  0
LINE
  5
2B4
100
AcDbEntity
  8
0
100
AcDbLine
 62
7
  6
CONTINUOUS
 10
611.4232936435
 20
427.0371362995
 11
611.4232936435
 21
434.2052347933
  0
LINE
  5
2B5
100
AcDbEntity
  8
0
100
AcDbLine
 62
7
  6
CONTINUOUS
 10
613.3381870323
 20
410.3472817884
 11
613.3381870323
 21
414.1257755312
  0
LINE
  5
2B6
100
AcDbEntity
  8
0
100
AcDbLine
 62
7
  6
CONTINUOUS
 10
613.72116571
 20
413.1554801944
 11
613.72116571
 21
414.6786554975
  0
LINE
  5
2B7
100
AcDbEntity
  8
0
100
AcDbLine
 62
7
  6
CONTINUOUS
 10
613.72116571
 20
429.5590937246
 11
613.72116571
 21
433.8200438534
  0
LINE
  5
2B8
100
AcDbEntity
  8
0
100
AcDbLine
 62
7
  6
CONTINUOUS
 10
614.1041443878
 20
433.243038658
 11
614.1041443878
 21
434.7307921902
  0
LINE
  5
2B9
100
AcDbEntity
  8
0
100
AcDbLine
 62
7
  6
CONTINUOUS
 10
614.4871230655
 20
413.4641655148
 11
614.4871230655
 21
414.9806330564
  0
LINE
  5
2BA
100
AcDbEntity
  8
0
100
AcDbLine
 62
7
  6
CONTINUOUS
 10
614.8701017433
 20
433.8770101548
 11
614.8701017433
 21
435.3590211266
  0
LINE
  5
2BB
100
AcDbEntity
  8
0
100
AcDbLine
 62
7
  6
CONTINUOUS
 10
615.6360590988
 20
413.5375511222
 11
615.6360590988
 21
415.0462244033
  0
LINE
  5
2BC
100
AcDbEntity
  8
0
100
AcDbLine
 62
7
  6
CONTINUOUS
 10
616.0190388494
 20
434.2427315945
 11
616.0190388494
 21
435.7177630067
  0
LINE
  5
2BD
100
AcDbEntity
  8
0
100
AcDbLine
 62
7
  6
CONTINUOUS
 10
616.7849962049
 20
413.4289896477
 11
616.7849962049
 21
414.9317659255
  0
LINE
  5
2BE
100
AcDbEntity
  8
0
100
AcDbLine
 62
7
  6
CONTINUOUS
 10
617.5509535604
 20
434.3610366881
 11
617.5509535604
 21
435.8291129643
  0
LINE
  5
2BF
100
AcDbEntity
  8
0
100
AcDbLine
 62
7
  6
CONTINUOUS
 10
617.9339322382
 20
413.1381024224
 11
617.9339322382
 21
414.6368245654
  0
LINE
  5
2C0
100
AcDbEntity
  8
0
100
AcDbLine
 62
7
  6
CONTINUOUS
 10
618.6998895937
 20
412.6836998927
 11
618.6998895937
 21
414.1811369157
  0
LINE
  5
2C1
100
AcDbEntity
  8
0
100
AcDbLine
 62
7
  6
CONTINUOUS
 10
619.0828682714
 20
413.5506858705
 11
619.0828682714
 21
409.7679162738
  0
LINE
  5
2C2
100
AcDbEntity
  8
0
100
AcDbLine
 62
7
  6
CONTINUOUS
 10
621.3807403379
 20
409.7125347981
 11
621.3807403379
 21
413.0900413903
  0
LINE
  5
2C3
100
AcDbEntity
  8
0
100
AcDbLine
 62
7
  6
CONTINUOUS
 10
623.2956342631
 20
416.4023071781
 11
623.2956342631
 21
417.8886907823
  0
LINE
  5
2C4
100
AcDbEntity
  8
0
100
AcDbLine
 62
7
  6
CONTINUOUS
 10
623.2956342631
 20
422.9723882157
 11
623.2956342631
 21
424.44689365
  0
LINE
  5
2C5
100
AcDbEntity
  8
0
100
AcDbLine
 62
7
  6
CONTINUOUS
 10
623.2956342631
 20
434.2523927872
 11
623.2956342631
 21
435.7146814743
  0
LINE
  5
2C6
100
AcDbEntity
  8
0
100
AcDbLine
 62
7
  6
CONTINUOUS
 10
624.8275489741
 20
422.8156128949
 11
624.8275489741
 21
424.2941000083
  0
LINE
  5
2C7
100
AcDbEntity
  8
0
100
AcDbLine
 62
7
  6
CONTINUOUS
 10
624.8275489741
 20
434.0755654438
 11
624.8275489741
 21
435.5416266057
  0
LINE
  5
2C8
100
AcDbEntity
  8
0
100
AcDbLine
 62
7
  6
CONTINUOUS
 10
625.2105276519
 20
416.7076844872
 11
625.2105276519
 21
418.1985638717
  0
LINE
  5
2C9
100
AcDbEntity
  8
0
100
AcDbLine
 62
7
  6
CONTINUOUS
 10
625.9764850074
 20
422.445188439
 11
625.9764850074
 21
423.9285741509
  0
LINE
  5
2CA
100
AcDbEntity
  8
0
100
AcDbLine
 62
7
  6
CONTINUOUS
 10
625.9764850074
 20
433.6654529161
 11
625.9764850074
 21
435.1360252933
  0
LINE
  5
2CB
100
AcDbEntity
  8
0
100
AcDbLine
 62
7
  6
CONTINUOUS
 10
626.7424426311
 20
417.2556150891
 11
626.7424426311
 21
418.7521162256
  0
LINE
  5
2CC
100
AcDbEntity
  8
0
100
AcDbLine
 62
7
  6
CONTINUOUS
 10
626.7424426311
 20
421.8404883388
 11
626.7424426311
 21
423.3284725407
  0
LINE
  5
2CD
100
AcDbEntity
  8
0
100
AcDbLine
 62
7
  6
CONTINUOUS
 10
626.7424426311
 20
433.001541399
 11
626.7424426311
 21
434.476157347
  0
LINE
  5
2CE
100
AcDbEntity
  8
0
100
AcDbLine
 62
7
  6
CONTINUOUS
 10
627.1254213088
 20
433.5493693131
 11
627.1254213088
 21
429.2876216073
  0
LINE
  5
2CF
100
AcDbEntity
  8
0
100
AcDbLine
 62
7
  6
CONTINUOUS
 10
627.1254213088
 20
422.4810982747
 11
627.1254213088
 21
421.6018647385
  0
LINE
  5
2D0
100
AcDbEntity
  8
0
100
AcDbLine
 62
7
  6
CONTINUOUS
 10
628.2743574762
 20
418.2776266964
 11
628.2743574762
 21
419.7812498786
  0
LINE
  5
2D1
100
AcDbEntity
  8
0
100
AcDbLine
 62
7
  6
CONTINUOUS
 10
629.0403149323
 20
419.2406502462
 11
629.0403149323
 21
420.7479246659
  0
LINE
  5
2D2
100
AcDbEntity
  8
0
100
AcDbLine
 62
7
  6
CONTINUOUS
 10
629.4232936435
 20
407.6053086538
 11
629.4232936435
 21
410.3062610768
  0
LINE
  5
2D3
100
AcDbEntity
  8
0
100
AcDbLine
 62
7
  6
CONTINUOUS
 10
629.4232936435
 20
413.7887215326
 11
629.4232936435
 21
416.7614447058
  0
LINE
  5
2D4
100
AcDbEntity
  8
0
100
AcDbLine
 62
7
  6
CONTINUOUS
 10
629.4232936435
 20
420.3846438035
 11
629.4232936435
 21
422.7717044987
  0
LINE
  5
2D5
100
AcDbEntity
  8
0
100
AcDbLine
 62
7
  6
CONTINUOUS
 10
629.4232936435
 20
426.6871872341
 11
629.4232936435
 21
433.8372034687
  0
LINE
  5
2D6
100
AcDbEntity
  8
0
100
AcDbLine
 62
7
  6
CONTINUOUS
 10
680.513539639
 20
497.1341237286
 11
680.513539639
 21
478.3137943311
  0
LINE
  5
2D7
100
AcDbEntity
  8
RUNDUNGEN
100
AcDbLine
 62
7
  6
CONTINUOUS
 10
680.513539639
 20
478.3137943311
 11
680.513539639
 21
369.3955299368
  0
LINE
  5
2D8
100
AcDbEntity
  8
0
100
AcDbLine
 62
7
  6
CONTINUOUS
 10
680.513539639
 20
432.5018694205
 11
680.513539639
 21
369.3955299368
  0
LINE
  5
2D9
100
AcDbEntity
  8
0
100
AcDbLine
 62
7
  6
CONTINUOUS
 10
663.513539639
 20
349.1357188627
 11
680.513539639
 21
369.3955299368
  0
LINE
  5
2DA
100
AcDbEntity
  8
0
100
AcDbLine
 62
7
  6
CONTINUOUS
 10
817.8440876982
 20
349.1357188627
 11
800.8440876982
 21
369.3955299368
  0
LINE
  5
2DB
100
AcDbEntity
  8
0
100
AcDbLine
 62
7
  6
CONTINUOUS
 10
817.8440876982
 20
349.1357188627
 11
1029.8440876982
 21
349.1357188627
  0
LINE
  5
2DC
100
AcDbEntity
  8
0
100
AcDbLine
 62
7
  6
CONTINUOUS
 10
800.8440876982
 20
369.3955299368
 11
1046.8440876982
 21
369.3955299368
  0
LINE
  5
2DD
100
AcDbEntity
  8
0
100
AcDbLine
 62
7
  6
CONTINUOUS
 10
800.8440876982
 20
390.1357188627
 11
800.8440876982
 21
369.3955299368
  0
LINE
  5
2DE
100
AcDbEntity
  8
BEZUGSACHSEN
100
AcDbLine
 62
7
  6
CONTINUOUS
 10
896.8440876982
 20
492.8059911117
 11
896.8440876982
 21
704.5962623579
  0
LINE
  5
2DF
100
AcDbEntity
  8
BEZUGSACHSEN
100
AcDbLine
 62
7
  6
CONTINUOUS
 10
903.8440876982
 20
530.3373045236
 11
903.8440876982
 21
744.0712535498
  0
LWPOLYLINE
  5
2E0
100
AcDbEntity
  8
BEZUGSACHSEN
100
AcDbPolyline
 62
7
  6
CONTINUOUS
 90
6
 70
0
 10
903.8440849176
 20
533.4593903168
 10
903.8355362416
 20
533.0939989865
 10
903.800473796
 20
532.6276204576
 10
903.7393316541
 20
532.1703870917
 10
903.6529821114
 20
531.7232059805
 10
903.5421866137
 20
531.28702415
  0
LWPOLYLINE
  5
2E1
100
AcDbEntity
  8
BEZUGSACHSEN
100
AcDbPolyline
 62
7
  6
CONTINUOUS
 90
40
 70
0
 10
901.6716675307
 20
525.5525335339
 10
901.4895126492
 20
524.9576375679
 10
901.3068590197
 20
524.3506618883
 10
901.1241152766
 20
523.7320496124
 10
900.9416655722
 20
523.102211027
 10
900.7598739421
 20
522.4614967795
 10
900.5790940014
 20
521.810279036
 10
900.3996211592
 20
521.1487386797
 10
900.2217565779
 20
520.477094728
 10
900.045768755
 20
519.7954788824
 10
899.8719297412
 20
519.1040257271
 10
899.7004975623
 20
518.4028544329
 10
899.5317298589
 20
517.692074201
 10
899.3658768116
 20
516.9717838374
 10
899.2031839296
 20
516.2420753366
 10
899.0438965926
 20
515.5030338937
 10
898.8882523333
 20
514.754743105
 10
898.7364908839
 20
513.9972699743
 10
898.5888586652
 20
513.2307657804
 10
898.4455439705
 20
512.4550422021
 10
898.3067681105
 20
511.6700817155
 10
898.1726926233
 20
510.8755065655
 10
898.043514152
 20
510.0710284114
 10
897.9194283955
 20
509.2563427602
 10
897.8006526904
 20
508.4311454958
 10
897.6874108492
 20
507.5951356626
 10
897.579942787
 20
506.7480095289
 10
897.4785021398
 20
505.8894688111
 10
897.3833542596
 20
505.0192122646
 10
897.2947838099
 20
504.1369491791
 10
897.2130845741
 20
503.242385307
 10
897.1385733041
 20
502.3352397023
 10
897.0715748509
 20
501.4152296495
 10
897.0124380258
 20
500.4820839322
 10
896.961522906
 20
499.5355312486
 10
896.9192086101
 20
498.5753137509
 10
896.8858962061
 20
497.6011716544
 10
896.8619950237
 20
496.612863401
 10
896.8479438801
 20
495.6100248141
 10
896.8442458226
 20
494.9176420685
  0
LINE
  5
2E2
100
AcDbEntity
  8
BEZUGSACHSEN
100
AcDbLine
 62
7
  6
CONTINUOUS
 10
903.5421866137
 20
531.28702415
 11
903.4381188518
 21
530.951887511
  0
LINE
  5
2E3
100
AcDbEntity
  8
BEZUGSACHSEN
100
AcDbLine
 62
7
  6
CONTINUOUS
 10
902.0327088109
 20
526.7040645984
 11
901.6716675307
 21
525.5525335339
  0
LINE
  5
2E4
100
AcDbEntity
  8
BEZUGSACHSEN
100
AcDbLine
 62
7
  6
CONTINUOUS
 10
902.3859228637
 20
527.8000118423
 11
902.0327088109
 21
526.7040645984
  0
LINE
  5
2E5
100
AcDbEntity
  8
BEZUGSACHSEN
100
AcDbLine
 62
7
  6
CONTINUOUS
 10
902.7264740181
 20
528.8335523314
 11
902.3859228637
 21
527.8000118423
  0
LINE
  5
2E6
100
AcDbEntity
  8
BEZUGSACHSEN
100
AcDbLine
 62
7
  6
CONTINUOUS
 10
903.0488289027
 20
529.7967105202
 11
902.7264740181
 21
528.8335523314
  0
LWPOLYLINE
  5
2E7
100
AcDbEntity
  8
BEZUGSACHSEN
100
AcDbPolyline
 62
7
  6
CONTINUOUS
 90
3
 70
0
 10
903.4381052828
 20
530.9518774035
 10
903.3456153673
 20
530.6771897076
 10
903.0488289027
 20
529.7967105202
  0
LINE
  5
2E8
100
AcDbEntity
  8
0
100
AcDbLine
 62
7
  6
CONTINUOUS
 10
943.8440876982
 20
537.6657188627
 11
944.8440876982
 21
537.6657188627
  0
LINE
  5
2E9
100
AcDbEntity
  8
0
100
AcDbLine
 62
7
  6
CONTINUOUS
 10
943.8440876982
 20
545.1657188627
 11
944.8440876982
 21
545.1657188627
  0
LINE
  5
2EA
100
AcDbEntity
  8
0
100
AcDbLine
 62
7
  6
CONTINUOUS
 10
943.8440876982
 20
546.7282191607
 11
944.8440876982
 21
546.7282191607
  0
LINE
  5
2EB
100
AcDbEntity
  8
0
100
AcDbLine
 62
7
  6
CONTINUOUS
 10
943.8440876982
 20
547.9782188627
 11
944.8440876982
 21
547.9782188627
  0
LINE
  5
2EC
100
AcDbEntity
  8
0
100
AcDbLine
 62
7
  6
CONTINUOUS
 10
943.8440876982
 20
548.9157188627
 11
944.8440876982
 21
548.9157188627
  0
LINE
  5
2ED
100
AcDbEntity
  8
0
100
AcDbLine
 62
7
  6
CONTINUOUS
 10
943.8440876982
 20
549.2282185647
 11
944.8440876982
 21
549.2282185647
  0
LINE
  5
2EE
100
AcDbEntity
  8
0
100
AcDbLine
 62
7
  6
CONTINUOUS
 10
943.8440876982
 20
549.5407191607
 11
944.8440876982
 21
549.5407191607
  0
LINE
  5
2EF
100
AcDbEntity
  8
0
100
AcDbLine
 62
7
  6
CONTINUOUS
 10
943.8440876982
 20
552.0407185647
 11
944.8440876982
 21
552.0407185647
  0
LINE
  5
2F0
100
AcDbEntity
  8
0
100
AcDbLine
 62
7
  6
CONTINUOUS
 10
943.8440876982
 20
553.9157194588
 11
944.8440876982
 21
553.9157194588
  0
LINE
  5
2F1
100
AcDbEntity
  8
0
100
AcDbLine
 62
7
  6
CONTINUOUS
 10
943.8440876982
 20
554.2282182667
 11
944.8440876982
 21
554.2282182667
  0
LINE
  5
2F2
100
AcDbEntity
  8
0
100
AcDbLine
 62
7
  6
CONTINUOUS
 10
943.8440876982
 20
554.8532194588
 11
944.8440876982
 21
554.8532194588
  0
LINE
  5
2F3
100
AcDbEntity
  8
0
100
AcDbLine
 62
7
  6
CONTINUOUS
 10
943.8440876982
 20
555.7907194588
 11
944.8440876982
 21
555.7907194588
  0
LINE
  5
2F4
100
AcDbEntity
  8
0
100
AcDbLine
 62
7
  6
CONTINUOUS
 10
943.8440876982
 20
557.0407182667
 11
944.8440876982
 21
557.0407182667
  0
LINE
  5
2F5
100
AcDbEntity
  8
0
100
AcDbLine
 62
7
  6
CONTINUOUS
 10
943.8440876982
 20
558.2907188627
 11
944.8440876982
 21
558.2907188627
  0
LINE
  5
2F6
100
AcDbEntity
  8
0
100
AcDbLine
 62
7
  6
CONTINUOUS
 10
943.8440876982
 20
559.5407194588
 11
944.8440876982
 21
559.5407194588
  0
LINE
  5
2F7
100
AcDbEntity
  8
0
100
AcDbLine
 62
7
  6
CONTINUOUS
 10
943.8440876982
 20
560.4782194588
 11
944.8440876982
 21
560.4782194588
  0
LINE
  5
2F8
100
AcDbEntity
  8
0
100
AcDbLine
 62
7
  6
CONTINUOUS
 10
943.8440876982
 20
561.1032188627
 11
944.8440876982
 21
561.1032188627
  0
LINE
  5
2F9
100
AcDbEntity
  8
0
100
AcDbLine
 62
7
  6
CONTINUOUS
 10
943.8440876982
 20
561.4157194588
 11
944.8440876982
 21
561.4157194588
  0
LINE
  5
2FA
100
AcDbEntity
  8
0
100
AcDbLine
 62
7
  6
CONTINUOUS
 10
943.8440876982
 20
563.2907194588
 11
944.8440876982
 21
563.2907194588
  0
LINE
  5
2FB
100
AcDbEntity
  8
0
100
AcDbLine
 62
7
  6
CONTINUOUS
 10
943.8440876982
 20
565.7907188627
 11
944.8440876982
 21
565.7907188627
  0
LINE
  5
2FC
100
AcDbEntity
  8
BEZUGSACHSEN
100
AcDbLine
 62
7
  6
CONTINUOUS
 10
944.9623025866
 20
528.8317442902
 11
944.2500700451
 21
530.9518776068
  0
LINE
  5
2FD
100
AcDbEntity
  8
BEZUGSACHSEN
100
AcDbLine
 62
7
  6
CONTINUOUS
 10
945.3031949355
 20
527.7971228483
 11
944.9623025866
 21
528.8317442902
  0
LINE
  5
2FE
100
AcDbEntity
  8
BEZUGSACHSEN
100
AcDbLine
 62
7
  6
CONTINUOUS
 10
945.6567376844
 20
526.7000695184
 11
945.3031949355
 21
527.7971228483
  0
LWPOLYLINE
  5
2FF
100
AcDbEntity
  8
BEZUGSACHSEN
100
AcDbPolyline
 62
7
  6
CONTINUOUS
 90
7
 70
0
 10
944.2500565445
 20
530.951887511
 10
944.1459887826
 20
531.28702415
 10
944.035193285
 20
531.7232059805
 10
943.9488437423
 20
532.1703870917
 10
943.8877016003
 20
532.6276204576
 10
943.8526391547
 20
533.0939989865
 10
943.8440904787
 20
533.4593903168
  0
LWPOLYLINE
  5
300
100
AcDbEntity
  8
BEZUGSACHSEN
100
AcDbPolyline
 62
7
  6
CONTINUOUS
 90
41
 70
0
 10
950.8439295093
 20
494.9176779086
 10
950.8402347825
 20
495.6096570348
 10
950.8261939719
 20
496.6121526706
 10
950.8023092209
 20
497.600143953
 10
950.7690185557
 20
498.5739917883
 10
950.7267306113
 20
499.5339355561
 10
950.6758458552
 20
500.480232823
 10
950.6167429492
 20
501.4131392354
 10
950.5497815721
 20
502.3329238608
 10
950.4753102725
 20
503.2398556874
 10
950.3936537137
 20
504.134215185
 10
950.3051285491
 20
505.0162810736
 10
950.2100285783
 20
505.8863453444
 10
950.1086385225
 20
506.7446964677
 10
950.0012239329
 20
507.5916334506
 10
949.8880386489
 20
508.4274523487
 10
949.7693229492
 20
509.2524546731
 10
949.645300997
 20
510.0669391667
 10
949.5161906151
 20
510.8712077518
 10
949.3821880626
 20
511.6655625538
 10
949.2434904274
 20
512.4502902982
 10
949.1002604119
 20
513.2257642537
 10
948.9527182911
 20
513.9920083309
 10
948.8010522563
 20
514.7492125772
 10
948.6455067318
 20
515.4972352617
 10
948.4863197195
 20
516.2360169426
 10
948.3237266688
 20
516.9654816574
 10
948.1579707768
 20
517.68555183
 10
947.9892950303
 20
518.3961429993
 10
947.8179470482
 20
519.0971639178
 10
947.6441815872
 20
519.7885128285
 10
947.4682537108
 20
520.4700780104
 10
947.2904324031
 20
521.1417322051
 10
947.1109823478
 20
521.8033525757
 10
946.9302028831
 20
522.4547224011
 10
946.7483852263
 20
523.0956699606
 10
946.5658854386
 20
523.725810476
 10
946.3830682416
 20
524.3447869138
 10
946.2003199341
 20
524.9521788412
 10
946.0180513864
 20
525.5475339318
 10
945.6567376844
 20
526.7000695184
  0
LINE
  5
301
100
AcDbEntity
  8
BEZUGSACHSEN
100
AcDbLine
 62
7
  6
CONTINUOUS
 10
943.8440876982
 20
530.3373045236
 11
943.8440876982
 21
744.0712535498
  0
LINE
  5
302
100
AcDbEntity
  8
0
100
AcDbLine
 62
7
  6
CONTINUOUS
 10
944.8440876982
 20
578.2907176706
 11
944.8440876982
 21
565.7907188627
  0
LINE
  5
303
100
AcDbEntity
  8
0
100
AcDbLine
 62
7
  6
CONTINUOUS
 10
944.8440876982
 20
563.2907194588
 11
944.8440876982
 21
552.0407185647
  0
LINE
  5
304
100
AcDbEntity
  8
0
100
AcDbLine
 62
7
  6
CONTINUOUS
 10
944.8440876982
 20
549.5407191607
 11
944.8440876982
 21
537.6657188627
  0
LINE
  5
305
100
AcDbEntity
  8
BEZUGSACHSEN
100
AcDbLine
 62
7
  6
CONTINUOUS
 10
950.8440876982
 20
492.8059911117
 11
950.8440876982
 21
704.5962623579
  0
LINE
  5
306
100
AcDbEntity
  8
0
100
AcDbLine
 62
7
  6
CONTINUOUS
 10
943.8440876982
 20
573.2907188627
 11
944.8440876982
 21
573.2907188627
  0
LINE
  5
307
100
AcDbEntity
  8
0
100
AcDbLine
 62
7
  6
CONTINUOUS
 10
943.8440876982
 20
574.8532200548
 11
944.8440876982
 21
574.8532200548
  0
LINE
  5
308
100
AcDbEntity
  8
0
100
AcDbLine
 62
7
  6
CONTINUOUS
 10
943.8440876982
 20
576.1032188627
 11
944.8440876982
 21
576.1032188627
  0
LINE
  5
309
100
AcDbEntity
  8
0
100
AcDbLine
 62
7
  6
CONTINUOUS
 10
943.8440876982
 20
577.3532176706
 11
944.8440876982
 21
577.3532176706
  0
LINE
  5
30A
100
AcDbEntity
  8
0
100
AcDbLine
 62
7
  6
CONTINUOUS
 10
943.8440876982
 20
577.9782188627
 11
944.8440876982
 21
577.9782188627
  0
LINE
  5
30B
100
AcDbEntity
  8
0
100
AcDbLine
 62
7
  6
CONTINUOUS
 10
943.8440876982
 20
578.2907176706
 11
944.8440876982
 21
578.2907176706
  0
LINE
  5
30C
100
AcDbEntity
  8
0
100
AcDbLine
 62
7
  6
CONTINUOUS
 10
1046.8440876982
 20
390.1357188627
 11
1046.8440876982
 21
369.3955299368
  0
LINE
  5
30D
100
AcDbEntity
  8
0
100
AcDbLine
 62
7
  6
CONTINUOUS
 10
908.8440876982
 20
749.0712943086
 11
938.8440876982
 21
749.0712943086
  0
LINE
  5
30E
100
AcDbEntity
  8
0
100
AcDbLine
 62
7
  6
CONTINUOUS
 10
1046.8440876982
 20
369.3955299368
 11
1029.8440876982
 21
349.1357188627
  0
LINE
  5
30F
100
AcDbEntity
  8
0
100
AcDbLine
 62
7
  6
CONTINUOUS
 10
84.513539639
 20
77.8554276316
 11
84.513539639
 21
229.7231374557
  0
LINE
  5
310
100
AcDbEntity
  8
RUNDUNGEN
100
AcDbLine
 62
7
  6
CONTINUOUS
 10
84.513539639
 20
229.7231374557
 11
84.513539639
 21
273.8554276316
  0
LINE
  5
311
100
AcDbEntity
  8
0
100
AcDbLine
 62
7
  6
CONTINUOUS
 10
135.4537856344
 20
90.3084196809
 11
135.4537856344
 21
86.4210388115
  0
LINE
  5
312
100
AcDbEntity
  8
0
100
AcDbLine
 62
7
  6
CONTINUOUS
 10
135.4537856344
 20
80.2840194475
 11
135.4537856344
 21
71.8171160646
  0
LINE
  5
313
100
AcDbEntity
  8
0
100
AcDbLine
 62
7
  6
CONTINUOUS
 10
135.4537856344
 20
68.4230157334
 11
135.4537856344
 21
63.6475263247
  0
LINE
  5
314
100
AcDbEntity
  8
0
100
AcDbLine
 62
7
  6
CONTINUOUS
 10
135.6037856344
 20
245.9548675625
 11
135.6037856344
 21
254.5234253515
  0
LINE
  5
315
100
AcDbEntity
  8
0
100
AcDbLine
 62
7
  6
CONTINUOUS
 10
135.6037856344
 20
260.3309409011
 11
135.6037856344
 21
263.0798917623
  0
LINE
  5
316
100
AcDbEntity
  8
0
100
AcDbLine
 62
7
  6
CONTINUOUS
 10
135.6037856344
 20
269.157565061
 11
135.6037856344
 21
272.9385671083
  0
LINE
  5
317
100
AcDbEntity
  8
0
100
AcDbLine
 62
7
  6
CONTINUOUS
 10
135.6037856344
 20
279.6548498059
 11
135.6037856344
 21
283.2137935796
  0
LINE
  5
318
100
AcDbEntity
  8
0
100
AcDbLine
 62
7
  6
CONTINUOUS
 10
135.9867643457
 20
244.4591999443
 11
135.9867643457
 21
245.9476068853
  0
LINE
  5
319
100
AcDbEntity
  8
0
100
AcDbLine
 62
7
  6
CONTINUOUS
 10
135.9867643457
 20
258.7367129145
 11
135.9867643457
 21
260.2384821765
  0
LINE
  5
31A
100
AcDbEntity
  8
0
100
AcDbLine
 62
7
  6
CONTINUOUS
 10
136.7527218018
 20
243.2154920945
 11
136.7527218018
 21
244.6978929791
  0
LINE
  5
31B
100
AcDbEntity
  8
0
100
AcDbLine
 62
7
  6
CONTINUOUS
 10
136.7527218018
 20
257.4139341789
 11
136.7527218018
 21
258.9089447746
  0
LINE
  5
31C
100
AcDbEntity
  8
0
100
AcDbLine
 62
7
  6
CONTINUOUS
 10
137.9016579691
 20
247.1593183588
 11
137.9016579691
 21
252.4435121989
  0
LINE
  5
31D
100
AcDbEntity
  8
0
100
AcDbLine
 62
7
  6
CONTINUOUS
 10
137.9016579691
 20
261.5468914431
 11
137.9016579691
 21
262.788979262
  0
LINE
  5
31E
100
AcDbEntity
  8
0
100
AcDbLine
 62
7
  6
CONTINUOUS
 10
138.2846366469
 20
241.9138495166
 11
138.2846366469
 21
243.3868621702
  0
LINE
  5
31F
100
AcDbEntity
  8
0
100
AcDbLine
 62
7
  6
CONTINUOUS
 10
138.2846366469
 20
256.0329607535
 11
138.2846366469
 21
257.5178047273
  0
LINE
  5
320
100
AcDbEntity
  8
0
100
AcDbLine
 62
7
  6
CONTINUOUS
 10
138.2846366469
 20
262.5064615477
 11
138.2846366469
 21
263.9991053705
  0
LINE
  5
321
100
AcDbEntity
  8
0
100
AcDbLine
 62
7
  6
CONTINUOUS
 10
139.0505942706
 20
263.3806615765
 11
139.0505942706
 21
264.8710159207
  0
LINE
  5
322
100
AcDbEntity
  8
0
100
AcDbLine
 62
7
  6
CONTINUOUS
 10
139.8165516261
 20
241.2268262525
 11
139.8165516261
 21
242.6931405556
  0
LINE
  5
323
100
AcDbEntity
  8
0
100
AcDbLine
 62
7
  6
CONTINUOUS
 10
139.8165516261
 20
255.3060902764
 11
139.8165516261
 21
256.7838313261
  0
LINE
  5
324
100
AcDbEntity
  8
0
100
AcDbLine
 62
7
  6
CONTINUOUS
 10
140.1995303038
 20
263.9304714573
 11
140.1995303038
 21
265.4174449961
  0
LINE
  5
325
100
AcDbEntity
  8
0
100
AcDbLine
 62
7
  6
CONTINUOUS
 10
141.2609817151
 20
86.9805515874
 11
141.2609817151
 21
81.8031695223
  0
LINE
  5
326
100
AcDbEntity
  8
0
100
AcDbLine
 62
7
  6
CONTINUOUS
 10
141.7314450148
 20
240.8524813875
 11
141.7314450148
 21
242.3138036997
  0
LINE
  5
327
100
AcDbEntity
  8
0
100
AcDbLine
 62
7
  6
CONTINUOUS
 10
141.7314450148
 20
254.911614894
 11
141.7314450148
 21
256.3841467339
  0
LINE
  5
328
100
AcDbEntity
  8
0
100
AcDbLine
 62
7
  6
CONTINUOUS
 10
141.7314450148
 20
264.1767061606
 11
141.7314450148
 21
265.660439999
  0
LINE
  5
329
100
AcDbEntity
  8
0
100
AcDbLine
 62
7
  6
CONTINUOUS
 10
142.5915992025
 20
72.9143016329
 11
142.5915992025
 21
71.408196519
  0
LINE
  5
32A
100
AcDbEntity
  8
0
100
AcDbLine
 62
7
  6
CONTINUOUS
 10
143.64633894
 20
280.5981331199
 11
143.64633894
 21
274.9600285049
  0
LINE
  5
32B
100
AcDbEntity
  8
0
100
AcDbLine
 62
7
  6
CONTINUOUS
 10
143.7701467041
 20
81.8496826941
 11
143.7701467041
 21
87.0268338004
  0
LINE
  5
32C
100
AcDbEntity
  8
0
100
AcDbLine
 62
7
  6
CONTINUOUS
 10
144.4122962955
 20
271.5140761884
 11
144.4122962955
 21
273.0076232157
  0
LINE
  5
32D
100
AcDbEntity
  8
0
100
AcDbLine
 62
7
  6
CONTINUOUS
 10
145.178253651
 20
270.2356047834
 11
145.178253651
 21
271.728025957
  0
LINE
  5
32E
100
AcDbEntity
  8
0
100
AcDbLine
 62
7
  6
CONTINUOUS
 10
145.9442110065
 20
274.3600130662
 11
145.9442110065
 21
280.6535145956
  0
LINE
  5
32F
100
AcDbEntity
  8
0
100
AcDbLine
 62
7
  6
CONTINUOUS
 10
146.710168362
 20
269.3340053777
 11
146.710168362
 21
270.8284508119
  0
LINE
  5
330
100
AcDbEntity
  8
0
100
AcDbLine
 62
7
  6
CONTINUOUS
 10
146.9446210626
 20
86.9185295953
 11
146.9446210626
 21
80.9907518817
  0
LINE
  5
331
100
AcDbEntity
  8
0
100
AcDbLine
 62
7
  6
CONTINUOUS
 10
147.4761257175
 20
240.9610540408
 11
147.4761257175
 21
242.4281588838
  0
LINE
  5
332
100
AcDbEntity
  8
0
100
AcDbLine
 62
7
  6
CONTINUOUS
 10
147.8591043953
 20
269.0890918382
 11
147.8591043953
 21
270.5871718421
  0
LINE
  5
333
100
AcDbEntity
  8
0
100
AcDbLine
 62
7
  6
CONTINUOUS
 10
149.3910201791
 20
241.4085999938
 11
149.3910201791
 21
242.8846886784
  0
LINE
  5
334
100
AcDbEntity
  8
0
100
AcDbLine
 62
7
  6
CONTINUOUS
 10
149.3910201791
 20
269.228260914
 11
149.3910201791
 21
270.7338867823
  0
LINE
  5
335
100
AcDbEntity
  8
0
100
AcDbLine
 62
7
  6
CONTINUOUS
 10
149.4537856344
 20
64.2129144127
 11
149.4537856344
 21
68.8047605826
  0
LINE
  5
336
100
AcDbEntity
  8
0
100
AcDbLine
 62
7
  6
CONTINUOUS
 10
149.4537856344
 20
71.8546831888
 11
149.4537856344
 21
76.4091475237
  0
LINE
  5
337
100
AcDbEntity
  8
0
100
AcDbLine
 62
7
  6
CONTINUOUS
 10
149.4537856344
 20
76.5607631819
 11
149.4537856344
 21
80.5501398846
  0
LINE
  5
338
100
AcDbEntity
  8
0
100
AcDbLine
 62
7
  6
CONTINUOUS
 10
149.4537856344
 20
80.7706551643
 11
149.4537856344
 21
90.5720147145
  0
LINE
  5
339
100
AcDbEntity
  8
0
100
AcDbLine
 62
7
  6
CONTINUOUS
 10
150.5399562124
 20
269.6823738929
 11
150.5399562124
 21
271.1957496349
  0
LINE
  5
33A
100
AcDbEntity
  8
0
100
AcDbLine
 62
7
  6
CONTINUOUS
 10
150.9229348901
 20
242.1550860452
 11
150.9229348901
 21
243.641217414
  0
LINE
  5
33B
100
AcDbEntity
  8
0
100
AcDbLine
 62
7
  6
CONTINUOUS
 10
151.3059135679
 20
252.7149843163
 11
151.3059135679
 21
247.4299928991
  0
LINE
  5
33C
100
AcDbEntity
  8
0
100
AcDbLine
 62
7
  6
CONTINUOUS
 10
151.6888922456
 20
281.2328801101
 11
151.6888922456
 21
274.9351027269
  0
LINE
  5
33D
100
AcDbEntity
  8
0
100
AcDbLine
 62
7
  6
CONTINUOUS
 10
152.0718709234
 20
270.8648986109
 11
152.0718709234
 21
272.3917183748
  0
LINE
  5
33E
100
AcDbEntity
  8
0
100
AcDbLine
 62
7
  6
CONTINUOUS
 10
152.4548496011
 20
243.5173553516
 11
152.4548496011
 21
245.01641351
  0
LINE
  5
33F
100
AcDbEntity
  8
0
100
AcDbLine
 62
7
  6
CONTINUOUS
 10
153.2208069566
 20
244.7919794071
 11
153.2208069566
 21
246.2989093853
  0
LINE
  5
340
100
AcDbEntity
  8
0
100
AcDbLine
 62
7
  6
CONTINUOUS
 10
153.2208069566
 20
272.3519254324
 11
153.2208069566
 21
273.8915905848
  0
LINE
  5
341
100
AcDbEntity
  8
0
100
AcDbLine
 62
7
  6
CONTINUOUS
 10
153.6037856344
 20
246.3034054369
 11
153.6037856344
 21
254.8929728209
  0
LINE
  5
342
100
AcDbEntity
  8
0
100
AcDbLine
 62
7
  6
CONTINUOUS
 10
153.6037856344
 20
255.7845222013
 11
153.6037856344
 21
259.1315115342
  0
LINE
  5
343
100
AcDbEntity
  8
0
100
AcDbLine
 62
7
  6
CONTINUOUS
 10
153.6037856344
 20
265.056230812
 11
153.6037856344
 21
268.4907456786
  0
LINE
  5
344
100
AcDbEntity
  8
0
100
AcDbLine
 62
7
  6
CONTINUOUS
 10
153.6037856344
 20
274.0520156133
 11
153.6037856344
 21
283.5939508668
  0
LINE
  5
345
100
AcDbEntity
  8
BEZUGSACHSEN
100
AcDbLine
 62
7
  6
CONTINUOUS
 10
196.8191925286
 20
190.8554276316
 11
196.8191925286
 21
160.8554276316
  0
LINE
  5
346
100
AcDbEntity
  8
BEZUGSACHSEN
100
AcDbLine
 62
7
  6
CONTINUOUS
 10
207.513539639
 20
150.8344629836
 11
207.513539639
 21
125.8554276316
  0
LINE
  5
347
100
AcDbEntity
  8
BEZUGSACHSEN
100
AcDbLine
 62
7
  6
CONTINUOUS
 10
207.513539639
 20
200.8763922796
 11
207.513539639
 21
225.8554276316
  0
LINE
  5
348
100
AcDbEntity
  8
0
100
AcDbLine
 62
7
  6
CONTINUOUS
 10
211.433539639
 20
155.8554276316
 11
211.433539639
 21
154.8554276316
  0
LINE
  5
349
100
AcDbEntity
  8
0
100
AcDbLine
 62
7
  6
CONTINUOUS
 10
211.7526885371
 20
155.8554276316
 11
211.7526885371
 21
154.8554276316
  0
LINE
  5
34A
100
AcDbEntity
  8
0
100
AcDbLine
 62
7
  6
CONTINUOUS
 10
212.3909863333
 20
155.8554276316
 11
212.3909863333
 21
154.8554276316
  0
LINE
  5
34B
100
AcDbEntity
  8
0
100
AcDbLine
 62
7
  6
CONTINUOUS
 10
213.6675819258
 20
155.8554276316
 11
213.6675819258
 21
154.8554276316
  0
LINE
  5
34C
100
AcDbEntity
  8
0
100
AcDbLine
 62
7
  6
CONTINUOUS
 10
214.9441775183
 20
155.8554276316
 11
214.9441775183
 21
154.8554276316
  0
LINE
  5
34D
100
AcDbEntity
  8
0
100
AcDbLine
 62
7
  6
CONTINUOUS
 10
216.539922903
 20
155.8554276316
 11
216.539922903
 21
154.8554276316
  0
LINE
  5
34E
100
AcDbEntity
  8
0
100
AcDbLine
 62
7
  6
CONTINUOUS
 10
221.3271568219
 20
155.8554276316
 11
221.3271568219
 21
154.8554276316
  0
LINE
  5
34F
100
AcDbEntity
  8
0
100
AcDbLine
 62
7
  6
CONTINUOUS
 10
222.9229013126
 20
155.8554276316
 11
222.9229013126
 21
154.8554276316
  0
LINE
  5
350
100
AcDbEntity
  8
0
100
AcDbLine
 62
7
  6
CONTINUOUS
 10
224.1994971286
 20
155.8554276316
 11
224.1994971286
 21
154.8554276316
  0
LINE
  5
351
100
AcDbEntity
  8
0
100
AcDbLine
 62
7
  6
CONTINUOUS
 10
225.4760928328
 20
155.8554276316
 11
225.4760928328
 21
154.8554276316
  0
LINE
  5
352
100
AcDbEntity
  8
0
100
AcDbLine
 62
7
  6
CONTINUOUS
 10
226.1143907129
 20
155.8554276316
 11
226.1143907129
 21
154.8554276316
  0
LINE
  5
353
100
AcDbEntity
  8
0
100
AcDbLine
 62
7
  6
CONTINUOUS
 10
226.433539639
 20
155.8554276316
 11
226.433539639
 21
154.8554276316
  0
LINE
  5
354
100
AcDbEntity
  8
BEZUGSACHSEN
100
AcDbLine
 62
7
  6
CONTINUOUS
 10
207.513539639
 20
125.8554276316
 11
197.9200770718
 21
65.2846888174
  0
LINE
  5
355
100
AcDbEntity
  8
BEZUGSACHSEN
100
AcDbLine
 62
7
  6
CONTINUOUS
 10
197.9462284599
 20
65.4258949476
 11
197.2852439495
 21
61.4920694614
  0
LINE
  5
356
100
AcDbEntity
  8
BEZUGSACHSEN
100
AcDbLine
 62
7
  6
CONTINUOUS
 10
197.9462284599
 20
286.2849603156
 11
197.2852439495
 21
290.2187858018
  0
LINE
  5
357
100
AcDbEntity
  8
BEZUGSACHSEN
100
AcDbLine
 62
7
  6
CONTINUOUS
 10
207.513539639
 20
225.8554276316
 11
197.9200770718
 21
286.4261664458
  0
LINE
  5
358
100
AcDbEntity
  8
0
100
AcDbLine
 62
7
  6
CONTINUOUS
 10
178.3844368399
 20
52.8554276316
 11
109.513539639
 21
52.8554276316
  0
LINE
  5
359
100
AcDbEntity
  8
RUNDUNGEN
100
AcDbLine
 62
7
  6
CONTINUOUS
 10
586.642642438
 20
52.8554276316
 11
655.513539639
 21
52.8554276316
  0
LWPOLYLINE
  5
35A
100
AcDbEntity
  8
BEZUGSACHSEN
100
AcDbPolyline
 62
7
  6
CONTINUOUS
 90
19
 70
0
 10
281.7349258965
 20
146.6758993911
 10
281.7912291771
 20
146.7623105147
 10
281.8986223662
 20
146.9157831685
 10
282.0223917899
 20
147.0771641597
 10
282.1633855793
 20
147.2443392516
 10
282.3224268996
 20
147.4151818554
 10
282.5003366377
 20
147.5875602196
 10
282.6978226341
 20
147.7592158521
 10
282.9152649447
 20
147.9276242863
 10
283.1531587975
 20
148.0903812617
 10
283.4106553262
 20
148.2442859656
 10
283.6872797906
 20
148.386652434
 10
283.9803921978
 20
148.5140672304
 10
284.2873784468
 20
148.6238453269
 10
284.6051325103
 20
148.7137857075
 10
284.9302228625
 20
148.782293949
 10
285.2592374539
 20
148.8284639081
 10
285.5876125584
 20
148.8519776591
 10
285.7710310499
 20
148.8554342586
  0
LINE
  5
35B
100
AcDbEntity
  8
0
100
AcDbLine
 62
7
  6
CONTINUOUS
 10
557.513539639
 20
144.3554276316
 11
487.513539639
 21
144.3554276316
  0
LINE
  5
35C
100
AcDbEntity
  8
BEZUGSACHSEN
100
AcDbLine
 62
7
  6
CONTINUOUS
 10
277.513539639
 20
144.3554276316
 11
207.513539639
 21
144.3554276316
  0
LINE
  5
35D
100
AcDbEntity
  8
RUNDUNGEN
100
AcDbLine
 62
7
  6
CONTINUOUS
 10
552.3725518911
 20
148.8554276316
 11
532.0547420831
 21
148.8554276316
  0
LINE
  5
35E
100
AcDbEntity
  8
BEZUGSACHSEN
100
AcDbLine
 62
7
  6
CONTINUOUS
 10
522.9741340483
 20
148.8554276316
 11
242.0529452297
 21
148.8554276316
  0
LINE
  5
35F
100
AcDbEntity
  8
BEZUGSACHSEN
100
AcDbLine
 62
7
  6
CONTINUOUS
 10
212.6545273869
 20
148.8554276316
 11
232.9723371949
 21
148.8554276316
  0
LINE
  5
360
100
AcDbEntity
  8
0
100
AcDbLine
 62
7
  6
CONTINUOUS
 10
557.865204399
 20
154.8554276316
 11
554.79341401
 21
154.8554276316
  0
LINE
  5
361
100
AcDbEntity
  8
0
100
AcDbLine
 62
7
  6
CONTINUOUS
 10
554.7295589755
 20
154.8554276316
 11
537.8652171606
 21
154.8554276316
  0
LINE
  5
362
100
AcDbEntity
  8
0
100
AcDbLine
 62
7
  6
CONTINUOUS
 10
226.433539639
 20
154.8554276316
 11
211.433539639
 21
154.8554276316
  0
LINE
  5
363
100
AcDbEntity
  8
RUNDUNGEN
100
AcDbLine
 62
7
  6
CONTINUOUS
 10
563.2078157636
 20
155.8554276316
 11
386.3403739626
 21
155.8554276316
  0
LINE
  5
364
100
AcDbEntity
  8
BEZUGSACHSEN
100
AcDbLine
 62
7
  6
CONTINUOUS
 10
201.8192635143
 20
155.8554276316
 11
386.3403739626
 21
155.8554276316
  0
LWPOLYLINE
  5
365
100
AcDbEntity
  8
RUNDUNGEN
100
AcDbPolyline
 62
7
  6
CONTINUOUS
 90
19
 70
0
 10
479.2560497062
 20
148.855434259
 10
479.4258046504
 20
148.8524734676
 10
479.7535648003
 20
148.8299514684
 10
480.0820631689
 20
148.7848638841
 10
480.4067699431
 20
148.7175037285
 10
480.7242929042
 20
148.6287497605
 10
481.0312195955
 20
148.5201615988
 10
481.3244576361
 20
148.3939000811
 10
481.6013911266
 20
148.2526114294
 10
481.859382944
 20
148.099661244
 10
482.0979210078
 20
147.9377189422
 10
482.3161308708
 20
147.7699636973
 10
482.5144697878
 20
147.5987996027
 10
482.6932830084
 20
147.4267560076
 10
482.8532597148
 20
147.2560891332
 10
482.9952025181
 20
147.0889321119
 10
483.1199124019
 20
146.9274222015
 10
483.2282212863
 20
146.7736825738
 10
483.2921539094
 20
146.6758985593
  0
LINE
  5
366
100
AcDbEntity
  8
BEZUGSACHSEN
100
AcDbLine
 62
7
  6
CONTINUOUS
 10
201.8192635143
 20
195.8554276316
 11
563.2078157636
 21
195.8554276316
  0
LINE
  5
367
100
AcDbEntity
  8
0
100
AcDbLine
 62
7
  6
CONTINUOUS
 10
536.803539639
 20
196.8554276316
 11
551.803539639
 21
196.8554276316
  0
LINE
  5
368
100
AcDbEntity
  8
BEZUGSACHSEN
100
AcDbLine
 62
7
  6
CONTINUOUS
 10
552.3725518911
 20
202.8554276316
 11
532.0547420831
 21
202.8554276316
  0
LINE
  5
369
100
AcDbEntity
  8
BEZUGSACHSEN
100
AcDbLine
 62
7
  6
CONTINUOUS
 10
522.9741340483
 20
202.8554276316
 11
242.0529452297
 21
202.8554276316
  0
LINE
  5
36A
100
AcDbEntity
  8
BEZUGSACHSEN
100
AcDbLine
 62
7
  6
CONTINUOUS
 10
212.6545273869
 20
202.8554276316
 11
232.9723371949
 21
202.8554276316
  0
LINE
  5
36B
100
AcDbEntity
  8
BEZUGSACHSEN
100
AcDbLine
 62
7
  6
CONTINUOUS
 10
207.513539639
 20
207.3554276316
 11
277.513539639
 21
207.3554276316
  0
LINE
  5
36C
100
AcDbEntity
  8
BEZUGSACHSEN
100
AcDbLine
 62
7
  6
CONTINUOUS
 10
487.513539639
 20
207.3554276316
 11
557.513539639
 21
207.3554276316
  0
LWPOLYLINE
  5
36D
100
AcDbEntity
  8
BEZUGSACHSEN
100
AcDbPolyline
 62
7
  6
CONTINUOUS
 90
19
 70
0
 10
285.7710295717
 20
202.8554210042
 10
285.6012746275
 20
202.8583817956
 10
285.2735144777
 20
202.8809037947
 10
284.9450161091
 20
202.925991379
 10
284.6203093348
 20
202.9933515347
 10
284.3027863738
 20
203.0821055026
 10
283.9958596825
 20
203.1906936644
 10
283.7026216418
 20
203.316955182
 10
283.4256881514
 20
203.4582438338
 10
283.1676963339
 20
203.6111940192
 10
282.9291582702
 20
203.773136321
 10
282.7109484071
 20
203.9408915659
 10
282.5126094901
 20
204.1120556604
 10
282.3337962695
 20
204.2840992556
 10
282.1738195632
 20
204.45476613
 10
282.0318767599
 20
204.6219231513
 10
281.907166876
 20
204.7834330616
 10
281.7988579917
 20
204.9371726893
 10
281.7349253686
 20
205.0349567039
  0
LWPOLYLINE
  5
36E
100
AcDbEntity
  8
BEZUGSACHSEN
100
AcDbPolyline
 62
7
  6
CONTINUOUS
 90
19
 70
0
 10
483.2921533814
 20
205.034955872
 10
483.2358501009
 20
204.9485447485
 10
483.1284569117
 20
204.7950720947
 10
483.0046874881
 20
204.6336911035
 10
482.8636936987
 20
204.4665160115
 10
482.7046523783
 20
204.2956734077
 10
482.5267426403
 20
204.1232950436
 10
482.3292566438
 20
203.951639411
 10
482.1118143333
 20
203.7832309769
 10
481.8739204804
 20
203.6204740014
 10
481.6164239517
 20
203.4665692975
 10
481.3397994874
 20
203.3242028292
 10
481.0466870802
 20
203.1967880328
 10
480.7397008311
 20
203.0870099362
 10
480.4219467677
 20
202.9970695557
 10
480.0968564155
 20
202.9285613141
 10
479.7678418241
 20
202.882391355
 10
479.4394667196
 20
202.858877604
 10
479.256048228
 20
202.8554210045
  0
LINE
  5
36F
100
AcDbEntity
  8
RUNDUNGEN
100
AcDbLine
 62
7
  6
CONTINUOUS
 10
178.3844368399
 20
298.8554276316
 11
109.513539639
 21
298.8554276316
  0
LINE
  5
370
100
AcDbEntity
  8
0
100
AcDbLine
 62
7
  6
CONTINUOUS
 10
586.642642438
 20
298.8554276316
 11
655.513539639
 21
298.8554276316
  0
LINE
  5
371
100
AcDbEntity
  8
0
100
AcDbLine
 62
7
  6
CONTINUOUS
 10
536.803539639
 20
195.8554276316
 11
536.803539639
 21
196.8554276316
  0
LINE
  5
372
100
AcDbEntity
  8
0
100
AcDbLine
 62
7
  6
CONTINUOUS
 10
537.122688565
 20
195.8554276316
 11
537.122688565
 21
196.8554276316
  0
LINE
  5
373
100
AcDbEntity
  8
0
100
AcDbLine
 62
7
  6
CONTINUOUS
 10
537.7609864451
 20
195.8554276316
 11
537.7609864451
 21
196.8554276316
  0
LINE
  5
374
100
AcDbEntity
  8
0
100
AcDbLine
 62
7
  6
CONTINUOUS
 10
537.8652107798
 20
155.8554276316
 11
537.8652107798
 21
154.8554276316
  0
LINE
  5
375
100
AcDbEntity
  8
0
100
AcDbLine
 62
7
  6
CONTINUOUS
 10
537.9153364087
 20
155.8554276316
 11
537.9153364087
 21
154.8554276316
  0
LINE
  5
376
100
AcDbEntity
  8
0
100
AcDbLine
 62
7
  6
CONTINUOUS
 10
539.0375821494
 20
195.8554276316
 11
539.0375821494
 21
196.8554276316
  0
LINE
  5
377
100
AcDbEntity
  8
0
100
AcDbLine
 62
7
  6
CONTINUOUS
 10
540.3141779654
 20
195.8554276316
 11
540.3141779654
 21
196.8554276316
  0
LINE
  5
378
100
AcDbEntity
  8
0
100
AcDbLine
 62
7
  6
CONTINUOUS
 10
540.9370075495
 20
155.8554276316
 11
540.9370075495
 21
154.8554276316
  0
LINE
  5
379
100
AcDbEntity
  8
0
100
AcDbLine
 62
7
  6
CONTINUOUS
 10
541.909922456
 20
195.8554276316
 11
541.909922456
 21
196.8554276316
  0
LINE
  5
37A
100
AcDbEntity
  8
0
100
AcDbLine
 62
7
  6
CONTINUOUS
 10
546.343539639
 20
155.8554276316
 11
546.343539639
 21
154.8554276316
  0
LINE
  5
37B
100
AcDbEntity
  8
0
100
AcDbLine
 62
7
  6
CONTINUOUS
 10
546.6971563749
 20
195.8554276316
 11
546.6971563749
 21
196.8554276316
  0
LINE
  5
37C
100
AcDbEntity
  8
0
100
AcDbLine
 62
7
  6
CONTINUOUS
 10
548.2929017596
 20
195.8554276316
 11
548.2929017596
 21
196.8554276316
  0
LINE
  5
37D
100
AcDbEntity
  8
0
100
AcDbLine
 62
7
  6
CONTINUOUS
 10
549.3652107798
 20
155.8554276316
 11
549.3652107798
 21
154.8554276316
  0
LINE
  5
37E
100
AcDbEntity
  8
0
100
AcDbLine
 62
7
  6
CONTINUOUS
 10
549.5694973521
 20
195.8554276316
 11
549.5694973521
 21
196.8554276316
  0
LINE
  5
37F
100
AcDbEntity
  8
0
100
AcDbLine
 62
7
  6
CONTINUOUS
 10
550.8460929446
 20
195.8554276316
 11
550.8460929446
 21
196.8554276316
  0
LINE
  5
380
100
AcDbEntity
  8
0
100
AcDbLine
 62
7
  6
CONTINUOUS
 10
551.4843907408
 20
195.8554276316
 11
551.4843907408
 21
196.8554276316
  0
LINE
  5
381
100
AcDbEntity
  8
0
100
AcDbLine
 62
7
  6
CONTINUOUS
 10
551.803539639
 20
195.8554276316
 11
551.803539639
 21
196.8554276316
  0
LINE
  5
382
100
AcDbEntity
  8
0
100
AcDbLine
 62
7
  6
CONTINUOUS
 10
554.79341401
 20
155.8554276316
 11
554.79341401
 21
154.8554276316
  0
LINE
  5
383
100
AcDbEntity
  8
BEZUGSACHSEN
100
AcDbLine
 62
7
  6
CONTINUOUS
 10
557.513539639
 20
225.8554276316
 11
567.1070022061
 21
286.4261664458
  0
LINE
  5
384
100
AcDbEntity
  8
BEZUGSACHSEN
100
AcDbLine
 62
7
  6
CONTINUOUS
 10
567.080850818
 20
286.2849603156
 11
567.7418353285
 21
290.2187858018
  0
LINE
  5
385
100
AcDbEntity
  8
BEZUGSACHSEN
100
AcDbLine
 62
7
  6
CONTINUOUS
 10
567.080850818
 20
65.4258949476
 11
567.7418353285
 21
61.4920694614
  0
LINE
  5
386
100
AcDbEntity
  8
BEZUGSACHSEN
100
AcDbLine
 62
7
  6
CONTINUOUS
 10
557.513539639
 20
125.8554276316
 11
567.1070022061
 21
65.2846888174
  0
LINE
  5
387
100
AcDbEntity
  8
BEZUGSACHSEN
100
AcDbLine
 62
7
  6
CONTINUOUS
 10
557.513539639
 20
150.8344629836
 11
557.513539639
 21
125.8554276316
  0
LINE
  5
388
100
AcDbEntity
  8
BEZUGSACHSEN
100
AcDbLine
 62
7
  6
CONTINUOUS
 10
557.513539639
 20
200.8763922796
 11
557.513539639
 21
225.8554276316
  0
LINE
  5
389
100
AcDbEntity
  8
0
100
AcDbLine
 62
7
  6
CONTINUOUS
 10
557.8150851508
 20
155.8554276316
 11
557.8150851508
 21
154.8554276316
  0
LINE
  5
38A
100
AcDbEntity
  8
0
100
AcDbLine
 62
7
  6
CONTINUOUS
 10
557.8652107798
 20
155.8554276316
 11
557.8652107798
 21
154.8554276316
  0
LINE
  5
38B
100
AcDbEntity
  8
RUNDUNGEN
100
AcDbLine
 62
7
  6
CONTINUOUS
 10
568.2078867493
 20
160.8554276316
 11
568.2078867493
 21
190.8554276316
  0
LINE
  5
38C
100
AcDbEntity
  8
0
100
AcDbLine
 62
7
  6
CONTINUOUS
 10
611.4232936435
 20
105.4074498262
 11
611.4232936435
 21
96.8178824422
  0
LINE
  5
38D
100
AcDbEntity
  8
0
100
AcDbLine
 62
7
  6
CONTINUOUS
 10
611.4232936435
 20
95.9263330619
 11
611.4232936435
 21
92.579343729
  0
LINE
  5
38E
100
AcDbEntity
  8
0
100
AcDbLine
 62
7
  6
CONTINUOUS
 10
611.4232936435
 20
86.6546244511
 11
611.4232936435
 21
83.2201095846
  0
LINE
  5
38F
100
AcDbEntity
  8
0
100
AcDbLine
 62
7
  6
CONTINUOUS
 10
611.4232936435
 20
77.6588396498
 11
611.4232936435
 21
68.1169043964
  0
LINE
  5
390
100
AcDbEntity
  8
0
100
AcDbLine
 62
7
  6
CONTINUOUS
 10
611.8062723213
 20
106.9188758561
 11
611.8062723213
 21
105.4119458779
  0
LINE
  5
391
100
AcDbEntity
  8
0
100
AcDbLine
 62
7
  6
CONTINUOUS
 10
611.8062723213
 20
79.3589298308
 11
611.8062723213
 21
77.8192646784
  0
LINE
  5
392
100
AcDbEntity
  8
0
100
AcDbLine
 62
7
  6
CONTINUOUS
 10
612.5722296768
 20
108.1934999116
 11
612.5722296768
 21
106.6944417532
  0
LINE
  5
393
100
AcDbEntity
  8
0
100
AcDbLine
 62
7
  6
CONTINUOUS
 10
612.9552083545
 20
80.8459566522
 11
612.9552083545
 21
79.3191368884
  0
LINE
  5
394
100
AcDbEntity
  8
0
100
AcDbLine
 62
7
  6
CONTINUOUS
 10
613.3381870323
 20
70.477975153
 11
613.3381870323
 21
76.7757525363
  0
LINE
  5
395
100
AcDbEntity
  8
0
100
AcDbLine
 62
7
  6
CONTINUOUS
 10
613.72116571
 20
98.9958709469
 11
613.72116571
 21
104.2808623641
  0
LINE
  5
396
100
AcDbEntity
  8
0
100
AcDbLine
 62
7
  6
CONTINUOUS
 10
614.1041443878
 20
109.555769218
 11
614.1041443878
 21
108.0696378491
  0
LINE
  5
397
100
AcDbEntity
  8
0
100
AcDbLine
 62
7
  6
CONTINUOUS
 10
614.4871230655
 20
82.0284813703
 11
614.4871230655
 21
80.5151056283
  0
LINE
  5
398
100
AcDbEntity
  8
0
100
AcDbLine
 62
7
  6
CONTINUOUS
 10
615.5732936435
 20
261.1388405486
 11
615.5732936435
 21
270.9402000988
  0
LINE
  5
399
100
AcDbEntity
  8
0
100
AcDbLine
 62
7
  6
CONTINUOUS
 10
615.5732936435
 20
271.1607153785
 11
615.5732936435
 21
275.1500920813
  0
LINE
  5
39A
100
AcDbEntity
  8
0
100
AcDbLine
 62
7
  6
CONTINUOUS
 10
615.5732936435
 20
275.3017077394
 11
615.5732936435
 21
279.8561720744
  0
LINE
  5
39B
100
AcDbEntity
  8
0
100
AcDbLine
 62
7
  6
CONTINUOUS
 10
615.5732936435
 20
282.9060946806
 11
615.5732936435
 21
287.4979408504
  0
LINE
  5
39C
100
AcDbEntity
  8
0
100
AcDbLine
 62
7
  6
CONTINUOUS
 10
615.6360590988
 20
110.3022552693
 11
615.6360590988
 21
108.8261665847
  0
LINE
  5
39D
100
AcDbEntity
  8
0
100
AcDbLine
 62
7
  6
CONTINUOUS
 10
615.6360590988
 20
82.4825943491
 11
615.6360590988
 21
80.9769684809
  0
LINE
  5
39E
100
AcDbEntity
  8
0
100
AcDbLine
 62
7
  6
CONTINUOUS
 10
617.1679748827
 20
82.621763425
 11
617.1679748827
 21
81.123683421
  0
LINE
  5
39F
100
AcDbEntity
  8
0
100
AcDbLine
 62
7
  6
CONTINUOUS
 10
617.5509535604
 20
110.7498012224
 11
617.5509535604
 21
109.2826963793
  0
LINE
  5
3A0
100
AcDbEntity
  8
0
100
AcDbLine
 62
7
  6
CONTINUOUS
 10
618.0824582153
 20
264.7923256678
 11
618.0824582153
 21
270.7201033814
  0
LINE
  5
3A1
100
AcDbEntity
  8
0
100
AcDbLine
 62
7
  6
CONTINUOUS
 10
618.3169109159
 20
82.3768498855
 11
618.3169109159
 21
80.8824044512
  0
LINE
  5
3A2
100
AcDbEntity
  8
0
100
AcDbLine
 62
7
  6
CONTINUOUS
 10
619.0828682714
 20
77.350842197
 11
619.0828682714
 21
71.0573406676
  0
LINE
  5
3A3
100
AcDbEntity
  8
0
100
AcDbLine
 62
7
  6
CONTINUOUS
 10
619.8488256269
 20
81.4752504797
 11
619.8488256269
 21
79.9828293061
  0
LINE
  5
3A4
100
AcDbEntity
  8
0
100
AcDbLine
 62
7
  6
CONTINUOUS
 10
620.6147829824
 20
80.1967790748
 11
620.6147829824
 21
78.7032320474
  0
LINE
  5
3A5
100
AcDbEntity
  8
0
100
AcDbLine
 62
7
  6
CONTINUOUS
 10
621.2569325739
 20
269.861172569
 11
621.2569325739
 21
264.6840214628
  0
LINE
  5
3A6
100
AcDbEntity
  8
0
100
AcDbLine
 62
7
  6
CONTINUOUS
 10
621.3807403379
 20
71.1127221433
 11
621.3807403379
 21
76.7508267583
  0
LINE
  5
3A7
100
AcDbEntity
  8
0
100
AcDbLine
 62
7
  6
CONTINUOUS
 10
622.4354800754
 20
278.7965536303
 11
622.4354800754
 21
280.3026587442
  0
LINE
  5
3A8
100
AcDbEntity
  8
0
100
AcDbLine
 62
7
  6
CONTINUOUS
 10
623.2956342631
 20
110.8583738757
 11
623.2956342631
 21
109.3970515635
  0
LINE
  5
3A9
100
AcDbEntity
  8
0
100
AcDbLine
 62
7
  6
CONTINUOUS
 10
623.2956342631
 20
96.7992403692
 11
623.2956342631
 21
95.3267085292
  0
LINE
  5
3AA
100
AcDbEntity
  8
0
100
AcDbLine
 62
7
  6
CONTINUOUS
 10
623.2956342631
 20
87.5341491026
 11
623.2956342631
 21
86.0504152642
  0
LINE
  5
3AB
100
AcDbEntity
  8
0
100
AcDbLine
 62
7
  6
CONTINUOUS
 10
623.7660975629
 20
264.7303036758
 11
623.7660975629
 21
269.9076857408
  0
LINE
  5
3AC
100
AcDbEntity
  8
0
100
AcDbLine
 62
7
  6
CONTINUOUS
 10
624.8275489741
 20
87.7803838059
 11
624.8275489741
 21
86.293410267
  0
LINE
  5
3AD
100
AcDbEntity
  8
0
100
AcDbLine
 62
7
  6
CONTINUOUS
 10
625.2105276519
 20
110.4840290106
 11
625.2105276519
 21
109.0177147075
  0
LINE
  5
3AE
100
AcDbEntity
  8
0
100
AcDbLine
 62
7
  6
CONTINUOUS
 10
625.2105276519
 20
96.4047649867
 11
625.2105276519
 21
94.9270239371
  0
LINE
  5
3AF
100
AcDbEntity
  8
0
100
AcDbLine
 62
7
  6
CONTINUOUS
 10
625.9764850074
 20
88.3301936866
 11
625.9764850074
 21
86.8398393424
  0
LINE
  5
3B0
100
AcDbEntity
  8
0
100
AcDbLine
 62
7
  6
CONTINUOUS
 10
626.7424426311
 20
109.7970057465
 11
626.7424426311
 21
108.323993093
  0
LINE
  5
3B1
100
AcDbEntity
  8
0
100
AcDbLine
 62
7
  6
CONTINUOUS
 10
626.7424426311
 20
95.6778945097
 11
626.7424426311
 21
94.1930505358
  0
LINE
  5
3B2
100
AcDbEntity
  8
0
100
AcDbLine
 62
7
  6
CONTINUOUS
 10
626.7424426311
 20
89.2043937154
 11
626.7424426311
 21
87.7117498926
  0
LINE
  5
3B3
100
AcDbEntity
  8
0
100
AcDbLine
 62
7
  6
CONTINUOUS
 10
627.1254213088
 20
104.5515369044
 11
627.1254213088
 21
99.2673430642
  0
LINE
  5
3B4
100
AcDbEntity
  8
0
100
AcDbLine
 62
7
  6
CONTINUOUS
 10
627.1254213088
 20
90.1639638201
 11
627.1254213088
 21
88.9218760012
  0
LINE
  5
3B5
100
AcDbEntity
  8
0
100
AcDbLine
 62
7
  6
CONTINUOUS
 10
628.2743574762
 20
108.4953631686
 11
628.2743574762
 21
107.012962284
  0
LINE
  5
3B6
100
AcDbEntity
  8
0
100
AcDbLine
 62
7
  6
CONTINUOUS
 10
628.2743574762
 20
94.2969210843
 11
628.2743574762
 21
92.8019104886
  0
LINE
  5
3B7
100
AcDbEntity
  8
0
100
AcDbLine
 62
7
  6
CONTINUOUS
 10
629.0403149323
 20
107.2516553188
 11
629.0403149323
 21
105.7632483778
  0
LINE
  5
3B8
100
AcDbEntity
  8
0
100
AcDbLine
 62
7
  6
CONTINUOUS
 10
629.0403149323
 20
92.9741423487
 11
629.0403149323
 21
91.4723730867
  0
LINE
  5
3B9
100
AcDbEntity
  8
0
100
AcDbLine
 62
7
  6
CONTINUOUS
 10
629.4232936435
 20
68.4970616835
 11
629.4232936435
 21
72.0560054572
  0
LINE
  5
3BA
100
AcDbEntity
  8
0
100
AcDbLine
 62
7
  6
CONTINUOUS
 10
629.4232936435
 20
78.7722881549
 11
629.4232936435
 21
82.5532902022
  0
LINE
  5
3BB
100
AcDbEntity
  8
0
100
AcDbLine
 62
7
  6
CONTINUOUS
 10
629.4232936435
 20
88.6309635008
 11
629.4232936435
 21
91.3799143621
  0
LINE
  5
3BC
100
AcDbEntity
  8
0
100
AcDbLine
 62
7
  6
CONTINUOUS
 10
629.4232936435
 20
97.1874299116
 11
629.4232936435
 21
105.7559877006
  0
LINE
  5
3BD
100
AcDbEntity
  8
0
100
AcDbLine
 62
7
  6
CONTINUOUS
 10
629.5732936435
 20
261.4024355823
 11
629.5732936435
 21
265.2898164517
  0
LINE
  5
3BE
100
AcDbEntity
  8
0
100
AcDbLine
 62
7
  6
CONTINUOUS
 10
629.5732936435
 20
271.4268358157
 11
629.5732936435
 21
279.8937391986
  0
LINE
  5
3BF
100
AcDbEntity
  8
0
100
AcDbLine
 62
7
  6
CONTINUOUS
 10
629.5732936435
 20
283.2878395297
 11
629.5732936435
 21
288.0633289385
  0
LINE
  5
3C0
100
AcDbEntity
  8
RUNDUNGEN
100
AcDbLine
 62
7
  6
CONTINUOUS
 10
680.513539639
 20
121.9877178074
 11
680.513539639
 21
77.8554276316
  0
LINE
  5
3C1
100
AcDbEntity
  8
0
100
AcDbLine
 62
7
  6
CONTINUOUS
 10
680.513539639
 20
121.9877178074
 11
680.513539639
 21
273.8554276316
  0
ARC
  5
3C2
100
AcDbEntity
  8
0
100
AcDbCircle
 62
7
  6
CONTINUOUS
 10
295.2021061362
 20
531.6369335421
 40
352.2511520931
100
AcDbArc
 50
341.3927061425
 51
341.5889340196
  0
ARC
  5
3C3
100
AcDbEntity
  8
0
100
AcDbCircle
 62
7
  6
CONTINUOUS
 10
300.7613107893
 20
531.2010546057
 40
346.3625246395
100
AcDbArc
 50
341.4039133869
 51
341.6036121589
  0
ARC
  5
3C4
100
AcDbEntity
  8
0
100
AcDbCircle
 62
7
  6
CONTINUOUS
 10
290.4954638012
 20
543.090904577
 40
338.8963868966
100
AcDbArc
 50
341.2587489233
 51
341.4613287615
  0
ARC
  5
3C5
100
AcDbEntity
  8
0
100
AcDbCircle
 62
7
  6
CONTINUOUS
 10
358.6300343498
 20
539.7080271419
 40
276.7703283818
100
AcDbArc
 50
337.1715775323
 51
337.3768019156
  0
ARC
  5
3C6
100
AcDbEntity
  8
0
100
AcDbCircle
 62
7
  6
CONTINUOUS
 10
367.2238507409
 20
538.0104985834
 40
267.6127372601
100
AcDbArc
 50
337.0870004296
 51
337.2985299993
  0
ARC
  5
3C7
100
AcDbEntity
  8
0
100
AcDbCircle
 62
7
  6
CONTINUOUS
 10
380.5512728786
 20
524.7021416506
 40
267.2610666997
100
AcDbArc
 50
337.0967913752
 51
337.3086870044
  0
ARC
  5
3C8
100
AcDbEntity
  8
0
100
AcDbCircle
 62
7
  6
CONTINUOUS
 10
430.9546979451
 20
487.9583852772
 40
194.9373051905
100
AcDbArc
 50
337.7859080343
 51
338.0855644976
  0
ARC
  5
3C9
100
AcDbEntity
  8
0
100
AcDbCircle
 62
7
  6
CONTINUOUS
 10
518.3966028443
 20
506.4569220284
 40
140.885446687
100
AcDbArc
 50
321.2521967151
 51
321.7526181483
  0
ARC
  5
3CA
100
AcDbEntity
  8
0
100
AcDbCircle
 62
7
  6
CONTINUOUS
 10
521.6663810296
 20
505.0402749416
 40
136.5077360325
100
AcDbArc
 50
321.3491577212
 51
321.8668277299
  0
ARC
  5
3CB
100
AcDbEntity
  8
0
100
AcDbCircle
 62
7
  6
CONTINUOUS
 10
514.8038089984
 20
480.6865962112
 40
119.7710110557
100
AcDbArc
 50
325.3549572744
 51
325.6785530993
  0
ARC
  5
3CC
100
AcDbEntity
  8
0
100
AcDbCircle
 62
7
  6
CONTINUOUS
 10
519.7125864586
 20
479.3890973608
 40
114.127359818
100
AcDbArc
 50
325.1209173309
 51
325.4585700656
  0
ARC
  5
3CD
100
AcDbEntity
  8
0
100
AcDbCircle
 62
7
  6
CONTINUOUS
 10
535.1015860083
 20
506.1513974853
 40
104.3924141461
100
AcDbArc
 50
317.2880052021
 51
317.9114578864
  0
ARC
  5
3CE
100
AcDbEntity
  8
0
100
AcDbCircle
 62
7
  6
CONTINUOUS
 10
162.3646346712
 20
469.7730550444
 40
65.9483197595
100
AcDbArc
 50
245.916996082
 51
248.0488856478
  0
ARC
  5
3CF
100
AcDbEntity
  8
0
100
AcDbCircle
 62
7
  6
CONTINUOUS
 10
126.2219901572
 20
468.5899348554
 40
63.8166240368
100
AcDbArc
 50
289.4589630525
 51
291.3485065677
  0
ARC
  5
3D0
100
AcDbEntity
  8
0
100
AcDbCircle
 62
7
  6
CONTINUOUS
 10
161.1367897664
 20
467.6246319422
 40
62.0849795868
100
AcDbArc
 50
245.564097195
 51
250.4281793097
  0
ARC
  5
3D1
100
AcDbEntity
  8
0
100
AcDbCircle
 62
7
  6
CONTINUOUS
 10
127.546426536
 20
465.9288648639
 40
59.4397147256
100
AcDbArc
 50
286.8707270869
 51
291.6271034961
  0
ARC
  5
3D2
100
AcDbEntity
  8
0
100
AcDbCircle
 62
7
  6
CONTINUOUS
 10
143.5150073402
 20
475.244945865
 40
56.9367259869
100
AcDbArc
 50
270.2567491792
 51
273.45333195
  0
ARC
  5
3D3
100
AcDbEntity
  8
0
100
AcDbCircle
 62
7
  6
CONTINUOUS
 10
143.5133744588
 20
471.5577557923
 40
56.722454997
100
AcDbArc
 50
267.7242427666
 51
270.259368467
  0
ARC
  5
3D4
100
AcDbEntity
  8
0
100
AcDbCircle
 62
7
  6
CONTINUOUS
 10
143.4871855428
 20
474.7580823487
 40
56.4492644959
100
AcDbArc
 50
261.8183541309
 51
267.7398258148
  0
ARC
  5
3D5
100
AcDbEntity
  8
0
100
AcDbCircle
 62
7
  6
CONTINUOUS
 10
143.5140355133
 20
467.9225171629
 40
56.2421042143
100
AcDbArc
 50
263.5458868449
 51
274.6050673833
  0
ARC
  5
3D6
100
AcDbEntity
  8
0
100
AcDbCircle
 62
7
  6
CONTINUOUS
 10
143.5151649835
 20
473.8407127759
 40
54.0515180661
100
AcDbArc
 50
270.2702871474
 51
273.6377411954
  0
ARC
  5
3D7
100
AcDbEntity
  8
0
100
AcDbCircle
 62
7
  6
CONTINUOUS
 10
143.5177740854
 20
475.4787536156
 40
54.0342077707
100
AcDbArc
 50
261.4171962427
 51
276.3070462693
  0
ARC
  5
3D8
100
AcDbEntity
  8
0
100
AcDbCircle
 62
7
  6
CONTINUOUS
 10
143.5133569727
 20
470.1736549931
 40
53.8500555282
100
AcDbArc
 50
267.602801828
 51
270.2732220691
  0
ARC
  5
3D9
100
AcDbEntity
  8
0
100
AcDbCircle
 62
7
  6
CONTINUOUS
 10
143.5177185294
 20
468.2485255798
 40
53.5186794268
100
AcDbArc
 50
261.3339478292
 51
276.3681100648
  0
ARC
  5
3DA
100
AcDbEntity
  8
0
100
AcDbCircle
 62
7
  6
CONTINUOUS
 10
143.4593227808
 20
473.0689790761
 40
53.2782734632
100
AcDbArc
 50
261.3580669238
 51
267.635219305
  0
ARC
  5
3DB
100
AcDbEntity
  8
0
100
AcDbCircle
 62
7
  6
CONTINUOUS
 10
143.545778192
 20
469.1069505857
 40
53.2689485796
100
AcDbArc
 50
273.658261222
 51
276.3677198343
  0
ARC
  5
3DC
100
AcDbEntity
  8
0
100
AcDbCircle
 62
7
  6
CONTINUOUS
 10
143.515114726
 20
466.4229839476
 40
53.2471453802
100
AcDbArc
 50
261.2922469726
 51
276.403539055
  0
ARC
  5
3DD
100
AcDbEntity
  8
0
100
AcDbCircle
 62
7
  6
CONTINUOUS
 10
158.1400720922
 20
459.9383248153
 40
52.6112368367
100
AcDbArc
 50
255.3079601463
 51
260.4967671808
  0
ARC
  5
3DE
100
AcDbEntity
  8
BEZUGSACHSEN
100
AcDbCircle
 62
7
  6
CONTINUOUS
 10
277.513539639
 20
387.6357188627
 40
5.0
100
AcDbArc
 50
270.0
 51
345.5224878141
  0
ARC
  5
3DF
100
AcDbEntity
  8
0
100
AcDbCircle
 62
7
  6
CONTINUOUS
 10
487.513539639
 20
387.6357188627
 40
5.0
100
AcDbArc
 50
194.4775121859
 51
270.0
  0
ARC
  5
3E0
100
AcDbEntity
  8
BEZUGSACHSEN
100
AcDbCircle
 62
7
  6
CONTINUOUS
 10
477.8310812711
 20
385.1357188887
 40
4.9999999959
100
AcDbArc
 50
14.477511891
 51
89.9999999726
  0
ARC
  5
3E1
100
AcDbEntity
  8
BEZUGSACHSEN
100
AcDbCircle
 62
7
  6
CONTINUOUS
 10
287.1959980069
 20
385.1357188887
 40
4.9999999959
100
AcDbArc
 50
90.0000000274
 51
165.522488109
  0
ARC
  5
3E2
100
AcDbEntity
  8
BEZUGSACHSEN
100
AcDbCircle
 62
7
  6
CONTINUOUS
 10
209.2563897818
 20
450.6357173145
 40
4.9999997879
100
AcDbArc
 50
269.9999971902
 51
9.0000179618
  0
ARC
  5
3E3
100
AcDbEntity
  8
BEZUGSACHSEN
100
AcDbCircle
 62
7
  6
CONTINUOUS
 10
382.513539639
 20
564.1357188627
 40
126.2822021129
100
AcDbArc
 50
247.905106614
 51
292.094893386
  0
CIRCLE
  5
3E4
100
AcDbEntity
  8
BEZUGSACHSEN
100
AcDbCircle
 62
7
  6
CONTINUOUS
 10
382.513539639
 20
564.1357188627
 40
115.0
  0
ARC
  5
3E5
100
AcDbEntity
  8
BEZUGSACHSEN
100
AcDbCircle
 62
7
  6
CONTINUOUS
 10
502.6761374016
 20
684.2983166253
 40
15.0
100
AcDbArc
 50
22.4999999997
 51
67.5000000001
  0
ARC
  5
3E6
100
AcDbEntity
  8
RUNDUNGEN
100
AcDbCircle
 62
7
  6
CONTINUOUS
 10
502.6761374016
 20
684.2983166253
 40
15.0
100
AcDbArc
 50
22.5
 51
67.5
  0
ARC
  5
3E7
100
AcDbEntity
  8
BEZUGSACHSEN
100
AcDbCircle
 62
7
  6
CONTINUOUS
 10
211.8191925286
 20
562.3038820197
 40
15.0
100
AcDbArc
 50
157.5
 51
189.0
  0
ARC
  5
3E8
100
AcDbEntity
  8
BEZUGSACHSEN
100
AcDbCircle
 62
7
  6
CONTINUOUS
 10
262.3509418763
 20
684.2983166253
 40
15.0
100
AcDbArc
 50
112.5
 51
157.5
  0
ARC
  5
3E9
100
AcDbEntity
  8
BEZUGSACHSEN
100
AcDbCircle
 62
7
  6
CONTINUOUS
 10
382.513539639
 20
734.0712943086
 40
15.0
100
AcDbArc
 50
67.5
 51
112.5
  0
ARC
  5
3EA
100
AcDbEntity
  8
0
100
AcDbCircle
 62
7
  6
CONTINUOUS
 10
645.8611595055
 20
474.8376255257
 40
65.0991595446
100
AcDbArc
 50
244.9687698199
 51
246.4480638815
  0
ARC
  5
3EB
100
AcDbEntity
  8
0
100
AcDbCircle
 62
7
  6
CONTINUOUS
 10
609.5366331787
 20
470.8210594566
 40
60.4000565688
100
AcDbArc
 50
281.3086569748
 51
289.2232014468
  0
ARC
  5
3EC
100
AcDbEntity
  8
0
100
AcDbCircle
 62
7
  6
CONTINUOUS
 10
632.1395329526
 20
471.6613366761
 40
60.2226538701
100
AcDbArc
 50
255.2286188231
 51
256.3562233481
  0
ARC
  5
3ED
100
AcDbEntity
  8
0
100
AcDbCircle
 62
7
  6
CONTINUOUS
 10
615.0660826146
 20
474.162820219
 40
58.3438290403
100
AcDbArc
 50
278.1087630861
 51
280.0131087218
  0
ARC
  5
3EE
100
AcDbEntity
  8
0
100
AcDbCircle
 62
7
  6
CONTINUOUS
 10
592.5757046753
 20
466.7294889698
 40
57.5960496792
100
AcDbArc
 50
291.5389642958
 51
292.3604851903
  0
ARC
  5
3EF
100
AcDbEntity
  8
0
100
AcDbCircle
 62
7
  6
CONTINUOUS
 10
610.1510821639
 20
469.4219589629
 40
57.4403182452
100
AcDbArc
 50
281.2740109309
 51
289.6039882133
  0
ARC
  5
3F0
100
AcDbEntity
  8
0
100
AcDbCircle
 62
7
  6
CONTINUOUS
 10
631.7295049827
 20
471.5939096595
 40
57.3321375402
100
AcDbArc
 50
255.2865219852
 51
256.4705297901
  0
ARC
  5
3F1
100
AcDbEntity
  8
0
100
AcDbCircle
 62
7
  6
CONTINUOUS
 10
631.5979836733
 20
470.2500598846
 40
57.2672528089
100
AcDbArc
 50
255.0091854324
 51
256.1959865585
  0
ARC
  5
3F2
100
AcDbEntity
  8
0
100
AcDbCircle
 62
7
  6
CONTINUOUS
 10
585.4451793315
 20
465.3129323388
 40
56.620260861
100
AcDbArc
 50
297.7475729469
 51
299.0694220422
  0
ARC
  5
3F3
100
AcDbEntity
  8
0
100
AcDbCircle
 62
7
  6
CONTINUOUS
 10
613.7146913484
 20
474.4781380013
 40
56.1318238571
100
AcDbArc
 50
279.827734308
 51
281.4187338697
  0
ARC
  5
3F4
100
AcDbEntity
  8
0
100
AcDbCircle
 62
7
  6
CONTINUOUS
 10
621.4853680786
 20
472.4377930229
 40
56.064719187
100
AcDbArc
 50
259.6609649752
 51
271.850337339
  0
ARC
  5
3F5
100
AcDbEntity
  8
0
100
AcDbCircle
 62
7
  6
CONTINUOUS
 10
621.4707894964
 20
469.1541246181
 40
55.9217965219
100
AcDbArc
 50
264.0110118969
 51
265.1934423018
  0
ARC
  5
3F6
100
AcDbEntity
  8
0
100
AcDbCircle
 62
7
  6
CONTINUOUS
 10
615.3996689857
 20
472.754218966
 40
55.430789734
100
AcDbArc
 50
278.1894846941
 51
280.1946560475
  0
ARC
  5
3F7
100
AcDbEntity
  8
0
100
AcDbCircle
 62
7
  6
CONTINUOUS
 10
621.5163977904
 20
462.4683723262
 40
55.4299085111
100
AcDbArc
 50
259.5086143252
 51
278.2010308753
  0
ARC
  5
3F8
100
AcDbEntity
  8
0
100
AcDbCircle
 62
7
  6
CONTINUOUS
 10
594.2183277181
 20
465.2694438643
 40
54.2198170166
100
AcDbArc
 50
291.0817389546
 51
291.9517915875
  0
ARC
  5
3F9
100
AcDbEntity
  8
0
100
AcDbCircle
 62
7
  6
CONTINUOUS
 10
611.6404916413
 20
467.0621022442
 40
53.6734769893
100
AcDbArc
 50
273.0401705746
 51
274.2691685732
  0
ARC
  5
3FA
100
AcDbEntity
  8
0
100
AcDbCircle
 62
7
  6
CONTINUOUS
 10
621.4711387278
 20
469.1441122356
 40
53.1767027898
100
AcDbArc
 50
263.7002484735
 51
265.3584371227
  0
ARC
  5
3FB
100
AcDbEntity
  8
0
100
AcDbCircle
 62
7
  6
CONTINUOUS
 10
621.4822475661
 20
471.0040782097
 40
53.1463333907
100
AcDbArc
 50
259.0898724416
 51
271.9553479716
  0
ARC
  5
3FC
100
AcDbEntity
  8
0
100
AcDbCircle
 62
7
  6
CONTINUOUS
 10
621.4662104875
 20
467.7456729105
 40
53.0209631955
100
AcDbArc
 50
263.687026915
 51
264.9347674532
  0
ARC
  5
3FD
100
AcDbEntity
  8
0
100
AcDbCircle
 62
7
  6
CONTINUOUS
 10
621.5380332218
 20
462.3505129425
 40
52.6382131553
100
AcDbArc
 50
269.8287891769
 51
278.615398199
  0
ARC
  5
3FE
100
AcDbEntity
  8
0
100
AcDbCircle
 62
7
  6
CONTINUOUS
 10
621.4818599385
 20
462.3253349101
 40
52.6121413243
100
AcDbArc
 50
261.0955597156
 51
267.3865391272
  0
ARC
  5
3FF
100
AcDbEntity
  8
0
100
AcDbCircle
 62
7
  6
CONTINUOUS
 10
621.5167088623
 20
461.1082167574
 40
52.5600964259
100
AcDbArc
 50
258.9283904386
 51
278.6518128445
  0
ARC
  5
400
100
AcDbEntity
  8
0
100
AcDbCircle
 62
7
  6
CONTINUOUS
 10
600.9509033621
 20
465.5463079765
 40
51.149863989
100
AcDbArc
 50
283.5732848381
 51
285.3454693658
  0
ARC
  5
401
100
AcDbEntity
  8
0
100
AcDbCircle
 62
7
  6
CONTINUOUS
 10
612.0364499128
 20
467.0189990907
 40
50.8580242678
100
AcDbArc
 50
272.7619559768
 51
274.0586515253
  0
ARC
  5
402
100
AcDbEntity
  8
0
100
AcDbCircle
 62
7
  6
CONTINUOUS
 10
612.1710079578
 20
465.6465574208
 40
50.7188355632
100
AcDbArc
 50
272.6173666044
 51
273.9174316594
  0
ARC
  5
403
100
AcDbEntity
  8
BEZUGSACHSEN
100
AcDbCircle
 62
7
  6
CONTINUOUS
 10
555.7706894962
 20
450.6357173145
 40
4.9999997879
100
AcDbArc
 50
170.9999820382
 51
270.0000028098
  0
ARC
  5
404
100
AcDbEntity
  8
0
100
AcDbCircle
 62
7
  6
CONTINUOUS
 10
556.1958468857
 20
495.0688241141
 40
102.5130801646
100
AcDbArc
 50
312.8983558966
 51
313.4855529876
  0
ARC
  5
405
100
AcDbEntity
  8
0
100
AcDbCircle
 62
7
  6
CONTINUOUS
 10
560.7305594048
 20
500.5866748849
 40
84.7687257155
100
AcDbArc
 50
309.0233973125
 51
309.6929798623
  0
ARC
  5
406
100
AcDbEntity
  8
0
100
AcDbCircle
 62
7
  6
CONTINUOUS
 10
581.3792816886
 20
486.910533457
 40
83.1241482575
100
AcDbArc
 50
303.074414941
 51
304.3437770851
  0
ARC
  5
407
100
AcDbEntity
  8
0
100
AcDbCircle
 62
7
  6
CONTINUOUS
 10
583.0956430306
 20
485.377203874
 40
79.648888376
100
AcDbArc
 50
303.2292320787
 51
304.556832089
  0
ARC
  5
408
100
AcDbEntity
  8
0
100
AcDbCircle
 62
7
  6
CONTINUOUS
 10
598.4914597512
 20
479.8399479972
 40
65.8759938451
100
AcDbArc
 50
293.5646009145
 51
294.6594311204
  0
ARC
  5
409
100
AcDbEntity
  8
0
100
AcDbCircle
 62
7
  6
CONTINUOUS
 10
604.2251855171
 20
477.7943541643
 40
64.5907562795
100
AcDbArc
 50
288.9593341257
 51
290.4025789665
  0
ARC
  5
40A
100
AcDbEntity
  8
0
100
AcDbCircle
 62
7
  6
CONTINUOUS
 10
646.8234707009
 20
493.8830140244
 40
63.7240259112
100
AcDbArc
 50
249.8075393424
 51
250.9044303191
  0
ARC
  5
40B
100
AcDbEntity
  8
0
100
AcDbCircle
 62
7
  6
CONTINUOUS
 10
586.2328992401
 20
492.2042216964
 40
61.9074876379
100
AcDbArc
 50
295.1799580039
 51
296.7570287115
  0
ARC
  5
40C
100
AcDbEntity
  8
0
100
AcDbCircle
 62
7
  6
CONTINUOUS
 10
605.0687640181
 20
476.3359036367
 40
61.5275622565
100
AcDbArc
 50
289.1087157332
 51
290.6255888983
  0
ARC
  5
40D
100
AcDbEntity
  8
0
100
AcDbCircle
 62
7
  6
CONTINUOUS
 10
653.9551782539
 20
480.4663530889
 40
61.4715611169
100
AcDbArc
 50
243.7244740141
 51
245.3062791631
  0
ARC
  5
40E
100
AcDbEntity
  8
0
100
AcDbCircle
 62
7
  6
CONTINUOUS
 10
644.1399641248
 20
480.7494106477
 40
61.06794823
100
AcDbArc
 50
251.5640282641
 51
252.6966532339
  0
ARC
  5
40F
100
AcDbEntity
  8
0
100
AcDbCircle
 62
7
  6
CONTINUOUS
 10
645.4991044767
 20
492.2673103264
 40
60.3747993825
100
AcDbArc
 50
249.977620939
 51
251.1339305096
  0
ARC
  5
410
100
AcDbEntity
  8
0
100
AcDbCircle
 62
7
  6
CONTINUOUS
 10
597.1412237762
 20
491.5609952336
 40
60.3469572435
100
AcDbArc
 50
287.0845431148
 51
288.2293391132
  0
ARC
  5
411
100
AcDbEntity
  8
0
100
AcDbCircle
 62
7
  6
CONTINUOUS
 10
630.7150375093
 20
491.8050172213
 40
58.0288904236
100
AcDbArc
 50
262.6542225768
 51
264.1768717973
  0
ARC
  5
412
100
AcDbEntity
  8
0
100
AcDbCircle
 62
7
  6
CONTINUOUS
 10
642.9393774405
 20
479.2354957126
 40
57.8497648425
100
AcDbArc
 50
251.7548223175
 51
252.9489775537
  0
ARC
  5
413
100
AcDbEntity
  8
0
100
AcDbCircle
 62
7
  6
CONTINUOUS
 10
621.5138297852
 20
491.9701485209
 40
57.7452522217
100
AcDbArc
 50
266.0648767101
 51
271.7682160813
  0
ARC
  5
414
100
AcDbEntity
  8
0
100
AcDbCircle
 62
7
  6
CONTINUOUS
 10
629.8921168312
 20
479.8664073276
 40
57.275151619
100
AcDbArc
 50
263.386465432
 51
264.9269824078
  0
ARC
  5
415
100
AcDbEntity
  8
0
100
AcDbCircle
 62
7
  6
CONTINUOUS
 10
598.4662170987
 20
489.9147029292
 40
56.9684987372
100
AcDbArc
 50
286.7350609064
 51
287.945639504
  0
ARC
  5
416
100
AcDbEntity
  8
0
100
AcDbCircle
 62
7
  6
CONTINUOUS
 10
621.5164821073
 20
483.0995518818
 40
56.9637828258
100
AcDbArc
 50
259.8459816905
 51
277.9786555901
  0
ARC
  5
417
100
AcDbEntity
  8
0
100
AcDbCircle
 62
7
  6
CONTINUOUS
 10
612.4294830805
 20
490.7007628884
 40
56.5720267287
100
AcDbArc
 50
273.637922519
 51
275.1941033095
  0
ARC
  5
418
100
AcDbEntity
  8
0
100
AcDbCircle
 62
7
  6
CONTINUOUS
 10
621.4850399022
 20
479.4461991524
 40
56.5028280147
100
AcDbArc
 50
259.7423406491
 51
271.8363183061
  0
ARC
  5
419
100
AcDbEntity
  8
0
100
AcDbCircle
 62
7
  6
CONTINUOUS
 10
639.1084855532
 20
491.6785574074
 40
56.3802105572
100
AcDbArc
 50
255.7292561275
 51
257.3301378015
  0
ARC
  5
41A
100
AcDbEntity
  8
0
100
AcDbCircle
 62
7
  6
CONTINUOUS
 10
630.2407567713
 20
490.3273027669
 40
55.0524579933
100
AcDbArc
 50
262.7525608713
 51
264.3570924453
  0
ARC
  5
41B
100
AcDbEntity
  8
0
100
AcDbCircle
 62
7
  6
CONTINUOUS
 10
637.4234464559
 20
479.1874424976
 40
54.8903641009
100
AcDbArc
 50
257.1442878493
 51
258.7793457852
  0
ARC
  5
41C
100
AcDbEntity
  8
0
100
AcDbCircle
 62
7
  6
CONTINUOUS
 10
621.5138601789
 20
492.0313660343
 40
54.8711685025
100
AcDbArc
 50
265.8583772772
 51
271.8608330593
  0
ARC
  5
41D
100
AcDbEntity
  8
0
100
AcDbCircle
 62
7
  6
CONTINUOUS
 10
621.5138615786
 20
490.5204898798
 40
54.8347640542
100
AcDbArc
 50
265.8556214102
 51
271.8620674261
  0
ARC
  5
41E
100
AcDbEntity
  8
0
100
AcDbCircle
 62
7
  6
CONTINUOUS
 10
628.5513918236
 20
491.6254688015
 40
54.6894645576
100
AcDbArc
 50
264.485259867
 51
266.4977409831
  0
ARC
  5
41F
100
AcDbEntity
  8
0
100
AcDbCircle
 62
7
  6
CONTINUOUS
 10
621.5175986116
 20
483.4559612214
 40
54.4578432547
100
AcDbArc
 50
261.7689929472
 51
275.9105379511
  0
ARC
  5
420
100
AcDbEntity
  8
0
100
AcDbCircle
 62
7
  6
CONTINUOUS
 10
629.4534302664
 20
478.4292708123
 40
54.3324534299
100
AcDbArc
 50
263.4923712208
 51
265.1159073841
  0
ARC
  5
421
100
AcDbEntity
  8
0
100
AcDbCircle
 62
7
  6
CONTINUOUS
 10
627.9361606993
 20
479.7214256194
 40
54.1171186252
100
AcDbArc
 50
265.0808633437
 51
267.1130508436
  0
ARC
  5
422
100
AcDbEntity
  8
0
100
AcDbCircle
 62
7
  6
CONTINUOUS
 10
621.5168493872
 20
481.6354833814
 40
54.0315351023
100
AcDbArc
 50
259.2334036418
 51
278.4143145565
  0
ARC
  5
423
100
AcDbEntity
  8
0
100
AcDbCircle
 62
7
  6
CONTINUOUS
 10
604.4270968968
 20
489.6788499536
 40
53.6335260528
100
AcDbArc
 50
280.3947531969
 51
282.063270295
  0
ARC
  5
424
100
AcDbEntity
  8
0
100
AcDbCircle
 62
7
  6
CONTINUOUS
 10
612.9013267135
 20
489.203637284
 40
53.5766635409
100
AcDbArc
 50
273.3360180521
 51
274.9786515568
  0
ARC
  5
425
100
AcDbEntity
  8
0
100
AcDbCircle
 62
7
  6
CONTINUOUS
 10
621.4818685315
 20
477.9837407442
 40
53.5675624134
100
AcDbArc
 50
259.1771166071
 51
271.9403718202
  0
ARC
  5
426
100
AcDbEntity
  8
0
100
AcDbCircle
 62
7
  6
CONTINUOUS
 10
614.5375144656
 20
490.6148260979
 40
53.3964367552
100
AcDbArc
 50
271.1788504239
 51
273.2352181979
  0
ARC
  5
427
100
AcDbEntity
  8
0
100
AcDbCircle
 62
7
  6
CONTINUOUS
 10
754.2858428196
 20
496.113681707
 40
158.4187255604
100
AcDbArc
 50
211.1439351373
 51
211.4107268344
  0
ARC
  5
428
100
AcDbEntity
  8
0
100
AcDbCircle
 62
7
  6
CONTINUOUS
 10
700.2374900656
 20
487.5446840063
 40
108.1743309033
100
AcDbArc
 50
222.0004193874
 51
222.6032103767
  0
ARC
  5
429
100
AcDbEntity
  8
0
100
AcDbCircle
 62
7
  6
CONTINUOUS
 10
697.4882659441
 20
490.806025215
 40
95.7688277198
100
AcDbArc
 50
223.7206123624
 51
224.3796965667
  0
ARC
  5
42A
100
AcDbEntity
  8
0
100
AcDbCircle
 62
7
  6
CONTINUOUS
 10
679.0250037608
 20
488.8528849284
 40
84.9948674625
100
AcDbArc
 50
231.3810598823
 51
232.038916671
  0
ARC
  5
42B
100
AcDbEntity
  8
0
100
AcDbCircle
 62
7
  6
CONTINUOUS
 10
676.1520722914
 20
487.1828071785
 40
80.7383896
100
AcDbArc
 50
231.5772536508
 51
232.2677752849
  0
ARC
  5
42C
100
AcDbEntity
  8
0
100
AcDbCircle
 62
7
  6
CONTINUOUS
 10
657.1350575134
 20
478.3441744514
 40
76.0825870504
100
AcDbArc
 50
238.9862090204
 51
239.6569017799
  0
ARC
  5
42D
100
AcDbEntity
  8
0
100
AcDbCircle
 62
7
  6
CONTINUOUS
 10
655.5173420687
 20
476.9385311532
 40
72.7599844573
100
AcDbArc
 50
238.8995835369
 51
239.6014209036
  0
ARC
  5
42E
100
AcDbEntity
  8
0
100
AcDbCircle
 62
7
  6
CONTINUOUS
 10
658.5294939403
 20
494.9139748591
 40
66.3523714411
100
AcDbArc
 50
241.3756932598
 51
242.8722044855
  0
ARC
  5
42F
100
AcDbEntity
  8
0
100
AcDbCircle
 62
7
  6
CONTINUOUS
 10
714.4543661135
 20
510.8227053648
 40
114.2202431596
100
AcDbArc
 50
221.0176616177
 51
221.5997193522
  0
ARC
  5
430
100
AcDbEntity
  8
0
100
AcDbCircle
 62
7
  6
CONTINUOUS
 10
689.7787173224
 20
506.5005675545
 40
96.8280887592
100
AcDbArc
 50
228.7822313444
 51
229.3820331145
  0
ARC
  5
431
100
AcDbEntity
  8
0
100
AcDbCircle
 62
7
  6
CONTINUOUS
 10
686.4571636385
 20
504.5659449499
 40
92.0783700507
100
AcDbArc
 50
228.9407481427
 51
229.5698449074
  0
ARC
  5
432
100
AcDbEntity
  8
0
100
AcDbCircle
 62
7
  6
CONTINUOUS
 10
557.3405643771
 20
502.6038650028
 40
89.627162439
100
AcDbArc
 50
309.2962410681
 51
309.9318614694
  0
ARC
  5
433
100
AcDbEntity
  8
0
100
AcDbCircle
 62
7
  6
CONTINUOUS
 10
547.8652107798
 20
553.3157188627
 40
10.0
100
AcDbArc
 50
174.2608295227
 51
5.7391704773
  0
ARC
  5
434
100
AcDbEntity
  8
0
100
AcDbCircle
 62
7
  6
CONTINUOUS
 10
547.8652107798
 20
553.3157188627
 40
7.0
100
AcDbArc
 50
171.7867892983
 51
8.2132107017
  0
ARC
  5
435
100
AcDbEntity
  8
0
100
AcDbCircle
 62
7
  6
CONTINUOUS
 10
758.3319453266
 20
496.9873697472
 40
163.1080002303
100
AcDbArc
 50
211.121725327
 51
211.3810402333
  0
ARC
  5
436
100
AcDbEntity
  8
0
100
AcDbCircle
 62
7
  6
CONTINUOUS
 10
967.8713609975
 20
546.9824547832
 40
356.8598354966
100
AcDbArc
 50
198.2901663643
 51
198.4850957325
  0
ARC
  5
437
100
AcDbEntity
  8
0
100
AcDbCircle
 62
7
  6
CONTINUOUS
 10
896.6079843624
 20
543.6438096557
 40
291.6661141424
100
AcDbArc
 50
202.2931558852
 51
202.4906504781
  0
ARC
  5
438
100
AcDbEntity
  8
0
100
AcDbCircle
 62
7
  6
CONTINUOUS
 10
888.564483074
 20
542.1269370705
 40
283.089157752
100
AcDbArc
 50
202.3505099912
 51
202.5534717137
  0
ARC
  5
439
100
AcDbEntity
  8
0
100
AcDbCircle
 62
7
  6
CONTINUOUS
 10
885.1654411784
 20
516.4140914357
 40
272.3470995935
100
AcDbArc
 50
199.8750260877
 51
200.1106785682
  0
ARC
  5
43A
100
AcDbEntity
  8
0
100
AcDbCircle
 62
7
  6
CONTINUOUS
 10
835.797785708
 20
515.4253618933
 40
229.0464254845
100
AcDbArc
 50
204.1159611622
 51
204.232973372
  0
ARC
  5
43B
100
AcDbEntity
  8
0
100
AcDbCircle
 62
7
  6
CONTINUOUS
 10
827.3111778824
 20
513.4671446528
 40
219.8926960371
100
AcDbArc
 50
204.1998831717
 51
204.4421806269
  0
ARC
  5
43C
100
AcDbEntity
  8
BEZUGSACHSEN
100
AcDbCircle
 62
7
  6
CONTINUOUS
 10
553.2078867493
 20
562.3038820197
 40
15.0
100
AcDbArc
 50
350.9999999997
 51
22.5000000001
  0
ARC
  5
43D
100
AcDbEntity
  8
RUNDUNGEN
100
AcDbCircle
 62
7
  6
CONTINUOUS
 10
553.2078867493
 20
562.3038820197
 40
15.0
100
AcDbArc
 50
351.0
 51
22.5
  0
ARC
  5
43E
100
AcDbEntity
  8
0
100
AcDbCircle
 62
7
  6
CONTINUOUS
 10
547.8652107798
 20
570.3157188627
 40
10.0
100
AcDbArc
 50
174.2608295227
 51
5.7391704773
  0
ARC
  5
43F
100
AcDbEntity
  8
0
100
AcDbCircle
 62
7
  6
CONTINUOUS
 10
547.8652107798
 20
570.3157188627
 40
7.0
100
AcDbArc
 50
282.3736251162
 51
8.2132107017
  0
ARC
  5
440
100
AcDbEntity
  8
0
100
AcDbCircle
 62
7
  6
CONTINUOUS
 10
547.8652107798
 20
570.3157188627
 40
7.0
100
AcDbArc
 50
171.7867892983
 51
257.4447123387
  0
ARC
  5
441
100
AcDbEntity
  8
RUNDUNGEN
100
AcDbCircle
 62
7
  6
CONTINUOUS
 10
1020.6834092164
 20
288.9691595934
 40
242.0
100
AcDbArc
 50
128.5176967087
 51
155.2888646364
  0
ARC
  5
442
100
AcDbEntity
  8
0
100
AcDbCircle
 62
7
  6
CONTINUOUS
 10
827.0047661799
 20
288.9691595934
 40
242.0
100
AcDbArc
 50
24.7111353636
 51
51.4823032913
  0
ARC
  5
443
100
AcDbEntity
  8
0
100
AcDbCircle
 62
7
  6
CONTINUOUS
 10
923.8440876982
 20
410.6357188627
 40
86.4988558352
100
AcDbArc
 50
51.4823032913
 51
128.5176967087
  0
ARC
  5
444
100
AcDbEntity
  8
BEZUGSACHSEN
100
AcDbCircle
 62
7
  6
CONTINUOUS
 10
908.8440876982
 20
744.0712943086
 40
5.0
100
AcDbArc
 50
90.0
 51
180.0
  0
ARC
  5
445
100
AcDbEntity
  8
BEZUGSACHSEN
100
AcDbCircle
 62
7
  6
CONTINUOUS
 10
901.8440876982
 20
704.5963268485
 40
5.0
100
AcDbArc
 50
107.4576031237
 51
180.0
  0
ARC
  5
446
100
AcDbEntity
  8
BEZUGSACHSEN
100
AcDbCircle
 62
7
  6
CONTINUOUS
 10
898.8440876982
 20
714.1357188627
 40
5.0
100
AcDbArc
 50
287.4576031237
 51
360.0
  0
ARC
  5
447
100
AcDbEntity
  8
BEZUGSACHSEN
100
AcDbCircle
 62
7
  6
CONTINUOUS
 10
938.8440876982
 20
744.0712943086
 40
5.0
100
AcDbArc
 50
0.0
 51
90.0
  0
ARC
  5
448
100
AcDbEntity
  8
BEZUGSACHSEN
100
AcDbCircle
 62
7
  6
CONTINUOUS
 10
945.8440876982
 20
704.5963268485
 40
5.0
100
AcDbArc
 50
0.0
 51
72.5423968763
  0
ARC
  5
449
100
AcDbEntity
  8
RUNDUNGEN
100
AcDbCircle
 62
7
  6
CONTINUOUS
 10
948.8440876982
 20
714.1357188627
 40
5.0
100
AcDbArc
 50
180.0
 51
252.5423968763
  0
ARC
  5
44A
100
AcDbEntity
  8
BEZUGSACHSEN
100
AcDbCircle
 62
7
  6
CONTINUOUS
 10
-8676.2405857449
 20
167.6168784679
 40
8878.5197634615
100
AcDbArc
 50
359.7055398978
 51
359.9240717458
  0
ARC
  5
44B
100
AcDbEntity
  8
0
100
AcDbCircle
 62
7
  6
CONTINUOUS
 10
-95.6568572648
 20
-79.1102293933
 40
748.275847174
100
AcDbArc
 50
14.303383734
 51
14.4216024567
  0
ARC
  5
44C
100
AcDbEntity
  8
0
100
AcDbCircle
 62
7
  6
CONTINUOUS
 10
-87.0294662277
 20
-77.9171488935
 40
739.2526089451
100
AcDbArc
 50
14.2669043406
 51
14.3868572236
  0
ARC
  5
44D
100
AcDbEntity
  8
0
100
AcDbCircle
 62
7
  6
CONTINUOUS
 10
10.425247837
 20
-94.5361796081
 40
643.7649003654
100
AcDbArc
 50
16.6728252719
 51
16.7912206286
  0
ARC
  5
44E
100
AcDbEntity
  8
0
100
AcDbCircle
 62
7
  6
CONTINUOUS
 10
99.2548877793
 20
-64.0305188037
 40
554.1364540215
100
AcDbArc
 50
17.7115325191
 51
17.8412354426
  0
ARC
  5
44F
100
AcDbEntity
  8
0
100
AcDbCircle
 62
7
  6
CONTINUOUS
 10
213.5133306414
 20
-83.7980511675
 40
436.4122084521
100
AcDbArc
 50
21.6698909246
 51
21.805652635
  0
ARC
  5
450
100
AcDbEntity
  8
0
100
AcDbCircle
 62
7
  6
CONTINUOUS
 10
179.9485870635
 20
-0.212182001
 40
81.7959517474
100
AcDbArc
 50
120.1751452826
 51
122.9545201111
  0
ARC
  5
451
100
AcDbEntity
  8
0
100
AcDbCircle
 62
7
  6
CONTINUOUS
 10
107.7429594894
 20
0.2433920246
 40
80.2524409363
100
AcDbArc
 50
58.684834101
 51
61.2556167921
  0
ARC
  5
452
100
AcDbEntity
  8
0
100
AcDbCircle
 62
7
  6
CONTINUOUS
 10
177.9117796023
 20
2.3568381312
 40
77.2374583875
100
AcDbArc
 50
119.1079951268
 51
123.3469341863
  0
ARC
  5
453
100
AcDbEntity
  8
0
100
AcDbCircle
 62
7
  6
CONTINUOUS
 10
109.6697580463
 20
2.6318898537
 40
75.9042300032
100
AcDbArc
 50
58.390001798
 51
62.4334387649
  0
ARC
  5
454
100
AcDbEntity
  8
0
100
AcDbCircle
 62
7
  6
CONTINUOUS
 10
171.8637026697
 20
11.3671108943
 40
64.5054322024
100
AcDbArc
 50
110.3290610883
 51
114.8099238655
  0
ARC
  5
455
100
AcDbEntity
  8
0
100
AcDbCircle
 62
7
  6
CONTINUOUS
 10
143.5173516383
 20
33.9523393783
 40
56.9300349883
100
AcDbArc
 50
84.0145469238
 51
98.1427528823
  0
ARC
  5
456
100
AcDbEntity
  8
0
100
AcDbCircle
 62
7
  6
CONTINUOUS
 10
143.5180061101
 20
24.4569094576
 40
56.4065409478
100
AcDbArc
 50
86.5270956825
 51
98.2195154611
  0
ARC
  5
457
100
AcDbEntity
  8
0
100
AcDbCircle
 62
7
  6
CONTINUOUS
 10
143.5214618347
 20
24.4803435883
 40
56.3829405534
100
AcDbArc
 50
86.3376941872
 51
86.5291583659
  0
ARC
  5
458
100
AcDbEntity
  8
0
100
AcDbCircle
 62
7
  6
CONTINUOUS
 10
143.5457756507
 20
24.820757183
 40
56.0416691246
100
AcDbArc
 50
83.9485349538
 51
86.3402705602
  0
ARC
  5
459
100
AcDbEntity
  8
0
100
AcDbCircle
 62
7
  6
CONTINUOUS
 10
143.5151649835
 20
32.9759171608
 40
54.0515180662
100
AcDbArc
 50
86.3622588046
 51
89.7297128526
  0
ARC
  5
45A
100
AcDbEntity
  8
0
100
AcDbCircle
 62
7
  6
CONTINUOUS
 10
143.5177740854
 20
35.3702572761
 40
54.0342077707
100
AcDbArc
 50
83.6929537307
 51
98.5828037573
  0
ARC
  5
45B
100
AcDbEntity
  8
0
100
AcDbCircle
 62
7
  6
CONTINUOUS
 10
143.5133569727
 20
28.000239434
 40
53.8500555282
100
AcDbArc
 50
89.7267779309
 51
92.397198172
  0
ARC
  5
45C
100
AcDbEntity
  8
0
100
AcDbCircle
 62
7
  6
CONTINUOUS
 10
143.5177185294
 20
25.8526639162
 40
53.5186794268
100
AcDbArc
 50
83.6318899352
 51
98.6660521708
  0
ARC
  5
45D
100
AcDbEntity
  8
0
100
AcDbCircle
 62
7
  6
CONTINUOUS
 10
143.4593227808
 20
33.7476508607
 40
53.2782734632
100
AcDbArc
 50
92.364780695
 51
98.6419330762
  0
ARC
  5
45E
100
AcDbEntity
  8
0
100
AcDbCircle
 62
7
  6
CONTINUOUS
 10
143.545778192
 20
27.8303460336
 40
53.2689485798
100
AcDbArc
 50
83.6322801657
 51
86.341738778
  0
ARC
  5
45F
100
AcDbEntity
  8
0
100
AcDbCircle
 62
7
  6
CONTINUOUS
 10
143.515114726
 20
23.645825036
 40
53.2471453802
100
AcDbArc
 50
83.596460945
 51
98.7077530274
  0
ARC
  5
460
100
AcDbEntity
  8
BEZUGSACHSEN
100
AcDbCircle
 62
7
  6
CONTINUOUS
 10
178.3844368399
 20
77.8554276316
 40
25.0
100
AcDbArc
 50
270.0
 51
319.1156504263
  0
ARC
  5
461
100
AcDbEntity
  8
0
100
AcDbCircle
 62
7
  6
CONTINUOUS
 10
109.513539639
 20
77.8554276316
 40
25.0
100
AcDbArc
 50
180.0
 51
270.0
  0
ARC
  5
462
100
AcDbEntity
  8
BEZUGSACHSEN
100
AcDbCircle
 62
7
  6
CONTINUOUS
 10
201.8191925286
 20
160.8554276316
 40
5.0
100
AcDbArc
 50
180.0
 51
270.0
  0
ARC
  5
463
100
AcDbEntity
  8
BEZUGSACHSEN
100
AcDbCircle
 62
7
  6
CONTINUOUS
 10
277.513539639
 20
149.3554276316
 40
5.0
100
AcDbArc
 50
270.0
 51
327.5900545776
  0
ARC
  5
464
100
AcDbEntity
  8
BEZUGSACHSEN
100
AcDbCircle
 62
7
  6
CONTINUOUS
 10
242.0529316531
 20
153.8554276316
 40
5.0
100
AcDbArc
 50
197.4576031237
 51
270.0
  0
ARC
  5
465
100
AcDbEntity
  8
RUNDUNGEN
100
AcDbCircle
 62
7
  6
CONTINUOUS
 10
232.513539639
 20
150.8554276316
 40
5.0
100
AcDbArc
 50
17.4576031237
 51
90.0
  0
ARC
  5
466
100
AcDbEntity
  8
BEZUGSACHSEN
100
AcDbCircle
 62
7
  6
CONTINUOUS
 10
-9660.5637520446
 20
180.9123889654
 40
9862.8464603216
100
AcDbArc
 50
0.0868331663
 51
0.2835551897
  0
ARC
  5
467
100
AcDbEntity
  8
0
100
AcDbCircle
 62
7
  6
CONTINUOUS
 10
108.0153001489
 20
312.9449184556
 40
79.734691884
100
AcDbArc
 50
300.9382677153
 51
301.9057639005
  0
ARC
  5
468
100
AcDbEntity
  8
0
100
AcDbCircle
 62
7
  6
CONTINUOUS
 10
177.86774396
 20
311.7814197096
 40
77.2142070297
100
AcDbArc
 50
239.8198622976
 51
240.8012606884
  0
ARC
  5
469
100
AcDbEntity
  8
0
100
AcDbCircle
 62
7
  6
CONTINUOUS
 10
117.9368735743
 20
307.9029060412
 40
73.5585214327
100
AcDbArc
 50
295.3157967704
 51
296.6431850138
  0
ARC
  5
46A
100
AcDbEntity
  8
0
100
AcDbCircle
 62
7
  6
CONTINUOUS
 10
168.4693626947
 20
307.1679014276
 40
71.8972111934
100
AcDbArc
 50
245.1760396007
 51
246.5140203033
  0
ARC
  5
46B
100
AcDbEntity
  8
0
100
AcDbCircle
 62
7
  6
CONTINUOUS
 10
119.0695247444
 20
306.2127446623
 40
70.2127891491
100
AcDbArc
 50
295.5851158823
 51
296.979368571
  0
ARC
  5
46C
100
AcDbEntity
  8
0
100
AcDbCircle
 62
7
  6
CONTINUOUS
 10
167.3454856172
 20
305.5223677551
 40
68.5955829276
100
AcDbArc
 50
244.9344527702
 51
246.3391349487
  0
ARC
  5
46D
100
AcDbEntity
  8
0
100
AcDbCircle
 62
7
  6
CONTINUOUS
 10
134.5787169669
 20
300.4649675415
 40
60.8856212449
100
AcDbArc
 50
282.2296238324
 51
284.0802576398
  0
ARC
  5
46E
100
AcDbEntity
  8
0
100
AcDbCircle
 62
7
  6
CONTINUOUS
 10
152.3572711312
 20
300.2917889422
 40
60.3816152752
100
AcDbArc
 50
258.012925428
 51
259.8644327443
  0
ARC
  5
46F
100
AcDbEntity
  8
0
100
AcDbCircle
 62
7
  6
CONTINUOUS
 10
152.9313889749
 20
314.1242133031
 40
60.2625136803
100
AcDbArc
 50
257.4302215619
 51
259.2891559748
  0
ARC
  5
470
100
AcDbEntity
  8
0
100
AcDbCircle
 62
7
  6
CONTINUOUS
 10
132.6183269942
 20
301.4705804456
 40
59.2286708821
100
AcDbArc
 50
284.5281029341
 51
286.0644965233
  0
ARC
  5
471
100
AcDbEntity
  8
0
100
AcDbCircle
 62
7
  6
CONTINUOUS
 10
154.9581374631
 20
315.1754237377
 40
58.4814070326
100
AcDbArc
 50
255.382548842
 51
256.9283597499
  0
ARC
  5
472
100
AcDbEntity
  8
0
100
AcDbCircle
 62
7
  6
CONTINUOUS
 10
154.2468269644
 20
301.1476469625
 40
58.4811993946
100
AcDbArc
 50
256.1015415689
 51
257.6427273947
  0
ARC
  5
473
100
AcDbEntity
  8
0
100
AcDbCircle
 62
7
  6
CONTINUOUS
 10
135.0117530188
 20
298.9536664846
 40
57.8834483794
100
AcDbArc
 50
282.4352226459
 51
284.3838934773
  0
ARC
  5
474
100
AcDbEntity
  8
0
100
AcDbCircle
 62
7
  6
CONTINUOUS
 10
143.5132507262
 20
298.6079761674
 40
57.7829733474
100
AcDbArc
 50
268.2329373651
 51
273.9325491454
  0
ARC
  5
475
100
AcDbEntity
  8
0
100
AcDbCircle
 62
7
  6
CONTINUOUS
 10
151.9271493243
 20
298.8046060257
 40
57.4035115112
100
AcDbArc
 50
257.820614579
 51
259.7691496645
  0
ARC
  5
476
100
AcDbEntity
  8
0
100
AcDbCircle
 62
7
  6
CONTINUOUS
 10
143.5098861456
 20
308.0545037626
 40
57.3674655716
100
AcDbArc
 50
264.3898194664
 51
277.8104528772
  0
ARC
  5
477
100
AcDbEntity
  8
0
100
AcDbCircle
 62
7
  6
CONTINUOUS
 10
152.4779884067
 20
312.6579375376
 40
57.290729846
100
AcDbArc
 50
257.2320352109
 51
259.1884633175
  0
ARC
  5
478
100
AcDbEntity
  8
0
100
AcDbCircle
 62
7
  6
CONTINUOUS
 10
143.5113047515
 20
311.8777074136
 40
56.9938908799
100
AcDbArc
 50
268.2104216355
 51
280.1997267818
  0
ARC
  5
479
100
AcDbEntity
  8
0
100
AcDbCircle
 62
7
  6
CONTINUOUS
 10
143.513219099
 20
297.1560357288
 40
54.8711685025
100
AcDbArc
 50
268.1391669407
 51
274.1416227228
  0
ARC
  5
47A
100
AcDbEntity
  8
0
100
AcDbCircle
 62
7
  6
CONTINUOUS
 10
143.5132176993
 20
298.8271400896
 40
54.8347640542
100
AcDbArc
 50
268.1379325739
 51
274.1443785898
  0
ARC
  5
47B
100
AcDbEntity
  8
0
100
AcDbCircle
 62
7
  6
CONTINUOUS
 10
143.5094806663
 20
306.6118518131
 40
54.4578432547
100
AcDbArc
 50
264.0894620489
 51
278.2310070528
  0
ARC
  5
47C
100
AcDbEntity
  8
0
100
AcDbCircle
 62
7
  6
CONTINUOUS
 10
143.5102298907
 20
307.9733544884
 40
54.0315351023
100
AcDbArc
 50
261.5856854435
 51
280.7665963582
  0
ARC
  5
47D
100
AcDbEntity
  8
0
100
AcDbCircle
 62
7
  6
CONTINUOUS
 10
143.5452107464
 20
311.7462320421
 40
53.5675624134
100
AcDbArc
 50
268.0596281798
 51
280.8228833929
  0
ARC
  5
47E
100
AcDbEntity
  8
RUNDUNGEN
100
AcDbCircle
 62
7
  6
CONTINUOUS
 10
109.513539639
 20
273.8554276316
 40
25.0
100
AcDbArc
 50
90.0
 51
180.0
  0
ARC
  5
47F
100
AcDbEntity
  8
BEZUGSACHSEN
100
AcDbCircle
 62
7
  6
CONTINUOUS
 10
178.3844368399
 20
273.8554276316
 40
25.0
100
AcDbArc
 50
40.8843495737
 51
90.0
  0
ARC
  5
480
100
AcDbEntity
  8
BEZUGSACHSEN
100
AcDbCircle
 62
7
  6
CONTINUOUS
 10
201.8191925286
 20
190.8554276316
 40
5.0
100
AcDbArc
 50
90.0
 51
180.0
  0
ARC
  5
481
100
AcDbEntity
  8
BEZUGSACHSEN
100
AcDbCircle
 62
7
  6
CONTINUOUS
 10
242.0529316531
 20
197.8554276316
 40
5.0
100
AcDbArc
 50
90.0
 51
162.5423968763
  0
ARC
  5
482
100
AcDbEntity
  8
BEZUGSACHSEN
100
AcDbCircle
 62
7
  6
CONTINUOUS
 10
232.513539639
 20
200.8554276316
 40
5.0
100
AcDbArc
 50
270.0
 51
342.5423968763
  0
ARC
  5
483
100
AcDbEntity
  8
BEZUGSACHSEN
100
AcDbCircle
 62
7
  6
CONTINUOUS
 10
277.513539639
 20
202.3554276316
 40
5.0
100
AcDbArc
 50
32.4099454224
 51
90.0
  0
ARC
  5
484
100
AcDbEntity
  8
0
100
AcDbCircle
 62
7
  6
CONTINUOUS
 10
-585.6537982196
 20
432.8188853655
 40
762.4236352177
100
AcDbArc
 50
345.7225650156
 51
345.8397376244
  0
ARC
  5
485
100
AcDbEntity
  8
0
100
AcDbCircle
 62
7
  6
CONTINUOUS
 10
-577.1345167692
 20
431.5776337818
 40
753.4899499055
100
AcDbArc
 50
345.7653222761
 51
345.8842415487
  0
ARC
  5
486
100
AcDbEntity
  8
0
100
AcDbCircle
 62
7
  6
CONTINUOUS
 10
-581.2355880316
 20
446.0791959803
 40
739.8293269276
100
AcDbArc
 50
345.6790444964
 51
345.7994480557
  0
ARC
  5
487
100
AcDbEntity
  8
0
100
AcDbCircle
 62
7
  6
CONTINUOUS
 10
-390.4429672738
 20
418.1530379621
 40
568.0125069123
100
AcDbArc
 50
342.3805553045
 51
342.5086313369
  0
ARC
  5
488
100
AcDbEntity
  8
0
100
AcDbCircle
 62
7
  6
CONTINUOUS
 10
-401.519573392
 20
434.1697695849
 40
565.9917315075
100
AcDbArc
 50
342.374304473
 51
342.5027949385
  0
ARC
  5
489
100
AcDbEntity
  8
0
100
AcDbCircle
 62
7
  6
CONTINUOUS
 10
-325.3013760032
 20
450.3162071473
 40
508.2108300615
100
AcDbArc
 50
339.6876471962
 51
339.8123944009
  0
ARC
  5
48A
100
AcDbEntity
  8
0
100
AcDbCircle
 62
7
  6
CONTINUOUS
 10
23.4750596886
 20
346.8288214202
 40
162.3736800128
100
AcDbArc
 50
321.2777472692
 51
321.7118710752
  0
ARC
  5
48B
100
AcDbEntity
  8
0
100
AcDbCircle
 62
7
  6
CONTINUOUS
 10
76.6314795816
 20
327.2406435878
 40
112.9547362186
100
AcDbArc
 50
311.1254544811
 51
312.1653269806
  0
ARC
  5
48C
100
AcDbEntity
  8
0
100
AcDbCircle
 62
7
  6
CONTINUOUS
 10
79.162645701
 20
325.1202199315
 40
108.5742462822
100
AcDbArc
 50
311.3710583137
 51
312.4574315297
  0
ARC
  5
48D
100
AcDbEntity
  8
0
100
AcDbCircle
 62
7
  6
CONTINUOUS
 10
91.1521564299
 20
348.2004855385
 40
98.447979255
100
AcDbArc
 50
307.1023294443
 51
308.2286347144
  0
ARC
  5
48E
100
AcDbEntity
  8
0
100
AcDbCircle
 62
7
  6
CONTINUOUS
 10
93.1996796754
 20
346.2219289313
 40
94.4289939222
100
AcDbArc
 50
307.3896033871
 51
308.5688493592
  0
ARC
  5
48F
100
AcDbEntity
  8
0
100
AcDbCircle
 62
7
  6
CONTINUOUS
 10
88.1484627814
 20
335.5348448416
 40
85.0500322545
100
AcDbArc
 50
304.853385744
 51
306.1208507155
  0
ARC
  5
490
100
AcDbEntity
  8
0
100
AcDbCircle
 62
7
  6
CONTINUOUS
 10
108.6438303977
 20
328.3969524365
 40
71.7752698804
100
AcDbArc
 50
295.0645119438
 51
296.08128749
  0
ARC
  5
491
100
AcDbEntity
  8
0
100
AcDbCircle
 62
7
  6
CONTINUOUS
 10
110.4140029532
 20
326.564166087
 40
68.0154330995
100
AcDbArc
 50
294.8996824889
 51
295.9714398176
  0
ARC
  5
492
100
AcDbEntity
  8
0
100
AcDbCircle
 62
7
  6
CONTINUOUS
 10
125.5325526373
 20
331.2722690661
 40
66.4731932512
100
AcDbArc
 50
291.0338003196
 51
292.0986747423
  0
ARC
  5
493
100
AcDbEntity
  8
0
100
AcDbCircle
 62
7
  6
CONTINUOUS
 10
126.2110786313
 20
331.6321115069
 40
63.3515523015
100
AcDbArc
 50
291.4626003362
 51
292.5835160123
  0
ARC
  5
494
100
AcDbEntity
  8
0
100
AcDbCircle
 62
7
  6
CONTINUOUS
 10
126.3446221844
 20
329.724391416
 40
63.3325832212
100
AcDbArc
 50
291.3395829097
 51
292.4598614415
  0
ARC
  5
495
100
AcDbEntity
  8
0
100
AcDbCircle
 62
7
  6
CONTINUOUS
 10
120.2532737936
 20
323.8715818856
 40
59.8203190227
100
AcDbArc
 50
287.5432353387
 51
289.0888495102
  0
ARC
  5
496
100
AcDbEntity
  8
0
100
AcDbCircle
 62
7
  6
CONTINUOUS
 10
131.709223196
 20
321.6401414369
 40
58.3308779631
100
AcDbArc
 50
278.3693758036
 51
279.8934655078
  0
ARC
  5
497
100
AcDbEntity
  8
0
100
AcDbCircle
 62
7
  6
CONTINUOUS
 10
132.2999732498
 20
320.1689918718
 40
55.3184859421
100
AcDbArc
 50
278.2099835939
 51
279.8165444096
  0
ARC
  5
498
100
AcDbEntity
  8
0
100
AcDbCircle
 62
7
  6
CONTINUOUS
 10
134.5547098159
 20
321.4714597599
 40
54.3859716127
100
AcDbArc
 50
275.5520504737
 51
277.5828279546
  0
ARC
  5
499
100
AcDbEntity
  8
0
100
AcDbCircle
 62
7
  6
CONTINUOUS
 10
-56.5124676002
 20
369.9591336552
 40
244.2434501863
100
AcDbArc
 50
328.8227397593
 51
329.1715826064
  0
ARC
  5
49A
100
AcDbEntity
  8
0
100
AcDbCircle
 62
7
  6
CONTINUOUS
 10
-51.0025982373
 20
367.3992413217
 40
237.4289148863
100
AcDbArc
 50
328.9724352755
 51
329.3329199927
  0
ARC
  5
49B
100
AcDbEntity
  8
0
100
AcDbCircle
 62
7
  6
CONTINUOUS
 10
-24.9232629712
 20
372.1608921879
 40
193.556829296
100
AcDbArc
 50
326.2358327163
 51
326.6459936666
  0
ARC
  5
49C
100
AcDbEntity
  8
0
100
AcDbCircle
 62
7
  6
CONTINUOUS
 10
12.3697011196
 20
379.9917185551
 40
177.2719918064
100
AcDbArc
 50
322.0052154006
 51
322.612583558
  0
ARC
  5
49D
100
AcDbEntity
  8
0
100
AcDbCircle
 62
7
  6
CONTINUOUS
 10
16.6311237191
 20
377.3323853936
 40
171.33808566
100
AcDbArc
 50
322.2311646747
 51
322.8629724949
  0
ARC
  5
49E
100
AcDbEntity
  8
0
100
AcDbCircle
 62
7
  6
CONTINUOUS
 10
29.7625159326
 20
358.3641615309
 40
144.7955431993
100
AcDbArc
 50
318.5458064133
 51
319.005727054
  0
ARC
  5
49F
100
AcDbEntity
  8
0
100
AcDbCircle
 62
7
  6
CONTINUOUS
 10
34.8513117252
 20
355.6358028458
 40
138.1873258607
100
AcDbArc
 50
318.4606795205
 51
318.9418804417
  0
ARC
  5
4A0
100
AcDbEntity
  8
0
100
AcDbCircle
 62
7
  6
CONTINUOUS
 10
65.2595628559
 20
360.0023614093
 40
121.7296555362
100
AcDbArc
 50
314.47291705
 51
314.9803574592
  0
ARC
  5
4A1
100
AcDbEntity
  8
0
100
AcDbCircle
 62
7
  6
CONTINUOUS
 10
259.2777743984
 20
344.7152693245
 40
156.1761727362
100
AcDbArc
 50
219.220152967
 51
219.6624798336
  0
ARC
  5
4A2
100
AcDbEntity
  8
0
100
AcDbCircle
 62
7
  6
CONTINUOUS
 10
215.5135855541
 20
343.2432549098
 40
116.4901109801
100
AcDbArc
 50
227.4591019647
 51
228.4735513127
  0
ARC
  5
4A3
100
AcDbEntity
  8
0
100
AcDbCircle
 62
7
  6
CONTINUOUS
 10
212.8022087921
 20
341.1151334658
 40
111.9883115804
100
AcDbArc
 50
227.2278835887
 51
228.2866036824
  0
ARC
  5
4A4
100
AcDbEntity
  8
0
100
AcDbCircle
 62
7
  6
CONTINUOUS
 10
208.2952057429
 20
325.8622007888
 40
109.3105917396
100
AcDbArc
 50
229.1191519305
 51
230.1728420152
  0
ARC
  5
4A5
100
AcDbEntity
  8
0
100
AcDbCircle
 62
7
  6
CONTINUOUS
 10
205.7976793908
 20
323.8251052203
 40
105.0158173112
100
AcDbArc
 50
228.892644403
 51
229.9927516727
  0
ARC
  5
4A6
100
AcDbEntity
  8
0
100
AcDbCircle
 62
7
  6
CONTINUOUS
 10
205.9416544187
 20
348.0900702379
 40
95.5644787241
100
AcDbArc
 50
231.4048051063
 51
231.9900023079
  0
ARC
  5
4A7
100
AcDbEntity
  8
0
100
AcDbCircle
 62
7
  6
CONTINUOUS
 10
186.9581901127
 20
339.4719827192
 40
80.8655620175
100
AcDbArc
 50
238.891577253
 51
240.151044434
  0
ARC
  5
4A8
100
AcDbEntity
  8
0
100
AcDbCircle
 62
7
  6
CONTINUOUS
 10
180.997515477
 20
327.3160527922
 40
79.9260217836
100
AcDbArc
 50
238.3437501287
 51
239.3064019527
  0
ARC
  5
4A9
100
AcDbEntity
  8
0
100
AcDbCircle
 62
7
  6
CONTINUOUS
 10
184.867699671
 20
337.5622672541
 40
76.8726183536
100
AcDbArc
 50
238.9155130682
 51
240.239638087
  0
ARC
  5
4AA
100
AcDbEntity
  8
0
100
AcDbCircle
 62
7
  6
CONTINUOUS
 10
170.492115469
 20
321.9340650959
 40
73.3503731799
100
AcDbArc
 50
243.9541108581
 51
245.278625517
  0
ARC
  5
4AB
100
AcDbEntity
  8
0
100
AcDbCircle
 62
7
  6
CONTINUOUS
 10
169.297203009
 20
320.2801264212
 40
70.0063446894
100
AcDbArc
 50
243.7047728761
 51
245.0950614507
  0
ARC
  5
4AC
100
AcDbEntity
  8
0
100
AcDbCircle
 62
7
  6
CONTINUOUS
 10
159.5653019618
 20
326.8224884954
 40
58.908235002
100
AcDbArc
 50
257.3953155268
 51
258.5379284415
  0
ARC
  5
4AD
100
AcDbEntity
  8
0
100
AcDbCircle
 62
7
  6
CONTINUOUS
 10
143.5113216214
 20
320.720563442
 40
56.5718636514
100
AcDbArc
 50
268.1970498593
 51
280.2766229987
  0
ARC
  5
4AE
100
AcDbEntity
  8
0
100
AcDbCircle
 62
7
  6
CONTINUOUS
 10
143.5518331426
 20
325.0026902385
 40
56.0792570539
100
AcDbArc
 50
274.4050468859
 51
275.9766890254
  0
ARC
  5
4AF
100
AcDbEntity
  8
0
100
AcDbCircle
 62
7
  6
CONTINUOUS
 10
158.7491995221
 20
325.3004254745
 40
55.7865063874
100
AcDbArc
 50
257.5372154388
 51
258.74299679
  0
ARC
  5
4B0
100
AcDbEntity
  8
0
100
AcDbCircle
 62
7
  6
CONTINUOUS
 10
143.4914313827
 20
334.6067979362
 40
55.5151471111
100
AcDbArc
 50
261.8317192568
 51
270.1598763803
  0
ARC
  5
4B1
100
AcDbEntity
  8
0
100
AcDbCircle
 62
7
  6
CONTINUOUS
 10
143.5421516148
 20
334.5826265156
 40
55.4902102135
100
AcDbArc
 50
272.4809940954
 51
278.4423390042
  0
ARC
  5
4B2
100
AcDbEntity
  8
0
100
AcDbCircle
 62
7
  6
CONTINUOUS
 10
158.7759815039
 20
326.8970326777
 40
55.3495489945
100
AcDbArc
 50
257.8147183922
 51
259.0287805138
  0
ARC
  5
4B3
100
AcDbEntity
  8
0
100
AcDbCircle
 62
7
  6
CONTINUOUS
 10
143.5559405502
 20
323.5894784001
 40
53.1767027894
100
AcDbArc
 50
274.6415628773
 51
276.2997515265
  0
ARC
  5
4B4
100
AcDbEntity
  8
0
100
AcDbCircle
 62
7
  6
CONTINUOUS
 10
143.5448317119
 20
320.6764736017
 40
53.1463333907
100
AcDbArc
 50
268.0446520284
 51
280.9101275584
  0
ARC
  5
4B5
100
AcDbEntity
  8
0
100
AcDbCircle
 62
7
  6
CONTINUOUS
 10
143.5608687905
 20
325.3730195908
 40
53.0209631955
100
AcDbArc
 50
275.0652325468
 51
276.312973085
  0
ARC
  5
4B6
100
AcDbEntity
  8
0
100
AcDbCircle
 62
7
  6
CONTINUOUS
 10
143.4890460562
 20
333.2361112643
 40
52.6382131553
100
AcDbArc
 50
261.384601801
 51
270.1712108231
  0
ARC
  5
4B7
100
AcDbEntity
  8
0
100
AcDbCircle
 62
7
  6
CONTINUOUS
 10
143.5452193394
 20
333.2109332319
 40
52.6121413244
100
AcDbArc
 50
272.6134608728
 51
278.9044402844
  0
ARC
  5
4B8
100
AcDbEntity
  8
0
100
AcDbCircle
 62
7
  6
CONTINUOUS
 10
143.5103704156
 20
335.1757955945
 40
52.5600964259
100
AcDbArc
 50
261.3481871555
 51
281.0716095614
  0
ARC
  5
4B9
100
AcDbEntity
  8
0
100
AcDbCircle
 62
7
  6
CONTINUOUS
 10
338.0911562846
 20
368.0707184513
 40
236.9092500275
100
AcDbArc
 50
211.4508786402
 51
211.8041330809
  0
ARC
  5
4BA
100
AcDbEntity
  8
0
100
AcDbCircle
 62
7
  6
CONTINUOUS
 10
332.6787968073
 20
365.6417946797
 40
230.2486790964
100
AcDbArc
 50
211.3220190401
 51
211.6867657965
  0
ARC
  5
4BB
100
AcDbEntity
  8
0
100
AcDbCircle
 62
7
  6
CONTINUOUS
 10
274.8773104052
 20
365.0676903429
 40
172.1612538039
100
AcDbArc
 50
217.4956437773
 51
217.9124532203
  0
ARC
  5
4BC
100
AcDbEntity
  8
0
100
AcDbCircle
 62
7
  6
CONTINUOUS
 10
366.6191346186
 20
391.4016565635
 40
266.0663028102
100
AcDbArc
 50
209.9084844188
 51
210.2376467667
  0
ARC
  5
4BD
100
AcDbEntity
  8
0
100
AcDbCircle
 62
7
  6
CONTINUOUS
 10
360.5970767665
 20
388.7529286338
 40
258.7774244288
100
AcDbArc
 50
209.7767343432
 51
210.1164639265
  0
ARC
  5
4BE
100
AcDbEntity
  8
0
100
AcDbCircle
 62
7
  6
CONTINUOUS
 10
360.6879595847
 20
400.2203926342
 40
251.6753432981
100
AcDbArc
 50
210.757007805
 51
211.0963004578
  0
ARC
  5
4BF
100
AcDbEntity
  8
0
100
AcDbCircle
 62
7
  6
CONTINUOUS
 10
353.6501372642
 20
397.3867841987
 40
243.4145636154
100
AcDbArc
 50
210.7289065688
 51
211.0799412168
  0
ARC
  5
4C0
100
AcDbEntity
  8
0
100
AcDbCircle
 62
7
  6
CONTINUOUS
 10
398.4079446841
 20
-39.690801286
 40
266.0663027816
100
AcDbArc
 50
29.9084844188
 51
30.2376467668
  0
ARC
  5
4C1
100
AcDbEntity
  8
0
100
AcDbCircle
 62
7
  6
CONTINUOUS
 10
404.4300025162
 20
-37.0420733679
 40
258.7774244233
100
AcDbArc
 50
29.7767343432
 51
30.1164639265
  0
ARC
  5
4C2
100
AcDbEntity
  8
0
100
AcDbCircle
 62
7
  6
CONTINUOUS
 10
404.3391196892
 20
-48.5095373734
 40
251.6753433028
100
AcDbArc
 50
30.757007805
 51
31.0963004578
  0
ARC
  5
4C3
100
AcDbEntity
  8
0
100
AcDbCircle
 62
7
  6
CONTINUOUS
 10
411.3769420254
 20
-45.6759289286
 40
243.4145636018
100
AcDbArc
 50
30.7289065688
 51
31.0799412168
  0
ARC
  5
4C4
100
AcDbEntity
  8
0
100
AcDbCircle
 62
7
  6
CONTINUOUS
 10
426.935923006
 20
-16.3598631803
 40
236.9092500126
100
AcDbArc
 50
31.4508786402
 51
31.8041330809
  0
ARC
  5
4C5
100
AcDbEntity
  8
0
100
AcDbCircle
 62
7
  6
CONTINUOUS
 10
432.3482824668
 20
-13.930939419
 40
230.248679101
100
AcDbArc
 50
31.3220190401
 51
31.6867657965
  0
ARC
  5
4C6
100
AcDbEntity
  8
0
100
AcDbCircle
 62
7
  6
CONTINUOUS
 10
490.1497688691
 20
-13.3568350825
 40
172.1612538085
100
AcDbArc
 50
37.4956437773
 51
37.9124532203
  0
ARC
  5
4C7
100
AcDbEntity
  8
0
100
AcDbCircle
 62
7
  6
CONTINUOUS
 10
505.7493048772
 20
6.9955859368
 40
156.1761727392
100
AcDbArc
 50
39.220152967
 51
39.6624798336
  0
ARC
  5
4C8
100
AcDbEntity
  8
0
100
AcDbCircle
 62
7
  6
CONTINUOUS
 10
549.5134937253
 20
8.4676003551
 40
116.4901109778
100
AcDbArc
 50
47.4591019647
 51
48.4735513127
  0
ARC
  5
4C9
100
AcDbEntity
  8
0
100
AcDbCircle
 62
7
  6
CONTINUOUS
 10
552.2248704865
 20
10.5957217982
 40
111.9883115793
100
AcDbArc
 50
47.2278835887
 51
48.2866036824
  0
ARC
  5
4CA
100
AcDbEntity
  8
0
100
AcDbCircle
 62
7
  6
CONTINUOUS
 10
556.7318735349
 20
25.8486544743
 40
109.3105917398
100
AcDbArc
 50
49.1191519305
 51
50.1728420152
  0
ARC
  5
4CB
100
AcDbEntity
  8
0
100
AcDbCircle
 62
7
  6
CONTINUOUS
 10
559.2293998871
 20
27.8857500427
 40
105.0158173113
100
AcDbArc
 50
48.892644403
 51
49.9927516727
  0
ARC
  5
4CC
100
AcDbEntity
  8
0
100
AcDbCircle
 62
7
  6
CONTINUOUS
 10
559.085424861
 20
3.6207850275
 40
95.5644787213
100
AcDbArc
 50
51.4048051063
 51
51.9900023079
  0
ARC
  5
4CD
100
AcDbEntity
  8
0
100
AcDbCircle
 62
7
  6
CONTINUOUS
 10
578.0688891653
 20
12.2388725441
 40
80.8655620174
100
AcDbArc
 50
58.891577253
 51
60.151044434
  0
ARC
  5
4CE
100
AcDbEntity
  8
0
100
AcDbCircle
 62
7
  6
CONTINUOUS
 10
584.0295638011
 20
24.3948024712
 40
79.9260217833
100
AcDbArc
 50
58.3437501287
 51
59.3064019527
  0
ARC
  5
4CF
100
AcDbEntity
  8
0
100
AcDbCircle
 62
7
  6
CONTINUOUS
 10
580.1593796071
 20
14.1485880091
 40
76.8726183534
100
AcDbArc
 50
58.9155130682
 51
60.239638087
  0
ARC
  5
4D0
100
AcDbEntity
  8
0
100
AcDbCircle
 62
7
  6
CONTINUOUS
 10
594.5349638087
 20
29.7767901668
 40
73.3503731804
100
AcDbArc
 50
63.9541108581
 51
65.278625517
  0
ARC
  5
4D1
100
AcDbEntity
  8
0
100
AcDbCircle
 62
7
  6
CONTINUOUS
 10
595.7298762689
 20
31.4307288419
 40
70.0063446894
100
AcDbArc
 50
63.7047728761
 51
65.0950614507
  0
ARC
  5
4D2
100
AcDbEntity
  8
0
100
AcDbCircle
 62
7
  6
CONTINUOUS
 10
605.4617773163
 20
24.8883667686
 40
58.9082350011
100
AcDbArc
 50
77.3953155268
 51
78.5379284416
  0
ARC
  5
4D3
100
AcDbEntity
  8
0
100
AcDbCircle
 62
7
  6
CONTINUOUS
 10
621.5157576566
 20
30.9902918212
 40
56.5718636514
100
AcDbArc
 50
88.1970498593
 51
100.2766229987
  0
ARC
  5
4D4
100
AcDbEntity
  8
0
100
AcDbCircle
 62
7
  6
CONTINUOUS
 10
621.4752461353
 20
26.7081650252
 40
56.0792570533
100
AcDbArc
 50
94.4050468859
 51
95.9766890254
  0
ARC
  5
4D5
100
AcDbEntity
  8
0
100
AcDbCircle
 62
7
  6
CONTINUOUS
 10
606.2778797557
 20
26.4104297883
 40
55.7865063878
100
AcDbArc
 50
77.5372154389
 51
78.74299679
  0
ARC
  5
4D6
100
AcDbEntity
  8
0
100
AcDbCircle
 62
7
  6
CONTINUOUS
 10
621.5356478953
 20
17.104057327
 40
55.5151471111
100
AcDbArc
 50
81.8317192568
 51
90.1598763803
  0
ARC
  5
4D7
100
AcDbEntity
  8
0
100
AcDbCircle
 62
7
  6
CONTINUOUS
 10
621.4849276632
 20
17.1282287476
 40
55.4902102135
100
AcDbArc
 50
92.4809940954
 51
98.4423390042
  0
ARC
  5
4D8
100
AcDbEntity
  8
0
100
AcDbCircle
 62
7
  6
CONTINUOUS
 10
606.2510977739
 20
24.8138225847
 40
55.3495489952
100
AcDbArc
 50
77.8147183922
 51
79.0287805138
  0
ARC
  5
4D9
100
AcDbEntity
  8
0
100
AcDbCircle
 62
7
  6
CONTINUOUS
 10
621.4711387278
 20
28.1213768621
 40
53.1767027903
100
AcDbArc
 50
94.6415628773
 51
96.2997515265
  0
ARC
  5
4DA
100
AcDbEntity
  8
0
100
AcDbCircle
 62
7
  6
CONTINUOUS
 10
621.4822475661
 20
31.0343816615
 40
53.1463333907
100
AcDbArc
 50
88.0446520284
 51
100.9101275584
  0
ARC
  5
4DB
100
AcDbEntity
  8
0
100
AcDbCircle
 62
7
  6
CONTINUOUS
 10
621.4662104875
 20
26.3378356718
 40
53.0209631961
100
AcDbArc
 50
95.0652325468
 51
96.312973085
  0
ARC
  5
4DC
100
AcDbEntity
  8
0
100
AcDbCircle
 62
7
  6
CONTINUOUS
 10
621.5380332218
 20
18.4747439989
 40
52.6382131553
100
AcDbArc
 50
81.384601801
 51
90.1712108231
  0
ARC
  5
4DD
100
AcDbEntity
  8
0
100
AcDbCircle
 62
7
  6
CONTINUOUS
 10
621.4818599385
 20
18.4999220312
 40
52.6121413244
100
AcDbArc
 50
92.6134608728
 51
98.9044402844
  0
ARC
  5
4DE
100
AcDbEntity
  8
0
100
AcDbCircle
 62
7
  6
CONTINUOUS
 10
621.5167088623
 20
16.5350596686
 40
52.5600964259
100
AcDbArc
 50
81.3481871555
 51
101.0716095614
  0
ARC
  5
4DF
100
AcDbEntity
  8
0
100
AcDbCircle
 62
7
  6
CONTINUOUS
 10
821.5395468862
 20
-18.2482783968
 40
244.2434501957
100
AcDbArc
 50
148.8227397593
 51
149.1715826063
  0
ARC
  5
4E0
100
AcDbEntity
  8
0
100
AcDbCircle
 62
7
  6
CONTINUOUS
 10
816.0296775188
 20
-15.6883860606
 40
237.4289148905
100
AcDbArc
 50
148.9724352755
 51
149.3329199927
  0
ARC
  5
4E1
100
AcDbEntity
  8
0
100
AcDbCircle
 62
7
  6
CONTINUOUS
 10
789.9503422637
 20
-20.4500369345
 40
193.5568293135
100
AcDbArc
 50
146.2358327163
 51
146.6459936666
  0
ARC
  5
4E2
100
AcDbEntity
  8
0
100
AcDbCircle
 62
7
  6
CONTINUOUS
 10
752.6573781576
 20
-28.2808632914
 40
177.2719918055
100
AcDbArc
 50
142.0052154006
 51
142.612583558
  0
ARC
  5
4E3
100
AcDbEntity
  8
0
100
AcDbCircle
 62
7
  6
CONTINUOUS
 10
748.3959555613
 20
-25.6215301323
 40
171.3380856631
100
AcDbArc
 50
142.2311646747
 51
142.8629724949
  0
ARC
  5
4E4
100
AcDbEntity
  8
0
100
AcDbCircle
 62
7
  6
CONTINUOUS
 10
735.2645633383
 20
-6.6533062617
 40
144.7955431901
100
AcDbArc
 50
138.5458064133
 51
139.0057270541
  0
ARC
  5
4E5
100
AcDbEntity
  8
0
100
AcDbCircle
 62
7
  6
CONTINUOUS
 10
730.1757675595
 20
-3.9249475886
 40
138.1873258697
100
AcDbArc
 50
138.4606795205
 51
138.9418804417
  0
ARC
  5
4E6
100
AcDbEntity
  8
0
100
AcDbCircle
 62
7
  6
CONTINUOUS
 10
699.7675164221
 20
-8.2915061462
 40
121.7296555363
100
AcDbArc
 50
134.47291705
 51
134.9803574592
  0
ARC
  5
4E7
100
AcDbEntity
  8
0
100
AcDbCircle
 62
7
  6
CONTINUOUS
 10
741.5520195849
 20
4.8820338465
 40
162.3736800071
100
AcDbArc
 50
141.2777472692
 51
141.7118710752
  0
ARC
  5
4E8
100
AcDbEntity
  8
0
100
AcDbCircle
 62
7
  6
CONTINUOUS
 10
688.3955996949
 20
24.470211677
 40
112.9547362163
100
AcDbArc
 50
131.1254544811
 51
132.1653269806
  0
ARC
  5
4E9
100
AcDbEntity
  8
0
100
AcDbCircle
 62
7
  6
CONTINUOUS
 10
685.8644335769
 20
26.5906353317
 40
108.5742462821
100
AcDbArc
 50
131.3710583137
 51
132.4574315297
  0
ARC
  5
4EA
100
AcDbEntity
  8
0
100
AcDbCircle
 62
7
  6
CONTINUOUS
 10
673.8749228482
 20
3.5103697245
 40
98.4479792552
100
AcDbArc
 50
127.1023294443
 51
128.2286347144
  0
ARC
  5
4EB
100
AcDbEntity
  8
0
100
AcDbCircle
 62
7
  6
CONTINUOUS
 10
671.8273996023
 20
5.4889263322
 40
94.4289939218
100
AcDbArc
 50
127.3896033871
 51
128.5688493592
  0
ARC
  5
4EC
100
AcDbEntity
  8
0
100
AcDbCircle
 62
7
  6
CONTINUOUS
 10
676.8786164952
 20
16.1760104234
 40
85.0500322522
100
AcDbArc
 50
124.853385744
 51
126.1208507155
  0
ARC
  5
4ED
100
AcDbEntity
  8
0
100
AcDbCircle
 62
7
  6
CONTINUOUS
 10
656.3832488798
 20
23.3139028275
 40
71.7752698795
100
AcDbArc
 50
115.0645119438
 51
116.0812874901
  0
ARC
  5
4EE
100
AcDbEntity
  8
0
100
AcDbCircle
 62
7
  6
CONTINUOUS
 10
654.6130763254
 20
25.1466891748
 40
68.0154331011
100
AcDbArc
 50
114.8996824889
 51
115.9714398176
  0
ARC
  5
4EF
100
AcDbEntity
  8
0
100
AcDbCircle
 62
7
  6
CONTINUOUS
 10
639.4945266408
 20
20.4385861967
 40
66.4731932516
100
AcDbArc
 50
111.0338003196
 51
112.0986747423
  0
ARC
  5
4F0
100
AcDbEntity
  8
0
100
AcDbCircle
 62
7
  6
CONTINUOUS
 10
638.8160006473
 20
20.0787437548
 40
63.3515523031
100
AcDbArc
 50
111.4626003362
 51
112.5835160123
  0
ARC
  5
4F1
100
AcDbEntity
  8
0
100
AcDbCircle
 62
7
  6
CONTINUOUS
 10
638.6824570926
 20
21.9864638494
 40
63.3325832188
100
AcDbArc
 50
111.3395829097
 51
112.4598614415
  0
ARC
  5
4F2
100
AcDbEntity
  8
0
100
AcDbCircle
 62
7
  6
CONTINUOUS
 10
644.7738054842
 20
27.8392733779
 40
59.8203190223
100
AcDbArc
 50
107.5432353387
 51
109.0888495102
  0
ARC
  5
4F3
100
AcDbEntity
  8
0
100
AcDbCircle
 62
7
  6
CONTINUOUS
 10
633.3178560818
 20
30.070713827
 40
58.3308779623
100
AcDbArc
 50
98.3693758036
 51
99.8934655078
  0
ARC
  5
4F4
100
AcDbEntity
  8
0
100
AcDbCircle
 62
7
  6
CONTINUOUS
 10
632.7271060281
 20
31.5418633917
 40
55.3184859418
100
AcDbArc
 50
98.2099835939
 51
99.8165444096
  0
ARC
  5
4F5
100
AcDbEntity
  8
0
100
AcDbCircle
 62
7
  6
CONTINUOUS
 10
630.4723694621
 20
30.2393955032
 40
54.3859716127
100
AcDbArc
 50
95.5520504737
 51
97.5828279546
  0
ARC
  5
4F6
100
AcDbEntity
  8
0
100
AcDbCircle
 62
7
  6
CONTINUOUS
 10
1350.6808774594
 20
-81.1080300926
 40
762.4236351784
100
AcDbArc
 50
165.7225650156
 51
165.8397376244
  0
ARC
  5
4F7
100
AcDbEntity
  8
0
100
AcDbCircle
 62
7
  6
CONTINUOUS
 10
1342.1615962238
 20
-79.8667785632
 40
753.4899500877
100
AcDbArc
 50
165.7653222762
 51
165.8842415487
  0
ARC
  5
4F8
100
AcDbEntity
  8
0
100
AcDbCircle
 62
7
  6
CONTINUOUS
 10
1346.2626673454
 20
-94.3683407262
 40
739.8293269646
100
AcDbArc
 50
165.6790444964
 51
165.7994480556
  0
ARC
  5
4F9
100
AcDbEntity
  8
0
100
AcDbCircle
 62
7
  6
CONTINUOUS
 10
1155.470046364
 20
-66.4421826395
 40
568.0125067154
100
AcDbArc
 50
162.3805553045
 51
162.5086313369
  0
ARC
  5
4FA
100
AcDbEntity
  8
0
100
AcDbCircle
 62
7
  6
CONTINUOUS
 10
1166.5466526667
 20
-82.4589143207
 40
565.9917315041
100
AcDbArc
 50
162.3743044731
 51
162.5027949385
  0
ARC
  5
4FB
100
AcDbEntity
  8
0
100
AcDbCircle
 62
7
  6
CONTINUOUS
 10
1090.3284551992
 20
-98.6053518539
 40
508.2108299742
100
AcDbArc
 50
159.6876471962
 51
159.8123944009
  0
ARC
  5
4FC
100
AcDbEntity
  8
0
100
AcDbCircle
 62
7
  6
CONTINUOUS
 10
657.0117791295
 20
38.7659368067
 40
79.734691885
100
AcDbArc
 50
120.9382677153
 51
121.9057639005
  0
ARC
  5
4FD
100
AcDbEntity
  8
0
100
AcDbCircle
 62
7
  6
CONTINUOUS
 10
587.1593353187
 20
39.929435555
 40
77.2142070281
100
AcDbArc
 50
59.8198622976
 51
60.8012606884
  0
ARC
  5
4FE
100
AcDbEntity
  8
0
100
AcDbCircle
 62
7
  6
CONTINUOUS
 10
647.0902057033
 20
43.8079492227
 40
73.5585214318
100
AcDbArc
 50
115.3157967704
 51
116.6431850138
  0
ARC
  5
4FF
100
AcDbEntity
  8
0
100
AcDbCircle
 62
7
  6
CONTINUOUS
 10
596.5577165833
 20
44.5429538356
 40
71.8972111932
100
AcDbArc
 50
65.1760396007
 51
66.5140203033
  0
ARC
  5
500
100
AcDbEntity
  8
0
100
AcDbCircle
 62
7
  6
CONTINUOUS
 10
645.9575545329
 20
45.4981106021
 40
70.2127891476
100
AcDbArc
 50
115.5851158823
 51
116.9793685711
  0
ARC
  5
501
100
AcDbEntity
  8
0
100
AcDbCircle
 62
7
  6
CONTINUOUS
 10
597.681593661
 20
46.1884875086
 40
68.595582927
100
AcDbArc
 50
64.9344527702
 51
66.3391349487
  0
ARC
  5
502
100
AcDbEntity
  8
0
100
AcDbCircle
 62
7
  6
CONTINUOUS
 10
630.4483623112
 20
51.2458877212
 40
60.8856212454
100
AcDbArc
 50
102.2296238325
 51
104.0802576398
  0
ARC
  5
503
100
AcDbEntity
  8
0
100
AcDbCircle
 62
7
  6
CONTINUOUS
 10
612.6698081468
 20
51.4190663209
 40
60.3816152753
100
AcDbArc
 50
78.012925428
 51
79.8644327443
  0
ARC
  5
504
100
AcDbEntity
  8
0
100
AcDbCircle
 62
7
  6
CONTINUOUS
 10
612.095690303
 20
37.5866419598
 40
60.2625136805
100
AcDbArc
 50
77.4302215619
 51
79.2891559748
  0
ARC
  5
505
100
AcDbEntity
  8
0
100
AcDbCircle
 62
7
  6
CONTINUOUS
 10
632.4087522837
 20
50.2402748178
 40
59.2286708819
100
AcDbArc
 50
104.5281029341
 51
106.0644965233
  0
ARC
  5
506
100
AcDbEntity
  8
0
100
AcDbCircle
 62
7
  6
CONTINUOUS
 10
610.0689418148
 20
36.5354315255
 40
58.4814070325
100
AcDbArc
 50
75.382548842
 51
76.9283597499
  0
ARC
  5
507
100
AcDbEntity
  8
0
100
AcDbCircle
 62
7
  6
CONTINUOUS
 10
610.7802523134
 20
50.5632083001
 40
58.4811993951
100
AcDbArc
 50
76.1015415689
 51
77.6427273947
  0
ARC
  5
508
100
AcDbEntity
  8
0
100
AcDbCircle
 62
7
  6
CONTINUOUS
 10
630.0153262592
 20
52.7571887785
 40
57.8834483796
100
AcDbArc
 50
102.4352226459
 51
104.3838934773
  0
ARC
  5
509
100
AcDbEntity
  8
0
100
AcDbCircle
 62
7
  6
CONTINUOUS
 10
621.5138285517
 20
53.1028790957
 40
57.7829733474
100
AcDbArc
 50
88.2329373651
 51
93.9325491454
  0
ARC
  5
50A
100
AcDbEntity
  8
0
100
AcDbCircle
 62
7
  6
CONTINUOUS
 10
613.0999299535
 20
52.9062492371
 40
57.4035115115
100
AcDbArc
 50
77.820614579
 51
79.7691496645
  0
ARC
  5
50B
100
AcDbEntity
  8
0
100
AcDbCircle
 62
7
  6
CONTINUOUS
 10
621.5171931323
 20
43.6563515006
 40
57.3674655716
100
AcDbArc
 50
84.3898194664
 51
97.8104528772
  0
ARC
  5
50C
100
AcDbEntity
  8
0
100
AcDbCircle
 62
7
  6
CONTINUOUS
 10
612.5490908714
 20
39.052917726
 40
57.2907298455
100
AcDbArc
 50
77.2320352108
 51
79.1884633175
  0
ARC
  5
50D
100
AcDbEntity
  8
0
100
AcDbCircle
 62
7
  6
CONTINUOUS
 10
621.5157745264
 20
39.8331478496
 40
56.9938908799
100
AcDbArc
 50
88.2104216355
 51
100.1997267818
  0
ARC
  5
50E
100
AcDbEntity
  8
0
100
AcDbCircle
 62
7
  6
CONTINUOUS
 10
621.5138601789
 20
54.5548195344
 40
54.8711685024
100
AcDbArc
 50
88.1391669407
 51
94.1416227229
  0
ARC
  5
50F
100
AcDbEntity
  8
0
100
AcDbCircle
 62
7
  6
CONTINUOUS
 10
621.5138615786
 20
52.8837151735
 40
54.8347640542
100
AcDbArc
 50
88.1379325739
 51
94.1443785898
  0
ARC
  5
510
100
AcDbEntity
  8
0
100
AcDbCircle
 62
7
  6
CONTINUOUS
 10
621.5175986116
 20
45.0990034501
 40
54.4578432547
100
AcDbArc
 50
84.0894620489
 51
98.2310070528
  0
ARC
  5
511
100
AcDbEntity
  8
0
100
AcDbCircle
 62
7
  6
CONTINUOUS
 10
621.5168493872
 20
43.7375007748
 40
54.0315351023
100
AcDbArc
 50
81.5856854435
 51
100.7665963582
  0
ARC
  5
512
100
AcDbEntity
  8
0
100
AcDbCircle
 62
7
  6
CONTINUOUS
 10
621.4818685315
 20
39.964623221
 40
53.5675624134
100
AcDbArc
 50
88.0596281798
 51
100.8228833929
  0
ARC
  5
513
100
AcDbEntity
  8
RUNDUNGEN
100
AcDbCircle
 62
7
  6
CONTINUOUS
 10
655.513539639
 20
77.8554276316
 40
25.0
100
AcDbArc
 50
270.0
 51
360.0
  0
ARC
  5
514
100
AcDbEntity
  8
BEZUGSACHSEN
100
AcDbCircle
 62
7
  6
CONTINUOUS
 10
586.642642438
 20
77.8554276316
 40
25.0
100
AcDbArc
 50
220.8843495737
 51
270.0
  0
ARC
  5
515
100
AcDbEntity
  8
BEZUGSACHSEN
100
AcDbCircle
 62
7
  6
CONTINUOUS
 10
522.9741476248
 20
153.8554276316
 40
5.0
100
AcDbArc
 50
270.0
 51
342.5423968763
  0
ARC
  5
516
100
AcDbEntity
  8
RUNDUNGEN
100
AcDbCircle
 62
7
  6
CONTINUOUS
 10
563.2078867493
 20
160.8554276316
 40
5.0
100
AcDbArc
 50
270.0
 51
360.0
  0
ARC
  5
517
100
AcDbEntity
  8
0
100
AcDbCircle
 62
7
  6
CONTINUOUS
 10
487.513539639
 20
149.3554276316
 40
5.0
100
AcDbArc
 50
212.4099454224
 51
270.0
  0
ARC
  5
518
100
AcDbEntity
  8
RUNDUNGEN
100
AcDbCircle
 62
7
  6
CONTINUOUS
 10
532.513539639
 20
150.8554276316
 40
5.0
100
AcDbArc
 50
90.0
 51
162.5423968763
  0
ARC
  5
519
100
AcDbEntity
  8
BEZUGSACHSEN
100
AcDbCircle
 62
7
  6
CONTINUOUS
 10
10425.5908311845
 20
170.7984662973
 40
9862.8464601836
100
AcDbArc
 50
180.0868331663
 51
180.2835551897
  0
ARC
  5
51A
100
AcDbEntity
  8
BEZUGSACHSEN
100
AcDbCircle
 62
7
  6
CONTINUOUS
 10
9441.2676650227
 20
184.0939767952
 40
8878.5197634614
100
AcDbArc
 50
179.7055398978
 51
179.9240717458
  0
ARC
  5
51B
100
AcDbEntity
  8
0
100
AcDbCircle
 62
7
  6
CONTINUOUS
 10
860.6839364981
 20
430.821084645
 40
748.2758471278
100
AcDbArc
 50
194.303383734
 51
194.4216024567
  0
ARC
  5
51C
100
AcDbEntity
  8
0
100
AcDbCircle
 62
7
  6
CONTINUOUS
 10
852.0565453322
 20
429.6280041124
 40
739.2526087661
100
AcDbArc
 50
194.2669043406
 51
194.3868572236
  0
ARC
  5
51D
100
AcDbEntity
  8
0
100
AcDbCircle
 62
7
  6
CONTINUOUS
 10
754.6018313103
 20
446.247034832
 40
643.764900229
100
AcDbArc
 50
196.6728252719
 51
196.7912206286
  0
ARC
  5
51E
100
AcDbEntity
  8
0
100
AcDbCircle
 62
7
  6
CONTINUOUS
 10
665.7721916475
 20
415.7413741146
 40
554.1364541778
100
AcDbArc
 50
197.7115325191
 51
197.8412354425
  0
ARC
  5
51F
100
AcDbEntity
  8
0
100
AcDbCircle
 62
7
  6
CONTINUOUS
 10
551.5137486677
 20
435.5089064431
 40
436.4122084857
100
AcDbArc
 50
201.6698909246
 51
201.805652635
  0
ARC
  5
520
100
AcDbEntity
  8
0
100
AcDbCircle
 62
7
  6
CONTINUOUS
 10
585.0784922143
 20
351.9230372645
 40
81.7959517478
100
AcDbArc
 50
300.1751452826
 51
302.9545201111
  0
ARC
  5
521
100
AcDbEntity
  8
0
100
AcDbCircle
 62
7
  6
CONTINUOUS
 10
657.2841197884
 20
351.4674632384
 40
80.2524409361
100
AcDbArc
 50
238.684834101
 51
241.2556167921
  0
ARC
  5
522
100
AcDbEntity
  8
0
100
AcDbCircle
 62
7
  6
CONTINUOUS
 10
587.1152996756
 20
349.354017132
 40
77.2374583876
100
AcDbArc
 50
299.1079951268
 51
303.3469341863
  0
ARC
  5
523
100
AcDbEntity
  8
0
100
AcDbCircle
 62
7
  6
CONTINUOUS
 10
655.3573212316
 20
349.0789654094
 40
75.9042300031
100
AcDbArc
 50
238.390001798
 51
242.4334387649
  0
ARC
  5
524
100
AcDbEntity
  8
0
100
AcDbCircle
 62
7
  6
CONTINUOUS
 10
593.1633766083
 20
340.3437443689
 40
64.5054322023
100
AcDbArc
 50
290.3290610883
 51
294.8099238655
  0
ARC
  5
525
100
AcDbEntity
  8
0
100
AcDbCircle
 62
7
  6
CONTINUOUS
 10
621.5097276396
 20
317.7585158849
 40
56.9300349883
100
AcDbArc
 50
264.0145469238
 51
278.1427528823
  0
ARC
  5
526
100
AcDbEntity
  8
0
100
AcDbCircle
 62
7
  6
CONTINUOUS
 10
621.5090731678
 20
327.2539458056
 40
56.4065409479
100
AcDbArc
 50
266.5270956825
 51
278.219515461
  0
ARC
  5
527
100
AcDbEntity
  8
0
100
AcDbCircle
 62
7
  6
CONTINUOUS
 10
621.5056174446
 20
327.230511697
 40
56.3829405756
100
AcDbArc
 50
266.3376941872
 51
266.5291583658
  0
ARC
  5
528
100
AcDbEntity
  8
0
100
AcDbCircle
 62
7
  6
CONTINUOUS
 10
621.4813036273
 20
326.8900980802
 40
56.0416691246
100
AcDbArc
 50
263.9485349538
 51
266.3402705602
  0
ARC
  5
529
100
AcDbEntity
  8
0
100
AcDbCircle
 62
7
  6
CONTINUOUS
 10
621.5119142945
 20
318.7349381023
 40
54.0515180661
100
AcDbArc
 50
266.3622588046
 51
269.7297128526
  0
ARC
  5
52A
100
AcDbEntity
  8
0
100
AcDbCircle
 62
7
  6
CONTINUOUS
 10
621.5093051926
 20
316.3405979871
 40
54.0342077708
100
AcDbArc
 50
263.6929537307
 51
278.5828037573
  0
ARC
  5
52B
100
AcDbEntity
  8
0
100
AcDbCircle
 62
7
  6
CONTINUOUS
 10
621.5137223053
 20
323.7106158293
 40
53.8500555284
100
AcDbArc
 50
269.7267779309
 51
272.397198172
  0
ARC
  5
52C
100
AcDbEntity
  8
0
100
AcDbCircle
 62
7
  6
CONTINUOUS
 10
621.5093607486
 20
325.858191347
 40
53.5186794268
100
AcDbArc
 50
263.6318899352
 51
278.6660521708
  0
ARC
  5
52D
100
AcDbEntity
  8
0
100
AcDbCircle
 62
7
  6
CONTINUOUS
 10
621.5677564972
 20
317.9632044025
 40
53.2782734632
100
AcDbArc
 50
272.364780695
 51
278.6419330762
  0
ARC
  5
52E
100
AcDbEntity
  8
0
100
AcDbCircle
 62
7
  6
CONTINUOUS
 10
621.481301086
 20
323.8805092295
 40
53.2689485798
100
AcDbArc
 50
263.6322801657
 51
266.341738778
  0
ARC
  5
52F
100
AcDbEntity
  8
0
100
AcDbCircle
 62
7
  6
CONTINUOUS
 10
621.5119645519
 20
328.0650302271
 40
53.2471453802
100
AcDbArc
 50
263.596460945
 51
278.7077530274
  0
ARC
  5
530
100
AcDbEntity
  8
BEZUGSACHSEN
100
AcDbCircle
 62
7
  6
CONTINUOUS
 10
586.642642438
 20
273.8554276316
 40
25.0
100
AcDbArc
 50
90.0
 51
139.1156504263
  0
ARC
  5
531
100
AcDbEntity
  8
0
100
AcDbCircle
 62
7
  6
CONTINUOUS
 10
655.513539639
 20
273.8554276316
 40
25.0
100
AcDbArc
 50
0.0
 51
90.0
  0
ARC
  5
532
100
AcDbEntity
  8
BEZUGSACHSEN
100
AcDbCircle
 62
7
  6
CONTINUOUS
 10
522.9741476248
 20
197.8554276316
 40
5.0
100
AcDbArc
 50
17.4576031237
 51
90.0
  0
ARC
  5
533
100
AcDbEntity
  8
BEZUGSACHSEN
100
AcDbCircle
 62
7
  6
CONTINUOUS
 10
563.2078867493
 20
190.8554276316
 40
5.0
100
AcDbArc
 50
0.0
 51
90.0
  0
ARC
  5
534
100
AcDbEntity
  8
BEZUGSACHSEN
100
AcDbCircle
 62
7
  6
CONTINUOUS
 10
532.513539639
 20
200.8554276316
 40
5.0
100
AcDbArc
 50
197.4576031237
 51
270.0
  0
ARC
  5
535
100
AcDbEntity
  8
0
100
AcDbCircle
 62
7
  6
CONTINUOUS
 10
487.513539639
 20
202.3554276316
 40
5.0
100
AcDbArc
 50
90.0
 51
147.5900545776
  0
SPLINE
  5
536
100
AcDbEntity
  8
0
100
AcDbSpline
 62
7
  6
CONTINUOUS
 70
0
 71
3
 72
9
 73
5
 74
0
 42
0.0000001
 43
0.0000001
 44
0.0000000001
 40
0.0
 40
0.0
 40
0.0
 40
0.0
 40
0.2514143374
 40
1.0
 40
1.0
 40
1.0
 40
1.0
 10
623.2956342631
 20
419.1700266397
 30
0.0
 10
622.2970219222
 20
419.1370992675
 30
0.0
 10
618.3222992611
 20
419.1162504035
 30
0.0
 10
614.3442986601
 20
419.5338707172
 30
0.0
 10
611.4232936435
 20
420.0980054908
 30
0.0
  0
SPLINE
  5
537
100
AcDbEntity
  8
0
100
AcDbSpline
 62
7
  6
CONTINUOUS
 70
0
 71
3
 72
9
 73
5
 74
0
 42
0.0000001
 43
0.0000001
 44
0.0000000001
 40
0.0
 40
0.0
 40
0.0
 40
0.0
 40
0.2513931842
 40
1.0
 40
1.0
 40
1.0
 40
1.0
 10
623.2956342631
 20
425.8036359513
 30
0.0
 10
622.297161601
 20
425.7709638646
 30
0.0
 10
618.3227047119
 20
425.7502661603
 30
0.0
 10
614.3449998434
 20
426.1645835678
 30
0.0
 10
611.4232936435
 20
426.7245111654
 30
0.0
  0
SPLINE
  5
538
100
AcDbEntity
  8
0
100
AcDbSpline
 62
7
  6
CONTINUOUS
 70
0
 71
3
 72
9
 73
5
 74
0
 42
0.0000001
 43
0.0000001
 44
0.0000000001
 40
0.0
 40
0.0
 40
0.0
 40
0.0
 40
0.2538206899
 40
1.0
 40
1.0
 40
1.0
 40
1.0
 10
629.4232936435
 20
416.7614447058
 30
0.0
 10
628.6959644749
 20
416.4972784255
 30
0.0
 10
625.8105859612
 20
415.5122237827
 30
0.0
 10
622.8485368443
 20
414.750100723
 30
0.0
 10
620.6147829824
 20
414.3196173752
 30
0.0
  0
SPLINE
  5
539
100
AcDbEntity
  8
BEZUGSACHSEN
100
AcDbSpline
 62
7
  6
CONTINUOUS
 70
0
 71
3
 72
9
 73
5
 74
0
 42
0.0000001
 43
0.0000001
 44
0.0000000001
 40
0.0
 40
0.0
 40
0.0
 40
0.0
 40
0.2502042004
 40
1.0
 40
1.0
 40
1.0
 40
1.0
 10
567.7418353285
 20
407.1107191413
 30
0.0
 10
567.7792355878
 20
403.9625741616
 30
0.0
 10
568.028461872
 20
391.3814397943
 30
0.0
 10
568.6590841425
 20
378.8095758615
 30
0.0
 10
569.2848894998
 20
369.3955299368
 30
0.0
  0
SPLINE
  5
53A
100
AcDbEntity
  8
BEZUGSACHSEN
100
AcDbSpline
 62
7
  6
CONTINUOUS
 70
0
 71
3
 72
11
 73
7
 74
0
 42
0.0000001
 43
0.0000001
 44
0.0000000001
 40
0.0
 40
0.0
 40
0.0
 40
0.0
 40
0.217635878
 40
0.458442113
 40
0.7200879066
 40
1.0
 40
1.0
 40
1.0
 40
1.0
 10
562.8651527533
 20
478.3137943311
 30
0.0
 10
562.8994169424
 20
473.1347975733
 30
0.0
 10
563.2344453687
 20
462.2268686869
 30
0.0
 10
564.3157055116
 20
445.1234393233
 30
0.0
 10
565.8686525955
 20
426.5695090805
 30
0.0
 10
567.0912371007
 20
413.7399761742
 30
0.0
 10
567.7418353285
 20
407.1107191413
 30
0.0
  0
SPLINE
  5
53B
100
AcDbEntity
  8
BEZUGSACHSEN
100
AcDbSpline
 62
7
  6
CONTINUOUS
 70
0
 71
3
 72
11
 73
7
 74
0
 42
0.0000001
 43
0.0000001
 44
0.0000000001
 40
0.0
 40
0.0
 40
0.0
 40
0.0
 40
0.2585737208
 40
0.5093414352
 40
0.7529576424
 40
1.0
 40
1.0
 40
1.0
 40
1.0
 10
567.6004994383
 20
362.6453169224
 30
0.0
 10
566.8621375891
 20
362.4044779362
 30
0.0
 10
565.4202540936
 20
361.8888113568
 30
0.0
 10
563.3669368234
 20
360.9288298158
 30
0.0
 10
561.5107702987
 20
359.6718581885
 30
0.0
 10
560.5507413206
 20
358.5090044485
 30
0.0
 10
560.1946689641
 20
357.8580092833
 30
0.0
  0
SPLINE
  5
53C
100
AcDbEntity
  8
BEZUGSACHSEN
100
AcDbSpline
 62
7
  6
CONTINUOUS
 70
0
 71
3
 72
13
 73
9
 74
0
 42
0.0000001
 43
0.0000001
 44
0.0000000001
 40
0.0
 40
0.0
 40
0.0
 40
0.0
 40
0.3428596944
 40
0.6429915184
 40
0.7689018366
 40
0.8726603642
 40
0.9497325187
 40
1.0
 40
1.0
 40
1.0
 40
1.0
 10
569.2848894998
 20
369.3955299368
 30
0.0
 10
569.1774142398
 20
368.5962533062
 30
0.0
 10
568.9647052732
 20
367.0991282833
 30
0.0
 10
568.655936573
 20
365.3152634939
 30
0.0
 10
568.3712541374
 20
364.1027568544
 30
0.0
 10
568.1530150742
 20
363.411021036
 30
0.0
 10
567.9324970976
 20
362.9196706038
 30
0.0
 10
567.7129092367
 20
362.6819827684
 30
0.0
 10
567.6004994383
 20
362.6453169224
 30
0.0
  0
SPLINE
  5
53D
100
AcDbEntity
  8
0
100
AcDbSpline
 62
7
  6
CONTINUOUS
 70
0
 71
3
 72
25
 73
21
 74
0
 42
0.0000001
 43
0.0000001
 44
0.0000000001
 40
0.0
 40
0.0
 40
0.0
 40
0.0
 40
0.0521358453
 40
0.1003089279
 40
0.1238937298
 40
0.1478893688
 40
0.1997417324
 40
0.26073936
 40
0.3326578599
 40
0.413775216
 40
0.5000000006
 40
0.5862247845
 40
0.6673421394
 40
0.7392606405
 40
0.8002582687
 40
0.8521106316
 40
0.8761062699
 40
0.8996910718
 40
0.9478641546
 40
1.0
 40
1.0
 40
1.0
 40
1.0
 10
585.2388657474
 20
478.3137925365
 30
0.0
 10
585.5033277197
 20
479.847260225
 30
0.0
 10
586.1964911264
 20
482.7737101317
 30
0.0
 10
587.7727525561
 20
486.1633771253
 30
0.0
 10
589.5030745158
 20
488.4505027771
 30
0.0
 10
591.6350251779
 20
490.531226798
 30
0.0
 10
595.1929624236
 20
492.6532557498
 30
0.0
 10
600.4924514032
 20
494.2863756056
 30
0.0
 10
606.8166040939
 20
495.2711731557
 30
0.0
 10
613.9446207196
 20
495.7752822316
 30
0.0
 10
621.5135397431
 20
495.9278281846
 30
0.0
 10
629.0824587329
 20
495.7752822228
 30
0.0
 10
636.2104753358
 20
495.2711731404
 30
0.0
 10
642.5346280516
 20
494.2863755866
 30
0.0
 10
647.8341170258
 20
492.6532556344
 30
0.0
 10
651.3920542723
 20
490.5312267164
 30
0.0
 10
653.5240048394
 20
488.4505026548
 30
0.0
 10
655.2543267916
 20
486.163377021
 30
0.0
 10
656.8305882003
 20
482.7737100015
 30
0.0
 10
657.5237515709
 20
479.8472600813
 30
0.0
 10
657.7882135378
 20
478.3137923873
 30
0.0
  0
SPLINE
  5
53E
100
AcDbEntity
  8
0
100
AcDbSpline
 62
7
  6
CONTINUOUS
 70
0
 71
3
 72
27
 73
23
 74
0
 42
0.0000001
 43
0.0000001
 44
0.0000000001
 40
0.0
 40
0.0
 40
0.0
 40
0.0
 40
0.0481186428
 40
0.0988389876
 40
0.1522148733
 40
0.2082259131
 40
0.2668718073
 40
0.3282462313
 40
0.3925948374
 40
0.4602897926
 40
0.4956056244
 40
0.5318071376
 40
0.5687095434
 40
0.6059659226
 40
0.6431233559
 40
0.6797600961
 40
0.715596205
 40
0.7505121423
 40
0.8174610172
 40
0.8811436007
 40
0.9419205938
 40
1.0
 40
1.0
 40
1.0
 40
1.0
 10
657.7882135396
 20
478.3137923873
 30
0.0
 10
658.2274979991
 20
475.7666267565
 30
0.0
 10
658.8177259345
 20
470.479898535
 30
0.0
 10
659.0765245071
 20
462.3022877548
 30
0.0
 10
658.797542724
 20
453.7005170761
 30
0.0
 10
657.9119705734
 20
444.710274391
 30
0.0
 10
656.2143401705
 20
435.3941240847
 30
0.0
 10
653.3466069023
 20
425.8839058639
 30
0.0
 10
648.7931052803
 20
416.4835767765
 30
0.0
 10
643.0871418353
 20
409.3798058483
 30
0.0
 10
637.1672806531
 20
404.757006964
 30
0.0
 10
631.9772076111
 20
402.0357741011
 30
0.0
 10
626.2385092614
 20
400.3813656986
 30
0.0
 10
620.2219812424
 20
399.999263879
 30
0.0
 10
614.2834103679
 20
400.9422338297
 30
0.0
 10
608.7535594375
 20
403.0832022791
 30
0.0
 10
603.8476221588
 20
406.1786327315
 30
0.0
 10
598.3279430447
 20
411.145750995
 30
0.0
 10
593.0866647646
 20
418.45853022
 30
0.0
 10
588.9457549766
 20
427.9209845744
 30
0.0
 10
586.3663713598
 20
437.4067300654
 30
0.0
 10
585.3435813466
 20
443.7183064506
 30
0.0
 10
584.9668362075
 20
446.8153008224
 30
0.0
  0
LINE
  5
53F
100
AcDbEntity
  8
BEZUGSACHSEN
100
AcDbLine
 62
7
  6
CONTINUOUS
 10
562.7400449518
 20
497.1345746979
 11
562.8651527533
 21
478.3137943311
  0
SPLINE
  5
540
100
AcDbEntity
  8
RUNDUNGEN
100
AcDbSpline
 62
7
  6
CONTINUOUS
 70
0
 71
3
 72
17
 73
13
 74
0
 42
0.0000001
 43
0.0000001
 44
0.0000000001
 40
0.0
 40
0.0
 40
0.0
 40
0.0
 40
0.0695823189
 40
0.1381429471
 40
0.2053973797
 40
0.2714755091
 40
0.4006158283
 40
0.5265070867
 40
0.6493534057
 40
0.7691912934
 40
0.8860334357
 40
1.0
 40
1.0
 40
1.0
 40
1.0
 10
655.513539639
 20
390.1357188627
 30
0.0
 10
656.7414384729
 20
390.1357188627
 30
0.0
 10
659.1930407608
 20
390.5424648086
 30
0.0
 10
662.4905040439
 20
392.1245082017
 30
0.0
 10
665.3427940114
 20
394.2876997709
 30
0.0
 10
668.6010532549
 20
397.5947857465
 30
0.0
 10
671.9177047413
 20
402.2277811138
 30
0.0
 10
675.0316116145
 20
408.1392269025
 30
0.0
 10
677.4253611901
 20
414.19949854
 30
0.0
 10
679.1623645361
 20
420.3123210204
 30
0.0
 10
680.2477955772
 20
426.4147237633
 30
0.0
 10
680.513539639
 20
430.4907347855
 30
0.0
 10
680.513539639
 20
432.5018694205
 30
0.0
  0
LINE
  5
541
100
AcDbEntity
  8
0
100
AcDbLine
 62
7
  6
CONTINUOUS
 10
626.9340020113
 20
421.4137408717
 11
626.9923740907
 21
421.2841661469
  0
SPLINE
  5
542
100
AcDbEntity
  8
BEZUGSACHSEN
100
AcDbSpline
 62
7
  6
CONTINUOUS
 70
0
 71
3
 72
13
 73
9
 74
0
 42
0.0000001
 43
0.0000001
 44
0.0000000001
 40
0.0
 40
0.0
 40
0.0
 40
0.0
 40
0.2394762938
 40
0.4849074334
 40
0.6104153693
 40
0.7380860274
 40
0.8681371643
 40
1.0
 40
1.0
 40
1.0
 40
1.0
 10
567.7418353285
 20
407.1107191413
 30
0.0
 10
568.6683977331
 20
405.1974357008
 30
0.0
 10
570.7558550112
 20
401.4219939312
 30
0.0
 10
574.0167572512
 20
397.0572220663
 30
0.0
 10
577.196564489
 20
393.9633572494
 30
0.0
 10
579.9627519051
 20
391.9555272604
 30
0.0
 10
583.134675198
 20
390.5042432307
 30
0.0
 10
585.4720942693
 20
390.1357188627
 30
0.0
 10
586.642642438
 20
390.1357188627
 30
0.0
  0
LINE
  5
543
100
AcDbEntity
  8
0
100
AcDbLine
 62
7
  6
CONTINUOUS
 10
611.4232936435
 20
427.0371362995
 11
611.4740614124
 21
427.0279695927
  0
SPLINE
  5
544
100
AcDbEntity
  8
0
100
AcDbSpline
 62
7
  6
CONTINUOUS
 70
0
 71
3
 72
11
 73
7
 74
0
 42
0.0000001
 43
0.0000001
 44
0.0000000001
 40
0.0
 40
0.0
 40
0.0
 40
0.0
 40
0.2680834937
 40
0.5241017791
 40
0.767983136
 40
1.0
 40
1.0
 40
1.0
 40
1.0
 10
584.9668362075
 20
446.8153008224
 30
0.0
 10
584.6259213562
 20
449.617756028
 30
0.0
 10
584.1559328075
 20
455.1217430177
 30
0.0
 10
583.961618781
 20
463.2114337098
 30
0.0
 10
584.2509091793
 20
470.9184048357
 30
0.0
 10
584.8236226867
 20
475.9060295961
 30
0.0
 10
585.2388657489
 20
478.3137925365
 30
0.0
  0
SPLINE
  5
545
100
AcDbEntity
  8
0
100
AcDbSpline
 62
7
  6
CONTINUOUS
 70
0
 71
3
 72
9
 73
5
 74
0
 42
0.0000001
 43
0.0000001
 44
0.0000000001
 40
0.0
 40
0.0
 40
0.0
 40
0.0
 40
0.2545211335
 40
1.0
 40
1.0
 40
1.0
 40
1.0
 10
140.3390539054
 20
409.1267783631
 30
0.0
 10
139.9284445338
 20
409.0344197435
 30
0.0
 10
138.3109936562
 20
408.690523541
 30
0.0
 10
136.6770810984
 20
408.4232688501
 30
0.0
 10
135.4537856344
 20
408.2712819038
 30
0.0
  0
SPLINE
  5
546
100
AcDbEntity
  8
0
100
AcDbSpline
 62
7
  6
CONTINUOUS
 70
0
 71
3
 72
9
 73
5
 74
0
 42
0.0000001
 43
0.0000001
 44
0.0000000001
 40
0.0
 40
0.0
 40
0.0
 40
0.0
 40
0.2554378585
 40
1.0
 40
1.0
 40
1.0
 40
1.0
 10
149.4537856344
 20
412.4873545701
 30
0.0
 10
148.88335966
 20
412.2325612977
 30
0.0
 10
146.6358406331
 20
411.2677323857
 30
0.0
 10
144.3315775734
 20
410.4341554144
 30
0.0
 10
142.5915992025
 20
409.8969042888
 30
0.0
  0
SPLINE
  5
547
100
AcDbEntity
  8
0
100
AcDbSpline
 62
7
  6
CONTINUOUS
 70
0
 71
3
 72
9
 73
5
 74
0
 42
0.0000001
 43
0.0000001
 44
0.0000000001
 40
0.0
 40
0.0
 40
0.0
 40
0.0
 40
0.244643288
 40
1.0
 40
1.0
 40
1.0
 40
1.0
 10
142.5915992025
 20
409.8969042888
 30
0.0
 10
141.995274424
 20
410.1016198296
 30
0.0
 10
139.5712601969
 20
410.977393697
 30
0.0
 10
137.2030226432
 20
412.0065586256
 30
0.0
 10
135.4537856344
 20
412.8607942596
 30
0.0
  0
SPLINE
  5
548
100
AcDbEntity
  8
0
100
AcDbSpline
 62
7
  6
CONTINUOUS
 70
0
 71
3
 72
9
 73
5
 74
0
 42
0.0000001
 43
0.0000001
 44
0.0000000001
 40
0.0
 40
0.0
 40
0.0
 40
0.0
 40
0.2428708644
 40
1.0
 40
1.0
 40
1.0
 40
1.0
 10
135.4537856344
 20
406.5013195295
 30
0.0
 10
136.0404755994
 20
406.5983471562
 30
0.0
 10
138.448508896
 20
407.0431294958
 30
0.0
 10
140.8231362379
 20
407.6645516744
 30
0.0
 10
142.5915992025
 20
408.2205276019
 30
0.0
  0
SPLINE
  5
549
100
AcDbEntity
  8
0
100
AcDbSpline
 62
7
  6
CONTINUOUS
 70
0
 71
3
 72
9
 73
5
 74
0
 42
0.0000001
 43
0.0000001
 44
0.0000000001
 40
0.0
 40
0.0
 40
0.0
 40
0.0
 40
0.2564893094
 40
1.0
 40
1.0
 40
1.0
 40
1.0
 10
142.5915992025
 20
408.2205276019
 30
0.0
 10
143.1672453013
 20
408.0248988194
 30
0.0
 10
145.4232406052
 20
407.2971831899
 30
0.0
 10
147.7254376802
 20
406.7108745028
 30
0.0
 10
149.4537856344
 20
406.3660538546
 30
0.0
  0
SPLINE
  5
54A
100
AcDbEntity
  8
BEZUGSACHSEN
100
AcDbSpline
 62
7
  6
CONTINUOUS
 70
0
 71
3
 72
11
 73
7
 74
0
 42
0.0000001
 43
0.0000001
 44
0.0000000001
 40
0.0
 40
0.0
 40
0.0
 40
0.0
 40
0.217635878
 40
0.458442113
 40
0.7200879066
 40
1.0
 40
1.0
 40
1.0
 40
1.0
 10
202.1619265247
 20
478.3137943311
 30
0.0
 10
202.1276623356
 20
473.1347975733
 30
0.0
 10
201.7926339092
 20
462.2268686869
 30
0.0
 10
200.7113737664
 20
445.1234393233
 30
0.0
 10
199.1584266825
 20
426.5695090805
 30
0.0
 10
197.9358421773
 20
413.7399761742
 30
0.0
 10
197.2852439495
 20
407.1107191413
 30
0.0
  0
SPLINE
  5
54B
100
AcDbEntity
  8
BEZUGSACHSEN
100
AcDbSpline
 62
7
  6
CONTINUOUS
 70
0
 71
3
 72
13
 73
9
 74
0
 42
0.0000001
 43
0.0000001
 44
0.0000000001
 40
0.0
 40
0.0
 40
0.0
 40
0.0
 40
0.2394762938
 40
0.4849074334
 40
0.6104153693
 40
0.7380860274
 40
0.8681371643
 40
1.0
 40
1.0
 40
1.0
 40
1.0
 10
197.2852439495
 20
407.1107191413
 30
0.0
 10
196.3586815448
 20
405.1974357008
 30
0.0
 10
194.2712242668
 20
401.4219939312
 30
0.0
 10
191.0103220268
 20
397.0572220663
 30
0.0
 10
187.8305147889
 20
393.9633572494
 30
0.0
 10
185.0643273729
 20
391.9555272604
 30
0.0
 10
181.89240408
 20
390.5042432307
 30
0.0
 10
179.5549850086
 20
390.1357188627
 30
0.0
 10
178.3844368399
 20
390.1357188627
 30
0.0
  0
SPLINE
  5
54C
100
AcDbEntity
  8
0
100
AcDbSpline
 62
7
  6
CONTINUOUS
 70
0
 71
3
 72
17
 73
13
 74
0
 42
0.0000001
 43
0.0000001
 44
0.0000000001
 40
0.0
 40
0.0
 40
0.0
 40
0.0
 40
0.0695823189
 40
0.1381429471
 40
0.2053973797
 40
0.2714755091
 40
0.4006158283
 40
0.5265070867
 40
0.6493534057
 40
0.7691912934
 40
0.8860334357
 40
1.0
 40
1.0
 40
1.0
 40
1.0
 10
109.513539639
 20
390.1357188627
 30
0.0
 10
108.2856408051
 20
390.1357188627
 30
0.0
 10
105.8340385172
 20
390.5424648086
 30
0.0
 10
102.536575234
 20
392.1245082017
 30
0.0
 10
99.6842852665
 20
394.2876997709
 30
0.0
 10
96.4260260231
 20
397.5947857465
 30
0.0
 10
93.1093745366
 20
402.2277811138
 30
0.0
 10
89.9954676635
 20
408.1392269025
 30
0.0
 10
87.6017180879
 20
414.19949854
 30
0.0
 10
85.8647147418
 20
420.3123210204
 30
0.0
 10
84.7792837007
 20
426.4147237633
 30
0.0
 10
84.513539639
 20
430.4907347855
 30
0.0
 10
84.513539639
 20
432.5018694205
 30
0.0
  0
SPLINE
  5
54D
100
AcDbEntity
  8
BEZUGSACHSEN
100
AcDbSpline
 62
7
  6
CONTINUOUS
 70
0
 71
3
 72
9
 73
5
 74
0
 42
0.0000001
 43
0.0000001
 44
0.0000000001
 40
0.0
 40
0.0
 40
0.0
 40
0.0
 40
0.2498154359
 40
1.0
 40
1.0
 40
1.0
 40
1.0
 10
195.7421897782
 20
369.3955299368
 30
0.0
 10
195.9506923862
 20
372.5320533048
 30
0.0
 10
196.7182974237
 20
385.0915918061
 30
0.0
 10
197.1731082002
 20
397.6717579523
 30
0.0
 10
197.2852439495
 20
407.1107191413
 30
0.0
  0
SPLINE
  5
54E
100
AcDbEntity
  8
BEZUGSACHSEN
100
AcDbSpline
 62
7
  6
CONTINUOUS
 70
0
 71
3
 72
11
 73
7
 74
0
 42
0.0000001
 43
0.0000001
 44
0.0000000001
 40
0.0
 40
0.0
 40
0.0
 40
0.0
 40
0.2470424646
 40
0.4906586355
 40
0.7414263468
 40
1.0
 40
1.0
 40
1.0
 40
1.0
 10
204.8324103139
 20
357.8580092833
 30
0.0
 10
204.4763378007
 20
358.5090047349
 30
0.0
 10
203.5163084256
 20
359.6718582828
 30
0.0
 10
201.6601426296
 20
360.9288315593
 30
0.0
 10
199.6068241033
 20
361.8888097974
 30
0.0
 10
198.164941501
 20
362.4044779974
 30
0.0
 10
197.4265798396
 20
362.6453169224
 30
0.0
  0
SPLINE
  5
54F
100
AcDbEntity
  8
BEZUGSACHSEN
100
AcDbSpline
 62
7
  6
CONTINUOUS
 70
0
 71
3
 72
13
 73
9
 74
0
 42
0.0000001
 43
0.0000001
 44
0.0000000001
 40
0.0
 40
0.0
 40
0.0
 40
0.0
 40
0.0502676349
 40
0.1273398439
 40
0.2310984151
 40
0.3570087336
 40
0.6571404499
 40
1.0
 40
1.0
 40
1.0
 40
1.0
 10
197.4265798396
 20
362.6453169224
 30
0.0
 10
197.3141697017
 20
362.6819828792
 30
0.0
 10
197.0945824693
 20
362.91967223
 30
0.0
 10
196.8740631833
 20
363.4110222693
 30
0.0
 10
196.6558248346
 20
364.102758772
 30
0.0
 10
196.37114229
 20
365.3152650489
 30
0.0
 10
196.0623739156
 20
367.0991293225
 30
0.0
 10
195.8496649892
 20
368.5962536699
 30
0.0
 10
195.7421897782
 20
369.3955299368
 30
0.0
  0
LINE
  5
550
100
AcDbEntity
  8
BEZUGSACHSEN
100
AcDbLine
 62
7
  6
CONTINUOUS
 10
202.1619265247
 20
478.3137943311
 11
202.2870343262
 21
497.1345746979
  0
SPLINE
  5
551
100
AcDbEntity
  8
0
100
AcDbSpline
 62
7
  6
CONTINUOUS
 70
0
 71
3
 72
25
 73
21
 74
0
 42
0.0000001
 43
0.0000001
 44
0.0000000001
 40
0.0
 40
0.0
 40
0.0
 40
0.0
 40
0.0521358453
 40
0.1003089279
 40
0.1238937298
 40
0.1478893688
 40
0.1997417324
 40
0.26073936
 40
0.3326578599
 40
0.413775216
 40
0.5000000006
 40
0.5862247845
 40
0.6673421394
 40
0.7392606405
 40
0.8002582687
 40
0.8521106316
 40
0.8761062699
 40
0.8996910718
 40
0.9478641546
 40
1.0
 40
1.0
 40
1.0
 40
1.0
 10
179.7882135306
 20
478.3137925365
 30
0.0
 10
179.5237515582
 20
479.847260225
 30
0.0
 10
178.8305881516
 20
482.7737101317
 30
0.0
 10
177.2543267218
 20
486.1633771253
 30
0.0
 10
175.5240047621
 20
488.4505027771
 30
0.0
 10
173.3920541001
 20
490.531226798
 30
0.0
 10
169.8341168543
 20
492.6532557498
 30
0.0
 10
164.5346278747
 20
494.2863756056
 30
0.0
 10
158.2104751841
 20
495.2711731557
 30
0.0
 10
151.0824585584
 20
495.7752822316
 30
0.0
 10
143.5135395349
 20
495.9278281846
 30
0.0
 10
135.944620545
 20
495.7752822228
 30
0.0
 10
128.8166039422
 20
495.2711731404
 30
0.0
 10
122.4924512263
 20
494.2863755866
 30
0.0
 10
117.1929622521
 20
492.6532556344
 30
0.0
 10
113.6350250056
 20
490.5312267164
 30
0.0
 10
111.5030744385
 20
488.4505026548
 30
0.0
 10
109.7727524863
 20
486.163377021
 30
0.0
 10
108.1964910777
 20
482.7737100015
 30
0.0
 10
107.503327707
 20
479.8472600813
 30
0.0
 10
107.2388657402
 20
478.3137923873
 30
0.0
  0
SPLINE
  5
552
100
AcDbEntity
  8
0
100
AcDbSpline
 62
7
  6
CONTINUOUS
 70
0
 71
3
 72
27
 73
23
 74
0
 42
0.0000001
 43
0.0000001
 44
0.0000000001
 40
0.0
 40
0.0
 40
0.0
 40
0.0
 40
0.0481186428
 40
0.0988389876
 40
0.1522148733
 40
0.2082259131
 40
0.2668718073
 40
0.3282462313
 40
0.3925948374
 40
0.4602897926
 40
0.4956056244
 40
0.5318071376
 40
0.5687095434
 40
0.6059659226
 40
0.6431233559
 40
0.6797600961
 40
0.715596205
 40
0.7505121423
 40
0.8174610172
 40
0.8811436007
 40
0.9419205938
 40
1.0
 40
1.0
 40
1.0
 40
1.0
 10
107.2388657384
 20
478.3137923873
 30
0.0
 10
106.7995812788
 20
475.7666267565
 30
0.0
 10
106.2093533435
 20
470.479898535
 30
0.0
 10
105.9505547708
 20
462.3022877548
 30
0.0
 10
106.2295365539
 20
453.7005170761
 30
0.0
 10
107.1151087046
 20
444.710274391
 30
0.0
 10
108.8127391075
 20
435.3941240847
 30
0.0
 10
111.6804723757
 20
425.8839058639
 30
0.0
 10
116.2339739976
 20
416.4835767765
 30
0.0
 10
121.9399374426
 20
409.3798058483
 30
0.0
 10
127.8597986249
 20
404.757006964
 30
0.0
 10
133.0498716668
 20
402.0357741011
 30
0.0
 10
138.7885700166
 20
400.3813656986
 30
0.0
 10
144.8050980355
 20
399.999263879
 30
0.0
 10
150.74366891
 20
400.9422338297
 30
0.0
 10
156.2735198405
 20
403.0832022791
 30
0.0
 10
161.1794571192
 20
406.1786327315
 30
0.0
 10
166.6991362332
 20
411.145750995
 30
0.0
 10
171.9404145134
 20
418.45853022
 30
0.0
 10
176.0813243014
 20
427.9209845744
 30
0.0
 10
178.6607079181
 20
437.4067300654
 30
0.0
 10
179.6834979314
 20
443.7183064506
 30
0.0
 10
180.0602430704
 20
446.8153008224
 30
0.0
  0
SPLINE
  5
553
100
AcDbEntity
  8
0
100
AcDbSpline
 62
7
  6
CONTINUOUS
 70
0
 71
3
 72
9
 73
5
 74
0
 42
0.0000001
 43
0.0000001
 44
0.0000000001
 40
0.0
 40
0.0
 40
0.0
 40
0.0
 40
0.2561483762
 40
1.0
 40
1.0
 40
1.0
 40
1.0
 10
142.5915992025
 20
406.7089247138
 30
0.0
 10
143.1669453467
 20
406.5132730498
 30
0.0
 10
145.4242150617
 20
405.7827631695
 30
0.0
 10
147.7255386919
 20
405.1868208228
 30
0.0
 10
149.4537856344
 20
404.8296861977
 30
0.0
  0
SPLINE
  5
554
100
AcDbEntity
  8
0
100
AcDbSpline
 62
7
  6
CONTINUOUS
 70
0
 71
3
 72
9
 73
5
 74
0
 42
0.0000001
 43
0.0000001
 44
0.0000000001
 40
0.0
 40
0.0
 40
0.0
 40
0.0
 40
0.2432476062
 40
1.0
 40
1.0
 40
1.0
 40
1.0
 10
135.4537856344
 20
404.9493400844
 30
0.0
 10
136.0411939391
 20
405.0520961227
 30
0.0
 10
138.4484643581
 20
405.5172471326
 30
0.0
 10
140.8228239619
 20
406.1492831924
 30
0.0
 10
142.5915992025
 20
406.7089247138
 30
0.0
  0
SPLINE
  5
555
100
AcDbEntity
  8
0
100
AcDbSpline
 62
7
  6
CONTINUOUS
 70
0
 71
3
 72
11
 73
7
 74
0
 42
0.0000001
 43
0.0000001
 44
0.0000000001
 40
0.0
 40
0.0
 40
0.0
 40
0.0
 40
0.2680834937
 40
0.5241017791
 40
0.767983136
 40
1.0
 40
1.0
 40
1.0
 40
1.0
 10
180.0602430704
 20
446.8153008224
 30
0.0
 10
180.4011579218
 20
449.617756028
 30
0.0
 10
180.8711464704
 20
455.1217430177
 30
0.0
 10
181.0654604969
 20
463.2114337098
 30
0.0
 10
180.7761700986
 20
470.9184048357
 30
0.0
 10
180.2034565912
 20
475.9060295961
 30
0.0
 10
179.7882135291
 20
478.3137925365
 30
0.0
  0
SPLINE
  5
556
100
AcDbEntity
  8
0
100
AcDbSpline
 62
7
  6
CONTINUOUS
 70
0
 71
3
 72
8
 73
4
 74
0
 42
0.0000001
 43
0.0000001
 44
0.0000000001
 40
0.0
 40
0.0
 40
0.0
 40
0.0
 40
1.0
 40
1.0
 40
1.0
 40
1.0
 10
399.0783737569
 20
414.4310346201
 30
0.0
 10
399.0783737569
 20
412.5640964463
 30
0.0
 10
399.2141501574
 20
411.3081559867
 30
0.0
 10
399.5125102524
 20
410.6261901755
 30
0.0
  0
SPLINE
  5
557
100
AcDbEntity
  8
0
100
AcDbSpline
 62
7
  6
CONTINUOUS
 70
0
 71
3
 72
8
 73
4
 74
0
 42
0.0000001
 43
0.0000001
 44
0.0000000001
 40
0.0
 40
0.0
 40
0.0
 40
0.0
 40
1.0
 40
1.0
 40
1.0
 40
1.0
 10
399.5125102524
 20
410.6261901755
 30
0.0
 10
399.8081760077
 20
409.950382854
 30
0.0
 10
400.3852294354
 20
409.4412178362
 30
0.0
 10
401.2479484824
 20
409.1113545613
 30
0.0
  0
SPLINE
  5
558
100
AcDbEntity
  8
0
100
AcDbSpline
 62
7
  6
CONTINUOUS
 70
0
 71
3
 72
8
 73
4
 74
0
 42
0.0000001
 43
0.0000001
 44
0.0000000001
 40
0.0
 40
0.0
 40
0.0
 40
0.0
 40
1.0
 40
1.0
 40
1.0
 40
1.0
 10
401.2479484824
 20
409.1113545613
 30
0.0
 10
402.1163897185
 20
408.7793033898
 30
0.0
 10
403.1007753281
 20
408.6095817249
 30
0.0
 10
404.1869954734
 20
408.6095817249
 30
0.0
  0
SPLINE
  5
559
100
AcDbEntity
  8
0
100
AcDbSpline
 62
7
  6
CONTINUOUS
 70
0
 71
3
 72
8
 73
4
 74
0
 42
0.0000001
 43
0.0000001
 44
0.0000000001
 40
0.0
 40
0.0
 40
0.0
 40
0.0
 40
1.0
 40
1.0
 40
1.0
 40
1.0
 10
404.1869954734
 20
408.6095817249
 30
0.0
 10
404.8658804564
 20
408.6095817249
 30
0.0
 10
405.7823793559
 20
408.6604982477
 30
0.0
 10
406.9534586339
 20
408.7623312233
 30
0.0
  0
SPLINE
  5
55A
100
AcDbEntity
  8
0
100
AcDbSpline
 62
7
  6
CONTINUOUS
 70
0
 71
3
 72
8
 73
4
 74
0
 42
0.0000001
 43
0.0000001
 44
0.0000000001
 40
0.0
 40
0.0
 40
0.0
 40
0.0
 40
1.0
 40
1.0
 40
1.0
 40
1.0
 10
406.9534586339
 20
412.4113468781
 30
0.0
 10
406.3764022259
 20
412.6150129691
 30
0.0
 10
405.9521006016
 20
412.7338180646
 30
0.0
 10
405.663271619
 20
412.7649227408
 30
0.0
  0
SPLINE
  5
55B
100
AcDbEntity
  8
0
100
AcDbSpline
 62
7
  6
CONTINUOUS
 70
0
 71
3
 72
8
 73
4
 74
0
 42
0.0000001
 43
0.0000001
 44
0.0000000001
 40
0.0
 40
0.0
 40
0.0
 40
0.0
 40
1.0
 40
1.0
 40
1.0
 40
1.0
 10
405.663271619
 20
412.7649227408
 30
0.0
 10
404.8489110141
 20
412.8526231602
 30
0.0
 10
404.3567167191
 20
413.0053727284
 30
0.0
 10
404.186995565
 20
413.2090385232
 30
0.0
  0
SPLINE
  5
55C
100
AcDbEntity
  8
0
100
AcDbSpline
 62
7
  6
CONTINUOUS
 70
0
 71
3
 72
8
 73
4
 74
0
 42
0.0000001
 43
0.0000001
 44
0.0000000001
 40
0.0
 40
0.0
 40
0.0
 40
0.0
 40
1.0
 40
1.0
 40
1.0
 40
1.0
 10
404.186995565
 20
413.2090385232
 30
0.0
 10
404.0172742276
 20
413.4127045378
 30
0.0
 10
403.9324121146
 20
413.8200367197
 30
0.0
 10
403.9324121146
 20
414.4649787202
 30
0.0
  0
SPLINE
  5
55D
100
AcDbEntity
  8
0
100
AcDbSpline
 62
7
  6
CONTINUOUS
 70
0
 71
3
 72
8
 73
4
 74
0
 42
0.0000001
 43
0.0000001
 44
0.0000000001
 40
0.0
 40
0.0
 40
0.0
 40
0.0
 40
1.0
 40
1.0
 40
1.0
 40
1.0
 10
383.2263709881
 20
427.9578502378
 30
0.0
 10
383.76948103
 20
429.1798459694
 30
0.0
 10
384.6690045266
 20
429.7908442423
 30
0.0
 10
385.9588907628
 20
429.7908442423
 30
0.0
  0
SPLINE
  5
55E
100
AcDbEntity
  8
0
100
AcDbSpline
 62
7
  6
CONTINUOUS
 70
0
 71
3
 72
8
 73
4
 74
0
 42
0.0000001
 43
0.0000001
 44
0.0000000001
 40
0.0
 40
0.0
 40
0.0
 40
0.0
 40
1.0
 40
1.0
 40
1.0
 40
1.0
 10
385.9588907628
 20
429.7908442423
 30
0.0
 10
387.1469394831
 20
429.7908442423
 30
0.0
 10
388.0125211148
 20
429.2307632372
 30
0.0
 10
388.5454017047
 20
428.1227108429
 30
0.0
  0
SPLINE
  5
55F
100
AcDbEntity
  8
0
100
AcDbSpline
 62
7
  6
CONTINUOUS
 70
0
 71
3
 72
8
 73
4
 74
0
 42
0.0000001
 43
0.0000001
 44
0.0000000001
 40
0.0
 40
0.0
 40
0.0
 40
0.0
 40
1.0
 40
1.0
 40
1.0
 40
1.0
 10
388.5454017047
 20
428.1227108429
 30
0.0
 10
389.0817688374
 20
427.0074086592
 30
0.0
 10
389.3533216386
 20
424.9368043944
 30
0.0
 10
389.3533216386
 20
421.8987869427
 30
0.0
  0
SPLINE
  5
560
100
AcDbEntity
  8
0
100
AcDbSpline
 62
7
  6
CONTINUOUS
 70
0
 71
3
 72
8
 73
4
 74
0
 42
0.0000001
 43
0.0000001
 44
0.0000000001
 40
0.0
 40
0.0
 40
0.0
 40
0.0
 40
1.0
 40
1.0
 40
1.0
 40
1.0
 10
389.3533216386
 20
421.8987869427
 30
0.0
 10
389.3533216386
 20
418.3006884858
 30
0.0
 10
389.09874126
 20
415.8566961393
 30
0.0
 10
388.5991813842
 20
414.5696949733
 30
0.0
  0
SPLINE
  5
561
100
AcDbEntity
  8
0
100
AcDbSpline
 62
7
  6
CONTINUOUS
 70
0
 71
3
 72
8
 73
4
 74
0
 42
0.0000001
 43
0.0000001
 44
0.0000000001
 40
0.0
 40
0.0
 40
0.0
 40
0.0
 40
1.0
 40
1.0
 40
1.0
 40
1.0
 10
388.5991813842
 20
414.5696949733
 30
0.0
 10
388.0973832278
 20
413.2769273922
 30
0.0
 10
387.1978567509
 20
412.6489570692
 30
0.0
 10
385.8740286498
 20
412.6489570692
 30
0.0
  0
SPLINE
  5
562
100
AcDbEntity
  8
0
100
AcDbSpline
 62
7
  6
CONTINUOUS
 70
0
 71
3
 72
8
 73
4
 74
0
 42
0.0000001
 43
0.0000001
 44
0.0000000001
 40
0.0
 40
0.0
 40
0.0
 40
0.0
 40
1.0
 40
1.0
 40
1.0
 40
1.0
 10
385.8740286498
 20
412.6489570692
 30
0.0
 10
384.7538666396
 20
412.6489570692
 30
0.0
 10
383.9052574305
 20
413.124177824
 30
0.0
 10
383.3074670729
 20
414.1062619561
 30
0.0
  0
SPLINE
  5
563
100
AcDbEntity
  8
0
100
AcDbSpline
 62
7
  6
CONTINUOUS
 70
0
 71
3
 72
8
 73
4
 74
0
 42
0.0000001
 43
0.0000001
 44
0.0000000001
 40
0.0
 40
0.0
 40
0.0
 40
0.0
 40
1.0
 40
1.0
 40
1.0
 40
1.0
 10
383.3074670729
 20
414.1062619561
 30
0.0
 10
382.7172057299
 20
415.0759769931
 30
0.0
 10
382.428677526
 20
417.282358031
 30
0.0
 10
382.428677526
 20
420.7446800873
 30
0.0
  0
SPLINE
  5
564
100
AcDbEntity
  8
0
100
AcDbSpline
 62
7
  6
CONTINUOUS
 70
0
 71
3
 72
8
 73
4
 74
0
 42
0.0000001
 43
0.0000001
 44
0.0000000001
 40
0.0
 40
0.0
 40
0.0
 40
0.0
 40
1.0
 40
1.0
 40
1.0
 40
1.0
 10
382.428677526
 20
420.7446800873
 30
0.0
 10
382.428677526
 20
424.3427785441
 30
0.0
 10
382.6832608847
 20
426.7358543679
 30
0.0
 10
383.2263709881
 20
427.9578502378
 30
0.0
  0
SPLINE
  5
565
100
AcDbEntity
  8
0
100
AcDbSpline
 62
7
  6
CONTINUOUS
 70
0
 71
3
 72
8
 73
4
 74
0
 42
0.0000001
 43
0.0000001
 44
0.0000000001
 40
0.0
 40
0.0
 40
0.0
 40
0.0
 40
1.0
 40
1.0
 40
1.0
 40
1.0
 10
379.7037329544
 20
411.4196417393
 30
0.0
 10
381.1727391152
 20
409.5430508584
 30
0.0
 10
383.2093970446
 20
408.6095817249
 30
0.0
 10
385.823111382
 20
408.6095817249
 30
0.0
  0
SPLINE
  5
566
100
AcDbEntity
  8
0
100
AcDbSpline
 62
7
  6
CONTINUOUS
 70
0
 71
3
 72
8
 73
4
 74
0
 42
0.0000001
 43
0.0000001
 44
0.0000000001
 40
0.0
 40
0.0
 40
0.0
 40
0.0
 40
1.0
 40
1.0
 40
1.0
 40
1.0
 10
385.823111382
 20
408.6095817249
 30
0.0
 10
388.4537981419
 20
408.6095817249
 30
0.0
 10
390.5244009166
 20
409.5769951913
 30
0.0
 10
392.0179522867
 20
411.54576709
 30
0.0
  0
SPLINE
  5
567
100
AcDbEntity
  8
0
100
AcDbSpline
 62
7
  6
CONTINUOUS
 70
0
 71
3
 72
8
 73
4
 74
0
 42
0.0000001
 43
0.0000001
 44
0.0000000001
 40
0.0
 40
0.0
 40
0.0
 40
0.0
 40
1.0
 40
1.0
 40
1.0
 40
1.0
 10
392.0179522867
 20
411.54576709
 30
0.0
 10
393.5115025906
 20
413.5145375833
 30
0.0
 10
394.2752496867
 20
417.0108037397
 30
0.0
 10
394.2752496867
 20
422.0515372559
 30
0.0
  0
SPLINE
  5
568
100
AcDbEntity
  8
0
100
AcDbSpline
 62
7
  6
CONTINUOUS
 70
0
 71
3
 72
8
 73
4
 74
0
 42
0.0000001
 43
0.0000001
 44
0.0000000001
 40
0.0
 40
0.0
 40
0.0
 40
0.0
 40
1.0
 40
1.0
 40
1.0
 40
1.0
 10
394.2752496867
 20
422.0515372559
 30
0.0
 10
394.2752496867
 20
429.8926772878
 30
0.0
 10
391.5087865262
 20
433.8302197263
 30
0.0
 10
386.0098050503
 20
433.8302197263
 30
0.0
  0
SPLINE
  5
569
100
AcDbEntity
  8
0
100
AcDbSpline
 62
7
  6
CONTINUOUS
 70
0
 71
3
 72
8
 73
4
 74
0
 42
0.0000001
 43
0.0000001
 44
0.0000000001
 40
0.0
 40
0.0
 40
0.0
 40
0.0
 40
1.0
 40
1.0
 40
1.0
 40
1.0
 10
386.0098050503
 20
433.8302197263
 30
0.0
 10
383.2263694672
 20
433.8302197263
 30
0.0
 10
381.1218218474
 20
432.828861694
 30
0.0
 10
379.6736950773
 20
430.8641511684
 30
0.0
  0
SPLINE
  5
56A
100
AcDbEntity
  8
0
100
AcDbSpline
 62
7
  6
CONTINUOUS
 70
0
 71
3
 72
8
 73
4
 74
0
 42
0.0000001
 43
0.0000001
 44
0.0000000001
 40
0.0
 40
0.0
 40
0.0
 40
0.0
 40
1.0
 40
1.0
 40
1.0
 40
1.0
 10
379.6736950773
 20
430.8641511684
 30
0.0
 10
378.2195822863
 20
428.8913192555
 30
0.0
 10
377.506750968
 20
425.6156923577
 30
0.0
 10
377.506750968
 20
421.0332068011
 30
0.0
  0
SPLINE
  5
56B
100
AcDbEntity
  8
0
100
AcDbSpline
 62
7
  6
CONTINUOUS
 70
0
 71
3
 72
8
 73
4
 74
0
 42
0.0000001
 43
0.0000001
 44
0.0000000001
 40
0.0
 40
0.0
 40
0.0
 40
0.0
 40
1.0
 40
1.0
 40
1.0
 40
1.0
 10
377.506750968
 20
421.0332068011
 30
0.0
 10
377.506750968
 20
416.5016385123
 30
0.0
 10
378.2365532188
 20
413.2938994423
 30
0.0
 10
379.7037329544
 20
411.4196417393
 30
0.0
  0
SPLINE
  5
56C
100
AcDbEntity
  8
0
100
AcDbSpline
 62
7
  6
CONTINUOUS
 70
0
 71
3
 72
8
 73
4
 74
0
 42
0.0000001
 43
0.0000001
 44
0.0000000001
 40
0.0
 40
0.0
 40
0.0
 40
0.0
 40
1.0
 40
1.0
 40
1.0
 40
1.0
 10
360.2800027642
 20
410.2219373795
 30
0.0
 10
361.6717202185
 20
409.1357188627
 30
0.0
 10
363.4707698195
 20
408.6095817249
 30
0.0
 10
365.6941236524
 20
408.6095817249
 30
0.0
  0
SPLINE
  5
56D
100
AcDbEntity
  8
0
100
AcDbSpline
 62
7
  6
CONTINUOUS
 70
0
 71
3
 72
8
 73
4
 74
0
 42
0.0000001
 43
0.0000001
 44
0.0000000001
 40
0.0
 40
0.0
 40
0.0
 40
0.0
 40
1.0
 40
1.0
 40
1.0
 40
1.0
 10
365.6941236524
 20
408.6095817249
 30
0.0
 10
368.3417813449
 20
408.6095817249
 30
0.0
 10
370.4633013873
 20
409.4242456697
 30
0.0
 10
372.0247414955
 20
411.0875182392
 30
0.0
  0
SPLINE
  5
56E
100
AcDbEntity
  8
0
100
AcDbSpline
 62
7
  6
CONTINUOUS
 70
0
 71
3
 72
8
 73
4
 74
0
 42
0.0000001
 43
0.0000001
 44
0.0000000001
 40
0.0
 40
0.0
 40
0.0
 40
0.0
 40
1.0
 40
1.0
 40
1.0
 40
1.0
 10
372.0247414955
 20
411.0875182392
 30
0.0
 10
373.586180952
 20
412.7507901147
 30
0.0
 10
374.3838728933
 20
414.8723109022
 30
0.0
 10
374.3838728933
 20
417.4860241219
 30
0.0
  0
SPLINE
  5
56F
100
AcDbEntity
  8
0
100
AcDbSpline
 62
7
  6
CONTINUOUS
 70
0
 71
3
 72
8
 73
4
 74
0
 42
0.0000001
 43
0.0000001
 44
0.0000000001
 40
0.0
 40
0.0
 40
0.0
 40
0.0
 40
1.0
 40
1.0
 40
1.0
 40
1.0
 10
374.3838728933
 20
417.4860241219
 30
0.0
 10
374.3838728933
 20
419.8451551005
 30
0.0
 10
373.6710415749
 20
421.7290656969
 30
0.0
 10
372.279323411
 20
423.1547279701
 30
0.0
  0
SPLINE
  5
570
100
AcDbEntity
  8
0
100
AcDbSpline
 62
7
  6
CONTINUOUS
 70
0
 71
3
 72
8
 73
4
 74
0
 42
0.0000001
 43
0.0000001
 44
0.0000000001
 40
0.0
 40
0.0
 40
0.0
 40
0.0
 40
1.0
 40
1.0
 40
1.0
 40
1.0
 10
372.279323411
 20
423.1547279701
 30
0.0
 10
370.8876059918
 20
424.5803894803
 30
0.0
 10
369.1055284409
 20
425.2932207987
 30
0.0
 10
366.9500635533
 20
425.2932207987
 30
0.0
  0
SPLINE
  5
571
100
AcDbEntity
  8
0
100
AcDbSpline
 62
7
  6
CONTINUOUS
 70
0
 71
3
 72
8
 73
4
 74
0
 42
0.0000001
 43
0.0000001
 44
0.0000000001
 40
0.0
 40
0.0
 40
0.0
 40
0.0
 40
1.0
 40
1.0
 40
1.0
 40
1.0
 10
366.9500635533
 20
425.2932207987
 30
0.0
 10
365.4225686161
 20
425.2932207987
 30
0.0
 10
363.9799350469
 20
424.8349713489
 30
0.0
 10
362.6221613555
 20
423.9184754297
 30
0.0
  0
SPLINE
  5
572
100
AcDbEntity
  8
0
100
AcDbSpline
 62
7
  6
CONTINUOUS
 70
0
 71
3
 72
8
 73
4
 74
0
 42
0.0000001
 43
0.0000001
 44
0.0000000001
 40
0.0
 40
0.0
 40
0.0
 40
0.0
 40
1.0
 40
1.0
 40
1.0
 40
1.0
 10
362.5373007326
 20
419.6584614322
 30
0.0
 10
363.4537973969
 20
420.7107359871
 30
0.0
 10
364.5739608972
 20
421.2538453147
 30
0.0
 10
365.9147614209
 20
421.2538453147
 30
0.0
  0
SPLINE
  5
573
100
AcDbEntity
  8
0
100
AcDbSpline
 62
7
  6
CONTINUOUS
 70
0
 71
3
 72
8
 73
4
 74
0
 42
0.0000001
 43
0.0000001
 44
0.0000000001
 40
0.0
 40
0.0
 40
0.0
 40
0.0
 40
1.0
 40
1.0
 40
1.0
 40
1.0
 10
365.9147614209
 20
421.2538453147
 30
0.0
 10
368.2738923995
 20
421.2538453147
 30
0.0
 10
369.4619448452
 20
419.8112110004
 30
0.0
 10
369.4619448452
 20
416.9429147944
 30
0.0
  0
SPLINE
  5
574
100
AcDbEntity
  8
0
100
AcDbSpline
 62
7
  6
CONTINUOUS
 70
0
 71
3
 72
8
 73
4
 74
0
 42
0.0000001
 43
0.0000001
 44
0.0000000001
 40
0.0
 40
0.0
 40
0.0
 40
0.0
 40
1.0
 40
1.0
 40
1.0
 40
1.0
 10
369.4619448452
 20
416.9429147944
 30
0.0
 10
369.4619448452
 20
415.5511977479
 30
0.0
 10
369.1055284409
 20
414.4819511428
 30
0.0
 10
368.4139169716
 20
413.7481679579
 30
0.0
  0
SPLINE
  5
575
100
AcDbEntity
  8
0
100
AcDbSpline
 62
7
  6
CONTINUOUS
 70
0
 71
3
 72
8
 73
4
 74
0
 42
0.0000001
 43
0.0000001
 44
0.0000000001
 40
0.0
 40
0.0
 40
0.0
 40
0.0
 40
1.0
 40
1.0
 40
1.0
 40
1.0
 10
368.4139169716
 20
413.7481679579
 30
0.0
 10
367.7138113944
 20
413.0053727284
 30
0.0
 10
366.8482305078
 20
412.6489570692
 30
0.0
 10
365.8129283755
 20
412.6489570692
 30
0.0
  0
SPLINE
  5
576
100
AcDbEntity
  8
0
100
AcDbSpline
 62
7
  6
CONTINUOUS
 70
0
 71
3
 72
8
 73
4
 74
0
 42
0.0000001
 43
0.0000001
 44
0.0000000001
 40
0.0
 40
0.0
 40
0.0
 40
0.0
 40
1.0
 40
1.0
 40
1.0
 40
1.0
 10
365.8129283755
 20
412.6489570692
 30
0.0
 10
364.9303758113
 20
412.6489570692
 30
0.0
 10
364.2514893381
 20
412.8526231602
 30
0.0
 10
363.7551118421
 20
413.2890930598
 30
0.0
  0
SPLINE
  5
577
100
AcDbEntity
  8
0
100
AcDbSpline
 62
7
  6
CONTINUOUS
 70
0
 71
3
 72
8
 73
4
 74
0
 42
0.0000001
 43
0.0000001
 44
0.0000000001
 40
0.0
 40
0.0
 40
0.0
 40
0.0
 40
1.0
 40
1.0
 40
1.0
 40
1.0
 10
363.7551118421
 20
413.2890930598
 30
0.0
 10
363.2671037285
 20
413.7182036743
 30
0.0
 10
362.8258274464
 20
414.5328676656
 30
0.0
 10
362.4354676871
 20
415.7209189936
 30
0.0
  0
SPLINE
  5
578
100
AcDbEntity
  8
0
100
AcDbSpline
 62
7
  6
CONTINUOUS
 70
0
 71
3
 72
8
 73
4
 74
0
 42
0.0000001
 43
0.0000001
 44
0.0000000001
 40
0.0
 40
0.0
 40
0.0
 40
0.0
 40
1.0
 40
1.0
 40
1.0
 40
1.0
 10
357.5135397321
 20
415.7209189936
 30
0.0
 10
357.9717881574
 20
413.141149874
 30
0.0
 10
358.8882851942
 20
411.3081559867
 30
0.0
 10
360.2800027642
 20
410.2219373795
 30
0.0
  0
SPLINE
  5
579
100
AcDbEntity
  8
BEZUGSACHSEN
100
AcDbSpline
 62
7
  6
CONTINUOUS
 70
0
 71
3
 72
9
 73
5
 74
0
 42
0.0000001
 43
0.0000001
 44
0.0000000001
 40
0.0
 40
0.0
 40
0.0
 40
0.0
 40
0.2482391579
 40
1.0
 40
1.0
 40
1.0
 40
1.0
 10
903.8440855029
 20
533.4600263826
 30
0.0
 10
903.8439451913
 20
533.2649979689
 30
0.0
 10
903.8163059064
 20
532.4796812043
 30
0.0
 10
903.6782300259
 20
531.6976250337
 30
0.0
 10
903.5107072916
 20
531.1312621351
 30
0.0
  0
SPLINE
  5
57A
100
AcDbEntity
  8
BEZUGSACHSEN
100
AcDbSpline
 62
7
  6
CONTINUOUS
 70
0
 71
3
 72
9
 73
5
 74
0
 42
0.0000001
 43
0.0000001
 44
0.0000000001
 40
0.0
 40
0.0
 40
0.0
 40
0.0
 40
0.2482391579
 40
1.0
 40
1.0
 40
1.0
 40
1.0
 10
943.8440898934
 20
533.4600263826
 30
0.0
 10
943.844230205
 20
533.2649979689
 30
0.0
 10
943.87186949
 20
532.4796812043
 30
0.0
 10
944.0099453704
 20
531.6976250337
 30
0.0
 10
944.1774681047
 20
531.1312621351
 30
0.0
  0
SPLINE
  5
57B
100
AcDbEntity
  8
BEZUGSACHSEN
100
AcDbSpline
 62
7
  6
CONTINUOUS
 70
0
 71
3
 72
14
 73
10
 74
0
 42
0.0000001
 43
0.0000001
 44
0.0000000001
 40
0.0
 40
0.0
 40
0.0
 40
0.0
 40
0.05665262
 40
0.1172308504
 40
0.2425054214
 40
0.3693014637
 40
0.4961463832
 40
0.7487447862
 40
1.0
 40
1.0
 40
1.0
 40
1.0
 10
944.1774681035
 20
531.131284706
 30
0.0
 10
944.401498441
 20
530.4695240881
 30
0.0
 10
944.8676835004
 20
529.1010206144
 30
0.0
 10
945.8036722859
 20
526.2605766027
 30
0.0
 10
946.9249182492
 20
522.5706437943
 30
0.0
 10
948.1041223695
 20
518.0474988781
 30
0.0
 10
949.4159397172
 20
511.9420587156
 30
0.0
 10
950.5307262426
 20
504.2328180343
 30
0.0
 10
950.8383470588
 20
498.0159815879
 30
0.0
 10
950.8439293879
 20
494.9174479535
 30
0.0
  0
SPLINE
  5
57C
100
AcDbEntity
  8
BEZUGSACHSEN
100
AcDbSpline
 62
7
  6
CONTINUOUS
 70
0
 71
3
 72
14
 73
10
 74
0
 42
0.0000001
 43
0.0000001
 44
0.0000000001
 40
0.0
 40
0.0
 40
0.0
 40
0.0
 40
0.0566526223
 40
0.1172308559
 40
0.2425054308
 40
0.3693014739
 40
0.4961463923
 40
0.748744791
 40
1.0
 40
1.0
 40
1.0
 40
1.0
 10
903.5107072929
 20
531.131284706
 30
0.0
 10
903.2866767294
 20
530.469523421
 30
0.0
 10
902.8204911965
 20
529.1010185585
 30
0.0
 10
901.8845015207
 20
526.2605716709
 30
0.0
 10
900.7632546346
 20
522.5706351395
 30
0.0
 10
899.5840498176
 20
518.0474856833
 30
0.0
 10
898.2722321286
 20
511.9420394705
 30
0.0
 10
897.1574462633
 20
504.2327911826
 30
0.0
 10
896.8498271408
 20
498.0159487144
 30
0.0
 10
896.8442459439
 20
494.917412139
 30
0.0
  0
SPLINE
  5
57D
100
AcDbEntity
  8
0
100
AcDbSpline
 62
7
  6
CONTINUOUS
 70
0
 71
3
 72
9
 73
5
 74
0
 42
0.0000001
 43
0.0000001
 44
0.0000000001
 40
0.0
 40
0.0
 40
0.0
 40
0.0
 40
0.2471796111
 40
1.0
 40
1.0
 40
1.0
 40
1.0
 10
142.5915992025
 20
68.4876579112
 30
0.0
 10
143.1745870457
 20
68.1650644347
 30
0.0
 10
145.5155022444
 20
66.8282393769
 30
0.0
 10
147.7863994715
 20
65.3695441964
 30
0.0
 10
149.4537856344
 20
64.2129144127
 30
0.0
  0
SPLINE
  5
57E
100
AcDbEntity
  8
0
100
AcDbSpline
 62
7
  6
CONTINUOUS
 70
0
 71
3
 72
9
 73
5
 74
0
 42
0.0000001
 43
0.0000001
 44
0.0000000001
 40
0.0
 40
0.0
 40
0.0
 40
0.0
 40
0.2523554933
 40
1.0
 40
1.0
 40
1.0
 40
1.0
 10
135.4537856344
 20
63.6475263247
 30
0.0
 10
136.0332864043
 20
64.0842236148
 30
0.0
 10
138.3505425109
 20
65.7867273866
 30
0.0
 10
140.7519076982
 20
67.3754305974
 30
0.0
 10
142.5915992025
 20
68.4876579112
 30
0.0
  0
SPLINE
  5
57F
100
AcDbEntity
  8
0
100
AcDbSpline
 62
7
  6
CONTINUOUS
 70
0
 71
3
 72
9
 73
5
 74
0
 42
0.0000001
 43
0.0000001
 44
0.0000000001
 40
0.0
 40
0.0
 40
0.0
 40
0.0
 40
0.2467251457
 40
1.0
 40
1.0
 40
1.0
 40
1.0
 10
135.4537856344
 20
71.8171160646
 30
0.0
 10
135.8623552354
 20
71.6721717396
 30
0.0
 10
137.5116140633
 20
71.0658823232
 30
0.0
 10
139.133918423
 20
70.3867977641
 30
0.0
 10
140.3390539054
 20
69.8395415586
 30
0.0
  0
SPLINE
  5
580
100
AcDbEntity
  8
0
100
AcDbSpline
 62
7
  6
CONTINUOUS
 70
0
 71
3
 72
9
 73
5
 74
0
 42
0.0000001
 43
0.0000001
 44
0.0000000001
 40
0.0
 40
0.0
 40
0.0
 40
0.0
 40
0.2536649415
 40
1.0
 40
1.0
 40
1.0
 40
1.0
 10
143.64633894
 20
274.9600285049
 30
0.0
 10
142.9798778502
 20
274.7409808387
 30
0.0
 10
140.337985325
 20
273.9228183709
 30
0.0
 10
137.6377705983
 20
273.2896581888
 30
0.0
 10
135.6037856344
 20
272.9385671083
 30
0.0
  0
SPLINE
  5
581
100
AcDbEntity
  8
0
100
AcDbSpline
 62
7
  6
CONTINUOUS
 70
0
 71
3
 72
9
 73
5
 74
0
 42
0.0000001
 43
0.0000001
 44
0.0000000001
 40
0.0
 40
0.0
 40
0.0
 40
0.0
 40
0.2513931842
 40
1.0
 40
1.0
 40
1.0
 40
1.0
 10
141.7314450148
 20
256.3841467339
 30
0.0
 10
142.729917677
 20
256.3514746472
 30
0.0
 10
146.704374566
 20
256.3307769429
 30
0.0
 10
150.6820794346
 20
256.7450943504
 30
0.0
 10
153.6037856344
 20
257.3050219481
 30
0.0
  0
SPLINE
  5
582
100
AcDbEntity
  8
0
100
AcDbSpline
 62
7
  6
CONTINUOUS
 70
0
 71
3
 72
8
 73
4
 74
0
 42
0.0000001
 43
0.0000001
 44
0.0000000001
 40
0.0
 40
0.0
 40
0.0
 40
0.0
 40
1.0
 40
1.0
 40
1.0
 40
1.0
 10
135.6037856344
 20
261.8374976671
 30
0.0
 10
135.7309379919
 20
261.3043712766
 30
0.0
 10
135.8585946161
 20
260.7713648941
 30
0.0
 10
135.9867643457
 20
260.2384821765
 30
0.0
  0
SPLINE
  5
583
100
AcDbEntity
  8
0
100
AcDbSpline
 62
7
  6
CONTINUOUS
 70
0
 71
3
 72
9
 73
5
 74
0
 42
0.0000001
 43
0.0000001
 44
0.0000000001
 40
0.0
 40
0.0
 40
0.0
 40
0.0
 40
0.2461219419
 40
1.0
 40
1.0
 40
1.0
 40
1.0
 10
149.4537856344
 20
76.4091475237
 30
0.0
 10
148.8761113567
 20
76.1529229436
 30
0.0
 10
146.5436994418
 20
75.0789197819
 30
0.0
 10
144.2698815669
 20
73.8787722039
 30
0.0
 10
142.5915992025
 20
72.9143016329
 30
0.0
  0
SPLINE
  5
584
100
AcDbEntity
  8
0
100
AcDbSpline
 62
7
  6
CONTINUOUS
 70
0
 71
3
 72
9
 73
5
 74
0
 42
0.0000001
 43
0.0000001
 44
0.0000000001
 40
0.0
 40
0.0
 40
0.0
 40
0.0
 40
0.2543080767
 40
1.0
 40
1.0
 40
1.0
 40
1.0
 10
142.5915992025
 20
72.9143016329
 30
0.0
 10
142.004719295
 20
73.2321665846
 30
0.0
 10
139.6809292983
 20
74.4520639895
 30
0.0
 10
137.2918029028
 20
75.5489504775
 30
0.0
 10
135.4774391581
 20
76.2825799223
 30
0.0
  0
SPLINE
  5
585
100
AcDbEntity
  8
0
100
AcDbSpline
 62
7
  6
CONTINUOUS
 70
0
 71
3
 72
8
 73
4
 74
0
 42
0.0000001
 43
0.0000001
 44
0.0000000001
 40
0.0
 40
0.0
 40
0.0
 40
0.0
 40
1.0
 40
1.0
 40
1.0
 40
1.0
 10
153.2208069566
 20
273.8915905848
 30
0.0
 10
153.3489731401
 20
274.4604093354
 30
0.0
 10
153.4766301759
 20
275.0293430392
 30
0.0
 10
153.6037856344
 20
275.5983885831
 30
0.0
  0
SPLINE
  5
586
100
AcDbEntity
  8
0
100
AcDbSpline
 62
7
  6
CONTINUOUS
 70
0
 71
3
 72
9
 73
5
 74
0
 42
0.0000001
 43
0.0000001
 44
0.0000000001
 40
0.0
 40
0.0
 40
0.0
 40
0.0
 40
0.2514143374
 40
1.0
 40
1.0
 40
1.0
 40
1.0
 10
141.7314450148
 20
265.660439999
 30
0.0
 10
142.7300573558
 20
265.6275126268
 30
0.0
 10
146.7047800168
 20
265.6066637629
 30
0.0
 10
150.6827806178
 20
266.0242840765
 30
0.0
 10
153.6037856344
 20
266.5884188501
 30
0.0
  0
SPLINE
  5
587
100
AcDbEntity
  8
0
100
AcDbSpline
 62
7
  6
CONTINUOUS
 70
0
 71
3
 72
11
 73
7
 74
0
 42
0.0000001
 43
0.0000001
 44
0.0000000001
 40
0.0
 40
0.0
 40
0.0
 40
0.0
 40
0.2355686914
 40
0.4807955921
 40
0.7356617958
 40
1.0
 40
1.0
 40
1.0
 40
1.0
 10
180.5453256682
 20
258.2232336439
 30
0.0
 10
180.7471989179
 20
255.9895243392
 30
0.0
 10
181.0001320333
 20
251.415504622
 30
0.0
 10
181.0052126292
 20
244.408596992
 30
0.0
 10
180.644036064
 20
237.1365501781
 30
0.0
 10
180.1304695395
 20
232.2164819934
 30
0.0
 10
179.7882135291
 20
229.7231397104
 30
0.0
  0
SPLINE
  5
588
100
AcDbEntity
  8
0
100
AcDbSpline
 62
7
  6
CONTINUOUS
 70
0
 71
3
 72
11
 73
7
 74
0
 42
0.0000001
 43
0.0000001
 44
0.0000000001
 40
0.0
 40
0.0
 40
0.0
 40
0.0
 40
0.2355686914
 40
0.4807955921
 40
0.7356617958
 40
1.0
 40
1.0
 40
1.0
 40
1.0
 10
180.5453256682
 20
93.4876216193
 30
0.0
 10
180.7471989179
 20
95.721330924
 30
0.0
 10
181.0001320333
 20
100.2953506411
 30
0.0
 10
181.0052126292
 20
107.3022582711
 30
0.0
 10
180.644036064
 20
114.574305085
 30
0.0
 10
180.1304695395
 20
119.4943732698
 30
0.0
 10
179.7882135291
 20
121.9877155527
 30
0.0
  0
SPLINE
  5
589
100
AcDbEntity
  8
0
100
AcDbSpline
 62
7
  6
CONTINUOUS
 70
0
 71
3
 72
9
 73
5
 74
0
 42
0.0000001
 43
0.0000001
 44
0.0000000001
 40
0.0
 40
0.0
 40
0.0
 40
0.0
 40
0.2457708802
 40
1.0
 40
1.0
 40
1.0
 40
1.0
 10
135.6037856344
 20
270.6764797733
 30
0.0
 10
136.3390607953
 20
270.8078429681
 30
0.0
 10
139.3190778452
 20
271.4066812322
 30
0.0
 10
142.2482402445
 20
272.2520613327
 30
0.0
 10
144.4122962955
 20
273.0076232157
 30
0.0
  0
SPLINE
  5
58A
100
AcDbEntity
  8
BEZUGSACHSEN
100
AcDbSpline
 62
7
  6
CONTINUOUS
 70
0
 71
3
 72
10
 73
6
 74
0
 42
0.0000001
 43
0.0000001
 44
0.0000000001
 40
0.0
 40
0.0
 40
0.0
 40
0.0
 40
0.5498000172
 40
0.7881957529
 40
1.0
 40
1.0
 40
1.0
 40
1.0
 10
202.1619265247
 20
229.7231374557
 30
0.0
 10
202.1071463921
 20
240.1258775479
 30
0.0
 10
201.5486464008
 20
255.0475116104
 30
0.0
 10
199.7200850145
 20
273.8834063884
 30
0.0
 10
198.5717017062
 20
282.3268751172
 30
0.0
 10
197.9424517262
 20
286.2847598667
 30
0.0
  0
SPLINE
  5
58B
100
AcDbEntity
  8
0
100
AcDbSpline
 62
7
  6
CONTINUOUS
 70
0
 71
3
 72
9
 73
5
 74
0
 42
0.0000001
 43
0.0000001
 44
0.0000000001
 40
0.0
 40
0.0
 40
0.0
 40
0.0
 40
0.2545908359
 40
1.0
 40
1.0
 40
1.0
 40
1.0
 10
142.5915992025
 20
71.408196519
 30
0.0
 10
142.0029560158
 20
71.7271027559
 30
0.0
 10
139.6739188902
 20
72.9480138463
 30
0.0
 10
137.2757952954
 20
74.0388875965
 30
0.0
 10
135.4537856344
 20
74.7617020548
 30
0.0
  0
SPLINE
  5
58C
100
AcDbEntity
  8
0
100
AcDbSpline
 62
7
  6
CONTINUOUS
 70
0
 71
3
 72
9
 73
5
 74
0
 42
0.0000001
 43
0.0000001
 44
0.0000000001
 40
0.0
 40
0.0
 40
0.0
 40
0.0
 40
0.2459002601
 40
1.0
 40
1.0
 40
1.0
 40
1.0
 10
149.4537856344
 20
74.893199952
 30
0.0
 10
148.8759126698
 20
74.6396983287
 30
0.0
 10
146.541283536
 20
73.57386639
 30
0.0
 10
144.2680673874
 20
72.3748206107
 30
0.0
 10
142.5915992025
 20
71.408196519
 30
0.0
  0
SPLINE
  5
58D
100
AcDbEntity
  8
0
100
AcDbSpline
 62
7
  6
CONTINUOUS
 70
0
 71
3
 72
23
 73
19
 74
0
 42
0.0000001
 43
0.0000001
 44
0.0000000001
 40
0.0
 40
0.0
 40
0.0
 40
0.0
 40
0.0542652007
 40
0.112053891
 40
0.1728845109
 40
0.236143738
 40
0.3011030341
 40
0.3670496146
 40
0.4334480921
 40
0.5000000003
 40
0.5665519079
 40
0.6329503845
 40
0.6988969663
 40
0.7638562636
 40
0.8271154901
 40
0.8879461092
 40
0.9457347993
 40
1.0
 40
1.0
 40
1.0
 40
1.0
 10
179.7882135306
 20
229.7231397104
 30
0.0
 10
179.5007280704
 20
227.6288018663
 30
0.0
 10
178.7200342632
 20
223.32707459
 30
0.0
 10
176.8650132508
 20
216.8389460491
 30
0.0
 10
174.0794303746
 20
210.2992201036
 30
0.0
 10
170.1576458263
 20
204.0224843408
 30
0.0
 10
164.9792744466
 20
198.4364467036
 30
0.0
 10
158.6032961492
 20
194.0241405409
 30
0.0
 10
151.3049864682
 20
191.2031299939
 30
0.0
 10
143.5135395308
 20
190.2350233412
 30
0.0
 10
135.7220926395
 20
191.2031300507
 30
0.0
 10
128.4237829635
 20
194.0241406019
 30
0.0
 10
122.047804643
 20
198.4364468496
 30
0.0
 10
116.8694332826
 20
204.0224845978
 30
0.0
 10
112.9476487511
 20
210.2992203564
 30
0.0
 10
110.162065962
 20
216.8389462757
 30
0.0
 10
108.3070449593
 20
223.3270747793
 30
0.0
 10
107.5263511946
 20
227.6288020564
 30
0.0
 10
107.2388657402
 20
229.7231398979
 30
0.0
  0
SPLINE
  5
58E
100
AcDbEntity
  8
0
100
AcDbSpline
 62
7
  6
CONTINUOUS
 70
0
 71
3
 72
30
 73
26
 74
0
 42
0.0000001
 43
0.0000001
 44
0.0000000001
 40
0.0
 40
0.0
 40
0.0
 40
0.0
 40
0.0660168431
 40
0.1289973057
 40
0.1888988386
 40
0.2457842197
 40
0.3000884512
 40
0.3532368448
 40
0.3804220969
 40
0.4088536413
 40
0.4393675103
 40
0.4727930916
 40
0.5096767743
 40
0.549900951
 40
0.5923759175
 40
0.6351727454
 40
0.676228837
 40
0.7141639111
 40
0.7485879699
 40
0.7798906073
 40
0.8088522911
 40
0.836329141
 40
0.889537935
 40
0.94354285
 40
1.0
 40
1.0
 40
1.0
 40
1.0
 10
107.2388657384
 20
229.7231398979
 30
0.0
 10
106.8062884836
 20
232.8744743946
 30
0.0
 10
106.2123813425
 20
239.0683958038
 30
0.0
 10
105.944963254
 20
248.1715928075
 30
0.0
 10
106.2506706632
 20
256.8348919791
 30
0.0
 10
107.2152073425
 20
265.0351970954
 30
0.0
 10
109.0910869109
 20
272.7556444055
 30
0.0
 10
111.8205897974
 20
278.7127815419
 30
0.0
 10
114.9309143436
 20
282.9521650922
 30
0.0
 10
117.8727660317
 20
285.9033155646
 30
0.0
 10
121.4884520307
 20
288.5303530661
 30
0.0
 10
125.8299228882
 20
290.7509597172
 30
0.0
 10
130.8881287976
 20
292.4715790312
 30
0.0
 10
136.5543398957
 20
293.5980159423
 30
0.0
 10
142.5978979023
 20
294.0547928375
 30
0.0
 10
148.6935898011
 20
293.8071832888
 30
0.0
 10
154.5020287226
 20
292.8742045707
 30
0.0
 10
159.7586990957
 20
291.321649916
 30
0.0
 10
164.3190338732
 20
289.2402751393
 30
0.0
 10
168.1480995741
 20
286.7253860465
 30
0.0
 10
171.2832837274
 20
283.8629956309
 30
0.0
 10
174.6042227157
 20
279.7303876519
 30
0.0
 10
177.5505027897
 20
273.8667428226
 30
0.0
 10
179.5980154446
 20
266.2194824565
 30
0.0
 10
180.3004768906
 20
260.9324632886
 30
0.0
 10
180.5453256682
 20
258.2232336439
 30
0.0
  0
SPLINE
  5
58F
100
AcDbEntity
  8
0
100
AcDbSpline
 62
7
  6
CONTINUOUS
 70
0
 71
3
 72
9
 73
5
 74
0
 42
0.0000001
 43
0.0000001
 44
0.0000000001
 40
0.0
 40
0.0
 40
0.0
 40
0.0
 40
0.246032345
 40
1.0
 40
1.0
 40
1.0
 40
1.0
 10
135.6037856344
 20
269.157565061
 30
0.0
 10
136.3393656052
 20
269.2944111062
 30
0.0
 10
139.3176783595
 20
269.9112226936
 30
0.0
 10
142.2466474456
 20
270.7609477729
 30
0.0
 10
144.4122962955
 20
271.5140761884
 30
0.0
  0
SPLINE
  5
590
100
AcDbEntity
  8
0
100
AcDbSpline
 62
7
  6
CONTINUOUS
 70
0
 71
3
 72
8
 73
4
 74
0
 42
0.0000001
 43
0.0000001
 44
0.0000000001
 40
0.0
 40
0.0
 40
0.0
 40
0.0
 40
1.0
 40
1.0
 40
1.0
 40
1.0
 10
153.2208069566
 20
272.3519254324
 30
0.0
 10
153.3489638719
 20
272.9185098908
 30
0.0
 10
153.4766209602
 20
273.4852076308
 30
0.0
 10
153.6037856344
 20
274.0520156133
 30
0.0
  0
LINE
  5
591
100
AcDbEntity
  8
0
100
AcDbLine
 62
7
  6
CONTINUOUS
 10
137.9403337491
 20
261.417788891
 11
137.997412521
 21
261.5977540042
  0
LINE
  5
592
100
AcDbEntity
  8
0
100
AcDbLine
 62
7
  6
CONTINUOUS
 10
137.997412521
 20
261.5977540042
 11
138.0931604883
 21
261.9001004497
  0
LINE
  5
593
100
AcDbEntity
  8
0
100
AcDbLine
 62
7
  6
CONTINUOUS
 10
138.0931604883
 20
261.9001004497
 11
138.2846366469
 21
262.5064615477
  0
SPLINE
  5
594
100
AcDbEntity
  8
0
100
AcDbSpline
 62
7
  6
CONTINUOUS
 70
0
 71
3
 72
8
 73
4
 74
0
 42
0.0000001
 43
0.0000001
 44
0.0000000001
 40
0.0
 40
0.0
 40
0.0
 40
0.0
 40
1.0
 40
1.0
 40
1.0
 40
1.0
 10
135.6037856344
 20
260.3309409011
 30
0.0
 10
135.7309466556
 20
259.7994120539
 30
0.0
 10
135.8586033505
 20
259.2680015367
 30
0.0
 10
135.9867643457
 20
258.7367129145
 30
0.0
  0
SPLINE
  5
595
100
AcDbEntity
  8
BEZUGSACHSEN
100
AcDbSpline
 62
7
  6
CONTINUOUS
 70
0
 71
3
 72
10
 73
6
 74
0
 42
0.0000001
 43
0.0000001
 44
0.0000000001
 40
0.0
 40
0.0
 40
0.0
 40
0.0
 40
0.5498000172
 40
0.7881957529
 40
1.0
 40
1.0
 40
1.0
 40
1.0
 10
202.1619265247
 20
121.9877178074
 30
0.0
 10
202.1071463921
 20
111.5849777152
 30
0.0
 10
201.5486464008
 20
96.6633436528
 30
0.0
 10
199.7200850145
 20
77.8274488747
 30
0.0
 10
198.5717017062
 20
69.3839801459
 30
0.0
 10
197.9424517262
 20
65.4260953964
 30
0.0
  0
SPLINE
  5
596
100
AcDbEntity
  8
0
100
AcDbSpline
 62
7
  6
CONTINUOUS
 70
0
 71
3
 72
23
 73
19
 74
0
 42
0.0000001
 43
0.0000001
 44
0.0000000001
 40
0.0
 40
0.0
 40
0.0
 40
0.0
 40
0.0542652007
 40
0.112053891
 40
0.1728845109
 40
0.236143738
 40
0.3011030341
 40
0.3670496146
 40
0.4334480921
 40
0.5000000003
 40
0.5665519079
 40
0.6329503845
 40
0.6988969663
 40
0.7638562636
 40
0.8271154901
 40
0.8879461092
 40
0.9457347993
 40
1.0
 40
1.0
 40
1.0
 40
1.0
 10
179.7882135306
 20
121.9877155527
 30
0.0
 10
179.5007280704
 20
124.0820533968
 30
0.0
 10
178.7200342632
 20
128.3837806731
 30
0.0
 10
176.8650132508
 20
134.871909214
 30
0.0
 10
174.0794303746
 20
141.4116351596
 30
0.0
 10
170.1576458263
 20
147.6883709224
 30
0.0
 10
164.9792744466
 20
153.2744085596
 30
0.0
 10
158.6032961492
 20
157.6867147223
 30
0.0
 10
151.3049864682
 20
160.5077252693
 30
0.0
 10
143.5135395308
 20
161.475831922
 30
0.0
 10
135.7220926395
 20
160.5077252125
 30
0.0
 10
128.4237829635
 20
157.6867146613
 30
0.0
 10
122.047804643
 20
153.2744084135
 30
0.0
 10
116.8694332826
 20
147.6883706654
 30
0.0
 10
112.9476487511
 20
141.4116349067
 30
0.0
 10
110.162065962
 20
134.8719089875
 30
0.0
 10
108.3070449593
 20
128.3837804838
 30
0.0
 10
107.5263511946
 20
124.0820532067
 30
0.0
 10
107.2388657402
 20
121.9877153653
 30
0.0
  0
SPLINE
  5
597
100
AcDbEntity
  8
0
100
AcDbSpline
 62
7
  6
CONTINUOUS
 70
0
 71
3
 72
30
 73
26
 74
0
 42
0.0000001
 43
0.0000001
 44
0.0000000001
 40
0.0
 40
0.0
 40
0.0
 40
0.0
 40
0.0660168431
 40
0.1289973057
 40
0.1888988386
 40
0.2457842197
 40
0.3000884512
 40
0.3532368448
 40
0.3804220969
 40
0.4088536413
 40
0.4393675103
 40
0.4727930916
 40
0.5096767743
 40
0.549900951
 40
0.5923759175
 40
0.6351727454
 40
0.676228837
 40
0.7141639111
 40
0.7485879699
 40
0.7798906073
 40
0.8088522911
 40
0.836329141
 40
0.889537935
 40
0.94354285
 40
1.0
 40
1.0
 40
1.0
 40
1.0
 10
107.2388657384
 20
121.9877153653
 30
0.0
 10
106.8062884836
 20
118.8363808686
 30
0.0
 10
106.2123813425
 20
112.6424594593
 30
0.0
 10
105.944963254
 20
103.5392624557
 30
0.0
 10
106.2506706632
 20
94.8759632841
 30
0.0
 10
107.2152073425
 20
86.6756581678
 30
0.0
 10
109.0910869109
 20
78.9552108576
 30
0.0
 10
111.8205897974
 20
72.9980737213
 30
0.0
 10
114.9309143436
 20
68.758690171
 30
0.0
 10
117.8727660317
 20
65.8075396985
 30
0.0
 10
121.4884520307
 20
63.180502197
 30
0.0
 10
125.8299228882
 20
60.9598955459
 30
0.0
 10
130.8881287976
 20
59.239276232
 30
0.0
 10
136.5543398957
 20
58.1128393209
 30
0.0
 10
142.5978979023
 20
57.6560624257
 30
0.0
 10
148.6935898011
 20
57.9036719744
 30
0.0
 10
154.5020287226
 20
58.8366506924
 30
0.0
 10
159.7586990957
 20
60.3892053471
 30
0.0
 10
164.3190338732
 20
62.4705801239
 30
0.0
 10
168.1480995741
 20
64.9854692166
 30
0.0
 10
171.2832837274
 20
67.8478596322
 30
0.0
 10
174.6042227157
 20
71.9804676113
 30
0.0
 10
177.5505027897
 20
77.8441124406
 30
0.0
 10
179.5980154446
 20
85.4913728067
 30
0.0
 10
180.3004768906
 20
90.7783919745
 30
0.0
 10
180.5453256682
 20
93.4876216193
 30
0.0
  0
SPLINE
  5
598
100
AcDbEntity
  8
0
100
AcDbSpline
 62
7
  6
CONTINUOUS
 70
0
 71
3
 72
9
 73
5
 74
0
 42
0.0000001
 43
0.0000001
 44
0.0000000001
 40
0.0
 40
0.0
 40
0.0
 40
0.0
 40
0.2471796111
 40
1.0
 40
1.0
 40
1.0
 40
1.0
 10
622.4354800754
 20
283.2231973519
 30
0.0
 10
621.8524922322
 20
283.5457908285
 30
0.0
 10
619.5115770336
 20
284.8826158863
 30
0.0
 10
617.2406798064
 20
286.3413110668
 30
0.0
 10
615.5732936435
 20
287.4979408504
 30
0.0
  0
SPLINE
  5
599
100
AcDbEntity
  8
0
100
AcDbSpline
 62
7
  6
CONTINUOUS
 70
0
 71
3
 72
9
 73
5
 74
0
 42
0.0000001
 43
0.0000001
 44
0.0000000001
 40
0.0
 40
0.0
 40
0.0
 40
0.0
 40
0.2523554933
 40
1.0
 40
1.0
 40
1.0
 40
1.0
 10
629.5732936435
 20
288.0633289385
 30
0.0
 10
628.9937928736
 20
287.6266316483
 30
0.0
 10
626.676536767
 20
285.9241278766
 30
0.0
 10
624.2751715797
 20
284.3354246657
 30
0.0
 10
622.4354800754
 20
283.2231973519
 30
0.0
  0
SPLINE
  5
59A
100
AcDbEntity
  8
0
100
AcDbSpline
 62
7
  6
CONTINUOUS
 70
0
 71
3
 72
9
 73
5
 74
0
 42
0.0000001
 43
0.0000001
 44
0.0000000001
 40
0.0
 40
0.0
 40
0.0
 40
0.0
 40
0.2467251457
 40
1.0
 40
1.0
 40
1.0
 40
1.0
 10
629.5732936435
 20
279.8937391986
 30
0.0
 10
629.1647240425
 20
280.0386835235
 30
0.0
 10
627.5154652147
 20
280.6449729399
 30
0.0
 10
625.8931608549
 20
281.3240574991
 30
0.0
 10
624.6880253726
 20
281.8713137045
 30
0.0
  0
SPLINE
  5
59B
100
AcDbEntity
  8
0
100
AcDbSpline
 62
7
  6
CONTINUOUS
 70
0
 71
3
 72
9
 73
5
 74
0
 42
0.0000001
 43
0.0000001
 44
0.0000000001
 40
0.0
 40
0.0
 40
0.0
 40
0.0
 40
0.2536649415
 40
1.0
 40
1.0
 40
1.0
 40
1.0
 10
621.3807403379
 20
76.7508267583
 30
0.0
 10
622.0472014277
 20
76.9698744245
 30
0.0
 10
624.6890939529
 20
77.7880368923
 30
0.0
 10
627.3893086796
 20
78.4211970744
 30
0.0
 10
629.4232936435
 20
78.7722881549
 30
0.0
  0
SPLINE
  5
59C
100
AcDbEntity
  8
0
100
AcDbSpline
 62
7
  6
CONTINUOUS
 70
0
 71
3
 72
9
 73
5
 74
0
 42
0.0000001
 43
0.0000001
 44
0.0000000001
 40
0.0
 40
0.0
 40
0.0
 40
0.0
 40
0.2513931842
 40
1.0
 40
1.0
 40
1.0
 40
1.0
 10
623.2956342631
 20
95.3267085292
 30
0.0
 10
622.297161601
 20
95.3593806159
 30
0.0
 10
618.3227047119
 20
95.3800783202
 30
0.0
 10
614.3449998434
 20
94.9657609128
 30
0.0
 10
611.4232936435
 20
94.4058333151
 30
0.0
  0
SPLINE
  5
59D
100
AcDbEntity
  8
0
100
AcDbSpline
 62
7
  6
CONTINUOUS
 70
0
 71
3
 72
8
 73
4
 74
0
 42
0.0000001
 43
0.0000001
 44
0.0000000001
 40
0.0
 40
0.0
 40
0.0
 40
0.0
 40
1.0
 40
1.0
 40
1.0
 40
1.0
 10
629.4232936435
 20
89.873357596
 30
0.0
 10
629.2961412861
 20
90.4064839866
 30
0.0
 10
629.1684846618
 20
90.9394903691
 30
0.0
 10
629.0403149323
 20
91.4723730867
 30
0.0
  0
SPLINE
  5
59E
100
AcDbEntity
  8
0
100
AcDbSpline
 62
7
  6
CONTINUOUS
 70
0
 71
3
 72
9
 73
5
 74
0
 42
0.0000001
 43
0.0000001
 44
0.0000000001
 40
0.0
 40
0.0
 40
0.0
 40
0.0
 40
0.2461219419
 40
1.0
 40
1.0
 40
1.0
 40
1.0
 10
615.5732936435
 20
275.3017077394
 30
0.0
 10
616.1509679213
 20
275.5579323195
 30
0.0
 10
618.4833798361
 20
276.6319354812
 30
0.0
 10
620.757197711
 20
277.8320830593
 30
0.0
 10
622.4354800754
 20
278.7965536303
 30
0.0
  0
SPLINE
  5
59F
100
AcDbEntity
  8
0
100
AcDbSpline
 62
7
  6
CONTINUOUS
 70
0
 71
3
 72
9
 73
5
 74
0
 42
0.0000001
 43
0.0000001
 44
0.0000000001
 40
0.0
 40
0.0
 40
0.0
 40
0.0
 40
0.2543080767
 40
1.0
 40
1.0
 40
1.0
 40
1.0
 10
622.4354800754
 20
278.7965536303
 30
0.0
 10
623.0223599829
 20
278.4786886786
 30
0.0
 10
625.3461499797
 20
277.2587912737
 30
0.0
 10
627.7352763751
 20
276.1619047857
 30
0.0
 10
629.5496401199
 20
275.4282753409
 30
0.0
  0
SPLINE
  5
5A0
100
AcDbEntity
  8
0
100
AcDbSpline
 62
7
  6
CONTINUOUS
 70
0
 71
3
 72
8
 73
4
 74
0
 42
0.0000001
 43
0.0000001
 44
0.0000000001
 40
0.0
 40
0.0
 40
0.0
 40
0.0
 40
1.0
 40
1.0
 40
1.0
 40
1.0
 10
611.8062723213
 20
77.8192646784
 30
0.0
 10
611.6781061378
 20
77.2504459278
 30
0.0
 10
611.550449102
 20
76.6815122239
 30
0.0
 10
611.4232936435
 20
76.11246668
 30
0.0
  0
SPLINE
  5
5A1
100
AcDbEntity
  8
0
100
AcDbSpline
 62
7
  6
CONTINUOUS
 70
0
 71
3
 72
9
 73
5
 74
0
 42
0.0000001
 43
0.0000001
 44
0.0000000001
 40
0.0
 40
0.0
 40
0.0
 40
0.0
 40
0.2514143374
 40
1.0
 40
1.0
 40
1.0
 40
1.0
 10
623.2956342631
 20
86.0504152642
 30
0.0
 10
622.2970219222
 20
86.0833426363
 30
0.0
 10
618.3222992611
 20
86.1041915003
 30
0.0
 10
614.3442986601
 20
85.6865711867
 30
0.0
 10
611.4232936435
 20
85.1224364131
 30
0.0
  0
SPLINE
  5
5A2
100
AcDbEntity
  8
0
100
AcDbSpline
 62
7
  6
CONTINUOUS
 70
0
 71
3
 72
11
 73
7
 74
0
 42
0.0000001
 43
0.0000001
 44
0.0000000001
 40
0.0
 40
0.0
 40
0.0
 40
0.0
 40
0.2355686914
 40
0.4807955921
 40
0.7356617958
 40
1.0
 40
1.0
 40
1.0
 40
1.0
 10
584.4817536098
 20
93.4876216193
 30
0.0
 10
584.2798803601
 20
95.721330924
 30
0.0
 10
584.0269472447
 20
100.2953506411
 30
0.0
 10
584.0218666488
 20
107.3022582711
 30
0.0
 10
584.3830432139
 20
114.574305085
 30
0.0
 10
584.8966097384
 20
119.4943732698
 30
0.0
 10
585.2388657489
 20
121.9877155527
 30
0.0
  0
SPLINE
  5
5A3
100
AcDbEntity
  8
0
100
AcDbSpline
 62
7
  6
CONTINUOUS
 70
0
 71
3
 72
11
 73
7
 74
0
 42
0.0000001
 43
0.0000001
 44
0.0000000001
 40
0.0
 40
0.0
 40
0.0
 40
0.0
 40
0.2355686914
 40
0.4807955921
 40
0.7356617958
 40
1.0
 40
1.0
 40
1.0
 40
1.0
 10
584.4817536098
 20
258.2232336439
 30
0.0
 10
584.2798803601
 20
255.9895243392
 30
0.0
 10
584.0269472447
 20
251.415504622
 30
0.0
 10
584.0218666488
 20
244.408596992
 30
0.0
 10
584.3830432139
 20
237.1365501781
 30
0.0
 10
584.8966097384
 20
232.2164819934
 30
0.0
 10
585.2388657489
 20
229.7231397104
 30
0.0
  0
SPLINE
  5
5A4
100
AcDbEntity
  8
0
100
AcDbSpline
 62
7
  6
CONTINUOUS
 70
0
 71
3
 72
9
 73
5
 74
0
 42
0.0000001
 43
0.0000001
 44
0.0000000001
 40
0.0
 40
0.0
 40
0.0
 40
0.0
 40
0.2457708802
 40
1.0
 40
1.0
 40
1.0
 40
1.0
 10
629.4232936435
 20
81.0343754899
 30
0.0
 10
628.6880184826
 20
80.9030122951
 30
0.0
 10
625.7080014327
 20
80.304174031
 30
0.0
 10
622.7788390334
 20
79.4587939304
 30
0.0
 10
620.6147829824
 20
78.7032320474
 30
0.0
  0
SPLINE
  5
5A5
100
AcDbEntity
  8
BEZUGSACHSEN
100
AcDbSpline
 62
7
  6
CONTINUOUS
 70
0
 71
3
 72
10
 73
6
 74
0
 42
0.0000001
 43
0.0000001
 44
0.0000000001
 40
0.0
 40
0.0
 40
0.0
 40
0.0
 40
0.5498000172
 40
0.7881957529
 40
1.0
 40
1.0
 40
1.0
 40
1.0
 10
562.8651527533
 20
121.9877178074
 30
0.0
 10
562.9199328858
 20
111.5849777152
 30
0.0
 10
563.4784328771
 20
96.6633436528
 30
0.0
 10
565.3069942635
 20
77.8274488747
 30
0.0
 10
566.4553775718
 20
69.3839801459
 30
0.0
 10
567.0846275518
 20
65.4260953964
 30
0.0
  0
SPLINE
  5
5A6
100
AcDbEntity
  8
0
100
AcDbSpline
 62
7
  6
CONTINUOUS
 70
0
 71
3
 72
9
 73
5
 74
0
 42
0.0000001
 43
0.0000001
 44
0.0000000001
 40
0.0
 40
0.0
 40
0.0
 40
0.0
 40
0.2545908359
 40
1.0
 40
1.0
 40
1.0
 40
1.0
 10
622.4354800754
 20
280.3026587442
 30
0.0
 10
623.0241232622
 20
279.9837525073
 30
0.0
 10
625.3531603877
 20
278.7628414169
 30
0.0
 10
627.7512839826
 20
277.6719676667
 30
0.0
 10
629.5732936435
 20
276.9491532084
 30
0.0
  0
SPLINE
  5
5A7
100
AcDbEntity
  8
0
100
AcDbSpline
 62
7
  6
CONTINUOUS
 70
0
 71
3
 72
9
 73
5
 74
0
 42
0.0000001
 43
0.0000001
 44
0.0000000001
 40
0.0
 40
0.0
 40
0.0
 40
0.0
 40
0.2459002601
 40
1.0
 40
1.0
 40
1.0
 40
1.0
 10
615.5732936435
 20
276.8176553112
 30
0.0
 10
616.1511666082
 20
277.0711569344
 30
0.0
 10
618.4857957419
 20
278.1369888732
 30
0.0
 10
620.7590118905
 20
279.3360346524
 30
0.0
 10
622.4354800754
 20
280.3026587442
 30
0.0
  0
SPLINE
  5
5A8
100
AcDbEntity
  8
0
100
AcDbSpline
 62
7
  6
CONTINUOUS
 70
0
 71
3
 72
23
 73
19
 74
0
 42
0.0000001
 43
0.0000001
 44
0.0000000001
 40
0.0
 40
0.0
 40
0.0
 40
0.0
 40
0.0542652007
 40
0.112053891
 40
0.1728845109
 40
0.236143738
 40
0.3011030341
 40
0.3670496146
 40
0.4334480921
 40
0.5000000003
 40
0.5665519079
 40
0.6329503845
 40
0.6988969663
 40
0.7638562636
 40
0.8271154901
 40
0.8879461092
 40
0.9457347993
 40
1.0
 40
1.0
 40
1.0
 40
1.0
 10
585.2388657474
 20
121.9877155527
 30
0.0
 10
585.5263512076
 20
124.0820533968
 30
0.0
 10
586.3070450148
 20
128.3837806731
 30
0.0
 10
588.1620660272
 20
134.871909214
 30
0.0
 10
590.9476489033
 20
141.4116351596
 30
0.0
 10
594.8694334516
 20
147.6883709224
 30
0.0
 10
600.0478048314
 20
153.2744085596
 30
0.0
 10
606.4237831287
 20
157.6867147223
 30
0.0
 10
613.7220928097
 20
160.5077252693
 30
0.0
 10
621.5135397472
 20
161.475831922
 30
0.0
 10
629.3049866384
 20
160.5077252125
 30
0.0
 10
636.6032963144
 20
157.6867146613
 30
0.0
 10
642.979274635
 20
153.2744084135
 30
0.0
 10
648.1576459954
 20
147.6883706654
 30
0.0
 10
652.0794305269
 20
141.4116349067
 30
0.0
 10
654.865013316
 20
134.8719089875
 30
0.0
 10
656.7200343186
 20
128.3837804838
 30
0.0
 10
657.5007280833
 20
124.0820532067
 30
0.0
 10
657.7882135378
 20
121.9877153653
 30
0.0
  0
SPLINE
  5
5A9
100
AcDbEntity
  8
0
100
AcDbSpline
 62
7
  6
CONTINUOUS
 70
0
 71
3
 72
30
 73
26
 74
0
 42
0.0000001
 43
0.0000001
 44
0.0000000001
 40
0.0
 40
0.0
 40
0.0
 40
0.0
 40
0.0660168431
 40
0.1289973057
 40
0.1888988386
 40
0.2457842197
 40
0.3000884512
 40
0.3532368448
 40
0.3804220969
 40
0.4088536413
 40
0.4393675103
 40
0.4727930916
 40
0.5096767743
 40
0.549900951
 40
0.5923759175
 40
0.6351727454
 40
0.676228837
 40
0.7141639111
 40
0.7485879699
 40
0.7798906073
 40
0.8088522911
 40
0.836329141
 40
0.889537935
 40
0.94354285
 40
1.0
 40
1.0
 40
1.0
 40
1.0
 10
657.7882135396
 20
121.9877153653
 30
0.0
 10
658.2207907944
 20
118.8363808686
 30
0.0
 10
658.8146979355
 20
112.6424594593
 30
0.0
 10
659.082116024
 20
103.5392624557
 30
0.0
 10
658.7764086147
 20
94.8759632841
 30
0.0
 10
657.8118719354
 20
86.6756581678
 30
0.0
 10
655.935992367
 20
78.9552108576
 30
0.0
 10
653.2064894806
 20
72.9980737213
 30
0.0
 10
650.0961649344
 20
68.758690171
 30
0.0
 10
647.1543132462
 20
65.8075396985
 30
0.0
 10
643.5386272473
 20
63.180502197
 30
0.0
 10
639.1971563898
 20
60.9598955459
 30
0.0
 10
634.1389504803
 20
59.239276232
 30
0.0
 10
628.4727393823
 20
58.1128393209
 30
0.0
 10
622.4291813757
 20
57.6560624257
 30
0.0
 10
616.3334894768
 20
57.9036719744
 30
0.0
 10
610.5250505554
 20
58.8366506924
 30
0.0
 10
605.2683801822
 20
60.3892053471
 30
0.0
 10
600.7080454048
 20
62.4705801239
 30
0.0
 10
596.8789797038
 20
64.9854692166
 30
0.0
 10
593.7437955505
 20
67.8478596322
 30
0.0
 10
590.4228565623
 20
71.9804676113
 30
0.0
 10
587.4765764883
 20
77.8441124406
 30
0.0
 10
585.4290638333
 20
85.4913728067
 30
0.0
 10
584.7266023873
 20
90.7783919745
 30
0.0
 10
584.4817536098
 20
93.4876216193
 30
0.0
  0
SPLINE
  5
5AA
100
AcDbEntity
  8
0
100
AcDbSpline
 62
7
  6
CONTINUOUS
 70
0
 71
3
 72
9
 73
5
 74
0
 42
0.0000001
 43
0.0000001
 44
0.0000000001
 40
0.0
 40
0.0
 40
0.0
 40
0.0
 40
0.246032345
 40
1.0
 40
1.0
 40
1.0
 40
1.0
 10
629.4232936435
 20
82.5532902022
 30
0.0
 10
628.6877136727
 20
82.416444157
 30
0.0
 10
625.7094009185
 20
81.7996325696
 30
0.0
 10
622.7804318323
 20
80.9499074903
 30
0.0
 10
620.6147829824
 20
80.1967790748
 30
0.0
  0
SPLINE
  5
5AB
100
AcDbEntity
  8
0
100
AcDbSpline
 62
7
  6
CONTINUOUS
 70
0
 71
3
 72
8
 73
4
 74
0
 42
0.0000001
 43
0.0000001
 44
0.0000000001
 40
0.0
 40
0.0
 40
0.0
 40
0.0
 40
1.0
 40
1.0
 40
1.0
 40
1.0
 10
611.8062723213
 20
79.3589298308
 30
0.0
 10
611.678115406
 20
78.7923453724
 30
0.0
 10
611.5504583177
 20
78.2256476324
 30
0.0
 10
611.4232936435
 20
77.6588396498
 30
0.0
  0
LINE
  5
5AC
100
AcDbEntity
  8
0
100
AcDbLine
 62
7
  6
CONTINUOUS
 10
627.0867455288
 20
90.2930663722
 11
627.029666757
 21
90.113101259
  0
LINE
  5
5AD
100
AcDbEntity
  8
0
100
AcDbLine
 62
7
  6
CONTINUOUS
 10
627.029666757
 20
90.113101259
 11
626.9339187896
 21
89.8107548135
  0
LINE
  5
5AE
100
AcDbEntity
  8
0
100
AcDbLine
 62
7
  6
CONTINUOUS
 10
626.9339187896
 20
89.8107548135
 11
626.7424426311
 21
89.2043937154
  0
SPLINE
  5
5AF
100
AcDbEntity
  8
0
100
AcDbSpline
 62
7
  6
CONTINUOUS
 70
0
 71
3
 72
8
 73
4
 74
0
 42
0.0000001
 43
0.0000001
 44
0.0000000001
 40
0.0
 40
0.0
 40
0.0
 40
0.0
 40
1.0
 40
1.0
 40
1.0
 40
1.0
 10
629.4232936435
 20
91.3799143621
 30
0.0
 10
629.2961326224
 20
91.9114432093
 30
0.0
 10
629.1684759274
 20
92.4428537265
 30
0.0
 10
629.0403149323
 20
92.9741423487
 30
0.0
  0
SPLINE
  5
5B0
100
AcDbEntity
  8
BEZUGSACHSEN
100
AcDbSpline
 62
7
  6
CONTINUOUS
 70
0
 71
3
 72
10
 73
6
 74
0
 42
0.0000001
 43
0.0000001
 44
0.0000000001
 40
0.0
 40
0.0
 40
0.0
 40
0.0
 40
0.5498000172
 40
0.7881957529
 40
1.0
 40
1.0
 40
1.0
 40
1.0
 10
562.8651527533
 20
229.7231374557
 30
0.0
 10
562.9199328858
 20
240.1258775479
 30
0.0
 10
563.4784328771
 20
255.0475116104
 30
0.0
 10
565.3069942635
 20
273.8834063884
 30
0.0
 10
566.4553775718
 20
282.3268751172
 30
0.0
 10
567.0846275518
 20
286.2847598667
 30
0.0
  0
SPLINE
  5
5B1
100
AcDbEntity
  8
0
100
AcDbSpline
 62
7
  6
CONTINUOUS
 70
0
 71
3
 72
23
 73
19
 74
0
 42
0.0000001
 43
0.0000001
 44
0.0000000001
 40
0.0
 40
0.0
 40
0.0
 40
0.0
 40
0.0542652007
 40
0.112053891
 40
0.1728845109
 40
0.236143738
 40
0.3011030341
 40
0.3670496146
 40
0.4334480921
 40
0.5000000003
 40
0.5665519079
 40
0.6329503845
 40
0.6988969663
 40
0.7638562636
 40
0.8271154901
 40
0.8879461092
 40
0.9457347993
 40
1.0
 40
1.0
 40
1.0
 40
1.0
 10
585.2388657474
 20
229.7231397104
 30
0.0
 10
585.5263512076
 20
227.6288018663
 30
0.0
 10
586.3070450148
 20
223.32707459
 30
0.0
 10
588.1620660272
 20
216.8389460491
 30
0.0
 10
590.9476489033
 20
210.2992201036
 30
0.0
 10
594.8694334516
 20
204.0224843408
 30
0.0
 10
600.0478048314
 20
198.4364467036
 30
0.0
 10
606.4237831287
 20
194.0241405409
 30
0.0
 10
613.7220928097
 20
191.2031299939
 30
0.0
 10
621.5135397472
 20
190.2350233412
 30
0.0
 10
629.3049866384
 20
191.2031300507
 30
0.0
 10
636.6032963144
 20
194.0241406019
 30
0.0
 10
642.979274635
 20
198.4364468496
 30
0.0
 10
648.1576459954
 20
204.0224845978
 30
0.0
 10
652.0794305269
 20
210.2992203564
 30
0.0
 10
654.865013316
 20
216.8389462757
 30
0.0
 10
656.7200343186
 20
223.3270747793
 30
0.0
 10
657.5007280833
 20
227.6288020564
 30
0.0
 10
657.7882135378
 20
229.7231398979
 30
0.0
  0
SPLINE
  5
5B2
100
AcDbEntity
  8
0
100
AcDbSpline
 62
7
  6
CONTINUOUS
 70
0
 71
3
 72
30
 73
26
 74
0
 42
0.0000001
 43
0.0000001
 44
0.0000000001
 40
0.0
 40
0.0
 40
0.0
 40
0.0
 40
0.0660168431
 40
0.1289973057
 40
0.1888988386
 40
0.2457842197
 40
0.3000884512
 40
0.3532368448
 40
0.3804220969
 40
0.4088536413
 40
0.4393675103
 40
0.4727930916
 40
0.5096767743
 40
0.549900951
 40
0.5923759175
 40
0.6351727454
 40
0.676228837
 40
0.7141639111
 40
0.7485879699
 40
0.7798906073
 40
0.8088522911
 40
0.836329141
 40
0.889537935
 40
0.94354285
 40
1.0
 40
1.0
 40
1.0
 40
1.0
 10
657.7882135396
 20
229.7231398979
 30
0.0
 10
658.2207907944
 20
232.8744743946
 30
0.0
 10
658.8146979355
 20
239.0683958038
 30
0.0
 10
659.082116024
 20
248.1715928075
 30
0.0
 10
658.7764086147
 20
256.8348919791
 30
0.0
 10
657.8118719354
 20
265.0351970954
 30
0.0
 10
655.935992367
 20
272.7556444055
 30
0.0
 10
653.2064894806
 20
278.7127815419
 30
0.0
 10
650.0961649344
 20
282.9521650922
 30
0.0
 10
647.1543132462
 20
285.9033155646
 30
0.0
 10
643.5386272473
 20
288.5303530661
 30
0.0
 10
639.1971563898
 20
290.7509597172
 30
0.0
 10
634.1389504803
 20
292.4715790312
 30
0.0
 10
628.4727393823
 20
293.5980159423
 30
0.0
 10
622.4291813757
 20
294.0547928375
 30
0.0
 10
616.3334894768
 20
293.8071832888
 30
0.0
 10
610.5250505554
 20
292.8742045707
 30
0.0
 10
605.2683801822
 20
291.321649916
 30
0.0
 10
600.7080454048
 20
289.2402751393
 30
0.0
 10
596.8789797038
 20
286.7253860465
 30
0.0
 10
593.7437955505
 20
283.8629956309
 30
0.0
 10
590.4228565623
 20
279.7303876519
 30
0.0
 10
587.4765764883
 20
273.8667428226
 30
0.0
 10
585.4290638333
 20
266.2194824565
 30
0.0
 10
584.7266023873
 20
260.9324632886
 30
0.0
 10
584.4817536098
 20
258.2232336439
 30
0.0
  0
SPLINE
  5
5B3
100
AcDbEntity
  8
BEZUGSACHSEN
100
AcDbSpline
 62
7
  6
CONTINUOUS
 70
0
 71
3
 72
13
 73
9
 74
0
 42
0.0000001
 43
0.0000001
 44
0.0000000001
 40
0.0
 40
0.0
 40
0.0
 40
0.0
 40
0.2413600766
 40
0.4749490076
 40
0.5962126139
 40
0.7240971901
 40
0.8595788252
 40
1.0
 40
1.0
 40
1.0
 40
1.0
 10
203.7958995251
 20
195.8590630148
 30
0.0
 10
204.2274994164
 20
196.7134509698
 30
0.0
 10
205.1642680169
 20
198.3533986437
 30
0.0
 10
206.6730584124
 20
200.1993077024
 30
0.0
 10
208.152728125
 20
201.4243695623
 30
0.0
 10
209.4763088145
 20
202.1992101996
 30
0.0
 10
210.9994518265
 20
202.7285594491
 30
0.0
 10
212.0976291053
 20
202.8554276316
 30
0.0
 10
212.6545273869
 20
202.8554276316
 30
0.0
  0
SPLINE
  5
5B4
100
AcDbEntity
  8
BEZUGSACHSEN
100
AcDbSpline
 62
7
  6
CONTINUOUS
 70
0
 71
3
 72
13
 73
9
 74
0
 42
0.0000001
 43
0.0000001
 44
0.0000000001
 40
0.0
 40
0.0
 40
0.0
 40
0.0
 40
0.2413600766
 40
0.4749490076
 40
0.5962126139
 40
0.7240971901
 40
0.8595788252
 40
1.0
 40
1.0
 40
1.0
 40
1.0
 10
561.2311797528
 20
195.8590630148
 30
0.0
 10
560.7995798615
 20
196.7134509698
 30
0.0
 10
559.862811261
 20
198.3533986437
 30
0.0
 10
558.3540208656
 20
200.1993077024
 30
0.0
 10
556.8743511529
 20
201.4243695623
 30
0.0
 10
555.5507704634
 20
202.1992101996
 30
0.0
 10
554.0276274515
 20
202.7285594491
 30
0.0
 10
552.9294501726
 20
202.8554276316
 30
0.0
 10
552.3725518911
 20
202.8554276316
 30
0.0
  0
SPLINE
  5
5B5
100
AcDbEntity
  8
BEZUGSACHSEN
100
AcDbSpline
 62
7
  6
CONTINUOUS
 70
0
 71
3
 72
13
 73
9
 74
0
 42
0.0000001
 43
0.0000001
 44
0.0000000001
 40
0.0
 40
0.0
 40
0.0
 40
0.0
 40
0.2413600766
 40
0.4749490076
 40
0.5962126139
 40
0.7240971901
 40
0.8595788252
 40
1.0
 40
1.0
 40
1.0
 40
1.0
 10
203.7958995251
 20
155.8517922484
 30
0.0
 10
204.2274994164
 20
154.9974042933
 30
0.0
 10
205.1642680169
 20
153.3574566195
 30
0.0
 10
206.6730584124
 20
151.5115475608
 30
0.0
 10
208.152728125
 20
150.2864857009
 30
0.0
 10
209.4763088145
 20
149.5116450636
 30
0.0
 10
210.9994518265
 20
148.9822958141
 30
0.0
 10
212.0976291053
 20
148.8554276316
 30
0.0
 10
212.6545273869
 20
148.8554276316
 30
0.0
  0
SPLINE
  5
5B6
100
AcDbEntity
  8
RUNDUNGEN
100
AcDbSpline
 62
7
  6
CONTINUOUS
 70
0
 71
3
 72
13
 73
9
 74
0
 42
0.0000001
 43
0.0000001
 44
0.0000000001
 40
0.0
 40
0.0
 40
0.0
 40
0.0
 40
0.2413600766
 40
0.4749490076
 40
0.5962126139
 40
0.7240971901
 40
0.8595788252
 40
1.0
 40
1.0
 40
1.0
 40
1.0
 10
561.2311797528
 20
155.8517922484
 30
0.0
 10
560.7995798615
 20
154.9974042933
 30
0.0
 10
559.862811261
 20
153.3574566195
 30
0.0
 10
558.3540208656
 20
151.5115475608
 30
0.0
 10
556.8743511529
 20
150.2864857009
 30
0.0
 10
555.5507704634
 20
149.5116450636
 30
0.0
 10
554.0276274515
 20
148.9822958141
 30
0.0
 10
552.9294501726
 20
148.8554276316
 30
0.0
 10
552.3725518911
 20
148.8554276316
 30
0.0
  0
ENDSEC
  0
SECTION
  2
OBJECTS
  0
DICTIONARY
  5
C
100
AcDbDictionary
280
0
281
1
  3
ACAD_GROUP
350
D
  3
ACAD_MLINESTYLE
350
17
  3
ACAD_LAYOUT
350
1A
  3
ACAD_PLOTSETTINGS
350
19
  3
ACAD_PLOTSTYLENAME
350
E
  0
DICTIONARY
  5
D
102
{ACAD_REACTORS
330
C
102
}
100
AcDbDictionary
280
0
281
1
  0
ACDBDICTIONARYWDFLT
  5
E
102
{ACAD_REACTORS
330
C
102
}
100
AcDbDictionary
281
1
  3
Normal
350
F
100
AcDbDictionaryWithDefault
340
F
  0
DICTIONARY
  5
17
102
{ACAD_REACTORS
330
C
102
}
100
AcDbDictionary
280
0
281
1
  3
Standard
350
18
  0
DICTIONARY
  5
19
102
{ACAD_REACTORS
330
C
102
}
100
AcDbDictionary
281
1
  0
DICTIONARY
  5
1A
102
{ACAD_REACTORS
330
C
102
}
100
AcDbDictionary
281
1
  3
Model
350
5B7
  3
Layout1
350
5B8
  0
ACDBPLACEHOLDER
  5
F
102
{ACAD_REACTORS
330
E
102
}
  0
MLINESTYLE
  5
18
102
{ACAD_REACTORS
330
17
102
}
100
AcDbMlineStyle
  2
STANDARD
 70
0
  3

 62
256
 51
90.0
 52
90.0
 71
2
 49
0.5
 62
256
  6
BYLAYER
 49
-0.5
 62
256
  6
BYLAYER
  0
LAYOUT
  5
5B7
102
{ACAD_REACTORS
330
1A
102
}
100
AcDbPlotSettings
  1

  2
none_device
  4
ISO_A0_(1189.00_x_841.00_MM)
  6

 40
0.0
 41
0.0
 42
0.0
 43
0.0
 44
1189.0
 45
841.0
 46
0.0
 47
0.0
 48
0.0
 49
0.0
140
0.0
141
0.0
142
1.0
143
1.0
 70
1024
 72
1
 73
0
 74
0
  7

 75
0
147
1.0
148
0.0
149
0.0
100
AcDbLayout
  1
Model
 70
0
 71
0
 10
0.0
 20
0.0
 11
1189.0
 21
841.0
 12
0.0
 22
0.0
 32
0.0
 14
0.0
 24
0.0
 34
0.0
 15
0.0
 25
0.0
 35
0.0
146
0.0
 13
0.0
 23
0.0
 33
0.0
 16
1.0
 26
0.0
 36
0.0
 17
0.0
 27
1.0
 37
0.0
 76
0
330
212
345
0
346
0
  0
LAYOUT
  5
5B8
102
{ACAD_REACTORS
330
1A
102
}
100
AcDbPlotSettings
  1

  2
none_device
  4
ISO_A0_(1189.00_x_841.00_MM)
  6

 40
0.0
 41
0.0
 42
0.0
 43
0.0
 44
1189.0
 45
841.0
 46
0.0
 47
0.0
 48
0.0
 49
0.0
140
0.0
141
0.0
142
1.0
143
1.0
 70
0
 72
1
 73
0
 74
0
  7

 75
0
147
1.0
148
0.0
149
0.0
100
AcDbLayout
  1
Layout1
 70
0
 71
1
 10
0.0
 20
0.0
 11
1189.0
 21
841.0
 12
0.0
 22
0.0
 32
0.0
 14
0.0
 24
0.0
 34
0.0
 15
0.0
 25
0.0
 35
0.0
146
0.0
 13
0.0
 23
0.0
 33
0.0
 16
1.0
 26
0.0
 36
0.0
 17
0.0
 27
1.0
 37
0.0
 76
0
330
213
345
0
346
0
  0
ENDSEC
  0
EOF
