999
DXF file: VRBS-FIX-100t-7906273-M35253-P-1.dxf
999
Pro/ENGINEER 2011490 by Parametric Technology Corporation
  0
SECTION
  2
HEADER
  9
$ACADVER
  1
AC1015
  9
$DWGCODEPAGE
  3
ANSI_1252
  9
$EXTMAX
 10
1189.0
 20
841.0
 30
0.0
  9
$EXTMIN
 10
0.0
 20
0.0
 30
0.0
  9
$LIMMIN
 10
0.0
 20
0.0
  9
$LIMMAX
 10
1189.0
 20
841.0
  9
$VIEWCTR
 10
594.5
 20
420.5
  9
$VIEWSIZE
 40
841.0
  9
$CLAYER
  8
0
  9
$LTSCALE
 40
65.395
  9
$CELTYPE
  6
BYLAYER
  9
$DIMSCALE
 40
1.0
  9
$DIMASZ
 40
3.5
  9
$DIMEXO
 40
7.43125
  9
$DIMDLI
 40
45.182
  9
$DIMEXE
 40
21.402
  9
$DIMCEN
 40
10.701
  9
$DIMLFAC
 40
1.0
  9
$DIMBLK
  1
_FILLED
  9
$DIMTXT
 40
3.5
  9
$DIMTOL
 70
1
  9
$DIMLIM
 70
0
  9
$DIMTFAC
 40
1.0
  9
$DIMTP
 40
0.005
  9
$DIMTM
 40
0.005
  9
$PDMODE
 70
3
  9
$PDSIZE
 40
0.3125
  9
$HANDSEED
  5
5BB
  9
$TILEMODE
 70
1
  9
$MEASUREMENT
 70
1
  9
$INSUNITS
 70
4
  0
ENDSEC
  0
SECTION
  2
CLASSES
  0
CLASS
  1
ACDBDICTIONARYWDFLT
  2
AcDbDictionaryWithDefault
  3
AutoCAD 2000
 90
0
280
0
281
0
  0
CLASS
  1
ACDBPLACEHOLDER
  2
AcDbPlaceHolder
  3
AutoCAD 2000
 90
0
280
0
281
0
  0
CLASS
  1
LAYOUT
  2
AcDbLayout
  3
AutoCAD 2000
 90
0
280
0
281
0
  0
ENDSEC
  0
SECTION
  2
TABLES
  0
TABLE
  2
VPORT
  5
8
100
AcDbSymbolTable
 70
2
  0
VPORT
  5
1F4
100
AcDbSymbolTableRecord
100
AcDbViewportTableRecord
  2
*ACTIVE
 70
0
 10
0.0
 20
0.0
 11
1.0
 21
1.0
 12
594.5
 22
420.5
 13
0.0
 23
0.0
 14
1.0
 24
1.0
 15
0.0
 25
0.0
 16
0.0
 26
0.0
 36
1.0
 17
0.0
 27
0.0
 37
0.0
 40
841.0
 41
1.4137931034
 42
50.0
 43
0.0
 44
0.0
 50
0.0
 51
0.0
 71
0
 72
100
 73
1
 74
1
 75
0
 76
0
 77
0
 78
0
  0
ENDTAB
  0
TABLE
  2
LTYPE
  5
5
100
AcDbSymbolTable
 70
6
  0
LTYPE
  5
14
100
AcDbSymbolTableRecord
100
AcDbLinetypeTableRecord
  2
BYBLOCK
 70
0
  3

 72
65
 73
0
 40
0.0
  0
LTYPE
  5
15
100
AcDbSymbolTableRecord
100
AcDbLinetypeTableRecord
  2
BYLAYER
 70
0
  3

 72
65
 73
0
 40
0.0
  0
LTYPE
  5
16
100
AcDbSymbolTableRecord
100
AcDbLinetypeTableRecord
  2
CONTINUOUS
 70
64
  3
Solid line
 72
65
 73
0
 40
0.0
  0
LTYPE
  5
1F5
100
AcDbSymbolTableRecord
100
AcDbLinetypeTableRecord
  2
CENTER
 70
64
  3
____ _ ____ _ ____ _ ____ _ ____ _ ____ _ ____
 72
65
 73
4
 40
0.6
 49
0.375
 74
0
 49
-0.075
 74
0
 49
0.075
 74
0
 49
-0.075
 74
0
  0
LTYPE
  5
1F6
100
AcDbSymbolTableRecord
100
AcDbLinetypeTableRecord
  2
HIDDEN
 70
64
  3
- - - - - - - - - - - - - - - - - - - -
 72
65
 73
2
 40
0.2
 49
0.1
 74
0
 49
-0.1
 74
0
  0
LTYPE
  5
1F7
100
AcDbSymbolTableRecord
100
AcDbLinetypeTableRecord
  2
PHANTOM
 70
64
  3
_____ _ _ _____ _ _ _____ _ _ _____
 72
65
 73
6
 40
0.8
 49
0.45
 74
0
 49
-0.05
 74
0
 49
0.1
 74
0
 49
-0.05
 74
0
 49
0.1
 74
0
 49
-0.05
 74
0
  0
LTYPE
  5
1F8
100
AcDbSymbolTableRecord
100
AcDbLinetypeTableRecord
  2
DOT
 70
64
  3
. . . . . . . . . . . . . . . . . . . .
 72
65
 73
2
 40
0.2
 49
0.1
 74
0
 49
-0.1
 74
0
  0
LTYPE
  5
1F9
100
AcDbSymbolTableRecord
100
AcDbLinetypeTableRecord
  2
DASHED
 70
64
  3
- - - - - - - - - - - - - - - - - - - -
 72
65
 73
2
 40
0.2
 49
0.1
 74
0
 49
-0.1
 74
0
  0
ENDTAB
  0
TABLE
  2
LAYER
  5
2
100
AcDbSymbolTable
 70
36
  0
LAYER
  5
10
100
AcDbSymbolTableRecord
100
AcDbLayerTableRecord
  2
0
 70
0
 62
7
  6
CONTINUOUS
370
-3
390
F
  0
LAYER
  5
1FA
100
AcDbSymbolTableRecord
100
AcDbLayerTableRecord
  2
DEFAULT_1
 70
0
 62
7
  6
CENTER
370
-3
390
F
  0
LAYER
  5
1FB
100
AcDbSymbolTableRecord
100
AcDbLayerTableRecord
  2
DEFAULT_2
 70
0
 62
8
  6
HIDDEN
370
-3
390
F
  0
LAYER
  5
1FC
100
AcDbSymbolTableRecord
100
AcDbLayerTableRecord
  2
DEFAULT_3
 70
0
 62
7
  6
PHANTOM
370
-3
390
F
  0
LAYER
  5
1FD
100
AcDbSymbolTableRecord
100
AcDbLayerTableRecord
  2
AUSFORMSCHRAEGEN
 70
0
 62
7
  6
CONTINUOUS
370
-3
390
F
  0
LAYER
  5
1FE
100
AcDbSymbolTableRecord
100
AcDbLayerTableRecord
  2
BEZUGSACHSEN
 70
0
 62
7
  6
CONTINUOUS
370
-3
390
F
  0
LAYER
  5
1FF
100
AcDbSymbolTableRecord
100
AcDbLayerTableRecord
  2
BEZUGSEBENEN
 70
0
 62
7
  6
CONTINUOUS
370
-3
390
F
  0
LAYER
  5
200
100
AcDbSymbolTableRecord
100
AcDbLayerTableRecord
  2
BG_STARTBEZUEGE
 70
0
 62
7
  6
CONTINUOUS
370
-3
390
F
  0
LAYER
  5
201
100
AcDbSymbolTableRecord
100
AcDbLayerTableRecord
  2
BOHRUNGEN
 70
0
 62
7
  6
CONTINUOUS
370
-3
390
F
  0
LAYER
  5
202
100
AcDbSymbolTableRecord
100
AcDbLayerTableRecord
  2
FASEN
 70
0
 62
7
  6
CONTINUOUS
370
-3
390
F
  0
LAYER
  5
203
100
AcDbSymbolTableRecord
100
AcDbLayerTableRecord
  2
FLAECHEN
 70
0
 62
7
  6
CONTINUOUS
370
-3
390
F
  0
LAYER
  5
204
100
AcDbSymbolTableRecord
100
AcDbLayerTableRecord
  2
FLAECHENVERBUND
 70
0
 62
7
  6
CONTINUOUS
370
-3
390
F
  0
LAYER
  5
205
100
AcDbSymbolTableRecord
100
AcDbLayerTableRecord
  2
GEWINDE
 70
0
 62
7
  6
CONTINUOUS
370
-3
390
F
  0
LAYER
  5
206
100
AcDbSymbolTableRecord
100
AcDbLayerTableRecord
  2
HILFEN
 70
0
 62
7
  6
CONTINUOUS
370
-3
390
F
  0
LAYER
  5
207
100
AcDbSymbolTableRecord
100
AcDbLayerTableRecord
  2
KONSTRUKTIONSELEMENTE
 70
0
 62
7
  6
CONTINUOUS
370
-3
390
F
  0
LAYER
  5
208
100
AcDbSymbolTableRecord
100
AcDbLayerTableRecord
  2
KURVEN
 70
0
 62
7
  6
CONTINUOUS
370
-3
390
F
  0
LAYER
  5
209
100
AcDbSymbolTableRecord
100
AcDbLayerTableRecord
  2
NORM
 70
0
 62
7
  6
CONTINUOUS
370
-3
390
F
  0
LAYER
  5
20A
100
AcDbSymbolTableRecord
100
AcDbLayerTableRecord
  2
PLATZIERUNG
 70
0
 62
7
  6
CONTINUOUS
370
-3
390
F
  0
LAYER
  5
20B
100
AcDbSymbolTableRecord
100
AcDbLayerTableRecord
  2
RUNDUNGEN
 70
0
 62
7
  6
CONTINUOUS
370
-3
390
F
  0
LAYER
  5
20C
100
AcDbSymbolTableRecord
100
AcDbLayerTableRecord
  2
TEIL_STARTBEZUEGE
 70
0
 62
7
  6
CONTINUOUS
370
-3
390
F
  0
LAYER
  5
20D
100
AcDbSymbolTableRecord
100
AcDbLayerTableRecord
  2
T_STARTBEZUEGE
 70
0
 62
7
  6
CONTINUOUS
370
-3
390
F
  0
LAYER
  5
20E
100
AcDbSymbolTableRecord
100
AcDbLayerTableRecord
  2
XSEC_DATUMS
 70
0
 62
7
  6
CONTINUOUS
370
-3
390
F
  0
LAYER
  5
20F
100
AcDbSymbolTableRecord
100
AcDbLayerTableRecord
  2
ZEICHNUNGSBEMASSUNGEN
 70
0
 62
7
  6
CONTINUOUS
370
-3
390
F
  0
ENDTAB
  0
TABLE
  2
STYLE
  5
3
100
AcDbSymbolTable
 70
1
  0
STYLE
  5
11
100
AcDbSymbolTableRecord
100
AcDbTextStyleTableRecord
  2
STANDARD
 70
0
 40
0.0
 41
0.7
 50
0.0
 71
0
 42
0.2
  3
txt
  4

  0
STYLE
  5
210
100
AcDbSymbolTableRecord
100
AcDbTextStyleTableRecord
  2
TEXTSTYLE_1
 70
0
 40
0.0
 41
0.8
 50
0.0
 71
0
 42
0.2
  3
gdt
  4

  0
ENDTAB
  0
TABLE
  2
VIEW
  5
6
100
AcDbSymbolTable
 70
0
  0
ENDTAB
  0
TABLE
  2
UCS
  5
7
100
AcDbSymbolTable
 70
0
  0
ENDTAB
  0
TABLE
  2
APPID
  5
9
100
AcDbSymbolTable
 70
1
  0
APPID
  5
211
100
AcDbSymbolTableRecord
100
AcDbRegAppTableRecord
  2
ACAD
 70
0
  0
ENDTAB
  0
TABLE
  2
BLOCK_RECORD
  5
1
100
AcDbSymbolTable
 70
0
  0
BLOCK_RECORD
  5
212
100
AcDbSymbolTableRecord
100
AcDbBlockTableRecord
  2
*Model_Space
  0
BLOCK_RECORD
  5
213
100
AcDbSymbolTableRecord
100
AcDbBlockTableRecord
  2
*Paper_Space
  0
ENDTAB
  0
TABLE
  2
DIMSTYLE
  5
A
100
AcDbSymbolTable
 70
1
100
AcDbDimStyleTable
 71
0
  0
DIMSTYLE
105
214
100
AcDbSymbolTableRecord
100
AcDbDimStyleTableRecord
  2
STANDARD
 70
0
  3

  4

 40
1.0
 41
3.5
 42
0.0625
 43
0.38
 44
0.18
 45
0.0
 46
0.0
 47
0.005
 48
0.005
140
3.5
141
0.09
142
0.0
143
25.4
144
1.0
145
0.0
146
1.0
147
0.09
 71
1.0
 72
0.0
 73
0
 74
0
 75
0
 76
0
 77
1
 78
8
170
0
171
2
172
0
173
0
174
0
175
0
176
0
177
0
178
5
270
2
271
3
272
3
273
2
274
2
275
0
280
0
281
0
282
0
283
1
284
8
285
0
286
0
287
3
288
0
340
11
  0
ENDTAB
  0
ENDSEC
  0
SECTION
  2
BLOCKS
  0
BLOCK
  5
20
100
AcDbEntity
  8
0
100
AcDbBlockBegin
  2
*Model_Space
 70
0
 10
0.0
 20
0.0
 30
0.0
  3
*Model_Space
  1

  0
ENDBLK
  5
21
100
AcDbEntity
  8
0
100
AcDbBlockEnd
  0
BLOCK
  5
1C
100
AcDbEntity
  8
0
100
AcDbBlockBegin
  2
*Paper_Space
 70
0
 10
0.0
 20
0.0
 30
0.0
  3
*Paper_Space
  1

  0
ENDBLK
  5
1D
100
AcDbEntity
  8
0
100
AcDbBlockEnd
  0
ENDSEC
  0
SECTION
  2
ENTITIES
  0
MTEXT
  5
215
100
AcDbEntity
  8
0
100
AcDbMText
 62
5
  6
CONTINUOUS
  7
STANDARD
 71
2
 72
1
 10
423.7207359131
 20
154.9509705079
 30
0.0
 11
1.0
 21
0.0
 31
0.0
 44
0.9
  1
VRBS-FIX 100t
 40
15.0
 41
147.1428571429
  0
MTEXT
  5
216
100
AcDbEntity
  8
0
100
AcDbMText
 62
5
  6
CONTINUOUS
  7
STANDARD
 71
1
 72
1
 10
1006.0146381579
 20
584.8965460526
 30
0.0
 11
0.0
 21
1.0
 31
0.0
 44
0.9
  1
VRBS-FIX 100t
 40
15.0
 41
147.1428571429
  0
MTEXT
  5
217
100
AcDbEntity
  8
0
100
AcDbMText
 62
5
  6
CONTINUOUS
  7
STANDARD
 71
2
 72
1
 10
420.6339202302
 20
792.3941170964
 30
0.0
 11
1.0
 21
0.0
 31
0.0
 44
0.9
  1
VRBS-FIX 100t
 40
15.0
 41
147.1428571429
  0
LINE
  5
218
100
AcDbEntity
  8
0
100
AcDbLine
 62
7
  6
CONTINUOUS
 10
0.0
 20
0.0
 11
0.0
 21
841.0
  0
LINE
  5
219
100
AcDbEntity
  8
0
100
AcDbLine
 62
7
  6
CONTINUOUS
 10
0.0
 20
0.0
 11
1189.0
 21
0.0
  0
LINE
  5
21A
100
AcDbEntity
  8
0
100
AcDbLine
 62
7
  6
CONTINUOUS
 10
0.0
 20
841.0
 11
1189.0
 21
841.0
  0
LINE
  5
21B
100
AcDbEntity
  8
0
100
AcDbLine
 62
7
  6
CONTINUOUS
 10
1189.0
 20
0.0
 11
1189.0
 21
841.0
  0
LINE
  5
21C
100
AcDbEntity
  8
0
100
AcDbLine
 62
7
  6
CONTINUOUS
 10
65.0539692988
 20
360.9716637767
 11
38.9908180079
 21
392.0325179619
  0
LINE
  5
21D
100
AcDbEntity
  8
0
100
AcDbLine
 62
7
  6
CONTINUOUS
 10
38.9908180079
 20
392.0325179619
 11
38.9908180079
 21
555.9716637767
  0
LINE
  5
21E
100
AcDbEntity
  8
0
100
AcDbLine
 62
7
  6
CONTINUOUS
 10
114.3138180079
 20
432.5000326517
 11
114.3138180079
 21
436.9094616686
  0
LINE
  5
21F
100
AcDbEntity
  8
0
100
AcDbLine
 62
7
  6
CONTINUOUS
 10
114.3138180079
 20
438.821288711
 11
114.3138180079
 21
446.6017980315
  0
LINE
  5
220
100
AcDbEntity
  8
0
100
AcDbLine
 62
7
  6
CONTINUOUS
 10
114.3138180079
 20
451.6079010719
 11
114.3138180079
 21
455.8160716919
  0
LINE
  5
221
100
AcDbEntity
  8
0
100
AcDbLine
 62
7
  6
CONTINUOUS
 10
122.1950126888
 20
446.4484347366
 11
122.1950126888
 21
453.129934348
  0
LINE
  5
222
100
AcDbEntity
  8
0
100
AcDbLine
 62
7
  6
CONTINUOUS
 10
124.0008507075
 20
435.3287615081
 11
124.0008507075
 21
437.2838704798
  0
LINE
  5
223
100
AcDbEntity
  8
0
100
AcDbLine
 62
7
  6
CONTINUOUS
 10
125.600308031
 20
446.5357106578
 11
125.600308031
 21
453.2213334358
  0
LINE
  5
224
100
AcDbEntity
  8
0
100
AcDbLine
 62
7
  6
CONTINUOUS
 10
129.9085232319
 20
446.6366699223
 11
129.9085232319
 21
453.5717396087
  0
LINE
  5
225
100
AcDbEntity
  8
0
100
AcDbLine
 62
7
  6
CONTINUOUS
 10
133.3138180079
 20
433.1897215258
 11
133.3138180079
 21
437.5020944835
  0
LINE
  5
226
100
AcDbEntity
  8
0
100
AcDbLine
 62
7
  6
CONTINUOUS
 10
133.3138180079
 20
439.1009123755
 11
133.3138180079
 21
456.311037962
  0
LINE
  5
227
100
AcDbEntity
  8
0
100
AcDbLine
 62
7
  6
CONTINUOUS
 10
187.927666717
 20
360.9716637767
 11
65.0539692988
 21
360.9716637767
  0
LINE
  5
228
100
AcDbEntity
  8
0
100
AcDbLine
 62
7
  6
CONTINUOUS
 10
653.0539692988
 20
360.9716637767
 11
775.927666717
 21
360.9716637767
  0
LINE
  5
229
100
AcDbEntity
  8
BEZUGSACHSEN
100
AcDbLine
 62
7
  6
CONTINUOUS
 10
204.9908180079
 20
530.9711676634
 11
204.9908180079
 21
381.3067356286
  0
LINE
  5
22A
100
AcDbEntity
  8
BEZUGSACHSEN
100
AcDbLine
 62
7
  6
CONTINUOUS
 10
197.5133547995
 20
629.8800784191
 11
259.2995035597
 21
779.0450367227
  0
LINE
  5
22B
100
AcDbEntity
  8
BEZUGSACHSEN
100
AcDbLine
 62
7
  6
CONTINUOUS
 10
267.4174450619
 20
787.1629782249
 11
414.7505665224
 21
848.1903553206
  0
LINE
  5
22C
100
AcDbEntity
  8
BEZUGSACHSEN
100
AcDbLine
 62
7
  6
CONTINUOUS
 10
671.9124287826
 20
392.0325179619
 11
650.0111492532
 21
392.0325179619
  0
LINE
  5
22D
100
AcDbEntity
  8
0
100
AcDbLine
 62
7
  6
CONTINUOUS
 10
38.9908180079
 20
392.0325179619
 11
169.0692072332
 21
392.0325179619
  0
LINE
  5
22E
100
AcDbEntity
  8
BEZUGSACHSEN
100
AcDbLine
 62
7
  6
CONTINUOUS
 10
169.0692072332
 20
392.0325179619
 11
190.9704867626
 21
392.0325179619
  0
LINE
  5
22F
100
AcDbEntity
  8
0
100
AcDbLine
 62
7
  6
CONTINUOUS
 10
671.9124287826
 20
392.0325179619
 11
801.9908180079
 21
392.0325179619
  0
LINE
  5
230
100
AcDbEntity
  8
BEZUGSACHSEN
100
AcDbLine
 62
7
  6
CONTINUOUS
 10
204.9908180079
 20
530.9716637767
 11
201.0306746364
 21
555.9750249867
  0
LINE
  5
231
100
AcDbEntity
  8
BEZUGSACHSEN
100
AcDbLine
 62
7
  6
CONTINUOUS
 10
216.0934689807
 20
498.4399915237
 11
196.5562226783
 21
621.7933099581
  0
LINE
  5
232
100
AcDbEntity
  8
0
100
AcDbLine
 62
7
  6
CONTINUOUS
 10
219.4608180079
 20
646.3616637767
 11
219.4608180079
 21
636.3616637767
  0
LINE
  5
233
100
AcDbEntity
  8
0
100
AcDbLine
 62
7
  6
CONTINUOUS
 10
219.4608180079
 20
633.0283312381
 11
219.4608180079
 21
630.5283312381
  0
LINE
  5
234
100
AcDbEntity
  8
0
100
AcDbLine
 62
7
  6
CONTINUOUS
 10
219.4608180079
 20
620.5283312381
 11
219.4608180079
 21
618.028330046
  0
LINE
  5
235
100
AcDbEntity
  8
0
100
AcDbLine
 62
7
  6
CONTINUOUS
 10
219.4608180079
 20
608.8616637767
 11
219.4608180079
 21
598.8616637767
  0
LINE
  5
236
100
AcDbEntity
  8
0
100
AcDbLine
 62
7
  6
CONTINUOUS
 10
221.5884773287
 20
601.3616637767
 11
221.5884773287
 21
609.278330046
  0
LINE
  5
237
100
AcDbEntity
  8
0
100
AcDbLine
 62
7
  6
CONTINUOUS
 10
222.0140091929
 20
638.8616637767
 11
222.0140091929
 21
646.3616637767
  0
LINE
  5
238
100
AcDbEntity
  8
0
100
AcDbLine
 62
7
  6
CONTINUOUS
 10
227.9714564833
 20
609.278330046
 11
227.9714564833
 21
601.3616637767
  0
LINE
  5
239
100
AcDbEntity
  8
0
100
AcDbLine
 62
7
  6
CONTINUOUS
 10
230.5246476683
 20
601.3616637767
 11
230.5246476683
 21
608.4449969113
  0
LINE
  5
23A
100
AcDbEntity
  8
0
100
AcDbLine
 62
7
  6
CONTINUOUS
 10
236.9076265249
 20
646.3616637767
 11
236.9076265249
 21
638.8616637767
  0
LINE
  5
23B
100
AcDbEntity
  8
0
100
AcDbLine
 62
7
  6
CONTINUOUS
 10
236.9076265249
 20
626.3616637767
 11
236.9076265249
 21
624.6949963153
  0
LINE
  5
23C
100
AcDbEntity
  8
0
100
AcDbLine
 62
7
  6
CONTINUOUS
 10
239.4608180079
 20
598.8616637767
 11
239.4608180079
 21
601.3616637767
  0
LINE
  5
23D
100
AcDbEntity
  8
0
100
AcDbLine
 62
7
  6
CONTINUOUS
 10
239.4608180079
 20
611.778330046
 11
239.4608180079
 21
614.6949975074
  0
LINE
  5
23E
100
AcDbEntity
  8
0
100
AcDbLine
 62
7
  6
CONTINUOUS
 10
239.4608180079
 20
624.6949963153
 11
239.4608180079
 21
626.3616637767
  0
LINE
  5
23F
100
AcDbEntity
  8
0
100
AcDbLine
 62
7
  6
CONTINUOUS
 10
239.4608180079
 20
636.3616637767
 11
239.4608180079
 21
646.3616637767
  0
LINE
  5
240
100
AcDbEntity
  8
0
100
AcDbLine
 62
7
  6
CONTINUOUS
 10
219.8863498721
 20
648.4449986995
 11
219.4608180079
 21
646.3616637767
  0
LINE
  5
241
100
AcDbEntity
  8
0
100
AcDbLine
 62
7
  6
CONTINUOUS
 10
219.8863498721
 20
610.9449975074
 11
219.4608180079
 21
608.8616637767
  0
LINE
  5
242
100
AcDbEntity
  8
0
100
AcDbLine
 62
7
  6
CONTINUOUS
 10
239.0352861065
 20
622.6116637767
 11
239.4608180079
 21
624.6949963153
  0
LINE
  5
243
100
AcDbEntity
  8
0
100
AcDbLine
 62
7
  6
CONTINUOUS
 10
222.0140091929
 20
646.3616637767
 11
222.4395410571
 21
648.0283288539
  0
LINE
  5
244
100
AcDbEntity
  8
0
100
AcDbLine
 62
7
  6
CONTINUOUS
 10
236.9076265249
 20
624.6949963153
 11
236.4820946607
 21
623.0283312381
  0
LINE
  5
245
100
AcDbEntity
  8
0
100
AcDbLine
 62
7
  6
CONTINUOUS
 10
221.5884773287
 20
609.278330046
 11
222.0140091929
 21
610.528330046
  0
LINE
  5
246
100
AcDbEntity
  8
0
100
AcDbLine
 62
7
  6
CONTINUOUS
 10
220.7374136004
 20
650.1116637767
 11
219.8863498721
 21
648.4449986995
  0
LINE
  5
247
100
AcDbEntity
  8
0
100
AcDbLine
 62
7
  6
CONTINUOUS
 10
222.4395410571
 20
648.0283288539
 11
223.2906047854
 21
649.2783288539
  0
LINE
  5
248
100
AcDbEntity
  8
BEZUGSACHSEN
100
AcDbLine
 62
7
  6
CONTINUOUS
 10
635.9908180079
 20
410.9716637767
 11
537.4908180079
 21
410.9716637767
  0
LINE
  5
249
100
AcDbEntity
  8
BEZUGSACHSEN
100
AcDbLine
 62
7
  6
CONTINUOUS
 10
303.4908180079
 20
410.9716637767
 11
204.9908180079
 21
410.9716637767
  0
LINE
  5
24A
100
AcDbEntity
  8
0
100
AcDbLine
 62
7
  6
CONTINUOUS
 10
169.0692072332
 20
414.3116637767
 11
68.9908180079
 21
414.3116637767
  0
LINE
  5
24B
100
AcDbEntity
  8
RUNDUNGEN
100
AcDbLine
 62
7
  6
CONTINUOUS
 10
671.9124287826
 20
414.3116637767
 11
771.9908180079
 21
414.3116637767
  0
LINE
  5
24C
100
AcDbEntity
  8
RUNDUNGEN
100
AcDbLine
 62
7
  6
CONTINUOUS
 10
316.9072258729
 20
420.9716637767
 11
524.0744101429
 21
420.9716637767
  0
LINE
  5
24D
100
AcDbEntity
  8
0
100
AcDbLine
 62
7
  6
CONTINUOUS
 10
227.5459246191
 20
610.528330046
 11
227.9714564833
 21
609.278330046
  0
LINE
  5
24E
100
AcDbEntity
  8
0
100
AcDbLine
 62
7
  6
CONTINUOUS
 10
238.1842222664
 20
620.9449963153
 11
239.0352861065
 21
622.6116637767
  0
LINE
  5
24F
100
AcDbEntity
  8
0
100
AcDbLine
 62
7
  6
CONTINUOUS
 10
236.4820946607
 20
623.0283312381
 11
235.6310306344
 21
621.7783312381
  0
LINE
  5
250
100
AcDbEntity
  8
0
100
AcDbLine
 62
7
  6
CONTINUOUS
 10
221.1629454646
 20
612.6116637767
 11
219.8863498721
 21
610.9449975074
  0
LINE
  5
251
100
AcDbEntity
  8
0
100
AcDbLine
 62
7
  6
CONTINUOUS
 10
222.4395410571
 20
651.7783288539
 11
220.7374136004
 21
650.1116637767
  0
LINE
  5
252
100
AcDbEntity
  8
BEZUGSACHSEN
100
AcDbLine
 62
7
  6
CONTINUOUS
 10
468.4908180079
 20
444.5719993509
 11
372.4908180079
 21
444.5719993509
  0
LINE
  5
253
100
AcDbEntity
  8
0
100
AcDbLine
 62
7
  6
CONTINUOUS
 10
388.7637306294
 20
448.0561637767
 11
394.1432287535
 21
448.0561637767
  0
LINE
  5
254
100
AcDbEntity
  8
0
100
AcDbLine
 62
7
  6
CONTINUOUS
 10
229.67358394
 20
610.9449975074
 11
228.8225202116
 21
612.6116637767
  0
LINE
  5
255
100
AcDbEntity
  8
0
100
AcDbLine
 62
7
  6
CONTINUOUS
 10
239.0352861065
 20
628.4449963153
 11
238.1842222664
 21
630.1116637767
  0
LINE
  5
256
100
AcDbEntity
  8
0
100
AcDbLine
 62
7
  6
CONTINUOUS
 10
236.4820946607
 20
628.0283312381
 11
236.9076265249
 21
626.3616637767
  0
LINE
  5
257
100
AcDbEntity
  8
0
100
AcDbLine
 62
7
  6
CONTINUOUS
 10
236.4820946607
 20
648.0283288539
 11
236.9076265249
 21
646.3616637767
  0
LINE
  5
258
100
AcDbEntity
  8
0
100
AcDbLine
 62
7
  6
CONTINUOUS
 10
239.4608180079
 20
626.3616637767
 11
239.0352861065
 21
628.4449963153
  0
LINE
  5
259
100
AcDbEntity
  8
0
100
AcDbLine
 62
7
  6
CONTINUOUS
 10
239.4608180079
 20
646.3616637767
 11
239.0352861065
 21
648.4449986995
  0
LINE
  5
25A
100
AcDbEntity
  8
0
100
AcDbLine
 62
7
  6
CONTINUOUS
 10
222.0140091929
 20
610.528330046
 11
222.8650729212
 21
611.3616637767
  0
LINE
  5
25B
100
AcDbEntity
  8
0
100
AcDbLine
 62
7
  6
CONTINUOUS
 10
236.4820946607
 20
619.2783312381
 11
238.1842222664
 21
620.9449963153
  0
LINE
  5
25C
100
AcDbEntity
  8
0
100
AcDbLine
 62
7
  6
CONTINUOUS
 10
222.8650729212
 20
613.8616637767
 11
221.1629454646
 21
612.6116637767
  0
LINE
  5
25D
100
AcDbEntity
  8
0
100
AcDbLine
 62
7
  6
CONTINUOUS
 10
223.2906047854
 20
649.2783288539
 11
224.56720157
 21
650.1116637767
  0
LINE
  5
25E
100
AcDbEntity
  8
0
100
AcDbLine
 62
7
  6
CONTINUOUS
 10
224.1416685137
 20
652.6116637767
 11
222.4395410571
 21
651.7783288539
  0
LINE
  5
25F
100
AcDbEntity
  8
0
100
AcDbLine
 62
7
  6
CONTINUOUS
 10
446.3984901747
 20
464.4227633365
 11
449.230804666
 21
464.4227633365
  0
LINE
  5
260
100
AcDbEntity
  8
0
100
AcDbLine
 62
7
  6
CONTINUOUS
 10
454.6673309645
 20
464.4227633365
 11
458.0508997282
 21
464.4227633365
  0
LINE
  5
261
100
AcDbEntity
  8
0
100
AcDbLine
 62
7
  6
CONTINUOUS
 10
382.4908179483
 20
466.7228309996
 11
388.7637306294
 21
466.7228309996
  0
LINE
  5
262
100
AcDbEntity
  8
0
100
AcDbLine
 62
7
  6
CONTINUOUS
 10
458.0508997282
 20
468.4906518348
 11
454.6673309645
 21
468.4906518348
  0
LINE
  5
263
100
AcDbEntity
  8
0
100
AcDbLine
 62
7
  6
CONTINUOUS
 10
449.230804666
 20
468.4906518348
 11
446.3984901747
 21
468.4906518348
  0
LINE
  5
264
100
AcDbEntity
  8
0
100
AcDbLine
 62
7
  6
CONTINUOUS
 10
454.6673309645
 20
473.9842021354
 11
449.230804666
 21
473.9842021354
  0
LINE
  5
265
100
AcDbEntity
  8
0
100
AcDbLine
 62
7
  6
CONTINUOUS
 10
394.1432287535
 20
475.1057231314
 11
389.9422772965
 21
475.1057231314
  0
LINE
  5
266
100
AcDbEntity
  8
0
100
AcDbLine
 62
7
  6
CONTINUOUS
 10
226.6948608908
 20
611.3616637767
 11
227.5459246191
 21
610.528330046
  0
LINE
  5
267
100
AcDbEntity
  8
0
100
AcDbLine
 62
7
  6
CONTINUOUS
 10
235.6310306344
 20
629.2783312381
 11
236.4820946607
 21
628.0283312381
  0
LINE
  5
268
100
AcDbEntity
  8
0
100
AcDbLine
 62
7
  6
CONTINUOUS
 10
235.6310306344
 20
649.2783288539
 11
236.4820946607
 21
648.0283288539
  0
LINE
  5
269
100
AcDbEntity
  8
0
100
AcDbLine
 62
7
  6
CONTINUOUS
 10
239.0352861065
 20
648.4449986995
 11
238.1842222664
 21
650.1116637767
  0
LINE
  5
26A
100
AcDbEntity
  8
0
100
AcDbLine
 62
7
  6
CONTINUOUS
 10
235.6310306344
 20
621.7783312381
 11
234.3544350419
 21
620.9449963153
  0
LINE
  5
26B
100
AcDbEntity
  8
0
100
AcDbLine
 62
7
  6
CONTINUOUS
 10
234.779966906
 20
618.4449975074
 11
236.4820946607
 21
619.2783312381
  0
LINE
  5
26C
100
AcDbEntity
  8
BEZUGSACHSEN
100
AcDbLine
 62
7
  6
CONTINUOUS
 10
635.9908180079
 20
500.9716637767
 11
633.4850914908
 21
500.9716637767
  0
LINE
  5
26D
100
AcDbEntity
  8
BEZUGSACHSEN
100
AcDbLine
 62
7
  6
CONTINUOUS
 10
207.496544525
 20
500.9716637767
 11
204.9908180079
 21
500.9716637767
  0
LINE
  5
26E
100
AcDbEntity
  8
0
100
AcDbLine
 62
7
  6
CONTINUOUS
 10
633.4850914908
 20
500.9716637767
 11
635.9908180079
 21
500.9716637767
  0
LINE
  5
26F
100
AcDbEntity
  8
0
100
AcDbLine
 62
7
  6
CONTINUOUS
 10
228.8225202116
 20
612.6116637767
 11
227.120392755
 21
613.8616637767
  0
LINE
  5
270
100
AcDbEntity
  8
0
100
AcDbLine
 62
7
  6
CONTINUOUS
 10
238.1842222664
 20
630.1116637767
 11
236.4820946607
 21
631.7783312381
  0
LINE
  5
271
100
AcDbEntity
  8
0
100
AcDbLine
 62
7
  6
CONTINUOUS
 10
238.1842222664
 20
650.1116637767
 11
236.4820946607
 21
651.7783288539
  0
LINE
  5
272
100
AcDbEntity
  8
0
100
AcDbLine
 62
7
  6
CONTINUOUS
 10
239.4608180079
 20
614.6949975074
 11
229.67358394
 21
610.9449975074
  0
LINE
  5
273
100
AcDbEntity
  8
0
100
AcDbLine
 62
7
  6
CONTINUOUS
 10
230.5246476683
 20
608.4449969113
 11
239.4608180079
 21
611.778330046
  0
LINE
  5
274
100
AcDbEntity
  8
0
100
AcDbLine
 62
7
  6
CONTINUOUS
 10
224.1416685137
 20
614.278330046
 11
222.8650729212
 21
613.8616637767
  0
LINE
  5
275
100
AcDbEntity
  8
0
100
AcDbLine
 62
7
  6
CONTINUOUS
 10
222.8650729212
 20
611.3616637767
 11
224.1416685137
 21
611.778330046
  0
LINE
  5
276
100
AcDbEntity
  8
0
100
AcDbLine
 62
7
  6
CONTINUOUS
 10
236.4820946607
 20
631.7783312381
 11
234.779966906
 21
632.6116637767
  0
LINE
  5
277
100
AcDbEntity
  8
0
100
AcDbLine
 62
7
  6
CONTINUOUS
 10
234.3544350419
 20
630.1116637767
 11
235.6310306344
 21
629.2783312381
  0
LINE
  5
278
100
AcDbEntity
  8
0
100
AcDbLine
 62
7
  6
CONTINUOUS
 10
234.3544350419
 20
650.1116637767
 11
235.6310306344
 21
649.2783288539
  0
LINE
  5
279
100
AcDbEntity
  8
BEZUGSACHSEN
100
AcDbLine
 62
7
  6
CONTINUOUS
 10
372.4908180079
 20
444.5719993509
 11
372.4908180079
 21
490.7670531569
  0
LINE
  5
27A
100
AcDbEntity
  8
0
100
AcDbLine
 62
7
  6
CONTINUOUS
 10
382.4908179483
 20
470.4485604651
 11
382.4908179483
 21
466.7228309996
  0
LINE
  5
27B
100
AcDbEntity
  8
0
100
AcDbLine
 62
7
  6
CONTINUOUS
 10
388.7637306294
 20
466.7228309996
 11
388.7637306294
 21
448.0561637767
  0
LINE
  5
27C
100
AcDbEntity
  8
0
100
AcDbLine
 62
7
  6
CONTINUOUS
 10
394.1432287535
 20
448.0561637767
 11
394.1432287535
 21
475.1057231314
  0
LINE
  5
27D
100
AcDbEntity
  8
0
100
AcDbLine
 62
7
  6
CONTINUOUS
 10
201.0306746364
 20
555.9716637767
 11
38.9908180079
 21
555.9716637767
  0
LINE
  5
27E
100
AcDbEntity
  8
0
100
AcDbLine
 62
7
  6
CONTINUOUS
 10
639.9509613794
 20
555.9716637767
 11
801.9908180079
 21
555.9716637767
  0
LINE
  5
27F
100
AcDbEntity
  8
0
100
AcDbLine
 62
7
  6
CONTINUOUS
 10
225.4182652983
 20
611.778330046
 11
226.6948608908
 21
611.3616637767
  0
LINE
  5
280
100
AcDbEntity
  8
0
100
AcDbLine
 62
7
  6
CONTINUOUS
 10
227.120392755
 20
613.8616637767
 11
225.8437971625
 21
614.278330046
  0
LINE
  5
281
100
AcDbEntity
  8
0
100
AcDbLine
 62
7
  6
CONTINUOUS
 10
236.4820946607
 20
651.7783288539
 11
234.779966906
 21
652.6116637767
  0
LINE
  5
282
100
AcDbEntity
  8
BEZUGSACHSEN
100
AcDbLine
 62
7
  6
CONTINUOUS
 10
187.927666717
 20
360.9716637767
 11
204.9908180079
 21
381.3067356286
  0
LINE
  5
283
100
AcDbEntity
  8
0
100
AcDbLine
 62
7
  6
CONTINUOUS
 10
219.4608180079
 20
598.8616637767
 11
239.4608180079
 21
598.8616637767
  0
LINE
  5
284
100
AcDbEntity
  8
0
100
AcDbLine
 62
7
  6
CONTINUOUS
 10
239.4608180079
 20
601.3616637767
 11
230.5246476683
 21
601.3616637767
  0
LINE
  5
285
100
AcDbEntity
  8
0
100
AcDbLine
 62
7
  6
CONTINUOUS
 10
227.9714564833
 20
601.3616637767
 11
221.5884773287
 21
601.3616637767
  0
LINE
  5
286
100
AcDbEntity
  8
0
100
AcDbLine
 62
7
  6
CONTINUOUS
 10
234.779966906
 20
632.6116637767
 11
232.6523075852
 21
633.0283312381
  0
LINE
  5
287
100
AcDbEntity
  8
0
100
AcDbLine
 62
7
  6
CONTINUOUS
 10
232.6523075852
 20
630.5283312381
 11
234.3544350419
 21
630.1116637767
  0
LINE
  5
288
100
AcDbEntity
  8
0
100
AcDbLine
 62
7
  6
CONTINUOUS
 10
232.6523075852
 20
650.5283288539
 11
234.3544350419
 21
650.1116637767
  0
LINE
  5
289
100
AcDbEntity
  8
0
100
AcDbLine
 62
7
  6
CONTINUOUS
 10
446.3984901747
 20
468.4906518348
 11
446.3984901747
 21
464.4227633365
  0
LINE
  5
28A
100
AcDbEntity
  8
0
100
AcDbLine
 62
7
  6
CONTINUOUS
 10
449.230804666
 20
473.9842021354
 11
449.230804666
 21
468.4906518348
  0
LINE
  5
28B
100
AcDbEntity
  8
0
100
AcDbLine
 62
7
  6
CONTINUOUS
 10
449.230804666
 20
464.4227633365
 11
449.230804666
 21
453.9869174249
  0
LINE
  5
28C
100
AcDbEntity
  8
0
100
AcDbLine
 62
7
  6
CONTINUOUS
 10
454.6673309645
 20
454.0249348171
 11
454.6673309645
 21
464.4227633365
  0
LINE
  5
28D
100
AcDbEntity
  8
0
100
AcDbLine
 62
7
  6
CONTINUOUS
 10
454.6673309645
 20
468.4906518348
 11
454.6673309645
 21
473.9842021354
  0
LINE
  5
28E
100
AcDbEntity
  8
0
100
AcDbLine
 62
7
  6
CONTINUOUS
 10
224.1416685137
 20
611.778330046
 11
225.4182652983
 21
611.778330046
  0
LINE
  5
28F
100
AcDbEntity
  8
0
100
AcDbLine
 62
7
  6
CONTINUOUS
 10
225.8437971625
 20
614.278330046
 11
224.1416685137
 21
614.278330046
  0
LINE
  5
290
100
AcDbEntity
  8
0
100
AcDbLine
 62
7
  6
CONTINUOUS
 10
219.4608180079
 20
618.028330046
 11
232.6523075852
 21
618.028330046
  0
LINE
  5
291
100
AcDbEntity
  8
0
100
AcDbLine
 62
7
  6
CONTINUOUS
 10
628.2681362757
 20
620.4816637767
 11
623.7356295645
 21
620.4816637767
  0
LINE
  5
292
100
AcDbEntity
  8
0
100
AcDbLine
 62
7
  6
CONTINUOUS
 10
602.9510198737
 20
620.4816637767
 11
598.4185131625
 21
620.4816637767
  0
LINE
  5
293
100
AcDbEntity
  8
0
100
AcDbLine
 62
7
  6
CONTINUOUS
 10
232.6523075852
 20
620.5283312381
 11
219.4608180079
 21
620.5283312381
  0
LINE
  5
294
100
AcDbEntity
  8
0
100
AcDbLine
 62
7
  6
CONTINUOUS
 10
219.4608180079
 20
630.5283312381
 11
232.6523075852
 21
630.5283312381
  0
LINE
  5
295
100
AcDbEntity
  8
0
100
AcDbLine
 62
7
  6
CONTINUOUS
 10
232.6523075852
 20
633.0283312381
 11
219.4608180079
 21
633.0283312381
  0
LINE
  5
296
100
AcDbEntity
  8
0
100
AcDbLine
 62
7
  6
CONTINUOUS
 10
219.4608180079
 20
636.3616637767
 11
239.4608180079
 21
636.3616637767
  0
LINE
  5
297
100
AcDbEntity
  8
0
100
AcDbLine
 62
7
  6
CONTINUOUS
 10
236.9076265249
 20
638.8616637767
 11
222.0140091929
 21
638.8616637767
  0
LINE
  5
298
100
AcDbEntity
  8
0
100
AcDbLine
 62
7
  6
CONTINUOUS
 10
234.779966906
 20
652.6116637767
 11
232.6523075852
 21
653.0283288539
  0
LINE
  5
299
100
AcDbEntity
  8
BEZUGSACHSEN
100
AcDbLine
 62
7
  6
CONTINUOUS
 10
653.0539692988
 20
360.9716637767
 11
635.9908180079
 21
381.3067356286
  0
LINE
  5
29A
100
AcDbEntity
  8
0
100
AcDbLine
 62
7
  6
CONTINUOUS
 10
458.0508997282
 20
447.6379696205
 11
458.0508997282
 21
451.7248671539
  0
LINE
  5
29B
100
AcDbEntity
  8
0
100
AcDbLine
 62
7
  6
CONTINUOUS
 10
458.0508997282
 20
464.4227633365
 11
458.0508997282
 21
468.4906518348
  0
LINE
  5
29C
100
AcDbEntity
  8
0
100
AcDbLine
 62
7
  6
CONTINUOUS
 10
468.4908180079
 20
444.5719993509
 11
468.4908180079
 21
490.7670531569
  0
LINE
  5
29D
100
AcDbEntity
  8
0
100
AcDbLine
 62
7
  6
CONTINUOUS
 10
234.3544350419
 20
620.9449963153
 11
232.6523075852
 21
620.5283312381
  0
LINE
  5
29E
100
AcDbEntity
  8
0
100
AcDbLine
 62
7
  6
CONTINUOUS
 10
232.6523075852
 20
618.028330046
 11
234.779966906
 21
618.4449975074
  0
LINE
  5
29F
100
AcDbEntity
  8
0
100
AcDbLine
 62
7
  6
CONTINUOUS
 10
615.5933247191
 20
642.9816637767
 11
611.0608180079
 21
642.9816637767
  0
LINE
  5
2A0
100
AcDbEntity
  8
0
100
AcDbLine
 62
7
  6
CONTINUOUS
 10
628.2681362757
 20
645.9816637767
 11
623.7356295645
 21
645.9816637767
  0
LINE
  5
2A1
100
AcDbEntity
  8
0
100
AcDbLine
 62
7
  6
CONTINUOUS
 10
602.9510198737
 20
645.9816637767
 11
598.4185131625
 21
645.9816637767
  0
LINE
  5
2A2
100
AcDbEntity
  8
0
100
AcDbLine
 62
7
  6
CONTINUOUS
 10
226.2693290266
 20
650.5283288539
 11
232.6523075852
 21
650.5283288539
  0
LINE
  5
2A3
100
AcDbEntity
  8
0
100
AcDbLine
 62
7
  6
CONTINUOUS
 10
232.6523075852
 20
653.0283288539
 11
226.2693290266
 21
653.0283288539
  0
LINE
  5
2A4
100
AcDbEntity
  8
0
100
AcDbLine
 62
7
  6
CONTINUOUS
 10
224.56720157
 20
650.1116637767
 11
226.2693290266
 21
650.5283288539
  0
LINE
  5
2A5
100
AcDbEntity
  8
0
100
AcDbLine
 62
7
  6
CONTINUOUS
 10
226.2693290266
 20
653.0283288539
 11
224.1416685137
 21
652.6116637767
  0
LINE
  5
2A6
100
AcDbEntity
  8
0
100
AcDbLine
 62
7
  6
CONTINUOUS
 10
611.0608180079
 20
642.9816637767
 11
611.0608180079
 21
634.2327534388
  0
LINE
  5
2A7
100
AcDbEntity
  8
0
100
AcDbLine
 62
7
  6
CONTINUOUS
 10
615.5933247191
 20
634.2255680283
 11
615.5933247191
 21
642.9816637767
  0
LINE
  5
2A8
100
AcDbEntity
  8
BEZUGSACHSEN
100
AcDbLine
 62
7
  6
CONTINUOUS
 10
635.9908180079
 20
381.3067356286
 11
635.9908180079
 21
530.9711676634
  0
LINE
  5
2A9
100
AcDbEntity
  8
RUNDUNGEN
100
AcDbLine
 62
7
  6
CONTINUOUS
 10
624.8881670351
 20
498.4399915237
 11
644.4254133375
 21
621.7933099581
  0
LINE
  5
2AA
100
AcDbEntity
  8
BEZUGSACHSEN
100
AcDbLine
 62
7
  6
CONTINUOUS
 10
635.9908180079
 20
530.9716637767
 11
639.9509613794
 21
555.9750249867
  0
LINE
  5
2AB
100
AcDbEntity
  8
RUNDUNGEN
100
AcDbLine
 62
7
  6
CONTINUOUS
 10
573.5641909539
 20
787.1629782249
 11
426.2310694934
 21
848.1903553206
  0
LINE
  5
2AC
100
AcDbEntity
  8
RUNDUNGEN
100
AcDbLine
 62
7
  6
CONTINUOUS
 10
643.4682812163
 20
629.8800784191
 11
581.6821324561
 21
779.0450367227
  0
LINE
  5
2AD
100
AcDbEntity
  8
0
100
AcDbLine
 62
7
  6
CONTINUOUS
 10
702.3945198171
 20
438.7768540798
 11
702.3945198171
 21
448.3564826038
  0
LINE
  5
2AE
100
AcDbEntity
  8
0
100
AcDbLine
 62
7
  6
CONTINUOUS
 10
702.3945198171
 20
453.6461172739
 11
702.3945198171
 21
457.7220670453
  0
LINE
  5
2AF
100
AcDbEntity
  8
0
100
AcDbLine
 62
7
  6
CONTINUOUS
 10
702.3945198171
 20
464.2383482168
 11
702.3945198171
 21
468.4378503055
  0
LINE
  5
2B0
100
AcDbEntity
  8
0
100
AcDbLine
 62
7
  6
CONTINUOUS
 10
702.3945198171
 20
469.4168683186
 11
702.3945198171
 21
480.6278954685
  0
LINE
  5
2B1
100
AcDbEntity
  8
0
100
AcDbLine
 62
7
  6
CONTINUOUS
 10
705.3732428663
 20
441.9988407024
 11
705.3732428663
 21
448.0161301537
  0
LINE
  5
2B2
100
AcDbEntity
  8
0
100
AcDbLine
 62
7
  6
CONTINUOUS
 10
705.9689874761
 20
446.8896292897
 11
705.9689874761
 21
448.8772025742
  0
LINE
  5
2B3
100
AcDbEntity
  8
0
100
AcDbLine
 62
7
  6
CONTINUOUS
 10
705.9689874761
 20
472.9101528508
 11
705.9689874761
 21
479.8643967273
  0
LINE
  5
2B4
100
AcDbEntity
  8
0
100
AcDbLine
 62
7
  6
CONTINUOUS
 10
706.5647320859
 20
479.3927185857
 11
706.5647320859
 21
481.3349986682
  0
LINE
  5
2B5
100
AcDbEntity
  8
0
100
AcDbLine
 62
7
  6
CONTINUOUS
 10
707.1604766958
 20
447.3429769715
 11
707.1604766958
 21
449.3177580843
  0
LINE
  5
2B6
100
AcDbEntity
  8
0
100
AcDbLine
 62
7
  6
CONTINUOUS
 10
707.7562213056
 20
480.395484412
 11
707.7562213056
 21
482.326991413
  0
LINE
  5
2B7
100
AcDbEntity
  8
0
100
AcDbLine
 62
7
  6
CONTINUOUS
 10
708.9477105253
 20
447.4057963143
 11
708.9477105253
 21
449.3652351394
  0
LINE
  5
2B8
100
AcDbEntity
  8
0
100
AcDbLine
 62
7
  6
CONTINUOUS
 10
709.543456804
 20
480.9470808082
 11
709.543456804
 21
482.8649955262
  0
LINE
  5
2B9
100
AcDbEntity
  8
0
100
AcDbLine
 62
7
  6
CONTINUOUS
 10
710.7349460237
 20
447.1839646015
 11
710.7349460237
 21
449.1314262037
  0
LINE
  5
2BA
100
AcDbEntity
  8
0
100
AcDbLine
 62
7
  6
CONTINUOUS
 10
711.9264352434
 20
481.0863148666
 11
711.9264352434
 21
482.9901965292
  0
LINE
  5
2BB
100
AcDbEntity
  8
0
100
AcDbLine
 62
7
  6
CONTINUOUS
 10
712.5221798532
 20
446.676457446
 11
712.5221798532
 21
448.6151535456
  0
LINE
  5
2BC
100
AcDbEntity
  8
0
100
AcDbLine
 62
7
  6
CONTINUOUS
 10
713.7136690729
 20
445.9247756363
 11
713.7136690729
 21
447.8599323911
  0
LINE
  5
2BD
100
AcDbEntity
  8
0
100
AcDbLine
 62
7
  6
CONTINUOUS
 10
714.3094136827
 20
446.8397839613
 11
714.3094136827
 21
440.8128072957
  0
LINE
  5
2BE
100
AcDbEntity
  8
0
100
AcDbLine
 62
7
  6
CONTINUOUS
 10
717.8838813417
 20
440.6650996769
 11
717.8838813417
 21
446.0450551
  0
LINE
  5
2BF
100
AcDbEntity
  8
0
100
AcDbLine
 62
7
  6
CONTINUOUS
 10
720.8626052253
 20
451.7917852733
 11
720.8626052253
 21
453.7063523585
  0
LINE
  5
2C0
100
AcDbEntity
  8
0
100
AcDbLine
 62
7
  6
CONTINUOUS
 10
720.8626052253
 20
462.398492338
 11
720.8626052253
 21
464.2981091057
  0
LINE
  5
2C1
100
AcDbEntity
  8
0
100
AcDbLine
 62
7
  6
CONTINUOUS
 10
720.8626052253
 20
480.7798040571
 11
720.8626052253
 21
482.6675989473
  0
LINE
  5
2C2
100
AcDbEntity
  8
0
100
AcDbLine
 62
7
  6
CONTINUOUS
 10
723.2455836647
 20
462.1300069328
 11
723.2455836647
 21
464.0350501376
  0
LINE
  5
2C3
100
AcDbEntity
  8
0
100
AcDbLine
 62
7
  6
CONTINUOUS
 10
723.2455836647
 20
480.4748578096
 11
723.2455836647
 21
482.3677344107
  0
LINE
  5
2C4
100
AcDbEntity
  8
0
100
AcDbLine
 62
7
  6
CONTINUOUS
 10
723.8413282745
 20
452.2671023776
 11
723.8413282745
 21
454.188043726
  0
LINE
  5
2C5
100
AcDbEntity
  8
0
100
AcDbLine
 62
7
  6
CONTINUOUS
 10
725.0328174942
 20
461.5248391661
 11
725.0328174942
 21
463.4371114564
  0
LINE
  5
2C6
100
AcDbEntity
  8
0
100
AcDbLine
 62
7
  6
CONTINUOUS
 10
725.0328174942
 20
479.797095683
 11
725.0328174942
 21
481.6965368439
  0
LINE
  5
2C7
100
AcDbEntity
  8
0
100
AcDbLine
 62
7
  6
CONTINUOUS
 10
726.2243071311
 20
453.1462566895
 11
726.2243071311
 21
455.0761842213
  0
LINE
  5
2C8
100
AcDbEntity
  8
0
100
AcDbLine
 62
7
  6
CONTINUOUS
 10
726.2243071311
 20
460.545330677
 11
726.2243071311
 21
462.4644601115
  0
LINE
  5
2C9
100
AcDbEntity
  8
0
100
AcDbLine
 62
7
  6
CONTINUOUS
 10
726.2243071311
 20
478.7089929977
 11
726.2243071311
 21
480.6143199143
  0
LINE
  5
2CA
100
AcDbEntity
  8
0
100
AcDbLine
 62
7
  6
CONTINUOUS
 10
726.8200517409
 20
479.0979659629
 11
726.8200517409
 21
472.142132407
  0
LINE
  5
2CB
100
AcDbEntity
  8
0
100
AcDbLine
 62
7
  6
CONTINUOUS
 10
726.8200517409
 20
461.0939244828
 11
726.8200517409
 21
459.6727809967
  0
LINE
  5
2CC
100
AcDbEntity
  8
0
100
AcDbLine
 62
7
  6
CONTINUOUS
 10
728.607285779
 20
454.7987312181
 11
728.607285779
 21
456.7407992367
  0
LINE
  5
2CD
100
AcDbEntity
  8
0
100
AcDbLine
 62
7
  6
CONTINUOUS
 10
729.7987751551
 20
456.3579556999
 11
729.7987751551
 21
458.3067161485
  0
LINE
  5
2CE
100
AcDbEntity
  8
0
100
AcDbLine
 62
7
  6
CONTINUOUS
 10
730.3945198171
 20
437.7529726082
 11
730.3945198171
 21
441.5895030522
  0
LINE
  5
2CF
100
AcDbEntity
  8
0
100
AcDbLine
 62
7
  6
CONTINUOUS
 10
730.3945198171
 20
447.6016747747
 11
730.3945198171
 21
451.896614999
  0
LINE
  5
2D0
100
AcDbEntity
  8
0
100
AcDbLine
 62
7
  6
CONTINUOUS
 10
730.3945198171
 20
458.2084460919
 11
730.3945198171
 21
461.5801230516
  0
LINE
  5
2D1
100
AcDbEntity
  8
0
100
AcDbLine
 62
7
  6
CONTINUOUS
 10
730.3945198171
 20
468.4220950149
 11
730.3945198171
 21
479.5803160979
  0
LINE
  5
2D2
100
AcDbEntity
  8
0
100
AcDbLine
 62
7
  6
CONTINUOUS
 10
801.9908180079
 20
555.9716637767
 11
801.9908180079
 21
536.29827374
  0
LINE
  5
2D3
100
AcDbEntity
  8
0
100
AcDbLine
 62
7
  6
CONTINUOUS
 10
801.9908180079
 20
465.8609694194
 11
801.9908180079
 21
392.0325179619
  0
LINE
  5
2D4
100
AcDbEntity
  8
RUNDUNGEN
100
AcDbLine
 62
7
  6
CONTINUOUS
 10
801.9908180079
 20
536.29827374
 11
801.9908180079
 21
392.0325179619
  0
LINE
  5
2D5
100
AcDbEntity
  8
0
100
AcDbLine
 62
7
  6
CONTINUOUS
 10
775.927666717
 20
360.9716637767
 11
801.9908180079
 21
392.0325179619
  0
LINE
  5
2D6
100
AcDbEntity
  8
0
100
AcDbLine
 62
7
  6
CONTINUOUS
 10
876.7838605258
 20
360.9716637767
 11
850.7207092349
 21
392.0325179619
  0
LINE
  5
2D7
100
AcDbEntity
  8
0
100
AcDbLine
 62
7
  6
CONTINUOUS
 10
876.7838605258
 20
360.9716637767
 11
1144.657557944
 21
360.9716637767
  0
LINE
  5
2D8
100
AcDbEntity
  8
0
100
AcDbLine
 62
7
  6
CONTINUOUS
 10
850.7207092349
 20
392.0325179619
 11
1170.7207092349
 21
392.0325179619
  0
LINE
  5
2D9
100
AcDbEntity
  8
0
100
AcDbLine
 62
7
  6
CONTINUOUS
 10
850.7207092349
 20
414.3116637767
 11
850.7207092349
 21
392.0325179619
  0
LINE
  5
2DA
100
AcDbEntity
  8
BEZUGSACHSEN
100
AcDbLine
 62
7
  6
CONTINUOUS
 10
972.2207092349
 20
789.7145355693
 11
972.2207092349
 21
548.4195466175
  0
LINE
  5
2DB
100
AcDbEntity
  8
BEZUGSACHSEN
100
AcDbLine
 62
7
  6
CONTINUOUS
 10
981.7207092349
 20
584.3159538904
 11
981.7207092349
 21
842.332162333
  0
LWPOLYLINE
  5
2DC
100
AcDbEntity
  8
BEZUGSACHSEN
100
AcDbPolyline
 62
7
  6
CONTINUOUS
 90
6
 70
0
 10
981.7207064449
 20
589.0011833929
 10
981.7068377188
 20
588.4484569705
 10
981.6555784221
 20
587.7969424991
 10
981.5679968047
 20
587.1584538766
 10
981.4453230542
 20
586.5342618111
 10
981.2886426645
 20
585.925668956
  0
LWPOLYLINE
  5
2DD
100
AcDbEntity
  8
BEZUGSACHSEN
100
AcDbPolyline
 62
7
  6
CONTINUOUS
 90
33
 70
0
 10
978.4733367125
 20
577.4051398125
 10
978.2452424472
 20
576.6607389572
 10
978.0170825535
 20
575.9032630279
 10
977.7892833693
 20
575.1331772038
 10
977.5622500756
 20
574.3509515421
 10
977.3363452752
 20
573.5568975153
 10
977.1119301623
 20
572.7514041913
 10
976.8892928112
 20
571.9345723697
 10
976.6687190018
 20
571.1065628061
 10
976.4504928167
 20
570.2674821348
 10
976.2348770999
 20
569.4174378955
 10
976.0221469594
 20
568.5565173484
 10
975.8125555717
 20
567.6848036918
 10
975.6063650171
 20
566.8023664915
 10
975.4038299221
 20
565.9092693656
 10
975.2051952749
 20
565.0055711171
 10
975.0107203509
 20
564.0913224694
 10
974.820645093
 20
563.1665705131
 10
974.6352278353
 20
562.2314182638
 10
974.4546864101
 20
561.2857218176
 10
974.2792545742
 20
560.3294938725
 10
974.1091107188
 20
559.3623577615
 10
973.9444705235
 20
558.3840378053
 10
973.7855386704
 20
557.3942255709
 10
973.6325344093
 20
556.3926181434
 10
973.4857037903
 20
555.3789124474
 10
973.3452927119
 20
554.3528039219
 10
973.2115545447
 20
553.3139925279
 10
973.0847711072
 20
552.262174676
 10
972.9652307978
 20
551.1970539627
 10
972.8532279448
 20
550.1183304012
 10
972.7490865168
 20
549.0257191582
 10
972.7135939831
 20
548.616303826
  0
LINE
  5
2DE
100
AcDbEntity
  8
BEZUGSACHSEN
100
AcDbLine
 62
7
  6
CONTINUOUS
 10
981.2886426645
 20
585.925668956
 11
981.1298791286
 21
585.4231265429
  0
LINE
  5
2DF
100
AcDbEntity
  8
BEZUGSACHSEN
100
AcDbLine
 62
7
  6
CONTINUOUS
 10
978.9275157843
 20
578.8526198667
 11
978.4733367125
 21
577.4051398125
  0
LINE
  5
2E0
100
AcDbEntity
  8
BEZUGSACHSEN
100
AcDbLine
 62
7
  6
CONTINUOUS
 10
979.3756972878
 20
580.2410105191
 11
978.9275157843
 21
578.8526198667
  0
LINE
  5
2E1
100
AcDbEntity
  8
BEZUGSACHSEN
100
AcDbLine
 62
7
  6
CONTINUOUS
 10
979.81324296
 20
581.5641002647
 11
979.3756972878
 21
580.2410105191
  0
LINE
  5
2E2
100
AcDbEntity
  8
BEZUGSACHSEN
100
AcDbLine
 62
7
  6
CONTINUOUS
 10
980.2347444503
 20
582.8141987477
 11
979.81324296
 21
581.5641002647
  0
LINE
  5
2E3
100
AcDbEntity
  8
BEZUGSACHSEN
100
AcDbLine
 62
7
  6
CONTINUOUS
 10
981.129862726
 20
585.4230999421
 11
980.2347444503
 21
582.8141987477
  0
LINE
  5
2E4
100
AcDbEntity
  8
0
100
AcDbLine
 62
7
  6
CONTINUOUS
 10
1039.7207092349
 20
598.8616637767
 11
1041.2207092349
 21
598.8616637767
  0
LINE
  5
2E5
100
AcDbEntity
  8
0
100
AcDbLine
 62
7
  6
CONTINUOUS
 10
1039.7207092349
 20
608.8616637767
 11
1041.2207092349
 21
608.8616637767
  0
LINE
  5
2E6
100
AcDbEntity
  8
0
100
AcDbLine
 62
7
  6
CONTINUOUS
 10
1039.7207092349
 20
610.9449975074
 11
1041.2207092349
 21
610.9449975074
  0
LINE
  5
2E7
100
AcDbEntity
  8
0
100
AcDbLine
 62
7
  6
CONTINUOUS
 10
1039.7207092349
 20
612.6116637767
 11
1041.2207092349
 21
612.6116637767
  0
LINE
  5
2E8
100
AcDbEntity
  8
0
100
AcDbLine
 62
7
  6
CONTINUOUS
 10
1039.7207092349
 20
613.8616637767
 11
1041.2207092349
 21
613.8616637767
  0
LINE
  5
2E9
100
AcDbEntity
  8
0
100
AcDbLine
 62
7
  6
CONTINUOUS
 10
1039.7207092349
 20
614.278330046
 11
1041.2207092349
 21
614.278330046
  0
LINE
  5
2EA
100
AcDbEntity
  8
0
100
AcDbLine
 62
7
  6
CONTINUOUS
 10
1039.7207092349
 20
614.6949975074
 11
1041.2207092349
 21
614.6949975074
  0
LINE
  5
2EB
100
AcDbEntity
  8
0
100
AcDbLine
 62
7
  6
CONTINUOUS
 10
1039.7207092349
 20
618.028330046
 11
1041.2207092349
 21
618.028330046
  0
LINE
  5
2EC
100
AcDbEntity
  8
0
100
AcDbLine
 62
7
  6
CONTINUOUS
 10
1039.7207092349
 20
620.5283312381
 11
1041.2207092349
 21
620.5283312381
  0
LINE
  5
2ED
100
AcDbEntity
  8
0
100
AcDbLine
 62
7
  6
CONTINUOUS
 10
1039.7207092349
 20
620.9449963153
 11
1041.2207092349
 21
620.9449963153
  0
LINE
  5
2EE
100
AcDbEntity
  8
0
100
AcDbLine
 62
7
  6
CONTINUOUS
 10
1039.7207092349
 20
621.7783312381
 11
1041.2207092349
 21
621.7783312381
  0
LINE
  5
2EF
100
AcDbEntity
  8
0
100
AcDbLine
 62
7
  6
CONTINUOUS
 10
1039.7207092349
 20
623.0283312381
 11
1041.2207092349
 21
623.0283312381
  0
LINE
  5
2F0
100
AcDbEntity
  8
0
100
AcDbLine
 62
7
  6
CONTINUOUS
 10
1039.7207092349
 20
624.6949963153
 11
1041.2207092349
 21
624.6949963153
  0
LINE
  5
2F1
100
AcDbEntity
  8
0
100
AcDbLine
 62
7
  6
CONTINUOUS
 10
1039.7207092349
 20
626.3616637767
 11
1041.2207092349
 21
626.3616637767
  0
LINE
  5
2F2
100
AcDbEntity
  8
BEZUGSACHSEN
100
AcDbLine
 62
7
  6
CONTINUOUS
 10
1041.2072513565
 20
582.8125000024
 11
1040.3115556882
 21
585.4231001037
  0
LINE
  5
2F3
100
AcDbEntity
  8
BEZUGSACHSEN
100
AcDbLine
 62
7
  6
CONTINUOUS
 10
1041.6290641244
 20
581.561441574
 11
1041.2072513565
 21
582.8125000024
  0
LINE
  5
2F4
100
AcDbEntity
  8
BEZUGSACHSEN
100
AcDbLine
 62
7
  6
CONTINUOUS
 10
1042.0669138501
 20
580.2373630743
 11
1041.6290641244
 21
581.561441574
  0
LWPOLYLINE
  5
2F5
100
AcDbEntity
  8
BEZUGSACHSEN
100
AcDbPolyline
 62
7
  6
CONTINUOUS
 90
34
 70
0
 10
1048.7278277955
 20
548.6163023856
 10
1048.6925619179
 20
549.0231926021
 10
1048.5884604647
 20
550.1156198649
 10
1048.4764997933
 20
551.1941651628
 10
1048.3570038929
 20
552.2591116287
 10
1048.2302671759
 20
553.3107575457
 10
1048.0965781209
 20
554.3493976214
 10
1047.9562187404
 20
555.3753337527
 10
1047.8094426777
 20
556.3888642967
 10
1047.6564960635
 20
557.3902921315
 10
1047.4976252664
 20
558.3799186632
 10
1047.333050005
 20
559.3580451598
 10
1047.1629753788
 20
560.3249781342
 10
1046.9876173343
 20
561.2809924254
 10
1046.807155226
 20
562.2264613212
 10
1046.6218218201
 20
563.1613779636
 10
1046.431834478
 20
564.0858886473
 10
1046.2374502119
 20
564.9998973185
 10
1046.0389074748
 20
565.9033626582
 10
1045.8364639417
 20
566.7962397144
 10
1045.6303630098
 20
567.6784754778
 10
1045.4208572727
 20
568.550012017
 10
1045.2082069632
 20
569.4107855249
 10
1044.9926630278
 20
570.2607184301
 10
1044.774498334
 20
571.0997291235
 10
1044.553973432
 20
571.927715632
 10
1044.3313697717
 20
572.7445770658
 10
1044.1069709511
 20
573.5501574007
 10
1043.8810614482
 20
574.3443641436
 10
1043.6540031164
 20
575.1268026084
 10
1043.426157432
 20
575.8971613587
 10
1043.1979315166
 20
576.6549610533
 10
1042.9697532114
 20
577.3997295439
 10
1042.5153586996
 20
578.8480480261
  0
LINE
  5
2F6
100
AcDbEntity
  8
BEZUGSACHSEN
100
AcDbLine
 62
7
  6
CONTINUOUS
 10
1039.7207092349
 20
584.3159538904
 11
1039.7207092349
 21
842.332162333
  0
LINE
  5
2F7
100
AcDbEntity
  8
0
100
AcDbLine
 62
7
  6
CONTINUOUS
 10
1041.2207092349
 20
653.0283288539
 11
1041.2207092349
 21
636.3616637767
  0
LINE
  5
2F8
100
AcDbEntity
  8
0
100
AcDbLine
 62
7
  6
CONTINUOUS
 10
1041.2207092349
 20
633.0283312381
 11
1041.2207092349
 21
618.028330046
  0
LINE
  5
2F9
100
AcDbEntity
  8
0
100
AcDbLine
 62
7
  6
CONTINUOUS
 10
1041.2207092349
 20
614.6949975074
 11
1041.2207092349
 21
598.8616637767
  0
LINE
  5
2FA
100
AcDbEntity
  8
BEZUGSACHSEN
100
AcDbLine
 62
7
  6
CONTINUOUS
 10
1049.2207092349
 20
789.7145355693
 11
1049.2207092349
 21
548.4195466175
  0
LINE
  5
2FB
100
AcDbEntity
  8
RUNDUNGEN
100
AcDbLine
 62
7
  6
CONTINUOUS
 10
1049.2207092349
 20
789.6509325891
 11
1049.2207092349
 21
548.4195466175
  0
LINE
  5
2FC
100
AcDbEntity
  8
0
100
AcDbLine
 62
7
  6
CONTINUOUS
 10
1039.7207092349
 20
628.0283312381
 11
1041.2207092349
 21
628.0283312381
  0
LINE
  5
2FD
100
AcDbEntity
  8
0
100
AcDbLine
 62
7
  6
CONTINUOUS
 10
1039.7207092349
 20
629.2783312381
 11
1041.2207092349
 21
629.2783312381
  0
LINE
  5
2FE
100
AcDbEntity
  8
0
100
AcDbLine
 62
7
  6
CONTINUOUS
 10
1039.7207092349
 20
630.1116637767
 11
1041.2207092349
 21
630.1116637767
  0
LINE
  5
2FF
100
AcDbEntity
  8
0
100
AcDbLine
 62
7
  6
CONTINUOUS
 10
1039.7207092349
 20
630.5283312381
 11
1041.2207092349
 21
630.5283312381
  0
LINE
  5
300
100
AcDbEntity
  8
0
100
AcDbLine
 62
7
  6
CONTINUOUS
 10
1039.7207092349
 20
633.0283312381
 11
1041.2207092349
 21
633.0283312381
  0
LINE
  5
301
100
AcDbEntity
  8
0
100
AcDbLine
 62
7
  6
CONTINUOUS
 10
1039.7207092349
 20
636.3616637767
 11
1041.2207092349
 21
636.3616637767
  0
LINE
  5
302
100
AcDbEntity
  8
0
100
AcDbLine
 62
7
  6
CONTINUOUS
 10
1039.7207092349
 20
646.3616637767
 11
1041.2207092349
 21
646.3616637767
  0
LINE
  5
303
100
AcDbEntity
  8
BEZUGSACHSEN
100
AcDbLine
 62
7
  6
CONTINUOUS
 10
1042.5153586996
 20
578.8480480261
 11
1042.0669138501
 21
580.2373630743
  0
LWPOLYLINE
  5
304
100
AcDbEntity
  8
BEZUGSACHSEN
100
AcDbPolyline
 62
7
  6
CONTINUOUS
 90
7
 70
0
 10
1040.3115393412
 20
585.4231265429
 10
1040.1527758053
 20
585.925668956
 10
1039.9960954155
 20
586.5342618111
 10
1039.873421665
 20
587.1584538766
 10
1039.7858400477
 20
587.7969424991
 10
1039.7345807509
 20
588.4484569705
 10
1039.7207120249
 20
589.0011833929
  0
LINE
  5
305
100
AcDbEntity
  8
0
100
AcDbLine
 62
7
  6
CONTINUOUS
 10
1039.7207092349
 20
648.4449986995
 11
1041.2207092349
 21
648.4449986995
  0
LINE
  5
306
100
AcDbEntity
  8
0
100
AcDbLine
 62
7
  6
CONTINUOUS
 10
1039.7207092349
 20
650.1116637767
 11
1041.2207092349
 21
650.1116637767
  0
LINE
  5
307
100
AcDbEntity
  8
0
100
AcDbLine
 62
7
  6
CONTINUOUS
 10
1039.7207092349
 20
651.7783288539
 11
1041.2207092349
 21
651.7783288539
  0
LINE
  5
308
100
AcDbEntity
  8
0
100
AcDbLine
 62
7
  6
CONTINUOUS
 10
1039.7207092349
 20
652.6116637767
 11
1041.2207092349
 21
652.6116637767
  0
LINE
  5
309
100
AcDbEntity
  8
0
100
AcDbLine
 62
7
  6
CONTINUOUS
 10
1039.7207092349
 20
653.0283288539
 11
1041.2207092349
 21
653.0283288539
  0
LINE
  5
30A
100
AcDbEntity
  8
0
100
AcDbLine
 62
7
  6
CONTINUOUS
 10
1170.7207092349
 20
414.3116637767
 11
1170.7207092349
 21
392.0325179619
  0
LINE
  5
30B
100
AcDbEntity
  8
0
100
AcDbLine
 62
7
  6
CONTINUOUS
 10
988.7207092349
 20
849.332162333
 11
1032.7207092349
 21
849.332162333
  0
LINE
  5
30C
100
AcDbEntity
  8
0
100
AcDbLine
 62
7
  6
CONTINUOUS
 10
1170.7207092349
 20
392.0325179619
 11
1144.657557944
 21
360.9716637767
  0
LINE
  5
30D
100
AcDbEntity
  8
0
100
AcDbLine
 62
7
  6
CONTINUOUS
 10
38.9908180079
 20
16.5215460526
 11
38.9908180079
 21
206.7405571034
  0
LINE
  5
30E
100
AcDbEntity
  8
RUNDUNGEN
100
AcDbLine
 62
7
  6
CONTINUOUS
 10
38.9908180079
 20
206.7405571034
 11
38.9908180079
 21
276.5215460526
  0
LINE
  5
30F
100
AcDbEntity
  8
0
100
AcDbLine
 62
7
  6
CONTINUOUS
 10
110.5871161987
 20
225.3766970503
 11
110.5871161987
 21
237.8906950151
  0
LINE
  5
310
100
AcDbEntity
  8
0
100
AcDbLine
 62
7
  6
CONTINUOUS
 10
110.5871161987
 20
246.959154561
 11
110.5871161987
 21
250.7873963991
  0
LINE
  5
311
100
AcDbEntity
  8
0
100
AcDbLine
 62
7
  6
CONTINUOUS
 10
110.5871161987
 20
260.3583083786
 11
110.5871161987
 21
265.7734314284
  0
LINE
  5
312
100
AcDbEntity
  8
0
100
AcDbLine
 62
7
  6
CONTINUOUS
 10
110.5871161987
 20
276.4242695582
 11
110.5871161987
 21
281.5247843299
  0
LINE
  5
313
100
AcDbEntity
  8
0
100
AcDbLine
 62
7
  6
CONTINUOUS
 10
111.1828608607
 20
223.1393244742
 11
111.1828608607
 21
225.0674960769
  0
LINE
  5
314
100
AcDbEntity
  8
0
100
AcDbLine
 62
7
  6
CONTINUOUS
 10
111.1828608607
 20
244.5406753505
 11
111.1828608607
 21
246.482557819
  0
LINE
  5
315
100
AcDbEntity
  8
0
100
AcDbLine
 62
7
  6
CONTINUOUS
 10
112.3743502368
 20
221.2714850013
 11
112.3743502368
 21
223.190416878
  0
LINE
  5
316
100
AcDbEntity
  8
0
100
AcDbLine
 62
7
  6
CONTINUOUS
 10
112.3743502368
 20
242.5277512045
 11
112.3743502368
 21
244.459072269
  0
LINE
  5
317
100
AcDbEntity
  8
0
100
AcDbLine
 62
7
  6
CONTINUOUS
 10
114.1615842749
 20
226.8280749117
 11
114.1615842749
 21
234.7214837607
  0
LINE
  5
318
100
AcDbEntity
  8
0
100
AcDbLine
 62
7
  6
CONTINUOUS
 10
114.1615842749
 20
248.422013178
 11
114.1615842749
 21
250.300702911
  0
LINE
  5
319
100
AcDbEntity
  8
0
100
AcDbLine
 62
7
  6
CONTINUOUS
 10
114.3138180079
 20
39.4661198509
 11
114.3138180079
 21
34.335581342
  0
LINE
  5
31A
100
AcDbEntity
  8
0
100
AcDbLine
 62
7
  6
CONTINUOUS
 10
114.3138180079
 20
25.9697170062
 11
114.3138180079
 21
20.6760223339
  0
LINE
  5
31B
100
AcDbEntity
  8
0
100
AcDbLine
 62
7
  6
CONTINUOUS
 10
114.3138180079
 20
20.5882955771
 11
114.3138180079
 21
14.6583281458
  0
LINE
  5
31C
100
AcDbEntity
  8
0
100
AcDbLine
 62
7
  6
CONTINUOUS
 10
114.3138180079
 20
9.9691456362
 11
114.3138180079
 21
3.6288452727
  0
LINE
  5
31D
100
AcDbEntity
  8
0
100
AcDbLine
 62
7
  6
CONTINUOUS
 10
114.7573288847
 20
219.3117901654
 11
114.7573288847
 21
221.2161525094
  0
LINE
  5
31E
100
AcDbEntity
  8
0
100
AcDbLine
 62
7
  6
CONTINUOUS
 10
114.7573288847
 20
240.4228128084
 11
114.7573288847
 21
242.3382218516
  0
LINE
  5
31F
100
AcDbEntity
  8
0
100
AcDbLine
 62
7
  6
CONTINUOUS
 10
114.7573288847
 20
250.2036965479
 11
114.7573288847
 21
252.1286277376
  0
LINE
  5
320
100
AcDbEntity
  8
0
100
AcDbLine
 62
7
  6
CONTINUOUS
 10
115.9488185216
 20
251.5229914149
 11
115.9488185216
 21
253.4439348311
  0
LINE
  5
321
100
AcDbEntity
  8
0
100
AcDbLine
 62
7
  6
CONTINUOUS
 10
117.1403077413
 20
218.2799108689
 11
117.1403077413
 21
220.1741418691
  0
LINE
  5
322
100
AcDbEntity
  8
0
100
AcDbLine
 62
7
  6
CONTINUOUS
 10
117.1403077413
 20
239.3182154847
 11
117.1403077413
 21
241.2228121065
  0
LINE
  5
323
100
AcDbEntity
  8
0
100
AcDbLine
 62
7
  6
CONTINUOUS
 10
117.7360523511
 20
252.3542766086
 11
117.7360523511
 21
254.2698728416
  0
LINE
  5
324
100
AcDbEntity
  8
0
100
AcDbLine
 62
7
  6
CONTINUOUS
 10
120.1190307905
 20
217.728803659
 11
120.1190307905
 21
219.616129139
  0
LINE
  5
325
100
AcDbEntity
  8
0
100
AcDbLine
 62
7
  6
CONTINUOUS
 10
120.1190307905
 20
238.7306184906
 11
120.1190307905
 21
240.6279596782
  0
LINE
  5
326
100
AcDbEntity
  8
0
100
AcDbLine
 62
7
  6
CONTINUOUS
 10
120.1190307905
 20
252.735532919
 11
120.1190307905
 21
254.6466230229
  0
LINE
  5
327
100
AcDbEntity
  8
0
100
AcDbLine
 62
7
  6
CONTINUOUS
 10
122.1950126888
 20
34.7486227315
 11
122.1950126888
 21
27.7769289638
  0
LINE
  5
328
100
AcDbEntity
  8
0
100
AcDbLine
 62
7
  6
CONTINUOUS
 10
123.0977546741
 20
277.4906630552
 11
123.0977546741
 21
268.8463343782
  0
LINE
  5
329
100
AcDbEntity
  8
0
100
AcDbLine
 62
7
  6
CONTINUOUS
 10
124.0008507075
 20
15.6245425251
 11
124.0008507075
 21
13.6766686804
  0
LINE
  5
32A
100
AcDbEntity
  8
0
100
AcDbLine
 62
7
  6
CONTINUOUS
 10
124.2892438938
 20
263.9530732801
 11
124.2892438938
 21
265.8795210264
  0
LINE
  5
32B
100
AcDbEntity
  8
0
100
AcDbLine
 62
7
  6
CONTINUOUS
 10
125.4807331134
 20
262.0209719793
 11
125.4807331134
 21
263.9470155622
  0
LINE
  5
32C
100
AcDbEntity
  8
0
100
AcDbLine
 62
7
  6
CONTINUOUS
 10
125.600308031
 20
27.685076786
 11
125.600308031
 21
34.6572236437
  0
LINE
  5
32D
100
AcDbEntity
  8
0
100
AcDbLine
 62
7
  6
CONTINUOUS
 10
126.6722223331
 20
267.99114781
 11
126.6722223331
 21
277.638370674
  0
LINE
  5
32E
100
AcDbEntity
  8
0
100
AcDbLine
 62
7
  6
CONTINUOUS
 10
127.8637115528
 20
260.6949994021
 11
127.8637115528
 21
262.6268813737
  0
LINE
  5
32F
100
AcDbEntity
  8
0
100
AcDbLine
 62
7
  6
CONTINUOUS
 10
129.0552007724
 20
218.0352387781
 11
129.0552007724
 21
219.9386457262
  0
LINE
  5
330
100
AcDbEntity
  8
0
100
AcDbLine
 62
7
  6
CONTINUOUS
 10
129.6509453823
 20
260.3673278613
 11
129.6509453823
 21
262.3071887285
  0
LINE
  5
331
100
AcDbEntity
  8
0
100
AcDbLine
 62
7
  6
CONTINUOUS
 10
129.9085232319
 20
34.3068174708
 11
129.9085232319
 21
26.3220336892
  0
LINE
  5
332
100
AcDbEntity
  8
0
100
AcDbLine
 62
7
  6
CONTINUOUS
 10
132.0339254905
 20
218.7938272282
 11
132.0339254905
 21
220.7153929588
  0
LINE
  5
333
100
AcDbEntity
  8
0
100
AcDbLine
 62
7
  6
CONTINUOUS
 10
132.0339254905
 20
260.6526357023
 11
132.0339254905
 21
262.6078621182
  0
LINE
  5
334
100
AcDbEntity
  8
0
100
AcDbLine
 62
7
  6
CONTINUOUS
 10
133.3138180079
 20
3.4973202827
 11
133.3138180079
 21
9.6395609864
  0
LINE
  5
335
100
AcDbEntity
  8
0
100
AcDbLine
 62
7
  6
CONTINUOUS
 10
133.3138180079
 20
13.8231086232
 11
133.3138180079
 21
19.9093395669
  0
LINE
  5
336
100
AcDbEntity
  8
0
100
AcDbLine
 62
7
  6
CONTINUOUS
 10
133.3138180079
 20
20.1748870647
 11
133.3138180079
 21
25.4956640807
  0
LINE
  5
337
100
AcDbEntity
  8
0
100
AcDbLine
 62
7
  6
CONTINUOUS
 10
133.3138180079
 20
25.8521138514
 11
133.3138180079
 21
38.9965383195
  0
LINE
  5
338
100
AcDbEntity
  8
0
100
AcDbLine
 62
7
  6
CONTINUOUS
 10
133.82115932
 20
261.4094869379
 11
133.82115932
 21
263.3799689653
  0
LINE
  5
339
100
AcDbEntity
  8
0
100
AcDbLine
 62
7
  6
CONTINUOUS
 10
134.4169039298
 20
219.9951714652
 11
134.4169039298
 21
221.9364621957
  0
LINE
  5
33A
100
AcDbEntity
  8
0
100
AcDbLine
 62
7
  6
CONTINUOUS
 10
135.0126485397
 20
235.4895042046
 11
135.0126485397
 21
227.5945056761
  0
LINE
  5
33B
100
AcDbEntity
  8
0
100
AcDbLine
 62
7
  6
CONTINUOUS
 10
135.6083931495
 20
278.8244040807
 11
135.6083931495
 21
269.1674940024
  0
LINE
  5
33C
100
AcDbEntity
  8
0
100
AcDbLine
 62
7
  6
CONTINUOUS
 10
136.2041377593
 20
263.3131191507
 11
136.2041377593
 21
265.3095624189
  0
LINE
  5
33D
100
AcDbEntity
  8
0
100
AcDbLine
 62
7
  6
CONTINUOUS
 10
136.7998823692
 20
222.1287622213
 11
136.7998823692
 21
224.0949837085
  0
LINE
  5
33E
100
AcDbEntity
  8
0
100
AcDbLine
 62
7
  6
CONTINUOUS
 10
137.9913715888
 20
224.0857313976
 11
137.9913715888
 21
226.0667507709
  0
LINE
  5
33F
100
AcDbEntity
  8
0
100
AcDbLine
 62
7
  6
CONTINUOUS
 10
137.9913715888
 20
265.6696066814
 11
137.9913715888
 21
267.6905269528
  0
LINE
  5
340
100
AcDbEntity
  8
0
100
AcDbLine
 62
7
  6
CONTINUOUS
 10
138.5871161987
 20
226.3685215463
 11
138.5871161987
 21
238.9414434498
  0
LINE
  5
341
100
AcDbEntity
  8
0
100
AcDbLine
 62
7
  6
CONTINUOUS
 10
138.5871161987
 20
240.5682709584
 11
138.5871161987
 21
245.3176331699
  0
LINE
  5
342
100
AcDbEntity
  8
0
100
AcDbLine
 62
7
  6
CONTINUOUS
 10
138.5871161987
 20
254.5864982296
 11
138.5871161987
 21
259.4901568197
  0
LINE
  5
343
100
AcDbEntity
  8
0
100
AcDbLine
 62
7
  6
CONTINUOUS
 10
138.5871161987
 20
268.3000136062
 11
138.5871161987
 21
282.6068418709
  0
LINE
  5
344
100
AcDbEntity
  8
BEZUGSACHSEN
100
AcDbLine
 62
7
  6
CONTINUOUS
 10
196.3715477872
 20
168.5215460526
 11
196.3715477872
 21
124.5215460526
  0
LINE
  5
345
100
AcDbEntity
  8
BEZUGSACHSEN
100
AcDbLine
 62
7
  6
CONTINUOUS
 10
204.9908180079
 20
221.5211008441
 11
204.9908180079
 21
175.5215460526
  0
LINE
  5
346
100
AcDbEntity
  8
BEZUGSACHSEN
100
AcDbLine
 62
7
  6
CONTINUOUS
 10
204.9908180079
 20
117.5215460526
 11
204.9908180079
 21
71.5219912611
  0
LINE
  5
347
100
AcDbEntity
  8
0
100
AcDbLine
 62
7
  6
CONTINUOUS
 10
219.4608180079
 20
117.5215460526
 11
219.4608180079
 21
116.0215460526
  0
LINE
  5
348
100
AcDbEntity
  8
0
100
AcDbLine
 62
7
  6
CONTINUOUS
 10
219.8863498721
 20
117.5215460526
 11
219.8863498721
 21
116.0215460526
  0
LINE
  5
349
100
AcDbEntity
  8
0
100
AcDbLine
 62
7
  6
CONTINUOUS
 10
220.7374136004
 20
117.5215460526
 11
220.7374136004
 21
116.0215460526
  0
LINE
  5
34A
100
AcDbEntity
  8
0
100
AcDbLine
 62
7
  6
CONTINUOUS
 10
222.4395410571
 20
117.5215460526
 11
222.4395410571
 21
116.0215460526
  0
LINE
  5
34B
100
AcDbEntity
  8
0
100
AcDbLine
 62
7
  6
CONTINUOUS
 10
224.1416685137
 20
117.5215460526
 11
224.1416685137
 21
116.0215460526
  0
LINE
  5
34C
100
AcDbEntity
  8
0
100
AcDbLine
 62
7
  6
CONTINUOUS
 10
226.2693290266
 20
117.5215460526
 11
226.2693290266
 21
116.0215460526
  0
LINE
  5
34D
100
AcDbEntity
  8
BEZUGSACHSEN
100
AcDbLine
 62
7
  6
CONTINUOUS
 10
204.9908180079
 20
71.5215460526
 11
195.1868719976
 21
9.6218670804
  0
LINE
  5
34E
100
AcDbEntity
  8
BEZUGSACHSEN
100
AcDbLine
 62
7
  6
CONTINUOUS
 10
204.9908180079
 20
221.5215460526
 11
195.1868719976
 21
283.4212250248
  0
LINE
  5
34F
100
AcDbEntity
  8
0
100
AcDbLine
 62
7
  6
CONTINUOUS
 10
232.6523075852
 20
117.5215460526
 11
232.6523075852
 21
116.0215460526
  0
LINE
  5
350
100
AcDbEntity
  8
0
100
AcDbLine
 62
7
  6
CONTINUOUS
 10
234.779966906
 20
117.5215460526
 11
234.779966906
 21
116.0215460526
  0
LINE
  5
351
100
AcDbEntity
  8
0
100
AcDbLine
 62
7
  6
CONTINUOUS
 10
236.4820946607
 20
117.5215460526
 11
236.4820946607
 21
116.0215460526
  0
LINE
  5
352
100
AcDbEntity
  8
0
100
AcDbLine
 62
7
  6
CONTINUOUS
 10
238.1842222664
 20
117.5215460526
 11
238.1842222664
 21
116.0215460526
  0
LINE
  5
353
100
AcDbEntity
  8
0
100
AcDbLine
 62
7
  6
CONTINUOUS
 10
239.0352861065
 20
117.5215460526
 11
239.0352861065
 21
116.0215460526
  0
LINE
  5
354
100
AcDbEntity
  8
0
100
AcDbLine
 62
7
  6
CONTINUOUS
 10
239.4608180079
 20
117.5215460526
 11
239.4608180079
 21
116.0215460526
  0
LINE
  5
355
100
AcDbEntity
  8
0
100
AcDbLine
 62
7
  6
CONTINUOUS
 10
169.0692072332
 20
-13.4784539474
 11
68.9908180079
 21
-13.4784539474
  0
LINE
  5
356
100
AcDbEntity
  8
RUNDUNGEN
100
AcDbLine
 62
7
  6
CONTINUOUS
 10
671.9124287826
 20
-13.4784539474
 11
771.9908180079
 21
-13.4784539474
  0
LWPOLYLINE
  5
357
100
AcDbEntity
  8
BEZUGSACHSEN
100
AcDbPolyline
 62
7
  6
CONTINUOUS
 90
21
 70
0
 10
309.4438392732
 20
104.8389480587
 10
309.5444225792
 20
104.9963252341
 10
309.682670899
 20
105.1974143382
 10
309.8398630223
 20
105.4079582379
 10
310.0167525998
 20
105.6254970654
 10
310.2140435919
 20
105.8476021689
 10
310.4324834617
 20
106.0719624189
 10
310.6726495745
 20
106.2961399133
 10
310.9348399445
 20
106.5175225979
 10
311.219257524
 20
106.7335313472
 10
311.525533259
 20
106.9413021469
 10
311.8534344221
 20
107.1382521121
 10
312.2011618005
 20
107.3211313381
 10
312.5670619758
 20
107.4872411926
 10
312.9483599477
 20
107.633856624
 10
313.342100763
 20
107.7588002219
 10
313.7452163036
 20
107.8604420521
 10
314.1543656667
 20
107.9376520176
 10
314.5662244057
 20
107.9898685137
 10
314.9764520549
 20
108.0170254537
 10
315.2260113912
 20
108.0215496934
  0
LINE
  5
358
100
AcDbEntity
  8
BEZUGSACHSEN
100
AcDbLine
 62
7
  6
CONTINUOUS
 10
204.9908180079
 20
101.5215460526
 11
303.4908180079
 21
101.5215460526
  0
LINE
  5
359
100
AcDbEntity
  8
0
100
AcDbLine
 62
7
  6
CONTINUOUS
 10
537.4908180079
 20
101.5215460526
 11
635.9908180079
 21
101.5215460526
  0
LINE
  5
35A
100
AcDbEntity
  8
RUNDUNGEN
100
AcDbLine
 62
7
  6
CONTINUOUS
 10
623.5606841108
 20
108.0215460526
 11
598.1101916805
 21
108.0215460526
  0
LINE
  5
35B
100
AcDbEntity
  8
BEZUGSACHSEN
100
AcDbLine
 62
7
  6
CONTINUOUS
 10
584.2337402169
 20
108.0215460526
 11
256.7478957989
 21
108.0215460526
  0
LINE
  5
35C
100
AcDbEntity
  8
RUNDUNGEN
100
AcDbLine
 62
7
  6
CONTINUOUS
 10
584.2033131362
 20
108.0215460526
 11
256.7544199082
 21
108.0215460526
  0
LINE
  5
35D
100
AcDbEntity
  8
BEZUGSACHSEN
100
AcDbLine
 62
7
  6
CONTINUOUS
 10
217.420951905
 20
108.0215460526
 11
242.8714443353
 21
108.0215460526
  0
LINE
  5
35E
100
AcDbEntity
  8
0
100
AcDbLine
 62
7
  6
CONTINUOUS
 10
628.3433243474
 20
116.0215460526
 11
598.3433250907
 21
116.0215460526
  0
LINE
  5
35F
100
AcDbEntity
  8
0
100
AcDbLine
 62
7
  6
CONTINUOUS
 10
239.4608180079
 20
116.0215460526
 11
219.4608180079
 21
116.0215460526
  0
LINE
  5
360
100
AcDbEntity
  8
RUNDUNGEN
100
AcDbLine
 62
7
  6
CONTINUOUS
 10
637.6100441082
 20
117.5215460526
 11
423.5522854668
 21
117.5215460526
  0
LINE
  5
361
100
AcDbEntity
  8
BEZUGSACHSEN
100
AcDbLine
 62
7
  6
CONTINUOUS
 10
203.3742891874
 20
117.5215460526
 11
423.5522854668
 21
117.5215460526
  0
LWPOLYLINE
  5
362
100
AcDbEntity
  8
RUNDUNGEN
100
AcDbPolyline
 62
7
  6
CONTINUOUS
 90
21
 70
0
 10
525.7556236334
 20
108.0215496932
 10
526.0188566015
 20
108.0165160103
 10
526.4295506532
 20
107.9884928578
 10
526.8417565772
 20
107.9353539114
 10
527.2511384752
 20
107.857183609
 10
527.6543763589
 20
107.7545592023
 10
528.0481330322
 20
107.62862651
 10
528.4293471939
 20
107.4810296673
 10
528.7950707249
 20
107.3139601041
 10
529.1425373856
 20
107.1301560157
 10
529.4701047399
 20
106.9323247888
 10
529.7759923874
 20
106.7237197926
 10
530.0599573161
 20
106.5069425084
 10
530.3216309838
 20
106.2848729011
 10
530.5612155201
 20
106.0601084089
 10
530.7790105897
 20
105.8352804486
 10
530.9755991784
 20
105.6128438156
 10
531.1517319867
 20
105.3951307627
 10
531.3081302733
 20
105.1845748666
 10
531.4455567374
 20
104.9836499844
 10
531.5377958232
 20
104.838949545
  0
LINE
  5
363
100
AcDbEntity
  8
BEZUGSACHSEN
100
AcDbLine
 62
7
  6
CONTINUOUS
 10
203.3742891874
 20
175.5215460526
 11
637.6100441082
 21
175.5215460526
  0
LINE
  5
364
100
AcDbEntity
  8
0
100
AcDbLine
 62
7
  6
CONTINUOUS
 10
602.6708180079
 20
177.0215460526
 11
622.6708180079
 21
177.0215460526
  0
LINE
  5
365
100
AcDbEntity
  8
BEZUGSACHSEN
100
AcDbLine
 62
7
  6
CONTINUOUS
 10
623.5606841108
 20
185.0215460526
 11
598.1101967549
 21
185.0215460526
  0
LINE
  5
366
100
AcDbEntity
  8
BEZUGSACHSEN
100
AcDbLine
 62
7
  6
CONTINUOUS
 10
584.2337402169
 20
185.0215460526
 11
256.7478957989
 21
185.0215460526
  0
LINE
  5
367
100
AcDbEntity
  8
BEZUGSACHSEN
100
AcDbLine
 62
7
  6
CONTINUOUS
 10
217.420951905
 20
185.0215460526
 11
242.8714443353
 21
185.0215460526
  0
LINE
  5
368
100
AcDbEntity
  8
BEZUGSACHSEN
100
AcDbLine
 62
7
  6
CONTINUOUS
 10
635.9908180079
 20
191.5215460526
 11
537.4908180079
 21
191.5215460526
  0
LINE
  5
369
100
AcDbEntity
  8
BEZUGSACHSEN
100
AcDbLine
 62
7
  6
CONTINUOUS
 10
303.4908180079
 20
191.5215460526
 11
204.9908180079
 21
191.5215460526
  0
LWPOLYLINE
  5
36A
100
AcDbEntity
  8
BEZUGSACHSEN
100
AcDbPolyline
 62
7
  6
CONTINUOUS
 90
21
 70
0
 10
315.2260123824
 20
185.021542412
 10
314.9627794143
 20
185.026576095
 10
314.5520853625
 20
185.0545992475
 10
314.1398794386
 20
185.1077381938
 10
313.7304975406
 20
185.1859084963
 10
313.3272596569
 20
185.288532903
 10
312.9335029836
 20
185.4144655953
 10
312.5522888219
 20
185.562062438
 10
312.1865652909
 20
185.7291320012
 10
311.8390986302
 20
185.9129360896
 10
311.5115312759
 20
186.1107673165
 10
311.2056436284
 20
186.3193723127
 10
310.9216786997
 20
186.5361495969
 10
310.6600050319
 20
186.7582192042
 10
310.4204204957
 20
186.9829836964
 10
310.2026254261
 20
187.2078116566
 10
310.0060368374
 20
187.4302482896
 10
309.8299040291
 20
187.6479613426
 10
309.6735057425
 20
187.8585172386
 10
309.5360792784
 20
188.0594421209
 10
309.4438401926
 20
188.2041425603
  0
LWPOLYLINE
  5
36B
100
AcDbEntity
  8
BEZUGSACHSEN
100
AcDbPolyline
 62
7
  6
CONTINUOUS
 90
21
 70
0
 10
531.5377967426
 20
188.2041440466
 10
531.4372134366
 20
188.0467668711
 10
531.2989651168
 20
187.8456777671
 10
531.1417729934
 20
187.6351338674
 10
530.964883416
 20
187.4175950399
 10
530.7675924239
 20
187.1954899364
 10
530.5491525541
 20
186.9711296864
 10
530.3089864413
 20
186.746952192
 10
530.0467960713
 20
186.5255695074
 10
529.7623784918
 20
186.3095607581
 10
529.4561027568
 20
186.1017899584
 10
529.1282015937
 20
185.9048399932
 10
528.7804742153
 20
185.7219607672
 10
528.4145740399
 20
185.5558509127
 10
528.0332760681
 20
185.4092354813
 10
527.6395352528
 20
185.2842918834
 10
527.2364197122
 20
185.1826500531
 10
526.8272703491
 20
185.1054400877
 10
526.4154116101
 20
185.0532235915
 10
526.0051839609
 20
185.0260666515
 10
525.7556246246
 20
185.0215424119
  0
LINE
  5
36C
100
AcDbEntity
  8
RUNDUNGEN
100
AcDbLine
 62
7
  6
CONTINUOUS
 10
169.0692072332
 20
306.5215460526
 11
68.9908180079
 21
306.5215460526
  0
LINE
  5
36D
100
AcDbEntity
  8
0
100
AcDbLine
 62
7
  6
CONTINUOUS
 10
671.9124287826
 20
306.5215460526
 11
771.9908180079
 21
306.5215460526
  0
LINE
  5
36E
100
AcDbEntity
  8
0
100
AcDbLine
 62
7
  6
CONTINUOUS
 10
598.3433247191
 20
117.5215460526
 11
598.3433247191
 21
116.0215460526
  0
LINE
  5
36F
100
AcDbEntity
  8
0
100
AcDbLine
 62
7
  6
CONTINUOUS
 10
598.4185131625
 20
117.5215460526
 11
598.4185131625
 21
116.0215460526
  0
LINE
  5
370
100
AcDbEntity
  8
0
100
AcDbLine
 62
7
  6
CONTINUOUS
 10
602.6708180079
 20
175.5215460526
 11
602.6708180079
 21
177.0215460526
  0
LINE
  5
371
100
AcDbEntity
  8
0
100
AcDbLine
 62
7
  6
CONTINUOUS
 10
602.9510198737
 20
117.5215460526
 11
602.9510198737
 21
116.0215460526
  0
LINE
  5
372
100
AcDbEntity
  8
0
100
AcDbLine
 62
7
  6
CONTINUOUS
 10
603.0963499093
 20
175.5215460526
 11
603.0963499093
 21
177.0215460526
  0
LINE
  5
373
100
AcDbEntity
  8
0
100
AcDbLine
 62
7
  6
CONTINUOUS
 10
603.9474137494
 20
175.5215460526
 11
603.9474137494
 21
177.0215460526
  0
LINE
  5
374
100
AcDbEntity
  8
0
100
AcDbLine
 62
7
  6
CONTINUOUS
 10
605.6495413551
 20
175.5215460526
 11
605.6495413551
 21
177.0215460526
  0
LINE
  5
375
100
AcDbEntity
  8
0
100
AcDbLine
 62
7
  6
CONTINUOUS
 10
607.3516691098
 20
175.5215460526
 11
607.3516691098
 21
177.0215460526
  0
LINE
  5
376
100
AcDbEntity
  8
0
100
AcDbLine
 62
7
  6
CONTINUOUS
 10
609.4793284306
 20
175.5215460526
 11
609.4793284306
 21
177.0215460526
  0
LINE
  5
377
100
AcDbEntity
  8
0
100
AcDbLine
 62
7
  6
CONTINUOUS
 10
611.0608180079
 20
117.5215460526
 11
611.0608180079
 21
116.0215460526
  0
LINE
  5
378
100
AcDbEntity
  8
0
100
AcDbLine
 62
7
  6
CONTINUOUS
 10
615.5933247191
 20
117.5215460526
 11
615.5933247191
 21
116.0215460526
  0
LINE
  5
379
100
AcDbEntity
  8
0
100
AcDbLine
 62
7
  6
CONTINUOUS
 10
615.8623069891
 20
175.5215460526
 11
615.8623069891
 21
177.0215460526
  0
LINE
  5
37A
100
AcDbEntity
  8
0
100
AcDbLine
 62
7
  6
CONTINUOUS
 10
617.9899675021
 20
175.5215460526
 11
617.9899675021
 21
177.0215460526
  0
LINE
  5
37B
100
AcDbEntity
  8
0
100
AcDbLine
 62
7
  6
CONTINUOUS
 10
619.6920949587
 20
175.5215460526
 11
619.6920949587
 21
177.0215460526
  0
LINE
  5
37C
100
AcDbEntity
  8
0
100
AcDbLine
 62
7
  6
CONTINUOUS
 10
621.3942224154
 20
175.5215460526
 11
621.3942224154
 21
177.0215460526
  0
LINE
  5
37D
100
AcDbEntity
  8
0
100
AcDbLine
 62
7
  6
CONTINUOUS
 10
622.2452861437
 20
175.5215460526
 11
622.2452861437
 21
177.0215460526
  0
LINE
  5
37E
100
AcDbEntity
  8
0
100
AcDbLine
 62
7
  6
CONTINUOUS
 10
622.6708180079
 20
175.5215460526
 11
622.6708180079
 21
177.0215460526
  0
LINE
  5
37F
100
AcDbEntity
  8
0
100
AcDbLine
 62
7
  6
CONTINUOUS
 10
623.7356295645
 20
117.5215460526
 11
623.7356295645
 21
116.0215460526
  0
LINE
  5
380
100
AcDbEntity
  8
0
100
AcDbLine
 62
7
  6
CONTINUOUS
 10
628.2681362757
 20
117.5215460526
 11
628.2681362757
 21
116.0215460526
  0
LINE
  5
381
100
AcDbEntity
  8
0
100
AcDbLine
 62
7
  6
CONTINUOUS
 10
628.3433247191
 20
117.5215460526
 11
628.3433247191
 21
116.0215460526
  0
LINE
  5
382
100
AcDbEntity
  8
BEZUGSACHSEN
100
AcDbLine
 62
7
  6
CONTINUOUS
 10
635.9908180079
 20
71.5219912611
 11
635.9908180079
 21
117.5215460526
  0
LINE
  5
383
100
AcDbEntity
  8
BEZUGSACHSEN
100
AcDbLine
 62
7
  6
CONTINUOUS
 10
635.9908180079
 20
175.5215460526
 11
635.9908180079
 21
221.5211008441
  0
LINE
  5
384
100
AcDbEntity
  8
RUNDUNGEN
100
AcDbLine
 62
7
  6
CONTINUOUS
 10
644.6100882286
 20
124.5215460526
 11
644.6100882286
 21
168.5215460526
  0
LINE
  5
385
100
AcDbEntity
  8
BEZUGSACHSEN
100
AcDbLine
 62
7
  6
CONTINUOUS
 10
635.9908180079
 20
221.5215460526
 11
645.7947640182
 21
283.4212250248
  0
LINE
  5
386
100
AcDbEntity
  8
BEZUGSACHSEN
100
AcDbLine
 62
7
  6
CONTINUOUS
 10
635.9908180079
 20
71.5215460526
 11
645.7947640182
 21
9.6218670804
  0
LINE
  5
387
100
AcDbEntity
  8
0
100
AcDbLine
 62
7
  6
CONTINUOUS
 10
702.3945198171
 20
66.674570559
 11
702.3945198171
 21
54.1016486554
  0
LINE
  5
388
100
AcDbEntity
  8
0
100
AcDbLine
 62
7
  6
CONTINUOUS
 10
702.3945198171
 20
52.4748211469
 11
702.3945198171
 21
47.7254589353
  0
LINE
  5
389
100
AcDbEntity
  8
0
100
AcDbLine
 62
7
  6
CONTINUOUS
 10
702.3945198171
 20
38.4565938756
 11
702.3945198171
 21
33.5529352855
  0
LINE
  5
38A
100
AcDbEntity
  8
0
100
AcDbLine
 62
7
  6
CONTINUOUS
 10
702.3945198171
 20
24.743078499
 11
702.3945198171
 21
10.4362502343
  0
LINE
  5
38B
100
AcDbEntity
  8
0
100
AcDbLine
 62
7
  6
CONTINUOUS
 10
702.9902644269
 20
68.9573607077
 11
702.9902644269
 21
66.9763413343
  0
LINE
  5
38C
100
AcDbEntity
  8
0
100
AcDbLine
 62
7
  6
CONTINUOUS
 10
702.9902644269
 20
27.3734854239
 11
702.9902644269
 21
25.3525651524
  0
LINE
  5
38D
100
AcDbEntity
  8
0
100
AcDbLine
 62
7
  6
CONTINUOUS
 10
704.1817536466
 20
70.914329884
 11
704.1817536466
 21
68.9481083968
  0
LINE
  5
38E
100
AcDbEntity
  8
0
100
AcDbLine
 62
7
  6
CONTINUOUS
 10
704.7774982564
 20
29.7299729546
 11
704.7774982564
 21
27.7335296864
  0
LINE
  5
38F
100
AcDbEntity
  8
0
100
AcDbLine
 62
7
  6
CONTINUOUS
 10
705.3732428663
 20
14.2186880246
 11
705.3732428663
 21
23.8755981029
  0
LINE
  5
390
100
AcDbEntity
  8
0
100
AcDbLine
 62
7
  6
CONTINUOUS
 10
705.9689874761
 20
57.5535879007
 11
705.9689874761
 21
65.4485864292
  0
LINE
  5
391
100
AcDbEntity
  8
0
100
AcDbLine
 62
7
  6
CONTINUOUS
 10
706.5647320859
 20
73.0479206401
 11
706.5647320859
 21
71.1066299095
  0
LINE
  5
392
100
AcDbEntity
  8
0
100
AcDbLine
 62
7
  6
CONTINUOUS
 10
707.1604766958
 20
31.6336051674
 11
707.1604766958
 21
29.66312314
  0
LINE
  5
393
100
AcDbEntity
  8
0
100
AcDbLine
 62
7
  6
CONTINUOUS
 10
707.6678180079
 20
254.0465537857
 11
707.6678180079
 21
267.1909782538
  0
LINE
  5
394
100
AcDbEntity
  8
0
100
AcDbLine
 62
7
  6
CONTINUOUS
 10
707.6678180079
 20
267.5474280245
 11
707.6678180079
 21
272.8682050406
  0
LINE
  5
395
100
AcDbEntity
  8
0
100
AcDbLine
 62
7
  6
CONTINUOUS
 10
707.6678180079
 20
273.1337525384
 11
707.6678180079
 21
279.219983482
  0
LINE
  5
396
100
AcDbEntity
  8
0
100
AcDbLine
 62
7
  6
CONTINUOUS
 10
707.6678180079
 20
283.4035311189
 11
707.6678180079
 21
289.5457718226
  0
LINE
  5
397
100
AcDbEntity
  8
0
100
AcDbLine
 62
7
  6
CONTINUOUS
 10
708.9477105253
 20
74.249264877
 11
708.9477105253
 21
72.3276991465
  0
LINE
  5
398
100
AcDbEntity
  8
0
100
AcDbLine
 62
7
  6
CONTINUOUS
 10
708.9477105253
 20
32.3904564029
 11
708.9477105253
 21
30.4352299871
  0
LINE
  5
399
100
AcDbEntity
  8
0
100
AcDbLine
 62
7
  6
CONTINUOUS
 10
711.0731127839
 20
258.7362746345
 11
711.0731127839
 21
266.721058416
  0
LINE
  5
39A
100
AcDbEntity
  8
0
100
AcDbLine
 62
7
  6
CONTINUOUS
 10
711.3306906335
 20
32.6757642439
 11
711.3306906335
 21
30.7359033768
  0
LINE
  5
39B
100
AcDbEntity
  8
0
100
AcDbLine
 62
7
  6
CONTINUOUS
 10
711.9264352434
 20
75.0078533272
 11
711.9264352434
 21
73.1044463791
  0
LINE
  5
39C
100
AcDbEntity
  8
0
100
AcDbLine
 62
7
  6
CONTINUOUS
 10
713.117924463
 20
32.3480927032
 11
713.117924463
 21
30.4162107315
  0
LINE
  5
39D
100
AcDbEntity
  8
0
100
AcDbLine
 62
7
  6
CONTINUOUS
 10
714.3094136827
 20
25.0519442952
 11
714.3094136827
 21
15.4047214312
  0
LINE
  5
39E
100
AcDbEntity
  8
0
100
AcDbLine
 62
7
  6
CONTINUOUS
 10
715.3813279848
 20
265.3580153193
 11
715.3813279848
 21
258.3858684615
  0
LINE
  5
39F
100
AcDbEntity
  8
0
100
AcDbLine
 62
7
  6
CONTINUOUS
 10
715.5009029024
 20
31.022120126
 11
715.5009029024
 21
29.0960765431
  0
LINE
  5
3A0
100
AcDbEntity
  8
0
100
AcDbLine
 62
7
  6
CONTINUOUS
 10
716.692392122
 20
29.0900188252
 11
716.692392122
 21
27.1635710789
  0
LINE
  5
3A1
100
AcDbEntity
  8
0
100
AcDbLine
 62
7
  6
CONTINUOUS
 10
716.9807853083
 20
277.4185495801
 11
716.9807853083
 21
279.3664234249
  0
LINE
  5
3A2
100
AcDbEntity
  8
0
100
AcDbLine
 62
7
  6
CONTINUOUS
 10
717.8838813417
 20
15.55242905
 11
717.8838813417
 21
24.1967577271
  0
LINE
  5
3A3
100
AcDbEntity
  8
0
100
AcDbLine
 62
7
  6
CONTINUOUS
 10
718.786623327
 20
258.2944693737
 11
718.786623327
 21
265.2661631415
  0
LINE
  5
3A4
100
AcDbEntity
  8
0
100
AcDbLine
 62
7
  6
CONTINUOUS
 10
720.8626052253
 20
75.3142884463
 11
720.8626052253
 21
73.4269629663
  0
LINE
  5
3A5
100
AcDbEntity
  8
0
100
AcDbLine
 62
7
  6
CONTINUOUS
 10
720.8626052253
 20
54.3124736146
 11
720.8626052253
 21
52.4151324271
  0
LINE
  5
3A6
100
AcDbEntity
  8
0
100
AcDbLine
 62
7
  6
CONTINUOUS
 10
720.8626052253
 20
40.3075591863
 11
720.8626052253
 21
38.3964690824
  0
LINE
  5
3A7
100
AcDbEntity
  8
0
100
AcDbLine
 62
7
  6
CONTINUOUS
 10
723.2455836647
 20
40.6888154966
 11
723.2455836647
 21
38.7732192636
  0
LINE
  5
3A8
100
AcDbEntity
  8
0
100
AcDbLine
 62
7
  6
CONTINUOUS
 10
723.8413282745
 20
74.7631812363
 11
723.8413282745
 21
72.8689502361
  0
LINE
  5
3A9
100
AcDbEntity
  8
0
100
AcDbLine
 62
7
  6
CONTINUOUS
 10
723.8413282745
 20
53.7248766206
 11
723.8413282745
 21
51.8202799988
  0
LINE
  5
3AA
100
AcDbEntity
  8
0
100
AcDbLine
 62
7
  6
CONTINUOUS
 10
725.0328174942
 20
41.5201006903
 11
725.0328174942
 21
39.5991572742
  0
LINE
  5
3AB
100
AcDbEntity
  8
0
100
AcDbLine
 62
7
  6
CONTINUOUS
 10
726.2243071311
 20
73.7313019399
 11
726.2243071311
 21
71.8269395959
  0
LINE
  5
3AC
100
AcDbEntity
  8
0
100
AcDbLine
 62
7
  6
CONTINUOUS
 10
726.2243071311
 20
52.6202792969
 11
726.2243071311
 21
50.7048702536
  0
LINE
  5
3AD
100
AcDbEntity
  8
0
100
AcDbLine
 62
7
  6
CONTINUOUS
 10
726.2243071311
 20
42.8393955574
 11
726.2243071311
 21
40.9144643676
  0
LINE
  5
3AE
100
AcDbEntity
  8
0
100
AcDbLine
 62
7
  6
CONTINUOUS
 10
726.6678180079
 20
253.5769722543
 11
726.6678180079
 21
258.7075107632
  0
LINE
  5
3AF
100
AcDbEntity
  8
0
100
AcDbLine
 62
7
  6
CONTINUOUS
 10
726.6678180079
 20
267.0733750991
 11
726.6678180079
 21
272.3670697714
  0
LINE
  5
3B0
100
AcDbEntity
  8
0
100
AcDbLine
 62
7
  6
CONTINUOUS
 10
726.6678180079
 20
272.4547965282
 11
726.6678180079
 21
278.3847639595
  0
LINE
  5
3B1
100
AcDbEntity
  8
0
100
AcDbLine
 62
7
  6
CONTINUOUS
 10
726.6678180079
 20
283.073946469
 11
726.6678180079
 21
289.4142468326
  0
LINE
  5
3B2
100
AcDbEntity
  8
0
100
AcDbLine
 62
7
  6
CONTINUOUS
 10
726.8200517409
 20
66.2150171936
 11
726.8200517409
 21
58.3216083445
  0
LINE
  5
3B3
100
AcDbEntity
  8
0
100
AcDbLine
 62
7
  6
CONTINUOUS
 10
726.8200517409
 20
44.6210789272
 11
726.8200517409
 21
42.7423891943
  0
LINE
  5
3B4
100
AcDbEntity
  8
0
100
AcDbLine
 62
7
  6
CONTINUOUS
 10
728.607285779
 20
71.771607104
 11
728.607285779
 21
69.8526752273
  0
LINE
  5
3B5
100
AcDbEntity
  8
0
100
AcDbLine
 62
7
  6
CONTINUOUS
 10
728.607285779
 20
50.5153409008
 11
728.607285779
 21
48.5840198363
  0
LINE
  5
3B6
100
AcDbEntity
  8
0
100
AcDbLine
 62
7
  6
CONTINUOUS
 10
729.7987751551
 20
69.9037676311
 11
729.7987751551
 21
67.9755960283
  0
LINE
  5
3B7
100
AcDbEntity
  8
0
100
AcDbLine
 62
7
  6
CONTINUOUS
 10
729.7987751551
 20
48.5024167547
 11
729.7987751551
 21
46.5605342862
  0
LINE
  5
3B8
100
AcDbEntity
  8
0
100
AcDbLine
 62
7
  6
CONTINUOUS
 10
730.3945198171
 20
11.5183077754
 11
730.3945198171
 21
16.6188225471
  0
LINE
  5
3B9
100
AcDbEntity
  8
0
100
AcDbLine
 62
7
  6
CONTINUOUS
 10
730.3945198171
 20
27.2696606769
 11
730.3945198171
 21
32.6847837267
  0
LINE
  5
3BA
100
AcDbEntity
  8
0
100
AcDbLine
 62
7
  6
CONTINUOUS
 10
730.3945198171
 20
42.2556957062
 11
730.3945198171
 21
46.0839375442
  0
LINE
  5
3BB
100
AcDbEntity
  8
0
100
AcDbLine
 62
7
  6
CONTINUOUS
 10
730.3945198171
 20
55.1523970902
 11
730.3945198171
 21
67.666395055
  0
LINE
  5
3BC
100
AcDbEntity
  8
RUNDUNGEN
100
AcDbLine
 62
7
  6
CONTINUOUS
 10
801.9908180079
 20
86.3025350018
 11
801.9908180079
 21
16.5215460526
  0
LINE
  5
3BD
100
AcDbEntity
  8
0
100
AcDbLine
 62
7
  6
CONTINUOUS
 10
801.9908180079
 20
86.3025350018
 11
801.9908180079
 21
276.5215460526
  0
ARC
  5
3BE
100
AcDbEntity
  8
0
100
AcDbCircle
 62
7
  6
CONTINUOUS
 10
98.4249775544
 20
517.8765978015
 40
86.1559040491
100
AcDbArc
 50
291.8313259867
 51
293.8879990924
  0
ARC
  5
3BF
100
AcDbEntity
  8
0
100
AcDbCircle
 62
7
  6
CONTINUOUS
 10
146.4971291198
 20
517.6814053646
 40
85.1744299232
100
AcDbArc
 50
247.7993188667
 51
250.1701074322
  0
ARC
  5
3C0
100
AcDbEntity
  8
0
100
AcDbCircle
 62
7
  6
CONTINUOUS
 10
100.0593439406
 20
514.8022446691
 40
80.8638585799
100
AcDbArc
 50
289.4557545716
 51
294.2827697125
  0
ARC
  5
3C1
100
AcDbEntity
  8
0
100
AcDbCircle
 62
7
  6
CONTINUOUS
 10
144.8709451137
 20
514.7659081934
 40
80.0418556691
100
AcDbArc
 50
247.5569864666
 51
252.6064960024
  0
ARC
  5
3C2
100
AcDbEntity
  8
0
100
AcDbCircle
 62
7
  6
CONTINUOUS
 10
121.9759222825
 20
516.400152683
 40
74.2782838902
100
AcDbArc
 50
265.6210605462
 51
277.4666585508
  0
ARC
  5
3C3
100
AcDbEntity
  8
0
100
AcDbCircle
 62
7
  6
CONTINUOUS
 10
102.1989555233
 20
507.023141891
 40
71.1526390751
100
AcDbArc
 50
279.8032747861
 51
285.2746270068
  0
ARC
  5
3C4
100
AcDbEntity
  8
0
100
AcDbCircle
 62
7
  6
CONTINUOUS
 10
121.9729509782
 20
514.5183928952
 40
70.4625465677
100
AcDbArc
 50
263.7597376011
 51
279.2619761287
  0
ARC
  5
3C5
100
AcDbEntity
  8
0
100
AcDbCircle
 62
7
  6
CONTINUOUS
 10
121.9790229932
 20
516.6070073117
 40
70.4236089237
100
AcDbArc
 50
263.7513039843
 51
279.2621368366
  0
ARC
  5
3C6
100
AcDbEntity
  8
0
100
AcDbCircle
 62
7
  6
CONTINUOUS
 10
122.1440907168
 20
516.9874276314
 40
69.2750694977
100
AcDbArc
 50
276.4353012407
 51
279.2787226096
  0
ARC
  5
3C7
100
AcDbEntity
  8
0
100
AcDbCircle
 62
7
  6
CONTINUOUS
 10
140.9429788779
 20
502.7471428151
 40
65.6895762459
100
AcDbArc
 50
257.7395262129
 51
263.3306404226
  0
ARC
  5
3C8
100
AcDbEntity
  8
BEZUGSACHSEN
100
AcDbCircle
 62
7
  6
CONTINUOUS
 10
303.4908180079
 20
417.9716637767
 40
7.0
100
AcDbArc
 50
270.0
 51
343.398450401
  0
ARC
  5
3C9
100
AcDbEntity
  8
BEZUGSACHSEN
100
AcDbCircle
 62
7
  6
CONTINUOUS
 10
316.9072258861
 20
413.9716640424
 40
6.9999999591
100
AcDbArc
 50
90.0000001082
 51
163.3984525167
  0
ARC
  5
3CA
100
AcDbEntity
  8
BEZUGSACHSEN
100
AcDbCircle
 62
7
  6
CONTINUOUS
 10
207.496544697
 20
507.9716626905
 40
6.9999998538
100
AcDbArc
 50
269.9999985918
 51
9.0000090016
  0
ARC
  5
3CB
100
AcDbEntity
  8
0
100
AcDbCircle
 62
7
  6
CONTINUOUS
 10
239.8968928855
 20
615.0975231792
 40
514.9777709133
100
AcDbArc
 50
342.0464735779
 51
342.2627632895
  0
ARC
  5
3CC
100
AcDbEntity
  8
0
100
AcDbCircle
 62
7
  6
CONTINUOUS
 10
247.3760717738
 20
614.4493480623
 40
507.062310016
100
AcDbArc
 50
342.0651245713
 51
342.2850346149
  0
ARC
  5
3CD
100
AcDbEntity
  8
0
100
AcDbCircle
 62
7
  6
CONTINUOUS
 10
366.8338391505
 20
604.5186318517
 40
388.0340110932
100
AcDbArc
 50
337.8474084388
 51
338.081871837
  0
ARC
  5
3CE
100
AcDbEntity
  8
0
100
AcDbCircle
 62
7
  6
CONTINUOUS
 10
121.9785779204
 20
526.2237533015
 40
75.008492509
100
AcDbArc
 50
264.1349804299
 51
270.1653254927
  0
ARC
  5
3CF
100
AcDbEntity
  8
0
100
AcDbCircle
 62
7
  6
CONTINUOUS
 10
121.9817463822
 20
521.2464019122
 40
74.7982712107
100
AcDbArc
 50
270.1633630783
 51
272.7729152552
  0
ARC
  5
3D0
100
AcDbEntity
  8
0
100
AcDbCircle
 62
7
  6
CONTINUOUS
 10
122.0120198163
 20
525.8105279338
 40
74.5944576082
100
AcDbArc
 50
272.7572174929
 51
276.0766662128
  0
ARC
  5
3D1
100
AcDbEntity
  8
0
100
AcDbCircle
 62
7
  6
CONTINUOUS
 10
121.9790045009
 20
526.4955392657
 40
71.0938972098
100
AcDbArc
 50
263.8104643636
 51
279.1740688501
  0
ARC
  5
3D2
100
AcDbEntity
  8
0
100
AcDbCircle
 62
7
  6
CONTINUOUS
 10
121.9818439083
 20
519.4444329166
 40
71.0725512446
100
AcDbArc
 50
270.1718481966
 51
272.9183192242
  0
ARC
  5
3D3
100
AcDbEntity
  8
0
100
AcDbCircle
 62
7
  6
CONTINUOUS
 10
121.968105935
 20
524.1969529069
 40
71.0673807982
100
AcDbArc
 50
263.8169840167
 51
270.1829365495
  0
ARC
  5
3D4
100
AcDbEntity
  8
0
100
AcDbCircle
 62
7
  6
CONTINUOUS
 10
122.0153233811
 20
523.9582057501
 40
70.8276585788
100
AcDbArc
 50
272.9013001572
 51
276.3984666977
  0
ARC
  5
3D5
100
AcDbEntity
  8
BEZUGSACHSEN
100
AcDbCircle
 62
7
  6
CONTINUOUS
 10
211.3715477872
 20
624.1398269337
 40
15.0
100
AcDbArc
 50
157.5
 51
189.0
  0
ARC
  5
3D6
100
AcDbEntity
  8
0
100
AcDbCircle
 62
7
  6
CONTINUOUS
 10
537.4908180079
 20
417.9716637767
 40
7.0
100
AcDbArc
 50
196.601549599
 51
270.0
  0
ARC
  5
3D7
100
AcDbEntity
  8
BEZUGSACHSEN
100
AcDbCircle
 62
7
  6
CONTINUOUS
 10
524.0744101297
 20
413.9716640424
 40
6.9999999591
100
AcDbArc
 50
16.6015474833
 51
89.9999998918
  0
ARC
  5
3D8
100
AcDbEntity
  8
BEZUGSACHSEN
100
AcDbCircle
 62
7
  6
CONTINUOUS
 10
633.4850913187
 20
507.9716626905
 40
6.9999998538
100
AcDbArc
 50
170.9999909984
 51
270.0000014082
  0
ARC
  5
3D9
100
AcDbEntity
  8
0
100
AcDbCircle
 62
7
  6
CONTINUOUS
 10
463.2149568723
 20
545.3311768823
 40
258.0909813629
100
AcDbArc
 50
337.930041734
 51
338.2847369804
  0
ARC
  5
3DA
100
AcDbEntity
  8
0
100
AcDbCircle
 62
7
  6
CONTINUOUS
 10
570.7763545237
 20
576.6408995503
 40
199.3893599087
100
AcDbArc
 50
322.3326124504
 51
322.896509032
  0
ARC
  5
3DB
100
AcDbEntity
  8
0
100
AcDbCircle
 62
7
  6
CONTINUOUS
 10
575.2633003759
 20
574.6548465714
 40
193.4375879144
100
AcDbArc
 50
322.4414714209
 51
323.0242946883
  0
ARC
  5
3DC
100
AcDbEntity
  8
0
100
AcDbCircle
 62
7
  6
CONTINUOUS
 10
577.1062671615
 20
534.538833569
 40
155.8460256076
100
AcDbArc
 50
325.3899298281
 51
325.7774409907
  0
ARC
  5
3DD
100
AcDbEntity
  8
0
100
AcDbCircle
 62
7
  6
CONTINUOUS
 10
584.0790010098
 20
532.5718164452
 40
147.8578952636
100
AcDbArc
 50
325.1191796822
 51
325.524926467
  0
ARC
  5
3DE
100
AcDbEntity
  8
0
100
AcDbCircle
 62
7
  6
CONTINUOUS
 10
626.2414605359
 20
559.7443335421
 40
142.5048880349
100
AcDbArc
 50
313.8878409504
 51
314.5563132145
  0
ARC
  5
3DF
100
AcDbEntity
  8
0
100
AcDbCircle
 62
7
  6
CONTINUOUS
 10
601.4434327255
 20
574.7641313719
 40
137.2280834
100
AcDbArc
 50
317.7302051085
 51
318.4751563916
  0
ARC
  5
3E0
100
AcDbEntity
  8
0
100
AcDbCircle
 62
7
  6
CONTINUOUS
 10
631.0317152699
 20
570.3505133201
 40
118.2309479463
100
AcDbArc
 50
309.7068608522
 51
310.4615482783
  0
ARC
  5
3E1
100
AcDbEntity
  8
0
100
AcDbCircle
 62
7
  6
CONTINUOUS
 10
662.7418694192
 20
547.2366166581
 40
113.50337324
100
AcDbArc
 50
304.0074025366
 51
305.4712794054
  0
ARC
  5
3E2
100
AcDbEntity
  8
0
100
AcDbCircle
 62
7
  6
CONTINUOUS
 10
635.9070724783
 20
567.4139425261
 40
111.3646687102
100
AcDbArc
 50
309.3807651438
 51
310.1784263954
  0
ARC
  5
3E3
100
AcDbEntity
  8
0
100
AcDbCircle
 62
7
  6
CONTINUOUS
 10
665.0644602407
 20
545.1675104756
 40
108.8897329315
100
AcDbArc
 50
304.1712096079
 51
305.700763847
  0
ARC
  5
3E4
100
AcDbEntity
  8
BEZUGSACHSEN
100
AcDbCircle
 62
7
  6
CONTINUOUS
 10
629.6100882286
 20
624.1398269337
 40
15.0
100
AcDbArc
 50
350.9999999999
 51
19.5832516987
  0
ARC
  5
3E5
100
AcDbEntity
  8
RUNDUNGEN
100
AcDbCircle
 62
7
  6
CONTINUOUS
 10
629.6100882286
 20
624.1398269337
 40
15.0
100
AcDbArc
 50
351.0
 51
22.5
  0
ARC
  5
3E6
100
AcDbEntity
  8
0
100
AcDbCircle
 62
7
  6
CONTINUOUS
 10
613.3433247191
 20
618.9816637767
 40
15.0
100
AcDbArc
 50
174.2608295227
 51
5.7391704773
  0
ARC
  5
3E7
100
AcDbEntity
  8
0
100
AcDbCircle
 62
7
  6
CONTINUOUS
 10
613.3433247191
 20
618.9816637767
 40
10.5
100
AcDbArc
 50
171.7867892983
 51
8.2132107017
  0
ARC
  5
3E8
100
AcDbEntity
  8
0
100
AcDbCircle
 62
7
  6
CONTINUOUS
 10
239.9295829518
 20
631.9033105186
 40
486.5779167085
100
AcDbArc
 50
341.8867285365
 51
342.1137431325
  0
ARC
  5
3E9
100
AcDbEntity
  8
0
100
AcDbCircle
 62
7
  6
CONTINUOUS
 10
337.8962657604
 20
627.2491640386
 40
397.2127471831
100
AcDbArc
 50
337.9167755649
 51
338.1464847338
  0
ARC
  5
3EA
100
AcDbEntity
  8
0
100
AcDbCircle
 62
7
  6
CONTINUOUS
 10
350.908223246
 20
624.5563907966
 40
383.4109015709
100
AcDbArc
 50
337.8284494248
 51
338.0655596443
  0
ARC
  5
3EB
100
AcDbEntity
  8
BEZUGSACHSEN
100
AcDbCircle
 62
7
  6
CONTINUOUS
 10
420.4908180079
 20
625.9716637767
 40
143.4722507415
100
AcDbArc
 50
250.4542482947
 51
289.5457517053
  0
CIRCLE
  5
3EC
100
AcDbEntity
  8
BEZUGSACHSEN
100
AcDbCircle
 62
7
  6
CONTINUOUS
 10
420.4908180079
 20
625.9716637767
 40
125.0
  0
ARC
  5
3ED
100
AcDbEntity
  8
BEZUGSACHSEN
100
AcDbCircle
 62
7
  6
CONTINUOUS
 10
567.8239394685
 20
773.3047852372
 40
15.0
100
AcDbArc
 50
64.4710793639
 51
67.5000000001
  0
ARC
  5
3EE
100
AcDbEntity
  8
BEZUGSACHSEN
100
AcDbCircle
 62
7
  6
CONTINUOUS
 10
567.8239394685
 20
773.3047852372
 40
15.0
100
AcDbArc
 50
22.4999999999
 51
25.5289206364
  0
ARC
  5
3EF
100
AcDbEntity
  8
RUNDUNGEN
100
AcDbCircle
 62
7
  6
CONTINUOUS
 10
567.8239394685
 20
773.3047852372
 40
15.0
100
AcDbArc
 50
22.5
 51
67.5
  0
ARC
  5
3F0
100
AcDbEntity
  8
BEZUGSACHSEN
100
AcDbCircle
 62
7
  6
CONTINUOUS
 10
273.1576965473
 20
773.3047852372
 40
15.0
100
AcDbArc
 50
112.5
 51
157.5
  0
ARC
  5
3F1
100
AcDbEntity
  8
BEZUGSACHSEN
100
AcDbCircle
 62
7
  6
CONTINUOUS
 10
420.4908180079
 20
834.332162333
 40
15.0
100
AcDbArc
 50
67.5
 51
112.5
  0
ARC
  5
3F2
100
AcDbEntity
  8
0
100
AcDbCircle
 62
7
  6
CONTINUOUS
 10
613.3433247191
 20
644.4816637767
 40
15.0
100
AcDbArc
 50
174.2608295227
 51
5.7391704773
  0
ARC
  5
3F3
100
AcDbEntity
  8
0
100
AcDbCircle
 62
7
  6
CONTINUOUS
 10
613.3433247191
 20
644.4816637767
 40
10.5
100
AcDbArc
 50
282.3736251162
 51
8.2132107017
  0
ARC
  5
3F4
100
AcDbEntity
  8
0
100
AcDbCircle
 62
7
  6
CONTINUOUS
 10
613.3433247191
 20
644.4816637767
 40
10.5
100
AcDbArc
 50
171.7867892983
 51
257.4447123387
  0
ARC
  5
3F5
100
AcDbEntity
  8
0
100
AcDbCircle
 62
7
  6
CONTINUOUS
 10
831.9637348239
 20
549.6783915141
 40
153.6889276937
100
AcDbArc
 50
220.7308741919
 51
221.4070029099
  0
ARC
  5
3F6
100
AcDbEntity
  8
0
100
AcDbCircle
 62
7
  6
CONTINUOUS
 10
796.5003479809
 20
549.7681213232
 40
112.074310966
100
AcDbArc
 50
230.3809710276
 51
231.1672915892
  0
ARC
  5
3F7
100
AcDbEntity
  8
0
100
AcDbCircle
 62
7
  6
CONTINUOUS
 10
769.2050544123
 20
535.204205582
 40
105.1195056035
100
AcDbArc
 50
237.3692267095
 51
238.1370953925
  0
ARC
  5
3F8
100
AcDbEntity
  8
0
100
AcDbCircle
 62
7
  6
CONTINUOUS
 10
767.0376031632
 20
533.3049639746
 40
100.7188928115
100
AcDbArc
 50
237.2303328678
 51
238.0328279569
  0
ARC
  5
3F9
100
AcDbEntity
  8
0
100
AcDbCircle
 62
7
  6
CONTINUOUS
 10
753.0386536473
 20
529.8962875135
 40
88.8227965064
100
AcDbArc
 50
243.2920866525
 51
245.000274104
  0
ARC
  5
3FA
100
AcDbEntity
  8
0
100
AcDbCircle
 62
7
  6
CONTINUOUS
 10
687.0751765865
 20
537.0220486987
 40
88.5307910088
100
AcDbArc
 50
294.1145976965
 51
295.3883041646
  0
ARC
  5
3FB
100
AcDbEntity
  8
0
100
AcDbCircle
 62
7
  6
CONTINUOUS
 10
695.1689231216
 20
533.6538220276
 40
86.289657275
100
AcDbArc
 50
289.4072755629
 51
291.0938671797
  0
ARC
  5
3FC
100
AcDbEntity
  8
0
100
AcDbCircle
 62
7
  6
CONTINUOUS
 10
764.1182571462
 20
539.3286890422
 40
82.7770693978
100
AcDbArc
 50
242.7558476192
 51
244.5961855599
  0
ARC
  5
3FD
100
AcDbEntity
  8
0
100
AcDbCircle
 62
7
  6
CONTINUOUS
 10
696.2994839596
 20
531.7268159447
 40
82.2849584398
100
AcDbArc
 50
289.5550858491
 51
291.3259437503
  0
ARC
  5
3FE
100
AcDbEntity
  8
0
100
AcDbCircle
 62
7
  6
CONTINUOUS
 10
750.4397874435
 20
539.5005926475
 40
82.0105618382
100
AcDbArc
 50
250.6344513993
 51
251.9527500905
  0
ARC
  5
3FF
100
AcDbEntity
  8
0
100
AcDbCircle
 62
7
  6
CONTINUOUS
 10
733.6325714795
 20
524.4193814112
 40
80.5581210138
100
AcDbArc
 50
253.486734295
 51
254.8081630293
  0
ARC
  5
400
100
AcDbEntity
  8
0
100
AcDbCircle
 62
7
  6
CONTINUOUS
 10
748.8111006144
 20
537.480188295
 40
77.7674994832
100
AcDbArc
 50
250.8075047617
 51
252.1960352778
  0
ARC
  5
401
100
AcDbEntity
  8
0
100
AcDbCircle
 62
7
  6
CONTINUOUS
 10
710.1779032062
 20
528.3220143172
 40
77.2724971432
100
AcDbArc
 50
277.9479260188
 51
280.1846652257
  0
ARC
  5
402
100
AcDbEntity
  8
0
100
AcDbCircle
 62
7
  6
CONTINUOUS
 10
733.1215054285
 20
524.7207651729
 40
76.8208139049
100
AcDbArc
 50
253.5213708995
 51
254.9066337545
  0
ARC
  5
403
100
AcDbEntity
  8
0
100
AcDbCircle
 62
7
  6
CONTINUOUS
 10
732.9073746407
 20
522.536327273
 40
76.6804805133
100
AcDbArc
 50
253.1927164563
 51
254.5827749745
  0
ARC
  5
404
100
AcDbEntity
  8
0
100
AcDbCircle
 62
7
  6
CONTINUOUS
 10
730.5759588232
 20
537.9012067494
 40
76.1249572848
100
AcDbArc
 50
262.6692174915
 51
264.4741990839
  0
ARC
  5
405
100
AcDbEntity
  8
0
100
AcDbCircle
 62
7
  6
CONTINUOUS
 10
708.2950660585
 20
529.14613399
 40
74.4454731212
100
AcDbArc
 50
279.7189485932
 51
281.5852112196
  0
ARC
  5
406
100
AcDbEntity
  8
0
100
AcDbCircle
 62
7
  6
CONTINUOUS
 10
710.6232680312
 20
526.4760984212
 40
73.4865972012
100
AcDbArc
 50
278.0094321008
 51
280.3622083786
  0
ARC
  5
407
100
AcDbEntity
  8
0
100
AcDbCircle
 62
7
  6
CONTINUOUS
 10
718.8728894787
 20
520.059619932
 40
73.3286251305
100
AcDbArc
 50
262.2210228963
 51
263.6282416149
  0
ARC
  5
408
100
AcDbEntity
  8
0
100
AcDbCircle
 62
7
  6
CONTINUOUS
 10
741.0413647367
 20
537.3726679694
 40
73.1543557027
100
AcDbArc
 50
256.4013161451
 51
258.3141697956
  0
ARC
  5
409
100
AcDbEntity
  8
0
100
AcDbCircle
 62
7
  6
CONTINUOUS
 10
729.9854553507
 20
536.0145845286
 40
72.2943928773
100
AcDbArc
 50
262.7505015068
 51
264.6506529904
  0
ARC
  5
40A
100
AcDbEntity
  8
0
100
AcDbCircle
 62
7
  6
CONTINUOUS
 10
680.8685181694
 20
514.6511403033
 40
72.2610263853
100
AcDbArc
 50
290.3258235232
 51
291.336643062
  0
ARC
  5
40B
100
AcDbEntity
  8
0
100
AcDbCircle
 62
7
  6
CONTINUOUS
 10
727.8879246195
 20
538.0468123417
 40
71.8916967922
100
AcDbArc
 50
264.3920567341
 51
266.7732644243
  0
ARC
  5
40C
100
AcDbEntity
  8
0
100
AcDbCircle
 62
7
  6
CONTINUOUS
 10
671.9538409135
 20
512.403707357
 40
69.8398357047
100
AcDbArc
 50
296.3845914971
 51
298.0333062751
  0
ARC
  5
40D
100
AcDbEntity
  8
0
100
AcDbCircle
 62
7
  6
CONTINUOUS
 10
718.8725972467
 20
520.4219930635
 40
69.7754664101
100
AcDbArc
 50
261.8224935809
 51
263.794877934
  0
ARC
  5
40E
100
AcDbEntity
  8
0
100
AcDbCircle
 62
7
  6
CONTINUOUS
 10
719.0340227021
 20
510.2194709557
 40
69.5638799172
100
AcDbArc
 50
269.0526513391
 51
279.399089586
  0
ARC
  5
40F
100
AcDbEntity
  8
0
100
AcDbCircle
 62
7
  6
CONTINUOUS
 10
718.8594007191
 20
518.18247622
 40
69.5273634797
100
AcDbArc
 50
261.804099242
 51
263.2895070135
  0
ARC
  5
410
100
AcDbEntity
  8
0
100
AcDbCircle
 62
7
  6
CONTINUOUS
 10
718.9007703829
 20
509.6642067142
 40
69.0043169536
100
AcDbArc
 50
258.6945828088
 51
266.1848784561
  0
ARC
  5
411
100
AcDbEntity
  8
0
100
AcDbCircle
 62
7
  6
CONTINUOUS
 10
705.6333002402
 20
516.2468645658
 40
68.9208095828
100
AcDbArc
 50
271.2696880377
 51
272.7564242888
  0
ARC
  5
412
100
AcDbEntity
  8
0
100
AcDbCircle
 62
7
  6
CONTINUOUS
 10
683.0656189315
 20
512.6511968422
 40
67.7619851803
100
AcDbArc
 50
289.7549061082
 51
290.8290416259
  0
ARC
  5
413
100
AcDbEntity
  8
0
100
AcDbCircle
 62
7
  6
CONTINUOUS
 10
706.1264068768
 20
516.5180042075
 40
65.2230590514
100
AcDbArc
 50
270.90842594
 51
272.4791729618
  0
ARC
  5
414
100
AcDbEntity
  8
0
100
AcDbCircle
 62
7
  6
CONTINUOUS
 10
706.3270768721
 20
514.3535899623
 40
65.041171448
100
AcDbArc
 50
270.7341749574
 51
272.3091820341
  0
ARC
  5
415
100
AcDbEntity
  8
0
100
AcDbCircle
 62
7
  6
CONTINUOUS
 10
691.6860851036
 20
513.4495001697
 40
64.0439420516
100
AcDbArc
 50
281.7951377194
 51
283.9822607653
  0
ARC
  5
416
100
AcDbEntity
  8
0
100
AcDbCircle
 62
7
  6
CONTINUOUS
 10
854.2819963828
 20
586.9216356104
 40
163.1495301258
100
AcDbArc
 50
219.6188181564
 51
220.2705396562
  0
ARC
  5
417
100
AcDbEntity
  8
0
100
AcDbCircle
 62
7
  6
CONTINUOUS
 10
817.935871734
 20
580.3310069938
 40
136.8869782359
100
AcDbArc
 50
227.2590786351
 51
227.9344636078
  0
ARC
  5
418
100
AcDbEntity
  8
0
100
AcDbCircle
 62
7
  6
CONTINUOUS
 10
826.7118887713
 20
554.9433885035
 40
133.3958941475
100
AcDbArc
 50
222.6556379126
 51
223.4056035237
  0
ARC
  5
419
100
AcDbEntity
  8
0
100
AcDbCircle
 62
7
  6
CONTINUOUS
 10
813.2532640966
 20
577.6276986403
 40
130.3289492106
100
AcDbArc
 50
227.3976631307
 51
228.1052909246
  0
ARC
  5
41A
100
AcDbEntity
  8
0
100
AcDbCircle
 62
7
  6
CONTINUOUS
 10
800.4737964305
 20
552.0780128928
 40
117.8610138038
100
AcDbArc
 50
230.2018977063
 51
230.9517236919
  0
ARC
  5
41B
100
AcDbEntity
  8
0
100
AcDbCircle
 62
7
  6
CONTINUOUS
 10
771.3295948909
 20
562.4919445673
 40
90.3464033729
100
AcDbArc
 50
240.0497200147
 51
241.7790958993
  0
ARC
  5
41C
100
AcDbEntity
  8
0
100
AcDbCircle
 62
7
  6
CONTINUOUS
 10
754.6403994659
 20
560.5665177141
 40
86.0250454545
100
AcDbArc
 50
248.5955119019
 51
249.8686196171
  0
ARC
  5
41D
100
AcDbEntity
  8
0
100
AcDbCircle
 62
7
  6
CONTINUOUS
 10
752.821070824
 20
558.4048928184
 40
81.5865117494
100
AcDbArc
 50
248.7459070002
 51
250.0866505643
  0
ARC
  5
41E
100
AcDbEntity
  8
0
100
AcDbCircle
 62
7
  6
CONTINUOUS
 10
671.5496748972
 20
554.9816686555
 40
78.3146092138
100
AcDbArc
 50
294.6251163752
 51
296.5582616303
  0
ARC
  5
41F
100
AcDbEntity
  8
0
100
AcDbCircle
 62
7
  6
CONTINUOUS
 10
685.824990835
 20
554.6264049859
 40
77.4028968398
100
AcDbArc
 50
286.459565858
 51
287.8441361828
  0
ARC
  5
420
100
AcDbEntity
  8
0
100
AcDbCircle
 62
7
  6
CONTINUOUS
 10
731.834708375
 20
557.057168347
 40
77.0624639531
100
AcDbArc
 50
261.8144478251
 51
263.6007076544
  0
ARC
  5
421
100
AcDbEntity
  8
0
100
AcDbCircle
 62
7
  6
CONTINUOUS
 10
718.9968655256
 20
556.8031402572
 40
76.0462269387
100
AcDbArc
 50
264.6651955731
 51
271.4058519664
  0
ARC
  5
422
100
AcDbEntity
  8
0
100
AcDbCircle
 62
7
  6
CONTINUOUS
 10
743.637268716
 20
557.4432283857
 40
75.2744626345
100
AcDbArc
 50
254.752834546
 51
256.6248319018
  0
ARC
  5
423
100
AcDbEntity
  8
0
100
AcDbCircle
 62
7
  6
CONTINUOUS
 10
706.4596242994
 20
554.1884462791
 40
73.3062592073
100
AcDbArc
 50
272.4110184528
 51
274.2768005974
  0
ARC
  5
424
100
AcDbEntity
  8
0
100
AcDbCircle
 62
7
  6
CONTINUOUS
 10
731.1906503482
 20
555.1245043169
 40
73.189286455
100
AcDbArc
 50
261.8876766445
 51
263.7679727395
  0
ARC
  5
425
100
AcDbEntity
  8
0
100
AcDbCircle
 62
7
  6
CONTINUOUS
 10
687.6435953192
 20
552.378182063
 40
72.8813215821
100
AcDbArc
 50
286.0194745541
 51
287.4868325738
  0
ARC
  5
426
100
AcDbEntity
  8
0
100
AcDbCircle
 62
7
  6
CONTINUOUS
 10
728.8250054816
 20
557.1824964514
 40
72.5355034687
100
AcDbArc
 50
263.697801259
 51
266.0602905849
  0
ARC
  5
427
100
AcDbEntity
  8
0
100
AcDbCircle
 62
7
  6
CONTINUOUS
 10
718.9964384047
 20
557.339585585
 40
72.278337417
100
AcDbArc
 50
264.3865599798
 51
271.4794939923
  0
ARC
  5
428
100
AcDbEntity
  8
0
100
AcDbCircle
 62
7
  6
CONTINUOUS
 10
718.9964399632
 20
554.9038241547
 40
72.2603266323
100
AcDbArc
 50
264.3851551006
 51
271.4798616
  0
ARC
  5
429
100
AcDbEntity
  8
0
100
AcDbCircle
 62
7
  6
CONTINUOUS
 10
707.0953563985
 20
552.2007120561
 40
69.3789217436
100
AcDbArc
 50
272.0221551632
 51
273.992921797
  0
ARC
  5
42A
100
AcDbEntity
  8
0
100
AcDbCircle
 62
7
  6
CONTINUOUS
 10
709.3180004663
 20
554.5308076631
 40
69.1721461012
100
AcDbArc
 50
269.6932847491
 51
272.1610974213
  0
ARC
  5
42B
100
AcDbEntity
  8
0
100
AcDbCircle
 62
7
  6
CONTINUOUS
 10
695.6218585155
 20
552.5719339409
 40
68.5205741656
100
AcDbArc
 50
279.1896003726
 51
281.2143233098
  0
ARC
  5
42C
100
AcDbEntity
  8
0
100
AcDbCircle
 62
7
  6
CONTINUOUS
 10
1103.8774501141
 20
593.4834566638
 40
396.0908843198
100
AcDbArc
 50
199.1912875309
 51
199.4517424336
  0
ARC
  5
42D
100
AcDbEntity
  8
0
100
AcDbCircle
 62
7
  6
CONTINUOUS
 10
1030.7189995547
 20
591.6035075959
 40
331.5015285809
100
AcDbArc
 50
203.2876252392
 51
203.5037462222
  0
ARC
  5
42E
100
AcDbEntity
  8
0
100
AcDbCircle
 62
7
  6
CONTINUOUS
 10
1020.2728943685
 20
589.4667922336
 40
320.3032376059
100
AcDbArc
 50
203.3599669856
 51
203.6272880873
  0
ARC
  5
42F
100
AcDbEntity
  8
0
100
AcDbCircle
 62
7
  6
CONTINUOUS
 10
916.2299686348
 20
563.4915667248
 40
234.1683197085
100
AcDbArc
 50
210.1364515179
 51
210.4255306827
  0
ARC
  5
430
100
AcDbEntity
  8
0
100
AcDbCircle
 62
7
  6
CONTINUOUS
 10
910.8570128549
 20
562.3033543269
 40
227.9534926732
100
AcDbArc
 50
210.1355370164
 51
210.4324707901
  0
ARC
  5
431
100
AcDbEntity
  8
0
100
AcDbCircle
 62
7
  6
CONTINUOUS
 10
1240.5175724487
 20
642.1060300576
 40
535.3878374826
100
AcDbArc
 50
197.4606881134
 51
197.6719308783
  0
ARC
  5
432
100
AcDbEntity
  8
0
100
AcDbCircle
 62
7
  6
CONTINUOUS
 10
1133.1931680887
 20
637.3286137998
 40
436.7880926635
100
AcDbArc
 50
201.2937783216
 51
201.5079437328
  0
ARC
  5
433
100
AcDbEntity
  8
0
100
AcDbCircle
 62
7
  6
CONTINUOUS
 10
1121.7729329668
 20
635.1421206794
 40
424.6616966597
100
AcDbArc
 50
201.3389478286
 51
201.5587591112
  0
ARC
  5
434
100
AcDbEntity
  8
RUNDUNGEN
100
AcDbCircle
 62
7
  6
CONTINUOUS
 10
1135.8817910268
 20
282.8614548332
 40
314.0
100
AcDbArc
 50
126.1841535118
 51
155.2517980125
  0
ARC
  5
435
100
AcDbEntity
  8
0
100
AcDbCircle
 62
7
  6
CONTINUOUS
 10
885.559627443
 20
282.8614548332
 40
314.0
100
AcDbArc
 50
24.7482019875
 51
53.8158464882
  0
ARC
  5
436
100
AcDbEntity
  8
0
100
AcDbCircle
 62
7
  6
CONTINUOUS
 10
1010.7207092349
 20
453.9716637767
 40
102.0
100
AcDbArc
 50
53.8158464882
 51
126.1841535118
  0
ARC
  5
437
100
AcDbEntity
  8
BEZUGSACHSEN
100
AcDbCircle
 62
7
  6
CONTINUOUS
 10
988.7207092349
 20
842.332162333
 40
7.0
100
AcDbArc
 50
90.0
 51
180.0
  0
ARC
  5
438
100
AcDbEntity
  8
BEZUGSACHSEN
100
AcDbCircle
 62
7
  6
CONTINUOUS
 10
979.2207092349
 20
789.7145901931
 40
7.0
100
AcDbArc
 50
108.749340847
 51
180.0
  0
ARC
  5
439
100
AcDbEntity
  8
BEZUGSACHSEN
100
AcDbCircle
 62
7
  6
CONTINUOUS
 10
974.7207092349
 20
802.9716637767
 40
7.0
100
AcDbArc
 50
288.749340847
 51
360.0
  0
ARC
  5
43A
100
AcDbEntity
  8
BEZUGSACHSEN
100
AcDbCircle
 62
7
  6
CONTINUOUS
 10
1032.7207092349
 20
842.332162333
 40
7.0
100
AcDbArc
 50
0.0
 51
90.0
  0
ARC
  5
43B
100
AcDbEntity
  8
RUNDUNGEN
100
AcDbCircle
 62
7
  6
CONTINUOUS
 10
1042.2207092349
 20
789.7145901931
 40
7.0
100
AcDbArc
 50
0.0
 51
71.250659153
  0
ARC
  5
43C
100
AcDbEntity
  8
RUNDUNGEN
100
AcDbCircle
 62
7
  6
CONTINUOUS
 10
1046.7207092349
 20
802.9716637767
 40
7.0
100
AcDbArc
 50
180.0
 51
251.250659153
  0
ARC
  5
43D
100
AcDbEntity
  8
0
100
AcDbCircle
 62
7
  6
CONTINUOUS
 10
-308.3337091033
 20
-208.5036637319
 40
1069.472384066
100
AcDbArc
 50
13.7714617803
 51
13.9049022061
  0
ARC
  5
43E
100
AcDbEntity
  8
0
100
AcDbCircle
 62
7
  6
CONTINUOUS
 10
-296.7892228135
 20
-206.8571800612
 40
1057.4041117369
100
AcDbArc
 50
13.7311469235
 51
13.8664878334
  0
ARC
  5
43F
100
AcDbEntity
  8
0
100
AcDbCircle
 62
7
  6
CONTINUOUS
 10
-121.0483356481
 20
-157.8490902281
 40
880.8020039857
100
AcDbArc
 50
14.8348782804
 51
14.985489439
  0
ARC
  5
440
100
AcDbEntity
  8
0
100
AcDbCircle
 62
7
  6
CONTINUOUS
 10
-110.8104187565
 20
-156.4993061728
 40
870.0648243706
100
AcDbArc
 50
14.798474617
 51
14.9512980296
  0
ARC
  5
441
100
AcDbEntity
  8
0
100
AcDbCircle
 62
7
  6
CONTINUOUS
 10
-28.4096154034
 20
-187.5284117566
 40
790.1045729266
100
AcDbArc
 50
17.0868661104
 51
17.2332906615
  0
ARC
  5
442
100
AcDbEntity
  8
0
100
AcDbCircle
 62
7
  6
CONTINUOUS
 10
107.253047023
 20
-139.7513968091
 40
652.9053813779
100
AcDbArc
 50
18.3886674013
 51
18.5536772305
  0
ARC
  5
443
100
AcDbEntity
  8
0
100
AcDbCircle
 62
7
  6
CONTINUOUS
 10
216.9856774413
 20
-177.7646050953
 40
537.0897982049
100
AcDbArc
 50
22.1864183047
 51
22.3541149315
  0
ARC
  5
444
100
AcDbEntity
  8
BEZUGSACHSEN
100
AcDbCircle
 62
7
  6
CONTINUOUS
 10
-162.4924776153
 20
66.2705107169
 40
362.1375226596
100
AcDbArc
 50
349.2709224333
 51
351.0065064859
  0
ARC
  5
445
100
AcDbEntity
  8
0
100
AcDbCircle
 62
7
  6
CONTINUOUS
 10
73.4621417705
 20
-81.5786981532
 40
109.1008430255
100
AcDbArc
 50
56.7296371283
 51
59.3949920713
  0
ARC
  5
446
100
AcDbEntity
  8
0
100
AcDbCircle
 62
7
  6
CONTINUOUS
 10
168.0505548167
 20
-79.0279738726
 40
103.9621285071
100
AcDbArc
 50
118.152833101
 51
121.1237095647
  0
ARC
  5
447
100
AcDbEntity
  8
0
100
AcDbCircle
 62
7
  6
CONTINUOUS
 10
75.890864552
 20
-78.5889192472
 40
103.5960927429
100
AcDbArc
 50
56.3377256699
 51
60.4431990844
  0
ARC
  5
448
100
AcDbEntity
  8
0
100
AcDbCircle
 62
7
  6
CONTINUOUS
 10
165.3635650691
 20
-75.5505296381
 40
97.9048686715
100
AcDbArc
 50
116.9815188953
 51
121.4276811839
  0
ARC
  5
449
100
AcDbEntity
  8
0
100
AcDbCircle
 62
7
  6
CONTINUOUS
 10
82.6483845901
 20
-65.1563636517
 40
85.8666681563
100
AcDbArc
 50
63.5134790853
 51
68.3599456489
  0
ARC
  5
44A
100
AcDbEntity
  8
0
100
AcDbCircle
 62
7
  6
CONTINUOUS
 10
121.9793356646
 20
-34.9946832063
 40
74.8543342291
100
AcDbArc
 50
81.2907431551
 51
95.8777238102
  0
ARC
  5
44B
100
AcDbEntity
  8
0
100
AcDbCircle
 62
7
  6
CONTINUOUS
 10
121.9805136703
 20
-48.1472986552
 40
74.5124837388
100
AcDbArc
 50
83.9235299593
 51
95.9056961029
  0
ARC
  5
44C
100
AcDbEntity
  8
0
100
AcDbCircle
 62
7
  6
CONTINUOUS
 10
122.1260358927
 20
-46.6138085186
 40
72.9722072859
100
AcDbArc
 50
81.2211712502
 51
83.9096920101
  0
ARC
  5
44D
100
AcDbEntity
  8
0
100
AcDbCircle
 62
7
  6
CONTINUOUS
 10
121.9790045009
 20
-33.144465176
 40
71.0938972098
100
AcDbArc
 50
80.8259311499
 51
96.1895356364
  0
ARC
  5
44E
100
AcDbEntity
  8
0
100
AcDbCircle
 62
7
  6
CONTINUOUS
 10
121.9818439083
 20
-43.2953026001
 40
71.0725512445
100
AcDbArc
 50
87.0816807758
 51
89.8281518034
  0
ARC
  5
44F
100
AcDbEntity
  8
0
100
AcDbCircle
 62
7
  6
CONTINUOUS
 10
121.968105935
 20
-36.3183958273
 40
71.0673807982
100
AcDbArc
 50
89.8170634505
 51
96.1830159833
  0
ARC
  5
450
100
AcDbEntity
  8
0
100
AcDbCircle
 62
7
  6
CONTINUOUS
 10
122.0153233811
 20
-36.0796486706
 40
70.8276585788
100
AcDbArc
 50
83.6015333023
 51
87.0986998428
  0
ARC
  5
451
100
AcDbEntity
  8
0
100
AcDbCircle
 62
7
  6
CONTINUOUS
 10
121.9729509782
 20
-49.3690213948
 40
70.4625465677
100
AcDbArc
 50
80.7380238713
 51
96.2402623989
  0
ARC
  5
452
100
AcDbEntity
  8
0
100
AcDbCircle
 62
7
  6
CONTINUOUS
 10
121.9790229932
 20
-45.9851194018
 40
70.4236089237
100
AcDbArc
 50
80.7378631634
 51
96.2486960157
  0
ARC
  5
453
100
AcDbEntity
  8
0
100
AcDbCircle
 62
7
  6
CONTINUOUS
 10
122.1440907168
 20
-42.5165371968
 40
69.2750694977
100
AcDbArc
 50
80.7212773904
 51
83.5646987593
  0
ARC
  5
454
100
AcDbEntity
  8
BEZUGSACHSEN
100
AcDbCircle
 62
7
  6
CONTINUOUS
 10
169.0692072332
 20
16.5215460526
 40
30.0
100
AcDbArc
 50
270.0
 51
323.9175530876
  0
ARC
  5
455
100
AcDbEntity
  8
0
100
AcDbCircle
 62
7
  6
CONTINUOUS
 10
68.9908180079
 20
16.5215460526
 40
30.0
100
AcDbArc
 50
180.0
 51
270.0
  0
ARC
  5
456
100
AcDbEntity
  8
BEZUGSACHSEN
100
AcDbCircle
 62
7
  6
CONTINUOUS
 10
203.3715477872
 20
124.5215460526
 40
7.0
100
AcDbArc
 50
180.0
 51
270.0
  0
ARC
  5
457
100
AcDbEntity
  8
BEZUGSACHSEN
100
AcDbCircle
 62
7
  6
CONTINUOUS
 10
303.4908180079
 20
108.5215460526
 40
7.0
100
AcDbArc
 50
270.0
 51
328.2554656263
  0
ARC
  5
458
100
AcDbEntity
  8
RUNDUNGEN
100
AcDbCircle
 62
7
  6
CONTINUOUS
 10
256.7478915915
 20
115.0215460526
 40
7.0
100
AcDbArc
 50
198.749340847
 51
270.0
  0
ARC
  5
459
100
AcDbEntity
  8
RUNDUNGEN
100
AcDbCircle
 62
7
  6
CONTINUOUS
 10
243.4908180079
 20
110.5215460526
 40
7.0
100
AcDbArc
 50
18.749340847
 51
90.0
  0
ARC
  5
45A
100
AcDbEntity
  8
0
100
AcDbCircle
 62
7
  6
CONTINUOUS
 10
-1101.5225534937
 20
547.7821227271
 40
1271.212901989
100
AcDbArc
 50
347.1779423406
 51
347.2995020474
  0
ARC
  5
45B
100
AcDbEntity
  8
0
100
AcDbCircle
 62
7
  6
CONTINUOUS
 10
-1088.4686692997
 20
545.6043609767
 40
1257.55331141
100
AcDbArc
 50
347.2324799165
 51
347.3558875087
  0
ARC
  5
45C
100
AcDbEntity
  8
0
100
AcDbCircle
 62
7
  6
CONTINUOUS
 10
-743.9534144495
 20
455.4678731158
 40
911.7918079948
100
AcDbArc
 50
345.2994980378
 51
345.4477499579
  0
ARC
  5
45D
100
AcDbEntity
  8
0
100
AcDbCircle
 62
7
  6
CONTINUOUS
 10
-733.7684044735
 20
453.9544688919
 40
901.0537826516
100
AcDbArc
 50
345.3500769594
 51
345.5006164203
  0
ARC
  5
45E
100
AcDbEntity
  8
0
100
AcDbCircle
 62
7
  6
CONTINUOUS
 10
-751.3702803195
 20
478.0137592714
 40
891.4047191913
100
AcDbArc
 50
345.2318549963
 51
345.3828284251
  0
ARC
  5
45F
100
AcDbEntity
  8
0
100
AcDbCircle
 62
7
  6
CONTINUOUS
 10
-557.1125725227
 20
468.0255775841
 40
706.297059512
100
AcDbArc
 50
341.9070474983
 51
342.0371777763
  0
ARC
  5
460
100
AcDbEntity
  8
0
100
AcDbCircle
 62
7
  6
CONTINUOUS
 10
-540.363252562
 20
464.6299511601
 40
688.7233034329
100
AcDbArc
 50
341.8685634415
 51
342.0285033891
  0
ARC
  5
461
100
AcDbEntity
  8
0
100
AcDbCircle
 62
7
  6
CONTINUOUS
 10
-515.0887257641
 20
438.3086445261
 40
683.3975747564
100
AcDbArc
 50
341.8799017682
 51
342.0411918997
  0
ARC
  5
462
100
AcDbEntity
  8
0
100
AcDbCircle
 62
7
  6
CONTINUOUS
 10
-479.8142238346
 20
495.4376491945
 40
655.7005266325
100
AcDbArc
 50
339.6629085369
 51
339.8132259352
  0
ARC
  5
463
100
AcDbEntity
  8
BEZUGSACHSEN
100
AcDbCircle
 62
7
  6
CONTINUOUS
 10
-162.4924776155
 20
226.7725813883
 40
362.1375226598
100
AcDbArc
 50
8.9934935141
 51
10.7290775667
  0
ARC
  5
464
100
AcDbEntity
  8
0
100
AcDbCircle
 62
7
  6
CONTINUOUS
 10
-26.5340776724
 20
353.868660004
 40
205.7077895293
100
AcDbArc
 50
320.9533367989
 51
321.4831742918
  0
ARC
  5
465
100
AcDbEntity
  8
0
100
AcDbCircle
 62
7
  6
CONTINUOUS
 10
38.5976777947
 20
329.4119127797
 40
145.4419037865
100
AcDbArc
 50
311.2095176714
 51
312.4695930955
  0
ARC
  5
466
100
AcDbEntity
  8
0
100
AcDbCircle
 62
7
  6
CONTINUOUS
 10
41.7481646303
 20
326.6361407005
 40
139.8195906244
100
AcDbArc
 50
311.5117511266
 51
312.8293349895
  0
ARC
  5
467
100
AcDbEntity
  8
0
100
AcDbCircle
 62
7
  6
CONTINUOUS
 10
52.4563328
 20
344.6651620772
 40
108.0144101221
100
AcDbArc
 50
303.6915994577
 51
305.2246709272
  0
ARC
  5
468
100
AcDbEntity
  8
RUNDUNGEN
100
AcDbCircle
 62
7
  6
CONTINUOUS
 10
68.9908180079
 20
276.5215460526
 40
30.0
100
AcDbArc
 50
90.0
 51
180.0
  0
ARC
  5
469
100
AcDbEntity
  8
BEZUGSACHSEN
100
AcDbCircle
 62
7
  6
CONTINUOUS
 10
203.3715477872
 20
168.5215460526
 40
7.0
100
AcDbArc
 50
90.0
 51
180.0
  0
ARC
  5
46A
100
AcDbEntity
  8
BEZUGSACHSEN
100
AcDbCircle
 62
7
  6
CONTINUOUS
 10
256.7478915915
 20
178.0215460526
 40
7.0
100
AcDbArc
 50
90.0
 51
161.250659153
  0
ARC
  5
46B
100
AcDbEntity
  8
BEZUGSACHSEN
100
AcDbCircle
 62
7
  6
CONTINUOUS
 10
243.4908180079
 20
182.5215460526
 40
7.0
100
AcDbArc
 50
270.0
 51
341.250659153
  0
ARC
  5
46C
100
AcDbEntity
  8
BEZUGSACHSEN
100
AcDbCircle
 62
7
  6
CONTINUOUS
 10
303.4908180079
 20
184.5215460526
 40
7.0
100
AcDbArc
 50
31.7445343737
 51
90.0
  0
ARC
  5
46D
100
AcDbEntity
  8
0
100
AcDbCircle
 62
7
  6
CONTINUOUS
 10
77.1149676049
 20
312.4791693455
 40
104.5325438673
100
AcDbArc
 50
301.3106216692
 51
302.4643618691
  0
ARC
  5
46E
100
AcDbEntity
  8
0
100
AcDbCircle
 62
7
  6
CONTINUOUS
 10
164.4885157624
 20
310.1686362094
 40
99.2030257362
100
AcDbArc
 50
240.7056443338
 51
241.8825435382
  0
ARC
  5
46F
100
AcDbEntity
  8
0
100
AcDbCircle
 62
7
  6
CONTINUOUS
 10
89.7259218532
 20
305.6798040998
 40
96.6392267597
100
AcDbArc
 50
295.9631679901
 51
297.5454296563
  0
ARC
  5
470
100
AcDbEntity
  8
0
100
AcDbCircle
 62
7
  6
CONTINUOUS
 10
153.0041660181
 20
304.3699195095
 40
93.261492151
100
AcDbArc
 50
245.7886816562
 51
247.3840926347
  0
ARC
  5
471
100
AcDbEntity
  8
0
100
AcDbCircle
 62
7
  6
CONTINUOUS
 10
91.1483426148
 20
303.4414641563
 40
92.27802416
100
AcDbArc
 50
296.2998952962
 51
297.9624920745
  0
ARC
  5
472
100
AcDbEntity
  8
0
100
AcDbCircle
 62
7
  6
CONTINUOUS
 10
151.6157391484
 20
302.2619901221
 40
89.0335341403
100
AcDbArc
 50
245.5446837629
 51
247.2184634048
  0
ARC
  5
473
100
AcDbEntity
  8
0
100
AcDbCircle
 62
7
  6
CONTINUOUS
 10
110.7464663704
 20
296.1550788567
 40
80.2366448035
100
AcDbArc
 50
283.1901913987
 51
285.3852811948
  0
ARC
  5
474
100
AcDbEntity
  8
0
100
AcDbCircle
 62
7
  6
CONTINUOUS
 10
133.0587698507
 20
295.9933469114
 40
79.3270166933
100
AcDbArc
 50
258.423925063
 51
260.6120225995
  0
ARC
  5
475
100
AcDbEntity
  8
0
100
AcDbCircle
 62
7
  6
CONTINUOUS
 10
108.2114125915
 20
297.8607045553
 40
78.2183600115
100
AcDbArc
 50
285.4550344998
 51
287.2743702725
  0
ARC
  5
476
100
AcDbEntity
  8
0
100
AcDbCircle
 62
7
  6
CONTINUOUS
 10
135.4418627254
 20
297.3564085985
 40
76.7533325534
100
AcDbArc
 50
256.6626207576
 51
258.4842469295
  0
ARC
  5
477
100
AcDbEntity
  8
0
100
AcDbCircle
 62
7
  6
CONTINUOUS
 10
111.2921154892
 20
294.157654677
 40
76.315060692
100
AcDbArc
 50
283.459612772
 51
285.7709190355
  0
ARC
  5
478
100
AcDbEntity
  8
0
100
AcDbCircle
 62
7
  6
CONTINUOUS
 10
121.9847718691
 20
293.7708019265
 40
76.0648834239
100
AcDbArc
 50
268.5944918781
 51
275.3334911196
  0
ARC
  5
479
100
AcDbEntity
  8
0
100
AcDbCircle
 62
7
  6
CONTINUOUS
 10
133.4232145528
 20
315.0040518378
 40
75.5566303545
100
AcDbArc
 50
257.5547853902
 51
259.8583537228
  0
ARC
  5
47A
100
AcDbEntity
  8
0
100
AcDbCircle
 62
7
  6
CONTINUOUS
 10
132.5241817289
 20
294.065315318
 40
75.4756191927
100
AcDbArc
 50
258.2392323367
 51
260.539959207
  0
ARC
  5
47B
100
AcDbEntity
  8
0
100
AcDbCircle
 62
7
  6
CONTINUOUS
 10
121.9851976111
 20
291.8703710986
 40
72.278337417
100
AcDbArc
 50
268.5205060077
 51
275.6134400202
  0
ARC
  5
47C
100
AcDbEntity
  8
0
100
AcDbCircle
 62
7
  6
CONTINUOUS
 10
121.9851960526
 20
294.3843571367
 40
72.2603266323
100
AcDbArc
 50
268.5201384
 51
275.6148448994
  0
ARC
  5
47D
100
AcDbEntity
  8
BEZUGSACHSEN
100
AcDbCircle
 62
7
  6
CONTINUOUS
 10
169.0692072332
 20
276.5215460526
 40
30.0
100
AcDbArc
 50
36.0824469124
 51
90.0
  0
ARC
  5
47E
100
AcDbEntity
  8
0
100
AcDbCircle
 62
7
  6
CONTINUOUS
 10
156.2249529838
 20
326.759351633
 40
95.7787125861
100
AcDbArc
 50
244.3449262834
 51
245.9161991653
  0
ARC
  5
47F
100
AcDbEntity
  8
0
100
AcDbCircle
 62
7
  6
CONTINUOUS
 10
77.4333974986
 20
336.6666747924
 40
93.4499035616
100
AcDbArc
 50
294.3399952988
 51
295.5485345005
  0
ARC
  5
480
100
AcDbEntity
  8
0
100
AcDbCircle
 62
7
  6
CONTINUOUS
 10
154.7244385172
 20
324.6213595486
 40
91.4761422538
100
AcDbArc
 50
244.0929206077
 51
245.7409629651
  0
ARC
  5
481
100
AcDbEntity
  8
0
100
AcDbCircle
 62
7
  6
CONTINUOUS
 10
79.6604709143
 20
334.3143522086
 40
88.6389788913
100
AcDbArc
 50
294.1668302437
 51
295.4395122282
  0
ARC
  5
482
100
AcDbEntity
  8
0
100
AcDbCircle
 62
7
  6
CONTINUOUS
 10
98.4876606141
 20
342.3576403448
 40
88.323607664
100
AcDbArc
 50
292.3219670286
 51
293.5810490629
  0
ARC
  5
483
100
AcDbEntity
  8
0
100
AcDbCircle
 62
7
  6
CONTINUOUS
 10
99.3176114526
 20
343.2164860264
 40
84.2604470866
100
AcDbArc
 50
292.8472729979
 51
294.1726056929
  0
ARC
  5
484
100
AcDbEntity
  8
0
100
AcDbCircle
 62
7
  6
CONTINUOUS
 10
99.5383286953
 20
340.2815765793
 40
84.1972073721
100
AcDbArc
 50
292.7024974459
 51
294.0273711873
  0
ARC
  5
485
100
AcDbEntity
  8
0
100
AcDbCircle
 62
7
  6
CONTINUOUS
 10
133.995134109
 20
316.9170283355
 40
79.4081918176
100
AcDbArc
 50
257.7454361853
 51
259.9362404454
  0
ARC
  5
486
100
AcDbEntity
  8
0
100
AcDbCircle
 62
7
  6
CONTINUOUS
 10
92.0991199496
 20
331.4157827779
 40
78.3356792049
100
AcDbArc
 50
286.8127648069
 51
288.6426766771
  0
ARC
  5
487
100
AcDbEntity
  8
0
100
AcDbCircle
 62
7
  6
CONTINUOUS
 10
106.7282006346
 20
328.7948333224
 40
77.2290846128
100
AcDbArc
 50
278.1945655436
 51
279.9850393011
  0
ARC
  5
488
100
AcDbEntity
  8
0
100
AcDbCircle
 62
7
  6
CONTINUOUS
 10
136.5957847429
 20
318.5872769657
 40
76.9943295067
100
AcDbArc
 50
255.8211430634
 51
257.6431586817
  0
ARC
  5
489
100
AcDbEntity
  8
0
100
AcDbCircle
 62
7
  6
CONTINUOUS
 10
142.4304056019
 20
335.1088518714
 40
75.8261829109
100
AcDbArc
 50
258.9242638692
 51
260.2972757909
  0
ARC
  5
48A
100
AcDbEntity
  8
0
100
AcDbCircle
 62
7
  6
CONTINUOUS
 10
122.0967913011
 20
333.5563303761
 40
73.577818213
100
AcDbArc
 50
275.8928787847
 51
277.7618646888
  0
ARC
  5
48B
100
AcDbEntity
  8
0
100
AcDbCircle
 62
7
  6
CONTINUOUS
 10
107.4780960854
 20
326.8770099987
 40
73.3281803463
100
AcDbArc
 50
278.0415419284
 51
279.9267203775
  0
ARC
  5
48C
100
AcDbEntity
  8
0
100
AcDbCircle
 62
7
  6
CONTINUOUS
 10
121.9508164415
 20
348.8411833724
 40
73.3030905868
100
AcDbArc
 50
261.0818419461
 51
270.896516111
  0
ARC
  5
48D
100
AcDbEntity
  8
0
100
AcDbCircle
 62
7
  6
CONTINUOUS
 10
122.0712936571
 20
348.3117180453
 40
72.7699350766
100
AcDbArc
 50
273.6249825357
 51
280.7209559445
  0
ARC
  5
48E
100
AcDbEntity
  8
0
100
AcDbCircle
 62
7
  6
CONTINUOUS
 10
110.3763656998
 20
328.9803433758
 40
72.1079513808
100
AcDbArc
 50
275.3824290112
 51
277.7651088346
  0
ARC
  5
48F
100
AcDbEntity
  8
0
100
AcDbCircle
 62
7
  6
CONTINUOUS
 10
141.392493012
 20
333.103610054
 40
71.7634810558
100
AcDbArc
 50
259.13363122
 51
260.5832413266
  0
ARC
  5
490
100
AcDbEntity
  8
0
100
AcDbCircle
 62
7
  6
CONTINUOUS
 10
141.4461195028
 20
335.5041949261
 40
71.0592558528
100
AcDbArc
 50
259.4695400977
 51
260.9319802709
  0
ARC
  5
491
100
AcDbEntity
  8
0
100
AcDbCircle
 62
7
  6
CONTINUOUS
 10
122.1090387691
 20
331.6738619755
 40
69.7754664099
100
AcDbArc
 50
276.205122066
 51
278.1775064191
  0
ARC
  5
492
100
AcDbEntity
  8
0
100
AcDbCircle
 62
7
  6
CONTINUOUS
 10
121.9476133137
 20
347.045034334
 40
69.5638799172
100
AcDbArc
 50
260.600910414
 51
270.9473486609
  0
ARC
  5
493
100
AcDbEntity
  8
0
100
AcDbCircle
 62
7
  6
CONTINUOUS
 10
122.1222352966
 20
334.3840926012
 40
69.5273634805
100
AcDbArc
 50
276.7104929865
 51
278.195900758
  0
ARC
  5
494
100
AcDbEntity
  8
0
100
AcDbCircle
 62
7
  6
CONTINUOUS
 10
122.0808656329
 20
346.4897700926
 40
69.0043169537
100
AcDbArc
 50
273.8151215439
 51
281.3054171912
  0
ARC
  5
495
100
AcDbEntity
  8
0
100
AcDbCircle
 62
7
  6
CONTINUOUS
 10
261.5556029257
 20
349.432067112
 40
192.4109538079
100
AcDbArc
 50
220.2758079657
 51
220.8215765943
  0
ARC
  5
496
100
AcDbEntity
  8
0
100
AcDbCircle
 62
7
  6
CONTINUOUS
 10
212.8460686511
 20
353.8693865193
 40
149.9717505256
100
AcDbArc
 50
227.9377491211
 51
229.1524881459
  0
ARC
  5
497
100
AcDbEntity
  8
0
100
AcDbCircle
 62
7
  6
CONTINUOUS
 10
209.4730030354
 20
351.1595343325
 40
144.2675881127
100
AcDbArc
 50
227.6974436591
 51
228.9644066469
  0
ARC
  5
498
100
AcDbEntity
  8
0
100
AcDbCircle
 62
7
  6
CONTINUOUS
 10
201.6064616564
 20
327.3485725507
 40
138.6171642019
100
AcDbArc
 50
229.9294325769
 51
231.2047257874
  0
ARC
  5
499
100
AcDbEntity
  8
0
100
AcDbCircle
 62
7
  6
CONTINUOUS
 10
198.5637787933
 20
324.7975864145
 40
133.2390126657
100
AcDbArc
 50
229.6933480959
 51
231.0241089569
  0
ARC
  5
49A
100
AcDbEntity
  8
0
100
AcDbCircle
 62
7
  6
CONTINUOUS
 10
169.4041255841
 20
333.7631864995
 40
103.6246154592
100
AcDbArc
 50
238.9453584417
 51
240.0920443301
  0
ARC
  5
49B
100
AcDbEntity
  8
0
100
AcDbCircle
 62
7
  6
CONTINUOUS
 10
176.5453267482
 20
350.9876918882
 40
102.5800661651
100
AcDbArc
 50
240.145291967
 51
241.6685209416
  0
ARC
  5
49C
100
AcDbEntity
  8
0
100
AcDbCircle
 62
7
  6
CONTINUOUS
 10
173.8858305388
 20
348.5123834145
 40
97.4389803762
100
AcDbArc
 50
240.2132389181
 51
241.8151751595
  0
ARC
  5
49D
100
AcDbEntity
  8
0
100
AcDbCircle
 62
7
  6
CONTINUOUS
 10
398.773987721
 20
413.4124223135
 40
333.5061066475
100
AcDbArc
 50
210.4211946949
 51
210.8230533742
  0
ARC
  5
49E
100
AcDbEntity
  8
0
100
AcDbCircle
 62
7
  6
CONTINUOUS
 10
391.394927759
 20
410.1173465173
 40
324.4921362803
100
AcDbArc
 50
210.283547186
 51
210.6981748981
  0
ARC
  5
49F
100
AcDbEntity
  8
0
100
AcDbCircle
 62
7
  6
CONTINUOUS
 10
390.4376015481
 20
426.7481440376
 40
311.9890756822
100
AcDbArc
 50
211.4528911162
 51
211.8697605287
  0
ARC
  5
4A0
100
AcDbEntity
  8
0
100
AcDbCircle
 62
7
  6
CONTINUOUS
 10
-122.2657181505
 20
381.2005357768
 40
304.0046291007
100
AcDbArc
 50
328.4491924699
 51
328.8810070076
  0
ARC
  5
4A1
100
AcDbEntity
  8
0
100
AcDbCircle
 62
7
  6
CONTINUOUS
 10
381.5007548499
 20
423.1301141732
 40
301.4722382134
100
AcDbArc
 50
211.4402332362
 51
211.8717105584
  0
ARC
  5
4A2
100
AcDbEntity
  8
0
100
AcDbCircle
 62
7
  6
CONTINUOUS
 10
-115.4643996437
 20
377.8778185357
 40
295.4427664828
100
AcDbArc
 50
328.6330963096
 51
329.0798785073
  0
ARC
  5
4A3
100
AcDbEntity
  8
0
100
AcDbCircle
 62
7
  6
CONTINUOUS
 10
355.0895972395
 20
377.4127798364
 40
288.6014467746
100
AcDbArc
 50
212.3137632431
 51
212.7536068864
  0
ARC
  5
4A4
100
AcDbEntity
  8
0
100
AcDbCircle
 62
7
  6
CONTINUOUS
 10
348.649228712
 20
374.4842697633
 40
280.5630911566
100
AcDbArc
 50
212.1786100979
 51
212.6326476297
  0
ARC
  5
4A5
100
AcDbEntity
  8
0
100
AcDbCircle
 62
7
  6
CONTINUOUS
 10
-83.0775212752
 20
387.8250066486
 40
236.4293928062
100
AcDbArc
 50
325.2495304163
 51
325.7593703301
  0
ARC
  5
4A6
100
AcDbEntity
  8
0
100
AcDbCircle
 62
7
  6
CONTINUOUS
 10
-48.8969423534
 20
405.5555571065
 40
233.4423290976
100
AcDbArc
 50
322.4592288889
 51
323.1851365955
  0
ARC
  5
4A7
100
AcDbEntity
  8
0
100
AcDbCircle
 62
7
  6
CONTINUOUS
 10
-43.3270860996
 20
401.9331326268
 40
225.6046548205
100
AcDbArc
 50
322.7288027734
 51
323.4848917837
  0
ARC
  5
4A8
100
AcDbEntity
  8
0
100
AcDbCircle
 62
7
  6
CONTINUOUS
 10
285.4578201279
 20
380.6604046993
 40
217.1166196131
100
AcDbArc
 50
218.1667457756
 51
218.6727307362
  0
ARC
  5
4A9
100
AcDbEntity
  8
0
100
AcDbCircle
 62
7
  6
CONTINUOUS
 10
-19.4082928902
 20
372.5698523293
 40
181.58714202
100
AcDbArc
 50
317.6335272993
 51
318.1944404602
  0
ARC
  5
4AA
100
AcDbEntity
  8
0
100
AcDbCircle
 62
7
  6
CONTINUOUS
 10
-13.0996597465
 20
369.1470167343
 40
173.3225689437
100
AcDbArc
 50
317.5343542489
 51
318.1210360947
  0
ARC
  5
4AB
100
AcDbEntity
  8
0
100
AcDbCircle
 62
7
  6
CONTINUOUS
 10
19.2021225409
 20
380.461155067
 40
161.7410677373
100
AcDbArc
 50
315.1257986235
 51
315.7272027999
  0
ARC
  5
4AC
100
AcDbEntity
  8
0
100
AcDbCircle
 62
7
  6
CONTINUOUS
 10
53.2682065996
 20
364.689495103
 40
130.9791520761
100
AcDbArc
 50
307.9523497808
 51
309.2865709239
  0
ARC
  5
4AD
100
AcDbEntity
  8
0
100
AcDbCircle
 62
7
  6
CONTINUOUS
 10
55.9197548727
 20
362.0216415968
 40
125.6933108578
100
AcDbArc
 50
308.2996084732
 51
309.6973582944
  0
ARC
  5
4AE
100
AcDbEntity
  8
0
100
AcDbCircle
 62
7
  6
CONTINUOUS
 10
199.1265424292
 20
360.9916410902
 40
118.6821098091
100
AcDbArc
 50
232.7372578353
 51
233.4565893516
  0
ARC
  5
4AF
100
AcDbEntity
  8
0
100
AcDbCircle
 62
7
  6
CONTINUOUS
 10
442.2076482953
 20
-120.3693302079
 40
333.5061066468
100
AcDbArc
 50
30.4211946949
 51
30.8230533742
  0
ARC
  5
4B0
100
AcDbEntity
  8
0
100
AcDbCircle
 62
7
  6
CONTINUOUS
 10
449.586708269
 20
-117.0742544048
 40
324.4921362661
100
AcDbArc
 50
30.2835471859
 51
30.6981748982
  0
ARC
  5
4B1
100
AcDbEntity
  8
0
100
AcDbCircle
 62
7
  6
CONTINUOUS
 10
450.5440344699
 20
-133.705051931
 40
311.9890756796
100
AcDbArc
 50
31.4528911162
 51
31.8697605287
  0
ARC
  5
4B2
100
AcDbEntity
  8
0
100
AcDbCircle
 62
7
  6
CONTINUOUS
 10
963.2473541562
 20
-88.1574436654
 40
304.004629089
100
AcDbArc
 50
148.4491924699
 51
148.8810070076
  0
ARC
  5
4B3
100
AcDbEntity
  8
0
100
AcDbCircle
 62
7
  6
CONTINUOUS
 10
459.4808811706
 20
-130.087022065
 40
301.4722382078
100
AcDbArc
 50
31.4402332362
 51
31.8717105584
  0
ARC
  5
4B4
100
AcDbEntity
  8
0
100
AcDbCircle
 62
7
  6
CONTINUOUS
 10
956.4460356639
 20
-84.8347264331
 40
295.4427664879
100
AcDbArc
 50
148.6330963096
 51
149.0798785073
  0
ARC
  5
4B5
100
AcDbEntity
  8
0
100
AcDbCircle
 62
7
  6
CONTINUOUS
 10
485.8920387717
 20
-84.3696877341
 40
288.60144678
100
AcDbArc
 50
32.3137632431
 51
32.7536068864
  0
ARC
  5
4B6
100
AcDbEntity
  8
0
100
AcDbCircle
 62
7
  6
CONTINUOUS
 10
492.3324073072
 20
-81.4411776559
 40
280.5630911526
100
AcDbArc
 50
32.1786100979
 51
32.6326476297
  0
ARC
  5
4B7
100
AcDbEntity
  8
0
100
AcDbCircle
 62
7
  6
CONTINUOUS
 10
924.0591572883
 20
-94.7819145415
 40
236.4293928029
100
AcDbArc
 50
145.2495304163
 51
145.7593703301
  0
ARC
  5
4B8
100
AcDbEntity
  8
0
100
AcDbCircle
 62
7
  6
CONTINUOUS
 10
889.8785783699
 20
-112.5124650017
 40
233.4423290985
100
AcDbArc
 50
142.4592288889
 51
143.1851365955
  0
ARC
  5
4B9
100
AcDbEntity
  8
0
100
AcDbCircle
 62
7
  6
CONTINUOUS
 10
884.3087221135
 20
-108.8900405201
 40
225.6046548181
100
AcDbArc
 50
142.7288027734
 51
143.4848917837
  0
ARC
  5
4BA
100
AcDbEntity
  8
0
100
AcDbCircle
 62
7
  6
CONTINUOUS
 10
555.5238158879
 20
-87.6173125941
 40
217.1166196131
100
AcDbArc
 50
38.1667457756
 51
38.6727307362
  0
ARC
  5
4BB
100
AcDbEntity
  8
0
100
AcDbCircle
 62
7
  6
CONTINUOUS
 10
860.3899289033
 20
-79.5267602216
 40
181.5871420163
100
AcDbArc
 50
137.6335272993
 51
138.1944404602
  0
ARC
  5
4BC
100
AcDbEntity
  8
0
100
AcDbCircle
 62
7
  6
CONTINUOUS
 10
854.0812957581
 20
-76.1039246253
 40
173.322568938
100
AcDbArc
 50
137.5343542489
 51
138.1210360947
  0
ARC
  5
4BD
100
AcDbEntity
  8
0
100
AcDbCircle
 62
7
  6
CONTINUOUS
 10
821.7795134793
 20
-87.418062966
 40
161.7410677434
100
AcDbArc
 50
135.1257986235
 51
135.7272027999
  0
ARC
  5
4BE
100
AcDbEntity
  8
0
100
AcDbCircle
 62
7
  6
CONTINUOUS
 10
787.7134294163
 20
-71.646402998
 40
130.9791520764
100
AcDbArc
 50
127.9523497808
 51
129.2865709239
  0
ARC
  5
4BF
100
AcDbEntity
  8
0
100
AcDbCircle
 62
7
  6
CONTINUOUS
 10
785.0618811428
 20
-68.9785494912
 40
125.6933108574
100
AcDbArc
 50
128.2996084732
 51
129.6973582944
  0
ARC
  5
4C0
100
AcDbEntity
  8
0
100
AcDbCircle
 62
7
  6
CONTINUOUS
 10
641.855093587
 20
-67.9485489843
 40
118.6821098085
100
AcDbArc
 50
52.7372578353
 51
53.4565893516
  0
ARC
  5
4C1
100
AcDbEntity
  8
0
100
AcDbCircle
 62
7
  6
CONTINUOUS
 10
579.4260330895
 20
-56.3889750073
 40
192.4109538087
100
AcDbArc
 50
40.2758079657
 51
40.8215765943
  0
ARC
  5
4C2
100
AcDbEntity
  8
0
100
AcDbCircle
 62
7
  6
CONTINUOUS
 10
628.1355673652
 20
-60.8262944135
 40
149.9717505248
100
AcDbArc
 50
47.9377491211
 51
49.1524881459
  0
ARC
  5
4C3
100
AcDbEntity
  8
0
100
AcDbCircle
 62
7
  6
CONTINUOUS
 10
631.5086329812
 20
-58.1164422264
 40
144.2675881116
100
AcDbArc
 50
47.6974436591
 51
48.9644066469
  0
ARC
  5
4C4
100
AcDbEntity
  8
0
100
AcDbCircle
 62
7
  6
CONTINUOUS
 10
639.3751743592
 20
-34.3054804456
 40
138.6171642022
100
AcDbArc
 50
49.9294325769
 51
51.2047257874
  0
ARC
  5
4C5
100
AcDbEntity
  8
0
100
AcDbCircle
 62
7
  6
CONTINUOUS
 10
642.4178572223
 20
-31.7544943095
 40
133.239012666
100
AcDbArc
 50
49.6933480959
 51
51.0241089569
  0
ARC
  5
4C6
100
AcDbEntity
  8
0
100
AcDbCircle
 62
7
  6
CONTINUOUS
 10
671.5775104324
 20
-40.7200943931
 40
103.6246154579
100
AcDbArc
 50
58.9453584417
 51
60.0920443301
  0
ARC
  5
4C7
100
AcDbEntity
  8
0
100
AcDbCircle
 62
7
  6
CONTINUOUS
 10
664.4363092682
 20
-57.944599782
 40
102.580066164
100
AcDbArc
 50
60.145291967
 51
61.6685209417
  0
ARC
  5
4C8
100
AcDbEntity
  8
0
100
AcDbCircle
 62
7
  6
CONTINUOUS
 10
667.0958054768
 20
-55.4692913096
 40
97.4389803766
100
AcDbArc
 50
60.2132389181
 51
61.8151751595
  0
ARC
  5
4C9
100
AcDbEntity
  8
0
100
AcDbCircle
 62
7
  6
CONTINUOUS
 10
684.7566830319
 20
-33.7162595278
 40
95.7787125861
100
AcDbArc
 50
64.3449262834
 51
65.9161991653
  0
ARC
  5
4CA
100
AcDbEntity
  8
0
100
AcDbCircle
 62
7
  6
CONTINUOUS
 10
763.5482385168
 20
-43.6235826863
 40
93.4499035606
100
AcDbArc
 50
114.3399952988
 51
115.5485345005
  0
ARC
  5
4CB
100
AcDbEntity
  8
0
100
AcDbCircle
 62
7
  6
CONTINUOUS
 10
686.2571974985
 20
-31.5782674436
 40
91.476142254
100
AcDbArc
 50
64.0929206077
 51
65.7409629651
  0
ARC
  5
4CC
100
AcDbEntity
  8
0
100
AcDbCircle
 62
7
  6
CONTINUOUS
 10
761.3211651011
 20
-41.2712601025
 40
88.6389788904
100
AcDbArc
 50
114.1668302437
 51
115.4395122282
  0
ARC
  5
4CD
100
AcDbEntity
  8
0
100
AcDbCircle
 62
7
  6
CONTINUOUS
 10
742.493975402
 20
-49.3145482402
 40
88.3236076647
100
AcDbArc
 50
112.3219670286
 51
113.5810490629
  0
ARC
  5
4CE
100
AcDbEntity
  8
0
100
AcDbCircle
 62
7
  6
CONTINUOUS
 10
741.6640245632
 20
-50.173393921
 40
84.2604470865
100
AcDbArc
 50
112.8472729979
 51
114.1726056929
  0
ARC
  5
4CF
100
AcDbEntity
  8
0
100
AcDbCircle
 62
7
  6
CONTINUOUS
 10
741.4433073202
 20
-47.2384844733
 40
84.1972073714
100
AcDbArc
 50
112.7024974459
 51
114.0273711873
  0
ARC
  5
4D0
100
AcDbEntity
  8
0
100
AcDbCircle
 62
7
  6
CONTINUOUS
 10
706.9865019069
 20
-23.87393623
 40
79.4081918173
100
AcDbArc
 50
77.7454361853
 51
79.9362404454
  0
ARC
  5
4D1
100
AcDbEntity
  8
0
100
AcDbCircle
 62
7
  6
CONTINUOUS
 10
748.8825160662
 20
-38.3726906724
 40
78.3356792047
100
AcDbArc
 50
106.8127648069
 51
108.6426766771
  0
ARC
  5
4D2
100
AcDbEntity
  8
0
100
AcDbCircle
 62
7
  6
CONTINUOUS
 10
734.2534353811
 20
-35.7517412166
 40
77.2290846122
100
AcDbArc
 50
98.1945655436
 51
99.9850393011
  0
ARC
  5
4D3
100
AcDbEntity
  8
0
100
AcDbCircle
 62
7
  6
CONTINUOUS
 10
704.3858512729
 20
-25.5441848605
 40
76.9943295068
100
AcDbArc
 50
75.8211430634
 51
77.6431586817
  0
ARC
  5
4D4
100
AcDbEntity
  8
0
100
AcDbCircle
 62
7
  6
CONTINUOUS
 10
698.5512304138
 20
-42.0657597667
 40
75.8261829116
100
AcDbArc
 50
78.9242638692
 51
80.2972757909
  0
ARC
  5
4D5
100
AcDbEntity
  8
0
100
AcDbCircle
 62
7
  6
CONTINUOUS
 10
718.8848447147
 20
-40.5132382709
 40
73.5778182131
100
AcDbArc
 50
95.8928787847
 51
97.7618646888
  0
ARC
  5
4D6
100
AcDbEntity
  8
0
100
AcDbCircle
 62
7
  6
CONTINUOUS
 10
733.5035399305
 20
-33.8339178938
 40
73.3281803467
100
AcDbArc
 50
98.0415419284
 51
99.9267203775
  0
ARC
  5
4D7
100
AcDbEntity
  8
0
100
AcDbCircle
 62
7
  6
CONTINUOUS
 10
719.0308195743
 20
-55.7980912671
 40
73.3030905868
100
AcDbArc
 50
81.0818419461
 51
90.896516111
  0
ARC
  5
4D8
100
AcDbEntity
  8
0
100
AcDbCircle
 62
7
  6
CONTINUOUS
 10
718.9103423587
 20
-55.2686259401
 40
72.7699350766
100
AcDbArc
 50
93.6249825357
 51
100.7209559445
  0
ARC
  5
4D9
100
AcDbEntity
  8
0
100
AcDbCircle
 62
7
  6
CONTINUOUS
 10
730.605270316
 20
-35.9372512706
 40
72.1079513808
100
AcDbArc
 50
95.3824290112
 51
97.7651088346
  0
ARC
  5
4DA
100
AcDbEntity
  8
0
100
AcDbCircle
 62
7
  6
CONTINUOUS
 10
699.5891430039
 20
-40.0605179486
 40
71.7634810556
100
AcDbArc
 50
79.13363122
 51
80.5832413266
  0
ARC
  5
4DB
100
AcDbEntity
  8
0
100
AcDbCircle
 62
7
  6
CONTINUOUS
 10
699.535516513
 20
-42.461102821
 40
71.059255853
100
AcDbArc
 50
79.4695400977
 51
80.9319802709
  0
ARC
  5
4DC
100
AcDbEntity
  8
0
100
AcDbCircle
 62
7
  6
CONTINUOUS
 10
718.8725972468
 20
-38.6307698706
 40
69.7754664103
100
AcDbArc
 50
96.205122066
 51
98.1775064191
  0
ARC
  5
4DD
100
AcDbEntity
  8
0
100
AcDbCircle
 62
7
  6
CONTINUOUS
 10
719.0340227021
 20
-54.0019422287
 40
69.5638799172
100
AcDbArc
 50
80.600910414
 51
90.9473486609
  0
ARC
  5
4DE
100
AcDbEntity
  8
0
100
AcDbCircle
 62
7
  6
CONTINUOUS
 10
718.8594007191
 20
-41.3410004956
 40
69.5273634801
100
AcDbArc
 50
96.7104929865
 51
98.195900758
  0
ARC
  5
4DF
100
AcDbEntity
  8
0
100
AcDbCircle
 62
7
  6
CONTINUOUS
 10
718.9007703829
 20
-53.4466779873
 40
69.0043169536
100
AcDbArc
 50
93.8151215439
 51
101.3054171912
  0
ARC
  5
4E0
100
AcDbEntity
  8
0
100
AcDbCircle
 62
7
  6
CONTINUOUS
 10
763.8666684107
 20
-19.43607724
 40
104.5325438669
100
AcDbArc
 50
121.3106216692
 51
122.4643618691
  0
ARC
  5
4E1
100
AcDbEntity
  8
0
100
AcDbCircle
 62
7
  6
CONTINUOUS
 10
676.493120253
 20
-17.1255441049
 40
99.2030257371
100
AcDbArc
 50
60.7056443338
 51
61.8825435382
  0
ARC
  5
4E2
100
AcDbEntity
  8
0
100
AcDbCircle
 62
7
  6
CONTINUOUS
 10
751.2557141628
 20
-12.636711995
 40
96.6392267601
100
AcDbArc
 50
115.9631679901
 51
117.5454296563
  0
ARC
  5
4E3
100
AcDbEntity
  8
0
100
AcDbCircle
 62
7
  6
CONTINUOUS
 10
687.9774699977
 20
-11.3268274043
 40
93.261492151
100
AcDbArc
 50
65.7886816562
 51
67.3840926347
  0
ARC
  5
4E4
100
AcDbEntity
  8
0
100
AcDbCircle
 62
7
  6
CONTINUOUS
 10
749.833293401
 20
-10.398372051
 40
92.27802416
100
AcDbArc
 50
116.2998952962
 51
117.9624920745
  0
ARC
  5
4E5
100
AcDbEntity
  8
0
100
AcDbCircle
 62
7
  6
CONTINUOUS
 10
689.3658968672
 20
-9.2188980172
 40
89.0335341407
100
AcDbArc
 50
65.5446837629
 51
67.2184634048
  0
ARC
  5
4E6
100
AcDbEntity
  8
0
100
AcDbCircle
 62
7
  6
CONTINUOUS
 10
730.2351696454
 20
-3.1119867515
 40
80.2366448035
100
AcDbArc
 50
103.1901913987
 51
105.3852811948
  0
ARC
  5
4E7
100
AcDbEntity
  8
0
100
AcDbCircle
 62
7
  6
CONTINUOUS
 10
707.9228661651
 20
-2.9502548061
 40
79.3270166933
100
AcDbArc
 50
78.423925063
 51
80.6120225995
  0
ARC
  5
4E8
100
AcDbEntity
  8
0
100
AcDbCircle
 62
7
  6
CONTINUOUS
 10
732.7702234242
 20
-4.8176124498
 40
78.2183600113
100
AcDbArc
 50
105.4550344998
 51
107.2743702725
  0
ARC
  5
4E9
100
AcDbEntity
  8
0
100
AcDbCircle
 62
7
  6
CONTINUOUS
 10
705.5397732904
 20
-4.313316493
 40
76.7533325532
100
AcDbArc
 50
76.6626207576
 51
78.4842469295
  0
ARC
  5
4EA
100
AcDbEntity
  8
0
100
AcDbCircle
 62
7
  6
CONTINUOUS
 10
729.6895205267
 20
-1.1145625718
 40
76.3150606921
100
AcDbArc
 50
103.459612772
 51
105.7709190355
  0
ARC
  5
4EB
100
AcDbEntity
  8
0
100
AcDbCircle
 62
7
  6
CONTINUOUS
 10
718.9968641467
 20
-0.7277098213
 40
76.0648834239
100
AcDbArc
 50
88.5944918781
 51
95.3334911196
  0
ARC
  5
4EC
100
AcDbEntity
  8
0
100
AcDbCircle
 62
7
  6
CONTINUOUS
 10
707.558421463
 20
-21.9609597328
 40
75.5566303547
100
AcDbArc
 50
77.5547853903
 51
79.8583537228
  0
ARC
  5
4ED
100
AcDbEntity
  8
0
100
AcDbCircle
 62
7
  6
CONTINUOUS
 10
708.4574542869
 20
-1.0222232127
 40
75.4756191927
100
AcDbArc
 50
78.2392323367
 51
80.539959207
  0
ARC
  5
4EE
100
AcDbEntity
  8
0
100
AcDbCircle
 62
7
  6
CONTINUOUS
 10
718.9964384047
 20
1.1727210066
 40
72.278337417
100
AcDbArc
 50
88.5205060077
 51
95.6134400202
  0
ARC
  5
4EF
100
AcDbEntity
  8
0
100
AcDbCircle
 62
7
  6
CONTINUOUS
 10
718.9964399632
 20
-1.3412650315
 40
72.2603266323
100
AcDbArc
 50
88.5201384
 51
95.6148448994
  0
ARC
  5
4F0
100
AcDbEntity
  8
BEZUGSACHSEN
100
AcDbCircle
 62
7
  6
CONTINUOUS
 10
671.9124287826
 20
16.5215460526
 40
30.0
100
AcDbArc
 50
216.0824469124
 51
270.0
  0
ARC
  5
4F1
100
AcDbEntity
  8
RUNDUNGEN
100
AcDbCircle
 62
7
  6
CONTINUOUS
 10
637.6100882286
 20
124.5215460526
 40
7.0
100
AcDbArc
 50
270.0
 51
360.0
  0
ARC
  5
4F2
100
AcDbEntity
  8
0
100
AcDbCircle
 62
7
  6
CONTINUOUS
 10
537.4908180079
 20
108.5215460526
 40
7.0
100
AcDbArc
 50
211.7445343737
 51
270.0
  0
ARC
  5
4F3
100
AcDbEntity
  8
RUNDUNGEN
100
AcDbCircle
 62
7
  6
CONTINUOUS
 10
584.2337444243
 20
115.0215460526
 40
7.0
100
AcDbArc
 50
270.0
 51
341.250659153
  0
ARC
  5
4F4
100
AcDbEntity
  8
RUNDUNGEN
100
AcDbCircle
 62
7
  6
CONTINUOUS
 10
597.4908180079
 20
110.5215460526
 40
7.0
100
AcDbArc
 50
90.0
 51
161.250659153
  0
ARC
  5
4F5
100
AcDbEntity
  8
0
100
AcDbCircle
 62
7
  6
CONTINUOUS
 10
867.5157136907
 20
-60.8255679008
 40
205.7077895326
100
AcDbArc
 50
140.9533367989
 51
141.4831742918
  0
ARC
  5
4F6
100
AcDbEntity
  8
0
100
AcDbCircle
 62
7
  6
CONTINUOUS
 10
802.3839582209
 20
-36.3688206742
 40
145.4419037862
100
AcDbArc
 50
131.2095176714
 51
132.4695930955
  0
ARC
  5
4F7
100
AcDbEntity
  8
0
100
AcDbCircle
 62
7
  6
CONTINUOUS
 10
799.233471386
 20
-33.5930485957
 40
139.8195906251
100
AcDbArc
 50
131.5117511267
 51
132.8293349895
  0
ARC
  5
4F8
100
AcDbEntity
  8
0
100
AcDbCircle
 62
7
  6
CONTINUOUS
 10
788.5253032159
 20
-51.6220699721
 40
108.0144101222
100
AcDbArc
 50
123.6915994577
 51
125.2246709272
  0
ARC
  5
4F9
100
AcDbEntity
  8
RUNDUNGEN
100
AcDbCircle
 62
7
  6
CONTINUOUS
 10
771.9908180079
 20
16.5215460526
 40
30.0
100
AcDbArc
 50
270.0
 51
360.0
  0
ARC
  5
4FA
100
AcDbEntity
  8
BEZUGSACHSEN
100
AcDbCircle
 62
7
  6
CONTINUOUS
 10
1003.4741136305
 20
66.2705107168
 40
362.137522659
100
AcDbArc
 50
188.9934935141
 51
190.7290775667
  0
ARC
  5
4FB
100
AcDbEntity
  8
0
100
AcDbCircle
 62
7
  6
CONTINUOUS
 10
1942.5041896763
 20
-254.7390306596
 40
1271.21290216
100
AcDbArc
 50
167.1779423406
 51
167.2995020474
  0
ARC
  5
4FC
100
AcDbEntity
  8
0
100
AcDbCircle
 62
7
  6
CONTINUOUS
 10
1929.4503053768
 20
-252.5612688853
 40
1257.5533114728
100
AcDbArc
 50
167.2324799165
 51
167.3558875087
  0
ARC
  5
4FD
100
AcDbEntity
  8
0
100
AcDbCircle
 62
7
  6
CONTINUOUS
 10
1584.9350505339
 20
-162.4247810285
 40
911.7918080657
100
AcDbArc
 50
165.2994980378
 51
165.4477499579
  0
ARC
  5
4FE
100
AcDbEntity
  8
0
100
AcDbCircle
 62
7
  6
CONTINUOUS
 10
1574.7500404638
 20
-160.9113767801
 40
901.0537826252
100
AcDbArc
 50
165.3500769594
 51
165.5006164203
  0
ARC
  5
4FF
100
AcDbEntity
  8
0
100
AcDbCircle
 62
7
  6
CONTINUOUS
 10
1592.3519162298
 20
-184.9706671385
 40
891.4047190823
100
AcDbArc
 50
165.2318549963
 51
165.3828284251
  0
ARC
  5
500
100
AcDbEntity
  8
0
100
AcDbCircle
 62
7
  6
CONTINUOUS
 10
1398.0942085588
 20
-174.9824854854
 40
706.2970595334
100
AcDbArc
 50
161.9070474983
 51
162.0371777763
  0
ARC
  5
501
100
AcDbEntity
  8
0
100
AcDbCircle
 62
7
  6
CONTINUOUS
 10
1381.3448884578
 20
-171.5868590157
 40
688.7233033067
100
AcDbArc
 50
161.8685634415
 51
162.0285033892
  0
ARC
  5
502
100
AcDbEntity
  8
0
100
AcDbCircle
 62
7
  6
CONTINUOUS
 10
1356.0703618441
 20
-145.2655524417
 40
683.3975748239
100
AcDbArc
 50
161.8799017682
 51
162.0411918997
  0
ARC
  5
503
100
AcDbEntity
  8
0
100
AcDbCircle
 62
7
  6
CONTINUOUS
 10
1320.7958597703
 20
-202.3945570597
 40
655.7005265472
100
AcDbArc
 50
159.6629085369
 51
159.8132259352
  0
ARC
  5
504
100
AcDbEntity
  8
0
100
AcDbCircle
 62
7
  6
CONTINUOUS
 10
1149.3153449955
 20
501.5467558067
 40
1069.4723839387
100
AcDbArc
 50
193.7714617803
 51
193.9049022061
  0
ARC
  5
505
100
AcDbEntity
  8
0
100
AcDbCircle
 62
7
  6
CONTINUOUS
 10
1137.7708587489
 20
499.9002721467
 40
1057.4041116542
100
AcDbArc
 50
193.7311469235
 51
193.8664878334
  0
ARC
  5
506
100
AcDbEntity
  8
0
100
AcDbCircle
 62
7
  6
CONTINUOUS
 10
962.0299715762
 20
450.89218231
 40
880.802003895
100
AcDbArc
 50
194.8348782804
 51
194.985489439
  0
ARC
  5
507
100
AcDbEntity
  8
0
100
AcDbCircle
 62
7
  6
CONTINUOUS
 10
951.7920546363
 20
449.5423982419
 40
870.0648242298
100
AcDbArc
 50
194.798474617
 51
194.9512980296
  0
ARC
  5
508
100
AcDbEntity
  8
0
100
AcDbCircle
 62
7
  6
CONTINUOUS
 10
869.3912512797
 20
480.5715038187
 40
790.1045727806
100
AcDbArc
 50
197.0868661103
 51
197.2332906615
  0
ARC
  5
509
100
AcDbEntity
  8
0
100
AcDbCircle
 62
7
  6
CONTINUOUS
 10
733.7285890173
 20
432.7944889225
 40
652.9053814037
100
AcDbArc
 50
198.3886674013
 51
198.5536772305
  0
ARC
  5
50A
100
AcDbEntity
  8
0
100
AcDbCircle
 62
7
  6
CONTINUOUS
 10
623.9959586569
 20
470.8076972343
 40
537.0897982939
100
AcDbArc
 50
202.1864183047
 51
202.3541149314
  0
ARC
  5
50B
100
AcDbEntity
  8
BEZUGSACHSEN
100
AcDbCircle
 62
7
  6
CONTINUOUS
 10
1003.4741136305
 20
226.7725813885
 40
362.137522659
100
AcDbArc
 50
169.2709224333
 51
171.0065064859
  0
ARC
  5
50C
100
AcDbEntity
  8
0
100
AcDbCircle
 62
7
  6
CONTINUOUS
 10
767.5194942454
 20
374.6217902586
 40
109.1008430257
100
AcDbArc
 50
236.7296371283
 51
239.3949920713
  0
ARC
  5
50D
100
AcDbEntity
  8
0
100
AcDbCircle
 62
7
  6
CONTINUOUS
 10
672.9310811992
 20
372.0710659775
 40
103.9621285068
100
AcDbArc
 50
298.152833101
 51
301.1237095647
  0
ARC
  5
50E
100
AcDbEntity
  8
0
100
AcDbCircle
 62
7
  6
CONTINUOUS
 10
765.0907714636
 20
371.6320113522
 40
103.5960927426
100
AcDbArc
 50
236.3377256699
 51
240.4431990844
  0
ARC
  5
50F
100
AcDbEntity
  8
0
100
AcDbCircle
 62
7
  6
CONTINUOUS
 10
675.6180709468
 20
368.5936217432
 40
97.9048686714
100
AcDbArc
 50
296.9815188953
 51
301.4276811839
  0
ARC
  5
510
100
AcDbEntity
  8
0
100
AcDbCircle
 62
7
  6
CONTINUOUS
 10
758.3332514257
 20
358.199455757
 40
85.8666681563
100
AcDbArc
 50
243.5134790853
 51
248.3599456489
  0
ARC
  5
511
100
AcDbEntity
  8
0
100
AcDbCircle
 62
7
  6
CONTINUOUS
 10
719.0023003512
 20
328.0377753116
 40
74.8543342291
100
AcDbArc
 50
261.2907431551
 51
275.8777238102
  0
ARC
  5
512
100
AcDbEntity
  8
0
100
AcDbCircle
 62
7
  6
CONTINUOUS
 10
719.0011223455
 20
341.1903907605
 40
74.5124837388
100
AcDbArc
 50
263.9235299593
 51
275.9056961029
  0
ARC
  5
513
100
AcDbEntity
  8
0
100
AcDbCircle
 62
7
  6
CONTINUOUS
 10
718.855600123
 20
339.6569006238
 40
72.9722072858
100
AcDbArc
 50
261.2211712502
 51
263.9096920101
  0
ARC
  5
514
100
AcDbEntity
  8
0
100
AcDbCircle
 62
7
  6
CONTINUOUS
 10
719.0026315149
 20
326.1875572813
 40
71.0938972098
100
AcDbArc
 50
260.8259311499
 51
276.1895356364
  0
ARC
  5
515
100
AcDbEntity
  8
0
100
AcDbCircle
 62
7
  6
CONTINUOUS
 10
718.9997921075
 20
336.3383947054
 40
71.0725512446
100
AcDbArc
 50
267.0816807758
 51
269.8281518034
  0
ARC
  5
516
100
AcDbEntity
  8
0
100
AcDbCircle
 62
7
  6
CONTINUOUS
 10
719.0135300807
 20
329.3614879326
 40
71.0673807982
100
AcDbArc
 50
269.8170634505
 51
276.1830159833
  0
ARC
  5
517
100
AcDbEntity
  8
0
100
AcDbCircle
 62
7
  6
CONTINUOUS
 10
718.9663126347
 20
329.1227407759
 40
70.8276585789
100
AcDbArc
 50
263.6015333023
 51
267.0986998428
  0
ARC
  5
518
100
AcDbEntity
  8
0
100
AcDbCircle
 62
7
  6
CONTINUOUS
 10
719.0086850376
 20
342.4121135001
 40
70.4625465677
100
AcDbArc
 50
260.7380238713
 51
276.2402623989
  0
ARC
  5
519
100
AcDbEntity
  8
0
100
AcDbCircle
 62
7
  6
CONTINUOUS
 10
719.0026130226
 20
339.0282115071
 40
70.4236089237
100
AcDbArc
 50
260.7378631634
 51
276.2486960157
  0
ARC
  5
51A
100
AcDbEntity
  8
0
100
AcDbCircle
 62
7
  6
CONTINUOUS
 10
718.8375452989
 20
335.5596293021
 40
69.2750694977
100
AcDbArc
 50
260.7212773904
 51
263.5646987593
  0
ARC
  5
51B
100
AcDbEntity
  8
BEZUGSACHSEN
100
AcDbCircle
 62
7
  6
CONTINUOUS
 10
671.9124287826
 20
276.5215460526
 40
30.0
100
AcDbArc
 50
90.0
 51
143.9175530876
  0
ARC
  5
51C
100
AcDbEntity
  8
0
100
AcDbCircle
 62
7
  6
CONTINUOUS
 10
771.9908180079
 20
276.5215460526
 40
30.0
100
AcDbArc
 50
0.0
 51
90.0
  0
ARC
  5
51D
100
AcDbEntity
  8
BEZUGSACHSEN
100
AcDbCircle
 62
7
  6
CONTINUOUS
 10
637.6100882286
 20
168.5215460526
 40
7.0
100
AcDbArc
 50
0.0
 51
90.0
  0
ARC
  5
51E
100
AcDbEntity
  8
BEZUGSACHSEN
100
AcDbCircle
 62
7
  6
CONTINUOUS
 10
584.2337444243
 20
178.0215460526
 40
7.0
100
AcDbArc
 50
18.749340847
 51
90.0
  0
ARC
  5
51F
100
AcDbEntity
  8
BEZUGSACHSEN
100
AcDbCircle
 62
7
  6
CONTINUOUS
 10
597.4908180079
 20
182.5215460526
 40
7.0
100
AcDbArc
 50
198.749340847
 51
270.0
  0
ARC
  5
520
100
AcDbEntity
  8
0
100
AcDbCircle
 62
7
  6
CONTINUOUS
 10
537.4908180079
 20
184.5215460526
 40
7.0
100
AcDbArc
 50
90.0
 51
148.2554656263
  0
SPLINE
  5
521
100
AcDbEntity
  8
0
100
AcDbSpline
 62
7
  6
CONTINUOUS
 70
0
 71
3
 72
9
 73
5
 74
0
 42
0.0000001
 43
0.0000001
 44
0.0000000001
 40
0.0
 40
0.0
 40
0.0
 40
0.0
 40
0.2506543859
 40
1.0
 40
1.0
 40
1.0
 40
1.0
 10
726.8200517409
 20
472.142132407
 30
0.0
 10
725.0836089924
 20
471.9522951676
 30
0.0
 10
718.1307377947
 20
471.4500583906
 30
0.0
 10
711.1028897993
 20
471.9543074563
 30
0.0
 10
705.9689874761
 20
472.9101528508
 30
0.0
  0
SPLINE
  5
522
100
AcDbEntity
  8
0
100
AcDbSpline
 62
7
  6
CONTINUOUS
 70
0
 71
3
 72
9
 73
5
 74
0
 42
0.0000001
 43
0.0000001
 44
0.0000000001
 40
0.0
 40
0.0
 40
0.0
 40
0.0
 40
0.25229405
 40
1.0
 40
1.0
 40
1.0
 40
1.0
 10
720.8626052253
 20
455.7691251417
 30
0.0
 10
719.298783156
 20
455.7284771451
 30
0.0
 10
713.0971963846
 20
455.7702559501
 30
0.0
 10
706.8975892122
 20
456.6192129334
 30
0.0
 10
702.3945198171
 20
457.7220670453
 30
0.0
  0
SPLINE
  5
523
100
AcDbEntity
  8
0
100
AcDbSpline
 62
7
  6
CONTINUOUS
 70
0
 71
3
 72
9
 73
5
 74
0
 42
0.0000001
 43
0.0000001
 44
0.0000000001
 40
0.0
 40
0.0
 40
0.0
 40
0.0
 40
0.2522616578
 40
1.0
 40
1.0
 40
1.0
 40
1.0
 10
720.8626052253
 20
466.4991991386
 30
0.0
 10
719.2991394813
 20
466.4588552265
 30
0.0
 10
713.0982238902
 20
466.5002966886
 30
0.0
 10
706.899189244
 20
467.342747282
 30
0.0
 10
702.3945198171
 20
468.4378503055
 30
0.0
  0
SPLINE
  5
524
100
AcDbEntity
  8
0
100
AcDbSpline
 62
7
  6
CONTINUOUS
 70
0
 71
3
 72
9
 73
5
 74
0
 42
0.0000001
 43
0.0000001
 44
0.0000000001
 40
0.0
 40
0.0
 40
0.0
 40
0.0
 40
0.254373594
 40
1.0
 40
1.0
 40
1.0
 40
1.0
 10
730.3945198171
 20
451.896614999
 30
0.0
 10
729.2665203476
 20
451.4637470754
 30
0.0
 10
724.7942284109
 20
449.862939325
 30
0.0
 10
720.1760571131
 20
448.6655142103
 30
0.0
 10
716.692392122
 20
448.0279903967
 30
0.0
  0
LINE
  5
525
100
AcDbEntity
  8
BEZUGSACHSEN
100
AcDbLine
 62
7
  6
CONTINUOUS
 10
639.9504291667
 20
555.9716191043
 11
640.0126260705
 21
536.29827374
  0
SPLINE
  5
526
100
AcDbEntity
  8
BEZUGSACHSEN
100
AcDbSpline
 62
7
  6
CONTINUOUS
 70
0
 71
3
 72
9
 73
5
 74
0
 42
0.0000001
 43
0.0000001
 44
0.0000000001
 40
0.0
 40
0.0
 40
0.0
 40
0.0
 40
0.2502723123
 40
1.0
 40
1.0
 40
1.0
 40
1.0
 10
647.667318232
 20
438.2964542106
 30
0.0
 10
647.7600578522
 20
434.4328511627
 30
0.0
 10
648.2480567571
 20
418.9980399583
 30
0.0
 10
649.1641863195
 20
403.5788232774
 30
0.0
 10
650.0111492532
 20
392.0325179619
 30
0.0
  0
SPLINE
  5
527
100
AcDbEntity
  8
0
100
AcDbSpline
 62
7
  6
CONTINUOUS
 70
0
 71
3
 72
9
 73
5
 74
0
 42
0.0000001
 43
0.0000001
 44
0.0000000001
 40
0.0
 40
0.0
 40
0.0
 40
0.0
 40
0.2480433784
 40
1.0
 40
1.0
 40
1.0
 40
1.0
 10
702.3945198171
 20
471.4123446278
 30
0.0
 10
704.6541272426
 20
470.8638192388
 30
0.0
 10
713.8732745589
 20
469.1280880388
 30
0.0
 10
723.4357579488
 20
469.2368954508
 30
0.0
 10
730.3945198171
 20
470.3615961931
 30
0.0
  0
SPLINE
  5
528
100
AcDbEntity
  8
BEZUGSACHSEN
100
AcDbSpline
 62
7
  6
CONTINUOUS
 70
0
 71
3
 72
11
 73
7
 74
0
 42
0.0000001
 43
0.0000001
 44
0.0000000001
 40
0.0
 40
0.0
 40
0.0
 40
0.0
 40
0.2573457515
 40
0.5068996823
 40
0.7501935262
 40
1.0
 40
1.0
 40
1.0
 40
1.0
 10
648.152623199
 20
385.0325612237
 30
0.0
 10
647.1746263081
 20
384.6983990798
 30
0.0
 10
645.267047982
 20
383.9809177408
 30
0.0
 10
642.562033285
 20
382.6367998093
 30
0.0
 10
640.1359346818
 20
380.8618675863
 30
0.0
 10
638.9256397223
 20
379.234914594
 30
0.0
 10
638.4859287136
 20
378.3331784811
 30
0.0
  0
SPLINE
  5
529
100
AcDbEntity
  8
BEZUGSACHSEN
100
AcDbSpline
 62
7
  6
CONTINUOUS
 70
0
 71
3
 72
12
 73
8
 74
0
 42
0.0000001
 43
0.0000001
 44
0.0000000001
 40
0.0
 40
0.0
 40
0.0
 40
0.0
 40
0.3465855416
 40
0.6460036992
 40
0.8720168104
 40
0.9483396682
 40
1.0
 40
1.0
 40
1.0
 40
1.0
 10
650.0111492532
 20
392.0325179619
 30
0.0
 10
649.8944678665
 20
391.1909386701
 30
0.0
 10
649.6635333089
 20
389.6225922863
 30
0.0
 10
649.2711414872
 20
387.5256449578
 30
0.0
 10
648.891394377
 20
386.0860092124
 30
0.0
 10
648.5101055327
 20
385.3097199827
 30
0.0
 10
648.2724624947
 20
385.0735079347
 30
0.0
 10
648.152623199
 20
385.0325612237
 30
0.0
  0
SPLINE
  5
52A
100
AcDbEntity
  8
0
100
AcDbSpline
 62
7
  6
CONTINUOUS
 70
0
 71
3
 72
23
 73
19
 74
0
 42
0.0000001
 43
0.0000001
 44
0.0000000001
 40
0.0
 40
0.0
 40
0.0
 40
0.0
 40
0.0492337359
 40
0.0959903297
 40
0.1442086261
 40
0.198556327
 40
0.2621224584
 40
0.3351831964
 40
0.4156237648
 40
0.4999999972
 40
0.5843762295
 40
0.6648167978
 40
0.7378775374
 40
0.8014436721
 40
0.8557913749
 40
0.9040096709
 40
0.9507662645
 40
1.0
 40
1.0
 40
1.0
 40
1.0
 10
672.1143492433
 20
536.2982709289
 30
0.0
 10
672.5888895322
 20
538.0284460162
 30
0.0
 10
673.7844282788
 20
541.3440072253
 30
0.0
 10
676.7331501069
 20
545.7731365568
 30
0.0
 10
681.0105733104
 20
549.2630475542
 30
0.0
 10
686.6006949249
 20
551.7210904273
 30
0.0
 10
693.3984071283
 20
553.3129931832
 30
0.0
 10
701.2612682755
 20
554.2527239406
 30
0.0
 10
709.9197473445
 20
554.7272058768
 30
0.0
 10
719.0008174321
 20
554.8690781447
 30
0.0
 10
728.0818875155
 20
554.7272059172
 30
0.0
 10
736.7403666364
 20
554.252724027
 30
0.0
 10
744.6032279626
 20
553.3129933342
 30
0.0
 10
751.4009404346
 20
551.7210906424
 30
0.0
 10
756.9910622528
 20
549.263047806
 30
0.0
 10
761.268485597
 20
545.7731369101
 30
0.0
 10
764.2172075259
 20
541.3440076782
 30
0.0
 10
765.4127462931
 20
538.0284464965
 30
0.0
 10
765.8872866053
 20
536.298271431
 30
0.0
  0
SPLINE
  5
52B
100
AcDbEntity
  8
0
100
AcDbSpline
 62
7
  6
CONTINUOUS
 70
0
 71
3
 72
27
 73
23
 74
0
 42
0.0000001
 43
0.0000001
 44
0.0000000001
 40
0.0
 40
0.0
 40
0.0
 40
0.0
 40
0.0464015025
 40
0.0952610901
 40
0.1467961916
 40
0.201015299
 40
0.2578798714
 40
0.3173869826
 40
0.3796303046
 40
0.444848128
 40
0.5133728815
 40
0.5490605441
 40
0.5855843163
 40
0.6227565029
 40
0.6602504884
 40
0.6976525709
 40
0.7345753214
 40
0.7707496646
 40
0.8060469538
 40
0.8738260655
 40
0.938367043
 40
1.0
 40
1.0
 40
1.0
 40
1.0
 10
765.8872866064
 20
536.298271431
 30
0.0
 10
766.7421441829
 20
533.1814591318
 30
0.0
 10
767.9865528746
 20
526.6413852121
 30
0.0
 10
768.8735635686
 20
516.4466610277
 30
0.0
 10
769.0559690521
 20
505.6717502608
 30
0.0
 10
768.581680035
 20
494.3487822826
 30
0.0
 10
767.3293720805
 20
482.5231178676
 30
0.0
 10
765.0022874606
 20
470.2830693906
 30
0.0
 10
761.1096578717
 20
457.8136275637
 30
0.0
 10
754.9676036854
 20
445.5379899415
 30
0.0
 10
747.3321776752
 20
436.3297654469
 30
0.0
 10
739.4819013824
 20
430.3887616087
 30
0.0
 10
732.648209963
 20
426.9178650983
 30
0.0
 10
725.1354053255
 20
424.8228203937
 30
0.0
 10
717.2837943886
 20
424.3458352895
 30
0.0
 10
709.5292518049
 20
425.5476294804
 30
0.0
 10
702.2790698184
 20
428.2785419717
 30
0.0
 10
695.8083965317
 20
432.2475950247
 30
0.0
 10
688.4792152352
 20
438.6566793888
 30
0.0
 10
681.4619652615
 20
448.1607535267
 30
0.0
 10
675.8793511177
 20
460.5311766901
 30
0.0
 10
673.4927511343
 20
469.0171532979
 30
0.0
 10
672.5572000921
 20
473.2067763881
 30
0.0
  0
SPLINE
  5
52C
100
AcDbEntity
  8
0
100
AcDbSpline
 62
7
  6
CONTINUOUS
 70
0
 71
3
 72
9
 73
5
 74
0
 42
0.0000001
 43
0.0000001
 44
0.0000000001
 40
0.0
 40
0.0
 40
0.0
 40
0.0
 40
0.2461248455
 40
1.0
 40
1.0
 40
1.0
 40
1.0
 10
717.8838813417
 20
444.1155757871
 30
0.0
 10
718.9308519304
 20
444.3168788028
 30
0.0
 10
723.1672890797
 20
445.2231440934
 30
0.0
 10
727.3285819226
 20
446.4773607336
 30
0.0
 10
730.3945198171
 20
447.6016747747
 30
0.0
  0
SPLINE
  5
52D
100
AcDbEntity
  8
0
100
AcDbSpline
 62
7
  6
CONTINUOUS
 70
0
 71
3
 72
9
 73
5
 74
0
 42
0.0000001
 43
0.0000001
 44
0.0000000001
 40
0.0
 40
0.0
 40
0.0
 40
0.0
 40
0.2472127478
 40
1.0
 40
1.0
 40
1.0
 40
1.0
 10
702.3945198171
 20
466.239125162
 30
0.0
 10
703.8837812611
 20
465.8766343288
 30
0.0
 10
709.9571274804
 20
464.6184857157
 30
0.0
 10
716.1968099981
 20
464.1775665942
 30
0.0
 10
720.8626052253
 20
464.2981091057
 30
0.0
  0
SPLINE
  5
52E
100
AcDbEntity
  8
0
100
AcDbSpline
 62
7
  6
CONTINUOUS
 70
0
 71
3
 72
9
 73
5
 74
0
 42
0.0000001
 43
0.0000001
 44
0.0000000001
 40
0.0
 40
0.0
 40
0.0
 40
0.0
 40
0.2481546708
 40
1.0
 40
1.0
 40
1.0
 40
1.0
 10
702.3945198171
 20
438.7768540798
 30
0.0
 10
704.6580135324
 20
438.242209587
 30
0.0
 10
713.8824573843
 20
436.5484343458
 30
0.0
 10
723.4340356275
 20
436.6552179304
 30
0.0
 10
730.3945198171
 20
437.7529726082
 30
0.0
  0
SPLINE
  5
52F
100
AcDbEntity
  8
0
100
AcDbSpline
 62
7
  6
CONTINUOUS
 70
0
 71
3
 72
9
 73
5
 74
0
 42
0.0000001
 43
0.0000001
 44
0.0000000001
 40
0.0
 40
0.0
 40
0.0
 40
0.0
 40
0.2471712205
 40
1.0
 40
1.0
 40
1.0
 40
1.0
 10
702.3945198171
 20
455.6629091101
 30
0.0
 10
703.8830246093
 20
455.2976762582
 30
0.0
 10
709.9550394442
 20
454.0295499939
 30
0.0
 10
716.1960494357
 20
453.5848332954
 30
0.0
 10
720.8626052253
 20
453.7063523585
 30
0.0
  0
SPLINE
  5
530
100
AcDbEntity
  8
0
100
AcDbSpline
 62
7
  6
CONTINUOUS
 70
0
 71
3
 72
9
 73
5
 74
0
 42
0.0000001
 43
0.0000001
 44
0.0000000001
 40
0.0
 40
0.0
 40
0.0
 40
0.0
 40
0.2459673881
 40
1.0
 40
1.0
 40
1.0
 40
1.0
 10
717.8838813417
 20
446.0450551
 30
0.0
 10
718.9313801308
 20
446.2451259036
 30
0.0
 10
723.1718538014
 20
447.151641714
 30
0.0
 10
727.3332301915
 20
448.4244570322
 30
0.0
 10
730.3945198171
 20
449.571815048
 30
0.0
  0
SPLINE
  5
531
100
AcDbEntity
  8
0
100
AcDbSpline
 62
7
  6
CONTINUOUS
 70
0
 71
3
 72
9
 73
5
 74
0
 42
0.0000001
 43
0.0000001
 44
0.0000000001
 40
0.0
 40
0.0
 40
0.0
 40
0.0
 40
0.2475018981
 40
1.0
 40
1.0
 40
1.0
 40
1.0
 10
702.3945198171
 20
464.2383482168
 30
0.0
 10
703.8889086943
 20
463.8945454916
 30
0.0
 10
709.97067715
 20
462.7021963271
 30
0.0
 10
716.2018199367
 20
462.2840462183
 30
0.0
 10
720.8626052253
 20
462.398492338
 30
0.0
  0
SPLINE
  5
532
100
AcDbEntity
  8
0
100
AcDbSpline
 62
7
  6
CONTINUOUS
 70
0
 71
3
 72
9
 73
5
 74
0
 42
0.0000001
 43
0.0000001
 44
0.0000000001
 40
0.0
 40
0.0
 40
0.0
 40
0.0
 40
0.2479342377
 40
1.0
 40
1.0
 40
1.0
 40
1.0
 10
702.3945198171
 20
440.8315310243
 30
0.0
 10
704.6499055979
 20
440.2676369767
 30
0.0
 10
713.8620096034
 20
438.4801937899
 30
0.0
 10
723.4382760178
 20
438.5918418859
 30
0.0
 10
730.3945198171
 20
439.7494734833
 30
0.0
  0
SPLINE
  5
533
100
AcDbEntity
  8
0
100
AcDbSpline
 62
7
  6
CONTINUOUS
 70
0
 71
3
 72
9
 73
5
 74
0
 42
0.0000001
 43
0.0000001
 44
0.0000000001
 40
0.0
 40
0.0
 40
0.0
 40
0.0
 40
0.2474649801
 40
1.0
 40
1.0
 40
1.0
 40
1.0
 10
702.3945198171
 20
453.6461172739
 30
0.0
 10
703.8882374358
 20
453.2997428992
 30
0.0
 10
709.9688306927
 20
452.0980891047
 30
0.0
 10
716.2011468156
 20
451.6764293686
 30
0.0
 10
720.8626052253
 20
451.7917852733
 30
0.0
  0
SPLINE
  5
534
100
AcDbEntity
  8
RUNDUNGEN
100
AcDbSpline
 62
7
  6
CONTINUOUS
 70
0
 71
3
 72
17
 73
13
 74
0
 42
0.0000001
 43
0.0000001
 44
0.0000000001
 40
0.0
 40
0.0
 40
0.0
 40
0.0
 40
0.0694047446
 40
0.137777448
 40
0.2048408144
 40
0.2707361279
 40
0.399570154
 40
0.5252790949
 40
0.6481080415
 40
0.7681289522
 40
0.8853825407
 40
1.0
 40
1.0
 40
1.0
 40
1.0
 10
771.9908180079
 20
414.3116637767
 30
0.0
 10
773.4761632067
 20
414.3116637767
 30
0.0
 10
776.4417030603
 20
414.8068717604
 30
0.0
 10
780.4249347772
 20
416.7317487326
 30
0.0
 10
783.8640178383
 20
419.3620044323
 30
0.0
 10
787.7853175587
 20
423.3821209587
 30
0.0
 10
791.7650367585
 20
429.0140296834
 30
0.0
 10
795.4863586643
 20
436.1998686729
 30
0.0
 10
798.3362327076
 20
443.569890467
 30
0.0
 10
800.396476989
 20
451.0088387413
 30
0.0
 10
801.6788846866
 20
458.4421687288
 30
0.0
 10
801.9908180079
 20
463.4080176244
 30
0.0
 10
801.9908180079
 20
465.8609694194
 30
0.0
  0
SPLINE
  5
535
100
AcDbEntity
  8
BEZUGSACHSEN
100
AcDbSpline
 62
7
  6
CONTINUOUS
 70
0
 71
3
 72
13
 73
9
 74
0
 42
0.0000001
 43
0.0000001
 44
0.0000000001
 40
0.0
 40
0.0
 40
0.0
 40
0.0
 40
0.2388945099
 40
0.4839877288
 40
0.609419634
 40
0.7371353041
 40
0.867494054
 40
1.0
 40
1.0
 40
1.0
 40
1.0
 10
647.667318232
 20
438.2964542106
 30
0.0
 10
648.7627693145
 20
435.6579308139
 30
0.0
 10
651.2864371253
 20
430.4339344195
 30
0.0
 10
655.3482893803
 20
424.3351916323
 30
0.0
 10
659.3938242483
 20
419.9417542081
 30
0.0
 10
662.9725374134
 20
417.0379796961
 30
0.0
 10
667.16480404
 20
414.8777438674
 30
0.0
 10
670.3278177624
 20
414.3116637767
 30
0.0
 10
671.9124287826
 20
414.3116637767
 30
0.0
  0
SPLINE
  5
536
100
AcDbEntity
  8
BEZUGSACHSEN
100
AcDbSpline
 62
7
  6
CONTINUOUS
 70
0
 71
3
 72
11
 73
7
 74
0
 42
0.0000001
 43
0.0000001
 44
0.0000000001
 40
0.0
 40
0.0
 40
0.0
 40
0.0
 40
0.2130347779
 40
0.4526112988
 40
0.7159630155
 40
1.0
 40
1.0
 40
1.0
 40
1.0
 10
640.0126260705
 20
536.29827374
 30
0.0
 10
640.0346598479
 20
529.3151688178
 30
0.0
 10
640.5514605835
 20
514.4802258821
 30
0.0
 10
642.2916292005
 20
491.0735343025
 30
0.0
 10
644.762499101
 20
465.3948421562
 30
0.0
 10
646.6637691708
 20
447.5527570366
 30
0.0
 10
647.667318232
 20
438.2964542106
 30
0.0
  0
SPLINE
  5
537
100
AcDbEntity
  8
0
100
AcDbSpline
 62
7
  6
CONTINUOUS
 70
0
 71
3
 72
9
 73
5
 74
0
 42
0.0000001
 43
0.0000001
 44
0.0000000001
 40
0.0
 40
0.0
 40
0.0
 40
0.0
 40
0.248251262
 40
1.0
 40
1.0
 40
1.0
 40
1.0
 10
702.3945198171
 20
469.4168683186
 30
0.0
 10
704.6617517647
 20
468.8966331646
 30
0.0
 10
713.8923984277
 20
467.250993058
 30
0.0
 10
723.4318043041
 20
467.3550685786
 30
0.0
 10
730.3945198171
 20
468.4220950149
 30
0.0
  0
SPLINE
  5
538
100
AcDbEntity
  8
0
100
AcDbSpline
 62
7
  6
CONTINUOUS
 70
0
 71
3
 72
13
 73
9
 74
0
 42
0.0000001
 43
0.0000001
 44
0.0000000001
 40
0.0
 40
0.0
 40
0.0
 40
0.0
 40
0.2771562494
 40
0.53620376
 40
0.6588577338
 40
0.7768897044
 40
0.8904589634
 40
1.0
 40
1.0
 40
1.0
 40
1.0
 10
672.5572000921
 20
473.2067763881
 30
0.0
 10
671.2774692799
 20
478.9377194558
 30
0.0
 10
669.6223171403
 20
490.2118489666
 30
0.0
 10
668.9410623259
 20
504.1697921574
 30
0.0
 10
669.1104489681
 20
514.7594816425
 30
0.0
 10
669.5975541726
 20
522.2531552902
 30
0.0
 10
670.5126709128
 20
529.4279466237
 30
0.0
 10
671.5004769668
 20
534.0600913896
 30
0.0
 10
672.1143492461
 20
536.2982709289
 30
0.0
  0
SPLINE
  5
539
100
AcDbEntity
  8
0
100
AcDbSpline
 62
7
  6
CONTINUOUS
 70
0
 71
3
 72
9
 73
5
 74
0
 42
0.0000001
 43
0.0000001
 44
0.0000000001
 40
0.0
 40
0.0
 40
0.0
 40
0.0
 40
0.2551009901
 40
1.0
 40
1.0
 40
1.0
 40
1.0
 10
133.3138180079
 20
443.5761983201
 30
0.0
 10
132.5433516976
 20
443.189484104
 30
0.0
 10
129.5008682468
 20
441.7184108693
 30
0.0
 10
126.3709520545
 20
440.4271685222
 30
0.0
 10
124.0008507075
 20
439.5790988669
 30
0.0
  0
SPLINE
  5
53A
100
AcDbEntity
  8
0
100
AcDbSpline
 62
7
  6
CONTINUOUS
 70
0
 71
3
 72
9
 73
5
 74
0
 42
0.0000001
 43
0.0000001
 44
0.0000000001
 40
0.0
 40
0.0
 40
0.0
 40
0.0
 40
0.2441167852
 40
1.0
 40
1.0
 40
1.0
 40
1.0
 10
124.0008507075
 20
439.5790988669
 30
0.0
 10
123.1945655059
 20
439.8211553334
 30
0.0
 10
119.9086170903
 20
440.8684773485
 30
0.0
 10
116.69299409
 20
442.1343956123
 30
0.0
 10
114.3138180079
 20
443.1993820352
 30
0.0
  0
SPLINE
  5
53B
100
AcDbEntity
  8
0
100
AcDbSpline
 62
7
  6
CONTINUOUS
 70
0
 71
3
 72
9
 73
5
 74
0
 42
0.0000001
 43
0.0000001
 44
0.0000000001
 40
0.0
 40
0.0
 40
0.0
 40
0.0
 40
0.2430412067
 40
1.0
 40
1.0
 40
1.0
 40
1.0
 10
114.3138180079
 20
434.4862905518
 30
0.0
 10
115.1131215521
 20
434.6565003158
 30
0.0
 10
118.388821627
 20
435.4173287806
 30
0.0
 10
121.6086840789
 20
436.4144169493
 30
0.0
 10
124.0008507075
 20
437.2838704798
 30
0.0
  0
SPLINE
  5
53C
100
AcDbEntity
  8
0
100
AcDbSpline
 62
7
  6
CONTINUOUS
 70
0
 71
3
 72
9
 73
5
 74
0
 42
0.0000001
 43
0.0000001
 44
0.0000000001
 40
0.0
 40
0.0
 40
0.0
 40
0.0
 40
0.2570816989
 40
1.0
 40
1.0
 40
1.0
 40
1.0
 10
124.0008507075
 20
437.2838704798
 30
0.0
 10
124.7852714341
 20
437.0513988727
 30
0.0
 10
127.8511630587
 20
436.1977596648
 30
0.0
 10
130.9752569642
 20
435.5493539834
 30
0.0
 10
133.3138180079
 20
435.2015531026
 30
0.0
  0
SPLINE
  5
53D
100
AcDbEntity
  8
BEZUGSACHSEN
100
AcDbSpline
 62
7
  6
CONTINUOUS
 70
0
 71
3
 72
11
 73
7
 74
0
 42
0.0000001
 43
0.0000001
 44
0.0000000001
 40
0.0
 40
0.0
 40
0.0
 40
0.0
 40
0.2130347779
 40
0.4526112988
 40
0.7159630155
 40
1.0
 40
1.0
 40
1.0
 40
1.0
 10
200.9690099453
 20
536.29827374
 30
0.0
 10
200.9469761679
 20
529.3151688178
 30
0.0
 10
200.4301754323
 20
514.4802258821
 30
0.0
 10
198.6900068153
 20
491.0735343025
 30
0.0
 10
196.2191369148
 20
465.3948421562
 30
0.0
 10
194.317866845
 20
447.5527570366
 30
0.0
 10
193.3143177838
 20
438.2964542106
 30
0.0
  0
SPLINE
  5
53E
100
AcDbEntity
  8
BEZUGSACHSEN
100
AcDbSpline
 62
7
  6
CONTINUOUS
 70
0
 71
3
 72
13
 73
9
 74
0
 42
0.0000001
 43
0.0000001
 44
0.0000000001
 40
0.0
 40
0.0
 40
0.0
 40
0.0
 40
0.2388945099
 40
0.4839877288
 40
0.609419634
 40
0.7371353041
 40
0.867494054
 40
1.0
 40
1.0
 40
1.0
 40
1.0
 10
193.3143177838
 20
438.2964542106
 30
0.0
 10
192.2188667013
 20
435.6579308139
 30
0.0
 10
189.6951988905
 20
430.4339344195
 30
0.0
 10
185.6333466355
 20
424.3351916323
 30
0.0
 10
181.5878117675
 20
419.9417542081
 30
0.0
 10
178.0090986024
 20
417.0379796961
 30
0.0
 10
173.8168319757
 20
414.8777438674
 30
0.0
 10
170.6538182533
 20
414.3116637767
 30
0.0
 10
169.0692072332
 20
414.3116637767
 30
0.0
  0
SPLINE
  5
53F
100
AcDbEntity
  8
0
100
AcDbSpline
 62
7
  6
CONTINUOUS
 70
0
 71
3
 72
17
 73
13
 74
0
 42
0.0000001
 43
0.0000001
 44
0.0000000001
 40
0.0
 40
0.0
 40
0.0
 40
0.0
 40
0.0694047446
 40
0.137777448
 40
0.2048408144
 40
0.2707361279
 40
0.399570154
 40
0.5252790949
 40
0.6481080415
 40
0.7681289522
 40
0.8853825407
 40
1.0
 40
1.0
 40
1.0
 40
1.0
 10
68.9908180079
 20
414.3116637767
 30
0.0
 10
67.505472809
 20
414.3116637767
 30
0.0
 10
64.5399329555
 20
414.8068717604
 30
0.0
 10
60.5567012386
 20
416.7317487326
 30
0.0
 10
57.1176181775
 20
419.3620044323
 30
0.0
 10
53.1963184571
 20
423.3821209587
 30
0.0
 10
49.2165992572
 20
429.0140296834
 30
0.0
 10
45.4952773515
 20
436.1998686729
 30
0.0
 10
42.6454033082
 20
443.569890467
 30
0.0
 10
40.5851590268
 20
451.0088387413
 30
0.0
 10
39.3027513292
 20
458.4421687288
 30
0.0
 10
38.9908180079
 20
463.4080176244
 30
0.0
 10
38.9908180079
 20
465.8609694194
 30
0.0
  0
SPLINE
  5
540
100
AcDbEntity
  8
BEZUGSACHSEN
100
AcDbSpline
 62
7
  6
CONTINUOUS
 70
0
 71
3
 72
9
 73
5
 74
0
 42
0.0000001
 43
0.0000001
 44
0.0000000001
 40
0.0
 40
0.0
 40
0.0
 40
0.0
 40
0.2497811256
 40
1.0
 40
1.0
 40
1.0
 40
1.0
 10
190.9704867626
 20
392.0325179619
 30
0.0
 10
191.2526603376
 20
395.8792769165
 30
0.0
 10
192.310924393
 20
411.2847013952
 30
0.0
 10
193.0363231833
 20
426.7149879154
 30
0.0
 10
193.3143177838
 20
438.2964542106
 30
0.0
  0
LINE
  5
541
100
AcDbEntity
  8
BEZUGSACHSEN
100
AcDbLine
 62
7
  6
CONTINUOUS
 10
200.9690099453
 20
536.29827374
 11
201.0312068491
 21
555.9716191043
  0
SPLINE
  5
542
100
AcDbEntity
  8
BEZUGSACHSEN
100
AcDbSpline
 62
7
  6
CONTINUOUS
 70
0
 71
3
 72
11
 73
7
 74
0
 42
0.0000001
 43
0.0000001
 44
0.0000000001
 40
0.0
 40
0.0
 40
0.0
 40
0.0
 40
0.2498065997
 40
0.4931004108
 40
0.7426543442
 40
1.0
 40
1.0
 40
1.0
 40
1.0
 10
202.4957073022
 20
378.3331784811
 30
0.0
 10
202.0559960704
 20
379.2349150516
 30
0.0
 10
200.8457001947
 20
380.8618675136
 30
0.0
 10
198.4196032587
 20
382.6368030289
 30
0.0
 10
195.714585829
 20
383.9809145712
 30
0.0
 10
193.8070093475
 20
384.6983992029
 30
0.0
 10
192.8290128168
 20
385.0325612237
 30
0.0
  0
SPLINE
  5
543
100
AcDbEntity
  8
BEZUGSACHSEN
100
AcDbSpline
 62
7
  6
CONTINUOUS
 70
0
 71
3
 72
12
 73
8
 74
0
 42
0.0000001
 43
0.0000001
 44
0.0000000001
 40
0.0
 40
0.0
 40
0.0
 40
0.0
 40
0.0516603909
 40
0.1279832933
 40
0.3539964335
 40
0.6534145386
 40
1.0
 40
1.0
 40
1.0
 40
1.0
 10
192.8290128168
 20
385.0325612237
 30
0.0
 10
192.7091733854
 20
385.073507981
 30
0.0
 10
192.4715304782
 20
385.309720614
 30
0.0
 10
192.0902411342
 20
386.086009755
 30
0.0
 10
191.7104944911
 20
387.5256458768
 30
0.0
 10
191.3181025751
 20
389.62259279
 30
0.0
 10
191.0871681209
 20
391.1909388745
 30
0.0
 10
190.9704867626
 20
392.0325179619
 30
0.0
  0
SPLINE
  5
544
100
AcDbEntity
  8
0
100
AcDbSpline
 62
7
  6
CONTINUOUS
 70
0
 71
3
 72
23
 73
19
 74
0
 42
0.0000001
 43
0.0000001
 44
0.0000000001
 40
0.0
 40
0.0
 40
0.0
 40
0.0
 40
0.0492337359
 40
0.0959903297
 40
0.1442086261
 40
0.198556327
 40
0.2621224584
 40
0.3351831964
 40
0.4156237648
 40
0.4999999972
 40
0.5843762295
 40
0.6648167978
 40
0.7378775374
 40
0.8014436721
 40
0.8557913749
 40
0.9040096709
 40
0.9507662645
 40
1.0
 40
1.0
 40
1.0
 40
1.0
 10
168.8672867725
 20
536.2982709289
 30
0.0
 10
168.3927464836
 20
538.0284460162
 30
0.0
 10
167.197207737
 20
541.3440072253
 30
0.0
 10
164.2484859089
 20
545.7731365568
 30
0.0
 10
159.9710627054
 20
549.2630475542
 30
0.0
 10
154.3809410908
 20
551.7210904273
 30
0.0
 10
147.5832288874
 20
553.3129931832
 30
0.0
 10
139.7203677403
 20
554.2527239406
 30
0.0
 10
131.0618886713
 20
554.7272058768
 30
0.0
 10
121.9808185837
 20
554.8690781447
 30
0.0
 10
112.8997485003
 20
554.7272059172
 30
0.0
 10
104.2412693794
 20
554.252724027
 30
0.0
 10
96.3784080532
 20
553.3129933342
 30
0.0
 10
89.5806955812
 20
551.7210906424
 30
0.0
 10
83.990573763
 20
549.263047806
 30
0.0
 10
79.7131504188
 20
545.7731369101
 30
0.0
 10
76.7644284899
 20
541.3440076782
 30
0.0
 10
75.5688897227
 20
538.0284464965
 30
0.0
 10
75.0943494105
 20
536.298271431
 30
0.0
  0
SPLINE
  5
545
100
AcDbEntity
  8
0
100
AcDbSpline
 62
7
  6
CONTINUOUS
 70
0
 71
3
 72
27
 73
23
 74
0
 42
0.0000001
 43
0.0000001
 44
0.0000000001
 40
0.0
 40
0.0
 40
0.0
 40
0.0
 40
0.0464015025
 40
0.0952610901
 40
0.1467961916
 40
0.201015299
 40
0.2578798714
 40
0.3173869826
 40
0.3796303046
 40
0.444848128
 40
0.5133728815
 40
0.5490605441
 40
0.5855843163
 40
0.6227565029
 40
0.6602504884
 40
0.6976525709
 40
0.7345753214
 40
0.7707496646
 40
0.8060469538
 40
0.8738260655
 40
0.938367043
 40
1.0
 40
1.0
 40
1.0
 40
1.0
 10
75.0943494094
 20
536.298271431
 30
0.0
 10
74.2394918329
 20
533.1814591318
 30
0.0
 10
72.9950831412
 20
526.6413852121
 30
0.0
 10
72.1080724472
 20
516.4466610277
 30
0.0
 10
71.9256669637
 20
505.6717502608
 30
0.0
 10
72.3999559808
 20
494.3487822826
 30
0.0
 10
73.6522639353
 20
482.5231178676
 30
0.0
 10
75.9793485552
 20
470.2830693906
 30
0.0
 10
79.8719781441
 20
457.8136275637
 30
0.0
 10
86.0140323304
 20
445.5379899415
 30
0.0
 10
93.6494583406
 20
436.3297654469
 30
0.0
 10
101.4997346334
 20
430.3887616087
 30
0.0
 10
108.3334260528
 20
426.9178650983
 30
0.0
 10
115.8462306903
 20
424.8228203937
 30
0.0
 10
123.6978416272
 20
424.3458352895
 30
0.0
 10
131.4523842109
 20
425.5476294804
 30
0.0
 10
138.7025661974
 20
428.2785419717
 30
0.0
 10
145.173239484
 20
432.2475950247
 30
0.0
 10
152.5024207806
 20
438.6566793888
 30
0.0
 10
159.5196707542
 20
448.1607535267
 30
0.0
 10
165.1022848981
 20
460.5311766901
 30
0.0
 10
167.4888848815
 20
469.0171532979
 30
0.0
 10
168.4244359237
 20
473.2067763881
 30
0.0
  0
SPLINE
  5
546
100
AcDbEntity
  8
0
100
AcDbSpline
 62
7
  6
CONTINUOUS
 70
0
 71
3
 72
9
 73
5
 74
0
 42
0.0000001
 43
0.0000001
 44
0.0000000001
 40
0.0
 40
0.0
 40
0.0
 40
0.0
 40
0.2566990681
 40
1.0
 40
1.0
 40
1.0
 40
1.0
 10
124.0008507075
 20
435.3287615081
 30
0.0
 10
124.7845578045
 20
435.094531638
 30
0.0
 10
127.8516400147
 20
434.2301951673
 30
0.0
 10
130.9745819281
 20
433.5608797045
 30
0.0
 10
133.3138180079
 20
433.1897215258
 30
0.0
  0
SPLINE
  5
547
100
AcDbEntity
  8
0
100
AcDbSpline
 62
7
  6
CONTINUOUS
 70
0
 71
3
 72
9
 73
5
 74
0
 42
0.0000001
 43
0.0000001
 44
0.0000000001
 40
0.0
 40
0.0
 40
0.0
 40
0.0
 40
0.243390981
 40
1.0
 40
1.0
 40
1.0
 40
1.0
 10
114.3138180079
 20
432.5000326517
 30
0.0
 10
115.1137826537
 20
432.6759108026
 30
0.0
 10
118.38777377
 20
433.4558127045
 30
0.0
 10
121.6075713069
 20
434.4597255027
 30
0.0
 10
124.0008507075
 20
435.3287615081
 30
0.0
  0
SPLINE
  5
548
100
AcDbEntity
  8
0
100
AcDbSpline
 62
7
  6
CONTINUOUS
 70
0
 71
3
 72
13
 73
9
 74
0
 42
0.0000001
 43
0.0000001
 44
0.0000000001
 40
0.0
 40
0.0
 40
0.0
 40
0.0
 40
0.2771562494
 40
0.53620376
 40
0.6588577338
 40
0.7768897044
 40
0.8904589634
 40
1.0
 40
1.0
 40
1.0
 40
1.0
 10
168.4244359237
 20
473.2067763881
 30
0.0
 10
169.7041667359
 20
478.9377194558
 30
0.0
 10
171.3593188755
 20
490.2118489666
 30
0.0
 10
172.0405736899
 20
504.1697921574
 30
0.0
 10
171.8711870477
 20
514.7594816425
 30
0.0
 10
171.3840818432
 20
522.2531552902
 30
0.0
 10
170.468965103
 20
529.4279466237
 30
0.0
 10
169.481159049
 20
534.0600913896
 30
0.0
 10
168.8672867697
 20
536.2982709289
 30
0.0
  0
SPLINE
  5
549
100
AcDbEntity
  8
0
100
AcDbSpline
 62
7
  6
CONTINUOUS
 70
0
 71
3
 72
8
 73
4
 74
0
 42
0.0000001
 43
0.0000001
 44
0.0000000001
 40
0.0
 40
0.0
 40
0.0
 40
0.0
 40
1.0
 40
1.0
 40
1.0
 40
1.0
 10
449.230804666
 20
453.9869174249
 30
0.0
 10
449.230804666
 20
451.8959466703
 30
0.0
 10
449.3828775725
 20
450.4892933555
 30
0.0
 10
449.7170403556
 20
449.7254928431
 30
0.0
  0
SPLINE
  5
54A
100
AcDbEntity
  8
0
100
AcDbSpline
 62
7
  6
CONTINUOUS
 70
0
 71
3
 72
8
 73
4
 74
0
 42
0.0000001
 43
0.0000001
 44
0.0000000001
 40
0.0
 40
0.0
 40
0.0
 40
0.0
 40
1.0
 40
1.0
 40
1.0
 40
1.0
 10
449.7170403556
 20
449.7254928431
 30
0.0
 10
450.0481865248
 20
448.968587447
 30
0.0
 10
450.694483026
 20
448.3983226269
 30
0.0
 10
451.6607256778
 20
448.0288774201
 30
0.0
  0
SPLINE
  5
54B
100
AcDbEntity
  8
0
100
AcDbSpline
 62
7
  6
CONTINUOUS
 70
0
 71
3
 72
8
 73
4
 74
0
 42
0.0000001
 43
0.0000001
 44
0.0000000001
 40
0.0
 40
0.0
 40
0.0
 40
0.0
 40
1.0
 40
1.0
 40
1.0
 40
1.0
 10
451.6607256778
 20
448.0288774201
 30
0.0
 10
452.6333858809
 20
447.656978447
 30
0.0
 10
453.7358944258
 20
447.4668901823
 30
0.0
 10
454.9524576506
 20
447.4668901823
 30
0.0
  0
SPLINE
  5
54C
100
AcDbEntity
  8
0
100
AcDbSpline
 62
7
  6
CONTINUOUS
 70
0
 71
3
 72
8
 73
4
 74
0
 42
0.0000001
 43
0.0000001
 44
0.0000000001
 40
0.0
 40
0.0
 40
0.0
 40
0.0
 40
1.0
 40
1.0
 40
1.0
 40
1.0
 10
454.9524576506
 20
447.4668901823
 30
0.0
 10
455.7128155074
 20
447.4668901823
 30
0.0
 10
456.739287599
 20
447.5239166878
 30
0.0
 10
458.0508997282
 20
447.6379696205
 30
0.0
  0
SPLINE
  5
54D
100
AcDbEntity
  8
0
100
AcDbSpline
 62
7
  6
CONTINUOUS
 70
0
 71
3
 72
8
 73
4
 74
0
 42
0.0000001
 43
0.0000001
 44
0.0000000001
 40
0.0
 40
0.0
 40
0.0
 40
0.0
 40
1.0
 40
1.0
 40
1.0
 40
1.0
 10
458.0508997282
 20
451.7248671539
 30
0.0
 10
457.4045965514
 20
451.9529731758
 30
0.0
 10
456.9293787322
 20
452.0860348828
 30
0.0
 10
456.6058902628
 20
452.120872027
 30
0.0
  0
SPLINE
  5
54E
100
AcDbEntity
  8
0
100
AcDbSpline
 62
7
  6
CONTINUOUS
 70
0
 71
3
 72
8
 73
4
 74
0
 42
0.0000001
 43
0.0000001
 44
0.0000000001
 40
0.0
 40
0.0
 40
0.0
 40
0.0
 40
1.0
 40
1.0
 40
1.0
 40
1.0
 10
456.6058902628
 20
452.120872027
 30
0.0
 10
455.6938030562
 20
452.2190965898
 30
0.0
 10
455.1425487837
 20
452.3901761062
 30
0.0
 10
454.9524597231
 20
452.618283438
 30
0.0
  0
SPLINE
  5
54F
100
AcDbEntity
  8
0
100
AcDbSpline
 62
7
  6
CONTINUOUS
 70
0
 71
3
 72
8
 73
4
 74
0
 42
0.0000001
 43
0.0000001
 44
0.0000000001
 40
0.0
 40
0.0
 40
0.0
 40
0.0
 40
1.0
 40
1.0
 40
1.0
 40
1.0
 10
454.9524597231
 20
452.618283438
 30
0.0
 10
454.7623731932
 20
452.8463877328
 30
0.0
 10
454.6673309645
 20
453.3025997765
 30
0.0
 10
454.6673309645
 20
454.0249348171
 30
0.0
  0
SPLINE
  5
550
100
AcDbEntity
  8
0
100
AcDbSpline
 62
7
  6
CONTINUOUS
 70
0
 71
3
 72
8
 73
4
 74
0
 42
0.0000001
 43
0.0000001
 44
0.0000000001
 40
0.0
 40
0.0
 40
0.0
 40
0.0
 40
1.0
 40
1.0
 40
1.0
 40
1.0
 10
431.476561565
 20
469.1369509167
 30
0.0
 10
432.0848448119
 20
470.5055861361
 30
0.0
 10
433.0923111281
 20
471.1899042018
 30
0.0
 10
434.5369837126
 20
471.1899042018
 30
0.0
  0
SPLINE
  5
551
100
AcDbEntity
  8
0
100
AcDbSpline
 62
7
  6
CONTINUOUS
 70
0
 71
3
 72
8
 73
4
 74
0
 42
0.0000001
 43
0.0000001
 44
0.0000000001
 40
0.0
 40
0.0
 40
0.0
 40
0.0
 40
1.0
 40
1.0
 40
1.0
 40
1.0
 10
434.5369837126
 20
471.1899042018
 30
0.0
 10
435.8676016173
 20
471.1899042018
 30
0.0
 10
436.8370497069
 20
470.5626134761
 30
0.0
 10
437.4338765826
 20
469.3215935157
 30
0.0
  0
SPLINE
  5
552
100
AcDbEntity
  8
0
100
AcDbSpline
 62
7
  6
CONTINUOUS
 70
0
 71
3
 72
8
 73
4
 74
0
 42
0.0000001
 43
0.0000001
 44
0.0000000001
 40
0.0
 40
0.0
 40
0.0
 40
0.0
 40
1.0
 40
1.0
 40
1.0
 40
1.0
 10
437.4338765826
 20
469.3215935157
 30
0.0
 10
438.0346071562
 20
468.0724563487
 30
0.0
 10
438.3387462935
 20
465.7533795722
 30
0.0
 10
438.3387462935
 20
462.3508000262
 30
0.0
  0
SPLINE
  5
553
100
AcDbEntity
  8
0
100
AcDbSpline
 62
7
  6
CONTINUOUS
 70
0
 71
3
 72
8
 73
4
 74
0
 42
0.0000001
 43
0.0000001
 44
0.0000000001
 40
0.0
 40
0.0
 40
0.0
 40
0.0
 40
1.0
 40
1.0
 40
1.0
 40
1.0
 10
438.3387462935
 20
462.3508000262
 30
0.0
 10
438.3387462935
 20
458.3209297545
 30
0.0
 10
438.0536129317
 20
455.5836583264
 30
0.0
 10
437.4941063142
 20
454.142218163
 30
0.0
  0
SPLINE
  5
554
100
AcDbEntity
  8
0
100
AcDbSpline
 62
7
  6
CONTINUOUS
 70
0
 71
3
 72
8
 73
4
 74
0
 42
0.0000001
 43
0.0000001
 44
0.0000000001
 40
0.0
 40
0.0
 40
0.0
 40
0.0
 40
1.0
 40
1.0
 40
1.0
 40
1.0
 10
437.4941063142
 20
454.142218163
 30
0.0
 10
436.9320919356
 20
452.6943173297
 30
0.0
 10
435.9246256194
 20
451.990990568
 30
0.0
 10
434.4419381461
 20
451.990990568
 30
0.0
  0
SPLINE
  5
555
100
AcDbEntity
  8
0
100
AcDbSpline
 62
7
  6
CONTINUOUS
 70
0
 71
3
 72
8
 73
4
 74
0
 42
0.0000001
 43
0.0000001
 44
0.0000000001
 40
0.0
 40
0.0
 40
0.0
 40
0.0
 40
1.0
 40
1.0
 40
1.0
 40
1.0
 10
434.4419381461
 20
451.990990568
 30
0.0
 10
433.1873566946
 20
451.990990568
 30
0.0
 10
432.2369143805
 20
452.5232378133
 30
0.0
 10
431.56738918
 20
453.6231720413
 30
0.0
  0
SPLINE
  5
556
100
AcDbEntity
  8
0
100
AcDbSpline
 62
7
  6
CONTINUOUS
 70
0
 71
3
 72
8
 73
4
 74
0
 42
0.0000001
 43
0.0000001
 44
0.0000000001
 40
0.0
 40
0.0
 40
0.0
 40
0.0
 40
1.0
 40
1.0
 40
1.0
 40
1.0
 10
431.56738918
 20
453.6231720413
 30
0.0
 10
430.9062964758
 20
454.7092528827
 30
0.0
 10
430.5831448874
 20
457.1803996451
 30
0.0
 10
430.5831448874
 20
461.0582003482
 30
0.0
  0
SPLINE
  5
557
100
AcDbEntity
  8
0
100
AcDbSpline
 62
7
  6
CONTINUOUS
 70
0
 71
3
 72
8
 73
4
 74
0
 42
0.0000001
 43
0.0000001
 44
0.0000000001
 40
0.0
 40
0.0
 40
0.0
 40
0.0
 40
1.0
 40
1.0
 40
1.0
 40
1.0
 10
430.5831448874
 20
461.0582003482
 30
0.0
 10
430.5831448874
 20
465.0880706199
 30
0.0
 10
430.8682782492
 20
467.7683155425
 30
0.0
 10
431.476561565
 20
469.1369509167
 30
0.0
  0
SPLINE
  5
558
100
AcDbEntity
  8
0
100
AcDbSpline
 62
7
  6
CONTINUOUS
 70
0
 71
3
 72
8
 73
4
 74
0
 42
0.0000001
 43
0.0000001
 44
0.0000000001
 40
0.0
 40
0.0
 40
0.0
 40
0.0
 40
1.0
 40
1.0
 40
1.0
 40
1.0
 10
427.531207485
 20
450.6141578037
 30
0.0
 10
429.1764938673
 20
448.5123756118
 30
0.0
 10
431.4575540862
 20
447.4668901823
 30
0.0
 10
434.3849108061
 20
447.4668901823
 30
0.0
  0
SPLINE
  5
559
100
AcDbEntity
  8
0
100
AcDbSpline
 62
7
  6
CONTINUOUS
 70
0
 71
3
 72
8
 73
4
 74
0
 42
0.0000001
 43
0.0000001
 44
0.0000000001
 40
0.0
 40
0.0
 40
0.0
 40
0.0
 40
1.0
 40
1.0
 40
1.0
 40
1.0
 10
434.3849108061
 20
447.4668901823
 30
0.0
 10
437.3312799773
 20
447.4668901823
 30
0.0
 10
439.6503584227
 20
448.5503932647
 30
0.0
 10
441.3231336787
 20
450.7554169877
 30
0.0
  0
SPLINE
  5
55A
100
AcDbEntity
  8
0
100
AcDbSpline
 62
7
  6
CONTINUOUS
 70
0
 71
3
 72
8
 73
4
 74
0
 42
0.0000001
 43
0.0000001
 44
0.0000000001
 40
0.0
 40
0.0
 40
0.0
 40
0.0
 40
1.0
 40
1.0
 40
1.0
 40
1.0
 10
441.3231336787
 20
450.7554169877
 30
0.0
 10
442.9959089598
 20
452.9604407437
 30
0.0
 10
443.8513090453
 20
456.8762588389
 30
0.0
 10
443.8513090453
 20
462.5218803771
 30
0.0
  0
SPLINE
  5
55B
100
AcDbEntity
  8
0
100
AcDbSpline
 62
7
  6
CONTINUOUS
 70
0
 71
3
 72
8
 73
4
 74
0
 42
0.0000001
 43
0.0000001
 44
0.0000000001
 40
0.0
 40
0.0
 40
0.0
 40
0.0
 40
1.0
 40
1.0
 40
1.0
 40
1.0
 10
443.8513090453
 20
462.5218803771
 30
0.0
 10
443.8513090453
 20
471.3039572127
 30
0.0
 10
440.7528669676
 20
475.7140047438
 30
0.0
 10
434.5940077147
 20
475.7140047438
 30
0.0
  0
SPLINE
  5
55C
100
AcDbEntity
  8
0
100
AcDbSpline
 62
7
  6
CONTINUOUS
 70
0
 71
3
 72
8
 73
4
 74
0
 42
0.0000001
 43
0.0000001
 44
0.0000000001
 40
0.0
 40
0.0
 40
0.0
 40
0.0
 40
1.0
 40
1.0
 40
1.0
 40
1.0
 10
434.5940077147
 20
475.7140047438
 30
0.0
 10
431.4765598616
 20
475.7140047438
 30
0.0
 10
429.1194665274
 20
474.5924837478
 30
0.0
 10
427.4975639552
 20
472.3920071589
 30
0.0
  0
SPLINE
  5
55D
100
AcDbEntity
  8
0
100
AcDbSpline
 62
7
  6
CONTINUOUS
 70
0
 71
3
 72
8
 73
4
 74
0
 42
0.0000001
 43
0.0000001
 44
0.0000000001
 40
0.0
 40
0.0
 40
0.0
 40
0.0
 40
1.0
 40
1.0
 40
1.0
 40
1.0
 10
427.4975639552
 20
472.3920071589
 30
0.0
 10
425.868958219
 20
470.1824362166
 30
0.0
 10
425.0705854735
 20
466.5137340911
 30
0.0
 10
425.0705854735
 20
461.3813502677
 30
0.0
  0
SPLINE
  5
55E
100
AcDbEntity
  8
0
100
AcDbSpline
 62
7
  6
CONTINUOUS
 70
0
 71
3
 72
8
 73
4
 74
0
 42
0.0000001
 43
0.0000001
 44
0.0000000001
 40
0.0
 40
0.0
 40
0.0
 40
0.0
 40
1.0
 40
1.0
 40
1.0
 40
1.0
 10
425.0705854735
 20
461.3813502677
 30
0.0
 10
425.0705854735
 20
456.3059937842
 30
0.0
 10
425.8879673323
 20
452.7133260258
 30
0.0
 10
427.531207485
 20
450.6141578037
 30
0.0
  0
SPLINE
  5
55F
100
AcDbEntity
  8
0
100
AcDbSpline
 62
7
  6
CONTINUOUS
 70
0
 71
3
 72
8
 73
4
 74
0
 42
0.0000001
 43
0.0000001
 44
0.0000000001
 40
0.0
 40
0.0
 40
0.0
 40
0.0
 40
1.0
 40
1.0
 40
1.0
 40
1.0
 10
409.2172270007
 20
469.1369509167
 30
0.0
 10
409.8255102477
 20
470.5055861361
 30
0.0
 10
410.8329765639
 20
471.1899042018
 30
0.0
 10
412.2776491484
 20
471.1899042018
 30
0.0
  0
SPLINE
  5
560
100
AcDbEntity
  8
0
100
AcDbSpline
 62
7
  6
CONTINUOUS
 70
0
 71
3
 72
8
 73
4
 74
0
 42
0.0000001
 43
0.0000001
 44
0.0000000001
 40
0.0
 40
0.0
 40
0.0
 40
0.0
 40
1.0
 40
1.0
 40
1.0
 40
1.0
 10
412.2776491484
 20
471.1899042018
 30
0.0
 10
413.6082637152
 20
471.1899042018
 30
0.0
 10
414.5777151427
 20
470.5626134761
 30
0.0
 10
415.1745414034
 20
469.3215947945
 30
0.0
  0
SPLINE
  5
561
100
AcDbEntity
  8
0
100
AcDbSpline
 62
7
  6
CONTINUOUS
 70
0
 71
3
 72
8
 73
4
 74
0
 42
0.0000001
 43
0.0000001
 44
0.0000000001
 40
0.0
 40
0.0
 40
0.0
 40
0.0
 40
1.0
 40
1.0
 40
1.0
 40
1.0
 10
415.1745414034
 20
469.3215947945
 30
0.0
 10
415.775272592
 20
468.0724563487
 30
0.0
 10
416.0794117293
 20
465.7533795722
 30
0.0
 10
416.0794117293
 20
462.3508000262
 30
0.0
  0
SPLINE
  5
562
100
AcDbEntity
  8
0
100
AcDbSpline
 62
7
  6
CONTINUOUS
 70
0
 71
3
 72
8
 73
4
 74
0
 42
0.0000001
 43
0.0000001
 44
0.0000000001
 40
0.0
 40
0.0
 40
0.0
 40
0.0
 40
1.0
 40
1.0
 40
1.0
 40
1.0
 10
416.0794117293
 20
462.3508000262
 30
0.0
 10
416.0794117293
 20
458.3209297545
 30
0.0
 10
415.7942817053
 20
455.5836583264
 30
0.0
 10
415.2347746444
 20
454.1422170205
 30
0.0
  0
SPLINE
  5
563
100
AcDbEntity
  8
0
100
AcDbSpline
 62
7
  6
CONTINUOUS
 70
0
 71
3
 72
8
 73
4
 74
0
 42
0.0000001
 43
0.0000001
 44
0.0000000001
 40
0.0
 40
0.0
 40
0.0
 40
0.0
 40
1.0
 40
1.0
 40
1.0
 40
1.0
 10
415.2347746444
 20
454.1422170205
 30
0.0
 10
414.6727607092
 20
452.6943173297
 30
0.0
 10
413.6652910552
 20
451.990990568
 30
0.0
 10
412.1826035819
 20
451.990990568
 30
0.0
  0
SPLINE
  5
564
100
AcDbEntity
  8
0
100
AcDbSpline
 62
7
  6
CONTINUOUS
 70
0
 71
3
 72
8
 73
4
 74
0
 42
0.0000001
 43
0.0000001
 44
0.0000000001
 40
0.0
 40
0.0
 40
0.0
 40
0.0
 40
1.0
 40
1.0
 40
1.0
 40
1.0
 10
412.1826035819
 20
451.990990568
 30
0.0
 10
410.9280221304
 20
451.990990568
 30
0.0
 10
409.9775798163
 20
452.5232378133
 30
0.0
 10
409.3080546158
 20
453.6231720413
 30
0.0
  0
SPLINE
  5
565
100
AcDbEntity
  8
0
100
AcDbSpline
 62
7
  6
CONTINUOUS
 70
0
 71
3
 72
8
 73
4
 74
0
 42
0.0000001
 43
0.0000001
 44
0.0000000001
 40
0.0
 40
0.0
 40
0.0
 40
0.0
 40
1.0
 40
1.0
 40
1.0
 40
1.0
 10
409.3080546158
 20
453.6231720413
 30
0.0
 10
408.6469619116
 20
454.7092528827
 30
0.0
 10
408.3238103232
 20
457.1803996451
 30
0.0
 10
408.3238103232
 20
461.0582003482
 30
0.0
  0
SPLINE
  5
566
100
AcDbEntity
  8
0
100
AcDbSpline
 62
7
  6
CONTINUOUS
 70
0
 71
3
 72
8
 73
4
 74
0
 42
0.0000001
 43
0.0000001
 44
0.0000000001
 40
0.0
 40
0.0
 40
0.0
 40
0.0
 40
1.0
 40
1.0
 40
1.0
 40
1.0
 10
408.3238103232
 20
461.0582003482
 30
0.0
 10
408.3238103232
 20
465.0880706199
 30
0.0
 10
408.608943685
 20
467.7683155425
 30
0.0
 10
409.2172270007
 20
469.1369509167
 30
0.0
  0
SPLINE
  5
567
100
AcDbEntity
  8
0
100
AcDbSpline
 62
7
  6
CONTINUOUS
 70
0
 71
3
 72
8
 73
4
 74
0
 42
0.0000001
 43
0.0000001
 44
0.0000000001
 40
0.0
 40
0.0
 40
0.0
 40
0.0
 40
1.0
 40
1.0
 40
1.0
 40
1.0
 10
405.2718724031
 20
450.6141573984
 30
0.0
 10
406.9171593031
 20
448.5123756118
 30
0.0
 10
409.1982161841
 20
447.4668901823
 30
0.0
 10
412.1255762419
 20
447.4668901823
 30
0.0
  0
SPLINE
  5
568
100
AcDbEntity
  8
0
100
AcDbSpline
 62
7
  6
CONTINUOUS
 70
0
 71
3
 72
8
 73
4
 74
0
 42
0.0000001
 43
0.0000001
 44
0.0000000001
 40
0.0
 40
0.0
 40
0.0
 40
0.0
 40
1.0
 40
1.0
 40
1.0
 40
1.0
 10
412.1255762419
 20
447.4668901823
 30
0.0
 10
415.0719454131
 20
447.4668901823
 30
0.0
 10
417.3910205206
 20
448.5503932647
 30
0.0
 10
419.0637980552
 20
450.7554177913
 30
0.0
  0
SPLINE
  5
569
100
AcDbEntity
  8
0
100
AcDbSpline
 62
7
  6
CONTINUOUS
 70
0
 71
3
 72
8
 73
4
 74
0
 42
0.0000001
 43
0.0000001
 44
0.0000000001
 40
0.0
 40
0.0
 40
0.0
 40
0.0
 40
1.0
 40
1.0
 40
1.0
 40
1.0
 10
419.0637980552
 20
450.7554177913
 30
0.0
 10
420.7365743956
 20
452.9604407437
 30
0.0
 10
421.5919711432
 20
456.8762588389
 30
0.0
 10
421.5919711432
 20
462.5218803771
 30
0.0
  0
SPLINE
  5
56A
100
AcDbEntity
  8
0
100
AcDbSpline
 62
7
  6
CONTINUOUS
 70
0
 71
3
 72
8
 73
4
 74
0
 42
0.0000001
 43
0.0000001
 44
0.0000000001
 40
0.0
 40
0.0
 40
0.0
 40
0.0
 40
1.0
 40
1.0
 40
1.0
 40
1.0
 10
421.5919711432
 20
462.5218803771
 30
0.0
 10
421.5919711432
 20
471.3039572127
 30
0.0
 10
418.4935324034
 20
475.7140047438
 30
0.0
 10
412.3346731505
 20
475.7140047438
 30
0.0
  0
SPLINE
  5
56B
100
AcDbEntity
  8
0
100
AcDbSpline
 62
7
  6
CONTINUOUS
 70
0
 71
3
 72
8
 73
4
 74
0
 42
0.0000001
 43
0.0000001
 44
0.0000000001
 40
0.0
 40
0.0
 40
0.0
 40
0.0
 40
1.0
 40
1.0
 40
1.0
 40
1.0
 10
412.3346731505
 20
475.7140047438
 30
0.0
 10
409.2172252974
 20
475.7140047438
 30
0.0
 10
406.8601319632
 20
474.5924837478
 30
0.0
 10
405.2382299807
 20
472.392007959
 30
0.0
  0
SPLINE
  5
56C
100
AcDbEntity
  8
0
100
AcDbSpline
 62
7
  6
CONTINUOUS
 70
0
 71
3
 72
8
 73
4
 74
0
 42
0.0000001
 43
0.0000001
 44
0.0000000001
 40
0.0
 40
0.0
 40
0.0
 40
0.0
 40
1.0
 40
1.0
 40
1.0
 40
1.0
 10
405.2382299807
 20
472.392007959
 30
0.0
 10
403.6096236548
 20
470.1824362166
 30
0.0
 10
402.8112525782
 20
466.5137340911
 30
0.0
 10
402.8112525782
 20
461.3813502677
 30
0.0
  0
SPLINE
  5
56D
100
AcDbEntity
  8
0
100
AcDbSpline
 62
7
  6
CONTINUOUS
 70
0
 71
3
 72
8
 73
4
 74
0
 42
0.0000001
 43
0.0000001
 44
0.0000000001
 40
0.0
 40
0.0
 40
0.0
 40
0.0
 40
1.0
 40
1.0
 40
1.0
 40
1.0
 10
402.8112525782
 20
461.3813502677
 30
0.0
 10
402.8112525782
 20
456.3059937842
 30
0.0
 10
403.6286310992
 20
452.7133260258
 30
0.0
 10
405.2718724031
 20
450.6141573984
 30
0.0
  0
SPLINE
  5
56E
100
AcDbEntity
  8
0
100
AcDbSpline
 62
7
  6
CONTINUOUS
 70
0
 71
3
 72
8
 73
4
 74
0
 42
0.0000001
 43
0.0000001
 44
0.0000000001
 40
0.0
 40
0.0
 40
0.0
 40
0.0
 40
1.0
 40
1.0
 40
1.0
 40
1.0
 10
389.9422772965
 20
475.1057231314
 30
0.0
 10
389.6381364903
 20
473.7941143401
 30
0.0
 10
389.238950952
 20
472.8626811393
 30
0.0
 10
388.7067039009
 20
472.2924162927
 30
0.0
  0
SPLINE
  5
56F
100
AcDbEntity
  8
0
100
AcDbSpline
 62
7
  6
CONTINUOUS
 70
0
 71
3
 72
8
 73
4
 74
0
 42
0.0000001
 43
0.0000001
 44
0.0000000001
 40
0.0
 40
0.0
 40
0.0
 40
0.0
 40
1.0
 40
1.0
 40
1.0
 40
1.0
 10
388.7067039009
 20
472.2924162927
 30
0.0
 10
388.1744564614
 20
471.7221510299
 30
0.0
 10
387.4901392302
 20
471.2659389861
 30
0.0
 10
386.6570547762
 20
470.9345986066
 30
0.0
  0
SPLINE
  5
570
100
AcDbEntity
  8
0
100
AcDbSpline
 62
7
  6
CONTINUOUS
 70
0
 71
3
 72
8
 73
4
 74
0
 42
0.0000001
 43
0.0000001
 44
0.0000000001
 40
0.0
 40
0.0
 40
0.0
 40
0.0
 40
1.0
 40
1.0
 40
1.0
 40
1.0
 10
386.6570547762
 20
470.9345986066
 30
0.0
 10
385.8173622927
 20
470.6006300338
 30
0.0
 10
384.4297182998
 20
470.4485604651
 30
0.0
 10
382.4908179483
 20
470.4485604651
 30
0.0
  0
SPLINE
  5
571
100
AcDbEntity
  8
BEZUGSACHSEN
100
AcDbSpline
 62
7
  6
CONTINUOUS
 70
0
 71
3
 72
9
 73
5
 74
0
 42
0.0000001
 43
0.0000001
 44
0.0000000001
 40
0.0
 40
0.0
 40
0.0
 40
0.0
 40
0.2481679189
 40
1.0
 40
1.0
 40
1.0
 40
1.0
 10
981.7207070339
 20
589.0019433139
 30
0.0
 10
981.7205375411
 20
588.7235201458
 30
0.0
 10
981.6804349656
 20
587.6020966431
 30
0.0
 10
981.4794201078
 20
586.4854554527
 30
0.0
 10
981.2353424712
 20
585.6780498102
 30
0.0
  0
SPLINE
  5
572
100
AcDbEntity
  8
BEZUGSACHSEN
100
AcDbSpline
 62
7
  6
CONTINUOUS
 70
0
 71
3
 72
9
 73
5
 74
0
 42
0.0000001
 43
0.0000001
 44
0.0000000001
 40
0.0
 40
0.0
 40
0.0
 40
0.0
 40
0.2481679189
 40
1.0
 40
1.0
 40
1.0
 40
1.0
 10
1039.7207114359
 20
589.0019433139
 30
0.0
 10
1039.7208809287
 20
588.7235201458
 30
0.0
 10
1039.7609835042
 20
587.6020966431
 30
0.0
 10
1039.9619983619
 20
586.4854554527
 30
0.0
 10
1040.2060759985
 20
585.6780498102
 30
0.0
  0
SPLINE
  5
573
100
AcDbEntity
  8
BEZUGSACHSEN
100
AcDbSpline
 62
7
  6
CONTINUOUS
 70
0
 71
3
 72
13
 73
9
 74
0
 42
0.0000001
 43
0.0000001
 44
0.0000000001
 40
0.0
 40
0.0
 40
0.0
 40
0.0
 40
0.1157316814
 40
0.2397124755
 40
0.3661432335
 40
0.4932313575
 40
0.7471646324
 40
1.0
 40
1.0
 40
1.0
 40
1.0
 10
1040.206075998
 20
585.6780334696
 30
0.0
 10
1040.6873069236
 20
584.2879830618
 30
0.0
 10
1041.6864171852
 20
581.4095302624
 30
0.0
 10
1043.1144622796
 20
576.9796471145
 30
0.0
 10
1044.4544580956
 20
572.3715469783
 30
0.0
 10
1046.0524900962
 20
566.1216867975
 30
0.0
 10
1047.6417406347
 20
558.2162411102
 30
0.0
 10
1048.446652126
 20
551.8185767033
 30
0.0
 10
1048.7281949013
 20
548.6172989156
 30
0.0
  0
SPLINE
  5
574
100
AcDbEntity
  8
BEZUGSACHSEN
100
AcDbSpline
 62
7
  6
CONTINUOUS
 70
0
 71
3
 72
13
 73
9
 74
0
 42
0.0000001
 43
0.0000001
 44
0.0000000001
 40
0.0
 40
0.0
 40
0.0
 40
0.0
 40
0.1157316814
 40
0.2397124755
 40
0.3661432335
 40
0.4932313575
 40
0.7471646324
 40
1.0
 40
1.0
 40
1.0
 40
1.0
 10
981.2353424717
 20
585.6780334696
 30
0.0
 10
980.7541115461
 20
584.2879830618
 30
0.0
 10
979.7550012845
 20
581.4095302624
 30
0.0
 10
978.3269561901
 20
576.9796471145
 30
0.0
 10
976.9869603742
 20
572.3715469783
 30
0.0
 10
975.3889283735
 20
566.1216867975
 30
0.0
 10
973.7996778351
 20
558.2162411102
 30
0.0
 10
972.9947663438
 20
551.8185767033
 30
0.0
 10
972.7132235684
 20
548.6172989156
 30
0.0
  0
SPLINE
  5
575
100
AcDbEntity
  8
0
100
AcDbSpline
 62
7
  6
CONTINUOUS
 70
0
 71
3
 72
9
 73
5
 74
0
 42
0.0000001
 43
0.0000001
 44
0.0000000001
 40
0.0
 40
0.0
 40
0.0
 40
0.0
 40
0.2531581626
 40
1.0
 40
1.0
 40
1.0
 40
1.0
 10
713.988253055
 20
281.5171788115
 30
0.0
 10
713.4634218884
 20
281.3010542157
 30
0.0
 10
711.3816879288
 20
280.4684532141
 30
0.0
 10
709.2652267244
 20
279.7220307888
 30
0.0
 10
707.6678180079
 20
279.219983482
 30
0.0
  0
SPLINE
  5
576
100
AcDbEntity
  8
0
100
AcDbSpline
 62
7
  6
CONTINUOUS
 70
0
 71
3
 72
9
 73
5
 74
0
 42
0.0000001
 43
0.0000001
 44
0.0000000001
 40
0.0
 40
0.0
 40
0.0
 40
0.0
 40
0.2476232927
 40
1.0
 40
1.0
 40
1.0
 40
1.0
 10
716.9807853083
 20
283.3098657948
 30
0.0
 10
716.1861998777
 20
283.7840953217
 30
0.0
 10
713.0032339522
 20
285.7423607801
 30
0.0
 10
709.9230417677
 20
287.866841375
 30
0.0
 10
707.6678180079
 20
289.5457718226
 30
0.0
  0
SPLINE
  5
577
100
AcDbEntity
  8
0
100
AcDbSpline
 62
7
  6
CONTINUOUS
 70
0
 71
3
 72
9
 73
5
 74
0
 42
0.0000001
 43
0.0000001
 44
0.0000000001
 40
0.0
 40
0.0
 40
0.0
 40
0.0
 40
0.2529939506
 40
1.0
 40
1.0
 40
1.0
 40
1.0
 10
726.6678180079
 20
289.4142468326
 30
0.0
 10
725.8787974685
 20
288.8571913592
 30
0.0
 10
722.7323372259
 20
286.6950352611
 30
0.0
 10
719.4737918483
 20
284.6947255159
 30
0.0
 10
716.9807853083
 20
283.3098657948
 30
0.0
  0
SPLINE
  5
578
100
AcDbEntity
  8
0
100
AcDbSpline
 62
7
  6
CONTINUOUS
 70
0
 71
3
 72
9
 73
5
 74
0
 42
0.0000001
 43
0.0000001
 44
0.0000000001
 40
0.0
 40
0.0
 40
0.0
 40
0.0
 40
0.2479342377
 40
1.0
 40
1.0
 40
1.0
 40
1.0
 10
702.3945198171
 20
10.4362502343
 30
0.0
 10
704.6499055979
 20
11.0001442819
 30
0.0
 10
713.8620096034
 20
12.7875874688
 30
0.0
 10
723.4382760178
 20
12.6759393727
 30
0.0
 10
730.3945198171
 20
11.5183077754
 30
0.0
  0
SPLINE
  5
579
100
AcDbEntity
  8
0
100
AcDbSpline
 62
7
  6
CONTINUOUS
 70
0
 71
3
 72
9
 73
5
 74
0
 42
0.0000001
 43
0.0000001
 44
0.0000000001
 40
0.0
 40
0.0
 40
0.0
 40
0.0
 40
0.2543828117
 40
1.0
 40
1.0
 40
1.0
 40
1.0
 10
717.8838813417
 20
24.1967577271
 30
0.0
 10
718.9199005215
 20
24.5454045647
 30
0.0
 10
723.0194920303
 20
25.8336265445
 30
0.0
 10
727.2272491564
 20
26.7859284205
 30
0.0
 10
730.3945198171
 20
27.2696606769
 30
0.0
  0
SPLINE
  5
57A
100
AcDbEntity
  8
0
100
AcDbSpline
 62
7
  6
CONTINUOUS
 70
0
 71
3
 72
9
 73
5
 74
0
 42
0.0000001
 43
0.0000001
 44
0.0000000001
 40
0.0
 40
0.0
 40
0.0
 40
0.0
 40
0.2471712205
 40
1.0
 40
1.0
 40
1.0
 40
1.0
 10
702.3945198171
 20
33.5529352855
 30
0.0
 10
703.8830246093
 20
33.9181681374
 30
0.0
 10
709.9550394442
 20
35.1862944017
 30
0.0
 10
716.1960494357
 20
35.6310111002
 30
0.0
 10
720.8626052253
 20
35.5094920371
 30
0.0
  0
SPLINE
  5
57B
100
AcDbEntity
  8
0
100
AcDbSpline
 62
7
  6
CONTINUOUS
 70
0
 71
3
 72
9
 73
5
 74
0
 42
0.0000001
 43
0.0000001
 44
0.0000000001
 40
0.0
 40
0.0
 40
0.0
 40
0.0
 40
0.2472127478
 40
1.0
 40
1.0
 40
1.0
 40
1.0
 10
702.3945198171
 20
47.7254589353
 30
0.0
 10
703.8837812611
 20
48.0879497686
 30
0.0
 10
709.9571274804
 20
49.3460983817
 30
0.0
 10
716.1968099981
 20
49.7870175031
 30
0.0
 10
720.8626052253
 20
49.6664749917
 30
0.0
  0
SPLINE
  5
57C
100
AcDbEntity
  8
0
100
AcDbSpline
 62
7
  6
CONTINUOUS
 70
0
 71
3
 72
9
 73
5
 74
0
 42
0.0000001
 43
0.0000001
 44
0.0000000001
 40
0.0
 40
0.0
 40
0.0
 40
0.0
 40
0.2480433784
 40
1.0
 40
1.0
 40
1.0
 40
1.0
 10
702.3945198171
 20
54.1016486554
 30
0.0
 10
704.6541272426
 20
54.6501740444
 30
0.0
 10
713.8732745589
 20
56.3859052444
 30
0.0
 10
723.4357579488
 20
56.2770978324
 30
0.0
 10
730.3945198171
 20
55.1523970902
 30
0.0
  0
SPLINE
  5
57D
100
AcDbEntity
  8
0
100
AcDbSpline
 62
7
  6
CONTINUOUS
 70
0
 71
3
 72
9
 73
5
 74
0
 42
0.0000001
 43
0.0000001
 44
0.0000000001
 40
0.0
 40
0.0
 40
0.0
 40
0.0
 40
0.2449203311
 40
1.0
 40
1.0
 40
1.0
 40
1.0
 10
730.3945198171
 20
30.719567679
 30
0.0
 10
729.2520416999
 20
30.5389297102
 30
0.0
 10
724.6067162589
 20
29.6814085572
 30
0.0
 10
720.0487901334
 20
28.3680320698
 30
0.0
 10
716.692392122
 20
27.1635710789
 30
0.0
  0
SPLINE
  5
57E
100
AcDbEntity
  8
0
100
AcDbSpline
 62
7
  6
CONTINUOUS
 70
0
 71
3
 72
9
 73
5
 74
0
 42
0.0000001
 43
0.0000001
 44
0.0000000001
 40
0.0
 40
0.0
 40
0.0
 40
0.0
 40
0.2506090294
 40
1.0
 40
1.0
 40
1.0
 40
1.0
 10
726.8200517409
 20
60.2345884263
 30
0.0
 10
725.0833697111
 20
60.4148590758
 30
0.0
 10
718.1307681431
 20
60.8922444645
 30
0.0
 10
711.1106759273
 20
60.4131145977
 30
0.0
 10
705.9689874761
 20
59.5061530868
 30
0.0
  0
SPLINE
  5
57F
100
AcDbEntity
  8
BEZUGSACHSEN
100
AcDbSpline
 62
7
  6
CONTINUOUS
 70
0
 71
3
 72
11
 73
7
 74
0
 42
0.0000001
 43
0.0000001
 44
0.0000000001
 40
0.0
 40
0.0
 40
0.0
 40
0.0
 40
0.2834599416
 40
0.5457918253
 40
0.7851873077
 40
1.0
 40
1.0
 40
1.0
 40
1.0
 10
640.0126260705
 20
206.7405571034
 30
0.0
 10
640.0294026227
 20
214.0094611431
 30
0.0
 10
640.3161215001
 20
228.0067507684
 30
0.0
 10
641.5279317648
 20
248.110379221
 30
0.0
 10
643.3419859738
 20
266.3994580677
 30
0.0
 10
644.9262391117
 20
277.9421209183
 30
0.0
 10
645.7886738734
 20
283.3827527654
 30
0.0
  0
SPLINE
  5
580
100
AcDbEntity
  8
0
100
AcDbSpline
 62
7
  6
CONTINUOUS
 70
0
 71
3
 72
11
 73
7
 74
0
 42
0.0000001
 43
0.0000001
 44
0.0000000001
 40
0.0
 40
0.0
 40
0.0
 40
0.0
 40
0.228741972
 40
0.4717483788
 40
0.7289297654
 40
1.0
 40
1.0
 40
1.0
 40
1.0
 10
670.4751476791
 20
31.5283391746
 30
0.0
 10
669.8345352275
 20
35.6741536415
 30
0.0
 10
669.0650551139
 20
44.3098521877
 30
0.0
 10
668.9458125436
 20
57.6862241
 30
0.0
 10
669.7778924074
 20
71.8168748261
 30
0.0
 10
671.1364873722
 20
81.4283573445
 30
0.0
 10
672.1143492461
 20
86.3025311587
 30
0.0
  0
SPLINE
  5
581
100
AcDbEntity
  8
0
100
AcDbSpline
 62
7
  6
CONTINUOUS
 70
0
 71
3
 72
9
 73
5
 74
0
 42
0.0000001
 43
0.0000001
 44
0.0000000001
 40
0.0
 40
0.0
 40
0.0
 40
0.0
 40
0.2522616578
 40
1.0
 40
1.0
 40
1.0
 40
1.0
 10
720.8626052253
 20
52.4151324271
 30
0.0
 10
719.2991394813
 20
52.4554763391
 30
0.0
 10
713.0982238902
 20
52.4140348771
 30
0.0
 10
706.899189244
 20
51.5715842837
 30
0.0
 10
702.3945198171
 20
50.4764812602
 30
0.0
  0
SPLINE
  5
582
100
AcDbEntity
  8
0
100
AcDbSpline
 62
7
  6
CONTINUOUS
 70
0
 71
3
 72
23
 73
19
 74
0
 42
0.0000001
 43
0.0000001
 44
0.0000000001
 40
0.0
 40
0.0
 40
0.0
 40
0.0
 40
0.0553076737
 40
0.1139066516
 40
0.1752294402
 40
0.2385859581
 40
0.3032493546
 40
0.3686051974
 40
0.4342551302
 40
0.4999999985
 40
0.5657448665
 40
0.6313947985
 40
0.6967506419
 40
0.7614140406
 40
0.82477056
 40
0.8860933479
 40
0.944692326
 40
1.0
 40
1.0
 40
1.0
 40
1.0
 10
672.1143492433
 20
206.7405609466
 30
0.0
 10
672.626077111
 20
204.1898420282
 30
0.0
 10
673.9241530315
 20
198.9814498165
 30
0.0
 10
676.7723942654
 20
191.226699023
 30
0.0
 10
680.8001893901
 20
183.5697912419
 30
0.0
 10
686.1722905159
 20
176.4105983539
 30
0.0
 10
692.9172450936
 20
170.2217637335
 30
0.0
 10
700.8734916296
 20
165.4615397472
 30
0.0
 10
709.7096438274
 20
162.4759542129
 30
0.0
 10
719.0008174196
 20
161.4604067981
 30
0.0
 10
728.291990998
 20
162.475953965
 30
0.0
 10
737.1281432746
 20
165.4615392008
 30
0.0
 10
745.0843900013
 20
170.221763062
 30
0.0
 10
751.82934488
 20
176.4105976544
 30
0.0
 10
757.2014462046
 20
183.5697905782
 30
0.0
 10
761.229241451
 20
191.2266983447
 30
0.0
 10
764.0774827804
 20
198.981449098
 30
0.0
 10
765.3755587129
 20
204.1898413308
 30
0.0
 10
765.8872866053
 20
206.7405602602
 30
0.0
  0
SPLINE
  5
583
100
AcDbEntity
  8
0
100
AcDbSpline
 62
7
  6
CONTINUOUS
 70
0
 71
3
 72
30
 73
26
 74
0
 42
0.0000001
 43
0.0000001
 44
0.0000000001
 40
0.0
 40
0.0
 40
0.0
 40
0.0
 40
0.0679437855
 40
0.1328200212
 40
0.1945769027
 40
0.2531647601
 40
0.308695033
 40
0.3618036547
 40
0.3880259382
 40
0.4145699386
 40
0.4420857961
 40
0.4713933932
 40
0.5385118231
 40
0.5773446306
 40
0.6189421101
 40
0.6616303163
 40
0.7033077795
 40
0.7422699205
 40
0.7777397493
 40
0.809835524
 40
0.8392319252
 40
0.8668020588
 40
0.8933707599
 40
0.9458658741
 40
1.0
 40
1.0
 40
1.0
 40
1.0
 10
765.8872866064
 20
206.7405602602
 30
0.0
 10
766.7553186043
 20
211.0672845388
 30
0.0
 10
768.0186220435
 20
219.6150821531
 30
0.0
 10
768.9221603609
 20
232.228328375
 30
0.0
 10
769.0455801595
 20
244.2650156196
 30
0.0
 10
768.4228258243
 20
255.6818560504
 30
0.0
 10
766.8710062119
 20
266.4495210206
 30
0.0
 10
764.409164326
 20
274.911185611
 30
0.0
 10
761.4252939164
 20
281.1245457547
 30
0.0
 10
758.5635337724
 20
285.5039637271
 30
0.0
 10
754.9436558187
 20
289.5608107484
 30
0.0
 10
748.6717311326
 20
294.6585028599
 30
0.0
 10
740.5494797749
 20
298.3975571457
 30
0.0
 10
731.2239609004
 20
300.6562943894
 30
0.0
 10
723.260164153
 20
301.5879393849
 30
0.0
 10
715.0621942969
 20
301.6055889399
 30
0.0
 10
707.0835387962
 20
300.7109743023
 30
0.0
 10
699.7262992855
 20
298.9643106231
 30
0.0
 10
693.2476674347
 20
296.4699607974
 30
0.0
 10
687.7496322722
 20
293.3472618736
 30
0.0
 10
683.2171900091
 20
289.7128789365
 30
0.0
 10
679.5655888196
 20
285.6700174901
 30
0.0
 10
675.7313735657
 20
279.8753174864
 30
0.0
 10
672.4401475289
 20
271.7889029278
 30
0.0
 10
671.0120693631
 20
264.9895178683
 30
0.0
 10
670.4751476791
 20
261.5147529306
 30
0.0
  0
LINE
  5
584
100
AcDbEntity
  8
0
100
AcDbLine
 62
7
  6
CONTINUOUS
 10
707.6678180079
 20
267.5474280245
 11
707.7185331357
 21
267.5395741684
  0
SPLINE
  5
585
100
AcDbEntity
  8
0
100
AcDbSpline
 62
7
  6
CONTINUOUS
 70
0
 71
3
 72
9
 73
5
 74
0
 42
0.0000001
 43
0.0000001
 44
0.0000000001
 40
0.0
 40
0.0
 40
0.0
 40
0.0
 40
0.2453722849
 40
1.0
 40
1.0
 40
1.0
 40
1.0
 10
707.6678180079
 20
273.1337525384
 30
0.0
 10
708.44893382
 20
273.439228972
 30
0.0
 10
711.6130142223
 20
274.7332813699
 30
0.0
 10
714.6997496918
 20
276.2142188183
 30
0.0
 10
716.9807853083
 20
277.4185495801
 30
0.0
  0
SPLINE
  5
586
100
AcDbEntity
  8
0
100
AcDbSpline
 62
7
  6
CONTINUOUS
 70
0
 71
3
 72
9
 73
5
 74
0
 42
0.0000001
 43
0.0000001
 44
0.0000000001
 40
0.0
 40
0.0
 40
0.0
 40
0.0
 40
0.2539239461
 40
1.0
 40
1.0
 40
1.0
 40
1.0
 10
716.9807853083
 20
277.4185495801
 30
0.0
 10
717.7771252634
 20
276.9547466228
 30
0.0
 10
720.9366850867
 20
275.1689363876
 30
0.0
 10
724.1913276123
 20
273.5496478414
 30
0.0
 10
726.6678180079
 20
272.4547965282
 30
0.0
  0
SPLINE
  5
587
100
AcDbEntity
  8
0
100
AcDbSpline
 62
7
  6
CONTINUOUS
 70
0
 71
3
 72
9
 73
5
 74
0
 42
0.0000001
 43
0.0000001
 44
0.0000000001
 40
0.0
 40
0.0
 40
0.0
 40
0.0
 40
0.25229405
 40
1.0
 40
1.0
 40
1.0
 40
1.0
 10
720.8626052253
 20
38.3964690824
 30
0.0
 10
719.298783156
 20
38.4371170791
 30
0.0
 10
713.0971963846
 20
38.395338274
 30
0.0
 10
706.8975892122
 20
37.5463812907
 30
0.0
 10
702.3945198171
 20
36.4435271788
 30
0.0
  0
SPLINE
  5
588
100
AcDbEntity
  8
0
100
AcDbSpline
 62
7
  6
CONTINUOUS
 70
0
 71
3
 72
11
 73
7
 74
0
 42
0.0000001
 43
0.0000001
 44
0.0000000001
 40
0.0
 40
0.0
 40
0.0
 40
0.0
 40
0.228741972
 40
0.4717483788
 40
0.7289297654
 40
1.0
 40
1.0
 40
1.0
 40
1.0
 10
670.4751476791
 20
261.5147529306
 30
0.0
 10
669.8345352275
 20
257.3689384638
 30
0.0
 10
669.0650551139
 20
248.7332399176
 30
0.0
 10
668.9458125436
 20
235.3568680053
 30
0.0
 10
669.7778924074
 20
221.2262172792
 30
0.0
 10
671.1364873722
 20
211.6147347608
 30
0.0
 10
672.1143492461
 20
206.7405609466
 30
0.0
  0
SPLINE
  5
589
100
AcDbEntity
  8
BEZUGSACHSEN
100
AcDbSpline
 62
7
  6
CONTINUOUS
 70
0
 71
3
 72
11
 73
7
 74
0
 42
0.0000001
 43
0.0000001
 44
0.0000000001
 40
0.0
 40
0.0
 40
0.0
 40
0.0
 40
0.2834599416
 40
0.5457918253
 40
0.7851873077
 40
1.0
 40
1.0
 40
1.0
 40
1.0
 10
640.0126260705
 20
86.3025350018
 30
0.0
 10
640.0294026227
 20
79.0336309622
 30
0.0
 10
640.3161215001
 20
65.0363413368
 30
0.0
 10
641.5279317648
 20
44.9327128842
 30
0.0
 10
643.3419859738
 20
26.6436340376
 30
0.0
 10
644.9262391117
 20
15.1009711869
 30
0.0
 10
645.7886738734
 20
9.6603393399
 30
0.0
  0
SPLINE
  5
58A
100
AcDbEntity
  8
0
100
AcDbSpline
 62
7
  6
CONTINUOUS
 70
0
 71
3
 72
23
 73
19
 74
0
 42
0.0000001
 43
0.0000001
 44
0.0000000001
 40
0.0
 40
0.0
 40
0.0
 40
0.0
 40
0.0553076737
 40
0.1139066516
 40
0.1752294402
 40
0.2385859581
 40
0.3032493546
 40
0.3686051974
 40
0.4342551302
 40
0.4999999985
 40
0.5657448665
 40
0.6313947985
 40
0.6967506419
 40
0.7614140406
 40
0.82477056
 40
0.8860933479
 40
0.944692326
 40
1.0
 40
1.0
 40
1.0
 40
1.0
 10
672.1143492433
 20
86.3025311587
 30
0.0
 10
672.626077111
 20
88.853250077
 30
0.0
 10
673.9241530315
 20
94.0616422888
 30
0.0
 10
676.7723942654
 20
101.8163930823
 30
0.0
 10
680.8001893901
 20
109.4733008634
 30
0.0
 10
686.1722905159
 20
116.6324937513
 30
0.0
 10
692.9172450936
 20
122.8213283718
 30
0.0
 10
700.8734916296
 20
127.581552358
 30
0.0
 10
709.7096438274
 20
130.5671378923
 30
0.0
 10
719.0008174196
 20
131.5826853071
 30
0.0
 10
728.291990998
 20
130.5671381402
 30
0.0
 10
737.1281432746
 20
127.5815529044
 30
0.0
 10
745.0843900013
 20
122.8213290433
 30
0.0
 10
751.82934488
 20
116.6324944509
 30
0.0
 10
757.2014462046
 20
109.4733015271
 30
0.0
 10
761.229241451
 20
101.8163937605
 30
0.0
 10
764.0774827804
 20
94.0616430073
 30
0.0
 10
765.3755587129
 20
88.8532507744
 30
0.0
 10
765.8872866053
 20
86.3025318451
 30
0.0
  0
SPLINE
  5
58B
100
AcDbEntity
  8
0
100
AcDbSpline
 62
7
  6
CONTINUOUS
 70
0
 71
3
 72
30
 73
26
 74
0
 42
0.0000001
 43
0.0000001
 44
0.0000000001
 40
0.0
 40
0.0
 40
0.0
 40
0.0
 40
0.0679437855
 40
0.1328200212
 40
0.1945769027
 40
0.2531647601
 40
0.308695033
 40
0.3618036547
 40
0.3880259382
 40
0.4145699386
 40
0.4420857961
 40
0.4713933932
 40
0.5385118231
 40
0.5773446306
 40
0.6189421101
 40
0.6616303163
 40
0.7033077795
 40
0.7422699205
 40
0.7777397493
 40
0.809835524
 40
0.8392319252
 40
0.8668020588
 40
0.8933707599
 40
0.9458658741
 40
1.0
 40
1.0
 40
1.0
 40
1.0
 10
765.8872866064
 20
86.3025318451
 30
0.0
 10
766.7553186043
 20
81.9758075664
 30
0.0
 10
768.0186220435
 20
73.4280099522
 30
0.0
 10
768.9221603609
 20
60.8147637303
 30
0.0
 10
769.0455801595
 20
48.7780764857
 30
0.0
 10
768.4228258243
 20
37.3612360549
 30
0.0
 10
766.8710062119
 20
26.5935710846
 30
0.0
 10
764.409164326
 20
18.1319064943
 30
0.0
 10
761.4252939164
 20
11.9185463506
 30
0.0
 10
758.5635337724
 20
7.5391283782
 30
0.0
 10
754.9436558187
 20
3.4822813569
 30
0.0
 10
748.6717311326
 20
-1.6154107547
 30
0.0
 10
740.5494797749
 20
-5.3544650405
 30
0.0
 10
731.2239609004
 20
-7.6132022841
 30
0.0
 10
723.260164153
 20
-8.5448472797
 30
0.0
 10
715.0621942969
 20
-8.5624968346
 30
0.0
 10
707.0835387962
 20
-7.667882197
 30
0.0
 10
699.7262992855
 20
-5.9212185178
 30
0.0
 10
693.2476674347
 20
-3.4268686922
 30
0.0
 10
687.7496322722
 20
-0.3041697683
 30
0.0
 10
683.2171900091
 20
3.3302131688
 30
0.0
 10
679.5655888196
 20
7.3730746151
 30
0.0
 10
675.7313735657
 20
13.1677746189
 30
0.0
 10
672.4401475289
 20
21.2541891775
 30
0.0
 10
671.0120693631
 20
28.053574237
 30
0.0
 10
670.4751476791
 20
31.5283391746
 30
0.0
  0
SPLINE
  5
58C
100
AcDbEntity
  8
0
100
AcDbSpline
 62
7
  6
CONTINUOUS
 70
0
 71
3
 72
9
 73
5
 74
0
 42
0.0000001
 43
0.0000001
 44
0.0000000001
 40
0.0
 40
0.0
 40
0.0
 40
0.0
 40
0.2452281884
 40
1.0
 40
1.0
 40
1.0
 40
1.0
 10
730.3945198171
 20
32.6847837267
 30
0.0
 10
729.2513720161
 20
32.4948061174
 30
0.0
 10
724.6089536737
 20
31.6071055344
 30
0.0
 10
720.0516843737
 20
30.2884891884
 30
0.0
 10
716.692392122
 20
29.0900188252
 30
0.0
  0
SPLINE
  5
58D
100
AcDbEntity
  8
0
100
AcDbSpline
 62
7
  6
CONTINUOUS
 70
0
 71
3
 72
9
 73
5
 74
0
 42
0.0000001
 43
0.0000001
 44
0.0000000001
 40
0.0
 40
0.0
 40
0.0
 40
0.0
 40
0.2506543859
 40
1.0
 40
1.0
 40
1.0
 40
1.0
 10
726.8200517409
 20
58.3216083445
 30
0.0
 10
725.0836089924
 20
58.511445584
 30
0.0
 10
718.1307377947
 20
59.013682361
 30
0.0
 10
711.1028897993
 20
58.5094332952
 30
0.0
 10
705.9689874761
 20
57.5535879007
 30
0.0
  0
SPLINE
  5
58E
100
AcDbEntity
  8
0
100
AcDbSpline
 62
7
  6
CONTINUOUS
 70
0
 71
3
 72
9
 73
5
 74
0
 42
0.0000001
 43
0.0000001
 44
0.0000000001
 40
0.0
 40
0.0
 40
0.0
 40
0.0
 40
0.2541301782
 40
1.0
 40
1.0
 40
1.0
 40
1.0
 10
716.9807853083
 20
279.3664234249
 30
0.0
 10
717.7766051456
 20
278.90098951
 30
0.0
 10
720.9327285583
 20
277.1121164755
 30
0.0
 10
724.1887615929
 20
275.4975171695
 30
0.0
 10
726.6678180079
 20
274.4130984057
 30
0.0
  0
SPLINE
  5
58F
100
AcDbEntity
  8
0
100
AcDbSpline
 62
7
  6
CONTINUOUS
 70
0
 71
3
 72
9
 73
5
 74
0
 42
0.0000001
 43
0.0000001
 44
0.0000000001
 40
0.0
 40
0.0
 40
0.0
 40
0.0
 40
0.2450777988
 40
1.0
 40
1.0
 40
1.0
 40
1.0
 10
707.6678180079
 20
275.1182642658
 30
0.0
 10
708.448871212
 20
275.417743636
 30
0.0
 10
711.6156903419
 20
276.6919501484
 30
0.0
 10
714.70175914
 20
278.1641631104
 30
0.0
 10
716.9807853083
 20
279.3664234249
 30
0.0
  0
SPLINE
  5
590
100
AcDbEntity
  8
0
100
AcDbSpline
 62
7
  6
CONTINUOUS
 70
0
 71
3
 72
9
 73
5
 74
0
 42
0.0000001
 43
0.0000001
 44
0.0000000001
 40
0.0
 40
0.0
 40
0.0
 40
0.0
 40
0.2520475414
 40
1.0
 40
1.0
 40
1.0
 40
1.0
 10
720.8626052253
 20
54.3124736146
 30
0.0
 10
719.3015350628
 20
54.3507603349
 30
0.0
 10
713.1051221322
 20
54.3117721902
 30
0.0
 10
706.9107013268
 20
53.5125704025
 30
0.0
 10
702.3945198171
 20
52.4748211469
 30
0.0
  0
LINE
  5
591
100
AcDbEntity
  8
0
100
AcDbLine
 62
7
  6
CONTINUOUS
 10
726.8125404651
 20
44.6455087125
 11
726.7207570275
 21
44.3647845784
  0
SPLINE
  5
592
100
AcDbEntity
  8
0
100
AcDbSpline
 62
7
  6
CONTINUOUS
 70
0
 71
3
 72
9
 73
5
 74
0
 42
0.0000001
 43
0.0000001
 44
0.0000000001
 40
0.0
 40
0.0
 40
0.0
 40
0.0
 40
0.2520764382
 40
1.0
 40
1.0
 40
1.0
 40
1.0
 10
720.8626052253
 20
40.3075591863
 30
0.0
 10
719.3012188056
 20
40.346128832
 30
0.0
 10
713.1042131523
 20
40.3068331083
 30
0.0
 10
706.9092839928
 20
39.5015946339
 30
0.0
 10
702.3945198171
 20
38.4565938756
 30
0.0
  0
SPLINE
  5
593
100
AcDbEntity
  8
BEZUGSACHSEN
100
AcDbSpline
 62
7
  6
CONTINUOUS
 70
0
 71
3
 72
9
 73
5
 74
0
 42
0.0000001
 43
0.0000001
 44
0.0000000001
 40
0.0
 40
0.0
 40
0.0
 40
0.0
 40
0.2329621454
 40
1.0
 40
1.0
 40
1.0
 40
1.0
 10
640.0126260705
 20
206.7405571034
 30
0.0
 10
640.0069577178
 20
204.2845869412
 30
0.0
 10
639.9849039549
 20
193.7422244645
 30
0.0
 10
639.9708514284
 20
183.1998460804
 30
0.0
 10
639.9633773776
 20
175.1134409123
 30
0.0
  0
SPLINE
  5
594
100
AcDbEntity
  8
BEZUGSACHSEN
100
AcDbSpline
 62
7
  6
CONTINUOUS
 70
0
 71
3
 72
9
 73
5
 74
0
 42
0.0000001
 43
0.0000001
 44
0.0000000001
 40
0.0
 40
0.0
 40
0.0
 40
0.0
 40
0.2651346808
 40
1.0
 40
1.0
 40
1.0
 40
1.0
 10
639.9633773776
 20
117.9296511929
 30
0.0
 10
639.9659608617
 20
115.1345004291
 30
0.0
 10
639.9772749912
 20
104.5921212976
 30
0.0
 10
639.9947455871
 20
94.049747697
 30
0.0
 10
640.0126260705
 20
86.3025350018
 30
0.0
  0
SPLINE
  5
595
100
AcDbEntity
  8
0
100
AcDbSpline
 62
7
  6
CONTINUOUS
 70
0
 71
3
 72
9
 73
5
 74
0
 42
0.0000001
 43
0.0000001
 44
0.0000000001
 40
0.0
 40
0.0
 40
0.0
 40
0.0
 40
0.2531581626
 40
1.0
 40
1.0
 40
1.0
 40
1.0
 10
126.9933829607
 20
11.5259132938
 30
0.0
 10
127.5182141274
 20
11.7420378896
 30
0.0
 10
129.599948087
 20
12.5746388911
 30
0.0
 10
131.7164092914
 20
13.3210613165
 30
0.0
 10
133.3138180079
 20
13.8231086232
 30
0.0
  0
SPLINE
  5
596
100
AcDbEntity
  8
0
100
AcDbSpline
 62
7
  6
CONTINUOUS
 70
0
 71
3
 72
9
 73
5
 74
0
 42
0.0000001
 43
0.0000001
 44
0.0000000001
 40
0.0
 40
0.0
 40
0.0
 40
0.0
 40
0.2476232927
 40
1.0
 40
1.0
 40
1.0
 40
1.0
 10
124.0008507075
 20
9.7332263105
 30
0.0
 10
124.7954361381
 20
9.2589967835
 30
0.0
 10
127.9784020635
 20
7.3007313251
 30
0.0
 10
131.0585942481
 20
5.1762507303
 30
0.0
 10
133.3138180079
 20
3.4973202827
 30
0.0
  0
SPLINE
  5
597
100
AcDbEntity
  8
0
100
AcDbSpline
 62
7
  6
CONTINUOUS
 70
0
 71
3
 72
9
 73
5
 74
0
 42
0.0000001
 43
0.0000001
 44
0.0000000001
 40
0.0
 40
0.0
 40
0.0
 40
0.0
 40
0.2529939506
 40
1.0
 40
1.0
 40
1.0
 40
1.0
 10
114.3138180079
 20
3.6288452727
 30
0.0
 10
115.1028385473
 20
4.1859007461
 30
0.0
 10
118.2492987899
 20
6.3480568442
 30
0.0
 10
121.5078441675
 20
8.3483665893
 30
0.0
 10
124.0008507075
 20
9.7332263105
 30
0.0
  0
SPLINE
  5
598
100
AcDbEntity
  8
0
100
AcDbSpline
 62
7
  6
CONTINUOUS
 70
0
 71
3
 72
9
 73
5
 74
0
 42
0.0000001
 43
0.0000001
 44
0.0000000001
 40
0.0
 40
0.0
 40
0.0
 40
0.0
 40
0.2479342377
 40
1.0
 40
1.0
 40
1.0
 40
1.0
 10
138.5871161987
 20
282.6068418709
 30
0.0
 10
136.3317304179
 20
282.0429478233
 30
0.0
 10
127.1196264123
 20
280.2555046365
 30
0.0
 10
117.543359998
 20
280.3671527325
 30
0.0
 10
110.5871161987
 20
281.5247843299
 30
0.0
  0
SPLINE
  5
599
100
AcDbEntity
  8
0
100
AcDbSpline
 62
7
  6
CONTINUOUS
 70
0
 71
3
 72
9
 73
5
 74
0
 42
0.0000001
 43
0.0000001
 44
0.0000000001
 40
0.0
 40
0.0
 40
0.0
 40
0.0
 40
0.2543828117
 40
1.0
 40
1.0
 40
1.0
 40
1.0
 10
123.0977546741
 20
268.8463343782
 30
0.0
 10
122.0617354943
 20
268.4976875405
 30
0.0
 10
117.9621439855
 20
267.2094655607
 30
0.0
 10
113.7543868594
 20
266.2571636847
 30
0.0
 10
110.5871161987
 20
265.7734314284
 30
0.0
  0
SPLINE
  5
59A
100
AcDbEntity
  8
0
100
AcDbSpline
 62
7
  6
CONTINUOUS
 70
0
 71
3
 72
9
 73
5
 74
0
 42
0.0000001
 43
0.0000001
 44
0.0000000001
 40
0.0
 40
0.0
 40
0.0
 40
0.0
 40
0.2471712205
 40
1.0
 40
1.0
 40
1.0
 40
1.0
 10
138.5871161987
 20
259.4901568197
 30
0.0
 10
137.0986114065
 20
259.1249239678
 30
0.0
 10
131.0265965716
 20
257.8567977036
 30
0.0
 10
124.7855865801
 20
257.412081005
 30
0.0
 10
120.1190307905
 20
257.5336000682
 30
0.0
  0
SPLINE
  5
59B
100
AcDbEntity
  8
0
100
AcDbSpline
 62
7
  6
CONTINUOUS
 70
0
 71
3
 72
9
 73
5
 74
0
 42
0.0000001
 43
0.0000001
 44
0.0000000001
 40
0.0
 40
0.0
 40
0.0
 40
0.0
 40
0.2472127478
 40
1.0
 40
1.0
 40
1.0
 40
1.0
 10
138.5871161987
 20
245.3176331699
 30
0.0
 10
137.0978547546
 20
244.9551423367
 30
0.0
 10
131.0245085354
 20
243.6969937236
 30
0.0
 10
124.7848260177
 20
243.2560746021
 30
0.0
 10
120.1190307905
 20
243.3766171136
 30
0.0
  0
SPLINE
  5
59C
100
AcDbEntity
  8
0
100
AcDbSpline
 62
7
  6
CONTINUOUS
 70
0
 71
3
 72
9
 73
5
 74
0
 42
0.0000001
 43
0.0000001
 44
0.0000000001
 40
0.0
 40
0.0
 40
0.0
 40
0.0
 40
0.2480433784
 40
1.0
 40
1.0
 40
1.0
 40
1.0
 10
138.5871161987
 20
238.9414434498
 30
0.0
 10
136.3275087732
 20
238.3929180608
 30
0.0
 10
127.1083614569
 20
236.6571868608
 30
0.0
 10
117.545878067
 20
236.7659942728
 30
0.0
 10
110.5871161987
 20
237.8906950151
 30
0.0
  0
SPLINE
  5
59D
100
AcDbEntity
  8
0
100
AcDbSpline
 62
7
  6
CONTINUOUS
 70
0
 71
3
 72
9
 73
5
 74
0
 42
0.0000001
 43
0.0000001
 44
0.0000000001
 40
0.0
 40
0.0
 40
0.0
 40
0.0
 40
0.2449203311
 40
1.0
 40
1.0
 40
1.0
 40
1.0
 10
110.5871161987
 20
262.3235244263
 30
0.0
 10
111.7295943159
 20
262.5041623951
 30
0.0
 10
116.3749197569
 20
263.3616835481
 30
0.0
 10
120.9328458824
 20
264.6750600355
 30
0.0
 10
124.2892438938
 20
265.8795210264
 30
0.0
  0
SPLINE
  5
59E
100
AcDbEntity
  8
0
100
AcDbSpline
 62
7
  6
CONTINUOUS
 70
0
 71
3
 72
9
 73
5
 74
0
 42
0.0000001
 43
0.0000001
 44
0.0000000001
 40
0.0
 40
0.0
 40
0.0
 40
0.0
 40
0.2506090294
 40
1.0
 40
1.0
 40
1.0
 40
1.0
 10
114.1615842749
 20
232.808503679
 30
0.0
 10
115.8982663047
 20
232.6282330295
 30
0.0
 10
122.8508678727
 20
232.1508476407
 30
0.0
 10
129.8709600885
 20
232.6299775075
 30
0.0
 10
135.0126485397
 20
233.5369390185
 30
0.0
  0
SPLINE
  5
59F
100
AcDbEntity
  8
BEZUGSACHSEN
100
AcDbSpline
 62
7
  6
CONTINUOUS
 70
0
 71
3
 72
11
 73
7
 74
0
 42
0.0000001
 43
0.0000001
 44
0.0000000001
 40
0.0
 40
0.0
 40
0.0
 40
0.0
 40
0.2834599416
 40
0.5457918253
 40
0.7851873077
 40
1.0
 40
1.0
 40
1.0
 40
1.0
 10
200.9690099453
 20
86.3025350018
 30
0.0
 10
200.9522333931
 20
79.0336309622
 30
0.0
 10
200.6655145157
 20
65.0363413368
 30
0.0
 10
199.453704251
 20
44.9327128842
 30
0.0
 10
197.639650042
 20
26.6436340376
 30
0.0
 10
196.0553969041
 20
15.1009711869
 30
0.0
 10
195.1929621424
 20
9.6603393399
 30
0.0
  0
SPLINE
  5
5A0
100
AcDbEntity
  8
0
100
AcDbSpline
 62
7
  6
CONTINUOUS
 70
0
 71
3
 72
11
 73
7
 74
0
 42
0.0000001
 43
0.0000001
 44
0.0000000001
 40
0.0
 40
0.0
 40
0.0
 40
0.0
 40
0.228741972
 40
0.4717483788
 40
0.7289297654
 40
1.0
 40
1.0
 40
1.0
 40
1.0
 10
170.5064883367
 20
261.5147529306
 30
0.0
 10
171.1471007883
 20
257.3689384638
 30
0.0
 10
171.9165809019
 20
248.7332399176
 30
0.0
 10
172.0358234722
 20
235.3568680053
 30
0.0
 10
171.2037436084
 20
221.2262172792
 30
0.0
 10
169.8451486436
 20
211.6147347608
 30
0.0
 10
168.8672867697
 20
206.7405609466
 30
0.0
  0
SPLINE
  5
5A1
100
AcDbEntity
  8
0
100
AcDbSpline
 62
7
  6
CONTINUOUS
 70
0
 71
3
 72
9
 73
5
 74
0
 42
0.0000001
 43
0.0000001
 44
0.0000000001
 40
0.0
 40
0.0
 40
0.0
 40
0.0
 40
0.2522616578
 40
1.0
 40
1.0
 40
1.0
 40
1.0
 10
120.1190307905
 20
240.6279596782
 30
0.0
 10
121.6824965345
 20
240.5876157661
 30
0.0
 10
127.8834121256
 20
240.6290572282
 30
0.0
 10
134.0824467718
 20
241.4715078216
 30
0.0
 10
138.5871161987
 20
242.5666108451
 30
0.0
  0
SPLINE
  5
5A2
100
AcDbEntity
  8
0
100
AcDbSpline
 62
7
  6
CONTINUOUS
 70
0
 71
3
 72
23
 73
19
 74
0
 42
0.0000001
 43
0.0000001
 44
0.0000000001
 40
0.0
 40
0.0
 40
0.0
 40
0.0
 40
0.0553076737
 40
0.1139066516
 40
0.1752294402
 40
0.2385859581
 40
0.3032493546
 40
0.3686051974
 40
0.4342551302
 40
0.4999999985
 40
0.5657448665
 40
0.6313947985
 40
0.6967506419
 40
0.7614140406
 40
0.82477056
 40
0.8860933479
 40
0.944692326
 40
1.0
 40
1.0
 40
1.0
 40
1.0
 10
168.8672867725
 20
86.3025311587
 30
0.0
 10
168.3555589048
 20
88.853250077
 30
0.0
 10
167.0574829842
 20
94.0616422888
 30
0.0
 10
164.2092417504
 20
101.8163930823
 30
0.0
 10
160.1814466257
 20
109.4733008634
 30
0.0
 10
154.8093454999
 20
116.6324937513
 30
0.0
 10
148.0643909222
 20
122.8213283718
 30
0.0
 10
140.1081443862
 20
127.581552358
 30
0.0
 10
131.2719921884
 20
130.5671378923
 30
0.0
 10
121.9808185962
 20
131.5826853071
 30
0.0
 10
112.6896450178
 20
130.5671381402
 30
0.0
 10
103.8534927412
 20
127.5815529044
 30
0.0
 10
95.8972460145
 20
122.8213290433
 30
0.0
 10
89.1522911358
 20
116.6324944509
 30
0.0
 10
83.7801898112
 20
109.4733015271
 30
0.0
 10
79.7523945648
 20
101.8163937605
 30
0.0
 10
76.9041532354
 20
94.0616430073
 30
0.0
 10
75.6060773029
 20
88.8532507744
 30
0.0
 10
75.0943494105
 20
86.3025318451
 30
0.0
  0
SPLINE
  5
5A3
100
AcDbEntity
  8
0
100
AcDbSpline
 62
7
  6
CONTINUOUS
 70
0
 71
3
 72
30
 73
26
 74
0
 42
0.0000001
 43
0.0000001
 44
0.0000000001
 40
0.0
 40
0.0
 40
0.0
 40
0.0
 40
0.0679437855
 40
0.1328200212
 40
0.1945769027
 40
0.2531647601
 40
0.308695033
 40
0.3618036547
 40
0.3880259382
 40
0.4145699386
 40
0.4420857961
 40
0.4713933932
 40
0.5385118231
 40
0.5773446306
 40
0.6189421101
 40
0.6616303163
 40
0.7033077795
 40
0.7422699205
 40
0.7777397493
 40
0.809835524
 40
0.8392319252
 40
0.8668020588
 40
0.8933707599
 40
0.9458658741
 40
1.0
 40
1.0
 40
1.0
 40
1.0
 10
75.0943494094
 20
86.3025318451
 30
0.0
 10
74.2263174115
 20
81.9758075664
 30
0.0
 10
72.9630139722
 20
73.4280099522
 30
0.0
 10
72.0594756549
 20
60.8147637303
 30
0.0
 10
71.9360558563
 20
48.7780764857
 30
0.0
 10
72.5588101915
 20
37.3612360549
 30
0.0
 10
74.1106298039
 20
26.5935710846
 30
0.0
 10
76.5724716898
 20
18.1319064943
 30
0.0
 10
79.5563420994
 20
11.9185463506
 30
0.0
 10
82.4181022434
 20
7.5391283782
 30
0.0
 10
86.0379801971
 20
3.4822813569
 30
0.0
 10
92.3099048832
 20
-1.6154107547
 30
0.0
 10
100.4321562409
 20
-5.3544650405
 30
0.0
 10
109.7576751153
 20
-7.6132022841
 30
0.0
 10
117.7214718628
 20
-8.5448472797
 30
0.0
 10
125.9194417189
 20
-8.5624968346
 30
0.0
 10
133.8980972196
 20
-7.667882197
 30
0.0
 10
141.2553367303
 20
-5.9212185178
 30
0.0
 10
147.7339685811
 20
-3.4268686922
 30
0.0
 10
153.2320037436
 20
-0.3041697683
 30
0.0
 10
157.7644460067
 20
3.3302131688
 30
0.0
 10
161.4160471962
 20
7.3730746151
 30
0.0
 10
165.2502624501
 20
13.1677746189
 30
0.0
 10
168.5414884869
 20
21.2541891775
 30
0.0
 10
169.9695666527
 20
28.053574237
 30
0.0
 10
170.5064883367
 20
31.5283391746
 30
0.0
  0
LINE
  5
5A4
100
AcDbEntity
  8
0
100
AcDbLine
 62
7
  6
CONTINUOUS
 10
133.3138180079
 20
25.4956640807
 11
133.2631028801
 21
25.5035179369
  0
SPLINE
  5
5A5
100
AcDbEntity
  8
0
100
AcDbSpline
 62
7
  6
CONTINUOUS
 70
0
 71
3
 72
9
 73
5
 74
0
 42
0.0000001
 43
0.0000001
 44
0.0000000001
 40
0.0
 40
0.0
 40
0.0
 40
0.0
 40
0.2453722849
 40
1.0
 40
1.0
 40
1.0
 40
1.0
 10
133.3138180079
 20
19.9093395669
 30
0.0
 10
132.5327021958
 20
19.6038631333
 30
0.0
 10
129.3686217935
 20
18.3098107354
 30
0.0
 10
126.2818863239
 20
16.8288732869
 30
0.0
 10
124.0008507075
 20
15.6245425251
 30
0.0
  0
SPLINE
  5
5A6
100
AcDbEntity
  8
0
100
AcDbSpline
 62
7
  6
CONTINUOUS
 70
0
 71
3
 72
9
 73
5
 74
0
 42
0.0000001
 43
0.0000001
 44
0.0000000001
 40
0.0
 40
0.0
 40
0.0
 40
0.0
 40
0.2539239461
 40
1.0
 40
1.0
 40
1.0
 40
1.0
 10
124.0008507075
 20
15.6245425251
 30
0.0
 10
123.2045107524
 20
16.0883454825
 30
0.0
 10
120.044950929
 20
17.8741557177
 30
0.0
 10
116.7903084035
 20
19.4934442639
 30
0.0
 10
114.3138180079
 20
20.5882955771
 30
0.0
  0
SPLINE
  5
5A7
100
AcDbEntity
  8
0
100
AcDbSpline
 62
7
  6
CONTINUOUS
 70
0
 71
3
 72
9
 73
5
 74
0
 42
0.0000001
 43
0.0000001
 44
0.0000000001
 40
0.0
 40
0.0
 40
0.0
 40
0.0
 40
0.25229405
 40
1.0
 40
1.0
 40
1.0
 40
1.0
 10
120.1190307905
 20
254.6466230229
 30
0.0
 10
121.6828528598
 20
254.6059750262
 30
0.0
 10
127.8844396312
 20
254.6477538312
 30
0.0
 10
134.0840468036
 20
255.4967108145
 30
0.0
 10
138.5871161987
 20
256.5995649264
 30
0.0
  0
SPLINE
  5
5A8
100
AcDbEntity
  8
0
100
AcDbSpline
 62
7
  6
CONTINUOUS
 70
0
 71
3
 72
11
 73
7
 74
0
 42
0.0000001
 43
0.0000001
 44
0.0000000001
 40
0.0
 40
0.0
 40
0.0
 40
0.0
 40
0.228741972
 40
0.4717483788
 40
0.7289297654
 40
1.0
 40
1.0
 40
1.0
 40
1.0
 10
170.5064883367
 20
31.5283391746
 30
0.0
 10
171.1471007883
 20
35.6741536415
 30
0.0
 10
171.9165809019
 20
44.3098521877
 30
0.0
 10
172.0358234722
 20
57.6862241
 30
0.0
 10
171.2037436084
 20
71.8168748261
 30
0.0
 10
169.8451486436
 20
81.4283573445
 30
0.0
 10
168.8672867697
 20
86.3025311587
 30
0.0
  0
SPLINE
  5
5A9
100
AcDbEntity
  8
BEZUGSACHSEN
100
AcDbSpline
 62
7
  6
CONTINUOUS
 70
0
 71
3
 72
11
 73
7
 74
0
 42
0.0000001
 43
0.0000001
 44
0.0000000001
 40
0.0
 40
0.0
 40
0.0
 40
0.0
 40
0.2834599416
 40
0.5457918253
 40
0.7851873077
 40
1.0
 40
1.0
 40
1.0
 40
1.0
 10
200.9690099453
 20
206.7405571034
 30
0.0
 10
200.9522333931
 20
214.0094611431
 30
0.0
 10
200.6655145157
 20
228.0067507684
 30
0.0
 10
199.453704251
 20
248.110379221
 30
0.0
 10
197.639650042
 20
266.3994580677
 30
0.0
 10
196.0553969041
 20
277.9421209183
 30
0.0
 10
195.1929621424
 20
283.3827527654
 30
0.0
  0
SPLINE
  5
5AA
100
AcDbEntity
  8
0
100
AcDbSpline
 62
7
  6
CONTINUOUS
 70
0
 71
3
 72
23
 73
19
 74
0
 42
0.0000001
 43
0.0000001
 44
0.0000000001
 40
0.0
 40
0.0
 40
0.0
 40
0.0
 40
0.0553076737
 40
0.1139066516
 40
0.1752294402
 40
0.2385859581
 40
0.3032493546
 40
0.3686051974
 40
0.4342551302
 40
0.4999999985
 40
0.5657448665
 40
0.6313947985
 40
0.6967506419
 40
0.7614140406
 40
0.82477056
 40
0.8860933479
 40
0.944692326
 40
1.0
 40
1.0
 40
1.0
 40
1.0
 10
168.8672867725
 20
206.7405609466
 30
0.0
 10
168.3555589048
 20
204.1898420282
 30
0.0
 10
167.0574829842
 20
198.9814498165
 30
0.0
 10
164.2092417504
 20
191.226699023
 30
0.0
 10
160.1814466257
 20
183.5697912419
 30
0.0
 10
154.8093454999
 20
176.4105983539
 30
0.0
 10
148.0643909222
 20
170.2217637335
 30
0.0
 10
140.1081443862
 20
165.4615397472
 30
0.0
 10
131.2719921884
 20
162.4759542129
 30
0.0
 10
121.9808185962
 20
161.4604067981
 30
0.0
 10
112.6896450178
 20
162.475953965
 30
0.0
 10
103.8534927412
 20
165.4615392008
 30
0.0
 10
95.8972460145
 20
170.221763062
 30
0.0
 10
89.1522911358
 20
176.4105976544
 30
0.0
 10
83.7801898112
 20
183.5697905782
 30
0.0
 10
79.7523945648
 20
191.2266983447
 30
0.0
 10
76.9041532354
 20
198.981449098
 30
0.0
 10
75.6060773029
 20
204.1898413308
 30
0.0
 10
75.0943494105
 20
206.7405602602
 30
0.0
  0
SPLINE
  5
5AB
100
AcDbEntity
  8
0
100
AcDbSpline
 62
7
  6
CONTINUOUS
 70
0
 71
3
 72
30
 73
26
 74
0
 42
0.0000001
 43
0.0000001
 44
0.0000000001
 40
0.0
 40
0.0
 40
0.0
 40
0.0
 40
0.0679437855
 40
0.1328200212
 40
0.1945769027
 40
0.2531647601
 40
0.308695033
 40
0.3618036547
 40
0.3880259382
 40
0.4145699386
 40
0.4420857961
 40
0.4713933932
 40
0.5385118231
 40
0.5773446306
 40
0.6189421101
 40
0.6616303163
 40
0.7033077795
 40
0.7422699205
 40
0.7777397493
 40
0.809835524
 40
0.8392319252
 40
0.8668020588
 40
0.8933707599
 40
0.9458658741
 40
1.0
 40
1.0
 40
1.0
 40
1.0
 10
75.0943494094
 20
206.7405602602
 30
0.0
 10
74.2263174115
 20
211.0672845388
 30
0.0
 10
72.9630139722
 20
219.6150821531
 30
0.0
 10
72.0594756549
 20
232.228328375
 30
0.0
 10
71.9360558563
 20
244.2650156196
 30
0.0
 10
72.5588101915
 20
255.6818560504
 30
0.0
 10
74.1106298039
 20
266.4495210206
 30
0.0
 10
76.5724716898
 20
274.911185611
 30
0.0
 10
79.5563420994
 20
281.1245457547
 30
0.0
 10
82.4181022434
 20
285.5039637271
 30
0.0
 10
86.0379801971
 20
289.5608107484
 30
0.0
 10
92.3099048832
 20
294.6585028599
 30
0.0
 10
100.4321562409
 20
298.3975571457
 30
0.0
 10
109.7576751153
 20
300.6562943894
 30
0.0
 10
117.7214718628
 20
301.5879393849
 30
0.0
 10
125.9194417189
 20
301.6055889399
 30
0.0
 10
133.8980972196
 20
300.7109743023
 30
0.0
 10
141.2553367303
 20
298.9643106231
 30
0.0
 10
147.7339685811
 20
296.4699607974
 30
0.0
 10
153.2320037436
 20
293.3472618736
 30
0.0
 10
157.7644460067
 20
289.7128789365
 30
0.0
 10
161.4160471962
 20
285.6700174901
 30
0.0
 10
165.2502624501
 20
279.8753174864
 30
0.0
 10
168.5414884869
 20
271.7889029278
 30
0.0
 10
169.9695666527
 20
264.9895178683
 30
0.0
 10
170.5064883367
 20
261.5147529306
 30
0.0
  0
SPLINE
  5
5AC
100
AcDbEntity
  8
0
100
AcDbSpline
 62
7
  6
CONTINUOUS
 70
0
 71
3
 72
9
 73
5
 74
0
 42
0.0000001
 43
0.0000001
 44
0.0000000001
 40
0.0
 40
0.0
 40
0.0
 40
0.0
 40
0.2452281884
 40
1.0
 40
1.0
 40
1.0
 40
1.0
 10
110.5871161987
 20
260.3583083786
 30
0.0
 10
111.7302639997
 20
260.5482859879
 30
0.0
 10
116.3726823421
 20
261.4359865708
 30
0.0
 10
120.9299516421
 20
262.7546029168
 30
0.0
 10
124.2892438938
 20
263.9530732801
 30
0.0
  0
SPLINE
  5
5AD
100
AcDbEntity
  8
0
100
AcDbSpline
 62
7
  6
CONTINUOUS
 70
0
 71
3
 72
9
 73
5
 74
0
 42
0.0000001
 43
0.0000001
 44
0.0000000001
 40
0.0
 40
0.0
 40
0.0
 40
0.0
 40
0.2506543859
 40
1.0
 40
1.0
 40
1.0
 40
1.0
 10
114.1615842749
 20
234.7214837607
 30
0.0
 10
115.8980270233
 20
234.5316465213
 30
0.0
 10
122.8508982211
 20
234.0294097443
 30
0.0
 10
129.8787462165
 20
234.53365881
 30
0.0
 10
135.0126485397
 20
235.4895042046
 30
0.0
  0
SPLINE
  5
5AE
100
AcDbEntity
  8
0
100
AcDbSpline
 62
7
  6
CONTINUOUS
 70
0
 71
3
 72
9
 73
5
 74
0
 42
0.0000001
 43
0.0000001
 44
0.0000000001
 40
0.0
 40
0.0
 40
0.0
 40
0.0
 40
0.2541301782
 40
1.0
 40
1.0
 40
1.0
 40
1.0
 10
124.0008507075
 20
13.6766686804
 30
0.0
 10
123.2050308702
 20
14.1421025953
 30
0.0
 10
120.0489074575
 20
15.9309756298
 30
0.0
 10
116.7928744229
 20
17.5455749358
 30
0.0
 10
114.3138180079
 20
18.6299936995
 30
0.0
  0
SPLINE
  5
5AF
100
AcDbEntity
  8
0
100
AcDbSpline
 62
7
  6
CONTINUOUS
 70
0
 71
3
 72
9
 73
5
 74
0
 42
0.0000001
 43
0.0000001
 44
0.0000000001
 40
0.0
 40
0.0
 40
0.0
 40
0.0
 40
0.2450777988
 40
1.0
 40
1.0
 40
1.0
 40
1.0
 10
133.3138180079
 20
17.9248278394
 30
0.0
 10
132.5327648038
 20
17.6253484693
 30
0.0
 10
129.3659456739
 20
16.3511419569
 30
0.0
 10
126.2798768758
 20
14.8789289948
 30
0.0
 10
124.0008507075
 20
13.6766686804
 30
0.0
  0
SPLINE
  5
5B0
100
AcDbEntity
  8
0
100
AcDbSpline
 62
7
  6
CONTINUOUS
 70
0
 71
3
 72
9
 73
5
 74
0
 42
0.0000001
 43
0.0000001
 44
0.0000000001
 40
0.0
 40
0.0
 40
0.0
 40
0.0
 40
0.2520475414
 40
1.0
 40
1.0
 40
1.0
 40
1.0
 10
120.1190307905
 20
238.7306184906
 30
0.0
 10
121.680100953
 20
238.6923317703
 30
0.0
 10
127.8765138836
 20
238.731319915
 30
0.0
 10
134.070934689
 20
239.5305217028
 30
0.0
 10
138.5871161987
 20
240.5682709584
 30
0.0
  0
LINE
  5
5B1
100
AcDbEntity
  8
0
100
AcDbLine
 62
7
  6
CONTINUOUS
 10
114.1690955507
 20
248.3975833928
 11
114.2608789883
 21
248.6783075268
  0
SPLINE
  5
5B2
100
AcDbEntity
  8
0
100
AcDbSpline
 62
7
  6
CONTINUOUS
 70
0
 71
3
 72
9
 73
5
 74
0
 42
0.0000001
 43
0.0000001
 44
0.0000000001
 40
0.0
 40
0.0
 40
0.0
 40
0.0
 40
0.2520764382
 40
1.0
 40
1.0
 40
1.0
 40
1.0
 10
120.1190307905
 20
252.735532919
 30
0.0
 10
121.6804172102
 20
252.6969632732
 30
0.0
 10
127.8774228635
 20
252.7362589969
 30
0.0
 10
134.072352023
 20
253.5414974714
 30
0.0
 10
138.5871161987
 20
254.5864982296
 30
0.0
  0
SPLINE
  5
5B3
100
AcDbEntity
  8
BEZUGSACHSEN
100
AcDbSpline
 62
7
  6
CONTINUOUS
 70
0
 71
3
 72
9
 73
5
 74
0
 42
0.0000001
 43
0.0000001
 44
0.0000000001
 40
0.0
 40
0.0
 40
0.0
 40
0.0
 40
0.2329621454
 40
1.0
 40
1.0
 40
1.0
 40
1.0
 10
200.9690099453
 20
86.3025350018
 30
0.0
 10
200.9746782979
 20
88.7585051641
 30
0.0
 10
200.9967320609
 20
99.3008676408
 30
0.0
 10
201.0107845873
 20
109.8432460249
 30
0.0
 10
201.0182586382
 20
117.9296511929
 30
0.0
  0
SPLINE
  5
5B4
100
AcDbEntity
  8
BEZUGSACHSEN
100
AcDbSpline
 62
7
  6
CONTINUOUS
 70
0
 71
3
 72
9
 73
5
 74
0
 42
0.0000001
 43
0.0000001
 44
0.0000000001
 40
0.0
 40
0.0
 40
0.0
 40
0.0
 40
0.2651346808
 40
1.0
 40
1.0
 40
1.0
 40
1.0
 10
201.0182586382
 20
175.1134409123
 30
0.0
 10
201.0156751541
 20
177.9085916762
 30
0.0
 10
201.0043610246
 20
188.4509708077
 30
0.0
 10
200.9868904287
 20
198.9933444082
 30
0.0
 10
200.9690099453
 20
206.7405571034
 30
0.0
  0
SPLINE
  5
5B5
100
AcDbEntity
  8
BEZUGSACHSEN
100
AcDbSpline
 62
7
  6
CONTINUOUS
 70
0
 71
3
 72
13
 73
9
 74
0
 42
0.0000001
 43
0.0000001
 44
0.0000000001
 40
0.0
 40
0.0
 40
0.0
 40
0.0
 40
0.238423149
 40
0.4708030626
 40
0.5922917731
 40
0.7210615998
 40
0.8578981116
 40
1.0
 40
1.0
 40
1.0
 40
1.0
 10
205.4070890177
 20
175.5258542203
 30
0.0
 10
205.9804182507
 20
176.6741572292
 30
0.0
 10
207.2307669054
 20
178.8865035232
 30
0.0
 10
209.2552949867
 20
181.3838426009
 30
0.0
 10
211.2571540039
 20
183.0539241228
 30
0.0
 10
213.0625378491
 20
184.1172688373
 30
0.0
 10
215.1488642985
 20
184.8466991285
 30
0.0
 10
216.6559921321
 20
185.0215460526
 30
0.0
 10
217.420951905
 20
185.0215460526
 30
0.0
  0
SPLINE
  5
5B6
100
AcDbEntity
  8
BEZUGSACHSEN
100
AcDbSpline
 62
7
  6
CONTINUOUS
 70
0
 71
3
 72
13
 73
9
 74
0
 42
0.0000001
 43
0.0000001
 44
0.0000000001
 40
0.0
 40
0.0
 40
0.0
 40
0.0
 40
0.238423149
 40
0.4708030626
 40
0.5922917731
 40
0.7210615998
 40
0.8578981116
 40
1.0
 40
1.0
 40
1.0
 40
1.0
 10
635.574546998
 20
175.5258542203
 30
0.0
 10
635.0012177651
 20
176.6741572292
 30
0.0
 10
633.7508691104
 20
178.8865035232
 30
0.0
 10
631.7263410291
 20
181.3838426009
 30
0.0
 10
629.7244820119
 20
183.0539241228
 30
0.0
 10
627.9190981667
 20
184.1172688373
 30
0.0
 10
625.8327717173
 20
184.8466991285
 30
0.0
 10
624.3256438836
 20
185.0215460526
 30
0.0
 10
623.5606841108
 20
185.0215460526
 30
0.0
  0
SPLINE
  5
5B7
100
AcDbEntity
  8
BEZUGSACHSEN
100
AcDbSpline
 62
7
  6
CONTINUOUS
 70
0
 71
3
 72
13
 73
9
 74
0
 42
0.0000001
 43
0.0000001
 44
0.0000000001
 40
0.0
 40
0.0
 40
0.0
 40
0.0
 40
0.238423149
 40
0.4708030626
 40
0.5922917731
 40
0.7210615998
 40
0.8578981116
 40
1.0
 40
1.0
 40
1.0
 40
1.0
 10
205.4070890177
 20
117.517237885
 30
0.0
 10
205.9804182507
 20
116.3689348761
 30
0.0
 10
207.2307669054
 20
114.1565885821
 30
0.0
 10
209.2552949867
 20
111.6592495044
 30
0.0
 10
211.2571540039
 20
109.9891679824
 30
0.0
 10
213.0625378491
 20
108.925823268
 30
0.0
 10
215.1488642985
 20
108.1963929768
 30
0.0
 10
216.6559921321
 20
108.0215460526
 30
0.0
 10
217.420951905
 20
108.0215460526
 30
0.0
  0
SPLINE
  5
5B8
100
AcDbEntity
  8
RUNDUNGEN
100
AcDbSpline
 62
7
  6
CONTINUOUS
 70
0
 71
3
 72
13
 73
9
 74
0
 42
0.0000001
 43
0.0000001
 44
0.0000000001
 40
0.0
 40
0.0
 40
0.0
 40
0.0
 40
0.238423149
 40
0.4708030626
 40
0.5922917731
 40
0.7210615998
 40
0.8578981116
 40
1.0
 40
1.0
 40
1.0
 40
1.0
 10
635.574546998
 20
117.517237885
 30
0.0
 10
635.0012177651
 20
116.3689348761
 30
0.0
 10
633.7508691104
 20
114.1565885821
 30
0.0
 10
631.7263410291
 20
111.6592495044
 30
0.0
 10
629.7244820119
 20
109.9891679824
 30
0.0
 10
627.9190981667
 20
108.925823268
 30
0.0
 10
625.8327717173
 20
108.1963929768
 30
0.0
 10
624.3256438836
 20
108.0215460526
 30
0.0
 10
623.5606841108
 20
108.0215460526
 30
0.0
  0
ENDSEC
  0
SECTION
  2
OBJECTS
  0
DICTIONARY
  5
C
100
AcDbDictionary
280
0
281
1
  3
ACAD_GROUP
350
D
  3
ACAD_MLINESTYLE
350
17
  3
ACAD_LAYOUT
350
1A
  3
ACAD_PLOTSETTINGS
350
19
  3
ACAD_PLOTSTYLENAME
350
E
  0
DICTIONARY
  5
D
102
{ACAD_REACTORS
330
C
102
}
100
AcDbDictionary
280
0
281
1
  0
ACDBDICTIONARYWDFLT
  5
E
102
{ACAD_REACTORS
330
C
102
}
100
AcDbDictionary
281
1
  3
Normal
350
F
100
AcDbDictionaryWithDefault
340
F
  0
DICTIONARY
  5
17
102
{ACAD_REACTORS
330
C
102
}
100
AcDbDictionary
280
0
281
1
  3
Standard
350
18
  0
DICTIONARY
  5
19
102
{ACAD_REACTORS
330
C
102
}
100
AcDbDictionary
281
1
  0
DICTIONARY
  5
1A
102
{ACAD_REACTORS
330
C
102
}
100
AcDbDictionary
281
1
  3
Model
350
5B9
  3
Layout1
350
5BA
  0
ACDBPLACEHOLDER
  5
F
102
{ACAD_REACTORS
330
E
102
}
  0
MLINESTYLE
  5
18
102
{ACAD_REACTORS
330
17
102
}
100
AcDbMlineStyle
  2
STANDARD
 70
0
  3

 62
256
 51
90.0
 52
90.0
 71
2
 49
0.5
 62
256
  6
BYLAYER
 49
-0.5
 62
256
  6
BYLAYER
  0
LAYOUT
  5
5B9
102
{ACAD_REACTORS
330
1A
102
}
100
AcDbPlotSettings
  1

  2
none_device
  4
ISO_A0_(1189.00_x_841.00_MM)
  6

 40
0.0
 41
0.0
 42
0.0
 43
0.0
 44
1189.0
 45
841.0
 46
0.0
 47
0.0
 48
0.0
 49
0.0
140
0.0
141
0.0
142
1.0
143
1.0
 70
1024
 72
1
 73
0
 74
0
  7

 75
0
147
1.0
148
0.0
149
0.0
100
AcDbLayout
  1
Model
 70
0
 71
0
 10
0.0
 20
0.0
 11
1189.0
 21
841.0
 12
0.0
 22
0.0
 32
0.0
 14
0.0
 24
0.0
 34
0.0
 15
0.0
 25
0.0
 35
0.0
146
0.0
 13
0.0
 23
0.0
 33
0.0
 16
1.0
 26
0.0
 36
0.0
 17
0.0
 27
1.0
 37
0.0
 76
0
330
212
345
0
346
0
  0
LAYOUT
  5
5BA
102
{ACAD_REACTORS
330
1A
102
}
100
AcDbPlotSettings
  1

  2
none_device
  4
ISO_A0_(1189.00_x_841.00_MM)
  6

 40
0.0
 41
0.0
 42
0.0
 43
0.0
 44
1189.0
 45
841.0
 46
0.0
 47
0.0
 48
0.0
 49
0.0
140
0.0
141
0.0
142
1.0
143
1.0
 70
0
 72
1
 73
0
 74
0
  7

 75
0
147
1.0
148
0.0
149
0.0
100
AcDbLayout
  1
Layout1
 70
0
 71
1
 10
0.0
 20
0.0
 11
1189.0
 21
841.0
 12
0.0
 22
0.0
 32
0.0
 14
0.0
 24
0.0
 34
0.0
 15
0.0
 25
0.0
 35
0.0
146
0.0
 13
0.0
 23
0.0
 33
0.0
 16
1.0
 26
0.0
 36
0.0
 17
0.0
 27
1.0
 37
0.0
 76
0
330
213
345
0
346
0
  0
ENDSEC
  0
EOF
