999
DXF file: 001-m31342-p-50.dxf
999
Pro/ENGINEER 2011490 by Parametric Technology Corporation
  0
SECTION
  2
HEADER
  9
$ACADVER
  1
AC1015
  9
$DWGCODEPAGE
  3
ANSI_1252
  9
$EXTMAX
 10
594.0
 20
420.0
 30
0.0
  9
$EXTMIN
 10
0.0
 20
0.0
 30
0.0
  9
$LIMMIN
 10
0.0
 20
0.0
  9
$LIMMAX
 10
594.0
 20
420.0
  9
$VIEWCTR
 10
297.0
 20
210.0
  9
$VIEWSIZE
 40
420.0
  9
$CLAYER
  8
0
  9
$LTSCALE
 40
32.67
  9
$CELTYPE
  6
BYLAYER
  9
$DIMSCALE
 40
1.0
  9
$DIMASZ
 40
3.5
  9
$DIMEXO
 40
3.7125
  9
$DIMDLI
 40
22.572
  9
$DIMEXE
 40
10.692
  9
$DIMCEN
 40
5.346
  9
$DIMLFAC
 40
1.0
  9
$DIMBLK
  1
_FILLED
  9
$DIMTXT
 40
3.5
  9
$DIMTOL
 70
1
  9
$DIMLIM
 70
0
  9
$DIMTFAC
 40
1.0
  9
$DIMTP
 40
0.005
  9
$DIMTM
 40
0.005
  9
$PDMODE
 70
3
  9
$PDSIZE
 40
0.3125
  9
$HANDSEED
  5
3DD
  9
$TILEMODE
 70
1
  9
$MEASUREMENT
 70
1
  9
$INSUNITS
 70
4
  0
ENDSEC
  0
SECTION
  2
CLASSES
  0
CLASS
  1
ACDBDICTIONARYWDFLT
  2
AcDbDictionaryWithDefault
  3
AutoCAD 2000
 90
0
280
0
281
0
  0
CLASS
  1
ACDBPLACEHOLDER
  2
AcDbPlaceHolder
  3
AutoCAD 2000
 90
0
280
0
281
0
  0
CLASS
  1
LAYOUT
  2
AcDbLayout
  3
AutoCAD 2000
 90
0
280
0
281
0
  0
ENDSEC
  0
SECTION
  2
TABLES
  0
TABLE
  2
VPORT
  5
8
100
AcDbSymbolTable
 70
2
  0
VPORT
  5
1F4
100
AcDbSymbolTableRecord
100
AcDbViewportTableRecord
  2
*ACTIVE
 70
0
 10
0.0
 20
0.0
 11
1.0
 21
1.0
 12
297.0
 22
210.0
 13
0.0
 23
0.0
 14
1.0
 24
1.0
 15
0.0
 25
0.0
 16
0.0
 26
0.0
 36
1.0
 17
0.0
 27
0.0
 37
0.0
 40
420.0
 41
1.4142857143
 42
50.0
 43
0.0
 44
0.0
 50
0.0
 51
0.0
 71
0
 72
100
 73
1
 74
1
 75
0
 76
0
 77
0
 78
0
  0
ENDTAB
  0
TABLE
  2
LTYPE
  5
5
100
AcDbSymbolTable
 70
6
  0
LTYPE
  5
14
100
AcDbSymbolTableRecord
100
AcDbLinetypeTableRecord
  2
BYBLOCK
 70
0
  3

 72
65
 73
0
 40
0.0
  0
LTYPE
  5
15
100
AcDbSymbolTableRecord
100
AcDbLinetypeTableRecord
  2
BYLAYER
 70
0
  3

 72
65
 73
0
 40
0.0
  0
LTYPE
  5
16
100
AcDbSymbolTableRecord
100
AcDbLinetypeTableRecord
  2
CONTINUOUS
 70
64
  3
Solid line
 72
65
 73
0
 40
0.0
  0
LTYPE
  5
1F5
100
AcDbSymbolTableRecord
100
AcDbLinetypeTableRecord
  2
CENTER
 70
64
  3
____ _ ____ _ ____ _ ____ _ ____ _ ____ _ ____
 72
65
 73
4
 40
0.6
 49
0.375
 74
0
 49
-0.075
 74
0
 49
0.075
 74
0
 49
-0.075
 74
0
  0
LTYPE
  5
1F6
100
AcDbSymbolTableRecord
100
AcDbLinetypeTableRecord
  2
HIDDEN
 70
64
  3
- - - - - - - - - - - - - - - - - - - -
 72
65
 73
2
 40
0.2
 49
0.1
 74
0
 49
-0.1
 74
0
  0
LTYPE
  5
1F7
100
AcDbSymbolTableRecord
100
AcDbLinetypeTableRecord
  2
PHANTOM
 70
64
  3
_____ _ _ _____ _ _ _____ _ _ _____
 72
65
 73
6
 40
0.8
 49
0.45
 74
0
 49
-0.05
 74
0
 49
0.1
 74
0
 49
-0.05
 74
0
 49
0.1
 74
0
 49
-0.05
 74
0
  0
LTYPE
  5
1F8
100
AcDbSymbolTableRecord
100
AcDbLinetypeTableRecord
  2
DOT
 70
64
  3
. . . . . . . . . . . . . . . . . . . .
 72
65
 73
2
 40
0.2
 49
0.1
 74
0
 49
-0.1
 74
0
  0
LTYPE
  5
1F9
100
AcDbSymbolTableRecord
100
AcDbLinetypeTableRecord
  2
DASHED
 70
64
  3
- - - - - - - - - - - - - - - - - - - -
 72
65
 73
2
 40
0.2
 49
0.1
 74
0
 49
-0.1
 74
0
  0
ENDTAB
  0
TABLE
  2
LAYER
  5
2
100
AcDbSymbolTable
 70
36
  0
LAYER
  5
10
100
AcDbSymbolTableRecord
100
AcDbLayerTableRecord
  2
0
 70
0
 62
7
  6
CONTINUOUS
370
-3
390
F
  0
LAYER
  5
1FA
100
AcDbSymbolTableRecord
100
AcDbLayerTableRecord
  2
DEFAULT_1
 70
0
 62
7
  6
CENTER
370
-3
390
F
  0
LAYER
  5
1FB
100
AcDbSymbolTableRecord
100
AcDbLayerTableRecord
  2
DEFAULT_2
 70
0
 62
8
  6
HIDDEN
370
-3
390
F
  0
LAYER
  5
1FC
100
AcDbSymbolTableRecord
100
AcDbLayerTableRecord
  2
DEFAULT_3
 70
0
 62
7
  6
PHANTOM
370
-3
390
F
  0
LAYER
  5
1FD
100
AcDbSymbolTableRecord
100
AcDbLayerTableRecord
  2
BEZUGSACHSEN
 70
0
 62
7
  6
CONTINUOUS
370
-3
390
F
  0
LAYER
  5
1FE
100
AcDbSymbolTableRecord
100
AcDbLayerTableRecord
  2
BEZUGSEBENEN
 70
0
 62
7
  6
CONTINUOUS
370
-3
390
F
  0
LAYER
  5
1FF
100
AcDbSymbolTableRecord
100
AcDbLayerTableRecord
  2
BG_STARTBEZUEGE
 70
0
 62
7
  6
CONTINUOUS
370
-3
390
F
  0
LAYER
  5
200
100
AcDbSymbolTableRecord
100
AcDbLayerTableRecord
  2
FASEN
 70
0
 62
7
  6
CONTINUOUS
370
-3
390
F
  0
LAYER
  5
201
100
AcDbSymbolTableRecord
100
AcDbLayerTableRecord
  2
HILFEN
 70
0
 62
7
  6
CONTINUOUS
370
-3
390
F
  0
LAYER
  5
202
100
AcDbSymbolTableRecord
100
AcDbLayerTableRecord
  2
NORM
 70
0
 62
7
  6
CONTINUOUS
370
-3
390
F
  0
LAYER
  5
203
100
AcDbSymbolTableRecord
100
AcDbLayerTableRecord
  2
PLATZIERUNG
 70
0
 62
7
  6
CONTINUOUS
370
-3
390
F
  0
LAYER
  5
204
100
AcDbSymbolTableRecord
100
AcDbLayerTableRecord
  2
RUNDUNGEN
 70
0
 62
7
  6
CONTINUOUS
370
-3
390
F
  0
LAYER
  5
205
100
AcDbSymbolTableRecord
100
AcDbLayerTableRecord
  2
T_STARTBEZUEGE
 70
0
 62
7
  6
CONTINUOUS
370
-3
390
F
  0
LAYER
  5
206
100
AcDbSymbolTableRecord
100
AcDbLayerTableRecord
  2
ZEICHNUNGSBEMASSUNGEN
 70
0
 62
7
  6
CONTINUOUS
370
-3
390
F
  0
ENDTAB
  0
TABLE
  2
STYLE
  5
3
100
AcDbSymbolTable
 70
1
  0
STYLE
  5
11
100
AcDbSymbolTableRecord
100
AcDbTextStyleTableRecord
  2
STANDARD
 70
0
 40
0.0
 41
0.7
 50
0.0
 71
0
 42
0.2
  3
txt
  4

  0
STYLE
  5
207
100
AcDbSymbolTableRecord
100
AcDbTextStyleTableRecord
  2
TEXTSTYLE_1
 70
0
 40
0.0
 41
0.8
 50
0.0
 71
0
 42
0.2
  3
gdt
  4

  0
ENDTAB
  0
TABLE
  2
VIEW
  5
6
100
AcDbSymbolTable
 70
0
  0
ENDTAB
  0
TABLE
  2
UCS
  5
7
100
AcDbSymbolTable
 70
0
  0
ENDTAB
  0
TABLE
  2
APPID
  5
9
100
AcDbSymbolTable
 70
1
  0
APPID
  5
208
100
AcDbSymbolTableRecord
100
AcDbRegAppTableRecord
  2
ACAD
 70
0
  0
ENDTAB
  0
TABLE
  2
BLOCK_RECORD
  5
1
100
AcDbSymbolTable
 70
0
  0
BLOCK_RECORD
  5
209
100
AcDbSymbolTableRecord
100
AcDbBlockTableRecord
  2
*Model_Space
  0
BLOCK_RECORD
  5
20A
100
AcDbSymbolTableRecord
100
AcDbBlockTableRecord
  2
*Paper_Space
  0
ENDTAB
  0
TABLE
  2
DIMSTYLE
  5
A
100
AcDbSymbolTable
 70
1
100
AcDbDimStyleTable
 71
0
  0
DIMSTYLE
105
20B
100
AcDbSymbolTableRecord
100
AcDbDimStyleTableRecord
  2
STANDARD
 70
0
  3

  4

 40
1.0
 41
3.5
 42
0.0625
 43
0.38
 44
0.18
 45
0.0
 46
0.0
 47
0.005
 48
0.005
140
3.5
141
0.09
142
0.0
143
25.4
144
1.0
145
0.0
146
1.0
147
0.09
 71
1.0
 72
0.0
 73
0
 74
0
 75
0
 76
0
 77
1
 78
8
170
0
171
2
172
0
173
0
174
0
175
0
176
0
177
0
178
5
270
2
271
3
272
3
273
2
274
2
275
0
280
0
281
0
282
0
283
1
284
8
285
0
286
0
287
3
288
0
340
11
  0
ENDTAB
  0
ENDSEC
  0
SECTION
  2
BLOCKS
  0
BLOCK
  5
20
100
AcDbEntity
  8
0
100
AcDbBlockBegin
  2
*Model_Space
 70
0
 10
0.0
 20
0.0
 30
0.0
  3
*Model_Space
  1

  0
ENDBLK
  5
21
100
AcDbEntity
  8
0
100
AcDbBlockEnd
  0
BLOCK
  5
1C
100
AcDbEntity
  8
0
100
AcDbBlockBegin
  2
*Paper_Space
 70
0
 10
0.0
 20
0.0
 30
0.0
  3
*Paper_Space
  1

  0
ENDBLK
  5
1D
100
AcDbEntity
  8
0
100
AcDbBlockEnd
  0
ENDSEC
  0
SECTION
  2
ENTITIES
  0
MTEXT
  5
20C
100
AcDbEntity
  8
0
100
AcDbMText
 62
5
  6
CONTINUOUS
  7
STANDARD
 71
2
 72
1
 10
194.3507740053
 20
81.8784298329
 30
0.0
 11
0.0
 21
1.0
 31
0.0
 44
0.9
  1
RUD WPPH\PVIP 16 8t
 40
12.0
 41
86.0
  0
MTEXT
  5
20D
100
AcDbEntity
  8
0
100
AcDbMText
 62
5
  6
CONTINUOUS
  7
STANDARD
 71
2
 72
1
 10
463.6515382608
 20
261.6570735001
 30
0.0
 11
1.0
 21
0.0
 31
0.0
 44
0.9
  1
RUD\PWPPH 8t
 40
10.0
 41
58.5714285714
  0
LINE
  5
20E
100
AcDbEntity
  8
0
100
AcDbLine
 62
7
  6
CONTINUOUS
 10
0.0
 20
0.0
 11
0.0
 21
420.0
  0
LINE
  5
20F
100
AcDbEntity
  8
0
100
AcDbLine
 62
7
  6
CONTINUOUS
 10
0.0
 20
0.0
 11
594.0
 21
0.0
  0
LINE
  5
210
100
AcDbEntity
  8
0
100
AcDbLine
 62
7
  6
CONTINUOUS
 10
0.0
 20
420.0
 11
594.0
 21
420.0
  0
LINE
  5
211
100
AcDbEntity
  8
0
100
AcDbLine
 62
7
  6
CONTINUOUS
 10
594.0
 20
0.0
 11
594.0
 21
420.0
  0
LINE
  5
212
100
AcDbEntity
  8
0
100
AcDbLine
 62
7
  6
CONTINUOUS
 10
170.1081525348
 20
224.9125389469
 11
166.532891757
 21
227.9125389469
  0
LINE
  5
213
100
AcDbEntity
  8
0
100
AcDbLine
 62
7
  6
CONTINUOUS
 10
170.1081525348
 20
224.9125389469
 11
250.9576309792
 21
224.9125389469
  0
LINE
  5
214
100
AcDbEntity
  8
0
100
AcDbLine
 62
7
  6
CONTINUOUS
 10
254.532891757
 20
227.9125389469
 11
166.532891757
 21
227.9125389469
  0
LINE
  5
215
100
AcDbEntity
  8
0
100
AcDbLine
 62
7
  6
CONTINUOUS
 10
248.6380095235
 20
235.4125389469
 11
250.0297270733
 21
235.4125389469
  0
LINE
  5
216
100
AcDbEntity
  8
0
100
AcDbLine
 62
7
  6
CONTINUOUS
 10
253.1994770434
 20
235.4125389469
 11
254.0608999816
 21
235.4125389469
  0
LINE
  5
217
100
AcDbEntity
  8
0
100
AcDbLine
 62
7
  6
CONTINUOUS
 10
254.532891757
 20
237.1997729552
 11
254.5556131631
 21
237.1997729552
  0
LINE
  5
218
100
AcDbEntity
  8
0
100
AcDbLine
 62
7
  6
CONTINUOUS
 10
254.532891757
 20
238.4763687265
 11
254.6265422233
 21
238.4763687265
  0
LINE
  5
219
100
AcDbEntity
  8
0
100
AcDbLine
 62
7
  6
CONTINUOUS
 10
254.532891757
 20
239.242326082
 11
254.6265422233
 21
239.242326082
  0
LINE
  5
21A
100
AcDbEntity
  8
0
100
AcDbLine
 62
7
  6
CONTINUOUS
 10
254.5300507562
 20
239.752964319
 11
255.0300826796
 21
239.752964319
  0
LINE
  5
21B
100
AcDbEntity
  8
0
100
AcDbLine
 62
7
  6
CONTINUOUS
 10
254.778654266
 20
240.7742411506
 11
254.0608999816
 21
240.7742411506
  0
LINE
  5
21C
100
AcDbEntity
  8
0
100
AcDbLine
 62
7
  6
CONTINUOUS
 10
252.056981151
 20
240.7742411506
 11
250.0297270733
 21
240.7742411506
  0
LINE
  5
21D
100
AcDbEntity
  8
0
100
AcDbLine
 62
7
  6
CONTINUOUS
 10
254.895037745
 20
241.0295602691
 11
255.0300826796
 21
241.0295602691
  0
LINE
  5
21E
100
AcDbEntity
  8
0
100
AcDbLine
 62
7
  6
CONTINUOUS
 10
166.532891757
 20
267.9125389469
 11
166.532891757
 21
227.9125389469
  0
LINE
  5
21F
100
AcDbEntity
  8
0
100
AcDbLine
 62
7
  6
CONTINUOUS
 10
254.8047790478
 20
242.3061558616
 11
254.0608999816
 21
242.3061558616
  0
LINE
  5
220
100
AcDbEntity
  8
0
100
AcDbLine
 62
7
  6
CONTINUOUS
 10
252.1524483679
 20
242.3061558616
 11
250.0297270733
 21
242.3061558616
  0
LINE
  5
221
100
AcDbEntity
  8
0
100
AcDbLine
 62
7
  6
CONTINUOUS
 10
251.8971274304
 20
242.5614749801
 11
252.4285955087
 21
242.5614749801
  0
LINE
  5
222
100
AcDbEntity
  8
0
100
AcDbLine
 62
7
  6
CONTINUOUS
 10
254.3727994163
 20
242.5614749801
 11
254.8746046646
 21
242.5614749801
  0
LINE
  5
223
100
AcDbEntity
  8
0
100
AcDbLine
 62
7
  6
CONTINUOUS
 10
252.0750390294
 20
243.0721132171
 11
252.6042596929
 21
243.0721132171
  0
LINE
  5
224
100
AcDbEntity
  8
0
100
AcDbLine
 62
7
  6
CONTINUOUS
 10
254.4126991859
 20
243.0721132171
 11
254.9140533011
 21
243.0721132171
  0
LINE
  5
225
100
AcDbEntity
  8
0
100
AcDbLine
 62
7
  6
CONTINUOUS
 10
252.1614575887
 20
243.8380705726
 11
252.6895933975
 21
243.8380705726
  0
LINE
  5
226
100
AcDbEntity
  8
0
100
AcDbLine
 62
7
  6
CONTINUOUS
 10
254.4304999249
 20
243.8380705726
 11
254.9316530332
 21
243.8380705726
  0
LINE
  5
227
100
AcDbEntity
  8
0
100
AcDbLine
 62
7
  6
CONTINUOUS
 10
252.1614575887
 20
244.6040286434
 11
252.6895933975
 21
244.6040286434
  0
LINE
  5
228
100
AcDbEntity
  8
0
100
AcDbLine
 62
7
  6
CONTINUOUS
 10
254.4304999249
 20
244.6040286434
 11
254.9316530332
 21
244.6040286434
  0
LINE
  5
229
100
AcDbEntity
  8
0
100
AcDbLine
 62
7
  6
CONTINUOUS
 10
252.0750390294
 20
245.3699859989
 11
252.6042596929
 21
245.3699859989
  0
LINE
  5
22A
100
AcDbEntity
  8
0
100
AcDbLine
 62
7
  6
CONTINUOUS
 10
254.4126991859
 20
245.3699859989
 11
254.9140533011
 21
245.3699859989
  0
LINE
  5
22B
100
AcDbEntity
  8
0
100
AcDbLine
 62
7
  6
CONTINUOUS
 10
251.8971274304
 20
245.8806242359
 11
252.4285955087
 21
245.8806242359
  0
LINE
  5
22C
100
AcDbEntity
  8
0
100
AcDbLine
 62
7
  6
CONTINUOUS
 10
254.3727994163
 20
245.8806242359
 11
254.8746046646
 21
245.8806242359
  0
LINE
  5
22D
100
AcDbEntity
  8
0
100
AcDbLine
 62
7
  6
CONTINUOUS
 10
254.8047790478
 20
246.1359433544
 11
254.0608999816
 21
246.1359433544
  0
LINE
  5
22E
100
AcDbEntity
  8
0
100
AcDbLine
 62
7
  6
CONTINUOUS
 10
252.1524483679
 20
246.1359433544
 11
250.0297270733
 21
246.1359433544
  0
LINE
  5
22F
100
AcDbEntity
  8
0
100
AcDbLine
 62
7
  6
CONTINUOUS
 10
248.6380095235
 20
247.4125389469
 11
252.056981151
 21
247.4125389469
  0
LINE
  5
230
100
AcDbEntity
  8
0
100
AcDbLine
 62
7
  6
CONTINUOUS
 10
253.1994770434
 20
247.4125389469
 11
254.778654266
 21
247.4125389469
  0
LINE
  5
231
100
AcDbEntity
  8
0
100
AcDbLine
 62
7
  6
CONTINUOUS
 10
251.5206948208
 20
249.4125389469
 11
252.6042596929
 21
249.4125389469
  0
LINE
  5
232
100
AcDbEntity
  8
0
100
AcDbLine
 62
7
  6
CONTINUOUS
 10
253.7525342366
 20
249.4125389469
 11
255.0300826742
 21
249.4125389469
  0
LINE
  5
233
100
AcDbEntity
  8
0
100
AcDbLine
 62
7
  6
CONTINUOUS
 10
254.5407398545
 20
249.6678580877
 11
254.9984683303
 21
249.6678580877
  0
LINE
  5
234
100
AcDbEntity
  8
0
100
AcDbLine
 62
7
  6
CONTINUOUS
 10
254.5109931656
 20
250.1784963918
 11
254.947838536
 21
250.1784963918
  0
LINE
  5
235
100
AcDbEntity
  8
0
100
AcDbLine
 62
7
  6
CONTINUOUS
 10
255.032891757
 20
250.9444538367
 11
255.0300826742
 21
250.9444538367
  0
LINE
  5
236
100
AcDbEntity
  8
0
100
AcDbLine
 62
7
  6
CONTINUOUS
 10
254.4488031613
 20
251.1997729552
 11
254.8746046646
 21
251.1997729552
  0
LINE
  5
237
100
AcDbEntity
  8
0
100
AcDbLine
 62
7
  6
CONTINUOUS
 10
254.3830390893
 20
252.221049608
 11
254.8294774271
 21
252.221049608
  0
LINE
  5
238
100
AcDbEntity
  8
0
100
AcDbLine
 62
7
  6
CONTINUOUS
 10
254.3021731979
 20
253.4976452005
 11
254.8047789751
 21
253.4976452005
  0
LINE
  5
239
100
AcDbEntity
  8
0
100
AcDbLine
 62
7
  6
CONTINUOUS
 10
253.8363269274
 20
254.7742411506
 11
252.6042596929
 21
254.7742411506
  0
LINE
  5
23A
100
AcDbEntity
  8
0
100
AcDbLine
 62
7
  6
CONTINUOUS
 10
253.951637655
 20
256.3061558616
 11
252.6042596929
 21
256.3061558616
  0
LINE
  5
23B
100
AcDbEntity
  8
0
100
AcDbLine
 62
7
  6
CONTINUOUS
 10
186.032891757
 20
292.4860482351
 11
186.032891757
 21
302.5193473214
  0
LINE
  5
23C
100
AcDbEntity
  8
0
100
AcDbLine
 62
7
  6
CONTINUOUS
 10
186.032891757
 20
302.5625389469
 11
186.032891757
 21
304.0625389469
  0
LINE
  5
23D
100
AcDbEntity
  8
0
100
AcDbLine
 62
7
  6
CONTINUOUS
 10
186.032891757
 20
305.0625388872
 11
186.032891757
 21
311.0193473214
  0
LINE
  5
23E
100
AcDbEntity
  8
0
100
AcDbLine
 62
7
  6
CONTINUOUS
 10
253.6026026419
 20
256.5614749801
 11
254.113277204
 21
256.5614749801
  0
LINE
  5
23F
100
AcDbEntity
  8
0
100
AcDbLine
 62
7
  6
CONTINUOUS
 10
253.7040626932
 20
257.0721132171
 11
254.2135510927
 21
257.0721132171
  0
LINE
  5
240
100
AcDbEntity
  8
0
100
AcDbLine
 62
7
  6
CONTINUOUS
 10
253.7525342366
 20
257.8380705726
 11
254.2614578902
 21
257.8380705726
  0
LINE
  5
241
100
AcDbEntity
  8
0
100
AcDbLine
 62
7
  6
CONTINUOUS
 10
253.7525342366
 20
258.6040286434
 11
254.2614578902
 21
258.6040286434
  0
LINE
  5
242
100
AcDbEntity
  8
0
100
AcDbLine
 62
7
  6
CONTINUOUS
 10
253.7040626932
 20
259.3699859989
 11
254.2135510927
 21
259.3699859989
  0
LINE
  5
243
100
AcDbEntity
  8
0
100
AcDbLine
 62
7
  6
CONTINUOUS
 10
253.6026026419
 20
259.8806242359
 11
254.113277204
 21
259.8806242359
  0
LINE
  5
244
100
AcDbEntity
  8
0
100
AcDbLine
 62
7
  6
CONTINUOUS
 10
253.951637655
 20
260.1359433544
 11
252.6042596929
 21
260.1359433544
  0
LINE
  5
245
100
AcDbEntity
  8
0
100
AcDbLine
 62
7
  6
CONTINUOUS
 10
251.5206948208
 20
261.4125389469
 11
253.8947413486
 21
261.4125389469
  0
LINE
  5
246
100
AcDbEntity
  8
0
100
AcDbLine
 62
7
  6
CONTINUOUS
 10
254.3021731979
 20
261.4125389469
 11
254.9316530332
 21
261.4125389469
  0
LINE
  5
247
100
AcDbEntity
  8
RUNDUNGEN
100
AcDbLine
 62
7
  6
CONTINUOUS
 10
187.032891757
 20
323.4123249309
 11
187.032891757
 21
276.9125814531
  0
LINE
  5
248
100
AcDbEntity
  8
RUNDUNGEN
100
AcDbLine
 62
7
  6
CONTINUOUS
 10
250.532891757
 20
271.9125389469
 11
239.0328714953
 21
271.9125389469
  0
LINE
  5
249
100
AcDbEntity
  8
RUNDUNGEN
100
AcDbLine
 62
7
  6
CONTINUOUS
 10
182.0329231346
 20
271.9125389469
 11
170.532891757
 21
271.9125389469
  0
LINE
  5
24A
100
AcDbEntity
  8
0
100
AcDbLine
 62
7
  6
CONTINUOUS
 10
187.032891757
 20
292.4860482351
 11
186.032891757
 21
292.4860482351
  0
LINE
  5
24B
100
AcDbEntity
  8
0
100
AcDbLine
 62
7
  6
CONTINUOUS
 10
187.032891757
 20
293.3560482351
 11
186.032891757
 21
293.3560482351
  0
LINE
  5
24C
100
AcDbEntity
  8
0
100
AcDbLine
 62
7
  6
CONTINUOUS
 10
187.032891757
 20
294.0792127253
 11
186.032891757
 21
294.0792127253
  0
LINE
  5
24D
100
AcDbEntity
  8
0
100
AcDbLine
 62
7
  6
CONTINUOUS
 10
187.032891757
 20
297.0193473214
 11
186.032891757
 21
297.0193473214
  0
LINE
  5
24E
100
AcDbEntity
  8
0
100
AcDbLine
 62
7
  6
CONTINUOUS
 10
187.032891757
 20
302.5193473214
 11
186.032891757
 21
302.5193473214
  0
LINE
  5
24F
100
AcDbEntity
  8
0
100
AcDbLine
 62
7
  6
CONTINUOUS
 10
187.032891757
 20
302.5625389469
 11
186.032891757
 21
302.5625389469
  0
LINE
  5
250
100
AcDbEntity
  8
0
100
AcDbLine
 62
7
  6
CONTINUOUS
 10
187.032891757
 20
303.3125389469
 11
186.032891757
 21
303.3125389469
  0
LINE
  5
251
100
AcDbEntity
  8
0
100
AcDbLine
 62
7
  6
CONTINUOUS
 10
187.032891757
 20
304.0625389469
 11
186.032891757
 21
304.0625389469
  0
LINE
  5
252
100
AcDbEntity
  8
0
100
AcDbLine
 62
7
  6
CONTINUOUS
 10
187.032891757
 20
305.0625388872
 11
186.032891757
 21
305.0625388872
  0
LINE
  5
253
100
AcDbEntity
  8
0
100
AcDbLine
 62
7
  6
CONTINUOUS
 10
187.032891757
 20
305.1875389469
 11
186.032891757
 21
305.1875389469
  0
LINE
  5
254
100
AcDbEntity
  8
0
100
AcDbLine
 62
7
  6
CONTINUOUS
 10
187.032891757
 20
305.4375388872
 11
186.032891757
 21
305.4375388872
  0
LINE
  5
255
100
AcDbEntity
  8
0
100
AcDbLine
 62
7
  6
CONTINUOUS
 10
187.032891757
 20
305.5193473214
 11
186.032891757
 21
305.5193473214
  0
LINE
  5
256
100
AcDbEntity
  8
RUNDUNGEN
100
AcDbLine
 62
7
  6
CONTINUOUS
 10
234.032891757
 20
276.9126274646
 11
234.032891757
 21
323.4124045739
  0
LINE
  5
257
100
AcDbEntity
  8
0
100
AcDbLine
 62
7
  6
CONTINUOUS
 10
187.032891757
 20
311.0193473214
 11
186.032891757
 21
311.0193473214
  0
LINE
  5
258
100
AcDbEntity
  8
0
100
AcDbLine
 62
7
  6
CONTINUOUS
 10
248.6380095235
 20
247.4125389469
 11
248.6380095235
 21
235.4125389469
  0
LINE
  5
259
100
AcDbEntity
  8
0
100
AcDbLine
 62
7
  6
CONTINUOUS
 10
249.2142826317
 20
247.4125389469
 11
249.2142826317
 21
235.4125389469
  0
LINE
  5
25A
100
AcDbEntity
  8
0
100
AcDbLine
 62
7
  6
CONTINUOUS
 10
250.0297270733
 20
246.1359433544
 11
250.0297270733
 21
242.3061558616
  0
LINE
  5
25B
100
AcDbEntity
  8
0
100
AcDbLine
 62
7
  6
CONTINUOUS
 10
250.0297270733
 20
240.7742411506
 11
250.0297270733
 21
235.4125389469
  0
LINE
  5
25C
100
AcDbEntity
  8
0
100
AcDbLine
 62
7
  6
CONTINUOUS
 10
251.5206948208
 20
261.4125389469
 11
251.5206948208
 21
249.4125389469
  0
LINE
  5
25D
100
AcDbEntity
  8
0
100
AcDbLine
 62
7
  6
CONTINUOUS
 10
252.056981151
 20
261.4125389469
 11
252.056981151
 21
249.4125389469
  0
LINE
  5
25E
100
AcDbEntity
  8
0
100
AcDbLine
 62
7
  6
CONTINUOUS
 10
252.1614575887
 20
244.6040286434
 11
252.1614575887
 21
243.8380705726
  0
LINE
  5
25F
100
AcDbEntity
  8
0
100
AcDbLine
 62
7
  6
CONTINUOUS
 10
252.6042596929
 20
260.1359433544
 11
252.6042596929
 21
256.3061558616
  0
LINE
  5
260
100
AcDbEntity
  8
0
100
AcDbLine
 62
7
  6
CONTINUOUS
 10
252.6042596929
 20
254.7742411506
 11
252.6042596929
 21
249.4125389469
  0
LINE
  5
261
100
AcDbEntity
  8
0
100
AcDbLine
 62
7
  6
CONTINUOUS
 10
252.6895933975
 20
244.6040286434
 11
252.6895933975
 21
243.8380705726
  0
LINE
  5
262
100
AcDbEntity
  8
0
100
AcDbLine
 62
7
  6
CONTINUOUS
 10
253.1672381683
 20
244.6040286434
 11
253.1672381683
 21
243.5827514541
  0
LINE
  5
263
100
AcDbEntity
  8
0
100
AcDbLine
 62
7
  6
CONTINUOUS
 10
253.1994770434
 20
247.4125389469
 11
253.1994770434
 21
235.4125389469
  0
LINE
  5
264
100
AcDbEntity
  8
0
100
AcDbLine
 62
7
  6
CONTINUOUS
 10
253.7149192685
 20
247.4125389469
 11
253.7149192685
 21
235.4125389469
  0
LINE
  5
265
100
AcDbEntity
  8
0
100
AcDbLine
 62
7
  6
CONTINUOUS
 10
253.7525342366
 20
258.6040286434
 11
253.7525342366
 21
257.8380705726
  0
LINE
  5
266
100
AcDbEntity
  8
0
100
AcDbLine
 62
7
  6
CONTINUOUS
 10
254.0608999816
 20
246.1359433544
 11
254.0608999816
 21
242.3061558616
  0
LINE
  5
267
100
AcDbEntity
  8
0
100
AcDbLine
 62
7
  6
CONTINUOUS
 10
254.0608999816
 20
240.7742411506
 11
254.0608999816
 21
235.4125389469
  0
LINE
  5
268
100
AcDbEntity
  8
0
100
AcDbLine
 62
7
  6
CONTINUOUS
 10
254.2614578902
 20
258.6040286434
 11
254.2614578902
 21
257.8380705726
  0
LINE
  5
269
100
AcDbEntity
  8
0
100
AcDbLine
 62
7
  6
CONTINUOUS
 10
254.3021731979
 20
261.4125389469
 11
254.3021731979
 21
260.606310068
  0
LINE
  5
26A
100
AcDbEntity
  8
0
100
AcDbLine
 62
7
  6
CONTINUOUS
 10
254.3021731979
 20
255.6521518743
 11
254.3021731979
 21
253.4976452005
  0
LINE
  5
26B
100
AcDbEntity
  8
0
100
AcDbLine
 62
7
  6
CONTINUOUS
 10
254.4304999249
 20
244.6040286434
 11
254.4304999249
 21
243.8380705726
  0
LINE
  5
26C
100
AcDbEntity
  8
0
100
AcDbLine
 62
7
  6
CONTINUOUS
 10
254.517974419
 20
258.6040286434
 11
254.517974419
 21
257.5827514541
  0
LINE
  5
26D
100
AcDbEntity
  8
0
100
AcDbLine
 62
7
  6
CONTINUOUS
 10
254.532891757
 20
267.9125389469
 11
254.532891757
 21
261.4125389469
  0
LINE
  5
26E
100
AcDbEntity
  8
0
100
AcDbLine
 62
7
  6
CONTINUOUS
 10
254.532891757
 20
249.4125389469
 11
254.532891757
 21
247.4125389469
  0
LINE
  5
26F
100
AcDbEntity
  8
0
100
AcDbLine
 62
7
  6
CONTINUOUS
 10
254.532891757
 20
240.7742411506
 11
254.532891757
 21
227.9125389469
  0
LINE
  5
270
100
AcDbEntity
  8
0
100
AcDbLine
 62
7
  6
CONTINUOUS
 10
254.6265422233
 20
238.4763687265
 11
254.6265422233
 21
239.242326082
  0
LINE
  5
271
100
AcDbEntity
  8
0
100
AcDbLine
 62
7
  6
CONTINUOUS
 10
254.8047789751
 20
261.4125389469
 11
254.8047789751
 21
253.4976452005
  0
LINE
  5
272
100
AcDbEntity
  8
0
100
AcDbLine
 62
7
  6
CONTINUOUS
 10
254.9316530332
 20
261.4125389469
 11
254.9316530332
 21
253.4976452005
  0
LINE
  5
273
100
AcDbEntity
  8
0
100
AcDbLine
 62
7
  6
CONTINUOUS
 10
254.9316530332
 20
244.6040286434
 11
254.9316530332
 21
243.8380705726
  0
LINE
  5
274
100
AcDbEntity
  8
0
100
AcDbLine
 62
7
  6
CONTINUOUS
 10
255.007603689
 20
244.6040286434
 11
255.007603689
 21
243.5827514541
  0
LINE
  5
275
100
AcDbEntity
  8
0
100
AcDbLine
 62
7
  6
CONTINUOUS
 10
255.0300826796
 20
241.0295602691
 11
255.0300826796
 21
239.752964319
  0
LINE
  5
276
100
AcDbEntity
  8
0
100
AcDbLine
 62
7
  6
CONTINUOUS
 10
255.032891757
 20
250.9444538367
 11
255.032891757
 21
249.4125389469
  0
LINE
  5
277
100
AcDbEntity
  8
0
100
AcDbLine
 62
7
  6
CONTINUOUS
 10
250.9576309792
 20
224.9125389469
 11
254.532891757
 21
227.9125389469
  0
LINE
  5
278
100
AcDbEntity
  8
0
100
AcDbLine
 62
7
  6
CONTINUOUS
 10
422.4934970792
 20
224.9125389469
 11
418.9182363014
 21
227.9125389469
  0
LINE
  5
279
100
AcDbEntity
  8
RUNDUNGEN
100
AcDbLine
 62
7
  6
CONTINUOUS
 10
427.7239500241
 20
345.2069213804
 11
423.6416281242
 21
339.3767614963
  0
LINE
  5
27A
100
AcDbEntity
  8
0
100
AcDbLine
 62
7
  6
CONTINUOUS
 10
422.4934970792
 20
224.9125389469
 11
503.3429755236
 21
224.9125389469
  0
LINE
  5
27B
100
AcDbEntity
  8
0
100
AcDbLine
 62
7
  6
CONTINUOUS
 10
506.9182363014
 20
227.9125389469
 11
418.9182363014
 21
227.9125389469
  0
LINE
  5
27C
100
AcDbEntity
  8
RUNDUNGEN
100
AcDbLine
 62
7
  6
CONTINUOUS
 10
422.2483633203
 20
305.6804881393
 11
419.5881092824
 21
301.0727929847
  0
LINE
  5
27D
100
AcDbEntity
  8
0
100
AcDbLine
 62
7
  6
CONTINUOUS
 10
418.9182363014
 20
298.5727929847
 11
418.9182363014
 21
227.9125389469
  0
LINE
  5
27E
100
AcDbEntity
  8
RUNDUNGEN
100
AcDbLine
 62
7
  6
CONTINUOUS
 10
422.9182363014
 20
307.5301077932
 11
422.9182363014
 21
337.0824557509
  0
LINE
  5
27F
100
AcDbEntity
  8
0
100
AcDbLine
 62
7
  6
CONTINUOUS
 10
431.9358958606
 20
308.1875389469
 11
431.8082363014
 21
307.5625388276
  0
LINE
  5
280
100
AcDbEntity
  8
0
100
AcDbLine
 62
7
  6
CONTINUOUS
 10
432.4465340976
 20
307.6875390661
 11
432.5741936569
 21
308.0625390661
  0
LINE
  5
281
100
AcDbEntity
  8
0
100
AcDbLine
 62
7
  6
CONTINUOUS
 10
432.3188745384
 20
308.8125387084
 11
431.9358958606
 21
308.1875389469
  0
LINE
  5
282
100
AcDbEntity
  8
0
100
AcDbLine
 62
7
  6
CONTINUOUS
 10
434.4890874032
 20
308.9375389469
 11
434.1061087255
 21
308.3125388276
  0
LINE
  5
283
100
AcDbEntity
  8
0
100
AcDbLine
 62
7
  6
CONTINUOUS
 10
432.5741936569
 20
308.0625390661
 11
432.8295127754
 21
308.4375390661
  0
LINE
  5
284
100
AcDbEntity
  8
0
100
AcDbLine
 62
7
  6
CONTINUOUS
 10
434.7444065217
 20
308.1875389469
 11
434.9997256402
 21
308.5625389469
  0
LINE
  5
285
100
AcDbEntity
  8
0
100
AcDbLine
 62
7
  6
CONTINUOUS
 10
434.872066081
 20
309.3125389469
 11
434.4890874032
 21
308.9375389469
  0
LINE
  5
286
100
AcDbEntity
  8
0
100
AcDbLine
 62
7
  6
CONTINUOUS
 10
434.9997256402
 20
308.5625389469
 11
435.2550447587
 21
308.8125387084
  0
LINE
  5
287
100
AcDbEntity
  8
0
100
AcDbLine
 62
7
  6
CONTINUOUS
 10
432.8295127754
 20
309.1875387084
 11
432.3188745384
 21
308.8125387084
  0
LINE
  5
288
100
AcDbEntity
  8
0
100
AcDbLine
 62
7
  6
CONTINUOUS
 10
432.8295127754
 20
308.4375390661
 11
433.2124914531
 21
308.6875391853
  0
LINE
  5
289
100
AcDbEntity
  8
0
100
AcDbLine
 62
7
  6
CONTINUOUS
 10
431.8082363014
 20
307.5625388276
 11
431.8082363014
 21
307.0625389469
  0
LINE
  5
28A
100
AcDbEntity
  8
0
100
AcDbLine
 62
7
  6
CONTINUOUS
 10
431.8082363014
 20
304.0625389469
 11
431.8082363014
 21
303.3125389469
  0
LINE
  5
28B
100
AcDbEntity
  8
0
100
AcDbLine
 62
7
  6
CONTINUOUS
 10
432.0582363014
 20
300.5570596212
 11
432.0582363014
 21
299.6870596212
  0
LINE
  5
28C
100
AcDbEntity
  8
0
100
AcDbLine
 62
7
  6
CONTINUOUS
 10
432.4465340976
 20
306.9375390661
 11
432.4465340976
 21
307.6875390661
  0
LINE
  5
28D
100
AcDbEntity
  8
0
100
AcDbLine
 62
7
  6
CONTINUOUS
 10
433.2124914531
 20
308.6875391853
 11
433.2124914531
 21
309.3125389469
  0
LINE
  5
28E
100
AcDbEntity
  8
0
100
AcDbLine
 62
7
  6
CONTINUOUS
 10
434.1061087255
 20
308.3125388276
 11
433.9784491662
 21
307.6875390661
  0
LINE
  5
28F
100
AcDbEntity
  8
0
100
AcDbLine
 62
7
  6
CONTINUOUS
 10
434.6167469625
 20
307.8125389469
 11
434.7444065217
 21
308.1875389469
  0
LINE
  5
290
100
AcDbEntity
  8
0
100
AcDbLine
 62
7
  6
CONTINUOUS
 10
437.1699384157
 20
306.9375390661
 11
437.0422788565
 21
306.5625390661
  0
LINE
  5
291
100
AcDbEntity
  8
0
100
AcDbLine
 62
7
  6
CONTINUOUS
 10
437.2975980197
 20
305.8125390661
 11
437.6805767309
 21
306.4375388276
  0
LINE
  5
292
100
AcDbEntity
  8
0
100
AcDbLine
 62
7
  6
CONTINUOUS
 10
437.0422788565
 20
306.5625390661
 11
436.786959738
 21
306.1875390661
  0
LINE
  5
293
100
AcDbEntity
  8
0
100
AcDbLine
 62
7
  6
CONTINUOUS
 10
436.786959738
 20
305.4375388872
 11
437.2975980197
 21
305.8125390661
  0
LINE
  5
294
100
AcDbEntity
  8
0
100
AcDbLine
 62
7
  6
CONTINUOUS
 10
436.786959738
 20
306.1875390661
 11
436.4039809708
 21
305.9375389469
  0
LINE
  5
295
100
AcDbEntity
  8
0
100
AcDbLine
 62
7
  6
CONTINUOUS
 10
435.5103638772
 20
309.5625387084
 11
434.872066081
 21
309.3125389469
  0
LINE
  5
296
100
AcDbEntity
  8
0
100
AcDbLine
 62
7
  6
CONTINUOUS
 10
433.2124914531
 20
309.3125389469
 11
432.8295127754
 21
309.1875387084
  0
LINE
  5
297
100
AcDbEntity
  8
0
100
AcDbLine
 62
7
  6
CONTINUOUS
 10
435.2550447587
 20
308.8125387084
 11
435.6380236153
 21
308.9375389469
  0
LINE
  5
298
100
AcDbEntity
  8
0
100
AcDbLine
 62
7
  6
CONTINUOUS
 10
433.9784491662
 20
307.6875390661
 11
433.9784491662
 21
307.0625389469
  0
LINE
  5
299
100
AcDbEntity
  8
0
100
AcDbLine
 62
7
  6
CONTINUOUS
 10
434.6167469625
 20
306.9375390661
 11
434.6167469625
 21
307.8125389469
  0
LINE
  5
29A
100
AcDbEntity
  8
0
100
AcDbLine
 62
7
  6
CONTINUOUS
 10
437.1699384157
 20
307.8125389469
 11
437.1699384157
 21
306.9375390661
  0
LINE
  5
29B
100
AcDbEntity
  8
0
100
AcDbLine
 62
7
  6
CONTINUOUS
 10
437.3382363014
 20
292.4860482351
 11
437.3382363014
 21
293.3560482351
  0
LINE
  5
29C
100
AcDbEntity
  8
0
100
AcDbLine
 62
7
  6
CONTINUOUS
 10
437.8082363014
 20
303.3125389469
 11
437.8082363014
 21
304.0625389469
  0
LINE
  5
29D
100
AcDbEntity
  8
0
100
AcDbLine
 62
7
  6
CONTINUOUS
 10
437.8082363014
 20
307.0625389469
 11
437.8082363014
 21
307.6875390661
  0
LINE
  5
29E
100
AcDbEntity
  8
0
100
AcDbLine
 62
7
  6
CONTINUOUS
 10
437.6805767309
 20
306.4375388276
 11
437.8082363014
 21
307.0625389469
  0
LINE
  5
29F
100
AcDbEntity
  8
RUNDUNGEN
100
AcDbLine
 62
7
  6
CONTINUOUS
 10
453.5079940941
 20
311.3471674597
 11
453.1148952946
 21
311.1015320676
  0
LINE
  5
2A0
100
AcDbEntity
  8
0
100
AcDbLine
 62
7
  6
CONTINUOUS
 10
436.1486618523
 20
305.1875389469
 11
436.786959738
 21
305.4375388872
  0
LINE
  5
2A1
100
AcDbEntity
  8
0
100
AcDbLine
 62
7
  6
CONTINUOUS
 10
436.4039809708
 20
305.9375389469
 11
436.0210022931
 21
305.8125390661
  0
LINE
  5
2A2
100
AcDbEntity
  8
0
100
AcDbLine
 62
7
  6
CONTINUOUS
 10
431.8082363014
 20
307.0625389469
 11
431.9358958606
 21
306.4375388276
  0
LINE
  5
2A3
100
AcDbEntity
  8
0
100
AcDbLine
 62
7
  6
CONTINUOUS
 10
432.5741936569
 20
306.5625390661
 11
432.4465340976
 21
306.9375390661
  0
LINE
  5
2A4
100
AcDbEntity
  8
0
100
AcDbLine
 62
7
  6
CONTINUOUS
 10
434.7444065217
 20
306.5625390661
 11
434.6167469625
 21
306.9375390661
  0
LINE
  5
2A5
100
AcDbEntity
  8
0
100
AcDbLine
 62
7
  6
CONTINUOUS
 10
433.9784491662
 20
307.0625389469
 11
434.1061087255
 21
306.4375388276
  0
LINE
  5
2A6
100
AcDbEntity
  8
0
100
AcDbLine
 62
7
  6
CONTINUOUS
 10
437.8082363014
 20
307.6875390661
 11
437.6805767309
 21
308.3125388276
  0
LINE
  5
2A7
100
AcDbEntity
  8
0
100
AcDbLine
 62
7
  6
CONTINUOUS
 10
432.0582363014
 20
299.6870596212
 11
432.5982363014
 21
298.9505925476
  0
LINE
  5
2A8
100
AcDbEntity
  8
0
100
AcDbLine
 62
7
  6
CONTINUOUS
 10
433.0985012559
 20
298.2683172381
 11
435.8859740182
 21
294.4666840754
  0
LINE
  5
2A9
100
AcDbEntity
  8
0
100
AcDbLine
 62
7
  6
CONTINUOUS
 10
436.3862389728
 20
293.784408766
 11
437.3382363014
 21
292.4860482351
  0
LINE
  5
2AA
100
AcDbEntity
  8
0
100
AcDbLine
 62
7
  6
CONTINUOUS
 10
437.3382363014
 20
293.3560482351
 11
436.8079901591
 21
294.0792127253
  0
LINE
  5
2AB
100
AcDbEntity
  8
0
100
AcDbLine
 62
7
  6
CONTINUOUS
 10
436.3101819458
 20
294.7581374625
 11
433.5040270755
 21
298.5852498055
  0
LINE
  5
2AC
100
AcDbEntity
  8
0
100
AcDbLine
 62
7
  6
CONTINUOUS
 10
433.0062188622
 20
299.2641745427
 11
432.0582363014
 21
300.5570596212
  0
LINE
  5
2AD
100
AcDbEntity
  8
0
100
AcDbLine
 62
7
  6
CONTINUOUS
 10
431.9358958606
 20
306.4375388276
 11
432.3188745384
 21
305.8125390661
  0
LINE
  5
2AE
100
AcDbEntity
  8
0
100
AcDbLine
 62
7
  6
CONTINUOUS
 10
437.0422788565
 20
308.1875389469
 11
437.1699384157
 21
307.8125389469
  0
LINE
  5
2AF
100
AcDbEntity
  8
RUNDUNGEN
100
AcDbLine
 62
7
  6
CONTINUOUS
 10
490.9851563122
 20
271.9125389469
 11
434.8513168098
 21
271.9125389469
  0
LINE
  5
2B0
100
AcDbEntity
  8
0
100
AcDbLine
 62
7
  6
CONTINUOUS
 10
432.8295127754
 20
306.1875390661
 11
432.5741936569
 21
306.5625390661
  0
LINE
  5
2B1
100
AcDbEntity
  8
0
100
AcDbLine
 62
7
  6
CONTINUOUS
 10
434.1061087255
 20
306.4375388276
 11
434.6167469625
 21
305.6875388276
  0
LINE
  5
2B2
100
AcDbEntity
  8
0
100
AcDbLine
 62
7
  6
CONTINUOUS
 10
434.9997256402
 20
306.1875390661
 11
434.7444065217
 21
306.5625390661
  0
LINE
  5
2B3
100
AcDbEntity
  8
0
100
AcDbLine
 62
7
  6
CONTINUOUS
 10
437.6805767309
 20
308.3125388276
 11
437.2975980197
 21
308.9375389469
  0
LINE
  5
2B4
100
AcDbEntity
  8
RUNDUNGEN
100
AcDbLine
 62
7
  6
CONTINUOUS
 10
454.9182363014
 20
313.8913117481
 11
454.9182363014
 21
339.0116586803
  0
LINE
  5
2B5
100
AcDbEntity
  8
0
100
AcDbLine
 62
7
  6
CONTINUOUS
 10
431.8082363014
 20
303.3125389469
 11
432.7018532161
 21
302.5625389469
  0
LINE
  5
2B6
100
AcDbEntity
  8
0
100
AcDbLine
 62
7
  6
CONTINUOUS
 10
433.7231300477
 20
302.5625389469
 11
432.8295127754
 21
303.3125389469
  0
LINE
  5
2B7
100
AcDbEntity
  8
0
100
AcDbLine
 62
7
  6
CONTINUOUS
 10
435.2550447587
 20
305.9375389469
 11
434.9997256402
 21
306.1875390661
  0
LINE
  5
2B8
100
AcDbEntity
  8
0
100
AcDbLine
 62
7
  6
CONTINUOUS
 10
436.786959738
 20
308.5625389469
 11
437.0422788565
 21
308.1875389469
  0
LINE
  5
2B9
100
AcDbEntity
  8
0
100
AcDbLine
 62
7
  6
CONTINUOUS
 10
433.2124914531
 20
305.9375389469
 11
432.8295127754
 21
306.1875390661
  0
LINE
  5
2BA
100
AcDbEntity
  8
0
100
AcDbLine
 62
7
  6
CONTINUOUS
 10
432.3188745384
 20
305.8125390661
 11
432.8295127754
 21
305.4375388872
  0
LINE
  5
2BB
100
AcDbEntity
  8
0
100
AcDbLine
 62
7
  6
CONTINUOUS
 10
436.4039809708
 20
308.8125387084
 11
436.786959738
 21
308.5625389469
  0
LINE
  5
2BC
100
AcDbEntity
  8
0
100
AcDbLine
 62
7
  6
CONTINUOUS
 10
437.2975980197
 20
308.9375389469
 11
436.786959738
 21
309.3125389469
  0
LINE
  5
2BD
100
AcDbEntity
  8
RUNDUNGEN
100
AcDbLine
 62
7
  6
CONTINUOUS
 10
470.9182363014
 20
313.8913117481
 11
470.9182363014
 21
339.0116580009
  0
LINE
  5
2BE
100
AcDbEntity
  8
0
100
AcDbLine
 62
7
  6
CONTINUOUS
 10
433.5954704885
 20
305.8125390661
 11
433.2124914531
 21
305.9375389469
  0
LINE
  5
2BF
100
AcDbEntity
  8
0
100
AcDbLine
 62
7
  6
CONTINUOUS
 10
435.6380236153
 20
305.8125390661
 11
435.2550447587
 21
305.9375389469
  0
LINE
  5
2C0
100
AcDbEntity
  8
0
100
AcDbLine
 62
7
  6
CONTINUOUS
 10
432.8295127754
 20
305.4375388872
 11
433.4678109292
 21
305.1875389469
  0
LINE
  5
2C1
100
AcDbEntity
  8
0
100
AcDbLine
 62
7
  6
CONTINUOUS
 10
433.4678109292
 20
305.1875389469
 11
434.361427844
 21
305.0625388872
  0
LINE
  5
2C2
100
AcDbEntity
  8
0
100
AcDbLine
 62
7
  6
CONTINUOUS
 10
434.361427844
 20
305.6875388276
 11
433.5954704885
 21
305.8125390661
  0
LINE
  5
2C3
100
AcDbEntity
  8
0
100
AcDbLine
 62
7
  6
CONTINUOUS
 10
436.0210022931
 20
308.9375389469
 11
436.4039809708
 21
308.8125387084
  0
LINE
  5
2C4
100
AcDbEntity
  8
0
100
AcDbLine
 62
7
  6
CONTINUOUS
 10
436.786959738
 20
309.3125389469
 11
436.1486618523
 21
309.5625387084
  0
LINE
  5
2C5
100
AcDbEntity
  8
0
100
AcDbLine
 62
7
  6
CONTINUOUS
 10
496.9063728612
 20
302.5193473214
 11
495.3955372908
 21
302.5193473214
  0
LINE
  5
2C6
100
AcDbEntity
  8
0
100
AcDbLine
 62
7
  6
CONTINUOUS
 10
488.4673340605
 20
302.5193473214
 11
486.9564984901
 21
302.5193473214
  0
LINE
  5
2C7
100
AcDbEntity
  8
0
100
AcDbLine
 62
7
  6
CONTINUOUS
 10
432.7018532161
 20
302.5625389469
 11
433.7231300477
 21
302.5625389469
  0
LINE
  5
2C8
100
AcDbEntity
  8
0
100
AcDbLine
 62
7
  6
CONTINUOUS
 10
432.8295127754
 20
303.3125389469
 11
437.8082363014
 21
303.3125389469
  0
LINE
  5
2C9
100
AcDbEntity
  8
0
100
AcDbLine
 62
7
  6
CONTINUOUS
 10
437.8082363014
 20
304.0625389469
 11
431.8082363014
 21
304.0625389469
  0
LINE
  5
2CA
100
AcDbEntity
  8
0
100
AcDbLine
 62
7
  6
CONTINUOUS
 10
434.361427844
 20
305.0625388872
 11
435.2550447587
 21
305.0625388872
  0
LINE
  5
2CB
100
AcDbEntity
  8
0
100
AcDbLine
 62
7
  6
CONTINUOUS
 10
434.6167469625
 20
305.6875388276
 11
434.361427844
 21
305.6875388276
  0
LINE
  5
2CC
100
AcDbEntity
  8
0
100
AcDbLine
 62
7
  6
CONTINUOUS
 10
436.0210022931
 20
305.8125390661
 11
435.6380236153
 21
305.8125390661
  0
LINE
  5
2CD
100
AcDbEntity
  8
0
100
AcDbLine
 62
7
  6
CONTINUOUS
 10
435.2550447587
 20
305.0625388872
 11
436.1486618523
 21
305.1875389469
  0
LINE
  5
2CE
100
AcDbEntity
  8
0
100
AcDbLine
 62
7
  6
CONTINUOUS
 10
435.6380236153
 20
308.9375389469
 11
436.0210022931
 21
308.9375389469
  0
LINE
  5
2CF
100
AcDbEntity
  8
0
100
AcDbLine
 62
7
  6
CONTINUOUS
 10
436.1486618523
 20
309.5625387084
 11
435.5103638772
 21
309.5625387084
  0
LINE
  5
2D0
100
AcDbEntity
  8
0
100
AcDbLine
 62
7
  6
CONTINUOUS
 10
492.6814356756
 20
310.0193473214
 11
491.1706001052
 21
310.0193473214
  0
LINE
  5
2D1
100
AcDbEntity
  8
0
100
AcDbLine
 62
7
  6
CONTINUOUS
 10
496.9063728612
 20
311.0193473214
 11
495.3955372908
 21
311.0193473214
  0
LINE
  5
2D2
100
AcDbEntity
  8
0
100
AcDbLine
 62
7
  6
CONTINUOUS
 10
488.4673340605
 20
311.0193473214
 11
486.9564984901
 21
311.0193473214
  0
LINE
  5
2D3
100
AcDbEntity
  8
0
100
AcDbLine
 62
7
  6
CONTINUOUS
 10
491.1706001052
 20
310.0193473214
 11
491.1706001052
 21
307.1030438755
  0
LINE
  5
2D4
100
AcDbEntity
  8
0
100
AcDbLine
 62
7
  6
CONTINUOUS
 10
492.6814356756
 20
307.1006487386
 11
492.6814356756
 21
310.0193473214
  0
LINE
  5
2D5
100
AcDbEntity
  8
BEZUGSACHSEN
100
AcDbLine
 62
7
  6
CONTINUOUS
 10
454.7540790096
 20
312.9125389469
 11
471.0823935932
 21
312.9125389469
  0
LINE
  5
2D6
100
AcDbEntity
  8
RUNDUNGEN
100
AcDbLine
 62
7
  6
CONTINUOUS
 10
472.7215728135
 20
311.1015348762
 11
472.3284785087
 21
311.3471674597
  0
LINE
  5
2D7
100
AcDbEntity
  8
RUNDUNGEN
100
AcDbLine
 62
7
  6
CONTINUOUS
 10
502.9182363014
 20
337.0824557509
 11
502.9182363014
 21
307.5299102112
  0
LINE
  5
2D8
100
AcDbEntity
  8
0
100
AcDbLine
 62
7
  6
CONTINUOUS
 10
506.9182363014
 20
298.5727929847
 11
506.9182363014
 21
227.9125389469
  0
LINE
  5
2D9
100
AcDbEntity
  8
RUNDUNGEN
100
AcDbLine
 62
7
  6
CONTINUOUS
 10
506.2483633203
 20
301.0727929847
 11
503.5881092824
 21
305.6804881393
  0
LINE
  5
2DA
100
AcDbEntity
  8
BEZUGSACHSEN
100
AcDbLine
 62
7
  6
CONTINUOUS
 10
454.9182363014
 20
331.9125389469
 11
470.9182363014
 21
331.9125389469
  0
LINE
  5
2DB
100
AcDbEntity
  8
0
100
AcDbLine
 62
7
  6
CONTINUOUS
 10
430.976850644
 20
346.9125389469
 11
444.6220618378
 21
346.9125389469
  0
LINE
  5
2DC
100
AcDbEntity
  8
0
100
AcDbLine
 62
7
  6
CONTINUOUS
 10
481.2144107649
 20
346.9125389469
 11
494.8596219538
 21
346.9125389469
  0
LINE
  5
2DD
100
AcDbEntity
  8
RUNDUNGEN
100
AcDbLine
 62
7
  6
CONTINUOUS
 10
498.1125225628
 20
345.2069214032
 11
502.1948444785
 21
339.3767614963
  0
LINE
  5
2DE
100
AcDbEntity
  8
0
100
AcDbLine
 62
7
  6
CONTINUOUS
 10
506.9182363014
 20
227.9125389469
 11
503.3429755236
 21
224.9125389469
  0
LINE
  5
2DF
100
AcDbEntity
  8
RUNDUNGEN
100
AcDbLine
 62
7
  6
CONTINUOUS
 10
193.0972959912
 20
41.5019680198
 11
227.9684876634
 21
41.5019680198
  0
LINE
  5
2E0
100
AcDbEntity
  8
0
100
AcDbLine
 62
7
  6
CONTINUOUS
 10
187.032891757
 20
47.4887686456
 11
186.032891757
 21
47.4887686456
  0
LINE
  5
2E1
100
AcDbEntity
  8
0
100
AcDbLine
 62
7
  6
CONTINUOUS
 10
187.032891757
 20
47.5138314601
 11
186.032891757
 21
47.5138314601
  0
LINE
  5
2E2
100
AcDbEntity
  8
0
100
AcDbLine
 62
7
  6
CONTINUOUS
 10
187.032891757
 20
49.0246670305
 11
186.032891757
 21
49.0246670305
  0
LINE
  5
2E3
100
AcDbEntity
  8
0
100
AcDbLine
 62
7
  6
CONTINUOUS
 10
187.032891757
 20
51.7387686456
 11
186.032891757
 21
51.7387686456
  0
LINE
  5
2E4
100
AcDbEntity
  8
0
100
AcDbLine
 62
7
  6
CONTINUOUS
 10
186.032891757
 20
47.4889386253
 11
186.032891757
 21
49.0246670305
  0
LINE
  5
2E5
100
AcDbEntity
  8
0
100
AcDbLine
 62
7
  6
CONTINUOUS
 10
186.032891757
 20
49.0440472964
 11
186.032891757
 21
57.4885986659
  0
LINE
  5
2E6
100
AcDbEntity
  8
0
100
AcDbLine
 62
7
  6
CONTINUOUS
 10
186.032891757
 20
106.4420701223
 11
186.032891757
 21
106.5704375439
  0
LINE
  5
2E7
100
AcDbEntity
  8
0
100
AcDbLine
 62
7
  6
CONTINUOUS
 10
186.032891757
 20
106.6119680198
 11
186.032891757
 21
112.8818295057
  0
LINE
  5
2E8
100
AcDbEntity
  8
0
100
AcDbLine
 62
7
  6
CONTINUOUS
 10
187.032891757
 20
53.249604216
 11
186.032891757
 21
53.249604216
  0
LINE
  5
2E9
100
AcDbEntity
  8
0
100
AcDbLine
 62
7
  6
CONTINUOUS
 10
187.032891757
 20
55.9528702607
 11
186.032891757
 21
55.9528702607
  0
LWPOLYLINE
  5
2EA
100
AcDbEntity
  8
RUNDUNGEN
100
AcDbPolyline
 62
7
  6
CONTINUOUS
 90
8
 70
0
 10
187.0329317464
 20
99.7117565053
 10
187.0372357246
 20
99.5489239881
 10
187.077318656
 20
99.1515566161
 10
187.1586158286
 20
98.7604379133
 10
187.2799518883
 20
98.3798697818
 10
187.4398938717
 20
98.0130873944
 10
187.6368830943
 20
97.6636915624
 10
187.8686731204
 20
97.3352747244
  0
LINE
  5
2EB
100
AcDbEntity
  8
RUNDUNGEN
100
AcDbLine
 62
7
  6
CONTINUOUS
 10
187.032891757
 20
92.4564115592
 11
187.032891757
 21
116.42688749
  0
LINE
  5
2EC
100
AcDbEntity
  8
RUNDUNGEN
100
AcDbLine
 62
7
  6
CONTINUOUS
 10
187.032891757
 20
46.5770485496
 11
187.032891757
 21
70.5475244303
  0
LINE
  5
2ED
100
AcDbEntity
  8
0
100
AcDbLine
 62
7
  6
CONTINUOUS
 10
187.032891757
 20
57.4637058311
 11
186.032891757
 21
57.4637058311
  0
LINE
  5
2EE
100
AcDbEntity
  8
0
100
AcDbLine
 62
7
  6
CONTINUOUS
 10
187.032891757
 20
57.4887686456
 11
186.032891757
 21
57.4887686456
  0
LINE
  5
2EF
100
AcDbEntity
  8
0
100
AcDbLine
 62
7
  6
CONTINUOUS
 10
248.6380095235
 20
59.5019680198
 11
249.2142826317
 21
59.5019680198
  0
LINE
  5
2F0
100
AcDbEntity
  8
0
100
AcDbLine
 62
7
  6
CONTINUOUS
 10
251.5206948208
 20
65.5019680198
 11
252.056981151
 21
65.5019680198
  0
LINE
  5
2F1
100
AcDbEntity
  8
BEZUGSACHSEN
100
AcDbLine
 62
7
  6
CONTINUOUS
 10
201.032891757
 20
89.5019680198
 11
201.032891757
 21
73.5019680198
  0
LWPOLYLINE
  5
2F2
100
AcDbEntity
  8
RUNDUNGEN
100
AcDbPolyline
 62
7
  6
CONTINUOUS
 90
8
 70
0
 10
187.8586249353
 20
65.6557984068
 10
187.6294613928
 20
65.3284687376
 10
187.4347498183
 20
64.9804883542
 10
187.2766990544
 20
64.6153960838
 10
187.1568449472
 20
64.2367326178
 10
187.0766032894
 20
63.8477190269
 10
187.0371220227
 20
63.4526266863
 10
187.0329319872
 20
63.2922285494
  0
LINE
  5
2F3
100
AcDbEntity
  8
RUNDUNGEN
100
AcDbLine
 62
7
  6
CONTINUOUS
 10
188.3122286641
 20
66.2121730544
 11
188.2894683384
 21
66.1829164687
  0
LINE
  5
2F4
100
AcDbEntity
  8
RUNDUNGEN
100
AcDbLine
 62
7
  6
CONTINUOUS
 10
188.2894683384
 20
66.1829164687
 11
188.2218841835
 21
66.0969575906
  0
LWPOLYLINE
  5
2F5
100
AcDbEntity
  8
RUNDUNGEN
100
AcDbPolyline
 62
7
  6
CONTINUOUS
 90
3
 70
0
 10
188.2218841835
 20
66.0969575906
 10
188.1474875037
 20
66.0045262652
 10
188.0722023968
 20
65.9131864921
  0
LINE
  5
2F6
100
AcDbEntity
  8
0
100
AcDbLine
 62
7
  6
CONTINUOUS
 10
253.3814623283
 20
71.5019680198
 11
253.8947413486
 21
71.5019680198
  0
LINE
  5
2F7
100
AcDbEntity
  8
0
100
AcDbLine
 62
7
  6
CONTINUOUS
 10
253.6540872897
 20
72.7519682583
 11
254.1641592629
 21
72.7519682583
  0
LINE
  5
2F8
100
AcDbEntity
  8
RUNDUNGEN
100
AcDbLine
 62
7
  6
CONTINUOUS
 10
224.7851586791
 20
73.5019680198
 11
196.2806188419
 21
73.5019680198
  0
LINE
  5
2F9
100
AcDbEntity
  8
RUNDUNGEN
100
AcDbLine
 62
7
  6
CONTINUOUS
 10
188.152546762
 20
96.9931929756
 11
188.2269255353
 21
96.9006357868
  0
LINE
  5
2FA
100
AcDbEntity
  8
RUNDUNGEN
100
AcDbLine
 62
7
  6
CONTINUOUS
 10
188.2269255353
 20
96.9006357868
 11
188.3011253533
 21
96.8060996985
  0
LINE
  5
2FB
100
AcDbEntity
  8
RUNDUNGEN
100
AcDbLine
 62
7
  6
CONTINUOUS
 10
188.3011253533
 20
96.8060996985
 11
188.3122314606
 21
96.7917593831
  0
LINE
  5
2FC
100
AcDbEntity
  8
RUNDUNGEN
100
AcDbLine
 62
7
  6
CONTINUOUS
 10
187.980923794
 20
65.805373313
 11
187.8586249353
 21
65.6557984068
  0
LWPOLYLINE
  5
2FD
100
AcDbEntity
  8
RUNDUNGEN
100
AcDbPolyline
 62
7
  6
CONTINUOUS
 90
3
 70
0
 10
188.0722023968
 20
65.9131864921
 10
187.9960311055
 20
65.8229695436
 10
187.9810272202
 20
65.8054554412
  0
LINE
  5
2FE
100
AcDbEntity
  8
0
100
AcDbLine
 62
7
  6
CONTINUOUS
 10
253.8449859109
 20
73.7519680198
 11
254.3528358464
 21
73.7519680198
  0
LINE
  5
2FF
100
AcDbEntity
  8
0
100
AcDbLine
 62
7
  6
CONTINUOUS
 10
253.972505015
 20
74.5019680198
 11
254.4788813351
 21
74.5019680198
  0
LINE
  5
300
100
AcDbEntity
  8
0
100
AcDbLine
 62
7
  6
CONTINUOUS
 10
254.0120533954
 20
74.7519677814
 11
254.517974419
 21
74.7519677814
  0
LINE
  5
301
100
AcDbEntity
  8
0
100
AcDbLine
 62
7
  6
CONTINUOUS
 10
254.0501297564
 20
75.0019682583
 11
254.5556131983
 21
75.0019682583
  0
LINE
  5
302
100
AcDbEntity
  8
0
100
AcDbLine
 62
7
  6
CONTINUOUS
 10
254.2757483167
 20
76.7519680198
 11
254.778654266
 21
76.7519680198
  0
LINE
  5
303
100
AcDbEntity
  8
0
100
AcDbLine
 62
7
  6
CONTINUOUS
 10
254.3021731979
 20
77.0019677814
 11
254.8047789751
 21
77.0019677814
  0
LINE
  5
304
100
AcDbEntity
  8
RUNDUNGEN
100
AcDbLine
 62
7
  6
CONTINUOUS
 10
187.9808506276
 20
97.1986479372
 11
188.0011392432
 21
97.174984608
  0
LINE
  5
305
100
AcDbEntity
  8
RUNDUNGEN
100
AcDbLine
 62
7
  6
CONTINUOUS
 10
188.0011392432
 20
97.174984608
 11
188.0772838527
 21
97.0846529623
  0
LINE
  5
306
100
AcDbEntity
  8
RUNDUNGEN
100
AcDbLine
 62
7
  6
CONTINUOUS
 10
188.0772838527
 20
97.0846529623
 11
188.152546762
 21
96.9931929756
  0
LINE
  5
307
100
AcDbEntity
  8
RUNDUNGEN
100
AcDbLine
 62
7
  6
CONTINUOUS
 10
187.8686731204
 20
97.3352747244
 11
187.9808506276
 21
97.1986479372
  0
LINE
  5
308
100
AcDbEntity
  8
RUNDUNGEN
100
AcDbLine
 62
7
  6
CONTINUOUS
 10
230.52537296
 20
94.1858019322
 11
230.5252983877
 21
94.1857548531
  0
LINE
  5
309
100
AcDbEntity
  8
RUNDUNGEN
100
AcDbLine
 62
7
  6
CONTINUOUS
 10
190.540410554
 20
68.8181341075
 11
190.5404852692
 21
68.8181812768
  0
LINE
  5
30A
100
AcDbEntity
  8
0
100
AcDbLine
 62
7
  6
CONTINUOUS
 10
254.4304999249
 20
78.5019684967
 11
254.9316530332
 21
78.5019684967
  0
LINE
  5
30B
100
AcDbEntity
  8
0
100
AcDbLine
 62
7
  6
CONTINUOUS
 10
254.4468701395
 20
78.751967543
 11
254.947838536
 21
78.751967543
  0
LINE
  5
30C
100
AcDbEntity
  8
0
100
AcDbLine
 62
7
  6
CONTINUOUS
 10
254.4753257149
 20
79.2519684967
 11
254.9759733575
 21
79.2519684967
  0
LINE
  5
30D
100
AcDbEntity
  8
0
100
AcDbLine
 62
7
  6
CONTINUOUS
 10
254.5073161584
 20
80.0019684967
 11
255.007603689
 21
80.0019684967
  0
LINE
  5
30E
100
AcDbEntity
  8
0
100
AcDbLine
 62
7
  6
CONTINUOUS
 10
254.5300507508
 20
81.001967543
 11
255.0300826742
 21
81.001967543
  0
LINE
  5
30F
100
AcDbEntity
  8
0
100
AcDbLine
 62
7
  6
CONTINUOUS
 10
254.5300507562
 20
82.0019680198
 11
255.0300826796
 21
82.0019680198
  0
LINE
  5
310
100
AcDbEntity
  8
RUNDUNGEN
100
AcDbLine
 62
7
  6
CONTINUOUS
 10
230.5252888894
 20
68.8181871831
 11
230.52537296
 21
68.8181341075
  0
LINE
  5
311
100
AcDbEntity
  8
RUNDUNGEN
100
AcDbLine
 62
7
  6
CONTINUOUS
 10
190.5404944085
 20
94.185748993
 11
190.540410554
 21
94.1858019322
  0
LINE
  5
312
100
AcDbEntity
  8
0
100
AcDbLine
 62
7
  6
CONTINUOUS
 10
254.5073161258
 20
83.0019684967
 11
255.0076036568
 21
83.0019684967
  0
LINE
  5
313
100
AcDbEntity
  8
0
100
AcDbLine
 62
7
  6
CONTINUOUS
 10
254.4753256661
 20
83.7519684967
 11
254.9759733092
 21
83.7519684967
  0
LINE
  5
314
100
AcDbEntity
  8
0
100
AcDbLine
 62
7
  6
CONTINUOUS
 10
254.4468701694
 20
84.2519680198
 11
254.9478385655
 21
84.2519680198
  0
LINE
  5
315
100
AcDbEntity
  8
0
100
AcDbLine
 62
7
  6
CONTINUOUS
 10
254.4304998597
 20
84.5019684967
 11
254.9316529688
 21
84.5019684967
  0
LINE
  5
316
100
AcDbEntity
  8
0
100
AcDbLine
 62
7
  6
CONTINUOUS
 10
254.3021731734
 20
86.0019684967
 11
254.8047789509
 21
86.0019684967
  0
LWPOLYLINE
  5
317
100
AcDbEntity
  8
RUNDUNGEN
100
AcDbPolyline
 62
7
  6
CONTINUOUS
 90
3
 70
0
 10
232.75355654
 20
96.7917651961
 10
232.7704054261
 20
96.8135032815
 10
232.8439181787
 20
96.9070021446
  0
LWPOLYLINE
  5
318
100
AcDbEntity
  8
RUNDUNGEN
100
AcDbPolyline
 62
7
  6
CONTINUOUS
 90
3
 70
0
 10
232.8439181787
 20
96.9070021446
 10
232.9183171788
 20
96.9994357598
 10
232.9936000003
 20
97.0907721776
  0
LINE
  5
319
100
AcDbEntity
  8
RUNDUNGEN
100
AcDbLine
 62
7
  6
CONTINUOUS
 10
233.0848597252
 20
97.1985627364
 11
233.2071586021
 21
97.3481376652
  0
LWPOLYLINE
  5
31A
100
AcDbEntity
  8
RUNDUNGEN
100
AcDbPolyline
 62
7
  6
CONTINUOUS
 90
3
 70
0
 10
232.9936000003
 20
97.0907721776
 10
233.0697643447
 20
97.1809804618
 10
233.0847563495
 20
97.1984806714
  0
LINE
  5
31B
100
AcDbEntity
  8
0
100
AcDbLine
 62
7
  6
CONTINUOUS
 10
254.1218813237
 20
87.5019670662
 11
254.6265422233
 21
87.5019670662
  0
LINE
  5
31C
100
AcDbEntity
  8
0
100
AcDbLine
 62
7
  6
CONTINUOUS
 10
254.0867376042
 20
87.7519689735
 11
254.5918010499
 21
87.7519689735
  0
LINE
  5
31D
100
AcDbEntity
  8
0
100
AcDbLine
 62
7
  6
CONTINUOUS
 10
254.0501297208
 20
88.0019680198
 11
254.5556131631
 21
88.0019680198
  0
LINE
  5
31E
100
AcDbEntity
  8
RUNDUNGEN
100
AcDbLine
 62
7
  6
CONTINUOUS
 10
196.2806188419
 20
89.5019680198
 11
224.7851646721
 21
89.5019680198
  0
LINE
  5
31F
100
AcDbEntity
  8
RUNDUNGEN
100
AcDbLine
 62
7
  6
CONTINUOUS
 10
233.0849328969
 20
65.8052880824
 11
233.0646386411
 21
65.8289580106
  0
LINE
  5
320
100
AcDbEntity
  8
RUNDUNGEN
100
AcDbLine
 62
7
  6
CONTINUOUS
 10
233.0646386411
 20
65.8289580106
 11
232.9884911386
 21
65.9192933052
  0
LINE
  5
321
100
AcDbEntity
  8
RUNDUNGEN
100
AcDbLine
 62
7
  6
CONTINUOUS
 10
232.9884911386
 20
65.9192933052
 11
232.9132273665
 21
66.0107546044
  0
LINE
  5
322
100
AcDbEntity
  8
RUNDUNGEN
100
AcDbLine
 62
7
  6
CONTINUOUS
 10
233.1971104798
 20
65.6686611987
 11
233.0849328969
 21
65.8052880824
  0
LWPOLYLINE
  5
323
100
AcDbEntity
  8
RUNDUNGEN
100
AcDbPolyline
 62
7
  6
CONTINUOUS
 90
3
 70
0
 10
232.9132273665
 20
66.0107546044
 10
232.8388495111
 20
66.1033109348
 10
232.7660954512
 20
66.1959932048
  0
LINE
  5
324
100
AcDbEntity
  8
RUNDUNGEN
100
AcDbLine
 62
7
  6
CONTINUOUS
 10
232.7660954512
 20
66.1959932048
 11
232.7535602062
 21
66.2121661101
  0
LINE
  5
325
100
AcDbEntity
  8
BEZUGSACHSEN
100
AcDbLine
 62
7
  6
CONTINUOUS
 10
220.032891757
 20
89.5019680198
 11
220.032891757
 21
73.5019680198
  0
LWPOLYLINE
  5
326
100
AcDbEntity
  8
RUNDUNGEN
100
AcDbPolyline
 62
7
  6
CONTINUOUS
 90
8
 70
0
 10
233.2071586021
 20
97.3481376652
 10
233.4363221759
 20
97.6754673908
 10
233.6310337438
 20
98.0234477936
 10
233.7890844845
 20
98.3885400352
 10
233.9089385697
 20
98.7672034349
 10
233.9891802163
 20
99.1562169676
 10
234.0286614856
 20
99.5513092883
 10
234.032851536
 20
99.7117099065
  0
LINE
  5
327
100
AcDbEntity
  8
0
100
AcDbLine
 62
7
  6
CONTINUOUS
 10
252.7199750883
 20
94.0019680198
 11
253.2412047651
 21
94.0019680198
  0
LINE
  5
328
100
AcDbEntity
  8
0
100
AcDbLine
 62
7
  6
CONTINUOUS
 10
252.3292728656
 20
95.2519689735
 11
252.855314582
 21
95.2519689735
  0
LINE
  5
329
100
AcDbEntity
  8
0
100
AcDbLine
 62
7
  6
CONTINUOUS
 10
251.9869325733
 20
96.2519680198
 11
252.5172638495
 21
96.2519680198
  0
LINE
  5
32A
100
AcDbEntity
  8
0
100
AcDbLine
 62
7
  6
CONTINUOUS
 10
251.6174086708
 20
97.2519670662
 11
252.152448819
 21
97.2519670662
  0
LINE
  5
32B
100
AcDbEntity
  8
0
100
AcDbLine
 62
7
  6
CONTINUOUS
 10
251.4222241067
 20
97.7519680198
 11
251.9597851959
 21
97.7519680198
  0
LINE
  5
32C
100
AcDbEntity
  8
0
100
AcDbLine
 62
7
  6
CONTINUOUS
 10
251.3219838218
 20
98.0019670662
 11
251.8608487773
 21
98.0019670662
  0
LINE
  5
32D
100
AcDbEntity
  8
0
100
AcDbLine
 62
7
  6
CONTINUOUS
 10
251.1161395324
 20
98.5019680198
 11
251.657701787
 21
98.5019680198
  0
LINE
  5
32E
100
AcDbEntity
  8
0
100
AcDbLine
 62
7
  6
CONTINUOUS
 10
250.2191609664
 20
100.5019689735
 11
250.7727968732
 21
100.5019689735
  0
LINE
  5
32F
100
AcDbEntity
  8
0
100
AcDbLine
 62
7
  6
CONTINUOUS
 10
249.5961422442
 20
101.7519670662
 11
250.1584837226
 21
101.7519670662
  0
LWPOLYLINE
  5
330
100
AcDbEntity
  8
RUNDUNGEN
100
AcDbPolyline
 62
7
  6
CONTINUOUS
 90
8
 70
0
 10
234.0328517729
 20
63.2921782056
 10
234.0285477849
 20
63.4550121155
 10
233.9884648549
 20
63.8523794317
 10
233.9071677055
 20
64.2434980501
 10
233.7858316819
 20
64.6240661037
 10
233.6258897325
 20
64.9908484551
 10
233.4289005274
 20
65.3402443016
 10
233.1971104798
 20
65.6686611987
  0
LINE
  5
331
100
AcDbEntity
  8
RUNDUNGEN
100
AcDbLine
 62
7
  6
CONTINUOUS
 10
234.032891757
 20
46.5770485496
 11
234.032891757
 21
70.5475401637
  0
LINE
  5
332
100
AcDbEntity
  8
RUNDUNGEN
100
AcDbLine
 62
7
  6
CONTINUOUS
 10
234.032891757
 20
116.42688749
 11
234.032891757
 21
92.4563960799
  0
LINE
  5
333
100
AcDbEntity
  8
0
100
AcDbLine
 62
7
  6
CONTINUOUS
 10
248.042890424
 20
104.5019680198
 11
248.6281670546
 21
104.5019680198
  0
LINE
  5
334
100
AcDbEntity
  8
0
100
AcDbLine
 62
7
  6
CONTINUOUS
 10
187.032891757
 20
106.4419680198
 11
186.032891757
 21
106.4419680198
  0
LINE
  5
335
100
AcDbEntity
  8
0
100
AcDbLine
 62
7
  6
CONTINUOUS
 10
187.032891757
 20
106.6119680198
 11
186.032891757
 21
106.6119680198
  0
LINE
  5
336
100
AcDbEntity
  8
0
100
AcDbLine
 62
7
  6
CONTINUOUS
 10
187.032891757
 20
106.7396275903
 11
186.032891757
 21
106.7396275903
  0
LINE
  5
337
100
AcDbEntity
  8
0
100
AcDbLine
 62
7
  6
CONTINUOUS
 10
187.032891757
 20
107.1226063015
 11
186.032891757
 21
107.1226063015
  0
LINE
  5
338
100
AcDbEntity
  8
0
100
AcDbLine
 62
7
  6
CONTINUOUS
 10
187.032891757
 20
107.6332445833
 11
186.032891757
 21
107.6332445833
  0
LINE
  5
339
100
AcDbEntity
  8
0
100
AcDbLine
 62
7
  6
CONTINUOUS
 10
187.032891757
 20
108.2715424689
 11
186.032891757
 21
108.2715424689
  0
LINE
  5
33A
100
AcDbEntity
  8
0
100
AcDbLine
 62
7
  6
CONTINUOUS
 10
187.032891757
 20
108.909840444
 11
186.032891757
 21
108.909840444
  0
LINE
  5
33B
100
AcDbEntity
  8
0
100
AcDbLine
 62
7
  6
CONTINUOUS
 10
187.032891757
 20
109.5481382402
 11
186.032891757
 21
109.5481382402
  0
LINE
  5
33C
100
AcDbEntity
  8
0
100
AcDbLine
 62
7
  6
CONTINUOUS
 10
187.032891757
 20
109.931116918
 11
186.032891757
 21
109.931116918
  0
LINE
  5
33D
100
AcDbEntity
  8
0
100
AcDbLine
 62
7
  6
CONTINUOUS
 10
187.032891757
 20
110.3140955957
 11
186.032891757
 21
110.3140955957
  0
LINE
  5
33E
100
AcDbEntity
  8
0
100
AcDbLine
 62
7
  6
CONTINUOUS
 10
187.032891757
 20
110.441755155
 11
186.032891757
 21
110.441755155
  0
LINE
  5
33F
100
AcDbEntity
  8
0
100
AcDbLine
 62
7
  6
CONTINUOUS
 10
187.032891757
 20
110.8247338327
 11
186.032891757
 21
110.8247338327
  0
LINE
  5
340
100
AcDbEntity
  8
0
100
AcDbLine
 62
7
  6
CONTINUOUS
 10
187.032891757
 20
111.2077128681
 11
186.032891757
 21
111.2077128681
  0
LINE
  5
341
100
AcDbEntity
  8
0
100
AcDbLine
 62
7
  6
CONTINUOUS
 10
187.032891757
 20
111.5906915458
 11
186.032891757
 21
111.5906915458
  0
LINE
  5
342
100
AcDbEntity
  8
0
100
AcDbLine
 62
7
  6
CONTINUOUS
 10
187.032891757
 20
112.1013297828
 11
186.032891757
 21
112.1013297828
  0
LINE
  5
343
100
AcDbEntity
  8
0
100
AcDbLine
 62
7
  6
CONTINUOUS
 10
187.032891757
 20
112.4843084606
 11
186.032891757
 21
112.4843084606
  0
LINE
  5
344
100
AcDbEntity
  8
0
100
AcDbLine
 62
7
  6
CONTINUOUS
 10
187.032891757
 20
112.6119680198
 11
186.032891757
 21
112.6119680198
  0
LINE
  5
345
100
AcDbEntity
  8
0
100
AcDbLine
 62
7
  6
CONTINUOUS
 10
187.032891757
 20
112.8819680198
 11
186.032891757
 21
112.8819680198
  0
LINE
  5
346
100
AcDbEntity
  8
RUNDUNGEN
100
AcDbLine
 62
7
  6
CONTINUOUS
 10
193.0972958452
 20
121.5019680198
 11
227.9684875194
 21
121.5019680198
  0
ARC
  5
347
100
AcDbEntity
  8
RUNDUNGEN
100
AcDbCircle
 62
7
  6
CONTINUOUS
 10
182.032891757
 20
276.9125389469
 40
5.0
100
AcDbArc
 50
270.000359561
 51
0.0004870856
  0
ARC
  5
348
100
AcDbEntity
  8
RUNDUNGEN
100
AcDbCircle
 62
7
  6
CONTINUOUS
 10
170.532891757
 20
267.9125389469
 40
4.0
100
AcDbArc
 50
90.0
 51
180.0
  0
ARC
  5
349
100
AcDbEntity
  8
RUNDUNGEN
100
AcDbCircle
 62
7
  6
CONTINUOUS
 10
239.032891757
 20
276.9125389469
 40
5.0
100
AcDbArc
 50
179.9989856612
 51
269.9997678175
  0
ARC
  5
34A
100
AcDbEntity
  8
RUNDUNGEN
100
AcDbCircle
 62
7
  6
CONTINUOUS
 10
250.532891757
 20
267.9125389469
 40
4.0
100
AcDbArc
 50
0.0
 51
90.0
  0
ARC
  5
34B
100
AcDbEntity
  8
RUNDUNGEN
100
AcDbCircle
 62
7
  6
CONTINUOUS
 10
210.532891757
 20
323.4125389469
 40
23.5
100
AcDbArc
 50
0.0
 51
180.0003965047
  0
ARC
  5
34C
100
AcDbEntity
  8
RUNDUNGEN
100
AcDbCircle
 62
7
  6
CONTINUOUS
 10
417.9182363014
 20
308.180502715
 40
5.0000036446
100
AcDbArc
 50
329.9998553518
 51
359.9998329744
  0
ARC
  5
34D
100
AcDbEntity
  8
RUNDUNGEN
100
AcDbCircle
 62
7
  6
CONTINUOUS
 10
423.9182383994
 20
298.5727966186
 40
5.0
100
AcDbArc
 50
150.0000480838
 51
180.0000416417
  0
ARC
  5
34E
100
AcDbEntity
  8
0
100
AcDbCircle
 62
7
  6
CONTINUOUS
 10
434.7582363014
 20
296.5625389469
 40
3.22
100
AcDbArc
 50
132.1294150686
 51
300.3705849314
  0
ARC
  5
34F
100
AcDbEntity
  8
0
100
AcDbCircle
 62
7
  6
CONTINUOUS
 10
434.7582363014
 20
296.5625389469
 40
3.22
100
AcDbArc
 50
309.5364903521
 51
122.9635096479
  0
ARC
  5
350
100
AcDbEntity
  8
RUNDUNGEN
100
AcDbCircle
 62
7
  6
CONTINUOUS
 10
451.9182363014
 20
313.8913117481
 40
3.0
100
AcDbArc
 50
302.0
 51
360.0
  0
ARC
  5
351
100
AcDbEntity
  8
0
100
AcDbCircle
 62
7
  6
CONTINUOUS
 10
434.7582363014
 20
296.5625389469
 40
2.38
100
AcDbArc
 50
310.6984581435
 51
121.8015418565
  0
ARC
  5
352
100
AcDbEntity
  8
0
100
AcDbCircle
 62
7
  6
CONTINUOUS
 10
434.7582363014
 20
296.5625389469
 40
2.38
100
AcDbArc
 50
134.2161911632
 51
298.2838088368
  0
ARC
  5
353
100
AcDbEntity
  8
RUNDUNGEN
100
AcDbCircle
 62
7
  6
CONTINUOUS
 10
426.9182363014
 20
337.0824557509
 40
4.0
100
AcDbArc
 50
145.0
 51
180.0
  0
ARC
  5
354
100
AcDbEntity
  8
RUNDUNGEN
100
AcDbCircle
 62
7
  6
CONTINUOUS
 10
431.0004844144
 20
342.9125102566
 40
4.0
100
AcDbArc
 50
90.0003221495
 51
145.0
  0
ARC
  5
355
100
AcDbEntity
  8
RUNDUNGEN
100
AcDbCircle
 62
7
  6
CONTINUOUS
 10
450.9182363014
 20
339.011781382
 40
4.0
100
AcDbArc
 50
0.0
 51
65.5566645723
  0
ARC
  5
356
100
AcDbEntity
  8
RUNDUNGEN
100
AcDbCircle
 62
7
  6
CONTINUOUS
 10
444.6220618378
 20
342.9125389469
 40
4.0
100
AcDbArc
 50
50.8832562204
 51
90.0
  0
ARC
  5
357
100
AcDbEntity
  8
RUNDUNGEN
100
AcDbCircle
 62
7
  6
CONTINUOUS
 10
462.9182363014
 20
295.4125389469
 40
18.5
100
AcDbArc
 50
121.999396027
 51
58.0006203873
  0
ARC
  5
358
100
AcDbEntity
  8
RUNDUNGEN
100
AcDbCircle
 62
7
  6
CONTINUOUS
 10
473.9182363014
 20
313.8913117481
 40
3.0
100
AcDbArc
 50
180.0
 51
238.0
  0
ARC
  5
359
100
AcDbEntity
  8
RUNDUNGEN
100
AcDbCircle
 62
7
  6
CONTINUOUS
 10
501.9182341884
 20
298.5727966445
 40
5.0
100
AcDbArc
 50
359.9999580615
 51
29.9999515735
  0
ARC
  5
35A
100
AcDbEntity
  8
0
100
AcDbCircle
 62
7
  6
CONTINUOUS
 10
491.9314356756
 20
302.0193473214
 40
5.0
100
AcDbArc
 50
174.2608295227
 51
5.7391704773
  0
ARC
  5
35B
100
AcDbEntity
  8
0
100
AcDbCircle
 62
7
  6
CONTINUOUS
 10
491.9314356756
 20
302.0193473214
 40
3.5
100
AcDbArc
 50
171.7867892983
 51
8.2132107017
  0
ARC
  5
35C
100
AcDbEntity
  8
RUNDUNGEN
100
AcDbCircle
 62
7
  6
CONTINUOUS
 10
507.9182363014
 20
308.1804881393
 40
5.0
100
AcDbArc
 50
180.4067696059
 51
210.0
  0
ARC
  5
35D
100
AcDbEntity
  8
0
100
AcDbCircle
 62
7
  6
CONTINUOUS
 10
491.9314356756
 20
310.5193473214
 40
5.0
100
AcDbArc
 50
174.2608295227
 51
5.7391704773
  0
ARC
  5
35E
100
AcDbEntity
  8
0
100
AcDbCircle
 62
7
  6
CONTINUOUS
 10
491.9314356756
 20
310.5193473214
 40
3.5
100
AcDbArc
 50
282.3736251162
 51
8.2132107017
  0
ARC
  5
35F
100
AcDbEntity
  8
0
100
AcDbCircle
 62
7
  6
CONTINUOUS
 10
491.9314356756
 20
310.5193473214
 40
3.5
100
AcDbArc
 50
171.7867892983
 51
257.4447123387
  0
ARC
  5
360
100
AcDbEntity
  8
0
100
AcDbCircle
 62
7
  6
CONTINUOUS
 10
462.9182363014
 20
365.4125389469
 40
25.0
100
AcDbArc
 50
294.4433354277
 51
309.1167437796
  0
ARC
  5
361
100
AcDbEntity
  8
0
100
AcDbCircle
 62
7
  6
CONTINUOUS
 10
462.9182363014
 20
365.4125389469
 40
25.0
100
AcDbArc
 50
230.8832562204
 51
245.5566645723
  0
ARC
  5
362
100
AcDbEntity
  8
RUNDUNGEN
100
AcDbCircle
 62
7
  6
CONTINUOUS
 10
494.8359882631
 20
342.9125101498
 40
4.0
100
AcDbArc
 50
35.0
 51
89.9996766278
  0
ARC
  5
363
100
AcDbEntity
  8
RUNDUNGEN
100
AcDbCircle
 62
7
  6
CONTINUOUS
 10
474.9182363014
 20
339.011781382
 40
4.0
100
AcDbArc
 50
114.4433354277
 51
180.0
  0
ARC
  5
364
100
AcDbEntity
  8
RUNDUNGEN
100
AcDbCircle
 62
7
  6
CONTINUOUS
 10
481.2144107649
 20
342.9125389469
 40
4.0
100
AcDbArc
 50
90.0
 51
129.1167437796
  0
ARC
  5
365
100
AcDbEntity
  8
RUNDUNGEN
100
AcDbCircle
 62
7
  6
CONTINUOUS
 10
498.9182363014
 20
337.0824557509
 40
4.0
100
AcDbArc
 50
0.0
 51
35.0
  0
ARC
  5
366
100
AcDbEntity
  8
0
100
AcDbCircle
 62
7
  6
CONTINUOUS
 10
168.532891757
 20
81.5019680198
 40
25.0
100
AcDbArc
 50
320.8832562204
 51
326.3576851342
  0
ARC
  5
367
100
AcDbEntity
  8
0
100
AcDbCircle
 62
7
  6
CONTINUOUS
 10
168.532891757
 20
81.5019680198
 40
25.0
100
AcDbArc
 50
33.6423148658
 51
39.1167437796
  0
ARC
  5
368
100
AcDbEntity
  8
RUNDUNGEN
100
AcDbCircle
 62
7
  6
CONTINUOUS
 10
168.532891757
 20
81.5019680198
 40
25.0
100
AcDbArc
 50
33.6423148658
 51
39.1167437796
  0
ARC
  5
369
100
AcDbEntity
  8
RUNDUNGEN
100
AcDbCircle
 62
7
  6
CONTINUOUS
 10
168.532891757
 20
81.5019680198
 40
25.0
100
AcDbArc
 50
320.8832562204
 51
326.3576851342
  0
ARC
  5
36A
100
AcDbEntity
  8
RUNDUNGEN
100
AcDbCircle
 62
7
  6
CONTINUOUS
 10
193.0972959828
 20
45.5019680198
 40
4.0
100
AcDbArc
 50
244.1580653705
 51
270.00000012
  0
ARC
  5
36B
100
AcDbEntity
  8
RUNDUNGEN
100
AcDbCircle
 62
7
  6
CONTINUOUS
 10
191.032891757
 20
63.2057935563
 40
4.0
100
AcDbArc
 50
140.8832562204
 51
180.0
  0
ARC
  5
36C
100
AcDbEntity
  8
RUNDUNGEN
100
AcDbCircle
 62
7
  6
CONTINUOUS
 10
191.0328788353
 20
46.5770532074
 40
3.999994257
100
AcDbArc
 50
180.0000667175
 51
240.8237982757
  0
ARC
  5
36D
100
AcDbEntity
  8
RUNDUNGEN
100
AcDbCircle
 62
7
  6
CONTINUOUS
 10
182.532891757
 20
81.5019680198
 40
15.0
100
AcDbArc
 50
302.2649104107
 51
323.9681209275
  0
ARC
  5
36E
100
AcDbEntity
  8
RUNDUNGEN
100
AcDbCircle
 62
7
  6
CONTINUOUS
 10
182.532891757
 20
81.5019680198
 40
15.0
100
AcDbArc
 50
36.0318835992
 51
57.7350895893
  0
ARC
  5
36F
100
AcDbEntity
  8
RUNDUNGEN
100
AcDbCircle
 62
7
  6
CONTINUOUS
 10
192.6757488999
 20
65.4357783975
 40
4.0
100
AcDbArc
 50
122.2649104107
 51
146.3576851342
  0
ARC
  5
370
100
AcDbEntity
  8
RUNDUNGEN
100
AcDbCircle
 62
7
  6
CONTINUOUS
 10
196.2806188419
 20
71.5019680198
 40
2.0
100
AcDbArc
 50
90.0
 51
143.9681209275
  0
ARC
  5
371
100
AcDbEntity
  8
RUNDUNGEN
100
AcDbCircle
 62
7
  6
CONTINUOUS
 10
193.0972959828
 20
117.5019680198
 40
4.0
100
AcDbArc
 50
90.0000019722
 51
115.8419366856
  0
ARC
  5
372
100
AcDbEntity
  8
RUNDUNGEN
100
AcDbCircle
 62
7
  6
CONTINUOUS
 10
191.032891757
 20
116.42688749
 40
4.0
100
AcDbArc
 50
119.176395855
 51
180.0
  0
ARC
  5
373
100
AcDbEntity
  8
RUNDUNGEN
100
AcDbCircle
 62
7
  6
CONTINUOUS
 10
191.032891757
 20
99.7981424834
 40
4.0
100
AcDbArc
 50
180.0
 51
219.1167437796
  0
ARC
  5
374
100
AcDbEntity
  8
RUNDUNGEN
100
AcDbCircle
 62
7
  6
CONTINUOUS
 10
192.6757488999
 20
97.5681576421
 40
4.0
100
AcDbArc
 50
213.6450003128
 51
237.7365100607
  0
ARC
  5
375
100
AcDbEntity
  8
RUNDUNGEN
100
AcDbCircle
 62
7
  6
CONTINUOUS
 10
196.2806188419
 20
91.5019680198
 40
2.0
100
AcDbArc
 50
216.0318451225
 51
270.0
  0
ARC
  5
376
100
AcDbEntity
  8
RUNDUNGEN
100
AcDbCircle
 62
7
  6
CONTINUOUS
 10
227.9684875312
 20
45.5019680198
 40
4.0
100
AcDbArc
 50
270.0000018936
 51
295.8419370084
  0
ARC
  5
377
100
AcDbEntity
  8
RUNDUNGEN
100
AcDbCircle
 62
7
  6
CONTINUOUS
 10
230.032891757
 20
46.5770485496
 40
4.0
100
AcDbArc
 50
299.176395855
 51
360.0
  0
ARC
  5
378
100
AcDbEntity
  8
RUNDUNGEN
100
AcDbCircle
 62
7
  6
CONTINUOUS
 10
230.032891757
 20
63.2057935563
 40
4.0
100
AcDbArc
 50
0.0
 51
39.1167437796
  0
ARC
  5
379
100
AcDbEntity
  8
0
100
AcDbCircle
 62
7
  6
CONTINUOUS
 10
210.532891757
 20
81.5019680198
 40
44.5
100
AcDbArc
 50
22.4590156109
 51
31.1214551226
  0
ARC
  5
37A
100
AcDbEntity
  8
0
100
AcDbCircle
 62
7
  6
CONTINUOUS
 10
210.532891757
 20
81.5019680198
 40
44.5
100
AcDbArc
 50
7.7488729532
 51
21.7641306659
  0
ARC
  5
37B
100
AcDbEntity
  8
0
100
AcDbCircle
 62
7
  6
CONTINUOUS
 10
210.532891757
 20
81.5019680198
 40
44.5
100
AcDbArc
 50
330.3709915468
 51
5.8038763814
  0
CIRCLE
  5
37C
100
AcDbEntity
  8
RUNDUNGEN
100
AcDbCircle
 62
7
  6
CONTINUOUS
 10
210.532891757
 20
81.5019680198
 40
44.0
  0
ARC
  5
37D
100
AcDbEntity
  8
RUNDUNGEN
100
AcDbCircle
 62
7
  6
CONTINUOUS
 10
228.3900346141
 20
65.4357783975
 40
4.0
100
AcDbArc
 50
33.6448889392
 51
57.7365137202
  0
ARC
  5
37E
100
AcDbEntity
  8
RUNDUNGEN
100
AcDbCircle
 62
7
  6
CONTINUOUS
 10
224.7851646721
 20
71.5019680198
 40
2.0
100
AcDbArc
 50
36.0318790725
 51
90.0
  0
ARC
  5
37F
100
AcDbEntity
  8
RUNDUNGEN
100
AcDbCircle
 62
7
  6
CONTINUOUS
 10
252.532891757
 20
81.5019680198
 40
25.0
100
AcDbArc
 50
213.6423148658
 51
219.1167437796
  0
ARC
  5
380
100
AcDbEntity
  8
RUNDUNGEN
100
AcDbCircle
 62
7
  6
CONTINUOUS
 10
252.532891757
 20
81.5019680198
 40
25.0
100
AcDbArc
 50
140.8832562204
 51
146.3576851342
  0
ARC
  5
381
100
AcDbEntity
  8
RUNDUNGEN
100
AcDbCircle
 62
7
  6
CONTINUOUS
 10
238.532891757
 20
81.5019680198
 40
15.0
100
AcDbArc
 50
216.0318833628
 51
237.7350895893
  0
ARC
  5
382
100
AcDbEntity
  8
RUNDUNGEN
100
AcDbCircle
 62
7
  6
CONTINUOUS
 10
238.532891757
 20
81.5019680198
 40
15.0
100
AcDbArc
 50
122.2649104107
 51
143.9681209275
  0
ARC
  5
383
100
AcDbEntity
  8
RUNDUNGEN
100
AcDbCircle
 62
7
  6
CONTINUOUS
 10
227.9684786931
 20
117.5019723034
 40
4.0000000003
100
AcDbArc
 50
64.1580076131
 51
89.999584787
  0
ARC
  5
384
100
AcDbEntity
  8
RUNDUNGEN
100
AcDbCircle
 62
7
  6
CONTINUOUS
 10
230.032891757
 20
99.7981424834
 40
4.0
100
AcDbArc
 50
320.8832562204
 51
360.0
  0
ARC
  5
385
100
AcDbEntity
  8
RUNDUNGEN
100
AcDbCircle
 62
7
  6
CONTINUOUS
 10
228.3900346141
 20
97.5681576421
 40
4.0
100
AcDbArc
 50
302.2636471777
 51
326.3551390299
  0
ARC
  5
386
100
AcDbEntity
  8
RUNDUNGEN
100
AcDbCircle
 62
7
  6
CONTINUOUS
 10
230.032901328
 20
116.4268839921
 40
3.9999957462
100
AcDbArc
 50
0.000050104
 51
60.8237482715
  0
ARC
  5
387
100
AcDbEntity
  8
RUNDUNGEN
100
AcDbCircle
 62
7
  6
CONTINUOUS
 10
224.7851646721
 20
91.5019680198
 40
2.0
100
AcDbArc
 50
270.0
 51
323.9681209275
  0
SPLINE
  5
388
100
AcDbEntity
  8
RUNDUNGEN
100
AcDbSpline
 62
7
  6
CONTINUOUS
 70
0
 71
3
 72
9
 73
5
 74
0
 42
0.0000001
 43
0.0000001
 44
0.0000000001
 40
0.0
 40
0.0
 40
0.0
 40
0.0
 40
0.4933252081
 40
1.0
 40
1.0
 40
1.0
 40
1.0
 10
187.0329337753
 20
63.2912714035
 30
0.0
 10
187.0349904051
 20
63.7250989989
 30
0.0
 10
187.1940956022
 20
64.609800299
 30
0.0
 10
187.6405370438
 20
65.3896407754
 30
0.0
 10
187.9229196111
 20
65.7343067469
 30
0.0
  0
LINE
  5
389
100
AcDbEntity
  8
RUNDUNGEN
100
AcDbLine
 62
7
  6
CONTINUOUS
 10
187.9229196111
 20
65.7343067469
 11
187.9292154948
 21
65.7419717787
  0
SPLINE
  5
38A
100
AcDbEntity
  8
RUNDUNGEN
100
AcDbSpline
 62
7
  6
CONTINUOUS
 70
0
 71
3
 72
9
 73
5
 74
0
 42
0.0000001
 43
0.0000001
 44
0.0000000001
 40
0.0
 40
0.0
 40
0.0
 40
0.0
 40
0.4933252189
 40
1.0
 40
1.0
 40
1.0
 40
1.0
 10
234.0328497475
 20
99.712666944
 30
0.0
 10
234.0307933887
 20
99.2788389641
 30
0.0
 10
233.8716884275
 20
98.3941368009
 30
0.0
 10
233.4252467231
 20
97.6142955405
 30
0.0
 10
233.142863901
 20
97.2696292939
 30
0.0
  0
LINE
  5
38B
100
AcDbEntity
  8
RUNDUNGEN
100
AcDbLine
 62
7
  6
CONTINUOUS
 10
233.142863901
 20
97.2696292939
 11
233.1365682744
 21
97.2619645751
  0
LINE
  5
38C
100
AcDbEntity
  8
RUNDUNGEN
100
AcDbLine
 62
7
  6
CONTINUOUS
 10
187.9292556789
 20
97.2619155438
 11
187.9229196828
 21
97.2696294088
  0
SPLINE
  5
38D
100
AcDbEntity
  8
RUNDUNGEN
100
AcDbSpline
 62
7
  6
CONTINUOUS
 70
0
 71
3
 72
9
 73
5
 74
0
 42
0.0000001
 43
0.0000001
 44
0.0000000001
 40
0.0
 40
0.0
 40
0.0
 40
0.0
 40
0.506674859
 40
1.0
 40
1.0
 40
1.0
 40
1.0
 10
187.9229196828
 20
97.2696294088
 30
0.0
 10
187.6405346413
 20
97.614303728
 30
0.0
 10
187.1940831865
 20
98.3941568406
 30
0.0
 10
187.034984644
 20
99.2788772668
 30
0.0
 10
187.0329335525
 20
99.7127125858
 30
0.0
  0
LINE
  5
38E
100
AcDbEntity
  8
RUNDUNGEN
100
AcDbLine
 62
7
  6
CONTINUOUS
 10
233.1365680146
 20
65.7419717225
 11
233.1428638761
 21
65.7343067161
  0
SPLINE
  5
38F
100
AcDbEntity
  8
RUNDUNGEN
100
AcDbSpline
 62
7
  6
CONTINUOUS
 70
0
 71
3
 72
9
 73
5
 74
0
 42
0.0000001
 43
0.0000001
 44
0.0000000001
 40
0.0
 40
0.0
 40
0.0
 40
0.0
 40
0.5066748543
 40
1.0
 40
1.0
 40
1.0
 40
1.0
 10
233.1428638761
 20
65.7343067161
 30
0.0
 10
233.4252516299
 20
65.3896343436
 30
0.0
 10
233.8716993323
 20
64.6097776118
 30
0.0
 10
234.0307990202
 20
63.7250577392
 30
0.0
 10
234.0328499664
 20
63.2912222039
 30
0.0
  0
ELLIPSE
  5
390
100
AcDbEntity
  8
0
100
AcDbEllipse
 62
7
  6
CONTINUOUS
 10
210.532891757
 20
243.838070811
 30
0.0
 11
-0.0
 21
45.4468083978
 31
0.0
 40
0.9791666691
 41
-1.7208339036
 42
-1.7173882018
  0
ELLIPSE
  5
391
100
AcDbEntity
  8
0
100
AcDbEllipse
 62
7
  6
CONTINUOUS
 10
210.532891757
 20
253.7954863284
 30
0.0
 11
0.0
 21
113.61680694
 31
0.0
 40
0.3916674055
 41
-1.7173882018
 42
-1.7060396731
  0
ELLIPSE
  5
392
100
AcDbEntity
  8
0
100
AcDbEllipse
 62
7
  6
CONTINUOUS
 10
210.532891757
 20
223.9232063343
 30
0.0
 11
0.0
 21
113.6168228544
 31
0.0
 40
0.3916673507
 41
-1.4355529804
 42
-1.4309822241
  0
ELLIPSE
  5
393
100
AcDbEntity
  8
0
100
AcDbEllipse
 62
7
  6
CONTINUOUS
 10
210.532891757
 20
248.1784853605
 30
0.0
 11
0.0
 21
136.3401492307
 31
0.0
 40
0.3263895503
 41
-1.6101323129
 42
-1.6045105678
  0
ELLIPSE
  5
394
100
AcDbEntity
  8
0
100
AcDbEllipse
 62
7
  6
CONTINUOUS
 10
210.532891757
 20
245.1997725379
 30
0.0
 11
-0.0
 21
60.5957374573
 31
0.0
 40
0.7343750875
 41
-1.6270056963
 42
-1.6101323129
  0
ELLIPSE
  5
395
100
AcDbEntity
  8
0
100
AcDbEllipse
 62
7
  6
CONTINUOUS
 10
210.532891757
 20
243.7104101003
 30
0.0
 11
44.5
 21
0.0
 31
0.0
 40
0.7659569903
 41
-0.0787330137
 42
-0.0562093695
  0
ELLIPSE
  5
396
100
AcDbEntity
  8
0
100
AcDbEllipse
 62
7
  6
CONTINUOUS
 10
210.532891757
 20
241.744454171
 30
0.0
 11
44.5
 21
-0.0
 31
0.0
 40
0.2042553727
 41
-0.1069453174
 42
-0.0787330137
  0
ELLIPSE
  5
397
100
AcDbEntity
  8
0
100
AcDbEllipse
 62
7
  6
CONTINUOUS
 10
210.532891757
 20
246.4423259264
 30
0.0
 11
44.5
 21
-0.0
 31
0.0
 40
0.2042553727
 41
0.0787330137
 42
0.1069453174
  0
ELLIPSE
  5
398
100
AcDbEntity
  8
0
100
AcDbEllipse
 62
7
  6
CONTINUOUS
 10
210.532891757
 20
244.4763699972
 30
0.0
 11
44.5
 21
-0.0
 31
0.0
 40
0.7659569903
 41
0.0562093695
 42
0.0787330137
  0
ELLIPSE
  5
399
100
AcDbEntity
  8
0
100
AcDbEllipse
 62
7
  6
CONTINUOUS
 10
210.532891757
 20
242.9870075595
 30
0.0
 11
0.0
 21
60.5957374573
 31
0.0
 40
0.7343750875
 41
-1.5314603407
 42
-1.5145869573
  0
ELLIPSE
  5
39A
100
AcDbEntity
  8
0
100
AcDbEllipse
 62
7
  6
CONTINUOUS
 10
210.532891757
 20
240.008294737
 30
0.0
 11
0.0
 21
136.3401492307
 31
0.0
 40
0.3263895503
 41
-1.5370820858
 42
-1.5314603407
  0
ELLIPSE
  5
39B
100
AcDbEntity
  8
0
100
AcDbEllipse
 62
7
  6
CONTINUOUS
 10
210.532891757
 20
282.6466145692
 30
0.0
 11
0.0
 21
136.3405393033
 31
0.0
 40
0.3263886165
 41
-1.8672546126
 42
-1.8613856171
  0
ELLIPSE
  5
39C
100
AcDbEntity
  8
0
100
AcDbEllipse
 62
7
  6
CONTINUOUS
 10
210.532891757
 20
260.5189196479
 30
0.0
 11
0.0
 21
60.5957374573
 31
0.0
 40
0.7343750875
 41
-1.8849259092
 42
-1.8672546126
  0
ELLIPSE
  5
39D
100
AcDbEntity
  8
0
100
AcDbEllipse
 62
7
  6
CONTINUOUS
 10
210.532891757
 20
252.3274337737
 30
0.0
 11
44.5
 21
0.0
 31
0.0
 40
0.7659575381
 41
-0.3378513444
 42
-0.3141295824
  0
ELLIPSE
  5
39E
100
AcDbEntity
  8
0
100
AcDbEllipse
 62
7
  6
CONTINUOUS
 10
210.532891757
 20
244.0423252441
 30
0.0
 11
44.5
 21
-0.0
 31
0.0
 40
0.2042552558
 41
-0.3677862006
 42
-0.3378513444
  0
ELLIPSE
  5
39F
100
AcDbEntity
  8
0
100
AcDbEllipse
 62
7
  6
CONTINUOUS
 10
210.532891757
 20
244.1444548534
 30
0.0
 11
44.5
 21
-0.0
 31
0.0
 40
0.2042552558
 41
0.3378513444
 42
0.3677862006
  0
ELLIPSE
  5
3A0
100
AcDbEntity
  8
0
100
AcDbEllipse
 62
7
  6
CONTINUOUS
 10
210.532891757
 20
235.8593463237
 30
0.0
 11
44.5
 21
-0.0
 31
0.0
 40
0.7659575381
 41
0.3141295824
 42
0.3378513444
  0
ELLIPSE
  5
3A1
100
AcDbEntity
  8
0
100
AcDbEllipse
 62
7
  6
CONTINUOUS
 10
210.532891757
 20
227.6678604495
 30
0.0
 11
0.0
 21
60.5957374573
 31
0.0
 40
0.7343750875
 41
-1.274338041
 42
-1.2566667444
  0
ELLIPSE
  5
3A2
100
AcDbEntity
  8
0
100
AcDbEllipse
 62
7
  6
CONTINUOUS
 10
210.532891757
 20
205.5401655282
 30
0.0
 11
0.0
 21
136.3405393033
 31
0.0
 40
0.3263886165
 41
-1.2802070364
 42
-1.274338041
  0
ELLIPSE
  5
3A3
100
AcDbEntity
  8
0
100
AcDbEllipse
 62
7
  6
CONTINUOUS
 10
210.532891757
 20
241.2422827099
 30
0.0
 11
0.0
 21
181.7879058377
 31
0.0
 40
0.244790762
 41
-1.5089591616
 42
-1.5033294364
  0
ELLIPSE
  5
3A4
100
AcDbEntity
  8
0
100
AcDbEllipse
 62
7
  6
CONTINUOUS
 10
210.532891757
 20
248.263610576
 30
0.0
 11
0.0
 21
68.1700746153
 31
0.0
 40
0.6527791007
 41
-1.5202129714
 42
-1.5089591616
  0
ELLIPSE
  5
3A5
100
AcDbEntity
  8
0
100
AcDbEllipse
 62
7
  6
CONTINUOUS
 10
210.532891757
 20
250.1784964482
 30
0.0
 11
44.5
 21
-0.0
 31
0.0
 40
0.6808512211
 41
0.033714241
 42
0.0505833553
  0
ELLIPSE
  5
3A6
100
AcDbEntity
  8
0
100
AcDbEllipse
 62
7
  6
CONTINUOUS
 10
210.532891757
 20
250.8167940339
 30
0.0
 11
44.5
 21
0.0
 31
0.0
 40
0.255319362
 41
0.0112362022
 42
0.033714241
  0
ELLIPSE
  5
3A7
100
AcDbEntity
  8
0
100
AcDbEllipse
 62
7
  6
CONTINUOUS
 10
210.532891757
 20
259.3699863884
 30
0.0
 11
44.5
 21
0.0
 31
0.0
 40
0.2042552558
 41
0.1979188211
 42
0.2266547548
  0
ELLIPSE
  5
3A8
100
AcDbEntity
  8
0
100
AcDbEllipse
 62
7
  6
CONTINUOUS
 10
210.532891757
 20
254.4550915524
 30
0.0
 11
44.5
 21
-0.0
 31
0.0
 40
0.7659575381
 41
0.1750499286
 42
0.1979188211
  0
ELLIPSE
  5
3A9
100
AcDbEntity
  8
0
100
AcDbEllipse
 62
7
  6
CONTINUOUS
 10
210.532891757
 20
249.8380722415
 30
0.0
 11
0.0
 21
60.5957374573
 31
0.0
 40
0.7343750875
 41
-1.4128368959
 42
-1.3957463982
  0
ELLIPSE
  5
3AA
100
AcDbEntity
  8
0
100
AcDbEllipse
 62
7
  6
CONTINUOUS
 10
210.532891757
 20
237.9231595916
 30
0.0
 11
0.0
 21
136.3405393033
 31
0.0
 40
0.3263886165
 41
-1.4185231473
 42
-1.4128368959
  0
ELLIPSE
  5
3AB
100
AcDbEntity
  8
0
100
AcDbEllipse
 62
7
  6
CONTINUOUS
 10
210.532891757
 20
278.2636205059
 30
0.0
 11
0.0
 21
136.3405393033
 31
0.0
 40
0.3263886165
 41
-1.7287557577
 42
-1.7230695063
  0
ELLIPSE
  5
3AC
100
AcDbEntity
  8
0
100
AcDbEllipse
 62
7
  6
CONTINUOUS
 10
210.532891757
 20
266.3487078559
 30
0.0
 11
0.0
 21
60.5957374573
 31
0.0
 40
0.7343750875
 41
-1.7458462554
 42
-1.7287557577
  0
ELLIPSE
  5
3AD
100
AcDbEntity
  8
0
100
AcDbEllipse
 62
7
  6
CONTINUOUS
 10
210.532891757
 20
259.7529649049
 30
0.0
 11
44.5
 21
-0.0
 31
0.0
 40
0.5106383587
 41
-0.1979188211
 42
-0.1750499286
  0
ELLIPSE
  5
3AE
100
AcDbEntity
  8
0
100
AcDbEllipse
 62
7
  6
CONTINUOUS
 10
210.532891757
 20
232.4480005181
 30
0.0
 11
0.0
 21
116.1418442726
 31
0.0
 40
0.3831521729
 41
-1.4242044572
 42
-1.3728775057
  0
ELLIPSE
  5
3AF
100
AcDbEntity
  8
0
100
AcDbEllipse
 62
7
  6
CONTINUOUS
 10
210.532891757
 20
235.4125593696
 30
0.0
 11
0.0
 21
136.3401492307
 31
0.0
 40
0.3263895503
 41
-1.5033294364
 42
-1.4976975366
  0
ELLIPSE
  5
3B0
100
AcDbEntity
  8
0
100
AcDbEllipse
 62
7
  6
CONTINUOUS
 10
210.532891757
 20
242.050834293
 30
0.0
 11
-0.0
 21
45.4468464344
 31
0.0
 40
0.9791658496
 41
-1.4976975366
 42
-1.4864266161
  0
ELLIPSE
  5
3B1
100
AcDbEntity
  8
0
100
AcDbEllipse
 62
7
  6
CONTINUOUS
 10
210.532891757
 20
244.6040288057
 30
0.0
 11
44.5
 21
-0.0
 31
0.0
 40
0.3404254913
 41
0.0843697107
 42
0.1012967307
  0
ELLIPSE
  5
3B2
100
AcDbEntity
  8
0
100
AcDbEllipse
 62
7
  6
CONTINUOUS
 10
210.532891757
 20
230.5189671464
 30
0.0
 11
0.0
 21
224.6803957359
 31
0.0
 40
0.1958337302
 41
-1.4689051603
 42
-1.4683444591
  0
ELLIPSE
  5
3B3
100
AcDbEntity
  8
0
100
AcDbEllipse
 62
7
  6
CONTINUOUS
 10
210.532891757
 20
247.6678574313
 30
0.0
 11
44.5
 21
0.0
 31
0.0
 40
0.3404254913
 41
-0.3617725358
 42
-0.3438122292
  0
ELLIPSE
  5
3B4
100
AcDbEntity
  8
0
100
AcDbEllipse
 62
7
  6
CONTINUOUS
 10
210.532891757
 20
257.8806150288
 30
0.0
 11
0.0
 21
45.4467814222
 31
0.0
 40
0.9791672503
 41
-1.914608556
 42
-1.9026992607
  0
ELLIPSE
  5
3B5
100
AcDbEntity
  8
0
100
AcDbEllipse
 62
7
  6
CONTINUOUS
 10
210.532891757
 20
287.4976822036
 30
0.0
 11
0.0
 21
136.3405393033
 31
0.0
 40
0.3263886165
 41
-1.9026992607
 42
-1.8967630204
  0
ELLIPSE
  5
3B6
100
AcDbEntity
  8
0
100
AcDbEllipse
 62
7
  6
CONTINUOUS
 10
210.532891757
 20
200.9444170124
 30
0.0
 11
0.0
 21
136.3405393033
 31
0.0
 40
0.3263886165
 41
-1.2448296331
 42
-1.2388933929
  0
ELLIPSE
  5
3B7
100
AcDbEntity
  8
0
100
AcDbEllipse
 62
7
  6
CONTINUOUS
 10
210.532891757
 20
230.5614841871
 30
0.0
 11
0.0
 21
45.4467814222
 31
0.0
 40
0.9791672503
 41
-1.2388933929
 42
-1.2269840976
  0
ELLIPSE
  5
3B8
100
AcDbEntity
  8
0
100
AcDbEllipse
 62
7
  6
CONTINUOUS
 10
210.532891757
 20
240.7742417847
 30
0.0
 11
44.5
 21
-0.0
 31
0.0
 40
0.3404254913
 41
0.3438122292
 42
0.3617725358
  0
ELLIPSE
  5
3B9
100
AcDbEntity
  8
0
100
AcDbEllipse
 62
7
  6
CONTINUOUS
 10
210.532891757
 20
244.6040288057
 30
0.0
 11
44.0
 21
-0.0
 31
0.0
 40
0.3404254913
 41
0.085330778
 42
0.1024518514
  0
ELLIPSE
  5
3BA
100
AcDbEntity
  8
0
100
AcDbEllipse
 62
7
  6
CONTINUOUS
 10
210.532891757
 20
242.050834293
 30
0.0
 11
-0.0
 21
44.9362077105
 31
0.0
 40
0.9791658496
 41
-1.4968653603
 42
-1.4854655488
  0
ELLIPSE
  5
3BB
100
AcDbEntity
  8
0
100
AcDbEllipse
 62
7
  6
CONTINUOUS
 10
210.532891757
 20
235.4125593696
 30
0.0
 11
0.0
 21
134.8082374416
 31
0.0
 40
0.3263895503
 41
-1.5025615818
 42
-1.4968653603
  0
ELLIPSE
  5
3BC
100
AcDbEntity
  8
0
100
AcDbEllipse
 62
7
  6
CONTINUOUS
 10
210.532891757
 20
253.0295398463
 30
0.0
 11
0.0
 21
134.8082374416
 31
0.0
 40
0.3263895503
 41
-1.6447272933
 42
-1.6390310718
  0
ELLIPSE
  5
3BD
100
AcDbEntity
  8
0
100
AcDbEllipse
 62
7
  6
CONTINUOUS
 10
210.532891757
 20
246.391264923
 30
0.0
 11
-0.0
 21
44.9362077105
 31
0.0
 40
0.9791658496
 41
-1.6561271047
 42
-1.6447272933
  0
ELLIPSE
  5
3BE
100
AcDbEntity
  8
0
100
AcDbEllipse
 62
7
  6
CONTINUOUS
 10
210.532891757
 20
243.8380704103
 30
0.0
 11
44.0
 21
-0.0
 31
0.0
 40
0.3404254913
 41
-0.1024518514
 42
-0.085330778
  0
ELLIPSE
  5
3BF
100
AcDbEntity
  8
0
100
AcDbEllipse
 62
7
  6
CONTINUOUS
 10
210.532891757
 20
240.7742417847
 30
0.0
 11
44.0
 21
-0.0
 31
0.0
 40
0.3404254913
 41
0.3478837529
 42
0.3660763706
  0
ELLIPSE
  5
3C0
100
AcDbEntity
  8
0
100
AcDbEllipse
 62
7
  6
CONTINUOUS
 10
210.532891757
 20
230.5614841871
 30
0.0
 11
-0.0
 21
44.9361434287
 31
0.0
 40
0.9791672503
 41
-1.2349742309
 42
-1.2229125739
  0
ELLIPSE
  5
3C1
100
AcDbEntity
  8
0
100
AcDbEllipse
 62
7
  6
CONTINUOUS
 10
210.532891757
 20
200.9444170124
 30
0.0
 11
0.0
 21
134.8086231314
 31
0.0
 40
0.3263886165
 41
-1.2409859386
 42
-1.2349742309
  0
ELLIPSE
  5
3C2
100
AcDbEntity
  8
0
100
AcDbEllipse
 62
7
  6
CONTINUOUS
 10
210.532891757
 20
287.4976822036
 30
0.0
 11
0.0
 21
134.8086231314
 31
0.0
 40
0.3263886165
 41
-1.9066184227
 42
-1.900606715
  0
ELLIPSE
  5
3C3
100
AcDbEntity
  8
0
100
AcDbEllipse
 62
7
  6
CONTINUOUS
 10
210.532891757
 20
257.8806150288
 30
0.0
 11
-0.0
 21
44.9361434287
 31
0.0
 40
0.9791672503
 41
-1.9186800797
 42
-1.9066184227
  0
ELLIPSE
  5
3C4
100
AcDbEntity
  8
0
100
AcDbEllipse
 62
7
  6
CONTINUOUS
 10
210.532891757
 20
247.6678574313
 30
0.0
 11
44.0
 21
0.0
 31
0.0
 40
0.3404254913
 41
-0.3660763706
 42
-0.3478837529
  0
ELLIPSE
  5
3C5
100
AcDbEntity
  8
0
100
AcDbEllipse
 62
7
  6
CONTINUOUS
 10
210.532891757
 20
249.3104111542
 30
0.0
 11
44.5
 21
-0.0
 31
0.0
 40
0.2042553906
 41
0.0112362022
 42
0.0393359861
  0
ELLIPSE
  5
3C6
100
AcDbEntity
  8
0
100
AcDbEllipse
 62
7
  6
CONTINUOUS
 10
210.532891757
 20
248.7742414817
 30
0.0
 11
44.5
 21
-0.0
 31
0.0
 40
0.5106380606
 41
0.0393359861
 42
0.0618371652
  0
ELLIPSE
  5
3C7
100
AcDbEntity
  8
0
100
AcDbEllipse
 62
7
  6
CONTINUOUS
 10
210.532891757
 20
247.369982677
 30
0.0
 11
0.0
 21
45.4468504131
 31
0.0
 40
0.9791657639
 41
-1.5089591616
 42
-1.4864266161
  0
ELLIPSE
  5
3C8
100
AcDbEntity
  8
0
100
AcDbEllipse
 62
7
  6
CONTINUOUS
 10
210.532891757
 20
243.5402026854
 30
0.0
 11
0.0
 21
90.8935787589
 31
0.0
 40
0.4895835394
 41
-1.4864266161
 42
-1.4751449254
  0
ELLIPSE
  5
3C9
100
AcDbEntity
  8
0
100
AcDbEllipse
 62
7
  6
CONTINUOUS
 10
210.532891757
 20
230.5189671464
 30
0.0
 11
0.0
 21
227.2335820511
 31
0.0
 40
0.1958337302
 41
-1.4751449254
 42
-1.4694995799
  0
ELLIPSE
  5
3CA
100
AcDbEntity
  8
0
100
AcDbEllipse
 62
7
  6
CONTINUOUS
 10
210.532891757
 20
259.6253044833
 30
0.0
 11
44.5
 21
-0.0
 31
0.0
 40
0.3404254913
 41
-0.2208931195
 42
-0.2036519951
  0
ELLIPSE
  5
3CB
100
AcDbEntity
  8
0
100
AcDbEllipse
 62
7
  6
CONTINUOUS
 10
210.532891757
 20
265.7529591067
 30
0.0
 11
0.0
 21
45.4467814222
 31
0.0
 40
0.9791672503
 41
-1.7744483219
 42
-1.7629885745
  0
ELLIPSE
  5
3CC
100
AcDbEntity
  8
0
100
AcDbEllipse
 62
7
  6
CONTINUOUS
 10
210.532891757
 20
283.1146881402
 30
0.0
 11
0.0
 21
136.3405393033
 31
0.0
 40
0.3263886165
 41
-1.7629885745
 42
-1.7572683755
  0
ELLIPSE
  5
3CD
100
AcDbEntity
  8
0
100
AcDbEllipse
 62
7
  6
CONTINUOUS
 10
210.532891757
 20
233.3274110757
 30
0.0
 11
0.0
 21
136.3405393033
 31
0.0
 40
0.3263886165
 41
-1.384324278
 42
-1.3786040791
  0
ELLIPSE
  5
3CE
100
AcDbEntity
  8
0
100
AcDbEllipse
 62
7
  6
CONTINUOUS
 10
210.532891757
 20
250.6891401092
 30
0.0
 11
0.0
 21
45.4467814222
 31
0.0
 40
0.9791672503
 41
-1.3786040791
 42
-1.3671443317
  0
ELLIPSE
  5
3CF
100
AcDbEntity
  8
0
100
AcDbEllipse
 62
7
  6
CONTINUOUS
 10
210.532891757
 20
256.8167947327
 30
0.0
 11
44.5
 21
-0.0
 31
0.0
 40
0.3404254913
 41
0.2036519951
 42
0.2208931195
  0
ELLIPSE
  5
3D0
100
AcDbEntity
  8
0
100
AcDbEllipse
 62
7
  6
CONTINUOUS
 10
210.532891757
 20
227.2955153989
 30
0.0
 11
0.0
 21
117.9574555133
 31
0.0
 40
0.3730158455
 41
-1.3821799351
 42
-1.3356816095
  0
ELLIPSE
  5
3D1
100
AcDbEntity
  8
0
100
AcDbEllipse
 62
7
  6
CONTINUOUS
 10
210.532891757
 20
256.8167947327
 30
0.0
 11
44.0
 21
0.0
 31
0.0
 40
0.3404254913
 41
0.2059993268
 42
0.2234456423
  0
ELLIPSE
  5
3D2
100
AcDbEntity
  8
0
100
AcDbEllipse
 62
7
  6
CONTINUOUS
 10
210.532891757
 20
250.6891401092
 30
0.0
 11
-0.0
 21
44.9361434287
 31
0.0
 40
0.9791672503
 41
-1.3763923044
 42
-1.364797
  0
ELLIPSE
  5
3D3
100
AcDbEntity
  8
0
100
AcDbEllipse
 62
7
  6
CONTINUOUS
 10
210.532891757
 20
233.3274110757
 30
0.0
 11
0.0
 21
134.8086231314
 31
0.0
 40
0.3263886165
 41
-1.3821799351
 42
-1.3763923044
  0
ELLIPSE
  5
3D4
100
AcDbEntity
  8
0
100
AcDbEllipse
 62
7
  6
CONTINUOUS
 10
210.532891757
 20
283.1146881402
 30
0.0
 11
0.0
 21
134.8086231314
 31
0.0
 40
0.3263886165
 41
-1.7652003492
 42
-1.7594127185
  0
ELLIPSE
  5
3D5
100
AcDbEntity
  8
0
100
AcDbEllipse
 62
7
  6
CONTINUOUS
 10
210.532891757
 20
265.7529591067
 30
0.0
 11
-0.0
 21
44.9361434287
 31
0.0
 40
0.9791672503
 41
-1.7767956536
 42
-1.7652003492
  0
ELLIPSE
  5
3D6
100
AcDbEntity
  8
0
100
AcDbEllipse
 62
7
  6
CONTINUOUS
 10
210.532891757
 20
259.6253044833
 30
0.0
 11
44.0
 21
-0.0
 31
0.0
 40
0.3404254913
 41
-0.2234456423
 42
-0.2059993268
  0
ELLIPSE
  5
3D7
100
AcDbEntity
  8
0
100
AcDbEllipse
 62
7
  6
CONTINUOUS
 10
210.532891757
 20
243.8380704103
 30
0.0
 11
44.5
 21
-0.0
 31
0.0
 40
0.3404254913
 41
-0.1012967307
 42
-0.0843697107
  0
ELLIPSE
  5
3D8
100
AcDbEntity
  8
0
100
AcDbEllipse
 62
7
  6
CONTINUOUS
 10
210.532891757
 20
246.391264923
 30
0.0
 11
-0.0
 21
45.4468464344
 31
0.0
 40
0.9791658496
 41
-1.6551660375
 42
-1.643895117
  0
ELLIPSE
  5
3D9
100
AcDbEntity
  8
0
100
AcDbEllipse
 62
7
  6
CONTINUOUS
 10
210.532891757
 20
253.0295398463
 30
0.0
 11
0.0
 21
136.3401492307
 31
0.0
 40
0.3263895503
 41
-1.643895117
 42
-1.6382632172
  0
ELLIPSE
  5
3DA
100
AcDbEntity
  8
0
100
AcDbEllipse
 62
7
  6
CONTINUOUS
 10
210.532891757
 20
227.2955153989
 30
0.0
 11
0.0
 21
119.2978811442
 31
0.0
 40
0.3730158455
 41
-1.384324278
 42
-1.3383722625
  0
ENDSEC
  0
SECTION
  2
OBJECTS
  0
DICTIONARY
  5
C
100
AcDbDictionary
280
0
281
1
  3
ACAD_GROUP
350
D
  3
ACAD_MLINESTYLE
350
17
  3
ACAD_LAYOUT
350
1A
  3
ACAD_PLOTSETTINGS
350
19
  3
ACAD_PLOTSTYLENAME
350
E
  0
DICTIONARY
  5
D
102
{ACAD_REACTORS
330
C
102
}
100
AcDbDictionary
280
0
281
1
  0
ACDBDICTIONARYWDFLT
  5
E
102
{ACAD_REACTORS
330
C
102
}
100
AcDbDictionary
281
1
  3
Normal
350
F
100
AcDbDictionaryWithDefault
340
F
  0
DICTIONARY
  5
17
102
{ACAD_REACTORS
330
C
102
}
100
AcDbDictionary
280
0
281
1
  3
Standard
350
18
  0
DICTIONARY
  5
19
102
{ACAD_REACTORS
330
C
102
}
100
AcDbDictionary
281
1
  0
DICTIONARY
  5
1A
102
{ACAD_REACTORS
330
C
102
}
100
AcDbDictionary
281
1
  3
Model
350
3DB
  3
Layout1
350
3DC
  0
ACDBPLACEHOLDER
  5
F
102
{ACAD_REACTORS
330
E
102
}
  0
MLINESTYLE
  5
18
102
{ACAD_REACTORS
330
17
102
}
100
AcDbMlineStyle
  2
STANDARD
 70
0
  3

 62
256
 51
90.0
 52
90.0
 71
2
 49
0.5
 62
256
  6
BYLAYER
 49
-0.5
 62
256
  6
BYLAYER
  0
LAYOUT
  5
3DB
102
{ACAD_REACTORS
330
1A
102
}
100
AcDbPlotSettings
  1

  2
none_device
  4
ISO_A2_(594.00_x_420.00_MM)
  6

 40
0.0
 41
0.0
 42
0.0
 43
0.0
 44
594.0
 45
420.0
 46
0.0
 47
0.0
 48
0.0
 49
0.0
140
0.0
141
0.0
142
1.0
143
1.0
 70
1024
 72
1
 73
0
 74
0
  7

 75
0
147
1.0
148
0.0
149
0.0
100
AcDbLayout
  1
Model
 70
0
 71
0
 10
0.0
 20
0.0
 11
594.0
 21
420.0
 12
0.0
 22
0.0
 32
0.0
 14
0.0
 24
0.0
 34
0.0
 15
0.0
 25
0.0
 35
0.0
146
0.0
 13
0.0
 23
0.0
 33
0.0
 16
1.0
 26
0.0
 36
0.0
 17
0.0
 27
1.0
 37
0.0
 76
0
330
209
345
0
346
0
  0
LAYOUT
  5
3DC
102
{ACAD_REACTORS
330
1A
102
}
100
AcDbPlotSettings
  1

  2
none_device
  4
ISO_A2_(594.00_x_420.00_MM)
  6

 40
0.0
 41
0.0
 42
0.0
 43
0.0
 44
594.0
 45
420.0
 46
0.0
 47
0.0
 48
0.0
 49
0.0
140
0.0
141
0.0
142
1.0
143
1.0
 70
0
 72
1
 73
0
 74
0
  7

 75
0
147
1.0
148
0.0
149
0.0
100
AcDbLayout
  1
Layout1
 70
0
 71
1
 10
0.0
 20
0.0
 11
594.0
 21
420.0
 12
0.0
 22
0.0
 32
0.0
 14
0.0
 24
0.0
 34
0.0
 15
0.0
 25
0.0
 35
0.0
146
0.0
 13
0.0
 23
0.0
 33
0.0
 16
1.0
 26
0.0
 36
0.0
 17
0.0
 27
1.0
 37
0.0
 76
0
330
20A
345
0
346
0
  0
ENDSEC
  0
EOF
