999
DXF file: 001-m31395-p-50.dxf
999
Pro/ENGINEER 2011490 by Parametric Technology Corporation
  0
SECTION
  2
HEADER
  9
$ACADVER
  1
AC1015
  9
$DWGCODEPAGE
  3
ANSI_1252
  9
$EXTMAX
 10
420.0
 20
297.0
 30
0.0
  9
$EXTMIN
 10
0.0
 20
0.0
 30
0.0
  9
$LIMMIN
 10
0.0
 20
0.0
  9
$LIMMAX
 10
420.0
 20
297.0
  9
$VIEWCTR
 10
210.0
 20
148.5
  9
$VIEWSIZE
 40
297.0
  9
$CLAYER
  8
0
  9
$LTSCALE
 40
23.1
  9
$CELTYPE
  6
BYLAYER
  9
$DIMSCALE
 40
1.0
  9
$DIMASZ
 40
3.5
  9
$DIMEXO
 40
2.625
  9
$DIMDLI
 40
15.96
  9
$DIMEXE
 40
7.56
  9
$DIMCEN
 40
3.78
  9
$DIMLFAC
 40
1.0
  9
$DIMBLK
  1
_FILLED
  9
$DIMTXT
 40
3.5
  9
$DIMTOL
 70
1
  9
$DIMLIM
 70
0
  9
$DIMTFAC
 40
1.0
  9
$DIMTP
 40
0.005
  9
$DIMTM
 40
0.005
  9
$PDMODE
 70
3
  9
$PDSIZE
 40
0.3125
  9
$HANDSEED
  5
3D2
  9
$TILEMODE
 70
1
  9
$MEASUREMENT
 70
1
  9
$INSUNITS
 70
4
  0
ENDSEC
  0
SECTION
  2
CLASSES
  0
CLASS
  1
ACDBDICTIONARYWDFLT
  2
AcDbDictionaryWithDefault
  3
AutoCAD 2000
 90
0
280
0
281
0
  0
CLASS
  1
ACDBPLACEHOLDER
  2
AcDbPlaceHolder
  3
AutoCAD 2000
 90
0
280
0
281
0
  0
CLASS
  1
LAYOUT
  2
AcDbLayout
  3
AutoCAD 2000
 90
0
280
0
281
0
  0
ENDSEC
  0
SECTION
  2
TABLES
  0
TABLE
  2
VPORT
  5
8
100
AcDbSymbolTable
 70
2
  0
VPORT
  5
1F4
100
AcDbSymbolTableRecord
100
AcDbViewportTableRecord
  2
*ACTIVE
 70
0
 10
0.0
 20
0.0
 11
1.0
 21
1.0
 12
210.0
 22
148.5
 13
0.0
 23
0.0
 14
1.0
 24
1.0
 15
0.0
 25
0.0
 16
0.0
 26
0.0
 36
1.0
 17
0.0
 27
0.0
 37
0.0
 40
297.0
 41
1.4141414141
 42
50.0
 43
0.0
 44
0.0
 50
0.0
 51
0.0
 71
0
 72
100
 73
1
 74
1
 75
0
 76
0
 77
0
 78
0
  0
ENDTAB
  0
TABLE
  2
LTYPE
  5
5
100
AcDbSymbolTable
 70
6
  0
LTYPE
  5
14
100
AcDbSymbolTableRecord
100
AcDbLinetypeTableRecord
  2
BYBLOCK
 70
0
  3

 72
65
 73
0
 40
0.0
  0
LTYPE
  5
15
100
AcDbSymbolTableRecord
100
AcDbLinetypeTableRecord
  2
BYLAYER
 70
0
  3

 72
65
 73
0
 40
0.0
  0
LTYPE
  5
16
100
AcDbSymbolTableRecord
100
AcDbLinetypeTableRecord
  2
CONTINUOUS
 70
64
  3
Solid line
 72
65
 73
0
 40
0.0
  0
LTYPE
  5
1F5
100
AcDbSymbolTableRecord
100
AcDbLinetypeTableRecord
  2
CENTER
 70
64
  3
____ _ ____ _ ____ _ ____ _ ____ _ ____ _ ____
 72
65
 73
4
 40
0.6
 49
0.375
 74
0
 49
-0.075
 74
0
 49
0.075
 74
0
 49
-0.075
 74
0
  0
LTYPE
  5
1F6
100
AcDbSymbolTableRecord
100
AcDbLinetypeTableRecord
  2
HIDDEN
 70
64
  3
- - - - - - - - - - - - - - - - - - - -
 72
65
 73
2
 40
0.2
 49
0.1
 74
0
 49
-0.1
 74
0
  0
LTYPE
  5
1F7
100
AcDbSymbolTableRecord
100
AcDbLinetypeTableRecord
  2
PHANTOM
 70
64
  3
_____ _ _ _____ _ _ _____ _ _ _____
 72
65
 73
6
 40
0.8
 49
0.45
 74
0
 49
-0.05
 74
0
 49
0.1
 74
0
 49
-0.05
 74
0
 49
0.1
 74
0
 49
-0.05
 74
0
  0
LTYPE
  5
1F8
100
AcDbSymbolTableRecord
100
AcDbLinetypeTableRecord
  2
DOT
 70
64
  3
. . . . . . . . . . . . . . . . . . . .
 72
65
 73
2
 40
0.2
 49
0.1
 74
0
 49
-0.1
 74
0
  0
LTYPE
  5
1F9
100
AcDbSymbolTableRecord
100
AcDbLinetypeTableRecord
  2
DASHED
 70
64
  3
- - - - - - - - - - - - - - - - - - - -
 72
65
 73
2
 40
0.2
 49
0.1
 74
0
 49
-0.1
 74
0
  0
ENDTAB
  0
TABLE
  2
LAYER
  5
2
100
AcDbSymbolTable
 70
36
  0
LAYER
  5
10
100
AcDbSymbolTableRecord
100
AcDbLayerTableRecord
  2
0
 70
0
 62
7
  6
CONTINUOUS
370
-3
390
F
  0
LAYER
  5
1FA
100
AcDbSymbolTableRecord
100
AcDbLayerTableRecord
  2
DEFAULT_1
 70
0
 62
7
  6
CENTER
370
-3
390
F
  0
LAYER
  5
1FB
100
AcDbSymbolTableRecord
100
AcDbLayerTableRecord
  2
DEFAULT_2
 70
0
 62
8
  6
HIDDEN
370
-3
390
F
  0
LAYER
  5
1FC
100
AcDbSymbolTableRecord
100
AcDbLayerTableRecord
  2
DEFAULT_3
 70
0
 62
7
  6
PHANTOM
370
-3
390
F
  0
LAYER
  5
1FD
100
AcDbSymbolTableRecord
100
AcDbLayerTableRecord
  2
BEZUGSACHSEN
 70
0
 62
7
  6
CONTINUOUS
370
-3
390
F
  0
LAYER
  5
1FE
100
AcDbSymbolTableRecord
100
AcDbLayerTableRecord
  2
BEZUGSEBENEN
 70
0
 62
7
  6
CONTINUOUS
370
-3
390
F
  0
LAYER
  5
1FF
100
AcDbSymbolTableRecord
100
AcDbLayerTableRecord
  2
BG_STARTBEZUEGE
 70
0
 62
7
  6
CONTINUOUS
370
-3
390
F
  0
LAYER
  5
200
100
AcDbSymbolTableRecord
100
AcDbLayerTableRecord
  2
FASEN
 70
0
 62
7
  6
CONTINUOUS
370
-3
390
F
  0
LAYER
  5
201
100
AcDbSymbolTableRecord
100
AcDbLayerTableRecord
  2
HILFEN
 70
0
 62
7
  6
CONTINUOUS
370
-3
390
F
  0
LAYER
  5
202
100
AcDbSymbolTableRecord
100
AcDbLayerTableRecord
  2
NORM
 70
0
 62
7
  6
CONTINUOUS
370
-3
390
F
  0
LAYER
  5
203
100
AcDbSymbolTableRecord
100
AcDbLayerTableRecord
  2
PLATZIERUNG
 70
0
 62
7
  6
CONTINUOUS
370
-3
390
F
  0
LAYER
  5
204
100
AcDbSymbolTableRecord
100
AcDbLayerTableRecord
  2
RUNDUNGEN
 70
0
 62
7
  6
CONTINUOUS
370
-3
390
F
  0
LAYER
  5
205
100
AcDbSymbolTableRecord
100
AcDbLayerTableRecord
  2
T_STARTBEZUEGE
 70
0
 62
7
  6
CONTINUOUS
370
-3
390
F
  0
LAYER
  5
206
100
AcDbSymbolTableRecord
100
AcDbLayerTableRecord
  2
ZEICHNUNGSBEMASSUNGEN
 70
0
 62
7
  6
CONTINUOUS
370
-3
390
F
  0
ENDTAB
  0
TABLE
  2
STYLE
  5
3
100
AcDbSymbolTable
 70
1
  0
STYLE
  5
11
100
AcDbSymbolTableRecord
100
AcDbTextStyleTableRecord
  2
STANDARD
 70
0
 40
0.0
 41
0.7
 50
0.0
 71
0
 42
0.2
  3
txt
  4

  0
STYLE
  5
207
100
AcDbSymbolTableRecord
100
AcDbTextStyleTableRecord
  2
TEXTSTYLE_1
 70
0
 40
0.0
 41
0.8
 50
0.0
 71
0
 42
0.2
  3
gdt
  4

  0
ENDTAB
  0
TABLE
  2
VIEW
  5
6
100
AcDbSymbolTable
 70
0
  0
ENDTAB
  0
TABLE
  2
UCS
  5
7
100
AcDbSymbolTable
 70
0
  0
ENDTAB
  0
TABLE
  2
APPID
  5
9
100
AcDbSymbolTable
 70
1
  0
APPID
  5
208
100
AcDbSymbolTableRecord
100
AcDbRegAppTableRecord
  2
ACAD
 70
0
  0
ENDTAB
  0
TABLE
  2
BLOCK_RECORD
  5
1
100
AcDbSymbolTable
 70
0
  0
BLOCK_RECORD
  5
209
100
AcDbSymbolTableRecord
100
AcDbBlockTableRecord
  2
*Model_Space
  0
BLOCK_RECORD
  5
20A
100
AcDbSymbolTableRecord
100
AcDbBlockTableRecord
  2
*Paper_Space
  0
ENDTAB
  0
TABLE
  2
DIMSTYLE
  5
A
100
AcDbSymbolTable
 70
1
100
AcDbDimStyleTable
 71
0
  0
DIMSTYLE
105
20B
100
AcDbSymbolTableRecord
100
AcDbDimStyleTableRecord
  2
STANDARD
 70
0
  3

  4

 40
1.0
 41
3.5
 42
0.0625
 43
0.38
 44
0.18
 45
0.0
 46
0.0
 47
0.005
 48
0.005
140
3.5
141
0.09
142
0.0
143
25.4
144
1.0
145
0.0
146
1.0
147
0.09
 71
1.0
 72
0.0
 73
0
 74
0
 75
0
 76
0
 77
1
 78
8
170
0
171
2
172
0
173
0
174
0
175
0
176
0
177
0
178
5
270
2
271
3
272
3
273
2
274
2
275
0
280
0
281
0
282
0
283
1
284
8
285
0
286
0
287
3
288
0
340
11
  0
ENDTAB
  0
ENDSEC
  0
SECTION
  2
BLOCKS
  0
BLOCK
  5
20
100
AcDbEntity
  8
0
100
AcDbBlockBegin
  2
*Model_Space
 70
0
 10
0.0
 20
0.0
 30
0.0
  3
*Model_Space
  1

  0
ENDBLK
  5
21
100
AcDbEntity
  8
0
100
AcDbBlockEnd
  0
BLOCK
  5
1C
100
AcDbEntity
  8
0
100
AcDbBlockBegin
  2
*Paper_Space
 70
0
 10
0.0
 20
0.0
 30
0.0
  3
*Paper_Space
  1

  0
ENDBLK
  5
1D
100
AcDbEntity
  8
0
100
AcDbBlockEnd
  0
ENDSEC
  0
SECTION
  2
ENTITIES
  0
MTEXT
  5
20C
100
AcDbEntity
  8
0
100
AcDbMText
 62
5
  6
CONTINUOUS
  7
STANDARD
 71
2
 72
1
 10
126.4532023113
 20
59.3418699909
 30
0.0
 11
0.0
 21
1.0
 31
0.0
 44
0.9
  1
RUD WPPH\PVIP-13 5t
 40
10.0
 41
71.6666666667
  0
MTEXT
  5
20D
100
AcDbEntity
  8
0
100
AcDbMText
 62
5
  6
CONTINUOUS
  7
STANDARD
 71
2
 72
1
 10
301.4228900381
 20
197.0470779782
 30
0.0
 11
1.0
 21
0.0
 31
0.0
 44
0.9
  1
RUD\PWPPH 5t
 40
8.0
 41
46.2857142857
  0
LINE
  5
20E
100
AcDbEntity
  8
0
100
AcDbLine
 62
7
  6
CONTINUOUS
 10
0.0
 20
0.0
 11
0.0
 21
297.0
  0
LINE
  5
20F
100
AcDbEntity
  8
0
100
AcDbLine
 62
7
  6
CONTINUOUS
 10
0.0
 20
0.0
 11
420.0
 21
0.0
  0
LINE
  5
210
100
AcDbEntity
  8
0
100
AcDbLine
 62
7
  6
CONTINUOUS
 10
0.0
 20
297.0
 11
420.0
 21
297.0
  0
LINE
  5
211
100
AcDbEntity
  8
0
100
AcDbLine
 62
7
  6
CONTINUOUS
 10
420.0
 20
0.0
 11
420.0
 21
297.0
  0
LINE
  5
212
100
AcDbEntity
  8
0
100
AcDbLine
 62
7
  6
CONTINUOUS
 10
101.5608851672
 20
160.5042555087
 11
97.9856243894
 21
163.5042555087
  0
LINE
  5
213
100
AcDbEntity
  8
0
100
AcDbLine
 62
7
  6
CONTINUOUS
 10
101.5608851672
 20
160.5042555087
 11
176.9103636116
 21
160.5042555087
  0
LINE
  5
214
100
AcDbEntity
  8
0
100
AcDbLine
 62
7
  6
CONTINUOUS
 10
180.4856243894
 20
163.5042555087
 11
97.9856243894
 21
163.5042555087
  0
LINE
  5
215
100
AcDbEntity
  8
0
100
AcDbLine
 62
7
  6
CONTINUOUS
 10
177.2561780413
 20
165.3792555087
 11
177.9781639938
 21
165.3792555087
  0
LINE
  5
216
100
AcDbEntity
  8
0
100
AcDbLine
 62
7
  6
CONTINUOUS
 10
179.7864701728
 20
165.3792555087
 11
180.2332901004
 21
165.3792555087
  0
LINE
  5
217
100
AcDbEntity
  8
0
100
AcDbLine
 62
7
  6
CONTINUOUS
 10
180.4763430422
 20
168.6345745378
 11
180.7263989664
 21
168.6345745378
  0
LINE
  5
218
100
AcDbEntity
  8
0
100
AcDbLine
 62
7
  6
CONTINUOUS
 10
97.9856243894
 20
202.8792555087
 11
97.9856243894
 21
163.5042555087
  0
LINE
  5
219
100
AcDbEntity
  8
0
100
AcDbLine
 62
7
  6
CONTINUOUS
 10
180.6224712583
 20
169.4005321616
 11
180.2332901004
 21
169.4005321616
  0
LINE
  5
21A
100
AcDbEntity
  8
0
100
AcDbLine
 62
7
  6
CONTINUOUS
 10
179.1104284641
 20
169.4005321616
 11
177.9781639938
 21
169.4005321616
  0
LINE
  5
21B
100
AcDbEntity
  8
0
100
AcDbLine
 62
7
  6
CONTINUOUS
 10
180.6811835421
 20
169.5920215004
 11
180.7263989664
 21
169.5920215004
  0
LINE
  5
21C
100
AcDbEntity
  8
0
100
AcDbLine
 62
7
  6
CONTINUOUS
 10
180.6359187972
 20
170.5494681948
 11
180.2332901004
 21
170.5494681948
  0
LINE
  5
21D
100
AcDbEntity
  8
0
100
AcDbLine
 62
7
  6
CONTINUOUS
 10
179.1640270585
 20
170.5494681948
 11
177.9781639938
 21
170.5494681948
  0
LINE
  5
21E
100
AcDbEntity
  8
0
100
AcDbLine
 62
7
  6
CONTINUOUS
 10
179.0602398446
 20
170.7409575337
 11
179.3191309246
 21
170.7409575337
  0
LINE
  5
21F
100
AcDbEntity
  8
0
100
AcDbLine
 62
7
  6
CONTINUOUS
 10
180.4207533245
 20
170.7409575337
 11
180.6711447241
 21
170.7409575337
  0
LINE
  5
220
100
AcDbEntity
  8
0
100
AcDbLine
 62
7
  6
CONTINUOUS
 10
179.159575534
 20
171.1239362114
 11
179.4178266063
 21
171.1239362114
  0
LINE
  5
221
100
AcDbEntity
  8
0
100
AcDbLine
 62
7
  6
CONTINUOUS
 10
180.4400973717
 20
171.1239362114
 11
180.6903719311
 21
171.1239362114
  0
LINE
  5
222
100
AcDbEntity
  8
0
100
AcDbLine
 62
7
  6
CONTINUOUS
 10
179.2078314852
 20
171.6984042281
 11
179.4657727872
 21
171.6984042281
  0
LINE
  5
223
100
AcDbEntity
  8
0
100
AcDbLine
 62
7
  6
CONTINUOUS
 10
180.4484864746
 20
171.6984042281
 11
180.6987103967
 21
171.6984042281
  0
LINE
  5
224
100
AcDbEntity
  8
0
100
AcDbLine
 62
7
  6
CONTINUOUS
 10
179.2078314852
 20
172.2728727811
 11
179.4657727872
 21
172.2728727811
  0
LINE
  5
225
100
AcDbEntity
  8
0
100
AcDbLine
 62
7
  6
CONTINUOUS
 10
180.4484864746
 20
172.2728727811
 11
180.6987103967
 21
172.2728727811
  0
LINE
  5
226
100
AcDbEntity
  8
0
100
AcDbLine
 62
7
  6
CONTINUOUS
 10
179.159575534
 20
172.8473407977
 11
179.4178266063
 21
172.8473407977
  0
LINE
  5
227
100
AcDbEntity
  8
0
100
AcDbLine
 62
7
  6
CONTINUOUS
 10
180.4400973717
 20
172.8473407977
 11
180.6903719311
 21
172.8473407977
  0
LINE
  5
228
100
AcDbEntity
  8
0
100
AcDbLine
 62
7
  6
CONTINUOUS
 10
179.0602398446
 20
173.2303194755
 11
179.3191309246
 21
173.2303194755
  0
LINE
  5
229
100
AcDbEntity
  8
0
100
AcDbLine
 62
7
  6
CONTINUOUS
 10
180.4207533245
 20
173.2303194755
 11
180.6711447241
 21
173.2303194755
  0
LINE
  5
22A
100
AcDbEntity
  8
0
100
AcDbLine
 62
7
  6
CONTINUOUS
 10
180.6359187972
 20
173.4218088144
 11
180.2332901004
 21
173.4218088144
  0
LINE
  5
22B
100
AcDbEntity
  8
0
100
AcDbLine
 62
7
  6
CONTINUOUS
 10
179.1640270585
 20
173.4218088144
 11
177.9781639938
 21
173.4218088144
  0
LINE
  5
22C
100
AcDbEntity
  8
0
100
AcDbLine
 62
7
  6
CONTINUOUS
 10
177.2561780413
 20
174.3792555087
 11
179.1104284641
 21
174.3792555087
  0
LINE
  5
22D
100
AcDbEntity
  8
0
100
AcDbLine
 62
7
  6
CONTINUOUS
 10
179.7864701728
 20
174.3792555087
 11
180.6224712583
 21
174.3792555087
  0
LINE
  5
22E
100
AcDbEntity
  8
0
100
AcDbLine
 62
7
  6
CONTINUOUS
 10
179.2551508734
 20
179.3792555087
 11
179.7755352798
 21
179.3792555087
  0
LINE
  5
22F
100
AcDbEntity
  8
0
100
AcDbLine
 62
7
  6
CONTINUOUS
 10
180.2725265904
 20
179.3792555087
 11
180.7037974401
 21
179.3792555087
  0
LINE
  5
230
100
AcDbEntity
  8
0
100
AcDbLine
 62
7
  6
CONTINUOUS
 10
180.6304465858
 20
179.5707448644
 11
180.729929345
 21
179.5707448644
  0
LINE
  5
231
100
AcDbEntity
  8
0
100
AcDbLine
 62
7
  6
CONTINUOUS
 10
180.6195021873
 20
179.9537235924
 11
180.7355773256
 21
179.9537235924
  0
LINE
  5
232
100
AcDbEntity
  8
0
100
AcDbLine
 62
7
  6
CONTINUOUS
 10
180.5966806804
 20
180.719681015
 11
180.7276699443
 21
180.719681015
  0
LINE
  5
233
100
AcDbEntity
  8
0
100
AcDbLine
 62
7
  6
CONTINUOUS
 10
180.5717798016
 20
181.4856385046
 11
180.718631081
 21
181.4856385046
  0
LINE
  5
234
100
AcDbEntity
  8
0
100
AcDbLine
 62
7
  6
CONTINUOUS
 10
180.5372676249
 20
182.443085199
 11
180.7128395142
 21
182.443085199
  0
LINE
  5
235
100
AcDbEntity
  8
0
100
AcDbLine
 62
7
  6
CONTINUOUS
 10
180.3440461875
 20
183.4005321616
 11
179.7755352798
 21
183.4005321616
  0
LINE
  5
236
100
AcDbEntity
  8
0
100
AcDbLine
 62
7
  6
CONTINUOUS
 10
180.3941877979
 20
184.5494681948
 11
179.7755352798
 21
184.5494681948
  0
LINE
  5
237
100
AcDbEntity
  8
0
100
AcDbLine
 62
7
  6
CONTINUOUS
 10
180.2112268658
 20
184.7409575337
 11
180.4628908317
 21
184.7409575337
  0
LINE
  5
238
100
AcDbEntity
  8
0
100
AcDbLine
 62
7
  6
CONTINUOUS
 10
180.2529606632
 20
185.1239362114
 11
180.50437013
 21
185.1239362114
  0
LINE
  5
239
100
AcDbEntity
  8
0
100
AcDbLine
 62
7
  6
CONTINUOUS
 10
180.2725265904
 20
185.6984042281
 11
180.5238169177
 21
185.6984042281
  0
LINE
  5
23A
100
AcDbEntity
  8
0
100
AcDbLine
 62
7
  6
CONTINUOUS
 10
180.2725265904
 20
186.2728727811
 11
180.5238169177
 21
186.2728727811
  0
LINE
  5
23B
100
AcDbEntity
  8
0
100
AcDbLine
 62
7
  6
CONTINUOUS
 10
180.2529606632
 20
186.8473407977
 11
180.50437013
 21
186.8473407977
  0
LINE
  5
23C
100
AcDbEntity
  8
0
100
AcDbLine
 62
7
  6
CONTINUOUS
 10
180.2112268658
 20
187.2303194755
 11
180.4628908317
 21
187.2303194755
  0
LINE
  5
23D
100
AcDbEntity
  8
0
100
AcDbLine
 62
7
  6
CONTINUOUS
 10
180.3941877979
 20
187.4218088144
 11
179.7755352798
 21
187.4218088144
  0
LINE
  5
23E
100
AcDbEntity
  8
0
100
AcDbLine
 62
7
  6
CONTINUOUS
 10
179.2551508734
 20
188.3792555087
 11
180.3695519918
 21
188.3792555087
  0
LINE
  5
23F
100
AcDbEntity
  8
0
100
AcDbLine
 62
7
  6
CONTINUOUS
 10
180.4627013475
 20
188.3792555087
 11
180.7348713727
 21
188.3792555087
  0
LINE
  5
240
100
AcDbEntity
  8
0
100
AcDbLine
 62
7
  6
CONTINUOUS
 10
120.2356243894
 20
223.6393764241
 11
120.2356243894
 21
229.9992555087
  0
LINE
  5
241
100
AcDbEntity
  8
0
100
AcDbLine
 62
7
  6
CONTINUOUS
 10
120.2356243894
 20
232.3994855458
 11
120.2356243894
 21
239.8992552703
  0
LINE
  5
242
100
AcDbEntity
  8
RUNDUNGEN
100
AcDbLine
 62
7
  6
CONTINUOUS
 10
120.7356243894
 20
247.3792555087
 11
120.7356243894
 21
210.8792917759
  0
LINE
  5
243
100
AcDbEntity
  8
RUNDUNGEN
100
AcDbLine
 62
7
  6
CONTINUOUS
 10
177.4856243894
 20
205.8792555087
 11
162.7356235736
 21
205.8792555087
  0
LINE
  5
244
100
AcDbEntity
  8
RUNDUNGEN
100
AcDbLine
 62
7
  6
CONTINUOUS
 10
115.7356259832
 20
205.8792555087
 11
100.9856243894
 21
205.8792555087
  0
LINE
  5
245
100
AcDbEntity
  8
0
100
AcDbLine
 62
7
  6
CONTINUOUS
 10
120.7356243894
 20
223.6392555087
 11
120.2356243894
 21
223.6392555087
  0
LINE
  5
246
100
AcDbEntity
  8
0
100
AcDbLine
 62
7
  6
CONTINUOUS
 10
120.7356243894
 20
223.9584160614
 11
120.2356243894
 21
223.9584160614
  0
LINE
  5
247
100
AcDbEntity
  8
0
100
AcDbLine
 62
7
  6
CONTINUOUS
 10
120.7356243894
 20
224.5492555087
 11
120.2356243894
 21
224.5492555087
  0
LINE
  5
248
100
AcDbEntity
  8
0
100
AcDbLine
 62
7
  6
CONTINUOUS
 10
120.7356243894
 20
224.9836797938
 11
120.2356243894
 21
224.9836797938
  0
LINE
  5
249
100
AcDbEntity
  8
0
100
AcDbLine
 62
7
  6
CONTINUOUS
 10
120.7356243894
 20
225.5992555087
 11
120.2356243894
 21
225.5992555087
  0
LINE
  5
24A
100
AcDbEntity
  8
RUNDUNGEN
100
AcDbLine
 62
7
  6
CONTINUOUS
 10
157.7356243894
 20
210.8793243451
 11
157.7356243894
 21
247.3792555087
  0
LINE
  5
24B
100
AcDbEntity
  8
0
100
AcDbLine
 62
7
  6
CONTINUOUS
 10
120.7356243894
 20
229.9992555087
 11
120.2356243894
 21
229.9992555087
  0
LINE
  5
24C
100
AcDbEntity
  8
0
100
AcDbLine
 62
7
  6
CONTINUOUS
 10
120.7356243894
 20
232.3992555087
 11
120.2356243894
 21
232.3992555087
  0
LINE
  5
24D
100
AcDbEntity
  8
0
100
AcDbLine
 62
7
  6
CONTINUOUS
 10
120.7356243894
 20
236.7992555087
 11
120.2356243894
 21
236.7992555087
  0
LINE
  5
24E
100
AcDbEntity
  8
0
100
AcDbLine
 62
7
  6
CONTINUOUS
 10
120.7356243894
 20
237.1492553895
 11
120.2356243894
 21
237.1492553895
  0
LINE
  5
24F
100
AcDbEntity
  8
0
100
AcDbLine
 62
7
  6
CONTINUOUS
 10
120.7356243894
 20
238.1492555087
 11
120.2356243894
 21
238.1492555087
  0
LINE
  5
250
100
AcDbEntity
  8
0
100
AcDbLine
 62
7
  6
CONTINUOUS
 10
120.7356243894
 20
238.6492553895
 11
120.2356243894
 21
238.6492553895
  0
LINE
  5
251
100
AcDbEntity
  8
0
100
AcDbLine
 62
7
  6
CONTINUOUS
 10
120.7356243894
 20
239.1492552703
 11
120.2356243894
 21
239.1492552703
  0
LINE
  5
252
100
AcDbEntity
  8
0
100
AcDbLine
 62
7
  6
CONTINUOUS
 10
120.7356243894
 20
239.5242552703
 11
120.2356243894
 21
239.5242552703
  0
LINE
  5
253
100
AcDbEntity
  8
0
100
AcDbLine
 62
7
  6
CONTINUOUS
 10
120.7356243894
 20
239.7742557472
 11
120.2356243894
 21
239.7742557472
  0
LINE
  5
254
100
AcDbEntity
  8
0
100
AcDbLine
 62
7
  6
CONTINUOUS
 10
120.7356243894
 20
239.8992552703
 11
120.2356243894
 21
239.8992552703
  0
LINE
  5
255
100
AcDbEntity
  8
0
100
AcDbLine
 62
7
  6
CONTINUOUS
 10
177.2561780413
 20
174.3792555087
 11
177.2561780413
 21
165.3792555087
  0
LINE
  5
256
100
AcDbEntity
  8
0
100
AcDbLine
 62
7
  6
CONTINUOUS
 10
177.5272683865
 20
174.3792555087
 11
177.5272683865
 21
165.3792555087
  0
LINE
  5
257
100
AcDbEntity
  8
0
100
AcDbLine
 62
7
  6
CONTINUOUS
 10
177.9781639938
 20
173.4218088144
 11
177.9781639938
 21
170.5494681948
  0
LINE
  5
258
100
AcDbEntity
  8
0
100
AcDbLine
 62
7
  6
CONTINUOUS
 10
177.9781639938
 20
169.4005321616
 11
177.9781639938
 21
165.3792555087
  0
LINE
  5
259
100
AcDbEntity
  8
0
100
AcDbLine
 62
7
  6
CONTINUOUS
 10
179.2078314852
 20
172.2728727811
 11
179.2078314852
 21
171.6984042281
  0
LINE
  5
25A
100
AcDbEntity
  8
0
100
AcDbLine
 62
7
  6
CONTINUOUS
 10
179.2551508734
 20
188.3792555087
 11
179.2551508734
 21
179.3792555087
  0
LINE
  5
25B
100
AcDbEntity
  8
0
100
AcDbLine
 62
7
  6
CONTINUOUS
 10
179.4657727872
 20
172.2728727811
 11
179.4657727872
 21
171.6984042281
  0
LINE
  5
25C
100
AcDbEntity
  8
0
100
AcDbLine
 62
7
  6
CONTINUOUS
 10
179.5127891357
 20
188.3792555087
 11
179.5127891357
 21
179.3792555087
  0
LINE
  5
25D
100
AcDbEntity
  8
0
100
AcDbLine
 62
7
  6
CONTINUOUS
 10
179.7340328829
 20
172.2728727811
 11
179.7340328829
 21
171.5069148892
  0
LINE
  5
25E
100
AcDbEntity
  8
0
100
AcDbLine
 62
7
  6
CONTINUOUS
 10
179.7755352798
 20
187.4218088144
 11
179.7755352798
 21
184.5494681948
  0
LINE
  5
25F
100
AcDbEntity
  8
0
100
AcDbLine
 62
7
  6
CONTINUOUS
 10
179.7755352798
 20
183.4005321616
 11
179.7755352798
 21
179.3792555087
  0
LINE
  5
260
100
AcDbEntity
  8
0
100
AcDbLine
 62
7
  6
CONTINUOUS
 10
179.7864701728
 20
174.3792555087
 11
179.7864701728
 21
165.3792555087
  0
LINE
  5
261
100
AcDbEntity
  8
0
100
AcDbLine
 62
7
  6
CONTINUOUS
 10
180.0407538923
 20
174.3792555087
 11
180.0407538923
 21
165.3792555087
  0
LINE
  5
262
100
AcDbEntity
  8
0
100
AcDbLine
 62
7
  6
CONTINUOUS
 10
180.7356243745
 20
179.9218076355
 11
180.7355773256
 21
179.9537235924
  0
LINE
  5
263
100
AcDbEntity
  8
0
100
AcDbLine
 62
7
  6
CONTINUOUS
 10
180.2332901004
 20
173.4218088144
 11
180.2332901004
 21
170.5494681948
  0
LINE
  5
264
100
AcDbEntity
  8
0
100
AcDbLine
 62
7
  6
CONTINUOUS
 10
180.2332901004
 20
169.4005321616
 11
180.2332901004
 21
165.3792555087
  0
LINE
  5
265
100
AcDbEntity
  8
0
100
AcDbLine
 62
7
  6
CONTINUOUS
 10
180.2725265904
 20
186.2728727811
 11
180.2725265904
 21
185.6984042281
  0
LINE
  5
266
100
AcDbEntity
  8
0
100
AcDbLine
 62
7
  6
CONTINUOUS
 10
180.4484864746
 20
172.2728727811
 11
180.4484864746
 21
171.6984042281
  0
LINE
  5
267
100
AcDbEntity
  8
0
100
AcDbLine
 62
7
  6
CONTINUOUS
 10
180.4627013475
 20
188.3792555087
 11
180.4627013475
 21
188.2262096349
  0
LINE
  5
268
100
AcDbEntity
  8
0
100
AcDbLine
 62
7
  6
CONTINUOUS
 10
180.4856243894
 20
202.8792555087
 11
180.4856243894
 21
188.3792555087
  0
LINE
  5
269
100
AcDbEntity
  8
0
100
AcDbLine
 62
7
  6
CONTINUOUS
 10
180.4856243894
 20
179.3792555087
 11
180.4856243894
 21
174.3792555087
  0
LINE
  5
26A
100
AcDbEntity
  8
0
100
AcDbLine
 62
7
  6
CONTINUOUS
 10
180.4856243894
 20
169.4005321616
 11
180.4856243894
 21
163.5042555087
  0
LINE
  5
26B
100
AcDbEntity
  8
0
100
AcDbLine
 62
7
  6
CONTINUOUS
 10
180.5238169177
 20
186.2728727811
 11
180.5238169177
 21
185.6984042281
  0
LINE
  5
26C
100
AcDbEntity
  8
0
100
AcDbLine
 62
7
  6
CONTINUOUS
 10
180.6224712451
 20
186.2728727811
 11
180.6224712451
 21
185.5069148892
  0
LINE
  5
26D
100
AcDbEntity
  8
0
100
AcDbLine
 62
7
  6
CONTINUOUS
 10
180.6987103967
 20
172.2728727811
 11
180.6987103967
 21
171.6984042281
  0
LINE
  5
26E
100
AcDbEntity
  8
0
100
AcDbLine
 62
7
  6
CONTINUOUS
 10
180.7128395142
 20
188.3792555087
 11
180.7128395142
 21
182.443085199
  0
LINE
  5
26F
100
AcDbEntity
  8
0
100
AcDbLine
 62
7
  6
CONTINUOUS
 10
180.7263989664
 20
169.5920215004
 11
180.7263989664
 21
168.6345745378
  0
LINE
  5
270
100
AcDbEntity
  8
0
100
AcDbLine
 62
7
  6
CONTINUOUS
 10
180.7309178026
 20
172.2728727811
 11
180.7309178026
 21
171.5069148892
  0
LINE
  5
271
100
AcDbEntity
  8
0
100
AcDbLine
 62
7
  6
CONTINUOUS
 10
180.7348713727
 20
188.3792555087
 11
180.7348713727
 21
182.443085199
  0
LINE
  5
272
100
AcDbEntity
  8
0
100
AcDbLine
 62
7
  6
CONTINUOUS
 10
180.7355773256
 20
181.6771278435
 11
180.7356243894
 21
180.719681015
  0
LINE
  5
273
100
AcDbEntity
  8
0
100
AcDbLine
 62
7
  6
CONTINUOUS
 10
176.9103636116
 20
160.5042555087
 11
180.4856243894
 21
163.5042555087
  0
LINE
  5
274
100
AcDbEntity
  8
0
100
AcDbLine
 62
7
  6
CONTINUOUS
 10
263.5590533445
 20
160.5042555087
 11
259.9837925667
 21
163.5042555087
  0
LINE
  5
275
100
AcDbEntity
  8
RUNDUNGEN
100
AcDbLine
 62
7
  6
CONTINUOUS
 10
275.5622556506
 20
264.8076197909
 11
269.6856592373
 21
257.8041649031
  0
LINE
  5
276
100
AcDbEntity
  8
0
100
AcDbLine
 62
7
  6
CONTINUOUS
 10
263.5590533445
 20
160.5042555087
 11
338.9085317889
 21
160.5042555087
  0
LINE
  5
277
100
AcDbEntity
  8
0
100
AcDbLine
 62
7
  6
CONTINUOUS
 10
342.4837925667
 20
163.5042555087
 11
259.9837925667
 21
163.5042555087
  0
LINE
  5
278
100
AcDbEntity
  8
0
100
AcDbLine
 62
7
  6
CONTINUOUS
 10
259.9837925667
 20
222.0754079314
 11
259.9837925667
 21
163.5042555087
  0
LINE
  5
279
100
AcDbEntity
  8
RUNDUNGEN
100
AcDbLine
 62
7
  6
CONTINUOUS
 10
260.3857163553
 20
223.5754079314
 11
268.5148814799
 21
237.6555349504
  0
LINE
  5
27A
100
AcDbEntity
  8
0
100
AcDbLine
 62
7
  6
CONTINUOUS
 10
275.9297499222
 20
238.5242555087
 11
276.1850690407
 21
238.8992555087
  0
LINE
  5
27B
100
AcDbEntity
  8
0
100
AcDbLine
 62
7
  6
CONTINUOUS
 10
276.0574094814
 20
239.6492555087
 11
275.5467712444
 21
239.1492552703
  0
LINE
  5
27C
100
AcDbEntity
  8
0
100
AcDbLine
 62
7
  6
CONTINUOUS
 10
276.1850690407
 20
238.8992555087
 11
276.5680477184
 21
239.1492552703
  0
LINE
  5
27D
100
AcDbEntity
  8
RUNDUNGEN
100
AcDbLine
 62
7
  6
CONTINUOUS
 10
268.9837925667
 20
239.4055349504
 11
268.9837925667
 21
255.8758020741
  0
LINE
  5
27E
100
AcDbEntity
  8
0
100
AcDbLine
 62
7
  6
CONTINUOUS
 10
278.3552819055
 20
239.5242552703
 11
278.099962787
 21
238.8992555087
  0
LINE
  5
27F
100
AcDbEntity
  8
0
100
AcDbLine
 62
7
  6
CONTINUOUS
 10
275.5467712444
 20
239.1492552703
 11
275.2914521259
 21
238.6492553895
  0
LINE
  5
280
100
AcDbEntity
  8
0
100
AcDbLine
 62
7
  6
CONTINUOUS
 10
278.4829414648
 20
238.6492553895
 11
278.7382605833
 21
239.0242557472
  0
LINE
  5
281
100
AcDbEntity
  8
0
100
AcDbLine
 62
7
  6
CONTINUOUS
 10
280.2701755625
 20
236.3992553895
 11
280.0148563546
 21
236.1492556279
  0
LINE
  5
282
100
AcDbEntity
  8
0
100
AcDbLine
 62
7
  6
CONTINUOUS
 10
278.7382605833
 20
239.7742557472
 11
278.3552819055
 21
239.5242552703
  0
LINE
  5
283
100
AcDbEntity
  8
0
100
AcDbLine
 62
7
  6
CONTINUOUS
 10
278.7382605833
 20
239.0242557472
 11
279.2488989991
 21
239.2742555087
  0
LINE
  5
284
100
AcDbEntity
  8
0
100
AcDbLine
 62
7
  6
CONTINUOUS
 10
275.2914521259
 20
238.6492553895
 11
275.1637925667
 21
237.7742555087
  0
LINE
  5
285
100
AcDbEntity
  8
0
100
AcDbLine
 62
7
  6
CONTINUOUS
 10
278.3552819055
 20
237.8992553895
 11
278.4829414648
 21
238.6492553895
  0
LINE
  5
286
100
AcDbEntity
  8
0
100
AcDbLine
 62
7
  6
CONTINUOUS
 10
275.8020903629
 20
237.8992553895
 11
275.9297499222
 21
238.5242555087
  0
LINE
  5
287
100
AcDbEntity
  8
0
100
AcDbLine
 62
7
  6
CONTINUOUS
 10
280.3978351218
 20
236.6492555087
 11
280.2701755625
 21
236.3992553895
  0
LINE
  5
288
100
AcDbEntity
  8
0
100
AcDbLine
 62
7
  6
CONTINUOUS
 10
280.7808138442
 20
236.1492556279
 11
281.0361329962
 21
236.6492555087
  0
LINE
  5
289
100
AcDbEntity
  8
0
100
AcDbLine
 62
7
  6
CONTINUOUS
 10
280.525494681
 20
235.7742554491
 11
280.7808138442
 21
236.1492556279
  0
LINE
  5
28A
100
AcDbEntity
  8
0
100
AcDbLine
 62
7
  6
CONTINUOUS
 10
275.1169877472
 20
229.6892555087
 11
274.6485963227
 21
229.1690541309
  0
LINE
  5
28B
100
AcDbEntity
  8
0
100
AcDbLine
 62
7
  6
CONTINUOUS
 10
280.1425160033
 20
235.5242555087
 11
280.525494681
 21
235.7742554491
  0
LINE
  5
28C
100
AcDbEntity
  8
0
100
AcDbLine
 62
7
  6
CONTINUOUS
 10
280.0148563546
 20
236.1492556279
 11
279.7595372361
 21
236.0242553895
  0
LINE
  5
28D
100
AcDbEntity
  8
0
100
AcDbLine
 62
7
  6
CONTINUOUS
 10
279.7595372361
 20
235.3992554491
 11
280.1425160033
 21
235.5242555087
  0
LINE
  5
28E
100
AcDbEntity
  8
0
100
AcDbLine
 62
7
  6
CONTINUOUS
 10
275.1637925667
 20
237.7742555087
 11
275.1637925667
 21
237.5242553895
  0
LINE
  5
28F
100
AcDbEntity
  8
0
100
AcDbLine
 62
7
  6
CONTINUOUS
 10
275.1637925667
 20
234.3992555087
 11
275.1637925667
 21
233.6492555087
  0
LINE
  5
290
100
AcDbEntity
  8
0
100
AcDbLine
 62
7
  6
CONTINUOUS
 10
275.8020903629
 20
237.3992555087
 11
275.8020903629
 21
237.8992553895
  0
LINE
  5
291
100
AcDbEntity
  8
0
100
AcDbLine
 62
7
  6
CONTINUOUS
 10
276.5680477184
 20
235.5242555087
 11
276.5680477184
 21
236.1492556279
  0
LINE
  5
292
100
AcDbEntity
  8
0
100
AcDbLine
 62
7
  6
CONTINUOUS
 10
277.8446436685
 20
237.8992553895
 11
277.8446436685
 21
237.3992555087
  0
LINE
  5
293
100
AcDbEntity
  8
0
100
AcDbLine
 62
7
  6
CONTINUOUS
 10
278.3552819055
 20
237.3992555087
 11
278.3552819055
 21
237.8992553895
  0
LINE
  5
294
100
AcDbEntity
  8
0
100
AcDbLine
 62
7
  6
CONTINUOUS
 10
280.525494681
 20
237.2742556279
 11
280.3978351218
 21
236.6492555087
  0
LINE
  5
295
100
AcDbEntity
  8
0
100
AcDbLine
 62
7
  6
CONTINUOUS
 10
281.0361329962
 20
236.6492555087
 11
281.1637925667
 21
237.1492553895
  0
LINE
  5
296
100
AcDbEntity
  8
0
100
AcDbLine
 62
7
  6
CONTINUOUS
 10
280.5450782225
 20
223.9584160614
 11
280.9406107579
 21
224.5492555087
  0
LINE
  5
297
100
AcDbEntity
  8
RUNDUNGEN
100
AcDbLine
 62
7
  6
CONTINUOUS
 10
293.5757496889
 20
237.1684136743
 11
291.1968961534
 21
235.0264843302
  0
LINE
  5
298
100
AcDbEntity
  8
0
100
AcDbLine
 62
7
  6
CONTINUOUS
 10
275.1637925667
 20
237.5242553895
 11
275.2914521259
 21
236.6492555087
  0
LINE
  5
299
100
AcDbEntity
  8
0
100
AcDbLine
 62
7
  6
CONTINUOUS
 10
279.7595372361
 20
236.0242553895
 11
279.7595372361
 21
235.3992554491
  0
LINE
  5
29A
100
AcDbEntity
  8
0
100
AcDbLine
 62
7
  6
CONTINUOUS
 10
280.525494681
 20
238.0242556279
 11
280.525494681
 21
237.2742556279
  0
LINE
  5
29B
100
AcDbEntity
  8
0
100
AcDbLine
 62
7
  6
CONTINUOUS
 10
281.1637925667
 20
233.6492555087
 11
281.1637925667
 21
234.3992555087
  0
LINE
  5
29C
100
AcDbEntity
  8
0
100
AcDbLine
 62
7
  6
CONTINUOUS
 10
281.1637925667
 20
237.1492553895
 11
281.1637925667
 21
238.1492555087
  0
LINE
  5
29D
100
AcDbEntity
  8
0
100
AcDbLine
 62
7
  6
CONTINUOUS
 10
275.9297499222
 20
236.7742553895
 11
275.8020903629
 21
237.3992555087
  0
LINE
  5
29E
100
AcDbEntity
  8
0
100
AcDbLine
 62
7
  6
CONTINUOUS
 10
277.58932455
 20
238.6492553895
 11
277.8446436685
 21
237.8992553895
  0
LINE
  5
29F
100
AcDbEntity
  8
0
100
AcDbLine
 62
7
  6
CONTINUOUS
 10
281.1637925667
 20
238.1492555087
 11
281.0361329962
 21
238.6492553895
  0
LINE
  5
2A0
100
AcDbEntity
  8
0
100
AcDbLine
 62
7
  6
CONTINUOUS
 10
280.3978351218
 20
238.6492553895
 11
280.525494681
 21
238.0242556279
  0
LINE
  5
2A1
100
AcDbEntity
  8
0
100
AcDbLine
 62
7
  6
CONTINUOUS
 10
275.2914521259
 20
236.6492555087
 11
275.5467712444
 21
236.1492556279
  0
LINE
  5
2A2
100
AcDbEntity
  8
RUNDUNGEN
100
AcDbLine
 62
7
  6
CONTINUOUS
 10
294.7337925667
 20
239.7694205635
 11
294.7337925667
 21
259.5921977785
  0
LINE
  5
2A3
100
AcDbEntity
  8
RUNDUNGEN
100
AcDbLine
 62
7
  6
CONTINUOUS
 10
331.4134628763
 20
205.8792555087
 11
271.054122257
 21
205.8792555087
  0
LINE
  5
2A4
100
AcDbEntity
  8
0
100
AcDbLine
 62
7
  6
CONTINUOUS
 10
274.6485963227
 20
229.1690541309
 11
275.3725471646
 21
228.517205865
  0
LINE
  5
2A5
100
AcDbEntity
  8
0
100
AcDbLine
 62
7
  6
CONTINUOUS
 10
275.8610981321
 20
229.0192555087
 11
275.1169877472
 21
229.6892555087
  0
LINE
  5
2A6
100
AcDbEntity
  8
0
100
AcDbLine
 62
7
  6
CONTINUOUS
 10
276.1850690407
 20
236.3992553895
 11
275.9297499222
 21
236.7742553895
  0
LINE
  5
2A7
100
AcDbEntity
  8
0
100
AcDbLine
 62
7
  6
CONTINUOUS
 10
280.2701755625
 20
238.8992555087
 11
280.3978351218
 21
238.6492553895
  0
LINE
  5
2A8
100
AcDbEntity
  8
0
100
AcDbLine
 62
7
  6
CONTINUOUS
 10
281.0361329962
 20
238.6492553895
 11
280.7808138442
 21
239.1492552703
  0
LINE
  5
2A9
100
AcDbEntity
  8
0
100
AcDbLine
 62
7
  6
CONTINUOUS
 10
280.9406107579
 20
224.5492555087
 11
280.2916755086
 21
224.9836797938
  0
LINE
  5
2AA
100
AcDbEntity
  8
0
100
AcDbLine
 62
7
  6
CONTINUOUS
 10
279.8359516294
 20
224.4492555087
 11
280.5450782225
 21
223.9584160614
  0
LINE
  5
2AB
100
AcDbEntity
  8
0
100
AcDbLine
 62
7
  6
CONTINUOUS
 10
275.1637925667
 20
233.6492555087
 11
276.0574094814
 21
232.8992555087
  0
LINE
  5
2AC
100
AcDbEntity
  8
0
100
AcDbLine
 62
7
  6
CONTINUOUS
 10
277.078686313
 20
232.8992555087
 11
276.1850690407
 21
233.6492555087
  0
LINE
  5
2AD
100
AcDbEntity
  8
0
100
AcDbLine
 62
7
  6
CONTINUOUS
 10
275.5467712444
 20
236.1492556279
 11
276.0574094814
 21
235.6492555683
  0
LINE
  5
2AE
100
AcDbEntity
  8
0
100
AcDbLine
 62
7
  6
CONTINUOUS
 10
278.099962787
 20
238.8992555087
 11
277.7169841093
 21
239.3992557472
  0
LINE
  5
2AF
100
AcDbEntity
  8
0
100
AcDbLine
 62
7
  6
CONTINUOUS
 10
280.7808138442
 20
239.1492552703
 11
280.525494681
 21
239.5242552703
  0
LINE
  5
2B0
100
AcDbEntity
  8
0
100
AcDbLine
 62
7
  6
CONTINUOUS
 10
277.3340054315
 20
238.8992555087
 11
277.58932455
 21
238.6492553895
  0
LINE
  5
2B1
100
AcDbEntity
  8
0
100
AcDbLine
 62
7
  6
CONTINUOUS
 10
280.0148563546
 20
239.1492552703
 11
280.2701755625
 21
238.8992555087
  0
LINE
  5
2B2
100
AcDbEntity
  8
RUNDUNGEN
100
AcDbLine
 62
7
  6
CONTINUOUS
 10
307.7337925667
 20
239.7694205635
 11
307.7337925667
 21
259.5921977785
  0
LINE
  5
2B3
100
AcDbEntity
  8
0
100
AcDbLine
 62
7
  6
CONTINUOUS
 10
276.5680477184
 20
236.1492556279
 11
276.1850690407
 21
236.3992553895
  0
LINE
  5
2B4
100
AcDbEntity
  8
0
100
AcDbLine
 62
7
  6
CONTINUOUS
 10
277.7169841093
 20
239.3992557472
 11
277.3340054315
 21
239.6492555087
  0
LINE
  5
2B5
100
AcDbEntity
  8
0
100
AcDbLine
 62
7
  6
CONTINUOUS
 10
276.8233671945
 20
239.1492552703
 11
277.3340054315
 21
238.8992555087
  0
LINE
  5
2B6
100
AcDbEntity
  8
0
100
AcDbLine
 62
7
  6
CONTINUOUS
 10
280.525494681
 20
239.5242552703
 11
280.1425160033
 21
239.7742557472
  0
LINE
  5
2B7
100
AcDbEntity
  8
0
100
AcDbLine
 62
7
  6
CONTINUOUS
 10
330.0124107714
 20
229.9992555087
 11
328.8037423151
 21
229.9992555087
  0
LINE
  5
2B8
100
AcDbEntity
  8
0
100
AcDbLine
 62
7
  6
CONTINUOUS
 10
323.2611797309
 20
229.9992555087
 11
322.0525112746
 21
229.9992555087
  0
LINE
  5
2B9
100
AcDbEntity
  8
0
100
AcDbLine
 62
7
  6
CONTINUOUS
 10
276.0574094814
 20
235.6492555683
 11
276.5680477184
 21
235.5242555087
  0
LINE
  5
2BA
100
AcDbEntity
  8
0
100
AcDbLine
 62
7
  6
CONTINUOUS
 10
279.7595372361
 20
239.2742555087
 11
280.0148563546
 21
239.1492552703
  0
LINE
  5
2BB
100
AcDbEntity
  8
0
100
AcDbLine
 62
7
  6
CONTINUOUS
 10
276.0574094814
 20
232.8992555087
 11
277.078686313
 21
232.8992555087
  0
LINE
  5
2BC
100
AcDbEntity
  8
0
100
AcDbLine
 62
7
  6
CONTINUOUS
 10
276.1850690407
 20
233.6492555087
 11
281.1637925667
 21
233.6492555087
  0
LINE
  5
2BD
100
AcDbEntity
  8
0
100
AcDbLine
 62
7
  6
CONTINUOUS
 10
281.1637925667
 20
234.3992555087
 11
275.1637925667
 21
234.3992555087
  0
LINE
  5
2BE
100
AcDbEntity
  8
0
100
AcDbLine
 62
7
  6
CONTINUOUS
 10
326.632461023
 20
235.9992555087
 11
325.4237925667
 21
235.9992555087
  0
LINE
  5
2BF
100
AcDbEntity
  8
0
100
AcDbLine
 62
7
  6
CONTINUOUS
 10
277.3340054315
 20
239.6492555087
 11
276.8233671945
 21
239.7742557472
  0
LINE
  5
2C0
100
AcDbEntity
  8
0
100
AcDbLine
 62
7
  6
CONTINUOUS
 10
280.1425160033
 20
239.7742557472
 11
279.7595372361
 21
239.8992552703
  0
LINE
  5
2C1
100
AcDbEntity
  8
0
100
AcDbLine
 62
7
  6
CONTINUOUS
 10
325.4237925667
 20
235.9992555087
 11
325.4237925667
 21
233.666212752
  0
LINE
  5
2C2
100
AcDbEntity
  8
0
100
AcDbLine
 62
7
  6
CONTINUOUS
 10
326.632461023
 20
233.6642966425
 11
326.632461023
 21
235.9992555087
  0
LINE
  5
2C3
100
AcDbEntity
  8
0
100
AcDbLine
 62
7
  6
CONTINUOUS
 10
330.0124107714
 20
236.7992555087
 11
328.8037423151
 21
236.7992555087
  0
LINE
  5
2C4
100
AcDbEntity
  8
0
100
AcDbLine
 62
7
  6
CONTINUOUS
 10
323.2611797309
 20
236.7992555087
 11
322.0525112746
 21
236.7992555087
  0
LINE
  5
2C5
100
AcDbEntity
  8
0
100
AcDbLine
 62
7
  6
CONTINUOUS
 10
277.8446436685
 20
237.3992555087
 11
278.3552819055
 21
237.3992555087
  0
LINE
  5
2C6
100
AcDbEntity
  8
0
100
AcDbLine
 62
7
  6
CONTINUOUS
 10
276.5680477184
 20
239.1492552703
 11
276.8233671945
 21
239.1492552703
  0
LINE
  5
2C7
100
AcDbEntity
  8
0
100
AcDbLine
 62
7
  6
CONTINUOUS
 10
279.2488989991
 20
239.2742555087
 11
279.7595372361
 21
239.2742555087
  0
LINE
  5
2C8
100
AcDbEntity
  8
BEZUGSACHSEN
100
AcDbLine
 62
7
  6
CONTINUOUS
 10
294.7258645361
 20
239.5042555087
 11
307.7417205996
 21
239.5042555087
  0
LINE
  5
2C9
100
AcDbEntity
  8
0
100
AcDbLine
 62
7
  6
CONTINUOUS
 10
276.8233671945
 20
239.7742557472
 11
276.5680477184
 21
239.7742557472
  0
LINE
  5
2CA
100
AcDbEntity
  8
0
100
AcDbLine
 62
7
  6
CONTINUOUS
 10
279.7595372361
 20
239.8992552703
 11
279.2488989991
 21
239.8992552703
  0
LINE
  5
2CB
100
AcDbEntity
  8
RUNDUNGEN
100
AcDbLine
 62
7
  6
CONTINUOUS
 10
311.2706741728
 20
235.0264976625
 11
308.8918354444
 21
237.1684136743
  0
LINE
  5
2CC
100
AcDbEntity
  8
0
100
AcDbLine
 62
7
  6
CONTINUOUS
 10
330.0319479141
 20
229.5515909107
 11
330.0124107714
 21
229.9992555087
  0
LINE
  5
2CD
100
AcDbEntity
  8
0
100
AcDbLine
 62
7
  6
CONTINUOUS
 10
330.0319479141
 20
236.3515909107
 11
330.0124107714
 21
236.7992555087
  0
LINE
  5
2CE
100
AcDbEntity
  8
0
100
AcDbLine
 62
7
  6
CONTINUOUS
 10
279.2488989991
 20
239.8992552703
 11
278.7382605833
 21
239.7742557472
  0
LINE
  5
2CF
100
AcDbEntity
  8
0
100
AcDbLine
 62
7
  6
CONTINUOUS
 10
276.5680477184
 20
239.7742557472
 11
276.0574094814
 21
239.6492555087
  0
LINE
  5
2D0
100
AcDbEntity
  8
RUNDUNGEN
100
AcDbLine
 62
7
  6
CONTINUOUS
 10
333.4837925667
 20
255.8758020741
 11
333.4837925667
 21
239.4055349504
  0
LINE
  5
2D1
100
AcDbEntity
  8
RUNDUNGEN
100
AcDbLine
 62
7
  6
CONTINUOUS
 10
333.9527036534
 20
237.6555349504
 11
342.081868778
 21
223.5754079314
  0
LINE
  5
2D2
100
AcDbEntity
  8
0
100
AcDbLine
 62
7
  6
CONTINUOUS
 10
342.4837925667
 20
222.0754079314
 11
342.4837925667
 21
163.5042555087
  0
LINE
  5
2D3
100
AcDbEntity
  8
BEZUGSACHSEN
100
AcDbLine
 62
7
  6
CONTINUOUS
 10
294.7337925667
 20
255.2542555087
 11
307.7337925667
 21
255.2542555087
  0
LINE
  5
2D4
100
AcDbEntity
  8
0
100
AcDbLine
 62
7
  6
CONTINUOUS
 10
277.8584431606
 20
265.8792555087
 11
285.5893047195
 21
265.8792555087
  0
LINE
  5
2D5
100
AcDbEntity
  8
0
100
AcDbLine
 62
7
  6
CONTINUOUS
 10
316.7015008649
 20
265.8792555087
 11
324.6083553087
 21
265.8792555087
  0
LINE
  5
2D6
100
AcDbEntity
  8
RUNDUNGEN
100
AcDbLine
 62
7
  6
CONTINUOUS
 10
326.9053299304
 20
264.8076192574
 11
332.781925896
 21
257.8041649031
  0
LINE
  5
2D7
100
AcDbEntity
  8
0
100
AcDbLine
 62
7
  6
CONTINUOUS
 10
342.4837925667
 20
163.5042555087
 11
338.9085317889
 21
160.5042555087
  0
LINE
  5
2D8
100
AcDbEntity
  8
RUNDUNGEN
100
AcDbLine
 62
7
  6
CONTINUOUS
 10
123.7356243894
 20
26.6614205654
 11
154.7356243894
 21
26.6614205654
  0
LINE
  5
2D9
100
AcDbEntity
  8
0
100
AcDbLine
 62
7
  6
CONTINUOUS
 10
120.7356243894
 20
30.1127521091
 11
120.2356243894
 21
30.1127521091
  0
LINE
  5
2DA
100
AcDbEntity
  8
0
100
AcDbLine
 62
7
  6
CONTINUOUS
 10
120.7356243894
 20
30.1328023606
 11
120.2356243894
 21
30.1328023606
  0
LINE
  5
2DB
100
AcDbEntity
  8
0
100
AcDbLine
 62
7
  6
CONTINUOUS
 10
120.7356243894
 20
31.341470817
 11
120.2356243894
 21
31.341470817
  0
LINE
  5
2DC
100
AcDbEntity
  8
0
100
AcDbLine
 62
7
  6
CONTINUOUS
 10
120.7356243894
 20
33.5127521091
 11
120.2356243894
 21
33.5127521091
  0
LINE
  5
2DD
100
AcDbEntity
  8
0
100
AcDbLine
 62
7
  6
CONTINUOUS
 10
120.7356243894
 20
34.7214205654
 11
120.2356243894
 21
34.7214205654
  0
LINE
  5
2DE
100
AcDbEntity
  8
0
100
AcDbLine
 62
7
  6
CONTINUOUS
 10
120.2356243894
 20
30.1130111102
 11
120.2356243894
 21
31.341470817
  0
LINE
  5
2DF
100
AcDbEntity
  8
0
100
AcDbLine
 62
7
  6
CONTINUOUS
 10
120.2356243894
 20
31.3875001003
 11
120.2356243894
 21
38.1124931079
  0
LINE
  5
2E0
100
AcDbEntity
  8
0
100
AcDbLine
 62
7
  6
CONTINUOUS
 10
120.2356243894
 20
78.9814205654
 11
120.2356243894
 21
85.4966168093
  0
LINE
  5
2E1
100
AcDbEntity
  8
0
100
AcDbLine
 62
7
  6
CONTINUOUS
 10
120.7356243894
 20
36.8840334012
 11
120.2356243894
 21
36.8840334012
  0
LINE
  5
2E2
100
AcDbEntity
  8
0
100
AcDbLine
 62
7
  6
CONTINUOUS
 10
120.7356243894
 20
38.0927018575
 11
120.2356243894
 21
38.0927018575
  0
LINE
  5
2E3
100
AcDbEntity
  8
0
100
AcDbLine
 62
7
  6
CONTINUOUS
 10
120.7356243894
 20
38.1127521091
 11
120.2356243894
 21
38.1127521091
  0
LWPOLYLINE
  5
2E4
100
AcDbEntity
  8
RUNDUNGEN
100
AcDbPolyline
 62
7
  6
CONTINUOUS
 90
14
 70
0
 10
120.7356211058
 20
74.2484526856
 10
120.7357580612
 20
74.2187318172
 10
120.7425549579
 20
74.0423604283
 10
120.7590026404
 20
73.8710338403
 10
120.784217182
 20
73.7055710646
 10
120.8172839612
 20
73.5464811289
 10
120.857249804
 20
73.3942013361
 10
120.9032573568
 20
73.2487382417
 10
120.9542382725
 20
73.1107089318
 10
121.0093413739
 20
72.9799465812
 10
121.0674304344
 20
72.8569261397
 10
121.1277559615
 20
72.7412008986
 10
121.1892911019
 20
72.6329075744
 10
121.255040725
 20
72.525772591
  0
LINE
  5
2E5
100
AcDbEntity
  8
0
100
AcDbLine
 62
7
  6
CONTINUOUS
 10
120.7356243894
 20
88.1614205654
 11
120.7356243894
 21
74.5559084125
  0
LINE
  5
2E6
100
AcDbEntity
  8
0
100
AcDbLine
 62
7
  6
CONTINUOUS
 10
120.7356243894
 20
43.4437122671
 11
120.7356243894
 21
29.6614205654
  0
LINE
  5
2E7
100
AcDbEntity
  8
RUNDUNGEN
100
AcDbLine
 62
7
  6
CONTINUOUS
 10
120.7356243894
 20
23.9426815963
 11
120.7356243894
 21
45.7489738803
  0
LINE
  5
2E8
100
AcDbEntity
  8
RUNDUNGEN
100
AcDbLine
 62
7
  6
CONTINUOUS
 10
120.7356243894
 20
72.0738672068
 11
120.7356243894
 21
93.8801567502
  0
LINE
  5
2E9
100
AcDbEntity
  8
0
100
AcDbLine
 62
7
  6
CONTINUOUS
 10
177.2561780413
 20
42.9114205654
 11
177.5272683865
 21
42.9114205654
  0
LINE
  5
2EA
100
AcDbEntity
  8
0
100
AcDbLine
 62
7
  6
CONTINUOUS
 10
178.8501734844
 20
47.4114205654
 11
179.1104284641
 21
47.4114205654
  0
LINE
  5
2EB
100
AcDbEntity
  8
BEZUGSACHSEN
100
AcDbLine
 62
7
  6
CONTINUOUS
 10
131.3606243894
 20
65.4114205654
 11
131.3606243894
 21
52.4114205654
  0
LWPOLYLINE
  5
2EC
100
AcDbEntity
  8
RUNDUNGEN
100
AcDbPolyline
 62
7
  6
CONTINUOUS
 90
11
 70
0
 10
121.1454827882
 20
45.1432932653
 10
121.0780885398
 20
45.022974379
 10
121.0137106554
 20
44.8963438929
 10
120.9528146985
 20
44.7617524756
 10
120.8964064971
 20
44.618112827
 10
120.845924494
 20
44.4650518618
 10
120.8027658706
 20
44.301657385
 10
120.7687810401
 20
44.1281459973
 10
120.7457896477
 20
43.9443223326
 10
120.7358563927
 20
43.7508420834
 10
120.7356185633
 20
43.7189840147
  0
LINE
  5
2ED
100
AcDbEntity
  8
RUNDUNGEN
100
AcDbLine
 62
7
  6
CONTINUOUS
 10
121.2152708691
 20
45.258201294
 11
121.1454827882
 21
45.1432932653
  0
LINE
  5
2EE
100
AcDbEntity
  8
RUNDUNGEN
100
AcDbLine
 62
7
  6
CONTINUOUS
 10
121.2282763677
 20
45.2787352789
 11
121.2152708691
 21
45.258201294
  0
LINE
  5
2EF
100
AcDbEntity
  8
RUNDUNGEN
100
AcDbLine
 62
7
  6
CONTINUOUS
 10
123.0476450005
 20
47.5173809536
 11
123.046872296
 21
47.5161709368
  0
LINE
  5
2F0
100
AcDbEntity
  8
RUNDUNGEN
100
AcDbLine
 62
7
  6
CONTINUOUS
 10
123.0482343123
 20
47.5181704645
 11
122.8972761861
 21
47.2881934423
  0
LINE
  5
2F1
100
AcDbEntity
  8
0
100
AcDbLine
 62
7
  6
CONTINUOUS
 10
179.1103795301
 20
48.3489207442
 11
179.3689471714
 21
48.3489207442
  0
LINE
  5
2F2
100
AcDbEntity
  8
0
100
AcDbLine
 62
7
  6
CONTINUOUS
 10
179.2551508734
 20
48.9114205654
 11
179.5127891357
 21
48.9114205654
  0
LWPOLYLINE
  5
2F3
100
AcDbEntity
  8
RUNDUNGEN
100
AcDbPolyline
 62
7
  6
CONTINUOUS
 90
4
 70
0
 10
121.2553602184
 20
72.5252657359
 10
121.3222644096
 20
72.4242717057
 10
121.5133595225
 20
72.1732362796
 10
121.7493532612
 20
71.9198704346
  0
LINE
  5
2F4
100
AcDbEntity
  8
RUNDUNGEN
100
AcDbLine
 62
7
  6
CONTINUOUS
 10
122.9072740487
 20
70.5198287794
 11
123.0477183444
 21
70.3054867976
  0
LINE
  5
2F5
100
AcDbEntity
  8
RUNDUNGEN
100
AcDbLine
 62
7
  6
CONTINUOUS
 10
123.0477923204
 20
70.3053678324
 11
123.0478801952
 21
70.3052301377
  0
LINE
  5
2F6
100
AcDbEntity
  8
RUNDUNGEN
100
AcDbLine
 62
7
  6
CONTINUOUS
 10
121.2553602184
 20
72.5252657359
 11
121.255038402
 21
72.5257711599
  0
LINE
  5
2F7
100
AcDbEntity
  8
RUNDUNGEN
100
AcDbLine
 62
7
  6
CONTINUOUS
 10
121.3538356512
 20
45.4612764797
 11
121.2281421516
 21
45.2785199249
  0
LWPOLYLINE
  5
2F8
100
AcDbEntity
  8
RUNDUNGEN
100
AcDbPolyline
 62
7
  6
CONTINUOUS
 90
6
 70
0
 10
122.8972761861
 20
47.2881934423
 10
122.6707690361
 20
46.9664724438
 10
122.431662467
 20
46.6548365943
 10
122.1801026625
 20
46.3553092674
 10
121.9162350947
 20
46.0696651986
 10
121.6164255951
 20
45.7718200302
  0
LINE
  5
2F9
100
AcDbEntity
  8
RUNDUNGEN
100
AcDbLine
 62
7
  6
CONTINUOUS
 10
121.4799187121
 20
45.6205023641
 11
121.3538356512
 21
45.4612764797
  0
LINE
  5
2FA
100
AcDbEntity
  8
RUNDUNGEN
100
AcDbLine
 62
7
  6
CONTINUOUS
 10
121.6164255951
 20
45.7718200302
 11
121.4799187121
 21
45.6205023641
  0
LINE
  5
2FB
100
AcDbEntity
  8
RUNDUNGEN
100
AcDbLine
 62
7
  6
CONTINUOUS
 10
149.2356243894
 20
52.4114205654
 11
129.2356243894
 21
52.4114205654
  0
LINE
  5
2FC
100
AcDbEntity
  8
0
100
AcDbLine
 62
7
  6
CONTINUOUS
 10
180.1173134445
 20
53.4114205654
 11
180.3695519918
 21
53.4114205654
  0
LINE
  5
2FD
100
AcDbEntity
  8
0
100
AcDbLine
 62
7
  6
CONTINUOUS
 10
180.2325278747
 20
54.3489207442
 11
180.4840618796
 21
54.3489207442
  0
LINE
  5
2FE
100
AcDbEntity
  8
0
100
AcDbLine
 62
7
  6
CONTINUOUS
 10
180.3090628107
 20
55.0989205654
 11
180.5601309654
 21
55.0989205654
  0
LINE
  5
2FF
100
AcDbEntity
  8
RUNDUNGEN
100
AcDbLine
 62
7
  6
CONTINUOUS
 10
121.712985197
 20
45.8680031685
 11
121.7130160084
 21
45.8680325778
  0
LWPOLYLINE
  5
300
100
AcDbEntity
  8
RUNDUNGEN
100
AcDbPolyline
 62
7
  6
CONTINUOUS
 90
5
 70
0
 10
123.6522039585
 20
48.1702521595
 10
123.4810418455
 20
48.0291869194
 10
123.3230545964
 20
47.8735126153
 10
123.1794845295
 20
47.7044540565
 10
123.0466318119
 20
47.5157936632
  0
LINE
  5
301
100
AcDbEntity
  8
RUNDUNGEN
100
AcDbLine
 62
7
  6
CONTINUOUS
 10
154.6360530923
 20
69.5272425235
 11
154.8190432072
 21
69.6525880081
  0
LINE
  5
302
100
AcDbEntity
  8
RUNDUNGEN
100
AcDbLine
 62
7
  6
CONTINUOUS
 10
123.8351941054
 20
48.2955976243
 11
123.6522039585
 21
48.1702521595
  0
LINE
  5
303
100
AcDbEntity
  8
RUNDUNGEN
100
AcDbLine
 62
7
  6
CONTINUOUS
 10
154.6352841923
 20
69.5267636726
 11
154.6359859164
 21
69.5271999539
  0
LINE
  5
304
100
AcDbEntity
  8
0
100
AcDbLine
 62
7
  6
CONTINUOUS
 10
180.3573947793
 20
55.6614205654
 11
180.6081696338
 21
55.6614205654
  0
LINE
  5
305
100
AcDbEntity
  8
0
100
AcDbLine
 62
7
  6
CONTINUOUS
 10
180.3717835764
 20
55.8489203866
 11
180.6224712451
 21
55.8489203866
  0
LINE
  5
306
100
AcDbEntity
  8
0
100
AcDbLine
 62
7
  6
CONTINUOUS
 10
180.3853130398
 20
56.0364207442
 11
180.6359187848
 21
56.0364207442
  0
LINE
  5
307
100
AcDbEntity
  8
0
100
AcDbLine
 62
7
  6
CONTINUOUS
 10
180.4308531602
 20
56.7864202078
 11
180.6811835421
 21
56.7864202078
  0
LINE
  5
308
100
AcDbEntity
  8
0
100
AcDbLine
 62
7
  6
CONTINUOUS
 10
180.4627013475
 20
57.5364203866
 11
180.7128395142
 21
57.5364203866
  0
LINE
  5
309
100
AcDbEntity
  8
0
100
AcDbLine
 62
7
  6
CONTINUOUS
 10
180.4848668088
 20
58.661420923
 11
180.7348713727
 21
58.661420923
  0
LINE
  5
30A
100
AcDbEntity
  8
0
100
AcDbLine
 62
7
  6
CONTINUOUS
 10
180.4855770403
 20
58.8489202078
 11
180.7355773256
 21
58.8489202078
  0
LINE
  5
30B
100
AcDbEntity
  8
0
100
AcDbLine
 62
7
  6
CONTINUOUS
 10
180.4844406576
 20
59.223920923
 11
180.7344477887
 21
59.223920923
  0
LINE
  5
30C
100
AcDbEntity
  8
RUNDUNGEN
100
AcDbLine
 62
7
  6
CONTINUOUS
 10
121.7495877703
 20
71.9196434683
 11
121.7494597867
 21
71.9197673276
  0
LWPOLYLINE
  5
30D
100
AcDbEntity
  8
RUNDUNGEN
100
AcDbPolyline
 62
7
  6
CONTINUOUS
 90
6
 70
0
 10
121.7495770859
 20
71.9196299759
 10
121.9538950307
 20
71.7141081934
 10
122.2097128993
 20
71.4337085654
 10
122.4540172141
 20
71.1400096514
 10
122.6865933103
 20
70.8347612655
 10
122.9072740487
 20
70.5198287794
  0
LWPOLYLINE
  5
30E
100
AcDbEntity
  8
RUNDUNGEN
100
AcDbPolyline
 62
7
  6
CONTINUOUS
 90
3
 70
0
 10
156.7217030252
 20
71.9196953796
 10
156.8392714204
 20
72.0393219604
 10
156.9730536867
 20
72.1914522135
  0
LWPOLYLINE
  5
30F
100
AcDbEntity
  8
RUNDUNGEN
100
AcDbPolyline
 62
7
  6
CONTINUOUS
 90
5
 70
0
 10
154.8190432072
 20
69.6525880081
 10
154.9902052871
 20
69.7936532645
 10
155.1481925025
 20
69.9493275817
 10
155.2917625351
 20
70.1183861504
 10
155.4246142734
 20
70.3070450698
  0
LINE
  5
310
100
AcDbEntity
  8
RUNDUNGEN
100
AcDbLine
 62
7
  6
CONTINUOUS
 10
123.835962685
 20
48.296076276
 11
123.8352611047
 21
48.2956400841
  0
LINE
  5
311
100
AcDbEntity
  8
0
100
AcDbLine
 62
7
  6
CONTINUOUS
 10
180.4763430346
 20
59.786420923
 11
180.7263989589
 21
59.786420923
  0
LINE
  5
312
100
AcDbEntity
  8
0
100
AcDbLine
 62
7
  6
CONTINUOUS
 10
180.4536044001
 20
60.5364202078
 11
180.7037974401
 21
60.5364202078
  0
LINE
  5
313
100
AcDbEntity
  8
0
100
AcDbLine
 62
7
  6
CONTINUOUS
 10
180.4171964211
 20
61.2864205654
 11
180.6676093165
 21
61.2864205654
  0
LINE
  5
314
100
AcDbEntity
  8
0
100
AcDbLine
 62
7
  6
CONTINUOUS
 10
180.3670828217
 20
62.036420923
 11
180.6177989669
 21
62.036420923
  0
LINE
  5
315
100
AcDbEntity
  8
0
100
AcDbLine
 62
7
  6
CONTINUOUS
 10
180.3204736785
 20
62.598920923
 11
180.5714725253
 21
62.598920923
  0
LINE
  5
316
100
AcDbEntity
  8
0
100
AcDbLine
 62
7
  6
CONTINUOUS
 10
180.285089596
 20
62.9739205654
 11
180.5363034849
 21
62.9739205654
  0
LINE
  5
317
100
AcDbEntity
  8
0
100
AcDbLine
 62
7
  6
CONTINUOUS
 10
180.2661008302
 20
63.161420923
 11
180.5174302724
 21
63.161420923
  0
LINE
  5
318
100
AcDbEntity
  8
RUNDUNGEN
100
AcDbLine
 62
7
  6
CONTINUOUS
 10
156.7582448944
 20
45.8680290724
 11
156.7582803654
 21
45.8679952161
  0
LWPOLYLINE
  5
319
100
AcDbEntity
  8
RUNDUNGEN
100
AcDbPolyline
 62
7
  6
CONTINUOUS
 90
6
 70
0
 10
156.8435755293
 20
45.7834637539
 10
156.5498633264
 20
46.0749678892
 10
156.2861161073
 20
46.3610287361
 10
156.0346051436
 20
46.6610610527
 10
155.7955338224
 20
46.9732070076
 10
155.5690650576
 20
47.2954577793
  0
LINE
  5
31A
100
AcDbEntity
  8
BEZUGSACHSEN
100
AcDbLine
 62
7
  6
CONTINUOUS
 10
147.1106243894
 20
65.4114205654
 11
147.1106243894
 21
52.4114205654
  0
LWPOLYLINE
  5
31B
100
AcDbEntity
  8
RUNDUNGEN
100
AcDbPolyline
 62
7
  6
CONTINUOUS
 90
13
 70
0
 10
157.2162451088
 20
72.5258301679
 10
157.2828833138
 20
72.6344742947
 10
157.3447920737
 20
72.743584767
 10
157.4054291996
 20
72.8601694005
 10
157.463756881
 20
72.9840898209
 10
157.5190256728
 20
73.1158112241
 10
157.5700743255
 20
73.2548303438
 10
157.6160533359
 20
73.401321336
 10
157.6558822518
 20
73.5546685555
 10
157.6886893364
 20
73.7148531353
 10
157.7135191139
 20
73.8814122773
 10
157.7294509289
 20
74.0538292907
 10
157.7356303223
 20
74.2482757165
  0
LINE
  5
31C
100
AcDbEntity
  8
RUNDUNGEN
100
AcDbLine
 62
7
  6
CONTINUOUS
 10
157.216242737
 20
72.5258316651
 11
157.2161670201
 21
72.5257126791
  0
LINE
  5
31D
100
AcDbEntity
  8
RUNDUNGEN
100
AcDbLine
 62
7
  6
CONTINUOUS
 10
155.4235987882
 20
70.305454194
 11
155.424374233
 21
70.3066684926
  0
LINE
  5
31E
100
AcDbEntity
  8
RUNDUNGEN
100
AcDbLine
 62
7
  6
CONTINUOUS
 10
155.4230089562
 20
70.3046638478
 11
155.5688473324
 21
70.5270513933
  0
LINE
  5
31F
100
AcDbEntity
  8
RUNDUNGEN
100
AcDbLine
 62
7
  6
CONTINUOUS
 10
157.0971414265
 20
72.3511551596
 11
157.2161670201
 21
72.5257126791
  0
LWPOLYLINE
  5
320
100
AcDbEntity
  8
RUNDUNGEN
100
AcDbPolyline
 62
7
  6
CONTINUOUS
 90
6
 70
0
 10
155.5688473324
 20
70.5270513933
 10
155.7895565126
 20
70.8414643672
 10
156.0221604306
 20
71.1462099093
 10
156.2665103521
 20
71.4394142189
 10
156.5224581481
 20
71.719433531
 10
156.7216717275
 20
71.9196398491
  0
LINE
  5
321
100
AcDbEntity
  8
RUNDUNGEN
100
AcDbLine
 62
7
  6
CONTINUOUS
 10
156.9730536867
 20
72.1914522135
 11
157.0971414265
 21
72.3511551596
  0
LINE
  5
322
100
AcDbEntity
  8
0
100
AcDbLine
 62
7
  6
CONTINUOUS
 10
180.1339357379
 20
64.286420923
 11
180.3860723961
 21
64.286420923
  0
LINE
  5
323
100
AcDbEntity
  8
RUNDUNGEN
100
AcDbLine
 62
7
  6
CONTINUOUS
 10
129.2356243894
 20
65.4114205654
 11
149.2356243894
 21
65.4114205654
  0
LINE
  5
324
100
AcDbEntity
  8
0
100
AcDbLine
 62
7
  6
CONTINUOUS
 10
179.9086728982
 20
65.7864205654
 11
180.1621973586
 21
65.7864205654
  0
LWPOLYLINE
  5
325
100
AcDbEntity
  8
RUNDUNGEN
100
AcDbPolyline
 62
7
  6
CONTINUOUS
 90
3
 70
0
 10
157.1126904602
 20
45.467637065
 10
156.9835588832
 20
45.6296648392
 10
156.8435755293
 20
45.7834637539
  0
LINE
  5
326
100
AcDbEntity
  8
RUNDUNGEN
100
AcDbLine
 62
7
  6
CONTINUOUS
 10
155.5690650576
 20
47.2954577793
 11
155.4235327863
 21
47.5173546937
  0
LWPOLYLINE
  5
327
100
AcDbEntity
  8
RUNDUNGEN
100
AcDbPolyline
 62
7
  6
CONTINUOUS
 90
3
 70
0
 10
157.2431001186
 20
45.2785371608
 10
157.2305305299
 20
45.2981048122
 10
157.1126904602
 20
45.467637065
  0
LINE
  5
328
100
AcDbEntity
  8
RUNDUNGEN
100
AcDbLine
 62
7
  6
CONTINUOUS
 10
155.4234588187
 20
47.5174736444
 11
155.4233660654
 21
47.5176189835
  0
LWPOLYLINE
  5
329
100
AcDbEntity
  8
RUNDUNGEN
100
AcDbPolyline
 62
7
  6
CONTINUOUS
 90
3
 70
0
 10
157.3238334128
 20
45.1465951233
 10
157.2548461553
 20
45.2599985326
 10
157.2429535685
 20
45.2787653525
  0
LINE
  5
32A
100
AcDbEntity
  8
0
100
AcDbLine
 62
7
  6
CONTINUOUS
 10
178.8862470201
 20
70.2864205654
 11
179.1462667671
 21
70.2864205654
  0
LINE
  5
32B
100
AcDbEntity
  8
RUNDUNGEN
100
AcDbLine
 62
7
  6
CONTINUOUS
 10
157.390687633
 20
45.0275864721
 11
157.3238334128
 21
45.1465951233
  0
LINE
  5
32C
100
AcDbEntity
  8
0
100
AcDbLine
 62
7
  6
CONTINUOUS
 10
178.6052170484
 20
71.2239212806
 11
178.8670806601
 21
71.2239212806
  0
LINE
  5
32D
100
AcDbEntity
  8
0
100
AcDbLine
 62
7
  6
CONTINUOUS
 10
178.362770896
 20
71.9739205654
 11
178.6262462904
 21
71.9739205654
  0
LINE
  5
32E
100
AcDbEntity
  8
0
100
AcDbLine
 62
7
  6
CONTINUOUS
 10
178.1043439915
 20
72.7239198501
 11
178.3695593246
 21
72.7239198501
  0
LINE
  5
32F
100
AcDbEntity
  8
0
100
AcDbLine
 62
7
  6
CONTINUOUS
 10
177.9690381784
 20
73.0989205654
 11
178.2351736656
 21
73.0989205654
  0
LINE
  5
330
100
AcDbEntity
  8
0
100
AcDbLine
 62
7
  6
CONTINUOUS
 10
177.8998442259
 20
73.2864198501
 11
178.1664527336
 21
73.2864198501
  0
LINE
  5
331
100
AcDbEntity
  8
0
100
AcDbLine
 62
7
  6
CONTINUOUS
 10
177.758344684
 20
73.6614212806
 11
178.0259257404
 21
73.6614212806
  0
LINE
  5
332
100
AcDbEntity
  8
0
100
AcDbLine
 62
7
  6
CONTINUOUS
 10
177.3861796434
 20
74.5989198501
 11
177.6563527296
 21
74.5989198501
  0
LWPOLYLINE
  5
333
100
AcDbEntity
  8
RUNDUNGEN
100
AcDbPolyline
 62
7
  6
CONTINUOUS
 90
10
 70
0
 10
157.7356304848
 20
43.7187764676
 10
157.7351878381
 20
43.7635427961
 10
157.7243981307
 20
43.9559602545
 10
157.700721082
 20
44.1388361515
 10
157.666206679
 20
44.311434512
 10
157.6226774955
 20
44.473888697
 10
157.5719775612
 20
44.6259876173
 10
157.5155158903
 20
44.7686199635
 10
157.4547348697
 20
44.90215178
 10
157.390687633
 20
45.0275864721
  0
LINE
  5
334
100
AcDbEntity
  8
RUNDUNGEN
100
AcDbLine
 62
7
  6
CONTINUOUS
 10
157.7356243894
 20
23.9426845182
 11
157.7356243894
 21
45.7489505488
  0
LINE
  5
335
100
AcDbEntity
  8
RUNDUNGEN
100
AcDbLine
 62
7
  6
CONTINUOUS
 10
157.7356243894
 20
72.0738691502
 11
157.7356243894
 21
93.8801600237
  0
LINE
  5
336
100
AcDbEntity
  8
0
100
AcDbLine
 62
7
  6
CONTINUOUS
 10
176.4713599132
 20
76.6614205654
 11
176.7481223068
 21
76.6614205654
  0
LINE
  5
337
100
AcDbEntity
  8
0
100
AcDbLine
 62
7
  6
CONTINUOUS
 10
120.7356243894
 20
78.9814205654
 11
120.2356243894
 21
78.9814205654
  0
LINE
  5
338
100
AcDbEntity
  8
0
100
AcDbLine
 62
7
  6
CONTINUOUS
 10
120.7356243894
 20
79.1090801358
 11
120.2356243894
 21
79.1090801358
  0
LINE
  5
339
100
AcDbEntity
  8
0
100
AcDbLine
 62
7
  6
CONTINUOUS
 10
120.7356243894
 20
79.3643992878
 11
120.2356243894
 21
79.3643992878
  0
LINE
  5
33A
100
AcDbEntity
  8
0
100
AcDbLine
 62
7
  6
CONTINUOUS
 10
120.7356243894
 20
79.619718451
 11
120.2356243894
 21
79.619718451
  0
LINE
  5
33B
100
AcDbEntity
  8
0
100
AcDbLine
 62
7
  6
CONTINUOUS
 10
120.7356243894
 20
80.0026971288
 11
120.2356243894
 21
80.0026971288
  0
LINE
  5
33C
100
AcDbEntity
  8
0
100
AcDbLine
 62
7
  6
CONTINUOUS
 10
120.7356243894
 20
80.3856758959
 11
120.2356243894
 21
80.3856758959
  0
LINE
  5
33D
100
AcDbEntity
  8
0
100
AcDbLine
 62
7
  6
CONTINUOUS
 10
120.7356243894
 20
80.8963141329
 11
120.2356243894
 21
80.8963141329
  0
LINE
  5
33E
100
AcDbEntity
  8
0
100
AcDbLine
 62
7
  6
CONTINUOUS
 10
120.7356243894
 20
81.4069525488
 11
120.2356243894
 21
81.4069525488
  0
LINE
  5
33F
100
AcDbEntity
  8
0
100
AcDbLine
 62
7
  6
CONTINUOUS
 10
120.7356243894
 20
81.7899312265
 11
120.2356243894
 21
81.7899312265
  0
LINE
  5
340
100
AcDbEntity
  8
0
100
AcDbLine
 62
7
  6
CONTINUOUS
 10
120.7356243894
 20
82.045250345
 11
120.2356243894
 21
82.045250345
  0
LINE
  5
341
100
AcDbEntity
  8
0
100
AcDbLine
 62
7
  6
CONTINUOUS
 10
120.7356243894
 20
82.4282290228
 11
120.2356243894
 21
82.4282290228
  0
LINE
  5
342
100
AcDbEntity
  8
0
100
AcDbLine
 62
7
  6
CONTINUOUS
 10
120.7356243894
 20
82.8112077005
 11
120.2356243894
 21
82.8112077005
  0
LINE
  5
343
100
AcDbEntity
  8
0
100
AcDbLine
 62
7
  6
CONTINUOUS
 10
120.7356243894
 20
83.3218459375
 11
120.2356243894
 21
83.3218459375
  0
LINE
  5
344
100
AcDbEntity
  8
0
100
AcDbLine
 62
7
  6
CONTINUOUS
 10
120.7356243894
 20
83.5771654136
 11
120.2356243894
 21
83.5771654136
  0
LINE
  5
345
100
AcDbEntity
  8
0
100
AcDbLine
 62
7
  6
CONTINUOUS
 10
120.7356243894
 20
84.0878036506
 11
120.2356243894
 21
84.0878036506
  0
LINE
  5
346
100
AcDbEntity
  8
0
100
AcDbLine
 62
7
  6
CONTINUOUS
 10
120.7356243894
 20
84.5984418876
 11
120.2356243894
 21
84.5984418876
  0
LINE
  5
347
100
AcDbEntity
  8
0
100
AcDbLine
 62
7
  6
CONTINUOUS
 10
120.7356243894
 20
84.8537610061
 11
120.2356243894
 21
84.8537610061
  0
LINE
  5
348
100
AcDbEntity
  8
0
100
AcDbLine
 62
7
  6
CONTINUOUS
 10
120.7356243894
 20
84.9814205654
 11
120.2356243894
 21
84.9814205654
  0
LINE
  5
349
100
AcDbEntity
  8
0
100
AcDbLine
 62
7
  6
CONTINUOUS
 10
120.7356243894
 20
85.0282253849
 11
120.2356243894
 21
85.0282253849
  0
LINE
  5
34A
100
AcDbEntity
  8
0
100
AcDbLine
 62
7
  6
CONTINUOUS
 10
120.7356243894
 20
85.4966168093
 11
120.2356243894
 21
85.4966168093
  0
LINE
  5
34B
100
AcDbEntity
  8
RUNDUNGEN
100
AcDbLine
 62
7
  6
CONTINUOUS
 10
123.7356243894
 20
91.1614205654
 11
154.7356243894
 21
91.1614205654
  0
ARC
  5
34C
100
AcDbEntity
  8
RUNDUNGEN
100
AcDbCircle
 62
7
  6
CONTINUOUS
 10
139.2356243894
 20
247.3792555087
 40
18.5
100
AcDbArc
 50
0.0
 51
180.0
  0
ARC
  5
34D
100
AcDbEntity
  8
RUNDUNGEN
100
AcDbCircle
 62
7
  6
CONTINUOUS
 10
162.7356243894
 20
210.8792555087
 40
5.0
100
AcDbArc
 50
179.9992111928
 51
269.9999906522
  0
ARC
  5
34E
100
AcDbEntity
  8
RUNDUNGEN
100
AcDbCircle
 62
7
  6
CONTINUOUS
 10
115.7356243894
 20
210.8792555087
 40
5.0
100
AcDbArc
 50
270.0000182634
 51
0.0004155909
  0
ARC
  5
34F
100
AcDbEntity
  8
RUNDUNGEN
100
AcDbCircle
 62
7
  6
CONTINUOUS
 10
100.9856243894
 20
202.8792555087
 40
3.0
100
AcDbArc
 50
90.0
 51
180.0
  0
ARC
  5
350
100
AcDbEntity
  8
RUNDUNGEN
100
AcDbCircle
 62
7
  6
CONTINUOUS
 10
177.4856243894
 20
202.8792555087
 40
3.0
100
AcDbArc
 50
0.0
 51
90.0
  0
ARC
  5
351
100
AcDbEntity
  8
RUNDUNGEN
100
AcDbCircle
 62
7
  6
CONTINUOUS
 10
291.2337925667
 20
239.7694205635
 40
3.5
100
AcDbArc
 50
311.9999995005
 51
360.0
  0
ARC
  5
352
100
AcDbEntity
  8
RUNDUNGEN
100
AcDbCircle
 62
7
  6
CONTINUOUS
 10
265.4837925667
 20
239.4055349504
 40
3.5
100
AcDbArc
 50
330.0
 51
360.0
  0
ARC
  5
353
100
AcDbEntity
  8
0
100
AcDbCircle
 62
7
  6
CONTINUOUS
 10
277.7737925667
 20
226.6692555087
 40
3.03
100
AcDbArc
 50
142.4188403032
 51
312.889025844
  0
ARC
  5
354
100
AcDbEntity
  8
0
100
AcDbCircle
 62
7
  6
CONTINUOUS
 10
277.7737925667
 20
226.6692555087
 40
3.03
100
AcDbArc
 50
326.2
 51
129.142574669
  0
ARC
  5
355
100
AcDbEntity
  8
RUNDUNGEN
100
AcDbCircle
 62
7
  6
CONTINUOUS
 10
262.9837949853
 20
222.0754121206
 40
3.0
100
AcDbArc
 50
150.0000923838
 51
180.0000800066
  0
CIRCLE
  5
356
100
AcDbEntity
  8
0
100
AcDbCircle
 62
7
  6
CONTINUOUS
 10
277.7737925667
 20
226.6692555087
 40
2.12
  0
ARC
  5
357
100
AcDbEntity
  8
RUNDUNGEN
100
AcDbCircle
 62
7
  6
CONTINUOUS
 10
277.8603875955
 20
262.8792553119
 40
3.0
100
AcDbArc
 50
90.0000035158
 51
139.9999999996
  0
ARC
  5
358
100
AcDbEntity
  8
RUNDUNGEN
100
AcDbCircle
 62
7
  6
CONTINUOUS
 10
285.5893047195
 20
262.8792555087
 40
3.0
100
AcDbArc
 50
51.2605754021
 51
90.0
  0
ARC
  5
359
100
AcDbEntity
  8
RUNDUNGEN
100
AcDbCircle
 62
7
  6
CONTINUOUS
 10
271.9837925667
 20
255.8758020741
 40
3.0
100
AcDbArc
 50
140.0
 51
180.0
  0
ARC
  5
35A
100
AcDbEntity
  8
RUNDUNGEN
100
AcDbCircle
 62
7
  6
CONTINUOUS
 10
292.2337925667
 20
259.5921977785
 40
2.5
100
AcDbArc
 50
0.0
 51
68.4479111128
  0
ARC
  5
35B
100
AcDbEntity
  8
RUNDUNGEN
100
AcDbCircle
 62
7
  6
CONTINUOUS
 10
301.2337925667
 20
223.8792555087
 40
15.0
100
AcDbArc
 50
131.9996778175
 51
48.0003982897
  0
ARC
  5
35C
100
AcDbEntity
  8
0
100
AcDbCircle
 62
7
  6
CONTINUOUS
 10
326.032461023
 20
236.3992555087
 40
4.0
100
AcDbArc
 50
174.2608295227
 51
359.3171996582
  0
ARC
  5
35D
100
AcDbEntity
  8
0
100
AcDbCircle
 62
7
  6
CONTINUOUS
 10
326.032461023
 20
229.5992555087
 40
4.0
100
AcDbArc
 50
174.2608295227
 51
359.3171996582
  0
ARC
  5
35E
100
AcDbEntity
  8
RUNDUNGEN
100
AcDbCircle
 62
7
  6
CONTINUOUS
 10
311.2337925667
 20
239.7694205635
 40
3.5
100
AcDbArc
 50
180.0
 51
227.999999999
  0
ARC
  5
35F
100
AcDbEntity
  8
RUNDUNGEN
100
AcDbCircle
 62
7
  6
CONTINUOUS
 10
336.9837925667
 20
239.4055349504
 40
3.5
100
AcDbArc
 50
180.0
 51
210.0
  0
ARC
  5
360
100
AcDbEntity
  8
RUNDUNGEN
100
AcDbCircle
 62
7
  6
CONTINUOUS
 10
339.4837901712
 20
222.0754120805
 40
3.0
100
AcDbArc
 50
359.9999207584
 51
29.9999084996
  0
ARC
  5
361
100
AcDbEntity
  8
0
100
AcDbCircle
 62
7
  6
CONTINUOUS
 10
326.032461023
 20
236.3992555087
 40
2.8
100
AcDbArc
 50
282.3736251162
 51
8.2132107017
  0
ARC
  5
362
100
AcDbEntity
  8
0
100
AcDbCircle
 62
7
  6
CONTINUOUS
 10
326.032461023
 20
236.3992555087
 40
2.8
100
AcDbArc
 50
171.7867892983
 51
257.4447123387
  0
ARC
  5
363
100
AcDbEntity
  8
0
100
AcDbCircle
 62
7
  6
CONTINUOUS
 10
326.032461023
 20
229.5992555087
 40
2.8
100
AcDbArc
 50
171.7867892983
 51
8.2132107017
  0
ARC
  5
364
100
AcDbEntity
  8
0
100
AcDbCircle
 62
7
  6
CONTINUOUS
 10
301.2337925667
 20
282.3792555087
 40
22.0
100
AcDbArc
 50
291.5520888872
 51
309.1486876423
  0
ARC
  5
365
100
AcDbEntity
  8
0
100
AcDbCircle
 62
7
  6
CONTINUOUS
 10
301.2337925667
 20
282.3792555087
 40
22.0
100
AcDbArc
 50
231.2605754021
 51
248.4479111128
  0
ARC
  5
366
100
AcDbEntity
  8
RUNDUNGEN
100
AcDbCircle
 62
7
  6
CONTINUOUS
 10
324.6071974344
 20
262.8792554351
 40
3.0
100
AcDbArc
 50
40.0000000001
 51
89.9999986847
  0
ARC
  5
367
100
AcDbEntity
  8
RUNDUNGEN
100
AcDbCircle
 62
7
  6
CONTINUOUS
 10
330.4837925667
 20
255.8758020741
 40
3.0
100
AcDbArc
 50
0.0
 51
40.0
  0
ARC
  5
368
100
AcDbEntity
  8
RUNDUNGEN
100
AcDbCircle
 62
7
  6
CONTINUOUS
 10
310.2337925667
 20
259.5921977785
 40
2.5
100
AcDbArc
 50
111.5520888872
 51
180.0
  0
ARC
  5
369
100
AcDbEntity
  8
RUNDUNGEN
100
AcDbCircle
 62
7
  6
CONTINUOUS
 10
316.7015008649
 20
263.3792555087
 40
2.5
100
AcDbArc
 50
90.0
 51
129.1486876423
  0
ARC
  5
36A
100
AcDbEntity
  8
RUNDUNGEN
100
AcDbCircle
 62
7
  6
CONTINUOUS
 10
123.7356243894
 20
29.6614205654
 40
3.0
100
AcDbArc
 50
180.0
 51
270.0
  0
ARC
  5
36B
100
AcDbEntity
  8
RUNDUNGEN
100
AcDbCircle
 62
7
  6
CONTINUOUS
 10
123.7356243894
 20
23.9426845287
 40
3.0
100
AcDbArc
 50
180.0000449366
 51
246.0943170742
  0
ARC
  5
36C
100
AcDbEntity
  8
RUNDUNGEN
100
AcDbCircle
 62
7
  6
CONTINUOUS
 10
129.2356243894
 20
49.9114205654
 40
2.5
100
AcDbArc
 50
90.0
 51
143.1303313437
  0
ARC
  5
36D
100
AcDbEntity
  8
RUNDUNGEN
100
AcDbCircle
 62
7
  6
CONTINUOUS
 10
123.2356243894
 20
43.4437122671
 40
2.5
100
AcDbArc
 50
140.8513123577
 51
180.0
  0
ARC
  5
36E
100
AcDbEntity
  8
RUNDUNGEN
100
AcDbCircle
 62
7
  6
CONTINUOUS
 10
125.1683162981
 20
46.18065446
 40
2.4999999924
100
AcDbArc
 50
121.9275133047
 51
148.6930131171
  0
ARC
  5
36F
100
AcDbEntity
  8
0
100
AcDbCircle
 62
7
  6
CONTINUOUS
 10
104.2356243894
 20
58.9114205654
 40
22.0
100
AcDbArc
 50
320.8513123577
 51
328.6930277725
  0
ARC
  5
370
100
AcDbEntity
  8
0
100
AcDbCircle
 62
7
  6
CONTINUOUS
 10
104.2356243894
 20
58.9114205654
 40
22.0
100
AcDbArc
 50
31.3069722275
 51
38.7394245979
  0
ARC
  5
371
100
AcDbEntity
  8
RUNDUNGEN
100
AcDbCircle
 62
7
  6
CONTINUOUS
 10
104.2356243894
 20
58.9114205654
 40
22.0
100
AcDbArc
 50
320.8513123577
 51
328.6930277725
  0
ARC
  5
372
100
AcDbEntity
  8
RUNDUNGEN
100
AcDbCircle
 62
7
  6
CONTINUOUS
 10
104.2356243894
 20
58.9114205654
 40
22.0
100
AcDbArc
 50
31.3069722275
 51
38.7394245979
  0
ARC
  5
373
100
AcDbEntity
  8
RUNDUNGEN
100
AcDbCircle
 62
7
  6
CONTINUOUS
 10
117.2356243894
 20
58.9114205654
 40
12.5
100
AcDbArc
 50
36.8698882754
 51
58.1251784539
  0
ARC
  5
374
100
AcDbEntity
  8
RUNDUNGEN
100
AcDbCircle
 62
7
  6
CONTINUOUS
 10
117.2356243894
 20
58.9114205654
 40
12.5
100
AcDbArc
 50
301.8765140486
 51
323.1300565563
  0
ARC
  5
375
100
AcDbEntity
  8
RUNDUNGEN
100
AcDbCircle
 62
7
  6
CONTINUOUS
 10
123.7356243894
 20
74.5559084125
 40
3.0
100
AcDbArc
 50
180.0
 51
218.7394245979
  0
ARC
  5
376
100
AcDbEntity
  8
RUNDUNGEN
100
AcDbCircle
 62
7
  6
CONTINUOUS
 10
129.2356243894
 20
67.9114205654
 40
2.5
100
AcDbArc
 50
216.8698455564
 51
270.0
  0
ARC
  5
377
100
AcDbEntity
  8
RUNDUNGEN
100
AcDbCircle
 62
7
  6
CONTINUOUS
 10
125.1683166971
 20
71.642186165
 40
2.5
100
AcDbArc
 50
211.3069722275
 51
238.0724728042
  0
ARC
  5
378
100
AcDbEntity
  8
RUNDUNGEN
100
AcDbCircle
 62
7
  6
CONTINUOUS
 10
125.1551465034
 20
71.6503830504
 40
2.4999998446
100
AcDbArc
 50
212.5502064668
 51
238.1317268081
  0
ARC
  5
379
100
AcDbEntity
  8
RUNDUNGEN
100
AcDbCircle
 62
7
  6
CONTINUOUS
 10
123.7356243894
 20
88.1614205654
 40
3.0
100
AcDbArc
 50
90.0
 51
180.0
  0
ARC
  5
37A
100
AcDbEntity
  8
RUNDUNGEN
100
AcDbCircle
 62
7
  6
CONTINUOUS
 10
123.7356243894
 20
93.880156602
 40
3.0
100
AcDbArc
 50
113.9053769945
 51
179.9999971712
  0
ARC
  5
37B
100
AcDbEntity
  8
RUNDUNGEN
100
AcDbCircle
 62
7
  6
CONTINUOUS
 10
154.7356243894
 20
29.6614205654
 40
3.0
100
AcDbArc
 50
270.0
 51
360.0
  0
ARC
  5
37C
100
AcDbEntity
  8
RUNDUNGEN
100
AcDbCircle
 62
7
  6
CONTINUOUS
 10
154.7356243894
 20
23.9426845287
 40
3.0
100
AcDbArc
 50
293.9054283119
 51
359.9999997994
  0
ARC
  5
37D
100
AcDbEntity
  8
RUNDUNGEN
100
AcDbCircle
 62
7
  6
CONTINUOUS
 10
149.2356243894
 20
49.9114205654
 40
2.5
100
AcDbArc
 50
36.8699090534
 51
90.0
  0
ARC
  5
37E
100
AcDbEntity
  8
RUNDUNGEN
100
AcDbCircle
 62
7
  6
CONTINUOUS
 10
155.2356243894
 20
43.4437122671
 40
2.5
100
AcDbArc
 50
0.0
 51
39.1486876423
  0
ARC
  5
37F
100
AcDbEntity
  8
RUNDUNGEN
100
AcDbCircle
 62
7
  6
CONTINUOUS
 10
153.3029320817
 20
46.1806549658
 40
2.5
100
AcDbArc
 50
31.3069722275
 51
58.0724728042
  0
ARC
  5
380
100
AcDbEntity
  8
RUNDUNGEN
100
AcDbCircle
 62
7
  6
CONTINUOUS
 10
153.3161065823
 20
46.1724554458
 40
2.4999998081
100
AcDbArc
 50
32.5504964493
 51
58.1317460926
  0
ARC
  5
381
100
AcDbEntity
  8
0
100
AcDbCircle
 62
7
  6
CONTINUOUS
 10
139.2356243894
 20
58.9114205654
 40
41.5
100
AcDbArc
 50
337.3225971215
 51
25.3223719953
  0
CIRCLE
  5
382
100
AcDbEntity
  8
RUNDUNGEN
100
AcDbCircle
 62
7
  6
CONTINUOUS
 10
139.2356243894
 20
58.9114205654
 40
41.25
  0
ARC
  5
383
100
AcDbEntity
  8
RUNDUNGEN
100
AcDbCircle
 62
7
  6
CONTINUOUS
 10
154.7356243894
 20
74.5559084125
 40
3.0
100
AcDbArc
 50
321.2605754021
 51
360.0
  0
ARC
  5
384
100
AcDbEntity
  8
RUNDUNGEN
100
AcDbCircle
 62
7
  6
CONTINUOUS
 10
149.2356243894
 20
67.9114205654
 40
2.5
100
AcDbArc
 50
270.0
 51
323.1304213557
  0
ARC
  5
385
100
AcDbEntity
  8
RUNDUNGEN
100
AcDbCircle
 62
7
  6
CONTINUOUS
 10
153.3029325272
 20
71.6421867317
 40
2.4999999916
100
AcDbArc
 50
301.9275116606
 51
328.6930113691
  0
ARC
  5
386
100
AcDbEntity
  8
RUNDUNGEN
100
AcDbCircle
 62
7
  6
CONTINUOUS
 10
154.7356243894
 20
93.880156602
 40
3.0
100
AcDbArc
 50
0.0000517236
 51
66.0943149491
  0
ARC
  5
387
100
AcDbEntity
  8
RUNDUNGEN
100
AcDbCircle
 62
7
  6
CONTINUOUS
 10
154.7356243894
 20
88.1614205654
 40
3.0
100
AcDbArc
 50
0.0
 51
90.0
  0
ARC
  5
388
100
AcDbEntity
  8
RUNDUNGEN
100
AcDbCircle
 62
7
  6
CONTINUOUS
 10
174.2356243894
 20
58.9114205654
 40
22.0
100
AcDbArc
 50
211.3069722275
 51
219.1486876423
  0
ARC
  5
389
100
AcDbEntity
  8
RUNDUNGEN
100
AcDbCircle
 62
7
  6
CONTINUOUS
 10
174.2356243894
 20
58.9114205654
 40
22.0
100
AcDbArc
 50
141.2605754021
 51
148.6930277725
  0
ARC
  5
38A
100
AcDbEntity
  8
RUNDUNGEN
100
AcDbCircle
 62
7
  6
CONTINUOUS
 10
161.2356243894
 20
58.9114205654
 40
12.5
100
AcDbArc
 50
216.8698953643
 51
238.1275704689
  0
ARC
  5
38B
100
AcDbEntity
  8
RUNDUNGEN
100
AcDbCircle
 62
7
  6
CONTINUOUS
 10
161.2356243894
 20
58.9114205654
 40
12.5
100
AcDbArc
 50
121.8765172354
 51
143.1300385539
  0
ELLIPSE
  5
38C
100
AcDbEntity
  8
0
100
AcDbEllipse
 62
7
  6
CONTINUOUS
 10
139.2356243894
 20
173.4218035299
 30
0.0
 11
-0.0
 21
127.148678496
 31
0.0
 40
0.3263895503
 41
-1.590375891
 42
-1.5858571285
  0
ELLIPSE
  5
38D
100
AcDbEntity
  8
0
100
AcDbEllipse
 62
7
  6
CONTINUOUS
 10
139.2356243894
 20
172.0388297194
 30
0.0
 11
-0.0
 21
56.5106315613
 31
0.0
 40
0.7343750875
 41
-1.6039349219
 42
-1.590375891
  0
ELLIPSE
  5
38E
100
AcDbEntity
  8
0
100
AcDbEllipse
 62
7
  6
CONTINUOUS
 10
139.2356243894
 20
171.2196803787
 30
0.0
 11
41.5
 21
-0.0
 31
0.0
 40
0.7659569903
 41
-0.0512272303
 42
-0.0331385951
  0
ELLIPSE
  5
38F
100
AcDbEntity
  8
0
100
AcDbEllipse
 62
7
  6
CONTINUOUS
 10
139.2356243894
 20
170.0260642405
 30
0.0
 11
41.5
 21
0.0
 31
0.0
 40
0.2042553727
 41
-0.0738623235
 42
-0.0512272303
  0
ELLIPSE
  5
390
100
AcDbEntity
  8
0
100
AcDbEllipse
 62
7
  6
CONTINUOUS
 10
139.2356243894
 20
173.7537234298
 30
0.0
 11
41.5
 21
-0.0
 31
0.0
 40
0.2042553727
 41
0.0512272303
 42
0.0738623235
  0
ELLIPSE
  5
391
100
AcDbEntity
  8
0
100
AcDbEllipse
 62
7
  6
CONTINUOUS
 10
139.2356243894
 20
172.5601072916
 30
0.0
 11
41.5
 21
0.0
 31
0.0
 40
0.7659569903
 41
0.0331385951
 42
0.0512272303
  0
ELLIPSE
  5
392
100
AcDbEntity
  8
0
100
AcDbEllipse
 62
7
  6
CONTINUOUS
 10
139.2356243894
 20
171.7409579509
 30
0.0
 11
-0.0
 21
56.5106315613
 31
0.0
 40
0.7343750875
 41
4.7319685446
 42
4.7455275755
  0
ELLIPSE
  5
393
100
AcDbEntity
  8
0
100
AcDbEllipse
 62
7
  6
CONTINUOUS
 10
139.2356243894
 20
170.3579841404
 30
0.0
 11
-0.0
 21
127.148678496
 31
0.0
 40
0.3263895503
 41
-1.5557355251
 42
-1.5512167626
  0
ELLIPSE
  5
394
100
AcDbEntity
  8
0
100
AcDbEllipse
 62
7
  6
CONTINUOUS
 10
139.2356243894
 20
199.2728960536
 30
0.0
 11
-0.0
 21
127.1490422717
 31
0.0
 40
0.3263886165
 41
-1.7955759824
 42
-1.7909437578
  0
ELLIPSE
  5
395
100
AcDbEntity
  8
0
100
AcDbEllipse
 62
7
  6
CONTINUOUS
 10
139.2356243894
 20
183.5281900519
 30
0.0
 11
-0.0
 21
56.5106315613
 31
0.0
 40
0.7343750875
 41
-1.8095026013
 42
-1.7955759824
  0
ELLIPSE
  5
396
100
AcDbEntity
  8
0
100
AcDbEllipse
 62
7
  6
CONTINUOUS
 10
139.2356243894
 20
177.6824478598
 30
0.0
 11
41.5
 21
0.0
 31
0.0
 40
0.7659575381
 41
-0.257349327
 42
-0.2387062745
  0
ELLIPSE
  5
397
100
AcDbEntity
  8
0
100
AcDbEllipse
 62
7
  6
CONTINUOUS
 10
139.2356243894
 20
171.7494676037
 30
0.0
 11
41.5
 21
0.0
 31
0.0
 40
0.2042552558
 41
-0.2807833784
 42
-0.257349327
  0
ELLIPSE
  5
398
100
AcDbEntity
  8
0
100
AcDbEllipse
 62
7
  6
CONTINUOUS
 10
139.2356243894
 20
172.0303200666
 30
0.0
 11
41.5
 21
0.0
 31
0.0
 40
0.2042552558
 41
0.257349327
 42
0.2807833784
  0
ELLIPSE
  5
399
100
AcDbEntity
  8
0
100
AcDbEllipse
 62
7
  6
CONTINUOUS
 10
139.2356243894
 20
166.0973398105
 30
0.0
 11
41.5
 21
-0.0
 31
0.0
 40
0.7659575381
 41
0.2387062745
 42
0.257349327
  0
ELLIPSE
  5
39A
100
AcDbEntity
  8
0
100
AcDbEllipse
 62
7
  6
CONTINUOUS
 10
139.2356243894
 20
160.2515976184
 30
0.0
 11
-0.0
 21
56.5106315613
 31
0.0
 40
0.7343750875
 41
-1.3460166712
 42
-1.3320900523
  0
ELLIPSE
  5
39B
100
AcDbEntity
  8
0
100
AcDbEllipse
 62
7
  6
CONTINUOUS
 10
139.2356243894
 20
144.5068916167
 30
0.0
 11
-0.0
 21
127.1490422717
 31
0.0
 40
0.3263886165
 41
-1.3506488958
 42
-1.3460166712
  0
ELLIPSE
  5
39C
100
AcDbEntity
  8
0
100
AcDbEllipse
 62
7
  6
CONTINUOUS
 10
139.2356243894
 20
179.7111704454
 30
0.0
 11
41.5
 21
0.0
 31
0.0
 40
0.2042553906
 41
6.2440186763
 42
6.2666182843
  0
ELLIPSE
  5
39D
100
AcDbEntity
  8
0
100
AcDbEllipse
 62
7
  6
CONTINUOUS
 10
139.2356243894
 20
179.921808531
 30
0.0
 11
41.5
 21
0.0
 31
0.0
 40
0.5106380606
 41
-0.0165670229
 42
-0.0000000423
  0
ELLIPSE
  5
39E
100
AcDbEntity
  8
0
100
AcDbEllipse
 62
7
  6
CONTINUOUS
 10
139.2356243894
 20
181.42180629
 30
0.0
 11
-0.0
 21
169.5325413992
 31
0.0
 40
0.244790762
 41
-1.5692902935
 42
-1.5647722026
  0
ELLIPSE
  5
39F
100
AcDbEntity
  8
0
100
AcDbEllipse
 62
7
  6
CONTINUOUS
 10
139.2356243894
 20
187.2558516016
 30
0.0
 11
41.5
 21
-0.0
 31
0.0
 40
0.2042552558
 41
0.1101624371
 42
0.1329211844
  0
ELLIPSE
  5
3A0
100
AcDbEntity
  8
0
100
AcDbEllipse
 62
7
  6
CONTINUOUS
 10
139.2356243894
 20
184.6930850392
 30
0.0
 11
41.5
 21
-0.0
 31
0.0
 40
0.7659575381
 41
0.0919971844
 42
0.1101624371
  0
ELLIPSE
  5
3A1
100
AcDbEntity
  8
0
100
AcDbEllipse
 62
7
  6
CONTINUOUS
 10
139.2356243894
 20
182.4218094104
 30
0.0
 11
0.0
 21
56.5106315613
 31
0.0
 40
0.7343750875
 41
-1.4924028033
 42
-1.4787991424
  0
ELLIPSE
  5
3A2
100
AcDbEntity
  8
0
100
AcDbEllipse
 62
7
  6
CONTINUOUS
 10
139.2356243894
 20
176.8898856801
 30
0.0
 11
-0.0
 21
127.1490422717
 31
0.0
 40
0.3263886165
 41
-1.496933999
 42
-1.4924028033
  0
ELLIPSE
  5
3A3
100
AcDbEntity
  8
0
100
AcDbEllipse
 62
7
  6
CONTINUOUS
 10
139.2356243894
 20
194.8899019902
 30
0.0
 11
-0.0
 21
127.1490422717
 31
0.0
 40
0.3263886165
 41
-1.6491898503
 42
-1.6446586546
  0
ELLIPSE
  5
3A4
100
AcDbEntity
  8
0
100
AcDbEllipse
 62
7
  6
CONTINUOUS
 10
139.2356243894
 20
189.3579782599
 30
0.0
 11
-0.0
 21
56.5106315613
 31
0.0
 40
0.7343750875
 41
-1.6627935112
 42
-1.6491898503
  0
ELLIPSE
  5
3A5
100
AcDbEntity
  8
0
100
AcDbEllipse
 62
7
  6
CONTINUOUS
 10
139.2356243894
 20
186.1132982598
 30
0.0
 11
41.5
 21
-0.0
 31
0.0
 40
0.5106383587
 41
-0.1101624371
 42
-0.0919971844
  0
ELLIPSE
  5
3A6
100
AcDbEntity
  8
0
100
AcDbEllipse
 62
7
  6
CONTINUOUS
 10
139.2356243894
 20
171.8757098567
 30
0.0
 11
-0.0
 21
108.3120570183
 31
0.0
 40
0.3831521729
 41
-1.5014636889
 42
-1.4606338897
  0
ELLIPSE
  5
3A7
100
AcDbEntity
  8
0
100
AcDbEllipse
 62
7
  6
CONTINUOUS
 10
139.2356243894
 20
168.1531903711
 30
0.0
 11
-0.0
 21
110.5851145437
 31
0.0
 40
0.3730158455
 41
-1.4691059996
 42
-1.4324768978
  0
ELLIPSE
  5
3A8
100
AcDbEntity
  8
0
100
AcDbEllipse
 62
7
  6
CONTINUOUS
 10
139.2356243894
 20
174.4005316264
 30
0.0
 11
41.5
 21
0.0
 31
0.0
 40
0.3404254913
 41
-0.2760843322
 42
-0.2620241569
  0
ELLIPSE
  5
3A9
100
AcDbEntity
  8
0
100
AcDbEllipse
 62
7
  6
CONTINUOUS
 10
139.2356243894
 20
172.4430856485
 30
0.0
 11
41.25
 21
0.0
 31
0.0
 40
0.3404254913
 41
0.0560900035
 42
0.0697535122
  0
ELLIPSE
  5
3AA
100
AcDbEntity
  8
0
100
AcDbEllipse
 62
7
  6
CONTINUOUS
 10
139.2356243894
 20
170.8686157423
 30
0.0
 11
-0.0
 21
42.1276947286
 31
0.0
 40
0.9791658496
 41
-1.5238093423
 42
-1.5147063233
  0
ELLIPSE
  5
3AB
100
AcDbEntity
  8
0
100
AcDbEllipse
 62
7
  6
CONTINUOUS
 10
139.2356243894
 20
166.9111826149
 30
0.0
 11
-0.0
 21
126.3827226015
 31
0.0
 40
0.3263895503
 41
-1.5283593568
 42
-1.5238093423
  0
ELLIPSE
  5
3AC
100
AcDbEntity
  8
0
100
AcDbEllipse
 62
7
  6
CONTINUOUS
 10
139.2356243894
 20
177.0600943942
 30
0.0
 11
-0.0
 21
126.3827226015
 31
0.0
 40
0.3263895503
 41
-1.6177833113
 42
-1.6132332968
  0
ELLIPSE
  5
3AD
100
AcDbEntity
  8
0
100
AcDbEllipse
 62
7
  6
CONTINUOUS
 10
139.2356243894
 20
173.1026612669
 30
0.0
 11
-0.0
 21
42.1276947286
 31
0.0
 40
0.9791658496
 41
-1.6268863302
 42
-1.6177833113
  0
ELLIPSE
  5
3AE
100
AcDbEntity
  8
0
100
AcDbEllipse
 62
7
  6
CONTINUOUS
 10
139.2356243894
 20
171.5281913606
 30
0.0
 11
41.25
 21
-0.0
 31
0.0
 40
0.3404254913
 41
-0.0697535122
 42
-0.0560900035
  0
ELLIPSE
  5
3AF
100
AcDbEntity
  8
0
100
AcDbEllipse
 62
7
  6
CONTINUOUS
 10
139.2356243894
 20
169.5707453828
 30
0.0
 11
41.25
 21
0.0
 31
0.0
 40
0.3404254913
 41
0.2636499067
 42
0.2778018396
  0
ELLIPSE
  5
3B0
100
AcDbEntity
  8
0
100
AcDbEllipse
 62
7
  6
CONTINUOUS
 10
139.2356243894
 20
162.2516024324
 30
0.0
 11
-0.0
 21
42.1276344644
 31
0.0
 40
0.9791672503
 41
-1.316550913
 42
-1.3071464201
  0
ELLIPSE
  5
3B1
100
AcDbEntity
  8
0
100
AcDbEllipse
 62
7
  6
CONTINUOUS
 10
139.2356243894
 20
141.0600802298
 30
0.0
 11
-0.0
 21
126.3830841857
 31
0.0
 40
0.3263886165
 41
-1.3212444923
 42
-1.316550913
  0
ELLIPSE
  5
3B2
100
AcDbEntity
  8
0
100
AcDbEllipse
 62
7
  6
CONTINUOUS
 10
139.2356243894
 20
202.9111967793
 30
0.0
 11
-0.0
 21
126.3830841857
 31
0.0
 40
0.3263886165
 41
-1.8250417406
 42
-1.8203481613
  0
ELLIPSE
  5
3B3
100
AcDbEntity
  8
0
100
AcDbEllipse
 62
7
  6
CONTINUOUS
 10
139.2356243894
 20
181.7196745767
 30
0.0
 11
-0.0
 21
42.1276344644
 31
0.0
 40
0.9791672503
 41
-1.8344462335
 42
-1.8250417406
  0
ELLIPSE
  5
3B4
100
AcDbEntity
  8
0
100
AcDbEllipse
 62
7
  6
CONTINUOUS
 10
139.2356243894
 20
174.4005316264
 30
0.0
 11
41.25
 21
0.0
 31
0.0
 40
0.3404254913
 41
-0.2778018396
 42
-0.2636499067
  0
ELLIPSE
  5
3B5
100
AcDbEntity
  8
0
100
AcDbEllipse
 62
7
  6
CONTINUOUS
 10
139.2356243894
 20
181.7196745767
 30
0.0
 11
0.0
 21
42.3829534612
 31
0.0
 40
0.9791672503
 41
-1.8328204837
 42
-1.8234765819
  0
ELLIPSE
  5
3B6
100
AcDbEntity
  8
0
100
AcDbEllipse
 62
7
  6
CONTINUOUS
 10
139.2356243894
 20
202.9111967793
 30
0.0
 11
-0.0
 21
127.1490422717
 31
0.0
 40
0.3263886165
 41
-1.8234765819
 42
-1.8188131321
  0
ELLIPSE
  5
3B7
100
AcDbEntity
  8
0
100
AcDbEllipse
 62
7
  6
CONTINUOUS
 10
139.2356243894
 20
141.0600802298
 30
0.0
 11
-0.0
 21
127.1490422717
 31
0.0
 40
0.3263886165
 41
-1.3227795215
 42
-1.3181160717
  0
ELLIPSE
  5
3B8
100
AcDbEntity
  8
0
100
AcDbEllipse
 62
7
  6
CONTINUOUS
 10
139.2356243894
 20
162.2516024324
 30
0.0
 11
0.0
 21
42.3829534612
 31
0.0
 40
0.9791672503
 41
-1.3181160717
 42
-1.3087721698
  0
ELLIPSE
  5
3B9
100
AcDbEntity
  8
0
100
AcDbEllipse
 62
7
  6
CONTINUOUS
 10
139.2356243894
 20
169.5707453828
 30
0.0
 11
41.5
 21
-0.0
 31
0.0
 40
0.3404254913
 41
0.2620241569
 42
0.2760843322
  0
ELLIPSE
  5
3BA
100
AcDbEntity
  8
0
100
AcDbEllipse
 62
7
  6
CONTINUOUS
 10
139.2356243894
 20
185.6132983308
 30
0.0
 11
41.25
 21
0.0
 31
0.0
 40
0.3404254913
 41
0.1154075325
 42
0.1291465864
  0
ELLIPSE
  5
3BB
100
AcDbEntity
  8
0
100
AcDbEllipse
 62
7
  6
CONTINUOUS
 10
139.2356243894
 20
182.3792583545
 30
0.0
 11
-0.0
 21
42.1276344644
 31
0.0
 40
0.9791672503
 41
-1.4645358641
 42
-1.4553887943
  0
ELLIPSE
  5
3BC
100
AcDbEntity
  8
0
100
AcDbEllipse
 62
7
  6
CONTINUOUS
 10
139.2356243894
 20
173.4430742932
 30
0.0
 11
0.0
 21
126.3830841857
 31
0.0
 40
0.3263886165
 41
-1.4691059996
 42
-1.4645358641
  0
ELLIPSE
  5
3BD
100
AcDbEntity
  8
0
100
AcDbEllipse
 62
7
  6
CONTINUOUS
 10
139.2356243894
 20
198.528202716
 30
0.0
 11
-0.0
 21
126.3830841857
 31
0.0
 40
0.3263886165
 41
-1.6770567895
 42
-1.672486654
  0
ELLIPSE
  5
3BE
100
AcDbEntity
  8
0
100
AcDbEllipse
 62
7
  6
CONTINUOUS
 10
139.2356243894
 20
189.5920186546
 30
0.0
 11
-0.0
 21
42.1276344644
 31
0.0
 40
0.9791672503
 41
-1.6862038593
 42
-1.6770567895
  0
ELLIPSE
  5
3BF
100
AcDbEntity
  8
0
100
AcDbEllipse
 62
7
  6
CONTINUOUS
 10
139.2356243894
 20
186.3579786784
 30
0.0
 11
41.25
 21
-0.0
 31
0.0
 40
0.3404254913
 41
-0.1291465864
 42
-0.1154075325
  0
ELLIPSE
  5
3C0
100
AcDbEntity
  8
0
100
AcDbEllipse
 62
7
  6
CONTINUOUS
 10
139.2356243894
 20
179.8898933811
 30
0.0
 11
0.0
 21
42.3830178009
 31
0.0
 40
0.9791657639
 41
-1.5692902935
 42
-1.5512167712
  0
ELLIPSE
  5
3C1
100
AcDbEntity
  8
0
100
AcDbEllipse
 62
7
  6
CONTINUOUS
 10
139.2356243894
 20
179.060107976
 30
0.0
 11
-0.0
 21
84.7659217639
 31
0.0
 40
0.4895835394
 41
-1.5512167712
 42
-1.542177967
  0
ELLIPSE
  5
3C2
100
AcDbEntity
  8
0
100
AcDbEllipse
 62
7
  6
CONTINUOUS
 10
139.2356243894
 20
175.4218219191
 30
0.0
 11
-0.0
 21
211.91446416
 31
0.0
 40
0.1958337302
 41
-1.542177967
 42
-1.5376577274
  0
ELLIPSE
  5
3C3
100
AcDbEntity
  8
0
100
AcDbEllipse
 62
7
  6
CONTINUOUS
 10
139.2356243894
 20
171.5281913606
 30
0.0
 11
41.5
 21
-0.0
 31
0.0
 40
0.3404254913
 41
-0.0693326336
 42
-0.0557517603
  0
ELLIPSE
  5
3C4
100
AcDbEntity
  8
0
100
AcDbEllipse
 62
7
  6
CONTINUOUS
 10
139.2356243894
 20
186.3579786784
 30
0.0
 11
41.5
 21
-0.0
 31
0.0
 40
0.3404254913
 41
-0.1283642802
 42
-0.1147092315
  0
ELLIPSE
  5
3C5
100
AcDbEntity
  8
0
100
AcDbEllipse
 62
7
  6
CONTINUOUS
 10
139.2356243894
 20
189.5920186546
 30
0.0
 11
0.0
 21
42.3829534612
 31
0.0
 40
0.9791672503
 41
-1.6855055583
 42
-1.676414268
  0
ELLIPSE
  5
3C6
100
AcDbEntity
  8
0
100
AcDbEllipse
 62
7
  6
CONTINUOUS
 10
139.2356243894
 20
198.528202716
 30
0.0
 11
-0.0
 21
127.1490422717
 31
0.0
 40
0.3263886165
 41
-1.676414268
 42
-1.6718719606
  0
ELLIPSE
  5
3C7
100
AcDbEntity
  8
0
100
AcDbEllipse
 62
7
  6
CONTINUOUS
 10
139.2356243894
 20
173.4430742932
 30
0.0
 11
-0.0
 21
127.1490422717
 31
0.0
 40
0.3263886165
 41
-1.469720693
 42
-1.4651783856
  0
ELLIPSE
  5
3C8
100
AcDbEntity
  8
0
100
AcDbEllipse
 62
7
  6
CONTINUOUS
 10
139.2356243894
 20
173.1026612669
 30
0.0
 11
-0.0
 21
42.3830140906
 31
0.0
 40
0.9791658496
 41
-1.6265480871
 42
-1.6175000506
  0
ELLIPSE
  5
3C9
100
AcDbEntity
  8
0
100
AcDbEllipse
 62
7
  6
CONTINUOUS
 10
139.2356243894
 20
182.3792583545
 30
0.0
 11
-0.0
 21
42.3829534612
 31
0.0
 40
0.9791672503
 41
-1.4651783856
 42
-1.4560870953
  0
ELLIPSE
  5
3CA
100
AcDbEntity
  8
0
100
AcDbEllipse
 62
7
  6
CONTINUOUS
 10
139.2356243894
 20
185.6132983308
 30
0.0
 11
41.5
 21
0.0
 31
0.0
 40
0.3404254913
 41
0.1147092315
 42
0.1283642802
  0
ELLIPSE
  5
3CB
100
AcDbEntity
  8
0
100
AcDbEllipse
 62
7
  6
CONTINUOUS
 10
139.2356243894
 20
177.0600943942
 30
0.0
 11
-0.0
 21
127.148678496
 31
0.0
 40
0.3263895503
 41
-1.6175000506
 42
-1.6129775002
  0
ELLIPSE
  5
3CC
100
AcDbEntity
  8
0
100
AcDbEllipse
 62
7
  6
CONTINUOUS
 10
139.2356243894
 20
166.9111826149
 30
0.0
 11
-0.0
 21
127.148678496
 31
0.0
 40
0.3263895503
 41
-1.5286151533
 42
-1.524092603
  0
ELLIPSE
  5
3CD
100
AcDbEntity
  8
0
100
AcDbEllipse
 62
7
  6
CONTINUOUS
 10
139.2356243894
 20
170.8686157423
 30
0.0
 11
0.0
 21
42.3830140906
 31
0.0
 40
0.9791658496
 41
-1.524092603
 42
-1.5150445665
  0
ELLIPSE
  5
3CE
100
AcDbEntity
  8
0
100
AcDbEllipse
 62
7
  6
CONTINUOUS
 10
139.2356243894
 20
172.4430856485
 30
0.0
 11
41.5
 21
0.0
 31
0.0
 40
0.3404254913
 41
0.0557517603
 42
0.0693326336
  0
ELLIPSE
  5
3CF
100
AcDbEntity
  8
0
100
AcDbEllipse
 62
7
  6
CONTINUOUS
 10
139.2356243894
 20
168.1531903711
 30
0.0
 11
-0.0
 21
111.2553273592
 31
0.0
 40
0.3730158455
 41
-1.469720693
 42
-1.4333154535
  0
ENDSEC
  0
SECTION
  2
OBJECTS
  0
DICTIONARY
  5
C
100
AcDbDictionary
280
0
281
1
  3
ACAD_GROUP
350
D
  3
ACAD_MLINESTYLE
350
17
  3
ACAD_LAYOUT
350
1A
  3
ACAD_PLOTSETTINGS
350
19
  3
ACAD_PLOTSTYLENAME
350
E
  0
DICTIONARY
  5
D
102
{ACAD_REACTORS
330
C
102
}
100
AcDbDictionary
280
0
281
1
  0
ACDBDICTIONARYWDFLT
  5
E
102
{ACAD_REACTORS
330
C
102
}
100
AcDbDictionary
281
1
  3
Normal
350
F
100
AcDbDictionaryWithDefault
340
F
  0
DICTIONARY
  5
17
102
{ACAD_REACTORS
330
C
102
}
100
AcDbDictionary
280
0
281
1
  3
Standard
350
18
  0
DICTIONARY
  5
19
102
{ACAD_REACTORS
330
C
102
}
100
AcDbDictionary
281
1
  0
DICTIONARY
  5
1A
102
{ACAD_REACTORS
330
C
102
}
100
AcDbDictionary
281
1
  3
Model
350
3D0
  3
Layout1
350
3D1
  0
ACDBPLACEHOLDER
  5
F
102
{ACAD_REACTORS
330
E
102
}
  0
MLINESTYLE
  5
18
102
{ACAD_REACTORS
330
17
102
}
100
AcDbMlineStyle
  2
STANDARD
 70
0
  3

 62
256
 51
90.0
 52
90.0
 71
2
 49
0.5
 62
256
  6
BYLAYER
 49
-0.5
 62
256
  6
BYLAYER
  0
LAYOUT
  5
3D0
102
{ACAD_REACTORS
330
1A
102
}
100
AcDbPlotSettings
  1

  2
none_device
  4
ISO_A3_(420.00_x_297.00_MM)
  6

 40
0.0
 41
0.0
 42
0.0
 43
0.0
 44
420.0
 45
297.0
 46
0.0
 47
0.0
 48
0.0
 49
0.0
140
0.0
141
0.0
142
1.0
143
1.0
 70
1024
 72
1
 73
0
 74
0
  7

 75
0
147
1.0
148
0.0
149
0.0
100
AcDbLayout
  1
Model
 70
0
 71
0
 10
0.0
 20
0.0
 11
420.0
 21
297.0
 12
0.0
 22
0.0
 32
0.0
 14
0.0
 24
0.0
 34
0.0
 15
0.0
 25
0.0
 35
0.0
146
0.0
 13
0.0
 23
0.0
 33
0.0
 16
1.0
 26
0.0
 36
0.0
 17
0.0
 27
1.0
 37
0.0
 76
0
330
209
345
0
346
0
  0
LAYOUT
  5
3D1
102
{ACAD_REACTORS
330
1A
102
}
100
AcDbPlotSettings
  1

  2
none_device
  4
ISO_A3_(420.00_x_297.00_MM)
  6

 40
0.0
 41
0.0
 42
0.0
 43
0.0
 44
420.0
 45
297.0
 46
0.0
 47
0.0
 48
0.0
 49
0.0
140
0.0
141
0.0
142
1.0
143
1.0
 70
0
 72
1
 73
0
 74
0
  7

 75
0
147
1.0
148
0.0
149
0.0
100
AcDbLayout
  1
Layout1
 70
0
 71
1
 10
0.0
 20
0.0
 11
420.0
 21
297.0
 12
0.0
 22
0.0
 32
0.0
 14
0.0
 24
0.0
 34
0.0
 15
0.0
 25
0.0
 35
0.0
146
0.0
 13
0.0
 23
0.0
 33
0.0
 16
1.0
 26
0.0
 36
0.0
 17
0.0
 27
1.0
 37
0.0
 76
0
330
20A
345
0
346
0
  0
ENDSEC
  0
EOF
