999
DXF file: 001-m31341-p-50.dxf
999
Pro/ENGINEER 2011490 by Parametric Technology Corporation
  0
SECTION
  2
HEADER
  9
$ACADVER
  1
AC1015
  9
$DWGCODEPAGE
  3
ANSI_1252
  9
$EXTMAX
 10
420.0
 20
297.0
 30
0.0
  9
$EXTMIN
 10
0.0
 20
0.0
 30
0.0
  9
$LIMMIN
 10
0.0
 20
0.0
  9
$LIMMAX
 10
420.0
 20
297.0
  9
$VIEWCTR
 10
210.0
 20
148.5
  9
$VIEWSIZE
 40
297.0
  9
$CLAYER
  8
0
  9
$LTSCALE
 40
23.1
  9
$CELTYPE
  6
BYLAYER
  9
$DIMSCALE
 40
1.0
  9
$DIMASZ
 40
3.5
  9
$DIMEXO
 40
2.625
  9
$DIMDLI
 40
15.96
  9
$DIMEXE
 40
7.56
  9
$DIMCEN
 40
3.78
  9
$DIMLFAC
 40
1.0
  9
$DIMBLK
  1
_FILLED
  9
$DIMTXT
 40
3.5
  9
$DIMTOL
 70
1
  9
$DIMLIM
 70
0
  9
$DIMTFAC
 40
1.0
  9
$DIMTP
 40
0.005
  9
$DIMTM
 40
0.005
  9
$PDMODE
 70
3
  9
$PDSIZE
 40
0.3125
  9
$HANDSEED
  5
3E3
  9
$TILEMODE
 70
1
  9
$MEASUREMENT
 70
1
  9
$INSUNITS
 70
4
  0
ENDSEC
  0
SECTION
  2
CLASSES
  0
CLASS
  1
ACDBDICTIONARYWDFLT
  2
AcDbDictionaryWithDefault
  3
AutoCAD 2000
 90
0
280
0
281
0
  0
CLASS
  1
ACDBPLACEHOLDER
  2
AcDbPlaceHolder
  3
AutoCAD 2000
 90
0
280
0
281
0
  0
CLASS
  1
LAYOUT
  2
AcDbLayout
  3
AutoCAD 2000
 90
0
280
0
281
0
  0
ENDSEC
  0
SECTION
  2
TABLES
  0
TABLE
  2
VPORT
  5
8
100
AcDbSymbolTable
 70
2
  0
VPORT
  5
1F4
100
AcDbSymbolTableRecord
100
AcDbViewportTableRecord
  2
*ACTIVE
 70
0
 10
0.0
 20
0.0
 11
1.0
 21
1.0
 12
210.0
 22
148.5
 13
0.0
 23
0.0
 14
1.0
 24
1.0
 15
0.0
 25
0.0
 16
0.0
 26
0.0
 36
1.0
 17
0.0
 27
0.0
 37
0.0
 40
297.0
 41
1.4141414141
 42
50.0
 43
0.0
 44
0.0
 50
0.0
 51
0.0
 71
0
 72
100
 73
1
 74
1
 75
0
 76
0
 77
0
 78
0
  0
ENDTAB
  0
TABLE
  2
LTYPE
  5
5
100
AcDbSymbolTable
 70
6
  0
LTYPE
  5
14
100
AcDbSymbolTableRecord
100
AcDbLinetypeTableRecord
  2
BYBLOCK
 70
0
  3

 72
65
 73
0
 40
0.0
  0
LTYPE
  5
15
100
AcDbSymbolTableRecord
100
AcDbLinetypeTableRecord
  2
BYLAYER
 70
0
  3

 72
65
 73
0
 40
0.0
  0
LTYPE
  5
16
100
AcDbSymbolTableRecord
100
AcDbLinetypeTableRecord
  2
CONTINUOUS
 70
64
  3
Solid line
 72
65
 73
0
 40
0.0
  0
LTYPE
  5
1F5
100
AcDbSymbolTableRecord
100
AcDbLinetypeTableRecord
  2
CENTER
 70
64
  3
____ _ ____ _ ____ _ ____ _ ____ _ ____ _ ____
 72
65
 73
4
 40
0.6
 49
0.375
 74
0
 49
-0.075
 74
0
 49
0.075
 74
0
 49
-0.075
 74
0
  0
LTYPE
  5
1F6
100
AcDbSymbolTableRecord
100
AcDbLinetypeTableRecord
  2
HIDDEN
 70
64
  3
- - - - - - - - - - - - - - - - - - - -
 72
65
 73
2
 40
0.2
 49
0.1
 74
0
 49
-0.1
 74
0
  0
LTYPE
  5
1F7
100
AcDbSymbolTableRecord
100
AcDbLinetypeTableRecord
  2
PHANTOM
 70
64
  3
_____ _ _ _____ _ _ _____ _ _ _____
 72
65
 73
6
 40
0.8
 49
0.45
 74
0
 49
-0.05
 74
0
 49
0.1
 74
0
 49
-0.05
 74
0
 49
0.1
 74
0
 49
-0.05
 74
0
  0
LTYPE
  5
1F8
100
AcDbSymbolTableRecord
100
AcDbLinetypeTableRecord
  2
DOT
 70
64
  3
. . . . . . . . . . . . . . . . . . . .
 72
65
 73
2
 40
0.2
 49
0.1
 74
0
 49
-0.1
 74
0
  0
LTYPE
  5
1F9
100
AcDbSymbolTableRecord
100
AcDbLinetypeTableRecord
  2
DASHED
 70
64
  3
- - - - - - - - - - - - - - - - - - - -
 72
65
 73
2
 40
0.2
 49
0.1
 74
0
 49
-0.1
 74
0
  0
ENDTAB
  0
TABLE
  2
LAYER
  5
2
100
AcDbSymbolTable
 70
36
  0
LAYER
  5
10
100
AcDbSymbolTableRecord
100
AcDbLayerTableRecord
  2
0
 70
0
 62
7
  6
CONTINUOUS
370
-3
390
F
  0
LAYER
  5
1FA
100
AcDbSymbolTableRecord
100
AcDbLayerTableRecord
  2
DEFAULT_1
 70
0
 62
7
  6
CENTER
370
-3
390
F
  0
LAYER
  5
1FB
100
AcDbSymbolTableRecord
100
AcDbLayerTableRecord
  2
DEFAULT_2
 70
0
 62
8
  6
HIDDEN
370
-3
390
F
  0
LAYER
  5
1FC
100
AcDbSymbolTableRecord
100
AcDbLayerTableRecord
  2
DEFAULT_3
 70
0
 62
7
  6
PHANTOM
370
-3
390
F
  0
LAYER
  5
1FD
100
AcDbSymbolTableRecord
100
AcDbLayerTableRecord
  2
BEZUGSACHSEN
 70
0
 62
7
  6
CONTINUOUS
370
-3
390
F
  0
LAYER
  5
1FE
100
AcDbSymbolTableRecord
100
AcDbLayerTableRecord
  2
BEZUGSEBENEN
 70
0
 62
7
  6
CONTINUOUS
370
-3
390
F
  0
LAYER
  5
1FF
100
AcDbSymbolTableRecord
100
AcDbLayerTableRecord
  2
BG_STARTBEZUEGE
 70
0
 62
7
  6
CONTINUOUS
370
-3
390
F
  0
LAYER
  5
200
100
AcDbSymbolTableRecord
100
AcDbLayerTableRecord
  2
FASEN
 70
0
 62
7
  6
CONTINUOUS
370
-3
390
F
  0
LAYER
  5
201
100
AcDbSymbolTableRecord
100
AcDbLayerTableRecord
  2
HILFEN
 70
0
 62
7
  6
CONTINUOUS
370
-3
390
F
  0
LAYER
  5
202
100
AcDbSymbolTableRecord
100
AcDbLayerTableRecord
  2
NORM
 70
0
 62
7
  6
CONTINUOUS
370
-3
390
F
  0
LAYER
  5
203
100
AcDbSymbolTableRecord
100
AcDbLayerTableRecord
  2
PLATZIERUNG
 70
0
 62
7
  6
CONTINUOUS
370
-3
390
F
  0
LAYER
  5
204
100
AcDbSymbolTableRecord
100
AcDbLayerTableRecord
  2
RUNDUNGEN
 70
0
 62
7
  6
CONTINUOUS
370
-3
390
F
  0
LAYER
  5
205
100
AcDbSymbolTableRecord
100
AcDbLayerTableRecord
  2
T_STARTBEZUEGE
 70
0
 62
7
  6
CONTINUOUS
370
-3
390
F
  0
LAYER
  5
206
100
AcDbSymbolTableRecord
100
AcDbLayerTableRecord
  2
ZEICHNUNGSBEMASSUNGEN
 70
0
 62
7
  6
CONTINUOUS
370
-3
390
F
  0
ENDTAB
  0
TABLE
  2
STYLE
  5
3
100
AcDbSymbolTable
 70
1
  0
STYLE
  5
11
100
AcDbSymbolTableRecord
100
AcDbTextStyleTableRecord
  2
STANDARD
 70
0
 40
0.0
 41
0.7
 50
0.0
 71
0
 42
0.2
  3
txt
  4

  0
STYLE
  5
207
100
AcDbSymbolTableRecord
100
AcDbTextStyleTableRecord
  2
TEXTSTYLE_1
 70
0
 40
0.0
 41
0.8
 50
0.0
 71
0
 42
0.2
  3
gdt
  4

  0
ENDTAB
  0
TABLE
  2
VIEW
  5
6
100
AcDbSymbolTable
 70
0
  0
ENDTAB
  0
TABLE
  2
UCS
  5
7
100
AcDbSymbolTable
 70
0
  0
ENDTAB
  0
TABLE
  2
APPID
  5
9
100
AcDbSymbolTable
 70
1
  0
APPID
  5
208
100
AcDbSymbolTableRecord
100
AcDbRegAppTableRecord
  2
ACAD
 70
0
  0
ENDTAB
  0
TABLE
  2
BLOCK_RECORD
  5
1
100
AcDbSymbolTable
 70
0
  0
BLOCK_RECORD
  5
209
100
AcDbSymbolTableRecord
100
AcDbBlockTableRecord
  2
*Model_Space
  0
BLOCK_RECORD
  5
20A
100
AcDbSymbolTableRecord
100
AcDbBlockTableRecord
  2
*Paper_Space
  0
ENDTAB
  0
TABLE
  2
DIMSTYLE
  5
A
100
AcDbSymbolTable
 70
1
100
AcDbDimStyleTable
 71
0
  0
DIMSTYLE
105
20B
100
AcDbSymbolTableRecord
100
AcDbDimStyleTableRecord
  2
STANDARD
 70
0
  3

  4

 40
1.0
 41
3.5
 42
0.0625
 43
0.38
 44
0.18
 45
0.0
 46
0.0
 47
0.005
 48
0.005
140
3.5
141
0.09
142
0.0
143
25.4
144
1.0
145
0.0
146
1.0
147
0.09
 71
1.0
 72
0.0
 73
0
 74
0
 75
0
 76
0
 77
1
 78
8
170
0
171
2
172
0
173
0
174
0
175
0
176
0
177
0
178
5
270
2
271
3
272
3
273
2
274
2
275
0
280
0
281
0
282
0
283
1
284
8
285
0
286
0
287
3
288
0
340
11
  0
ENDTAB
  0
ENDSEC
  0
SECTION
  2
BLOCKS
  0
BLOCK
  5
20
100
AcDbEntity
  8
0
100
AcDbBlockBegin
  2
*Model_Space
 70
0
 10
0.0
 20
0.0
 30
0.0
  3
*Model_Space
  1

  0
ENDBLK
  5
21
100
AcDbEntity
  8
0
100
AcDbBlockEnd
  0
BLOCK
  5
1C
100
AcDbEntity
  8
0
100
AcDbBlockBegin
  2
*Paper_Space
 70
0
 10
0.0
 20
0.0
 30
0.0
  3
*Paper_Space
  1

  0
ENDBLK
  5
1D
100
AcDbEntity
  8
0
100
AcDbBlockEnd
  0
ENDSEC
  0
SECTION
  2
ENTITIES
  0
MTEXT
  5
20C
100
AcDbEntity
  8
0
100
AcDbMText
 62
5
  6
CONTINUOUS
  7
STANDARD
 71
2
 72
1
 10
138.1704029345
 20
58.6543316647
 30
0.0
 11
0.0
 21
1.0
 31
0.0
 44
0.9
  1
RUD WPPH\PVIP 10 4t
 40
8.0
 41
57.3333333333
  0
MTEXT
  5
20D
100
AcDbEntity
  8
0
100
AcDbMText
 62
5
  6
CONTINUOUS
  7
STANDARD
 71
2
 72
1
 10
300.4149135096
 20
191.049082008
 30
0.0
 11
1.0
 21
0.0
 31
0.0
 44
0.9
  1
RUD\PWPPH 4t
 40
7.0
 41
41.0
  0
LINE
  5
20E
100
AcDbEntity
  8
0
100
AcDbLine
 62
7
  6
CONTINUOUS
 10
0.0
 20
0.0
 11
0.0
 21
297.0
  0
LINE
  5
20F
100
AcDbEntity
  8
0
100
AcDbLine
 62
7
  6
CONTINUOUS
 10
0.0
 20
0.0
 11
420.0
 21
0.0
  0
LINE
  5
210
100
AcDbEntity
  8
0
100
AcDbLine
 62
7
  6
CONTINUOUS
 10
0.0
 20
297.0
 11
420.0
 21
297.0
  0
LINE
  5
211
100
AcDbEntity
  8
0
100
AcDbLine
 62
7
  6
CONTINUOUS
 10
420.0
 20
0.0
 11
420.0
 21
297.0
  0
LINE
  5
212
100
AcDbEntity
  8
0
100
AcDbLine
 62
7
  6
CONTINUOUS
 10
116.8673638461
 20
159.8624386101
 11
114.3500649526
 21
162.8624386101
  0
LINE
  5
213
100
AcDbEntity
  8
0
100
AcDbLine
 62
7
  6
CONTINUOUS
 10
116.8673638461
 20
159.8624386101
 11
179.8327660591
 21
159.8624386101
  0
LINE
  5
214
100
AcDbEntity
  8
0
100
AcDbLine
 62
7
  6
CONTINUOUS
 10
182.3500649526
 20
162.8624386101
 11
114.3500649526
 21
162.8624386101
  0
LINE
  5
215
100
AcDbEntity
  8
0
100
AcDbLine
 62
7
  6
CONTINUOUS
 10
178.8623575574
 20
163.8624386101
 11
179.5799960084
 21
163.8624386101
  0
LINE
  5
216
100
AcDbEntity
  8
0
100
AcDbLine
 62
7
  6
CONTINUOUS
 10
181.403037942
 20
163.8624386101
 11
181.8705664918
 21
163.8624386101
  0
LINE
  5
217
100
AcDbEntity
  8
0
100
AcDbLine
 62
7
  6
CONTINUOUS
 10
182.3500649526
 20
166.0964811205
 11
182.5087022641
 21
166.0964811205
  0
LINE
  5
218
100
AcDbEntity
  8
0
100
AcDbLine
 62
7
  6
CONTINUOUS
 10
182.337137403
 20
166.5752044677
 11
182.600064864
 21
166.5752044677
  0
LINE
  5
219
100
AcDbEntity
  8
0
100
AcDbLine
 62
7
  6
CONTINUOUS
 10
114.3500649526
 20
194.8624386101
 11
114.3500649526
 21
162.8624386101
  0
LINE
  5
21A
100
AcDbEntity
  8
0
100
AcDbLine
 62
7
  6
CONTINUOUS
 10
182.3392492388
 20
167.2135024874
 11
181.8705664918
 21
167.2135024874
  0
LINE
  5
21B
100
AcDbEntity
  8
0
100
AcDbLine
 62
7
  6
CONTINUOUS
 10
180.6997171919
 20
167.2135024874
 11
179.5799960084
 21
167.2135024874
  0
LINE
  5
21C
100
AcDbEntity
  8
0
100
AcDbLine
 62
7
  6
CONTINUOUS
 10
182.4271260304
 20
167.3730769365
 11
182.600064864
 21
167.3730769365
  0
LINE
  5
21D
100
AcDbEntity
  8
0
100
AcDbLine
 62
7
  6
CONTINUOUS
 10
182.3582786101
 20
168.1709491818
 11
181.8705664918
 21
168.1709491818
  0
LINE
  5
21E
100
AcDbEntity
  8
0
100
AcDbLine
 62
7
  6
CONTINUOUS
 10
180.7536327752
 20
168.1709491818
 11
179.5799960084
 21
168.1709491818
  0
LINE
  5
21F
100
AcDbEntity
  8
0
100
AcDbLine
 62
7
  6
CONTINUOUS
 10
180.6472687299
 20
168.3305236309
 11
180.9103455385
 21
168.3305236309
  0
LINE
  5
220
100
AcDbEntity
  8
0
100
AcDbLine
 62
7
  6
CONTINUOUS
 10
182.1596044804
 20
168.3305236309
 11
182.4110024482
 21
168.3305236309
  0
LINE
  5
221
100
AcDbEntity
  8
0
100
AcDbLine
 62
7
  6
CONTINUOUS
 10
180.7484035481
 20
168.649672529
 11
181.0106657393
 21
168.649672529
  0
LINE
  5
222
100
AcDbEntity
  8
0
100
AcDbLine
 62
7
  6
CONTINUOUS
 10
182.191362186
 20
168.649672529
 11
182.4425259732
 21
168.649672529
  0
LINE
  5
223
100
AcDbEntity
  8
0
100
AcDbLine
 62
7
  6
CONTINUOUS
 10
180.797724081
 20
169.1283958762
 11
181.0595908268
 21
169.1283958762
  0
LINE
  5
224
100
AcDbEntity
  8
0
100
AcDbLine
 62
7
  6
CONTINUOUS
 10
182.2061482592
 20
169.1283958762
 11
182.4572031624
 21
169.1283958762
  0
LINE
  5
225
100
AcDbEntity
  8
0
100
AcDbLine
 62
7
  6
CONTINUOUS
 10
180.797724081
 20
169.6071196704
 11
181.0595908268
 21
169.6071196704
  0
LINE
  5
226
100
AcDbEntity
  8
0
100
AcDbLine
 62
7
  6
CONTINUOUS
 10
182.2061482592
 20
169.6071196704
 11
182.4572031624
 21
169.6071196704
  0
LINE
  5
227
100
AcDbEntity
  8
0
100
AcDbLine
 62
7
  6
CONTINUOUS
 10
180.7484035481
 20
170.0858430176
 11
181.0106657393
 21
170.0858430176
  0
LINE
  5
228
100
AcDbEntity
  8
0
100
AcDbLine
 62
7
  6
CONTINUOUS
 10
182.191362186
 20
170.0858430176
 11
182.4425259732
 21
170.0858430176
  0
LINE
  5
229
100
AcDbEntity
  8
0
100
AcDbLine
 62
7
  6
CONTINUOUS
 10
180.6472687299
 20
170.4049919157
 11
180.9103455385
 21
170.4049919157
  0
LINE
  5
22A
100
AcDbEntity
  8
0
100
AcDbLine
 62
7
  6
CONTINUOUS
 10
182.1596044804
 20
170.4049919157
 11
182.4110024482
 21
170.4049919157
  0
LINE
  5
22B
100
AcDbEntity
  8
0
100
AcDbLine
 62
7
  6
CONTINUOUS
 10
182.3582786101
 20
170.5645663648
 11
181.8705664918
 21
170.5645663648
  0
LINE
  5
22C
100
AcDbEntity
  8
0
100
AcDbLine
 62
7
  6
CONTINUOUS
 10
180.7536327752
 20
170.5645663648
 11
179.5799960084
 21
170.5645663648
  0
LINE
  5
22D
100
AcDbEntity
  8
0
100
AcDbLine
 62
7
  6
CONTINUOUS
 10
178.8623575574
 20
171.3624386101
 11
180.6997171919
 21
171.3624386101
  0
LINE
  5
22E
100
AcDbEntity
  8
0
100
AcDbLine
 62
7
  6
CONTINUOUS
 10
181.403037942
 20
171.3624386101
 11
182.3392492388
 21
171.3624386101
  0
LINE
  5
22F
100
AcDbEntity
  8
0
100
AcDbLine
 62
7
  6
CONTINUOUS
 10
180.8462185712
 20
174.8624386101
 11
181.3793488345
 21
174.8624386101
  0
LINE
  5
230
100
AcDbEntity
  8
0
100
AcDbLine
 62
7
  6
CONTINUOUS
 10
181.9568066037
 20
174.8624386101
 11
182.5986392815
 21
174.8624386101
  0
LINE
  5
231
100
AcDbEntity
  8
0
100
AcDbLine
 62
7
  6
CONTINUOUS
 10
182.3506522846
 20
175.0220130731
 11
182.582596424
 21
175.0220130731
  0
LINE
  5
232
100
AcDbEntity
  8
0
100
AcDbLine
 62
7
  6
CONTINUOUS
 10
182.3353996686
 20
175.3411620131
 11
182.5569121826
 21
175.3411620131
  0
LINE
  5
233
100
AcDbEntity
  8
0
100
AcDbLine
 62
7
  6
CONTINUOUS
 10
182.6000649526
 20
175.8198854162
 11
182.5986392815
 21
175.8198854162
  0
LINE
  5
234
100
AcDbEntity
  8
0
100
AcDbLine
 62
7
  6
CONTINUOUS
 10
182.3041014763
 20
175.9794598653
 11
182.5197786964
 21
175.9794598653
  0
LINE
  5
235
100
AcDbEntity
  8
0
100
AcDbLine
 62
7
  6
CONTINUOUS
 10
182.2710216326
 20
176.6177577733
 11
182.4969072185
 21
176.6177577733
  0
LINE
  5
236
100
AcDbEntity
  8
0
100
AcDbLine
 62
7
  6
CONTINUOUS
 10
182.2335394337
 20
177.4156300186
 11
182.4843928779
 21
177.4156300186
  0
LINE
  5
237
100
AcDbEntity
  8
0
100
AcDbLine
 62
7
  6
CONTINUOUS
 10
181.9956064103
 20
178.2135024874
 11
181.3793488345
 21
178.2135024874
  0
LINE
  5
238
100
AcDbEntity
  8
0
100
AcDbLine
 62
7
  6
CONTINUOUS
 10
182.0536064449
 20
179.1709491818
 11
181.3793488345
 21
179.1709491818
  0
LINE
  5
239
100
AcDbEntity
  8
0
100
AcDbLine
 62
7
  6
CONTINUOUS
 10
181.8815333565
 20
179.3305236309
 11
182.1350005501
 21
179.3305236309
  0
LINE
  5
23A
100
AcDbEntity
  8
0
100
AcDbLine
 62
7
  6
CONTINUOUS
 10
181.9324612898
 20
179.649672529
 11
182.1855469759
 21
179.649672529
  0
LINE
  5
23B
100
AcDbEntity
  8
0
100
AcDbLine
 62
7
  6
CONTINUOUS
 10
181.9568066037
 20
180.1283958762
 11
182.2097103199
 21
180.1283958762
  0
LINE
  5
23C
100
AcDbEntity
  8
0
100
AcDbLine
 62
7
  6
CONTINUOUS
 10
181.9568066037
 20
180.6071196704
 11
182.2097103199
 21
180.6071196704
  0
LINE
  5
23D
100
AcDbEntity
  8
0
100
AcDbLine
 62
7
  6
CONTINUOUS
 10
181.9324612898
 20
181.0858430176
 11
182.1855469759
 21
181.0858430176
  0
LINE
  5
23E
100
AcDbEntity
  8
0
100
AcDbLine
 62
7
  6
CONTINUOUS
 10
181.8815333565
 20
181.4049919157
 11
182.1350005501
 21
181.4049919157
  0
LINE
  5
23F
100
AcDbEntity
  8
0
100
AcDbLine
 62
7
  6
CONTINUOUS
 10
182.0536064449
 20
181.5645663648
 11
181.3793488345
 21
181.5645663648
  0
LINE
  5
240
100
AcDbEntity
  8
0
100
AcDbLine
 62
7
  6
CONTINUOUS
 10
180.8462185712
 20
182.3624386101
 11
182.0249814336
 21
182.3624386101
  0
LINE
  5
241
100
AcDbEntity
  8
0
100
AcDbLine
 62
7
  6
CONTINUOUS
 10
182.2335394337
 20
182.3624386101
 11
182.5487034652
 21
182.3624386101
  0
LINE
  5
242
100
AcDbEntity
  8
0
100
AcDbLine
 62
7
  6
CONTINUOUS
 10
132.8500649526
 20
207.7124386101
 11
132.8500649526
 21
211.8791051774
  0
LINE
  5
243
100
AcDbEntity
  8
0
100
AcDbLine
 62
7
  6
CONTINUOUS
 10
132.8500649526
 20
212.7124386101
 11
132.8500649526
 21
213.3374386101
  0
LINE
  5
244
100
AcDbEntity
  8
0
100
AcDbLine
 62
7
  6
CONTINUOUS
 10
132.8500649526
 20
214.1707717447
 11
132.8500649526
 21
218.0249386101
  0
LINE
  5
245
100
AcDbEntity
  8
0
100
AcDbLine
 62
7
  6
CONTINUOUS
 10
132.8500649526
 20
219.5056954608
 11
132.8500649526
 21
222.8053900704
  0
LINE
  5
246
100
AcDbEntity
  8
0
100
AcDbLine
 62
7
  6
CONTINUOUS
 10
132.8500649526
 20
223.8582723408
 11
132.8500649526
 21
225.1082723408
  0
LINE
  5
247
100
AcDbEntity
  8
0
100
AcDbLine
 62
7
  6
CONTINUOUS
 10
132.8500649526
 20
225.9416048794
 11
132.8500649526
 21
229.6916060715
  0
LINE
  5
248
100
AcDbEntity
  8
RUNDUNGEN
100
AcDbLine
 62
7
  6
CONTINUOUS
 10
133.3500649526
 20
231.8624386101
 11
133.3500649526
 21
202.8624832886
  0
LINE
  5
249
100
AcDbEntity
  8
RUNDUNGEN
100
AcDbLine
 62
7
  6
CONTINUOUS
 10
179.3500649526
 20
197.8624386101
 11
168.3500644973
 21
197.8624386101
  0
LINE
  5
24A
100
AcDbEntity
  8
RUNDUNGEN
100
AcDbLine
 62
7
  6
CONTINUOUS
 10
128.3500649526
 20
197.8624386101
 11
117.3500649526
 21
197.8624386101
  0
LINE
  5
24B
100
AcDbEntity
  8
0
100
AcDbLine
 62
7
  6
CONTINUOUS
 10
133.3500649526
 20
207.7124386101
 11
132.8500649526
 21
207.7124386101
  0
LINE
  5
24C
100
AcDbEntity
  8
0
100
AcDbLine
 62
7
  6
CONTINUOUS
 10
133.3500649526
 20
209.3791053264
 11
132.8500649526
 21
209.3791053264
  0
LINE
  5
24D
100
AcDbEntity
  8
0
100
AcDbLine
 62
7
  6
CONTINUOUS
 10
133.3500649526
 20
210.2124386101
 11
132.8500649526
 21
210.2124386101
  0
LINE
  5
24E
100
AcDbEntity
  8
0
100
AcDbLine
 62
7
  6
CONTINUOUS
 10
133.3500649526
 20
211.8791051774
 11
132.8500649526
 21
211.8791051774
  0
LINE
  5
24F
100
AcDbEntity
  8
0
100
AcDbLine
 62
7
  6
CONTINUOUS
 10
133.3500649526
 20
212.7124386101
 11
132.8500649526
 21
212.7124386101
  0
LINE
  5
250
100
AcDbEntity
  8
0
100
AcDbLine
 62
7
  6
CONTINUOUS
 10
133.3500649526
 20
213.3374386101
 11
132.8500649526
 21
213.3374386101
  0
LINE
  5
251
100
AcDbEntity
  8
0
100
AcDbLine
 62
7
  6
CONTINUOUS
 10
133.3500649526
 20
214.1707717447
 11
132.8500649526
 21
214.1707717447
  0
LINE
  5
252
100
AcDbEntity
  8
0
100
AcDbLine
 62
7
  6
CONTINUOUS
 10
133.3500649526
 20
214.4053900704
 11
132.8500649526
 21
214.4053900704
  0
LINE
  5
253
100
AcDbEntity
  8
RUNDUNGEN
100
AcDbLine
 62
7
  6
CONTINUOUS
 10
163.3500649526
 20
202.8625184569
 11
163.3500649526
 21
231.8624386101
  0
LINE
  5
254
100
AcDbEntity
  8
0
100
AcDbLine
 62
7
  6
CONTINUOUS
 10
133.3500649526
 20
217.7053900704
 11
132.8500649526
 21
217.7053900704
  0
LINE
  5
255
100
AcDbEntity
  8
0
100
AcDbLine
 62
7
  6
CONTINUOUS
 10
133.3500649526
 20
217.9207723408
 11
132.8500649526
 21
217.9207723408
  0
LINE
  5
256
100
AcDbEntity
  8
0
100
AcDbLine
 62
7
  6
CONTINUOUS
 10
133.3500649526
 20
218.0249386101
 11
132.8500649526
 21
218.0249386101
  0
LINE
  5
257
100
AcDbEntity
  8
0
100
AcDbLine
 62
7
  6
CONTINUOUS
 10
133.3500649526
 20
219.5053900704
 11
132.8500649526
 21
219.5053900704
  0
LINE
  5
258
100
AcDbEntity
  8
0
100
AcDbLine
 62
7
  6
CONTINUOUS
 10
133.3500649526
 20
222.8053900704
 11
132.8500649526
 21
222.8053900704
  0
LINE
  5
259
100
AcDbEntity
  8
0
100
AcDbLine
 62
7
  6
CONTINUOUS
 10
133.3500649526
 20
223.8582723408
 11
132.8500649526
 21
223.8582723408
  0
LINE
  5
25A
100
AcDbEntity
  8
0
100
AcDbLine
 62
7
  6
CONTINUOUS
 10
133.3500649526
 20
224.4832723408
 11
132.8500649526
 21
224.4832723408
  0
LINE
  5
25B
100
AcDbEntity
  8
0
100
AcDbLine
 62
7
  6
CONTINUOUS
 10
133.3500649526
 20
225.1082723408
 11
132.8500649526
 21
225.1082723408
  0
LINE
  5
25C
100
AcDbEntity
  8
0
100
AcDbLine
 62
7
  6
CONTINUOUS
 10
133.3500649526
 20
225.9416048794
 11
132.8500649526
 21
225.9416048794
  0
LINE
  5
25D
100
AcDbEntity
  8
0
100
AcDbLine
 62
7
  6
CONTINUOUS
 10
133.3500649526
 20
226.0457723408
 11
132.8500649526
 21
226.0457723408
  0
LINE
  5
25E
100
AcDbEntity
  8
0
100
AcDbLine
 62
7
  6
CONTINUOUS
 10
133.3500649526
 20
226.1499386101
 11
132.8500649526
 21
226.1499386101
  0
LINE
  5
25F
100
AcDbEntity
  8
0
100
AcDbLine
 62
7
  6
CONTINUOUS
 10
133.3500649526
 20
226.3582723408
 11
132.8500649526
 21
226.3582723408
  0
LINE
  5
260
100
AcDbEntity
  8
0
100
AcDbLine
 62
7
  6
CONTINUOUS
 10
133.3500649526
 20
226.6707723408
 11
132.8500649526
 21
226.6707723408
  0
LINE
  5
261
100
AcDbEntity
  8
0
100
AcDbLine
 62
7
  6
CONTINUOUS
 10
133.3500649526
 20
227.1916048794
 11
132.8500649526
 21
227.1916048794
  0
LINE
  5
262
100
AcDbEntity
  8
0
100
AcDbLine
 62
7
  6
CONTINUOUS
 10
133.3500649526
 20
227.8166060715
 11
132.8500649526
 21
227.8166060715
  0
LINE
  5
263
100
AcDbEntity
  8
0
100
AcDbLine
 62
7
  6
CONTINUOUS
 10
133.3500649526
 20
228.4416060715
 11
132.8500649526
 21
228.4416060715
  0
LINE
  5
264
100
AcDbEntity
  8
0
100
AcDbLine
 62
7
  6
CONTINUOUS
 10
133.3500649526
 20
228.9624386101
 11
132.8500649526
 21
228.9624386101
  0
LINE
  5
265
100
AcDbEntity
  8
0
100
AcDbLine
 62
7
  6
CONTINUOUS
 10
133.3500649526
 20
229.2749386101
 11
132.8500649526
 21
229.2749386101
  0
LINE
  5
266
100
AcDbEntity
  8
0
100
AcDbLine
 62
7
  6
CONTINUOUS
 10
133.3500649526
 20
229.4832711487
 11
132.8500649526
 21
229.4832711487
  0
LINE
  5
267
100
AcDbEntity
  8
0
100
AcDbLine
 62
7
  6
CONTINUOUS
 10
133.3500649526
 20
229.5874386101
 11
132.8500649526
 21
229.5874386101
  0
LINE
  5
268
100
AcDbEntity
  8
0
100
AcDbLine
 62
7
  6
CONTINUOUS
 10
133.3500649526
 20
229.6916060715
 11
132.8500649526
 21
229.6916060715
  0
LINE
  5
269
100
AcDbEntity
  8
0
100
AcDbLine
 62
7
  6
CONTINUOUS
 10
178.8623575574
 20
171.3624386101
 11
178.8623575574
 21
163.8624386101
  0
LINE
  5
26A
100
AcDbEntity
  8
0
100
AcDbLine
 62
7
  6
CONTINUOUS
 10
179.1406885254
 20
171.3624386101
 11
179.1406885254
 21
163.8624386101
  0
LINE
  5
26B
100
AcDbEntity
  8
0
100
AcDbLine
 62
7
  6
CONTINUOUS
 10
179.5799960084
 20
170.5645663648
 11
179.5799960084
 21
168.1709491818
  0
LINE
  5
26C
100
AcDbEntity
  8
0
100
AcDbLine
 62
7
  6
CONTINUOUS
 10
179.5799960084
 20
167.2135024874
 11
179.5799960084
 21
163.8624386101
  0
LINE
  5
26D
100
AcDbEntity
  8
0
100
AcDbLine
 62
7
  6
CONTINUOUS
 10
180.797724081
 20
169.6071196704
 11
180.797724081
 21
169.1283958762
  0
LINE
  5
26E
100
AcDbEntity
  8
0
100
AcDbLine
 62
7
  6
CONTINUOUS
 10
180.8462185712
 20
182.3624386101
 11
180.8462185712
 21
174.8624386101
  0
LINE
  5
26F
100
AcDbEntity
  8
0
100
AcDbLine
 62
7
  6
CONTINUOUS
 10
181.0595908268
 20
169.6071196704
 11
181.0595908268
 21
169.1283958762
  0
LINE
  5
270
100
AcDbEntity
  8
0
100
AcDbLine
 62
7
  6
CONTINUOUS
 10
181.107697651
 20
182.3624386101
 11
181.107697651
 21
174.8624386101
  0
LINE
  5
271
100
AcDbEntity
  8
0
100
AcDbLine
 62
7
  6
CONTINUOUS
 10
181.336079348
 20
169.6071196704
 11
181.336079348
 21
168.9688214271
  0
LINE
  5
272
100
AcDbEntity
  8
0
100
AcDbLine
 62
7
  6
CONTINUOUS
 10
181.3793488345
 20
181.5645663648
 11
181.3793488345
 21
179.1709491818
  0
LINE
  5
273
100
AcDbEntity
  8
0
100
AcDbLine
 62
7
  6
CONTINUOUS
 10
181.3793488345
 20
178.2135024874
 11
181.3793488345
 21
174.8624386101
  0
LINE
  5
274
100
AcDbEntity
  8
0
100
AcDbLine
 62
7
  6
CONTINUOUS
 10
181.403037942
 20
171.3624386101
 11
181.403037942
 21
163.8624386101
  0
LINE
  5
275
100
AcDbEntity
  8
0
100
AcDbLine
 62
7
  6
CONTINUOUS
 10
181.6601463611
 20
171.3624386101
 11
181.6601463611
 21
163.8624386101
  0
LINE
  5
276
100
AcDbEntity
  8
0
100
AcDbLine
 62
7
  6
CONTINUOUS
 10
181.8705664918
 20
170.5645663648
 11
181.8705664918
 21
168.1709491818
  0
LINE
  5
277
100
AcDbEntity
  8
0
100
AcDbLine
 62
7
  6
CONTINUOUS
 10
181.8705664918
 20
167.2135024874
 11
181.8705664918
 21
163.8624386101
  0
LINE
  5
278
100
AcDbEntity
  8
0
100
AcDbLine
 62
7
  6
CONTINUOUS
 10
181.9568066037
 20
180.6071196704
 11
181.9568066037
 21
180.1283958762
  0
LINE
  5
279
100
AcDbEntity
  8
0
100
AcDbLine
 62
7
  6
CONTINUOUS
 10
182.2061482592
 20
169.6071196704
 11
182.2061482592
 21
169.1283958762
  0
LINE
  5
27A
100
AcDbEntity
  8
0
100
AcDbLine
 62
7
  6
CONTINUOUS
 10
182.2097103199
 20
180.6071196704
 11
182.2097103199
 21
180.1283958762
  0
LINE
  5
27B
100
AcDbEntity
  8
0
100
AcDbLine
 62
7
  6
CONTINUOUS
 10
182.2335394337
 20
182.3624386101
 11
182.2335394337
 21
181.8416886207
  0
LINE
  5
27C
100
AcDbEntity
  8
0
100
AcDbLine
 62
7
  6
CONTINUOUS
 10
182.2335394337
 20
178.7734342706
 11
182.2335394337
 21
177.4156300186
  0
LINE
  5
27D
100
AcDbEntity
  8
0
100
AcDbLine
 62
7
  6
CONTINUOUS
 10
182.337137403
 20
167.2135024874
 11
182.337137403
 21
166.5752044677
  0
LINE
  5
27E
100
AcDbEntity
  8
0
100
AcDbLine
 62
7
  6
CONTINUOUS
 10
182.3392492203
 20
180.6071196704
 11
182.3392492203
 21
179.9688214271
  0
LINE
  5
27F
100
AcDbEntity
  8
0
100
AcDbLine
 62
7
  6
CONTINUOUS
 10
182.3500649526
 20
194.8624386101
 11
182.3500649526
 21
182.3624386101
  0
LINE
  5
280
100
AcDbEntity
  8
0
100
AcDbLine
 62
7
  6
CONTINUOUS
 10
182.3500649526
 20
174.8624386101
 11
182.3500649526
 21
171.3442123797
  0
LINE
  5
281
100
AcDbEntity
  8
0
100
AcDbLine
 62
7
  6
CONTINUOUS
 10
182.3500649526
 20
166.5752044677
 11
182.3500649526
 21
162.8624386101
  0
LINE
  5
282
100
AcDbEntity
  8
0
100
AcDbLine
 62
7
  6
CONTINUOUS
 10
182.4572031624
 20
169.6071196704
 11
182.4572031624
 21
169.1283958762
  0
LINE
  5
283
100
AcDbEntity
  8
0
100
AcDbLine
 62
7
  6
CONTINUOUS
 10
182.4843928779
 20
182.3624386101
 11
182.4843928779
 21
177.4156300186
  0
LINE
  5
284
100
AcDbEntity
  8
0
100
AcDbLine
 62
7
  6
CONTINUOUS
 10
182.5087022641
 20
166.5752044677
 11
182.5087022641
 21
166.0964811205
  0
LINE
  5
285
100
AcDbEntity
  8
0
100
AcDbLine
 62
7
  6
CONTINUOUS
 10
182.530137291
 20
169.6071196704
 11
182.530137291
 21
168.9688214271
  0
LINE
  5
286
100
AcDbEntity
  8
0
100
AcDbLine
 62
7
  6
CONTINUOUS
 10
182.5487034652
 20
182.3624386101
 11
182.5487034652
 21
177.4156300186
  0
LINE
  5
287
100
AcDbEntity
  8
0
100
AcDbLine
 62
7
  6
CONTINUOUS
 10
182.5872318002
 20
167.3730769365
 11
182.5872318002
 21
166.5752044677
  0
LINE
  5
288
100
AcDbEntity
  8
0
100
AcDbLine
 62
7
  6
CONTINUOUS
 10
182.6000649526
 20
175.8198854162
 11
182.6000649526
 21
175.0220130731
  0
LINE
  5
289
100
AcDbEntity
  8
0
100
AcDbLine
 62
7
  6
CONTINUOUS
 10
182.6000649526
 20
167.3730769365
 11
182.6000649526
 21
166.5752044677
  0
LINE
  5
28A
100
AcDbEntity
  8
0
100
AcDbLine
 62
7
  6
CONTINUOUS
 10
179.8327660591
 20
159.8624386101
 11
182.3500649526
 21
162.8624386101
  0
LINE
  5
28B
100
AcDbEntity
  8
0
100
AcDbLine
 62
7
  6
CONTINUOUS
 10
267.4428678174
 20
159.8624386101
 11
264.9255689238
 21
162.8624386101
  0
LINE
  5
28C
100
AcDbEntity
  8
RUNDUNGEN
100
AcDbLine
 62
7
  6
CONTINUOUS
 10
275.5710093277
 20
245.790963746
 11
271.8613911514
 21
241.3700129572
  0
LINE
  5
28D
100
AcDbEntity
  8
0
100
AcDbLine
 62
7
  6
CONTINUOUS
 10
267.4428678174
 20
159.8624386101
 11
330.4082700303
 21
159.8624386101
  0
LINE
  5
28E
100
AcDbEntity
  8
0
100
AcDbLine
 62
7
  6
CONTINUOUS
 10
332.9255689238
 20
162.8624386101
 11
264.9255689238
 21
162.8624386101
  0
LINE
  5
28F
100
AcDbEntity
  8
0
100
AcDbLine
 62
7
  6
CONTINUOUS
 10
264.9255689238
 20
210.5585910328
 11
264.9255689238
 21
162.8624386101
  0
LINE
  5
290
100
AcDbEntity
  8
RUNDUNGEN
100
AcDbLine
 62
7
  6
CONTINUOUS
 10
265.3274927125
 20
212.0585910328
 11
270.4566578371
 21
220.942565629
  0
LINE
  5
291
100
AcDbEntity
  8
0
100
AcDbLine
 62
7
  6
CONTINUOUS
 10
276.9002496861
 20
229.2749386101
 11
276.581100788
 21
228.9624386101
  0
LINE
  5
292
100
AcDbEntity
  8
0
100
AcDbLine
 62
7
  6
CONTINUOUS
 10
277.0066326522
 20
228.6499386101
 11
277.6449307464
 21
229.0666060715
  0
LINE
  5
293
100
AcDbEntity
  8
0
100
AcDbLine
 62
7
  6
CONTINUOUS
 10
277.3257815503
 20
229.4832711487
 11
276.9002496861
 21
229.2749386101
  0
LINE
  5
294
100
AcDbEntity
  8
0
100
AcDbLine
 62
7
  6
CONTINUOUS
 10
276.581100788
 20
228.9624386101
 11
276.2619518899
 21
228.4416060715
  0
LINE
  5
295
100
AcDbEntity
  8
0
100
AcDbLine
 62
7
  6
CONTINUOUS
 10
276.7938667201
 20
228.3374386101
 11
277.0066326522
 21
228.6499386101
  0
LINE
  5
296
100
AcDbEntity
  8
0
100
AcDbLine
 62
7
  6
CONTINUOUS
 10
280.410888087
 20
226.3582723408
 11
280.7300370224
 21
226.6707723408
  0
LINE
  5
297
100
AcDbEntity
  8
0
100
AcDbLine
 62
7
  6
CONTINUOUS
 10
280.304505121
 20
226.9832723408
 11
279.6662072502
 21
226.5666048794
  0
LINE
  5
298
100
AcDbEntity
  8
0
100
AcDbLine
 62
7
  6
CONTINUOUS
 10
277.6449307464
 20
229.5874386101
 11
277.3257815503
 21
229.4832711487
  0
LINE
  5
299
100
AcDbEntity
  8
RUNDUNGEN
100
AcDbLine
 62
7
  6
CONTINUOUS
 10
270.9255689238
 20
222.692565629
 11
270.9255689238
 21
238.7988625184
  0
LINE
  5
29A
100
AcDbEntity
  8
0
100
AcDbLine
 62
7
  6
CONTINUOUS
 10
276.2619518899
 20
228.4416060715
 11
276.1555689238
 21
227.8166060715
  0
LINE
  5
29B
100
AcDbEntity
  8
0
100
AcDbLine
 62
7
  6
CONTINUOUS
 10
276.687483754
 20
227.8166060715
 11
276.7938667201
 21
228.3374386101
  0
LINE
  5
29C
100
AcDbEntity
  8
0
100
AcDbLine
 62
7
  6
CONTINUOUS
 10
276.687483754
 20
216.7749386101
 11
276.7938667201
 21
217.0874386101
  0
LINE
  5
29D
100
AcDbEntity
  8
0
100
AcDbLine
 62
7
  6
CONTINUOUS
 10
280.7300370224
 20
226.6707723408
 11
281.0491859485
 21
227.1916048794
  0
LINE
  5
29E
100
AcDbEntity
  8
0
100
AcDbLine
 62
7
  6
CONTINUOUS
 10
280.5172710531
 20
227.2957723408
 11
280.304505121
 21
226.9832723408
  0
LINE
  5
29F
100
AcDbEntity
  8
0
100
AcDbLine
 62
7
  6
CONTINUOUS
 10
276.581100788
 20
217.6082717447
 11
276.2619518899
 21
217.1916054754
  0
LINE
  5
2A0
100
AcDbEntity
  8
0
100
AcDbLine
 62
7
  6
CONTINUOUS
 10
276.7938667201
 20
217.0874386101
 11
277.0066326522
 21
217.2957717447
  0
LINE
  5
2A1
100
AcDbEntity
  8
0
100
AcDbLine
 62
7
  6
CONTINUOUS
 10
279.9853561484
 20
226.1499386101
 11
280.410888087
 21
226.3582723408
  0
LINE
  5
2A2
100
AcDbEntity
  8
0
100
AcDbLine
 62
7
  6
CONTINUOUS
 10
279.6662072502
 20
226.0457723408
 11
279.9853561484
 21
226.1499386101
  0
LINE
  5
2A3
100
AcDbEntity
  8
0
100
AcDbLine
 62
7
  6
CONTINUOUS
 10
276.1555689238
 20
225.1082723408
 11
276.1555689238
 21
224.4832723408
  0
LINE
  5
2A4
100
AcDbEntity
  8
0
100
AcDbLine
 62
7
  6
CONTINUOUS
 10
276.1555689238
 20
216.6707717447
 11
276.1555689238
 21
214.1707717447
  0
LINE
  5
2A5
100
AcDbEntity
  8
0
100
AcDbLine
 62
7
  6
CONTINUOUS
 10
276.1555689238
 20
213.3374386101
 11
276.1555689238
 21
212.7124386101
  0
LINE
  5
2A6
100
AcDbEntity
  8
0
100
AcDbLine
 62
7
  6
CONTINUOUS
 10
276.1555689238
 20
211.8791051774
 11
276.1555689238
 21
211.2541051774
  0
LINE
  5
2A7
100
AcDbEntity
  8
0
100
AcDbLine
 62
7
  6
CONTINUOUS
 10
276.1555689238
 20
208.3374386101
 11
276.1555689238
 21
207.7124386101
  0
LINE
  5
2A8
100
AcDbEntity
  8
0
100
AcDbLine
 62
7
  6
CONTINUOUS
 10
276.687483754
 20
214.7957717447
 11
276.687483754
 21
216.7749386101
  0
LINE
  5
2A9
100
AcDbEntity
  8
0
100
AcDbLine
 62
7
  6
CONTINUOUS
 10
281.0491859485
 20
227.1916048794
 11
281.1555689238
 21
227.8166060715
  0
LINE
  5
2AA
100
AcDbEntity
  8
0
100
AcDbLine
 62
7
  6
CONTINUOUS
 10
276.2619518899
 20
217.1916054754
 11
276.1555689238
 21
216.6707717447
  0
LINE
  5
2AB
100
AcDbEntity
  8
0
100
AcDbLine
 62
7
  6
CONTINUOUS
 10
280.6236540191
 20
227.8166060715
 11
280.5172710531
 21
227.2957723408
  0
LINE
  5
2AC
100
AcDbEntity
  8
0
100
AcDbLine
 62
7
  6
CONTINUOUS
 10
277.0066326522
 20
217.9207723408
 11
276.581100788
 21
217.6082717447
  0
LINE
  5
2AD
100
AcDbEntity
  8
0
100
AcDbLine
 62
7
  6
CONTINUOUS
 10
278.2832285427
 20
216.7749386101
 11
278.2832285427
 21
214.7957717447
  0
LINE
  5
2AE
100
AcDbEntity
  8
0
100
AcDbLine
 62
7
  6
CONTINUOUS
 10
278.9215263389
 20
214.7957717447
 11
278.9215263389
 21
216.6707717447
  0
LINE
  5
2AF
100
AcDbEntity
  8
RUNDUNGEN
100
AcDbLine
 62
7
  6
CONTINUOUS
 10
293.0657164963
 20
224.9937155228
 11
290.3968013921
 21
222.6736630184
  0
LINE
  5
2B0
100
AcDbEntity
  8
0
100
AcDbLine
 62
7
  6
CONTINUOUS
 10
277.3257815503
 20
218.0249386101
 11
277.0066326522
 21
217.9207723408
  0
LINE
  5
2B1
100
AcDbEntity
  8
0
100
AcDbLine
 62
7
  6
CONTINUOUS
 10
277.0066326522
 20
217.2957717447
 11
277.3257815503
 21
217.3999386101
  0
LINE
  5
2B2
100
AcDbEntity
  8
0
100
AcDbLine
 62
7
  6
CONTINUOUS
 10
276.1555689238
 20
227.8166060715
 11
276.2619518899
 21
227.1916048794
  0
LINE
  5
2B3
100
AcDbEntity
  8
0
100
AcDbLine
 62
7
  6
CONTINUOUS
 10
281.1555689238
 20
209.3791053264
 11
281.1555689238
 21
210.2124386101
  0
LINE
  5
2B4
100
AcDbEntity
  8
0
100
AcDbLine
 62
7
  6
CONTINUOUS
 10
281.1555689238
 20
212.7124386101
 11
281.1555689238
 21
213.3374386101
  0
LINE
  5
2B5
100
AcDbEntity
  8
0
100
AcDbLine
 62
7
  6
CONTINUOUS
 10
281.1555689238
 20
214.1707717447
 11
281.1555689238
 21
214.7957717447
  0
LINE
  5
2B6
100
AcDbEntity
  8
0
100
AcDbLine
 62
7
  6
CONTINUOUS
 10
281.1555689238
 20
224.4832723408
 11
281.1555689238
 21
225.1082723408
  0
LINE
  5
2B7
100
AcDbEntity
  8
0
100
AcDbLine
 62
7
  6
CONTINUOUS
 10
278.1768455766
 20
217.0874386101
 11
278.2832285427
 21
216.7749386101
  0
LINE
  5
2B8
100
AcDbEntity
  8
0
100
AcDbLine
 62
7
  6
CONTINUOUS
 10
278.9215263389
 20
216.6707717447
 11
278.8151433729
 21
217.1916054754
  0
LINE
  5
2B9
100
AcDbEntity
  8
0
100
AcDbLine
 62
7
  6
CONTINUOUS
 10
276.7938667201
 20
227.2957723408
 11
276.687483754
 21
227.8166060715
  0
LINE
  5
2BA
100
AcDbEntity
  8
0
100
AcDbLine
 62
7
  6
CONTINUOUS
 10
280.5172710531
 20
209.7957718937
 11
276.1555689238
 21
208.3374386101
  0
LINE
  5
2BB
100
AcDbEntity
  8
0
100
AcDbLine
 62
7
  6
CONTINUOUS
 10
276.1555689238
 20
207.7124386101
 11
281.1555689238
 21
209.3791053264
  0
LINE
  5
2BC
100
AcDbEntity
  8
0
100
AcDbLine
 62
7
  6
CONTINUOUS
 10
280.5172710531
 20
228.3374386101
 11
280.6236540191
 21
227.8166060715
  0
LINE
  5
2BD
100
AcDbEntity
  8
0
100
AcDbLine
 62
7
  6
CONTINUOUS
 10
281.1555689238
 20
227.8166060715
 11
281.0491859485
 21
228.4416060715
  0
LINE
  5
2BE
100
AcDbEntity
  8
0
100
AcDbLine
 62
7
  6
CONTINUOUS
 10
278.8151433729
 20
217.1916054754
 11
278.4959944748
 21
217.6082717447
  0
LINE
  5
2BF
100
AcDbEntity
  8
0
100
AcDbLine
 62
7
  6
CONTINUOUS
 10
276.2619518899
 20
227.1916048794
 11
276.581100788
 21
226.6707723408
  0
LINE
  5
2C0
100
AcDbEntity
  8
RUNDUNGEN
100
AcDbLine
 62
7
  6
CONTINUOUS
 10
293.9255689238
 20
226.8804894734
 11
293.9255689238
 21
241.5195084371
  0
LINE
  5
2C1
100
AcDbEntity
  8
RUNDUNGEN
100
AcDbLine
 62
7
  6
CONTINUOUS
 10
322.6110074885
 20
197.8624386101
 11
275.2401303592
 21
197.8624386101
  0
LINE
  5
2C2
100
AcDbEntity
  8
0
100
AcDbLine
 62
7
  6
CONTINUOUS
 10
277.9640796446
 20
217.2957717447
 11
278.1768455766
 21
217.0874386101
  0
LINE
  5
2C3
100
AcDbEntity
  8
0
100
AcDbLine
 62
7
  6
CONTINUOUS
 10
277.0066326522
 20
226.9832723408
 11
276.7938667201
 21
227.2957723408
  0
LINE
  5
2C4
100
AcDbEntity
  8
0
100
AcDbLine
 62
7
  6
CONTINUOUS
 10
276.1555689238
 20
211.2541051774
 11
280.5172710531
 21
209.7957718937
  0
LINE
  5
2C5
100
AcDbEntity
  8
0
100
AcDbLine
 62
7
  6
CONTINUOUS
 10
278.4959944748
 20
217.6082717447
 11
278.0704626106
 21
217.9207723408
  0
LINE
  5
2C6
100
AcDbEntity
  8
0
100
AcDbLine
 62
7
  6
CONTINUOUS
 10
280.304505121
 20
228.6499386101
 11
280.5172710531
 21
228.3374386101
  0
LINE
  5
2C7
100
AcDbEntity
  8
0
100
AcDbLine
 62
7
  6
CONTINUOUS
 10
281.0491859485
 20
228.4416060715
 11
280.7300370224
 21
228.9624386101
  0
LINE
  5
2C8
100
AcDbEntity
  8
0
100
AcDbLine
 62
7
  6
CONTINUOUS
 10
281.1555689238
 20
210.2124386101
 11
276.1555689238
 21
211.8791051774
  0
LINE
  5
2C9
100
AcDbEntity
  8
0
100
AcDbLine
 62
7
  6
CONTINUOUS
 10
276.1555689238
 20
224.4832723408
 11
276.9002496861
 21
223.8582723408
  0
LINE
  5
2CA
100
AcDbEntity
  8
0
100
AcDbLine
 62
7
  6
CONTINUOUS
 10
277.7513137125
 20
223.8582723408
 11
277.0066326522
 21
224.4832723408
  0
LINE
  5
2CB
100
AcDbEntity
  8
0
100
AcDbLine
 62
7
  6
CONTINUOUS
 10
276.581100788
 20
226.6707723408
 11
276.9002496861
 21
226.3582723408
  0
LINE
  5
2CC
100
AcDbEntity
  8
RUNDUNGEN
100
AcDbLine
 62
7
  6
CONTINUOUS
 10
303.9255689238
 20
226.8804894734
 11
303.9255689238
 21
241.5195079612
  0
LINE
  5
2CD
100
AcDbEntity
  8
0
100
AcDbLine
 62
7
  6
CONTINUOUS
 10
277.6449307464
 20
217.3999386101
 11
277.9640796446
 21
217.2957717447
  0
LINE
  5
2CE
100
AcDbEntity
  8
0
100
AcDbLine
 62
7
  6
CONTINUOUS
 10
278.0704626106
 20
217.9207723408
 11
277.7513137125
 21
218.0249386101
  0
LINE
  5
2CF
100
AcDbEntity
  8
0
100
AcDbLine
 62
7
  6
CONTINUOUS
 10
277.6449307464
 20
226.5666048794
 11
277.0066326522
 21
226.9832723408
  0
LINE
  5
2D0
100
AcDbEntity
  8
0
100
AcDbLine
 62
7
  6
CONTINUOUS
 10
280.7300370224
 20
228.9624386101
 11
280.410888087
 21
229.2749386101
  0
LINE
  5
2D1
100
AcDbEntity
  8
0
100
AcDbLine
 62
7
  6
CONTINUOUS
 10
276.1555689238
 20
212.7124386101
 11
281.1555689238
 21
212.7124386101
  0
LINE
  5
2D2
100
AcDbEntity
  8
0
100
AcDbLine
 62
7
  6
CONTINUOUS
 10
281.1555689238
 20
213.3374386101
 11
276.1555689238
 21
213.3374386101
  0
LINE
  5
2D3
100
AcDbEntity
  8
0
100
AcDbLine
 62
7
  6
CONTINUOUS
 10
276.1555689238
 20
214.1707717447
 11
281.1555689238
 21
214.1707717447
  0
LINE
  5
2D4
100
AcDbEntity
  8
0
100
AcDbLine
 62
7
  6
CONTINUOUS
 10
281.1555689238
 20
214.7957717447
 11
278.9215263389
 21
214.7957717447
  0
LINE
  5
2D5
100
AcDbEntity
  8
0
100
AcDbLine
 62
7
  6
CONTINUOUS
 10
278.2832285427
 20
214.7957717447
 11
276.687483754
 21
214.7957717447
  0
LINE
  5
2D6
100
AcDbEntity
  8
0
100
AcDbLine
 62
7
  6
CONTINUOUS
 10
276.9002496861
 20
226.3582723408
 11
277.3257815503
 21
226.1499386101
  0
LINE
  5
2D7
100
AcDbEntity
  8
0
100
AcDbLine
 62
7
  6
CONTINUOUS
 10
279.6662072502
 20
229.0666060715
 11
280.304505121
 21
228.6499386101
  0
LINE
  5
2D8
100
AcDbEntity
  8
0
100
AcDbLine
 62
7
  6
CONTINUOUS
 10
277.3257815503
 20
217.3999386101
 11
277.6449307464
 21
217.3999386101
  0
LINE
  5
2D9
100
AcDbEntity
  8
0
100
AcDbLine
 62
7
  6
CONTINUOUS
 10
322.6932373484
 20
217.7053900704
 11
321.7867360062
 21
217.7053900704
  0
LINE
  5
2DA
100
AcDbEntity
  8
0
100
AcDbLine
 62
7
  6
CONTINUOUS
 10
317.629814068
 20
217.7053900704
 11
316.7233127258
 21
217.7053900704
  0
LINE
  5
2DB
100
AcDbEntity
  8
0
100
AcDbLine
 62
7
  6
CONTINUOUS
 10
277.7513137125
 20
218.0249386101
 11
277.3257815503
 21
218.0249386101
  0
LINE
  5
2DC
100
AcDbEntity
  8
0
100
AcDbLine
 62
7
  6
CONTINUOUS
 10
277.3257815503
 20
226.1499386101
 11
277.6449307464
 21
226.0457723408
  0
LINE
  5
2DD
100
AcDbEntity
  8
0
100
AcDbLine
 62
7
  6
CONTINUOUS
 10
280.410888087
 20
229.2749386101
 11
279.9853561484
 21
229.4832711487
  0
LINE
  5
2DE
100
AcDbEntity
  8
0
100
AcDbLine
 62
7
  6
CONTINUOUS
 10
320.1582750371
 20
222.2053900704
 11
319.2517736948
 21
222.2053900704
  0
LINE
  5
2DF
100
AcDbEntity
  8
0
100
AcDbLine
 62
7
  6
CONTINUOUS
 10
277.6449307464
 20
226.0457723408
 11
278.1768455766
 21
225.9416048794
  0
LINE
  5
2E0
100
AcDbEntity
  8
0
100
AcDbLine
 62
7
  6
CONTINUOUS
 10
319.2517736948
 20
222.2053900704
 11
319.2517736948
 21
220.4556080029
  0
LINE
  5
2E1
100
AcDbEntity
  8
0
100
AcDbLine
 62
7
  6
CONTINUOUS
 10
320.1582750371
 20
220.4541709207
 11
320.1582750371
 21
222.2053900704
  0
LINE
  5
2E2
100
AcDbEntity
  8
0
100
AcDbLine
 62
7
  6
CONTINUOUS
 10
322.6932373484
 20
222.8053900704
 11
321.7867360062
 21
222.8053900704
  0
LINE
  5
2E3
100
AcDbEntity
  8
0
100
AcDbLine
 62
7
  6
CONTINUOUS
 10
317.629814068
 20
222.8053900704
 11
316.7233127258
 21
222.8053900704
  0
LINE
  5
2E4
100
AcDbEntity
  8
0
100
AcDbLine
 62
7
  6
CONTINUOUS
 10
276.9002496861
 20
223.8582723408
 11
277.7513137125
 21
223.8582723408
  0
LINE
  5
2E5
100
AcDbEntity
  8
0
100
AcDbLine
 62
7
  6
CONTINUOUS
 10
277.0066326522
 20
224.4832723408
 11
281.1555689238
 21
224.4832723408
  0
LINE
  5
2E6
100
AcDbEntity
  8
0
100
AcDbLine
 62
7
  6
CONTINUOUS
 10
281.1555689238
 20
225.1082723408
 11
276.1555689238
 21
225.1082723408
  0
LINE
  5
2E7
100
AcDbEntity
  8
BEZUGSACHSEN
100
AcDbLine
 62
7
  6
CONTINUOUS
 10
293.7181982321
 20
225.8624386101
 11
304.1329396697
 21
225.8624386101
  0
LINE
  5
2E8
100
AcDbEntity
  8
0
100
AcDbLine
 62
7
  6
CONTINUOUS
 10
278.2832285427
 20
226.4624386101
 11
277.6449307464
 21
226.5666048794
  0
LINE
  5
2E9
100
AcDbEntity
  8
0
100
AcDbLine
 62
7
  6
CONTINUOUS
 10
279.027909305
 20
229.1707711487
 11
279.6662072502
 21
229.0666060715
  0
LINE
  5
2EA
100
AcDbEntity
  8
0
100
AcDbLine
 62
7
  6
CONTINUOUS
 10
279.6662072502
 20
229.5874386101
 11
279.134292271
 21
229.6916060715
  0
LINE
  5
2EB
100
AcDbEntity
  8
0
100
AcDbLine
 62
7
  6
CONTINUOUS
 10
279.9853561484
 20
229.4832711487
 11
279.6662072502
 21
229.5874386101
  0
LINE
  5
2EC
100
AcDbEntity
  8
RUNDUNGEN
100
AcDbLine
 62
7
  6
CONTINUOUS
 10
307.4543347909
 20
222.6736644654
 11
304.7854213514
 21
224.9937155228
  0
LINE
  5
2ED
100
AcDbEntity
  8
0
100
AcDbLine
 62
7
  6
CONTINUOUS
 10
322.7066731059
 20
217.3171474948
 11
322.6932373484
 21
217.7053900704
  0
LINE
  5
2EE
100
AcDbEntity
  8
0
100
AcDbLine
 62
7
  6
CONTINUOUS
 10
322.7066731059
 20
222.4171474948
 11
322.6932373484
 21
222.8053900704
  0
LINE
  5
2EF
100
AcDbEntity
  8
0
100
AcDbLine
 62
7
  6
CONTINUOUS
 10
279.134292271
 20
225.9416048794
 11
279.6662072502
 21
226.0457723408
  0
LINE
  5
2F0
100
AcDbEntity
  8
0
100
AcDbLine
 62
7
  6
CONTINUOUS
 10
279.6662072502
 20
226.5666048794
 11
279.027909305
 21
226.4624386101
  0
LINE
  5
2F1
100
AcDbEntity
  8
0
100
AcDbLine
 62
7
  6
CONTINUOUS
 10
278.1768455766
 20
225.9416048794
 11
279.134292271
 21
225.9416048794
  0
LINE
  5
2F2
100
AcDbEntity
  8
0
100
AcDbLine
 62
7
  6
CONTINUOUS
 10
279.027909305
 20
226.4624386101
 11
278.2832285427
 21
226.4624386101
  0
LINE
  5
2F3
100
AcDbEntity
  8
0
100
AcDbLine
 62
7
  6
CONTINUOUS
 10
278.2832285427
 20
229.1707711487
 11
279.027909305
 21
229.1707711487
  0
LINE
  5
2F4
100
AcDbEntity
  8
RUNDUNGEN
100
AcDbLine
 62
7
  6
CONTINUOUS
 10
326.9255689238
 20
238.7989108032
 11
326.9255689238
 21
222.692565629
  0
LINE
  5
2F5
100
AcDbEntity
  8
0
100
AcDbLine
 62
7
  6
CONTINUOUS
 10
278.1768455766
 20
229.6916060715
 11
277.6449307464
 21
229.5874386101
  0
LINE
  5
2F6
100
AcDbEntity
  8
0
100
AcDbLine
 62
7
  6
CONTINUOUS
 10
277.6449307464
 20
229.0666060715
 11
278.2832285427
 21
229.1707711487
  0
LINE
  5
2F7
100
AcDbEntity
  8
0
100
AcDbLine
 62
7
  6
CONTINUOUS
 10
279.134292271
 20
229.6916060715
 11
278.1768455766
 21
229.6916060715
  0
LINE
  5
2F8
100
AcDbEntity
  8
RUNDUNGEN
100
AcDbLine
 62
7
  6
CONTINUOUS
 10
332.5236451352
 20
212.0585910328
 11
327.3944800106
 21
220.942565629
  0
LINE
  5
2F9
100
AcDbEntity
  8
0
100
AcDbLine
 62
7
  6
CONTINUOUS
 10
332.9255689238
 20
210.5585910328
 11
332.9255689238
 21
162.8624386101
  0
LINE
  5
2FA
100
AcDbEntity
  8
BEZUGSACHSEN
100
AcDbLine
 62
7
  6
CONTINUOUS
 10
293.9255689238
 20
237.8624386101
 11
303.9255689238
 21
237.8624386101
  0
LINE
  5
2FB
100
AcDbEntity
  8
0
100
AcDbLine
 62
7
  6
CONTINUOUS
 10
277.8482796768
 20
246.8624386101
 11
285.3575919191
 21
246.8624386101
  0
LINE
  5
2FC
100
AcDbEntity
  8
0
100
AcDbLine
 62
7
  6
CONTINUOUS
 10
312.4935459285
 20
246.8624386101
 11
320.0028583267
 21
246.8624386101
  0
LINE
  5
2FD
100
AcDbEntity
  8
RUNDUNGEN
100
AcDbLine
 62
7
  6
CONTINUOUS
 10
322.2801284865
 20
245.7909637859
 11
325.9897466963
 21
241.3700129572
  0
LINE
  5
2FE
100
AcDbEntity
  8
0
100
AcDbLine
 62
7
  6
CONTINUOUS
 10
332.9255689238
 20
162.8624386101
 11
330.4082700303
 21
159.8624386101
  0
LINE
  5
2FF
100
AcDbEntity
  8
RUNDUNGEN
100
AcDbLine
 62
7
  6
CONTINUOUS
 10
136.3500649526
 20
30.7124470375
 11
160.3500649526
 21
30.7124470375
  0
LINE
  5
300
100
AcDbEntity
  8
0
100
AcDbLine
 62
7
  6
CONTINUOUS
 10
133.3500649526
 20
34.9297409242
 11
132.8500649526
 21
34.9297409242
  0
LINE
  5
301
100
AcDbEntity
  8
0
100
AcDbLine
 62
7
  6
CONTINUOUS
 10
133.3500649526
 20
34.9447786129
 11
132.8500649526
 21
34.9447786129
  0
LINE
  5
302
100
AcDbEntity
  8
0
100
AcDbLine
 62
7
  6
CONTINUOUS
 10
133.3500649526
 20
35.8512799552
 11
132.8500649526
 21
35.8512799552
  0
LINE
  5
303
100
AcDbEntity
  8
0
100
AcDbLine
 62
7
  6
CONTINUOUS
 10
133.3500649526
 20
37.4797409242
 11
132.8500649526
 21
37.4797409242
  0
LINE
  5
304
100
AcDbEntity
  8
0
100
AcDbLine
 62
7
  6
CONTINUOUS
 10
133.3500649526
 20
38.3862422665
 11
132.8500649526
 21
38.3862422665
  0
LINE
  5
305
100
AcDbEntity
  8
0
100
AcDbLine
 62
7
  6
CONTINUOUS
 10
133.3500649526
 20
40.0082018933
 11
132.8500649526
 21
40.0082018933
  0
LINE
  5
306
100
AcDbEntity
  8
0
100
AcDbLine
 62
7
  6
CONTINUOUS
 10
133.3500649526
 20
40.9147032356
 11
132.8500649526
 21
40.9147032356
  0
LINE
  5
307
100
AcDbEntity
  8
0
100
AcDbLine
 62
7
  6
CONTINUOUS
 10
133.3500649526
 20
40.9297409242
 11
132.8500649526
 21
40.9297409242
  0
LWPOLYLINE
  5
308
100
AcDbEntity
  8
RUNDUNGEN
100
AcDbPolyline
 62
7
  6
CONTINUOUS
 90
7
 70
0
 10
133.3500651806
 20
71.9646188153
 10
133.3526383347
 20
71.8340614834
 10
133.3828495191
 20
71.4962243275
 10
133.4475956313
 20
71.1579113171
 10
133.546781127
 20
70.8237472454
 10
133.6798700495
 20
70.4972486022
 10
133.845833179
 20
70.1818956149
  0
LINE
  5
309
100
AcDbEntity
  8
0
100
AcDbLine
 62
7
  6
CONTINUOUS
 10
132.8500649526
 20
34.9301213037
 11
132.8500649526
 21
35.8512799552
  0
LINE
  5
30A
100
AcDbEntity
  8
0
100
AcDbLine
 62
7
  6
CONTINUOUS
 10
132.8500649526
 20
35.9277374084
 11
132.8500649526
 21
40.9293605448
  0
LINE
  5
30B
100
AcDbEntity
  8
0
100
AcDbLine
 62
7
  6
CONTINUOUS
 10
132.8500649526
 20
76.4824470375
 11
132.8500649526
 21
81.4824470375
  0
LINE
  5
30C
100
AcDbEntity
  8
RUNDUNGEN
100
AcDbLine
 62
7
  6
CONTINUOUS
 10
133.3500649526
 20
30.1292235249
 11
133.3500649526
 21
46.869628871
  0
LINE
  5
30D
100
AcDbEntity
  8
RUNDUNGEN
100
AcDbLine
 62
7
  6
CONTINUOUS
 10
133.3500649526
 20
70.5552659047
 11
133.3500649526
 21
87.29565885
  0
LINE
  5
30E
100
AcDbEntity
  8
0
100
AcDbLine
 62
7
  6
CONTINUOUS
 10
178.8623575574
 20
43.7124470375
 11
179.1406885254
 21
43.7124470375
  0
LINE
  5
30F
100
AcDbEntity
  8
0
100
AcDbLine
 62
7
  6
CONTINUOUS
 10
180.4349134017
 20
47.4624470375
 11
180.6997171919
 21
47.4624470375
  0
LINE
  5
310
100
AcDbEntity
  8
0
100
AcDbLine
 62
7
  6
CONTINUOUS
 10
180.6982531021
 20
48.2436971865
 11
180.9609186145
 21
48.2436971865
  0
LINE
  5
311
100
AcDbEntity
  8
0
100
AcDbLine
 62
7
  6
CONTINUOUS
 10
180.8462185712
 20
48.7124470375
 11
181.107697651
 21
48.7124470375
  0
LINE
  5
312
100
AcDbEntity
  8
BEZUGSACHSEN
100
AcDbLine
 62
7
  6
CONTINUOUS
 10
142.3500649526
 20
63.7124470375
 11
142.3500649526
 21
53.7124470375
  0
LWPOLYLINE
  5
313
100
AcDbEntity
  8
RUNDUNGEN
100
AcDbPolyline
 62
7
  6
CONTINUOUS
 90
7
 70
0
 10
133.8373465396
 20
47.228528188
 10
133.6727123563
 20
46.9121848593
 10
133.5410738196
 20
46.5847770412
 10
133.4434619055
 20
46.2498162224
 10
133.3804055255
 20
45.9108632538
 10
133.3519741961
 20
45.5725966103
 10
133.3500651557
 20
45.4603179501
  0
LINE
  5
314
100
AcDbEntity
  8
RUNDUNGEN
100
AcDbLine
 62
7
  6
CONTINUOUS
 10
134.9917699042
 20
48.9786466345
 11
134.8948528585
 21
48.803021679
  0
LWPOLYLINE
  5
315
100
AcDbEntity
  8
RUNDUNGEN
100
AcDbPolyline
 62
7
  6
CONTINUOUS
 90
6
 70
0
 10
134.8948528585
 20
48.803021679
 10
134.7423275131
 20
48.5420728732
 10
134.584722339
 20
48.2908625029
 10
134.4223393939
 20
48.0501313594
 10
134.2555160135
 20
47.8205520949
 10
134.1433118662
 20
47.6756263119
  0
LINE
  5
316
100
AcDbEntity
  8
RUNDUNGEN
100
AcDbLine
 62
7
  6
CONTINUOUS
 10
134.0331922267
 20
47.5300186665
 11
133.8373465396
 21
47.228528188
  0
LINE
  5
317
100
AcDbEntity
  8
0
100
AcDbLine
 62
7
  6
CONTINUOUS
 10
181.7706798482
 20
52.4624470375
 11
182.0249814336
 21
52.4624470375
  0
LWPOLYLINE
  5
318
100
AcDbEntity
  8
RUNDUNGEN
100
AcDbPolyline
 62
7
  6
CONTINUOUS
 90
3
 70
0
 10
134.7468177622
 20
68.8753972819
 10
134.8993331253
 20
68.6139255768
 10
134.9916398193
 20
68.4464881822
  0
LINE
  5
319
100
AcDbEntity
  8
RUNDUNGEN
100
AcDbLine
 62
7
  6
CONTINUOUS
 10
134.1432622955
 20
47.6755663276
 11
134.0331922267
 21
47.5300186665
  0
LINE
  5
31A
100
AcDbEntity
  8
RUNDUNGEN
100
AcDbLine
 62
7
  6
CONTINUOUS
 10
134.1433118662
 20
47.6756263119
 11
134.1432637763
 21
47.6755657717
  0
LINE
  5
31B
100
AcDbEntity
  8
0
100
AcDbLine
 62
7
  6
CONTINUOUS
 10
181.9073707901
 20
53.2436971865
 11
182.1606442891
 21
53.2436971865
  0
LINE
  5
31C
100
AcDbEntity
  8
RUNDUNGEN
100
AcDbLine
 62
7
  6
CONTINUOUS
 10
140.2873579967
 20
53.7124470375
 11
156.4127719085
 21
53.7124470375
  0
LINE
  5
31D
100
AcDbEntity
  8
0
100
AcDbLine
 62
7
  6
CONTINUOUS
 10
182.0032681573
 20
53.8686970375
 11
182.2558253177
 21
53.8686970375
  0
LINE
  5
31E
100
AcDbEntity
  8
0
100
AcDbLine
 62
7
  6
CONTINUOUS
 10
182.0674102663
 20
54.3374470375
 11
182.3194905439
 21
54.3374470375
  0
LINE
  5
31F
100
AcDbEntity
  8
0
100
AcDbLine
 62
7
  6
CONTINUOUS
 10
182.0873165772
 20
54.4936968885
 11
182.3392492203
 21
54.4936968885
  0
LINE
  5
320
100
AcDbEntity
  8
0
100
AcDbLine
 62
7
  6
CONTINUOUS
 10
182.1064879705
 20
54.6499471865
 11
182.3582785923
 21
54.6499471865
  0
LINE
  5
321
100
AcDbEntity
  8
0
100
AcDbLine
 62
7
  6
CONTINUOUS
 10
182.1758478955
 20
55.2749467395
 11
182.4271260304
 21
55.2749467395
  0
LINE
  5
322
100
AcDbEntity
  8
0
100
AcDbLine
 62
7
  6
CONTINUOUS
 10
182.2335394337
 20
55.8999468885
 11
182.4843928779
 21
55.8999468885
  0
LINE
  5
323
100
AcDbEntity
  8
RUNDUNGEN
100
AcDbLine
 62
7
  6
CONTINUOUS
 10
134.1433041483
 20
69.7492756879
 11
134.1432597529
 21
69.7493315777
  0
LWPOLYLINE
  5
324
100
AcDbEntity
  8
RUNDUNGEN
100
AcDbPolyline
 62
7
  6
CONTINUOUS
 90
5
 70
0
 10
134.1433040992
 20
69.7492753313
 10
134.2602379506
 20
69.598075787
 10
134.4269612738
 20
69.3681527892
 10
134.5892644444
 20
69.1270410839
 10
134.7468177622
 20
68.8753972819
  0
LINE
  5
325
100
AcDbEntity
  8
RUNDUNGEN
100
AcDbLine
 62
7
  6
CONTINUOUS
 10
134.0429040364
 20
69.8814376911
 11
134.1432597529
 21
69.7493315777
  0
LINE
  5
326
100
AcDbEntity
  8
RUNDUNGEN
100
AcDbLine
 62
7
  6
CONTINUOUS
 10
133.845833179
 20
70.1818956149
 11
134.0429040364
 21
69.8814376911
  0
LINE
  5
327
100
AcDbEntity
  8
0
100
AcDbLine
 62
7
  6
CONTINUOUS
 10
182.2983252338
 20
56.8374473355
 11
182.5487034652
 21
56.8374473355
  0
LINE
  5
328
100
AcDbEntity
  8
0
100
AcDbLine
 62
7
  6
CONTINUOUS
 10
182.3065944781
 20
56.9936967395
 11
182.5569121826
 21
56.9936967395
  0
LINE
  5
329
100
AcDbEntity
  8
0
100
AcDbLine
 62
7
  6
CONTINUOUS
 10
182.3209710603
 20
57.3061973355
 11
182.5711836043
 21
57.3061973355
  0
LINE
  5
32A
100
AcDbEntity
  8
0
100
AcDbLine
 62
7
  6
CONTINUOUS
 10
182.3371374113
 20
57.7749473355
 11
182.5872318084
 21
57.7749473355
  0
LINE
  5
32B
100
AcDbEntity
  8
0
100
AcDbLine
 62
7
  6
CONTINUOUS
 10
182.3486287982
 20
58.3999467395
 11
182.5986392815
 21
58.3999467395
  0
LINE
  5
32C
100
AcDbEntity
  8
0
100
AcDbLine
 62
7
  6
CONTINUOUS
 10
182.348628801
 20
59.0249470375
 11
182.5986392843
 21
59.0249470375
  0
LINE
  5
32D
100
AcDbEntity
  8
0
100
AcDbLine
 62
7
  6
CONTINUOUS
 10
182.3371373948
 20
59.6499473355
 11
182.5872317921
 21
59.6499473355
  0
LINE
  5
32E
100
AcDbEntity
  8
0
100
AcDbLine
 62
7
  6
CONTINUOUS
 10
182.3209710356
 20
60.1186973355
 11
182.5711835799
 21
60.1186973355
  0
LINE
  5
32F
100
AcDbEntity
  8
0
100
AcDbLine
 62
7
  6
CONTINUOUS
 10
182.3065944932
 20
60.4311970375
 11
182.5569121975
 21
60.4311970375
  0
LINE
  5
330
100
AcDbEntity
  8
0
100
AcDbLine
 62
7
  6
CONTINUOUS
 10
182.2983252009
 20
60.5874473355
 11
182.5487034326
 21
60.5874473355
  0
LINE
  5
331
100
AcDbEntity
  8
0
100
AcDbLine
 62
7
  6
CONTINUOUS
 10
182.2335394214
 20
61.5249473355
 11
182.4843928656
 21
61.5249473355
  0
LINE
  5
332
100
AcDbEntity
  8
BEZUGSACHSEN
100
AcDbLine
 62
7
  6
CONTINUOUS
 10
154.3500649526
 20
63.7124470375
 11
154.3500649526
 21
53.7124470375
  0
LWPOLYLINE
  5
333
100
AcDbEntity
  8
RUNDUNGEN
100
AcDbPolyline
 62
7
  6
CONTINUOUS
 90
6
 70
0
 10
161.8053566623
 20
68.6220123325
 10
161.9579350822
 20
68.8830406923
 10
162.1155517784
 20
69.1342538109
 10
162.2779166417
 20
69.374943453
 10
162.4447009239
 20
69.6044542057
 10
162.5568230902
 20
69.7492722912
  0
LINE
  5
334
100
AcDbEntity
  8
RUNDUNGEN
100
AcDbLine
 62
7
  6
CONTINUOUS
 10
162.6669373744
 20
69.8948745298
 11
162.8627839315
 21
70.196366183
  0
LINE
  5
335
100
AcDbEntity
  8
RUNDUNGEN
100
AcDbLine
 62
7
  6
CONTINUOUS
 10
162.5568667616
 20
69.7493263924
 11
162.6669373744
 21
69.8948745298
  0
LINE
  5
336
100
AcDbEntity
  8
RUNDUNGEN
100
AcDbLine
 62
7
  6
CONTINUOUS
 10
162.5568230902
 20
69.7492722912
 11
162.556865741
 21
69.7493259846
  0
LINE
  5
337
100
AcDbEntity
  8
0
100
AcDbLine
 62
7
  6
CONTINUOUS
 10
182.1064879525
 20
62.7749470375
 11
182.3582785745
 21
62.7749470375
  0
LINE
  5
338
100
AcDbEntity
  8
RUNDUNGEN
100
AcDbLine
 62
7
  6
CONTINUOUS
 10
156.4127719085
 20
63.7124470375
 11
140.2873579967
 21
63.7124470375
  0
LINE
  5
339
100
AcDbEntity
  8
RUNDUNGEN
100
AcDbLine
 62
7
  6
CONTINUOUS
 10
162.5568201746
 20
47.6756254606
 11
162.5568693291
 21
47.67556358
  0
LWPOLYLINE
  5
33A
100
AcDbEntity
  8
RUNDUNGEN
100
AcDbPolyline
 62
7
  6
CONTINUOUS
 90
5
 70
0
 10
162.5568189365
 20
47.6756249391
 10
162.4398241149
 20
47.8269046125
 10
162.2730761438
 20
48.0568742115
 10
162.1107598199
 20
48.2980164641
 10
161.9532125108
 20
48.5496620653
  0
LINE
  5
33B
100
AcDbEntity
  8
RUNDUNGEN
100
AcDbLine
 62
7
  6
CONTINUOUS
 10
162.6572250502
 20
47.5434576117
 11
162.5568693291
 21
47.67556358
  0
LINE
  5
33C
100
AcDbEntity
  8
RUNDUNGEN
100
AcDbLine
 62
7
  6
CONTINUOUS
 10
162.8542959301
 20
47.2430001208
 11
162.6572250502
 21
47.5434576117
  0
LWPOLYLINE
  5
33D
100
AcDbEntity
  8
RUNDUNGEN
100
AcDbPolyline
 62
7
  6
CONTINUOUS
 90
3
 70
0
 10
161.9532125108
 20
48.5496620653
 10
161.8007359681
 20
48.8110754108
 10
161.7084030203
 20
48.9785667464
  0
LWPOLYLINE
  5
33E
100
AcDbEntity
  8
RUNDUNGEN
100
AcDbPolyline
 62
7
  6
CONTINUOUS
 90
7
 70
0
 10
162.8627839315
 20
70.196366183
 10
163.0274177933
 20
70.5127089968
 10
163.1590556851
 20
70.8401152554
 10
163.2566672526
 20
71.1750743357
 10
163.3197237508
 20
71.5140261569
 10
163.3481555263
 20
71.8522934945
 10
163.3500646951
 20
71.9645751484
  0
LINE
  5
33F
100
AcDbEntity
  8
RUNDUNGEN
100
AcDbLine
 62
7
  6
CONTINUOUS
 10
161.7084768029
 20
68.446463975
 11
161.8053566623
 21
68.6220123325
  0
LINE
  5
340
100
AcDbEntity
  8
0
100
AcDbLine
 62
7
  6
CONTINUOUS
 10
181.4403179548
 20
66.5249470375
 11
181.6971389434
 21
66.5249470375
  0
LINE
  5
341
100
AcDbEntity
  8
0
100
AcDbLine
 62
7
  6
CONTINUOUS
 10
181.2460745996
 20
67.3061976335
 11
181.5044002754
 21
67.3061976335
  0
LINE
  5
342
100
AcDbEntity
  8
0
100
AcDbLine
 62
7
  6
CONTINUOUS
 10
181.0764250991
 20
67.9311970375
 11
181.3360793896
 21
67.9311970375
  0
LINE
  5
343
100
AcDbEntity
  8
0
100
AcDbLine
 62
7
  6
CONTINUOUS
 10
180.8938907522
 20
68.5561964414
 11
181.1549898523
 21
68.5561964414
  0
LINE
  5
344
100
AcDbEntity
  8
0
100
AcDbLine
 62
7
  6
CONTINUOUS
 10
180.7977241276
 20
68.8686970375
 11
181.059590873
 21
68.8686970375
  0
LINE
  5
345
100
AcDbEntity
  8
0
100
AcDbLine
 62
7
  6
CONTINUOUS
 10
180.7484037379
 20
69.0249464414
 11
181.0106659275
 21
69.0249464414
  0
LINE
  5
346
100
AcDbEntity
  8
0
100
AcDbLine
 62
7
  6
CONTINUOUS
 10
180.4349134017
 20
69.9624470375
 11
180.6997171919
 21
69.9624470375
  0
LINE
  5
347
100
AcDbEntity
  8
0
100
AcDbLine
 62
7
  6
CONTINUOUS
 10
180.1502066047
 20
70.7436976335
 11
180.4173615193
 21
70.7436976335
  0
LWPOLYLINE
  5
348
100
AcDbEntity
  8
RUNDUNGEN
100
AcDbPolyline
 62
7
  6
CONTINUOUS
 90
7
 70
0
 10
163.3500646387
 20
45.460276344
 10
163.3474914712
 20
45.5908333507
 10
163.3172803795
 20
45.928669766
 10
163.252534361
 20
46.2669827982
 10
163.1533487823
 20
46.6011473641
 10
163.0202594527
 20
46.927646812
 10
162.8542959301
 20
47.2430001208
  0
LINE
  5
349
100
AcDbEntity
  8
RUNDUNGEN
100
AcDbLine
 62
7
  6
CONTINUOUS
 10
163.3500649526
 20
30.1292356356
 11
163.3500649526
 21
46.8696149885
  0
LINE
  5
34A
100
AcDbEntity
  8
RUNDUNGEN
100
AcDbLine
 62
7
  6
CONTINUOUS
 10
163.3500649527
 20
70.5551525998
 11
163.3500649526
 21
87.2956715383
  0
LINE
  5
34B
100
AcDbEntity
  8
0
100
AcDbLine
 62
7
  6
CONTINUOUS
 10
179.4456838786
 20
72.4624464414
 11
179.7188394966
 21
72.4624464414
  0
LINE
  5
34C
100
AcDbEntity
  8
0
100
AcDbLine
 62
7
  6
CONTINUOUS
 10
133.3500649526
 20
76.4824470375
 11
132.8500649526
 21
76.4824470375
  0
LINE
  5
34D
100
AcDbEntity
  8
0
100
AcDbLine
 62
7
  6
CONTINUOUS
 10
133.3500649526
 20
76.5888300128
 11
132.8500649526
 21
76.5888300128
  0
LINE
  5
34E
100
AcDbEntity
  8
0
100
AcDbLine
 62
7
  6
CONTINUOUS
 10
133.3500649526
 20
76.9079789389
 11
132.8500649526
 21
76.9079789389
  0
LINE
  5
34F
100
AcDbEntity
  8
0
100
AcDbLine
 62
7
  6
CONTINUOUS
 10
133.3500649526
 20
77.2271278743
 11
132.8500649526
 21
77.2271278743
  0
LINE
  5
350
100
AcDbEntity
  8
0
100
AcDbLine
 62
7
  6
CONTINUOUS
 10
133.3500649526
 20
77.652659813
 11
132.8500649526
 21
77.652659813
  0
LINE
  5
351
100
AcDbEntity
  8
0
100
AcDbLine
 62
7
  6
CONTINUOUS
 10
133.3500649526
 20
77.9718087111
 11
132.8500649526
 21
77.9718087111
  0
LINE
  5
352
100
AcDbEntity
  8
0
100
AcDbLine
 62
7
  6
CONTINUOUS
 10
133.3500649526
 20
78.5037236903
 11
132.8500649526
 21
78.5037236903
  0
LINE
  5
353
100
AcDbEntity
  8
0
100
AcDbLine
 62
7
  6
CONTINUOUS
 10
133.3500649526
 20
79.4611703847
 11
132.8500649526
 21
79.4611703847
  0
LINE
  5
354
100
AcDbEntity
  8
0
100
AcDbLine
 62
7
  6
CONTINUOUS
 10
133.3500649526
 20
79.9930852149
 11
132.8500649526
 21
79.9930852149
  0
LINE
  5
355
100
AcDbEntity
  8
0
100
AcDbLine
 62
7
  6
CONTINUOUS
 10
133.3500649526
 20
80.312234411
 11
132.8500649526
 21
80.312234411
  0
LINE
  5
356
100
AcDbEntity
  8
0
100
AcDbLine
 62
7
  6
CONTINUOUS
 10
133.3500649526
 20
80.7377662752
 11
132.8500649526
 21
80.7377662752
  0
LINE
  5
357
100
AcDbEntity
  8
0
100
AcDbLine
 62
7
  6
CONTINUOUS
 10
133.3500649526
 20
81.0569151733
 11
132.8500649526
 21
81.0569151733
  0
LINE
  5
358
100
AcDbEntity
  8
0
100
AcDbLine
 62
7
  6
CONTINUOUS
 10
133.3500649526
 20
81.3760640714
 11
132.8500649526
 21
81.3760640714
  0
LINE
  5
359
100
AcDbEntity
  8
0
100
AcDbLine
 62
7
  6
CONTINUOUS
 10
133.3500649526
 20
81.4824470375
 11
132.8500649526
 21
81.4824470375
  0
LINE
  5
35A
100
AcDbEntity
  8
RUNDUNGEN
100
AcDbLine
 62
7
  6
CONTINUOUS
 10
136.3500649526
 20
86.7124470375
 11
160.3500649526
 21
86.7124470375
  0
ARC
  5
35B
100
AcDbEntity
  8
RUNDUNGEN
100
AcDbCircle
 62
7
  6
CONTINUOUS
 10
148.3500649526
 20
231.8624386101
 40
15.0
100
AcDbArc
 50
0.0
 51
180.0
  0
ARC
  5
35C
100
AcDbEntity
  8
RUNDUNGEN
100
AcDbCircle
 62
7
  6
CONTINUOUS
 10
168.3500649526
 20
202.8624386101
 40
5.0
100
AcDbArc
 50
179.9990850232
 51
269.9999947825
  0
ARC
  5
35D
100
AcDbEntity
  8
RUNDUNGEN
100
AcDbCircle
 62
7
  6
CONTINUOUS
 10
128.3500649526
 20
202.8624386101
 40
5.0
100
AcDbArc
 50
270.0000503357
 51
0.0005119783
  0
ARC
  5
35E
100
AcDbEntity
  8
RUNDUNGEN
100
AcDbCircle
 62
7
  6
CONTINUOUS
 10
179.3500649526
 20
194.8624386101
 40
3.0
100
AcDbArc
 50
0.0
 51
90.0
  0
ARC
  5
35F
100
AcDbEntity
  8
RUNDUNGEN
100
AcDbCircle
 62
7
  6
CONTINUOUS
 10
117.3500649526
 20
194.8624386101
 40
3.0
100
AcDbArc
 50
90.0
 51
180.0
  0
ARC
  5
360
100
AcDbEntity
  8
RUNDUNGEN
100
AcDbCircle
 62
7
  6
CONTINUOUS
 10
267.4255689238
 20
222.692565629
 40
3.5
100
AcDbArc
 50
330.0
 51
360.0
  0
ARC
  5
361
100
AcDbEntity
  8
RUNDUNGEN
100
AcDbCircle
 62
7
  6
CONTINUOUS
 10
267.9255727207
 20
210.5585976091
 40
3.0
100
AcDbArc
 50
150.0001450288
 51
180.0001255984
  0
ARC
  5
362
100
AcDbEntity
  8
RUNDUNGEN
100
AcDbCircle
 62
7
  6
CONTINUOUS
 10
291.4255689238
 20
226.8804894734
 40
2.5
100
AcDbArc
 50
311.0
 51
360.0
  0
ARC
  5
363
100
AcDbEntity
  8
RUNDUNGEN
100
AcDbCircle
 62
7
  6
CONTINUOUS
 10
285.3575919191
 20
242.8624386101
 40
4.0
100
AcDbArc
 50
56.372243968
 51
90.0
  0
ARC
  5
364
100
AcDbEntity
  8
RUNDUNGEN
100
AcDbCircle
 62
7
  6
CONTINUOUS
 10
274.9255689238
 20
238.7988625184
 40
4.0
100
AcDbArc
 50
140.0
 51
179.9993231358
  0
ARC
  5
365
100
AcDbEntity
  8
RUNDUNGEN
100
AcDbCircle
 62
7
  6
CONTINUOUS
 10
277.8689796632
 20
243.8624066685
 40
3.0
100
AcDbArc
 50
90.0007820659
 51
140.0
  0
ARC
  5
366
100
AcDbEntity
  8
RUNDUNGEN
100
AcDbCircle
 62
7
  6
CONTINUOUS
 10
291.4255689238
 20
241.5196237049
 40
2.5
100
AcDbArc
 50
0.0
 51
70.9685590749
  0
ARC
  5
367
100
AcDbEntity
  8
RUNDUNGEN
100
AcDbCircle
 62
7
  6
CONTINUOUS
 10
298.9255689238
 20
212.8624386101
 40
13.0
100
AcDbArc
 50
131.0000009041
 51
49.0000088168
  0
ARC
  5
368
100
AcDbEntity
  8
RUNDUNGEN
100
AcDbCircle
 62
7
  6
CONTINUOUS
 10
330.4255689238
 20
222.692565629
 40
3.5
100
AcDbArc
 50
180.0
 51
210.0
  0
ARC
  5
369
100
AcDbEntity
  8
0
100
AcDbCircle
 62
7
  6
CONTINUOUS
 10
319.7082750371
 20
222.5053900704
 40
3.0
100
AcDbArc
 50
174.2608295227
 51
358.3142771166
  0
ARC
  5
36A
100
AcDbEntity
  8
0
100
AcDbCircle
 62
7
  6
CONTINUOUS
 10
319.7082750371
 20
217.4053900704
 40
3.0
100
AcDbArc
 50
174.2608295227
 51
358.3142771166
  0
ARC
  5
36B
100
AcDbEntity
  8
RUNDUNGEN
100
AcDbCircle
 62
7
  6
CONTINUOUS
 10
329.9255651675
 20
210.558597539
 40
3.0
100
AcDbArc
 50
359.999875741
 51
29.9998565178
  0
ARC
  5
36C
100
AcDbEntity
  8
RUNDUNGEN
100
AcDbCircle
 62
7
  6
CONTINUOUS
 10
306.4255689238
 20
226.8804894734
 40
2.5
100
AcDbArc
 50
180.0
 51
229.0
  0
ARC
  5
36D
100
AcDbEntity
  8
0
100
AcDbCircle
 62
7
  6
CONTINUOUS
 10
319.7082750371
 20
222.5053900704
 40
2.1
100
AcDbArc
 50
282.3736251162
 51
8.2132107017
  0
ARC
  5
36E
100
AcDbEntity
  8
0
100
AcDbCircle
 62
7
  6
CONTINUOUS
 10
319.7082750371
 20
222.5053900704
 40
2.1
100
AcDbArc
 50
171.7867892983
 51
257.4447123387
  0
ARC
  5
36F
100
AcDbEntity
  8
0
100
AcDbCircle
 62
7
  6
CONTINUOUS
 10
319.7082750371
 20
217.4053900704
 40
2.1
100
AcDbArc
 50
171.7867892983
 51
8.2132107017
  0
ARC
  5
370
100
AcDbEntity
  8
0
100
AcDbCircle
 62
7
  6
CONTINUOUS
 10
298.9255689238
 20
263.2624386101
 40
20.5
100
AcDbArc
 50
289.0314409251
 51
303.627756032
  0
ARC
  5
371
100
AcDbEntity
  8
0
100
AcDbCircle
 62
7
  6
CONTINUOUS
 10
298.9255689238
 20
263.2624386101
 40
20.5
100
AcDbArc
 50
236.372243968
 51
250.9685590749
  0
ARC
  5
372
100
AcDbEntity
  8
RUNDUNGEN
100
AcDbCircle
 62
7
  6
CONTINUOUS
 10
312.4935459285
 20
242.8624386101
 40
4.0
100
AcDbArc
 50
90.0
 51
123.627756032
  0
ARC
  5
373
100
AcDbEntity
  8
RUNDUNGEN
100
AcDbCircle
 62
7
  6
CONTINUOUS
 10
322.9255689238
 20
238.7988625184
 40
4.0
100
AcDbArc
 50
0.0006916283
 51
40.0
  0
ARC
  5
374
100
AcDbEntity
  8
RUNDUNGEN
100
AcDbCircle
 62
7
  6
CONTINUOUS
 10
319.9821583065
 20
243.8624065229
 40
3.0
100
AcDbArc
 50
40.0
 51
89.999214261
  0
ARC
  5
375
100
AcDbEntity
  8
RUNDUNGEN
100
AcDbCircle
 62
7
  6
CONTINUOUS
 10
306.4255689238
 20
241.5196237049
 40
2.5
100
AcDbArc
 50
109.0314409251
 51
180.0
  0
ARC
  5
376
100
AcDbEntity
  8
RUNDUNGEN
100
AcDbCircle
 62
7
  6
CONTINUOUS
 10
137.3500649526
 20
45.1444700328
 40
4.0
100
AcDbArc
 50
146.372243968
 51
180.0
  0
ARC
  5
377
100
AcDbEntity
  8
RUNDUNGEN
100
AcDbCircle
 62
7
  6
CONTINUOUS
 10
136.3500649526
 20
33.7124470375
 40
3.0
100
AcDbArc
 50
180.0
 51
270.0
  0
ARC
  5
378
100
AcDbEntity
  8
RUNDUNGEN
100
AcDbCircle
 62
7
  6
CONTINUOUS
 10
136.3500649526
 20
30.1292351816
 40
3.0
100
AcDbArc
 50
180.0002567035
 51
247.2255747682
  0
ARC
  5
379
100
AcDbEntity
  8
RUNDUNGEN
100
AcDbCircle
 62
7
  6
CONTINUOUS
 10
137.5309102764
 20
48.4445940116
 40
2.5
100
AcDbArc
 50
123.0503005002
 51
153.4852483237
  0
ARC
  5
37A
100
AcDbEntity
  8
RUNDUNGEN
100
AcDbCircle
 62
7
  6
CONTINUOUS
 10
140.2873579967
 20
51.7124470375
 40
2.0
100
AcDbArc
 50
90.0
 51
143.4342630678
  0
ARC
  5
37B
100
AcDbEntity
  8
0
100
AcDbCircle
 62
7
  6
CONTINUOUS
 10
116.9500649526
 20
58.7124470375
 40
20.5
100
AcDbArc
 50
326.372243968
 51
333.4852368273
  0
ARC
  5
37C
100
AcDbEntity
  8
0
100
AcDbCircle
 62
7
  6
CONTINUOUS
 10
116.9500649526
 20
58.7124470375
 40
20.5
100
AcDbArc
 50
26.5147631727
 51
33.627756032
  0
ARC
  5
37D
100
AcDbEntity
  8
RUNDUNGEN
100
AcDbCircle
 62
7
  6
CONTINUOUS
 10
116.9500649526
 20
58.7124470375
 40
20.5
100
AcDbArc
 50
326.372243968
 51
333.4852368273
  0
ARC
  5
37E
100
AcDbEntity
  8
RUNDUNGEN
100
AcDbCircle
 62
7
  6
CONTINUOUS
 10
116.9500649526
 20
58.7124470375
 40
20.5
100
AcDbArc
 50
26.5147631727
 51
33.627756032
  0
ARC
  5
37F
100
AcDbEntity
  8
RUNDUNGEN
100
AcDbCircle
 62
7
  6
CONTINUOUS
 10
130.8500649526
 20
58.7124470375
 40
9.75
100
AcDbArc
 50
36.5657369322
 51
56.9496976744
  0
ARC
  5
380
100
AcDbEntity
  8
RUNDUNGEN
100
AcDbCircle
 62
7
  6
CONTINUOUS
 10
130.8500649526
 20
58.7124470375
 40
9.75
100
AcDbArc
 50
303.0503023256
 51
323.4342630678
  0
ARC
  5
381
100
AcDbEntity
  8
RUNDUNGEN
100
AcDbCircle
 62
7
  6
CONTINUOUS
 10
137.3500649526
 20
72.2804240422
 40
4.0
100
AcDbArc
 50
180.0
 51
213.6277560321
  0
ARC
  5
382
100
AcDbEntity
  8
RUNDUNGEN
100
AcDbCircle
 62
7
  6
CONTINUOUS
 10
137.5309102764
 20
68.9803000633
 40
2.5
100
AcDbArc
 50
206.5147531771
 51
236.9497024185
  0
ARC
  5
383
100
AcDbEntity
  8
RUNDUNGEN
100
AcDbCircle
 62
7
  6
CONTINUOUS
 10
140.2873579967
 20
65.7124470375
 40
2.0
100
AcDbArc
 50
216.5657369322
 51
270.0
  0
ARC
  5
384
100
AcDbEntity
  8
RUNDUNGEN
100
AcDbCircle
 62
7
  6
CONTINUOUS
 10
136.3500649526
 20
83.7124470375
 40
3.0
100
AcDbArc
 50
90.0
 51
180.0
  0
ARC
  5
385
100
AcDbEntity
  8
RUNDUNGEN
100
AcDbCircle
 62
7
  6
CONTINUOUS
 10
136.3500649526
 20
87.2956588934
 40
3.0
100
AcDbArc
 50
112.7737374794
 51
180.0000008318
  0
ARC
  5
386
100
AcDbEntity
  8
RUNDUNGEN
100
AcDbCircle
 62
7
  6
CONTINUOUS
 10
159.3500649526
 20
45.1444700328
 40
4.0
100
AcDbArc
 50
0.0
 51
33.6277560321
  0
ARC
  5
387
100
AcDbEntity
  8
RUNDUNGEN
100
AcDbCircle
 62
7
  6
CONTINUOUS
 10
160.3500649526
 20
30.1292351816
 40
3.0
100
AcDbArc
 50
292.7738285743
 51
0.0000086729
  0
ARC
  5
388
100
AcDbEntity
  8
RUNDUNGEN
100
AcDbCircle
 62
7
  6
CONTINUOUS
 10
160.3500649526
 20
33.7124470375
 40
3.0
100
AcDbArc
 50
270.0
 51
360.0
  0
ARC
  5
389
100
AcDbEntity
  8
RUNDUNGEN
100
AcDbCircle
 62
7
  6
CONTINUOUS
 10
159.1692196289
 20
48.4445940116
 40
2.5
100
AcDbArc
 50
26.5147518671
 51
56.9497031841
  0
ARC
  5
38A
100
AcDbEntity
  8
RUNDUNGEN
100
AcDbCircle
 62
7
  6
CONTINUOUS
 10
156.4127719085
 20
51.7124470375
 40
2.0
100
AcDbArc
 50
36.5657369322
 51
90.0
  0
ARC
  5
38B
100
AcDbEntity
  8
0
100
AcDbCircle
 62
7
  6
CONTINUOUS
 10
148.3500649526
 20
58.7124470375
 40
34.25
100
AcDbArc
 50
334.0264485215
 51
23.6694716835
  0
CIRCLE
  5
38C
100
AcDbEntity
  8
RUNDUNGEN
100
AcDbCircle
 62
7
  6
CONTINUOUS
 10
148.3500649526
 20
58.7124470375
 40
34.0
  0
ARC
  5
38D
100
AcDbEntity
  8
RUNDUNGEN
100
AcDbCircle
 62
7
  6
CONTINUOUS
 10
159.3500649526
 20
72.2804240422
 40
4.0
100
AcDbArc
 50
326.372243968
 51
360.0
  0
ARC
  5
38E
100
AcDbEntity
  8
RUNDUNGEN
100
AcDbCircle
 62
7
  6
CONTINUOUS
 10
159.1692196289
 20
68.9803000633
 40
2.5
100
AcDbArc
 50
303.0502999378
 51
333.4852459565
  0
ARC
  5
38F
100
AcDbEntity
  8
RUNDUNGEN
100
AcDbCircle
 62
7
  6
CONTINUOUS
 10
156.4127719085
 20
65.7124470375
 40
2.0
100
AcDbArc
 50
270.0
 51
323.4342630678
  0
ARC
  5
390
100
AcDbEntity
  8
RUNDUNGEN
100
AcDbCircle
 62
7
  6
CONTINUOUS
 10
160.3500649526
 20
83.7124470375
 40
3.0
100
AcDbArc
 50
0.0
 51
90.0
  0
ARC
  5
391
100
AcDbEntity
  8
RUNDUNGEN
100
AcDbCircle
 62
7
  6
CONTINUOUS
 10
160.3500649526
 20
87.2956588934
 40
3.0
100
AcDbArc
 50
0.0002727126
 51
67.2255845963
  0
ARC
  5
392
100
AcDbEntity
  8
0
100
AcDbCircle
 62
7
  6
CONTINUOUS
 10
179.7500649526
 20
58.7124470375
 40
20.5
100
AcDbArc
 50
206.5147631727
 51
213.627756032
  0
ARC
  5
393
100
AcDbEntity
  8
0
100
AcDbCircle
 62
7
  6
CONTINUOUS
 10
179.7500649526
 20
58.7124470375
 40
20.5
100
AcDbArc
 50
146.372243968
 51
153.4852368273
  0
ARC
  5
394
100
AcDbEntity
  8
RUNDUNGEN
100
AcDbCircle
 62
7
  6
CONTINUOUS
 10
179.7500649526
 20
58.7124470375
 40
20.5
100
AcDbArc
 50
146.372243968
 51
153.4852368273
  0
ARC
  5
395
100
AcDbEntity
  8
RUNDUNGEN
100
AcDbCircle
 62
7
  6
CONTINUOUS
 10
179.7500649526
 20
58.7124470375
 40
20.5
100
AcDbArc
 50
206.5147631727
 51
213.627756032
  0
ARC
  5
396
100
AcDbEntity
  8
RUNDUNGEN
100
AcDbCircle
 62
7
  6
CONTINUOUS
 10
165.8500649526
 20
58.7124470375
 40
9.75
100
AcDbArc
 50
123.0503029378
 51
143.4342630678
  0
ARC
  5
397
100
AcDbEntity
  8
RUNDUNGEN
100
AcDbCircle
 62
7
  6
CONTINUOUS
 10
165.8500649526
 20
58.7124470375
 40
9.75
100
AcDbArc
 50
216.5657369322
 51
236.9496976744
  0
ELLIPSE
  5
398
100
AcDbEntity
  8
0
100
AcDbEllipse
 62
7
  6
CONTINUOUS
 10
148.3500649526
 20
164.181588342
 30
0.0
 11
0.0
 21
39.3510632217
 31
0.0
 40
0.8703703838
 41
-1.4893320042
 42
-1.4819540146
  0
ELLIPSE
  5
399
100
AcDbEntity
  8
0
100
AcDbEllipse
 62
7
  6
CONTINUOUS
 10
148.3500649526
 20
175.6709345914
 30
0.0
 11
-0.0
 21
104.9359575539
 31
0.0
 40
0.3263895503
 41
-1.6392805039
 42
-1.6347084333
  0
ELLIPSE
  5
39A
100
AcDbEntity
  8
0
100
AcDbEllipse
 62
7
  6
CONTINUOUS
 10
148.3500649526
 20
171.6815870612
 30
0.0
 11
-0.0
 21
46.6382923126
 31
0.0
 40
0.7343750875
 41
-1.6530056842
 42
-1.6392805039
  0
ELLIPSE
  5
39B
100
AcDbEntity
  8
0
100
AcDbEllipse
 62
7
  6
CONTINUOUS
 10
148.3500649526
 20
170.0060543188
 30
0.0
 11
34.25
 21
0.0
 31
0.0
 40
0.7659569903
 41
-0.1005342388
 42
-0.0822093574
  0
ELLIPSE
  5
39C
100
AcDbEntity
  8
0
100
AcDbEllipse
 62
7
  6
CONTINUOUS
 10
148.3500649526
 20
168.0752048411
 30
0.0
 11
34.25
 21
0.0
 31
0.0
 40
0.2042553727
 41
-0.1234888
 42
-0.1005342388
  0
ELLIPSE
  5
39D
100
AcDbEntity
  8
0
100
AcDbEllipse
 62
7
  6
CONTINUOUS
 10
148.3500649526
 20
170.5007362564
 30
0.0
 11
34.25
 21
-0.0
 31
0.0
 40
0.2042553727
 41
0.1005342388
 42
0.1234888
  0
ELLIPSE
  5
39E
100
AcDbEntity
  8
0
100
AcDbEllipse
 62
7
  6
CONTINUOUS
 10
148.3500649526
 20
168.5698867787
 30
0.0
 11
34.25
 21
0.0
 31
0.0
 40
0.7659569903
 41
0.0822093574
 42
0.1005342388
  0
ELLIPSE
  5
39F
100
AcDbEntity
  8
0
100
AcDbEllipse
 62
7
  6
CONTINUOUS
 10
148.3500649526
 20
166.8943540363
 30
0.0
 11
-0.0
 21
46.6382923126
 31
0.0
 40
0.7343750875
 41
-1.5023121497
 42
-1.4885869694
  0
ELLIPSE
  5
3A0
100
AcDbEntity
  8
0
100
AcDbEllipse
 62
7
  6
CONTINUOUS
 10
148.3500649526
 20
162.9050065061
 30
0.0
 11
-0.0
 21
104.9359575539
 31
0.0
 40
0.3263895503
 41
-1.5068842203
 42
-1.5023121497
  0
ELLIPSE
  5
3A1
100
AcDbEntity
  8
0
100
AcDbEllipse
 62
7
  6
CONTINUOUS
 10
148.3500649526
 20
197.2135263039
 30
0.0
 11
-0.0
 21
104.9362577784
 31
0.0
 40
0.3263886165
 41
-1.8480576838
 42
-1.843317675
  0
ELLIPSE
  5
3A2
100
AcDbEntity
  8
0
100
AcDbEllipse
 62
7
  6
CONTINUOUS
 10
148.3500649526
 20
181.2560540049
 30
0.0
 11
0.0
 21
46.6382923126
 31
0.0
 40
0.7343750875
 41
-1.8623166757
 42
-1.8480576838
  0
ELLIPSE
  5
3A3
100
AcDbEntity
  8
0
100
AcDbEllipse
 62
7
  6
CONTINUOUS
 10
148.3500649526
 20
175.3916947995
 30
0.0
 11
34.25
 21
-0.0
 31
0.0
 40
0.7659575381
 41
-0.3106283027
 42
-0.2915203489
  0
ELLIPSE
  5
3A4
100
AcDbEntity
  8
0
100
AcDbEllipse
 62
7
  6
CONTINUOUS
 10
148.3500649526
 20
169.5113741156
 30
0.0
 11
34.25
 21
0.0
 31
0.0
 40
0.2042552558
 41
-0.334680224
 42
-0.3106283027
  0
ELLIPSE
  5
3A5
100
AcDbEntity
  8
0
100
AcDbEllipse
 62
7
  6
CONTINUOUS
 10
148.3500649526
 20
169.0645669819
 30
0.0
 11
34.25
 21
0.0
 31
0.0
 40
0.2042552558
 41
0.3106283027
 42
0.334680224
  0
ELLIPSE
  5
3A6
100
AcDbEntity
  8
0
100
AcDbEllipse
 62
7
  6
CONTINUOUS
 10
148.3500649526
 20
163.184246298
 30
0.0
 11
34.25
 21
0.0
 31
0.0
 40
0.7659575381
 41
0.2915203489
 42
0.3106283027
  0
ELLIPSE
  5
3A7
100
AcDbEntity
  8
0
100
AcDbEllipse
 62
7
  6
CONTINUOUS
 10
148.3500649526
 20
157.3198870926
 30
0.0
 11
-0.0
 21
46.6382923126
 31
0.0
 40
0.7343750875
 41
-1.2935349698
 42
-1.2792759779
  0
ELLIPSE
  5
3A8
100
AcDbEntity
  8
0
100
AcDbEllipse
 62
7
  6
CONTINUOUS
 10
148.3500649526
 20
141.3624147936
 30
0.0
 11
-0.0
 21
104.9362577784
 31
0.0
 40
0.3263886165
 41
-1.2982749786
 42
-1.2935349698
  0
ELLIPSE
  5
3A9
100
AcDbEntity
  8
0
100
AcDbEllipse
 62
7
  6
CONTINUOUS
 10
148.3500649526
 20
169.756028462
 30
0.0
 11
-0.0
 21
139.9154106728
 31
0.0
 40
0.244790762
 41
-1.5205927502
 42
-1.5160244285
  0
ELLIPSE
  5
3AA
100
AcDbEntity
  8
0
100
AcDbEllipse
 62
7
  6
CONTINUOUS
 10
148.3500649526
 20
174.1443583783
 30
0.0
 11
-0.0
 21
52.467978777
 31
0.0
 40
0.6527791007
 41
-1.5297263966
 42
-1.5205927502
  0
ELLIPSE
  5
3AB
100
AcDbEntity
  8
0
100
AcDbEllipse
 62
7
  6
CONTINUOUS
 10
148.3500649526
 20
175.3411620484
 30
0.0
 11
34.25
 21
-0.0
 31
0.0
 40
0.6808512211
 41
0.0273756733
 42
0.0410699302
  0
ELLIPSE
  5
3AC
100
AcDbEntity
  8
0
100
AcDbEllipse
 62
7
  6
CONTINUOUS
 10
148.3500649526
 20
175.7400980395
 30
0.0
 11
34.25
 21
0.0
 31
0.0
 40
0.255319362
 41
0.0091242229
 42
0.0273756733
  0
ELLIPSE
  5
3AD
100
AcDbEntity
  8
0
100
AcDbEllipse
 62
7
  6
CONTINUOUS
 10
148.3500649526
 20
181.0858432611
 30
0.0
 11
34.25
 21
-0.0
 31
0.0
 40
0.2042552558
 41
0.1603579035
 42
0.1835099969
  0
ELLIPSE
  5
3AE
100
AcDbEntity
  8
0
100
AcDbEllipse
 62
7
  6
CONTINUOUS
 10
148.3500649526
 20
178.0140339886
 30
0.0
 11
34.25
 21
0.0
 31
0.0
 40
0.7659575381
 41
0.1418990764
 42
0.1603579035
  0
ELLIPSE
  5
3AF
100
AcDbEntity
  8
0
100
AcDbEllipse
 62
7
  6
CONTINUOUS
 10
148.3500649526
 20
175.1283969193
 30
0.0
 11
-0.0
 21
46.6382923126
 31
0.0
 40
0.7343750875
 41
-1.4427091477
 42
-1.4288972504
  0
ELLIPSE
  5
3B0
100
AcDbEntity
  8
0
100
AcDbEllipse
 62
7
  6
CONTINUOUS
 10
148.3500649526
 20
167.681576513
 30
0.0
 11
-0.0
 21
104.9362577784
 31
0.0
 40
0.3263886165
 41
-1.4473075224
 42
-1.4427091477
  0
ELLIPSE
  5
3B1
100
AcDbEntity
  8
0
100
AcDbEllipse
 62
7
  6
CONTINUOUS
 10
148.3500649526
 20
192.8943645845
 30
0.0
 11
-0.0
 21
104.9362577784
 31
0.0
 40
0.3263886165
 41
-1.6988835059
 42
-1.6942851312
  0
ELLIPSE
  5
3B2
100
AcDbEntity
  8
0
100
AcDbEllipse
 62
7
  6
CONTINUOUS
 10
148.3500649526
 20
185.4475441782
 30
0.0
 11
-0.0
 21
46.6382923126
 31
0.0
 40
0.7343750875
 41
-1.7126954031
 42
-1.6988835059
  0
ELLIPSE
  5
3B3
100
AcDbEntity
  8
0
100
AcDbEllipse
 62
7
  6
CONTINUOUS
 10
148.3500649526
 20
181.3252048338
 30
0.0
 11
34.25
 21
0.0
 31
0.0
 40
0.5106383587
 41
-0.1603579035
 42
-0.1418990764
  0
ELLIPSE
  5
3B4
100
AcDbEntity
  8
0
100
AcDbEllipse
 62
7
  6
CONTINUOUS
 10
148.3500649526
 20
164.2596020921
 30
0.0
 11
-0.0
 21
89.3900711536
 31
0.0
 40
0.3831521729
 41
-1.4519032872
 42
-1.4104384233
  0
ELLIPSE
  5
3B5
100
AcDbEntity
  8
0
100
AcDbEllipse
 62
7
  6
CONTINUOUS
 10
148.3500649526
 20
163.0539562348
 30
0.0
 11
-0.0
 21
173.6166694323
 31
0.0
 40
0.1958337302
 41
-1.4889644505
 42
-1.4879811038
  0
ELLIPSE
  5
3B6
100
AcDbEntity
  8
0
100
AcDbEllipse
 62
7
  6
CONTINUOUS
 10
148.3500649526
 20
169.1815879077
 30
0.0
 11
34.0
 21
0.0
 31
0.0
 40
0.3404254913
 41
0.1058963305
 42
0.1197714375
  0
ELLIPSE
  5
3B7
100
AcDbEntity
  8
0
100
AcDbEllipse
 62
7
  6
CONTINUOUS
 10
148.3500649526
 20
166.7347763914
 30
0.0
 11
-0.0
 21
34.7234332308
 31
0.0
 40
0.9791658496
 41
-1.4741385362
 42
-1.4648999963
  0
ELLIPSE
  5
3B8
100
AcDbEntity
  8
0
100
AcDbEllipse
 62
7
  6
CONTINUOUS
 10
148.3500649526
 20
160.0326719016
 30
0.0
 11
-0.0
 21
104.1700016594
 31
0.0
 40
0.3263895503
 41
-1.4787546682
 42
-1.4741385362
  0
ELLIPSE
  5
3B9
100
AcDbEntity
  8
0
100
AcDbEllipse
 62
7
  6
CONTINUOUS
 10
148.3500649526
 20
178.702843645
 30
0.0
 11
-0.0
 21
104.1700016594
 31
0.0
 40
0.3263895503
 41
-1.6674541174
 42
-1.6628379854
  0
ELLIPSE
  5
3BA
100
AcDbEntity
  8
0
100
AcDbEllipse
 62
7
  6
CONTINUOUS
 10
148.3500649526
 20
172.0007391551
 30
0.0
 11
0.0
 21
34.7234332308
 31
0.0
 40
0.9791658496
 41
-1.6766926573
 42
-1.6674541174
  0
ELLIPSE
  5
3BB
100
AcDbEntity
  8
0
100
AcDbEllipse
 62
7
  6
CONTINUOUS
 10
148.3500649526
 20
169.5539276389
 30
0.0
 11
34.0
 21
-0.0
 31
0.0
 40
0.3404254913
 41
-0.1197714375
 42
-0.1058963305
  0
ELLIPSE
  5
3BC
100
AcDbEntity
  8
0
100
AcDbEllipse
 62
7
  6
CONTINUOUS
 10
148.3500649526
 20
166.7879710196
 30
0.0
 11
34.0
 21
-0.0
 31
0.0
 40
0.3404254913
 41
0.3178237085
 42
0.3323726791
  0
ELLIPSE
  5
3BD
100
AcDbEntity
  8
0
100
AcDbEllipse
 62
7
  6
CONTINUOUS
 10
148.3500649526
 20
159.5539344015
 30
0.0
 11
0.0
 21
34.7233835586
 31
0.0
 40
0.9791672503
 41
-1.2626331824
 42
-1.2529726183
  0
ELLIPSE
  5
3BE
100
AcDbEntity
  8
0
100
AcDbEllipse
 62
7
  6
CONTINUOUS
 10
148.3500649526
 20
138.4900719712
 30
0.0
 11
-0.0
 21
104.1702996924
 31
0.0
 40
0.3263886165
 41
-1.2674522785
 42
-1.2626331824
  0
ELLIPSE
  5
3BF
100
AcDbEntity
  8
0
100
AcDbEllipse
 62
7
  6
CONTINUOUS
 10
148.3500649526
 20
200.2454435754
 30
0.0
 11
-0.0
 21
104.1702996924
 31
0.0
 40
0.3263886165
 41
-1.8789594712
 42
-1.874140375
  0
ELLIPSE
  5
3C0
100
AcDbEntity
  8
0
100
AcDbEllipse
 62
7
  6
CONTINUOUS
 10
148.3500649526
 20
179.1815811451
 30
0.0
 11
-0.0
 21
34.7233835586
 31
0.0
 40
0.9791672503
 41
-1.8886200353
 42
-1.8789594712
  0
ELLIPSE
  5
3C1
100
AcDbEntity
  8
0
100
AcDbEllipse
 62
7
  6
CONTINUOUS
 10
148.3500649526
 20
171.947544527
 30
0.0
 11
34.0
 21
-0.0
 31
0.0
 40
0.3404254913
 41
-0.3323726791
 42
-0.3178237085
  0
ELLIPSE
  5
3C2
100
AcDbEntity
  8
0
100
AcDbEllipse
 62
7
  6
CONTINUOUS
 10
148.3500649526
 20
179.4900984762
 30
0.0
 11
34.0
 21
0.0
 31
0.0
 40
0.3404254913
 41
0.16620534
 42
0.1802016334
  0
ELLIPSE
  5
3C3
100
AcDbEntity
  8
0
100
AcDbEllipse
 62
7
  6
CONTINUOUS
 10
148.3500649526
 20
175.6603143366
 30
0.0
 11
-0.0
 21
34.7233835586
 31
0.0
 40
0.9791672503
 41
-1.4139034558
 42
-1.4045909868
  0
ELLIPSE
  5
3C4
100
AcDbEntity
  8
0
100
AcDbEllipse
 62
7
  6
CONTINUOUS
 10
148.3500649526
 20
164.8092336906
 30
0.0
 11
-0.0
 21
104.1702996924
 31
0.0
 40
0.3263886165
 41
-1.4185544924
 42
-1.4139034558
  0
ELLIPSE
  5
3C5
100
AcDbEntity
  8
0
100
AcDbEllipse
 62
7
  6
CONTINUOUS
 10
148.3500649526
 20
195.9262818559
 30
0.0
 11
-0.0
 21
104.1702996924
 31
0.0
 40
0.3263886165
 41
-1.7276891978
 42
-1.7230381612
  0
ELLIPSE
  5
3C6
100
AcDbEntity
  8
0
100
AcDbEllipse
 62
7
  6
CONTINUOUS
 10
148.3500649526
 20
185.07520121
 30
0.0
 11
-0.0
 21
34.7233835586
 31
0.0
 40
0.9791672503
 41
-1.7370016668
 42
-1.7276891978
  0
ELLIPSE
  5
3C7
100
AcDbEntity
  8
0
100
AcDbEllipse
 62
7
  6
CONTINUOUS
 10
148.3500649526
 20
181.2454170703
 30
0.0
 11
34.0
 21
-0.0
 31
0.0
 40
0.3404254913
 41
-0.1802016334
 42
-0.16620534
  0
ELLIPSE
  5
3C8
100
AcDbEntity
  8
0
100
AcDbEllipse
 62
7
  6
CONTINUOUS
 10
148.3500649526
 20
171.947544527
 30
0.0
 11
34.25
 21
0.0
 31
0.0
 40
0.3404254913
 41
-0.3298542231
 42
-0.3154233704
  0
ELLIPSE
  5
3C9
100
AcDbEntity
  8
0
100
AcDbEllipse
 62
7
  6
CONTINUOUS
 10
148.3500649526
 20
179.1815811451
 30
0.0
 11
-0.0
 21
34.9787025553
 31
0.0
 40
0.9791672503
 41
-1.8862196972
 42
-1.8766369454
  0
ELLIPSE
  5
3CA
100
AcDbEntity
  8
0
100
AcDbEllipse
 62
7
  6
CONTINUOUS
 10
148.3500649526
 20
200.2454435754
 30
0.0
 11
-0.0
 21
104.9362577784
 31
0.0
 40
0.3263886165
 41
-1.8766369454
 42
-1.871856488
  0
ELLIPSE
  5
3CB
100
AcDbEntity
  8
0
100
AcDbEllipse
 62
7
  6
CONTINUOUS
 10
148.3500649526
 20
138.4900719712
 30
0.0
 11
-0.0
 21
104.9362577784
 31
0.0
 40
0.3263886165
 41
-1.2697361656
 42
-1.2649557082
  0
ELLIPSE
  5
3CC
100
AcDbEntity
  8
0
100
AcDbEllipse
 62
7
  6
CONTINUOUS
 10
148.3500649526
 20
159.5539344015
 30
0.0
 11
-0.0
 21
34.9787025553
 31
0.0
 40
0.9791672503
 41
-1.2649557082
 42
-1.2553729564
  0
ELLIPSE
  5
3CD
100
AcDbEntity
  8
0
100
AcDbEllipse
 62
7
  6
CONTINUOUS
 10
148.3500649526
 20
166.7879710196
 30
0.0
 11
34.25
 21
-0.0
 31
0.0
 40
0.3404254913
 41
0.3154233704
 42
0.3298542231
  0
ELLIPSE
  5
3CE
100
AcDbEntity
  8
0
100
AcDbEllipse
 62
7
  6
CONTINUOUS
 10
148.3500649526
 20
174.7986087396
 30
0.0
 11
34.25
 21
-0.0
 31
0.0
 40
0.2042553906
 41
0.0091242229
 42
0.0319397368
  0
ELLIPSE
  5
3CF
100
AcDbEntity
  8
0
100
AcDbEllipse
 62
7
  6
CONTINUOUS
 10
148.3500649526
 20
174.4635026944
 30
0.0
 11
34.25
 21
-0.0
 31
0.0
 40
0.5106380606
 41
0.0319397368
 42
0.0502035766
  0
ELLIPSE
  5
3D0
100
AcDbEntity
  8
0
100
AcDbEllipse
 62
7
  6
CONTINUOUS
 10
148.3500649526
 20
173.5858409414
 30
0.0
 11
0.0
 21
34.978755655
 31
0.0
 40
0.9791657639
 41
-1.5205927502
 42
-1.5023121584
  0
ELLIPSE
  5
3D1
100
AcDbEntity
  8
0
100
AcDbEllipse
 62
7
  6
CONTINUOUS
 10
148.3500649526
 20
171.1922284467
 30
0.0
 11
-0.0
 21
69.9574173594
 31
0.0
 40
0.4895835394
 41
-1.5023121584
 42
-1.4931636302
  0
ELLIPSE
  5
3D2
100
AcDbEntity
  8
0
100
AcDbEllipse
 62
7
  6
CONTINUOUS
 10
148.3500649526
 20
163.0539562348
 30
0.0
 11
-0.0
 21
174.8932625899
 31
0.0
 40
0.1958337302
 41
-1.4931636302
 42
-1.4885869651
  0
ELLIPSE
  5
3D3
100
AcDbEntity
  8
0
100
AcDbEllipse
 62
7
  6
CONTINUOUS
 10
148.3500649526
 20
181.2454170703
 30
0.0
 11
34.25
 21
-0.0
 31
0.0
 40
0.3404254913
 41
-0.1788720288
 42
-0.1649809919
  0
ELLIPSE
  5
3D4
100
AcDbEntity
  8
0
100
AcDbEllipse
 62
7
  6
CONTINUOUS
 10
148.3500649526
 20
185.07520121
 30
0.0
 11
-0.0
 21
34.9787025553
 31
0.0
 40
0.9791672503
 41
-1.7357773187
 42
-1.7265346096
  0
ELLIPSE
  5
3D5
100
AcDbEntity
  8
0
100
AcDbEllipse
 62
7
  6
CONTINUOUS
 10
148.3500649526
 20
195.9262818559
 30
0.0
 11
-0.0
 21
104.9362577784
 31
0.0
 40
0.3263886165
 41
-1.7265346096
 42
-1.7219183372
  0
ELLIPSE
  5
3D6
100
AcDbEntity
  8
0
100
AcDbEllipse
 62
7
  6
CONTINUOUS
 10
148.3500649526
 20
164.8092336906
 30
0.0
 11
-0.0
 21
104.9362577784
 31
0.0
 40
0.3263886165
 41
-1.4196743164
 42
-1.415058044
  0
ELLIPSE
  5
3D7
100
AcDbEntity
  8
0
100
AcDbEllipse
 62
7
  6
CONTINUOUS
 10
148.3500649526
 20
175.6603143366
 30
0.0
 11
-0.0
 21
34.9787025553
 31
0.0
 40
0.9791672503
 41
-1.415058044
 42
-1.4058153349
  0
ELLIPSE
  5
3D8
100
AcDbEntity
  8
0
100
AcDbEllipse
 62
7
  6
CONTINUOUS
 10
148.3500649526
 20
161.0392988926
 30
0.0
 11
-0.0
 21
91.1489428967
 31
0.0
 40
0.3730158455
 41
-1.4185544924
 42
-1.3812441418
  0
ELLIPSE
  5
3D9
100
AcDbEntity
  8
0
100
AcDbEllipse
 62
7
  6
CONTINUOUS
 10
148.3500649526
 20
179.4900984762
 30
0.0
 11
34.25
 21
0.0
 31
0.0
 40
0.3404254913
 41
0.1649809919
 42
0.1788720288
  0
ELLIPSE
  5
3DA
100
AcDbEntity
  8
0
100
AcDbEllipse
 62
7
  6
CONTINUOUS
 10
148.3500649526
 20
169.5539276389
 30
0.0
 11
34.25
 21
-0.0
 31
0.0
 40
0.3404254913
 41
-0.1188930352
 42
-0.1051204941
  0
ELLIPSE
  5
3DB
100
AcDbEntity
  8
0
100
AcDbEllipse
 62
7
  6
CONTINUOUS
 10
148.3500649526
 20
172.0007391551
 30
0.0
 11
0.0
 21
34.9787525928
 31
0.0
 40
0.9791658496
 41
-1.6759168209
 42
-1.6667464048
  0
ELLIPSE
  5
3DC
100
AcDbEntity
  8
0
100
AcDbEllipse
 62
7
  6
CONTINUOUS
 10
148.3500649526
 20
178.702843645
 30
0.0
 11
-0.0
 21
104.9359575539
 31
0.0
 40
0.3263895503
 41
-1.6667464048
 42
-1.6621642657
  0
ELLIPSE
  5
3DD
100
AcDbEntity
  8
0
100
AcDbEllipse
 62
7
  6
CONTINUOUS
 10
148.3500649526
 20
160.0326719016
 30
0.0
 11
-0.0
 21
104.9359575539
 31
0.0
 40
0.3263895503
 41
-1.4794283878
 42
-1.4748462488
  0
ELLIPSE
  5
3DE
100
AcDbEntity
  8
0
100
AcDbEllipse
 62
7
  6
CONTINUOUS
 10
148.3500649526
 20
166.7347763914
 30
0.0
 11
-0.0
 21
34.9787525928
 31
0.0
 40
0.9791658496
 41
-1.4748462488
 42
-1.4656758327
  0
ELLIPSE
  5
3DF
100
AcDbEntity
  8
0
100
AcDbEllipse
 62
7
  6
CONTINUOUS
 10
148.3500649526
 20
169.1815879077
 30
0.0
 11
34.25
 21
-0.0
 31
0.0
 40
0.3404254913
 41
0.1051204941
 42
0.1188930352
  0
ELLIPSE
  5
3E0
100
AcDbEntity
  8
0
100
AcDbEllipse
 62
7
  6
CONTINUOUS
 10
148.3500649526
 20
161.0392988926
 30
0.0
 11
-0.0
 21
91.8191557121
 31
0.0
 40
0.3730158455
 41
-1.4196743164
 42
-1.3826443593
  0
ENDSEC
  0
SECTION
  2
OBJECTS
  0
DICTIONARY
  5
C
100
AcDbDictionary
280
0
281
1
  3
ACAD_GROUP
350
D
  3
ACAD_MLINESTYLE
350
17
  3
ACAD_LAYOUT
350
1A
  3
ACAD_PLOTSETTINGS
350
19
  3
ACAD_PLOTSTYLENAME
350
E
  0
DICTIONARY
  5
D
102
{ACAD_REACTORS
330
C
102
}
100
AcDbDictionary
280
0
281
1
  0
ACDBDICTIONARYWDFLT
  5
E
102
{ACAD_REACTORS
330
C
102
}
100
AcDbDictionary
281
1
  3
Normal
350
F
100
AcDbDictionaryWithDefault
340
F
  0
DICTIONARY
  5
17
102
{ACAD_REACTORS
330
C
102
}
100
AcDbDictionary
280
0
281
1
  3
Standard
350
18
  0
DICTIONARY
  5
19
102
{ACAD_REACTORS
330
C
102
}
100
AcDbDictionary
281
1
  0
DICTIONARY
  5
1A
102
{ACAD_REACTORS
330
C
102
}
100
AcDbDictionary
281
1
  3
Model
350
3E1
  3
Layout1
350
3E2
  0
ACDBPLACEHOLDER
  5
F
102
{ACAD_REACTORS
330
E
102
}
  0
MLINESTYLE
  5
18
102
{ACAD_REACTORS
330
17
102
}
100
AcDbMlineStyle
  2
STANDARD
 70
0
  3

 62
256
 51
90.0
 52
90.0
 71
2
 49
0.5
 62
256
  6
BYLAYER
 49
-0.5
 62
256
  6
BYLAYER
  0
LAYOUT
  5
3E1
102
{ACAD_REACTORS
330
1A
102
}
100
AcDbPlotSettings
  1

  2
none_device
  4
ISO_A3_(420.00_x_297.00_MM)
  6

 40
0.0
 41
0.0
 42
0.0
 43
0.0
 44
420.0
 45
297.0
 46
0.0
 47
0.0
 48
0.0
 49
0.0
140
0.0
141
0.0
142
1.0
143
1.0
 70
1024
 72
1
 73
0
 74
0
  7

 75
0
147
1.0
148
0.0
149
0.0
100
AcDbLayout
  1
Model
 70
0
 71
0
 10
0.0
 20
0.0
 11
420.0
 21
297.0
 12
0.0
 22
0.0
 32
0.0
 14
0.0
 24
0.0
 34
0.0
 15
0.0
 25
0.0
 35
0.0
146
0.0
 13
0.0
 23
0.0
 33
0.0
 16
1.0
 26
0.0
 36
0.0
 17
0.0
 27
1.0
 37
0.0
 76
0
330
209
345
0
346
0
  0
LAYOUT
  5
3E2
102
{ACAD_REACTORS
330
1A
102
}
100
AcDbPlotSettings
  1

  2
none_device
  4
ISO_A3_(420.00_x_297.00_MM)
  6

 40
0.0
 41
0.0
 42
0.0
 43
0.0
 44
420.0
 45
297.0
 46
0.0
 47
0.0
 48
0.0
 49
0.0
140
0.0
141
0.0
142
1.0
143
1.0
 70
0
 72
1
 73
0
 74
0
  7

 75
0
147
1.0
148
0.0
149
0.0
100
AcDbLayout
  1
Layout1
 70
0
 71
1
 10
0.0
 20
0.0
 11
420.0
 21
297.0
 12
0.0
 22
0.0
 32
0.0
 14
0.0
 24
0.0
 34
0.0
 15
0.0
 25
0.0
 35
0.0
146
0.0
 13
0.0
 23
0.0
 33
0.0
 16
1.0
 26
0.0
 36
0.0
 17
0.0
 27
1.0
 37
0.0
 76
0
330
20A
345
0
346
0
  0
ENDSEC
  0
EOF
