999
DXF file: 001-m31347-p-50.dxf
999
Pro/ENGINEER 2011490 by Parametric Technology Corporation
  0
SECTION
  2
HEADER
  9
$ACADVER
  1
AC1015
  9
$DWGCODEPAGE
  3
ANSI_1252
  9
$EXTMAX
 10
297.0
 20
210.0
 30
0.0
  9
$EXTMIN
 10
0.0
 20
0.0
 30
0.0
  9
$LIMMIN
 10
0.0
 20
0.0
  9
$LIMMAX
 10
297.0
 20
210.0
  9
$VIEWCTR
 10
148.5
 20
105.0
  9
$VIEWSIZE
 40
210.0
  9
$CLAYER
  8
0
  9
$LTSCALE
 40
16.335
  9
$CELTYPE
  6
BYLAYER
  9
$DIMSCALE
 40
1.0
  9
$DIMASZ
 40
3.5
  9
$DIMEXO
 40
1.85625
  9
$DIMDLI
 40
11.286
  9
$DIMEXE
 40
5.346
  9
$DIMCEN
 40
2.673
  9
$DIMLFAC
 40
1.0
  9
$DIMBLK
  1
_FILLED
  9
$DIMTXT
 40
3.5
  9
$DIMTOL
 70
1
  9
$DIMLIM
 70
0
  9
$DIMTFAC
 40
1.0
  9
$DIMTP
 40
0.005
  9
$DIMTM
 40
0.005
  9
$PDMODE
 70
3
  9
$PDSIZE
 40
0.3125
  9
$HANDSEED
  5
434
  9
$TILEMODE
 70
1
  9
$MEASUREMENT
 70
1
  9
$INSUNITS
 70
4
  0
ENDSEC
  0
SECTION
  2
CLASSES
  0
CLASS
  1
ACDBDICTIONARYWDFLT
  2
AcDbDictionaryWithDefault
  3
AutoCAD 2000
 90
0
280
0
281
0
  0
CLASS
  1
ACDBPLACEHOLDER
  2
AcDbPlaceHolder
  3
AutoCAD 2000
 90
0
280
0
281
0
  0
CLASS
  1
LAYOUT
  2
AcDbLayout
  3
AutoCAD 2000
 90
0
280
0
281
0
  0
ENDSEC
  0
SECTION
  2
TABLES
  0
TABLE
  2
VPORT
  5
8
100
AcDbSymbolTable
 70
2
  0
VPORT
  5
1F4
100
AcDbSymbolTableRecord
100
AcDbViewportTableRecord
  2
*ACTIVE
 70
0
 10
0.0
 20
0.0
 11
1.0
 21
1.0
 12
148.5
 22
105.0
 13
0.0
 23
0.0
 14
1.0
 24
1.0
 15
0.0
 25
0.0
 16
0.0
 26
0.0
 36
1.0
 17
0.0
 27
0.0
 37
0.0
 40
210.0
 41
1.4142857143
 42
50.0
 43
0.0
 44
0.0
 50
0.0
 51
0.0
 71
0
 72
100
 73
1
 74
1
 75
0
 76
0
 77
0
 78
0
  0
ENDTAB
  0
TABLE
  2
LTYPE
  5
5
100
AcDbSymbolTable
 70
6
  0
LTYPE
  5
14
100
AcDbSymbolTableRecord
100
AcDbLinetypeTableRecord
  2
BYBLOCK
 70
0
  3

 72
65
 73
0
 40
0.0
  0
LTYPE
  5
15
100
AcDbSymbolTableRecord
100
AcDbLinetypeTableRecord
  2
BYLAYER
 70
0
  3

 72
65
 73
0
 40
0.0
  0
LTYPE
  5
16
100
AcDbSymbolTableRecord
100
AcDbLinetypeTableRecord
  2
CONTINUOUS
 70
64
  3
Solid line
 72
65
 73
0
 40
0.0
  0
LTYPE
  5
1F5
100
AcDbSymbolTableRecord
100
AcDbLinetypeTableRecord
  2
CENTER
 70
64
  3
____ _ ____ _ ____ _ ____ _ ____ _ ____ _ ____
 72
65
 73
4
 40
0.6
 49
0.375
 74
0
 49
-0.075
 74
0
 49
0.075
 74
0
 49
-0.075
 74
0
  0
LTYPE
  5
1F6
100
AcDbSymbolTableRecord
100
AcDbLinetypeTableRecord
  2
HIDDEN
 70
64
  3
- - - - - - - - - - - - - - - - - - - -
 72
65
 73
2
 40
0.2
 49
0.1
 74
0
 49
-0.1
 74
0
  0
LTYPE
  5
1F7
100
AcDbSymbolTableRecord
100
AcDbLinetypeTableRecord
  2
PHANTOM
 70
64
  3
_____ _ _ _____ _ _ _____ _ _ _____
 72
65
 73
6
 40
0.8
 49
0.45
 74
0
 49
-0.05
 74
0
 49
0.1
 74
0
 49
-0.05
 74
0
 49
0.1
 74
0
 49
-0.05
 74
0
  0
LTYPE
  5
1F8
100
AcDbSymbolTableRecord
100
AcDbLinetypeTableRecord
  2
DOT
 70
64
  3
. . . . . . . . . . . . . . . . . . . .
 72
65
 73
2
 40
0.2
 49
0.1
 74
0
 49
-0.1
 74
0
  0
LTYPE
  5
1F9
100
AcDbSymbolTableRecord
100
AcDbLinetypeTableRecord
  2
DASHED
 70
64
  3
- - - - - - - - - - - - - - - - - - - -
 72
65
 73
2
 40
0.2
 49
0.1
 74
0
 49
-0.1
 74
0
  0
ENDTAB
  0
TABLE
  2
LAYER
  5
2
100
AcDbSymbolTable
 70
36
  0
LAYER
  5
10
100
AcDbSymbolTableRecord
100
AcDbLayerTableRecord
  2
0
 70
0
 62
7
  6
CONTINUOUS
370
-3
390
F
  0
LAYER
  5
1FA
100
AcDbSymbolTableRecord
100
AcDbLayerTableRecord
  2
DEFAULT_1
 70
0
 62
7
  6
CENTER
370
-3
390
F
  0
LAYER
  5
1FB
100
AcDbSymbolTableRecord
100
AcDbLayerTableRecord
  2
DEFAULT_2
 70
0
 62
8
  6
HIDDEN
370
-3
390
F
  0
LAYER
  5
1FC
100
AcDbSymbolTableRecord
100
AcDbLayerTableRecord
  2
DEFAULT_3
 70
0
 62
7
  6
PHANTOM
370
-3
390
F
  0
LAYER
  5
1FD
100
AcDbSymbolTableRecord
100
AcDbLayerTableRecord
  2
BEZUGSACHSEN
 70
0
 62
7
  6
CONTINUOUS
370
-3
390
F
  0
LAYER
  5
1FE
100
AcDbSymbolTableRecord
100
AcDbLayerTableRecord
  2
BEZUGSEBENEN
 70
0
 62
7
  6
CONTINUOUS
370
-3
390
F
  0
LAYER
  5
1FF
100
AcDbSymbolTableRecord
100
AcDbLayerTableRecord
  2
BG_STARTBEZUEGE
 70
0
 62
7
  6
CONTINUOUS
370
-3
390
F
  0
LAYER
  5
200
100
AcDbSymbolTableRecord
100
AcDbLayerTableRecord
  2
FASEN
 70
0
 62
7
  6
CONTINUOUS
370
-3
390
F
  0
LAYER
  5
201
100
AcDbSymbolTableRecord
100
AcDbLayerTableRecord
  2
HILFEN
 70
0
 62
7
  6
CONTINUOUS
370
-3
390
F
  0
LAYER
  5
202
100
AcDbSymbolTableRecord
100
AcDbLayerTableRecord
  2
NORM
 70
0
 62
7
  6
CONTINUOUS
370
-3
390
F
  0
LAYER
  5
203
100
AcDbSymbolTableRecord
100
AcDbLayerTableRecord
  2
PLATZIERUNG
 70
0
 62
7
  6
CONTINUOUS
370
-3
390
F
  0
LAYER
  5
204
100
AcDbSymbolTableRecord
100
AcDbLayerTableRecord
  2
RUNDUNGEN
 70
0
 62
7
  6
CONTINUOUS
370
-3
390
F
  0
LAYER
  5
205
100
AcDbSymbolTableRecord
100
AcDbLayerTableRecord
  2
T_STARTBEZUEGE
 70
0
 62
7
  6
CONTINUOUS
370
-3
390
F
  0
LAYER
  5
206
100
AcDbSymbolTableRecord
100
AcDbLayerTableRecord
  2
ZEICHNUNGSBEMASSUNGEN
 70
0
 62
7
  6
CONTINUOUS
370
-3
390
F
  0
ENDTAB
  0
TABLE
  2
STYLE
  5
3
100
AcDbSymbolTable
 70
1
  0
STYLE
  5
11
100
AcDbSymbolTableRecord
100
AcDbTextStyleTableRecord
  2
STANDARD
 70
0
 40
0.0
 41
0.7
 50
0.0
 71
0
 42
0.2
  3
txt
  4

  0
STYLE
  5
207
100
AcDbSymbolTableRecord
100
AcDbTextStyleTableRecord
  2
TEXTSTYLE_1
 70
0
 40
0.0
 41
0.8
 50
0.0
 71
0
 42
0.2
  3
gdt
  4

  0
ENDTAB
  0
TABLE
  2
VIEW
  5
6
100
AcDbSymbolTable
 70
0
  0
ENDTAB
  0
TABLE
  2
UCS
  5
7
100
AcDbSymbolTable
 70
0
  0
ENDTAB
  0
TABLE
  2
APPID
  5
9
100
AcDbSymbolTable
 70
1
  0
APPID
  5
208
100
AcDbSymbolTableRecord
100
AcDbRegAppTableRecord
  2
ACAD
 70
0
  0
ENDTAB
  0
TABLE
  2
BLOCK_RECORD
  5
1
100
AcDbSymbolTable
 70
0
  0
BLOCK_RECORD
  5
209
100
AcDbSymbolTableRecord
100
AcDbBlockTableRecord
  2
*Model_Space
  0
BLOCK_RECORD
  5
20A
100
AcDbSymbolTableRecord
100
AcDbBlockTableRecord
  2
*Paper_Space
  0
ENDTAB
  0
TABLE
  2
DIMSTYLE
  5
A
100
AcDbSymbolTable
 70
1
100
AcDbDimStyleTable
 71
0
  0
DIMSTYLE
105
20B
100
AcDbSymbolTableRecord
100
AcDbDimStyleTableRecord
  2
STANDARD
 70
0
  3

  4

 40
1.0
 41
3.5
 42
0.0625
 43
0.38
 44
0.18
 45
0.0
 46
0.0
 47
0.005
 48
0.005
140
3.5
141
0.09
142
0.0
143
25.4
144
1.0
145
0.0
146
1.0
147
0.09
 71
1.0
 72
0.0
 73
0
 74
0
 75
0
 76
0
 77
1
 78
8
170
0
171
2
172
0
173
0
174
0
175
0
176
0
177
0
178
5
270
2
271
3
272
3
273
2
274
2
275
0
280
0
281
0
282
0
283
1
284
8
285
0
286
0
287
3
288
0
340
11
  0
ENDTAB
  0
ENDSEC
  0
SECTION
  2
BLOCKS
  0
BLOCK
  5
20
100
AcDbEntity
  8
0
100
AcDbBlockBegin
  2
*Model_Space
 70
0
 10
0.0
 20
0.0
 30
0.0
  3
*Model_Space
  1

  0
ENDBLK
  5
21
100
AcDbEntity
  8
0
100
AcDbBlockEnd
  0
BLOCK
  5
1C
100
AcDbEntity
  8
0
100
AcDbBlockBegin
  2
*Paper_Space
 70
0
 10
0.0
 20
0.0
 30
0.0
  3
*Paper_Space
  1

  0
ENDBLK
  5
1D
100
AcDbEntity
  8
0
100
AcDbBlockEnd
  0
ENDSEC
  0
SECTION
  2
ENTITIES
  0
MTEXT
  5
20C
100
AcDbEntity
  8
0
100
AcDbMText
 62
5
  6
CONTINUOUS
  7
STANDARD
 71
2
 72
1
 10
92.4127490324
 20
42.1848681246
 30
0.0
 11
0.0
 21
1.0
 31
0.0
 44
0.9
  1
RUD WPPH\PVIP-8 2,5t 
 40
6.0
 41
47.8571428571
  0
MTEXT
  5
20D
100
AcDbEntity
  8
0
100
AcDbMText
 62
5
  6
CONTINUOUS
  7
STANDARD
 71
2
 72
1
 10
202.4621228542
 20
136.6482670071
 30
0.0
 11
1.0
 21
0.0
 31
0.0
 44
0.9
  1
RUD\PWPPH 2,5t
 40
5.0
 41
35.7142857143
  0
LINE
  5
20E
100
AcDbEntity
  8
0
100
AcDbLine
 62
7
  6
CONTINUOUS
 10
0.0
 20
0.0
 11
0.0
 21
210.0
  0
LINE
  5
20F
100
AcDbEntity
  8
0
100
AcDbLine
 62
7
  6
CONTINUOUS
 10
0.0
 20
0.0
 11
297.0
 21
0.0
  0
LINE
  5
210
100
AcDbEntity
  8
0
100
AcDbLine
 62
7
  6
CONTINUOUS
 10
0.0
 20
210.0
 11
297.0
 21
210.0
  0
LINE
  5
211
100
AcDbEntity
  8
0
100
AcDbLine
 62
7
  6
CONTINUOUS
 10
297.0
 20
0.0
 11
297.0
 21
210.0
  0
LINE
  5
212
100
AcDbEntity
  8
0
100
AcDbLine
 62
7
  6
CONTINUOUS
 10
75.4234428968
 20
113.938050086
 11
73.3256938189
 21
116.438050086
  0
LINE
  5
213
100
AcDbEntity
  8
0
100
AcDbLine
 62
7
  6
CONTINUOUS
 10
75.4237288228
 20
113.938050086
 11
124.2276588151
 21
113.938050086
  0
LINE
  5
214
100
AcDbEntity
  8
0
100
AcDbLine
 62
7
  6
CONTINUOUS
 10
126.3256938189
 20
116.438050086
 11
73.3256938189
 21
116.438050086
  0
LINE
  5
215
100
AcDbEntity
  8
0
100
AcDbLine
 62
7
  6
CONTINUOUS
 10
126.3256938189
 20
119.008262854
 11
126.3925317
 21
119.008262854
  0
LINE
  5
216
100
AcDbEntity
  8
0
100
AcDbLine
 62
7
  6
CONTINUOUS
 10
119.2743441577
 20
119.838050086
 11
120.3233118208
 21
119.838050086
  0
LINE
  5
217
100
AcDbEntity
  8
0
100
AcDbLine
 62
7
  6
CONTINUOUS
 10
123.5003894017
 20
119.838050086
 11
124.1668361696
 21
119.838050086
  0
LINE
  5
218
100
AcDbEntity
  8
0
100
AcDbLine
 62
7
  6
CONTINUOUS
 10
126.1737908905
 20
119.838050086
 11
126.5756713189
 21
119.838050086
  0
LINE
  5
219
100
AcDbEntity
  8
0
100
AcDbLine
 62
7
  6
CONTINUOUS
 10
73.3256938189
 20
141.338050086
 11
73.3256938189
 21
116.438050086
  0
LINE
  5
21A
100
AcDbEntity
  8
0
100
AcDbLine
 62
7
  6
CONTINUOUS
 10
126.5756933227
 20
120.5295394621
 11
126.518389449
 21
120.5295394621
  0
LINE
  5
21B
100
AcDbEntity
  8
0
100
AcDbLine
 62
7
  6
CONTINUOUS
 10
126.1737908905
 20
120.5295394621
 11
126.4252186134
 21
120.5295394621
  0
LINE
  5
21C
100
AcDbEntity
  8
0
100
AcDbLine
 62
7
  6
CONTINUOUS
 10
125.680380894
 20
122.1891138292
 11
126.287406278
 21
122.1891138292
  0
LINE
  5
21D
100
AcDbEntity
  8
0
100
AcDbLine
 62
7
  6
CONTINUOUS
 10
125.1363997738
 20
122.7423054463
 11
124.1668361696
 21
122.7423054463
  0
LINE
  5
21E
100
AcDbEntity
  8
0
100
AcDbLine
 62
7
  6
CONTINUOUS
 10
122.1416074233
 20
122.7423054463
 11
120.3233118208
 21
122.7423054463
  0
LINE
  5
21F
100
AcDbEntity
  8
0
100
AcDbLine
 62
7
  6
CONTINUOUS
 10
125.680380894
 20
122.8806033022
 11
126.287406278
 21
122.8806033022
  0
LINE
  5
220
100
AcDbEntity
  8
0
100
AcDbLine
 62
7
  6
CONTINUOUS
 10
125.1823084137
 20
123.5720925814
 11
124.1668361696
 21
123.5720925814
  0
LINE
  5
221
100
AcDbEntity
  8
0
100
AcDbLine
 62
7
  6
CONTINUOUS
 10
122.2305247761
 20
123.5720925814
 11
120.3233118208
 21
123.5720925814
  0
LINE
  5
222
100
AcDbEntity
  8
0
100
AcDbLine
 62
7
  6
CONTINUOUS
 10
122.194718389
 20
123.7103904373
 11
122.4903305956
 21
123.7103904373
  0
LINE
  5
223
100
AcDbEntity
  8
0
100
AcDbLine
 62
7
  6
CONTINUOUS
 10
125.0527337071
 20
123.7103904373
 11
125.3152218945
 21
123.7103904373
  0
LINE
  5
224
100
AcDbEntity
  8
0
100
AcDbLine
 62
7
  6
CONTINUOUS
 10
122.364462502
 20
123.986986149
 11
122.6578771081
 21
123.986986149
  0
LINE
  5
225
100
AcDbEntity
  8
0
100
AcDbLine
 62
7
  6
CONTINUOUS
 10
125.1382516892
 20
123.986986149
 11
125.3998621522
 21
123.986986149
  0
LINE
  5
226
100
AcDbEntity
  8
0
100
AcDbLine
 62
7
  6
CONTINUOUS
 10
126.3256938189
 20
123.986986149
 11
126.5585218816
 21
123.986986149
  0
LINE
  5
227
100
AcDbEntity
  8
0
100
AcDbLine
 62
7
  6
CONTINUOUS
 10
122.447640952
 20
124.4018797166
 11
122.7399904936
 21
124.4018797166
  0
LINE
  5
228
100
AcDbEntity
  8
0
100
AcDbLine
 62
7
  6
CONTINUOUS
 10
125.1798177676
 20
124.4018797166
 11
125.4410037176
 21
124.4018797166
  0
LINE
  5
229
100
AcDbEntity
  8
0
100
AcDbLine
 62
7
  6
CONTINUOUS
 10
126.3256938189
 20
124.5401775724
 11
126.5474387203
 21
124.5401775724
  0
LINE
  5
22A
100
AcDbEntity
  8
0
100
AcDbLine
 62
7
  6
CONTINUOUS
 10
122.447640952
 20
124.8167736716
 11
122.7399904936
 21
124.8167736716
  0
LINE
  5
22B
100
AcDbEntity
  8
0
100
AcDbLine
 62
7
  6
CONTINUOUS
 10
125.1798177676
 20
124.8167736716
 11
125.4410037176
 21
124.8167736716
  0
LINE
  5
22C
100
AcDbEntity
  8
0
100
AcDbLine
 62
7
  6
CONTINUOUS
 10
126.1880011619
 20
124.8167736716
 11
126.5474387203
 21
124.8167736716
  0
LINE
  5
22D
100
AcDbEntity
  8
0
100
AcDbLine
 62
7
  6
CONTINUOUS
 10
122.364462502
 20
125.2316672391
 11
122.6578771081
 21
125.2316672391
  0
LINE
  5
22E
100
AcDbEntity
  8
0
100
AcDbLine
 62
7
  6
CONTINUOUS
 10
125.1382516892
 20
125.2316672391
 11
125.3998621522
 21
125.2316672391
  0
LINE
  5
22F
100
AcDbEntity
  8
0
100
AcDbLine
 62
7
  6
CONTINUOUS
 10
126.518389449
 20
125.2316672391
 11
126.5585218816
 21
125.2316672391
  0
LINE
  5
230
100
AcDbEntity
  8
0
100
AcDbLine
 62
7
  6
CONTINUOUS
 10
126.2015083798
 20
125.369965095
 11
126.452674379
 21
125.369965095
  0
LINE
  5
231
100
AcDbEntity
  8
0
100
AcDbLine
 62
7
  6
CONTINUOUS
 10
122.194718389
 20
125.5082629508
 11
122.4903305956
 21
125.5082629508
  0
LINE
  5
232
100
AcDbEntity
  8
0
100
AcDbLine
 62
7
  6
CONTINUOUS
 10
125.0527337071
 20
125.5082629508
 11
125.3152218945
 21
125.5082629508
  0
LINE
  5
233
100
AcDbEntity
  8
0
100
AcDbLine
 62
7
  6
CONTINUOUS
 10
126.54192177
 20
125.5082629508
 11
126.5699960798
 21
125.5082629508
  0
LINE
  5
234
100
AcDbEntity
  8
0
100
AcDbLine
 62
7
  6
CONTINUOUS
 10
126.5754017612
 20
125.6465608067
 11
126.5704177352
 21
125.6465608067
  0
LINE
  5
235
100
AcDbEntity
  8
0
100
AcDbLine
 62
7
  6
CONTINUOUS
 10
125.1823084137
 20
125.6465608067
 11
124.1668361696
 21
125.6465608067
  0
LINE
  5
236
100
AcDbEntity
  8
0
100
AcDbLine
 62
7
  6
CONTINUOUS
 10
122.2305247761
 20
125.6465608067
 11
120.3233118208
 21
125.6465608067
  0
LINE
  5
237
100
AcDbEntity
  8
0
100
AcDbLine
 62
7
  6
CONTINUOUS
 10
126.2485292184
 20
125.9231565184
 11
126.4992524595
 21
125.9231565184
  0
LINE
  5
238
100
AcDbEntity
  8
0
100
AcDbLine
 62
7
  6
CONTINUOUS
 10
126.2843798691
 20
126.1997522301
 11
126.5347665752
 21
126.1997522301
  0
LINE
  5
239
100
AcDbEntity
  8
0
100
AcDbLine
 62
7
  6
CONTINUOUS
 10
119.2743441577
 20
126.338050086
 11
122.1416074233
 21
126.338050086
  0
LINE
  5
23A
100
AcDbEntity
  8
0
100
AcDbLine
 62
7
  6
CONTINUOUS
 10
123.5003894017
 20
126.338050086
 11
125.1363997738
 21
126.338050086
  0
LINE
  5
23B
100
AcDbEntity
  8
0
100
AcDbLine
 62
7
  6
CONTINUOUS
 10
126.3203682543
 20
126.338050086
 11
126.5704180358
 21
126.338050086
  0
LINE
  5
23C
100
AcDbEntity
  8
0
100
AcDbLine
 62
7
  6
CONTINUOUS
 10
124.3664762025
 20
129.338050086
 11
124.9484393645
 21
129.338050086
  0
LINE
  5
23D
100
AcDbEntity
  8
0
100
AcDbLine
 62
7
  6
CONTINUOUS
 10
125.682720475
 20
129.338050086
 11
126.131578469
 21
129.338050086
  0
LINE
  5
23E
100
AcDbEntity
  8
0
100
AcDbLine
 62
7
  6
CONTINUOUS
 10
126.2770954543
 20
129.338050086
 11
126.5545844384
 21
129.338050086
  0
LINE
  5
23F
100
AcDbEntity
  8
0
100
AcDbLine
 62
7
  6
CONTINUOUS
 10
126.2273206331
 20
129.4763479539
 11
126.4782433862
 21
129.4763479539
  0
LINE
  5
240
100
AcDbEntity
  8
0
100
AcDbLine
 62
7
  6
CONTINUOUS
 10
126.1749089881
 20
129.752943702
 11
126.4263261429
 21
129.752943702
  0
LINE
  5
241
100
AcDbEntity
  8
0
100
AcDbLine
 62
7
  6
CONTINUOUS
 10
126.5545844384
 20
130.1678373179
 11
126.5275504674
 21
130.1678373179
  0
LINE
  5
242
100
AcDbEntity
  8
0
100
AcDbLine
 62
7
  6
CONTINUOUS
 10
126.1112332033
 20
130.3061351738
 11
126.3632536301
 21
130.3061351738
  0
LINE
  5
243
100
AcDbEntity
  8
0
100
AcDbLine
 62
7
  6
CONTINUOUS
 10
126.4894876303
 20
130.3061351738
 11
126.5706229253
 21
130.3061351738
  0
LINE
  5
244
100
AcDbEntity
  8
0
100
AcDbLine
 62
7
  6
CONTINUOUS
 10
126.4536748159
 20
130.5827309824
 11
126.5754484107
 21
130.5827309824
  0
LINE
  5
245
100
AcDbEntity
  8
0
100
AcDbLine
 62
7
  6
CONTINUOUS
 10
126.0751461294
 20
130.8593266941
 11
126.3275097302
 21
130.8593266941
  0
LINE
  5
246
100
AcDbEntity
  8
0
100
AcDbLine
 62
7
  6
CONTINUOUS
 10
126.4263261429
 20
130.9976245499
 11
126.5752374774
 21
130.9976245499
  0
LINE
  5
247
100
AcDbEntity
  8
0
100
AcDbLine
 62
7
  6
CONTINUOUS
 10
126.0560353149
 20
131.5508159733
 11
126.3085810293
 21
131.5508159733
  0
LINE
  5
248
100
AcDbEntity
  8
0
100
AcDbLine
 62
7
  6
CONTINUOUS
 10
126.4116067319
 20
131.5508159733
 11
126.5741036858
 21
131.5508159733
  0
LINE
  5
249
100
AcDbEntity
  8
0
100
AcDbLine
 62
7
  6
CONTINUOUS
 10
125.6743598664
 20
132.2423054463
 11
124.9484393645
 21
132.2423054463
  0
LINE
  5
24A
100
AcDbEntity
  8
0
100
AcDbLine
 62
7
  6
CONTINUOUS
 10
125.7449875133
 20
133.0720925814
 11
124.9484393645
 21
133.0720925814
  0
LINE
  5
24B
100
AcDbEntity
  8
0
100
AcDbLine
 62
7
  6
CONTINUOUS
 10
125.5881974942
 20
133.2103904373
 11
125.845284431
 21
133.2103904373
  0
LINE
  5
24C
100
AcDbEntity
  8
0
100
AcDbLine
 62
7
  6
CONTINUOUS
 10
125.6519613338
 20
133.486986149
 11
125.9084197836
 21
133.486986149
  0
LINE
  5
24D
100
AcDbEntity
  8
0
100
AcDbLine
 62
7
  6
CONTINUOUS
 10
125.682720475
 20
133.9018797166
 11
125.93887684
 21
133.9018797166
  0
LINE
  5
24E
100
AcDbEntity
  8
0
100
AcDbLine
 62
7
  6
CONTINUOUS
 10
125.682720475
 20
134.3167736716
 11
125.93887684
 21
134.3167736716
  0
LINE
  5
24F
100
AcDbEntity
  8
0
100
AcDbLine
 62
7
  6
CONTINUOUS
 10
125.6519613338
 20
134.7316672391
 11
125.9084197836
 21
134.7316672391
  0
LINE
  5
250
100
AcDbEntity
  8
0
100
AcDbLine
 62
7
  6
CONTINUOUS
 10
86.8256938189
 20
152.638050086
 11
86.8256938189
 21
155.9713833398
  0
LINE
  5
251
100
AcDbEntity
  8
0
100
AcDbLine
 62
7
  6
CONTINUOUS
 10
86.8256938189
 20
156.638050086
 11
86.8256938189
 21
157.138050086
  0
LINE
  5
252
100
AcDbEntity
  8
0
100
AcDbLine
 62
7
  6
CONTINUOUS
 10
86.8256938189
 20
157.8047165937
 11
86.8256938189
 21
160.888050086
  0
LINE
  5
253
100
AcDbEntity
  8
0
100
AcDbLine
 62
7
  6
CONTINUOUS
 10
86.8256938189
 20
162.2479590397
 11
86.8256938189
 21
164.9979590397
  0
LINE
  5
254
100
AcDbEntity
  8
0
100
AcDbLine
 62
7
  6
CONTINUOUS
 10
86.8256938189
 20
165.5547170705
 11
86.8256938189
 21
168.5547170705
  0
LINE
  5
255
100
AcDbEntity
  8
RUNDUNGEN
100
AcDbLine
 62
7
  6
CONTINUOUS
 10
87.3256938189
 20
171.838050086
 11
87.3256938189
 21
148.838050086
  0
LINE
  5
256
100
AcDbEntity
  8
0
100
AcDbLine
 62
7
  6
CONTINUOUS
 10
125.5881974942
 20
135.0082629508
 11
125.845284431
 21
135.0082629508
  0
LINE
  5
257
100
AcDbEntity
  8
0
100
AcDbLine
 62
7
  6
CONTINUOUS
 10
125.7449875133
 20
135.1465608067
 11
124.9484393645
 21
135.1465608067
  0
LINE
  5
258
100
AcDbEntity
  8
0
100
AcDbLine
 62
7
  6
CONTINUOUS
 10
124.3664762025
 20
135.838050086
 11
125.71005203
 21
135.838050086
  0
LINE
  5
259
100
AcDbEntity
  8
0
100
AcDbLine
 62
7
  6
CONTINUOUS
 10
126.0560353149
 20
135.838050086
 11
126.5741036858
 21
135.838050086
  0
LINE
  5
25A
100
AcDbEntity
  8
RUNDUNGEN
100
AcDbLine
 62
7
  6
CONTINUOUS
 10
123.8256938189
 20
143.838050086
 11
117.3255327915
 21
143.838050086
  0
LINE
  5
25B
100
AcDbEntity
  8
RUNDUNGEN
100
AcDbLine
 62
7
  6
CONTINUOUS
 10
82.3258334533
 20
143.838050086
 11
75.8256938189
 21
143.838050086
  0
LINE
  5
25C
100
AcDbEntity
  8
0
100
AcDbLine
 62
7
  6
CONTINUOUS
 10
87.3256938189
 20
152.638050086
 11
86.8256938189
 21
152.638050086
  0
LINE
  5
25D
100
AcDbEntity
  8
0
100
AcDbLine
 62
7
  6
CONTINUOUS
 10
87.3256938189
 20
153.971383459
 11
86.8256938189
 21
153.971383459
  0
LINE
  5
25E
100
AcDbEntity
  8
0
100
AcDbLine
 62
7
  6
CONTINUOUS
 10
87.3256938189
 20
154.638050086
 11
86.8256938189
 21
154.638050086
  0
LINE
  5
25F
100
AcDbEntity
  8
0
100
AcDbLine
 62
7
  6
CONTINUOUS
 10
87.3256938189
 20
155.9713833398
 11
86.8256938189
 21
155.9713833398
  0
LINE
  5
260
100
AcDbEntity
  8
0
100
AcDbLine
 62
7
  6
CONTINUOUS
 10
87.3256938189
 20
156.638050086
 11
86.8256938189
 21
156.638050086
  0
LINE
  5
261
100
AcDbEntity
  8
0
100
AcDbLine
 62
7
  6
CONTINUOUS
 10
87.3256938189
 20
157.138050086
 11
86.8256938189
 21
157.138050086
  0
LINE
  5
262
100
AcDbEntity
  8
0
100
AcDbLine
 62
7
  6
CONTINUOUS
 10
87.3256938189
 20
157.8047165937
 11
86.8256938189
 21
157.8047165937
  0
LINE
  5
263
100
AcDbEntity
  8
0
100
AcDbLine
 62
7
  6
CONTINUOUS
 10
87.3256938189
 20
157.9979590397
 11
86.8256938189
 21
157.9979590397
  0
LINE
  5
264
100
AcDbEntity
  8
0
100
AcDbLine
 62
7
  6
CONTINUOUS
 10
87.3256938189
 20
160.7479590397
 11
86.8256938189
 21
160.7479590397
  0
LINE
  5
265
100
AcDbEntity
  8
0
100
AcDbLine
 62
7
  6
CONTINUOUS
 10
87.3256938189
 20
160.8047170705
 11
86.8256938189
 21
160.8047170705
  0
LINE
  5
266
100
AcDbEntity
  8
0
100
AcDbLine
 62
7
  6
CONTINUOUS
 10
87.3256938189
 20
160.888050086
 11
86.8256938189
 21
160.888050086
  0
LINE
  5
267
100
AcDbEntity
  8
RUNDUNGEN
100
AcDbLine
 62
7
  6
CONTINUOUS
 10
112.3256938189
 20
148.838050086
 11
112.3256938189
 21
171.838050086
  0
LINE
  5
268
100
AcDbEntity
  8
0
100
AcDbLine
 62
7
  6
CONTINUOUS
 10
87.3256938189
 20
162.2479590397
 11
86.8256938189
 21
162.2479590397
  0
LINE
  5
269
100
AcDbEntity
  8
0
100
AcDbLine
 62
7
  6
CONTINUOUS
 10
87.3256938189
 20
164.9979590397
 11
86.8256938189
 21
164.9979590397
  0
LINE
  5
26A
100
AcDbEntity
  8
0
100
AcDbLine
 62
7
  6
CONTINUOUS
 10
87.3256938189
 20
165.5547170705
 11
86.8256938189
 21
165.5547170705
  0
LINE
  5
26B
100
AcDbEntity
  8
0
100
AcDbLine
 62
7
  6
CONTINUOUS
 10
87.3256938189
 20
165.7213831014
 11
86.8256938189
 21
165.7213831014
  0
LINE
  5
26C
100
AcDbEntity
  8
0
100
AcDbLine
 62
7
  6
CONTINUOUS
 10
87.3256938189
 20
165.9713831014
 11
86.8256938189
 21
165.9713831014
  0
LINE
  5
26D
100
AcDbEntity
  8
0
100
AcDbLine
 62
7
  6
CONTINUOUS
 10
87.3256938189
 20
166.388050086
 11
86.8256938189
 21
166.388050086
  0
LINE
  5
26E
100
AcDbEntity
  8
0
100
AcDbLine
 62
7
  6
CONTINUOUS
 10
87.3256938189
 20
166.8047170705
 11
86.8256938189
 21
166.8047170705
  0
LINE
  5
26F
100
AcDbEntity
  8
0
100
AcDbLine
 62
7
  6
CONTINUOUS
 10
119.2743441577
 20
126.338050086
 11
119.2743441577
 21
119.838050086
  0
LINE
  5
270
100
AcDbEntity
  8
0
100
AcDbLine
 62
7
  6
CONTINUOUS
 10
119.6136320642
 20
126.338050086
 11
119.6136320642
 21
119.838050086
  0
LINE
  5
271
100
AcDbEntity
  8
0
100
AcDbLine
 62
7
  6
CONTINUOUS
 10
120.3233118208
 20
125.6465608067
 11
120.3233118208
 21
123.5720925814
  0
LINE
  5
272
100
AcDbEntity
  8
0
100
AcDbLine
 62
7
  6
CONTINUOUS
 10
120.3233118208
 20
122.7423054463
 11
120.3233118208
 21
119.838050086
  0
LINE
  5
273
100
AcDbEntity
  8
0
100
AcDbLine
 62
7
  6
CONTINUOUS
 10
87.3256938189
 20
167.3047170705
 11
86.8256938189
 21
167.3047170705
  0
LINE
  5
274
100
AcDbEntity
  8
0
100
AcDbLine
 62
7
  6
CONTINUOUS
 10
87.3256938189
 20
167.7213831014
 11
86.8256938189
 21
167.7213831014
  0
LINE
  5
275
100
AcDbEntity
  8
0
100
AcDbLine
 62
7
  6
CONTINUOUS
 10
87.3256938189
 20
168.138050086
 11
86.8256938189
 21
168.138050086
  0
LINE
  5
276
100
AcDbEntity
  8
0
100
AcDbLine
 62
7
  6
CONTINUOUS
 10
87.3256938189
 20
168.388050086
 11
86.8256938189
 21
168.388050086
  0
LINE
  5
277
100
AcDbEntity
  8
0
100
AcDbLine
 62
7
  6
CONTINUOUS
 10
87.3256938189
 20
168.5547170705
 11
86.8256938189
 21
168.5547170705
  0
LINE
  5
278
100
AcDbEntity
  8
0
100
AcDbLine
 62
7
  6
CONTINUOUS
 10
122.447640952
 20
124.8167736716
 11
122.447640952
 21
124.4018797166
  0
LINE
  5
279
100
AcDbEntity
  8
0
100
AcDbLine
 62
7
  6
CONTINUOUS
 10
122.7399904936
 20
124.8167736716
 11
122.7399904936
 21
124.4018797166
  0
LINE
  5
27A
100
AcDbEntity
  8
0
100
AcDbLine
 62
7
  6
CONTINUOUS
 10
123.2101592067
 20
124.8167736716
 11
123.2101592067
 21
124.2635818607
  0
LINE
  5
27B
100
AcDbEntity
  8
0
100
AcDbLine
 62
7
  6
CONTINUOUS
 10
123.5003894017
 20
126.338050086
 11
123.5003894017
 21
119.838050086
  0
LINE
  5
27C
100
AcDbEntity
  8
0
100
AcDbLine
 62
7
  6
CONTINUOUS
 10
123.7798940965
 20
126.338050086
 11
123.7798940965
 21
119.838050086
  0
LINE
  5
27D
100
AcDbEntity
  8
0
100
AcDbLine
 62
7
  6
CONTINUOUS
 10
126.5756937945
 20
125.6210281753
 11
126.5754017612
 21
125.6465608067
  0
LINE
  5
27E
100
AcDbEntity
  8
0
100
AcDbLine
 62
7
  6
CONTINUOUS
 10
124.1668361696
 20
125.6465608067
 11
124.1668361696
 21
123.5720925814
  0
LINE
  5
27F
100
AcDbEntity
  8
0
100
AcDbLine
 62
7
  6
CONTINUOUS
 10
124.1668361696
 20
122.7423054463
 11
124.1668361696
 21
119.838050086
  0
LINE
  5
280
100
AcDbEntity
  8
0
100
AcDbLine
 62
7
  6
CONTINUOUS
 10
124.3664762025
 20
135.838050086
 11
124.3664762025
 21
129.338050086
  0
LINE
  5
281
100
AcDbEntity
  8
0
100
AcDbLine
 62
7
  6
CONTINUOUS
 10
124.6362258567
 20
135.838050086
 11
124.6362258567
 21
129.338050086
  0
LINE
  5
282
100
AcDbEntity
  8
0
100
AcDbLine
 62
7
  6
CONTINUOUS
 10
124.9484393645
 20
135.1465608067
 11
124.9484393645
 21
133.0720925814
  0
LINE
  5
283
100
AcDbEntity
  8
0
100
AcDbLine
 62
7
  6
CONTINUOUS
 10
124.9484393645
 20
132.2423054463
 11
124.9484393645
 21
129.338050086
  0
LINE
  5
284
100
AcDbEntity
  8
0
100
AcDbLine
 62
7
  6
CONTINUOUS
 10
125.1798177676
 20
124.8167736716
 11
125.1798177676
 21
124.4018797166
  0
LINE
  5
285
100
AcDbEntity
  8
0
100
AcDbLine
 62
7
  6
CONTINUOUS
 10
125.4410037176
 20
124.8167736716
 11
125.4410037176
 21
124.4018797166
  0
LINE
  5
286
100
AcDbEntity
  8
0
100
AcDbLine
 62
7
  6
CONTINUOUS
 10
125.6715829737
 20
124.8167736716
 11
125.6715829737
 21
124.2635818607
  0
LINE
  5
287
100
AcDbEntity
  8
0
100
AcDbLine
 62
7
  6
CONTINUOUS
 10
125.680380894
 20
122.8806033022
 11
125.680380894
 21
122.1891138292
  0
LINE
  5
288
100
AcDbEntity
  8
0
100
AcDbLine
 62
7
  6
CONTINUOUS
 10
125.682720475
 20
134.3167736716
 11
125.682720475
 21
133.9018797166
  0
LINE
  5
289
100
AcDbEntity
  8
0
100
AcDbLine
 62
7
  6
CONTINUOUS
 10
125.9365602111
 20
122.8806033022
 11
125.9365602111
 21
122.1891138292
  0
LINE
  5
28A
100
AcDbEntity
  8
0
100
AcDbLine
 62
7
  6
CONTINUOUS
 10
125.93887684
 20
134.3167736716
 11
125.93887684
 21
133.9018797166
  0
LINE
  5
28B
100
AcDbEntity
  8
0
100
AcDbLine
 62
7
  6
CONTINUOUS
 10
126.0560353149
 20
135.838050086
 11
126.0560353149
 21
134.8976598633
  0
LINE
  5
28C
100
AcDbEntity
  8
0
100
AcDbLine
 62
7
  6
CONTINUOUS
 10
126.0560353149
 20
133.182695669
 11
126.0560353149
 21
131.5508159733
  0
LINE
  5
28D
100
AcDbEntity
  8
0
100
AcDbLine
 62
7
  6
CONTINUOUS
 10
126.1062295226
 20
134.3167736716
 11
126.1062295226
 21
133.7635818607
  0
LINE
  5
28E
100
AcDbEntity
  8
0
100
AcDbLine
 62
7
  6
CONTINUOUS
 10
126.1737908905
 20
120.5295394621
 11
126.1737908905
 21
119.838050086
  0
LINE
  5
28F
100
AcDbEntity
  8
0
100
AcDbLine
 62
7
  6
CONTINUOUS
 10
126.287406278
 20
122.8806033022
 11
126.287406278
 21
122.1891138292
  0
LINE
  5
290
100
AcDbEntity
  8
0
100
AcDbLine
 62
7
  6
CONTINUOUS
 10
126.3085810293
 20
135.838050086
 11
126.3085810293
 21
131.5508159733
  0
LINE
  5
291
100
AcDbEntity
  8
0
100
AcDbLine
 62
7
  6
CONTINUOUS
 10
126.3256938189
 20
141.338050086
 11
126.3256938189
 21
135.838050086
  0
LINE
  5
292
100
AcDbEntity
  8
0
100
AcDbLine
 62
7
  6
CONTINUOUS
 10
126.3256938189
 20
129.338050086
 11
126.3256938189
 21
126.338050086
  0
LINE
  5
293
100
AcDbEntity
  8
0
100
AcDbLine
 62
7
  6
CONTINUOUS
 10
126.3256938189
 20
124.8167736716
 11
126.3256938189
 21
123.1130842285
  0
LINE
  5
294
100
AcDbEntity
  8
0
100
AcDbLine
 62
7
  6
CONTINUOUS
 10
126.3256938189
 20
119.838050086
 11
126.3256938189
 21
116.438050086
  0
LINE
  5
295
100
AcDbEntity
  8
0
100
AcDbLine
 62
7
  6
CONTINUOUS
 10
126.4116067319
 20
135.838050086
 11
126.4116067319
 21
131.5508159733
  0
LINE
  5
296
100
AcDbEntity
  8
0
100
AcDbLine
 62
7
  6
CONTINUOUS
 10
126.4252186134
 20
120.5295394621
 11
126.4252186134
 21
119.838050086
  0
LINE
  5
297
100
AcDbEntity
  8
0
100
AcDbLine
 62
7
  6
CONTINUOUS
 10
126.5474387203
 20
124.5401775724
 11
126.5474387203
 21
124.8167736716
  0
LINE
  5
298
100
AcDbEntity
  8
0
100
AcDbLine
 62
7
  6
CONTINUOUS
 10
126.5741036858
 20
135.838050086
 11
126.5741036858
 21
131.5508159733
  0
LINE
  5
299
100
AcDbEntity
  8
0
100
AcDbLine
 62
7
  6
CONTINUOUS
 10
126.5756938189
 20
130.3061351738
 11
126.5756938189
 21
129.6731564163
  0
LINE
  5
29A
100
AcDbEntity
  8
0
100
AcDbLine
 62
7
  6
CONTINUOUS
 10
126.5756938189
 20
126.338050086
 11
126.5756938189
 21
125.6465608067
  0
LINE
  5
29B
100
AcDbEntity
  8
0
100
AcDbLine
 62
7
  6
CONTINUOUS
 10
126.5756938189
 20
120.5295394621
 11
126.5756938189
 21
119.838050086
  0
LINE
  5
29C
100
AcDbEntity
  8
0
100
AcDbLine
 62
7
  6
CONTINUOUS
 10
124.227944741
 20
113.938050086
 11
126.3256938189
 21
116.438050086
  0
LINE
  5
29D
100
AcDbEntity
  8
0
100
AcDbLine
 62
7
  6
CONTINUOUS
 10
178.761875338
 20
113.938050086
 11
176.6641262601
 21
116.438050086
  0
LINE
  5
29E
100
AcDbEntity
  8
RUNDUNGEN
100
AcDbLine
 62
7
  6
CONTINUOUS
 10
183.914962225
 20
183.4452311557
 11
181.0999484876
 21
180.090428421
  0
LINE
  5
29F
100
AcDbEntity
  8
0
100
AcDbLine
 62
7
  6
CONTINUOUS
 10
178.761875338
 20
113.938050086
 11
227.5663771821
 21
113.938050086
  0
LINE
  5
2A0
100
AcDbEntity
  8
0
100
AcDbLine
 62
7
  6
CONTINUOUS
 10
229.6641262601
 20
116.438050086
 11
176.6641262601
 21
116.438050086
  0
LINE
  5
2A1
100
AcDbEntity
  8
0
100
AcDbLine
 62
7
  6
CONTINUOUS
 10
176.6641262601
 20
158.5342025087
 11
176.6641262601
 21
116.438050086
  0
LINE
  5
2A2
100
AcDbEntity
  8
RUNDUNGEN
100
AcDbLine
 62
7
  6
CONTINUOUS
 10
177.0660500487
 20
160.0342025087
 11
179.6952151733
 21
164.588050086
  0
LINE
  5
2A3
100
AcDbEntity
  8
0
100
AcDbLine
 62
7
  6
CONTINUOUS
 10
185.3998708699
 20
168.3047170705
 11
185.1445517514
 21
168.0547170705
  0
LINE
  5
2A4
100
AcDbEntity
  8
0
100
AcDbLine
 62
7
  6
CONTINUOUS
 10
186.8466794465
 20
168.0547170705
 11
186.7615730736
 21
167.888050086
  0
LINE
  5
2A5
100
AcDbEntity
  8
0
100
AcDbLine
 62
7
  6
CONTINUOUS
 10
185.1445517514
 20
168.0547170705
 11
184.8892326329
 21
167.638050086
  0
LINE
  5
2A6
100
AcDbEntity
  8
0
100
AcDbLine
 62
7
  6
CONTINUOUS
 10
185.3147644971
 20
167.5547170705
 11
185.5700836156
 21
167.888050086
  0
LINE
  5
2A7
100
AcDbEntity
  8
0
100
AcDbLine
 62
7
  6
CONTINUOUS
 10
187.101998565
 20
168.388050086
 11
186.8466794465
 21
168.0547170705
  0
LINE
  5
2A8
100
AcDbEntity
  8
0
100
AcDbLine
 62
7
  6
CONTINUOUS
 10
186.5062539551
 20
166.5547170705
 11
186.2509348366
 21
166.2213831014
  0
LINE
  5
2A9
100
AcDbEntity
  8
0
100
AcDbLine
 62
7
  6
CONTINUOUS
 10
186.4211475823
 20
165.8047170705
 11
186.6764667008
 21
166.0547170705
  0
LINE
  5
2AA
100
AcDbEntity
  8
0
100
AcDbLine
 62
7
  6
CONTINUOUS
 10
187.1871049378
 20
167.888050086
 11
187.5275305483
 21
168.138050086
  0
LINE
  5
2AB
100
AcDbEntity
  8
0
100
AcDbLine
 62
7
  6
CONTINUOUS
 10
185.5700836156
 20
167.888050086
 11
185.8254029725
 21
168.0547170705
  0
LINE
  5
2AC
100
AcDbEntity
  8
0
100
AcDbLine
 62
7
  6
CONTINUOUS
 10
186.2509348366
 20
166.2213831014
 11
185.9956157181
 21
166.0547170705
  0
LINE
  5
2AD
100
AcDbEntity
  8
0
100
AcDbLine
 62
7
  6
CONTINUOUS
 10
185.8254029725
 20
168.4713831014
 11
185.3998708699
 21
168.3047170705
  0
LINE
  5
2AE
100
AcDbEntity
  8
0
100
AcDbLine
 62
7
  6
CONTINUOUS
 10
187.5275305483
 20
168.5547170705
 11
187.101998565
 21
168.388050086
  0
LINE
  5
2AF
100
AcDbEntity
  8
RUNDUNGEN
100
AcDbLine
 62
7
  6
CONTINUOUS
 10
180.1641262601
 20
166.338050086
 11
180.1641262601
 21
177.5192901748
  0
LINE
  5
2B0
100
AcDbEntity
  8
0
100
AcDbLine
 62
7
  6
CONTINUOUS
 10
184.8892326329
 20
167.638050086
 11
184.8041262601
 21
167.2213831014
  0
LINE
  5
2B1
100
AcDbEntity
  8
0
100
AcDbLine
 62
7
  6
CONTINUOUS
 10
185.2296581242
 20
167.2213831014
 11
185.3147644971
 21
167.5547170705
  0
LINE
  5
2B2
100
AcDbEntity
  8
0
100
AcDbLine
 62
7
  6
CONTINUOUS
 10
186.591360328
 20
166.888050086
 11
186.5062539551
 21
166.5547170705
  0
LINE
  5
2B3
100
AcDbEntity
  8
0
100
AcDbLine
 62
7
  6
CONTINUOUS
 10
186.9317858193
 20
167.2213831014
 11
187.0168921921
 21
167.5547170705
  0
LINE
  5
2B4
100
AcDbEntity
  8
0
100
AcDbLine
 62
7
  6
CONTINUOUS
 10
185.2296581242
 20
159.888050086
 11
185.3147644971
 21
160.138050086
  0
LINE
  5
2B5
100
AcDbEntity
  8
0
100
AcDbLine
 62
7
  6
CONTINUOUS
 10
187.0168921921
 20
167.5547170705
 11
187.1871049378
 21
167.888050086
  0
LINE
  5
2B6
100
AcDbEntity
  8
0
100
AcDbLine
 62
7
  6
CONTINUOUS
 10
186.6764667008
 20
166.0547170705
 11
186.7615730736
 21
166.2213831014
  0
LINE
  5
2B7
100
AcDbEntity
  8
0
100
AcDbLine
 62
7
  6
CONTINUOUS
 10
188.2934879635
 20
166.5547170705
 11
188.1232752178
 21
166.2213831014
  0
LINE
  5
2B8
100
AcDbEntity
  8
0
100
AcDbLine
 62
7
  6
CONTINUOUS
 10
188.4637007389
 20
165.9713831014
 11
188.7190198798
 21
166.388050086
  0
LINE
  5
2B9
100
AcDbEntity
  8
0
100
AcDbLine
 62
7
  6
CONTINUOUS
 10
185.1445517514
 20
160.5547165937
 11
184.8892326329
 21
160.2213835782
  0
LINE
  5
2BA
100
AcDbEntity
  8
0
100
AcDbLine
 62
7
  6
CONTINUOUS
 10
188.2083815906
 20
165.7213831014
 11
188.4637007389
 21
165.9713831014
  0
LINE
  5
2BB
100
AcDbEntity
  8
0
100
AcDbLine
 62
7
  6
CONTINUOUS
 10
185.3147644971
 20
160.138050086
 11
185.4849772427
 21
160.3047165937
  0
LINE
  5
2BC
100
AcDbEntity
  8
0
100
AcDbLine
 62
7
  6
CONTINUOUS
 10
188.1232752178
 20
166.2213831014
 11
187.7828496668
 21
165.9713831014
  0
LINE
  5
2BD
100
AcDbEntity
  8
0
100
AcDbLine
 62
7
  6
CONTINUOUS
 10
186.080722091
 20
165.638050086
 11
186.4211475823
 21
165.8047170705
  0
LINE
  5
2BE
100
AcDbEntity
  8
0
100
AcDbLine
 62
7
  6
CONTINUOUS
 10
187.7828496668
 20
165.5547170705
 11
188.2083815906
 21
165.7213831014
  0
LINE
  5
2BF
100
AcDbEntity
  8
0
100
AcDbLine
 62
7
  6
CONTINUOUS
 10
184.8041262601
 20
167.2213831014
 11
184.8041262601
 21
166.888050086
  0
LINE
  5
2C0
100
AcDbEntity
  8
0
100
AcDbLine
 62
7
  6
CONTINUOUS
 10
184.8041262601
 20
159.8047165937
 11
184.8041262601
 21
157.8047165937
  0
LINE
  5
2C1
100
AcDbEntity
  8
0
100
AcDbLine
 62
7
  6
CONTINUOUS
 10
184.8041262601
 20
157.138050086
 11
184.8041262601
 21
156.638050086
  0
LINE
  5
2C2
100
AcDbEntity
  8
0
100
AcDbLine
 62
7
  6
CONTINUOUS
 10
184.8041262601
 20
155.9713833398
 11
184.8041262601
 21
155.4713833398
  0
LINE
  5
2C3
100
AcDbEntity
  8
0
100
AcDbLine
 62
7
  6
CONTINUOUS
 10
184.8041262601
 20
153.138050086
 11
184.8041262601
 21
152.638050086
  0
LINE
  5
2C4
100
AcDbEntity
  8
0
100
AcDbLine
 62
7
  6
CONTINUOUS
 10
185.2296581242
 20
158.3047165937
 11
185.2296581242
 21
159.888050086
  0
LINE
  5
2C5
100
AcDbEntity
  8
0
100
AcDbLine
 62
7
  6
CONTINUOUS
 10
185.2296581242
 20
166.888050086
 11
185.2296581242
 21
167.2213831014
  0
LINE
  5
2C6
100
AcDbEntity
  8
0
100
AcDbLine
 62
7
  6
CONTINUOUS
 10
184.8892326329
 20
160.2213835782
 11
184.8041262601
 21
159.8047165937
  0
LINE
  5
2C7
100
AcDbEntity
  8
0
100
AcDbLine
 62
7
  6
CONTINUOUS
 10
188.7190198798
 20
166.388050086
 11
188.8041262601
 21
166.8047170705
  0
LINE
  5
2C8
100
AcDbEntity
  8
0
100
AcDbLine
 62
7
  6
CONTINUOUS
 10
188.3785943363
 20
166.888050086
 11
188.2934879635
 21
166.5547170705
  0
LINE
  5
2C9
100
AcDbEntity
  8
0
100
AcDbLine
 62
7
  6
CONTINUOUS
 10
185.4849772427
 20
160.8047170705
 11
185.1445517514
 21
160.5547165937
  0
LINE
  5
2CA
100
AcDbEntity
  8
0
100
AcDbLine
 62
7
  6
CONTINUOUS
 10
186.5062539551
 20
159.888050086
 11
186.5062539551
 21
158.3047165937
  0
LINE
  5
2CB
100
AcDbEntity
  8
0
100
AcDbLine
 62
7
  6
CONTINUOUS
 10
186.591360328
 20
167.2213831014
 11
186.591360328
 21
166.888050086
  0
LINE
  5
2CC
100
AcDbEntity
  8
0
100
AcDbLine
 62
7
  6
CONTINUOUS
 10
186.9317858193
 20
166.888050086
 11
186.9317858193
 21
167.2213831014
  0
LINE
  5
2CD
100
AcDbEntity
  8
0
100
AcDbLine
 62
7
  6
CONTINUOUS
 10
187.0168921921
 20
158.3047165937
 11
187.0168921921
 21
159.8047165937
  0
LINE
  5
2CE
100
AcDbEntity
  8
0
100
AcDbLine
 62
7
  6
CONTINUOUS
 10
188.3785943363
 20
167.2213831014
 11
188.3785943363
 21
166.888050086
  0
LINE
  5
2CF
100
AcDbEntity
  8
0
100
AcDbLine
 62
7
  6
CONTINUOUS
 10
188.8041262601
 20
153.971383459
 11
188.8041262601
 21
154.638050086
  0
LINE
  5
2D0
100
AcDbEntity
  8
0
100
AcDbLine
 62
7
  6
CONTINUOUS
 10
188.8041262601
 20
156.638050086
 11
188.8041262601
 21
157.138050086
  0
LINE
  5
2D1
100
AcDbEntity
  8
0
100
AcDbLine
 62
7
  6
CONTINUOUS
 10
188.8041262601
 20
157.8047165937
 11
188.8041262601
 21
158.3047165937
  0
LINE
  5
2D2
100
AcDbEntity
  8
0
100
AcDbLine
 62
7
  6
CONTINUOUS
 10
188.8041262601
 20
166.8047170705
 11
188.8041262601
 21
167.3047170705
  0
LINE
  5
2D3
100
AcDbEntity
  8
RUNDUNGEN
100
AcDbLine
 62
7
  6
CONTINUOUS
 10
198.650415911
 20
165.7698323826
 11
195.7326780053
 21
162.5293561495
  0
LINE
  5
2D4
100
AcDbEntity
  8
0
100
AcDbLine
 62
7
  6
CONTINUOUS
 10
185.7402963612
 20
160.888050086
 11
185.4849772427
 21
160.8047170705
  0
LINE
  5
2D5
100
AcDbEntity
  8
0
100
AcDbLine
 62
7
  6
CONTINUOUS
 10
185.4849772427
 20
160.3047165937
 11
185.7402963612
 21
160.388050086
  0
LINE
  5
2D6
100
AcDbEntity
  8
0
100
AcDbLine
 62
7
  6
CONTINUOUS
 10
184.8041262601
 20
166.888050086
 11
184.8892326329
 21
166.4713831014
  0
LINE
  5
2D7
100
AcDbEntity
  8
0
100
AcDbLine
 62
7
  6
CONTINUOUS
 10
186.4211475823
 20
160.138050086
 11
186.5062539551
 21
159.888050086
  0
LINE
  5
2D8
100
AcDbEntity
  8
0
100
AcDbLine
 62
7
  6
CONTINUOUS
 10
185.3147644971
 20
166.5547170705
 11
185.2296581242
 21
166.888050086
  0
LINE
  5
2D9
100
AcDbEntity
  8
0
100
AcDbLine
 62
7
  6
CONTINUOUS
 10
186.5062539551
 20
167.5547170705
 11
186.591360328
 21
167.2213831014
  0
LINE
  5
2DA
100
AcDbEntity
  8
0
100
AcDbLine
 62
7
  6
CONTINUOUS
 10
187.0168921921
 20
159.8047165937
 11
186.9317858193
 21
160.2213835782
  0
LINE
  5
2DB
100
AcDbEntity
  8
0
100
AcDbLine
 62
7
  6
CONTINUOUS
 10
188.2934879635
 20
154.3047167129
 11
184.8041262601
 21
153.138050086
  0
LINE
  5
2DC
100
AcDbEntity
  8
0
100
AcDbLine
 62
7
  6
CONTINUOUS
 10
184.8041262601
 20
152.638050086
 11
188.8041262601
 21
153.971383459
  0
LINE
  5
2DD
100
AcDbEntity
  8
0
100
AcDbLine
 62
7
  6
CONTINUOUS
 10
187.0168921921
 20
166.5547170705
 11
186.9317858193
 21
166.888050086
  0
LINE
  5
2DE
100
AcDbEntity
  8
0
100
AcDbLine
 62
7
  6
CONTINUOUS
 10
188.2934879635
 20
167.5547170705
 11
188.3785943363
 21
167.2213831014
  0
LINE
  5
2DF
100
AcDbEntity
  8
0
100
AcDbLine
 62
7
  6
CONTINUOUS
 10
188.8041262601
 20
167.3047170705
 11
188.7190198798
 21
167.7213831014
  0
LINE
  5
2E0
100
AcDbEntity
  8
0
100
AcDbLine
 62
7
  6
CONTINUOUS
 10
186.9317858193
 20
160.2213835782
 11
186.6764667008
 21
160.5547165937
  0
LINE
  5
2E1
100
AcDbEntity
  8
0
100
AcDbLine
 62
7
  6
CONTINUOUS
 10
184.8892326329
 20
166.4713831014
 11
185.1445517514
 21
166.0547170705
  0
LINE
  5
2E2
100
AcDbEntity
  8
0
100
AcDbLine
 62
7
  6
CONTINUOUS
 10
186.7615730736
 20
166.2213831014
 11
186.8466794465
 21
166.0547170705
  0
LINE
  5
2E3
100
AcDbEntity
  8
0
100
AcDbLine
 62
7
  6
CONTINUOUS
 10
187.1871049378
 20
166.2213831014
 11
187.0168921921
 21
166.5547170705
  0
LINE
  5
2E4
100
AcDbEntity
  8
0
100
AcDbLine
 62
7
  6
CONTINUOUS
 10
186.7615730736
 20
167.888050086
 11
186.6764667008
 21
168.0547170705
  0
LINE
  5
2E5
100
AcDbEntity
  8
RUNDUNGEN
100
AcDbLine
 62
7
  6
CONTINUOUS
 10
199.1641262601
 20
167.1080935954
 11
199.1641262601
 21
179.8630657305
  0
LINE
  5
2E6
100
AcDbEntity
  8
RUNDUNGEN
100
AcDbLine
 62
7
  6
CONTINUOUS
 10
219.5883672221
 20
143.838050086
 11
186.7398804511
 21
143.838050086
  0
LINE
  5
2E7
100
AcDbEntity
  8
0
100
AcDbLine
 62
7
  6
CONTINUOUS
 10
186.2509348366
 20
160.3047165937
 11
186.4211475823
 21
160.138050086
  0
LINE
  5
2E8
100
AcDbEntity
  8
0
100
AcDbLine
 62
7
  6
CONTINUOUS
 10
185.5700836156
 20
166.2213831014
 11
185.3147644971
 21
166.5547170705
  0
LINE
  5
2E9
100
AcDbEntity
  8
0
100
AcDbLine
 62
7
  6
CONTINUOUS
 10
186.8466794465
 20
166.0547170705
 11
187.101998565
 21
165.7213831014
  0
LINE
  5
2EA
100
AcDbEntity
  8
0
100
AcDbLine
 62
7
  6
CONTINUOUS
 10
188.7190198798
 20
167.7213831014
 11
188.4637007389
 21
168.138050086
  0
LINE
  5
2EB
100
AcDbEntity
  8
0
100
AcDbLine
 62
7
  6
CONTINUOUS
 10
188.1232752178
 20
167.888050086
 11
188.2934879635
 21
167.5547170705
  0
LINE
  5
2EC
100
AcDbEntity
  8
0
100
AcDbLine
 62
7
  6
CONTINUOUS
 10
184.8041262601
 20
155.4713833398
 11
188.2934879635
 21
154.3047167129
  0
LINE
  5
2ED
100
AcDbEntity
  8
0
100
AcDbLine
 62
7
  6
CONTINUOUS
 10
186.6764667008
 20
160.5547165937
 11
186.3360412095
 21
160.8047170705
  0
LINE
  5
2EE
100
AcDbEntity
  8
0
100
AcDbLine
 62
7
  6
CONTINUOUS
 10
185.1445517514
 20
166.0547170705
 11
185.3998708699
 21
165.8047170705
  0
LINE
  5
2EF
100
AcDbEntity
  8
0
100
AcDbLine
 62
7
  6
CONTINUOUS
 10
186.2509348366
 20
167.888050086
 11
186.5062539551
 21
167.5547170705
  0
LINE
  5
2F0
100
AcDbEntity
  8
0
100
AcDbLine
 62
7
  6
CONTINUOUS
 10
188.8041262601
 20
154.638050086
 11
184.8041262601
 21
155.9713833398
  0
LINE
  5
2F1
100
AcDbEntity
  8
0
100
AcDbLine
 62
7
  6
CONTINUOUS
 10
186.6764667008
 20
168.0547170705
 11
186.4211475823
 21
168.3047170705
  0
LINE
  5
2F2
100
AcDbEntity
  8
0
100
AcDbLine
 62
7
  6
CONTINUOUS
 10
188.4637007389
 20
168.138050086
 11
188.2083815906
 21
168.388050086
  0
LINE
  5
2F3
100
AcDbEntity
  8
RUNDUNGEN
100
AcDbLine
 62
7
  6
CONTINUOUS
 10
207.1641262601
 20
167.1080935954
 11
207.1641262601
 21
179.8630657305
  0
LINE
  5
2F4
100
AcDbEntity
  8
0
100
AcDbLine
 62
7
  6
CONTINUOUS
 10
185.9956157181
 20
160.388050086
 11
186.2509348366
 21
160.3047165937
  0
LINE
  5
2F5
100
AcDbEntity
  8
0
100
AcDbLine
 62
7
  6
CONTINUOUS
 10
186.3360412095
 20
160.8047170705
 11
186.080722091
 21
160.888050086
  0
LINE
  5
2F6
100
AcDbEntity
  8
0
100
AcDbLine
 62
7
  6
CONTINUOUS
 10
185.8254029725
 20
166.0547170705
 11
185.5700836156
 21
166.2213831014
  0
LINE
  5
2F7
100
AcDbEntity
  8
0
100
AcDbLine
 62
7
  6
CONTINUOUS
 10
187.5275305483
 20
165.9713831014
 11
187.1871049378
 21
166.2213831014
  0
LINE
  5
2F8
100
AcDbEntity
  8
0
100
AcDbLine
 62
7
  6
CONTINUOUS
 10
187.7828496668
 20
168.138050086
 11
188.1232752178
 21
167.888050086
  0
LINE
  5
2F9
100
AcDbEntity
  8
0
100
AcDbLine
 62
7
  6
CONTINUOUS
 10
184.8041262601
 20
156.638050086
 11
188.8041262601
 21
156.638050086
  0
LINE
  5
2FA
100
AcDbEntity
  8
0
100
AcDbLine
 62
7
  6
CONTINUOUS
 10
188.8041262601
 20
157.138050086
 11
184.8041262601
 21
157.138050086
  0
LINE
  5
2FB
100
AcDbEntity
  8
0
100
AcDbLine
 62
7
  6
CONTINUOUS
 10
184.8041262601
 20
157.8047165937
 11
188.8041262601
 21
157.8047165937
  0
LINE
  5
2FC
100
AcDbEntity
  8
0
100
AcDbLine
 62
7
  6
CONTINUOUS
 10
188.8041262601
 20
158.3047165937
 11
187.0168921921
 21
158.3047165937
  0
LINE
  5
2FD
100
AcDbEntity
  8
0
100
AcDbLine
 62
7
  6
CONTINUOUS
 10
186.5062539551
 20
158.3047165937
 11
185.2296581242
 21
158.3047165937
  0
LINE
  5
2FE
100
AcDbEntity
  8
0
100
AcDbLine
 62
7
  6
CONTINUOUS
 10
185.3998708699
 20
165.8047170705
 11
185.8254029725
 21
165.638050086
  0
LINE
  5
2FF
100
AcDbEntity
  8
0
100
AcDbLine
 62
7
  6
CONTINUOUS
 10
185.9956157181
 20
168.0547170705
 11
186.2509348366
 21
167.888050086
  0
LINE
  5
300
100
AcDbEntity
  8
0
100
AcDbLine
 62
7
  6
CONTINUOUS
 10
185.7402963612
 20
160.388050086
 11
185.9956157181
 21
160.388050086
  0
LINE
  5
301
100
AcDbEntity
  8
0
100
AcDbLine
 62
7
  6
CONTINUOUS
 10
222.9801827423
 20
160.7479590397
 11
222.2247649571
 21
160.7479590397
  0
LINE
  5
302
100
AcDbEntity
  8
0
100
AcDbLine
 62
7
  6
CONTINUOUS
 10
218.7606633419
 20
160.7479590397
 11
218.0052455568
 21
160.7479590397
  0
LINE
  5
303
100
AcDbEntity
  8
0
100
AcDbLine
 62
7
  6
CONTINUOUS
 10
186.080722091
 20
160.888050086
 11
185.7402963612
 21
160.888050086
  0
LINE
  5
304
100
AcDbEntity
  8
0
100
AcDbLine
 62
7
  6
CONTINUOUS
 10
187.101998565
 20
165.7213831014
 11
187.5275305483
 21
165.5547170705
  0
LINE
  5
305
100
AcDbEntity
  8
0
100
AcDbLine
 62
7
  6
CONTINUOUS
 10
186.4211475823
 20
168.3047170705
 11
186.080722091
 21
168.4713831014
  0
LINE
  5
306
100
AcDbEntity
  8
0
100
AcDbLine
 62
7
  6
CONTINUOUS
 10
218.7432751737
 20
160.4728470838
 11
218.7606633419
 21
160.7479590397
  0
LINE
  5
307
100
AcDbEntity
  8
0
100
AcDbLine
 62
7
  6
CONTINUOUS
 10
188.2083815906
 20
168.388050086
 11
187.7828496668
 21
168.5547170705
  0
LINE
  5
308
100
AcDbEntity
  8
RUNDUNGEN
100
AcDbLine
 62
7
  6
CONTINUOUS
 10
210.5955745148
 20
162.5293561495
 11
207.6778366091
 21
165.7698323826
  0
LINE
  5
309
100
AcDbEntity
  8
0
100
AcDbLine
 62
7
  6
CONTINUOUS
 10
220.1172963643
 20
164.4979590397
 11
220.1172963643
 21
163.0387014563
  0
LINE
  5
30A
100
AcDbEntity
  8
0
100
AcDbLine
 62
7
  6
CONTINUOUS
 10
220.8727141495
 20
163.0397143266
 11
220.8727141495
 21
164.4979590397
  0
LINE
  5
30B
100
AcDbEntity
  8
0
100
AcDbLine
 62
7
  6
CONTINUOUS
 10
220.8727141495
 20
164.4979590397
 11
220.1172963643
 21
164.4979590397
  0
LINE
  5
30C
100
AcDbEntity
  8
0
100
AcDbLine
 62
7
  6
CONTINUOUS
 10
222.9801827423
 20
164.9979590397
 11
222.2247649571
 21
164.9979590397
  0
LINE
  5
30D
100
AcDbEntity
  8
0
100
AcDbLine
 62
7
  6
CONTINUOUS
 10
218.7606633419
 20
164.9979590397
 11
218.0052455568
 21
164.9979590397
  0
LINE
  5
30E
100
AcDbEntity
  8
0
100
AcDbLine
 62
7
  6
CONTINUOUS
 10
187.5275305483
 20
165.5547170705
 11
187.7828496668
 21
165.5547170705
  0
LINE
  5
30F
100
AcDbEntity
  8
0
100
AcDbLine
 62
7
  6
CONTINUOUS
 10
185.8254029725
 20
165.638050086
 11
186.080722091
 21
165.638050086
  0
LINE
  5
310
100
AcDbEntity
  8
0
100
AcDbLine
 62
7
  6
CONTINUOUS
 10
187.7828496668
 20
165.9713831014
 11
187.5275305483
 21
165.9713831014
  0
LINE
  5
311
100
AcDbEntity
  8
0
100
AcDbLine
 62
7
  6
CONTINUOUS
 10
185.9956157181
 20
166.0547170705
 11
185.8254029725
 21
166.0547170705
  0
LINE
  5
312
100
AcDbEntity
  8
BEZUGSACHSEN
100
AcDbLine
 62
7
  6
CONTINUOUS
 10
199.1584159736
 20
166.938050086
 11
207.1698365465
 21
166.938050086
  0
LINE
  5
313
100
AcDbEntity
  8
0
100
AcDbLine
 62
7
  6
CONTINUOUS
 10
222.9903248672
 20
160.3969588773
 11
222.9801827423
 21
160.7479590397
  0
LINE
  5
314
100
AcDbEntity
  8
0
100
AcDbLine
 62
7
  6
CONTINUOUS
 10
222.9903248672
 20
164.6469588773
 11
222.9801827423
 21
164.9979590397
  0
LINE
  5
315
100
AcDbEntity
  8
0
100
AcDbLine
 62
7
  6
CONTINUOUS
 10
185.8254029725
 20
168.0547170705
 11
185.9956157181
 21
168.0547170705
  0
LINE
  5
316
100
AcDbEntity
  8
0
100
AcDbLine
 62
7
  6
CONTINUOUS
 10
187.5275305483
 20
168.138050086
 11
187.7828496668
 21
168.138050086
  0
LINE
  5
317
100
AcDbEntity
  8
0
100
AcDbLine
 62
7
  6
CONTINUOUS
 10
186.080722091
 20
168.4713831014
 11
185.8254029725
 21
168.4713831014
  0
LINE
  5
318
100
AcDbEntity
  8
0
100
AcDbLine
 62
7
  6
CONTINUOUS
 10
187.7828496668
 20
168.5547170705
 11
187.5275305483
 21
168.5547170705
  0
LINE
  5
319
100
AcDbEntity
  8
RUNDUNGEN
100
AcDbLine
 62
7
  6
CONTINUOUS
 10
226.1641262601
 20
177.5192924961
 11
226.1641262601
 21
166.338050086
  0
LINE
  5
31A
100
AcDbEntity
  8
0
100
AcDbLine
 62
7
  6
CONTINUOUS
 10
229.6641262601
 20
158.5342025087
 11
229.6641262601
 21
116.438050086
  0
LINE
  5
31B
100
AcDbEntity
  8
BEZUGSACHSEN
100
AcDbLine
 62
7
  6
CONTINUOUS
 10
199.1641262601
 20
176.738050086
 11
207.1641262601
 21
176.738050086
  0
LINE
  5
31C
100
AcDbEntity
  8
RUNDUNGEN
100
AcDbLine
 62
7
  6
CONTINUOUS
 10
229.2622024714
 20
160.0342025087
 11
226.6330373468
 21
164.588050086
  0
LINE
  5
31D
100
AcDbEntity
  8
0
100
AcDbLine
 62
7
  6
CONTINUOUS
 10
185.8078912453
 20
184.338050086
 11
191.4061502438
 21
184.338050086
  0
LINE
  5
31E
100
AcDbEntity
  8
0
100
AcDbLine
 62
7
  6
CONTINUOUS
 10
214.9221022764
 20
184.338050086
 11
220.5203612566
 21
184.338050086
  0
LINE
  5
31F
100
AcDbEntity
  8
RUNDUNGEN
100
AcDbLine
 62
7
  6
CONTINUOUS
 10
222.4132902291
 20
183.4452312344
 11
225.2284712956
 21
180.0902290846
  0
LINE
  5
320
100
AcDbEntity
  8
0
100
AcDbLine
 62
7
  6
CONTINUOUS
 10
229.6641262601
 20
116.438050086
 11
227.5663771821
 21
113.938050086
  0
LINE
  5
321
100
AcDbEntity
  8
RUNDUNGEN
100
AcDbLine
 62
7
  6
CONTINUOUS
 10
89.8256938189
 20
17.431406722
 11
109.8256938189
 21
17.431406722
  0
LINE
  5
322
100
AcDbEntity
  8
0
100
AcDbLine
 62
7
  6
CONTINUOUS
 10
87.3256938189
 20
20.6028188325
 11
86.8256938189
 21
20.6028188325
  0
LINE
  5
323
100
AcDbEntity
  8
0
100
AcDbLine
 62
7
  6
CONTINUOUS
 10
87.3256938189
 20
20.6153502397
 11
86.8256938189
 21
20.6153502397
  0
LINE
  5
324
100
AcDbEntity
  8
0
100
AcDbLine
 62
7
  6
CONTINUOUS
 10
87.3256938189
 20
21.3707680249
 11
86.8256938189
 21
21.3707680249
  0
LINE
  5
325
100
AcDbEntity
  8
0
100
AcDbLine
 62
7
  6
CONTINUOUS
 10
119.2743441577
 20
22.431406722
 11
119.6136320642
 21
22.431406722
  0
LINE
  5
326
100
AcDbEntity
  8
0
100
AcDbLine
 62
7
  6
CONTINUOUS
 10
87.3256938189
 20
22.7228188325
 11
86.8256938189
 21
22.7228188325
  0
LINE
  5
327
100
AcDbEntity
  8
0
100
AcDbLine
 62
7
  6
CONTINUOUS
 10
87.3256938189
 20
23.4782366177
 11
86.8256938189
 21
23.4782366177
  0
LINE
  5
328
100
AcDbEntity
  8
0
100
AcDbLine
 62
7
  6
CONTINUOUS
 10
87.3256938189
 20
24.8348696401
 11
86.8256938189
 21
24.8348696401
  0
LINE
  5
329
100
AcDbEntity
  8
0
100
AcDbLine
 62
7
  6
CONTINUOUS
 10
87.3256938189
 20
25.5902874253
 11
86.8256938189
 21
25.5902874253
  0
LINE
  5
32A
100
AcDbEntity
  8
0
100
AcDbLine
 62
7
  6
CONTINUOUS
 10
87.3256938189
 20
25.6028188325
 11
86.8256938189
 21
25.6028188325
  0
LINE
  5
32B
100
AcDbEntity
  8
0
100
AcDbLine
 62
7
  6
CONTINUOUS
 10
121.8413132742
 20
25.681406722
 11
122.1416074233
 21
25.681406722
  0
LWPOLYLINE
  5
32C
100
AcDbEntity
  8
RUNDUNGEN
100
AcDbPolyline
 62
7
  6
CONTINUOUS
 90
5
 70
0
 10
87.3256821239
 20
51.6229447084
 10
87.3274198023
 20
51.5384633855
 10
87.3529622474
 20
51.2823716239
 10
87.4082085059
 20
51.0322214073
 10
87.4924276655
 20
50.7896241765
  0
LINE
  5
32D
100
AcDbEntity
  8
0
100
AcDbLine
 62
7
  6
CONTINUOUS
 10
86.8256938189
 20
20.6032700104
 11
86.8256938189
 21
21.3707680249
  0
LINE
  5
32E
100
AcDbEntity
  8
0
100
AcDbLine
 62
7
  6
CONTINUOUS
 10
86.8256938189
 20
21.434017947
 11
86.8256938189
 21
25.6023676547
  0
LINE
  5
32F
100
AcDbEntity
  8
0
100
AcDbLine
 62
7
  6
CONTINUOUS
 10
86.8256938189
 20
54.791406722
 11
86.8256938189
 21
58.791406722
  0
LINE
  5
330
100
AcDbEntity
  8
RUNDUNGEN
100
AcDbLine
 62
7
  6
CONTINUOUS
 10
87.3256938189
 20
18.613971545
 11
87.3256938189
 21
30.6845847738
  0
LINE
  5
331
100
AcDbEntity
  8
RUNDUNGEN
100
AcDbLine
 62
7
  6
CONTINUOUS
 10
87.3256938189
 20
50.1782289994
 11
87.3256938189
 21
62.2488340686
  0
LINE
  5
332
100
AcDbEntity
  8
0
100
AcDbLine
 62
7
  6
CONTINUOUS
 10
122.2801593019
 20
26.3584901845
 11
122.5746612708
 21
26.3584901845
  0
LINE
  5
333
100
AcDbEntity
  8
0
100
AcDbLine
 62
7
  6
CONTINUOUS
 10
122.6106729376
 20
26.900156722
 11
122.9009570555
 21
26.900156722
  0
LINE
  5
334
100
AcDbEntity
  8
0
100
AcDbLine
 62
7
  6
CONTINUOUS
 10
122.8470833295
 20
27.306406722
 11
123.1344234068
 21
27.306406722
  0
LINE
  5
335
100
AcDbEntity
  8
0
100
AcDbLine
 62
7
  6
CONTINUOUS
 10
122.9237613024
 20
27.4418232595
 11
123.2101592067
 21
27.4418232595
  0
LINE
  5
336
100
AcDbEntity
  8
0
100
AcDbLine
 62
7
  6
CONTINUOUS
 10
123.5003894017
 20
28.525156722
 11
123.7798940965
 21
28.525156722
  0
LINE
  5
337
100
AcDbEntity
  8
0
100
AcDbLine
 62
7
  6
CONTINUOUS
 10
124.3664762025
 20
30.431406722
 11
124.6362258567
 21
30.431406722
  0
LINE
  5
338
100
AcDbEntity
  8
BEZUGSACHSEN
100
AcDbLine
 62
7
  6
CONTINUOUS
 10
94.9256938189
 20
44.431406722
 11
94.9256938189
 21
36.431406722
  0
LWPOLYLINE
  5
339
100
AcDbEntity
  8
RUNDUNGEN
100
AcDbPolyline
 62
7
  6
CONTINUOUS
 90
6
 70
0
 10
87.6026277543
 20
30.3016123741
 10
87.4906542728
 20
30.0688908811
 10
87.40722665
 20
29.8271126329
 10
87.3525627047
 20
29.5779349505
 10
87.3273671875
 20
29.323027802
 10
87.3256820698
 20
29.2398472766
  0
LINE
  5
33A
100
AcDbEntity
  8
RUNDUNGEN
100
AcDbLine
 62
7
  6
CONTINUOUS
 10
89.0146809524
 20
32.3358098097
 11
88.880864611
 21
32.0648766369
  0
LWPOLYLINE
  5
33B
100
AcDbEntity
  8
RUNDUNGEN
100
AcDbPolyline
 62
7
  6
CONTINUOUS
 90
6
 70
0
 10
88.880864611
 20
32.0648766369
 10
88.6993159319
 20
31.7361024686
 10
88.5150180386
 20
31.4437854228
 10
88.3315387104
 20
31.1908631366
 10
88.1531830006
 20
30.97932984
 10
87.9099807037
 20
30.7296580992
  0
LINE
  5
33C
100
AcDbEntity
  8
RUNDUNGEN
100
AcDbLine
 62
7
  6
CONTINUOUS
 10
87.7424816082
 20
30.5224784695
 11
87.6026277543
 21
30.3016123741
  0
LINE
  5
33D
100
AcDbEntity
  8
0
100
AcDbLine
 62
7
  6
CONTINUOUS
 10
125.4516084367
 20
33.681406722
 11
125.71005203
 21
33.681406722
  0
LINE
  5
33E
100
AcDbEntity
  8
0
100
AcDbLine
 62
7
  6
CONTINUOUS
 10
125.6204546189
 20
34.3584901845
 11
125.8772232314
 21
34.3584901845
  0
LINE
  5
33F
100
AcDbEntity
  8
0
100
AcDbLine
 62
7
  6
CONTINUOUS
 10
125.7420067017
 20
34.900156722
 11
125.9975828114
 21
34.900156722
  0
LINE
  5
340
100
AcDbEntity
  8
0
100
AcDbLine
 62
7
  6
CONTINUOUS
 10
125.8253933364
 20
35.306406722
 11
126.0801577251
 21
35.306406722
  0
LINE
  5
341
100
AcDbEntity
  8
0
100
AcDbLine
 62
7
  6
CONTINUOUS
 10
125.8517203476
 20
35.4418232595
 11
126.1062295226
 21
35.4418232595
  0
LINE
  5
342
100
AcDbEntity
  8
0
100
AcDbLine
 62
7
  6
CONTINUOUS
 10
125.8773169397
 20
35.5772401845
 11
126.131578469
 21
35.5772401845
  0
LINE
  5
343
100
AcDbEntity
  8
RUNDUNGEN
100
AcDbLine
 62
7
  6
CONTINUOUS
 10
87.6054105875
 20
50.5561993516
 11
87.7465073808
 21
50.334737859
  0
LINE
  5
344
100
AcDbEntity
  8
RUNDUNGEN
100
AcDbLine
 62
7
  6
CONTINUOUS
 10
88.7030673527
 20
49.1203409173
 11
88.8846353211
 21
48.790648058
  0
LINE
  5
345
100
AcDbEntity
  8
RUNDUNGEN
100
AcDbLine
 62
7
  6
CONTINUOUS
 10
88.8846353211
 20
48.790648058
 11
89.0145879627
 21
48.5272010761
  0
LINE
  5
346
100
AcDbEntity
  8
RUNDUNGEN
100
AcDbLine
 62
7
  6
CONTINUOUS
 10
87.4924276655
 20
50.7896241765
 11
87.6054105875
 21
50.5561993516
  0
LINE
  5
347
100
AcDbEntity
  8
RUNDUNGEN
100
AcDbLine
 62
7
  6
CONTINUOUS
 10
87.9099807037
 20
30.7296580992
 11
87.7424816082
 21
30.5224784695
  0
LINE
  5
348
100
AcDbEntity
  8
RUNDUNGEN
100
AcDbLine
 62
7
  6
CONTINUOUS
 10
106.3259375447
 20
36.431406722
 11
93.3254505885
 21
36.431406722
  0
LINE
  5
349
100
AcDbEntity
  8
0
100
AcDbLine
 62
7
  6
CONTINUOUS
 10
126.0346565277
 20
36.5147405719
 11
126.287406278
 21
36.5147405719
  0
LINE
  5
34A
100
AcDbEntity
  8
0
100
AcDbLine
 62
7
  6
CONTINUOUS
 10
126.0560353149
 20
36.6605732595
 11
126.3085810293
 21
36.6605732595
  0
LINE
  5
34B
100
AcDbEntity
  8
0
100
AcDbLine
 62
7
  6
CONTINUOUS
 10
126.1600490496
 20
37.4730736469
 11
126.4116067319
 21
37.4730736469
  0
LINE
  5
34C
100
AcDbEntity
  8
0
100
AcDbLine
 62
7
  6
CONTINUOUS
 10
126.1749089881
 20
37.608489797
 11
126.4263261429
 21
37.608489797
  0
LINE
  5
34D
100
AcDbEntity
  8
0
100
AcDbLine
 62
7
  6
CONTINUOUS
 10
126.2025183431
 20
37.8793236469
 11
126.4536748159
 21
37.8793236469
  0
LINE
  5
34E
100
AcDbEntity
  8
RUNDUNGEN
100
AcDbLine
 62
7
  6
CONTINUOUS
 10
87.7465073808
 20
50.334737859
 11
87.9155511268
 21
50.127046223
  0
LINE
  5
34F
100
AcDbEntity
  8
RUNDUNGEN
100
AcDbLine
 62
7
  6
CONTINUOUS
 10
88.0225143486
 20
30.8451911847
 11
88.0215183457
 21
30.8442352771
  0
LINE
  5
350
100
AcDbEntity
  8
0
100
AcDbLine
 62
7
  6
CONTINUOUS
 10
126.2386716975
 20
38.2855736469
 11
126.4894876303
 21
38.2855736469
  0
LINE
  5
351
100
AcDbEntity
  8
0
100
AcDbLine
 62
7
  6
CONTINUOUS
 10
126.2770954543
 20
38.827239797
 11
126.5275504674
 21
38.827239797
  0
LINE
  5
352
100
AcDbEntity
  8
0
100
AcDbLine
 62
7
  6
CONTINUOUS
 10
126.3043851338
 20
39.368906722
 11
126.5545844384
 21
39.368906722
  0
LINE
  5
353
100
AcDbEntity
  8
0
100
AcDbLine
 62
7
  6
CONTINUOUS
 10
126.3205750775
 20
39.9105736469
 11
126.5706229253
 21
39.9105736469
  0
LINE
  5
354
100
AcDbEntity
  8
0
100
AcDbLine
 62
7
  6
CONTINUOUS
 10
126.3254460955
 20
40.3168236469
 11
126.5754484107
 21
40.3168236469
  0
LINE
  5
355
100
AcDbEntity
  8
0
100
AcDbLine
 62
7
  6
CONTINUOUS
 10
126.3252331722
 20
40.587656722
 11
126.5752374774
 21
40.587656722
  0
LINE
  5
356
100
AcDbEntity
  8
0
100
AcDbLine
 62
7
  6
CONTINUOUS
 10
126.3240886836
 20
40.7230736469
 11
126.5741036858
 21
40.7230736469
  0
LINE
  5
357
100
AcDbEntity
  8
RUNDUNGEN
100
AcDbLine
 62
7
  6
CONTINUOUS
 10
88.0224758212
 20
50.0176187821
 11
88.0213891567
 21
50.0186617677
  0
LWPOLYLINE
  5
358
100
AcDbEntity
  8
RUNDUNGEN
100
AcDbPolyline
 62
7
  6
CONTINUOUS
 90
5
 70
0
 10
87.9155511268
 20
50.127046223
 10
88.1566459382
 20
49.8796905427
 10
88.3351490965
 20
49.6673240444
 10
88.5187202077
 20
49.4135429606
 10
88.7030673527
 20
49.1203409173
  0
LINE
  5
359
100
AcDbEntity
  8
RUNDUNGEN
100
AcDbLine
 62
7
  6
CONTINUOUS
 10
111.6288736016
 20
50.0176225245
 11
111.6298701552
 21
50.018578961
  0
LINE
  5
35A
100
AcDbEntity
  8
0
100
AcDbLine
 62
7
  6
CONTINUOUS
 10
126.3026803431
 20
41.5355736469
 11
126.5528956066
 21
41.5355736469
  0
LINE
  5
35B
100
AcDbEntity
  8
0
100
AcDbLine
 62
7
  6
CONTINUOUS
 10
126.2905367415
 20
41.7959905719
 11
126.5408657427
 21
41.7959905719
  0
LINE
  5
35C
100
AcDbEntity
  8
0
100
AcDbLine
 62
7
  6
CONTINUOUS
 10
126.2570428374
 20
42.337656722
 11
126.5076860784
 21
42.337656722
  0
LINE
  5
35D
100
AcDbEntity
  8
0
100
AcDbLine
 62
7
  6
CONTINUOUS
 10
126.2469276911
 20
42.4730728721
 11
126.4976659869
 21
42.4730728721
  0
LINE
  5
35E
100
AcDbEntity
  8
0
100
AcDbLine
 62
7
  6
CONTINUOUS
 10
126.2352535227
 20
42.618906722
 11
126.486101613
 21
42.618906722
  0
LINE
  5
35F
100
AcDbEntity
  8
RUNDUNGEN
100
AcDbLine
 62
7
  6
CONTINUOUS
 10
111.6289139147
 20
30.8451926782
 11
111.6300007722
 21
30.8441495042
  0
LWPOLYLINE
  5
360
100
AcDbEntity
  8
RUNDUNGEN
100
AcDbPolyline
 62
7
  6
CONTINUOUS
 90
5
 70
0
 10
111.735838937
 20
30.7357645371
 10
111.4947242644
 20
30.9831419945
 10
111.316207707
 20
31.1955292766
 10
111.1326320511
 20
31.4493228316
 10
110.9482890139
 20
31.7425257068
  0
LINE
  5
361
100
AcDbEntity
  8
BEZUGSACHSEN
100
AcDbLine
 62
7
  6
CONTINUOUS
 10
104.7256938189
 20
44.431406722
 11
104.7256938189
 21
36.431406722
  0
LINE
  5
362
100
AcDbEntity
  8
RUNDUNGEN
100
AcDbLine
 62
7
  6
CONTINUOUS
 10
111.9089075452
 20
50.3403373827
 11
112.0487608882
 21
50.5612031231
  0
LINE
  5
363
100
AcDbEntity
  8
RUNDUNGEN
100
AcDbLine
 62
7
  6
CONTINUOUS
 10
111.7414088958
 20
50.1331577727
 11
111.9089075452
 21
50.3403373827
  0
LINE
  5
364
100
AcDbEntity
  8
RUNDUNGEN
100
AcDbLine
 62
7
  6
CONTINUOUS
 10
93.3256938189
 20
44.431406722
 11
106.3256938148
 21
44.431406722
  0
LINE
  5
365
100
AcDbEntity
  8
RUNDUNGEN
100
AcDbLine
 62
7
  6
CONTINUOUS
 10
111.9048820749
 20
30.528072941
 11
111.735838937
 21
30.7357645371
  0
LINE
  5
366
100
AcDbEntity
  8
RUNDUNGEN
100
AcDbLine
 62
7
  6
CONTINUOUS
 10
112.0459782858
 20
30.3066117118
 11
111.9048820749
 21
30.528072941
  0
LWPOLYLINE
  5
367
100
AcDbEntity
  8
RUNDUNGEN
100
AcDbPolyline
 62
7
  6
CONTINUOUS
 90
6
 70
0
 10
112.0487608882
 20
50.5612031231
 10
112.1607339009
 20
50.7939240306
 10
112.2441611433
 20
51.0357015008
 10
112.2988248898
 20
51.2848784482
 10
112.3240203876
 20
51.5397851034
 10
112.3257055224
 20
51.6229672032
  0
LINE
  5
368
100
AcDbEntity
  8
RUNDUNGEN
100
AcDbLine
 62
7
  6
CONTINUOUS
 10
110.6367105057
 20
48.5270118976
 11
110.7705151648
 21
48.7979215309
  0
LWPOLYLINE
  5
369
100
AcDbEntity
  8
RUNDUNGEN
100
AcDbPolyline
 62
7
  6
CONTINUOUS
 90
6
 70
0
 10
110.7705151648
 20
48.7979215309
 10
110.9520596526
 20
49.1266905416
 10
111.1363558911
 20
49.4190078832
 10
111.3198367391
 20
49.6719346789
 10
111.4981974357
 20
49.8834757195
 10
111.7414088958
 20
50.1331577727
  0
LINE
  5
36A
100
AcDbEntity
  8
0
100
AcDbLine
 62
7
  6
CONTINUOUS
 10
125.7618383618
 20
45.868906722
 11
126.0172209556
 21
45.868906722
  0
LINE
  5
36B
100
AcDbEntity
  8
0
100
AcDbLine
 62
7
  6
CONTINUOUS
 10
125.6106092607
 20
46.5459905719
 11
125.8674749474
 21
46.5459905719
  0
LINE
  5
36C
100
AcDbEntity
  8
0
100
AcDbLine
 62
7
  6
CONTINUOUS
 10
125.4761194672
 20
47.087656722
 11
125.7343185593
 21
47.087656722
  0
LINE
  5
36D
100
AcDbEntity
  8
0
100
AcDbLine
 62
7
  6
CONTINUOUS
 10
125.3294190977
 20
47.6293228721
 11
125.5890884535
 21
47.6293228721
  0
LINE
  5
36E
100
AcDbEntity
  8
0
100
AcDbLine
 62
7
  6
CONTINUOUS
 10
125.2514243578
 20
47.900156722
 11
125.5118821978
 21
47.900156722
  0
LINE
  5
36F
100
AcDbEntity
  8
0
100
AcDbLine
 62
7
  6
CONTINUOUS
 10
125.2112538317
 20
48.0355728721
 11
125.4721196354
 21
48.0355728721
  0
LWPOLYLINE
  5
370
100
AcDbEntity
  8
RUNDUNGEN
100
AcDbPolyline
 62
7
  6
CONTINUOUS
 90
3
 70
0
 10
110.9482890139
 20
31.7425257068
 10
110.7667329202
 20
32.0722030051
 10
110.6368036265
 20
32.3356039361
  0
LINE
  5
371
100
AcDbEntity
  8
RUNDUNGEN
100
AcDbLine
 62
7
  6
CONTINUOUS
 10
112.1589606978
 20
30.0731873369
 11
112.0459782858
 21
30.3066117118
  0
LINE
  5
372
100
AcDbEntity
  8
0
100
AcDbLine
 62
7
  6
CONTINUOUS
 10
124.2412032398
 20
50.7334890222
 11
124.5123217839
 21
50.7334890222
  0
LWPOLYLINE
  5
373
100
AcDbEntity
  8
RUNDUNGEN
100
AcDbPolyline
 62
7
  6
CONTINUOUS
 90
5
 70
0
 10
112.3257055298
 20
29.2398677701
 10
112.3239678472
 20
29.3243500467
 10
112.2984254831
 20
29.5804411517
 10
112.2431794618
 20
29.8305907041
 10
112.1589606978
 20
30.0731873369
  0
LINE
  5
374
100
AcDbEntity
  8
0
100
AcDbLine
 62
7
  6
CONTINUOUS
 10
112.3256938189
 20
28.6734307057
 11
112.3256938189
 21
19.931406722
  0
LINE
  5
375
100
AcDbEntity
  8
RUNDUNGEN
100
AcDbLine
 62
7
  6
CONTINUOUS
 10
112.3256938189
 20
18.6139801449
 11
112.3256938189
 21
30.6845698229
  0
LINE
  5
376
100
AcDbEntity
  8
RUNDUNGEN
100
AcDbLine
 62
7
  6
CONTINUOUS
 10
112.3256938189
 20
50.1782418894
 11
112.3256938189
 21
62.2488398263
  0
LINE
  5
377
100
AcDbEntity
  8
0
100
AcDbLine
 62
7
  6
CONTINUOUS
 10
124.1251467204
 20
51.0043244218
 11
124.3975458312
 21
51.0043244218
  0
LINE
  5
378
100
AcDbEntity
  8
0
100
AcDbLine
 62
7
  6
CONTINUOUS
 10
123.6244718534
 20
52.087656722
 11
123.9025361355
 21
52.087656722
  0
LINE
  5
379
100
AcDbEntity
  8
0
100
AcDbLine
 62
7
  6
CONTINUOUS
 10
123.0625835165
 20
53.1709890222
 11
123.3472911885
 21
53.1709890222
  0
LINE
  5
37A
100
AcDbEntity
  8
0
100
AcDbLine
 62
7
  6
CONTINUOUS
 10
122.6783310372
 20
53.8480744218
 11
122.9677664969
 21
53.8480744218
  0
LINE
  5
37B
100
AcDbEntity
  8
0
100
AcDbLine
 62
7
  6
CONTINUOUS
 10
87.3256938189
 20
54.791406722
 11
86.8256938189
 21
54.791406722
  0
LINE
  5
37C
100
AcDbEntity
  8
0
100
AcDbLine
 62
7
  6
CONTINUOUS
 10
87.3256938189
 20
54.8765131023
 11
86.8256938189
 21
54.8765131023
  0
LINE
  5
37D
100
AcDbEntity
  8
0
100
AcDbLine
 62
7
  6
CONTINUOUS
 10
87.3256938189
 20
55.1318322431
 11
86.8256938189
 21
55.1318322431
  0
LINE
  5
37E
100
AcDbEntity
  8
0
100
AcDbLine
 62
7
  6
CONTINUOUS
 10
121.7358218637
 20
55.337656722
 11
122.0375422548
 21
55.337656722
  0
LINE
  5
37F
100
AcDbEntity
  8
0
100
AcDbLine
 62
7
  6
CONTINUOUS
 10
87.3256938189
 20
55.3871513914
 11
86.8256938189
 21
55.3871513914
  0
LINE
  5
380
100
AcDbEntity
  8
0
100
AcDbLine
 62
7
  6
CONTINUOUS
 10
87.3256938189
 20
55.8126833152
 11
86.8256938189
 21
55.8126833152
  0
LINE
  5
381
100
AcDbEntity
  8
0
100
AcDbLine
 62
7
  6
CONTINUOUS
 10
87.3256938189
 20
56.0680024337
 11
86.8256938189
 21
56.0680024337
  0
LINE
  5
382
100
AcDbEntity
  8
0
100
AcDbLine
 62
7
  6
CONTINUOUS
 10
87.3256938189
 20
56.4935344171
 11
86.8256938189
 21
56.4935344171
  0
LINE
  5
383
100
AcDbEntity
  8
0
100
AcDbLine
 62
7
  6
CONTINUOUS
 10
87.3256938189
 20
56.7488535356
 11
86.8256938189
 21
56.7488535356
  0
LINE
  5
384
100
AcDbEntity
  8
0
100
AcDbLine
 62
7
  6
CONTINUOUS
 10
87.3256938189
 20
56.8339599084
 11
86.8256938189
 21
56.8339599084
  0
LINE
  5
385
100
AcDbEntity
  8
0
100
AcDbLine
 62
7
  6
CONTINUOUS
 10
87.3256938189
 20
56.9190662812
 11
86.8256938189
 21
56.9190662812
  0
LINE
  5
386
100
AcDbEntity
  8
0
100
AcDbLine
 62
7
  6
CONTINUOUS
 10
87.3256938189
 20
57.1743853997
 11
86.8256938189
 21
57.1743853997
  0
LINE
  5
387
100
AcDbEntity
  8
0
100
AcDbLine
 62
7
  6
CONTINUOUS
 10
87.3256938189
 20
57.5148108911
 11
86.8256938189
 21
57.5148108911
  0
LINE
  5
388
100
AcDbEntity
  8
0
100
AcDbLine
 62
7
  6
CONTINUOUS
 10
87.3256938189
 20
57.7701300096
 11
86.8256938189
 21
57.7701300096
  0
LINE
  5
389
100
AcDbEntity
  8
0
100
AcDbLine
 62
7
  6
CONTINUOUS
 10
87.3256938189
 20
58.1956621121
 11
86.8256938189
 21
58.1956621121
  0
LINE
  5
38A
100
AcDbEntity
  8
0
100
AcDbLine
 62
7
  6
CONTINUOUS
 10
87.3256938189
 20
58.4509812306
 11
86.8256938189
 21
58.4509812306
  0
LINE
  5
38B
100
AcDbEntity
  8
0
100
AcDbLine
 62
7
  6
CONTINUOUS
 10
87.3256938189
 20
58.7063003491
 11
86.8256938189
 21
58.7063003491
  0
LINE
  5
38C
100
AcDbEntity
  8
0
100
AcDbLine
 62
7
  6
CONTINUOUS
 10
87.3256938189
 20
58.791406722
 11
86.8256938189
 21
58.791406722
  0
LINE
  5
38D
100
AcDbEntity
  8
RUNDUNGEN
100
AcDbLine
 62
7
  6
CONTINUOUS
 10
89.8256938189
 20
63.431406722
 11
109.8256938189
 21
63.431406722
  0
ARC
  5
38E
100
AcDbEntity
  8
RUNDUNGEN
100
AcDbCircle
 62
7
  6
CONTINUOUS
 10
82.3256938189
 20
148.838050086
 40
5.0
100
AcDbArc
 50
270.0016448559
 51
360.0
  0
ARC
  5
38F
100
AcDbEntity
  8
RUNDUNGEN
100
AcDbCircle
 62
7
  6
CONTINUOUS
 10
75.8256938189
 20
141.338050086
 40
2.5
100
AcDbArc
 50
90.0
 51
180.0
  0
ARC
  5
390
100
AcDbEntity
  8
RUNDUNGEN
100
AcDbCircle
 62
7
  6
CONTINUOUS
 10
117.3256938189
 20
148.838050086
 40
5.0
100
AcDbArc
 50
180.0
 51
269.9981547614
  0
ARC
  5
391
100
AcDbEntity
  8
RUNDUNGEN
100
AcDbCircle
 62
7
  6
CONTINUOUS
 10
123.8256938189
 20
141.338050086
 40
2.5
100
AcDbArc
 50
0.0
 51
90.0
  0
ARC
  5
392
100
AcDbEntity
  8
RUNDUNGEN
100
AcDbCircle
 62
7
  6
CONTINUOUS
 10
99.8256938189
 20
171.838050086
 40
12.5
100
AcDbArc
 50
0.0
 51
180.0
  0
ARC
  5
393
100
AcDbEntity
  8
RUNDUNGEN
100
AcDbCircle
 62
7
  6
CONTINUOUS
 10
184.1641262601
 20
177.5192779822
 40
4.0
100
AcDbArc
 50
140.0
 51
179.9998253539
  0
ARC
  5
394
100
AcDbEntity
  8
RUNDUNGEN
100
AcDbCircle
 62
7
  6
CONTINUOUS
 10
176.6641262601
 20
166.338050086
 40
3.5
100
AcDbArc
 50
330.0
 51
360.0
  0
ARC
  5
395
100
AcDbEntity
  8
RUNDUNGEN
100
AcDbCircle
 62
7
  6
CONTINUOUS
 10
179.6641309995
 20
158.5342107176
 40
3.0
100
AcDbArc
 50
150.0001810322
 51
180.0001567782
  0
ARC
  5
396
100
AcDbEntity
  8
RUNDUNGEN
100
AcDbCircle
 62
7
  6
CONTINUOUS
 10
197.1641262601
 20
167.1080935954
 40
2.0
100
AcDbArc
 50
318.0
 51
359.999997951
  0
ARC
  5
397
100
AcDbEntity
  8
RUNDUNGEN
100
AcDbCircle
 62
7
  6
CONTINUOUS
 10
191.4061502438
 20
181.838050086
 40
2.5
100
AcDbArc
 50
56.8465915844
 51
90.0
  0
ARC
  5
398
100
AcDbEntity
  8
RUNDUNGEN
100
AcDbCircle
 62
7
  6
CONTINUOUS
 10
185.8298582851
 20
181.8380058477
 40
2.5
100
AcDbArc
 50
90.0013321064
 51
140.0
  0
ARC
  5
399
100
AcDbEntity
  8
RUNDUNGEN
100
AcDbCircle
 62
7
  6
CONTINUOUS
 10
197.3641262601
 20
179.8630657305
 40
1.8
100
AcDbArc
 50
0.0
 51
73.8086483614
  0
ARC
  5
39A
100
AcDbEntity
  8
RUNDUNGEN
100
AcDbCircle
 62
7
  6
CONTINUOUS
 10
203.1641262601
 20
155.838050086
 40
10.0
100
AcDbArc
 50
138.0
 51
42.0
  0
ARC
  5
39B
100
AcDbEntity
  8
RUNDUNGEN
100
AcDbCircle
 62
7
  6
CONTINUOUS
 10
209.1641262601
 20
167.1080935954
 40
2.0
100
AcDbArc
 50
180.0
 51
222.0
  0
ARC
  5
39C
100
AcDbEntity
  8
RUNDUNGEN
100
AcDbCircle
 62
7
  6
CONTINUOUS
 10
229.6641262601
 20
166.338050086
 40
3.5
100
AcDbArc
 50
180.0
 51
210.0
  0
ARC
  5
39D
100
AcDbEntity
  8
RUNDUNGEN
100
AcDbCircle
 62
7
  6
CONTINUOUS
 10
226.6641214841
 20
158.5342107809
 40
3.0
100
AcDbArc
 50
359.9998420128
 51
29.9998175717
  0
ARC
  5
39E
100
AcDbEntity
  8
0
100
AcDbCircle
 62
7
  6
CONTINUOUS
 10
220.4927141495
 20
164.7479590397
 40
2.5
100
AcDbArc
 50
174.2608295227
 51
357.6842941627
  0
ARC
  5
39F
100
AcDbEntity
  8
0
100
AcDbCircle
 62
7
  6
CONTINUOUS
 10
220.4927141495
 20
160.4979590397
 40
2.5
100
AcDbArc
 50
174.2608295227
 51
357.6842941627
  0
ARC
  5
3A0
100
AcDbEntity
  8
0
100
AcDbCircle
 62
7
  6
CONTINUOUS
 10
220.4927141495
 20
164.7479590397
 40
1.75
100
AcDbArc
 50
282.5412744583
 51
8.2132107017
  0
ARC
  5
3A1
100
AcDbEntity
  8
0
100
AcDbCircle
 62
7
  6
CONTINUOUS
 10
220.4927141495
 20
164.7479590397
 40
1.75
100
AcDbArc
 50
171.7867892983
 51
257.6123707416
  0
ARC
  5
3A2
100
AcDbEntity
  8
0
100
AcDbCircle
 62
7
  6
CONTINUOUS
 10
220.4927141495
 20
160.4979590397
 40
1.75
100
AcDbArc
 50
180.8223838046
 51
8.2132107017
  0
ARC
  5
3A3
100
AcDbEntity
  8
RUNDUNGEN
100
AcDbCircle
 62
7
  6
CONTINUOUS
 10
222.1641262601
 20
177.5192779822
 40
4.0
100
AcDbArc
 50
0.0002078953
 51
39.9962726921
  0
ARC
  5
3A4
100
AcDbEntity
  8
0
100
AcDbCircle
 62
7
  6
CONTINUOUS
 10
203.1641262601
 20
199.838050086
 40
19.0
100
AcDbArc
 50
286.1913516386
 51
303.1534084156
  0
ARC
  5
3A5
100
AcDbEntity
  8
0
100
AcDbCircle
 62
7
  6
CONTINUOUS
 10
203.1641262601
 20
199.838050086
 40
19.0
100
AcDbArc
 50
236.8465915844
 51
253.8086483614
  0
ARC
  5
3A6
100
AcDbEntity
  8
RUNDUNGEN
100
AcDbCircle
 62
7
  6
CONTINUOUS
 10
214.9221022764
 20
181.838050086
 40
2.5
100
AcDbArc
 50
90.0
 51
123.1534084156
  0
ARC
  5
3A7
100
AcDbEntity
  8
RUNDUNGEN
100
AcDbCircle
 62
7
  6
CONTINUOUS
 10
220.4983944573
 20
181.8380055828
 40
2.5
100
AcDbArc
 50
40.0
 51
89.9986596165
  0
ARC
  5
3A8
100
AcDbEntity
  8
RUNDUNGEN
100
AcDbCircle
 62
7
  6
CONTINUOUS
 10
208.9641262601
 20
179.8630657305
 40
1.8
100
AcDbArc
 50
106.1913516386
 51
180.0
  0
ARC
  5
3A9
100
AcDbEntity
  8
0
100
AcDbCircle
 62
7
  6
CONTINUOUS
 10
71.8256938189
 20
40.431406722
 40
19.0
100
AcDbArc
 50
326.8465915844
 51
337.4998012636
  0
ARC
  5
3AA
100
AcDbEntity
  8
0
100
AcDbCircle
 62
7
  6
CONTINUOUS
 10
71.8256938189
 20
40.431406722
 40
19.0
100
AcDbArc
 50
22.5001987364
 51
33.1534084156
  0
ARC
  5
3AB
100
AcDbEntity
  8
RUNDUNGEN
100
AcDbCircle
 62
7
  6
CONTINUOUS
 10
71.8256938189
 20
40.431406722
 40
19.0
100
AcDbArc
 50
22.5001987364
 51
33.1534084156
  0
ARC
  5
3AC
100
AcDbEntity
  8
RUNDUNGEN
100
AcDbCircle
 62
7
  6
CONTINUOUS
 10
71.8256938189
 20
40.431406722
 40
19.0
100
AcDbArc
 50
326.8465915844
 51
337.4998012636
  0
ARC
  5
3AD
100
AcDbEntity
  8
RUNDUNGEN
100
AcDbCircle
 62
7
  6
CONTINUOUS
 10
89.8256938189
 20
28.6734307057
 40
2.5
100
AcDbArc
 50
146.8465915844
 51
180.0
  0
ARC
  5
3AE
100
AcDbEntity
  8
RUNDUNGEN
100
AcDbCircle
 62
7
  6
CONTINUOUS
 10
89.8256938189
 20
19.931406722
 40
2.5
100
AcDbArc
 50
180.0
 51
270.0
  0
ARC
  5
3AF
100
AcDbEntity
  8
RUNDUNGEN
100
AcDbCircle
 62
7
  6
CONTINUOUS
 10
89.8256506475
 20
18.6139900302
 40
2.4999856095
100
AcDbArc
 50
180.0001727517
 51
245.3749659526
  0
ARC
  5
3B0
100
AcDbEntity
  8
RUNDUNGEN
100
AcDbCircle
 62
7
  6
CONTINUOUS
 10
85.3256938189
 20
40.431406722
 40
8.0
100
AcDbArc
 50
305.6853347127
 51
323.1299654866
  0
ARC
  5
3B1
100
AcDbEntity
  8
RUNDUNGEN
100
AcDbCircle
 62
7
  6
CONTINUOUS
 10
85.3256938189
 20
40.431406722
 40
8.0
100
AcDbArc
 50
36.8700324566
 51
54.3146652873
  0
ARC
  5
3B2
100
AcDbEntity
  8
RUNDUNGEN
100
AcDbCircle
 62
7
  6
CONTINUOUS
 10
93.3256938189
 20
34.431406722
 40
2.0
100
AcDbArc
 50
90.0069682051
 51
143.1300236191
  0
ARC
  5
3B3
100
AcDbEntity
  8
RUNDUNGEN
100
AcDbCircle
 62
7
  6
CONTINUOUS
 10
91.0423604856
 20
32.4715246737
 40
1.8
100
AcDbArc
 50
125.6853347127
 51
157.4998635246
  0
ARC
  5
3B4
100
AcDbEntity
  8
RUNDUNGEN
100
AcDbCircle
 62
7
  6
CONTINUOUS
 10
89.8256938189
 20
52.1893827383
 40
2.5
100
AcDbArc
 50
180.0
 51
213.1534084157
  0
ARC
  5
3B5
100
AcDbEntity
  8
RUNDUNGEN
100
AcDbCircle
 62
7
  6
CONTINUOUS
 10
89.8256938189
 20
60.931406722
 40
2.5
100
AcDbArc
 50
90.0
 51
180.0
  0
ARC
  5
3B6
100
AcDbEntity
  8
RUNDUNGEN
100
AcDbCircle
 62
7
  6
CONTINUOUS
 10
89.8256938189
 20
62.2488318318
 40
2.5
100
AcDbArc
 50
114.6237019276
 51
179.9999487353
  0
ARC
  5
3B7
100
AcDbEntity
  8
RUNDUNGEN
100
AcDbCircle
 62
7
  6
CONTINUOUS
 10
93.3256938189
 20
46.431406722
 40
2.0
100
AcDbArc
 50
216.8693584021
 51
269.9930176024
  0
ARC
  5
3B8
100
AcDbEntity
  8
RUNDUNGEN
100
AcDbCircle
 62
7
  6
CONTINUOUS
 10
91.0423604856
 20
48.3912887702
 40
1.8
100
AcDbArc
 50
202.5001224707
 51
234.3146652873
  0
ARC
  5
3B9
100
AcDbEntity
  8
RUNDUNGEN
100
AcDbCircle
 62
7
  6
CONTINUOUS
 10
109.8256938189
 20
28.6734307057
 40
2.5
100
AcDbArc
 50
0.0
 51
33.1534084157
  0
ARC
  5
3BA
100
AcDbEntity
  8
RUNDUNGEN
100
AcDbCircle
 62
7
  6
CONTINUOUS
 10
109.8256938189
 20
19.931406722
 40
2.5
100
AcDbArc
 50
270.0
 51
360.0
  0
ARC
  5
3BB
100
AcDbEntity
  8
RUNDUNGEN
100
AcDbCircle
 62
7
  6
CONTINUOUS
 10
109.8256938189
 20
18.6139831518
 40
2.5
100
AcDbArc
 50
294.6237416071
 51
359.9999310867
  0
ARC
  5
3BC
100
AcDbEntity
  8
0
100
AcDbCircle
 62
7
  6
CONTINUOUS
 10
99.8256938189
 20
40.431406722
 40
26.75
100
AcDbArc
 50
25.8328784155
 51
33.8653457931
  0
ARC
  5
3BD
100
AcDbEntity
  8
0
100
AcDbCircle
 62
7
  6
CONTINUOUS
 10
99.8256938189
 20
40.431406722
 40
26.75
100
AcDbArc
 50
317.7089324571
 51
330.9487402983
  0
ARC
  5
3BE
100
AcDbEntity
  8
0
100
AcDbCircle
 62
7
  6
CONTINUOUS
 10
99.8256938189
 20
40.431406722
 40
26.75
100
AcDbArc
 50
4.690640396
 51
23.2815206619
  0
ARC
  5
3BF
100
AcDbEntity
  8
0
100
AcDbCircle
 62
7
  6
CONTINUOUS
 10
99.8256938189
 20
40.431406722
 40
26.75
100
AcDbArc
 50
333.5706816676
 51
351.5806321782
  0
ARC
  5
3C0
100
AcDbEntity
  8
0
100
AcDbCircle
 62
7
  6
CONTINUOUS
 10
99.8256938189
 20
40.431406722
 40
26.75
100
AcDbArc
 50
351.896266877
 51
4.3772981717
  0
CIRCLE
  5
3C1
100
AcDbEntity
  8
RUNDUNGEN
100
AcDbCircle
 62
7
  6
CONTINUOUS
 10
99.8256938189
 20
40.431406722
 40
26.5
  0
ARC
  5
3C2
100
AcDbEntity
  8
RUNDUNGEN
100
AcDbCircle
 62
7
  6
CONTINUOUS
 10
106.3256938189
 20
34.431406722
 40
2.0
100
AcDbArc
 50
36.8692744805
 51
89.9930176024
  0
ARC
  5
3C3
100
AcDbEntity
  8
RUNDUNGEN
100
AcDbCircle
 62
7
  6
CONTINUOUS
 10
108.6090271522
 20
32.4715246737
 40
1.8
100
AcDbArc
 50
22.5001232247
 51
54.3146652873
  0
ARC
  5
3C4
100
AcDbEntity
  8
RUNDUNGEN
100
AcDbCircle
 62
7
  6
CONTINUOUS
 10
127.8256938189
 20
40.431406722
 40
19.0
100
AcDbArc
 50
202.5001987364
 51
213.1534084156
  0
ARC
  5
3C5
100
AcDbEntity
  8
RUNDUNGEN
100
AcDbCircle
 62
7
  6
CONTINUOUS
 10
127.8256938189
 20
40.431406722
 40
19.0
100
AcDbArc
 50
146.8465915844
 51
157.4998012636
  0
ARC
  5
3C6
100
AcDbEntity
  8
RUNDUNGEN
100
AcDbCircle
 62
7
  6
CONTINUOUS
 10
114.3256938189
 20
40.431406722
 40
8.0
100
AcDbArc
 50
216.870053437
 51
234.3146652873
  0
ARC
  5
3C7
100
AcDbEntity
  8
RUNDUNGEN
100
AcDbCircle
 62
7
  6
CONTINUOUS
 10
114.3256938189
 20
40.431406722
 40
8.0
100
AcDbArc
 50
125.6853347127
 51
143.1299444396
  0
ARC
  5
3C8
100
AcDbEntity
  8
RUNDUNGEN
100
AcDbCircle
 62
7
  6
CONTINUOUS
 10
109.8256938189
 20
60.931406722
 40
2.5
100
AcDbArc
 50
0.0
 51
90.0
  0
ARC
  5
3C9
100
AcDbEntity
  8
RUNDUNGEN
100
AcDbCircle
 62
7
  6
CONTINUOUS
 10
109.8256938189
 20
52.1893827383
 40
2.5
100
AcDbArc
 50
326.8465915844
 51
360.0
  0
ARC
  5
3CA
100
AcDbEntity
  8
RUNDUNGEN
100
AcDbCircle
 62
7
  6
CONTINUOUS
 10
109.8257216123
 20
62.2488255291
 40
2.4999907355
100
AcDbArc
 50
0.0001242696
 51
65.3749792201
  0
ARC
  5
3CB
100
AcDbEntity
  8
RUNDUNGEN
100
AcDbCircle
 62
7
  6
CONTINUOUS
 10
106.3256938189
 20
46.431406722
 40
2.0
100
AcDbArc
 50
270.0069682051
 51
323.1300514331
  0
ARC
  5
3CC
100
AcDbEntity
  8
RUNDUNGEN
100
AcDbCircle
 62
7
  6
CONTINUOUS
 10
108.6090271522
 20
48.3912887702
 40
1.8
100
AcDbArc
 50
305.6853347127
 51
337.4998630115
  0
ELLIPSE
  5
3CD
100
AcDbEntity
  8
0
100
AcDbEllipse
 62
7
  6
CONTINUOUS
 10
99.8256938189
 20
122.1023056222
 30
0.0
 11
26.75
 21
0.0
 31
0.0
 40
0.8987235201
 41
-0.0654673159
 42
-0.000001512
  0
ELLIPSE
  5
3CE
100
AcDbEntity
  8
0
100
AcDbEllipse
 62
7
  6
CONTINUOUS
 10
99.8256938189
 20
129.673156505
 30
0.0
 11
26.75
 21
0.0
 31
0.0
 40
0.5106380606
 41
-0.0144086079
 42
-0.0000000737
  0
ELLIPSE
  5
3CF
100
AcDbEntity
  8
0
100
AcDbEllipse
 62
7
  6
CONTINUOUS
 10
99.8256938189
 20
125.8841497826
 30
0.0
 11
26.75
 21
-0.0
 31
0.0
 40
0.6808509827
 41
6.2473520748
 42
6.2625451931
  0
ELLIPSE
  5
3D0
100
AcDbEntity
  8
0
100
AcDbEllipse
 62
7
  6
CONTINUOUS
 10
99.8256938189
 20
125.6210289143
 30
0.0
 11
26.75
 21
-0.0
 31
0.0
 40
0.204255139
 41
6.2625451931
 42
6.2831851719
  0
ELLIPSE
  5
3D1
100
AcDbEntity
  8
0
100
AcDbEllipse
 62
7
  6
CONTINUOUS
 10
99.8256938189
 20
125.7827307938
 30
0.0
 11
26.75
 21
-0.0
 31
0.0
 40
0.204255139
 41
-0.0502547956
 42
-0.0249246797
  0
ELLIPSE
  5
3D2
100
AcDbEntity
  8
0
100
AcDbEllipse
 62
7
  6
CONTINUOUS
 10
99.8256938189
 20
126.4231564588
 30
0.0
 11
26.75
 21
0.0
 31
0.0
 40
0.6808509827
 41
-0.0654673159
 42
-0.0502547956
  0
ELLIPSE
  5
3D3
100
AcDbEntity
  8
0
100
AcDbEllipse
 62
7
  6
CONTINUOUS
 10
99.8256938189
 20
127.9125128701
 30
0.0
 11
0.0
 21
40.9786403587
 31
0.0
 40
0.6527791007
 41
-1.6464135596
 42
-1.6362636427
  0
ELLIPSE
  5
3D4
100
AcDbEntity
  8
0
100
AcDbEllipse
 62
7
  6
CONTINUOUS
 10
99.8256938189
 20
113.1571989766
 30
0.0
 11
0.0
 21
50.0851067901
 31
0.0
 40
0.5340909047
 41
-1.4537065296
 42
-1.4371375905
  0
ELLIPSE
  5
3D5
100
AcDbEntity
  8
0
100
AcDbEllipse
 62
7
  6
CONTINUOUS
 10
99.8256938189
 20
122.0295310516
 30
0.0
 11
0.0
 21
54.6384997883
 31
0.0
 40
0.4895815241
 41
-1.5349630944
 42
-1.524830005
  0
ELLIPSE
  5
3D6
100
AcDbEntity
  8
0
100
AcDbEllipse
 62
7
  6
CONTINUOUS
 10
99.8256938189
 20
126.6997585622
 30
0.0
 11
0.0
 21
40.9788748412
 31
0.0
 40
0.6527753654
 41
4.6664226586
 42
4.676555748
  0
ELLIPSE
  5
3D7
100
AcDbEntity
  8
0
100
AcDbEllipse
 62
7
  6
CONTINUOUS
 10
99.8256938189
 20
145.3911978275
 30
0.0
 11
0.0
 21
81.9572807173
 31
0.0
 40
0.3263895503
 41
-1.8367716985
 42
-1.8315286082
  0
ELLIPSE
  5
3D8
100
AcDbEntity
  8
0
100
AcDbEllipse
 62
7
  6
CONTINUOUS
 10
99.8256938189
 20
133.4231552369
 30
0.0
 11
0.0
 21
36.4255275726
 31
0.0
 40
0.7343750875
 41
-1.8525466512
 42
-1.8367716985
  0
ELLIPSE
  5
3D9
100
AcDbEntity
  8
0
100
AcDbEllipse
 62
7
  6
CONTINUOUS
 10
99.8256938189
 20
128.9923019848
 30
0.0
 11
26.75
 21
-0.0
 31
0.0
 40
0.7659569903
 41
-0.3028970435
 42
-0.2817503244
  0
ELLIPSE
  5
3DA
100
AcDbEntity
  8
0
100
AcDbEllipse
 62
7
  6
CONTINUOUS
 10
99.8256938189
 20
124.5103910164
 30
0.0
 11
26.75
 21
-0.0
 31
0.0
 40
0.2042553727
 41
-0.3295297655
 42
-0.3028970435
  0
ELLIPSE
  5
3DB
100
AcDbEntity
  8
0
100
AcDbEllipse
 62
7
  6
CONTINUOUS
 10
99.8256938189
 20
124.5699645159
 30
0.0
 11
26.75
 21
-0.0
 31
0.0
 40
0.2042553727
 41
0.3028970435
 42
0.3295297655
  0
ELLIPSE
  5
3DC
100
AcDbEntity
  8
0
100
AcDbEllipse
 62
7
  6
CONTINUOUS
 10
99.8256938189
 20
120.0880535475
 30
0.0
 11
26.75
 21
0.0
 31
0.0
 40
0.7659569903
 41
0.2817503244
 42
0.3028970435
  0
ELLIPSE
  5
3DD
100
AcDbEntity
  8
0
100
AcDbEllipse
 62
7
  6
CONTINUOUS
 10
99.8256938189
 20
115.6572002954
 30
0.0
 11
0.0
 21
36.4255275726
 31
0.0
 40
0.7343750875
 41
-1.3048209551
 42
-1.2890460024
  0
ELLIPSE
  5
3DE
100
AcDbEntity
  8
0
100
AcDbEllipse
 62
7
  6
CONTINUOUS
 10
99.8256938189
 20
103.6891577048
 30
0.0
 11
0.0
 21
81.9572807173
 31
0.0
 40
0.3263895503
 41
-1.3100640454
 42
-1.3048209551
  0
ELLIPSE
  5
3DF
100
AcDbEntity
  8
0
100
AcDbEllipse
 62
7
  6
CONTINUOUS
 10
99.8256938189
 20
164.0614878068
 30
0.0
 11
0.0
 21
81.9575151992
 31
0.0
 40
0.3263886165
 41
-2.0836367128
 42
-2.0778364604
  0
ELLIPSE
  5
3E0
100
AcDbEntity
  8
0
100
AcDbEllipse
 62
7
  6
CONTINUOUS
 10
99.8256938189
 20
141.7210265881
 30
0.0
 11
0.0
 21
36.4255275726
 31
0.0
 40
0.7343750875
 41
-2.1011530838
 42
-2.0836367128
  0
ELLIPSE
  5
3E1
100
AcDbEntity
  8
0
100
AcDbEllipse
 62
7
  6
CONTINUOUS
 10
99.8256938189
 20
133.6598598074
 30
0.0
 11
26.75
 21
0.0
 31
0.0
 40
0.7659575381
 41
-0.5539967092
 42
-0.530356757
  0
ELLIPSE
  5
3E2
100
AcDbEntity
  8
0
100
AcDbEllipse
 62
7
  6
CONTINUOUS
 10
99.8256938189
 20
125.75507047
 30
0.0
 11
26.75
 21
-0.0
 31
0.0
 40
0.2042552558
 41
-0.5840437217
 42
-0.5539967092
  0
ELLIPSE
  5
3E3
100
AcDbEntity
  8
0
100
AcDbEllipse
 62
7
  6
CONTINUOUS
 10
99.8256938189
 20
123.3252850623
 30
0.0
 11
26.75
 21
-0.0
 31
0.0
 40
0.2042552558
 41
0.5539967092
 42
0.5840437217
  0
ELLIPSE
  5
3E4
100
AcDbEntity
  8
0
100
AcDbEllipse
 62
7
  6
CONTINUOUS
 10
99.8256938189
 20
115.4204957249
 30
0.0
 11
26.75
 21
-0.0
 31
0.0
 40
0.7659575381
 41
0.530356757
 42
0.5539967092
  0
ELLIPSE
  5
3E5
100
AcDbEntity
  8
0
100
AcDbEllipse
 62
7
  6
CONTINUOUS
 10
99.8256938189
 20
107.3593289441
 30
0.0
 11
0.0
 21
36.4255275726
 31
0.0
 40
0.7343750875
 41
-1.0579559408
 42
-1.0404395698
  0
ELLIPSE
  5
3E6
100
AcDbEntity
  8
0
100
AcDbEllipse
 62
7
  6
CONTINUOUS
 10
99.8256938189
 20
85.0188677255
 30
0.0
 11
0.0
 21
81.9575151992
 31
0.0
 40
0.3263886165
 41
-1.0637561931
 42
-1.0579559408
  0
ELLIPSE
  5
3E7
100
AcDbEntity
  8
0
100
AcDbEllipse
 62
7
  6
CONTINUOUS
 10
99.8256938189
 20
116.6690196573
 30
0.0
 11
0.0
 21
69.8156030178
 31
0.0
 40
0.3831521729
 41
-1.3883211907
 42
-1.3417745852
  0
ELLIPSE
  5
3E8
100
AcDbEntity
  8
0
100
AcDbEllipse
 62
7
  6
CONTINUOUS
 10
99.8256938189
 20
135.6199652916
 30
0.0
 11
26.75
 21
-0.0
 31
0.0
 40
0.5106383587
 41
-0.2290217416
 42
-0.2082782847
  0
ELLIPSE
  5
3E9
100
AcDbEntity
  8
0
100
AcDbEllipse
 62
7
  6
CONTINUOUS
 10
99.8256938189
 20
140.3274108655
 30
0.0
 11
0.0
 21
36.4255275726
 31
0.0
 40
0.7343750875
 41
-1.7790746115
 42
-1.7635769907
  0
ELLIPSE
  5
3EA
100
AcDbEntity
  8
0
100
AcDbEllipse
 62
7
  6
CONTINUOUS
 10
99.8256938189
 20
149.0508290556
 30
0.0
 11
0.0
 21
81.9575151992
 31
0.0
 40
0.3263886165
 41
-1.7635769907
 42
-1.7584217137
  0
ELLIPSE
  5
3EB
100
AcDbEntity
  8
0
100
AcDbEllipse
 62
7
  6
CONTINUOUS
 10
99.8256938189
 20
119.0295264767
 30
0.0
 11
0.0
 21
81.9575151992
 31
0.0
 40
0.3263886165
 41
-1.3831709399
 42
-1.3780156629
  0
ELLIPSE
  5
3EC
100
AcDbEntity
  8
0
100
AcDbEllipse
 62
7
  6
CONTINUOUS
 10
99.8256938189
 20
127.7529446668
 30
0.0
 11
0.0
 21
36.4255275726
 31
0.0
 40
0.7343750875
 41
-1.3780156629
 42
-1.3625180421
  0
ELLIPSE
  5
3ED
100
AcDbEntity
  8
0
100
AcDbEllipse
 62
7
  6
CONTINUOUS
 10
99.8256938189
 20
131.0481560298
 30
0.0
 11
26.75
 21
0.0
 31
0.0
 40
0.7659575381
 41
0.2082782847
 42
0.2290217416
  0
ELLIPSE
  5
3EE
100
AcDbEntity
  8
0
100
AcDbEllipse
 62
7
  6
CONTINUOUS
 10
99.8256938189
 20
134.459327109
 30
0.0
 11
26.75
 21
-0.0
 31
0.0
 40
0.2042552558
 41
0.2290217416
 42
0.2550940834
  0
ELLIPSE
  5
3EF
100
AcDbEntity
  8
0
100
AcDbEllipse
 62
7
  6
CONTINUOUS
 10
99.8256938189
 20
130.3593279711
 30
0.0
 11
0.0
 21
109.2763742898
 31
0.0
 40
0.2447921628
 41
-1.5649551721
 42
-1.5598926743
  0
ELLIPSE
  5
3F0
100
AcDbEntity
  8
0
100
AcDbEllipse
 62
7
  6
CONTINUOUS
 10
99.8256938189
 20
129.7582624421
 30
0.0
 11
26.75
 21
0.0
 31
0.0
 40
0.255319362
 41
0.0600048593
 42
0.080304342
  0
ELLIPSE
  5
3F1
100
AcDbEntity
  8
0
100
AcDbEllipse
 62
7
  6
CONTINUOUS
 10
99.8256938189
 20
129.5550714385
 30
0.0
 11
26.75
 21
-0.0
 31
0.0
 40
0.2042553906
 41
-0.0397300775
 42
-0.0144086079
  0
ELLIPSE
  5
3F2
100
AcDbEntity
  8
0
100
AcDbEllipse
 62
7
  6
CONTINUOUS
 10
99.8256938189
 20
128.8451421044
 30
0.0
 11
26.75
 21
-0.0
 31
0.0
 40
0.6808512211
 41
0.080304342
 42
0.0955503019
  0
ELLIPSE
  5
3F3
100
AcDbEntity
  8
0
100
AcDbEllipse
 62
7
  6
CONTINUOUS
 10
99.8256938189
 20
126.6731648329
 30
0.0
 11
0.0
 21
40.9786403587
 31
0.0
 40
0.6527791007
 41
-1.4752460249
 42
-1.4650698623
  0
ELLIPSE
  5
3F4
100
AcDbEntity
  8
0
100
AcDbEllipse
 62
7
  6
CONTINUOUS
 10
99.8256938189
 20
119.465665985
 30
0.0
 11
0.0
 21
109.2769995766
 31
0.0
 40
0.244790762
 41
-1.4650698623
 42
-1.4599777527
  0
ELLIPSE
  5
3F5
100
AcDbEntity
  8
0
100
AcDbEllipse
 62
7
  6
CONTINUOUS
 10
99.8256938189
 20
135.8380888862
 30
0.0
 11
0.0
 21
109.2769995766
 31
0.0
 40
0.244790762
 41
-1.6718247796
 42
-1.6667378382
  0
ELLIPSE
  5
3F6
100
AcDbEntity
  8
0
100
AcDbEllipse
 62
7
  6
CONTINUOUS
 10
99.8256938189
 20
127.9869885554
 30
0.0
 11
0.0
 21
27.3191717331
 31
0.0
 40
0.9791658496
 41
-1.6667378382
 42
-1.6464135596
  0
ELLIPSE
  5
3F7
100
AcDbEntity
  8
0
100
AcDbEllipse
 62
7
  6
CONTINUOUS
 10
99.8256938189
 20
126.9550695846
 30
0.0
 11
26.75
 21
-0.0
 31
0.0
 40
0.510637263
 41
-0.0756172328
 42
-0.0553241489
  0
ELLIPSE
  5
3F8
100
AcDbEntity
  8
0
100
AcDbEllipse
 62
7
  6
CONTINUOUS
 10
99.8256938189
 20
128.3114548783
 30
0.0
 11
26.5
 21
-0.0
 31
0.0
 40
0.5106380606
 41
0.0861915854
 42
0.1067276705
  0
ELLIPSE
  5
3F9
100
AcDbEntity
  8
0
100
AcDbEllipse
 62
7
  6
CONTINUOUS
 10
99.8256938189
 20
126.4155577177
 30
0.0
 11
26.75
 21
-0.0
 31
0.0
 40
0.1458967187
 41
-0.0553241489
 42
-0.0198611188
  0
ELLIPSE
  5
3FA
100
AcDbEntity
  8
0
100
AcDbEllipse
 62
7
  6
CONTINUOUS
 10
99.8256938189
 20
129.0103903441
 30
0.0
 11
26.5
 21
-0.0
 31
0.0
 40
0.2042553906
 41
6.3437569401
 42
6.3693768926
  0
ELLIPSE
  5
3FB
100
AcDbEntity
  8
0
100
AcDbEllipse
 62
7
  6
CONTINUOUS
 10
99.8256938189
 20
113.7835273153
 30
0.0
 11
0.0
 21
71.0425584342
 31
0.0
 40
0.3730158455
 41
-1.3500616373
 42
-1.3079532331
  0
ELLIPSE
  5
3FC
100
AcDbEntity
  8
0
100
AcDbEllipse
 62
7
  6
CONTINUOUS
 10
99.8256938189
 20
123.1131257644
 30
0.0
 11
26.75
 21
0.0
 31
0.0
 40
0.9118538228
 41
6.1770672301
 42
6.3190185396
  0
ELLIPSE
  5
3FD
100
AcDbEntity
  8
0
100
AcDbEllipse
 62
7
  6
CONTINUOUS
 10
99.8256938189
 20
126.4728013676
 30
0.0
 11
26.75
 21
-0.0
 31
0.0
 40
0.3404254913
 41
-0.3241844423
 42
-0.3082052024
  0
ELLIPSE
  5
3FE
100
AcDbEntity
  8
0
100
AcDbEllipse
 62
7
  6
CONTINUOUS
 10
99.8256938189
 20
131.9976311315
 30
0.0
 11
-0.0
 21
27.3191717331
 31
0.0
 40
0.9791658496
 41
-1.8790015292
 42
-1.8683939722
  0
ELLIPSE
  5
3FF
100
AcDbEntity
  8
0
100
AcDbEllipse
 62
7
  6
CONTINUOUS
 10
99.8256938189
 20
148.0188523407
 30
0.0
 11
0.0
 21
81.9572807173
 31
0.0
 40
0.3263895503
 41
-1.8683939722
 42
-1.8631031736
  0
ELLIPSE
  5
400
100
AcDbEntity
  8
0
100
AcDbEllipse
 62
7
  6
CONTINUOUS
 10
99.8256938189
 20
101.1998010475
 30
0.0
 11
0.0
 21
81.9572807173
 31
0.0
 40
0.3263895503
 41
-1.27848948
 42
-1.2731986814
  0
ELLIPSE
  5
401
100
AcDbEntity
  8
0
100
AcDbEllipse
 62
7
  6
CONTINUOUS
 10
99.8256938189
 20
117.2210222567
 30
0.0
 11
-0.0
 21
27.3191717331
 31
0.0
 40
0.9791658496
 41
-1.2731986814
 42
-1.2625911244
  0
ELLIPSE
  5
402
100
AcDbEntity
  8
0
100
AcDbEllipse
 62
7
  6
CONTINUOUS
 10
99.8256938189
 20
122.7458520206
 30
0.0
 11
26.75
 21
-0.0
 31
0.0
 40
0.3404254913
 41
0.3082052024
 42
0.3241844423
  0
ELLIPSE
  5
403
100
AcDbEntity
  8
0
100
AcDbEllipse
 62
7
  6
CONTINUOUS
 10
99.8256938189
 20
122.7458520206
 30
0.0
 11
26.5
 21
-0.0
 31
0.0
 40
0.3404254913
 41
0.3112099429
 42
0.3273563253
  0
ELLIPSE
  5
404
100
AcDbEntity
  8
0
100
AcDbEllipse
 62
7
  6
CONTINUOUS
 10
99.8256938189
 20
117.2210222567
 30
0.0
 11
0.0
 21
27.0638523711
 31
0.0
 40
0.9791658496
 41
-1.2703039398
 42
-1.2595863839
  0
ELLIPSE
  5
405
100
AcDbEntity
  8
0
100
AcDbEllipse
 62
7
  6
CONTINUOUS
 10
99.8256938189
 20
101.1998010475
 30
0.0
 11
0.0
 21
81.1913248228
 31
0.0
 40
0.3263895503
 41
-1.2756493305
 42
-1.2703039398
  0
ELLIPSE
  5
406
100
AcDbEntity
  8
0
100
AcDbEllipse
 62
7
  6
CONTINUOUS
 10
99.8256938189
 20
148.0188523407
 30
0.0
 11
0.0
 21
81.1913248228
 31
0.0
 40
0.3263895503
 41
-1.8712887137
 42
-1.8659433231
  0
ELLIPSE
  5
407
100
AcDbEntity
  8
0
100
AcDbEllipse
 62
7
  6
CONTINUOUS
 10
99.8256938189
 20
131.9976311315
 30
0.0
 11
0.0
 21
27.0638523711
 31
0.0
 40
0.9791658496
 41
-1.8820062697
 42
-1.8712887137
  0
ELLIPSE
  5
408
100
AcDbEntity
  8
0
100
AcDbEllipse
 62
7
  6
CONTINUOUS
 10
99.8256938189
 20
126.4728013676
 30
0.0
 11
26.5
 21
-0.0
 31
0.0
 40
0.3404254913
 41
-0.3273563253
 42
-0.3112099429
  0
ELLIPSE
  5
409
100
AcDbEntity
  8
0
100
AcDbEllipse
 62
7
  6
CONTINUOUS
 10
99.8256938189
 20
120.6713840508
 30
0.0
 11
26.5
 21
0.0
 31
0.0
 40
0.3404254913
 41
6.8490708518
 42
6.8673391288
  0
ELLIPSE
  5
40A
100
AcDbEntity
  8
0
100
AcDbEllipse
 62
7
  6
CONTINUOUS
 10
99.8256938189
 20
110.9976331701
 30
0.0
 11
-0.0
 21
27.0638136559
 31
0.0
 40
0.9791672503
 41
-1.0169723937
 42
-1.0049107822
  0
ELLIPSE
  5
40B
100
AcDbEntity
  8
0
100
AcDbEllipse
 62
7
  6
CONTINUOUS
 10
99.8256938189
 20
82.5295039461
 30
0.0
 11
0.0
 21
81.1915571132
 31
0.0
 40
0.3263886165
 41
-1.0229694701
 42
-1.0169723937
  0
ELLIPSE
  5
40C
100
AcDbEntity
  8
0
100
AcDbEllipse
 62
7
  6
CONTINUOUS
 10
99.8256938189
 20
166.6891494421
 30
0.0
 11
0.0
 21
81.1915571132
 31
0.0
 40
0.3263886165
 41
-2.1246202599
 42
-2.1186231835
  0
ELLIPSE
  5
40D
100
AcDbEntity
  8
0
100
AcDbEllipse
 62
7
  6
CONTINUOUS
 10
99.8256938189
 20
138.2210202181
 30
0.0
 11
0.0
 21
27.0638136559
 31
0.0
 40
0.9791672503
 41
-2.1366818714
 42
-2.1246202599
  0
ELLIPSE
  5
40E
100
AcDbEntity
  8
0
100
AcDbEllipse
 62
7
  6
CONTINUOUS
 10
99.8256938189
 20
128.5472693373
 30
0.0
 11
26.75
 21
0.0
 31
0.0
 40
0.3404254913
 41
-0.5779876452
 42
-0.5599604078
  0
ELLIPSE
  5
40F
100
AcDbEntity
  8
0
100
AcDbEllipse
 62
7
  6
CONTINUOUS
 10
99.8256938189
 20
128.5472693373
 30
0.0
 11
26.5
 21
-0.0
 31
0.0
 40
0.3404254913
 41
-0.5841538216
 42
-0.5658855446
  0
ELLIPSE
  5
410
100
AcDbEntity
  8
0
100
AcDbEllipse
 62
7
  6
CONTINUOUS
 10
99.8256938189
 20
130.7582626481
 30
0.0
 11
0.0
 21
40.9787575996
 31
0.0
 40
0.6527772331
 41
-1.5750798193
 42
-1.5649551721
  0
ELLIPSE
  5
411
100
AcDbEntity
  8
0
100
AcDbEllipse
 62
7
  6
CONTINUOUS
 10
99.8256938189
 20
112.2955351869
 30
0.0
 11
0.0
 21
135.3188747046
 31
0.0
 40
0.1958337302
 41
-1.4331768092
 42
-1.4280160944
  0
ELLIPSE
  5
412
100
AcDbEntity
  8
0
100
AcDbEllipse
 62
7
  6
CONTINUOUS
 10
99.8256938189
 20
123.4337981688
 30
0.0
 11
0.0
 21
54.127636789
 31
0.0
 40
0.4895835394
 41
-1.443487311
 42
-1.4331768092
  0
ELLIPSE
  5
413
100
AcDbEntity
  8
0
100
AcDbEllipse
 62
7
  6
CONTINUOUS
 10
99.8256938189
 20
132.8947879815
 30
0.0
 11
26.5
 21
0.0
 31
0.0
 40
0.3404254913
 41
0.236474531
 42
0.2522743083
  0
ELLIPSE
  5
414
100
AcDbEntity
  8
0
100
AcDbEllipse
 62
7
  6
CONTINUOUS
 10
99.8256938189
 20
128.6678410662
 30
0.0
 11
-0.0
 21
27.0638136559
 31
0.0
 40
0.9791672503
 41
-1.3448214052
 42
-1.3343217958
  0
ELLIPSE
  5
415
100
AcDbEntity
  8
0
100
AcDbEllipse
 62
7
  6
CONTINUOUS
 10
99.8256938189
 20
116.5401626972
 30
0.0
 11
0.0
 21
81.1915571132
 31
0.0
 40
0.3263886165
 41
-1.3500616373
 42
-1.3448214052
  0
ELLIPSE
  5
416
100
AcDbEntity
  8
0
100
AcDbEllipse
 62
7
  6
CONTINUOUS
 10
99.8256938189
 20
151.6784906909
 30
0.0
 11
0.0
 21
81.1915571132
 31
0.0
 40
0.3263886165
 41
-1.7967712484
 42
-1.7915310163
  0
ELLIPSE
  5
417
100
AcDbEntity
  8
0
100
AcDbEllipse
 62
7
  6
CONTINUOUS
 10
99.8256938189
 20
139.5508123219
 30
0.0
 11
-0.0
 21
27.0638136559
 31
0.0
 40
0.9791672503
 41
-1.8072708578
 42
-1.7967712484
  0
ELLIPSE
  5
418
100
AcDbEntity
  8
0
100
AcDbEllipse
 62
7
  6
CONTINUOUS
 10
99.8256938189
 20
135.3238654066
 30
0.0
 11
26.5
 21
0.0
 31
0.0
 40
0.3404254913
 41
-0.2522743083
 42
-0.236474531
  0
ELLIPSE
  5
419
100
AcDbEntity
  8
0
100
AcDbEllipse
 62
7
  6
CONTINUOUS
 10
99.8256938189
 20
138.2210202181
 30
0.0
 11
-0.0
 21
27.3191326527
 31
0.0
 40
0.9791672503
 41
-2.1307567346
 42
-2.1188512756
  0
ELLIPSE
  5
41A
100
AcDbEntity
  8
0
100
AcDbEllipse
 62
7
  6
CONTINUOUS
 10
99.8256938189
 20
166.6891494421
 30
0.0
 11
0.0
 21
81.9575151992
 31
0.0
 40
0.3263886165
 41
-2.1188512756
 42
-2.1129309887
  0
ELLIPSE
  5
41B
100
AcDbEntity
  8
0
100
AcDbEllipse
 62
7
  6
CONTINUOUS
 10
99.8256938189
 20
82.5295039461
 30
0.0
 11
0.0
 21
81.9575151992
 31
0.0
 40
0.3263886165
 41
-1.0286616649
 42
-1.022741378
  0
ELLIPSE
  5
41C
100
AcDbEntity
  8
0
100
AcDbEllipse
 62
7
  6
CONTINUOUS
 10
99.8256938189
 20
110.9976331701
 30
0.0
 11
-0.0
 21
27.3191326527
 31
0.0
 40
0.9791672503
 41
-1.022741378
 42
-1.010835919
  0
ELLIPSE
  5
41D
100
AcDbEntity
  8
0
100
AcDbEllipse
 62
7
  6
CONTINUOUS
 10
99.8256938189
 20
120.6713840508
 30
0.0
 11
26.75
 21
-0.0
 31
0.0
 40
0.3404254913
 41
0.5599604078
 42
0.5779876452
  0
ELLIPSE
  5
41E
100
AcDbEntity
  8
0
100
AcDbEllipse
 62
7
  6
CONTINUOUS
 10
99.8256938189
 20
113.7835273153
 30
0.0
 11
0.0
 21
71.7127712496
 31
0.0
 40
0.3730158455
 41
-1.3521582575
 42
-1.3104670411
  0
ELLIPSE
  5
41F
100
AcDbEntity
  8
0
100
AcDbEllipse
 62
7
  6
CONTINUOUS
 10
99.8256938189
 20
123.1131257644
 30
0.0
 11
26.5
 21
0.0
 31
0.0
 40
0.9118538228
 41
6.1760622873
 42
6.2831851944
  0
ELLIPSE
  5
420
100
AcDbEntity
  8
0
100
AcDbEllipse
 62
7
  6
CONTINUOUS
 10
99.8256938189
 20
132.8947879815
 30
0.0
 11
26.75
 21
0.0
 31
0.0
 40
0.3404254913
 41
0.2342229595
 42
0.2498660262
  0
ELLIPSE
  5
421
100
AcDbEntity
  8
0
100
AcDbEllipse
 62
7
  6
CONTINUOUS
 10
99.8256938189
 20
128.6678410662
 30
0.0
 11
-0.0
 21
27.3191326527
 31
0.0
 40
0.9791672503
 41
-1.3469694894
 42
-1.3365733673
  0
ELLIPSE
  5
422
100
AcDbEntity
  8
0
100
AcDbEllipse
 62
7
  6
CONTINUOUS
 10
99.8256938189
 20
116.5401626972
 30
0.0
 11
0.0
 21
81.9575151992
 31
0.0
 40
0.3263886165
 41
-1.3521582575
 42
-1.3469694894
  0
ELLIPSE
  5
423
100
AcDbEntity
  8
0
100
AcDbEllipse
 62
7
  6
CONTINUOUS
 10
99.8256938189
 20
151.6784906909
 30
0.0
 11
0.0
 21
81.9575151992
 31
0.0
 40
0.3263886165
 41
-1.7946231641
 42
-1.789434396
  0
ELLIPSE
  5
424
100
AcDbEntity
  8
0
100
AcDbEllipse
 62
7
  6
CONTINUOUS
 10
99.8256938189
 20
139.5508123219
 30
0.0
 11
0.0
 21
27.3191326527
 31
0.0
 40
0.9791672503
 41
-1.8050192863
 42
-1.7946231641
  0
ELLIPSE
  5
425
100
AcDbEntity
  8
0
100
AcDbEllipse
 62
7
  6
CONTINUOUS
 10
99.8256938189
 20
135.3238654066
 30
0.0
 11
26.75
 21
0.0
 31
0.0
 40
0.3404254913
 41
-0.2498660262
 42
-0.2342229595
  0
ELLIPSE
  5
426
100
AcDbEntity
  8
0
100
AcDbEllipse
 62
7
  6
CONTINUOUS
 10
99.8256938189
 20
126.8699620566
 30
0.0
 11
0.0
 21
27.0638547404
 31
0.0
 40
0.9791657639
 41
-1.4640686563
 42
-1.443487311
  0
ELLIPSE
  5
427
100
AcDbEntity
  8
0
100
AcDbEllipse
 62
7
  6
CONTINUOUS
 10
99.8256938189
 20
126.4155577177
 30
0.0
 11
26.5
 21
-0.0
 31
0.0
 40
0.1458967187
 41
-0.0558466155
 42
-0.0200485128
  0
ELLIPSE
  5
428
100
AcDbEntity
  8
0
100
AcDbEllipse
 62
7
  6
CONTINUOUS
 10
99.8256938189
 20
130.6607450089
 30
0.0
 11
26.75
 21
-0.0
 31
0.0
 40
0.6808512211
 41
-0.0194716257
 42
-0.0042834925
  0
ELLIPSE
  5
429
100
AcDbEntity
  8
0
100
AcDbEllipse
 62
7
  6
CONTINUOUS
 10
99.8256938189
 20
130.439113752
 30
0.0
 11
26.75
 21
-0.0
 31
0.0
 40
0.2553189968
 41
-0.0397300775
 42
-0.0194716257
  0
ELLIPSE
  5
42A
100
AcDbEntity
  8
0
100
AcDbEllipse
 62
7
  6
CONTINUOUS
 10
99.8256938189
 20
126.9550695846
 30
0.0
 11
26.5
 21
-0.0
 31
0.0
 40
0.510637263
 41
-0.0763319852
 42
-0.0558466155
  0
ELLIPSE
  5
42B
100
AcDbEntity
  8
0
100
AcDbEllipse
 62
7
  6
CONTINUOUS
 10
99.8256938189
 20
127.9869885554
 30
0.0
 11
-0.0
 21
27.0638523711
 31
0.0
 40
0.9791658496
 41
-1.667645774
 42
-1.647128312
  0
ELLIPSE
  5
42C
100
AcDbEntity
  8
0
100
AcDbEllipse
 62
7
  6
CONTINUOUS
 10
99.8256938189
 20
135.8380888862
 30
0.0
 11
0.0
 21
108.2557192067
 31
0.0
 40
0.244790762
 41
-1.6727811807
 42
-1.667645774
  0
ELLIPSE
  5
42D
100
AcDbEntity
  8
0
100
AcDbEllipse
 62
7
  6
CONTINUOUS
 10
99.8256938189
 20
129.0103903441
 30
0.0
 11
26.75
 21
-0.0
 31
0.0
 40
0.2042553906
 41
0.0600048593
 42
0.085384084
  0
ELLIPSE
  5
42E
100
AcDbEntity
  8
0
100
AcDbEllipse
 62
7
  6
CONTINUOUS
 10
99.8256938189
 20
112.2955351869
 30
0.0
 11
0.0
 21
136.5954678622
 31
0.0
 40
0.1958337302
 41
-1.4344710389
 42
-1.4293595021
  0
ELLIPSE
  5
42F
100
AcDbEntity
  8
0
100
AcDbEllipse
 62
7
  6
CONTINUOUS
 10
99.8256938189
 20
123.4337981688
 30
0.0
 11
0.0
 21
54.6382748719
 31
0.0
 40
0.4895835394
 41
-1.4446834935
 42
-1.4344710389
  0
ELLIPSE
  5
430
100
AcDbEntity
  8
0
100
AcDbEllipse
 62
7
  6
CONTINUOUS
 10
99.8256938189
 20
126.8699620566
 30
0.0
 11
-0.0
 21
27.3191741247
 31
0.0
 40
0.9791657639
 41
-1.4650698623
 42
-1.4446834935
  0
ELLIPSE
  5
431
100
AcDbEntity
  8
0
100
AcDbEllipse
 62
7
  6
CONTINUOUS
 10
99.8256938189
 20
128.3114548783
 30
0.0
 11
26.75
 21
-0.0
 31
0.0
 40
0.5106380606
 41
0.085384084
 42
0.1057264645
  0
ENDSEC
  0
SECTION
  2
OBJECTS
  0
DICTIONARY
  5
C
100
AcDbDictionary
280
0
281
1
  3
ACAD_GROUP
350
D
  3
ACAD_MLINESTYLE
350
17
  3
ACAD_LAYOUT
350
1A
  3
ACAD_PLOTSETTINGS
350
19
  3
ACAD_PLOTSTYLENAME
350
E
  0
DICTIONARY
  5
D
102
{ACAD_REACTORS
330
C
102
}
100
AcDbDictionary
280
0
281
1
  0
ACDBDICTIONARYWDFLT
  5
E
102
{ACAD_REACTORS
330
C
102
}
100
AcDbDictionary
281
1
  3
Normal
350
F
100
AcDbDictionaryWithDefault
340
F
  0
DICTIONARY
  5
17
102
{ACAD_REACTORS
330
C
102
}
100
AcDbDictionary
280
0
281
1
  3
Standard
350
18
  0
DICTIONARY
  5
19
102
{ACAD_REACTORS
330
C
102
}
100
AcDbDictionary
281
1
  0
DICTIONARY
  5
1A
102
{ACAD_REACTORS
330
C
102
}
100
AcDbDictionary
281
1
  3
Model
350
432
  3
Layout1
350
433
  0
ACDBPLACEHOLDER
  5
F
102
{ACAD_REACTORS
330
E
102
}
  0
MLINESTYLE
  5
18
102
{ACAD_REACTORS
330
17
102
}
100
AcDbMlineStyle
  2
STANDARD
 70
0
  3

 62
256
 51
90.0
 52
90.0
 71
2
 49
0.5
 62
256
  6
BYLAYER
 49
-0.5
 62
256
  6
BYLAYER
  0
LAYOUT
  5
432
102
{ACAD_REACTORS
330
1A
102
}
100
AcDbPlotSettings
  1

  2
none_device
  4
ISO_A4_(297.00_x_210.00_MM)
  6

 40
0.0
 41
0.0
 42
0.0
 43
0.0
 44
297.0
 45
210.0
 46
0.0
 47
0.0
 48
0.0
 49
0.0
140
0.0
141
0.0
142
1.0
143
1.0
 70
1024
 72
1
 73
0
 74
0
  7

 75
0
147
1.0
148
0.0
149
0.0
100
AcDbLayout
  1
Model
 70
0
 71
0
 10
0.0
 20
0.0
 11
297.0
 21
210.0
 12
0.0
 22
0.0
 32
0.0
 14
0.0
 24
0.0
 34
0.0
 15
0.0
 25
0.0
 35
0.0
146
0.0
 13
0.0
 23
0.0
 33
0.0
 16
1.0
 26
0.0
 36
0.0
 17
0.0
 27
1.0
 37
0.0
 76
0
330
209
345
0
346
0
  0
LAYOUT
  5
433
102
{ACAD_REACTORS
330
1A
102
}
100
AcDbPlotSettings
  1

  2
none_device
  4
ISO_A4_(297.00_x_210.00_MM)
  6

 40
0.0
 41
0.0
 42
0.0
 43
0.0
 44
297.0
 45
210.0
 46
0.0
 47
0.0
 48
0.0
 49
0.0
140
0.0
141
0.0
142
1.0
143
1.0
 70
0
 72
1
 73
0
 74
0
  7

 75
0
147
1.0
148
0.0
149
0.0
100
AcDbLayout
  1
Layout1
 70
0
 71
1
 10
0.0
 20
0.0
 11
297.0
 21
210.0
 12
0.0
 22
0.0
 32
0.0
 14
0.0
 24
0.0
 34
0.0
 15
0.0
 25
0.0
 35
0.0
146
0.0
 13
0.0
 23
0.0
 33
0.0
 16
1.0
 26
0.0
 36
0.0
 17
0.0
 27
1.0
 37
0.0
 76
0
330
20A
345
0
346
0
  0
ENDSEC
  0
EOF
