999
DXF file: 001-m31452-p-50.dxf
999
Pro/ENGINEER 2011490 by Parametric Technology Corporation
  0
SECTION
  2
HEADER
  9
$ACADVER
  1
AC1015
  9
$DWGCODEPAGE
  3
ANSI_1252
  9
$EXTMAX
 10
297.0
 20
210.0
 30
0.0
  9
$EXTMIN
 10
0.0
 20
0.0
 30
0.0
  9
$LIMMIN
 10
0.0
 20
0.0
  9
$LIMMAX
 10
297.0
 20
210.0
  9
$VIEWCTR
 10
148.5
 20
105.0
  9
$VIEWSIZE
 40
210.0
  9
$CLAYER
  8
0
  9
$LTSCALE
 40
16.335
  9
$CELTYPE
  6
BYLAYER
  9
$DIMSCALE
 40
1.0
  9
$DIMASZ
 40
3.5
  9
$DIMEXO
 40
1.85625
  9
$DIMDLI
 40
11.286
  9
$DIMEXE
 40
5.346
  9
$DIMCEN
 40
2.673
  9
$DIMLFAC
 40
1.0
  9
$DIMBLK
  1
_FILLED
  9
$DIMTXT
 40
3.5
  9
$DIMTOL
 70
1
  9
$DIMLIM
 70
0
  9
$DIMTFAC
 40
1.0
  9
$DIMTP
 40
0.005
  9
$DIMTM
 40
0.005
  9
$PDMODE
 70
3
  9
$PDSIZE
 40
0.3125
  9
$HANDSEED
  5
40E
  9
$TILEMODE
 70
1
  9
$MEASUREMENT
 70
1
  9
$INSUNITS
 70
4
  0
ENDSEC
  0
SECTION
  2
CLASSES
  0
CLASS
  1
ACDBDICTIONARYWDFLT
  2
AcDbDictionaryWithDefault
  3
AutoCAD 2000
 90
0
280
0
281
0
  0
CLASS
  1
ACDBPLACEHOLDER
  2
AcDbPlaceHolder
  3
AutoCAD 2000
 90
0
280
0
281
0
  0
CLASS
  1
LAYOUT
  2
AcDbLayout
  3
AutoCAD 2000
 90
0
280
0
281
0
  0
ENDSEC
  0
SECTION
  2
TABLES
  0
TABLE
  2
VPORT
  5
8
100
AcDbSymbolTable
 70
2
  0
VPORT
  5
1F4
100
AcDbSymbolTableRecord
100
AcDbViewportTableRecord
  2
*ACTIVE
 70
0
 10
0.0
 20
0.0
 11
1.0
 21
1.0
 12
148.5
 22
105.0
 13
0.0
 23
0.0
 14
1.0
 24
1.0
 15
0.0
 25
0.0
 16
0.0
 26
0.0
 36
1.0
 17
0.0
 27
0.0
 37
0.0
 40
210.0
 41
1.4142857143
 42
50.0
 43
0.0
 44
0.0
 50
0.0
 51
0.0
 71
0
 72
100
 73
1
 74
1
 75
0
 76
0
 77
0
 78
0
  0
ENDTAB
  0
TABLE
  2
LTYPE
  5
5
100
AcDbSymbolTable
 70
6
  0
LTYPE
  5
14
100
AcDbSymbolTableRecord
100
AcDbLinetypeTableRecord
  2
BYBLOCK
 70
0
  3

 72
65
 73
0
 40
0.0
  0
LTYPE
  5
15
100
AcDbSymbolTableRecord
100
AcDbLinetypeTableRecord
  2
BYLAYER
 70
0
  3

 72
65
 73
0
 40
0.0
  0
LTYPE
  5
16
100
AcDbSymbolTableRecord
100
AcDbLinetypeTableRecord
  2
CONTINUOUS
 70
64
  3
Solid line
 72
65
 73
0
 40
0.0
  0
LTYPE
  5
1F5
100
AcDbSymbolTableRecord
100
AcDbLinetypeTableRecord
  2
CENTER
 70
64
  3
____ _ ____ _ ____ _ ____ _ ____ _ ____ _ ____
 72
65
 73
4
 40
0.6
 49
0.375
 74
0
 49
-0.075
 74
0
 49
0.075
 74
0
 49
-0.075
 74
0
  0
LTYPE
  5
1F6
100
AcDbSymbolTableRecord
100
AcDbLinetypeTableRecord
  2
HIDDEN
 70
64
  3
- - - - - - - - - - - - - - - - - - - -
 72
65
 73
2
 40
0.2
 49
0.1
 74
0
 49
-0.1
 74
0
  0
LTYPE
  5
1F7
100
AcDbSymbolTableRecord
100
AcDbLinetypeTableRecord
  2
PHANTOM
 70
64
  3
_____ _ _ _____ _ _ _____ _ _ _____
 72
65
 73
6
 40
0.8
 49
0.45
 74
0
 49
-0.05
 74
0
 49
0.1
 74
0
 49
-0.05
 74
0
 49
0.1
 74
0
 49
-0.05
 74
0
  0
LTYPE
  5
1F8
100
AcDbSymbolTableRecord
100
AcDbLinetypeTableRecord
  2
DOT
 70
64
  3
. . . . . . . . . . . . . . . . . . . .
 72
65
 73
2
 40
0.2
 49
0.1
 74
0
 49
-0.1
 74
0
  0
LTYPE
  5
1F9
100
AcDbSymbolTableRecord
100
AcDbLinetypeTableRecord
  2
DASHED
 70
64
  3
- - - - - - - - - - - - - - - - - - - -
 72
65
 73
2
 40
0.2
 49
0.1
 74
0
 49
-0.1
 74
0
  0
ENDTAB
  0
TABLE
  2
LAYER
  5
2
100
AcDbSymbolTable
 70
36
  0
LAYER
  5
10
100
AcDbSymbolTableRecord
100
AcDbLayerTableRecord
  2
0
 70
0
 62
7
  6
CONTINUOUS
370
-3
390
F
  0
LAYER
  5
1FA
100
AcDbSymbolTableRecord
100
AcDbLayerTableRecord
  2
DEFAULT_1
 70
0
 62
7
  6
CENTER
370
-3
390
F
  0
LAYER
  5
1FB
100
AcDbSymbolTableRecord
100
AcDbLayerTableRecord
  2
DEFAULT_2
 70
0
 62
8
  6
HIDDEN
370
-3
390
F
  0
LAYER
  5
1FC
100
AcDbSymbolTableRecord
100
AcDbLayerTableRecord
  2
DEFAULT_3
 70
0
 62
7
  6
PHANTOM
370
-3
390
F
  0
LAYER
  5
1FD
100
AcDbSymbolTableRecord
100
AcDbLayerTableRecord
  2
BEZUGSACHSEN
 70
0
 62
7
  6
CONTINUOUS
370
-3
390
F
  0
LAYER
  5
1FE
100
AcDbSymbolTableRecord
100
AcDbLayerTableRecord
  2
BEZUGSEBENEN
 70
0
 62
7
  6
CONTINUOUS
370
-3
390
F
  0
LAYER
  5
1FF
100
AcDbSymbolTableRecord
100
AcDbLayerTableRecord
  2
BG_STARTBEZUEGE
 70
0
 62
7
  6
CONTINUOUS
370
-3
390
F
  0
LAYER
  5
200
100
AcDbSymbolTableRecord
100
AcDbLayerTableRecord
  2
FASEN
 70
0
 62
7
  6
CONTINUOUS
370
-3
390
F
  0
LAYER
  5
201
100
AcDbSymbolTableRecord
100
AcDbLayerTableRecord
  2
HILFEN
 70
0
 62
7
  6
CONTINUOUS
370
-3
390
F
  0
LAYER
  5
202
100
AcDbSymbolTableRecord
100
AcDbLayerTableRecord
  2
NORM
 70
0
 62
7
  6
CONTINUOUS
370
-3
390
F
  0
LAYER
  5
203
100
AcDbSymbolTableRecord
100
AcDbLayerTableRecord
  2
PLATZIERUNG
 70
0
 62
7
  6
CONTINUOUS
370
-3
390
F
  0
LAYER
  5
204
100
AcDbSymbolTableRecord
100
AcDbLayerTableRecord
  2
RUNDUNGEN
 70
0
 62
7
  6
CONTINUOUS
370
-3
390
F
  0
LAYER
  5
205
100
AcDbSymbolTableRecord
100
AcDbLayerTableRecord
  2
T_STARTBEZUEGE
 70
0
 62
7
  6
CONTINUOUS
370
-3
390
F
  0
LAYER
  5
206
100
AcDbSymbolTableRecord
100
AcDbLayerTableRecord
  2
ZEICHNUNGSBEMASSUNGEN
 70
0
 62
7
  6
CONTINUOUS
370
-3
390
F
  0
ENDTAB
  0
TABLE
  2
STYLE
  5
3
100
AcDbSymbolTable
 70
1
  0
STYLE
  5
11
100
AcDbSymbolTableRecord
100
AcDbTextStyleTableRecord
  2
STANDARD
 70
0
 40
0.0
 41
0.7
 50
0.0
 71
0
 42
0.2
  3
txt
  4

  0
STYLE
  5
207
100
AcDbSymbolTableRecord
100
AcDbTextStyleTableRecord
  2
TEXTSTYLE_1
 70
0
 40
0.0
 41
0.8
 50
0.0
 71
0
 42
0.2
  3
gdt
  4

  0
ENDTAB
  0
TABLE
  2
VIEW
  5
6
100
AcDbSymbolTable
 70
0
  0
ENDTAB
  0
TABLE
  2
UCS
  5
7
100
AcDbSymbolTable
 70
0
  0
ENDTAB
  0
TABLE
  2
APPID
  5
9
100
AcDbSymbolTable
 70
1
  0
APPID
  5
208
100
AcDbSymbolTableRecord
100
AcDbRegAppTableRecord
  2
ACAD
 70
0
  0
ENDTAB
  0
TABLE
  2
BLOCK_RECORD
  5
1
100
AcDbSymbolTable
 70
0
  0
BLOCK_RECORD
  5
209
100
AcDbSymbolTableRecord
100
AcDbBlockTableRecord
  2
*Model_Space
  0
BLOCK_RECORD
  5
20A
100
AcDbSymbolTableRecord
100
AcDbBlockTableRecord
  2
*Paper_Space
  0
ENDTAB
  0
TABLE
  2
DIMSTYLE
  5
A
100
AcDbSymbolTable
 70
1
100
AcDbDimStyleTable
 71
0
  0
DIMSTYLE
105
20B
100
AcDbSymbolTableRecord
100
AcDbDimStyleTableRecord
  2
STANDARD
 70
0
  3

  4

 40
1.0
 41
3.5
 42
0.0625
 43
0.38
 44
0.18
 45
0.0
 46
0.0
 47
0.005
 48
0.005
140
3.5
141
0.09
142
0.0
143
25.4
144
1.0
145
0.0
146
1.0
147
0.09
 71
1.0
 72
0.0
 73
0
 74
0
 75
0
 76
0
 77
1
 78
8
170
0
171
2
172
0
173
0
174
0
175
0
176
0
177
0
178
5
270
2
271
3
272
3
273
2
274
2
275
0
280
0
281
0
282
0
283
1
284
8
285
0
286
0
287
3
288
0
340
11
  0
ENDTAB
  0
ENDSEC
  0
SECTION
  2
BLOCKS
  0
BLOCK
  5
20
100
AcDbEntity
  8
0
100
AcDbBlockBegin
  2
*Model_Space
 70
0
 10
0.0
 20
0.0
 30
0.0
  3
*Model_Space
  1

  0
ENDBLK
  5
21
100
AcDbEntity
  8
0
100
AcDbBlockEnd
  0
BLOCK
  5
1C
100
AcDbEntity
  8
0
100
AcDbBlockBegin
  2
*Paper_Space
 70
0
 10
0.0
 20
0.0
 30
0.0
  3
*Paper_Space
  1

  0
ENDBLK
  5
1D
100
AcDbEntity
  8
0
100
AcDbBlockEnd
  0
ENDSEC
  0
SECTION
  2
ENTITIES
  0
MTEXT
  5
20C
100
AcDbEntity
  8
0
100
AcDbMText
 62
5
  6
CONTINUOUS
  7
STANDARD
 71
2
 72
1
 10
101.4377145994
 20
55.2184796939
 30
0.0
 11
0.0
 21
1.0
 31
0.0
 44
0.9
  1
RUD WPPH\PVIP-6 1,5t
 40
5.0
 41
35.8333333333
  0
MTEXT
  5
20D
100
AcDbEntity
  8
0
100
AcDbMText
 62
5
  6
CONTINUOUS
  7
STANDARD
 71
2
 72
1
 10
195.8952320191
 20
135.0445929395
 30
0.0
 11
1.0
 21
0.0
 31
0.0
 44
0.9
  1
RUD\PWPPH 1.5t
 40
4.0
 41
27.7142857143
  0
LINE
  5
20E
100
AcDbEntity
  8
0
100
AcDbLine
 62
7
  6
CONTINUOUS
 10
0.0
 20
0.0
 11
0.0
 21
210.0
  0
LINE
  5
20F
100
AcDbEntity
  8
0
100
AcDbLine
 62
7
  6
CONTINUOUS
 10
0.0
 20
0.0
 11
297.0
 21
0.0
  0
LINE
  5
210
100
AcDbEntity
  8
0
100
AcDbLine
 62
7
  6
CONTINUOUS
 10
0.0
 20
210.0
 11
297.0
 21
210.0
  0
LINE
  5
211
100
AcDbEntity
  8
0
100
AcDbLine
 62
7
  6
CONTINUOUS
 10
297.0
 20
0.0
 11
297.0
 21
210.0
  0
LINE
  5
212
100
AcDbEntity
  8
0
100
AcDbLine
 62
7
  6
CONTINUOUS
 10
88.14630018
 20
117.908019293
 11
87.64630018
 21
118.408019293
  0
LINE
  5
213
100
AcDbEntity
  8
0
100
AcDbLine
 62
7
  6
CONTINUOUS
 10
88.1466366432
 20
117.908019293
 11
126.6459637168
 21
117.908019293
  0
LINE
  5
214
100
AcDbEntity
  8
0
100
AcDbLine
 62
7
  6
CONTINUOUS
 10
127.14630018
 20
118.408019293
 11
87.64630018
 21
118.408019293
  0
LINE
  5
215
100
AcDbEntity
  8
0
100
AcDbLine
 62
7
  6
CONTINUOUS
 10
123.0826796221
 20
123.408019293
 11
123.9322458742
 21
123.408019293
  0
LINE
  5
216
100
AcDbEntity
  8
0
100
AcDbLine
 62
7
  6
CONTINUOUS
 10
126.0891296876
 20
123.408019293
 11
126.588990846
 21
123.408019293
  0
LINE
  5
217
100
AcDbEntity
  8
0
100
AcDbLine
 62
7
  6
CONTINUOUS
 10
127.14630018
 20
123.408019293
 11
127.2063355819
 21
123.408019293
  0
LINE
  5
218
100
AcDbEntity
  8
0
100
AcDbLine
 62
7
  6
CONTINUOUS
 10
127.132054536
 20
125.5782319791
 11
127.3963000004
 21
125.5782319791
  0
LINE
  5
219
100
AcDbEntity
  8
0
100
AcDbLine
 62
7
  6
CONTINUOUS
 10
87.64630018
 20
140.608019293
 11
87.64630018
 21
118.408019293
  0
LINE
  5
21A
100
AcDbEntity
  8
0
100
AcDbLine
 62
7
  6
CONTINUOUS
 10
127.1094778792
 20
126.0888703949
 11
126.588990846
 21
126.0888703949
  0
LINE
  5
21B
100
AcDbEntity
  8
0
100
AcDbLine
 62
7
  6
CONTINUOUS
 10
125.2568712795
 20
126.0888703949
 11
123.9322458742
 21
126.0888703949
  0
LINE
  5
21C
100
AcDbEntity
  8
0
100
AcDbLine
 62
7
  6
CONTINUOUS
 10
127.2063354826
 20
126.2165299541
 11
127.3963000004
 21
126.2165299541
  0
LINE
  5
21D
100
AcDbEntity
  8
0
100
AcDbLine
 62
7
  6
CONTINUOUS
 10
127.1304710911
 20
126.8548277504
 11
126.588990846
 21
126.8548277504
  0
LINE
  5
21E
100
AcDbEntity
  8
0
100
AcDbLine
 62
7
  6
CONTINUOUS
 10
125.3193125631
 20
126.8548277504
 11
123.9322458742
 21
126.8548277504
  0
LINE
  5
21F
100
AcDbEntity
  8
0
100
AcDbLine
 62
7
  6
CONTINUOUS
 10
125.2235966092
 20
126.9824873096
 11
125.5001671143
 21
126.9824873096
  0
LINE
  5
220
100
AcDbEntity
  8
0
100
AcDbLine
 62
7
  6
CONTINUOUS
 10
126.9359234203
 20
126.9824873096
 11
127.1885809069
 21
126.9824873096
  0
LINE
  5
221
100
AcDbEntity
  8
0
100
AcDbLine
 62
7
  6
CONTINUOUS
 10
125.3406586249
 20
127.2378064281
 11
125.615452191
 21
127.2378064281
  0
LINE
  5
222
100
AcDbEntity
  8
0
100
AcDbLine
 62
7
  6
CONTINUOUS
 10
126.9710766794
 20
127.2378064281
 11
127.2232862092
 21
127.2378064281
  0
LINE
  5
223
100
AcDbEntity
  8
0
100
AcDbLine
 62
7
  6
CONTINUOUS
 10
125.3976021624
 20
127.6207851059
 11
125.6715395235
 21
127.6207851059
  0
LINE
  5
224
100
AcDbEntity
  8
0
100
AcDbLine
 62
7
  6
CONTINUOUS
 10
126.9874334089
 20
127.6207851059
 11
127.239435043
 21
127.6207851059
  0
LINE
  5
225
100
AcDbEntity
  8
0
100
AcDbLine
 62
7
  6
CONTINUOUS
 10
125.3976021624
 20
128.0037641413
 11
125.6715395235
 21
128.0037641413
  0
LINE
  5
226
100
AcDbEntity
  8
0
100
AcDbLine
 62
7
  6
CONTINUOUS
 10
126.9874334089
 20
128.0037641413
 11
127.239435043
 21
128.0037641413
  0
LINE
  5
227
100
AcDbEntity
  8
0
100
AcDbLine
 62
7
  6
CONTINUOUS
 10
125.3406586249
 20
128.386742819
 11
125.615452191
 21
128.386742819
  0
LINE
  5
228
100
AcDbEntity
  8
0
100
AcDbLine
 62
7
  6
CONTINUOUS
 10
126.9710766794
 20
128.386742819
 11
127.2232862092
 21
128.386742819
  0
LINE
  5
229
100
AcDbEntity
  8
0
100
AcDbLine
 62
7
  6
CONTINUOUS
 10
125.2235966092
 20
128.6420619375
 11
125.5001671143
 21
128.6420619375
  0
LINE
  5
22A
100
AcDbEntity
  8
0
100
AcDbLine
 62
7
  6
CONTINUOUS
 10
126.9359234203
 20
128.6420619375
 11
127.1885809069
 21
128.6420619375
  0
LINE
  5
22B
100
AcDbEntity
  8
0
100
AcDbLine
 62
7
  6
CONTINUOUS
 10
127.1304710911
 20
128.7697214968
 11
126.588990846
 21
128.7697214968
  0
LINE
  5
22C
100
AcDbEntity
  8
0
100
AcDbLine
 62
7
  6
CONTINUOUS
 10
125.3193125631
 20
128.7697214968
 11
123.9322458742
 21
128.7697214968
  0
LINE
  5
22D
100
AcDbEntity
  8
0
100
AcDbLine
 62
7
  6
CONTINUOUS
 10
123.0826796221
 20
129.408019293
 11
125.2568712795
 21
129.408019293
  0
LINE
  5
22E
100
AcDbEntity
  8
0
100
AcDbLine
 62
7
  6
CONTINUOUS
 10
126.0891296876
 20
129.408019293
 11
127.1094778792
 21
129.408019293
  0
LINE
  5
22F
100
AcDbEntity
  8
0
100
AcDbLine
 62
7
  6
CONTINUOUS
 10
127.14630018
 20
129.408019293
 11
127.2063355819
 21
129.408019293
  0
LINE
  5
230
100
AcDbEntity
  8
0
100
AcDbLine
 62
7
  6
CONTINUOUS
 10
125.4535009597
 20
130.408019293
 11
126.0359756064
 21
130.408019293
  0
LINE
  5
231
100
AcDbEntity
  8
0
100
AcDbLine
 62
7
  6
CONTINUOUS
 10
126.71072158
 20
130.408019293
 11
127.1304710715
 21
130.408019293
  0
LINE
  5
232
100
AcDbEntity
  8
0
100
AcDbLine
 62
7
  6
CONTINUOUS
 10
127.1447178351
 20
130.408019293
 11
127.394737616
 21
130.408019293
  0
LINE
  5
233
100
AcDbEntity
  8
0
100
AcDbLine
 62
7
  6
CONTINUOUS
 10
127.1269077479
 20
130.5356788634
 11
127.3771503871
 21
130.5356788634
  0
LINE
  5
234
100
AcDbEntity
  8
0
100
AcDbLine
 62
7
  6
CONTINUOUS
 10
127.0983780995
 20
130.7909980155
 11
127.3489785552
 21
130.7909980155
  0
LINE
  5
235
100
AcDbEntity
  8
0
100
AcDbLine
 62
7
  6
CONTINUOUS
 10
127.39630018
 20
131.1739767379
 11
127.394737616
 21
131.1739767379
  0
LINE
  5
236
100
AcDbEntity
  8
0
100
AcDbLine
 62
7
  6
CONTINUOUS
 10
127.0706692764
 20
131.3016362972
 11
127.308215605
 21
131.3016362972
  0
LINE
  5
237
100
AcDbEntity
  8
0
100
AcDbLine
 62
7
  6
CONTINUOUS
 10
127.0316477834
 20
131.8122746236
 11
127.2830891492
 21
131.8122746236
  0
LINE
  5
238
100
AcDbEntity
  8
0
100
AcDbLine
 62
7
  6
CONTINUOUS
 10
127.0177170367
 20
132.4505724198
 11
127.2693346605
 21
132.4505724198
  0
LINE
  5
239
100
AcDbEntity
  8
0
100
AcDbLine
 62
7
  6
CONTINUOUS
 10
126.7285109793
 20
133.0888703949
 11
126.0359756064
 21
133.0888703949
  0
LINE
  5
23A
100
AcDbEntity
  8
0
100
AcDbLine
 62
7
  6
CONTINUOUS
 10
126.7930621221
 20
133.8548277504
 11
126.0359756064
 21
133.8548277504
  0
LINE
  5
23B
100
AcDbEntity
  8
0
100
AcDbLine
 62
7
  6
CONTINUOUS
 10
126.6268097657
 20
133.9824873096
 11
126.8834754224
 21
133.9824873096
  0
LINE
  5
23C
100
AcDbEntity
  8
0
100
AcDbLine
 62
7
  6
CONTINUOUS
 10
126.683601702
 20
134.2378064281
 11
126.9395215112
 21
134.2378064281
  0
LINE
  5
23D
100
AcDbEntity
  8
0
100
AcDbLine
 62
7
  6
CONTINUOUS
 10
126.71072158
 20
134.6207851059
 11
126.9662867415
 21
134.6207851059
  0
LINE
  5
23E
100
AcDbEntity
  8
0
100
AcDbLine
 62
7
  6
CONTINUOUS
 10
126.71072158
 20
135.0037641413
 11
126.9662867415
 21
135.0037641413
  0
LINE
  5
23F
100
AcDbEntity
  8
0
100
AcDbLine
 62
7
  6
CONTINUOUS
 10
97.89630018
 20
148.928019293
 11
97.89630018
 21
151.4280192334
  0
LINE
  5
240
100
AcDbEntity
  8
0
100
AcDbLine
 62
7
  6
CONTINUOUS
 10
97.89630018
 20
151.928019293
 11
97.89630018
 21
155.115519293
  0
LINE
  5
241
100
AcDbEntity
  8
0
100
AcDbLine
 62
7
  6
CONTINUOUS
 10
97.89630018
 20
155.6377265545
 11
97.89630018
 21
157.8373302602
  0
LINE
  5
242
100
AcDbEntity
  8
0
100
AcDbLine
 62
7
  6
CONTINUOUS
 10
97.89630018
 20
158.6155195314
 11
97.89630018
 21
160.8655195314
  0
LINE
  5
243
100
AcDbEntity
  8
RUNDUNGEN
100
AcDbLine
 62
7
  6
CONTINUOUS
 10
98.39630018
 20
147.608019293
 11
98.39630018
 21
166.108019293
  0
LINE
  5
244
100
AcDbEntity
  8
0
100
AcDbLine
 62
7
  6
CONTINUOUS
 10
126.683601702
 20
135.386742819
 11
126.9395215112
 21
135.386742819
  0
LINE
  5
245
100
AcDbEntity
  8
0
100
AcDbLine
 62
7
  6
CONTINUOUS
 10
126.6268097657
 20
135.6420619375
 11
126.8834754224
 21
135.6420619375
  0
LINE
  5
246
100
AcDbEntity
  8
0
100
AcDbLine
 62
7
  6
CONTINUOUS
 10
126.7930621221
 20
135.7697214968
 11
126.0359756064
 21
135.7697214968
  0
LINE
  5
247
100
AcDbEntity
  8
0
100
AcDbLine
 62
7
  6
CONTINUOUS
 10
125.4535009597
 20
136.408019293
 11
126.761216911
 21
136.408019293
  0
LINE
  5
248
100
AcDbEntity
  8
0
100
AcDbLine
 62
7
  6
CONTINUOUS
 10
127.0177170367
 20
136.408019293
 11
127.3399708731
 21
136.408019293
  0
LINE
  5
249
100
AcDbEntity
  8
RUNDUNGEN
100
AcDbLine
 62
7
  6
CONTINUOUS
 10
125.14630018
 20
142.608019293
 11
121.3962973519
 21
142.608019293
  0
LINE
  5
24A
100
AcDbEntity
  8
RUNDUNGEN
100
AcDbLine
 62
7
  6
CONTINUOUS
 10
93.39633135
 20
142.608019293
 11
89.64630018
 21
142.608019293
  0
LINE
  5
24B
100
AcDbEntity
  8
0
100
AcDbLine
 62
7
  6
CONTINUOUS
 10
98.39630018
 20
148.928019293
 11
97.89630018
 21
148.928019293
  0
LINE
  5
24C
100
AcDbEntity
  8
0
100
AcDbLine
 62
7
  6
CONTINUOUS
 10
98.39630018
 20
149.9280193228
 11
97.89630018
 21
149.9280193228
  0
LINE
  5
24D
100
AcDbEntity
  8
0
100
AcDbLine
 62
7
  6
CONTINUOUS
 10
98.39630018
 20
150.428019293
 11
97.89630018
 21
150.428019293
  0
LINE
  5
24E
100
AcDbEntity
  8
0
100
AcDbLine
 62
7
  6
CONTINUOUS
 10
98.39630018
 20
151.4280192334
 11
97.89630018
 21
151.4280192334
  0
LINE
  5
24F
100
AcDbEntity
  8
RUNDUNGEN
100
AcDbLine
 62
7
  6
CONTINUOUS
 10
118.2482658813
 20
143.7234637213
 11
118.1787655819
 21
143.7808144106
  0
LINE
  5
250
100
AcDbEntity
  8
0
100
AcDbLine
 62
7
  6
CONTINUOUS
 10
98.396300836
 20
151.928019293
 11
97.89630018
 21
151.928019293
  0
LINE
  5
251
100
AcDbEntity
  8
0
100
AcDbLine
 62
7
  6
CONTINUOUS
 10
98.39630018
 20
152.2373302602
 11
97.89630018
 21
152.2373302602
  0
LINE
  5
252
100
AcDbEntity
  8
RUNDUNGEN
100
AcDbLine
 62
7
  6
CONTINUOUS
 10
116.39630018
 20
147.608019293
 11
116.39630018
 21
166.108019293
  0
LINE
  5
253
100
AcDbEntity
  8
0
100
AcDbLine
 62
7
  6
CONTINUOUS
 10
98.39630018
 20
154.4373302602
 11
97.89630018
 21
154.4373302602
  0
LINE
  5
254
100
AcDbEntity
  8
0
100
AcDbLine
 62
7
  6
CONTINUOUS
 10
98.39630018
 20
154.6155194122
 11
97.89630018
 21
154.6155194122
  0
LINE
  5
255
100
AcDbEntity
  8
0
100
AcDbLine
 62
7
  6
CONTINUOUS
 10
98.39630018
 20
154.8655191738
 11
97.89630018
 21
154.8655191738
  0
LINE
  5
256
100
AcDbEntity
  8
0
100
AcDbLine
 62
7
  6
CONTINUOUS
 10
98.39630018
 20
155.0530195314
 11
97.89630018
 21
155.0530195314
  0
LINE
  5
257
100
AcDbEntity
  8
0
100
AcDbLine
 62
7
  6
CONTINUOUS
 10
98.39630018
 20
155.115519293
 11
97.89630018
 21
155.115519293
  0
LINE
  5
258
100
AcDbEntity
  8
0
100
AcDbLine
 62
7
  6
CONTINUOUS
 10
98.39630018
 20
155.6373302602
 11
97.89630018
 21
155.6373302602
  0
LINE
  5
259
100
AcDbEntity
  8
0
100
AcDbLine
 62
7
  6
CONTINUOUS
 10
98.39630018
 20
157.8373302602
 11
97.89630018
 21
157.8373302602
  0
LINE
  5
25A
100
AcDbEntity
  8
0
100
AcDbLine
 62
7
  6
CONTINUOUS
 10
98.39630018
 20
158.6155195314
 11
97.89630018
 21
158.6155195314
  0
LINE
  5
25B
100
AcDbEntity
  8
0
100
AcDbLine
 62
7
  6
CONTINUOUS
 10
98.39630018
 20
158.678019293
 11
97.89630018
 21
158.678019293
  0
LINE
  5
25C
100
AcDbEntity
  8
0
100
AcDbLine
 62
7
  6
CONTINUOUS
 10
98.39630018
 20
158.8030195314
 11
97.89630018
 21
158.8030195314
  0
LINE
  5
25D
100
AcDbEntity
  8
0
100
AcDbLine
 62
7
  6
CONTINUOUS
 10
98.39630018
 20
158.9905195314
 11
97.89630018
 21
158.9905195314
  0
LINE
  5
25E
100
AcDbEntity
  8
0
100
AcDbLine
 62
7
  6
CONTINUOUS
 10
98.39630018
 20
159.3030190546
 11
97.89630018
 21
159.3030190546
  0
LINE
  5
25F
100
AcDbEntity
  8
0
100
AcDbLine
 62
7
  6
CONTINUOUS
 10
98.39630018
 20
159.615519293
 11
97.89630018
 21
159.615519293
  0
LINE
  5
260
100
AcDbEntity
  8
0
100
AcDbLine
 62
7
  6
CONTINUOUS
 10
98.39630018
 20
159.9280195314
 11
97.89630018
 21
159.9280195314
  0
LINE
  5
261
100
AcDbEntity
  8
0
100
AcDbLine
 62
7
  6
CONTINUOUS
 10
98.39630018
 20
160.2405190546
 11
97.89630018
 21
160.2405190546
  0
LINE
  5
262
100
AcDbEntity
  8
0
100
AcDbLine
 62
7
  6
CONTINUOUS
 10
98.39630018
 20
160.553019293
 11
97.89630018
 21
160.553019293
  0
LINE
  5
263
100
AcDbEntity
  8
0
100
AcDbLine
 62
7
  6
CONTINUOUS
 10
98.39630018
 20
160.740519293
 11
97.89630018
 21
160.740519293
  0
LINE
  5
264
100
AcDbEntity
  8
0
100
AcDbLine
 62
7
  6
CONTINUOUS
 10
123.0826796221
 20
129.408019293
 11
123.0826796221
 21
123.408019293
  0
LINE
  5
265
100
AcDbEntity
  8
0
100
AcDbLine
 62
7
  6
CONTINUOUS
 10
123.39630018
 20
129.408019293
 11
123.39630018
 21
123.408019293
  0
LINE
  5
266
100
AcDbEntity
  8
0
100
AcDbLine
 62
7
  6
CONTINUOUS
 10
123.9322458742
 20
128.7697214968
 11
123.9322458742
 21
126.8548277504
  0
LINE
  5
267
100
AcDbEntity
  8
0
100
AcDbLine
 62
7
  6
CONTINUOUS
 10
123.9322458742
 20
126.0888703949
 11
123.9322458742
 21
123.408019293
  0
LINE
  5
268
100
AcDbEntity
  8
0
100
AcDbLine
 62
7
  6
CONTINUOUS
 10
98.39630018
 20
160.8655195314
 11
97.89630018
 21
160.8655195314
  0
LINE
  5
269
100
AcDbEntity
  8
0
100
AcDbLine
 62
7
  6
CONTINUOUS
 10
125.3976021624
 20
128.0037641413
 11
125.3976021624
 21
127.6207851059
  0
LINE
  5
26A
100
AcDbEntity
  8
0
100
AcDbLine
 62
7
  6
CONTINUOUS
 10
125.4535009597
 20
136.408019293
 11
125.4535009597
 21
130.408019293
  0
LINE
  5
26B
100
AcDbEntity
  8
0
100
AcDbLine
 62
7
  6
CONTINUOUS
 10
125.6715395235
 20
128.0037641413
 11
125.6715395235
 21
127.6207851059
  0
LINE
  5
26C
100
AcDbEntity
  8
0
100
AcDbLine
 62
7
  6
CONTINUOUS
 10
125.7266029598
 20
136.408019293
 11
125.7266029598
 21
130.408019293
  0
LINE
  5
26D
100
AcDbEntity
  8
0
100
AcDbLine
 62
7
  6
CONTINUOUS
 10
125.9868723402
 20
128.0037641413
 11
125.9868723402
 21
127.4931255466
  0
LINE
  5
26E
100
AcDbEntity
  8
0
100
AcDbLine
 62
7
  6
CONTINUOUS
 10
126.0359756064
 20
135.7697214968
 11
126.0359756064
 21
133.8548277504
  0
LINE
  5
26F
100
AcDbEntity
  8
0
100
AcDbLine
 62
7
  6
CONTINUOUS
 10
126.0359756064
 20
133.0888703949
 11
126.0359756064
 21
130.408019293
  0
LINE
  5
270
100
AcDbEntity
  8
0
100
AcDbLine
 62
7
  6
CONTINUOUS
 10
126.0891296876
 20
129.408019293
 11
126.0891296876
 21
123.408019293
  0
LINE
  5
271
100
AcDbEntity
  8
0
100
AcDbLine
 62
7
  6
CONTINUOUS
 10
126.3530766729
 20
129.408019293
 11
126.3530766729
 21
123.408019293
  0
LINE
  5
272
100
AcDbEntity
  8
0
100
AcDbLine
 62
7
  6
CONTINUOUS
 10
126.588990846
 20
128.7697214968
 11
126.588990846
 21
126.8548277504
  0
LINE
  5
273
100
AcDbEntity
  8
0
100
AcDbLine
 62
7
  6
CONTINUOUS
 10
126.588990846
 20
126.0888703949
 11
126.588990846
 21
123.408019293
  0
LINE
  5
274
100
AcDbEntity
  8
0
100
AcDbLine
 62
7
  6
CONTINUOUS
 10
126.71072158
 20
135.0037641413
 11
126.71072158
 21
134.6207851059
  0
LINE
  5
275
100
AcDbEntity
  8
0
100
AcDbLine
 62
7
  6
CONTINUOUS
 10
126.9662867415
 20
135.0037641413
 11
126.9662867415
 21
134.6207851059
  0
LINE
  5
276
100
AcDbEntity
  8
0
100
AcDbLine
 62
7
  6
CONTINUOUS
 10
126.9874334089
 20
128.0037641413
 11
126.9874334089
 21
127.6207851059
  0
LINE
  5
277
100
AcDbEntity
  8
0
100
AcDbLine
 62
7
  6
CONTINUOUS
 10
127.0177170367
 20
136.408019293
 11
127.0177170367
 21
135.897381056
  0
LINE
  5
278
100
AcDbEntity
  8
0
100
AcDbLine
 62
7
  6
CONTINUOUS
 10
127.0177170367
 20
133.5995086319
 11
127.0177170367
 21
132.4505724198
  0
LINE
  5
279
100
AcDbEntity
  8
0
100
AcDbLine
 62
7
  6
CONTINUOUS
 10
127.1094778588
 20
135.0037641413
 11
127.1094778588
 21
134.4931255466
  0
LINE
  5
27A
100
AcDbEntity
  8
0
100
AcDbLine
 62
7
  6
CONTINUOUS
 10
127.132054536
 20
126.1164605043
 11
127.132054536
 21
125.5782319791
  0
LINE
  5
27B
100
AcDbEntity
  8
0
100
AcDbLine
 62
7
  6
CONTINUOUS
 10
127.14630018
 20
140.608019293
 11
127.14630018
 21
136.408019293
  0
LINE
  5
27C
100
AcDbEntity
  8
0
100
AcDbLine
 62
7
  6
CONTINUOUS
 10
127.14630018
 20
130.408019293
 11
127.14630018
 21
129.3623491303
  0
LINE
  5
27D
100
AcDbEntity
  8
0
100
AcDbLine
 62
7
  6
CONTINUOUS
 10
127.14630018
 20
125.5782319791
 11
127.14630018
 21
118.408019293
  0
LINE
  5
27E
100
AcDbEntity
  8
0
100
AcDbLine
 62
7
  6
CONTINUOUS
 10
127.2063355819
 20
123.408019293
 11
127.2063355819
 21
125.5782319791
  0
LINE
  5
27F
100
AcDbEntity
  8
0
100
AcDbLine
 62
7
  6
CONTINUOUS
 10
127.239435043
 20
128.0037641413
 11
127.239435043
 21
127.6207851059
  0
LINE
  5
280
100
AcDbEntity
  8
0
100
AcDbLine
 62
7
  6
CONTINUOUS
 10
127.2693346605
 20
136.408019293
 11
127.2693346605
 21
132.4505724198
  0
LINE
  5
281
100
AcDbEntity
  8
0
100
AcDbLine
 62
7
  6
CONTINUOUS
 10
127.3195905918
 20
128.0037641413
 11
127.3195905918
 21
127.4931255466
  0
LINE
  5
282
100
AcDbEntity
  8
0
100
AcDbLine
 62
7
  6
CONTINUOUS
 10
127.3399708731
 20
136.408019293
 11
127.3399708731
 21
132.4505724198
  0
LINE
  5
283
100
AcDbEntity
  8
0
100
AcDbLine
 62
7
  6
CONTINUOUS
 10
127.3822327327
 20
126.2165299541
 11
127.3822327327
 21
125.5782319791
  0
LINE
  5
284
100
AcDbEntity
  8
0
100
AcDbLine
 62
7
  6
CONTINUOUS
 10
127.39630018
 20
131.1739767379
 11
127.39630018
 21
130.408019293
  0
LINE
  5
285
100
AcDbEntity
  8
0
100
AcDbLine
 62
7
  6
CONTINUOUS
 10
127.39630018
 20
126.2165299541
 11
127.39630018
 21
125.5782319791
  0
LINE
  5
286
100
AcDbEntity
  8
0
100
AcDbLine
 62
7
  6
CONTINUOUS
 10
126.64630018
 20
117.908019293
 11
127.14630018
 21
118.408019293
  0
LINE
  5
287
100
AcDbEntity
  8
0
100
AcDbLine
 62
7
  6
CONTINUOUS
 10
177.2851882451
 20
117.908019293
 11
176.7851882451
 21
118.408019293
  0
LINE
  5
288
100
AcDbEntity
  8
0
100
AcDbLine
 62
7
  6
CONTINUOUS
 10
177.2851882451
 20
117.908019293
 11
215.7851882451
 21
117.908019293
  0
LINE
  5
289
100
AcDbEntity
  8
0
100
AcDbLine
 62
7
  6
CONTINUOUS
 10
216.2851882451
 20
118.408019293
 11
176.7851882451
 21
118.408019293
  0
LINE
  5
28A
100
AcDbEntity
  8
RUNDUNGEN
100
AcDbLine
 62
7
  6
CONTINUOUS
 10
182.8665131106
 20
174.6080192932
 11
181.8700573733
 21
172.8821073287
  0
LINE
  5
28B
100
AcDbEntity
  8
0
100
AcDbLine
 62
7
  6
CONTINUOUS
 10
176.7851882451
 20
150.8400701006
 11
176.7851882451
 21
118.408019293
  0
LINE
  5
28C
100
AcDbEntity
  8
RUNDUNGEN
100
AcDbLine
 62
7
  6
CONTINUOUS
 10
181.0662771584
 20
158.5230828025
 11
176.9191628413
 21
151.3400701006
  0
LINE
  5
28D
100
AcDbEntity
  8
0
100
AcDbLine
 62
7
  6
CONTINUOUS
 10
184.0458264821
 20
160.6780195314
 11
183.7905073636
 21
160.4905195314
  0
LINE
  5
28E
100
AcDbEntity
  8
0
100
AcDbLine
 62
7
  6
CONTINUOUS
 10
184.0458264821
 20
160.3030195314
 11
184.237315821
 21
160.4280190546
  0
LINE
  5
28F
100
AcDbEntity
  8
0
100
AcDbLine
 62
7
  6
CONTINUOUS
 10
183.8543371432
 20
159.9280195314
 11
183.9181669229
 21
160.1155195314
  0
LINE
  5
290
100
AcDbEntity
  8
0
100
AcDbLine
 62
7
  6
CONTINUOUS
 10
183.7905073636
 20
160.4905195314
 11
183.5990180247
 21
160.178019293
  0
LINE
  5
291
100
AcDbEntity
  8
0
100
AcDbLine
 62
7
  6
CONTINUOUS
 10
184.8756137961
 20
160.553019293
 11
184.6841244572
 21
160.2405190546
  0
LINE
  5
292
100
AcDbEntity
  8
0
100
AcDbLine
 62
7
  6
CONTINUOUS
 10
183.9181669229
 20
160.1155195314
 11
184.0458264821
 21
160.3030195314
  0
LINE
  5
293
100
AcDbEntity
  8
0
100
AcDbLine
 62
7
  6
CONTINUOUS
 10
185.0032733553
 20
160.178019293
 11
185.1309329146
 21
160.365519293
  0
LINE
  5
294
100
AcDbEntity
  8
0
100
AcDbLine
 62
7
  6
CONTINUOUS
 10
185.0671031349
 20
160.740519293
 11
184.8756137961
 21
160.553019293
  0
LINE
  5
295
100
AcDbEntity
  8
0
100
AcDbLine
 62
7
  6
CONTINUOUS
 10
185.1309329146
 20
160.365519293
 11
185.2585924738
 21
160.4905195314
  0
LINE
  5
296
100
AcDbEntity
  8
0
100
AcDbLine
 62
7
  6
CONTINUOUS
 10
186.0245499634
 20
158.8030195314
 11
186.2798691043
 21
158.9905195314
  0
LINE
  5
297
100
AcDbEntity
  8
0
100
AcDbLine
 62
7
  6
CONTINUOUS
 10
186.0245499634
 20
159.1780195314
 11
185.8330605798
 21
159.053019293
  0
LINE
  5
298
100
AcDbEntity
  8
0
100
AcDbLine
 62
7
  6
CONTINUOUS
 10
185.3862520331
 20
160.8655195314
 11
185.0671031349
 21
160.740519293
  0
LINE
  5
299
100
AcDbEntity
  8
0
100
AcDbLine
 62
7
  6
CONTINUOUS
 10
184.237315821
 20
160.740519293
 11
184.0458264821
 21
160.6780195314
  0
LINE
  5
29A
100
AcDbEntity
  8
0
100
AcDbLine
 62
7
  6
CONTINUOUS
 10
185.2585924738
 20
160.4905195314
 11
185.4500819021
 21
160.553019293
  0
LINE
  5
29B
100
AcDbEntity
  8
RUNDUNGEN
100
AcDbLine
 62
7
  6
CONTINUOUS
 10
181.5351882451
 20
171.6322240037
 11
181.5351882451
 21
160.2730828025
  0
LINE
  5
29C
100
AcDbEntity
  8
0
100
AcDbLine
 62
7
  6
CONTINUOUS
 10
183.5990180247
 20
160.178019293
 11
183.5351882451
 21
159.8655190546
  0
LINE
  5
29D
100
AcDbEntity
  8
0
100
AcDbLine
 62
7
  6
CONTINUOUS
 10
184.6841244572
 20
160.2405190546
 11
184.6202946776
 21
159.9280195314
  0
LINE
  5
29E
100
AcDbEntity
  8
0
100
AcDbLine
 62
7
  6
CONTINUOUS
 10
183.5990180247
 20
154.6155194122
 11
183.5351882451
 21
154.3030191738
  0
LINE
  5
29F
100
AcDbEntity
  8
0
100
AcDbLine
 62
7
  6
CONTINUOUS
 10
184.9394435757
 20
159.990519293
 11
185.0032733553
 21
160.178019293
  0
LINE
  5
2A0
100
AcDbEntity
  8
0
100
AcDbLine
 62
7
  6
CONTINUOUS
 10
183.8543371432
 20
154.365519293
 11
183.9181669229
 21
154.553019293
  0
LINE
  5
2A1
100
AcDbEntity
  8
0
100
AcDbLine
 62
7
  6
CONTINUOUS
 10
186.2160393023
 20
159.5530195314
 11
186.1522095227
 21
159.3655195314
  0
LINE
  5
2A2
100
AcDbEntity
  8
0
100
AcDbLine
 62
7
  6
CONTINUOUS
 10
186.2798691043
 20
158.9905195314
 11
186.4713584599
 21
159.3030190546
  0
LINE
  5
2A3
100
AcDbEntity
  8
0
100
AcDbLine
 62
7
  6
CONTINUOUS
 10
186.1522095227
 20
159.3655195314
 11
186.0245499634
 21
159.1780195314
  0
LINE
  5
2A4
100
AcDbEntity
  8
0
100
AcDbLine
 62
7
  6
CONTINUOUS
 10
183.7905073636
 20
154.8655191738
 11
183.5990180247
 21
154.6155194122
  0
LINE
  5
2A5
100
AcDbEntity
  8
0
100
AcDbLine
 62
7
  6
CONTINUOUS
 10
183.9181669229
 20
154.553019293
 11
184.0458264821
 21
154.6780191738
  0
LINE
  5
2A6
100
AcDbEntity
  8
0
100
AcDbLine
 62
7
  6
CONTINUOUS
 10
184.0458264821
 20
155.0530195314
 11
183.7905073636
 21
154.8655191738
  0
LINE
  5
2A7
100
AcDbEntity
  8
0
100
AcDbLine
 62
7
  6
CONTINUOUS
 10
185.7054010206
 20
158.678019293
 11
186.0245499634
 21
158.8030195314
  0
LINE
  5
2A8
100
AcDbEntity
  8
0
100
AcDbLine
 62
7
  6
CONTINUOUS
 10
185.8330605798
 20
159.053019293
 11
185.641571241
 21
158.9905195314
  0
LINE
  5
2A9
100
AcDbEntity
  8
0
100
AcDbLine
 62
7
  6
CONTINUOUS
 10
183.5351882451
 20
159.8655190546
 11
183.5351882451
 21
159.615519293
  0
LINE
  5
2AA
100
AcDbEntity
  8
0
100
AcDbLine
 62
7
  6
CONTINUOUS
 10
183.5351882451
 20
154.3030191738
 11
183.5351882451
 21
152.8030191738
  0
LINE
  5
2AB
100
AcDbEntity
  8
0
100
AcDbLine
 62
7
  6
CONTINUOUS
 10
183.5351882451
 20
152.303019293
 11
183.5351882451
 21
151.928019293
  0
LINE
  5
2AC
100
AcDbEntity
  8
0
100
AcDbLine
 62
7
  6
CONTINUOUS
 10
183.5351882451
 20
151.4280192334
 11
183.5351882451
 21
151.0530192334
  0
LINE
  5
2AD
100
AcDbEntity
  8
0
100
AcDbLine
 62
7
  6
CONTINUOUS
 10
183.5351882451
 20
149.303019293
 11
183.5351882451
 21
148.928019293
  0
LINE
  5
2AE
100
AcDbEntity
  8
0
100
AcDbLine
 62
7
  6
CONTINUOUS
 10
183.8543371432
 20
153.1780191738
 11
183.8543371432
 21
154.365519293
  0
LINE
  5
2AF
100
AcDbEntity
  8
0
100
AcDbLine
 62
7
  6
CONTINUOUS
 10
183.8543371432
 20
159.5530195314
 11
183.8543371432
 21
159.9280195314
  0
LINE
  5
2B0
100
AcDbEntity
  8
0
100
AcDbLine
 62
7
  6
CONTINUOUS
 10
184.237315821
 20
160.4280190546
 11
184.237315821
 21
160.740519293
  0
LINE
  5
2B1
100
AcDbEntity
  8
0
100
AcDbLine
 62
7
  6
CONTINUOUS
 10
184.6202946776
 20
159.9280195314
 11
184.6202946776
 21
159.615519293
  0
LINE
  5
2B2
100
AcDbEntity
  8
0
100
AcDbLine
 62
7
  6
CONTINUOUS
 10
184.8117840164
 20
154.365519293
 11
184.8117840164
 21
153.1780191738
  0
LINE
  5
2B3
100
AcDbEntity
  8
0
100
AcDbLine
 62
7
  6
CONTINUOUS
 10
184.9394435757
 20
159.5530195314
 11
184.9394435757
 21
159.990519293
  0
LINE
  5
2B4
100
AcDbEntity
  8
0
100
AcDbLine
 62
7
  6
CONTINUOUS
 10
185.1947626942
 20
153.1780191738
 11
185.1947626942
 21
154.3030191738
  0
LINE
  5
2B5
100
AcDbEntity
  8
0
100
AcDbLine
 62
7
  6
CONTINUOUS
 10
186.4713584599
 20
159.3030190546
 11
186.5351882451
 21
159.615519293
  0
LINE
  5
2B6
100
AcDbEntity
  8
RUNDUNGEN
100
AcDbLine
 62
7
  6
CONTINUOUS
 10
193.0214778961
 20
160.1614610048
 11
190.5901344268
 21
157.46118052
  0
LINE
  5
2B7
100
AcDbEntity
  8
0
100
AcDbLine
 62
7
  6
CONTINUOUS
 10
184.237315821
 20
155.115519293
 11
184.0458264821
 21
155.0530195314
  0
LINE
  5
2B8
100
AcDbEntity
  8
0
100
AcDbLine
 62
7
  6
CONTINUOUS
 10
184.0458264821
 20
154.6780191738
 11
184.237315821
 21
154.740519293
  0
LINE
  5
2B9
100
AcDbEntity
  8
0
100
AcDbLine
 62
7
  6
CONTINUOUS
 10
186.2160393023
 20
159.990519293
 11
186.2160393023
 21
159.5530195314
  0
LINE
  5
2BA
100
AcDbEntity
  8
0
100
AcDbLine
 62
7
  6
CONTINUOUS
 10
186.5351882451
 20
149.9280193228
 11
186.5351882451
 21
150.428019293
  0
LINE
  5
2BB
100
AcDbEntity
  8
0
100
AcDbLine
 62
7
  6
CONTINUOUS
 10
186.5351882451
 20
151.928019293
 11
186.5351882451
 21
152.303019293
  0
LINE
  5
2BC
100
AcDbEntity
  8
0
100
AcDbLine
 62
7
  6
CONTINUOUS
 10
186.5351882451
 20
152.8030191738
 11
186.5351882451
 21
153.1780191738
  0
LINE
  5
2BD
100
AcDbEntity
  8
0
100
AcDbLine
 62
7
  6
CONTINUOUS
 10
186.5351882451
 20
159.615519293
 11
186.5351882451
 21
159.9280195314
  0
LINE
  5
2BE
100
AcDbEntity
  8
0
100
AcDbLine
 62
7
  6
CONTINUOUS
 10
183.5351882451
 20
159.615519293
 11
183.5990180247
 21
159.3030190546
  0
LINE
  5
2BF
100
AcDbEntity
  8
0
100
AcDbLine
 62
7
  6
CONTINUOUS
 10
185.1947626942
 20
154.3030191738
 11
185.1309329146
 21
154.6155194122
  0
LINE
  5
2C0
100
AcDbEntity
  8
0
100
AcDbLine
 62
7
  6
CONTINUOUS
 10
184.6202946776
 20
159.615519293
 11
184.6841244572
 21
159.3030190546
  0
LINE
  5
2C1
100
AcDbEntity
  8
0
100
AcDbLine
 62
7
  6
CONTINUOUS
 10
186.1522095227
 20
150.1780192632
 11
183.5351882451
 21
149.303019293
  0
LINE
  5
2C2
100
AcDbEntity
  8
0
100
AcDbLine
 62
7
  6
CONTINUOUS
 10
184.7479542368
 20
154.553019293
 11
184.8117840164
 21
154.365519293
  0
LINE
  5
2C3
100
AcDbEntity
  8
0
100
AcDbLine
 62
7
  6
CONTINUOUS
 10
183.9181669229
 20
159.3655195314
 11
183.8543371432
 21
159.5530195314
  0
LINE
  5
2C4
100
AcDbEntity
  8
0
100
AcDbLine
 62
7
  6
CONTINUOUS
 10
185.0032733553
 20
159.3655195314
 11
184.9394435757
 21
159.5530195314
  0
LINE
  5
2C5
100
AcDbEntity
  8
0
100
AcDbLine
 62
7
  6
CONTINUOUS
 10
186.5351882451
 20
159.9280195314
 11
186.4713584599
 21
160.2405190546
  0
LINE
  5
2C6
100
AcDbEntity
  8
0
100
AcDbLine
 62
7
  6
CONTINUOUS
 10
183.5351882451
 20
148.928019293
 11
186.5351882451
 21
149.9280193228
  0
LINE
  5
2C7
100
AcDbEntity
  8
0
100
AcDbLine
 62
7
  6
CONTINUOUS
 10
183.5990180247
 20
159.3030190546
 11
183.7905073636
 21
158.9905195314
  0
LINE
  5
2C8
100
AcDbEntity
  8
0
100
AcDbLine
 62
7
  6
CONTINUOUS
 10
186.1522095227
 20
160.178019293
 11
186.2160393023
 21
159.990519293
  0
LINE
  5
2C9
100
AcDbEntity
  8
RUNDUNGEN
100
AcDbLine
 62
7
  6
CONTINUOUS
 10
193.1046739988
 20
169.7128472877
 11
193.1066199368
 21
161.9763980768
  0
LINE
  5
2CA
100
AcDbEntity
  8
RUNDUNGEN
100
AcDbLine
 62
7
  6
CONTINUOUS
 10
193.5351882451
 20
161.4997222175
 11
193.5351882451
 21
171.6837340074
  0
LINE
  5
2CB
100
AcDbEntity
  8
RUNDUNGEN
100
AcDbLine
 62
7
  6
CONTINUOUS
 10
207.4468123121
 20
142.608019293
 11
185.623564354
 21
142.608019293
  0
LINE
  5
2CC
100
AcDbEntity
  8
0
100
AcDbLine
 62
7
  6
CONTINUOUS
 10
184.6202946776
 20
154.6780191738
 11
184.7479542368
 21
154.553019293
  0
LINE
  5
2CD
100
AcDbEntity
  8
0
100
AcDbLine
 62
7
  6
CONTINUOUS
 10
185.1309329146
 20
154.6155194122
 11
184.9394435757
 21
154.8655191738
  0
LINE
  5
2CE
100
AcDbEntity
  8
0
100
AcDbLine
 62
7
  6
CONTINUOUS
 10
184.0458264821
 20
159.1780195314
 11
183.9181669229
 21
159.3655195314
  0
LINE
  5
2CF
100
AcDbEntity
  8
0
100
AcDbLine
 62
7
  6
CONTINUOUS
 10
184.6841244572
 20
159.3030190546
 11
184.9394435757
 21
158.9280190546
  0
LINE
  5
2D0
100
AcDbEntity
  8
0
100
AcDbLine
 62
7
  6
CONTINUOUS
 10
185.1309329146
 20
159.1780195314
 11
185.0032733553
 21
159.3655195314
  0
LINE
  5
2D1
100
AcDbEntity
  8
0
100
AcDbLine
 62
7
  6
CONTINUOUS
 10
183.5351882451
 20
151.0530192334
 11
186.1522095227
 21
150.1780192632
  0
LINE
  5
2D2
100
AcDbEntity
  8
0
100
AcDbLine
 62
7
  6
CONTINUOUS
 10
184.9394435757
 20
154.8655191738
 11
184.6841244572
 21
155.0530195314
  0
LINE
  5
2D3
100
AcDbEntity
  8
0
100
AcDbLine
 62
7
  6
CONTINUOUS
 10
186.0245499634
 20
160.365519293
 11
186.1522095227
 21
160.178019293
  0
LINE
  5
2D4
100
AcDbEntity
  8
0
100
AcDbLine
 62
7
  6
CONTINUOUS
 10
186.4713584599
 20
160.2405190546
 11
186.2798691043
 21
160.553019293
  0
LINE
  5
2D5
100
AcDbEntity
  8
0
100
AcDbLine
 62
7
  6
CONTINUOUS
 10
186.5351882451
 20
150.428019293
 11
183.5351882451
 21
151.4280192334
  0
LINE
  5
2D6
100
AcDbEntity
  8
0
100
AcDbLine
 62
7
  6
CONTINUOUS
 10
183.7905073636
 20
158.9905195314
 11
184.0458264821
 21
158.8030195314
  0
LINE
  5
2D7
100
AcDbEntity
  8
0
100
AcDbLine
 62
7
  6
CONTINUOUS
 10
185.2585924738
 20
159.053019293
 11
185.1309329146
 21
159.1780195314
  0
LINE
  5
2D8
100
AcDbEntity
  8
RUNDUNGEN
100
AcDbLine
 62
7
  6
CONTINUOUS
 10
199.5351882451
 20
161.4997222175
 11
199.5351882451
 21
171.6835761481
  0
LINE
  5
2D9
100
AcDbEntity
  8
0
100
AcDbLine
 62
7
  6
CONTINUOUS
 10
184.4288053387
 20
154.740519293
 11
184.6202946776
 21
154.6780191738
  0
LINE
  5
2DA
100
AcDbEntity
  8
0
100
AcDbLine
 62
7
  6
CONTINUOUS
 10
184.6841244572
 20
155.0530195314
 11
184.4926351183
 21
155.115519293
  0
LINE
  5
2DB
100
AcDbEntity
  8
0
100
AcDbLine
 62
7
  6
CONTINUOUS
 10
184.237315821
 20
159.053019293
 11
184.0458264821
 21
159.1780195314
  0
LINE
  5
2DC
100
AcDbEntity
  8
0
100
AcDbLine
 62
7
  6
CONTINUOUS
 10
183.5351882451
 20
151.928019293
 11
186.5351882451
 21
151.928019293
  0
LINE
  5
2DD
100
AcDbEntity
  8
0
100
AcDbLine
 62
7
  6
CONTINUOUS
 10
186.5351882451
 20
152.303019293
 11
183.5351882451
 21
152.303019293
  0
LINE
  5
2DE
100
AcDbEntity
  8
0
100
AcDbLine
 62
7
  6
CONTINUOUS
 10
183.5351882451
 20
152.8030191738
 11
186.5351882451
 21
152.8030191738
  0
LINE
  5
2DF
100
AcDbEntity
  8
0
100
AcDbLine
 62
7
  6
CONTINUOUS
 10
186.5351882451
 20
153.1780191738
 11
185.1947626942
 21
153.1780191738
  0
LINE
  5
2E0
100
AcDbEntity
  8
0
100
AcDbLine
 62
7
  6
CONTINUOUS
 10
184.8117840164
 20
153.1780191738
 11
183.8543371432
 21
153.1780191738
  0
LINE
  5
2E1
100
AcDbEntity
  8
0
100
AcDbLine
 62
7
  6
CONTINUOUS
 10
184.0458264821
 20
158.8030195314
 11
184.3649755591
 21
158.678019293
  0
LINE
  5
2E2
100
AcDbEntity
  8
0
100
AcDbLine
 62
7
  6
CONTINUOUS
 10
185.8330605798
 20
160.4905195314
 11
186.0245499634
 21
160.365519293
  0
LINE
  5
2E3
100
AcDbEntity
  8
0
100
AcDbLine
 62
7
  6
CONTINUOUS
 10
186.2798691043
 20
160.553019293
 11
186.0245499634
 21
160.740519293
  0
LINE
  5
2E4
100
AcDbEntity
  8
0
100
AcDbLine
 62
7
  6
CONTINUOUS
 10
211.505697636
 20
154.4373302602
 11
210.9013634079
 21
154.4373302602
  0
LINE
  5
2E5
100
AcDbEntity
  8
0
100
AcDbLine
 62
7
  6
CONTINUOUS
 10
208.1300821157
 20
154.4373302602
 11
207.5257478876
 21
154.4373302602
  0
LINE
  5
2E6
100
AcDbEntity
  8
0
100
AcDbLine
 62
7
  6
CONTINUOUS
 10
184.237315821
 20
154.740519293
 11
184.4288053387
 21
154.740519293
  0
LINE
  5
2E7
100
AcDbEntity
  8
0
100
AcDbLine
 62
7
  6
CONTINUOUS
 10
184.4926351183
 20
155.115519293
 11
184.237315821
 21
155.115519293
  0
LINE
  5
2E8
100
AcDbEntity
  8
0
100
AcDbLine
 62
7
  6
CONTINUOUS
 10
184.4288053387
 20
158.9905195314
 11
184.237315821
 21
159.053019293
  0
LINE
  5
2E9
100
AcDbEntity
  8
0
100
AcDbLine
 62
7
  6
CONTINUOUS
 10
185.4500819021
 20
158.9905195314
 11
185.2585924738
 21
159.053019293
  0
LINE
  5
2EA
100
AcDbEntity
  8
0
100
AcDbLine
 62
7
  6
CONTINUOUS
 10
186.0245499634
 20
160.740519293
 11
185.7054010206
 21
160.8655195314
  0
LINE
  5
2EB
100
AcDbEntity
  8
0
100
AcDbLine
 62
7
  6
CONTINUOUS
 10
208.1168203107
 20
154.1945816471
 11
208.1300821157
 21
154.4373302602
  0
LINE
  5
2EC
100
AcDbEntity
  8
0
100
AcDbLine
 62
7
  6
CONTINUOUS
 10
209.8157227618
 20
157.4373302602
 11
209.2113885336
 21
157.4373302602
  0
LINE
  5
2ED
100
AcDbEntity
  8
0
100
AcDbLine
 62
7
  6
CONTINUOUS
 10
211.505697636
 20
157.8373302602
 11
210.9013634079
 21
157.8373302602
  0
LINE
  5
2EE
100
AcDbEntity
  8
0
100
AcDbLine
 62
7
  6
CONTINUOUS
 10
208.1300821157
 20
157.8373302602
 11
207.5257478876
 21
157.8373302602
  0
LINE
  5
2EF
100
AcDbEntity
  8
0
100
AcDbLine
 62
7
  6
CONTINUOUS
 10
184.3649755591
 20
158.678019293
 11
184.8117840164
 21
158.6155195314
  0
LINE
  5
2F0
100
AcDbEntity
  8
0
100
AcDbLine
 62
7
  6
CONTINUOUS
 10
184.8117840164
 20
158.9280190546
 11
184.4288053387
 21
158.9905195314
  0
LINE
  5
2F1
100
AcDbEntity
  8
0
100
AcDbLine
 62
7
  6
CONTINUOUS
 10
185.641571241
 20
160.553019293
 11
185.8330605798
 21
160.4905195314
  0
LINE
  5
2F2
100
AcDbEntity
  8
RUNDUNGEN
100
AcDbLine
 62
7
  6
CONTINUOUS
 10
202.4802164016
 20
157.4612090203
 11
200.0488985942
 21
160.1614610048
  0
LINE
  5
2F3
100
AcDbEntity
  8
0
100
AcDbLine
 62
7
  6
CONTINUOUS
 10
209.2113885336
 20
157.4373302602
 11
209.2113885336
 21
156.2708088818
  0
LINE
  5
2F4
100
AcDbEntity
  8
0
100
AcDbLine
 62
7
  6
CONTINUOUS
 10
209.8157227618
 20
156.269850827
 11
209.8157227618
 21
157.4373302602
  0
LINE
  5
2F5
100
AcDbEntity
  8
0
100
AcDbLine
 62
7
  6
CONTINUOUS
 10
185.2585924738
 20
158.6155195314
 11
185.7054010206
 21
158.678019293
  0
LINE
  5
2F6
100
AcDbEntity
  8
0
100
AcDbLine
 62
7
  6
CONTINUOUS
 10
184.8117840164
 20
158.6155195314
 11
185.2585924738
 21
158.6155195314
  0
LINE
  5
2F7
100
AcDbEntity
  8
0
100
AcDbLine
 62
7
  6
CONTINUOUS
 10
184.9394435757
 20
158.9280190546
 11
184.8117840164
 21
158.9280190546
  0
LINE
  5
2F8
100
AcDbEntity
  8
0
100
AcDbLine
 62
7
  6
CONTINUOUS
 10
185.641571241
 20
158.9905195314
 11
185.4500819021
 21
158.9905195314
  0
LINE
  5
2F9
100
AcDbEntity
  8
0
100
AcDbLine
 62
7
  6
CONTINUOUS
 10
185.4500819021
 20
160.553019293
 11
185.641571241
 21
160.553019293
  0
LINE
  5
2FA
100
AcDbEntity
  8
0
100
AcDbLine
 62
7
  6
CONTINUOUS
 10
211.5124715399
 20
154.1304597611
 11
211.505697636
 21
154.4373302602
  0
LINE
  5
2FB
100
AcDbEntity
  8
0
100
AcDbLine
 62
7
  6
CONTINUOUS
 10
211.5124715399
 20
157.5304597611
 11
211.505697636
 21
157.8373302602
  0
LINE
  5
2FC
100
AcDbEntity
  8
RUNDUNGEN
100
AcDbLine
 62
7
  6
CONTINUOUS
 10
212.5151882451
 20
160.2730828025
 11
212.5151882451
 21
171.6322240037
  0
LINE
  5
2FD
100
AcDbEntity
  8
0
100
AcDbLine
 62
7
  6
CONTINUOUS
 10
185.7054010206
 20
160.8655195314
 11
185.3862520331
 21
160.8655195314
  0
LINE
  5
2FE
100
AcDbEntity
  8
BEZUGSACHSEN
100
AcDbLine
 62
7
  6
CONTINUOUS
 10
193.5351882451
 20
161.908019293
 11
199.5351882451
 21
161.908019293
  0
LINE
  5
2FF
100
AcDbEntity
  8
0
100
AcDbLine
 62
7
  6
CONTINUOUS
 10
216.2851882451
 20
152.537479892
 11
216.2851882451
 21
118.408019293
  0
LINE
  5
300
100
AcDbEntity
  8
RUNDUNGEN
100
AcDbLine
 62
7
  6
CONTINUOUS
 10
216.1512136489
 20
153.037479892
 11
212.9840993319
 21
158.5230828025
  0
LINE
  5
301
100
AcDbEntity
  8
BEZUGSACHSEN
100
AcDbLine
 62
7
  6
CONTINUOUS
 10
193.5351882451
 20
169.308019293
 11
199.5351882451
 21
169.308019293
  0
LINE
  5
302
100
AcDbEntity
  8
RUNDUNGEN
100
AcDbLine
 62
7
  6
CONTINUOUS
 10
212.1802517546
 20
172.8822240037
 11
211.1838633796
 21
174.6080192932
  0
LINE
  5
303
100
AcDbEntity
  8
0
100
AcDbLine
 62
7
  6
CONTINUOUS
 10
183.7325272322
 20
175.108019293
 11
187.479803107
 21
175.108019293
  0
LINE
  5
304
100
AcDbEntity
  8
0
100
AcDbLine
 62
7
  6
CONTINUOUS
 10
205.5905733833
 20
175.108019293
 11
210.3178492944
 21
175.108019293
  0
LINE
  5
305
100
AcDbEntity
  8
0
100
AcDbLine
 62
7
  6
CONTINUOUS
 10
216.2851882451
 20
118.408019293
 11
215.7851882451
 21
117.908019293
  0
LINE
  5
306
100
AcDbEntity
  8
RUNDUNGEN
100
AcDbLine
 62
7
  6
CONTINUOUS
 10
99.39630018
 20
39.3616105411
 11
115.39630018
 21
39.3616105411
  0
LINE
  5
307
100
AcDbEntity
  8
0
100
AcDbLine
 62
7
  6
CONTINUOUS
 10
98.39630018
 20
40.3610760244
 11
97.89630018
 21
40.3610760244
  0
LINE
  5
308
100
AcDbEntity
  8
0
100
AcDbLine
 62
7
  6
CONTINUOUS
 10
98.39630018
 20
40.3711011502
 11
97.89630018
 21
40.3711011502
  0
LINE
  5
309
100
AcDbEntity
  8
0
100
AcDbLine
 62
7
  6
CONTINUOUS
 10
98.39630018
 20
40.9754353783
 11
97.89630018
 21
40.9754353783
  0
LINE
  5
30A
100
AcDbEntity
  8
0
100
AcDbLine
 62
7
  6
CONTINUOUS
 10
98.39630018
 20
42.0610760244
 11
97.89630018
 21
42.0610760244
  0
LINE
  5
30B
100
AcDbEntity
  8
0
100
AcDbLine
 62
7
  6
CONTINUOUS
 10
98.39630018
 20
42.6654102525
 11
97.89630018
 21
42.6654102525
  0
LINE
  5
30C
100
AcDbEntity
  8
0
100
AcDbLine
 62
7
  6
CONTINUOUS
 10
123.0826796221
 20
43.3416105411
 11
123.39630018
 21
43.3416105411
  0
LINE
  5
30D
100
AcDbEntity
  8
0
100
AcDbLine
 62
7
  6
CONTINUOUS
 10
98.39630018
 20
43.7467166704
 11
97.89630018
 21
43.7467166704
  0
LINE
  5
30E
100
AcDbEntity
  8
0
100
AcDbLine
 62
7
  6
CONTINUOUS
 10
98.39630018
 20
44.3510508986
 11
97.89630018
 21
44.3510508986
  0
LINE
  5
30F
100
AcDbEntity
  8
0
100
AcDbLine
 62
7
  6
CONTINUOUS
 10
98.39630018
 20
44.3610760244
 11
97.89630018
 21
44.3610760244
  0
LINE
  5
310
100
AcDbEntity
  8
0
100
AcDbLine
 62
7
  6
CONTINUOUS
 10
97.89630018
 20
40.3711011502
 11
97.89630018
 21
40.9754353783
  0
LINE
  5
311
100
AcDbEntity
  8
0
100
AcDbLine
 62
7
  6
CONTINUOUS
 10
97.89630018
 20
40.9983265033
 11
97.89630018
 21
44.3510508986
  0
LINE
  5
312
100
AcDbEntity
  8
0
100
AcDbLine
 62
7
  6
CONTINUOUS
 10
97.89630018
 20
65.3416105411
 11
97.89630018
 21
68.3416105411
  0
LINE
  5
313
100
AcDbEntity
  8
RUNDUNGEN
100
AcDbLine
 62
7
  6
CONTINUOUS
 10
98.39630018
 20
39.0301881629
 11
98.39630018
 21
46.9723093228
  0
LINE
  5
314
100
AcDbEntity
  8
RUNDUNGEN
100
AcDbLine
 62
7
  6
CONTINUOUS
 10
98.3963024289
 20
63.7099354541
 11
98.39630018
 21
71.6530329193
  0
LWPOLYLINE
  5
315
100
AcDbEntity
  8
RUNDUNGEN
100
AcDbPolyline
 62
7
  6
CONTINUOUS
 90
7
 70
0
 10
98.3962980336
 20
63.7099726409
 10
98.398105084
 20
63.6347233787
 10
98.406965314
 20
63.5250420062
 10
98.4218060817
 20
63.4226597952
 10
98.4414022219
 20
63.3264883614
 10
98.4647265998
 20
63.2358696317
 10
98.4739007831
 20
63.2043685554
  0
LINE
  5
316
100
AcDbEntity
  8
0
100
AcDbLine
 62
7
  6
CONTINUOUS
 10
124.9764736718
 20
46.3416105411
 11
125.2568712795
 21
46.3416105411
  0
LINE
  5
317
100
AcDbEntity
  8
0
100
AcDbLine
 62
7
  6
CONTINUOUS
 10
125.2826602624
 20
46.9666106603
 11
125.5583313714
 21
46.9666106603
  0
LINE
  5
318
100
AcDbEntity
  8
0
100
AcDbLine
 62
7
  6
CONTINUOUS
 10
125.4535009597
 20
47.3416105411
 11
125.7266029598
 21
47.3416105411
  0
LWPOLYLINE
  5
319
100
AcDbEntity
  8
RUNDUNGEN
100
AcDbPolyline
 62
7
  6
CONTINUOUS
 90
6
 70
0
 10
98.462418015
 20
47.4391170553
 10
98.4391524383
 20
47.3469034253
 10
98.4199894307
 20
47.250028426
 10
98.4057711396
 20
47.147404239
 10
98.3976147148
 20
47.0373347502
 10
98.3963001034
 20
46.9718698225
  0
LINE
  5
31A
100
AcDbEntity
  8
RUNDUNGEN
100
AcDbLine
 62
7
  6
CONTINUOUS
 10
98.4738403375
 20
47.4786535213
 11
98.462418015
 21
47.4391170553
  0
LINE
  5
31B
100
AcDbEntity
  8
RUNDUNGEN
100
AcDbLine
 62
7
  6
CONTINUOUS
 10
98.4738333501
 20
47.4786555899
 11
98.473921034
 21
47.4789480353
  0
LINE
  5
31C
100
AcDbEntity
  8
RUNDUNGEN
100
AcDbLine
 62
7
  6
CONTINUOUS
 10
98.5332708873
 20
47.6468706498
 11
98.473921034
 21
47.4789480353
  0
LINE
  5
31D
100
AcDbEntity
  8
RUNDUNGEN
100
AcDbLine
 62
7
  6
CONTINUOUS
 10
98.4739429235
 20
63.2042146602
 11
98.5368529748
 21
63.0276463444
  0
LINE
  5
31E
100
AcDbEntity
  8
RUNDUNGEN
100
AcDbLine
 62
7
  6
CONTINUOUS
 10
98.4739429235
 20
63.2042146602
 11
98.4738970714
 21
63.2043674335
  0
LINE
  5
31F
100
AcDbEntity
  8
BEZUGSACHSEN
100
AcDbLine
 62
7
  6
CONTINUOUS
 10
103.69630018
 20
58.3416105411
 11
103.69630018
 21
52.3416105411
  0
LINE
  5
320
100
AcDbEntity
  8
RUNDUNGEN
100
AcDbLine
 62
7
  6
CONTINUOUS
 10
99.3166158081
 20
49.0819991438
 11
99.2806813547
 21
49.0010472603
  0
LWPOLYLINE
  5
321
100
AcDbEntity
  8
RUNDUNGEN
100
AcDbPolyline
 62
7
  6
CONTINUOUS
 90
3
 70
0
 10
99.2806813547
 20
49.0010472603
 10
99.2453115477
 20
48.9232613128
 10
99.2084919693
 20
48.8442170264
  0
LINE
  5
322
100
AcDbEntity
  8
RUNDUNGEN
100
AcDbLine
 62
7
  6
CONTINUOUS
 10
99.2084919693
 20
48.8442170264
 11
99.1764511772
 21
48.7769220759
  0
LWPOLYLINE
  5
323
100
AcDbEntity
  8
RUNDUNGEN
100
AcDbPolyline
 62
7
  6
CONTINUOUS
 90
3
 70
0
 10
99.1764264574
 20
48.7768762235
 10
99.1306536783
 20
48.6835393789
 10
99.0420191359
 20
48.5128652841
  0
LWPOLYLINE
  5
324
100
AcDbEntity
  8
RUNDUNGEN
100
AcDbPolyline
 62
7
  6
CONTINUOUS
 90
5
 70
0
 10
99.0420191359
 20
48.5128652841
 10
98.9530991331
 20
48.354237405
 10
98.8645112527
 20
48.2080329608
 10
98.7769312414
 20
48.074556516
 10
98.7370525441
 20
48.0173038115
  0
LINE
  5
325
100
AcDbEntity
  8
0
100
AcDbLine
 62
7
  6
CONTINUOUS
 10
126.5029089843
 20
50.3416105411
 11
126.761216911
 21
50.3416105411
  0
LINE
  5
326
100
AcDbEntity
  8
0
100
AcDbLine
 62
7
  6
CONTINUOUS
 10
126.6556323606
 20
50.9666106603
 11
126.9119189517
 21
50.9666106603
  0
LINE
  5
327
100
AcDbEntity
  8
0
100
AcDbLine
 62
7
  6
CONTINUOUS
 10
126.7624271805
 20
51.4666105411
 11
127.0173188844
 21
51.4666105411
  0
LINE
  5
328
100
AcDbEntity
  8
0
100
AcDbLine
 62
7
  6
CONTINUOUS
 10
126.8336996974
 20
51.8416105411
 11
127.0876688475
 21
51.8416105411
  0
LWPOLYLINE
  5
329
100
AcDbEntity
  8
RUNDUNGEN
100
AcDbPolyline
 62
7
  6
CONTINUOUS
 90
3
 70
0
 10
99.0458811222
 20
62.1631912801
 10
99.1344928938
 20
61.9919951854
 10
99.1764226821
 20
61.9063541154
  0
LWPOLYLINE
  5
32A
100
AcDbEntity
  8
RUNDUNGEN
100
AcDbPolyline
 62
7
  6
CONTINUOUS
 90
4
 70
0
 10
99.1764226821
 20
61.9063541154
 10
99.2120108914
 20
61.831530342
 10
99.2487504297
 20
61.7524794736
 10
99.2846981001
 20
61.6732402637
  0
LWPOLYLINE
  5
32B
100
AcDbEntity
  8
RUNDUNGEN
100
AcDbPolyline
 62
7
  6
CONTINUOUS
 90
4
 70
0
 10
98.5368529748
 20
63.0276463444
 10
98.6159233397
 20
62.8611034881
 10
98.7114925722
 20
62.7028467703
 10
98.7806858873
 20
62.6031605949
  0
LINE
  5
32C
100
AcDbEntity
  8
RUNDUNGEN
100
AcDbLine
 62
7
  6
CONTINUOUS
 10
99.3166163374
 20
61.6012207435
 11
99.2846981001
 21
61.6732402637
  0
LWPOLYLINE
  5
32D
100
AcDbEntity
  8
RUNDUNGEN
100
AcDbPolyline
 62
7
  6
CONTINUOUS
 90
4
 70
0
 10
98.7363864948
 20
48.0163437356
 10
98.701432172
 20
47.9652894209
 10
98.6094403212
 20
47.8099525378
 10
98.5332708873
 20
47.6468706498
  0
LINE
  5
32E
100
AcDbEntity
  8
RUNDUNGEN
100
AcDbLine
 62
7
  6
CONTINUOUS
 10
98.7365871348
 20
48.0166265042
 11
98.7370438842
 21
48.0172697187
  0
LINE
  5
32F
100
AcDbEntity
  8
0
100
AcDbLine
 62
7
  6
CONTINUOUS
 10
126.8557933439
 20
51.9666104219
 11
127.1094778588
 21
51.9666104219
  0
LINE
  5
330
100
AcDbEntity
  8
0
100
AcDbLine
 62
7
  6
CONTINUOUS
 10
126.8770599387
 20
52.0916106603
 11
127.1304710715
 21
52.0916106603
  0
LINE
  5
331
100
AcDbEntity
  8
RUNDUNGEN
100
AcDbLine
 62
7
  6
CONTINUOUS
 10
111.6517375335
 20
52.3416105411
 11
103.1408628265
 21
52.3416105411
  0
LINE
  5
332
100
AcDbEntity
  8
0
100
AcDbLine
 62
7
  6
CONTINUOUS
 10
126.9539073621
 20
52.5916103026
 11
127.2063354826
 21
52.5916103026
  0
LINE
  5
333
100
AcDbEntity
  8
0
100
AcDbLine
 62
7
  6
CONTINUOUS
 10
127.0177170367
 20
53.0916104219
 11
127.2693346605
 21
53.0916104219
  0
LINE
  5
334
100
AcDbEntity
  8
RUNDUNGEN
100
AcDbLine
 62
7
  6
CONTINUOUS
 10
98.7370419002
 20
62.6659362826
 11
98.7367456147
 21
62.666353508
  0
LINE
  5
335
100
AcDbEntity
  8
RUNDUNGEN
100
AcDbLine
 62
7
  6
CONTINUOUS
 10
102.3188576459
 20
58.7721247874
 11
102.3202131926
 21
58.7701788494
  0
LWPOLYLINE
  5
336
100
AcDbEntity
  8
RUNDUNGEN
100
AcDbPolyline
 62
7
  6
CONTINUOUS
 90
4
 70
0
 10
98.7806858873
 20
62.6031605949
 10
98.8683379369
 20
62.4691103637
 10
98.9569581901
 20
62.3223562761
 10
99.0458811222
 20
62.1631912801
  0
LINE
  5
337
100
AcDbEntity
  8
RUNDUNGEN
100
AcDbLine
 62
7
  6
CONTINUOUS
 10
114.5836728358
 20
60.6415303839
 11
114.5835479325
 21
60.6414640891
  0
LINE
  5
338
100
AcDbEntity
  8
0
100
AcDbLine
 62
7
  6
CONTINUOUS
 10
127.0892557915
 20
53.8416107795
 11
127.3399708731
 21
53.8416107795
  0
LINE
  5
339
100
AcDbEntity
  8
0
100
AcDbLine
 62
7
  6
CONTINUOUS
 10
127.0983780995
 20
53.9666103026
 11
127.3489785552
 21
53.9666103026
  0
LINE
  5
33A
100
AcDbEntity
  8
0
100
AcDbLine
 62
7
  6
CONTINUOUS
 10
127.1142330214
 20
54.2166107795
 11
127.3646345005
 21
54.2166107795
  0
LINE
  5
33B
100
AcDbEntity
  8
0
100
AcDbLine
 62
7
  6
CONTINUOUS
 10
127.1320545451
 20
54.5916107795
 11
127.3822327416
 21
54.5916107795
  0
LINE
  5
33C
100
AcDbEntity
  8
0
100
AcDbLine
 62
7
  6
CONTINUOUS
 10
127.1447178351
 20
55.0916103026
 11
127.394737616
 21
55.0916103026
  0
LINE
  5
33D
100
AcDbEntity
  8
0
100
AcDbLine
 62
7
  6
CONTINUOUS
 10
127.1447178381
 20
55.5916105411
 11
127.394737619
 21
55.5916105411
  0
LINE
  5
33E
100
AcDbEntity
  8
RUNDUNGEN
100
AcDbLine
 62
7
  6
CONTINUOUS
 10
114.5835475292
 20
50.0417582906
 11
114.5836795791
 21
50.0416882023
  0
LINE
  5
33F
100
AcDbEntity
  8
RUNDUNGEN
100
AcDbLine
 62
7
  6
CONTINUOUS
 10
112.4723790119
 20
58.7701671368
 11
112.473684263
 21
58.7720409125
  0
LINE
  5
340
100
AcDbEntity
  8
RUNDUNGEN
100
AcDbLine
 62
7
  6
CONTINUOUS
 10
100.2089260157
 20
50.0416900046
 11
100.2090525058
 21
50.0417571417
  0
LINE
  5
341
100
AcDbEntity
  8
0
100
AcDbLine
 62
7
  6
CONTINUOUS
 10
127.1320545269
 20
56.0916107795
 11
127.3822327237
 21
56.0916107795
  0
LINE
  5
342
100
AcDbEntity
  8
0
100
AcDbLine
 62
7
  6
CONTINUOUS
 10
127.1142329942
 20
56.4666107795
 11
127.3646344737
 21
56.4666107795
  0
LINE
  5
343
100
AcDbEntity
  8
0
100
AcDbLine
 62
7
  6
CONTINUOUS
 10
127.0983781161
 20
56.7166105411
 11
127.3489785716
 21
56.7166105411
  0
LINE
  5
344
100
AcDbEntity
  8
0
100
AcDbLine
 62
7
  6
CONTINUOUS
 10
127.0892557552
 20
56.8416107795
 11
127.3399708373
 21
56.8416107795
  0
LINE
  5
345
100
AcDbEntity
  8
RUNDUNGEN
100
AcDbLine
 62
7
  6
CONTINUOUS
 10
100.2090528916
 20
60.6414626712
 11
100.2089240945
 21
60.6415310329
  0
LINE
  5
346
100
AcDbEntity
  8
BEZUGSACHSEN
100
AcDbLine
 62
7
  6
CONTINUOUS
 10
111.09630018
 20
58.3416105411
 11
111.09630018
 21
52.3416105411
  0
LWPOLYLINE
  5
347
100
AcDbEntity
  8
RUNDUNGEN
100
AcDbPolyline
 62
7
  6
CONTINUOUS
 90
5
 70
0
 10
115.7506103776
 20
62.1704082034
 10
115.839536311
 20
62.3290413004
 10
115.9281241556
 20
62.4752422685
 10
116.0156933867
 20
62.6087004465
 10
116.0555509
 20
62.665922156
  0
LWPOLYLINE
  5
348
100
AcDbEntity
  8
RUNDUNGEN
100
AcDbPolyline
 62
7
  6
CONTINUOUS
 90
4
 70
0
 10
116.0562161068
 20
62.6668811966
 10
116.0911685681
 20
62.7179328191
 10
116.1831608411
 20
62.873270341
 10
116.2593304411
 20
63.0363530108
  0
LINE
  5
349
100
AcDbEntity
  8
RUNDUNGEN
100
AcDbLine
 62
7
  6
CONTINUOUS
 10
116.0560151613
 20
62.6665979972
 11
116.0555595178
 21
62.665956337
  0
LINE
  5
34A
100
AcDbEntity
  8
0
100
AcDbLine
 62
7
  6
CONTINUOUS
 10
127.017717023
 20
57.5916107795
 11
127.269334647
 21
57.5916107795
  0
LINE
  5
34B
100
AcDbEntity
  8
0
100
AcDbLine
 62
7
  6
CONTINUOUS
 10
126.9539074627
 20
58.0916100642
 11
127.2063355819
 21
58.0916100642
  0
LINE
  5
34C
100
AcDbEntity
  8
RUNDUNGEN
100
AcDbLine
 62
7
  6
CONTINUOUS
 10
103.1408628265
 20
58.3416105411
 11
111.6517375335
 21
58.3416105411
  0
LINE
  5
34D
100
AcDbEntity
  8
0
100
AcDbLine
 62
7
  6
CONTINUOUS
 10
126.8770599188
 20
58.5916105411
 11
127.1304710519
 21
58.5916105411
  0
LINE
  5
34E
100
AcDbEntity
  8
RUNDUNGEN
100
AcDbLine
 62
7
  6
CONTINUOUS
 10
116.0555593506
 20
48.0172843275
 11
116.0558335229
 21
48.0168982454
  0
LWPOLYLINE
  5
34F
100
AcDbEntity
  8
RUNDUNGEN
100
AcDbPolyline
 62
7
  6
CONTINUOUS
 90
4
 70
0
 10
116.0119190979
 20
48.0800534036
 10
115.9242696157
 20
48.2140993818
 10
115.8356494007
 20
48.3608534107
 10
115.7467251941
 20
48.5200201547
  0
LINE
  5
350
100
AcDbEntity
  8
RUNDUNGEN
100
AcDbLine
 62
7
  6
CONTINUOUS
 10
116.2593304411
 20
63.0363530108
 11
116.318680095
 21
63.2042757277
  0
LINE
  5
351
100
AcDbEntity
  8
RUNDUNGEN
100
AcDbLine
 62
7
  6
CONTINUOUS
 10
115.475984622
 20
61.6012220731
 11
115.5119189457
 21
61.6821738388
  0
LWPOLYLINE
  5
352
100
AcDbEntity
  8
RUNDUNGEN
100
AcDbPolyline
 62
7
  6
CONTINUOUS
 90
3
 70
0
 10
115.5119189457
 20
61.6821738388
 10
115.5472870995
 20
61.759956127
 10
115.5841069266
 20
61.8390009419
  0
LINE
  5
353
100
AcDbEntity
  8
RUNDUNGEN
100
AcDbLine
 62
7
  6
CONTINUOUS
 10
115.5841069266
 20
61.8390009419
 11
115.6161491748
 21
61.9062989468
  0
LWPOLYLINE
  5
354
100
AcDbEntity
  8
RUNDUNGEN
100
AcDbPolyline
 62
7
  6
CONTINUOUS
 90
3
 70
0
 10
115.6161731609
 20
61.906343637
 10
115.6619653202
 20
61.9997188161
 10
115.7506103776
 20
62.1704082034
  0
LWPOLYLINE
  5
355
100
AcDbEntity
  8
RUNDUNGEN
100
AcDbPolyline
 62
7
  6
CONTINUOUS
 90
3
 70
0
 10
115.7467251941
 20
48.5200201547
 10
115.6581108523
 20
48.6912202932
 10
115.6161770202
 20
48.7768691872
  0
LWPOLYLINE
  5
356
100
AcDbEntity
  8
RUNDUNGEN
100
AcDbPolyline
 62
7
  6
CONTINUOUS
 90
4
 70
0
 10
115.6161770202
 20
48.7768691872
 10
115.5805890398
 20
48.8516914633
 10
115.5438494916
 20
48.9307423058
 10
115.5079018995
 20
49.0099813165
  0
LWPOLYLINE
  5
357
100
AcDbEntity
  8
RUNDUNGEN
100
AcDbPolyline
 62
7
  6
CONTINUOUS
 90
4
 70
0
 10
116.2557440651
 20
47.6555853982
 10
116.1766778021
 20
47.8221168029
 10
116.0811165446
 20
47.9803615653
 10
116.0119190979
 20
48.0800534036
  0
LINE
  5
358
100
AcDbEntity
  8
RUNDUNGEN
100
AcDbLine
 62
7
  6
CONTINUOUS
 10
115.4759840651
 20
49.0820002842
 11
115.5079018995
 21
49.0099813165
  0
LINE
  5
359
100
AcDbEntity
  8
RUNDUNGEN
100
AcDbLine
 62
7
  6
CONTINUOUS
 10
116.3186575672
 20
47.4790046277
 11
116.2557440651
 21
47.6555853982
  0
LWPOLYLINE
  5
35A
100
AcDbEntity
  8
RUNDUNGEN
100
AcDbPolyline
 62
7
  6
CONTINUOUS
 90
6
 70
0
 10
116.330164757
 20
63.2440411048
 10
116.3534328965
 20
63.3362516945
 10
116.3726011085
 20
63.4331351732
 10
116.3868247346
 20
63.5357734907
 10
116.3949841888
 20
63.6458559897
 10
116.3963001123
 20
63.7113766333
  0
LINE
  5
35B
100
AcDbEntity
  8
RUNDUNGEN
100
AcDbLine
 62
7
  6
CONTINUOUS
 10
116.3187589066
 20
63.2045634663
 11
116.330164757
 21
63.2440411048
  0
LINE
  5
35C
100
AcDbEntity
  8
RUNDUNGEN
100
AcDbLine
 62
7
  6
CONTINUOUS
 10
116.3187657625
 20
63.2045614417
 11
116.318680095
 21
63.2042757277
  0
LINE
  5
35D
100
AcDbEntity
  8
0
100
AcDbLine
 62
7
  6
CONTINUOUS
 10
126.1312941752
 20
61.5916105411
 11
126.394655372
 21
61.5916105411
  0
LINE
  5
35E
100
AcDbEntity
  8
0
100
AcDbLine
 62
7
  6
CONTINUOUS
 10
125.9110745087
 20
62.2166110179
 11
126.1775240071
 21
62.2166110179
  0
LINE
  5
35F
100
AcDbEntity
  8
0
100
AcDbLine
 62
7
  6
CONTINUOUS
 10
125.7176504305
 20
62.7166105411
 11
125.9868723874
 21
62.7166105411
  0
LINE
  5
360
100
AcDbEntity
  8
RUNDUNGEN
100
AcDbLine
 62
7
  6
CONTINUOUS
 10
116.3186575672
 20
47.4790046277
 11
116.3187438879
 21
47.4787168587
  0
LWPOLYLINE
  5
361
100
AcDbEntity
  8
RUNDUNGEN
100
AcDbPolyline
 62
7
  6
CONTINUOUS
 90
7
 70
0
 10
116.396300237
 20
46.971623268
 10
116.3945573707
 20
47.0471884388
 10
116.3859396109
 20
47.1554896532
 10
116.371484999
 20
47.2566027257
 10
116.3522773595
 20
47.3520465198
 10
116.3291539695
 20
47.4428002227
 10
116.3187413637
 20
47.4787161044
  0
LINE
  5
362
100
AcDbEntity
  8
0
100
AcDbLine
 62
7
  6
CONTINUOUS
 10
116.39630018
 20
69.3416105411
 11
116.39630018
 21
64.3969956792
  0
LINE
  5
363
100
AcDbEntity
  8
RUNDUNGEN
100
AcDbLine
 62
7
  6
CONTINUOUS
 10
116.39630018
 20
39.0301881629
 11
116.39630018
 21
46.9723124436
  0
LINE
  5
364
100
AcDbEntity
  8
RUNDUNGEN
100
AcDbLine
 62
7
  6
CONTINUOUS
 10
116.39630018
 20
63.7112364618
 11
116.39630018
 21
71.6530329193
  0
LINE
  5
365
100
AcDbEntity
  8
0
100
AcDbLine
 62
7
  6
CONTINUOUS
 10
125.5083647368
 20
63.2166100642
 11
125.7806517462
 21
63.2166100642
  0
LINE
  5
366
100
AcDbEntity
  8
0
100
AcDbLine
 62
7
  6
CONTINUOUS
 10
125.3976022162
 20
63.4666105411
 11
125.6715395765
 21
63.4666105411
  0
LINE
  5
367
100
AcDbEntity
  8
0
100
AcDbLine
 62
7
  6
CONTINUOUS
 10
125.3406588442
 20
63.5916100642
 11
125.6154524069
 21
63.5916100642
  0
LINE
  5
368
100
AcDbEntity
  8
0
100
AcDbLine
 62
7
  6
CONTINUOUS
 10
98.39630018
 20
65.3416105411
 11
97.89630018
 21
65.3416105411
  0
LINE
  5
369
100
AcDbEntity
  8
0
100
AcDbLine
 62
7
  6
CONTINUOUS
 10
98.39630018
 20
65.4054403263
 11
97.89630018
 21
65.4054403263
  0
LINE
  5
36A
100
AcDbEntity
  8
0
100
AcDbLine
 62
7
  6
CONTINUOUS
 10
98.39630018
 20
65.5969296819
 11
97.89630018
 21
65.5969296819
  0
LINE
  5
36B
100
AcDbEntity
  8
0
100
AcDbLine
 62
7
  6
CONTINUOUS
 10
98.39630018
 20
65.8522488228
 11
97.89630018
 21
65.8522488228
  0
LINE
  5
36C
100
AcDbEntity
  8
0
100
AcDbLine
 62
7
  6
CONTINUOUS
 10
98.39630018
 20
66.1713977656
 11
97.89630018
 21
66.1713977656
  0
LINE
  5
36D
100
AcDbEntity
  8
0
100
AcDbLine
 62
7
  6
CONTINUOUS
 10
123.7149050343
 20
66.4666110179
 11
124.0165999484
 21
66.4666110179
  0
LINE
  5
36E
100
AcDbEntity
  8
0
100
AcDbLine
 62
7
  6
CONTINUOUS
 10
98.39630018
 20
66.4905467531
 11
97.89630018
 21
66.4905467531
  0
LINE
  5
36F
100
AcDbEntity
  8
0
100
AcDbLine
 62
7
  6
CONTINUOUS
 10
123.5416365298
 20
66.7166100642
 11
123.846509475
 21
66.7166100642
  0
LINE
  5
370
100
AcDbEntity
  8
0
100
AcDbLine
 62
7
  6
CONTINUOUS
 10
98.39630018
 20
66.8096956513
 11
97.89630018
 21
66.8096956513
  0
LINE
  5
371
100
AcDbEntity
  8
0
100
AcDbLine
 62
7
  6
CONTINUOUS
 10
98.39630018
 20
67.0011849901
 11
97.89630018
 21
67.0011849901
  0
LINE
  5
372
100
AcDbEntity
  8
0
100
AcDbLine
 62
7
  6
CONTINUOUS
 10
98.39630018
 20
67.192674329
 11
97.89630018
 21
67.192674329
  0
LINE
  5
373
100
AcDbEntity
  8
0
100
AcDbLine
 62
7
  6
CONTINUOUS
 10
98.39630018
 20
67.2565041086
 11
97.89630018
 21
67.2565041086
  0
LINE
  5
374
100
AcDbEntity
  8
0
100
AcDbLine
 62
7
  6
CONTINUOUS
 10
98.39630018
 20
67.4479934475
 11
97.89630018
 21
67.4479934475
  0
LINE
  5
375
100
AcDbEntity
  8
0
100
AcDbLine
 62
7
  6
CONTINUOUS
 10
98.39630018
 20
67.6394829652
 11
97.89630018
 21
67.6394829652
  0
LINE
  5
376
100
AcDbEntity
  8
0
100
AcDbLine
 62
7
  6
CONTINUOUS
 10
122.7885669072
 20
67.7166105411
 11
123.1080593113
 21
67.7166105411
  0
LINE
  5
377
100
AcDbEntity
  8
0
100
AcDbLine
 62
7
  6
CONTINUOUS
 10
98.39630018
 20
67.8309723041
 11
97.89630018
 21
67.8309723041
  0
LINE
  5
378
100
AcDbEntity
  8
0
100
AcDbLine
 62
7
  6
CONTINUOUS
 10
98.39630018
 20
68.0862914226
 11
97.89630018
 21
68.0862914226
  0
LINE
  5
379
100
AcDbEntity
  8
0
100
AcDbLine
 62
7
  6
CONTINUOUS
 10
98.39630018
 20
68.2777807614
 11
97.89630018
 21
68.2777807614
  0
LINE
  5
37A
100
AcDbEntity
  8
0
100
AcDbLine
 62
7
  6
CONTINUOUS
 10
98.39630018
 20
68.3416105411
 11
97.89630018
 21
68.3416105411
  0
LINE
  5
37B
100
AcDbEntity
  8
0
100
AcDbLine
 62
7
  6
CONTINUOUS
 10
121.9280550813
 20
68.7166095874
 11
122.2660480094
 21
68.7166095874
  0
LINE
  5
37C
100
AcDbEntity
  8
0
100
AcDbLine
 62
7
  6
CONTINUOUS
 10
121.3269309373
 20
69.3416114947
 11
121.6791561023
 21
69.3416114947
  0
LINE
  5
37D
100
AcDbEntity
  8
RUNDUNGEN
100
AcDbLine
 62
7
  6
CONTINUOUS
 10
99.39630018
 20
70.3416105411
 11
115.39630018
 21
70.3416105411
  0
LINE
  5
37E
100
AcDbEntity
  8
0
100
AcDbLine
 62
7
  6
CONTINUOUS
 10
119.7927462433
 20
70.7166105411
 11
120.1872882185
 21
70.7166105411
  0
ARC
  5
37F
100
AcDbEntity
  8
RUNDUNGEN
100
AcDbCircle
 62
7
  6
CONTINUOUS
 10
93.39630018
 20
147.608019293
 40
5.0
100
AcDbArc
 50
270.0003558636
 51
360.0
  0
ARC
  5
380
100
AcDbEntity
  8
RUNDUNGEN
100
AcDbCircle
 62
7
  6
CONTINUOUS
 10
89.64630018
 20
140.608019293
 40
2.0
100
AcDbArc
 50
90.0
 51
180.0
  0
ARC
  5
381
100
AcDbEntity
  8
RUNDUNGEN
100
AcDbCircle
 62
7
  6
CONTINUOUS
 10
121.39630018
 20
147.608019293
 40
5.0
100
AcDbArc
 50
180.0
 51
269.9999675918
  0
ARC
  5
382
100
AcDbEntity
  8
RUNDUNGEN
100
AcDbCircle
 62
7
  6
CONTINUOUS
 10
125.14630018
 20
140.608019293
 40
2.0
100
AcDbArc
 50
0.0
 51
90.0
  0
ARC
  5
383
100
AcDbEntity
  8
RUNDUNGEN
100
AcDbCircle
 62
7
  6
CONTINUOUS
 10
107.39630018
 20
166.108019293
 40
9.0
100
AcDbArc
 50
0.0
 51
180.0
  0
ARC
  5
384
100
AcDbEntity
  8
RUNDUNGEN
100
AcDbCircle
 62
7
  6
CONTINUOUS
 10
196.5351882451
 20
152.108019293
 40
8.0
100
AcDbArc
 50
137.9988784384
 51
42.0013962293
  0
ARC
  5
385
100
AcDbEntity
  8
RUNDUNGEN
100
AcDbCircle
 62
7
  6
CONTINUOUS
 10
178.0351882451
 20
160.2730828025
 40
3.5
100
AcDbArc
 50
330.0
 51
360.0
  0
ARC
  5
386
100
AcDbEntity
  8
RUNDUNGEN
100
AcDbCircle
 62
7
  6
CONTINUOUS
 10
184.0351882451
 20
171.6322240037
 40
2.5
100
AcDbArc
 50
150.0030876611
 51
179.9990290171
  0
ARC
  5
387
100
AcDbEntity
  8
RUNDUNGEN
100
AcDbCircle
 62
7
  6
CONTINUOUS
 10
191.5351882451
 20
171.6837340074
 40
2.0
100
AcDbArc
 50
0.0
 51
76.8634412131
  0
ARC
  5
388
100
AcDbEntity
  8
RUNDUNGEN
100
AcDbCircle
 62
7
  6
CONTINUOUS
 10
191.5351882451
 20
161.4997222175
 40
2.0
100
AcDbArc
 50
318.0
 51
360.0
  0
ARC
  5
389
100
AcDbEntity
  8
RUNDUNGEN
100
AcDbCircle
 62
7
  6
CONTINUOUS
 10
177.7851964937
 20
150.8400843875
 40
1.0
100
AcDbArc
 50
150.0009452138
 51
180.0008185712
  0
ARC
  5
38A
100
AcDbEntity
  8
0
100
AcDbCircle
 62
7
  6
CONTINUOUS
 10
196.5351882451
 20
193.108019293
 40
20.0
100
AcDbArc
 50
283.1365587869
 51
294.909152737
  0
ARC
  5
38B
100
AcDbEntity
  8
0
100
AcDbCircle
 62
7
  6
CONTINUOUS
 10
196.5351882451
 20
193.108019293
 40
20.0
100
AcDbArc
 50
245.090847263
 51
256.8634412131
  0
ARC
  5
38C
100
AcDbEntity
  8
RUNDUNGEN
100
AcDbCircle
 62
7
  6
CONTINUOUS
 10
187.479803107
 20
173.608019293
 40
1.5
100
AcDbArc
 50
65.0908472631
 51
90.0
  0
ARC
  5
38D
100
AcDbEntity
  8
RUNDUNGEN
100
AcDbCircle
 62
7
  6
CONTINUOUS
 10
183.7325385143
 20
174.108019293
 40
1.0
100
AcDbArc
 50
90.0000000006
 51
150.0
  0
ARC
  5
38E
100
AcDbEntity
  8
RUNDUNGEN
100
AcDbCircle
 62
7
  6
CONTINUOUS
 10
216.0151882451
 20
160.2730828025
 40
3.5
100
AcDbArc
 50
180.0
 51
210.0
  0
ARC
  5
38F
100
AcDbEntity
  8
RUNDUNGEN
100
AcDbCircle
 62
7
  6
CONTINUOUS
 10
210.0151882451
 20
171.6322240037
 40
2.5
100
AcDbArc
 50
359.9999173245
 51
30.0
  0
ARC
  5
390
100
AcDbEntity
  8
RUNDUNGEN
100
AcDbCircle
 62
7
  6
CONTINUOUS
 10
201.5351882451
 20
171.6837340074
 40
2.0
100
AcDbArc
 50
103.1365587869
 51
180.0
  0
ARC
  5
391
100
AcDbEntity
  8
0
100
AcDbCircle
 62
7
  6
CONTINUOUS
 10
209.5157227618
 20
157.6373302602
 40
2.0
100
AcDbArc
 50
174.2608295227
 51
356.9363238298
  0
ARC
  5
392
100
AcDbEntity
  8
0
100
AcDbCircle
 62
7
  6
CONTINUOUS
 10
209.5157227618
 20
154.2373302602
 40
2.0
100
AcDbArc
 50
174.2608295227
 51
356.9363238298
  0
ARC
  5
393
100
AcDbEntity
  8
RUNDUNGEN
100
AcDbCircle
 62
7
  6
CONTINUOUS
 10
201.5351882451
 20
161.4997222175
 40
2.0
100
AcDbArc
 50
180.0
 51
222.0
  0
ARC
  5
394
100
AcDbEntity
  8
0
100
AcDbCircle
 62
7
  6
CONTINUOUS
 10
209.5157227618
 20
157.6373302602
 40
1.4
100
AcDbArc
 50
282.3736251162
 51
8.2132107017
  0
ARC
  5
395
100
AcDbEntity
  8
0
100
AcDbCircle
 62
7
  6
CONTINUOUS
 10
209.5157227618
 20
157.6373302602
 40
1.4
100
AcDbArc
 50
171.7867892983
 51
257.4447123387
  0
ARC
  5
396
100
AcDbEntity
  8
0
100
AcDbCircle
 62
7
  6
CONTINUOUS
 10
209.5157227618
 20
154.2373302602
 40
1.4
100
AcDbArc
 50
181.7503387136
 51
8.2132107017
  0
ARC
  5
397
100
AcDbEntity
  8
RUNDUNGEN
100
AcDbCircle
 62
7
  6
CONTINUOUS
 10
215.2851398251
 20
152.5375637579
 40
1.0
100
AcDbArc
 50
359.9951951704
 51
29.9944514745
  0
ARC
  5
398
100
AcDbEntity
  8
RUNDUNGEN
100
AcDbCircle
 62
7
  6
CONTINUOUS
 10
205.5905733833
 20
173.608019293
 40
1.5
100
AcDbArc
 50
90.0
 51
114.9091527369
  0
ARC
  5
399
100
AcDbEntity
  8
RUNDUNGEN
100
AcDbCircle
 62
7
  6
CONTINUOUS
 10
210.3178379759
 20
174.108019293
 40
1.0
100
AcDbArc
 50
30.0
 51
89.9999999995
  0
ARC
  5
39A
100
AcDbEntity
  8
RUNDUNGEN
100
AcDbCircle
 62
7
  6
CONTINUOUS
 10
100.39630018
 20
39.0301881629
 40
2.0
100
AcDbArc
 50
180.0
 51
246.7726241047
  0
ARC
  5
39B
100
AcDbEntity
  8
RUNDUNGEN
100
AcDbCircle
 62
7
  6
CONTINUOUS
 10
101.249240731
 20
48.3305576543
 40
1.9999999845
100
AcDbArc
 50
118.7910727894
 51
161.4165915854
  0
ARC
  5
39C
100
AcDbEntity
  8
RUNDUNGEN
100
AcDbCircle
 62
7
  6
CONTINUOUS
 10
101.146119578
 20
48.2757205903
 40
1.9992447937
100
AcDbArc
 50
117.9547632797
 51
156.2164871759
  0
ARC
  5
39D
100
AcDbEntity
  8
RUNDUNGEN
100
AcDbCircle
 62
7
  6
CONTINUOUS
 10
99.89630018
 20
46.2862254029
 40
1.5
100
AcDbArc
 50
155.090847263
 51
180.0
  0
ARC
  5
39E
100
AcDbEntity
  8
RUNDUNGEN
100
AcDbCircle
 62
7
  6
CONTINUOUS
 10
99.39630018
 20
40.3616105411
 40
1.0
100
AcDbArc
 50
180.0
 51
270.0
  0
ARC
  5
39F
100
AcDbEntity
  8
RUNDUNGEN
100
AcDbCircle
 62
7
  6
CONTINUOUS
 10
103.1408628265
 20
51.3416105411
 40
1.0
100
AcDbArc
 50
90.0
 51
145.150095421
  0
ARC
  5
3A0
100
AcDbEntity
  8
0
100
AcDbCircle
 62
7
  6
CONTINUOUS
 10
80.39630018
 20
55.3416105411
 40
20.0
100
AcDbArc
 50
335.090847263
 51
341.4166327144
  0
ARC
  5
3A1
100
AcDbEntity
  8
0
100
AcDbCircle
 62
7
  6
CONTINUOUS
 10
80.39630018
 20
55.3416105411
 40
20.0
100
AcDbArc
 50
18.5833672856
 51
24.9091527369
  0
ARC
  5
3A2
100
AcDbEntity
  8
RUNDUNGEN
100
AcDbCircle
 62
7
  6
CONTINUOUS
 10
80.39630018
 20
55.3416105411
 40
20.0
100
AcDbArc
 50
335.090847263
 51
341.4166327144
  0
ARC
  5
3A3
100
AcDbEntity
  8
RUNDUNGEN
100
AcDbCircle
 62
7
  6
CONTINUOUS
 10
80.39630018
 20
55.3416105411
 40
20.0
100
AcDbArc
 50
18.5833672856
 51
24.909152737
  0
ARC
  5
3A4
100
AcDbEntity
  8
RUNDUNGEN
100
AcDbCircle
 62
7
  6
CONTINUOUS
 10
97.39630018
 20
55.3416105411
 40
6.0
100
AcDbArc
 50
34.8725147689
 51
62.0445627885
  0
ARC
  5
3A5
100
AcDbEntity
  8
RUNDUNGEN
100
AcDbCircle
 62
7
  6
CONTINUOUS
 10
97.39630018
 20
55.3416105411
 40
6.0
100
AcDbArc
 50
297.9555526836
 51
325.150095421
  0
ARC
  5
3A6
100
AcDbEntity
  8
RUNDUNGEN
100
AcDbCircle
 62
7
  6
CONTINUOUS
 10
101.2492413565
 20
62.3526621234
 40
2.0
100
AcDbArc
 50
198.5833672856
 51
241.2088935109
  0
ARC
  5
3A7
100
AcDbEntity
  8
RUNDUNGEN
100
AcDbCircle
 62
7
  6
CONTINUOUS
 10
101.1461202338
 20
62.4074991443
 40
1.9992448509
100
AcDbArc
 50
203.7835073554
 51
242.0451644948
  0
ARC
  5
3A8
100
AcDbEntity
  8
RUNDUNGEN
100
AcDbCircle
 62
7
  6
CONTINUOUS
 10
103.1408628265
 20
59.3416105411
 40
1.0
100
AcDbArc
 50
214.5786948864
 51
270.0018508594
  0
ARC
  5
3A9
100
AcDbEntity
  8
RUNDUNGEN
100
AcDbCircle
 62
7
  6
CONTINUOUS
 10
100.39630018
 20
71.6530329193
 40
2.0
100
AcDbArc
 50
113.2248924501
 51
180.0
  0
ARC
  5
3AA
100
AcDbEntity
  8
RUNDUNGEN
100
AcDbCircle
 62
7
  6
CONTINUOUS
 10
99.89630018
 20
64.3969956792
 40
1.5
100
AcDbArc
 50
180.0
 51
204.9091527382
  0
ARC
  5
3AB
100
AcDbEntity
  8
RUNDUNGEN
100
AcDbCircle
 62
7
  6
CONTINUOUS
 10
99.39630018
 20
69.3416105411
 40
1.0
100
AcDbArc
 50
90.0
 51
180.0
  0
ARC
  5
3AC
100
AcDbEntity
  8
RUNDUNGEN
100
AcDbCircle
 62
7
  6
CONTINUOUS
 10
114.39630018
 20
39.0301881629
 40
2.0
100
AcDbArc
 50
293.2270472543
 51
360.0
  0
ARC
  5
3AD
100
AcDbEntity
  8
RUNDUNGEN
100
AcDbCircle
 62
7
  6
CONTINUOUS
 10
113.5433590035
 20
48.3305589587
 40
2.0
100
AcDbArc
 50
18.5833672856
 51
61.2088935109
  0
ARC
  5
3AE
100
AcDbEntity
  8
RUNDUNGEN
100
AcDbCircle
 62
7
  6
CONTINUOUS
 10
113.6464802027
 20
48.2757218106
 40
1.9992448493
100
AcDbArc
 50
23.7835096573
 51
62.0450587507
  0
ARC
  5
3AF
100
AcDbEntity
  8
RUNDUNGEN
100
AcDbCircle
 62
7
  6
CONTINUOUS
 10
114.89630018
 20
46.2862254029
 40
1.5
100
AcDbArc
 50
0.0
 51
24.909152737
  0
ARC
  5
3B0
100
AcDbEntity
  8
RUNDUNGEN
100
AcDbCircle
 62
7
  6
CONTINUOUS
 10
115.39630018
 20
40.3616105411
 40
1.0
100
AcDbArc
 50
270.0
 51
360.0
  0
ARC
  5
3B1
100
AcDbEntity
  8
RUNDUNGEN
100
AcDbCircle
 62
7
  6
CONTINUOUS
 10
111.6517375335
 20
51.3416105411
 40
1.0
100
AcDbArc
 50
34.849904579
 51
90.0
  0
ARC
  5
3B2
100
AcDbEntity
  8
0
100
AcDbCircle
 62
7
  6
CONTINUOUS
 10
107.39630018
 20
55.3416105411
 40
20.0
100
AcDbArc
 50
38.2249102016
 51
50.2417722628
  0
ARC
  5
3B3
100
AcDbEntity
  8
0
100
AcDbCircle
 62
7
  6
CONTINUOUS
 10
107.39630018
 20
55.3416105411
 40
20.0
100
AcDbArc
 50
323.1301023542
 51
34.6631037125
  0
CIRCLE
  5
3B4
100
AcDbEntity
  8
RUNDUNGEN
100
AcDbCircle
 62
7
  6
CONTINUOUS
 10
107.39630018
 20
55.3416105411
 40
19.75
  0
ARC
  5
3B5
100
AcDbEntity
  8
RUNDUNGEN
100
AcDbCircle
 62
7
  6
CONTINUOUS
 10
111.6517375335
 20
59.3416105411
 40
1.0
100
AcDbArc
 50
269.9981653606
 51
325.4095925601
  0
ARC
  5
3B6
100
AcDbEntity
  8
RUNDUNGEN
100
AcDbCircle
 62
7
  6
CONTINUOUS
 10
117.39630018
 20
55.3416105411
 40
6.0
100
AcDbArc
 50
117.9555532773
 51
145.1284614819
  0
ARC
  5
3B7
100
AcDbEntity
  8
RUNDUNGEN
100
AcDbCircle
 62
7
  6
CONTINUOUS
 10
117.39630018
 20
55.3416105411
 40
6.0
100
AcDbArc
 50
214.849904579
 51
242.0445627616
  0
ARC
  5
3B8
100
AcDbEntity
  8
RUNDUNGEN
100
AcDbCircle
 62
7
  6
CONTINUOUS
 10
113.5433597196
 20
62.3526636294
 40
1.9999999826
100
AcDbArc
 50
298.7910677326
 51
341.4165852833
  0
ARC
  5
3B9
100
AcDbEntity
  8
RUNDUNGEN
100
AcDbCircle
 62
7
  6
CONTINUOUS
 10
113.6464808549
 20
62.4075006414
 40
1.9992447972
100
AcDbArc
 50
297.9547110027
 51
336.2164867574
  0
ARC
  5
3BA
100
AcDbEntity
  8
RUNDUNGEN
100
AcDbCircle
 62
7
  6
CONTINUOUS
 10
114.3963288167
 20
71.6530300911
 40
1.9999918181
100
AcDbArc
 50
0.0000810222
 51
66.7743345796
  0
ARC
  5
3BB
100
AcDbEntity
  8
RUNDUNGEN
100
AcDbCircle
 62
7
  6
CONTINUOUS
 10
114.89630018
 20
64.3969956792
 40
1.5
100
AcDbArc
 50
335.090847263
 51
360.0
  0
ARC
  5
3BC
100
AcDbEntity
  8
RUNDUNGEN
100
AcDbCircle
 62
7
  6
CONTINUOUS
 10
115.39630018
 20
69.3416105411
 40
1.0
100
AcDbArc
 50
0.0
 51
90.0
  0
ARC
  5
3BD
100
AcDbEntity
  8
0
100
AcDbCircle
 62
7
  6
CONTINUOUS
 10
134.39630018
 20
55.3416105411
 40
20.0
100
AcDbArc
 50
198.5833672856
 51
204.909152737
  0
ARC
  5
3BE
100
AcDbEntity
  8
0
100
AcDbCircle
 62
7
  6
CONTINUOUS
 10
134.39630018
 20
55.3416105411
 40
20.0
100
AcDbArc
 50
155.090847263
 51
161.4166327144
  0
ARC
  5
3BF
100
AcDbEntity
  8
RUNDUNGEN
100
AcDbCircle
 62
7
  6
CONTINUOUS
 10
134.39630018
 20
55.3416105411
 40
20.0
100
AcDbArc
 50
198.5833672856
 51
204.9091527369
  0
ARC
  5
3C0
100
AcDbEntity
  8
RUNDUNGEN
100
AcDbCircle
 62
7
  6
CONTINUOUS
 10
134.39630018
 20
55.3416105411
 40
20.0
100
AcDbArc
 50
155.090847263
 51
161.4166327144
  0
ELLIPSE
  5
3C1
100
AcDbEntity
  8
0
100
AcDbEllipse
 62
7
  6
CONTINUOUS
 10
107.39630018
 20
126.1314245071
 30
0.0
 11
0.0
 21
23.8297843933
 31
0.0
 40
0.8392858143
 41
4.8352874542
 42
4.8503259527
  0
ELLIPSE
  5
3C2
100
AcDbEntity
  8
0
100
AcDbEllipse
 62
7
  6
CONTINUOUS
 10
107.39630018
 20
132.854816078
 30
0.0
 11
0.0
 21
61.2764715643
 31
0.0
 40
0.3263895503
 41
-1.6646842019
 42
-1.6584083549
  0
ELLIPSE
  5
3C3
100
AcDbEntity
  8
0
100
AcDbEllipse
 62
7
  6
CONTINUOUS
 10
107.39630018
 20
129.6633380539
 30
0.0
 11
0.0
 21
27.2340393066
 31
0.0
 40
0.7343750875
 41
-1.6835349933
 42
-1.6646842019
  0
ELLIPSE
  5
3C4
100
AcDbEntity
  8
0
100
AcDbEllipse
 62
7
  6
CONTINUOUS
 10
107.39630018
 20
128.32291186
 30
0.0
 11
20.0
 21
0.0
 31
0.0
 40
0.7659569903
 41
-0.1379370085
 42
-0.1127386665
  0
ELLIPSE
  5
3C5
100
AcDbEntity
  8
0
100
AcDbEllipse
 62
7
  6
CONTINUOUS
 10
107.39630018
 20
126.7782322778
 30
0.0
 11
20.0
 21
0.0
 31
0.0
 40
0.2042553727
 41
-0.1695613439
 42
-0.1379370085
  0
ELLIPSE
  5
3C6
100
AcDbEntity
  8
0
100
AcDbEllipse
 62
7
  6
CONTINUOUS
 10
107.39630018
 20
128.7186574101
 30
0.0
 11
20.0
 21
0.0
 31
0.0
 40
0.2042553727
 41
0.1379370085
 42
0.1695613439
  0
ELLIPSE
  5
3C7
100
AcDbEntity
  8
0
100
AcDbEllipse
 62
7
  6
CONTINUOUS
 10
107.39630018
 20
127.1739778279
 30
0.0
 11
20.0
 21
-0.0
 31
0.0
 40
0.7659569903
 41
0.1127386665
 42
0.1379370085
  0
ELLIPSE
  5
3C8
100
AcDbEntity
  8
0
100
AcDbEllipse
 62
7
  6
CONTINUOUS
 10
107.39630018
 20
125.833551634
 30
0.0
 11
-0.0
 21
27.2340393066
 31
0.0
 40
0.7343750875
 41
-1.4769084517
 42
-1.4580576603
  0
ELLIPSE
  5
3C9
100
AcDbEntity
  8
0
100
AcDbEllipse
 62
7
  6
CONTINUOUS
 10
107.39630018
 20
122.6420736099
 30
0.0
 11
0.0
 21
61.2764715643
 31
0.0
 40
0.3263895503
 41
-1.4831842987
 42
-1.4769084517
  0
ELLIPSE
  5
3CA
100
AcDbEntity
  8
0
100
AcDbEllipse
 62
7
  6
CONTINUOUS
 10
107.39630018
 20
150.0888894481
 30
0.0
 11
0.0
 21
61.2766468779
 31
0.0
 40
0.3263886165
 41
-1.9551931013
 42
-1.948460227
  0
ELLIPSE
  5
3CB
100
AcDbEntity
  8
0
100
AcDbEllipse
 62
7
  6
CONTINUOUS
 10
107.39630018
 20
137.3229116089
 30
0.0
 11
0.0
 21
27.2340393066
 31
0.0
 40
0.7343750875
 41
-1.975503929
 42
-1.9551931013
  0
ELLIPSE
  5
3CC
100
AcDbEntity
  8
0
100
AcDbEllipse
 62
7
  6
CONTINUOUS
 10
107.39630018
 20
132.6314242446
 30
0.0
 11
20.0
 21
-0.0
 31
0.0
 40
0.7659575381
 41
-0.4320683779
 42
-0.4047076022
  0
ELLIPSE
  5
3CD
100
AcDbEntity
  8
0
100
AcDbEllipse
 62
7
  6
CONTINUOUS
 10
107.39630018
 20
127.9271676975
 30
0.0
 11
20.0
 21
-0.0
 31
0.0
 40
0.2042552558
 41
-0.466765339
 42
-0.4320683779
  0
ELLIPSE
  5
3CE
100
AcDbEntity
  8
0
100
AcDbEllipse
 62
7
  6
CONTINUOUS
 10
107.39630018
 20
127.5697219904
 30
0.0
 11
20.0
 21
-0.0
 31
0.0
 40
0.2042552558
 41
0.4320683779
 42
0.466765339
  0
ELLIPSE
  5
3CF
100
AcDbEntity
  8
0
100
AcDbEllipse
 62
7
  6
CONTINUOUS
 10
107.39630018
 20
122.8654654433
 30
0.0
 11
20.0
 21
0.0
 31
0.0
 40
0.7659575381
 41
0.4047076022
 42
0.4320683779
  0
ELLIPSE
  5
3D0
100
AcDbEntity
  8
0
100
AcDbEllipse
 62
7
  6
CONTINUOUS
 10
107.39630018
 20
118.173978079
 30
0.0
 11
-0.0
 21
27.2340393066
 31
0.0
 40
0.7343750875
 41
-1.1863995523
 42
-1.1660887246
  0
ELLIPSE
  5
3D1
100
AcDbEntity
  8
0
100
AcDbEllipse
 62
7
  6
CONTINUOUS
 10
107.39630018
 20
105.4080002398
 30
0.0
 11
0.0
 21
61.2766468779
 31
0.0
 40
0.3263886165
 41
-1.1931324266
 42
-1.1863995523
  0
ELLIPSE
  5
3D2
100
AcDbEntity
  8
0
100
AcDbEllipse
 62
7
  6
CONTINUOUS
 10
107.39630018
 20
126.3228911745
 30
0.0
 11
0.0
 21
81.70242959
 31
0.0
 40
0.244790762
 41
-1.5019920408
 42
-1.4957258477
  0
ELLIPSE
  5
3D3
100
AcDbEntity
  8
0
100
AcDbEllipse
 62
7
  6
CONTINUOUS
 10
107.39630018
 20
129.8335551076
 30
0.0
 11
0.0
 21
30.6382357822
 31
0.0
 40
0.6527791007
 41
-1.5145166333
 42
-1.5019920408
  0
ELLIPSE
  5
3D4
100
AcDbEntity
  8
0
100
AcDbEllipse
 62
7
  6
CONTINUOUS
 10
107.39630018
 20
130.7909980437
 30
0.0
 11
20.0
 21
-0.0
 31
0.0
 40
0.6808512211
 41
0.0375087827
 42
0.0562796935
  0
ELLIPSE
  5
3D5
100
AcDbEntity
  8
0
100
AcDbEllipse
 62
7
  6
CONTINUOUS
 10
107.39630018
 20
131.1101469887
 30
0.0
 11
20.0
 21
-0.0
 31
0.0
 40
0.2553189968
 41
0.0125003255
 42
0.0375087827
  0
ELLIPSE
  5
3D6
100
AcDbEntity
  8
0
100
AcDbEllipse
 62
7
  6
CONTINUOUS
 10
107.39630018
 20
135.3867430138
 30
0.0
 11
20.0
 21
-0.0
 31
0.0
 40
0.2042552558
 41
0.2205332548
 42
0.2526802551
  0
ELLIPSE
  5
3D7
100
AcDbEntity
  8
0
100
AcDbEllipse
 62
7
  6
CONTINUOUS
 10
107.39630018
 20
132.9292955958
 30
0.0
 11
20.0
 21
-0.0
 31
0.0
 40
0.7659575381
 41
0.1949831456
 42
0.2205332548
  0
ELLIPSE
  5
3D8
100
AcDbEntity
  8
0
100
AcDbEllipse
 62
7
  6
CONTINUOUS
 10
107.39630018
 20
130.6207859403
 30
0.0
 11
-0.0
 21
27.2340393066
 31
0.0
 40
0.7343750875
 41
-1.3948905586
 42
-1.3758131812
  0
ELLIPSE
  5
3D9
100
AcDbEntity
  8
0
100
AcDbEllipse
 62
7
  6
CONTINUOUS
 10
107.39630018
 20
124.6633296154
 30
0.0
 11
0.0
 21
61.2766468779
 31
0.0
 40
0.3263886165
 41
-1.4012349769
 42
-1.3948905586
  0
ELLIPSE
  5
3DA
100
AcDbEntity
  8
0
100
AcDbEllipse
 62
7
  6
CONTINUOUS
 10
107.39630018
 20
144.8335600725
 30
0.0
 11
0.0
 21
61.2766468779
 31
0.0
 40
0.3263886165
 41
-1.746702095
 42
-1.7403576767
  0
ELLIPSE
  5
3DB
100
AcDbEntity
  8
0
100
AcDbEllipse
 62
7
  6
CONTINUOUS
 10
107.39630018
 20
138.8761037475
 30
0.0
 11
0.0
 21
27.2340393066
 31
0.0
 40
0.7343750875
 41
-1.7657794724
 42
-1.746702095
  0
ELLIPSE
  5
3DC
100
AcDbEntity
  8
0
100
AcDbEllipse
 62
7
  6
CONTINUOUS
 10
107.39630018
 20
135.578232272
 30
0.0
 11
20.0
 21
-0.0
 31
0.0
 40
0.5106383587
 41
-0.2205332548
 42
-0.1949831456
  0
ELLIPSE
  5
3DD
100
AcDbEntity
  8
0
100
AcDbEllipse
 62
7
  6
CONTINUOUS
 10
107.39630018
 20
121.9257500786
 30
0.0
 11
0.0
 21
52.1985816956
 31
0.0
 40
0.3831521729
 41
-1.4075725293
 42
-1.350263072
  0
ELLIPSE
  5
3DE
100
AcDbEntity
  8
0
100
AcDbEllipse
 62
7
  6
CONTINUOUS
 10
107.39630018
 20
120.9612333928
 30
0.0
 11
0.0
 21
100.8508594497
 31
0.0
 40
0.1958337302
 41
-1.4625035236
 42
-1.4566243888
  0
ELLIPSE
  5
3DF
100
AcDbEntity
  8
0
100
AcDbEllipse
 62
7
  6
CONTINUOUS
 10
107.39630018
 20
127.6633387311
 30
0.0
 11
19.75
 21
-0.0
 31
0.0
 40
0.3404254913
 41
0.1460886891
 42
0.1653088211
  0
ELLIPSE
  5
3E0
100
AcDbEntity
  8
0
100
AcDbEllipse
 62
7
  6
CONTINUOUS
 10
107.39630018
 20
125.7058895181
 30
0.0
 11
-0.0
 21
20.1702295973
 31
0.0
 40
0.9791658496
 41
-1.4374904675
 42
-1.4247076377
  0
ELLIPSE
  5
3E1
100
AcDbEntity
  8
0
100
AcDbEllipse
 62
7
  6
CONTINUOUS
 10
107.39630018
 20
120.3442059262
 30
0.0
 11
0.0
 21
60.5105156698
 31
0.0
 40
0.3263895503
 41
-1.4438735601
 42
-1.4374904675
  0
ELLIPSE
  5
3E2
100
AcDbEntity
  8
0
100
AcDbEllipse
 62
7
  6
CONTINUOUS
 10
107.39630018
 20
135.280343321
 30
0.0
 11
0.0
 21
60.5105156698
 31
0.0
 40
0.3263895503
 41
-1.7041021861
 42
-1.6977190935
  0
ELLIPSE
  5
3E3
100
AcDbEntity
  8
0
100
AcDbEllipse
 62
7
  6
CONTINUOUS
 10
107.39630018
 20
127.9612105161
 30
0.0
 11
20.0
 21
-0.0
 31
0.0
 40
0.3404254913
 41
-0.1632237914
 42
-0.1442497255
  0
ELLIPSE
  5
3E4
100
AcDbEntity
  8
0
100
AcDbEllipse
 62
7
  6
CONTINUOUS
 10
107.39630018
 20
129.918659729
 30
0.0
 11
-0.0
 21
20.4255489593
 31
0.0
 40
0.9791658496
 41
-1.7150460523
 42
-1.7024261093
  0
ELLIPSE
  5
3E5
100
AcDbEntity
  8
0
100
AcDbEllipse
 62
7
  6
CONTINUOUS
 10
107.39630018
 20
135.280343321
 30
0.0
 11
0.0
 21
61.2764715643
 31
0.0
 40
0.3263895503
 41
-1.7024261093
 42
-1.6961241459
  0
ELLIPSE
  5
3E6
100
AcDbEntity
  8
0
100
AcDbEllipse
 62
7
  6
CONTINUOUS
 10
107.39630018
 20
129.918659729
 30
0.0
 11
0.0
 21
20.1702295973
 31
0.0
 40
0.9791658496
 41
-1.7168850159
 42
-1.7041021861
  0
ELLIPSE
  5
3E7
100
AcDbEntity
  8
0
100
AcDbEllipse
 62
7
  6
CONTINUOUS
 10
107.39630018
 20
127.9612105161
 30
0.0
 11
19.75
 21
-0.0
 31
0.0
 40
0.3404254913
 41
-0.1653088211
 42
-0.1460886891
  0
ELLIPSE
  5
3E8
100
AcDbEntity
  8
0
100
AcDbEllipse
 62
7
  6
CONTINUOUS
 10
107.39630018
 20
125.7484452206
 30
0.0
 11
19.75
 21
-0.0
 31
0.0
 40
0.3404254913
 41
6.7280987518
 42
6.7492420547
  0
ELLIPSE
  5
3E9
100
AcDbEntity
  8
0
100
AcDbEllipse
 62
7
  6
CONTINUOUS
 10
107.39630018
 20
119.9612159261
 30
0.0
 11
0.0
 21
20.1702007436
 31
0.0
 40
0.9791672503
 41
-1.1398602086
 42
-1.1258828822
  0
ELLIPSE
  5
3EA
100
AcDbEntity
  8
0
100
AcDbEllipse
 62
7
  6
CONTINUOUS
 10
107.39630018
 20
103.1101259819
 30
0.0
 11
0.0
 21
60.5106887919
 31
0.0
 40
0.3263886165
 41
-1.1468151164
 42
-1.1398602086
  0
ELLIPSE
  5
3EB
100
AcDbEntity
  8
0
100
AcDbEllipse
 62
7
  6
CONTINUOUS
 10
107.39630018
 20
120.3442059262
 30
0.0
 11
0.0
 21
61.2764715643
 31
0.0
 40
0.3263895503
 41
-1.4454685076
 42
-1.4391665443
  0
ELLIPSE
  5
3EC
100
AcDbEntity
  8
0
100
AcDbEllipse
 62
7
  6
CONTINUOUS
 10
107.39630018
 20
125.7058895181
 30
0.0
 11
-0.0
 21
20.4255489593
 31
0.0
 40
0.9791658496
 41
-1.4391665443
 42
-1.4265466013
  0
ELLIPSE
  5
3ED
100
AcDbEntity
  8
0
100
AcDbEllipse
 62
7
  6
CONTINUOUS
 10
107.39630018
 20
127.6633387311
 30
0.0
 11
20.0
 21
0.0
 31
0.0
 40
0.3404254913
 41
0.1442497255
 42
0.1632237914
  0
ELLIPSE
  5
3EE
100
AcDbEntity
  8
0
100
AcDbEllipse
 62
7
  6
CONTINUOUS
 10
107.39630018
 20
152.5144232653
 30
0.0
 11
0.0
 21
60.5106887919
 31
0.0
 40
0.3263886165
 41
-2.0017324449
 42
-1.9947775372
  0
ELLIPSE
  5
3EF
100
AcDbEntity
  8
0
100
AcDbEllipse
 62
7
  6
CONTINUOUS
 10
107.39630018
 20
135.663333321
 30
0.0
 11
0.0
 21
20.1702007436
 31
0.0
 40
0.9791672503
 41
-2.0157097714
 42
-2.0017324449
  0
ELLIPSE
  5
3F0
100
AcDbEntity
  8
0
100
AcDbEllipse
 62
7
  6
CONTINUOUS
 10
107.39630018
 20
129.8761040265
 30
0.0
 11
19.75
 21
-0.0
 31
0.0
 40
0.3404254913
 41
-0.4660567476
 42
-0.4449134446
  0
ELLIPSE
  5
3F1
100
AcDbEntity
  8
0
100
AcDbEllipse
 62
7
  6
CONTINUOUS
 10
107.39630018
 20
130.0888705604
 30
0.0
 11
19.75
 21
0.0
 31
0.0
 40
0.5106380606
 41
0.0443183037
 42
0.0581343681
  0
ELLIPSE
  5
3F2
100
AcDbEntity
  8
0
100
AcDbEllipse
 62
7
  6
CONTINUOUS
 10
107.39630018
 20
129.8761040265
 30
0.0
 11
20.0
 21
0.0
 31
0.0
 40
0.3404254913
 41
-0.4597789302
 42
-0.4389618922
  0
ELLIPSE
  5
3F3
100
AcDbEntity
  8
0
100
AcDbEllipse
 62
7
  6
CONTINUOUS
 10
107.39630018
 20
135.663333321
 30
0.0
 11
-0.0
 21
20.4255197403
 31
0.0
 40
0.9791672503
 41
-2.009758219
 42
-1.9959930541
  0
ELLIPSE
  5
3F4
100
AcDbEntity
  8
0
100
AcDbEllipse
 62
7
  6
CONTINUOUS
 10
107.39630018
 20
152.5144232653
 30
0.0
 11
0.0
 21
61.2766468779
 31
0.0
 40
0.3263886165
 41
-1.9959930541
 42
-1.9891427198
  0
ELLIPSE
  5
3F5
100
AcDbEntity
  8
0
100
AcDbEllipse
 62
7
  6
CONTINUOUS
 10
107.39630018
 20
103.1101259819
 30
0.0
 11
0.0
 21
61.2766468779
 31
0.0
 40
0.3263886165
 41
-1.1524499338
 42
-1.1455995994
  0
ELLIPSE
  5
3F6
100
AcDbEntity
  8
0
100
AcDbEllipse
 62
7
  6
CONTINUOUS
 10
107.39630018
 20
119.9612159261
 30
0.0
 11
-0.0
 21
20.4255197403
 31
0.0
 40
0.9791672503
 41
-1.1455995994
 42
-1.1318344346
  0
ELLIPSE
  5
3F7
100
AcDbEntity
  8
0
100
AcDbEllipse
 62
7
  6
CONTINUOUS
 10
107.39630018
 20
125.7484452206
 30
0.0
 11
20.0
 21
-0.0
 31
0.0
 40
0.3404254913
 41
0.4389618922
 42
0.4597789302
  0
ELLIPSE
  5
3F8
100
AcDbEntity
  8
0
100
AcDbEllipse
 62
7
  6
CONTINUOUS
 10
107.39630018
 20
130.3569553967
 30
0.0
 11
19.75
 21
-0.0
 31
0.0
 40
0.2042553906
 41
6.2958438852
 42
6.3275036109
  0
ELLIPSE
  5
3F9
100
AcDbEntity
  8
0
100
AcDbEllipse
 62
7
  6
CONTINUOUS
 10
107.39630018
 20
134.1101471859
 30
0.0
 11
19.75
 21
-0.0
 31
0.0
 40
0.3404254913
 41
0.2298670857
 42
0.2494132931
  0
ELLIPSE
  5
3FA
100
AcDbEntity
  8
0
100
AcDbEllipse
 62
7
  6
CONTINUOUS
 10
107.39630018
 20
131.0463198742
 30
0.0
 11
0.0
 21
20.1702007436
 31
0.0
 40
0.9791672503
 41
-1.3539100727
 42
-1.3409292411
  0
ELLIPSE
  5
3FB
100
AcDbEntity
  8
0
100
AcDbEllipse
 62
7
  6
CONTINUOUS
 10
107.39630018
 20
122.3654553575
 30
0.0
 11
0.0
 21
60.5106887919
 31
0.0
 40
0.3263886165
 41
-1.3603864387
 42
-1.3539100727
  0
ELLIPSE
  5
3FC
100
AcDbEntity
  8
0
100
AcDbEllipse
 62
7
  6
CONTINUOUS
 10
107.39630018
 20
147.2590938897
 30
0.0
 11
0.0
 21
60.5106887919
 31
0.0
 40
0.3263886165
 41
-1.7876825809
 42
-1.7812062149
  0
ELLIPSE
  5
3FD
100
AcDbEntity
  8
0
100
AcDbEllipse
 62
7
  6
CONTINUOUS
 10
107.39630018
 20
138.578229373
 30
0.0
 11
0.0
 21
20.1702007436
 31
0.0
 40
0.9791672503
 41
-1.8006634125
 42
-1.7876825809
  0
ELLIPSE
  5
3FE
100
AcDbEntity
  8
0
100
AcDbEllipse
 62
7
  6
CONTINUOUS
 10
107.39630018
 20
135.5144020612
 30
0.0
 11
19.75
 21
-0.0
 31
0.0
 40
0.3404254913
 41
-0.2494132931
 42
-0.2298670857
  0
ELLIPSE
  5
3FF
100
AcDbEntity
  8
0
100
AcDbEllipse
 62
7
  6
CONTINUOUS
 10
107.39630018
 20
119.3495075191
 30
0.0
 11
0.0
 21
52.9468124179
 31
0.0
 40
0.3730158455
 41
-1.3603864387
 42
-1.3082984464
  0
ELLIPSE
  5
400
100
AcDbEntity
  8
0
100
AcDbEllipse
 62
7
  6
CONTINUOUS
 10
107.39630018
 20
130.3569553967
 30
0.0
 11
20.0
 21
-0.0
 31
0.0
 40
0.2042553906
 41
0.0125003375
 42
0.0437639687
  0
ELLIPSE
  5
401
100
AcDbEntity
  8
0
100
AcDbEllipse
 62
7
  6
CONTINUOUS
 10
107.39630018
 20
130.0888705604
 30
0.0
 11
20.0
 21
0.0
 31
0.0
 40
0.5106380606
 41
0.0437639687
 42
0.068804286
  0
ELLIPSE
  5
402
100
AcDbEntity
  8
0
100
AcDbEllipse
 62
7
  6
CONTINUOUS
 10
107.39630018
 20
129.3867411581
 30
0.0
 11
0.0
 21
20.4255507474
 31
0.0
 40
0.9791657639
 41
-1.5019920408
 42
-1.4769084637
  0
ELLIPSE
  5
403
100
AcDbEntity
  8
0
100
AcDbEllipse
 62
7
  6
CONTINUOUS
 10
107.39630018
 20
127.4718511623
 30
0.0
 11
0.0
 21
40.8510466332
 31
0.0
 40
0.4895835394
 41
-1.4769084637
 42
-1.4643453999
  0
ELLIPSE
  5
404
100
AcDbEntity
  8
0
100
AcDbEllipse
 62
7
  6
CONTINUOUS
 10
107.39630018
 20
120.9612333928
 30
0.0
 11
0.0
 21
102.1274526072
 31
0.0
 40
0.1958337302
 41
-1.4643453999
 42
-1.4580576543
  0
ELLIPSE
  5
405
100
AcDbEntity
  8
0
100
AcDbEllipse
 62
7
  6
CONTINUOUS
 10
107.39630018
 20
135.5144020612
 30
0.0
 11
20.0
 21
-0.0
 31
0.0
 40
0.3404254913
 41
-0.2462306146
 42
-0.2269430423
  0
ELLIPSE
  5
406
100
AcDbEntity
  8
0
100
AcDbEllipse
 62
7
  6
CONTINUOUS
 10
107.39630018
 20
138.578229373
 30
0.0
 11
-0.0
 21
20.4255197403
 31
0.0
 40
0.9791672503
 41
-1.7977393691
 42
-1.7849290099
  0
ELLIPSE
  5
407
100
AcDbEntity
  8
0
100
AcDbEllipse
 62
7
  6
CONTINUOUS
 10
107.39630018
 20
147.2590938897
 30
0.0
 11
0.0
 21
61.2766468779
 31
0.0
 40
0.3263886165
 41
-1.7849290099
 42
-1.7785373349
  0
ELLIPSE
  5
408
100
AcDbEntity
  8
0
100
AcDbEllipse
 62
7
  6
CONTINUOUS
 10
107.39630018
 20
122.3654553575
 30
0.0
 11
0.0
 21
61.2766468779
 31
0.0
 40
0.3263886165
 41
-1.3630553187
 42
-1.3566636437
  0
ELLIPSE
  5
409
100
AcDbEntity
  8
0
100
AcDbEllipse
 62
7
  6
CONTINUOUS
 10
107.39630018
 20
131.0463198742
 30
0.0
 11
-0.0
 21
20.4255197403
 31
0.0
 40
0.9791672503
 41
-1.3566636437
 42
-1.3438532845
  0
ELLIPSE
  5
40A
100
AcDbEntity
  8
0
100
AcDbEllipse
 62
7
  6
CONTINUOUS
 10
107.39630018
 20
134.1101471859
 30
0.0
 11
20.0
 21
0.0
 31
0.0
 40
0.3404254913
 41
0.2269430423
 42
0.2462306146
  0
ELLIPSE
  5
40B
100
AcDbEntity
  8
0
100
AcDbEllipse
 62
7
  6
CONTINUOUS
 10
107.39630018
 20
119.3495075191
 30
0.0
 11
0.0
 21
53.6170252333
 31
0.0
 40
0.3730158455
 41
-1.3630553187
 42
-1.3116556632
  0
ENDSEC
  0
SECTION
  2
OBJECTS
  0
DICTIONARY
  5
C
100
AcDbDictionary
280
0
281
1
  3
ACAD_GROUP
350
D
  3
ACAD_MLINESTYLE
350
17
  3
ACAD_LAYOUT
350
1A
  3
ACAD_PLOTSETTINGS
350
19
  3
ACAD_PLOTSTYLENAME
350
E
  0
DICTIONARY
  5
D
102
{ACAD_REACTORS
330
C
102
}
100
AcDbDictionary
280
0
281
1
  0
ACDBDICTIONARYWDFLT
  5
E
102
{ACAD_REACTORS
330
C
102
}
100
AcDbDictionary
281
1
  3
Normal
350
F
100
AcDbDictionaryWithDefault
340
F
  0
DICTIONARY
  5
17
102
{ACAD_REACTORS
330
C
102
}
100
AcDbDictionary
280
0
281
1
  3
Standard
350
18
  0
DICTIONARY
  5
19
102
{ACAD_REACTORS
330
C
102
}
100
AcDbDictionary
281
1
  0
DICTIONARY
  5
1A
102
{ACAD_REACTORS
330
C
102
}
100
AcDbDictionary
281
1
  3
Model
350
40C
  3
Layout1
350
40D
  0
ACDBPLACEHOLDER
  5
F
102
{ACAD_REACTORS
330
E
102
}
  0
MLINESTYLE
  5
18
102
{ACAD_REACTORS
330
17
102
}
100
AcDbMlineStyle
  2
STANDARD
 70
0
  3

 62
256
 51
90.0
 52
90.0
 71
2
 49
0.5
 62
256
  6
BYLAYER
 49
-0.5
 62
256
  6
BYLAYER
  0
LAYOUT
  5
40C
102
{ACAD_REACTORS
330
1A
102
}
100
AcDbPlotSettings
  1

  2
none_device
  4
ISO_A4_(297.00_x_210.00_MM)
  6

 40
0.0
 41
0.0
 42
0.0
 43
0.0
 44
297.0
 45
210.0
 46
0.0
 47
0.0
 48
0.0
 49
0.0
140
0.0
141
0.0
142
1.0
143
1.0
 70
1024
 72
1
 73
0
 74
0
  7

 75
0
147
1.0
148
0.0
149
0.0
100
AcDbLayout
  1
Model
 70
0
 71
0
 10
0.0
 20
0.0
 11
297.0
 21
210.0
 12
0.0
 22
0.0
 32
0.0
 14
0.0
 24
0.0
 34
0.0
 15
0.0
 25
0.0
 35
0.0
146
0.0
 13
0.0
 23
0.0
 33
0.0
 16
1.0
 26
0.0
 36
0.0
 17
0.0
 27
1.0
 37
0.0
 76
0
330
209
345
0
346
0
  0
LAYOUT
  5
40D
102
{ACAD_REACTORS
330
1A
102
}
100
AcDbPlotSettings
  1

  2
none_device
  4
ISO_A4_(297.00_x_210.00_MM)
  6

 40
0.0
 41
0.0
 42
0.0
 43
0.0
 44
297.0
 45
210.0
 46
0.0
 47
0.0
 48
0.0
 49
0.0
140
0.0
141
0.0
142
1.0
143
1.0
 70
0
 72
1
 73
0
 74
0
  7

 75
0
147
1.0
148
0.0
149
0.0
100
AcDbLayout
  1
Layout1
 70
0
 71
1
 10
0.0
 20
0.0
 11
297.0
 21
210.0
 12
0.0
 22
0.0
 32
0.0
 14
0.0
 24
0.0
 34
0.0
 15
0.0
 25
0.0
 35
0.0
146
0.0
 13
0.0
 23
0.0
 33
0.0
 16
1.0
 26
0.0
 36
0.0
 17
0.0
 27
1.0
 37
0.0
 76
0
330
20A
345
0
346
0
  0
ENDSEC
  0
EOF
