999
DXF file: 001-m31453-p-50.dxf
999
Pro/ENGINEER 2011490 by Parametric Technology Corporation
  0
SECTION
  2
HEADER
  9
$ACADVER
  1
AC1015
  9
$DWGCODEPAGE
  3
ANSI_1252
  9
$EXTMAX
 10
297.0
 20
210.0
 30
0.0
  9
$EXTMIN
 10
0.0
 20
0.0
 30
0.0
  9
$LIMMIN
 10
0.0
 20
0.0
  9
$LIMMAX
 10
297.0
 20
210.0
  9
$VIEWCTR
 10
148.5
 20
105.0
  9
$VIEWSIZE
 40
210.0
  9
$CLAYER
  8
0
  9
$LTSCALE
 40
16.335
  9
$CELTYPE
  6
BYLAYER
  9
$DIMSCALE
 40
1.0
  9
$DIMASZ
 40
3.5
  9
$DIMEXO
 40
1.85625
  9
$DIMDLI
 40
11.286
  9
$DIMEXE
 40
5.346
  9
$DIMCEN
 40
2.673
  9
$DIMLFAC
 40
1.0
  9
$DIMBLK
  1
_FILLED
  9
$DIMTXT
 40
3.5
  9
$DIMTOL
 70
1
  9
$DIMLIM
 70
0
  9
$DIMTFAC
 40
1.0
  9
$DIMTP
 40
0.005
  9
$DIMTM
 40
0.005
  9
$PDMODE
 70
3
  9
$PDSIZE
 40
0.3125
  9
$HANDSEED
  5
415
  9
$TILEMODE
 70
1
  9
$MEASUREMENT
 70
1
  9
$INSUNITS
 70
4
  0
ENDSEC
  0
SECTION
  2
CLASSES
  0
CLASS
  1
ACDBDICTIONARYWDFLT
  2
AcDbDictionaryWithDefault
  3
AutoCAD 2000
 90
0
280
0
281
0
  0
CLASS
  1
ACDBPLACEHOLDER
  2
AcDbPlaceHolder
  3
AutoCAD 2000
 90
0
280
0
281
0
  0
CLASS
  1
LAYOUT
  2
AcDbLayout
  3
AutoCAD 2000
 90
0
280
0
281
0
  0
ENDSEC
  0
SECTION
  2
TABLES
  0
TABLE
  2
VPORT
  5
8
100
AcDbSymbolTable
 70
2
  0
VPORT
  5
1F4
100
AcDbSymbolTableRecord
100
AcDbViewportTableRecord
  2
*ACTIVE
 70
0
 10
0.0
 20
0.0
 11
1.0
 21
1.0
 12
148.5
 22
105.0
 13
0.0
 23
0.0
 14
1.0
 24
1.0
 15
0.0
 25
0.0
 16
0.0
 26
0.0
 36
1.0
 17
0.0
 27
0.0
 37
0.0
 40
210.0
 41
1.4142857143
 42
50.0
 43
0.0
 44
0.0
 50
0.0
 51
0.0
 71
0
 72
100
 73
1
 74
1
 75
0
 76
0
 77
0
 78
0
  0
ENDTAB
  0
TABLE
  2
LTYPE
  5
5
100
AcDbSymbolTable
 70
6
  0
LTYPE
  5
14
100
AcDbSymbolTableRecord
100
AcDbLinetypeTableRecord
  2
BYBLOCK
 70
0
  3

 72
65
 73
0
 40
0.0
  0
LTYPE
  5
15
100
AcDbSymbolTableRecord
100
AcDbLinetypeTableRecord
  2
BYLAYER
 70
0
  3

 72
65
 73
0
 40
0.0
  0
LTYPE
  5
16
100
AcDbSymbolTableRecord
100
AcDbLinetypeTableRecord
  2
CONTINUOUS
 70
64
  3
Solid line
 72
65
 73
0
 40
0.0
  0
LTYPE
  5
1F5
100
AcDbSymbolTableRecord
100
AcDbLinetypeTableRecord
  2
CENTER
 70
64
  3
____ _ ____ _ ____ _ ____ _ ____ _ ____ _ ____
 72
65
 73
4
 40
0.6
 49
0.375
 74
0
 49
-0.075
 74
0
 49
0.075
 74
0
 49
-0.075
 74
0
  0
LTYPE
  5
1F6
100
AcDbSymbolTableRecord
100
AcDbLinetypeTableRecord
  2
HIDDEN
 70
64
  3
- - - - - - - - - - - - - - - - - - - -
 72
65
 73
2
 40
0.2
 49
0.1
 74
0
 49
-0.1
 74
0
  0
LTYPE
  5
1F7
100
AcDbSymbolTableRecord
100
AcDbLinetypeTableRecord
  2
PHANTOM
 70
64
  3
_____ _ _ _____ _ _ _____ _ _ _____
 72
65
 73
6
 40
0.8
 49
0.45
 74
0
 49
-0.05
 74
0
 49
0.1
 74
0
 49
-0.05
 74
0
 49
0.1
 74
0
 49
-0.05
 74
0
  0
LTYPE
  5
1F8
100
AcDbSymbolTableRecord
100
AcDbLinetypeTableRecord
  2
DOT
 70
64
  3
. . . . . . . . . . . . . . . . . . . .
 72
65
 73
2
 40
0.2
 49
0.1
 74
0
 49
-0.1
 74
0
  0
LTYPE
  5
1F9
100
AcDbSymbolTableRecord
100
AcDbLinetypeTableRecord
  2
DASHED
 70
64
  3
- - - - - - - - - - - - - - - - - - - -
 72
65
 73
2
 40
0.2
 49
0.1
 74
0
 49
-0.1
 74
0
  0
ENDTAB
  0
TABLE
  2
LAYER
  5
2
100
AcDbSymbolTable
 70
36
  0
LAYER
  5
10
100
AcDbSymbolTableRecord
100
AcDbLayerTableRecord
  2
0
 70
0
 62
7
  6
CONTINUOUS
370
-3
390
F
  0
LAYER
  5
1FA
100
AcDbSymbolTableRecord
100
AcDbLayerTableRecord
  2
DEFAULT_1
 70
0
 62
7
  6
CENTER
370
-3
390
F
  0
LAYER
  5
1FB
100
AcDbSymbolTableRecord
100
AcDbLayerTableRecord
  2
DEFAULT_2
 70
0
 62
8
  6
HIDDEN
370
-3
390
F
  0
LAYER
  5
1FC
100
AcDbSymbolTableRecord
100
AcDbLayerTableRecord
  2
DEFAULT_3
 70
0
 62
7
  6
PHANTOM
370
-3
390
F
  0
LAYER
  5
1FD
100
AcDbSymbolTableRecord
100
AcDbLayerTableRecord
  2
BEZUGSACHSEN
 70
0
 62
7
  6
CONTINUOUS
370
-3
390
F
  0
LAYER
  5
1FE
100
AcDbSymbolTableRecord
100
AcDbLayerTableRecord
  2
BEZUGSEBENEN
 70
0
 62
7
  6
CONTINUOUS
370
-3
390
F
  0
LAYER
  5
1FF
100
AcDbSymbolTableRecord
100
AcDbLayerTableRecord
  2
BG_STARTBEZUEGE
 70
0
 62
7
  6
CONTINUOUS
370
-3
390
F
  0
LAYER
  5
200
100
AcDbSymbolTableRecord
100
AcDbLayerTableRecord
  2
FASEN
 70
0
 62
7
  6
CONTINUOUS
370
-3
390
F
  0
LAYER
  5
201
100
AcDbSymbolTableRecord
100
AcDbLayerTableRecord
  2
HILFEN
 70
0
 62
7
  6
CONTINUOUS
370
-3
390
F
  0
LAYER
  5
202
100
AcDbSymbolTableRecord
100
AcDbLayerTableRecord
  2
KURVEN
 70
0
 62
7
  6
CONTINUOUS
370
-3
390
F
  0
LAYER
  5
203
100
AcDbSymbolTableRecord
100
AcDbLayerTableRecord
  2
NORM
 70
0
 62
7
  6
CONTINUOUS
370
-3
390
F
  0
LAYER
  5
204
100
AcDbSymbolTableRecord
100
AcDbLayerTableRecord
  2
PLATZIERUNG
 70
0
 62
7
  6
CONTINUOUS
370
-3
390
F
  0
LAYER
  5
205
100
AcDbSymbolTableRecord
100
AcDbLayerTableRecord
  2
RUNDUNGEN
 70
0
 62
7
  6
CONTINUOUS
370
-3
390
F
  0
LAYER
  5
206
100
AcDbSymbolTableRecord
100
AcDbLayerTableRecord
  2
T_STARTBEZUEGE
 70
0
 62
7
  6
CONTINUOUS
370
-3
390
F
  0
LAYER
  5
207
100
AcDbSymbolTableRecord
100
AcDbLayerTableRecord
  2
ZEICHNUNGSBEMASSUNGEN
 70
0
 62
7
  6
CONTINUOUS
370
-3
390
F
  0
ENDTAB
  0
TABLE
  2
STYLE
  5
3
100
AcDbSymbolTable
 70
1
  0
STYLE
  5
11
100
AcDbSymbolTableRecord
100
AcDbTextStyleTableRecord
  2
STANDARD
 70
0
 40
0.0
 41
0.7
 50
0.0
 71
0
 42
0.2
  3
txt
  4

  0
STYLE
  5
208
100
AcDbSymbolTableRecord
100
AcDbTextStyleTableRecord
  2
TEXTSTYLE_1
 70
0
 40
0.0
 41
0.8
 50
0.0
 71
0
 42
0.2
  3
gdt
  4

  0
ENDTAB
  0
TABLE
  2
VIEW
  5
6
100
AcDbSymbolTable
 70
0
  0
ENDTAB
  0
TABLE
  2
UCS
  5
7
100
AcDbSymbolTable
 70
0
  0
ENDTAB
  0
TABLE
  2
APPID
  5
9
100
AcDbSymbolTable
 70
1
  0
APPID
  5
209
100
AcDbSymbolTableRecord
100
AcDbRegAppTableRecord
  2
ACAD
 70
0
  0
ENDTAB
  0
TABLE
  2
BLOCK_RECORD
  5
1
100
AcDbSymbolTable
 70
0
  0
BLOCK_RECORD
  5
20A
100
AcDbSymbolTableRecord
100
AcDbBlockTableRecord
  2
*Model_Space
  0
BLOCK_RECORD
  5
20B
100
AcDbSymbolTableRecord
100
AcDbBlockTableRecord
  2
*Paper_Space
  0
ENDTAB
  0
TABLE
  2
DIMSTYLE
  5
A
100
AcDbSymbolTable
 70
1
100
AcDbDimStyleTable
 71
0
  0
DIMSTYLE
105
20C
100
AcDbSymbolTableRecord
100
AcDbDimStyleTableRecord
  2
STANDARD
 70
0
  3

  4

 40
1.0
 41
3.5
 42
0.0625
 43
0.38
 44
0.18
 45
0.0
 46
0.0
 47
0.005
 48
0.005
140
3.5
141
0.09
142
0.0
143
25.4
144
1.0
145
0.0
146
1.0
147
0.09
 71
1.0
 72
0.0
 73
0
 74
0
 75
0
 76
0
 77
1
 78
8
170
0
171
2
172
0
173
0
174
0
175
0
176
0
177
0
178
5
270
2
271
3
272
3
273
2
274
2
275
0
280
0
281
0
282
0
283
1
284
8
285
0
286
0
287
3
288
0
340
11
  0
ENDTAB
  0
ENDSEC
  0
SECTION
  2
BLOCKS
  0
BLOCK
  5
20
100
AcDbEntity
  8
0
100
AcDbBlockBegin
  2
*Model_Space
 70
0
 10
0.0
 20
0.0
 30
0.0
  3
*Model_Space
  1

  0
ENDBLK
  5
21
100
AcDbEntity
  8
0
100
AcDbBlockEnd
  0
BLOCK
  5
1C
100
AcDbEntity
  8
0
100
AcDbBlockBegin
  2
*Paper_Space
 70
0
 10
0.0
 20
0.0
 30
0.0
  3
*Paper_Space
  1

  0
ENDBLK
  5
1D
100
AcDbEntity
  8
0
100
AcDbBlockEnd
  0
ENDSEC
  0
SECTION
  2
ENTITIES
  0
MTEXT
  5
20D
100
AcDbEntity
  8
0
100
AcDbMText
 62
5
  6
CONTINUOUS
  7
STANDARD
 71
2
 72
1
 10
107.9762066868
 20
41.2441009142
 30
0.0
 11
0.0
 21
1.0
 31
0.0
 44
0.9
  1
RUD WPPH\PVIP 4 0,63t
 40
4.0
 41
32.1904761905
  0
MTEXT
  5
20E
100
AcDbEntity
  8
0
100
AcDbMText
 62
5
  6
CONTINUOUS
  7
STANDARD
 71
2
 72
1
 10
182.8304905463
 20
133.6635511867
 30
0.0
 11
1.0
 21
0.0
 31
0.0
 44
0.9
  1
RUD\PWPPH 0,63t
 40
3.5
 41
27.75
  0
LINE
  5
20F
100
AcDbEntity
  8
0
100
AcDbLine
 62
7
  6
CONTINUOUS
 10
0.0
 20
0.0
 11
0.0
 21
210.0
  0
LINE
  5
210
100
AcDbEntity
  8
0
100
AcDbLine
 62
7
  6
CONTINUOUS
 10
0.0
 20
0.0
 11
297.0
 21
0.0
  0
LINE
  5
211
100
AcDbEntity
  8
0
100
AcDbLine
 62
7
  6
CONTINUOUS
 10
0.0
 20
210.0
 11
297.0
 21
210.0
  0
LINE
  5
212
100
AcDbEntity
  8
0
100
AcDbLine
 62
7
  6
CONTINUOUS
 10
297.0
 20
0.0
 11
297.0
 21
210.0
  0
LINE
  5
213
100
AcDbEntity
  8
0
100
AcDbLine
 62
7
  6
CONTINUOUS
 10
96.3334019353
 20
120.1058921084
 11
95.8334019353
 21
120.6058921084
  0
LINE
  5
214
100
AcDbEntity
  8
0
100
AcDbLine
 62
7
  6
CONTINUOUS
 10
96.3338516769
 20
120.1058921084
 11
129.3329521938
 21
120.1058921084
  0
LINE
  5
215
100
AcDbEntity
  8
0
100
AcDbLine
 62
7
  6
CONTINUOUS
 10
129.8334019353
 20
120.6058921084
 11
95.8334019353
 21
120.6058921084
  0
LINE
  5
216
100
AcDbEntity
  8
0
100
AcDbLine
 62
7
  6
CONTINUOUS
 10
129.8334019353
 20
122.9952538118
 11
130.0834019353
 21
122.9952538118
  0
LINE
  5
217
100
AcDbEntity
  8
0
100
AcDbLine
 62
7
  6
CONTINUOUS
 10
95.8334019353
 20
137.5058921084
 11
95.8334019353
 21
120.6058921084
  0
LINE
  5
218
100
AcDbEntity
  8
0
100
AcDbLine
 62
7
  6
CONTINUOUS
 10
123.7878530855
 20
123.5058921084
 11
124.7208953633
 21
123.5058921084
  0
LINE
  5
219
100
AcDbEntity
  8
0
100
AcDbLine
 62
7
  6
CONTINUOUS
 10
127.0965537609
 20
123.5058921084
 11
127.6994706827
 21
123.5058921084
  0
LINE
  5
21A
100
AcDbEntity
  8
0
100
AcDbLine
 62
7
  6
CONTINUOUS
 10
129.6947646969
 20
123.5058921084
 11
129.9467900913
 21
123.5058921084
  0
LINE
  5
21B
100
AcDbEntity
  8
0
100
AcDbLine
 62
7
  6
CONTINUOUS
 10
129.6229488975
 20
123.5909984887
 11
129.8760363325
 21
123.5909984887
  0
LINE
  5
21C
100
AcDbEntity
  8
0
100
AcDbLine
 62
7
  6
CONTINUOUS
 10
129.5514477995
 20
123.8463176295
 11
129.8056014839
 21
123.8463176295
  0
LINE
  5
21D
100
AcDbEntity
  8
0
100
AcDbLine
 62
7
  6
CONTINUOUS
 10
130.0380524694
 20
123.9314240321
 11
130.0761540359
 21
123.9314240321
  0
LINE
  5
21E
100
AcDbEntity
  8
0
100
AcDbLine
 62
7
  6
CONTINUOUS
 10
129.8888670575
 20
124.016530405
 11
129.9944042371
 21
124.016530405
  0
LINE
  5
21F
100
AcDbEntity
  8
0
100
AcDbLine
 62
7
  6
CONTINUOUS
 10
129.5034016656
 20
124.1016367778
 11
129.7582768539
 21
124.1016367778
  0
LINE
  5
220
100
AcDbEntity
  8
0
100
AcDbLine
 62
7
  6
CONTINUOUS
 10
129.8491218444
 20
124.1867431506
 11
130.0180607914
 21
124.1867431506
  0
LINE
  5
221
100
AcDbEntity
  8
0
100
AcDbLine
 62
7
  6
CONTINUOUS
 10
129.469206695
 20
124.4420623287
 11
129.724597867
 21
124.4420623287
  0
LINE
  5
222
100
AcDbEntity
  8
0
100
AcDbLine
 62
7
  6
CONTINUOUS
 10
129.4514561085
 20
124.6973814472
 11
129.7071159456
 21
124.6973814472
  0
LINE
  5
223
100
AcDbEntity
  8
0
100
AcDbLine
 62
7
  6
CONTINUOUS
 10
129.7933219867
 20
124.6973814472
 11
130.0439041984
 21
124.6973814472
  0
LINE
  5
224
100
AcDbEntity
  8
0
100
AcDbLine
 62
7
  6
CONTINUOUS
 10
128.9191098775
 20
124.9527005657
 11
129.5302496911
 21
124.9527005657
  0
LINE
  5
225
100
AcDbEntity
  8
0
100
AcDbLine
 62
7
  6
CONTINUOUS
 10
129.5302496911
 20
125.1229134306
 11
129.6892037028
 21
125.1229134306
  0
LINE
  5
226
100
AcDbEntity
  8
0
100
AcDbLine
 62
7
  6
CONTINUOUS
 10
129.7988488666
 20
125.2080198035
 11
130.0493506335
 21
125.2080198035
  0
LINE
  5
227
100
AcDbEntity
  8
0
100
AcDbLine
 62
7
  6
CONTINUOUS
 10
128.4858777778
 20
125.2931261763
 11
127.6994706827
 21
125.2931261763
  0
LINE
  5
228
100
AcDbEntity
  8
0
100
AcDbLine
 62
7
  6
CONTINUOUS
 10
126.1210842013
 20
125.2931261763
 11
124.7208953633
 21
125.2931261763
  0
LINE
  5
229
100
AcDbEntity
  8
0
100
AcDbLine
 62
7
  6
CONTINUOUS
 10
128.9191098775
 20
125.3782325491
 11
129.5302496911
 21
125.3782325491
  0
LINE
  5
22A
100
AcDbEntity
  8
0
100
AcDbLine
 62
7
  6
CONTINUOUS
 10
128.5242078792
 20
125.8037644133
 11
127.6994706827
 21
125.8037644133
  0
LINE
  5
22B
100
AcDbEntity
  8
0
100
AcDbLine
 62
7
  6
CONTINUOUS
 10
126.1896322102
 20
125.8037644133
 11
124.7208953633
 21
125.8037644133
  0
LINE
  5
22C
100
AcDbEntity
  8
0
100
AcDbLine
 62
7
  6
CONTINUOUS
 10
129.7988488666
 20
125.8037644133
 11
130.0493506335
 21
125.8037644133
  0
LINE
  5
22D
100
AcDbEntity
  8
0
100
AcDbLine
 62
7
  6
CONTINUOUS
 10
126.0705549724
 20
125.8888707861
 11
126.3901242725
 21
125.8888707861
  0
LINE
  5
22E
100
AcDbEntity
  8
0
100
AcDbLine
 62
7
  6
CONTINUOUS
 10
128.3627201567
 20
125.8888707861
 11
128.6360037598
 21
125.8888707861
  0
LINE
  5
22F
100
AcDbEntity
  8
0
100
AcDbLine
 62
7
  6
CONTINUOUS
 10
129.4332679958
 20
125.8888707861
 11
129.6892037028
 21
125.8888707861
  0
LINE
  5
230
100
AcDbEntity
  8
0
100
AcDbLine
 62
7
  6
CONTINUOUS
 10
126.2031438925
 20
126.0590835318
 11
126.5196176285
 21
126.0590835318
  0
LINE
  5
231
100
AcDbEntity
  8
0
100
AcDbLine
 62
7
  6
CONTINUOUS
 10
128.435885712
 20
126.0590835318
 11
128.7079098017
 21
126.0590835318
  0
LINE
  5
232
100
AcDbEntity
  8
0
100
AcDbLine
 62
7
  6
CONTINUOUS
 10
126.2681722683
 20
126.3144026503
 11
126.5831493476
 21
126.3144026503
  0
LINE
  5
233
100
AcDbEntity
  8
0
100
AcDbLine
 62
7
  6
CONTINUOUS
 10
128.4716741441
 20
126.3144026503
 11
128.7430863343
 21
126.3144026503
  0
LINE
  5
234
100
AcDbEntity
  8
0
100
AcDbLine
 62
7
  6
CONTINUOUS
 10
129.4514561085
 20
126.3144026503
 11
129.7071159456
 21
126.3144026503
  0
LINE
  5
235
100
AcDbEntity
  8
0
100
AcDbLine
 62
7
  6
CONTINUOUS
 10
129.7933219867
 20
126.3144026503
 11
130.0439041984
 21
126.3144026503
  0
LINE
  5
236
100
AcDbEntity
  8
0
100
AcDbLine
 62
7
  6
CONTINUOUS
 10
126.2681722683
 20
126.5697220072
 11
126.5831493476
 21
126.5697220072
  0
LINE
  5
237
100
AcDbEntity
  8
0
100
AcDbLine
 62
7
  6
CONTINUOUS
 10
128.4716741441
 20
126.5697220072
 11
128.7430863343
 21
126.5697220072
  0
LINE
  5
238
100
AcDbEntity
  8
0
100
AcDbLine
 62
7
  6
CONTINUOUS
 10
129.469206695
 20
126.5697220072
 11
129.724597867
 21
126.5697220072
  0
LINE
  5
239
100
AcDbEntity
  8
0
100
AcDbLine
 62
7
  6
CONTINUOUS
 10
126.2031438925
 20
126.8250411257
 11
126.5196176285
 21
126.8250411257
  0
LINE
  5
23A
100
AcDbEntity
  8
0
100
AcDbLine
 62
7
  6
CONTINUOUS
 10
128.435885712
 20
126.8250411257
 11
128.7079098017
 21
126.8250411257
  0
LINE
  5
23B
100
AcDbEntity
  8
0
100
AcDbLine
 62
7
  6
CONTINUOUS
 10
129.8491218444
 20
126.8250411257
 11
130.0180607914
 21
126.8250411257
  0
LINE
  5
23C
100
AcDbEntity
  8
0
100
AcDbLine
 62
7
  6
CONTINUOUS
 10
129.5034016656
 20
126.9101474985
 11
129.7582768539
 21
126.9101474985
  0
LINE
  5
23D
100
AcDbEntity
  8
0
100
AcDbLine
 62
7
  6
CONTINUOUS
 10
126.0705549724
 20
126.9952538714
 11
126.3901242725
 21
126.9952538714
  0
LINE
  5
23E
100
AcDbEntity
  8
0
100
AcDbLine
 62
7
  6
CONTINUOUS
 10
128.3627201567
 20
126.9952538714
 11
128.6360037598
 21
126.9952538714
  0
LINE
  5
23F
100
AcDbEntity
  8
0
100
AcDbLine
 62
7
  6
CONTINUOUS
 10
129.8888670575
 20
126.9952538714
 11
129.9944042371
 21
126.9952538714
  0
LINE
  5
240
100
AcDbEntity
  8
0
100
AcDbLine
 62
7
  6
CONTINUOUS
 10
128.5242078792
 20
127.0803602442
 11
127.6994706827
 21
127.0803602442
  0
LINE
  5
241
100
AcDbEntity
  8
0
100
AcDbLine
 62
7
  6
CONTINUOUS
 10
126.1896322102
 20
127.0803602442
 11
124.7208953633
 21
127.0803602442
  0
LINE
  5
242
100
AcDbEntity
  8
0
100
AcDbLine
 62
7
  6
CONTINUOUS
 10
129.5514477995
 20
127.165466617
 11
129.8056014839
 21
127.165466617
  0
LINE
  5
243
100
AcDbEntity
  8
0
100
AcDbLine
 62
7
  6
CONTINUOUS
 10
129.6229488975
 20
127.4207857355
 11
129.8760363325
 21
127.4207857355
  0
LINE
  5
244
100
AcDbEntity
  8
0
100
AcDbLine
 62
7
  6
CONTINUOUS
 10
123.7878530855
 20
127.5058921084
 11
126.1210842013
 21
127.5058921084
  0
LINE
  5
245
100
AcDbEntity
  8
0
100
AcDbLine
 62
7
  6
CONTINUOUS
 10
127.0965537609
 20
127.5058921084
 11
128.4858777778
 21
127.5058921084
  0
LINE
  5
246
100
AcDbEntity
  8
0
100
AcDbLine
 62
7
  6
CONTINUOUS
 10
129.6947646969
 20
127.5058921084
 11
129.9467900913
 21
127.5058921084
  0
LINE
  5
247
100
AcDbEntity
  8
0
100
AcDbLine
 62
7
  6
CONTINUOUS
 10
129.0814787446
 20
129.5058921084
 11
129.4861044187
 21
129.5058921084
  0
LINE
  5
248
100
AcDbEntity
  8
0
100
AcDbLine
 62
7
  6
CONTINUOUS
 10
129.6607523459
 20
129.5058921084
 11
130.0825967651
 21
129.5058921084
  0
LINE
  5
249
100
AcDbEntity
  8
0
100
AcDbLine
 62
7
  6
CONTINUOUS
 10
129.9857017572
 20
129.5909984887
 11
130.081590246
 21
129.5909984887
  0
LINE
  5
24A
100
AcDbEntity
  8
0
100
AcDbLine
 62
7
  6
CONTINUOUS
 10
129.9747014148
 20
129.7612112567
 11
130.0735359846
 21
129.7612112567
  0
LINE
  5
24B
100
AcDbEntity
  8
0
100
AcDbLine
 62
7
  6
CONTINUOUS
 10
129.959588228
 20
130.1016367778
 11
130.0590288474
 21
130.1016367778
  0
LINE
  5
24C
100
AcDbEntity
  8
0
100
AcDbLine
 62
7
  6
CONTINUOUS
 10
129.9434734384
 20
130.4420623287
 11
130.0493506185
 21
130.4420623287
  0
LINE
  5
24D
100
AcDbEntity
  8
0
100
AcDbLine
 62
7
  6
CONTINUOUS
 10
129.9217031944
 20
130.8675941929
 11
130.0439042146
 21
130.8675941929
  0
LINE
  5
24E
100
AcDbEntity
  8
0
100
AcDbLine
 62
7
  6
CONTINUOUS
 10
129.8056014189
 20
131.2931261763
 11
129.4861044187
 21
131.2931261763
  0
LINE
  5
24F
100
AcDbEntity
  8
0
100
AcDbLine
 62
7
  6
CONTINUOUS
 10
129.8350358301
 20
131.8037644133
 11
129.4861044187
 21
131.8037644133
  0
LINE
  5
250
100
AcDbEntity
  8
0
100
AcDbLine
 62
7
  6
CONTINUOUS
 10
129.6229489353
 20
131.8888707861
 11
129.8760363698
 21
131.8888707861
  0
LINE
  5
251
100
AcDbEntity
  8
0
100
AcDbLine
 62
7
  6
CONTINUOUS
 10
129.6485736561
 20
132.0590835318
 11
129.901281124
 21
132.0590835318
  0
LINE
  5
252
100
AcDbEntity
  8
0
100
AcDbLine
 62
7
  6
CONTINUOUS
 10
105.8334019353
 20
145.4658921084
 11
105.8334019353
 21
147.1325587353
  0
LINE
  5
253
100
AcDbEntity
  8
0
100
AcDbLine
 62
7
  6
CONTINUOUS
 10
105.8334019353
 20
147.3827254338
 11
105.8334019353
 21
149.5908921084
  0
LINE
  5
254
100
AcDbEntity
  8
0
100
AcDbLine
 62
7
  6
CONTINUOUS
 10
105.8334019353
 20
149.9327254338
 11
105.8334019353
 21
151.582064695
  0
LINE
  5
255
100
AcDbEntity
  8
0
100
AcDbLine
 62
7
  6
CONTINUOUS
 10
105.8334019353
 20
151.9242256006
 11
105.8334019353
 21
153.5908921084
  0
LINE
  5
256
100
AcDbEntity
  8
0
100
AcDbLine
 62
7
  6
CONTINUOUS
 10
129.6607523459
 20
132.3144026503
 11
129.9132796234
 21
132.3144026503
  0
LINE
  5
257
100
AcDbEntity
  8
0
100
AcDbLine
 62
7
  6
CONTINUOUS
 10
129.6607523459
 20
132.5697220072
 11
129.9132796234
 21
132.5697220072
  0
LINE
  5
258
100
AcDbEntity
  8
0
100
AcDbLine
 62
7
  6
CONTINUOUS
 10
129.6485736561
 20
132.8250411257
 11
129.901281124
 21
132.8250411257
  0
LINE
  5
259
100
AcDbEntity
  8
0
100
AcDbLine
 62
7
  6
CONTINUOUS
 10
129.6229489353
 20
132.9952538714
 11
129.8760363698
 21
132.9952538714
  0
LINE
  5
25A
100
AcDbEntity
  8
0
100
AcDbLine
 62
7
  6
CONTINUOUS
 10
129.8350358301
 20
133.0803602442
 11
129.4861044187
 21
133.0803602442
  0
LINE
  5
25B
100
AcDbEntity
  8
0
100
AcDbLine
 62
7
  6
CONTINUOUS
 10
129.0814787446
 20
133.5058921084
 11
130.0705146799
 21
133.5058921084
  0
LINE
  5
25C
100
AcDbEntity
  8
RUNDUNGEN
100
AcDbLine
 62
7
  6
CONTINUOUS
 10
106.3334019353
 20
143.005892116
 11
106.3334019353
 21
155.5058921084
  0
LINE
  5
25D
100
AcDbEntity
  8
RUNDUNGEN
100
AcDbLine
 62
7
  6
CONTINUOUS
 10
128.3329890553
 20
139.0058921084
 11
123.3332948399
 21
139.0058921084
  0
LINE
  5
25E
100
AcDbEntity
  8
RUNDUNGEN
100
AcDbLine
 62
7
  6
CONTINUOUS
 10
102.3334820369
 20
139.0058921084
 11
97.3334019353
 21
139.0058921084
  0
LINE
  5
25F
100
AcDbEntity
  8
0
100
AcDbLine
 62
7
  6
CONTINUOUS
 10
106.3334019353
 20
145.4658921084
 11
105.8334019353
 21
145.4658921084
  0
LINE
  5
260
100
AcDbEntity
  8
0
100
AcDbLine
 62
7
  6
CONTINUOUS
 10
106.3334019353
 20
146.1325587949
 11
105.8334019353
 21
146.1325587949
  0
LINE
  5
261
100
AcDbEntity
  8
0
100
AcDbLine
 62
7
  6
CONTINUOUS
 10
106.3334019353
 20
146.4658921084
 11
105.8334019353
 21
146.4658921084
  0
LINE
  5
262
100
AcDbEntity
  8
RUNDUNGEN
100
AcDbLine
 62
7
  6
CONTINUOUS
 10
119.3334019353
 20
143.0058921084
 11
119.3334019353
 21
155.5058921084
  0
LINE
  5
263
100
AcDbEntity
  8
0
100
AcDbLine
 62
7
  6
CONTINUOUS
 10
106.3334019353
 20
147.1325587353
 11
105.8334019353
 21
147.1325587353
  0
LINE
  5
264
100
AcDbEntity
  8
0
100
AcDbLine
 62
7
  6
CONTINUOUS
 10
106.3334019353
 20
147.382064695
 11
105.8334019353
 21
147.382064695
  0
LINE
  5
265
100
AcDbEntity
  8
0
100
AcDbLine
 62
7
  6
CONTINUOUS
 10
106.3334019353
 20
149.032064695
 11
105.8334019353
 21
149.032064695
  0
LINE
  5
266
100
AcDbEntity
  8
0
100
AcDbLine
 62
7
  6
CONTINUOUS
 10
106.3334019353
 20
149.0492253622
 11
105.8334019353
 21
149.0492253622
  0
LINE
  5
267
100
AcDbEntity
  8
0
100
AcDbLine
 62
7
  6
CONTINUOUS
 10
106.3334019353
 20
149.2575588545
 11
105.8334019353
 21
149.2575588545
  0
LINE
  5
268
100
AcDbEntity
  8
0
100
AcDbLine
 62
7
  6
CONTINUOUS
 10
106.3334019353
 20
149.4242253622
 11
105.8334019353
 21
149.4242253622
  0
LINE
  5
269
100
AcDbEntity
  8
0
100
AcDbLine
 62
7
  6
CONTINUOUS
 10
106.3334019353
 20
149.5492256006
 11
105.8334019353
 21
149.5492256006
  0
LINE
  5
26A
100
AcDbEntity
  8
0
100
AcDbLine
 62
7
  6
CONTINUOUS
 10
106.3334019353
 20
149.5908921084
 11
105.8334019353
 21
149.5908921084
  0
LINE
  5
26B
100
AcDbEntity
  8
0
100
AcDbLine
 62
7
  6
CONTINUOUS
 10
106.3334019353
 20
149.932064695
 11
105.8334019353
 21
149.932064695
  0
LINE
  5
26C
100
AcDbEntity
  8
0
100
AcDbLine
 62
7
  6
CONTINUOUS
 10
123.7878530855
 20
127.5058921084
 11
123.7878530855
 21
123.5058921084
  0
LINE
  5
26D
100
AcDbEntity
  8
0
100
AcDbLine
 62
7
  6
CONTINUOUS
 10
106.3334019353
 20
151.582064695
 11
105.8334019353
 21
151.582064695
  0
LINE
  5
26E
100
AcDbEntity
  8
0
100
AcDbLine
 62
7
  6
CONTINUOUS
 10
106.3334019353
 20
151.9242256006
 11
105.8334019353
 21
151.9242256006
  0
LINE
  5
26F
100
AcDbEntity
  8
0
100
AcDbLine
 62
7
  6
CONTINUOUS
 10
124.1719424058
 20
127.5058921084
 11
124.1719424058
 21
123.5058921084
  0
LINE
  5
270
100
AcDbEntity
  8
0
100
AcDbLine
 62
7
  6
CONTINUOUS
 10
124.7208953633
 20
127.0803602442
 11
124.7208953633
 21
125.8037644133
  0
LINE
  5
271
100
AcDbEntity
  8
0
100
AcDbLine
 62
7
  6
CONTINUOUS
 10
124.7208953633
 20
125.2931261763
 11
124.7208953633
 21
123.5058921084
  0
LINE
  5
272
100
AcDbEntity
  8
0
100
AcDbLine
 62
7
  6
CONTINUOUS
 10
106.3334019353
 20
152.9242256006
 11
105.8334019353
 21
152.9242256006
  0
LINE
  5
273
100
AcDbEntity
  8
0
100
AcDbLine
 62
7
  6
CONTINUOUS
 10
106.3334019353
 20
153.1742256006
 11
105.8334019353
 21
153.1742256006
  0
LINE
  5
274
100
AcDbEntity
  8
0
100
AcDbLine
 62
7
  6
CONTINUOUS
 10
106.3334019353
 20
153.5908921084
 11
105.8334019353
 21
153.5908921084
  0
LINE
  5
275
100
AcDbEntity
  8
0
100
AcDbLine
 62
7
  6
CONTINUOUS
 10
126.2681722683
 20
126.5697220072
 11
126.2681722683
 21
126.3144026503
  0
LINE
  5
276
100
AcDbEntity
  8
0
100
AcDbLine
 62
7
  6
CONTINUOUS
 10
126.5831493476
 20
126.5697220072
 11
126.5831493476
 21
126.3144026503
  0
LINE
  5
277
100
AcDbEntity
  8
0
100
AcDbLine
 62
7
  6
CONTINUOUS
 10
126.9480121193
 20
126.5697220072
 11
126.9480121193
 21
126.2292962775
  0
LINE
  5
278
100
AcDbEntity
  8
0
100
AcDbLine
 62
7
  6
CONTINUOUS
 10
127.0965537609
 20
127.5058921084
 11
127.0965537609
 21
123.5058921084
  0
LINE
  5
279
100
AcDbEntity
  8
0
100
AcDbLine
 62
7
  6
CONTINUOUS
 10
127.3936217139
 20
127.5058921084
 11
127.3936217139
 21
123.5058921084
  0
LINE
  5
27A
100
AcDbEntity
  8
0
100
AcDbLine
 62
7
  6
CONTINUOUS
 10
127.6994706827
 20
127.0803602442
 11
127.6994706827
 21
125.8037644133
  0
LINE
  5
27B
100
AcDbEntity
  8
0
100
AcDbLine
 62
7
  6
CONTINUOUS
 10
127.6994706827
 20
125.2931261763
 11
127.6994706827
 21
123.5058921084
  0
LINE
  5
27C
100
AcDbEntity
  8
0
100
AcDbLine
 62
7
  6
CONTINUOUS
 10
128.4716741441
 20
126.5697220072
 11
128.4716741441
 21
126.3144026503
  0
LINE
  5
27D
100
AcDbEntity
  8
0
100
AcDbLine
 62
7
  6
CONTINUOUS
 10
128.7430863343
 20
126.5697220072
 11
128.7430863343
 21
126.3144026503
  0
LINE
  5
27E
100
AcDbEntity
  8
0
100
AcDbLine
 62
7
  6
CONTINUOUS
 10
128.9191098775
 20
125.3782325491
 11
128.9191098775
 21
124.9527005657
  0
LINE
  5
27F
100
AcDbEntity
  8
0
100
AcDbLine
 62
7
  6
CONTINUOUS
 10
128.9434833809
 20
126.5697220072
 11
128.9434833809
 21
126.2292962775
  0
LINE
  5
280
100
AcDbEntity
  8
0
100
AcDbLine
 62
7
  6
CONTINUOUS
 10
129.0814787446
 20
133.5058921084
 11
129.0814787446
 21
129.5058921084
  0
LINE
  5
281
100
AcDbEntity
  8
0
100
AcDbLine
 62
7
  6
CONTINUOUS
 10
129.1830961221
 20
125.3782325491
 11
129.1830961221
 21
124.9527005657
  0
LINE
  5
282
100
AcDbEntity
  8
0
100
AcDbLine
 62
7
  6
CONTINUOUS
 10
129.3428689164
 20
133.5058921084
 11
129.3428689164
 21
129.5058921084
  0
LINE
  5
283
100
AcDbEntity
  8
0
100
AcDbLine
 62
7
  6
CONTINUOUS
 10
129.4332679958
 20
125.3782325491
 11
129.4332679958
 21
125.8888707861
  0
LINE
  5
284
100
AcDbEntity
  8
0
100
AcDbLine
 62
7
  6
CONTINUOUS
 10
129.4861044187
 20
133.0803602442
 11
129.4861044187
 21
131.8037644133
  0
LINE
  5
285
100
AcDbEntity
  8
0
100
AcDbLine
 62
7
  6
CONTINUOUS
 10
129.4861044187
 20
131.2931261763
 11
129.4861044187
 21
129.5058921084
  0
LINE
  5
286
100
AcDbEntity
  8
0
100
AcDbLine
 62
7
  6
CONTINUOUS
 10
129.5302496911
 20
125.3782325491
 11
129.5302496911
 21
124.9527005657
  0
LINE
  5
287
100
AcDbEntity
  8
0
100
AcDbLine
 62
7
  6
CONTINUOUS
 10
129.6607523459
 20
132.5697220072
 11
129.6607523459
 21
132.3144026503
  0
LINE
  5
288
100
AcDbEntity
  8
0
100
AcDbLine
 62
7
  6
CONTINUOUS
 10
129.6892037028
 20
125.1229134306
 11
129.6892037028
 21
125.8888707861
  0
LINE
  5
289
100
AcDbEntity
  8
0
100
AcDbLine
 62
7
  6
CONTINUOUS
 10
129.7744762814
 20
125.8037644133
 11
129.7744762814
 21
125.2080198035
  0
LINE
  5
28A
100
AcDbEntity
  8
0
100
AcDbLine
 62
7
  6
CONTINUOUS
 10
129.7988488666
 20
125.8037644133
 11
129.7988488666
 21
125.2080198035
  0
LINE
  5
28B
100
AcDbEntity
  8
0
100
AcDbLine
 62
7
  6
CONTINUOUS
 10
129.8334019353
 20
137.5058921084
 11
129.8334019353
 21
133.5058921084
  0
LINE
  5
28C
100
AcDbEntity
  8
0
100
AcDbLine
 62
7
  6
CONTINUOUS
 10
129.8334019353
 20
129.5058921084
 11
129.8334019353
 21
127.5058921084
  0
LINE
  5
28D
100
AcDbEntity
  8
0
100
AcDbLine
 62
7
  6
CONTINUOUS
 10
129.8334019353
 20
123.5058921084
 11
129.8334019353
 21
120.6058921084
  0
LINE
  5
28E
100
AcDbEntity
  8
0
100
AcDbLine
 62
7
  6
CONTINUOUS
 10
129.9132796234
 20
132.5697220072
 11
129.9132796234
 21
132.3144026503
  0
LINE
  5
28F
100
AcDbEntity
  8
0
100
AcDbLine
 62
7
  6
CONTINUOUS
 10
129.976589754
 20
132.5697220072
 11
129.976589754
 21
132.2292962775
  0
LINE
  5
290
100
AcDbEntity
  8
0
100
AcDbLine
 62
7
  6
CONTINUOUS
 10
130.0439042146
 20
133.5058921084
 11
130.0439042146
 21
130.8675941929
  0
LINE
  5
291
100
AcDbEntity
  8
0
100
AcDbLine
 62
7
  6
CONTINUOUS
 10
130.0493506335
 20
125.8037644133
 11
130.0493506335
 21
125.2080198035
  0
LINE
  5
292
100
AcDbEntity
  8
0
100
AcDbLine
 62
7
  6
CONTINUOUS
 10
130.0705146799
 20
133.5058921084
 11
130.0705146799
 21
130.8675941929
  0
LINE
  5
293
100
AcDbEntity
  8
0
100
AcDbLine
 62
7
  6
CONTINUOUS
 10
130.0705146614
 20
125.8888707861
 11
130.0705146614
 21
125.1229134306
  0
LINE
  5
294
100
AcDbEntity
  8
0
100
AcDbLine
 62
7
  6
CONTINUOUS
 10
130.0834019353
 20
130.0590835914
 11
130.0834019353
 21
129.7612112567
  0
LINE
  5
295
100
AcDbEntity
  8
0
100
AcDbLine
 62
7
  6
CONTINUOUS
 10
129.3334019353
 20
120.1058921084
 11
129.8334019353
 21
120.6058921084
  0
LINE
  5
296
100
AcDbEntity
  8
0
100
AcDbLine
 62
7
  6
CONTINUOUS
 10
166.2814993752
 20
120.1058921084
 11
165.7814993752
 21
120.6058921084
  0
LINE
  5
297
100
AcDbEntity
  8
RUNDUNGEN
100
AcDbLine
 62
7
  6
CONTINUOUS
 10
170.8717625903
 20
161.648679718
 11
170.3663882674
 21
161.0463980532
  0
LINE
  5
298
100
AcDbEntity
  8
0
100
AcDbLine
 62
7
  6
CONTINUOUS
 10
166.2814993752
 20
120.1058921084
 11
199.2814993752
 21
120.1058921084
  0
LINE
  5
299
100
AcDbEntity
  8
0
100
AcDbLine
 62
7
  6
CONTINUOUS
 10
199.7814993752
 20
120.6058921084
 11
165.7814993752
 21
120.6058921084
  0
LINE
  5
29A
100
AcDbEntity
  8
0
100
AcDbLine
 62
7
  6
CONTINUOUS
 10
165.7814993752
 20
145.2379429159
 11
165.7814993752
 21
120.6058921084
  0
LINE
  5
29B
100
AcDbEntity
  8
RUNDUNGEN
100
AcDbLine
 62
7
  6
CONTINUOUS
 10
169.3125882885
 20
151.6219175122
 11
165.9154739715
 21
145.7379429159
  0
LINE
  5
29C
100
AcDbEntity
  8
RUNDUNGEN
100
AcDbLine
 62
7
  6
CONTINUOUS
 10
169.7814993752
 20
159.439429029
 11
169.7814993752
 21
153.3719175122
  0
LINE
  5
29D
100
AcDbEntity
  8
0
100
AcDbLine
 62
7
  6
CONTINUOUS
 10
172.1892653073
 20
149.0908921084
 11
172.2318184937
 21
149.2158921084
  0
LINE
  5
29E
100
AcDbEntity
  8
0
100
AcDbLine
 62
7
  6
CONTINUOUS
 10
172.1467121209
 20
149.4242253622
 11
172.0190525617
 21
149.2575588545
  0
LINE
  5
29F
100
AcDbEntity
  8
0
100
AcDbLine
 62
7
  6
CONTINUOUS
 10
172.2318184937
 20
149.2158921084
 11
172.3169248666
 21
149.2992253622
  0
LINE
  5
2A0
100
AcDbEntity
  8
0
100
AcDbLine
 62
7
  6
CONTINUOUS
 10
172.3169248666
 20
149.5492256006
 11
172.1467121209
 21
149.4242253622
  0
LINE
  5
2A1
100
AcDbEntity
  8
0
100
AcDbLine
 62
7
  6
CONTINUOUS
 10
171.9764993752
 20
153.1742256006
 11
171.9764993752
 21
152.9242256006
  0
LINE
  5
2A2
100
AcDbEntity
  8
0
100
AcDbLine
 62
7
  6
CONTINUOUS
 10
171.9764993752
 20
149.0492253622
 11
171.9764993752
 21
148.0492253622
  0
LINE
  5
2A3
100
AcDbEntity
  8
0
100
AcDbLine
 62
7
  6
CONTINUOUS
 10
171.9764993752
 20
147.7158921084
 11
171.9764993752
 21
147.4658921084
  0
LINE
  5
2A4
100
AcDbEntity
  8
0
100
AcDbLine
 62
7
  6
CONTINUOUS
 10
171.9764993752
 20
147.1325587353
 11
171.9764993752
 21
146.8825587353
  0
LINE
  5
2A5
100
AcDbEntity
  8
0
100
AcDbLine
 62
7
  6
CONTINUOUS
 10
171.9764993752
 20
145.7158921084
 11
171.9764993752
 21
145.4658921084
  0
LINE
  5
2A6
100
AcDbEntity
  8
0
100
AcDbLine
 62
7
  6
CONTINUOUS
 10
172.1892653073
 20
148.2992253622
 11
172.1892653073
 21
149.0908921084
  0
LINE
  5
2A7
100
AcDbEntity
  8
0
100
AcDbLine
 62
7
  6
CONTINUOUS
 10
172.0190525617
 20
149.2575588545
 11
171.9764993752
 21
149.0492253622
  0
LINE
  5
2A8
100
AcDbEntity
  8
0
100
AcDbLine
 62
7
  6
CONTINUOUS
 10
172.4445844258
 20
149.5908921084
 11
172.3169248666
 21
149.5492256006
  0
LINE
  5
2A9
100
AcDbEntity
  8
0
100
AcDbLine
 62
7
  6
CONTINUOUS
 10
172.3169248666
 20
149.2992253622
 11
172.4445844258
 21
149.3408921084
  0
LINE
  5
2AA
100
AcDbEntity
  8
0
100
AcDbLine
 62
7
  6
CONTINUOUS
 10
172.8275632228
 20
149.0908921084
 11
172.8275632228
 21
148.2992253622
  0
LINE
  5
2AB
100
AcDbEntity
  8
0
100
AcDbLine
 62
7
  6
CONTINUOUS
 10
173.0828823413
 20
148.2992253622
 11
173.0828823413
 21
149.0492253622
  0
LINE
  5
2AC
100
AcDbEntity
  8
0
100
AcDbLine
 62
7
  6
CONTINUOUS
 10
173.1254355277
 20
153.5908921084
 11
173.1254355277
 21
153.1742256006
  0
LINE
  5
2AD
100
AcDbEntity
  8
0
100
AcDbLine
 62
7
  6
CONTINUOUS
 10
173.1254355277
 20
152.9242256006
 11
173.1254355277
 21
152.2158921084
  0
LINE
  5
2AE
100
AcDbEntity
  8
0
100
AcDbLine
 62
7
  6
CONTINUOUS
 10
173.3807547058
 20
151.9242256006
 11
173.3807547058
 21
152.9242256006
  0
LINE
  5
2AF
100
AcDbEntity
  8
0
100
AcDbLine
 62
7
  6
CONTINUOUS
 10
173.3807547058
 20
153.1742256006
 11
173.3807547058
 21
153.5908921084
  0
LINE
  5
2B0
100
AcDbEntity
  8
0
100
AcDbLine
 62
7
  6
CONTINUOUS
 10
173.9764993752
 20
146.1325587949
 11
173.9764993752
 21
146.4658921084
  0
LINE
  5
2B1
100
AcDbEntity
  8
0
100
AcDbLine
 62
7
  6
CONTINUOUS
 10
173.9764993752
 20
147.4658921084
 11
173.9764993752
 21
147.7158921084
  0
LINE
  5
2B2
100
AcDbEntity
  8
0
100
AcDbLine
 62
7
  6
CONTINUOUS
 10
173.9764993752
 20
148.0492253622
 11
173.9764993752
 21
148.2992253622
  0
LINE
  5
2B3
100
AcDbEntity
  8
0
100
AcDbLine
 62
7
  6
CONTINUOUS
 10
173.9764993752
 20
152.9242256006
 11
173.9764993752
 21
153.1742256006
  0
LINE
  5
2B4
100
AcDbEntity
  8
RUNDUNGEN
100
AcDbLine
 62
7
  6
CONTINUOUS
 10
180.3962166135
 20
153.5708647958
 11
177.9510570207
 21
150.8552399514
  0
LINE
  5
2B5
100
AcDbEntity
  8
0
100
AcDbLine
 62
7
  6
CONTINUOUS
 10
173.7211802269
 20
146.2992254218
 11
171.9764993752
 21
145.7158921084
  0
LINE
  5
2B6
100
AcDbEntity
  8
0
100
AcDbLine
 62
7
  6
CONTINUOUS
 10
171.9764993752
 20
145.4658921084
 11
173.9764993752
 21
146.1325587949
  0
LINE
  5
2B7
100
AcDbEntity
  8
0
100
AcDbLine
 62
7
  6
CONTINUOUS
 10
173.0828823413
 20
149.0492253622
 11
173.0403291549
 21
149.2575588545
  0
LINE
  5
2B8
100
AcDbEntity
  8
0
100
AcDbLine
 62
7
  6
CONTINUOUS
 10
172.7850100364
 20
149.2158921084
 11
172.8275632228
 21
149.0908921084
  0
LINE
  5
2B9
100
AcDbEntity
  8
RUNDUNGEN
100
AcDbLine
 62
7
  6
CONTINUOUS
 10
180.7814993752
 20
154.5745607054
 11
180.7814993752
 21
159.8550515586
  0
LINE
  5
2BA
100
AcDbEntity
  8
RUNDUNGEN
100
AcDbLine
 62
7
  6
CONTINUOUS
 10
194.1833422756
 20
139.0058921084
 11
171.3796554023
 21
139.0058921084
  0
LINE
  5
2BB
100
AcDbEntity
  8
0
100
AcDbLine
 62
7
  6
CONTINUOUS
 10
173.0403291549
 20
149.2575588545
 11
172.9126695956
 21
149.4242253622
  0
LINE
  5
2BC
100
AcDbEntity
  8
0
100
AcDbLine
 62
7
  6
CONTINUOUS
 10
172.6999036635
 20
149.2992253622
 11
172.7850100364
 21
149.2158921084
  0
LINE
  5
2BD
100
AcDbEntity
  8
RUNDUNGEN
100
AcDbLine
 62
7
  6
CONTINUOUS
 10
184.7814993752
 20
154.5745607054
 11
184.7814993752
 21
159.8565074115
  0
LINE
  5
2BE
100
AcDbEntity
  8
0
100
AcDbLine
 62
7
  6
CONTINUOUS
 10
172.9126695956
 20
149.4242253622
 11
172.74245685
 21
149.5492256006
  0
LINE
  5
2BF
100
AcDbEntity
  8
0
100
AcDbLine
 62
7
  6
CONTINUOUS
 10
171.9764993752
 20
152.9242256006
 11
173.1254355277
 21
151.9242256006
  0
LINE
  5
2C0
100
AcDbEntity
  8
0
100
AcDbLine
 62
7
  6
CONTINUOUS
 10
173.1254355277
 20
152.2158921084
 11
172.3169248666
 21
152.9242256006
  0
LINE
  5
2C1
100
AcDbEntity
  8
0
100
AcDbLine
 62
7
  6
CONTINUOUS
 10
173.9764993752
 20
146.4658921084
 11
171.9764993752
 21
147.1325587353
  0
LINE
  5
2C2
100
AcDbEntity
  8
0
100
AcDbLine
 62
7
  6
CONTINUOUS
 10
171.9764993752
 20
146.8825587353
 11
173.7211802269
 21
146.2992254218
  0
LINE
  5
2C3
100
AcDbEntity
  8
0
100
AcDbLine
 62
7
  6
CONTINUOUS
 10
172.5722441043
 20
149.3408921084
 11
172.6999036635
 21
149.2992253622
  0
LINE
  5
2C4
100
AcDbEntity
  8
0
100
AcDbLine
 62
7
  6
CONTINUOUS
 10
172.74245685
 20
149.5492256006
 11
172.6147972907
 21
149.5908921084
  0
LINE
  5
2C5
100
AcDbEntity
  8
0
100
AcDbLine
 62
7
  6
CONTINUOUS
 10
171.9764993752
 20
147.4658921084
 11
173.9764993752
 21
147.4658921084
  0
LINE
  5
2C6
100
AcDbEntity
  8
0
100
AcDbLine
 62
7
  6
CONTINUOUS
 10
173.9764993752
 20
147.7158921084
 11
171.9764993752
 21
147.7158921084
  0
LINE
  5
2C7
100
AcDbEntity
  8
0
100
AcDbLine
 62
7
  6
CONTINUOUS
 10
171.9764993752
 20
148.0492253622
 11
173.9764993752
 21
148.0492253622
  0
LINE
  5
2C8
100
AcDbEntity
  8
0
100
AcDbLine
 62
7
  6
CONTINUOUS
 10
173.9764993752
 20
148.2992253622
 11
173.0828823413
 21
148.2992253622
  0
LINE
  5
2C9
100
AcDbEntity
  8
0
100
AcDbLine
 62
7
  6
CONTINUOUS
 10
172.8275632228
 20
148.2992253622
 11
172.1892653073
 21
148.2992253622
  0
LINE
  5
2CA
100
AcDbEntity
  8
0
100
AcDbLine
 62
7
  6
CONTINUOUS
 10
191.7925899464
 20
148.8290806034
 11
191.8015152898
 21
149.032064695
  0
LINE
  5
2CB
100
AcDbEntity
  8
0
100
AcDbLine
 62
7
  6
CONTINUOUS
 10
194.33322693
 20
149.032064695
 11
193.8799762589
 21
149.032064695
  0
LINE
  5
2CC
100
AcDbEntity
  8
0
100
AcDbLine
 62
7
  6
CONTINUOUS
 10
191.8015152898
 20
149.032064695
 11
191.3482646187
 21
149.032064695
  0
LINE
  5
2CD
100
AcDbEntity
  8
0
100
AcDbLine
 62
7
  6
CONTINUOUS
 10
172.4445844258
 20
149.3408921084
 11
172.5722441043
 21
149.3408921084
  0
LINE
  5
2CE
100
AcDbEntity
  8
0
100
AcDbLine
 62
7
  6
CONTINUOUS
 10
172.6147972907
 20
149.5908921084
 11
172.4445844258
 21
149.5908921084
  0
LINE
  5
2CF
100
AcDbEntity
  8
0
100
AcDbLine
 62
7
  6
CONTINUOUS
 10
192.6174951032
 20
151.282064695
 11
192.6174951032
 21
150.4060729125
  0
LINE
  5
2D0
100
AcDbEntity
  8
0
100
AcDbLine
 62
7
  6
CONTINUOUS
 10
193.0707457743
 20
150.4075648171
 11
193.0707457743
 21
151.282064695
  0
LINE
  5
2D1
100
AcDbEntity
  8
0
100
AcDbLine
 62
7
  6
CONTINUOUS
 10
193.0707457743
 20
151.282064695
 11
192.6174951032
 21
151.282064695
  0
LINE
  5
2D2
100
AcDbEntity
  8
0
100
AcDbLine
 62
7
  6
CONTINUOUS
 10
194.33322693
 20
151.582064695
 11
193.8799762589
 21
151.582064695
  0
LINE
  5
2D3
100
AcDbEntity
  8
0
100
AcDbLine
 62
7
  6
CONTINUOUS
 10
191.8015152898
 20
151.582064695
 11
191.3482646187
 21
151.582064695
  0
LINE
  5
2D4
100
AcDbEntity
  8
0
100
AcDbLine
 62
7
  6
CONTINUOUS
 10
173.1254355277
 20
151.9242256006
 11
173.3807547058
 21
151.9242256006
  0
LINE
  5
2D5
100
AcDbEntity
  8
RUNDUNGEN
100
AcDbLine
 62
7
  6
CONTINUOUS
 10
187.6119418246
 20
150.8552398461
 11
185.166782137
 21
153.5708647958
  0
LINE
  5
2D6
100
AcDbEntity
  8
0
100
AcDbLine
 62
7
  6
CONTINUOUS
 10
172.3169248666
 20
152.9242256006
 11
173.1254355277
 21
152.9242256006
  0
LINE
  5
2D7
100
AcDbEntity
  8
0
100
AcDbLine
 62
7
  6
CONTINUOUS
 10
173.3807547058
 20
152.9242256006
 11
173.9764993752
 21
152.9242256006
  0
LINE
  5
2D8
100
AcDbEntity
  8
0
100
AcDbLine
 62
7
  6
CONTINUOUS
 10
173.9764993752
 20
153.1742256006
 11
173.3807547058
 21
153.1742256006
  0
LINE
  5
2D9
100
AcDbEntity
  8
0
100
AcDbLine
 62
7
  6
CONTINUOUS
 10
173.1254355277
 20
153.1742256006
 11
171.9764993752
 21
153.1742256006
  0
LINE
  5
2DA
100
AcDbEntity
  8
0
100
AcDbLine
 62
7
  6
CONTINUOUS
 10
173.3807547058
 20
153.5908921084
 11
173.1254355277
 21
153.5908921084
  0
LINE
  5
2DB
100
AcDbEntity
  8
RUNDUNGEN
100
AcDbLine
 62
7
  6
CONTINUOUS
 10
195.7814993752
 20
153.3719175122
 11
195.7814993752
 21
159.439429029
  0
LINE
  5
2DC
100
AcDbEntity
  8
BEZUGSACHSEN
100
AcDbLine
 62
7
  6
CONTINUOUS
 10
180.7126378798
 20
154.1058921084
 11
184.8503609553
 21
154.1058921084
  0
LINE
  5
2DD
100
AcDbEntity
  8
0
100
AcDbLine
 62
7
  6
CONTINUOUS
 10
199.7814993752
 20
145.2379429159
 11
199.7814993752
 21
120.6058921084
  0
LINE
  5
2DE
100
AcDbEntity
  8
BEZUGSACHSEN
100
AcDbLine
 62
7
  6
CONTINUOUS
 10
180.7814993752
 20
158.9058921084
 11
184.7814993752
 21
158.9058921084
  0
LINE
  5
2DF
100
AcDbEntity
  8
RUNDUNGEN
100
AcDbLine
 62
7
  6
CONTINUOUS
 10
199.647524779
 20
145.7379429159
 11
196.250410462
 21
151.6219175122
  0
LINE
  5
2E0
100
AcDbEntity
  8
0
100
AcDbLine
 62
7
  6
CONTINUOUS
 10
171.63780549
 20
162.0058921084
 11
176.5968409368
 21
162.0058921084
  0
LINE
  5
2E1
100
AcDbEntity
  8
0
100
AcDbLine
 62
7
  6
CONTINUOUS
 10
188.9661578137
 20
162.0058921084
 11
193.9251930608
 21
162.0058921084
  0
LINE
  5
2E2
100
AcDbEntity
  8
RUNDUNGEN
100
AcDbLine
 62
7
  6
CONTINUOUS
 10
195.1966071611
 20
161.0464020122
 11
194.6912361602
 21
161.648679718
  0
LINE
  5
2E3
100
AcDbEntity
  8
0
100
AcDbLine
 62
7
  6
CONTINUOUS
 10
199.7814993752
 20
120.6058921084
 11
199.2814993752
 21
120.1058921084
  0
LINE
  5
2E4
100
AcDbEntity
  8
RUNDUNGEN
100
AcDbLine
 62
7
  6
CONTINUOUS
 10
107.3334019353
 20
28.151063909
 11
118.3334019353
 21
28.151063909
  0
LINE
  5
2E5
100
AcDbEntity
  8
0
100
AcDbLine
 62
7
  6
CONTINUOUS
 10
123.7878530855
 20
28.151063909
 11
124.1719424058
 21
28.151063909
  0
LINE
  5
2E6
100
AcDbEntity
  8
0
100
AcDbLine
 62
7
  6
CONTINUOUS
 10
106.3334019353
 20
29.5993363542
 11
105.8334019353
 21
29.5993363542
  0
LINE
  5
2E7
100
AcDbEntity
  8
0
100
AcDbLine
 62
7
  6
CONTINUOUS
 10
106.3334019353
 20
30.0525870253
 11
105.8334019353
 21
30.0525870253
  0
LINE
  5
2E8
100
AcDbEntity
  8
0
100
AcDbLine
 62
7
  6
CONTINUOUS
 10
125.7948833322
 20
30.151063909
 11
126.1210842013
 21
30.151063909
  0
LINE
  5
2E9
100
AcDbEntity
  8
0
100
AcDbLine
 62
7
  6
CONTINUOUS
 10
126.1372757035
 20
30.5677306551
 11
126.4552798249
 21
30.5677306551
  0
LINE
  5
2EA
100
AcDbEntity
  8
0
100
AcDbLine
 62
7
  6
CONTINUOUS
 10
106.3334019353
 20
30.8618175099
 11
105.8334019353
 21
30.8618175099
  0
LINE
  5
2EB
100
AcDbEntity
  8
0
100
AcDbLine
 62
7
  6
CONTINUOUS
 10
126.3957579254
 20
30.901063909
 11
126.7078388609
 21
30.901063909
  0
LINE
  5
2EC
100
AcDbEntity
  8
0
100
AcDbLine
 62
7
  6
CONTINUOUS
 10
126.5811290202
 20
31.151063909
 11
126.8890947322
 21
31.151063909
  0
LINE
  5
2ED
100
AcDbEntity
  8
0
100
AcDbLine
 62
7
  6
CONTINUOUS
 10
126.6413605334
 20
31.2343971628
 11
126.9480121193
 21
31.2343971628
  0
LINE
  5
2EE
100
AcDbEntity
  8
0
100
AcDbLine
 62
7
  6
CONTINUOUS
 10
106.3334019353
 20
31.315068181
 11
105.8334019353
 21
31.315068181
  0
LINE
  5
2EF
100
AcDbEntity
  8
0
100
AcDbLine
 62
7
  6
CONTINUOUS
 10
127.0965537609
 20
31.901063909
 11
127.3936217139
 21
31.901063909
  0
LINE
  5
2F0
100
AcDbEntity
  8
0
100
AcDbLine
 62
7
  6
CONTINUOUS
 10
106.3334019353
 20
32.1310479944
 11
105.8334019353
 21
32.1310479944
  0
LINE
  5
2F1
100
AcDbEntity
  8
0
100
AcDbLine
 62
7
  6
CONTINUOUS
 10
106.3334019353
 20
32.5842986655
 11
105.8334019353
 21
32.5842986655
  0
LINE
  5
2F2
100
AcDbEntity
  8
0
100
AcDbLine
 62
7
  6
CONTINUOUS
 10
105.8334019353
 20
29.5993363542
 11
105.8334019353
 21
32.5842986655
  0
LINE
  5
2F3
100
AcDbEntity
  8
0
100
AcDbLine
 62
7
  6
CONTINUOUS
 10
105.8334019353
 20
49.956063909
 11
105.8334019353
 21
51.956063909
  0
LINE
  5
2F4
100
AcDbEntity
  8
RUNDUNGEN
100
AcDbLine
 62
7
  6
CONTINUOUS
 10
106.3334019353
 20
26.4796753009
 11
106.3334019353
 21
35.0224499731
  0
LINE
  5
2F5
100
AcDbEntity
  8
RUNDUNGEN
100
AcDbLine
 62
7
  6
CONTINUOUS
 10
106.3334019353
 20
47.2796718275
 11
106.3334019353
 21
55.822452706
  0
LINE
  5
2F6
100
AcDbEntity
  8
0
100
AcDbLine
 62
7
  6
CONTINUOUS
 10
128.20992625
 20
33.901063909
 11
128.4858777778
 21
33.901063909
  0
LINE
  5
2F7
100
AcDbEntity
  8
0
100
AcDbLine
 62
7
  6
CONTINUOUS
 10
128.3995688811
 20
34.3177304167
 11
128.6722167074
 21
34.3177304167
  0
LINE
  5
2F8
100
AcDbEntity
  8
0
100
AcDbLine
 62
7
  6
CONTINUOUS
 10
128.5416800078
 20
34.651063909
 11
128.8119031166
 21
34.651063909
  0
LINE
  5
2F9
100
AcDbEntity
  8
0
100
AcDbLine
 62
7
  6
CONTINUOUS
 10
128.6428136891
 20
34.901063909
 11
128.9113371262
 21
34.901063909
  0
LINE
  5
2FA
100
AcDbEntity
  8
0
100
AcDbLine
 62
7
  6
CONTINUOUS
 10
128.6755048318
 20
34.9843974012
 11
128.9434833809
 21
34.9843974012
  0
LINE
  5
2FB
100
AcDbEntity
  8
0
100
AcDbLine
 62
7
  6
CONTINUOUS
 10
128.9191098775
 20
35.651063909
 11
129.1830961221
 21
35.651063909
  0
LINE
  5
2FC
100
AcDbEntity
  8
0
100
AcDbLine
 62
7
  6
CONTINUOUS
 10
129.0814787446
 20
36.151063909
 11
129.3428689164
 21
36.151063909
  0
LINE
  5
2FD
100
AcDbEntity
  8
RUNDUNGEN
100
AcDbLine
 62
7
  6
CONTINUOUS
 10
106.8460353018
 20
36.3843140522
 11
106.8345703541
 21
36.3580200891
  0
LWPOLYLINE
  5
2FE
100
AcDbEntity
  8
RUNDUNGEN
100
AcDbPolyline
 62
7
  6
CONTINUOUS
 90
4
 70
0
 10
106.8345703541
 20
36.3580200891
 10
106.7870579084
 20
36.2529155623
 10
106.7371575955
 20
36.1484770342
 10
106.6849007808
 20
36.0447222917
  0
LINE
  5
2FF
100
AcDbEntity
  8
0
100
AcDbLine
 62
7
  6
CONTINUOUS
 10
106.9766711661
 20
36.6982500963
 11
106.500068602
 21
35.6535897415
  0
LINE
  5
300
100
AcDbEntity
  8
RUNDUNGEN
100
AcDbLine
 62
7
  6
CONTINUOUS
 10
106.6849007808
 20
36.0447222917
 11
106.630320645
 21
35.9416717522
  0
LWPOLYLINE
  5
301
100
AcDbEntity
  8
RUNDUNGEN
100
AcDbPolyline
 62
7
  6
CONTINUOUS
 90
3
 70
0
 10
106.630320645
 20
35.9416717522
 10
106.6097663166
 20
35.9041430997
 10
106.5800632141
 20
35.8511984567
  0
LINE
  5
302
100
AcDbEntity
  8
RUNDUNGEN
100
AcDbLine
 62
7
  6
CONTINUOUS
 10
106.6140163241
 20
46.3902844019
 11
106.6341850472
 21
46.3533234
  0
LINE
  5
303
100
AcDbEntity
  8
RUNDUNGEN
100
AcDbLine
 62
7
  6
CONTINUOUS
 10
106.6341850472
 20
46.3533234
 11
106.688583279
 21
46.2502654165
  0
LWPOLYLINE
  5
304
100
AcDbEntity
  8
RUNDUNGEN
100
AcDbPolyline
 62
7
  6
CONTINUOUS
 90
3
 70
0
 10
106.688583279
 20
46.2502654165
 10
106.740658521
 20
46.1465036
 10
106.790377863
 20
46.0420577968
  0
LINE
  5
305
100
AcDbEntity
  8
0
100
AcDbLine
 62
7
  6
CONTINUOUS
 10
106.500068602
 20
46.6485380764
 11
106.9766711661
 21
45.6038777217
  0
LWPOLYLINE
  5
306
100
AcDbEntity
  8
RUNDUNGEN
100
AcDbPolyline
 62
7
  6
CONTINUOUS
 90
3
 70
0
 10
106.790377863
 20
46.0420577968
 10
106.8377098253
 20
45.9369457568
 10
106.8460352867
 20
45.9178137876
  0
LINE
  5
307
100
AcDbEntity
  8
BEZUGSACHSEN
100
AcDbLine
 62
7
  6
CONTINUOUS
 10
110.4334019353
 20
43.151063909
 11
110.4334019353
 21
39.151063909
  0
LINE
  5
308
100
AcDbEntity
  8
RUNDUNGEN
100
AcDbLine
 62
7
  6
CONTINUOUS
 10
106.5800632141
 20
35.8511984567
 11
106.5501625097
 21
35.7994118767
  0
LINE
  5
309
100
AcDbEntity
  8
RUNDUNGEN
100
AcDbLine
 62
7
  6
CONTINUOUS
 10
106.5501625097
 20
35.7994118767
 11
106.5417987431
 21
35.7851915226
  0
LINE
  5
30A
100
AcDbEntity
  8
0
100
AcDbLine
 62
7
  6
CONTINUOUS
 10
129.566602466
 20
38.151063909
 11
129.8205294147
 21
38.151063909
  0
LINE
  5
30B
100
AcDbEntity
  8
0
100
AcDbLine
 62
7
  6
CONTINUOUS
 10
129.6359728487
 20
38.5677306551
 11
129.8888670213
 21
38.5677306551
  0
LINE
  5
30C
100
AcDbEntity
  8
0
100
AcDbLine
 62
7
  6
CONTINUOUS
 10
129.6838470333
 20
38.901063909
 11
129.9360333118
 21
38.901063909
  0
LINE
  5
30D
100
AcDbEntity
  8
RUNDUNGEN
100
AcDbLine
 62
7
  6
CONTINUOUS
 10
116.0249799504
 20
39.151063909
 11
110.1418239203
 21
39.151063909
  0
LINE
  5
30E
100
AcDbEntity
  8
0
100
AcDbLine
 62
7
  6
CONTINUOUS
 10
129.7153449515
 20
39.151063909
 11
129.967067626
 21
39.151063909
  0
LINE
  5
30F
100
AcDbEntity
  8
0
100
AcDbLine
 62
7
  6
CONTINUOUS
 10
129.725008981
 20
39.2343971628
 11
129.976589754
 21
39.2343971628
  0
LINE
  5
310
100
AcDbEntity
  8
0
100
AcDbLine
 62
7
  6
CONTINUOUS
 10
129.7342566232
 20
39.3177306551
 11
129.9857017572
 21
39.3177306551
  0
LINE
  5
311
100
AcDbEntity
  8
0
100
AcDbLine
 62
7
  6
CONTINUOUS
 10
129.7515052913
 20
39.4843969244
 11
130.0026978196
 21
39.4843969244
  0
LWPOLYLINE
  5
312
100
AcDbEntity
  8
RUNDUNGEN
100
AcDbPolyline
 62
7
  6
CONTINUOUS
 90
3
 70
0
 10
106.5424726188
 20
46.5157990592
 10
106.5544416094
 20
46.4953959829
 10
106.5843283006
 20
46.4434199837
  0
LINE
  5
313
100
AcDbEntity
  8
RUNDUNGEN
100
AcDbLine
 62
7
  6
CONTINUOUS
 10
106.5843283006
 20
46.4434199837
 11
106.6140163241
 21
46.3902844019
  0
LINE
  5
314
100
AcDbEntity
  8
0
100
AcDbLine
 62
7
  6
CONTINUOUS
 10
129.7873837685
 20
39.901063909
 11
130.0380524694
 21
39.901063909
  0
LINE
  5
315
100
AcDbEntity
  8
0
100
AcDbLine
 62
7
  6
CONTINUOUS
 10
129.7933220031
 20
39.9843971628
 11
130.0439042146
 21
39.9843971628
  0
LINE
  5
316
100
AcDbEntity
  8
0
100
AcDbLine
 62
7
  6
CONTINUOUS
 10
129.8203250166
 20
40.4843974012
 11
130.0705146799
 21
40.4843974012
  0
LINE
  5
317
100
AcDbEntity
  8
0
100
AcDbLine
 62
7
  6
CONTINUOUS
 10
129.8233908122
 20
40.5677304167
 11
130.0735359846
 21
40.5677304167
  0
LINE
  5
318
100
AcDbEntity
  8
0
100
AcDbLine
 62
7
  6
CONTINUOUS
 10
129.828294963
 20
40.7343974012
 11
130.0783689989
 21
40.7343974012
  0
LINE
  5
319
100
AcDbEntity
  8
0
100
AcDbLine
 62
7
  6
CONTINUOUS
 10
129.8325849238
 20
40.9843974012
 11
130.0825967651
 21
40.9843974012
  0
LINE
  5
31A
100
AcDbEntity
  8
0
100
AcDbLine
 62
7
  6
CONTINUOUS
 10
129.8325849238
 20
41.3177304167
 11
130.0825967651
 21
41.3177304167
  0
LINE
  5
31B
100
AcDbEntity
  8
0
100
AcDbLine
 62
7
  6
CONTINUOUS
 10
129.8260474033
 20
41.651063909
 11
130.0761540359
 21
41.651063909
  0
LINE
  5
31C
100
AcDbEntity
  8
0
100
AcDbLine
 62
7
  6
CONTINUOUS
 10
129.8129648064
 20
41.9843974012
 11
130.0632613454
 21
41.9843974012
  0
LINE
  5
31D
100
AcDbEntity
  8
0
100
AcDbLine
 62
7
  6
CONTINUOUS
 10
129.7988488362
 20
42.2343974012
 11
130.0493506035
 21
42.2343974012
  0
LINE
  5
31E
100
AcDbEntity
  8
0
100
AcDbLine
 62
7
  6
CONTINUOUS
 10
129.7873837685
 20
42.401063909
 11
130.0380524694
 21
42.401063909
  0
LINE
  5
31F
100
AcDbEntity
  8
0
100
AcDbLine
 62
7
  6
CONTINUOUS
 10
129.7810336814
 20
42.4843974012
 11
130.0317949358
 21
42.4843974012
  0
LINE
  5
320
100
AcDbEntity
  8
BEZUGSACHSEN
100
AcDbLine
 62
7
  6
CONTINUOUS
 10
115.2334019353
 20
43.151063909
 11
115.2334019353
 21
39.151063909
  0
LWPOLYLINE
  5
321
100
AcDbEntity
  8
RUNDUNGEN
100
AcDbPolyline
 62
7
  6
CONTINUOUS
 90
5
 70
0
 10
118.8322292837
 20
45.9440980485
 10
118.8797390217
 20
46.0491973018
 10
118.9296380981
 20
46.1536341089
 10
118.9818952403
 20
46.2573903956
 10
119.0364781023
 20
46.3604466531
  0
LWPOLYLINE
  5
322
100
AcDbEntity
  8
RUNDUNGEN
100
AcDbPolyline
 62
7
  6
CONTINUOUS
 90
3
 70
0
 10
119.0364781023
 20
46.3604466531
 10
119.0570412893
 20
46.3979915211
 10
119.0867449018
 20
46.450936815
  0
LINE
  5
323
100
AcDbEntity
  8
RUNDUNGEN
100
AcDbLine
 62
7
  6
CONTINUOUS
 10
119.0867449018
 20
46.450936815
 11
119.1166454642
 21
46.5027229366
  0
LINE
  5
324
100
AcDbEntity
  8
RUNDUNGEN
100
AcDbLine
 62
7
  6
CONTINUOUS
 10
119.1166454642
 20
46.5027229366
 11
119.1250051337
 21
46.5169362964
  0
LINE
  5
325
100
AcDbEntity
  8
0
100
AcDbLine
 62
7
  6
CONTINUOUS
 10
129.7342565973
 20
42.9843974012
 11
129.9857017318
 21
42.9843974012
  0
LINE
  5
326
100
AcDbEntity
  8
RUNDUNGEN
100
AcDbLine
 62
7
  6
CONTINUOUS
 10
110.1418239203
 20
43.151063909
 11
116.0249799507
 21
43.151063909
  0
LINE
  5
327
100
AcDbEntity
  8
0
100
AcDbLine
 62
7
  6
CONTINUOUS
 10
129.7052638227
 20
43.2343969244
 11
129.9571346927
 21
43.2343969244
  0
LINE
  5
328
100
AcDbEntity
  8
0
100
AcDbLine
 62
7
  6
CONTINUOUS
 10
129.6485736561
 20
43.651063909
 11
129.901281124
 21
43.651063909
  0
LWPOLYLINE
  5
329
100
AcDbEntity
  8
RUNDUNGEN
100
AcDbPolyline
 62
7
  6
CONTINUOUS
 90
3
 70
0
 10
119.1243308768
 20
35.7863287784
 10
119.1123595669
 20
35.8067364436
 10
119.0824727791
 20
35.8587127581
  0
LINE
  5
32A
100
AcDbEntity
  8
RUNDUNGEN
100
AcDbLine
 62
7
  6
CONTINUOUS
 10
119.0824727791
 20
35.8587127581
 11
119.0527850868
 21
35.9118479353
  0
LINE
  5
32B
100
AcDbEntity
  8
RUNDUNGEN
100
AcDbLine
 62
7
  6
CONTINUOUS
 10
119.0527850868
 20
35.9118479353
 11
119.0326119511
 21
35.9488170654
  0
LINE
  5
32C
100
AcDbEntity
  8
RUNDUNGEN
100
AcDbLine
 62
7
  6
CONTINUOUS
 10
119.0326119511
 20
35.9488170654
 11
118.9782102939
 21
36.0518823673
  0
LWPOLYLINE
  5
32D
100
AcDbEntity
  8
RUNDUNGEN
100
AcDbPolyline
 62
7
  6
CONTINUOUS
 90
3
 70
0
 10
118.9782102939
 20
36.0518823673
 10
118.9261345273
 20
36.1556463679
 10
118.8764168735
 20
36.2600897729
  0
LWPOLYLINE
  5
32E
100
AcDbEntity
  8
RUNDUNGEN
100
AcDbPolyline
 62
7
  6
CONTINUOUS
 90
3
 70
0
 10
118.8764168735
 20
36.2600897729
 10
118.8290885872
 20
36.3651945433
 10
118.8207809788
 20
36.3842853561
  0
LINE
  5
32F
100
AcDbEntity
  8
RUNDUNGEN
100
AcDbLine
 62
7
  6
CONTINUOUS
 10
118.8207812442
 20
45.9178430665
 11
118.8322292837
 21
45.9440980485
  0
LINE
  5
330
100
AcDbEntity
  8
0
100
AcDbLine
 62
7
  6
CONTINUOUS
 10
129.2269982461
 20
45.651063909
 11
129.4861044187
 21
45.651063909
  0
LINE
  5
331
100
AcDbEntity
  8
0
100
AcDbLine
 62
7
  6
CONTINUOUS
 10
129.1068891389
 20
46.0677308935
 11
129.3678776078
 21
46.0677308935
  0
LINE
  5
332
100
AcDbEntity
  8
RUNDUNGEN
100
AcDbLine
 62
7
  6
CONTINUOUS
 10
119.3334019353
 20
26.4796751119
 11
119.3334019353
 21
35.0224549086
  0
LINE
  5
333
100
AcDbEntity
  8
RUNDUNGEN
100
AcDbLine
 62
7
  6
CONTINUOUS
 10
119.3334019353
 20
47.2796788457
 11
119.3334019353
 21
55.8224646601
  0
LINE
  5
334
100
AcDbEntity
  8
0
100
AcDbLine
 62
7
  6
CONTINUOUS
 10
129.0024309724
 20
46.401063909
 11
129.2650786605
 21
46.401063909
  0
LINE
  5
335
100
AcDbEntity
  8
0
100
AcDbLine
 62
7
  6
CONTINUOUS
 10
128.8903752628
 20
46.7343969244
 11
129.1548262739
 21
46.7343969244
  0
LINE
  5
336
100
AcDbEntity
  8
0
100
AcDbLine
 62
7
  6
CONTINUOUS
 10
128.8314486911
 20
46.901063909
 11
129.0968579026
 21
46.901063909
  0
LINE
  5
337
100
AcDbEntity
  8
0
100
AcDbLine
 62
7
  6
CONTINUOUS
 10
128.8012516945
 20
46.9843969244
 11
129.0671546109
 21
46.9843969244
  0
LINE
  5
338
100
AcDbEntity
  8
0
100
AcDbLine
 62
7
  6
CONTINUOUS
 10
128.7076908271
 20
47.2343978781
 11
128.9751350461
 21
47.2343978781
  0
LINE
  5
339
100
AcDbEntity
  8
0
100
AcDbLine
 62
7
  6
CONTINUOUS
 10
128.4716743474
 20
47.8177299398
 11
128.7430865341
 21
47.8177299398
  0
LINE
  5
33A
100
AcDbEntity
  8
0
100
AcDbLine
 62
7
  6
CONTINUOUS
 10
128.3995686718
 20
47.9843978781
 11
128.6722165017
 21
47.9843978781
  0
LINE
  5
33B
100
AcDbEntity
  8
0
100
AcDbLine
 62
7
  6
CONTINUOUS
 10
128.1302337964
 20
48.5677299398
 11
128.4075974197
 21
48.5677299398
  0
LINE
  5
33C
100
AcDbEntity
  8
0
100
AcDbLine
 62
7
  6
CONTINUOUS
 10
127.9640826867
 20
48.901063909
 11
128.2444369428
 21
48.901063909
  0
LINE
  5
33D
100
AcDbEntity
  8
0
100
AcDbLine
 62
7
  6
CONTINUOUS
 10
127.7886589356
 20
49.2343978781
 11
128.0722408657
 21
49.2343978781
  0
LINE
  5
33E
100
AcDbEntity
  8
0
100
AcDbLine
 62
7
  6
CONTINUOUS
 10
127.7433169566
 20
49.3177299398
 11
128.0277451571
 21
49.3177299398
  0
LINE
  5
33F
100
AcDbEntity
  8
0
100
AcDbLine
 62
7
  6
CONTINUOUS
 10
127.6973684315
 20
49.401063909
 11
127.9826593429
 21
49.401063909
  0
LINE
  5
340
100
AcDbEntity
  8
0
100
AcDbLine
 62
7
  6
CONTINUOUS
 10
106.3334019353
 20
49.956063909
 11
105.8334019353
 21
49.956063909
  0
LINE
  5
341
100
AcDbEntity
  8
0
100
AcDbLine
 62
7
  6
CONTINUOUS
 10
127.3072772593
 20
50.0677299398
 11
127.6001066081
 21
50.0677299398
  0
LINE
  5
342
100
AcDbEntity
  8
0
100
AcDbLine
 62
7
  6
CONTINUOUS
 10
106.3334019353
 20
50.5518085784
 11
105.8334019353
 21
50.5518085784
  0
LINE
  5
343
100
AcDbEntity
  8
0
100
AcDbLine
 62
7
  6
CONTINUOUS
 10
126.8747590648
 20
50.7343978781
 11
127.1764214932
 21
50.7343978781
  0
LINE
  5
344
100
AcDbEntity
  8
0
100
AcDbLine
 62
7
  6
CONTINUOUS
 10
106.3334019353
 20
50.8071277565
 11
105.8334019353
 21
50.8071277565
  0
LINE
  5
345
100
AcDbEntity
  8
0
100
AcDbLine
 62
7
  6
CONTINUOUS
 10
126.5811290202
 20
51.151063909
 11
126.8890947322
 21
51.151063909
  0
LINE
  5
346
100
AcDbEntity
  8
0
100
AcDbLine
 62
7
  6
CONTINUOUS
 10
106.3334019353
 20
51.956063909
 11
105.8334019353
 21
51.956063909
  0
LINE
  5
347
100
AcDbEntity
  8
0
100
AcDbLine
 62
7
  6
CONTINUOUS
 10
125.8651478955
 20
52.0677299398
 11
126.1896327948
 21
52.0677299398
  0
LINE
  5
348
100
AcDbEntity
  8
RUNDUNGEN
100
AcDbLine
 62
7
  6
CONTINUOUS
 10
107.3334019353
 20
54.151063909
 11
118.3334019353
 21
54.151063909
  0
ARC
  5
349
100
AcDbEntity
  8
RUNDUNGEN
100
AcDbCircle
 62
7
  6
CONTINUOUS
 10
102.3334019353
 20
143.0058921084
 40
4.0
100
AcDbArc
 50
270.0011473704
 51
360.0
  0
ARC
  5
34A
100
AcDbEntity
  8
RUNDUNGEN
100
AcDbCircle
 62
7
  6
CONTINUOUS
 10
97.3334019353
 20
137.5058921084
 40
1.5
100
AcDbArc
 50
90.0
 51
180.0
  0
ARC
  5
34B
100
AcDbEntity
  8
RUNDUNGEN
100
AcDbCircle
 62
7
  6
CONTINUOUS
 10
123.3334019353
 20
143.0058921084
 40
4.0
100
AcDbArc
 50
180.0
 51
269.9984659712
  0
ARC
  5
34C
100
AcDbEntity
  8
RUNDUNGEN
100
AcDbCircle
 62
7
  6
CONTINUOUS
 10
128.3334019353
 20
137.5058921084
 40
1.5
100
AcDbArc
 50
0.0
 51
90.0
  0
ARC
  5
34D
100
AcDbEntity
  8
RUNDUNGEN
100
AcDbCircle
 62
7
  6
CONTINUOUS
 10
112.8334019353
 20
155.5058921084
 40
6.5
100
AcDbArc
 50
0.0
 51
180.0
  0
ARC
  5
34E
100
AcDbEntity
  8
RUNDUNGEN
100
AcDbCircle
 62
7
  6
CONTINUOUS
 10
166.2814993752
 20
153.3719175122
 40
3.5
100
AcDbArc
 50
330.0
 51
360.0
  0
ARC
  5
34F
100
AcDbEntity
  8
RUNDUNGEN
100
AcDbCircle
 62
7
  6
CONTINUOUS
 10
179.2814993752
 20
154.5745607054
 40
1.5
100
AcDbArc
 50
318.0
 51
360.0
  0
ARC
  5
350
100
AcDbEntity
  8
RUNDUNGEN
100
AcDbCircle
 62
7
  6
CONTINUOUS
 10
166.7815082498
 20
145.2379582872
 40
1.0
100
AcDbArc
 50
150.0010169546
 51
180.0008806989
  0
ARC
  5
351
100
AcDbEntity
  8
RUNDUNGEN
100
AcDbCircle
 62
7
  6
CONTINUOUS
 10
172.2814993752
 20
159.439429029
 40
2.5
100
AcDbArc
 50
140.0
 51
179.9993956533
  0
ARC
  5
352
100
AcDbEntity
  8
RUNDUNGEN
100
AcDbCircle
 62
7
  6
CONTINUOUS
 10
176.5968409368
 20
160.5058921084
 40
1.5
100
AcDbArc
 50
62.7339555493
 51
90.0
  0
ARC
  5
353
100
AcDbEntity
  8
RUNDUNGEN
100
AcDbCircle
 62
7
  6
CONTINUOUS
 10
171.6378070334
 20
161.0058921084
 40
1.0
100
AcDbArc
 50
90.0
 51
140.0
  0
ARC
  5
354
100
AcDbEntity
  8
RUNDUNGEN
100
AcDbCircle
 62
7
  6
CONTINUOUS
 10
179.7814993752
 20
159.8567814677
 40
1.0
100
AcDbArc
 50
0.0
 51
76.6576362029
  0
ARC
  5
355
100
AcDbEntity
  8
RUNDUNGEN
100
AcDbCircle
 62
7
  6
CONTINUOUS
 10
182.7814993752
 20
146.5058921084
 40
6.5
100
AcDbArc
 50
138.0000130275
 51
41.9999857237
  0
ARC
  5
356
100
AcDbEntity
  8
RUNDUNGEN
100
AcDbCircle
 62
7
  6
CONTINUOUS
 10
199.2814993752
 20
153.3719175122
 40
3.5
100
AcDbArc
 50
180.0
 51
210.0
  0
ARC
  5
357
100
AcDbEntity
  8
0
100
AcDbCircle
 62
7
  6
CONTINUOUS
 10
192.8407457743
 20
151.432064695
 40
1.5
100
AcDbArc
 50
174.2608295227
 51
5.7391704773
  0
ARC
  5
358
100
AcDbEntity
  8
0
100
AcDbCircle
 62
7
  6
CONTINUOUS
 10
192.8407457743
 20
148.882064695
 40
1.5
100
AcDbArc
 50
174.2608295227
 51
5.7391704773
  0
ARC
  5
359
100
AcDbEntity
  8
RUNDUNGEN
100
AcDbCircle
 62
7
  6
CONTINUOUS
 10
186.2814993752
 20
154.5745607054
 40
1.5
100
AcDbArc
 50
180.0
 51
222.0
  0
ARC
  5
35A
100
AcDbEntity
  8
0
100
AcDbCircle
 62
7
  6
CONTINUOUS
 10
192.8407457743
 20
151.432064695
 40
1.05
100
AcDbArc
 50
282.6531012477
 51
8.2132107017
  0
ARC
  5
35B
100
AcDbEntity
  8
0
100
AcDbCircle
 62
7
  6
CONTINUOUS
 10
192.8407457743
 20
151.432064695
 40
1.05
100
AcDbArc
 50
171.7867892983
 51
257.7240830835
  0
ARC
  5
35C
100
AcDbEntity
  8
0
100
AcDbCircle
 62
7
  6
CONTINUOUS
 10
192.8407457743
 20
148.882064695
 40
1.05
100
AcDbArc
 50
182.8938283409
 51
8.2132107017
  0
ARC
  5
35D
100
AcDbEntity
  8
RUNDUNGEN
100
AcDbCircle
 62
7
  6
CONTINUOUS
 10
198.7814365764
 20
145.2380516867
 40
1.0
100
AcDbArc
 50
359.993768506
 51
29.9928037816
  0
ARC
  5
35E
100
AcDbEntity
  8
0
100
AcDbCircle
 62
7
  6
CONTINUOUS
 10
182.7814993752
 20
172.5058921084
 40
12.0
100
AcDbArc
 50
283.3423637971
 51
297.2660444507
  0
ARC
  5
35F
100
AcDbEntity
  8
0
100
AcDbCircle
 62
7
  6
CONTINUOUS
 10
182.7814993752
 20
172.5058921084
 40
12.0
100
AcDbArc
 50
242.7339555493
 51
256.6576362029
  0
ARC
  5
360
100
AcDbEntity
  8
RUNDUNGEN
100
AcDbCircle
 62
7
  6
CONTINUOUS
 10
193.2814993752
 20
159.439429029
 40
2.5
100
AcDbArc
 50
359.9998064356
 51
40.0001184437
  0
ARC
  5
361
100
AcDbEntity
  8
RUNDUNGEN
100
AcDbCircle
 62
7
  6
CONTINUOUS
 10
188.9661578137
 20
160.5058921084
 40
1.5
100
AcDbArc
 50
90.0
 51
117.2660444507
  0
ARC
  5
362
100
AcDbEntity
  8
RUNDUNGEN
100
AcDbCircle
 62
7
  6
CONTINUOUS
 10
193.9251917171
 20
161.0058921084
 40
1.0
100
AcDbArc
 50
40.0
 51
89.9999999999
  0
ARC
  5
363
100
AcDbEntity
  8
RUNDUNGEN
100
AcDbCircle
 62
7
  6
CONTINUOUS
 10
185.7814993752
 20
159.8567814677
 40
1.0
100
AcDbArc
 50
103.3423637971
 51
180.0
  0
ARC
  5
364
100
AcDbEntity
  8
RUNDUNGEN
100
AcDbCircle
 62
7
  6
CONTINUOUS
 10
107.8333482863
 20
26.4796628079
 40
1.4999853684
100
AcDbArc
 50
179.9999866315
 51
251.180116958
  0
ARC
  5
365
100
AcDbEntity
  8
RUNDUNGEN
100
AcDbCircle
 62
7
  6
CONTINUOUS
 10
107.3334019353
 20
29.151063909
 40
1.0
100
AcDbArc
 50
180.0
 51
270.0
  0
ARC
  5
366
100
AcDbEntity
  8
RUNDUNGEN
100
AcDbCircle
 62
7
  6
CONTINUOUS
 10
107.8461431496
 20
35.0201742858
 40
1.5128141456
100
AcDbArc
 50
161.763986643
 51
177.2409332672
  0
ARC
  5
367
100
AcDbEntity
  8
RUNDUNGEN
100
AcDbCircle
 62
7
  6
CONTINUOUS
 10
107.8334019353
 20
34.9664054705
 40
1.5
100
AcDbArc
 50
152.7339555493
 51
180.0
  0
ARC
  5
368
100
AcDbEntity
  8
RUNDUNGEN
100
AcDbCircle
 62
7
  6
CONTINUOUS
 10
107.8308530688
 20
35.0237781109
 40
1.4971648682
100
AcDbArc
 50
149.3260166524
 51
161.7118662262
  0
ARC
  5
369
100
AcDbEntity
  8
RUNDUNGEN
100
AcDbCircle
 62
7
  6
CONTINUOUS
 10
107.8232056936
 20
35.0220962908
 40
1.4898109844
100
AcDbArc
 50
177.2723020817
 51
177.8522674214
  0
ARC
  5
36A
100
AcDbEntity
  8
RUNDUNGEN
100
AcDbCircle
 62
7
  6
CONTINUOUS
 10
107.8140214169
 20
35.0223978691
 40
1.4806218581
100
AcDbArc
 50
177.8506101936
 51
179.9979060447
  0
ARC
  5
36B
100
AcDbEntity
  8
RUNDUNGEN
100
AcDbCircle
 62
7
  6
CONTINUOUS
 10
107.9052769353
 20
36.3271822785
 40
1.0
100
AcDbArc
 50
113.2437018405
 51
158.218538781
  0
ARC
  5
36C
100
AcDbEntity
  8
RUNDUNGEN
100
AcDbCircle
 62
7
  6
CONTINUOUS
 10
110.1418239203
 20
38.151063909
 40
1.0
100
AcDbArc
 50
90.0
 51
145.1503746043
  0
ARC
  5
36D
100
AcDbEntity
  8
RUNDUNGEN
100
AcDbCircle
 62
7
  6
CONTINUOUS
 10
95.8334019353
 20
41.151063909
 40
12.0
100
AcDbArc
 50
21.7814874452
 51
27.2660444507
  0
ARC
  5
36E
100
AcDbEntity
  8
RUNDUNGEN
100
AcDbCircle
 62
7
  6
CONTINUOUS
 10
95.8334019353
 20
41.151063909
 40
12.0
100
AcDbArc
 50
332.7339555493
 51
338.2185125548
  0
ARC
  5
36F
100
AcDbEntity
  8
RUNDUNGEN
100
AcDbCircle
 62
7
  6
CONTINUOUS
 10
105.8334019353
 20
41.151063909
 40
4.25
100
AcDbArc
 50
293.2437018405
 51
325.1500297308
  0
ARC
  5
370
100
AcDbEntity
  8
RUNDUNGEN
100
AcDbCircle
 62
7
  6
CONTINUOUS
 10
105.8334019353
 20
41.151063909
 40
4.25
100
AcDbArc
 50
34.8498593313
 51
66.7562981595
  0
ARC
  5
371
100
AcDbEntity
  8
RUNDUNGEN
100
AcDbCircle
 62
7
  6
CONTINUOUS
 10
107.8461452584
 20
47.2819431124
 40
1.5128135429
100
AcDbArc
 50
182.7599223079
 51
198.2361069108
  0
ARC
  5
372
100
AcDbEntity
  8
RUNDUNGEN
100
AcDbCircle
 62
7
  6
CONTINUOUS
 10
107.8334019353
 20
47.3357223474
 40
1.5
100
AcDbArc
 50
180.0
 51
207.2660444537
  0
ARC
  5
373
100
AcDbEntity
  8
RUNDUNGEN
100
AcDbCircle
 62
7
  6
CONTINUOUS
 10
107.8308557227
 20
47.2783392972
 40
1.4971647884
100
AcDbArc
 50
198.2882221393
 51
210.6733632326
  0
ARC
  5
374
100
AcDbEntity
  8
RUNDUNGEN
100
AcDbCircle
 62
7
  6
CONTINUOUS
 10
107.8232037721
 20
47.2800207777
 40
1.4898063279
100
AcDbArc
 50
182.1461775894
 51
182.7285614045
  0
ARC
  5
375
100
AcDbEntity
  8
RUNDUNGEN
100
AcDbCircle
 62
7
  6
CONTINUOUS
 10
107.8140177368
 20
47.2797192733
 40
1.4806154458
100
AcDbArc
 50
180.0026274028
 51
182.1478305777
  0
ARC
  5
376
100
AcDbEntity
  8
RUNDUNGEN
100
AcDbCircle
 62
7
  6
CONTINUOUS
 10
107.9052769353
 20
45.9749455394
 40
1.0
100
AcDbArc
 50
201.7812864027
 51
246.7562981596
  0
ARC
  5
377
100
AcDbEntity
  8
RUNDUNGEN
100
AcDbCircle
 62
7
  6
CONTINUOUS
 10
110.1418239203
 20
44.151063909
 40
1.0
100
AcDbArc
 50
214.850096882
 51
270.0
  0
ARC
  5
378
100
AcDbEntity
  8
RUNDUNGEN
100
AcDbCircle
 62
7
  6
CONTINUOUS
 10
107.8334019353
 20
55.8224646601
 40
1.5
100
AcDbArc
 50
108.8196295078
 51
180.0
  0
ARC
  5
379
100
AcDbEntity
  8
RUNDUNGEN
100
AcDbCircle
 62
7
  6
CONTINUOUS
 10
107.3334019353
 20
53.151063909
 40
1.0
100
AcDbArc
 50
90.0
 51
180.0
  0
ARC
  5
37A
100
AcDbEntity
  8
RUNDUNGEN
100
AcDbCircle
 62
7
  6
CONTINUOUS
 10
117.8206584799
 20
35.0201840667
 40
1.512813699
100
AcDbArc
 50
2.7603439773
 51
18.2357758824
  0
ARC
  5
37B
100
AcDbEntity
  8
RUNDUNGEN
100
AcDbCircle
 62
7
  6
CONTINUOUS
 10
117.8334019353
 20
26.4796631578
 40
1.5
100
AcDbArc
 50
288.8196331525
 51
360.0
  0
ARC
  5
37C
100
AcDbEntity
  8
RUNDUNGEN
100
AcDbCircle
 62
7
  6
CONTINUOUS
 10
117.8334019353
 20
34.9664054705
 40
1.5
100
AcDbArc
 50
0.0
 51
27.2660444545
  0
ARC
  5
37D
100
AcDbEntity
  8
RUNDUNGEN
100
AcDbCircle
 62
7
  6
CONTINUOUS
 10
117.835947952
 20
35.0237877647
 40
1.4971650338
100
AcDbArc
 50
18.2878911391
 51
30.6734798329
  0
ARC
  5
37E
100
AcDbEntity
  8
RUNDUNGEN
100
AcDbCircle
 62
7
  6
CONTINUOUS
 10
117.8435977966
 20
35.0221062113
 40
1.4898086541
100
AcDbArc
 50
2.1457088561
 51
2.7289929182
  0
ARC
  5
37F
100
AcDbEntity
  8
RUNDUNGEN
100
AcDbCircle
 62
7
  6
CONTINUOUS
 10
117.8527865639
 20
35.0224077541
 40
1.4806150401
100
AcDbArc
 50
0.002207705
 51
2.1473614089
  0
ARC
  5
380
100
AcDbEntity
  8
RUNDUNGEN
100
AcDbCircle
 62
7
  6
CONTINUOUS
 10
118.3334019353
 20
29.151063909
 40
1.0
100
AcDbArc
 50
270.0
 51
360.0
  0
ARC
  5
381
100
AcDbEntity
  8
RUNDUNGEN
100
AcDbCircle
 62
7
  6
CONTINUOUS
 10
117.639322988
 20
36.6450192326
 40
1.0
100
AcDbArc
 50
20.2805987045
 51
59.1255945924
  0
ARC
  5
382
100
AcDbEntity
  8
RUNDUNGEN
100
AcDbCircle
 62
7
  6
CONTINUOUS
 10
116.0249799504
 20
38.151063909
 40
1.0
100
AcDbArc
 50
34.8604365792
 51
90.0
  0
ARC
  5
383
100
AcDbEntity
  8
0
100
AcDbCircle
 62
7
  6
CONTINUOUS
 10
112.8334019353
 20
41.151063909
 40
17.25
100
AcDbArc
 50
31.1250856063
 51
39.2607199174
  0
ARC
  5
384
100
AcDbEntity
  8
0
100
AcDbCircle
 62
7
  6
CONTINUOUS
 10
112.8334019353
 20
41.151063909
 40
17.25
100
AcDbArc
 50
327.5725066183
 51
339.0539998895
  0
ARC
  5
385
100
AcDbEntity
  8
0
100
AcDbCircle
 62
7
  6
CONTINUOUS
 10
112.8334019353
 20
41.151063909
 40
17.25
100
AcDbArc
 50
311.094787995
 51
324.9088248461
  0
ARC
  5
386
100
AcDbEntity
  8
0
100
AcDbCircle
 62
7
  6
CONTINUOUS
 10
112.8334019353
 20
41.151063909
 40
17.25
100
AcDbArc
 50
341.4071774506
 51
28.5718781423
  0
CIRCLE
  5
387
100
AcDbEntity
  8
RUNDUNGEN
100
AcDbCircle
 62
7
  6
CONTINUOUS
 10
112.8334019353
 20
41.151063909
 40
17.0
  0
ARC
  5
388
100
AcDbEntity
  8
RUNDUNGEN
100
AcDbCircle
 62
7
  6
CONTINUOUS
 10
116.0249799504
 20
44.151063909
 40
1.0
100
AcDbArc
 50
270.0
 51
325.1399941868
  0
ARC
  5
389
100
AcDbEntity
  8
RUNDUNGEN
100
AcDbCircle
 62
7
  6
CONTINUOUS
 10
120.3334019353
 20
41.151063909
 40
4.25
100
AcDbArc
 50
214.8474264105
 51
239.1255945924
  0
ARC
  5
38A
100
AcDbEntity
  8
RUNDUNGEN
100
AcDbCircle
 62
7
  6
CONTINUOUS
 10
120.3334019353
 20
41.151063909
 40
4.25
100
AcDbArc
 50
120.8744054076
 51
145.1524722286
  0
ARC
  5
38B
100
AcDbEntity
  8
RUNDUNGEN
100
AcDbCircle
 62
7
  6
CONTINUOUS
 10
117.8206607556
 20
47.2819539952
 40
1.5128141451
100
AcDbArc
 50
341.764083299
 51
357.2408405937
  0
ARC
  5
38C
100
AcDbEntity
  8
RUNDUNGEN
100
AcDbCircle
 62
7
  6
CONTINUOUS
 10
117.8334019353
 20
47.3357223474
 40
1.5
100
AcDbArc
 50
332.7339555493
 51
360.0
  0
ARC
  5
38D
100
AcDbEntity
  8
RUNDUNGEN
100
AcDbCircle
 62
7
  6
CONTINUOUS
 10
117.8359509429
 20
47.2783501422
 40
1.4971647555
100
AcDbArc
 50
329.3259704255
 51
341.7119636263
  0
ARC
  5
38E
100
AcDbEntity
  8
RUNDUNGEN
100
AcDbCircle
 62
7
  6
CONTINUOUS
 10
117.8435975902
 20
47.2800320426
 40
1.4898116057
100
AcDbArc
 50
357.2722071009
 51
357.8523466466
  0
ARC
  5
38F
100
AcDbEntity
  8
RUNDUNGEN
100
AcDbCircle
 62
7
  6
CONTINUOUS
 10
117.8527824364
 20
47.2797304543
 40
1.4806219098
100
AcDbArc
 50
357.850689474
 51
359.9979958742
  0
ARC
  5
390
100
AcDbEntity
  8
RUNDUNGEN
100
AcDbCircle
 62
7
  6
CONTINUOUS
 10
117.639322988
 20
45.6571085853
 40
1.0
100
AcDbArc
 50
300.8744054076
 51
339.7193540039
  0
ARC
  5
391
100
AcDbEntity
  8
RUNDUNGEN
100
AcDbCircle
 62
7
  6
CONTINUOUS
 10
117.8334384228
 20
55.8224639225
 40
1.4999900489
100
AcDbArc
 50
0.0000281736
 51
71.1803883162
  0
ARC
  5
392
100
AcDbEntity
  8
RUNDUNGEN
100
AcDbCircle
 62
7
  6
CONTINUOUS
 10
118.3334019353
 20
53.151063909
 40
1.0
100
AcDbArc
 50
0.0
 51
90.0
  0
ARC
  5
393
100
AcDbEntity
  8
RUNDUNGEN
100
AcDbCircle
 62
7
  6
CONTINUOUS
 10
129.8334019353
 20
41.151063909
 40
12.0
100
AcDbArc
 50
152.7339555493
 51
159.7193540039
  0
ARC
  5
394
100
AcDbEntity
  8
RUNDUNGEN
100
AcDbCircle
 62
7
  6
CONTINUOUS
 10
129.8334019353
 20
41.151063909
 40
12.0
100
AcDbArc
 50
200.2806459961
 51
207.2660444507
  0
ELLIPSE
  5
395
100
AcDbEntity
  8
0
100
AcDbEllipse
 62
7
  6
CONTINUOUS
 10
112.8334019353
 20
130.0590835914
 30
0.0
 11
17.25
 21
-0.0
 31
0.0
 40
0.255319362
 41
0.0
 42
0.0096619769
  0
ELLIPSE
  5
396
100
AcDbEntity
  8
0
100
AcDbEllipse
 62
7
  6
CONTINUOUS
 10
112.8334019353
 20
122.9952538118
 30
0.0
 11
0.0
 21
32.2978726029
 31
0.0
 40
0.5340909047
 41
-1.5707963268
 42
-1.5418067593
  0
ELLIPSE
  5
397
100
AcDbEntity
  8
0
100
AcDbEllipse
 62
7
  6
CONTINUOUS
 10
112.8334019353
 20
105.2930479417
 30
0.0
 11
-0.0
 21
105.7025429584
 31
0.0
 40
0.1631938033
 41
-1.3861744009
 42
-1.3812577075
  0
ELLIPSE
  5
398
100
AcDbEntity
  8
0
100
AcDbEllipse
 62
7
  6
CONTINUOUS
 10
112.8334019353
 20
119.8463263952
 30
0.0
 11
-0.0
 21
26.4254814467
 31
0.0
 40
0.6527790245
 41
4.877387823
 42
4.8970109063
  0
ELLIPSE
  5
399
100
AcDbEntity
  8
0
100
AcDbEllipse
 62
7
  6
CONTINUOUS
 10
112.8334019353
 20
122.2576655829
 30
0.0
 11
17.25
 21
0.0
 31
0.0
 40
0.6808509827
 41
0.1503239486
 42
0.1649988426
  0
ELLIPSE
  5
39A
100
AcDbEntity
  8
0
100
AcDbEllipse
 62
7
  6
CONTINUOUS
 10
112.8334019353
 20
123.4888701532
 30
0.0
 11
17.25
 21
0.0
 31
0.0
 40
0.2042556065
 41
6.4091218187
 42
6.4335092558
  0
ELLIPSE
  5
39B
100
AcDbEntity
  8
0
100
AcDbEllipse
 62
7
  6
CONTINUOUS
 10
112.8334019353
 20
127.5229141231
 30
0.0
 11
17.25
 21
0.0
 31
0.0
 40
0.2042556065
 41
-0.1503239486
 42
-0.1259365116
  0
ELLIPSE
  5
39C
100
AcDbEntity
  8
0
100
AcDbEllipse
 62
7
  6
CONTINUOUS
 10
112.8334019353
 20
128.7541186935
 30
0.0
 11
17.25
 21
0.0
 31
0.0
 40
0.6808509827
 41
-0.1649988426
 42
-0.1503239486
  0
ELLIPSE
  5
39D
100
AcDbEntity
  8
0
100
AcDbEllipse
 62
7
  6
CONTINUOUS
 10
112.8334019353
 20
131.1654594011
 30
0.0
 11
0.0
 21
26.4254907003
 31
0.0
 40
0.6527787959
 41
-1.7554182527
 42
-1.7357951694
  0
ELLIPSE
  5
39E
100
AcDbEntity
  8
0
100
AcDbEllipse
 62
7
  6
CONTINUOUS
 10
112.8334019353
 20
145.7187316258
 30
0.0
 11
-0.0
 21
105.702518282
 31
0.0
 40
0.1631938414
 41
-1.7603349461
 42
-1.7554182527
  0
ELLIPSE
  5
39F
100
AcDbEntity
  8
0
100
AcDbEllipse
 62
7
  6
CONTINUOUS
 10
112.8334019353
 20
127.137097772
 30
0.0
 11
17.25
 21
0.0
 31
0.0
 40
0.1702127457
 41
0.0967693348
 42
0.1259365116
  0
ELLIPSE
  5
3A0
100
AcDbEntity
  8
0
100
AcDbEllipse
 62
7
  6
CONTINUOUS
 10
112.8334019353
 20
126.3995098459
 30
0.0
 11
17.25
 21
-0.0
 31
0.0
 40
0.6127654169
 41
0.0725273363
 42
0.0967693348
  0
ELLIPSE
  5
3A1
100
AcDbEntity
  8
0
100
AcDbEllipse
 62
7
  6
CONTINUOUS
 10
112.8334019353
 20
125.8888710245
 30
0.0
 11
0.0
 21
17.6170191765
 31
0.0
 40
0.9791667834
 41
4.770392514
 42
4.7849163167
  0
ELLIPSE
  5
3A2
100
AcDbEntity
  8
0
100
AcDbEllipse
 62
7
  6
CONTINUOUS
 10
112.8334019353
 20
124.8675984464
 30
0.0
 11
0.0
 21
35.2339711495
 31
0.0
 40
0.4895843255
 41
4.7607169509
 42
4.770392514
  0
ELLIPSE
  5
3A3
100
AcDbEntity
  8
0
100
AcDbEllipse
 62
7
  6
CONTINUOUS
 10
112.8334019353
 20
124.0165196723
 30
0.0
 11
-0.0
 21
52.8513084938
 31
0.0
 40
0.3263873779
 41
-1.527304356
 42
-1.5224683563
  0
ELLIPSE
  5
3A4
100
AcDbEntity
  8
0
100
AcDbEllipse
 62
7
  6
CONTINUOUS
 10
112.8334019353
 20
122.4846012633
 30
0.0
 11
-0.0
 21
88.0854319017
 31
0.0
 40
0.1958326096
 41
-1.5321393382
 42
-1.527304356
  0
ELLIPSE
  5
3A5
100
AcDbEntity
  8
0
100
AcDbEllipse
 62
7
  6
CONTINUOUS
 10
112.8334019353
 20
128.5271839072
 30
0.0
 11
-0.0
 21
88.0854565781
 31
0.0
 40
0.1958325548
 41
-1.6142882976
 42
-1.6094533154
  0
ELLIPSE
  5
3A6
100
AcDbEntity
  8
0
100
AcDbEllipse
 62
7
  6
CONTINUOUS
 10
112.8334019353
 20
126.9952622795
 30
0.0
 11
-0.0
 21
52.851259141
 31
0.0
 40
0.3263876827
 41
-1.6191242973
 42
-1.6142882976
  0
ELLIPSE
  5
3A7
100
AcDbEntity
  8
0
100
AcDbEllipse
 62
7
  6
CONTINUOUS
 10
112.8334019353
 20
126.1441861876
 30
0.0
 11
0.0
 21
35.2339773186
 31
0.0
 40
0.4895842398
 41
-1.6287998604
 42
-1.6191242973
  0
ELLIPSE
  5
3A8
100
AcDbEntity
  8
0
100
AcDbEllipse
 62
7
  6
CONTINUOUS
 10
112.8334019353
 20
125.122913371
 30
0.0
 11
0.0
 21
17.6170212328
 31
0.0
 40
0.9791666691
 41
-1.6433236631
 42
-1.6287998604
  0
ELLIPSE
  5
3A9
100
AcDbEntity
  8
0
100
AcDbEllipse
 62
7
  6
CONTINUOUS
 10
112.8334019353
 20
124.6122744677
 30
0.0
 11
17.25
 21
0.0
 31
0.0
 40
0.6127654705
 41
-0.0967693348
 42
-0.0725273363
  0
ELLIPSE
  5
3AA
100
AcDbEntity
  8
0
100
AcDbEllipse
 62
7
  6
CONTINUOUS
 10
112.8334019353
 20
123.874686477
 30
0.0
 11
17.25
 21
-0.0
 31
0.0
 40
0.1702127606
 41
-0.1259365116
 42
-0.0967693348
  0
ELLIPSE
  5
3AB
100
AcDbEntity
  8
0
100
AcDbEllipse
 62
7
  6
CONTINUOUS
 10
112.8334019353
 20
145.1228745228
 30
0.0
 11
-0.0
 21
52.8509567242
 31
0.0
 40
0.3263895503
 41
-1.9415509026
 42
-1.9363729938
  0
ELLIPSE
  5
3AC
100
AcDbEntity
  8
0
100
AcDbEllipse
 62
7
  6
CONTINUOUS
 10
112.8334019353
 20
134.4846144423
 30
0.0
 11
-0.0
 21
23.489358902
 31
0.0
 40
0.7343750875
 41
-1.9571480781
 42
-1.9415509026
  0
ELLIPSE
  5
3AD
100
AcDbEntity
  8
0
100
AcDbEllipse
 62
7
  6
CONTINUOUS
 10
112.8334019353
 20
130.6122721043
 30
0.0
 11
17.25
 21
0.0
 31
0.0
 40
0.7659569903
 41
-0.4073039459
 42
-0.3863517513
  0
ELLIPSE
  5
3AE
100
AcDbEntity
  8
0
100
AcDbEllipse
 62
7
  6
CONTINUOUS
 10
112.8334019353
 20
126.7739776285
 30
0.0
 11
17.25
 21
0.0
 31
0.0
 40
0.2042553727
 41
-0.4337647347
 42
-0.4073039459
  0
ELLIPSE
  5
3AF
100
AcDbEntity
  8
0
100
AcDbEllipse
 62
7
  6
CONTINUOUS
 10
112.8334019353
 20
126.0250406562
 30
0.0
 11
17.25
 21
-0.0
 31
0.0
 40
0.2042553727
 41
0.4073039459
 42
0.4337647347
  0
ELLIPSE
  5
3B0
100
AcDbEntity
  8
0
100
AcDbEllipse
 62
7
  6
CONTINUOUS
 10
112.8334019353
 20
122.1867461803
 30
0.0
 11
17.25
 21
0.0
 31
0.0
 40
0.7659569903
 41
0.3863517513
 42
0.4073039459
  0
ELLIPSE
  5
3B1
100
AcDbEntity
  8
0
100
AcDbEllipse
 62
7
  6
CONTINUOUS
 10
112.8334019353
 20
118.3144038424
 30
0.0
 11
-0.0
 21
23.489358902
 31
0.0
 40
0.7343750875
 41
-1.200041751
 42
-1.1844445755
  0
ELLIPSE
  5
3B2
100
AcDbEntity
  8
0
100
AcDbEllipse
 62
7
  6
CONTINUOUS
 10
112.8334019353
 20
107.6761437618
 30
0.0
 11
-0.0
 21
52.8509567242
 31
0.0
 40
0.3263895503
 41
-1.2052196597
 42
-1.200041751
  0
ELLIPSE
  5
3B3
100
AcDbEntity
  8
0
100
AcDbEllipse
 62
7
  6
CONTINUOUS
 10
112.8334019353
 20
156.6123005979
 30
0.0
 11
-0.0
 21
52.8511079322
 31
0.0
 40
0.3263886165
 41
-2.1891692447
 42
-2.1832528716
  0
ELLIPSE
  5
3B4
100
AcDbEntity
  8
0
100
AcDbEllipse
 62
7
  6
CONTINUOUS
 10
112.8334019353
 20
139.5909968123
 30
0.0
 11
-0.0
 21
23.489358902
 31
0.0
 40
0.7343750875
 41
-2.2070705811
 42
-2.1891692447
  0
ELLIPSE
  5
3B5
100
AcDbEntity
  8
0
100
AcDbEllipse
 62
7
  6
CONTINUOUS
 10
112.8334019353
 20
133.4846164333
 30
0.0
 11
17.25
 21
0.0
 31
0.0
 40
0.7659575381
 41
-0.6605187342
 42
-0.6362742543
  0
ELLIPSE
  5
3B6
100
AcDbEntity
  8
0
100
AcDbEllipse
 62
7
  6
CONTINUOUS
 10
112.8334019353
 20
127.5399339905
 30
0.0
 11
17.25
 21
-0.0
 31
0.0
 40
0.2042552558
 41
-0.691484194
 42
-0.6605187342
  0
ELLIPSE
  5
3B7
100
AcDbEntity
  8
0
100
AcDbEllipse
 62
7
  6
CONTINUOUS
 10
112.8334019353
 20
125.2590842941
 30
0.0
 11
17.25
 21
0.0
 31
0.0
 40
0.2042552558
 41
0.6605187342
 42
0.691484194
  0
ELLIPSE
  5
3B8
100
AcDbEntity
  8
0
100
AcDbEllipse
 62
7
  6
CONTINUOUS
 10
112.8334019353
 20
119.3144018513
 30
0.0
 11
17.25
 21
0.0
 31
0.0
 40
0.7659575381
 41
0.6362742543
 42
0.6605187342
  0
ELLIPSE
  5
3B9
100
AcDbEntity
  8
0
100
AcDbEllipse
 62
7
  6
CONTINUOUS
 10
112.8334019353
 20
113.2080214724
 30
0.0
 11
-0.0
 21
23.489358902
 31
0.0
 40
0.7343750875
 41
-0.9524234089
 42
-0.9345220725
  0
ELLIPSE
  5
3BA
100
AcDbEntity
  8
0
100
AcDbEllipse
 62
7
  6
CONTINUOUS
 10
112.8334019353
 20
96.1867176867
 30
0.0
 11
-0.0
 21
52.8511079322
 31
0.0
 40
0.3263886165
 41
-0.958339782
 42
-0.9524234089
  0
ELLIPSE
  5
3BB
100
AcDbEntity
  8
0
100
AcDbEllipse
 62
7
  6
CONTINUOUS
 10
112.8334019353
 20
128.1441805226
 30
0.0
 11
-0.0
 21
70.4683455213
 31
0.0
 40
0.244790762
 41
-1.536973444
 42
-1.5321393658
  0
ELLIPSE
  5
3BC
100
AcDbEntity
  8
0
100
AcDbEllipse
 62
7
  6
CONTINUOUS
 10
112.8334019353
 20
129.6335532478
 30
0.0
 11
-0.0
 21
26.4254783621
 31
0.0
 40
0.6527791007
 41
-1.5466393972
 42
-1.536973444
  0
ELLIPSE
  5
3BD
100
AcDbEntity
  8
0
100
AcDbEllipse
 62
7
  6
CONTINUOUS
 10
112.8334019353
 20
129.9881616825
 30
0.0
 11
17.25
 21
0.0
 31
0.0
 40
0.6808512211
 41
6.292847284
 42
6.3073422368
  0
ELLIPSE
  5
3BE
100
AcDbEntity
  8
0
100
AcDbEllipse
 62
7
  6
CONTINUOUS
 10
112.8334019353
 20
132.8931263408
 30
0.0
 11
17.25
 21
-0.0
 31
0.0
 40
0.2042552558
 41
0.1503239626
 42
0.1748018834
  0
ELLIPSE
  5
3BF
100
AcDbEntity
  8
0
100
AcDbEllipse
 62
7
  6
CONTINUOUS
 10
112.8334019353
 20
131.4420621563
 30
0.0
 11
17.25
 21
0.0
 31
0.0
 40
0.7659575381
 41
0.1308074961
 42
0.1503239626
  0
ELLIPSE
  5
3C0
100
AcDbEntity
  8
0
100
AcDbEllipse
 62
7
  6
CONTINUOUS
 10
112.8334019353
 20
130.101637195
 30
0.0
 11
-0.0
 21
23.489358902
 31
0.0
 40
0.7343750875
 41
4.8285923529
 42
4.8431964765
  0
ELLIPSE
  5
3C1
100
AcDbEntity
  8
0
100
AcDbEllipse
 62
7
  6
CONTINUOUS
 10
112.8334019353
 20
126.6973764379
 30
0.0
 11
-0.0
 21
52.8511079322
 31
0.0
 40
0.3263886165
 41
-1.4594553078
 42
-1.4545929543
  0
ELLIPSE
  5
3C2
100
AcDbEntity
  8
0
100
AcDbEllipse
 62
7
  6
CONTINUOUS
 10
112.8334019353
 20
138.1016418467
 30
0.0
 11
-0.0
 21
52.8511079322
 31
0.0
 40
0.3263886165
 41
-1.6869996993
 42
-1.6821373458
  0
ELLIPSE
  5
3C3
100
AcDbEntity
  8
0
100
AcDbEllipse
 62
7
  6
CONTINUOUS
 10
112.8334019353
 20
134.6973810896
 30
0.0
 11
0.0
 21
23.489358902
 31
0.0
 40
0.7343750875
 41
-1.7016038229
 42
-1.6869996993
  0
ELLIPSE
  5
3C4
100
AcDbEntity
  8
0
100
AcDbEllipse
 62
7
  6
CONTINUOUS
 10
112.8334019353
 20
132.7824879748
 30
0.0
 11
17.25
 21
0.0
 31
0.0
 40
0.5106383587
 41
-0.1503239626
 42
-0.1308074961
  0
ELLIPSE
  5
3C5
100
AcDbEntity
  8
0
100
AcDbEllipse
 62
7
  6
CONTINUOUS
 10
112.8334019353
 20
124.721022327
 30
0.0
 11
-0.0
 21
45.0212767124
 31
0.0
 40
0.3831521729
 41
4.8188702738
 42
4.862712943
  0
ELLIPSE
  5
3C6
100
AcDbEntity
  8
0
100
AcDbEllipse
 62
7
  6
CONTINUOUS
 10
112.8334019353
 20
130.3144020872
 30
0.0
 11
0.0
 21
17.6170191765
 31
0.0
 40
0.9791667834
 41
-1.7652562815
 42
-1.7505060134
  0
ELLIPSE
  5
3C7
100
AcDbEntity
  8
0
100
AcDbEllipse
 62
7
  6
CONTINUOUS
 10
112.8334019353
 20
129.0548307821
 30
0.0
 11
17.25
 21
-0.0
 31
0.0
 40
0.6127668194
 41
-0.1797096866
 42
-0.1552118342
  0
ELLIPSE
  5
3C8
100
AcDbEntity
  8
0
100
AcDbEllipse
 62
7
  6
CONTINUOUS
 10
112.8334019353
 20
127.8746864448
 30
0.0
 11
17.25
 21
-0.0
 31
0.0
 40
0.1702127457
 41
-0.1552118342
 42
-0.1259365116
  0
ELLIPSE
  5
3C9
100
AcDbEntity
  8
0
100
AcDbEllipse
 62
7
  6
CONTINUOUS
 10
112.8334019353
 20
129.539934641
 30
0.0
 11
17.25
 21
0.0
 31
0.0
 40
0.2042553906
 41
6.2735233303
 42
6.2976785682
  0
ELLIPSE
  5
3CA
100
AcDbEntity
  8
0
100
AcDbEllipse
 62
7
  6
CONTINUOUS
 10
112.8334019353
 20
132.0874525341
 30
0.0
 11
17.0
 21
-0.0
 31
0.0
 40
0.3404254913
 41
0.1575132709
 42
0.1724216907
  0
ELLIPSE
  5
3CB
100
AcDbEntity
  8
0
100
AcDbEllipse
 62
7
  6
CONTINUOUS
 10
112.8334019353
 20
130.2718511582
 30
0.0
 11
-0.0
 21
17.3616917793
 31
0.0
 40
0.9791672503
 41
-1.4232022211
 42
-1.4132830559
  0
ELLIPSE
  5
3CC
100
AcDbEntity
  8
0
100
AcDbEllipse
 62
7
  6
CONTINUOUS
 10
112.8334019353
 20
125.165460266
 30
0.0
 11
0.0
 21
52.0851498462
 31
0.0
 40
0.3263886165
 41
-1.4281562542
 42
-1.4232022211
  0
ELLIPSE
  5
3CD
100
AcDbEntity
  8
0
100
AcDbEllipse
 62
7
  6
CONTINUOUS
 10
112.8334019353
 20
139.7186643915
 30
0.0
 11
-0.0
 21
52.0851498462
 31
0.0
 40
0.3263886165
 41
-1.7183904325
 42
-1.7134363994
  0
ELLIPSE
  5
3CE
100
AcDbEntity
  8
0
100
AcDbEllipse
 62
7
  6
CONTINUOUS
 10
112.8334019353
 20
134.6122734993
 30
0.0
 11
-0.0
 21
17.3616917793
 31
0.0
 40
0.9791672503
 41
-1.7283095977
 42
-1.7183904325
  0
ELLIPSE
  5
3CF
100
AcDbEntity
  8
0
100
AcDbEllipse
 62
7
  6
CONTINUOUS
 10
112.8334019353
 20
132.7966721234
 30
0.0
 11
17.0
 21
0.0
 31
0.0
 40
0.3404254913
 41
-0.1724216907
 42
-0.1575132709
  0
ELLIPSE
  5
3D0
100
AcDbEntity
  8
0
100
AcDbEllipse
 62
7
  6
CONTINUOUS
 10
112.8334019353
 20
106.399647386
 30
0.0
 11
-0.0
 21
88.0844485277
 31
0.0
 40
0.1958347959
 41
-1.3615431249
 42
-1.3566018266
  0
ELLIPSE
  5
3D1
100
AcDbEntity
  8
0
100
AcDbEllipse
 62
7
  6
CONTINUOUS
 10
112.8334019353
 20
113.7186184451
 30
0.0
 11
-0.0
 21
52.851259141
 31
0.0
 40
0.3263876827
 41
-1.366479187
 42
-1.3615431249
  0
ELLIPSE
  5
3D2
100
AcDbEntity
  8
0
100
AcDbEllipse
 62
7
  6
CONTINUOUS
 10
112.8334019353
 20
117.2931393945
 30
0.0
 11
-0.0
 21
35.2339773186
 31
0.0
 40
0.4895842398
 41
4.9068489351
 42
4.9167061202
  0
ELLIPSE
  5
3D3
100
AcDbEntity
  8
0
100
AcDbEllipse
 62
7
  6
CONTINUOUS
 10
112.8334019353
 20
120.6973817918
 30
0.0
 11
-0.0
 21
17.6170212328
 31
0.0
 40
0.9791666691
 41
-1.3910866401
 42
-1.3763363721
  0
ELLIPSE
  5
3D4
100
AcDbEntity
  8
0
100
AcDbEllipse
 62
7
  6
CONTINUOUS
 10
112.8334019353
 20
121.9569532991
 30
0.0
 11
17.25
 21
0.0
 31
0.0
 40
0.6127668731
 41
0.1552118342
 42
0.1797096866
  0
ELLIPSE
  5
3D5
100
AcDbEntity
  8
0
100
AcDbEllipse
 62
7
  6
CONTINUOUS
 10
112.8334019353
 20
123.1370977397
 30
0.0
 11
17.25
 21
-0.0
 31
0.0
 40
0.1702127606
 41
0.1259365116
 42
0.1552118342
  0
ELLIPSE
  5
3D6
100
AcDbEntity
  8
0
100
AcDbEllipse
 62
7
  6
CONTINUOUS
 10
112.8334019353
 20
127.8746864448
 30
0.0
 11
17.0
 21
-0.0
 31
0.0
 40
0.1702127457
 41
-0.1575132851
 42
-0.1277985931
  0
ELLIPSE
  5
3D7
100
AcDbEntity
  8
0
100
AcDbEllipse
 62
7
  6
CONTINUOUS
 10
112.8334019353
 20
128.2434803804
 30
0.0
 11
17.25
 21
0.0
 31
0.0
 40
0.3404254913
 41
-0.4284472765
 42
-0.4125712715
  0
ELLIPSE
  5
3D8
100
AcDbEntity
  8
0
100
AcDbEllipse
 62
7
  6
CONTINUOUS
 10
112.8334019353
 20
132.9527063055
 30
0.0
 11
0.0
 21
17.6170359774
 31
0.0
 40
0.9791658496
 41
-1.9833675983
 42
-1.9728448599
  0
ELLIPSE
  5
3D9
100
AcDbEntity
  8
0
100
AcDbEllipse
 62
7
  6
CONTINUOUS
 10
112.8334019353
 20
146.7398926848
 30
0.0
 11
-0.0
 21
52.8509567242
 31
0.0
 40
0.3263895503
 41
-1.9728448599
 42
-1.9676011651
  0
ELLIPSE
  5
3DA
100
AcDbEntity
  8
0
100
AcDbEllipse
 62
7
  6
CONTINUOUS
 10
112.8334019353
 20
106.1442319727
 30
0.0
 11
-0.0
 21
52.8509567242
 31
0.0
 40
0.3263895503
 41
-1.1739914885
 42
-1.1687477937
  0
ELLIPSE
  5
3DB
100
AcDbEntity
  8
0
100
AcDbEllipse
 62
7
  6
CONTINUOUS
 10
112.8334019353
 20
119.9314183519
 30
0.0
 11
-0.0
 21
17.6170359774
 31
0.0
 40
0.9791658496
 41
-1.1687477937
 42
-1.1582250553
  0
ELLIPSE
  5
3DC
100
AcDbEntity
  8
0
100
AcDbEllipse
 62
7
  6
CONTINUOUS
 10
112.8334019353
 20
124.6406442771
 30
0.0
 11
17.25
 21
-0.0
 31
0.0
 40
0.3404254913
 41
0.4125712715
 42
0.4284472765
  0
ELLIPSE
  5
3DD
100
AcDbEntity
  8
0
100
AcDbEllipse
 62
7
  6
CONTINUOUS
 10
112.8334019353
 20
129.0548307821
 30
0.0
 11
17.0
 21
0.0
 31
0.0
 40
0.6127668194
 41
-0.1823819505
 42
-0.1575132851
  0
ELLIPSE
  5
3DE
100
AcDbEntity
  8
0
100
AcDbEllipse
 62
7
  6
CONTINUOUS
 10
112.8334019353
 20
130.3144020872
 30
0.0
 11
0.0
 21
17.361700058
 31
0.0
 40
0.9791667834
 41
-1.7681534173
 42
-1.7531782773
  0
ELLIPSE
  5
3DF
100
AcDbEntity
  8
0
100
AcDbEllipse
 62
7
  6
CONTINUOUS
 10
112.8334019353
 20
133.7186436897
 30
0.0
 11
-0.0
 21
34.7233338865
 31
0.0
 40
0.4895843255
 41
-1.7781616183
 42
-1.7681534173
  0
ELLIPSE
  5
3E0
100
AcDbEntity
  8
0
100
AcDbEllipse
 62
7
  6
CONTINUOUS
 10
112.8334019353
 20
137.2931759045
 30
0.0
 11
-0.0
 21
52.0853475012
 31
0.0
 40
0.3263873779
 41
-1.7831735383
 42
-1.7781616183
  0
ELLIPSE
  5
3E1
100
AcDbEntity
  8
0
100
AcDbEllipse
 62
7
  6
CONTINUOUS
 10
112.8334019353
 20
144.6121315856
 30
0.0
 11
-0.0
 21
86.8078379987
 31
0.0
 40
0.1958348508
 41
-1.7881909382
 42
-1.7831735383
  0
ELLIPSE
  5
3E2
100
AcDbEntity
  8
0
100
AcDbEllipse
 62
7
  6
CONTINUOUS
 10
112.8334019353
 20
106.399647386
 30
0.0
 11
-0.0
 21
86.8078623172
 31
0.0
 40
0.1958347959
 41
-1.3584191152
 42
-1.3554093345
  0
ELLIPSE
  5
3E3
100
AcDbEntity
  8
0
100
AcDbEllipse
 62
7
  6
CONTINUOUS
 10
112.8334019353
 20
113.7186184451
 30
0.0
 11
0.0
 21
52.0852988636
 31
0.0
 40
0.3263876827
 41
-1.3634310353
 42
-1.3584191152
  0
ELLIPSE
  5
3E4
100
AcDbEntity
  8
0
100
AcDbEllipse
 62
7
  6
CONTINUOUS
 10
112.8334019353
 20
117.2931393945
 30
0.0
 11
-0.0
 21
34.7233399661
 31
0.0
 40
0.4895842398
 41
-1.3734392363
 42
-1.3634310353
  0
ELLIPSE
  5
3E5
100
AcDbEntity
  8
0
100
AcDbEllipse
 62
7
  6
CONTINUOUS
 10
112.8334019353
 20
120.6973817918
 30
0.0
 11
-0.0
 21
17.3617020845
 31
0.0
 40
0.9791666691
 41
-1.3884143763
 42
-1.3734392363
  0
ELLIPSE
  5
3E6
100
AcDbEntity
  8
0
100
AcDbEllipse
 62
7
  6
CONTINUOUS
 10
112.8334019353
 20
121.9569532991
 30
0.0
 11
17.0
 21
0.0
 31
0.0
 40
0.6127668731
 41
0.1575132851
 42
0.1823819505
  0
ELLIPSE
  5
3E7
100
AcDbEntity
  8
0
100
AcDbEllipse
 62
7
  6
CONTINUOUS
 10
112.8334019353
 20
123.027168013
 30
0.0
 11
-0.0
 21
45.5744714483
 31
0.0
 40
0.3730158455
 41
-1.4281562542
 42
-1.3884143549
  0
ELLIPSE
  5
3E8
100
AcDbEntity
  8
0
100
AcDbEllipse
 62
7
  6
CONTINUOUS
 10
112.8334019353
 20
129.5200760541
 30
0.0
 11
17.25
 21
0.0
 31
0.0
 40
0.3404254913
 41
-0.6852288828
 42
-0.6666510023
  0
ELLIPSE
  5
3E9
100
AcDbEntity
  8
0
100
AcDbEllipse
 62
7
  6
CONTINUOUS
 10
112.8334019353
 20
136.7824813955
 30
0.0
 11
0.0
 21
17.617010776
 31
0.0
 40
0.9791672503
 41
-2.237447329
 42
-2.225211889
  0
ELLIPSE
  5
3EA
100
AcDbEntity
  8
0
100
AcDbEllipse
 62
7
  6
CONTINUOUS
 10
112.8334019353
 20
158.2293231427
 30
0.0
 11
-0.0
 21
52.8511079322
 31
0.0
 40
0.3263886165
 41
-2.225211889
 42
-2.2191371617
  0
ELLIPSE
  5
3EB
100
AcDbEntity
  8
0
100
AcDbEllipse
 62
7
  6
CONTINUOUS
 10
112.8334019353
 20
94.6548015148
 30
0.0
 11
-0.0
 21
52.8511079322
 31
0.0
 40
0.3263886165
 41
-0.9224554919
 42
-0.9163807645
  0
ELLIPSE
  5
3EC
100
AcDbEntity
  8
0
100
AcDbEllipse
 62
7
  6
CONTINUOUS
 10
112.8334019353
 20
116.101643262
 30
0.0
 11
-0.0
 21
17.617010776
 31
0.0
 40
0.9791672503
 41
-0.9163807645
 42
-0.9041453245
  0
ELLIPSE
  5
3ED
100
AcDbEntity
  8
0
100
AcDbEllipse
 62
7
  6
CONTINUOUS
 10
112.8334019353
 20
123.3640486034
 30
0.0
 11
17.25
 21
-0.0
 31
0.0
 40
0.3404254913
 41
0.6666510023
 42
0.6852288828
  0
ELLIPSE
  5
3EE
100
AcDbEntity
  8
0
100
AcDbEllipse
 62
7
  6
CONTINUOUS
 10
112.8334019353
 20
124.3739768982
 30
0.0
 11
17.25
 21
0.0
 31
0.0
 40
0.204255139
 41
-0.1259365116
 42
-0.1016241049
  0
ELLIPSE
  5
3EF
100
AcDbEntity
  8
0
100
AcDbEllipse
 62
7
  6
CONTINUOUS
 10
112.8334019353
 20
125.2080196246
 30
0.0
 11
17.25
 21
-0.0
 31
0.0
 40
0.6808509827
 41
-0.1016241049
 42
-0.0870664823
  0
ELLIPSE
  5
3F0
100
AcDbEntity
  8
0
100
AcDbEllipse
 62
7
  6
CONTINUOUS
 10
112.8334019353
 20
126.4846176768
 30
0.0
 11
0.0
 21
26.4255570506
 31
0.0
 40
0.6527771569
 41
-1.6578628091
 42
-1.638480863
  0
ELLIPSE
  5
3F1
100
AcDbEntity
  8
0
100
AcDbEllipse
 62
7
  6
CONTINUOUS
 10
112.8334019353
 20
131.8462658404
 30
0.0
 11
-0.0
 21
105.701333298
 31
0.0
 40
0.1631956709
 41
-1.638480863
 42
-1.6336395968
  0
ELLIPSE
  5
3F2
100
AcDbEntity
  8
0
100
AcDbEllipse
 62
7
  6
CONTINUOUS
 10
112.8334019353
 20
119.165519926
 30
0.0
 11
-0.0
 21
105.7013086219
 31
0.0
 40
0.163195709
 41
-1.5079530568
 42
-1.5031117906
  0
ELLIPSE
  5
3F3
100
AcDbEntity
  8
0
100
AcDbEllipse
 62
7
  6
CONTINUOUS
 10
112.8334019353
 20
119.165519926
 30
0.0
 11
-0.0
 21
104.1694055984
 31
0.0
 40
0.163195709
 41
4.7761576617
 42
4.781070434
  0
ELLIPSE
  5
3F4
100
AcDbEntity
  8
0
100
AcDbEllipse
 62
7
  6
CONTINUOUS
 10
112.8334019353
 20
131.8462658404
 30
0.0
 11
0.0
 21
104.1694299169
 31
0.0
 40
0.1631956709
 41
-1.6394777804
 42
-1.6345650081
  0
ELLIPSE
  5
3F5
100
AcDbEntity
  8
0
100
AcDbEllipse
 62
7
  6
CONTINUOUS
 10
112.8334019353
 20
129.4633389735
 30
0.0
 11
17.25
 21
0.0
 31
0.0
 40
0.5106380606
 41
6.2976785682
 42
6.31700819
  0
ELLIPSE
  5
3F6
100
AcDbEntity
  8
0
100
AcDbEllipse
 62
7
  6
CONTINUOUS
 10
112.8334019353
 20
129.1654658642
 30
0.0
 11
0.0
 21
17.6170375197
 31
0.0
 40
0.9791657639
 41
-1.536973444
 42
-1.5176311974
  0
ELLIPSE
  5
3F7
100
AcDbEntity
  8
0
100
AcDbEllipse
 62
7
  6
CONTINUOUS
 10
112.8334019353
 20
128.2292974651
 30
0.0
 11
0.0
 21
35.2340277212
 31
0.0
 40
0.4895835394
 41
-1.5176311974
 42
-1.5079530429
  0
ELLIPSE
  5
3F8
100
AcDbEntity
  8
0
100
AcDbEllipse
 62
7
  6
CONTINUOUS
 10
112.8334019353
 20
124.9101590517
 30
0.0
 11
-0.0
 21
88.0849278737
 31
0.0
 40
0.1958337302
 41
-1.5079530429
 42
-1.5031118045
  0
ELLIPSE
  5
3F9
100
AcDbEntity
  8
0
100
AcDbEllipse
 62
7
  6
CONTINUOUS
 10
112.8334019353
 20
124.5271657949
 30
0.0
 11
-0.0
 21
26.4255663043
 31
0.0
 40
0.6527769283
 41
4.7800735166
 42
4.7994554627
  0
ELLIPSE
  5
3FA
100
AcDbEntity
  8
0
100
AcDbEllipse
 62
7
  6
CONTINUOUS
 10
112.8334019353
 20
125.8037646517
 30
0.0
 11
17.25
 21
0.0
 31
0.0
 40
0.6808509827
 41
6.3702517895
 42
6.384809412
  0
ELLIPSE
  5
3FB
100
AcDbEntity
  8
0
100
AcDbEllipse
 62
7
  6
CONTINUOUS
 10
112.8334019353
 20
126.6378073782
 30
0.0
 11
17.25
 21
0.0
 31
0.0
 40
0.204255139
 41
6.384809412
 42
6.4091218187
  0
ELLIPSE
  5
3FC
100
AcDbEntity
  8
0
100
AcDbEllipse
 62
7
  6
CONTINUOUS
 10
112.8334019353
 20
123.1370977397
 30
0.0
 11
17.0
 21
0.0
 31
0.0
 40
0.1702127606
 41
0.1277985931
 42
0.1575132851
  0
ELLIPSE
  5
3FD
100
AcDbEntity
  8
0
100
AcDbEllipse
 62
7
  6
CONTINUOUS
 10
112.8334019353
 20
124.6406442771
 30
0.0
 11
17.0
 21
-0.0
 31
0.0
 40
0.3404254913
 41
0.4190170503
 42
0.4351744717
  0
ELLIPSE
  5
3FE
100
AcDbEntity
  8
0
100
AcDbEllipse
 62
7
  6
CONTINUOUS
 10
112.8334019353
 20
119.9314183519
 30
0.0
 11
-0.0
 21
17.3617166154
 31
0.0
 40
0.9791658496
 41
-1.1624863287
 42
-1.1517792765
  0
ELLIPSE
  5
3FF
100
AcDbEntity
  8
0
100
AcDbEllipse
 62
7
  6
CONTINUOUS
 10
112.8334019353
 20
132.7966721234
 30
0.0
 11
17.25
 21
0.0
 31
0.0
 40
0.3404254913
 41
-0.1698983162
 42
-0.1552118202
  0
ELLIPSE
  5
400
100
AcDbEntity
  8
0
100
AcDbEllipse
 62
7
  6
CONTINUOUS
 10
112.8334019353
 20
134.6122734993
 30
0.0
 11
0.0
 21
17.617010776
 31
0.0
 40
0.9791672503
 41
-1.726008147
 42
-1.7162360619
  0
ELLIPSE
  5
401
100
AcDbEntity
  8
0
100
AcDbEllipse
 62
7
  6
CONTINUOUS
 10
112.8334019353
 20
139.7186643915
 30
0.0
 11
-0.0
 21
52.8511079322
 31
0.0
 40
0.3263886165
 41
-1.7162360619
 42
-1.7113553262
  0
ELLIPSE
  5
402
100
AcDbEntity
  8
0
100
AcDbEllipse
 62
7
  6
CONTINUOUS
 10
112.8334019353
 20
125.165460266
 30
0.0
 11
-0.0
 21
52.8511079322
 31
0.0
 40
0.3263886165
 41
-1.4302373274
 42
-1.4253565917
  0
ELLIPSE
  5
403
100
AcDbEntity
  8
0
100
AcDbEllipse
 62
7
  6
CONTINUOUS
 10
112.8334019353
 20
130.2718511582
 30
0.0
 11
-0.0
 21
17.617010776
 31
0.0
 40
0.9791672503
 41
-1.4253565917
 42
-1.4155845066
  0
ELLIPSE
  5
404
100
AcDbEntity
  8
0
100
AcDbEllipse
 62
7
  6
CONTINUOUS
 10
112.8334019353
 20
132.0874525341
 30
0.0
 11
17.25
 21
-0.0
 31
0.0
 40
0.3404254913
 41
0.1552118202
 42
0.1698983162
  0
ELLIPSE
  5
405
100
AcDbEntity
  8
0
100
AcDbEllipse
 62
7
  6
CONTINUOUS
 10
112.8334019353
 20
106.1442319727
 30
0.0
 11
-0.0
 21
52.0850008297
 31
0.0
 40
0.3263895503
 41
-1.1678212377
 42
-1.1624863287
  0
ELLIPSE
  5
406
100
AcDbEntity
  8
0
100
AcDbEllipse
 62
7
  6
CONTINUOUS
 10
112.8334019353
 20
146.7398926848
 30
0.0
 11
-0.0
 21
52.0850008297
 31
0.0
 40
0.3263895503
 41
-1.9791063249
 42
-1.9737714159
  0
ELLIPSE
  5
407
100
AcDbEntity
  8
0
100
AcDbEllipse
 62
7
  6
CONTINUOUS
 10
112.8334019353
 20
132.9527063055
 30
0.0
 11
-0.0
 21
17.3617166154
 31
0.0
 40
0.9791658496
 41
-1.9898133771
 42
-1.9791063249
  0
ELLIPSE
  5
408
100
AcDbEntity
  8
0
100
AcDbEllipse
 62
7
  6
CONTINUOUS
 10
112.8334019353
 20
128.2434803804
 30
0.0
 11
17.0
 21
-0.0
 31
0.0
 40
0.3404254913
 41
-0.4351744717
 42
-0.4190170503
  0
ELLIPSE
  5
409
100
AcDbEntity
  8
0
100
AcDbEllipse
 62
7
  6
CONTINUOUS
 10
112.8334019353
 20
144.6121315856
 30
0.0
 11
0.0
 21
88.0844238516
 31
0.0
 40
0.1958348508
 41
-1.784990827
 42
-1.7800495287
  0
ELLIPSE
  5
40A
100
AcDbEntity
  8
0
100
AcDbEllipse
 62
7
  6
CONTINUOUS
 10
112.8334019353
 20
123.3640486034
 30
0.0
 11
17.0
 21
0.0
 31
0.0
 40
0.3404254913
 41
0.6782752682
 42
0.6973086094
  0
ELLIPSE
  5
40B
100
AcDbEntity
  8
0
100
AcDbEllipse
 62
7
  6
CONTINUOUS
 10
112.8334019353
 20
116.101643262
 30
0.0
 11
-0.0
 21
17.3616917793
 31
0.0
 40
0.9791672503
 41
-0.9050489816
 42
-0.8925210586
  0
ELLIPSE
  5
40C
100
AcDbEntity
  8
0
100
AcDbEllipse
 62
7
  6
CONTINUOUS
 10
112.8334019353
 20
94.6548015148
 30
0.0
 11
-0.0
 21
52.0851498462
 31
0.0
 40
0.3263886165
 41
-0.9112668142
 42
-0.9050489816
  0
ELLIPSE
  5
40D
100
AcDbEntity
  8
0
100
AcDbEllipse
 62
7
  6
CONTINUOUS
 10
112.8334019353
 20
158.2293231427
 30
0.0
 11
-0.0
 21
52.0851498462
 31
0.0
 40
0.3263886165
 41
-2.236543672
 42
-2.2303258394
  0
ELLIPSE
  5
40E
100
AcDbEntity
  8
0
100
AcDbEllipse
 62
7
  6
CONTINUOUS
 10
112.8334019353
 20
136.7824813955
 30
0.0
 11
0.0
 21
17.3616917793
 31
0.0
 40
0.9791672503
 41
-2.249071595
 42
-2.236543672
  0
ELLIPSE
  5
40F
100
AcDbEntity
  8
0
100
AcDbEllipse
 62
7
  6
CONTINUOUS
 10
112.8334019353
 20
129.5200760541
 30
0.0
 11
17.0
 21
-0.0
 31
0.0
 40
0.3404254913
 41
-0.6973086094
 42
-0.6782752682
  0
ELLIPSE
  5
410
100
AcDbEntity
  8
0
100
AcDbEllipse
 62
7
  6
CONTINUOUS
 10
112.8334019353
 20
137.2931759045
 30
0.0
 11
-0.0
 21
52.8513084938
 31
0.0
 40
0.3263873779
 41
-1.7800495287
 42
-1.7751134666
  0
ELLIPSE
  5
411
100
AcDbEntity
  8
0
100
AcDbEllipse
 62
7
  6
CONTINUOUS
 10
112.8334019353
 20
133.7186436897
 30
0.0
 11
0.0
 21
35.2339711495
 31
0.0
 40
0.4895843255
 41
-1.7751134666
 42
-1.7652562815
  0
ELLIPSE
  5
412
100
AcDbEntity
  8
0
100
AcDbEllipse
 62
7
  6
CONTINUOUS
 10
112.8334019353
 20
123.027168013
 30
0.0
 11
0.0
 21
46.2446842637
 31
0.0
 40
0.3730158455
 41
-1.4302373274
 42
-1.3910866191
  0
ENDSEC
  0
SECTION
  2
OBJECTS
  0
DICTIONARY
  5
C
100
AcDbDictionary
280
0
281
1
  3
ACAD_GROUP
350
D
  3
ACAD_MLINESTYLE
350
17
  3
ACAD_LAYOUT
350
1A
  3
ACAD_PLOTSETTINGS
350
19
  3
ACAD_PLOTSTYLENAME
350
E
  0
DICTIONARY
  5
D
102
{ACAD_REACTORS
330
C
102
}
100
AcDbDictionary
280
0
281
1
  0
ACDBDICTIONARYWDFLT
  5
E
102
{ACAD_REACTORS
330
C
102
}
100
AcDbDictionary
281
1
  3
Normal
350
F
100
AcDbDictionaryWithDefault
340
F
  0
DICTIONARY
  5
17
102
{ACAD_REACTORS
330
C
102
}
100
AcDbDictionary
280
0
281
1
  3
Standard
350
18
  0
DICTIONARY
  5
19
102
{ACAD_REACTORS
330
C
102
}
100
AcDbDictionary
281
1
  0
DICTIONARY
  5
1A
102
{ACAD_REACTORS
330
C
102
}
100
AcDbDictionary
281
1
  3
Model
350
413
  3
Layout1
350
414
  0
ACDBPLACEHOLDER
  5
F
102
{ACAD_REACTORS
330
E
102
}
  0
MLINESTYLE
  5
18
102
{ACAD_REACTORS
330
17
102
}
100
AcDbMlineStyle
  2
STANDARD
 70
0
  3

 62
256
 51
90.0
 52
90.0
 71
2
 49
0.5
 62
256
  6
BYLAYER
 49
-0.5
 62
256
  6
BYLAYER
  0
LAYOUT
  5
413
102
{ACAD_REACTORS
330
1A
102
}
100
AcDbPlotSettings
  1

  2
none_device
  4
ISO_A4_(297.00_x_210.00_MM)
  6

 40
0.0
 41
0.0
 42
0.0
 43
0.0
 44
297.0
 45
210.0
 46
0.0
 47
0.0
 48
0.0
 49
0.0
140
0.0
141
0.0
142
1.0
143
1.0
 70
1024
 72
1
 73
0
 74
0
  7

 75
0
147
1.0
148
0.0
149
0.0
100
AcDbLayout
  1
Model
 70
0
 71
0
 10
0.0
 20
0.0
 11
297.0
 21
210.0
 12
0.0
 22
0.0
 32
0.0
 14
0.0
 24
0.0
 34
0.0
 15
0.0
 25
0.0
 35
0.0
146
0.0
 13
0.0
 23
0.0
 33
0.0
 16
1.0
 26
0.0
 36
0.0
 17
0.0
 27
1.0
 37
0.0
 76
0
330
20A
345
0
346
0
  0
LAYOUT
  5
414
102
{ACAD_REACTORS
330
1A
102
}
100
AcDbPlotSettings
  1

  2
none_device
  4
ISO_A4_(297.00_x_210.00_MM)
  6

 40
0.0
 41
0.0
 42
0.0
 43
0.0
 44
297.0
 45
210.0
 46
0.0
 47
0.0
 48
0.0
 49
0.0
140
0.0
141
0.0
142
1.0
143
1.0
 70
0
 72
1
 73
0
 74
0
  7

 75
0
147
1.0
148
0.0
149
0.0
100
AcDbLayout
  1
Layout1
 70
0
 71
1
 10
0.0
 20
0.0
 11
297.0
 21
210.0
 12
0.0
 22
0.0
 32
0.0
 14
0.0
 24
0.0
 34
0.0
 15
0.0
 25
0.0
 35
0.0
146
0.0
 13
0.0
 23
0.0
 33
0.0
 16
1.0
 26
0.0
 36
0.0
 17
0.0
 27
1.0
 37
0.0
 76
0
330
20B
345
0
346
0
  0
ENDSEC
  0
EOF
